  0
SECTION
  2
HEADER
  9
$ACADVER
  1
AC1009
  9
$INSBASE
 10
0
 20
0
 30
0
  9
$EXTMIN
 10
0
 20
0
  9
$EXTMAX
 10
420
 20
297
  9
$LIMMIN
 10
0
 20
0
  9
$LIMMAX
 10
420
 20
297
  9
$LTSCALE
 40
1
  0
ENDSEC
  0
SECTION
  2
TABLES
  0
TABLE
  2
LTYPE
 70
     9
  0
LTYPE
  2
CONTINUOUS
 70
    64
  3
実線
 72
    65
 73
     0
 40
0.0
  0
LTYPE
  2
DASHED1
 70
    64
  3
--  --  --  --  --  --  --  --  
 72
    65
 73
     2
 40
2.5
 49
1.25
 49
-1.25
  0
LTYPE
  2
DASHED2
 70
    64
  3
----    ----    ----    ----    
 72
    65
 73
     2
 40
5.0
 49
2.5
 49
-2.5
  0
LTYPE
  2
DASHED3
 70
    64
  3
------  ------  ------  ------  
 72
    65
 73
     2
 40
5.0
 49
3.75
 49
-1.25
  0
LTYPE
  2
CENTER1
 70
    64
  3
----- - ----- - ----- - ----- - 
 72
    65
 73
     4
 40
10.0
 49
6.25
 49
-1.25
 49
1.25
 49
-1.25
  0
LTYPE
  2
CENTER2
 70
    64
  3
----------  --  ----------  --  
 72
    65
 73
     4
 40
20.0
 49
12.5
 49
-2.5
 49
2.5
 49
-2.5
  0
LTYPE
  2
PHANTOM1
 70
    64
  3
--- - - --- - - --- - - --- - - 
 72
    65
 73
     6
 40
10.0
 49
3.25
 49
-1.25
 49
1.25
 49
-1.25
 49
1.25
 49
-1.25
  0
LTYPE
  2
PHANTOM2
 70
    64
  3
--------  -  -  --------  -  -  
 72
    65
 73
     6
 40
20.0
 49
10.0
 49
-2.5
 49
1.25
 49
-2.5
 49
1.25
 49
-2.5
  0
LTYPE
  2
DOT
 70
    64
  3
-   -   -   -   -   -   -   -   
 72
    65
 73
     2
 40
2.5
 49
0.625
 49
-1.875
  0
LTYPE
  2
DUMMY
 70
    64
  3
ダミー
 72
    65
 73
     0
 40
0.0
  0
LTYPE
  2
RAND1
 70
    64
  3
ランダム線1
 72
    65
 73
     4
 40
10.0
 49
1.0
 49
-2.0
 49
3.0
 49
-4.0
  0
LTYPE
  2
RAND2
 70
    64
  3
ランダム線2
 72
    65
 73
     4
 40
14.0
 49
2.0
 49
-3.0
 49
4.0
 49
-5.0
  0
LTYPE
  2
RAND3
 70
    64
  3
ランダム線3
 72
    65
 73
     4
 40
18.0
 49
3.0
 49
-4.0
 49
5.0
 49
-6.0
  0
LTYPE
  2
RAND4
 70
    64
  3
ランダム線4
 72
    65
 73
     4
 40
22.0
 49
4.0
 49
-5.0
 49
6.0
 49
-7.0
  0
LTYPE
  2
RAND5
 70
    64
  3
ランダム線5
 72
    65
 73
     4
 40
26.0
 49
5.0
 49
-6.0
 49
7.0
 49
-8.0
  0
LTYPE
  2
LONG1
 70
    64
  3
----------  --  ----------  --  
 72
    65
 73
     4
 40
40.0
 49
32.5
 49
-2.5
 49
2.5
 49
-2.5
  0
LTYPE
  2
LONG2
 70
    64
  3
--------  -  -  --------  -  -  
 72
    65
 73
     6
 40
40.0
 49
30.0
 49
-2.5
 49
1.25
 49
-2.5
 49
1.25
 49
-2.5
  0
LTYPE
  2
LONG3
 70
    64
  3
+++++++++++++++..+++++++++++++++
 72
    65
 73
     2
 40
40.0
 49
37.5
 49
-2.5
  0
LTYPE
  2
LONG4
 70
    64
  3
+++++++++++++++..+++++++++++++++
 72
    65
 73
     2
 40
80.0
 49
75.0
 49
-5.0
  0
LTYPE
  2
LONG5
 70
    64
  3
----------  --  ----------  --  
 72
    65
 73
     4
 40
60.0
 49
37.5
 49
-7.5
 49
7.5
 49
-7.5
  0
LTYPE
  2
dashed
 70
   64
  3
-------   -------------   ------
 72
   65
 73
    2
 40
7.5
 49
6
 49
-1.5
  0
LTYPE
  2
dashed_spaced
 70
   64
  3
----        --------        ----
 72
   65
 73
    2
 40
12
 49
6
 49
-6
  0
LTYPE
  2
long_dashed_dotted
 70
   64
  3
------------- --- --------------
 72
   65
 73
    4
 40
15.25
 49
12
 49
-1.5
 49
0.25
 49
-1.5
  0
LTYPE
  2
long_dashed_double-dotted
 70
   64
  3
----------- --- --- ------------
 72
   65
 73
    6
 40
17
 49
12
 49
-1.5
 49
0.25
 49
-1.5
 49
0.25
 49
-1.5
  0
LTYPE
  2
long_dashed_triplicate-dotted
 70
   64
  3
--------- --- --- --- ----------
 72
   65
 73
    8
 40
18.75
 49
12
 49
-1.5
 49
0.25
 49
-1.5
 49
0.25
 49
-1.5
 49
0.25
 49
-1.5
  0
LTYPE
  2
dotted
 70
   64
  3
   -       -       -       -    
 72
   65
 73
    2
 40
1.75
 49
0.25
 49
-1.5
  0
LTYPE
  2
chain
 70
   64
  3
-------------- -- --------------
 72
   65
 73
    4
 40
18.5
 49
12
 49
-1.5
 49
3.5
 49
-1.5
  0
LTYPE
  2
chain_double_dash
 70
   64
  3
------------ -- -- -------------
 72
   65
 73
    6
 40
23.5
 49
12
 49
-1.5
 49
3.5
 49
-1.5
 49
3.5
 49
-1.5
  0
LTYPE
  2
dashed_dotted
 70
   64
  3
-----------     -     ----------
 72
   65
 73
    4
 40
9.25
 49
6
 49
-1.5
 49
0.25
 49
-1.5
  0
LTYPE
  2
double-dashed_dotted
 70
   64
  3
------   -----------   -   -----
 72
   65
 73
    6
 40
16.75
 49
6
 49
-1.5
 49
6
 49
-1.5
 49
0.25
 49
-1.5
  0
LTYPE
  2
dashed_double-dotted
 70
   64
  3
---------    -    -    ---------
 72
   65
 73
    6
 40
11
 49
6
 49
-1.5
 49
0.25
 49
-1.5
 49
0.25
 49
-1.5
  0
LTYPE
  2
double-dashed_double-dotted
 70
   64
  3
-----   ---------   -   -   ----
 72
   65
 73
    8
 40
18.5
 49
6
 49
-1.5
 49
6
 49
-1.5
 49
0.25
 49
-1.5
 49
0.25
 49
-1.5
  0
LTYPE
  2
dashed_triplicate-dotted
 70
   64
  3
-------    -    -    -    ------
 72
   65
 73
    8
 40
12.75
 49
6
 49
-1.5
 49
0.25
 49
-1.5
 49
0.25
 49
-1.5
 49
0.25
 49
-1.5
  0
LTYPE
  2
double-dashed_triplicate-dotted
 70
   64
  3
-----  ---------  -  -  -  -----
 72
   65
 73
   10
 40
20.25
 49
6
 49
-1.5
 49
6
 49
-1.5
 49
0.25
 49
-1.5
 49
0.25
 49
-1.5
 49
0.25
 49
-1.5
  0
LTYPE
  2
undefined
 70
   64
  3
--------------------------------
 72
   65
 73
    0
 40
0
  0
ENDTAB
  0
TABLE
  2
STYLE
  5
3
100
AcDbSymbolTable
 70
     1
  0
STYLE
  5
10
100
AcDbSymbolTableRecord
100
AcDbTextStyleTableRecord
  2
STANDARD
 70
     0
 40
0.0
 41
1.0
 50
0.0
 71
     0
 42
0.2
  3
txt
  4
bigfont.shx
  0
STYLE
  5
26
100
AcDbSymbolTableRecord
100
AcDbTextStyleTableRecord
  2
TATEGAKI
 70
    68
 40
0.0
 41
1.0
 50
0.0
 71
     0
 42
1.0
  3
txt
  4
bigfont.shx
  0
ENDTAB
  0
TABLE
  2
LAYER
 70
    8
  0
LAYER
  2
_0-0_図面枠
 70
   64
 62
    7
  6
CONTINUOUS
  0
LAYER
  2
_1-0_躯体
 70
   64
 62
    7
  6
CONTINUOUS
  0
LAYER
  2
_1-3_止水補助板
 70
   64
 62
    7
  6
CONTINUOUS
  0
LAYER
  2
_1-4_フレ__ム
 70
   64
 62
    7
  6
CONTINUOUS
  0
LAYER
  2
_1-7_カバ__
 70
   64
 62
    7
  6
CONTINUOUS
  0
LAYER
  2
_1-8_小物
 70
   64
 62
    7
  6
CONTINUOUS
  0
LAYER
  2
_1-f_寸法
 70
   64
 62
    7
  6
CONTINUOUS
  0
LAYER
  2
ADD_LINE
 70
   64
 62
    7
  6
CONTINUOUS
  0
ENDTAB
  0
ENDSEC
  0
SECTION
  2
BLOCKS
  0
BLOCK
  2
-000-
 70
   64
 10
0
 20
0
 30
0
  0
LINE
  8
_0-0_図面枠
  6
CONTINUOUS
 62
    7
 10
-21.739611258569283
 20
123.45090259426559
 11
-22.269941344419294
 21
123.1447495523156
  0
LINE
  8
_0-0_図面枠
  6
CONTINUOUS
 62
    7
 10
-20.833744600669291
 20
121.49924270821555
 11
-21.739611258569283
 21
123.45090259426559
  0
LINE
  8
_0-0_図面枠
  6
CONTINUOUS
 62
    7
 10
-24.214484992719292
 20
122.02218839856556
 11
-20.833744600669291
 21
121.49924270821555
  0
LINE
  8
_0-0_図面枠
  6
CONTINUOUS
 62
    7
 10
-23.684154906819288
 20
122.3283414405156
 11
-24.214484992719292
 21
122.02218839856556
  0
LINE
  8
_0-0_図面枠
  6
CONTINUOUS
 62
    7
 10
-28.280348984519293
 20
124.98166780391557
 11
-23.684154906819288
 21
122.3283414405156
  0
LINE
  8
_0-0_図面枠
  6
CONTINUOUS
 62
    7
 10
-32.87654306221927
 20
122.3283414405156
 11
-28.280348984519293
 21
124.98166780391557
  0
LINE
  8
_0-0_図面枠
  6
CONTINUOUS
 62
    7
 10
-32.346212976369287
 20
122.02218839856556
 11
-32.87654306221927
 21
122.3283414405156
  0
LINE
  8
_0-0_図面枠
  6
CONTINUOUS
 62
    7
 10
-35.726953368369294
 20
121.49924270821555
 11
-32.346212976369287
 21
122.02218839856556
  0
LINE
  8
_0-0_図面枠
  6
CONTINUOUS
 62
    7
 10
-34.821086710519324
 20
123.45090259426559
 11
-35.726953368369294
 21
121.49924270821555
  0
LINE
  8
_0-0_図面枠
  6
CONTINUOUS
 62
    7
 10
-34.29075662461932
 20
123.1447495523156
 11
-34.821086710519324
 21
123.45090259426559
  0
LINE
  8
_0-0_図面枠
  6
CONTINUOUS
 62
    7
 10
-29.694562546919286
 20
125.79807591576559
 11
-34.29075662461932
 21
123.1447495523156
  0
LINE
  8
_0-0_図面枠
  6
CONTINUOUS
 62
    7
 10
-34.29075662461932
 20
128.45140227916556
 11
-29.694562546919286
 21
125.79807591576559
  0
LINE
  8
_0-0_図面枠
  6
CONTINUOUS
 62
    7
 10
-34.821086710519324
 20
128.1452492372656
 11
-34.29075662461932
 21
128.45140227916556
  0
LINE
  8
_0-0_図面枠
  6
CONTINUOUS
 62
    7
 10
-35.726953368369294
 20
130.09690912331558
 11
-34.821086710519324
 21
128.1452492372656
  0
LINE
  8
_0-0_図面枠
  6
CONTINUOUS
 62
    7
 10
-32.346212976369287
 20
129.57396343296557
 11
-35.726953368369294
 21
130.09690912331558
  0
LINE
  8
_0-0_図面枠
  6
CONTINUOUS
 62
    7
 10
-32.87654306221927
 20
129.26781039101559
 11
-32.346212976369287
 21
129.57396343296557
  0
LINE
  8
_0-0_図面枠
  6
CONTINUOUS
 62
    7
 10
-28.280348984519293
 20
126.6144840275656
 11
-32.87654306221927
 21
129.26781039101559
  0
LINE
  8
_0-0_図面枠
  6
CONTINUOUS
 62
    7
 10
-23.684154906819288
 20
129.26781039101559
 11
-28.280348984519293
 21
126.6144840275656
  0
LINE
  8
_0-0_図面枠
  6
CONTINUOUS
 62
    7
 10
-24.214484992719292
 20
129.57396343296557
 11
-23.684154906819288
 21
129.26781039101559
  0
LINE
  8
_0-0_図面枠
  6
CONTINUOUS
 62
    7
 10
-20.833744600669291
 20
130.09690912331558
 11
-24.214484992719292
 21
129.57396343296557
  0
LINE
  8
_0-0_図面枠
  6
CONTINUOUS
 62
    7
 10
-21.739611258569283
 20
128.1452492372656
 11
-20.833744600669291
 21
130.09690912331558
  0
LINE
  8
_0-0_図面枠
  6
CONTINUOUS
 62
    7
 10
-22.269941344419294
 20
128.45140227916556
 11
-21.739611258569283
 21
128.1452492372656
  0
LINE
  8
_0-0_図面枠
  6
CONTINUOUS
 62
    7
 10
-26.866135422169293
 20
125.79807591576559
 11
-22.269941344419294
 21
128.45140227916556
  0
LINE
  8
_0-0_図面枠
  6
CONTINUOUS
 62
    7
 10
-22.269941344419294
 20
123.1447495523156
 11
-26.866135422169293
 21
125.79807591576559
  0
LINE
  8
_0-0_図面枠
  6
CONTINUOUS
 62
    7
 10
-35.726953368369294
 20
121.49924270821555
 11
-35.726953368369294
 21
120.88683709931558
  0
LINE
  8
_0-0_図面枠
  6
CONTINUOUS
 62
    7
 10
-32.346212976369287
 20
122.02218839856556
 11
-32.346212976369287
 21
121.4097827896656
  0
LINE
  8
_0-0_図面枠
  6
CONTINUOUS
 62
    7
 10
-35.726953368369294
 20
120.88683709931558
 11
-32.346212976369287
 21
121.4097827896656
  0
LINE
  8
_0-0_図面枠
  6
CONTINUOUS
 62
    7
 10
-24.214484992719292
 20
122.02218839856556
 11
-24.214484992719292
 21
121.4097827896656
  0
LINE
  8
_0-0_図面枠
  6
CONTINUOUS
 62
    7
 10
-20.833744600669291
 20
121.49924270821555
 11
-20.833744600669291
 21
120.88683709931558
  0
LINE
  8
_0-0_図面枠
  6
CONTINUOUS
 62
    7
 10
-24.214484992719292
 20
121.4097827896656
 11
-20.833744600669291
 21
120.88683709931558
  0
LINE
  8
_0-0_図面枠
  6
CONTINUOUS
 62
    7
 10
-28.280348984519293
 20
124.98166780391557
 11
-28.280348984519293
 21
124.36926219501561
  0
LINE
  8
_0-0_図面枠
  6
CONTINUOUS
 62
    7
 10
-32.346212976369287
 20
122.0220888735156
 11
-28.280348984519293
 21
124.36926219501561
  0
LINE
  8
_0-0_図面枠
  6
CONTINUOUS
 62
    7
 10
-28.280348984519293
 20
124.36926219501561
 11
-24.214484992719292
 21
122.0220888735156
  0
LINE
  8
_0-0_図面枠
  6
CONTINUOUS
 62
    7
 10
-34.29075662461932
 20
128.45140227916556
 11
-34.29075662461932
 21
127.8389966702656
  0
LINE
  8
_0-0_図面枠
  6
CONTINUOUS
 62
    7
 10
-34.29075662461932
 20
127.8389966702656
 11
-30.224978833369306
 21
125.49187311131561
  0
LINE
  8
_0-0_図面枠
  6
CONTINUOUS
 62
    7
 10
-22.269941344419294
 20
128.45140227916556
 11
-22.269941344419294
 21
127.8389966702656
  0
LINE
  8
_0-0_図面枠
  6
CONTINUOUS
 62
    7
 10
-26.335719135719302
 20
125.49187311131561
 11
-22.269941344419294
 21
127.8389966702656
  0
LINE
  8
_0-0_図面枠
  6
CONTINUOUS
 62
    7
 10
-21.739611258569283
 20
128.1452492372656
 11
-21.739611258569283
 21
127.53284362831556
  0
LINE
  8
_0-0_図面枠
  6
CONTINUOUS
 62
    7
 10
-22.269941344419294
 20
127.8389966702656
 11
-21.739611258569283
 21
127.53284362831556
  0
LINE
  8
_0-0_図面枠
  6
CONTINUOUS
 62
    7
 10
-20.833744600669291
 20
130.09690912331558
 11
-20.833744600669291
 21
129.48450351441556
  0
LINE
  8
_0-0_図面枠
  6
CONTINUOUS
 62
    7
 10
-21.739611258569283
 20
127.53284362831556
 11
-20.833744600669291
 21
129.48450351441556
  0
LINE
  8
_0-0_図面枠
  6
CONTINUOUS
 62
    7
 10
-34.821086710519324
 20
128.1452492372656
 11
-34.821086710519324
 21
127.53284362831556
  0
LINE
  8
_0-0_図面枠
  6
CONTINUOUS
 62
    7
 10
-34.821086710519324
 20
127.53284362831556
 11
-34.29075662461932
 21
127.8389966702656
  0
LINE
  8
_0-0_図面枠
  6
CONTINUOUS
 62
    7
 10
-35.726953368369294
 20
130.09690912331558
 11
-35.726953368369294
 21
129.48450351441556
  0
LINE
  8
_0-0_図面枠
  6
CONTINUOUS
 62
    7
 10
-35.726953368369294
 20
129.48450351441556
 11
-34.821086710519324
 21
127.53284362831556
  0
LINE
  8
_0-0_図面枠
  6
CONTINUOUS
 62
    7
 10
-24.214484992719292
 20
129.57396343296557
 11
-24.214484992719292
 21
128.9616573490656
  0
LINE
  8
_0-0_図面枠
  6
CONTINUOUS
 62
    7
 10
-32.346212976369287
 20
129.57396343296557
 11
-32.346212976369287
 21
128.9616573490656
  0
LINE
  8
ADD_LINE
  6
DOT
 62
    4
 10
-35.726953368369294
 20
130.09690912331558
 11
-20.834148028223836
 21
121.49854395119388
  0
LINE
  8
ADD_LINE
  6
DOT
 62
    4
 10
-20.833744600669291
 20
130.09690912331558
 11
-35.726549940814749
 21
121.49854395119388
  0
ENDBLK
  0
BLOCK
  2
-001-_1_
 70
   64
 10
0
 20
0
 30
0
  0
LINE
  8
_1-8_小物
  6
CONTINUOUS
 62
    4
 10
-81.530574999999658
 20
41.906724999999881
 11
-81.495685000000208
 21
41.24097166666661
  0
LINE
  8
_1-8_小物
  6
CONTINUOUS
 62
    4
 10
-81.582911666666746
 20
42.905354999999872
 11
-82.231218333333231
 21
42.53758833333319
  0
LINE
  8
_1-8_小物
  6
CONTINUOUS
 62
    4
 10
-82.231218333333231
 20
42.53758833333319
 11
-82.196328333333099
 21
41.871834999999919
  0
LINE
  8
_1-8_小物
  6
CONTINUOUS
 62
    4
 10
-82.196328333333099
 20
41.871834999999919
 11
-81.530574999999658
 21
41.906724999999881
  0
LINE
  8
_1-8_小物
  6
CONTINUOUS
 62
    4
 10
-81.617801666666651
 20
43.571108333333314
 11
-81.582911666666746
 21
42.905354999999872
  0
LINE
  8
_1-8_小物
  6
CONTINUOUS
 62
    4
 10
-81.670138333333284
 20
44.569736666666643
 11
-82.318445000000224
 21
44.201969999999676
  0
LINE
  8
_1-8_小物
  6
CONTINUOUS
 62
    4
 10
-82.318445000000224
 20
44.201969999999676
 11
-82.283554999999865
 21
43.536216666666633
  0
LINE
  8
_1-8_小物
  6
CONTINUOUS
 62
    4
 10
-82.283554999999865
 20
43.536216666666633
 11
-81.617801666666651
 21
43.571108333333314
  0
LINE
  8
_1-8_小物
  6
CONTINUOUS
 62
    4
 10
-81.705028333333416
 20
45.235490000000027
 11
-81.670138333333284
 21
44.569736666666643
  0
LINE
  8
_1-8_小物
  6
CONTINUOUS
 62
    4
 10
-81.757364999999822
 20
46.234119999999677
 11
-82.405671666666308
 21
45.866353333333336
  0
LINE
  8
_1-8_小物
  6
CONTINUOUS
 62
    4
 10
-82.405671666666308
 20
45.866353333333336
 11
-82.370781666666858
 21
45.200599999999952
  0
LINE
  8
_1-8_小物
  6
CONTINUOUS
 62
    4
 10
-82.370781666666858
 20
45.200599999999952
 11
-81.705028333333416
 21
45.235490000000027
  0
LINE
  8
_1-8_小物
  6
CONTINUOUS
 62
    4
 10
-81.792254999999955
 20
46.899873333333289
 11
-81.757364999999822
 21
46.234119999999677
  0
LINE
  8
_1-8_小物
  6
CONTINUOUS
 62
    4
 10
-81.844591666666588
 20
47.898503333333338
 11
-82.492898333333301
 21
47.530734999999879
  0
LINE
  8
_1-8_小物
  6
CONTINUOUS
 62
    4
 10
-82.492898333333301
 20
47.530734999999879
 11
-82.458008333333396
 21
46.864981666666608
  0
LINE
  8
_1-8_小物
  6
CONTINUOUS
 62
    4
 10
-82.458008333333396
 20
46.864981666666608
 11
-81.792254999999955
 21
46.899873333333289
  0
LINE
  8
_1-8_小物
  6
CONTINUOUS
 62
    4
 10
-81.879481666666493
 20
48.564254999999832
 11
-81.844591666666588
 21
47.898503333333338
  0
LINE
  8
_1-8_小物
  6
CONTINUOUS
 62
    4
 10
-82.580125000000066
 20
49.195118333333141
 11
-82.545234999999934
 21
48.529364999999871
  0
LINE
  8
_1-8_小物
  6
CONTINUOUS
 62
    4
 10
-82.545234999999934
 20
48.529364999999871
 11
-81.879481666666493
 21
48.564254999999832
  0
LINE
  8
_1-8_小物
  6
CONTINUOUS
 62
    4
 10
-81.999999999999886
 20
49.5
 11
-82.580125000000066
 21
49.195118333333141
  0
LINE
  8
_1-8_小物
  6
CONTINUOUS
 62
    4
 10
-85.13609166666663
 20
41.906724999999881
 11
-85.170981666666535
 21
41.24097166666661
  0
LINE
  8
_1-8_小物
  6
CONTINUOUS
 62
    4
 10
-85.083754999999996
 20
42.905354999999872
 11
-84.435448333333284
 21
42.53758833333319
  0
LINE
  8
_1-8_小物
  6
CONTINUOUS
 62
    4
 10
-84.435448333333284
 20
42.53758833333319
 11
-84.470338333333416
 21
41.871834999999919
  0
LINE
  8
_1-8_小物
  6
CONTINUOUS
 62
    4
 10
-84.470338333333416
 20
41.871834999999919
 11
-85.13609166666663
 21
41.906724999999881
  0
LINE
  8
_1-8_小物
  6
CONTINUOUS
 62
    4
 10
-85.048864999999637
 20
43.571108333333314
 11
-85.083754999999996
 21
42.905354999999872
  0
LINE
  8
_1-8_小物
  6
CONTINUOUS
 62
    4
 10
-84.996528333333458
 20
44.569736666666643
 11
-84.348221666666745
 21
44.201969999999676
  0
LINE
  8
_1-8_小物
  6
CONTINUOUS
 62
    4
 10
-84.348221666666745
 20
44.201969999999676
 11
-84.383111666666423
 21
43.536216666666633
  0
LINE
  8
_1-8_小物
  6
CONTINUOUS
 62
    4
 10
-84.383111666666423
 20
43.536216666666633
 11
-85.048864999999637
 21
43.571108333333314
  0
LINE
  8
_1-8_小物
  6
CONTINUOUS
 62
    4
 10
-84.961638333333553
 20
45.235490000000027
 11
-84.996528333333458
 21
44.569736666666643
  0
LINE
  8
_1-8_小物
  6
CONTINUOUS
 62
    4
 10
-84.90930166666692
 20
46.234119999999677
 11
-84.26099499999998
 21
45.866353333333336
  0
LINE
  8
_1-8_小物
  6
CONTINUOUS
 62
    4
 10
-84.26099499999998
 20
45.866353333333336
 11
-84.295884999999885
 21
45.200599999999952
  0
LINE
  8
_1-8_小物
  6
CONTINUOUS
 62
    4
 10
-84.295884999999885
 20
45.200599999999952
 11
-84.961638333333553
 21
45.235490000000027
  0
LINE
  8
_1-8_小物
  6
CONTINUOUS
 62
    4
 10
-84.87441166666656
 20
46.899873333333289
 11
-84.90930166666692
 21
46.234119999999677
  0
LINE
  8
_1-8_小物
  6
CONTINUOUS
 62
    4
 10
-84.8220749999997
 20
47.898503333333338
 11
-84.173768333332987
 21
47.530734999999879
  0
LINE
  8
_1-8_小物
  6
CONTINUOUS
 62
    4
 10
-84.173768333332987
 20
47.530734999999879
 11
-84.208658333333346
 21
46.864981666666608
  0
LINE
  8
_1-8_小物
  6
CONTINUOUS
 62
    4
 10
-84.208658333333346
 20
46.864981666666608
 11
-84.87441166666656
 21
46.899873333333289
  0
LINE
  8
_1-8_小物
  6
CONTINUOUS
 62
    4
 10
-84.787185000000022
 20
48.564254999999832
 11
-84.8220749999997
 21
47.898503333333338
  0
LINE
  8
_1-8_小物
  6
CONTINUOUS
 62
    4
 10
-84.086541666666449
 20
49.195118333333141
 11
-84.121431666666808
 21
48.529364999999871
  0
LINE
  8
_1-8_小物
  6
CONTINUOUS
 62
    4
 10
-84.121431666666808
 20
48.529364999999871
 11
-84.787185000000022
 21
48.564254999999832
  0
LINE
  8
_1-8_小物
  6
CONTINUOUS
 62
    4
 10
-83.353101666666475
 20
41.519768333333161
 11
-82.708535000000097
 21
42.091658333333271
  0
LINE
  8
_1-8_小物
  6
CONTINUOUS
 62
    4
 10
-83.956481666666718
 20
42.123146666666628
 11
-83.333333333332916
 21
41.499999999999829
  0
LINE
  8
_1-8_小物
  6
CONTINUOUS
 62
    4
 10
-84.666666666666401
 20
49.5
 11
-84.086541666666449
 21
49.195118333333141
  0
LINE
  8
_1-8_小物
  6
CONTINUOUS
 62
    4
 10
-81.792254999999955
 20
46.899873333333289
 11
-81.227133333333427
 21
48.452533333333122
  0
LINE
  8
_1-8_小物
  6
CONTINUOUS
 62
    4
 10
-82.14698166666642
 20
46.899873333333289
 11
-81.540363333333175
 21
48.566539999999861
  0
LINE
  8
_1-8_小物
  6
CONTINUOUS
 62
    4
 10
-84.87441166666656
 20
46.899873333333289
 11
-85.439533333333088
 21
48.452533333333122
  0
LINE
  8
_1-8_小物
  6
CONTINUOUS
 62
    4
 10
-84.519685000000095
 20
46.899873333333289
 11
-85.12630333333334
 21
48.566539999999861
  0
LINE
  8
_1-8_小物
  6
CONTINUOUS
 62
    4
 10
-82.66075166666667
 20
41.179913333333161
 11
-81.495685000000208
 21
41.24097166666661
  0
LINE
  8
_1-8_小物
  6
CONTINUOUS
 62
    4
 10
-81.495685000000208
 20
41.24097166666661
 11
-82.126546666666741
 21
40.540328333333321
  0
LINE
  8
_1-8_小物
  6
CONTINUOUS
 62
    4
 10
-82.126546666666741
 20
40.540328333333321
 11
-82.62586166666631
 21
40.514159999999777
  0
LINE
  8
_1-8_小物
  6
CONTINUOUS
 62
    4
 10
-82.62586166666631
 20
40.514159999999777
 11
-83.166666666666401
 21
50.833333333333087
  0
LINE
  8
_1-8_小物
  6
CONTINUOUS
 62
    4
 10
-81.999999999999886
 20
49.5
 11
-81.999999999999886
 21
50.833333333333087
  0
LINE
  8
_1-8_小物
  6
CONTINUOUS
 62
    4
 10
-84.005915000000073
 20
41.179913333333161
 11
-85.170981666666535
 21
41.24097166666661
  0
LINE
  8
_1-8_小物
  6
CONTINUOUS
 62
    4
 10
-85.170981666666535
 20
41.24097166666661
 11
-84.540120000000002
 21
40.540328333333321
  0
LINE
  8
_1-8_小物
  6
CONTINUOUS
 62
    4
 10
-84.540120000000002
 20
40.540328333333321
 11
-84.040804999999978
 21
40.514159999999777
  0
LINE
  8
_1-8_小物
  6
CONTINUOUS
 62
    4
 10
-84.040804999999978
 20
40.514159999999777
 11
-83.499999999999886
 21
50.833333333333087
  0
LINE
  8
_1-8_小物
  6
CONTINUOUS
 62
    4
 10
-84.666666666666401
 20
49.5
 11
-84.666666666666401
 21
50.833333333333087
  0
LINE
  8
_1-8_小物
  6
CONTINUOUS
 62
    4
 10
-85.439533333333088
 20
48.452533333333122
 11
-85.770318333333194
 21
50.720406666666804
  0
ARC
  8
_1-8_小物
  6
CONTINUOUS
 62
    4
 10
-85.638381666666533
 20
50.739651666666589
 40
0.1333333333333333
 50
98.130101999958129
 51
188.29846599999897
  0
LINE
  8
_1-8_小物
  6
CONTINUOUS
 62
    4
 10
-85.657238333333567
 20
50.871644999999944
 11
-85.591629999999782
 21
50.88101666666671
  0
ARC
  8
_1-8_小物
  6
CONTINUOUS
 62
    4
 10
-85.572773333332975
 20
50.749023333333298
 40
0.1333333333333333
 50
8.1301020000159863
 51
98.130102000226714
  0
LINE
  8
_1-8_小物
  6
CONTINUOUS
 62
    4
 10
-85.440779999999791
 20
50.767879999999877
 11
-85.12630333333334
 21
48.566539999999861
  0
LINE
  8
_1-8_小物
  6
CONTINUOUS
 62
    4
 10
-81.227133333333427
 20
48.452533333333122
 11
-80.896348333333322
 21
50.720406666666804
  0
ARC
  8
_1-8_小物
  6
CONTINUOUS
 62
    4
 10
-81.028284999999983
 20
50.739651666666589
 40
0.1333333333333333
 50
351.70153399996303
 51
81.869898000047954
  0
LINE
  8
_1-8_小物
  6
CONTINUOUS
 62
    4
 10
-81.009429999999952
 20
50.871644999999944
 11
-81.075036666666733
 21
50.88101666666671
  0
ARC
  8
_1-8_小物
  6
CONTINUOUS
 62
    4
 10
-81.093893333333085
 20
50.749023333333298
 40
0.1333333333333333
 50
81.869898000046192
 51
171.86989800000993
  0
LINE
  8
_1-8_小物
  6
CONTINUOUS
 62
    4
 10
-81.225886666666725
 20
50.767879999999877
 11
-81.540363333333175
 21
48.566539999999861
  0
LINE
  8
_1-8_小物
  6
CONTINUOUS
 62
    4
 10
-81.227133333333427
 20
48.452533333333122
 11
-80.896348333333322
 21
50.720406666666804
  0
ARC
  8
_1-8_小物
  6
CONTINUOUS
 62
    4
 10
-81.028284999999983
 20
50.739651666666589
 40
0.1333333333333333
 50
351.70153399996303
 51
81.869898000047954
  0
LINE
  8
_1-8_小物
  6
CONTINUOUS
 62
    4
 10
-81.009429999999952
 20
50.871644999999944
 11
-81.075036666666733
 21
50.88101666666671
  0
ARC
  8
_1-8_小物
  6
CONTINUOUS
 62
    4
 10
-81.093893333333085
 20
50.749023333333298
 40
0.1333333333333333
 50
81.869898000046192
 51
171.86989800000993
  0
LINE
  8
_1-8_小物
  6
CONTINUOUS
 62
    4
 10
-81.225886666666725
 20
50.767879999999877
 11
-81.540363333333175
 21
48.566539999999861
  0
LINE
  8
_1-8_小物
  6
CONTINUOUS
 62
    4
 10
-81.666666666666401
 20
53.5
 11
-81.999999999999886
 21
51.833333333333314
  0
LINE
  8
_1-8_小物
  6
CONTINUOUS
 62
    4
 10
-81.999999999999886
 20
53.5
 11
-81.999999999999886
 21
50.833333333333087
  0
LINE
  8
_1-8_小物
  6
CONTINUOUS
 62
    4
 10
-83.166666666666401
 20
50.833333333333087
 11
-83.333333333332916
 21
50.833333333333087
  0
LINE
  8
_1-8_小物
  6
CONTINUOUS
 62
    4
 10
-83.333333333332916
 20
51.833333333333314
 11
-83.333333333332916
 21
53.5
  0
LINE
  8
_1-8_小物
  6
CONTINUOUS
 62
    4
 10
-82.999999999999886
 20
53.5
 11
-83.333333333332916
 21
51.833333333333314
  0
LINE
  8
_1-8_小物
  6
CONTINUOUS
 62
    4
 10
-83.666666666666629
 20
53.5
 11
-83.333333333332916
 21
51.833333333333314
  0
LINE
  8
_1-8_小物
  6
CONTINUOUS
 62
    4
 10
-84.999999999999659
 20
53.5
 11
-84.666666666666401
 21
51.833333333333314
  0
LINE
  8
_1-8_小物
  6
CONTINUOUS
 62
    4
 10
-84.666666666666401
 20
53.5
 11
-84.666666666666401
 21
50.833333333333087
  0
LINE
  8
_1-8_小物
  6
CONTINUOUS
 62
    4
 10
-83.499999999999886
 20
50.833333333333087
 11
-83.333333333332916
 21
50.833333333333087
  0
LINE
  8
_1-8_小物
  6
CONTINUOUS
 62
    4
 10
-81.666666666666401
 20
53.5
 11
-84.999999999999659
 21
53.5
  0
ENDBLK
  0
BLOCK
  2
-002-_2_
 70
   64
 10
0
 20
0
 30
0
  0
LINE
  8
_1-8_小物
  6
CONTINUOUS
 62
    4
 10
-80.333333333332916
 20
57.166666666666657
 11
-86.333333333333371
 21
57.166666666666657
  0
LINE
  8
_1-8_小物
  6
CONTINUOUS
 62
    4
 10
-80.333333333332916
 20
56.666666666666657
 11
-86.333333333333371
 21
56.666666666666657
  0
LINE
  8
_1-8_小物
  6
CONTINUOUS
 62
    4
 10
-80.333333333332916
 20
57.166666666666657
 11
-80.333333333332916
 21
56.666666666666657
  0
LINE
  8
_1-8_小物
  6
CONTINUOUS
 62
    4
 10
-86.333333333333371
 20
57.166666666666657
 11
-86.333333333333371
 21
56.666666666666657
  0
LINE
  8
_1-8_小物
  6
CONTINUOUS
 62
    4
 10
-82.416666666666401
 20
57.166666666666657
 11
-82.416666666666401
 21
56.666666666666657
  0
LINE
  8
_1-8_小物
  6
CONTINUOUS
 62
    4
 10
-84.249999999999886
 20
57.166666666666657
 11
-84.249999999999886
 21
56.666666666666657
  0
LINE
  8
_1-8_小物
  6
CONTINUOUS
 62
    4
 10
-81.833333333332916
 20
57.166666666666657
 11
-81.869637594599794
 21
57.581626271666693
  0
LINE
  8
_1-8_小物
  6
CONTINUOUS
 62
    4
 10
-84.797029072099917
 20
57.581626271666693
 11
-84.833333333332916
 21
57.166666666666657
  0
ARC
  8
_1-8_小物
  6
CONTINUOUS
 62
    4
 10
-84.468284821700195
 20
57.552864876566588
 40
0.3299999999999999
 50
127.36755803205249
 51
175.00000000119894
  0
ARC
  8
_1-8_小物
  6
CONTINUOUS
 62
    4
 10
-82.198381844966548
 20
57.552864876566588
 40
0.3299999999999999
 50
4.999999998801286
 51
52.632441967949475
  0
ARC
  8
_1-8_小物
  6
CONTINUOUS
 62
    4
 10
-83.333333333333371
 20
56.066666666666634
 40
2.1999999999999997
 50
52.632441967704935
 51
68.266383543398163
  0
ARC
  8
_1-8_小物
  6
CONTINUOUS
 62
    4
 10
-83.333333333333371
 20
56.066666666666634
 40
2.1999999999999997
 50
111.74840859090331
 51
127.36755803230515
  0
LINE
  8
_1-8_小物
  6
CONTINUOUS
 62
    4
 10
-83.228333333333126
 20
58.253042376533386
 11
-83.228333333333126
 21
58.107770746533248
  0
LINE
  8
_1-8_小物
  6
CONTINUOUS
 62
    4
 10
-83.112570439366095
 20
58.253042376533386
 11
-83.228333333333126
 21
58.253042376533386
  0
LINE
  8
_1-8_小物
  6
CONTINUOUS
 62
    4
 10
-82.519165577166518
 20
58.107770746533248
 11
-83.112570439366095
 21
58.253042376533386
  0
LINE
  8
_1-8_小物
  6
CONTINUOUS
 62
    4
 10
-83.554096227333162
 20
58.253042376533386
 11
-83.987399649899885
 21
58.164563769400075
  0
LINE
  8
_1-8_小物
  6
CONTINUOUS
 62
    4
 10
-83.987399649899885
 20
58.164563769400075
 11
-84.147501089532739
 21
58.107770746533248
  0
LINE
  8
_1-8_小物
  6
CONTINUOUS
 62
    4
 10
-83.438333333333162
 20
58.253042376533386
 11
-83.554096227333162
 21
58.253042376533386
  0
LINE
  8
_1-8_小物
  6
CONTINUOUS
 62
    4
 10
-83.438333333333162
 20
58.107770746533248
 11
-83.438333333333162
 21
58.253042376533386
  0
LINE
  8
_1-8_小物
  6
CONTINUOUS
 62
    4
 10
-83.228333333333126
 20
58.107770746533248
 11
-83.333333333333371
 21
58.109472471333362
  0
LINE
  8
_1-8_小物
  6
CONTINUOUS
 62
    4
 10
-83.333333333333371
 20
58.109472471333362
 11
-83.438333333333162
 21
58.107770746533248
  0
LINE
  8
_1-8_小物
  6
CONTINUOUS
 62
    4
 10
-81.869637594599794
 20
57.581626271666693
 11
-84.797029072099917
 21
57.581626271666693
  0
LINE
  8
_1-8_小物
  6
CONTINUOUS
 62
    4
 10
-83.333333333333371
 20
57.815135148900055
 11
-84.668570378500021
 21
57.815135148900055
  0
LINE
  8
_1-8_小物
  6
CONTINUOUS
 62
    4
 10
-81.99809628819969
 20
57.815135148900055
 11
-83.333333333333371
 21
57.815135148900055
  0
ENDBLK
  0
BLOCK
  2
-003-_3_
 70
   64
 10
0
 20
0
 30
0
  0
LINE
  8
_1-8_小物
  6
CONTINUOUS
 62
    4
 10
-103.83333383333309
 20
62.099999333333471
 11
-103.83333383333309
 21
60.433333333333394
  0
LINE
  8
_1-8_小物
  6
CONTINUOUS
 62
    4
 10
-103.83333383333309
 20
60.433333333333394
 11
-103.33333383333331
 21
60.433333333333394
  0
LINE
  8
_1-8_小物
  6
CONTINUOUS
 62
    4
 10
-102.3333338333332
 20
60.433333333333394
 11
-101.8333338333332
 21
60.433333333333394
  0
LINE
  8
_1-8_小物
  6
CONTINUOUS
 62
    4
 10
-101.8333338333332
 20
60.433333333333394
 11
-101.8333338333332
 21
62.099999333333471
  0
ARC
  8
_1-8_小物
  6
CONTINUOUS
 62
    4
 10
-102.83333383333331
 20
62.099999333333471
 40
0.566667
 50
0
 51
180
  0
ARC
  8
_1-8_小物
  6
CONTINUOUS
 62
    4
 10
-102.83333383333331
 20
62.099999333333471
 40
1
 50
0
 51
180
  0
LINE
  8
_1-8_小物
  6
CONTINUOUS
 62
    4
 10
-102.33333583333308
 20
61.099999333333386
 11
-102.4146168333333
 21
61.099999333333386
  0
ARC
  8
_1-8_小物
  6
CONTINUOUS
 62
    4
 10
-102.4146168333333
 20
61.033333333333445
 40
0.066667
 50
90
 51
194.03640200001655
  0
LINE
  8
_1-8_小物
  6
CONTINUOUS
 62
    4
 10
-102.3333338333332
 20
60.433333333333394
 11
-102.47929283333326
 21
61.017164333333454
  0
LINE
  8
_1-8_小物
  6
CONTINUOUS
 62
    4
 10
-103.33333383333331
 20
61.099999333333386
 11
-103.25205183333333
 21
61.099999333333386
  0
ARC
  8
_1-8_小物
  6
CONTINUOUS
 62
    4
 10
-103.25205183333333
 20
61.033333333333445
 40
0.066667
 50
345.96380799998212
 51
90
  0
LINE
  8
_1-8_小物
  6
CONTINUOUS
 62
    4
 10
-103.33333283333332
 20
60.433333333333394
 11
-103.18737583333302
 21
61.017164333333454
  0
LINE
  8
_1-8_小物
  6
CONTINUOUS
 62
    4
 10
-102.33333583333308
 20
61.099999333333386
 11
-102.26666883333337
 21
61.099999333333386
  0
LINE
  8
_1-8_小物
  6
CONTINUOUS
 62
    4
 10
-102.26666883333337
 20
61.099999333333386
 11
-102.26666683333326
 21
62.099999333333471
  0
LINE
  8
_1-8_小物
  6
CONTINUOUS
 62
    4
 10
-103.33333283333332
 20
61.099999333333386
 11
-103.40000083333325
 21
61.099999333333386
  0
LINE
  8
_1-8_小物
  6
CONTINUOUS
 62
    4
 10
-103.40000083333325
 20
61.099999333333386
 11
-103.40000083333325
 21
62.099999333333471
  0
ENDBLK
  0
BLOCK
  2
-004-HATCHING
 70
   64
 10
0
 20
0
 30
0
  0
LINE
  8
_1-0_躯体
  6
CONTINUOUS
 62
    4
 10
-41.666666666666231
 20
53.812313804949326
 11
-41.978980471615557
 21
53.5
  0
LINE
  8
_1-0_躯体
  6
CONTINUOUS
 62
    4
 10
-41.666666666666231
 20
54.755122846531378
 11
-42.921789513197609
 21
53.5
  0
LINE
  8
_1-0_躯体
  6
CONTINUOUS
 62
    4
 10
-42.197931888113033
 20
55.166666666666657
 11
-43.86459855477969
 21
53.5
  0
LINE
  8
_1-0_躯体
  6
CONTINUOUS
 62
    4
 10
-43.140740929695028
 20
55.166666666666657
 11
-44.80740759636177
 21
53.5
  0
LINE
  8
_1-0_躯体
  6
CONTINUOUS
 62
    4
 10
-44.083549971277165
 20
55.166666666666657
 11
-45.750216637943822
 21
53.5
  0
LINE
  8
_1-0_躯体
  6
CONTINUOUS
 62
    4
 10
-45.026359012859245
 20
55.166666666666657
 11
-46.693025679525903
 21
53.5
  0
LINE
  8
_1-0_躯体
  6
CONTINUOUS
 62
    4
 10
-45.969168054441297
 20
55.166666666666657
 11
-47.635834721107983
 21
53.5
  0
LINE
  8
_1-0_躯体
  6
CONTINUOUS
 62
    4
 10
-46.911977096023293
 20
55.166666666666657
 11
-48.578643762689978
 21
53.5
  0
LINE
  8
_1-0_躯体
  6
CONTINUOUS
 62
    4
 10
-47.854786137605373
 20
55.166666666666657
 11
-49.52145280427203
 21
53.5
  0
LINE
  8
_1-0_躯体
  6
CONTINUOUS
 62
    4
 10
-48.79759517918751
 20
55.166666666666657
 11
-50.464261845854196
 21
53.5
  0
LINE
  8
_1-0_躯体
  6
CONTINUOUS
 62
    4
 10
-49.740404220769506
 20
55.166666666666657
 11
-51.407070887436191
 21
53.5
  0
LINE
  8
_1-0_躯体
  6
CONTINUOUS
 62
    4
 10
-50.683213262351586
 20
55.166666666666657
 11
-52.349879929018243
 21
53.5
  0
LINE
  8
_1-0_躯体
  6
CONTINUOUS
 62
    4
 10
-51.626022303933667
 20
55.166666666666657
 11
-53.292688970600324
 21
53.5
  0
LINE
  8
_1-0_躯体
  6
CONTINUOUS
 62
    4
 10
-52.568831345515719
 20
55.166666666666657
 11
-54.235498012182404
 21
53.5
  0
LINE
  8
_1-0_躯体
  6
CONTINUOUS
 62
    4
 10
-53.511640387097799
 20
55.166666666666657
 11
-55.178307053764456
 21
53.5
  0
LINE
  8
_1-0_躯体
  6
CONTINUOUS
 62
    4
 10
-54.454449428679879
 20
55.166666666666657
 11
-56.121116095346537
 21
53.5
  0
LINE
  8
_1-0_躯体
  6
CONTINUOUS
 62
    4
 10
-55.397258470261932
 20
55.166666666666657
 11
-57.063925136928617
 21
53.5
  0
LINE
  8
_1-0_躯体
  6
CONTINUOUS
 62
    4
 10
-56.340067511844012
 20
55.166666666666657
 11
-58.006734178510669
 21
53.5
  0
LINE
  8
_1-0_躯体
  6
CONTINUOUS
 62
    4
 10
-57.282876553426092
 20
55.166666666666657
 11
-58.94954322009275
 21
53.5
  0
LINE
  8
_1-0_躯体
  6
CONTINUOUS
 62
    4
 10
-58.225685595008088
 20
55.166666666666657
 11
-59.892352261674745
 21
53.5
  0
LINE
  8
_1-0_躯体
  6
CONTINUOUS
 62
    4
 10
-59.168494636590225
 20
55.166666666666657
 11
-60.835161303256882
 21
53.5
  0
LINE
  8
_1-0_躯体
  6
CONTINUOUS
 62
    4
 10
-60.11130367817222
 20
55.166666666666657
 11
-61.777970344838877
 21
53.5
  0
LINE
  8
_1-0_躯体
  6
CONTINUOUS
 62
    4
 10
-61.054112719754301
 20
55.166666666666657
 11
-62.720779386420958
 21
53.5
  0
LINE
  8
_1-0_躯体
  6
CONTINUOUS
 62
    4
 10
-61.996921761336353
 20
55.166666666666657
 11
-63.663588428003038
 21
53.5
  0
LINE
  8
_1-0_躯体
  6
CONTINUOUS
 62
    4
 10
-62.939730802918433
 20
55.166666666666657
 11
-64.60639746958509
 21
53.5
  0
LINE
  8
_1-0_躯体
  6
CONTINUOUS
 62
    4
 10
-63.882539844500513
 20
55.166666666666657
 11
-65.549206511167199
 21
53.5
  0
LINE
  8
_1-0_躯体
  6
CONTINUOUS
 62
    4
 10
-64.825348886082566
 20
55.166666666666657
 11
-66.492015552749194
 21
53.5
  0
LINE
  8
_1-0_躯体
  6
CONTINUOUS
 62
    4
 10
-65.768157927664618
 20
55.166666666666657
 11
-67.434824594331303
 21
53.5
  0
LINE
  8
_1-0_躯体
  6
CONTINUOUS
 62
    4
 10
-66.71096696924667
 20
55.166666666666657
 11
-68.377633635913355
 21
53.5
  0
LINE
  8
_1-0_躯体
  6
CONTINUOUS
 62
    4
 10
-67.653776010828778
 20
55.166666666666657
 11
-69.320442677495407
 21
53.5
  0
LINE
  8
_1-0_躯体
  6
CONTINUOUS
 62
    4
 10
-68.596585052410774
 20
55.166666666666657
 11
-70.263251719077459
 21
53.5
  0
LINE
  8
_1-0_躯体
  6
CONTINUOUS
 62
    4
 10
-69.539394093992883
 20
55.166666666666657
 11
-71.206060760659511
 21
53.5
  0
LINE
  8
_1-0_躯体
  6
CONTINUOUS
 62
    4
 10
-70.482203135574991
 20
55.166666666666657
 11
-72.14886980224162
 21
53.5
  0
LINE
  8
_1-0_躯体
  6
CONTINUOUS
 62
    4
 10
-71.425012177156987
 20
55.166666666666657
 11
-73.091678843823672
 21
53.5
  0
LINE
  8
_1-0_躯体
  6
CONTINUOUS
 62
    4
 10
-72.367821218739039
 20
55.166666666666657
 11
-74.034487885405724
 21
53.5
  0
LINE
  8
_1-0_躯体
  6
CONTINUOUS
 62
    4
 10
-73.310630260321091
 20
55.166666666666657
 11
-74.977296926987776
 21
53.5
  0
LINE
  8
_1-0_躯体
  6
CONTINUOUS
 62
    4
 10
-74.2534393019032
 20
55.166666666666657
 11
-75.920105968569885
 21
53.5
  0
LINE
  8
_1-0_躯体
  6
CONTINUOUS
 62
    4
 10
-75.196248343485308
 20
55.166666666666657
 11
-76.862915010151937
 21
53.5
  0
LINE
  8
_1-0_躯体
  6
CONTINUOUS
 62
    4
 10
-76.139057385067304
 20
55.166666666666657
 11
-77.805724051733932
 21
53.5
  0
LINE
  8
_1-0_躯体
  6
CONTINUOUS
 62
    4
 10
-77.081866426649412
 20
55.166666666666657
 11
-78.748533093316098
 21
53.5
  0
LINE
  8
_1-0_躯体
  6
CONTINUOUS
 62
    4
 10
-78.024675468231408
 20
55.166666666666657
 11
-79.691342134898093
 21
53.5
  0
LINE
  8
_1-0_躯体
  6
CONTINUOUS
 62
    4
 10
-78.967484509813517
 20
55.166666666666657
 11
-80.634151176480145
 21
53.5
  0
LINE
  8
_1-0_躯体
  6
CONTINUOUS
 62
    4
 10
-79.910293551395569
 20
55.166666666666657
 11
-81.576960218062254
 21
53.5
  0
LINE
  8
_1-0_躯体
  6
CONTINUOUS
 62
    4
 10
-80.853102592977621
 20
55.166666666666657
 11
-82.519769259644306
 21
53.5
  0
LINE
  8
_1-0_躯体
  6
CONTINUOUS
 62
    4
 10
-81.795911634559673
 20
55.166666666666657
 11
-83.462578301226358
 21
53.5
  0
LINE
  8
_1-0_躯体
  6
CONTINUOUS
 62
    4
 10
-82.738720676141781
 20
55.166666666666657
 11
-84.405387342808467
 21
53.5
  0
LINE
  8
_1-0_躯体
  6
CONTINUOUS
 62
    4
 10
-83.681529717723834
 20
55.166666666666657
 11
-85.348196384390462
 21
53.5
  0
LINE
  8
_1-0_躯体
  6
CONTINUOUS
 62
    4
 10
-84.624338759305886
 20
55.166666666666657
 11
-86.291005425972571
 21
53.5
  0
LINE
  8
_1-0_躯体
  6
CONTINUOUS
 62
    4
 10
-85.567147800887938
 20
55.166666666666657
 11
-87.233814467554623
 21
53.5
  0
LINE
  8
_1-0_躯体
  6
CONTINUOUS
 62
    4
 10
-86.509956842470046
 20
55.166666666666657
 11
-88.176623509136732
 21
53.5
  0
LINE
  8
_1-0_躯体
  6
CONTINUOUS
 62
    4
 10
-87.452765884052098
 20
55.166666666666657
 11
-89.119432550718784
 21
53.5
  0
LINE
  8
_1-0_躯体
  6
CONTINUOUS
 62
    4
 10
-88.395574925634151
 20
55.166666666666657
 11
-90.062241592300836
 21
53.5
  0
LINE
  8
_1-0_躯体
  6
CONTINUOUS
 62
    4
 10
-89.338383967216259
 20
55.166666666666657
 11
-91.005050633882888
 21
53.5
  0
LINE
  8
_1-0_躯体
  6
CONTINUOUS
 62
    4
 10
-90.281193008798255
 20
55.166666666666657
 11
-91.94785967546494
 21
53.5
  0
LINE
  8
_1-0_躯体
  6
CONTINUOUS
 62
    4
 10
-91.224002050380307
 20
55.166666666666657
 11
-92.890668717046992
 21
53.5
  0
LINE
  8
_1-0_躯体
  6
CONTINUOUS
 62
    4
 10
-92.166811091962359
 20
55.166666666666657
 11
-93.833477758629044
 21
53.5
  0
LINE
  8
_1-0_躯体
  6
CONTINUOUS
 62
    4
 10
-93.109620133544468
 20
55.166666666666657
 11
-94.776286800211153
 21
53.5
  0
LINE
  8
_1-0_躯体
  6
CONTINUOUS
 62
    4
 10
-94.05242917512652
 20
55.166666666666657
 11
-94.999999999999773
 21
54.219095841793376
  0
LINE
  8
_1-0_躯体
  6
CONTINUOUS
 62
    4
 10
-94.995238216708572
 20
55.166666666666657
 11
-94.999999999999773
 21
55.161904883375456
  0
ENDBLK
  0
BLOCK
  2
-005-$QLE
 70
   64
 10
0
 20
0
 30
0
  0
LINE
  8
_1-f_寸法
  6
CONTINUOUS
 62
    4
 10
-46.666666666666288
 20
53.5
 11
-43.668269823871782
 21
48.306624327025929
  0
LINE
  8
_1-f_寸法
  6
CONTINUOUS
 62
    4
 10
-43.668269823871782
 20
48.306624327025929
 11
-4.9482698238718399
 21
48.306624327025929
  0
POINT
  8
_1-f_寸法
 62
    4
 10
-46.666666666666288
 20
53.5
  0
TEXT
  8
_1-f_寸法
 62
    4
 10
-43.34826982387176
 20
48.306624327025929
 40
3.2000000000000002
 41
1
 50
0
  1
ならしモルタル(別途工事)
  0
ENDBLK
  0
BLOCK
  2
-006-_4_
 70
   64
 10
0
 20
0
 30
0
  0
LINE
  8
_1-8_小物
  6
CONTINUOUS
 62
    4
 10
-47.166666666666515
 20
65.166666666666629
 11
-50.499999999999716
 21
65.166666666666629
  0
LINE
  8
_1-8_小物
  6
CONTINUOUS
 62
    4
 10
-48.833333333333115
 20
59.833333333333286
 11
-49.516666666666424
 21
60.227856017279521
  0
LINE
  8
_1-8_小物
  6
CONTINUOUS
 62
    4
 10
-48.833333333333115
 20
59.833333333333286
 11
-48.149999999999807
 21
60.227856017279521
  0
LINE
  8
_1-8_小物
  6
CONTINUOUS
 62
    4
 10
-48.236666666666395
 20
62.90246057311424
 11
-48.033333333333019
 21
62.78506585966926
  0
LINE
  8
_1-8_小物
  6
CONTINUOUS
 62
    4
 10
-48.033333333333019
 20
62.78506585966926
 11
-48.236666666666395
 21
62.667671146224308
  0
LINE
  8
_1-8_小物
  6
CONTINUOUS
 62
    4
 10
-49.429999999999836
 20
62.233333333333292
 11
-49.633333333333212
 21
62.350728046778272
  0
LINE
  8
_1-8_小物
  6
CONTINUOUS
 62
    4
 10
-49.633333333333212
 20
62.350728046778272
 11
-49.429999999999836
 21
62.468122760223224
  0
LINE
  8
_1-8_小物
  6
CONTINUOUS
 62
    4
 10
-49.429999999999836
 20
62.468122760223224
 11
-48.236666666666395
 21
62.90246057311424
  0
LINE
  8
_1-8_小物
  6
CONTINUOUS
 62
    4
 10
-49.429999999999836
 20
62.233333333333292
 11
-48.236666666666395
 21
62.667671146224308
  0
LINE
  8
_1-8_小物
  6
CONTINUOUS
 62
    4
 10
-48.033333333333019
 20
62.78506585966926
 11
-49.633333333333212
 21
62.350728046778272
  0
LINE
  8
_1-8_小物
  6
CONTINUOUS
 62
    4
 10
-48.236666666666395
 20
63.40246057311424
 11
-48.033333333333019
 21
63.28506585966926
  0
LINE
  8
_1-8_小物
  6
CONTINUOUS
 62
    4
 10
-48.033333333333019
 20
63.28506585966926
 11
-48.236666666666395
 21
63.167671146224308
  0
LINE
  8
_1-8_小物
  6
CONTINUOUS
 62
    4
 10
-49.429999999999836
 20
62.733333333333292
 11
-49.633333333333212
 21
62.850728046778272
  0
LINE
  8
_1-8_小物
  6
CONTINUOUS
 62
    4
 10
-49.633333333333212
 20
62.850728046778272
 11
-49.429999999999836
 21
62.968122760223224
  0
LINE
  8
_1-8_小物
  6
CONTINUOUS
 62
    4
 10
-49.429999999999836
 20
62.968122760223224
 11
-48.236666666666395
 21
63.40246057311424
  0
LINE
  8
_1-8_小物
  6
CONTINUOUS
 62
    4
 10
-49.429999999999836
 20
62.733333333333292
 11
-48.236666666666395
 21
63.167671146224308
  0
LINE
  8
_1-8_小物
  6
CONTINUOUS
 62
    4
 10
-48.033333333333019
 20
63.28506585966926
 11
-49.633333333333212
 21
62.850728046778272
  0
LINE
  8
_1-8_小物
  6
CONTINUOUS
 62
    4
 10
-48.236666666666395
 20
63.90246057311424
 11
-48.033333333333019
 21
63.78506585966926
  0
LINE
  8
_1-8_小物
  6
CONTINUOUS
 62
    4
 10
-48.033333333333019
 20
63.78506585966926
 11
-48.236666666666395
 21
63.667671146224308
  0
LINE
  8
_1-8_小物
  6
CONTINUOUS
 62
    4
 10
-49.429999999999836
 20
63.233333333333292
 11
-49.633333333333212
 21
63.350728046778272
  0
LINE
  8
_1-8_小物
  6
CONTINUOUS
 62
    4
 10
-49.633333333333212
 20
63.350728046778272
 11
-49.429999999999836
 21
63.468122760223224
  0
LINE
  8
_1-8_小物
  6
CONTINUOUS
 62
    4
 10
-49.429999999999836
 20
63.468122760223224
 11
-48.236666666666395
 21
63.90246057311424
  0
LINE
  8
_1-8_小物
  6
CONTINUOUS
 62
    4
 10
-49.429999999999836
 20
63.233333333333292
 11
-48.236666666666395
 21
63.667671146224308
  0
LINE
  8
_1-8_小物
  6
CONTINUOUS
 62
    4
 10
-48.033333333333019
 20
63.78506585966926
 11
-49.633333333333212
 21
63.350728046778272
  0
LINE
  8
_1-8_小物
  6
CONTINUOUS
 62
    4
 10
-49.429999999999836
 20
63.733333333333292
 11
-49.633333333333212
 21
63.850728046778272
  0
LINE
  8
_1-8_小物
  6
CONTINUOUS
 62
    4
 10
-49.633333333333212
 20
63.850728046778272
 11
-49.429999999999836
 21
63.968122760223224
  0
LINE
  8
_1-8_小物
  6
CONTINUOUS
 62
    4
 10
-49.516666666666424
 20
62.066666666666634
 11
-49.516666666666424
 21
60.227856017279521
  0
LINE
  8
_1-8_小物
  6
CONTINUOUS
 62
    4
 10
-48.149999999999807
 20
62.066666666666634
 11
-49.516666666666424
 21
62.066666666666634
  0
LINE
  8
_1-8_小物
  6
CONTINUOUS
 62
    4
 10
-48.149999999999807
 20
62.066666666666634
 11
-48.149999999999807
 21
60.227856017279521
  0
LINE
  8
_1-8_小物
  6
CONTINUOUS
 62
    4
 10
-49.429999999999836
 20
63.968122760223224
 11
-49.159252842221662
 21
64.066666666666634
  0
LINE
  8
_1-8_小物
  6
CONTINUOUS
 62
    4
 10
-49.429999999999836
 20
63.733333333333292
 11
-48.833333333333115
 21
63.950502239778814
  0
LINE
  8
_1-8_小物
  6
CONTINUOUS
 62
    4
 10
-48.833333333333115
 20
64.067896953223794
 11
-49.633333333333212
 21
63.850728046778272
  0
LINE
  8
_1-8_小物
  6
CONTINUOUS
 62
    4
 10
-49.429999999999836
 20
64.066666666666634
 11
-49.429999999999836
 21
63.968122760223224
  0
LINE
  8
_1-8_小物
  6
CONTINUOUS
 62
    4
 10
-49.429999999999836
 20
63.733333333333292
 11
-49.429999999999836
 21
63.468122760223224
  0
LINE
  8
_1-8_小物
  6
CONTINUOUS
 62
    4
 10
-49.429999999999836
 20
63.233333333333292
 11
-49.429999999999836
 21
62.968122760223224
  0
LINE
  8
_1-8_小物
  6
CONTINUOUS
 62
    4
 10
-49.429999999999836
 20
62.733333333333292
 11
-49.429999999999836
 21
62.468122760223224
  0
LINE
  8
_1-8_小物
  6
CONTINUOUS
 62
    4
 10
-49.429999999999836
 20
62.233333333333292
 11
-49.429999999999836
 21
62.066666666666634
  0
LINE
  8
_1-8_小物
  6
CONTINUOUS
 62
    4
 10
-48.236666666666395
 20
64.066666666666634
 11
-48.236666666666395
 21
63.90246057311424
  0
LINE
  8
_1-8_小物
  6
CONTINUOUS
 62
    4
 10
-48.236666666666395
 20
62.667671146224308
 11
-48.236666666666395
 21
62.066666666666634
  0
LINE
  8
_1-8_小物
  6
CONTINUOUS
 62
    4
 10
-48.236666666666395
 20
63.167671146224308
 11
-48.236666666666395
 21
62.90246057311424
  0
LINE
  8
_1-8_小物
  6
CONTINUOUS
 62
    4
 10
-48.236666666666395
 20
63.667671146224308
 11
-48.236666666666395
 21
63.40246057311424
  0
LINE
  8
_1-8_小物
  6
CONTINUOUS
 62
    4
 10
-48.249999999999716
 20
62.066666666666634
 11
-48.249999999999716
 21
60.285591044198497
  0
LINE
  8
_1-8_小物
  6
CONTINUOUS
 62
    4
 10
-48.833333333333115
 20
59.948803387171239
 11
-48.249999999999716
 21
60.285591044198497
  0
LINE
  8
_1-8_小物
  6
CONTINUOUS
 62
    4
 10
-48.833333333333115
 20
59.948803387171239
 11
-48.459896895706322
 21
62.066666666666634
  0
LINE
  8
_1-8_小物
  6
CENTER2
 62
    4
 10
-48.833333333333115
 20
65.83364038696007
 11
-48.833333333333115
 21
59.084349393779803
  0
LINE
  8
_1-8_小物
  6
CONTINUOUS
 62
    4
 10
-50.499999999999716
 20
65.166666666666629
 11
-50.499999999999716
 21
65.099999999999937
  0
LINE
  8
_1-8_小物
  6
CONTINUOUS
 62
    4
 10
-47.166666666666515
 20
65.099999999999937
 11
-50.499999999999716
 21
65.099999999999937
  0
LINE
  8
_1-8_小物
  6
CONTINUOUS
 62
    4
 10
-47.166666666666515
 20
65.166666666666629
 11
-47.166666666666515
 21
65.099999999999937
  0
LINE
  8
_1-8_小物
  6
CONTINUOUS
 62
    4
 10
-50.499999999999716
 20
65.099999999999937
 11
-49.466666666666328
 21
64.066666666666634
  0
LINE
  8
_1-8_小物
  6
CONTINUOUS
 62
    4
 10
-48.199999999999903
 20
64.066666666666634
 11
-49.466666666666328
 21
64.066666666666634
  0
LINE
  8
_1-8_小物
  6
CONTINUOUS
 62
    4
 10
-47.166666666666515
 20
65.099999999999937
 11
-48.199999999999903
 21
64.066666666666634
  0
ENDBLK
  0
BLOCK
  2
-007-_5_
 70
   64
 10
0
 20
0
 30
0
  0
LINE
  8
_1-4_フレ__ム
  6
CONTINUOUS
 62
    4
 10
-145.16666666666646
 20
61.100000000003945
 11
-144.99999999999994
 21
60.433333333337288
  0
LINE
  8
_1-4_フレ__ム
  6
CONTINUOUS
 62
    4
 10
-144.99999999999994
 20
61.100000000003945
 11
-145.16666666666646
 21
61.100000000003945
  0
LINE
  8
_1-4_フレ__ム
  6
CONTINUOUS
 62
    4
 10
-144.99999999999994
 20
62.100000000003945
 11
-144.99999999999994
 21
61.100000000003945
  0
ARC
  8
_1-4_フレ__ム
  6
CONTINUOUS
 62
    4
 10
-145.49999999999986
 20
62.100000000003945
 40
0.5
 50
0
 51
180
  0
LINE
  8
_1-4_フレ__ム
  6
CONTINUOUS
 62
    4
 10
-145.99999999999977
 20
61.100000000003945
 11
-145.99999999999977
 21
62.100000000003945
  0
LINE
  8
_1-4_フレ__ム
  6
CONTINUOUS
 62
    4
 10
-145.83333333333326
 20
61.100000000003945
 11
-145.99999999999977
 21
61.100000000003945
  0
LINE
  8
_1-4_フレ__ム
  6
CONTINUOUS
 62
    4
 10
-145.99999999999977
 20
60.433333333337288
 11
-145.83333333333326
 21
61.100000000003945
  0
ARC
  8
_1-4_フレ__ム
  6
CONTINUOUS
 62
    4
 10
-167.50000000000023
 20
62.500000000003894
 40
0.3333333333333333
 50
90
 51
180
  0
LINE
  8
_1-4_フレ__ム
  6
CONTINUOUS
 62
    4
 10
-164.33333333333348
 20
62.833333333337237
 11
-167.50000000000023
 21
62.833333333337237
  0
ARC
  8
_1-4_フレ__ム
  6
CONTINUOUS
 62
    4
 10
-164.33333333333348
 20
63.500000000003894
 40
0.6666666666666666
 50
270
 51
0
  0
LINE
  8
_1-4_フレ__ム
  6
CONTINUOUS
 62
    4
 10
-166.06666666666678
 20
63.666666666670551
 11
-164.83333333333343
 21
63.666666666670551
  0
LINE
  8
_1-4_フレ__ム
  6
CONTINUOUS
 62
    4
 10
-166.16666666666691
 20
63.5666666666705
 11
-166.06666666666678
 21
63.666666666670551
  0
LINE
  8
_1-4_フレ__ム
  6
CONTINUOUS
 62
    4
 10
-166.26666666666696
 20
63.666666666670551
 11
-166.16666666666691
 21
63.5666666666705
  0
LINE
  8
_1-4_フレ__ム
  6
CONTINUOUS
 62
    4
 10
-167.50000000000023
 20
63.666666666670551
 11
-166.26666666666696
 21
63.666666666670551
  0
ARC
  8
_1-4_フレ__ム
  6
CONTINUOUS
 62
    4
 10
-168.83333333333354
 20
62.666666666670551
 40
0.1666666666666666
 50
270
 51
0
  0
ARC
  8
_1-4_フレ__ム
  6
CONTINUOUS
 62
    4
 10
-169.75000000000017
 20
64.750000000003894
 40
0.25
 50
0
 51
180
  0
LINE
  8
_1-4_フレ__ム
  6
CONTINUOUS
 62
    4
 10
-170.00000000000023
 20
62.166666666670551
 11
-170.00000000000023
 21
64.750000000003894
  0
ARC
  8
_1-4_フレ__ム
  6
CONTINUOUS
 62
    4
 10
-169.83333333333343
 20
62.166666666670551
 40
0.1666666666666666
 50
180
 51
270
  0
LINE
  8
_1-4_フレ__ム
  6
CONTINUOUS
 62
    4
 10
-169.00000000000006
 20
62.000000000003894
 11
-169.83333333333343
 21
62.000000000003894
  0
ARC
  8
_1-4_フレ__ム
  6
CONTINUOUS
 62
    4
 10
-169.00000000000006
 20
61.666666666670551
 40
0.3333333333333333
 50
0
 51
90
  0
ARC
  8
_1-4_フレ__ム
  6
CONTINUOUS
 62
    4
 10
-145.33333333333326
 20
55.833333333337237
 40
0.3333333333333333
 50
270
 51
0
  0
ARC
  8
_1-4_フレ__ム
  6
CONTINUOUS
 62
    4
 10
-167.16666666666691
 20
57.000000000003894
 40
0.6666666666666666
 50
180
 51
270
  0
LINE
  8
_1-4_フレ__ム
  6
CONTINUOUS
 62
    4
 10
-145.33333333333326
 20
55.500000000003894
 11
-168.66666666666691
 21
55.500000000003894
  0
ARC
  8
_1-4_フレ__ム
  6
CONTINUOUS
 62
    4
 10
-146.99999999999994
 20
57.333333333337237
 40
1
 50
270
 51
0
  0
LINE
  8
_1-4_フレ__ム
  6
CONTINUOUS
 62
    4
 10
-156.66666666666691
 20
56.233333333337157
 11
-156.56666666666669
 21
56.333333333337237
  0
LINE
  8
_1-4_フレ__ム
  6
CONTINUOUS
 62
    4
 10
-156.76666666666651
 20
56.333333333337237
 11
-156.66666666666691
 21
56.233333333337157
  0
LINE
  8
_1-4_フレ__ム
  6
CONTINUOUS
 62
    4
 10
-156.56666666666669
 20
56.333333333337237
 11
-146.99999999999994
 21
56.333333333337237
  0
LINE
  8
_1-4_フレ__ム
  6
CONTINUOUS
 62
    4
 10
-167.16666666666691
 20
56.333333333337237
 11
-156.76666666666651
 21
56.333333333337237
  0
LINE
  8
_1-4_フレ__ム
  6
CONTINUOUS
 62
    4
 10
-167.83333333333354
 20
62.500000000003894
 11
-167.83333333333354
 21
57.000000000003894
  0
LINE
  8
_1-4_フレ__ム
  6
CONTINUOUS
 62
    4
 10
-168.66666666666691
 20
55.500000000003894
 11
-168.66666666666691
 21
61.666666666670551
  0
LINE
  8
_1-4_フレ__ム
  6
CONTINUOUS
 62
    4
 10
-145.99999999999977
 20
57.333333333337237
 11
-145.99999999999977
 21
60.433333333337288
  0
LINE
  8
_1-4_フレ__ム
  6
CONTINUOUS
 62
    4
 10
-144.99999999999994
 20
60.433333333337288
 11
-144.99999999999994
 21
55.833333333337237
  0
LINE
  8
_1-4_フレ__ム
  6
CONTINUOUS
 62
    4
 10
-163.66666666666691
 20
64.166666666670551
 11
-163.66666666666691
 21
63.500000000003894
  0
LINE
  8
_1-4_フレ__ム
  6
CONTINUOUS
 62
    4
 10
-164.83333333333343
 20
64.166666666670551
 11
-163.66666666666691
 21
64.166666666670551
  0
LINE
  8
_1-4_フレ__ム
  6
CONTINUOUS
 62
    4
 10
-164.83333333333343
 20
63.666666666670551
 11
-164.83333333333343
 21
64.166666666670551
  0
LINE
  8
_1-4_フレ__ム
  6
CONTINUOUS
 62
    4
 10
-167.50000000000023
 20
64.166666666670551
 11
-167.50000000000023
 21
63.666666666670551
  0
LINE
  8
_1-4_フレ__ム
  6
CONTINUOUS
 62
    4
 10
-168.66666666666691
 20
64.166666666670551
 11
-167.50000000000023
 21
64.166666666670551
  0
LINE
  8
_1-4_フレ__ム
  6
CONTINUOUS
 62
    4
 10
-168.66666666666691
 20
62.666666666670551
 11
-168.66666666666691
 21
64.166666666670551
  0
LINE
  8
_1-4_フレ__ム
  6
CONTINUOUS
 62
    4
 10
-169.50000000000023
 20
64.750000000003894
 11
-169.50000000000023
 21
62.500000000003894
  0
LINE
  8
_1-4_フレ__ム
  6
CONTINUOUS
 62
    4
 10
-169.50000000000023
 20
62.500000000003894
 11
-168.83333333333354
 21
62.500000000003894
  0
LINE
  8
_1-4_フレ__ム
  6
CENTER2
 62
    4
 10
-166.16666666666694
 20
64.666666666670551
 11
-166.16666666666694
 21
61.833333333337237
  0
LINE
  8
_1-4_フレ__ム
  6
CENTER2
 62
    4
 10
-156.66666666666669
 20
58.000000000003894
 11
-156.66666666666669
 21
53.833333333337237
  0
ENDBLK
  0
BLOCK
  2
-008-HATCHING_1_
 70
   64
 10
0
 20
0
 30
0
  0
LINE
  8
_1-0_躯体
  6
CONTINUOUS
 62
    4
 10
-145
 20
54.246560698100211
 11
-145.74656069809632
 21
53.500000000003894
  0
LINE
  8
_1-0_躯体
  6
CONTINUOUS
 62
    4
 10
-145.02270307301171
 20
55.166666666670551
 11
-146.6893697396784
 21
53.500000000003894
  0
LINE
  8
_1-0_躯体
  6
CONTINUOUS
 62
    4
 10
-145.96551211459376
 20
55.166666666670551
 11
-147.63217878126042
 21
53.500000000003894
  0
LINE
  8
_1-0_躯体
  6
CONTINUOUS
 62
    4
 10
-146.90832115617584
 20
55.166666666670551
 11
-148.5749878228425
 21
53.500000000003894
  0
LINE
  8
_1-0_躯体
  6
CONTINUOUS
 62
    4
 10
-147.8511301977579
 20
55.166666666670551
 11
-149.51779686442458
 21
53.500000000003894
  0
LINE
  8
_1-0_躯体
  6
CONTINUOUS
 62
    4
 10
-148.79393923933998
 20
55.166666666670551
 11
-150.46060590600666
 21
53.500000000003894
  0
LINE
  8
_1-0_躯体
  6
CONTINUOUS
 62
    4
 10
-149.73674828092203
 20
55.166666666670551
 11
-151.40341494758871
 21
53.500000000003894
  0
LINE
  8
_1-0_躯体
  6
CONTINUOUS
 62
    4
 10
-150.67955732250408
 20
55.166666666670551
 11
-152.34622398917077
 21
53.500000000003894
  0
LINE
  8
_1-0_躯体
  6
CONTINUOUS
 62
    4
 10
-151.62236636408616
 20
55.166666666670551
 11
-153.28903303075282
 21
53.500000000003894
  0
LINE
  8
_1-0_躯体
  6
CONTINUOUS
 62
    4
 10
-152.56517540566819
 20
55.166666666670551
 11
-154.23184207233487
 21
53.500000000003894
  0
LINE
  8
_1-0_躯体
  6
CONTINUOUS
 62
    4
 10
-153.50798444725027
 20
55.166666666670551
 11
-155.17465111391692
 21
53.500000000003894
  0
LINE
  8
_1-0_躯体
  6
CONTINUOUS
 62
    4
 10
-154.45079348883235
 20
55.166666666670551
 11
-156.117460155499
 21
53.500000000003894
  0
LINE
  8
_1-0_躯体
  6
CONTINUOUS
 62
    4
 10
-155.3936025304144
 20
55.166666666670551
 11
-157.06026919708108
 21
53.500000000003894
  0
LINE
  8
_1-0_躯体
  6
CONTINUOUS
 62
    4
 10
-156.33641157199648
 20
55.166666666670551
 11
-158.00307823866314
 21
53.500000000003894
  0
LINE
  8
_1-0_躯体
  6
CONTINUOUS
 62
    4
 10
-157.27922061357853
 20
55.166666666670551
 11
-158.94588728024519
 21
53.500000000003894
  0
LINE
  8
_1-0_躯体
  6
CONTINUOUS
 62
    4
 10
-158.22202965516061
 20
55.166666666670551
 11
-159.88869632182727
 21
53.500000000003894
  0
LINE
  8
_1-0_躯体
  6
CONTINUOUS
 62
    4
 10
-159.16483869674266
 20
55.166666666670551
 11
-160.83150536340932
 21
53.500000000003894
  0
LINE
  8
_1-0_躯体
  6
CONTINUOUS
 62
    4
 10
-160.10764773832472
 20
55.166666666670551
 11
-161.7743144049914
 21
53.500000000003894
  0
LINE
  8
_1-0_躯体
  6
CONTINUOUS
 62
    4
 10
-161.0504567799068
 20
55.166666666670551
 11
-162.71712344657348
 21
53.500000000003894
  0
LINE
  8
_1-0_躯体
  6
CONTINUOUS
 62
    4
 10
-161.99326582148888
 20
55.166666666670551
 11
-163.65993248815553
 21
53.500000000003894
  0
LINE
  8
_1-0_躯体
  6
CONTINUOUS
 62
    4
 10
-162.93607486307093
 20
55.166666666670551
 11
-164.60274152973761
 21
53.500000000003894
  0
LINE
  8
_1-0_躯体
  6
CONTINUOUS
 62
    4
 10
-163.87888390465301
 20
55.166666666670551
 11
-165.54555057131967
 21
53.500000000003894
  0
LINE
  8
_1-0_躯体
  6
CONTINUOUS
 62
    4
 10
-164.82169294623506
 20
55.166666666670551
 11
-166.48835961290172
 21
53.500000000003894
  0
LINE
  8
_1-0_躯体
  6
CONTINUOUS
 62
    4
 10
-165.76450198781711
 20
55.166666666670551
 11
-167.43116865448377
 21
53.500000000003894
  0
LINE
  8
_1-0_躯体
  6
CONTINUOUS
 62
    4
 10
-166.70731102939919
 20
55.166666666670551
 11
-168.37397769606588
 21
53.500000000003894
  0
LINE
  8
_1-0_躯体
  6
CONTINUOUS
 62
    4
 10
-167.65012007098125
 20
55.166666666670551
 11
-169.31678673764793
 21
53.500000000003894
  0
LINE
  8
_1-0_躯体
  6
CONTINUOUS
 62
    4
 10
-168.5929291125633
 20
55.166666666670551
 11
-170.25959577922998
 21
53.500000000003894
  0
LINE
  8
_1-0_躯体
  6
CONTINUOUS
 62
    4
 10
-169.53573815414535
 20
55.166666666670551
 11
-171.20240482081203
 21
53.500000000003894
  0
LINE
  8
_1-0_躯体
  6
CONTINUOUS
 62
    4
 10
-170.4785471957274
 20
55.166666666670551
 11
-172.14521386239409
 21
53.500000000003894
  0
LINE
  8
_1-0_躯体
  6
CONTINUOUS
 62
    4
 10
-171.42135623730945
 20
55.166666666670551
 11
-173.08802290397617
 21
53.500000000003894
  0
LINE
  8
_1-0_躯体
  6
CONTINUOUS
 62
    4
 10
-172.36416527889156
 20
55.166666666670551
 11
-173.33333333333331
 21
54.197498612228799
  0
LINE
  8
_1-0_躯体
  6
CONTINUOUS
 62
    4
 10
-173.30697432047361
 20
55.166666666670551
 11
-173.33333333333331
 21
55.140307653810879
  0
ENDBLK
  0
BLOCK
  2
-009-_6_
 70
   64
 10
0
 20
0
 30
0
  0
LINE
  8
_1-8_小物
  6
CONTINUOUS
 62
    4
 10
-144.5
 20
62.099999333337394
 11
-144.5
 21
60.433333333337288
  0
LINE
  8
_1-8_小物
  6
CONTINUOUS
 62
    4
 10
-144.5
 20
60.433333333337288
 11
-144.99999999999977
 21
60.433333333337288
  0
LINE
  8
_1-8_小物
  6
CONTINUOUS
 62
    4
 10
-145.99999999999994
 20
60.433333333337288
 11
-146.49999999999994
 21
60.433333333337288
  0
LINE
  8
_1-8_小物
  6
CONTINUOUS
 62
    4
 10
-146.49999999999994
 20
60.433333333337288
 11
-146.49999999999994
 21
62.099999333337394
  0
ARC
  8
_1-8_小物
  6
CONTINUOUS
 62
    4
 10
-145.49999999999986
 20
62.099999333337394
 40
0.566667
 50
0
 51
180
  0
ARC
  8
_1-8_小物
  6
CONTINUOUS
 62
    4
 10
-145.49999999999986
 20
62.099999333337394
 40
1
 50
0
 51
180
  0
LINE
  8
_1-8_小物
  6
CONTINUOUS
 62
    4
 10
-145.99999800000009
 20
61.09999933333728
 11
-145.91871699999987
 21
61.09999933333728
  0
ARC
  8
_1-8_小物
  6
CONTINUOUS
 62
    4
 10
-145.91871699999987
 20
61.033333333337339
 40
0.066667
 50
345.96359800000715
 51
90
  0
LINE
  8
_1-8_小物
  6
CONTINUOUS
 62
    4
 10
-145.99999999999994
 20
60.433333333337288
 11
-145.85404099999982
 21
61.017164333337348
  0
LINE
  8
_1-8_小物
  6
CONTINUOUS
 62
    4
 10
-144.99999999999977
 20
61.09999933333728
 11
-145.08128199999982
 21
61.09999933333728
  0
ARC
  8
_1-8_小物
  6
CONTINUOUS
 62
    4
 10
-145.08128199999982
 20
61.033333333337339
 40
0.066667
 50
90
 51
194.03619199999414
  0
LINE
  8
_1-8_小物
  6
CONTINUOUS
 62
    4
 10
-145.00000099999983
 20
60.433333333337288
 11
-145.14595800000006
 21
61.017164333337348
  0
LINE
  8
_1-8_小物
  6
CONTINUOUS
 62
    4
 10
-145.99999800000009
 20
61.09999933333728
 11
-146.06666499999977
 21
61.09999933333728
  0
LINE
  8
_1-8_小物
  6
CONTINUOUS
 62
    4
 10
-146.06666499999977
 20
61.09999933333728
 11
-146.06666699999982
 21
62.099999333337394
  0
LINE
  8
_1-8_小物
  6
CONTINUOUS
 62
    4
 10
-145.00000099999983
 20
61.09999933333728
 11
-144.93333299999989
 21
61.09999933333728
  0
LINE
  8
_1-8_小物
  6
CONTINUOUS
 62
    4
 10
-144.93333299999989
 20
61.09999933333728
 11
-144.93333299999989
 21
62.099999333337394
  0
ENDBLK
  0
BLOCK
  2
-010-_7_
 70
   64
 10
0
 20
0
 30
0
  0
LINE
  8
_1-8_小物
  6
CONTINUOUS
 62
    4
 10
-153.66666666666634
 20
56.833333333337237
 11
-159.66666666666666
 21
56.833333333337237
  0
LINE
  8
_1-8_小物
  6
CONTINUOUS
 62
    4
 10
-153.66666666666634
 20
56.333333333337237
 11
-159.66666666666666
 21
56.333333333337237
  0
LINE
  8
_1-8_小物
  6
CONTINUOUS
 62
    4
 10
-153.66666666666634
 20
56.833333333337237
 11
-153.66666666666634
 21
56.333333333337237
  0
LINE
  8
_1-8_小物
  6
CONTINUOUS
 62
    4
 10
-159.66666666666666
 20
56.833333333337237
 11
-159.66666666666666
 21
56.333333333337237
  0
LINE
  8
_1-8_小物
  6
CONTINUOUS
 62
    4
 10
-155.74999999999972
 20
56.833333333337237
 11
-155.74999999999972
 21
56.333333333337237
  0
LINE
  8
_1-8_小物
  6
CONTINUOUS
 62
    4
 10
-157.58333333333331
 20
56.833333333337237
 11
-157.58333333333331
 21
56.333333333337237
  0
LINE
  8
_1-8_小物
  6
CONTINUOUS
 62
    4
 10
-155.1666666666664
 20
56.833333333337237
 11
-155.20297092793317
 21
57.248292938337272
  0
LINE
  8
_1-8_小物
  6
CONTINUOUS
 62
    4
 10
-158.13036240543323
 20
57.248292938337272
 11
-158.16666666666634
 21
56.833333333337237
  0
ARC
  8
_1-8_小物
  6
CONTINUOUS
 62
    4
 10
-157.80161815503351
 20
57.219531543237167
 40
0.3299999999999999
 50
127.36755803205445
 51
175.00000000120363
  0
ARC
  8
_1-8_小物
  6
CONTINUOUS
 62
    4
 10
-155.53171517829986
 20
57.219531543237167
 40
0.3299999999999999
 50
4.9999999987963699
 51
52.63244196794556
  0
ARC
  8
_1-8_小物
  6
CONTINUOUS
 62
    4
 10
-156.66666666666669
 20
55.733333333337214
 40
2.1999999999999997
 50
52.632441967704935
 51
68.266383543398163
  0
ARC
  8
_1-8_小物
  6
CONTINUOUS
 62
    4
 10
-156.66666666666669
 20
55.733333333337214
 40
2.1999999999999997
 50
111.74840859090358
 51
127.36755803230515
  0
LINE
  8
_1-8_小物
  6
CONTINUOUS
 62
    4
 10
-156.5616666666665
 20
57.919709043203966
 11
-156.5616666666665
 21
57.774437413203827
  0
LINE
  8
_1-8_小物
  6
CONTINUOUS
 62
    4
 10
-156.44590377269952
 20
57.919709043203966
 11
-156.5616666666665
 21
57.919709043203966
  0
LINE
  8
_1-8_小物
  6
CONTINUOUS
 62
    4
 10
-155.85249891049989
 20
57.774437413203827
 11
-156.44590377269952
 21
57.919709043203966
  0
LINE
  8
_1-8_小物
  6
CONTINUOUS
 62
    4
 10
-156.88742956066653
 20
57.919709043203966
 11
-157.32073298323331
 21
57.831230436070655
  0
LINE
  8
_1-8_小物
  6
CONTINUOUS
 62
    4
 10
-157.32073298323331
 20
57.831230436070655
 11
-157.48083442286617
 21
57.774437413203827
  0
LINE
  8
_1-8_小物
  6
CONTINUOUS
 62
    4
 10
-156.77166666666653
 20
57.919709043203966
 11
-156.88742956066653
 21
57.919709043203966
  0
LINE
  8
_1-8_小物
  6
CONTINUOUS
 62
    4
 10
-156.77166666666653
 20
57.774437413203827
 11
-156.77166666666653
 21
57.919709043203966
  0
LINE
  8
_1-8_小物
  6
CONTINUOUS
 62
    4
 10
-156.5616666666665
 20
57.774437413203827
 11
-156.66666666666669
 21
57.776139138003941
  0
LINE
  8
_1-8_小物
  6
CONTINUOUS
 62
    4
 10
-156.66666666666669
 20
57.776139138003941
 11
-156.77166666666653
 21
57.774437413203827
  0
LINE
  8
_1-8_小物
  6
CONTINUOUS
 62
    4
 10
-155.20297092793317
 20
57.248292938337272
 11
-158.13036240543323
 21
57.248292938337272
  0
LINE
  8
_1-8_小物
  6
CONTINUOUS
 62
    4
 10
-156.66666666666669
 20
57.481801815570634
 11
-158.00190371183334
 21
57.481801815570634
  0
LINE
  8
_1-8_小物
  6
CONTINUOUS
 62
    4
 10
-155.33142962153306
 20
57.481801815570634
 11
-156.66666666666669
 21
57.481801815570634
  0
ENDBLK
  0
BLOCK
  2
-011-_8_
 70
   64
 10
0
 20
0
 30
0
  0
LINE
  8
_1-8_小物
  6
CONTINUOUS
 62
    4
 10
-154.86390833333343
 20
43.573391666670489
 11
-154.82901833333381
 21
42.907638333337161
  0
LINE
  8
_1-8_小物
  6
CONTINUOUS
 62
    4
 10
-154.91624500000034
 20
44.572021666670423
 11
-155.564551666667
 21
44.204255000003798
  0
LINE
  8
_1-8_小物
  6
CONTINUOUS
 62
    4
 10
-155.564551666667
 20
44.204255000003798
 11
-155.52966166666675
 21
43.53850166667047
  0
LINE
  8
_1-8_小物
  6
CONTINUOUS
 62
    4
 10
-155.52966166666675
 20
43.53850166667047
 11
-154.86390833333343
 21
43.573391666670489
  0
LINE
  8
_1-8_小物
  6
CONTINUOUS
 62
    4
 10
-154.95113500000025
 20
45.237775000003865
 11
-154.91624500000034
 21
44.572021666670423
  0
LINE
  8
_1-8_小物
  6
CONTINUOUS
 62
    4
 10
-155.00347166666688
 20
46.23640333333725
 11
-155.65177833333382
 21
45.868636666670284
  0
LINE
  8
_1-8_小物
  6
CONTINUOUS
 62
    4
 10
-155.65177833333382
 20
45.868636666670284
 11
-155.61688833333363
 21
45.202883333337184
  0
LINE
  8
_1-8_小物
  6
CONTINUOUS
 62
    4
 10
-155.61688833333363
 20
45.202883333337184
 11
-154.95113500000025
 21
45.237775000003865
  0
LINE
  8
_1-8_小物
  6
CONTINUOUS
 62
    4
 10
-155.03836166666707
 20
46.902156666670578
 11
-155.00347166666688
 21
46.23640333333725
  0
LINE
  8
_1-8_小物
  6
CONTINUOUS
 62
    4
 10
-155.09069833333342
 20
47.900786666670285
 11
-155.73900500000008
 21
47.533020000003887
  0
LINE
  8
_1-8_小物
  6
CONTINUOUS
 62
    4
 10
-155.73900500000008
 20
47.533020000003887
 11
-155.70411500000046
 21
46.86726666667056
  0
LINE
  8
_1-8_小物
  6
CONTINUOUS
 62
    4
 10
-155.70411500000046
 20
46.86726666667056
 11
-155.03836166666707
 21
46.902156666670578
  0
LINE
  8
_1-8_小物
  6
CONTINUOUS
 62
    4
 10
-155.12558833333361
 20
48.56654000000384
 11
-155.09069833333342
 21
47.900786666670285
  0
LINE
  8
_1-8_小物
  6
CONTINUOUS
 62
    4
 10
-155.17792500000024
 20
49.565170000003889
 11
-155.8262316666669
 21
49.197401666670487
  0
LINE
  8
_1-8_小物
  6
CONTINUOUS
 62
    4
 10
-155.8262316666669
 20
49.197401666670487
 11
-155.79134166666699
 21
48.531648333337159
  0
LINE
  8
_1-8_小物
  6
CONTINUOUS
 62
    4
 10
-155.79134166666699
 20
48.531648333337159
 11
-155.12558833333361
 21
48.56654000000384
  0
LINE
  8
_1-8_小物
  6
CONTINUOUS
 62
    4
 10
-155.21281500000021
 20
50.23092166667044
 11
-155.17792500000024
 21
49.565170000003889
  0
LINE
  8
_1-8_小物
  6
CONTINUOUS
 62
    4
 10
-155.91345833333372
 20
50.861785000003749
 11
-155.87856833333353
 21
50.196031666670422
  0
LINE
  8
_1-8_小物
  6
CONTINUOUS
 62
    4
 10
-155.87856833333353
 20
50.196031666670422
 11
-155.21281500000021
 21
50.23092166667044
  0
LINE
  8
_1-8_小物
  6
CONTINUOUS
 62
    4
 10
-155.33333333333366
 20
51.166666666670551
 11
-155.91345833333372
 21
50.861785000003749
  0
LINE
  8
_1-8_小物
  6
CONTINUOUS
 62
    4
 10
-158.46942500000023
 20
43.573391666670489
 11
-158.50431500000013
 21
42.907638333337161
  0
LINE
  8
_1-8_小物
  6
CONTINUOUS
 62
    4
 10
-158.4170883333336
 20
44.572021666670423
 11
-157.76878166666694
 21
44.204255000003798
  0
LINE
  8
_1-8_小物
  6
CONTINUOUS
 62
    4
 10
-157.76878166666694
 20
44.204255000003798
 11
-157.80367166666719
 21
43.53850166667047
  0
LINE
  8
_1-8_小物
  6
CONTINUOUS
 62
    4
 10
-157.80367166666719
 20
43.53850166667047
 11
-158.46942500000023
 21
43.573391666670489
  0
LINE
  8
_1-8_小物
  6
CONTINUOUS
 62
    4
 10
-158.38219833333341
 20
45.237775000003865
 11
-158.4170883333336
 21
44.572021666670423
  0
LINE
  8
_1-8_小物
  6
CONTINUOUS
 62
    4
 10
-158.32986166666706
 20
46.23640333333725
 11
-157.6815550000004
 21
45.868636666670284
  0
LINE
  8
_1-8_小物
  6
CONTINUOUS
 62
    4
 10
-157.6815550000004
 20
45.868636666670284
 11
-157.71644500000002
 21
45.202883333337184
  0
LINE
  8
_1-8_小物
  6
CONTINUOUS
 62
    4
 10
-157.71644500000002
 20
45.202883333337184
 11
-158.38219833333341
 21
45.237775000003865
  0
LINE
  8
_1-8_小物
  6
CONTINUOUS
 62
    4
 10
-158.29497166666715
 20
46.902156666670578
 11
-158.32986166666706
 21
46.23640333333725
  0
LINE
  8
_1-8_小物
  6
CONTINUOUS
 62
    4
 10
-158.24263500000052
 20
47.900786666670285
 11
-157.59432833333358
 21
47.533020000003887
  0
LINE
  8
_1-8_小物
  6
CONTINUOUS
 62
    4
 10
-157.59432833333358
 20
47.533020000003887
 11
-157.62921833333348
 21
46.86726666667056
  0
LINE
  8
_1-8_小物
  6
CONTINUOUS
 62
    4
 10
-157.62921833333348
 20
46.86726666667056
 11
-158.29497166666715
 21
46.902156666670578
  0
LINE
  8
_1-8_小物
  6
CONTINUOUS
 62
    4
 10
-158.20774500000033
 20
48.56654000000384
 11
-158.24263500000052
 21
47.900786666670285
  0
LINE
  8
_1-8_小物
  6
CONTINUOUS
 62
    4
 10
-158.15540833333336
 20
49.565170000003889
 11
-157.50710166666676
 21
49.197401666670487
  0
LINE
  8
_1-8_小物
  6
CONTINUOUS
 62
    4
 10
-157.50710166666676
 20
49.197401666670487
 11
-157.54199166666695
 21
48.531648333337159
  0
LINE
  8
_1-8_小物
  6
CONTINUOUS
 62
    4
 10
-157.54199166666695
 20
48.531648333337159
 11
-158.20774500000033
 21
48.56654000000384
  0
LINE
  8
_1-8_小物
  6
CONTINUOUS
 62
    4
 10
-158.12051833333379
 20
50.23092166667044
 11
-158.15540833333336
 21
49.565170000003889
  0
LINE
  8
_1-8_小物
  6
CONTINUOUS
 62
    4
 10
-157.41987500000022
 20
50.861785000003749
 11
-157.45476500000041
 21
50.196031666670422
  0
LINE
  8
_1-8_小物
  6
CONTINUOUS
 62
    4
 10
-157.45476500000041
 20
50.196031666670422
 11
-158.12051833333379
 21
50.23092166667044
  0
LINE
  8
_1-8_小物
  6
CONTINUOUS
 62
    4
 10
-156.68643500000024
 20
43.186435000003769
 11
-156.0418683333337
 21
43.758325000003822
  0
LINE
  8
_1-8_小物
  6
CONTINUOUS
 62
    4
 10
-157.28981500000037
 20
43.789813333337236
 11
-156.66666666666669
 21
43.166666666670437
  0
LINE
  8
_1-8_小物
  6
CONTINUOUS
 62
    4
 10
-158
 20
51.166666666670551
 11
-157.41987500000022
 21
50.861785000003749
  0
LINE
  8
_1-8_小物
  6
CONTINUOUS
 62
    4
 10
-155.12558833333361
 20
48.56654000000384
 11
-154.56046666666714
 21
50.119200000003673
  0
LINE
  8
_1-8_小物
  6
CONTINUOUS
 62
    4
 10
-155.48031500000013
 20
48.56654000000384
 11
-154.87369666666683
 21
50.233206666670469
  0
LINE
  8
_1-8_小物
  6
CONTINUOUS
 62
    4
 10
-158.20774500000033
 20
48.56654000000384
 11
-158.77286666666686
 21
50.119200000003673
  0
LINE
  8
_1-8_小物
  6
CONTINUOUS
 62
    4
 10
-157.85301833333386
 20
48.56654000000384
 11
-158.45963666666711
 21
50.233206666670469
  0
LINE
  8
_1-8_小物
  6
CONTINUOUS
 62
    4
 10
-155.99408500000027
 20
42.846580000003712
 11
-154.82901833333381
 21
42.907638333337161
  0
LINE
  8
_1-8_小物
  6
CONTINUOUS
 62
    4
 10
-154.82901833333381
 20
42.907638333337161
 11
-155.45988000000034
 21
42.206995000003928
  0
LINE
  8
_1-8_小物
  6
CONTINUOUS
 62
    4
 10
-155.45988000000034
 20
42.206995000003928
 11
-155.95919500000008
 21
42.180826666670384
  0
LINE
  8
_1-8_小物
  6
CONTINUOUS
 62
    4
 10
-155.95919500000008
 20
42.180826666670384
 11
-156.5
 21
52.500000000003695
  0
LINE
  8
_1-8_小物
  6
CONTINUOUS
 62
    4
 10
-155.33333333333366
 20
51.166666666670551
 11
-155.33333333333366
 21
52.500000000003695
  0
LINE
  8
_1-8_小物
  6
CONTINUOUS
 62
    4
 10
-157.33924833333367
 20
42.846580000003712
 11
-158.50431500000013
 21
42.907638333337161
  0
LINE
  8
_1-8_小物
  6
CONTINUOUS
 62
    4
 10
-158.50431500000013
 20
42.907638333337161
 11
-157.8734533333336
 21
42.206995000003928
  0
LINE
  8
_1-8_小物
  6
CONTINUOUS
 62
    4
 10
-157.8734533333336
 20
42.206995000003928
 11
-157.37413833333358
 21
42.180826666670384
  0
LINE
  8
_1-8_小物
  6
CONTINUOUS
 62
    4
 10
-157.37413833333358
 20
42.180826666670384
 11
-156.83333333333366
 21
52.500000000003695
  0
LINE
  8
_1-8_小物
  6
CONTINUOUS
 62
    4
 10
-158
 20
51.166666666670551
 11
-158
 21
52.500000000003695
  0
LINE
  8
_1-8_小物
  6
CONTINUOUS
 62
    4
 10
-158.77286666666686
 20
50.119200000003673
 11
-159.10365166666696
 21
52.387073333337355
  0
ARC
  8
_1-8_小物
  6
CONTINUOUS
 62
    4
 10
-158.9717150000003
 20
52.406318333337197
 40
0.1333333333333333
 50
98.130101999964168
 51
188.29846600001105
  0
LINE
  8
_1-8_小物
  6
CONTINUOUS
 62
    4
 10
-158.99057166666717
 20
52.538311666670495
 11
-158.92496333333355
 21
52.547683333337261
  0
ARC
  8
_1-8_小物
  6
CONTINUOUS
 62
    4
 10
-158.90610666666663
 20
52.415690000003849
 40
0.1333333333333333
 50
8.130102000040166
 51
98.13010200022498
  0
LINE
  8
_1-8_小物
  6
CONTINUOUS
 62
    4
 10
-158.77411333333356
 20
52.434546666670428
 11
-158.45963666666711
 21
50.233206666670469
  0
LINE
  8
_1-8_小物
  6
CONTINUOUS
 62
    4
 10
-154.56046666666714
 20
50.119200000003673
 11
-154.22968166666698
 21
52.387073333337355
  0
ARC
  8
_1-8_小物
  6
CONTINUOUS
 62
    4
 10
-154.36161833333364
 20
52.406318333337197
 40
0.1333333333333333
 50
351.70153399996303
 51
81.869898000047954
  0
LINE
  8
_1-8_小物
  6
CONTINUOUS
 62
    4
 10
-154.34276333333372
 20
52.538311666670495
 11
-154.40837000000039
 21
52.547683333337261
  0
ARC
  8
_1-8_小物
  6
CONTINUOUS
 62
    4
 10
-154.42722666666668
 20
52.415690000003849
 40
0.1333333333333333
 50
81.869898000047925
 51
171.86989799998403
  0
LINE
  8
_1-8_小物
  6
CONTINUOUS
 62
    4
 10
-154.55922000000038
 20
52.434546666670428
 11
-154.87369666666683
 21
50.233206666670469
  0
LINE
  8
_1-8_小物
  6
CONTINUOUS
 62
    4
 10
-154.56046666666714
 20
50.119200000003673
 11
-154.22968166666698
 21
52.387073333337355
  0
ARC
  8
_1-8_小物
  6
CONTINUOUS
 62
    4
 10
-154.36161833333364
 20
52.406318333337197
 40
0.1333333333333333
 50
351.70153399996303
 51
81.869898000047954
  0
LINE
  8
_1-8_小物
  6
CONTINUOUS
 62
    4
 10
-154.34276333333372
 20
52.538311666670495
 11
-154.40837000000039
 21
52.547683333337261
  0
ARC
  8
_1-8_小物
  6
CONTINUOUS
 62
    4
 10
-154.42722666666668
 20
52.415690000003849
 40
0.1333333333333333
 50
81.869898000047925
 51
171.86989799998403
  0
LINE
  8
_1-8_小物
  6
CONTINUOUS
 62
    4
 10
-154.55922000000038
 20
52.434546666670428
 11
-154.87369666666683
 21
50.233206666670469
  0
LINE
  8
_1-8_小物
  6
CONTINUOUS
 62
    4
 10
-155
 20
55.166666666670551
 11
-155.33333333333366
 21
53.500000000003922
  0
LINE
  8
_1-8_小物
  6
CONTINUOUS
 62
    4
 10
-155.33333333333366
 20
55.166666666670551
 11
-155.33333333333366
 21
52.500000000003695
  0
LINE
  8
_1-8_小物
  6
CONTINUOUS
 62
    4
 10
-156.5
 20
52.500000000003695
 11
-156.66666666666669
 21
52.500000000003695
  0
LINE
  8
_1-8_小物
  6
CONTINUOUS
 62
    4
 10
-156.66666666666669
 20
53.500000000003922
 11
-156.66666666666669
 21
55.166666666670551
  0
LINE
  8
_1-8_小物
  6
CONTINUOUS
 62
    4
 10
-156.33333333333366
 20
55.166666666670551
 11
-156.66666666666669
 21
53.500000000003922
  0
LINE
  8
_1-8_小物
  6
CONTINUOUS
 62
    4
 10
-157.00000000000028
 20
55.166666666670551
 11
-156.66666666666669
 21
53.500000000003922
  0
LINE
  8
_1-8_小物
  6
CONTINUOUS
 62
    4
 10
-158.33333333333331
 20
55.166666666670551
 11
-158
 21
53.500000000003922
  0
LINE
  8
_1-8_小物
  6
CONTINUOUS
 62
    4
 10
-158
 20
55.166666666670551
 11
-158
 21
52.500000000003695
  0
LINE
  8
_1-8_小物
  6
CONTINUOUS
 62
    4
 10
-156.83333333333366
 20
52.500000000003695
 11
-156.66666666666669
 21
52.500000000003695
  0
LINE
  8
_1-8_小物
  6
CONTINUOUS
 62
    4
 10
-155
 20
55.166666666670551
 11
-158.33333333333331
 21
55.166666666670551
  0
ENDBLK
  0
BLOCK
  2
-012-_9_
 70
   64
 10
0
 20
0
 30
0
  0
LINE
  8
_1-4_フレ__ム
  6
CONTINUOUS
 62
    4
 10
-103.16666666666623
 20
61.099999999999909
 11
-103.33333333333306
 21
60.43333333333328
  0
LINE
  8
_1-4_フレ__ム
  6
CONTINUOUS
 62
    4
 10
-103.33333333333306
 20
61.099999999999909
 11
-103.16666666666623
 21
61.099999999999909
  0
LINE
  8
_1-4_フレ__ム
  6
CONTINUOUS
 62
    4
 10
-103.33333333333306
 20
62.099999999999937
 11
-103.33333333333306
 21
61.099999999999909
  0
ARC
  8
_1-4_フレ__ム
  6
CONTINUOUS
 62
    4
 10
-102.83333333333306
 20
62.099999999999937
 40
0.5
 50
0
 51
180
  0
LINE
  8
_1-4_フレ__ム
  6
CONTINUOUS
 62
    4
 10
-102.3333333333329
 20
61.099999999999909
 11
-102.3333333333329
 21
62.099999999999937
  0
LINE
  8
_1-4_フレ__ム
  6
CONTINUOUS
 62
    4
 10
-102.49999999999972
 20
61.099999999999909
 11
-102.3333333333329
 21
61.099999999999909
  0
LINE
  8
_1-4_フレ__ム
  6
CONTINUOUS
 62
    4
 10
-102.3333333333329
 20
60.43333333333328
 11
-102.49999999999972
 21
61.099999999999909
  0
ARC
  8
_1-4_フレ__ム
  6
CONTINUOUS
 62
    4
 10
-47.499999999999716
 20
62.499999999999886
 40
0.3333333333333333
 50
0
 51
90
  0
LINE
  8
_1-4_フレ__ム
  6
CONTINUOUS
 62
    4
 10
-50.666666666666544
 20
62.833333333333172
 11
-47.499999999999716
 21
62.833333333333172
  0
ARC
  8
_1-4_フレ__ム
  6
CONTINUOUS
 62
    4
 10
-50.666666666666544
 20
63.499999999999915
 40
0.6666666666666666
 50
180
 51
270
  0
LINE
  8
_1-4_フレ__ム
  6
CONTINUOUS
 62
    4
 10
-48.93333333333328
 20
63.666666666666515
 11
-50.166666666666544
 21
63.666666666666515
  0
LINE
  8
_1-4_フレ__ム
  6
CONTINUOUS
 62
    4
 10
-48.833333333333201
 20
63.566666666666521
 11
-48.93333333333328
 21
63.666666666666515
  0
LINE
  8
_1-4_フレ__ム
  6
CONTINUOUS
 62
    4
 10
-48.733333333333292
 20
63.666666666666515
 11
-48.833333333333201
 21
63.566666666666521
  0
LINE
  8
_1-4_フレ__ム
  6
CONTINUOUS
 62
    4
 10
-47.499999999999716
 20
63.666666666666515
 11
-48.733333333333292
 21
63.666666666666515
  0
ARC
  8
_1-4_フレ__ム
  6
CONTINUOUS
 62
    4
 10
-46.166666666666401
 20
62.666666666666572
 40
0.1666666666666666
 50
180
 51
270
  0
ARC
  8
_1-4_フレ__ム
  6
CONTINUOUS
 62
    4
 10
-45.249999999999886
 20
64.749999999999915
 40
0.25
 50
0
 51
180
  0
LINE
  8
_1-4_フレ__ム
  6
CONTINUOUS
 62
    4
 10
-44.999999999999716
 20
62.166666666666544
 11
-44.999999999999716
 21
64.749999999999915
  0
ARC
  8
_1-4_フレ__ム
  6
CONTINUOUS
 62
    4
 10
-45.166666666666544
 20
62.166666666666544
 40
0.1666666666666666
 50
270
 51
0
  0
LINE
  8
_1-4_フレ__ム
  6
CONTINUOUS
 62
    4
 10
-45.999999999999886
 20
61.999999999999829
 11
-45.166666666666544
 21
61.999999999999829
  0
ARC
  8
_1-4_フレ__ム
  6
CONTINUOUS
 62
    4
 10
-45.999999999999886
 20
61.666666666666544
 40
0.3333333333333333
 50
90
 51
180
  0
LINE
  8
_1-4_フレ__ム
  6
CONTINUOUS
 62
    4
 10
-83.233333333332837
 20
56.666666666666544
 11
-83.333333333333059
 21
56.566666666666634
  0
LINE
  8
_1-4_フレ__ム
  6
CONTINUOUS
 62
    4
 10
-78.333333333333059
 20
56.666666666666544
 11
-83.233333333332837
 21
56.666666666666544
  0
ARC
  8
_1-4_フレ__ム
  6
CONTINUOUS
 62
    4
 10
-102.99999999999972
 20
55.833333333333201
 40
0.3333333333333333
 50
180
 51
270
  0
ARC
  8
_1-4_フレ__ム
  6
CONTINUOUS
 62
    4
 10
-101.33333333333306
 20
57.666666666666572
 40
1
 50
180
 51
270
  0
LINE
  8
_1-4_フレ__ム
  6
CONTINUOUS
 62
    4
 10
-83.433333333332968
 20
56.666666666666544
 11
-101.33333333333306
 21
56.666666666666544
  0
LINE
  8
_1-4_フレ__ム
  6
CONTINUOUS
 62
    4
 10
-83.333333333333059
 20
56.566666666666634
 11
-83.433333333332968
 21
56.666666666666544
  0
ARC
  8
_1-4_フレ__ム
  6
CONTINUOUS
 62
    4
 10
-47.833333333333059
 20
56.999999999999829
 40
0.6666666666666666
 50
270
 51
0
  0
LINE
  8
_1-4_フレ__ム
  6
CONTINUOUS
 62
    4
 10
-47.166666666666544
 20
62.499999999999886
 11
-47.166666666666544
 21
56.999999999999829
  0
LINE
  8
_1-4_フレ__ム
  6
CONTINUOUS
 62
    4
 10
-46.333333333333201
 20
55.5
 11
-46.333333333333201
 21
61.666666666666544
  0
LINE
  8
_1-4_フレ__ム
  6
CONTINUOUS
 62
    4
 10
-103.33333333333306
 20
60.43333333333328
 11
-103.33333333333306
 21
55.833333333333201
  0
LINE
  8
_1-4_フレ__ム
  6
CONTINUOUS
 62
    4
 10
-102.3333333333329
 20
57.666666666666572
 11
-102.3333333333329
 21
60.43333333333328
  0
LINE
  8
_1-4_フレ__ム
  6
CONTINUOUS
 62
    4
 10
-51.333333333333201
 20
64.166666666666544
 11
-51.333333333333201
 21
63.499999999999915
  0
LINE
  8
_1-4_フレ__ム
  6
CONTINUOUS
 62
    4
 10
-50.166666666666544
 20
64.166666666666544
 11
-51.333333333333201
 21
64.166666666666544
  0
LINE
  8
_1-4_フレ__ム
  6
CONTINUOUS
 62
    4
 10
-50.166666666666544
 20
63.666666666666515
 11
-50.166666666666544
 21
64.166666666666544
  0
LINE
  8
_1-4_フレ__ム
  6
CONTINUOUS
 62
    4
 10
-47.499999999999716
 20
64.166666666666544
 11
-47.499999999999716
 21
63.666666666666515
  0
LINE
  8
_1-4_フレ__ム
  6
CONTINUOUS
 62
    4
 10
-46.333333333333201
 20
64.166666666666544
 11
-47.499999999999716
 21
64.166666666666544
  0
LINE
  8
_1-4_フレ__ム
  6
CONTINUOUS
 62
    4
 10
-46.333333333333201
 20
62.666666666666572
 11
-46.333333333333201
 21
64.166666666666544
  0
LINE
  8
_1-4_フレ__ム
  6
CONTINUOUS
 62
    4
 10
-45.499999999999886
 20
62.499999999999886
 11
-46.166666666666401
 21
62.499999999999886
  0
LINE
  8
_1-4_フレ__ム
  6
CONTINUOUS
 62
    4
 10
-45.499999999999886
 20
64.749999999999915
 11
-45.499999999999886
 21
62.499999999999886
  0
ARC
  8
_1-4_フレ__ム
  6
CONTINUOUS
 62
    4
 10
-102.83333333333306
 20
62.099999999999909
 40
0.5
 50
0
 51
180
  0
LINE
  8
_1-4_フレ__ム
  6
CENTER2
 62
    4
 10
-48.833333333333087
 20
64.666666666666515
 11
-48.833333333333087
 21
61.833333333333172
  0
LINE
  8
_1-4_フレ__ム
  6
CONTINUOUS
 62
    4
 10
-56.666666666666401
 20
56.233333333333121
 11
-56.76666666666631
 21
56.333333333333314
  0
LINE
  8
_1-4_フレ__ム
  6
CONTINUOUS
 62
    4
 10
-56.566666666666492
 20
56.333333333333314
 11
-56.666666666666401
 21
56.233333333333121
  0
LINE
  8
_1-4_フレ__ム
  6
CONTINUOUS
 62
    4
 10
-47.833333333333059
 20
56.333333333333314
 11
-56.566666666666492
 21
56.333333333333314
  0
LINE
  8
_1-4_フレ__ム
  6
CONTINUOUS
 62
    4
 10
-56.76666666666631
 20
56.333333333333314
 11
-77.499999999999716
 21
56.333333333333314
  0
LINE
  8
_1-4_フレ__ム
  6
CONTINUOUS
 62
    4
 10
-78.333333333333059
 20
56.666666666666544
 11
-77.499999999999716
 21
56.333333333333314
  0
LINE
  8
_1-4_フレ__ム
  6
CENTER2
 62
    4
 10
-83.333333333332902
 20
53.833333333333314
 11
-83.333333333332902
 21
58.333333333333201
  0
LINE
  8
_1-4_フレ__ム
  6
CENTER2
 62
    4
 10
-56.666666666666856
 20
53.833333333333314
 11
-56.666666666666856
 21
58
  0
LINE
  8
_1-4_フレ__ム
  6
CONTINUOUS
 62
    4
 10
-103.01666666666631
 20
55.5
 11
-46.333333333333201
 21
55.5
  0
LINE
  8
_1-4_フレ__ム
  6
DASHED1
 62
    4
 10
-85.833333333332902
 20
55.5
 11
-85.833333333332902
 21
56.666666666666657
  0
LINE
  8
_1-4_フレ__ム
  6
DASHED1
 62
    4
 10
-80.833333333332916
 20
55.5
 11
-80.833333333332916
 21
56.666666666666657
  0
LINE
  8
_1-4_フレ__ム
  6
DASHED1
 62
    4
 10
-59.166666666666856
 20
55.5
 11
-59.166666666666856
 21
56.333333333333314
  0
LINE
  8
_1-4_フレ__ム
  6
DASHED1
 62
    4
 10
-54.166666666666856
 20
55.5
 11
-54.166666666666856
 21
56.333333333333314
  0
ENDBLK
  0
BLOCK
  2
-013-_10_
 70
   64
 10
0
 20
0
 30
0
  0
LINE
  8
_1-8_小物
  6
CONTINUOUS
 62
    4
 10
-54.863908333333598
 20
41.906724999999881
 11
-54.829018333334091
 21
41.24097166666661
  0
LINE
  8
_1-8_小物
  6
CONTINUOUS
 62
    4
 10
-54.916245000000629
 20
42.905354999999872
 11
-55.564551666667171
 21
42.53758833333319
  0
LINE
  8
_1-8_小物
  6
CONTINUOUS
 62
    4
 10
-55.564551666667171
 20
42.53758833333319
 11
-55.529661666667039
 21
41.871834999999919
  0
LINE
  8
_1-8_小物
  6
CONTINUOUS
 62
    4
 10
-55.529661666667039
 20
41.871834999999919
 11
-54.863908333333598
 21
41.906724999999881
  0
LINE
  8
_1-8_小物
  6
CONTINUOUS
 62
    4
 10
-54.951135000000534
 20
43.571108333333314
 11
-54.916245000000629
 21
42.905354999999872
  0
LINE
  8
_1-8_小物
  6
CONTINUOUS
 62
    4
 10
-55.003471666667167
 20
44.569736666666643
 11
-55.651778333334107
 21
44.201969999999676
  0
LINE
  8
_1-8_小物
  6
CONTINUOUS
 62
    4
 10
-55.651778333334107
 20
44.201969999999676
 11
-55.616888333333804
 21
43.536216666666633
  0
LINE
  8
_1-8_小物
  6
CONTINUOUS
 62
    4
 10
-55.616888333333804
 20
43.536216666666633
 11
-54.951135000000534
 21
43.571108333333314
  0
LINE
  8
_1-8_小物
  6
CONTINUOUS
 62
    4
 10
-55.038361666667356
 20
45.235490000000027
 11
-55.003471666667167
 21
44.569736666666643
  0
LINE
  8
_1-8_小物
  6
CONTINUOUS
 62
    4
 10
-55.090698333333705
 20
46.234119999999677
 11
-55.739005000000247
 21
45.866353333333336
  0
LINE
  8
_1-8_小物
  6
CONTINUOUS
 62
    4
 10
-55.739005000000247
 20
45.866353333333336
 11
-55.704115000000741
 21
45.200599999999952
  0
LINE
  8
_1-8_小物
  6
CONTINUOUS
 62
    4
 10
-55.704115000000741
 20
45.200599999999952
 11
-55.038361666667356
 21
45.235490000000027
  0
LINE
  8
_1-8_小物
  6
CONTINUOUS
 62
    4
 10
-55.125588333333894
 20
46.899873333333289
 11
-55.090698333333705
 21
46.234119999999677
  0
LINE
  8
_1-8_小物
  6
CONTINUOUS
 62
    4
 10
-55.177925000000528
 20
47.898503333333338
 11
-55.826231666667184
 21
47.530734999999879
  0
LINE
  8
_1-8_小物
  6
CONTINUOUS
 62
    4
 10
-55.826231666667184
 20
47.530734999999879
 11
-55.791341666667279
 21
46.864981666666608
  0
LINE
  8
_1-8_小物
  6
CONTINUOUS
 62
    4
 10
-55.791341666667279
 20
46.864981666666608
 11
-55.125588333333894
 21
46.899873333333289
  0
LINE
  8
_1-8_小物
  6
CONTINUOUS
 62
    4
 10
-55.212815000000433
 20
48.564254999999832
 11
-55.177925000000528
 21
47.898503333333338
  0
LINE
  8
_1-8_小物
  6
CONTINUOUS
 62
    4
 10
-55.913458333334006
 20
49.195118333333141
 11
-55.878568333333817
 21
48.529364999999871
  0
LINE
  8
_1-8_小物
  6
CONTINUOUS
 62
    4
 10
-55.878568333333817
 20
48.529364999999871
 11
-55.212815000000433
 21
48.564254999999832
  0
LINE
  8
_1-8_小物
  6
CONTINUOUS
 62
    4
 10
-55.333333333333826
 20
49.5
 11
-55.913458333334006
 21
49.195118333333141
  0
LINE
  8
_1-8_小物
  6
CONTINUOUS
 62
    4
 10
-58.469425000000513
 20
41.906724999999881
 11
-58.504315000000418
 21
41.24097166666661
  0
LINE
  8
_1-8_小物
  6
CONTINUOUS
 62
    4
 10
-58.417088333333879
 20
42.905354999999872
 11
-57.768781666667223
 21
42.53758833333319
  0
LINE
  8
_1-8_小物
  6
CONTINUOUS
 62
    4
 10
-57.768781666667223
 20
42.53758833333319
 11
-57.803671666667356
 21
41.871834999999919
  0
LINE
  8
_1-8_小物
  6
CONTINUOUS
 62
    4
 10
-57.803671666667356
 20
41.871834999999919
 11
-58.469425000000513
 21
41.906724999999881
  0
LINE
  8
_1-8_小物
  6
CONTINUOUS
 62
    4
 10
-58.382198333333577
 20
43.571108333333314
 11
-58.417088333333879
 21
42.905354999999872
  0
LINE
  8
_1-8_小物
  6
CONTINUOUS
 62
    4
 10
-58.329861666667341
 20
44.569736666666643
 11
-57.681555000000685
 21
44.201969999999676
  0
LINE
  8
_1-8_小物
  6
CONTINUOUS
 62
    4
 10
-57.681555000000685
 20
44.201969999999676
 11
-57.716445000000306
 21
43.536216666666633
  0
LINE
  8
_1-8_小物
  6
CONTINUOUS
 62
    4
 10
-57.716445000000306
 20
43.536216666666633
 11
-58.382198333333577
 21
43.571108333333314
  0
LINE
  8
_1-8_小物
  6
CONTINUOUS
 62
    4
 10
-58.294971666667436
 20
45.235490000000027
 11
-58.329861666667341
 21
44.569736666666643
  0
LINE
  8
_1-8_小物
  6
CONTINUOUS
 62
    4
 10
-58.242635000000803
 20
46.234119999999677
 11
-57.594328333333863
 21
45.866353333333336
  0
LINE
  8
_1-8_小物
  6
CONTINUOUS
 62
    4
 10
-57.594328333333863
 20
45.866353333333336
 11
-57.629218333333768
 21
45.200599999999952
  0
LINE
  8
_1-8_小物
  6
CONTINUOUS
 62
    4
 10
-57.629218333333768
 20
45.200599999999952
 11
-58.294971666667436
 21
45.235490000000027
  0
LINE
  8
_1-8_小物
  6
CONTINUOUS
 62
    4
 10
-58.2077450000005
 20
46.899873333333289
 11
-58.242635000000803
 21
46.234119999999677
  0
LINE
  8
_1-8_小物
  6
CONTINUOUS
 62
    4
 10
-58.155408333333639
 20
47.898503333333338
 11
-57.507101666666927
 21
47.530734999999879
  0
LINE
  8
_1-8_小物
  6
CONTINUOUS
 62
    4
 10
-57.507101666666927
 20
47.530734999999879
 11
-57.541991666667229
 21
46.864981666666608
  0
LINE
  8
_1-8_小物
  6
CONTINUOUS
 62
    4
 10
-57.541991666667229
 20
46.864981666666608
 11
-58.2077450000005
 21
46.899873333333289
  0
LINE
  8
_1-8_小物
  6
CONTINUOUS
 62
    4
 10
-58.120518333333962
 20
48.564254999999832
 11
-58.155408333333639
 21
47.898503333333338
  0
LINE
  8
_1-8_小物
  6
CONTINUOUS
 62
    4
 10
-57.419875000000388
 20
49.195118333333141
 11
-57.454765000000691
 21
48.529364999999871
  0
LINE
  8
_1-8_小物
  6
CONTINUOUS
 62
    4
 10
-57.454765000000691
 20
48.529364999999871
 11
-58.120518333333962
 21
48.564254999999832
  0
LINE
  8
_1-8_小物
  6
CONTINUOUS
 62
    4
 10
-56.686435000000415
 20
41.519768333333161
 11
-56.04186833333398
 21
42.091658333333271
  0
LINE
  8
_1-8_小物
  6
CONTINUOUS
 62
    4
 10
-57.289815000000658
 20
42.123146666666628
 11
-56.666666666666856
 21
41.499999999999829
  0
LINE
  8
_1-8_小物
  6
CONTINUOUS
 62
    4
 10
-58.000000000000284
 20
49.5
 11
-57.419875000000388
 21
49.195118333333141
  0
LINE
  8
_1-8_小物
  6
CONTINUOUS
 62
    4
 10
-55.125588333333894
 20
46.899873333333289
 11
-54.560466666667367
 21
48.452533333333122
  0
LINE
  8
_1-8_小物
  6
CONTINUOUS
 62
    4
 10
-55.48031500000036
 20
46.899873333333289
 11
-54.873696666667115
 21
48.566539999999861
  0
LINE
  8
_1-8_小物
  6
CONTINUOUS
 62
    4
 10
-58.2077450000005
 20
46.899873333333289
 11
-58.772866666667028
 21
48.452533333333122
  0
LINE
  8
_1-8_小物
  6
CONTINUOUS
 62
    4
 10
-57.853018333334035
 20
46.899873333333289
 11
-58.459636666667279
 21
48.566539999999861
  0
LINE
  8
_1-8_小物
  6
CONTINUOUS
 62
    4
 10
-55.994085000000553
 20
41.179913333333161
 11
-54.829018333334091
 21
41.24097166666661
  0
LINE
  8
_1-8_小物
  6
CONTINUOUS
 62
    4
 10
-54.829018333334091
 20
41.24097166666661
 11
-55.459880000000624
 21
40.540328333333321
  0
LINE
  8
_1-8_小物
  6
CONTINUOUS
 62
    4
 10
-55.459880000000624
 20
40.540328333333321
 11
-55.95919500000025
 21
40.514159999999777
  0
LINE
  8
_1-8_小物
  6
CONTINUOUS
 62
    4
 10
-55.95919500000025
 20
40.514159999999777
 11
-56.500000000000284
 21
50.833333333333087
  0
LINE
  8
_1-8_小物
  6
CONTINUOUS
 62
    4
 10
-55.333333333333826
 20
49.5
 11
-55.333333333333826
 21
50.833333333333087
  0
LINE
  8
_1-8_小物
  6
CONTINUOUS
 62
    4
 10
-57.339248333333956
 20
41.179913333333161
 11
-58.504315000000418
 21
41.24097166666661
  0
LINE
  8
_1-8_小物
  6
CONTINUOUS
 62
    4
 10
-58.504315000000418
 20
41.24097166666661
 11
-57.873453333333885
 21
40.540328333333321
  0
LINE
  8
_1-8_小物
  6
CONTINUOUS
 62
    4
 10
-57.873453333333885
 20
40.540328333333321
 11
-57.37413833333386
 21
40.514159999999777
  0
LINE
  8
_1-8_小物
  6
CONTINUOUS
 62
    4
 10
-57.37413833333386
 20
40.514159999999777
 11
-56.833333333333826
 21
50.833333333333087
  0
LINE
  8
_1-8_小物
  6
CONTINUOUS
 62
    4
 10
-58.000000000000284
 20
49.5
 11
-58.000000000000284
 21
50.833333333333087
  0
LINE
  8
_1-8_小物
  6
CONTINUOUS
 62
    4
 10
-58.772866666667028
 20
48.452533333333122
 11
-59.103651666667133
 21
50.720406666666804
  0
ARC
  8
_1-8_小物
  6
CONTINUOUS
 62
    4
 10
-58.971715000000472
 20
50.739651666666589
 40
0.1333333333333333
 50
98.130101999964168
 51
188.29846599999897
  0
LINE
  8
_1-8_小物
  6
CONTINUOUS
 62
    4
 10
-58.990571666667506
 20
50.871644999999944
 11
-58.924963333333721
 21
50.88101666666671
  0
ARC
  8
_1-8_小物
  6
CONTINUOUS
 62
    4
 10
-58.906106666666915
 20
50.749023333333298
 40
0.1333333333333333
 50
8.1301020000159863
 51
98.130102000226714
  0
LINE
  8
_1-8_小物
  6
CONTINUOUS
 62
    4
 10
-58.77411333333373
 20
50.767879999999877
 11
-58.459636666667279
 21
48.566539999999861
  0
LINE
  8
_1-8_小物
  6
CONTINUOUS
 62
    4
 10
-54.560466666667367
 20
48.452533333333122
 11
-54.229681666667261
 21
50.720406666666804
  0
ARC
  8
_1-8_小物
  6
CONTINUOUS
 62
    4
 10
-54.361618333333922
 20
50.739651666666589
 40
0.1333333333333333
 50
351.70153399996303
 51
81.869898000047954
  0
LINE
  8
_1-8_小物
  6
CONTINUOUS
 62
    4
 10
-54.342763333333892
 20
50.871644999999944
 11
-54.408370000000673
 21
50.88101666666671
  0
ARC
  8
_1-8_小物
  6
CONTINUOUS
 62
    4
 10
-54.427226666666968
 20
50.749023333333298
 40
0.1333333333333333
 50
81.869898000046192
 51
171.86989800000993
  0
LINE
  8
_1-8_小物
  6
CONTINUOUS
 62
    4
 10
-54.559220000000664
 20
50.767879999999877
 11
-54.873696666667115
 21
48.566539999999861
  0
LINE
  8
_1-8_小物
  6
CONTINUOUS
 62
    4
 10
-54.560466666667367
 20
48.452533333333122
 11
-54.229681666667261
 21
50.720406666666804
  0
ARC
  8
_1-8_小物
  6
CONTINUOUS
 62
    4
 10
-54.361618333333922
 20
50.739651666666589
 40
0.1333333333333333
 50
351.70153399996303
 51
81.869898000047954
  0
LINE
  8
_1-8_小物
  6
CONTINUOUS
 62
    4
 10
-54.342763333333892
 20
50.871644999999944
 11
-54.408370000000673
 21
50.88101666666671
  0
ARC
  8
_1-8_小物
  6
CONTINUOUS
 62
    4
 10
-54.427226666666968
 20
50.749023333333298
 40
0.1333333333333333
 50
81.869898000046192
 51
171.86989800000993
  0
LINE
  8
_1-8_小物
  6
CONTINUOUS
 62
    4
 10
-54.559220000000664
 20
50.767879999999877
 11
-54.873696666667115
 21
48.566539999999861
  0
LINE
  8
_1-8_小物
  6
CONTINUOUS
 62
    4
 10
-55.000000000000284
 20
53.5
 11
-55.333333333333826
 21
51.833333333333314
  0
LINE
  8
_1-8_小物
  6
CONTINUOUS
 62
    4
 10
-55.333333333333826
 20
53.5
 11
-55.333333333333826
 21
50.833333333333087
  0
LINE
  8
_1-8_小物
  6
CONTINUOUS
 62
    4
 10
-56.500000000000284
 20
50.833333333333087
 11
-56.666666666666856
 21
50.833333333333087
  0
LINE
  8
_1-8_小物
  6
CONTINUOUS
 62
    4
 10
-56.666666666666856
 20
51.833333333333314
 11
-56.666666666666856
 21
53.5
  0
LINE
  8
_1-8_小物
  6
CONTINUOUS
 62
    4
 10
-56.333333333333826
 20
53.5
 11
-56.666666666666856
 21
51.833333333333314
  0
LINE
  8
_1-8_小物
  6
CONTINUOUS
 62
    4
 10
-57.000000000000568
 20
53.5
 11
-56.666666666666856
 21
51.833333333333314
  0
LINE
  8
_1-8_小物
  6
CONTINUOUS
 62
    4
 10
-58.333333333333599
 20
53.5
 11
-58.000000000000284
 21
51.833333333333314
  0
LINE
  8
_1-8_小物
  6
CONTINUOUS
 62
    4
 10
-58.000000000000284
 20
53.5
 11
-58.000000000000284
 21
50.833333333333087
  0
LINE
  8
_1-8_小物
  6
CONTINUOUS
 62
    4
 10
-56.833333333333826
 20
50.833333333333087
 11
-56.666666666666856
 21
50.833333333333087
  0
LINE
  8
_1-8_小物
  6
CONTINUOUS
 62
    4
 10
-55.000000000000284
 20
53.5
 11
-58.333333333333599
 21
53.5
  0
ENDBLK
  0
BLOCK
  2
-014-_11_
 70
   64
 10
0
 20
0
 30
0
  0
LINE
  8
_1-8_小物
  6
CONTINUOUS
 62
    4
 10
-53.666666666666856
 20
56.833333333333286
 11
-59.666666666667169
 21
56.833333333333286
  0
LINE
  8
_1-8_小物
  6
CONTINUOUS
 62
    4
 10
-53.666666666666856
 20
56.333333333333286
 11
-59.666666666667169
 21
56.333333333333286
  0
LINE
  8
_1-8_小物
  6
CONTINUOUS
 62
    4
 10
-53.666666666666856
 20
56.833333333333286
 11
-53.666666666666856
 21
56.333333333333286
  0
LINE
  8
_1-8_小物
  6
CONTINUOUS
 62
    4
 10
-59.666666666667169
 20
56.833333333333286
 11
-59.666666666667169
 21
56.333333333333286
  0
LINE
  8
_1-8_小物
  6
CONTINUOUS
 62
    4
 10
-55.750000000000199
 20
56.833333333333286
 11
-55.750000000000199
 21
56.333333333333286
  0
LINE
  8
_1-8_小物
  6
CONTINUOUS
 62
    4
 10
-57.583333333333826
 20
56.833333333333286
 11
-57.583333333333826
 21
56.333333333333286
  0
LINE
  8
_1-8_小物
  6
CONTINUOUS
 62
    4
 10
-55.166666666666856
 20
56.833333333333286
 11
-55.202970927933734
 21
57.248292938333321
  0
LINE
  8
_1-8_小物
  6
CONTINUOUS
 62
    4
 10
-58.130362405433715
 20
57.248292938333321
 11
-58.166666666666856
 21
56.833333333333286
  0
ARC
  8
_1-8_小物
  6
CONTINUOUS
 62
    4
 10
-57.801618155033992
 20
57.219531543233217
 40
0.3299999999999999
 50
127.36755803205052
 51
175.00000000119871
  0
ARC
  8
_1-8_小物
  6
CONTINUOUS
 62
    4
 10
-55.531715178300345
 20
57.219531543233217
 40
0.3299999999999999
 50
4.999999998801286
 51
52.632441967949475
  0
ARC
  8
_1-8_小物
  6
CONTINUOUS
 62
    4
 10
-56.666666666667169
 20
55.733333333333263
 40
2.1999999999999997
 50
52.632441967704935
 51
68.266383543398163
  0
ARC
  8
_1-8_小物
  6
CONTINUOUS
 62
    4
 10
-56.666666666667169
 20
55.733333333333263
 40
2.1999999999999997
 50
111.74840859090331
 51
127.36755803230515
  0
LINE
  8
_1-8_小物
  6
CONTINUOUS
 62
    4
 10
-56.561666666667065
 20
57.919709043200015
 11
-56.561666666667065
 21
57.774437413199877
  0
LINE
  8
_1-8_小物
  6
CONTINUOUS
 62
    4
 10
-56.445903772700035
 20
57.919709043200015
 11
-56.561666666667065
 21
57.919709043200015
  0
LINE
  8
_1-8_小物
  6
CONTINUOUS
 62
    4
 10
-55.852498910500458
 20
57.774437413199877
 11
-56.445903772700035
 21
57.919709043200015
  0
LINE
  8
_1-8_小物
  6
CONTINUOUS
 62
    4
 10
-56.887429560667101
 20
57.919709043200015
 11
-57.320732983233825
 21
57.831230436066704
  0
LINE
  8
_1-8_小物
  6
CONTINUOUS
 62
    4
 10
-57.320732983233825
 20
57.831230436066704
 11
-57.480834422866678
 21
57.774437413199877
  0
LINE
  8
_1-8_小物
  6
CONTINUOUS
 62
    4
 10
-56.771666666667102
 20
57.919709043200015
 11
-56.887429560667101
 21
57.919709043200015
  0
LINE
  8
_1-8_小物
  6
CONTINUOUS
 62
    4
 10
-56.771666666667102
 20
57.774437413199877
 11
-56.771666666667102
 21
57.919709043200015
  0
LINE
  8
_1-8_小物
  6
CONTINUOUS
 62
    4
 10
-56.561666666667065
 20
57.774437413199877
 11
-56.666666666667169
 21
57.776139137999991
  0
LINE
  8
_1-8_小物
  6
CONTINUOUS
 62
    4
 10
-56.666666666667169
 20
57.776139137999991
 11
-56.771666666667102
 21
57.774437413199877
  0
LINE
  8
_1-8_小物
  6
CONTINUOUS
 62
    4
 10
-55.202970927933734
 20
57.248292938333321
 11
-58.130362405433715
 21
57.248292938333321
  0
LINE
  8
_1-8_小物
  6
CONTINUOUS
 62
    4
 10
-56.666666666667169
 20
57.481801815566683
 11
-58.001903711833819
 21
57.481801815566683
  0
LINE
  8
_1-8_小物
  6
CONTINUOUS
 62
    4
 10
-55.33142962153363
 20
57.481801815566683
 11
-56.666666666667169
 21
57.481801815566683
  0
ENDBLK
  0
BLOCK
  2
-015-_12_
 70
   64
 10
0
 20
0
 30
0
  0
LINE
  8
_1-f_寸法
  6
CENTER2
 62
    4
 10
-120
 20
60.598595019007917
 11
-120
 21
65.099999333333358
  0
LINE
  8
_1-f_寸法
  6
CONTINUOUS
 62
    4
 10
-139.5
 20
63.999999333333392
 11
-139.5
 21
64.099999333333471
  0
LINE
  8
_1-f_寸法
  6
CONTINUOUS
 62
    4
 10
-139.5
 20
63.999999333333392
 11
-138.49999999999994
 21
63.999999333333392
  0
LINE
  8
_1-f_寸法
  6
CONTINUOUS
 62
    4
 10
-138.49999999999994
 20
63.999999333333392
 11
-138.49999999999994
 21
64.099999333333471
  0
LINE
  8
_1-f_寸法
  6
CONTINUOUS
 62
    4
 10
-138.49999999999994
 20
64.099999333333471
 11
-137.50000000000011
 21
64.099999333333471
  0
LINE
  8
_1-f_寸法
  6
CONTINUOUS
 62
    4
 10
-137.50000000000011
 20
63.999999333333392
 11
-137.50000000000011
 21
64.099999333333471
  0
LINE
  8
_1-f_寸法
  6
CONTINUOUS
 62
    4
 10
-137.50000000000011
 20
63.999999333333392
 11
-136.49999999999989
 21
63.999999333333392
  0
LINE
  8
_1-f_寸法
  6
CONTINUOUS
 62
    4
 10
-136.49999999999989
 20
63.999999333333392
 11
-136.49999999999989
 21
64.099999333333471
  0
LINE
  8
_1-f_寸法
  6
CONTINUOUS
 62
    4
 10
-136.49999999999989
 20
64.099999333333471
 11
-135.5
 21
64.099999333333471
  0
LINE
  8
_1-f_寸法
  6
CONTINUOUS
 62
    4
 10
-135.5
 20
63.999999333333392
 11
-135.5
 21
64.099999333333471
  0
LINE
  8
_1-f_寸法
  6
CONTINUOUS
 62
    4
 10
-135.5
 20
63.999999333333392
 11
-134.5
 21
63.999999333333392
  0
LINE
  8
_1-f_寸法
  6
CONTINUOUS
 62
    4
 10
-134.5
 20
63.999999333333392
 11
-134.5
 21
64.099999333333471
  0
LINE
  8
_1-f_寸法
  6
CONTINUOUS
 62
    4
 10
-134.5
 20
64.099999333333471
 11
-133.50000000000017
 21
64.099999333333471
  0
LINE
  8
_1-f_寸法
  6
CONTINUOUS
 62
    4
 10
-133.50000000000017
 20
63.999999333333392
 11
-133.50000000000017
 21
64.099999333333471
  0
LINE
  8
_1-f_寸法
  6
CONTINUOUS
 62
    4
 10
-133.50000000000017
 20
63.999999333333392
 11
-132.50000000000011
 21
63.999999333333392
  0
LINE
  8
_1-f_寸法
  6
CONTINUOUS
 62
    4
 10
-132.50000000000011
 20
63.999999333333392
 11
-132.50000000000011
 21
64.099999333333471
  0
LINE
  8
_1-f_寸法
  6
CONTINUOUS
 62
    4
 10
-132.50000000000011
 20
64.099999333333471
 11
-131.50000000000023
 21
64.099999333333471
  0
LINE
  8
_1-f_寸法
  6
CONTINUOUS
 62
    4
 10
-131.50000000000023
 20
63.999999333333392
 11
-131.50000000000023
 21
64.099999333333471
  0
LINE
  8
_1-f_寸法
  6
CONTINUOUS
 62
    4
 10
-131.50000000000023
 20
63.999999333333392
 11
-130.5
 21
63.999999333333392
  0
LINE
  8
_1-f_寸法
  6
CONTINUOUS
 62
    4
 10
-130.5
 20
63.999999333333392
 11
-130.5
 21
64.099999333333471
  0
LINE
  8
_1-f_寸法
  6
CONTINUOUS
 62
    4
 10
-130.5
 20
64.099999333333471
 11
-129.50000000000017
 21
64.099999333333471
  0
LINE
  8
_1-f_寸法
  6
CONTINUOUS
 62
    4
 10
-129.50000000000017
 20
63.999999333333392
 11
-129.50000000000017
 21
64.099999333333471
  0
LINE
  8
_1-f_寸法
  6
CONTINUOUS
 62
    4
 10
-129.50000000000017
 20
63.999999333333392
 11
-128.50000000000017
 21
63.999999333333392
  0
LINE
  8
_1-f_寸法
  6
CONTINUOUS
 62
    4
 10
-128.50000000000017
 20
63.999999333333392
 11
-128.50000000000017
 21
64.099999333333471
  0
LINE
  8
_1-f_寸法
  6
CONTINUOUS
 62
    4
 10
-128.50000000000017
 20
64.099999333333471
 11
-127.50000000000033
 21
64.099999333333471
  0
LINE
  8
_1-f_寸法
  6
CONTINUOUS
 62
    4
 10
-127.50000000000033
 20
63.999999333333392
 11
-127.50000000000033
 21
64.099999333333471
  0
LINE
  8
_1-f_寸法
  6
CONTINUOUS
 62
    4
 10
-127.50000000000033
 20
63.999999333333392
 11
-126.50000000000023
 21
63.999999333333392
  0
LINE
  8
_1-f_寸法
  6
CONTINUOUS
 62
    4
 10
-126.50000000000023
 20
63.999999333333392
 11
-126.50000000000023
 21
64.099999333333471
  0
LINE
  8
_1-f_寸法
  6
CONTINUOUS
 62
    4
 10
-126.50000000000023
 20
64.099999333333471
 11
-125.50000000000038
 21
64.099999333333471
  0
LINE
  8
_1-f_寸法
  6
CONTINUOUS
 62
    4
 10
-125.50000000000038
 20
63.999999333333392
 11
-125.50000000000038
 21
64.099999333333471
  0
LINE
  8
_1-f_寸法
  6
CONTINUOUS
 62
    4
 10
-125.50000000000038
 20
63.999999333333392
 11
-124.50000000000027
 21
63.999999333333392
  0
LINE
  8
_1-f_寸法
  6
CONTINUOUS
 62
    4
 10
-124.50000000000027
 20
63.999999333333392
 11
-124.50000000000027
 21
64.099999333333471
  0
LINE
  8
_1-f_寸法
  6
CONTINUOUS
 62
    4
 10
-124.50000000000027
 20
64.099999333333471
 11
-123.50000000000034
 21
64.099999333333471
  0
LINE
  8
_1-f_寸法
  6
CONTINUOUS
 62
    4
 10
-123.50000000000034
 20
63.999999333333392
 11
-123.50000000000034
 21
64.099999333333471
  0
LINE
  8
_1-f_寸法
  6
CONTINUOUS
 62
    4
 10
-123.50000000000034
 20
63.999999333333392
 11
-122.50000000000033
 21
63.999999333333392
  0
LINE
  8
_1-f_寸法
  6
CONTINUOUS
 62
    4
 10
-122.50000000000033
 20
63.999999333333392
 11
-122.50000000000033
 21
64.099999333333471
  0
LINE
  8
_1-f_寸法
  6
CONTINUOUS
 62
    4
 10
-122.50000000000033
 20
64.099999333333471
 11
-121.50000000000045
 21
64.099999333333471
  0
LINE
  8
_1-f_寸法
  6
CONTINUOUS
 62
    4
 10
-121.50000000000045
 20
63.999999333333392
 11
-121.50000000000045
 21
64.099999333333471
  0
LINE
  8
_1-f_寸法
  6
CONTINUOUS
 62
    4
 10
-121.50000000000045
 20
63.999999333333392
 11
-120.50000000000023
 21
63.999999333333392
  0
LINE
  8
_1-f_寸法
  6
CONTINUOUS
 62
    4
 10
-120.50000000000023
 20
63.999999333333392
 11
-120.50000000000023
 21
64.099999333333471
  0
LINE
  8
_1-f_寸法
  6
CONTINUOUS
 62
    4
 10
-120.50000000000023
 20
64.099999333333471
 11
-119.50000000000038
 21
64.099999333333471
  0
LINE
  8
_1-f_寸法
  6
CONTINUOUS
 62
    4
 10
-119.50000000000038
 20
63.999999333333392
 11
-119.50000000000038
 21
64.099999333333471
  0
LINE
  8
_1-f_寸法
  6
CONTINUOUS
 62
    4
 10
-119.50000000000038
 20
63.999999333333392
 11
-118.50000000000044
 21
63.999999333333392
  0
LINE
  8
_1-f_寸法
  6
CONTINUOUS
 62
    4
 10
-118.50000000000044
 20
63.999999333333392
 11
-118.50000000000044
 21
64.099999333333471
  0
LINE
  8
_1-f_寸法
  6
CONTINUOUS
 62
    4
 10
-118.50000000000044
 20
64.099999333333471
 11
-117.50000000000057
 21
64.099999333333471
  0
LINE
  8
_1-f_寸法
  6
CONTINUOUS
 62
    4
 10
-117.50000000000057
 20
63.999999333333392
 11
-117.50000000000057
 21
64.099999333333471
  0
LINE
  8
_1-f_寸法
  6
CONTINUOUS
 62
    4
 10
-117.50000000000057
 20
63.999999333333392
 11
-116.50000000000045
 21
63.999999333333392
  0
LINE
  8
_1-f_寸法
  6
CONTINUOUS
 62
    4
 10
-116.50000000000045
 20
63.999999333333392
 11
-116.50000000000045
 21
64.099999333333471
  0
LINE
  8
_1-f_寸法
  6
CONTINUOUS
 62
    4
 10
-116.50000000000045
 20
64.099999333333471
 11
-115.50000000000061
 21
64.099999333333471
  0
LINE
  8
_1-f_寸法
  6
CONTINUOUS
 62
    4
 10
-115.50000000000061
 20
63.999999333333392
 11
-115.50000000000061
 21
64.099999333333471
  0
LINE
  8
_1-f_寸法
  6
CONTINUOUS
 62
    4
 10
-115.50000000000061
 20
63.999999333333392
 11
-114.50000000000038
 21
63.999999333333392
  0
LINE
  8
_1-f_寸法
  6
CONTINUOUS
 62
    4
 10
-114.50000000000038
 20
63.999999333333392
 11
-114.50000000000038
 21
64.099999333333471
  0
LINE
  8
_1-f_寸法
  6
CONTINUOUS
 62
    4
 10
-114.50000000000038
 20
64.099999333333471
 11
-113.50000000000055
 21
64.099999333333471
  0
LINE
  8
_1-f_寸法
  6
CONTINUOUS
 62
    4
 10
-113.50000000000055
 20
63.999999333333392
 11
-113.50000000000055
 21
64.099999333333471
  0
LINE
  8
_1-f_寸法
  6
CONTINUOUS
 62
    4
 10
-113.50000000000055
 20
63.999999333333392
 11
-112.50000000000057
 21
63.999999333333392
  0
LINE
  8
_1-f_寸法
  6
CONTINUOUS
 62
    4
 10
-112.50000000000057
 20
63.999999333333392
 11
-112.50000000000057
 21
64.099999333333471
  0
LINE
  8
_1-f_寸法
  6
CONTINUOUS
 62
    4
 10
-112.50000000000057
 20
64.099999333333471
 11
-111.50000000000072
 21
64.099999333333471
  0
LINE
  8
_1-f_寸法
  6
CONTINUOUS
 62
    4
 10
-111.50000000000072
 20
63.999999333333392
 11
-111.50000000000072
 21
64.099999333333471
  0
LINE
  8
_1-f_寸法
  6
CONTINUOUS
 62
    4
 10
-111.50000000000072
 20
63.999999333333392
 11
-110.5000000000005
 21
63.999999333333392
  0
LINE
  8
_1-f_寸法
  6
CONTINUOUS
 62
    4
 10
-110.5000000000005
 20
63.999999333333392
 11
-110.5000000000005
 21
64.099999333333471
  0
LINE
  8
_1-f_寸法
  6
CONTINUOUS
 62
    4
 10
-110.5000000000005
 20
64.099999333333471
 11
-109.50000000000065
 21
64.099999333333471
  0
LINE
  8
_1-f_寸法
  6
CONTINUOUS
 62
    4
 10
-109.50000000000065
 20
63.999999333333392
 11
-109.50000000000065
 21
64.099999333333471
  0
LINE
  8
_1-f_寸法
  6
CONTINUOUS
 62
    4
 10
-109.50000000000065
 20
63.999999333333392
 11
-108.50000000000054
 21
63.999999333333392
  0
LINE
  8
_1-f_寸法
  6
CONTINUOUS
 62
    4
 10
-108.50000000000054
 20
63.999999333333392
 11
-108.50000000000054
 21
64.099999333333471
  0
LINE
  8
_1-f_寸法
  6
CONTINUOUS
 62
    4
 10
-108.50000000000054
 20
64.099999333333471
 11
-107.50000000000068
 21
64.099999333333471
  0
LINE
  8
_1-f_寸法
  6
CONTINUOUS
 62
    4
 10
-107.50000000000068
 20
63.999999333333392
 11
-107.50000000000068
 21
64.099999333333471
  0
LINE
  8
_1-f_寸法
  6
CONTINUOUS
 62
    4
 10
-107.50000000000068
 20
63.999999333333392
 11
-106.50000000000072
 21
63.999999333333392
  0
LINE
  8
_1-f_寸法
  6
CONTINUOUS
 62
    4
 10
-106.50000000000072
 20
63.999999333333392
 11
-106.50000000000072
 21
64.099999333333471
  0
LINE
  8
_1-f_寸法
  6
CONTINUOUS
 62
    4
 10
-106.50000000000072
 20
64.099999333333471
 11
-105.50000000000088
 21
64.099999333333471
  0
LINE
  8
_1-f_寸法
  6
CONTINUOUS
 62
    4
 10
-105.50000000000088
 20
63.999999333333392
 11
-105.50000000000088
 21
64.099999333333471
  0
LINE
  8
_1-f_寸法
  6
CONTINUOUS
 62
    4
 10
-105.50000000000088
 20
63.999999333333392
 11
-104.50000000000065
 21
63.999999333333392
  0
LINE
  8
_1-f_寸法
  6
CONTINUOUS
 62
    4
 10
-104.50000000000065
 20
63.999999333333392
 11
-104.50000000000065
 21
64.099999333333471
  0
LINE
  8
_1-f_寸法
  6
CONTINUOUS
 62
    4
 10
-104.50000000000065
 20
64.099999333333471
 11
-103.5000000000008
 21
64.099999333333471
  0
LINE
  8
_1-f_寸法
  6
CONTINUOUS
 62
    4
 10
-103.5000000000008
 20
63.999999333333392
 11
-103.5000000000008
 21
64.099999333333471
  0
LINE
  8
_1-f_寸法
  6
CONTINUOUS
 62
    4
 10
-103.5000000000008
 20
63.999999333333392
 11
-102.50000000000068
 21
63.999999333333392
  0
LINE
  8
_1-f_寸法
  6
CONTINUOUS
 62
    4
 10
-102.50000000000068
 20
63.999999333333392
 11
-102.50000000000068
 21
64.099999333333471
  0
LINE
  8
_1-f_寸法
  6
CONTINUOUS
 62
    4
 10
-102.50000000000068
 20
64.099999333333471
 11
-101.50000000000084
 21
64.099999333333471
  0
LINE
  8
_1-f_寸法
  6
CONTINUOUS
 62
    4
 10
-101.50000000000084
 20
63.999999333333392
 11
-101.50000000000084
 21
64.099999333333471
  0
LINE
  8
_1-f_寸法
  6
CONTINUOUS
 62
    4
 10
-101.50000000000084
 20
63.999999333333392
 11
-100.50000000000088
 21
63.999999333333392
  0
LINE
  8
_1-f_寸法
  6
CONTINUOUS
 62
    4
 10
-100.50000000000088
 20
63.999999333333392
 11
-100.50000000000088
 21
64.099999333333471
  0
LINE
  8
_1-f_寸法
  6
CONTINUOUS
 62
    4
 10
-86.500000000000455
 20
64.099999333333471
 11
-85.500000000000611
 21
64.099999333333471
  0
LINE
  8
_1-f_寸法
  6
CONTINUOUS
 62
    4
 10
-85.500000000000611
 20
63.999999333333392
 11
-85.500000000000611
 21
64.099999333333471
  0
LINE
  8
_1-f_寸法
  6
CONTINUOUS
 62
    4
 10
-85.500000000000611
 20
63.999999333333392
 11
-84.500000000000384
 21
63.999999333333392
  0
LINE
  8
_1-f_寸法
  6
CONTINUOUS
 62
    4
 10
-84.500000000000384
 20
63.999999333333392
 11
-84.500000000000384
 21
64.099999333333471
  0
LINE
  8
_1-f_寸法
  6
CONTINUOUS
 62
    4
 10
-100.50000000000088
 20
64.099999333333471
 11
-99.500000000001023
 21
64.099999333333471
  0
LINE
  8
_1-f_寸法
  6
CONTINUOUS
 62
    4
 10
-99.500000000001023
 20
63.999999333333392
 11
-99.500000000001023
 21
64.099999333333471
  0
LINE
  8
_1-f_寸法
  6
CONTINUOUS
 62
    4
 10
-99.500000000001023
 20
63.999999333333392
 11
-98.500000000000796
 21
63.999999333333392
  0
LINE
  8
_1-f_寸法
  6
CONTINUOUS
 62
    4
 10
-98.500000000000796
 20
63.999999333333392
 11
-98.500000000000796
 21
64.099999333333471
  0
LINE
  8
_1-f_寸法
  6
CONTINUOUS
 62
    4
 10
-98.500000000000796
 20
64.099999333333471
 11
-97.500000000000952
 21
64.099999333333471
  0
LINE
  8
_1-f_寸法
  6
CONTINUOUS
 62
    4
 10
-97.500000000000952
 20
63.999999333333392
 11
-97.500000000000952
 21
64.099999333333471
  0
LINE
  8
_1-f_寸法
  6
CONTINUOUS
 62
    4
 10
-97.500000000000952
 20
63.999999333333392
 11
-96.500000000000838
 21
63.999999333333392
  0
LINE
  8
_1-f_寸法
  6
CONTINUOUS
 62
    4
 10
-96.500000000000838
 20
63.999999333333392
 11
-96.500000000000838
 21
64.099999333333471
  0
LINE
  8
_1-f_寸法
  6
CONTINUOUS
 62
    4
 10
-96.500000000000838
 20
64.099999333333471
 11
-95.500000000000995
 21
64.099999333333471
  0
LINE
  8
_1-f_寸法
  6
CONTINUOUS
 62
    4
 10
-95.500000000000995
 20
63.999999333333392
 11
-95.500000000000995
 21
64.099999333333471
  0
LINE
  8
_1-f_寸法
  6
CONTINUOUS
 62
    4
 10
-95.500000000000995
 20
63.999999333333392
 11
-94.500000000001023
 21
63.999999333333392
  0
LINE
  8
_1-f_寸法
  6
CONTINUOUS
 62
    4
 10
-94.500000000001023
 20
63.999999333333392
 11
-94.500000000001023
 21
64.099999333333471
  0
LINE
  8
_1-f_寸法
  6
CONTINUOUS
 62
    4
 10
-94.500000000001023
 20
64.099999333333471
 11
-93.50000000000118
 21
64.099999333333471
  0
LINE
  8
_1-f_寸法
  6
CONTINUOUS
 62
    4
 10
-93.50000000000118
 20
63.999999333333392
 11
-93.50000000000118
 21
64.099999333333471
  0
LINE
  8
_1-f_寸法
  6
CONTINUOUS
 62
    4
 10
-93.50000000000118
 20
63.999999333333392
 11
-92.500000000000952
 21
63.999999333333392
  0
LINE
  8
_1-f_寸法
  6
CONTINUOUS
 62
    4
 10
-92.500000000000952
 20
63.999999333333392
 11
-92.500000000000952
 21
64.099999333333471
  0
LINE
  8
_1-f_寸法
  6
CONTINUOUS
 62
    4
 10
-92.500000000000952
 20
64.099999333333471
 11
-91.500000000001108
 21
64.099999333333471
  0
LINE
  8
_1-f_寸法
  6
CONTINUOUS
 62
    4
 10
-91.500000000001108
 20
63.999999333333392
 11
-91.500000000001108
 21
64.099999333333471
  0
LINE
  8
_1-f_寸法
  6
CONTINUOUS
 62
    4
 10
-91.500000000001108
 20
63.999999333333392
 11
-90.500000000000995
 21
63.999999333333392
  0
LINE
  8
_1-f_寸法
  6
CONTINUOUS
 62
    4
 10
-90.500000000000995
 20
63.999999333333392
 11
-90.500000000000995
 21
64.099999333333471
  0
LINE
  8
_1-f_寸法
  6
CONTINUOUS
 62
    4
 10
-90.500000000000995
 20
64.099999333333471
 11
-89.500000000001137
 21
64.099999333333471
  0
LINE
  8
_1-f_寸法
  6
CONTINUOUS
 62
    4
 10
-89.500000000001137
 20
63.999999333333392
 11
-89.500000000001137
 21
64.099999333333471
  0
LINE
  8
_1-f_寸法
  6
CONTINUOUS
 62
    4
 10
-89.500000000001137
 20
63.999999333333392
 11
-88.50000000000118
 21
63.999999333333392
  0
LINE
  8
_1-f_寸法
  6
CONTINUOUS
 62
    4
 10
-88.50000000000118
 20
63.999999333333392
 11
-88.50000000000118
 21
64.099999333333471
  0
LINE
  8
_1-f_寸法
  6
CONTINUOUS
 62
    4
 10
-88.50000000000118
 20
64.099999333333471
 11
-87.500000000001336
 21
64.099999333333471
  0
LINE
  8
_1-f_寸法
  6
CONTINUOUS
 62
    4
 10
-87.500000000001336
 20
63.999999333333392
 11
-87.500000000001336
 21
64.099999333333471
  0
LINE
  8
_1-f_寸法
  6
CONTINUOUS
 62
    4
 10
-87.500000000001336
 20
63.999999333333392
 11
-86.500000000001108
 21
63.999999333333392
  0
LINE
  8
_1-f_寸法
  6
CONTINUOUS
 62
    4
 10
-86.500000000001108
 20
63.999999333333392
 11
-86.500000000001108
 21
64.099999333333471
  0
LINE
  8
_1-f_寸法
  6
CONTINUOUS
 62
    4
 10
-79.500002000000279
 20
64.099999333333471
 11
-80.500002000000677
 21
64.099999333333471
  0
LINE
  8
_1-f_寸法
  6
CONTINUOUS
 62
    4
 10
-79.500002000000279
 20
63.999999333333392
 11
-79.500002000000279
 21
64.099999333333471
  0
LINE
  8
_1-f_寸法
  6
CONTINUOUS
 62
    4
 10
-78.546848106482344
 20
63.788690202462988
 11
-78.50458628030816
 21
63.879320981166757
  0
LINE
  8
_1-f_寸法
  6
CONTINUOUS
 62
    4
 10
-77.598278493271778
 20
63.456702719426175
 11
-78.50458628030816
 21
63.879320981166757
  0
LINE
  8
_1-f_寸法
  6
CONTINUOUS
 62
    4
 10
-76.734232532409237
 20
62.943453678981768
 11
-76.691970706235054
 21
63.034084457685481
  0
LINE
  8
_1-f_寸法
  6
CONTINUOUS
 62
    4
 10
-77.64054031944579
 20
63.366071940722463
 11
-77.598278493271778
 21
63.456702719426175
  0
LINE
  8
_1-f_寸法
  6
CONTINUOUS
 62
    4
 10
-76.734232532409237
 20
62.943453678981768
 11
-77.64054031944579
 21
63.366071940722463
  0
LINE
  8
_1-f_寸法
  6
CONTINUOUS
 62
    4
 10
-75.785662919198501
 20
62.611466195945127
 11
-76.691970706235054
 21
63.034084457685708
  0
LINE
  8
_1-f_寸法
  6
CONTINUOUS
 62
    4
 10
-74.921616958336131
 20
62.09821715550072
 11
-74.879355132161947
 21
62.188847934204489
  0
LINE
  8
_1-f_寸法
  6
CONTINUOUS
 62
    4
 10
-75.827924745372513
 20
62.520835417241472
 11
-75.785662919198501
 21
62.611466195945127
  0
LINE
  8
_1-f_寸法
  6
CONTINUOUS
 62
    4
 10
-74.921616958336131
 20
62.09821715550072
 11
-75.827924745372513
 21
62.520835417241472
  0
LINE
  8
_1-f_寸法
  6
CONTINUOUS
 62
    4
 10
-73.973047345125565
 20
61.766229672464135
 11
-74.879355132161947
 21
62.188847934204716
  0
LINE
  8
_1-f_寸法
  6
CONTINUOUS
 62
    4
 10
-74.015309171299407
 20
61.67559889376048
 11
-73.973047345125565
 21
61.766229672464135
  0
LINE
  8
_1-f_寸法
  6
CONTINUOUS
 62
    4
 10
-73.562155277781017
 20
61.464289762890132
 11
-74.015309171299407
 21
61.67559889376048
  0
LINE
  8
_1-f_寸法
  6
CONTINUOUS
 62
    4
 10
-73.942511713348097
 20
60.648612754556609
 11
-73.562155277781414
 21
61.464289762890132
  0
LINE
  8
_1-f_寸法
  6
CONTINUOUS
 62
    4
 10
-82.500000000000497
 20
64.099999333333471
 11
-81.500000000000654
 21
64.099999333333471
  0
LINE
  8
_1-f_寸法
  6
CONTINUOUS
 62
    4
 10
-81.500000000000654
 20
63.999999333333392
 11
-81.500000000000654
 21
64.099999333333471
  0
LINE
  8
_1-f_寸法
  6
CONTINUOUS
 62
    4
 10
-81.500000000000654
 20
63.999999333333392
 11
-80.500000000000625
 21
63.999999333333392
  0
LINE
  8
_1-f_寸法
  6
CONTINUOUS
 62
    4
 10
-80.500000000000625
 20
63.999999333333392
 11
-80.500000000000625
 21
64.099999333333471
  0
LINE
  8
_1-f_寸法
  6
CONTINUOUS
 62
    4
 10
-80.500000000000625
 20
64.099999333333471
 11
-79.500000000000767
 21
64.099999333333471
  0
LINE
  8
_1-f_寸法
  6
CONTINUOUS
 62
    4
 10
-79.500000000000767
 20
63.999999333333392
 11
-79.500000000000767
 21
64.099999333333471
  0
LINE
  8
_1-f_寸法
  6
CONTINUOUS
 62
    4
 10
-79.000002000000535
 20
63.999999333333392
 11
-79.500002000000279
 21
63.999999333333392
  0
LINE
  8
_1-f_寸法
  6
CONTINUOUS
 62
    4
 10
-78.546848106482344
 20
63.788690202462988
 11
-79.000002000000535
 21
63.999999333333392
  0
LINE
  8
_1-f_寸法
  6
CONTINUOUS
 62
    4
 10
-73.942511713348097
 20
60.648612754556609
 11
-79.19952719637908
 21
63.099999333333471
  0
LINE
  8
_1-f_寸法
  6
CONTINUOUS
 62
    4
 10
-84.499999999999744
 20
64.099999333333471
 11
-83.499999999999886
 21
64.099999333333471
  0
LINE
  8
_1-f_寸法
  6
CONTINUOUS
 62
    4
 10
-83.499999999999886
 20
63.999999333333392
 11
-83.499999999999886
 21
64.099999333333471
  0
LINE
  8
_1-f_寸法
  6
CONTINUOUS
 62
    4
 10
-83.499999999999886
 20
63.999999333333392
 11
-82.499999999999659
 21
63.999999333333392
  0
LINE
  8
_1-f_寸法
  6
CONTINUOUS
 62
    4
 10
-82.499999999999659
 20
63.999999333333392
 11
-82.499999999999659
 21
64.099999333333471
  0
LINE
  8
_1-f_寸法
  6
CONTINUOUS
 62
    4
 10
-149.08682808883282
 20
63.507595456827289
 11
-149.18530886413419
 21
63.524960274594036
  0
LINE
  8
_1-f_寸法
  6
CONTINUOUS
 62
    4
 10
-149.35895704180092
 20
62.540152521582058
 11
-149.18530886413419
 21
63.524960274594036
  0
LINE
  8
_1-f_寸法
  6
CONTINUOUS
 62
    4
 10
-149.43412444416651
 20
61.537979950803333
 11
-149.532605219468
 21
61.555344768569967
  0
LINE
  8
_1-f_寸法
  6
CONTINUOUS
 62
    4
 10
-149.26047626649978
 20
62.522787703815368
 11
-149.35895704180092
 21
62.540152521582058
  0
LINE
  8
_1-f_寸法
  6
CONTINUOUS
 62
    4
 10
-149.43412444416651
 20
61.537979950803333
 11
-149.26047626649978
 21
62.522787703815368
  0
LINE
  8
_1-f_寸法
  6
CONTINUOUS
 62
    4
 10
-149.70625339713547
 20
60.570537015557761
 11
-149.53260521946822
 21
61.55534476857008
  0
LINE
  8
_1-f_寸法
  6
CONTINUOUS
 62
    4
 10
-149.78142079950067
 20
59.56836444477932
 11
-149.8799015748022
 21
59.58572926254601
  0
LINE
  8
_1-f_寸法
  6
CONTINUOUS
 62
    4
 10
-149.60777262183399
 20
60.553172197791355
 11
-149.70625339713547
 21
60.570537015557761
  0
LINE
  8
_1-f_寸法
  6
CONTINUOUS
 62
    4
 10
-149.78142079950067
 20
59.56836444477932
 11
-149.60777262183399
 21
60.553172197791355
  0
LINE
  8
_1-f_寸法
  6
CONTINUOUS
 62
    4
 10
-149.96672566363577
 20
59.093325386040306
 11
-149.87990157480243
 21
59.585729262546153
  0
LINE
  8
_1-f_寸法
  6
CONTINUOUS
 62
    4
 10
-148.98191791062288
 20
58.919677208373116
 11
-149.96672566363577
 21
59.093325386040306
  0
LINE
  8
_1-f_寸法
  6
CONTINUOUS
 62
    4
 10
-147.49999999999977
 20
63.999999333333392
 11
-147.49999999999977
 21
64.099999333333471
  0
LINE
  8
_1-f_寸法
  6
CONTINUOUS
 62
    4
 10
-147.49999999999977
 20
63.999999333333392
 11
-146.49999999999972
 21
63.999999333333392
  0
LINE
  8
_1-f_寸法
  6
CONTINUOUS
 62
    4
 10
-146.49999999999972
 20
63.999999333333392
 11
-146.49999999999972
 21
64.099999333333471
  0
LINE
  8
_1-f_寸法
  6
CONTINUOUS
 62
    4
 10
-146.49999999999972
 20
64.099999333333471
 11
-145.49999999999989
 21
64.099999333333471
  0
LINE
  8
_1-f_寸法
  6
CONTINUOUS
 62
    4
 10
-145.49999999999989
 20
63.999999333333392
 11
-145.49999999999989
 21
64.099999333333471
  0
LINE
  8
_1-f_寸法
  6
CONTINUOUS
 62
    4
 10
-145.49999999999989
 20
63.999999333333392
 11
-144.49999999999966
 21
63.999999333333392
  0
LINE
  8
_1-f_寸法
  6
CONTINUOUS
 62
    4
 10
-144.49999999999966
 20
63.999999333333392
 11
-144.49999999999966
 21
64.099999333333471
  0
LINE
  8
_1-f_寸法
  6
CONTINUOUS
 62
    4
 10
-144.49999999999966
 20
64.099999333333471
 11
-143.49999999999977
 21
64.099999333333471
  0
LINE
  8
_1-f_寸法
  6
CONTINUOUS
 62
    4
 10
-143.49999999999977
 20
63.999999333333392
 11
-143.49999999999977
 21
64.099999333333471
  0
LINE
  8
_1-f_寸法
  6
CONTINUOUS
 62
    4
 10
-143.49999999999977
 20
63.999999333333392
 11
-142.49999999999977
 21
63.999999333333392
  0
LINE
  8
_1-f_寸法
  6
CONTINUOUS
 62
    4
 10
-142.49999999999977
 20
63.999999333333392
 11
-142.49999999999977
 21
64.099999333333471
  0
LINE
  8
_1-f_寸法
  6
CONTINUOUS
 62
    4
 10
-142.49999999999977
 20
64.099999333333471
 11
-141.49999999999994
 21
64.099999333333471
  0
LINE
  8
_1-f_寸法
  6
CONTINUOUS
 62
    4
 10
-141.49999999999994
 20
63.999999333333392
 11
-141.49999999999994
 21
64.099999333333471
  0
LINE
  8
_1-f_寸法
  6
CONTINUOUS
 62
    4
 10
-141.49999999999994
 20
63.999999333333392
 11
-140.49999999999989
 21
63.999999333333392
  0
LINE
  8
_1-f_寸法
  6
CONTINUOUS
 62
    4
 10
-140.49999999999989
 20
63.999999333333392
 11
-140.49999999999989
 21
64.099999333333471
  0
LINE
  8
_1-f_寸法
  6
CONTINUOUS
 62
    4
 10
-140.49999999999989
 20
64.099999333333471
 11
-139.5
 21
64.099999333333471
  0
LINE
  8
_1-f_寸法
  6
CONTINUOUS
 62
    4
 10
-148.49999999999966
 20
63.999999333333392
 11
-148.49999999999966
 21
64.099999333333471
  0
LINE
  8
_1-f_寸法
  6
CONTINUOUS
 62
    4
 10
-148.49999999999966
 20
64.099999333333471
 11
-147.49999999999977
 21
64.099999333333471
  0
LINE
  8
_1-f_寸法
  6
CONTINUOUS
 62
    4
 10
-149.08682808883282
 20
63.507595456827289
 11
-149.00000399999948
 21
63.999999333333392
  0
LINE
  8
_1-f_寸法
  6
CONTINUOUS
 62
    4
 10
-149.00000399999948
 20
63.999999333333392
 11
-148.49999999999966
 21
63.999999333333392
  0
LINE
  8
_1-f_寸法
  6
CONTINUOUS
 62
    4
 10
-148.98191791062288
 20
58.919677208373116
 11
-148.24481433193978
 21
63.099999333333471
  0
LINE
  8
_1-f_寸法
  6
CONTINUOUS
 62
    4
 10
-79.19952719637908
 20
63.099999333333471
 11
-148.24481433193978
 21
63.099999333333471
  0
ENDBLK
  0
BLOCK
  2
-016-_13_
 70
   64
 10
0
 20
0
 30
0
  0
LINE
  8
_1-f_寸法
  6
CENTER2
 62
    4
 10
-48.833333333333144
 20
62.452776833333189
 11
-48.833333333333144
 21
66.270218833333217
  0
LINE
  8
_1-f_寸法
  6
CONTINUOUS
 62
    4
 10
-45.999995333333175
 20
65.166666666666544
 11
-45.666661999999832
 21
64.833333333333201
  0
LINE
  8
_1-f_寸法
  6
CONTINUOUS
 62
    4
 10
-45.666661999999832
 20
64.833333333333201
 11
-45.666661999999832
 21
64.166666666666544
  0
LINE
  8
_1-f_寸法
  6
CONTINUOUS
 62
    4
 10
-103.33332866666646
 20
64.833333333333201
 11
-102.99999533333316
 21
65.166666666666544
  0
LINE
  8
_1-f_寸法
  6
CONTINUOUS
 62
    4
 10
-103.33332866666646
 20
64.166666666666544
 11
-103.33332866666646
 21
64.833333333333201
  0
LINE
  8
_1-f_寸法
  6
CONTINUOUS
 62
    4
 10
-102.99999533333316
 20
65.166666666666544
 11
-45.999995333333175
 21
65.166666666666544
  0
LINE
  8
_1-f_寸法
  6
CONTINUOUS
 62
    4
 10
-45.666661999999832
 20
64.166666666666544
 11
-103.33332866666646
 21
64.166666666666544
  0
LINE
  8
_1-f_寸法
  6
DASHED1
 62
    4
 10
-47.916666666666487
 20
64.166666666666544
 11
-47.916666666666487
 21
64.333328666666546
  0
LINE
  8
_1-f_寸法
  6
DASHED1
 62
    4
 10
-49.749999999999829
 20
64.166666666666544
 11
-49.749999999999829
 21
64.333337999999856
  0
LINE
  8
_1-f_寸法
  6
DASHED1
 62
    4
 10
-47.916666666666487
 20
64.333328666666546
 11
-49.749999999999829
 21
64.333328666666546
  0
LINE
  8
_1-f_寸法
  6
DASHED1
 62
    4
 10
-49.749999999999829
 20
64.333337999999856
 11
-50.583328666666489
 21
65.166666666666544
  0
LINE
  8
_1-f_寸法
  6
DASHED1
 62
    4
 10
-47.083328666666489
 20
65.166666666666544
 11
-47.916666666666487
 21
64.333328666666546
  0
ENDBLK
  0
BLOCK
  2
-017-_14_
 70
   64
 10
0
 20
0
 30
0
  0
LINE
  8
_1-7_カバ__
  6
CENTER2
 62
    4
 10
-166.16666666666683
 20
62.452776833337225
 11
-166.16666666666683
 21
66.270218833337196
  0
LINE
  8
_1-7_カバ__
  6
CONTINUOUS
 62
    4
 10
-145.00000466666683
 20
64.833333333337237
 11
-145.33333800000014
 21
65.166666666670551
  0
LINE
  8
_1-7_カバ__
  6
CONTINUOUS
 62
    4
 10
-145.00000466666683
 20
64.166666666670551
 11
-145.00000466666683
 21
64.833333333337237
  0
LINE
  8
_1-7_カバ__
  6
CONTINUOUS
 62
    4
 10
-145.00000466666683
 20
64.166666666670551
 11
-169.33333800000014
 21
64.166666666670551
  0
LINE
  8
_1-7_カバ__
  6
CONTINUOUS
 62
    4
 10
-145.33333800000014
 20
65.166666666670551
 11
-169.00000466666683
 21
65.166666666670551
  0
LINE
  8
_1-7_カバ__
  6
CONTINUOUS
 62
    4
 10
-169.33333800000014
 20
64.833333333337237
 11
-169.33333800000014
 21
64.166666666670551
  0
LINE
  8
_1-7_カバ__
  6
CONTINUOUS
 62
    4
 10
-169.00000466666683
 20
65.166666666670551
 11
-169.33333800000014
 21
64.833333333337237
  0
LINE
  8
_1-7_カバ__
  6
DASHED1
 62
    4
 10
-167.08333333333348
 20
64.333328666670582
 11
-165.25000933333348
 21
64.333328666670582
  0
LINE
  8
_1-7_カバ__
  6
DASHED1
 62
    4
 10
-167.08333333333348
 20
64.166666666670551
 11
-167.08333333333348
 21
64.333328666670582
  0
LINE
  8
_1-7_カバ__
  6
DASHED1
 62
    4
 10
-165.25000000000017
 20
64.166666666670551
 11
-165.25000000000017
 21
64.333338000003891
  0
LINE
  8
_1-7_カバ__
  6
DASHED1
 62
    4
 10
-167.91667133333348
 20
65.166666666670551
 11
-167.08333333333348
 21
64.333328666670582
  0
LINE
  8
_1-7_カバ__
  6
DASHED1
 62
    4
 10
-165.25000933333348
 20
64.333328666670582
 11
-164.41667133333348
 21
65.166666666670551
  0
ENDBLK
  0
BLOCK
  2
-018-_15_
 70
   64
 10
0
 20
0
 30
0
  0
LINE
  8
_1-8_小物
  6
CONTINUOUS
 62
    4
 10
-164.5000000000002
 20
65.166666666670551
 11
-167.83333333333343
 21
65.166666666670551
  0
LINE
  8
_1-8_小物
  6
CONTINUOUS
 62
    4
 10
-166.1666666666668
 20
59.833333333337237
 11
-166.85000000000011
 21
60.227856017283472
  0
LINE
  8
_1-8_小物
  6
CONTINUOUS
 62
    4
 10
-166.1666666666668
 20
59.833333333337237
 11
-165.48333333333352
 21
60.227856017283472
  0
LINE
  8
_1-8_小物
  6
CONTINUOUS
 62
    4
 10
-165.57000000000011
 20
62.902460573118162
 11
-165.36666666666673
 21
62.78506585967321
  0
LINE
  8
_1-8_小物
  6
CONTINUOUS
 62
    4
 10
-165.36666666666673
 20
62.78506585967321
 11
-165.57000000000011
 21
62.667671146228258
  0
LINE
  8
_1-8_小物
  6
CONTINUOUS
 62
    4
 10
-166.76333333333352
 20
62.233333333337242
 11
-166.9666666666669
 21
62.350728046782194
  0
LINE
  8
_1-8_小物
  6
CONTINUOUS
 62
    4
 10
-166.9666666666669
 20
62.350728046782194
 11
-166.76333333333352
 21
62.468122760227175
  0
LINE
  8
_1-8_小物
  6
CONTINUOUS
 62
    4
 10
-166.76333333333352
 20
62.468122760227175
 11
-165.57000000000011
 21
62.902460573118162
  0
LINE
  8
_1-8_小物
  6
CONTINUOUS
 62
    4
 10
-166.76333333333352
 20
62.233333333337242
 11
-165.57000000000011
 21
62.667671146228258
  0
LINE
  8
_1-8_小物
  6
CONTINUOUS
 62
    4
 10
-165.36666666666673
 20
62.78506585967321
 11
-166.9666666666669
 21
62.350728046782194
  0
LINE
  8
_1-8_小物
  6
CONTINUOUS
 62
    4
 10
-165.57000000000011
 20
63.402460573118162
 11
-165.36666666666673
 21
63.28506585967321
  0
LINE
  8
_1-8_小物
  6
CONTINUOUS
 62
    4
 10
-165.36666666666673
 20
63.28506585967321
 11
-165.57000000000011
 21
63.167671146228258
  0
LINE
  8
_1-8_小物
  6
CONTINUOUS
 62
    4
 10
-166.76333333333352
 20
62.733333333337242
 11
-166.9666666666669
 21
62.850728046782194
  0
LINE
  8
_1-8_小物
  6
CONTINUOUS
 62
    4
 10
-166.9666666666669
 20
62.850728046782194
 11
-166.76333333333352
 21
62.968122760227175
  0
LINE
  8
_1-8_小物
  6
CONTINUOUS
 62
    4
 10
-166.76333333333352
 20
62.968122760227175
 11
-165.57000000000011
 21
63.402460573118162
  0
LINE
  8
_1-8_小物
  6
CONTINUOUS
 62
    4
 10
-166.76333333333352
 20
62.733333333337242
 11
-165.57000000000011
 21
63.167671146228258
  0
LINE
  8
_1-8_小物
  6
CONTINUOUS
 62
    4
 10
-165.36666666666673
 20
63.28506585967321
 11
-166.9666666666669
 21
62.850728046782194
  0
LINE
  8
_1-8_小物
  6
CONTINUOUS
 62
    4
 10
-165.57000000000011
 20
63.902460573118162
 11
-165.36666666666673
 21
63.78506585967321
  0
LINE
  8
_1-8_小物
  6
CONTINUOUS
 62
    4
 10
-165.36666666666673
 20
63.78506585967321
 11
-165.57000000000011
 21
63.667671146228258
  0
LINE
  8
_1-8_小物
  6
CONTINUOUS
 62
    4
 10
-166.76333333333352
 20
63.233333333337242
 11
-166.9666666666669
 21
63.350728046782194
  0
LINE
  8
_1-8_小物
  6
CONTINUOUS
 62
    4
 10
-166.9666666666669
 20
63.350728046782194
 11
-166.76333333333352
 21
63.468122760227175
  0
LINE
  8
_1-8_小物
  6
CONTINUOUS
 62
    4
 10
-166.76333333333352
 20
63.468122760227175
 11
-165.57000000000011
 21
63.902460573118162
  0
LINE
  8
_1-8_小物
  6
CONTINUOUS
 62
    4
 10
-166.76333333333352
 20
63.233333333337242
 11
-165.57000000000011
 21
63.667671146228258
  0
LINE
  8
_1-8_小物
  6
CONTINUOUS
 62
    4
 10
-165.36666666666673
 20
63.78506585967321
 11
-166.9666666666669
 21
63.350728046782194
  0
LINE
  8
_1-8_小物
  6
CONTINUOUS
 62
    4
 10
-166.76333333333352
 20
63.733333333337242
 11
-166.9666666666669
 21
63.850728046782194
  0
LINE
  8
_1-8_小物
  6
CONTINUOUS
 62
    4
 10
-166.9666666666669
 20
63.850728046782194
 11
-166.76333333333352
 21
63.968122760227175
  0
LINE
  8
_1-8_小物
  6
CONTINUOUS
 62
    4
 10
-166.85000000000011
 20
62.066666666670585
 11
-166.85000000000011
 21
60.227856017283472
  0
LINE
  8
_1-8_小物
  6
CONTINUOUS
 62
    4
 10
-165.48333333333352
 20
62.066666666670585
 11
-166.85000000000011
 21
62.066666666670585
  0
LINE
  8
_1-8_小物
  6
CONTINUOUS
 62
    4
 10
-165.48333333333352
 20
62.066666666670585
 11
-165.48333333333352
 21
60.227856017283472
  0
LINE
  8
_1-8_小物
  6
CONTINUOUS
 62
    4
 10
-166.76333333333352
 20
63.968122760227175
 11
-166.49258617555535
 21
64.066666666670585
  0
LINE
  8
_1-8_小物
  6
CONTINUOUS
 62
    4
 10
-166.76333333333352
 20
63.733333333337242
 11
-166.1666666666668
 21
63.950502239782764
  0
LINE
  8
_1-8_小物
  6
CONTINUOUS
 62
    4
 10
-166.1666666666668
 20
64.067896953227716
 11
-166.9666666666669
 21
63.850728046782194
  0
LINE
  8
_1-8_小物
  6
CONTINUOUS
 62
    4
 10
-166.76333333333352
 20
64.066666666670585
 11
-166.76333333333352
 21
63.968122760227175
  0
LINE
  8
_1-8_小物
  6
CONTINUOUS
 62
    4
 10
-166.76333333333352
 20
63.733333333337242
 11
-166.76333333333352
 21
63.468122760227175
  0
LINE
  8
_1-8_小物
  6
CONTINUOUS
 62
    4
 10
-166.76333333333352
 20
63.233333333337242
 11
-166.76333333333352
 21
62.968122760227175
  0
LINE
  8
_1-8_小物
  6
CONTINUOUS
 62
    4
 10
-166.76333333333352
 20
62.733333333337242
 11
-166.76333333333352
 21
62.468122760227175
  0
LINE
  8
_1-8_小物
  6
CONTINUOUS
 62
    4
 10
-166.76333333333352
 20
62.233333333337242
 11
-166.76333333333352
 21
62.066666666670585
  0
LINE
  8
_1-8_小物
  6
CONTINUOUS
 62
    4
 10
-165.57000000000011
 20
64.066666666670585
 11
-165.57000000000011
 21
63.902460573118162
  0
LINE
  8
_1-8_小物
  6
CONTINUOUS
 62
    4
 10
-165.57000000000011
 20
62.667671146228258
 11
-165.57000000000011
 21
62.066666666670585
  0
LINE
  8
_1-8_小物
  6
CONTINUOUS
 62
    4
 10
-165.57000000000011
 20
63.167671146228258
 11
-165.57000000000011
 21
62.902460573118162
  0
LINE
  8
_1-8_小物
  6
CONTINUOUS
 62
    4
 10
-165.57000000000011
 20
63.667671146228258
 11
-165.57000000000011
 21
63.402460573118162
  0
LINE
  8
_1-8_小物
  6
CONTINUOUS
 62
    4
 10
-165.58333333333343
 20
62.066666666670585
 11
-165.58333333333343
 21
60.285591044202448
  0
LINE
  8
_1-8_小物
  6
CONTINUOUS
 62
    4
 10
-166.1666666666668
 20
59.94880338717519
 11
-165.58333333333343
 21
60.285591044202448
  0
LINE
  8
_1-8_小物
  6
CONTINUOUS
 62
    4
 10
-166.1666666666668
 20
59.94880338717519
 11
-165.79323022904003
 21
62.066666666670585
  0
LINE
  8
_1-8_小物
  6
CENTER2
 62
    4
 10
-166.1666666666668
 20
65.833640386964021
 11
-166.1666666666668
 21
59.084349393783725
  0
LINE
  8
_1-8_小物
  6
CONTINUOUS
 62
    4
 10
-167.83333333333343
 20
65.166666666670551
 11
-167.83333333333343
 21
65.100000000003888
  0
LINE
  8
_1-8_小物
  6
CONTINUOUS
 62
    4
 10
-164.5000000000002
 20
65.100000000003888
 11
-167.83333333333343
 21
65.100000000003888
  0
LINE
  8
_1-8_小物
  6
CONTINUOUS
 62
    4
 10
-164.5000000000002
 20
65.166666666670551
 11
-164.5000000000002
 21
65.100000000003888
  0
LINE
  8
_1-8_小物
  6
CONTINUOUS
 62
    4
 10
-167.83333333333343
 20
65.100000000003888
 11
-166.80000000000001
 21
64.066666666670585
  0
LINE
  8
_1-8_小物
  6
CONTINUOUS
 62
    4
 10
-165.53333333333359
 20
64.066666666670585
 11
-166.80000000000001
 21
64.066666666670585
  0
LINE
  8
_1-8_小物
  6
CONTINUOUS
 62
    4
 10
-164.5000000000002
 20
65.100000000003888
 11
-165.53333333333359
 21
64.066666666670585
  0
ENDBLK
  0
ENDSEC
  0
SECTION
  2
ENTITIES
  0
LINE
  8
_0-0_図面枠
  6
CONTINUOUS
 62
    6
 10
410.00000000000006
 20
287
 11
10
 21
287.00000000000006
  0
LINE
  8
_0-0_図面枠
  6
CONTINUOUS
 62
    6
 10
410
 20
9.9999999999998863
 11
410.00000000000006
 21
287
  0
LINE
  8
_0-0_図面枠
  6
CONTINUOUS
 62
    6
 10
9.9999999999999147
 20
10
 11
410
 21
9.9999999999998863
  0
LINE
  8
_0-0_図面枠
  6
CONTINUOUS
 62
    6
 10
10
 20
287.00000000000006
 11
9.9999999999999147
 21
10
  0
TEXT
  8
_0-0_図面枠
 62
    4
 10
20
 20
280
 40
3.2000000000000002
 41
1
 50
0
  1
（ステンレス１５０タイプ）
  0
LINE
  8
_0-0_図面枠
  6
CONTINUOUS
 62
    2
 10
165.00000000000003
 20
247
 11
210.00000000000003
 21
247
  0
LINE
  8
_0-0_図面枠
  6
CONTINUOUS
 62
    2
 10
165.00000000000003
 20
247
 11
165.00000000000003
 21
287
  0
LINE
  8
_0-0_図面枠
  6
CONTINUOUS
 62
    2
 10
187.38952399655849
 20
259.77749333152167
 11
204.71003207224726
 21
269.77749333152167
  0
LINE
  8
_0-0_図面枠
  6
CONTINUOUS
 62
    2
 10
187.38952399655849
 20
259.77749333152167
 11
187.38952399655849
 21
256.77749333152167
  0
LINE
  8
_0-0_図面枠
  6
CONTINUOUS
 62
    2
 10
193.88471452494178
 20
260.52749333152167
 11
193.88471452494178
 21
263.52749333152167
  0
LINE
  8
_0-0_図面枠
  6
CONTINUOUS
 62
    2
 10
187.38952399655849
 20
256.77749333152167
 11
193.88471452494178
 21
260.52749333152167
  0
LINE
  8
_0-0_図面枠
  6
CONTINUOUS
 62
    2
 10
204.71003207224726
 20
266.77749333152167
 11
198.21484154386397
 21
263.02749333152167
  0
LINE
  8
_0-0_図面枠
  6
CONTINUOUS
 62
    2
 10
198.21484154386397
 20
263.02749333152167
 11
198.21484154386397
 21
266.02749333152167
  0
LINE
  8
_0-0_図面枠
  6
CONTINUOUS
 62
    2
 10
198.21484154386397
 20
263.02749333152167
 11
195.61676533251065
 21
264.52749333152167
  0
LINE
  8
_0-0_図面枠
  6
CONTINUOUS
 62
    2
 10
187.38952399655849
 20
256.77749333152167
 11
178.72926995871413
 21
261.77749333152167
  0
INSERT
  2
-000-
  8
_0-0_図面枠
 10
210
 20
148.5
 41
1
 42
1
 50
0
  0
LINE
  8
_0-0_図面枠
  6
CONTINUOUS
 62
    3
 10
193.88471452494178
 20
260.52749333152167
 11
185.22446048709736
 21
255.52749333152167
  0
LINE
  8
_0-0_図面枠
  6
CONTINUOUS
 62
    3
 10
193.88471452494178
 20
260.52749333152167
 11
193.88471452494178
 21
250.52749333152167
  0
LINE
  8
_0-0_図面枠
  6
CONTINUOUS
 62
    3
 10
198.21484154386397
 20
263.02749333152167
 11
198.21484154386397
 21
253.02749333152167
  0
LINE
  8
_0-0_図面枠
  6
CONTINUOUS
 62
    3
 10
198.21484154386397
 20
263.02749333152167
 11
206.87509558170834
 21
268.02749333152167
  0
TEXT
  8
_0-0_図面枠
 62
    4
 10
168.58672417034518
 20
279.54737717230728
 40
2.5
 41
1
 50
0
  1
-75
  0
TEXT
  8
_0-0_図面枠
 62
    4
 10
191.10257786061629
 20
279.54737717230722
 40
2.5
 41
1
 50
0
  1
+75
  0
TEXT
  8
_0-0_図面枠
 62
    4
 10
191.10257786061624
 20
266.54784298319498
 40
2.5
 41
1
 50
0
  1
+75
  0
TEXT
  8
_0-0_図面枠
 62
    4
 10
168.58632076447583
 20
266.54854175273664
 40
2.5
 41
1
 50
0
  1
-75
  0
LINE
  8
_0-0_図面枠
  6
CONTINUOUS
 62
    2
 10
210.00000000000003
 20
247
 11
210.00000000000003
 21
287
  0
LINE
  8
_0-0_図面枠
  6
CONTINUOUS
 62
    4
 10
182.14999999999998
 20
48.533333333333303
 11
40
 21
48.533333333333303
  0
LINE
  8
_0-0_図面枠
  6
CONTINUOUS
 62
    4
 10
182.14999999999998
 20
60.533333333333303
 11
40
 21
60.533333333333303
  0
LINE
  8
_0-0_図面枠
  6
CONTINUOUS
 62
    4
 10
182.14999999999998
 20
54.533333333333303
 11
40
 21
54.533333333333303
  0
LINE
  8
_0-0_図面枠
  6
CONTINUOUS
 62
    4
 10
182.14999999999998
 20
66.533333333333303
 11
40
 21
66.533333333333303
  0
LINE
  8
_0-0_図面枠
  6
CONTINUOUS
 62
    4
 10
182.14999999999998
 20
102.53333333333336
 11
40
 21
102.53333333333336
  0
LINE
  8
_0-0_図面枠
  6
CONTINUOUS
 62
    4
 10
182.14999999999998
 20
96.53333333333336
 11
40
 21
96.53333333333336
  0
LINE
  8
_0-0_図面枠
  6
CONTINUOUS
 62
    4
 10
182.14999999999998
 20
90.53333333333336
 11
40
 21
90.53333333333336
  0
LINE
  8
_0-0_図面枠
  6
CONTINUOUS
 62
    4
 10
182.14999999999998
 20
84.53333333333336
 11
40
 21
84.53333333333336
  0
LINE
  8
_0-0_図面枠
  6
CONTINUOUS
 62
    4
 10
182.14999999999998
 20
78.53333333333336
 11
40
 21
78.53333333333336
  0
LINE
  8
_0-0_図面枠
  6
CONTINUOUS
 62
    4
 10
182.14999999999998
 20
72.533333333333303
 11
40
 21
72.533333333333303
  0
LINE
  8
_0-0_図面枠
  6
CONTINUOUS
 62
    4
 10
182.14999999999998
 20
113.33333333333331
 11
40
 21
113.33333333333331
  0
LINE
  8
_0-0_図面枠
  6
CONTINUOUS
 62
    4
 10
182.14999999999998
 20
42.533333333333303
 11
40
 21
42.533333333333303
  0
LINE
  8
_0-0_図面枠
  6
CONTINUOUS
 62
    4
 10
182.14999999999998
 20
36.533333333333303
 11
40
 21
36.533333333333303
  0
LINE
  8
_0-0_図面枠
  6
CONTINUOUS
 62
    4
 10
182.14999999999998
 20
30.533333333333303
 11
40
 21
30.533333333333303
  0
LINE
  8
_0-0_図面枠
  6
CONTINUOUS
 62
    4
 10
182.14999999999998
 20
24.533333333333303
 11
40
 21
24.533333333333303
  0
TEXT
  8
_0-0_図面枠
 62
    4
 10
165.55126400000003
 20
108.53334383333328
 40
3.2000000000000002
 41
1
 50
0
  1
使用
  0
TEXT
  8
_0-0_図面枠
 62
    4
 10
150.50638249999994
 20
108.53334383333328
 40
3.2000000000000002
 41
1
 50
0
  1
定　尺
  0
TEXT
  8
_0-0_図面枠
 62
    4
 10
148.34354749999997
 20
103.73333733333328
 40
3.2000000000000002
 41
1
 50
0
  1
（ｍｍ）
  0
TEXT
  8
_0-0_図面枠
 62
    4
 10
165.55126400000003
 20
103.73333733333328
 40
3.2000000000000002
 41
1
 50
0
  1
数量
  0
TEXT
  8
_0-0_図面枠
 62
    4
 10
40.497067999999985
 20
97.760882833333255
 40
3.2000000000000002
 41
1
 50
0
  1
　１
  0
TEXT
  8
_0-0_図面枠
 62
    4
 10
43.586831999999987
 20
91.760882833333255
 40
3.2000000000000002
 41
1
 50
0
  1
２
  0
TEXT
  8
_0-0_図面枠
 62
    4
 10
43.586831999999987
 20
85.760882833333255
 40
3.2000000000000002
 41
1
 50
0
  1
３
  0
TEXT
  8
_0-0_図面枠
 62
    4
 10
43.586831999999987
 20
79.760882833333255
 40
3.2000000000000002
 41
1
 50
0
  1
４
  0
TEXT
  8
_0-0_図面枠
 62
    4
 10
43.586831999999987
 20
73.760894333333283
 40
3.2000000000000002
 41
1
 50
0
  1
５
  0
TEXT
  8
_0-0_図面枠
 62
    4
 10
43.586831999999987
 20
67.760894333333283
 40
3.2000000000000002
 41
1
 50
0
  1
６
  0
TEXT
  8
_0-0_図面枠
 62
    4
 10
43.586831999999987
 20
61.760888833333297
 40
3.2000000000000002
 41
1
 50
0
  1
７
  0
TEXT
  8
_0-0_図面枠
 62
    4
 10
43.586831999999987
 20
55.760888833333297
 40
3.2000000000000002
 41
1
 50
0
  1
８
  0
LINE
  8
_0-0_図面枠
  6
CONTINUOUS
 62
    4
 10
182.14999999999998
 20
18.533333333333303
 11
40
 21
18.533333333333303
  0
LINE
  8
_0-0_図面枠
  6
CONTINUOUS
 62
    4
 10
40
 20
18.533333333333303
 11
40
 21
113.33333333333331
  0
LINE
  8
_0-0_図面枠
  6
CONTINUOUS
 62
    4
 10
47.200000000000017
 20
18.533333333333303
 11
47.200000000000017
 21
113.33333333333331
  0
LINE
  8
_0-0_図面枠
  6
CONTINUOUS
 62
    4
 10
182.14999999999998
 20
18.533333333333303
 11
182.14999999999998
 21
113.33333333333331
  0
LINE
  8
_0-0_図面枠
  6
CONTINUOUS
 62
    4
 10
162.95000000000002
 20
18.533333333333303
 11
162.95000000000002
 21
113.33333333333331
  0
LINE
  8
_0-0_図面枠
  6
CONTINUOUS
 62
    4
 10
147.95000000000002
 20
18.533333333333303
 11
147.95000000000002
 21
113.33333333333331
  0
LINE
  8
_0-0_図面枠
  6
CONTINUOUS
 62
    4
 10
174.95000000000005
 20
18.533333333333303
 11
174.95000000000005
 21
113.33333333333331
  0
LINE
  8
_0-0_図面枠
  6
CONTINUOUS
 62
    4
 10
146.95000000000002
 20
18.533333333333303
 11
146.95000000000002
 21
113.33333333333331
  0
TEXT
  8
_0-0_図面枠
 62
    4
 10
69.300000000000011
 20
106.33333333333334
 40
3.2000000000000002
 41
1
 50
0
  1
部材名称
  0
TEXT
  8
_0-0_図面枠
 62
    4
 10
178.54999999999998
 20
111.13333333333334
 40
3.2000000000000002
 41
1
 50
0
  1
単位
  7
TATEGAKI
  0
LINE
  8
_0-0_図面枠
  6
CONTINUOUS
 62
    4
 10
100.86666666666667
 20
18.533333333333303
 11
100.86666666666667
 21
113.33333333333331
  0
TEXT
  8
_0-0_図面枠
 62
    4
 10
119.10833333333336
 20
106.33333333333333
 40
3.2000000000000002
 41
1
 50
0
  1
規　格
  0
TEXT
  8
_0-0_図面枠
 62
    4
 10
177.00512500000002
 20
43.733325833333311
 40
3.2000000000000002
 41
1
 50
0
  1
本
  0
TEXT
  8
_0-0_図面枠
 62
    4
 10
43.586831999999987
 20
49.760888833333297
 40
3.2000000000000002
 41
1
 50
0
  1
９
  0
TEXT
  8
_0-0_図面枠
 62
    4
 10
40.497050499999972
 20
43.760888833333283
 40
3.2000000000000002
 41
1
 50
0
  1
１０
  0
TEXT
  8
_0-0_図面枠
 62
    4
 10
48.400007499999987
 20
67.733337333333282
 40
3.2000000000000002
 41
1
 50
0
  1
止水補助板
  0
TEXT
  8
_0-0_図面枠
 62
    4
 10
177.00512500000011
 20
61.733325833333367
 40
3.2000000000000002
 41
1
 50
0
  1
本
  0
TEXT
  8
_0-0_図面枠
 62
    4
 10
102.06667966666683
 20
61.733342833333381
 40
3.2000000000000002
 41
1
 50
0
  1
皿５×１６
  0
TEXT
  8
_0-0_図面枠
 62
    4
 10
166.27045749999999
 20
61.783341833333338
 40
3.2000000000000002
 41
1
 50
0
  1
２２
  0
TEXT
  8
_0-0_図面枠
 62
    4
 10
48.400007499999987
 20
55.733342833333325
 40
3.2000000000000002
 41
1
 50
0
  1
ステンタッピンねじ
  0
TEXT
  8
_0-0_図面枠
 62
    4
 10
48.400007499999987
 20
49.733342833333325
 40
3.2000000000000002
 41
1
 50
0
  1
ステンワッシャー
  0
TEXT
  8
_0-0_図面枠
 62
    4
 10
177.00512500000002
 20
49.733342833333325
 40
3.2000000000000002
 41
1
 50
0
  1
枚
  0
TEXT
  8
_0-0_図面枠
 62
    4
 10
177.00512500000002
 20
55.733325833333311
 40
3.2000000000000002
 41
1
 50
0
  1
本
  0
TEXT
  8
_0-0_図面枠
 62
    4
 10
102.06669116666671
 20
55.733342833333325
 40
3.2000000000000002
 41
1
 50
0
  1
なべ５×５０
  0
TEXT
  8
_0-0_図面枠
 62
    4
 10
102.06663366666669
 20
49.73333733333331
 40
3.2000000000000002
 41
1
 50
0
  1
１．５×１８×５．５穴
  0
TEXT
  8
_0-0_図面枠
 62
    4
 10
48.4000075000001
 20
61.733342833333381
 40
3.2000000000000002
 41
1
 50
0
  1
ステンドリリングねじ
  0
TEXT
  8
_0-0_図面枠
 62
    4
 10
48.400007499999987
 20
79.733337333333282
 40
3.2000000000000002
 41
1
 50
0
  1
ＴＴＧフレーム(Ａ)
  0
TEXT
  8
_0-0_図面枠
 62
    4
 10
149.270477
 20
85.733337333333282
 40
3.2000000000000002
 41
1
 50
0
  1
３０００
  0
TEXT
  8
_0-0_図面枠
 62
    4
 10
169.36022149999994
 20
85.783336333333239
 40
3.2000000000000002
 41
1
 50
0
  1
１
  0
TEXT
  8
_0-0_図面枠
 62
    4
 10
177.00512500000002
 20
85.733337333333282
 40
3.2000000000000002
 41
1
 50
0
  1
本
  0
TEXT
  8
_0-0_図面枠
 62
    4
 10
149.270477
 20
91.733337333333282
 40
3.2000000000000002
 41
1
 50
0
  1
３０００
  0
TEXT
  8
_0-0_図面枠
 62
    4
 10
169.36022149999994
 20
91.783336333333239
 40
3.2000000000000002
 41
1
 50
0
  1
１
  0
TEXT
  8
_0-0_図面枠
 62
    4
 10
177.00512500000002
 20
91.733337333333282
 40
3.2000000000000002
 41
1
 50
0
  1
本
  0
TEXT
  8
_0-0_図面枠
 62
    4
 10
149.270477
 20
97.733337333333282
 40
3.2000000000000002
 41
1
 50
0
  1
３０００
  0
TEXT
  8
_0-0_図面枠
 62
    4
 10
169.36022149999994
 20
97.783336333333239
 40
3.2000000000000002
 41
1
 50
0
  1
１
  0
TEXT
  8
_0-0_図面枠
 62
    4
 10
177.00512500000002
 20
97.733337333333282
 40
3.2000000000000002
 41
1
 50
0
  1
本
  0
TEXT
  8
_0-0_図面枠
 62
    4
 10
149.270477
 20
79.733337333333282
 40
3.2000000000000002
 41
1
 50
0
  1
３０００
  0
TEXT
  8
_0-0_図面枠
 62
    4
 10
169.36022149999994
 20
79.783336333333239
 40
3.2000000000000002
 41
1
 50
0
  1
１
  0
TEXT
  8
_0-0_図面枠
 62
    4
 10
177.00512500000002
 20
79.733337333333282
 40
3.2000000000000002
 41
1
 50
0
  1
本
  0
TEXT
  8
_0-0_図面枠
 62
    4
 10
149.270477
 20
73.733337333333225
 40
3.2000000000000002
 41
1
 50
0
  1
３０００
  0
TEXT
  8
_0-0_図面枠
 62
    4
 10
169.36022149999994
 20
73.783336333333182
 40
3.2000000000000002
 41
1
 50
0
  1
１
  0
TEXT
  8
_0-0_図面枠
 62
    4
 10
177.00512500000002
 20
73.733337333333225
 40
3.2000000000000002
 41
1
 50
0
  1
本
  0
TEXT
  8
_0-0_図面枠
 62
    4
 10
166.27045749999999
 20
55.783341833333282
 40
3.2000000000000002
 41
1
 50
0
  1
１８
  0
TEXT
  8
_0-0_図面枠
 62
    4
 10
166.27045749999999
 20
49.783341833333282
 40
3.2000000000000002
 41
1
 50
0
  1
１８
  0
TEXT
  8
_0-0_図面枠
 62
    4
 10
166.27045749999999
 20
43.783341833333282
 40
3.2000000000000002
 41
1
 50
0
  1
１８
  0
TEXT
  8
_0-0_図面枠
 62
    4
 10
48.400007499999958
 20
73.733337333333225
 40
3.2000000000000002
 41
1
 50
0
  1
ＴＣＧフレーム(Ｃ)
  0
TEXT
  8
_0-0_図面枠
 62
    4
 10
102.06669116666674
 20
67.733337333333338
 40
3.2000000000000002
 41
1
 50
0
  1
ＦＳ５００
  0
TEXT
  8
_0-0_図面枠
 62
    4
 10
149.270477
 20
31.733348333333296
 40
3.2000000000000002
 41
1
 50
0
  1
６０００
  0
TEXT
  8
_0-0_図面枠
 62
    4
 10
169.36022149999994
 20
31.783336333333281
 40
3.2000000000000002
 41
1
 50
0
  1
１
  0
TEXT
  8
_0-0_図面枠
 62
    4
 10
177.00512500000002
 20
31.73334283333331
 40
3.2000000000000002
 41
1
 50
0
  1
巻
  0
TEXT
  8
_0-0_図面枠
 62
    4
 10
48.400007499999987
 20
31.73334283333331
 40
3.2000000000000002
 41
1
 50
0
  1
ブチルテープ
  0
TEXT
  8
_0-0_図面枠
 62
    4
 10
102.06669116666671
 20
31.73334283333331
 40
3.2000000000000002
 41
1
 50
0
  1
ｔ１．０×ｗ３０
  0
TEXT
  8
_0-0_図面枠
 62
    4
 10
43.586831999999987
 20
31.760894333333269
 40
3.2000000000000002
 41
1
 50
0
  1
※
  0
TEXT
  8
_0-0_図面枠
 62
    4
 10
48.400007499999987
 20
37.733342833333325
 40
3.2000000000000002
 41
1
 50
0
  1
ユカホルダーキャップ
  0
TEXT
  8
_0-0_図面枠
 62
    4
 10
149.27047700000003
 20
37.733348333333311
 40
3.2000000000000002
 41
1
 50
0
  1
３０１０
  0
TEXT
  8
_0-0_図面枠
 62
    4
 10
169.36022149999997
 20
37.783336333333295
 40
3.2000000000000002
 41
1
 50
0
  1
２
  0
TEXT
  8
_0-0_図面枠
 62
    4
 10
177.00512500000002
 20
37.733325833333311
 40
3.2000000000000002
 41
1
 50
0
  1
本
  0
TEXT
  8
_0-0_図面枠
 62
    4
 10
40.497050499999887
 20
37.760888833333297
 40
3.2000000000000002
 41
1
 50
0
  1
１１
  0
TEXT
  8
_0-0_図面枠
 62
    4
 10
102.06669116666673
 20
43.733342833333325
 40
3.2000000000000002
 41
1
 50
0
  1
φ８×４０
  0
TEXT
  8
_0-0_図面枠
 62
    4
 10
122.30833333333338
 20
97.933333333333366
 40
3.2000000000000002
 41
1
 50
0
  1
―
  0
TEXT
  8
_0-0_図面枠
 62
    4
 10
122.30833333333338
 20
91.933333333333366
 40
3.2000000000000002
 41
1
 50
0
  1
―
  0
TEXT
  8
_0-0_図面枠
 62
    4
 10
122.30833333333338
 20
85.933333333333366
 40
3.2000000000000002
 41
1
 50
0
  1
―
  0
TEXT
  8
_0-0_図面枠
 62
    4
 10
122.30833333333338
 20
79.933333333333366
 40
3.2000000000000002
 41
1
 50
0
  1
―
  0
TEXT
  8
_0-0_図面枠
 62
    4
 10
122.30833333333338
 20
73.933333333333366
 40
3.2000000000000002
 41
1
 50
0
  1
―
  0
TEXT
  8
_0-0_図面枠
 62
    4
 10
122.30833333333337
 20
37.933333333333294
 40
3.2000000000000002
 41
1
 50
0
  1
―
  0
TEXT
  8
_0-0_図面枠
 62
    4
 10
153.85000000000002
 20
61.93333333333328
 40
3.2000000000000002
 41
1
 50
0
  1
―
  0
TEXT
  8
_0-0_図面枠
 62
    4
 10
153.85000000000002
 20
55.93333333333328
 40
3.2000000000000002
 41
1
 50
0
  1
―
  0
TEXT
  8
_0-0_図面枠
 62
    4
 10
153.85000000000002
 20
49.93333333333328
 40
3.2000000000000002
 41
1
 50
0
  1
―
  0
TEXT
  8
_0-0_図面枠
 62
    4
 10
153.85000000000002
 20
43.93333333333328
 40
3.2000000000000002
 41
1
 50
0
  1
―
  0
TEXT
  8
_0-0_図面枠
 62
    4
 10
169.36022149999997
 20
25.78333633333331
 40
3.2000000000000002
 41
1
 50
0
  1
１
  0
TEXT
  8
_0-0_図面枠
 62
    4
 10
43.586831999999987
 20
25.760894333333297
 40
3.2000000000000002
 41
1
 50
0
  1
※
  0
TEXT
  8
_0-0_図面枠
 62
    4
 10
177.00512500000002
 20
25.733342833333339
 40
3.2000000000000002
 41
1
 50
0
  1
個
  0
TEXT
  8
_0-0_図面枠
 62
    4
 10
153.85000000000005
 20
25.933333333333309
 40
3.2000000000000002
 41
1
 50
0
  1
―
  0
TEXT
  8
_0-0_図面枠
 62
    4
 10
48.400007499999987
 20
97.733337333333282
 40
3.2000000000000002
 41
1
 50
0
  1
ＴＴＧサイドプレート(Ａ)Ｓ
  0
TEXT
  8
_0-0_図面枠
 62
    4
 10
48.400007499999987
 20
91.733337333333282
 40
3.2000000000000002
 41
1
 50
0
  1
ＴＣＧサイドプレート(Ｃ)Ｓ
  0
TEXT
  8
_0-0_図面枠
 62
    4
 10
149.270477
 20
67.73334283333331
 40
3.2000000000000002
 41
1
 50
0
  1
３１００
  0
TEXT
  8
_0-0_図面枠
 62
    4
 10
169.36022149999991
 20
67.783336333333239
 40
3.2000000000000002
 41
1
 50
0
  1
１
  0
TEXT
  8
_0-0_図面枠
 62
    4
 10
177.00512500000002
 20
67.733325833333311
 40
3.2000000000000002
 41
1
 50
0
  1
枚
  0
TEXT
  8
_0-0_図面枠
 62
    4
 10
48.400007499999987
 20
43.733337333333282
 40
3.2000000000000002
 41
1
 50
0
  1
アンカープラグ
  0
CIRCLE
  8
_1-f_寸法
  6
CONTINUOUS
 62
    4
 10
95
 20
217
 40
1.6666666666666665
  0
LINE
  8
_1-f_寸法
  6
CONTINUOUS
 62
    4
 10
94.166666666666657
 20
215.55662432702593
 11
92.190459748967285
 21
212.13373353930152
  0
CIRCLE
  8
_1-f_寸法
  6
CONTINUOUS
 62
    4
 10
70
 20
200.33333333333331
 40
1.6666666666666665
  0
LINE
  8
_1-f_寸法
  6
CONTINUOUS
 62
    4
 10
69.166666666666657
 20
198.88995766035924
 11
67.312829960377371
 21
195.6790182961301
  0
ARC
  8
_1-3_止水補助板
  6
CONTINUOUS
 62
    4
 10
90.000000000000753
 20
171.54253971206907
 40
15.833809794084612
 50
195.00000000000003
 51
344.75420844591667
  0
ARC
  8
_1-3_止水補助板
  6
CONTINUOUS
 62
    4
 10
90.000000000000753
 20
171.54253971206907
 40
15.50047646075128
 50
195.00000000000034
 51
344.75420844591662
  0
LINE
  8
_1-3_止水補助板
  6
CONTINUOUS
 62
    4
 10
115
 20
203.66666666666666
 11
105.29428580865593
 21
167.44444818082911
  0
LINE
  8
_1-3_止水補助板
  6
CONTINUOUS
 62
    4
 10
114.74422433734009
 20
204
 11
104.97231053322639
 21
167.53072119586332
  0
LINE
  8
_1-3_止水補助板
  6
CONTINUOUS
 62
    4
 10
65.000000000001506
 20
203.66666666666666
 11
74.705714191345578
 21
167.44444818082911
  0
LINE
  8
_1-3_止水補助板
  6
CONTINUOUS
 62
    4
 10
65.255775662661392
 20
204
 11
75.027689466775115
 21
167.53072119586332
  0
LINE
  8
_1-0_躯体
  6
CONTINUOUS
 62
    6
 10
65
 20
203.66666666666666
 11
65
 21
148.66666666666666
  0
LINE
  8
_1-f_寸法
  6
CONTINUOUS
 62
    4
 10
115
 20
147
 11
115
 21
140.39999999999998
  0
LINE
  8
_1-f_寸法
  6
CONTINUOUS
 62
    4
 10
65
 20
147
 11
65
 21
140.39999999999998
  0
POINT
  8
_1-f_寸法
 62
    4
 10
65
 20
142
  0
POINT
  8
_1-f_寸法
 62
    4
 10
115
 20
142
  0
LINE
  8
_1-f_寸法
  6
CONTINUOUS
 62
    4
 10
65
 20
142
 11
115
 21
142
  0
TEXT
  8
_1-f_寸法
 62
    4
 10
87.599999999999994
 20
142
 40
3.2000000000000002
 41
1
 50
0
  1
150
  0
LINE
  8
_1-0_躯体
  6
CENTER2
 62
    4
 10
90
 20
213.83333333333337
 11
90
 21
148.66666666666666
  0
LINE
  8
_1-3_止水補助板
  6
CONTINUOUS
 62
    4
 10
131.66666666666697
 20
203.66666666666666
 11
131.66666666666697
 21
204
  0
LINE
  8
_1-3_止水補助板
  6
CONTINUOUS
 62
    4
 10
115.00000000000023
 20
203.66666666666666
 11
131.66666666666697
 21
203.66666666666666
  0
LINE
  8
_1-3_止水補助板
  6
CONTINUOUS
 62
    4
 10
114.7442243373406
 20
204
 11
131.66666666666697
 21
204
  0
CIRCLE
  8
_1-f_寸法
  6
CONTINUOUS
 62
    4
 10
140.00000000000045
 20
217
 40
1.6666666666666665
  0
LINE
  8
_1-f_寸法
  6
CONTINUOUS
 62
    4
 10
139.16666666666703
 20
215.55662432702593
 11
137.78682396810677
 21
213.16666666666666
  0
LINE
  8
_1-0_躯体
  6
CONTINUOUS
 62
    6
 10
115.00000000000023
 20
203.66666666666666
 11
115.00000000000023
 21
148.66666666666666
  0
LINE
  8
_1-0_躯体
  6
CENTER2
 62
    4
 10
126.66666666666708
 20
206.79724203365018
 11
126.66666666666708
 21
187
  0
INSERT
  2
-001-_1_
  8
_1-8_小物
 10
210
 20
148.5
 41
1
 42
1
 50
0
  0
CIRCLE
  8
_1-f_寸法
  6
CONTINUOUS
 62
    4
 10
133.33333333333371
 20
190.33333333333331
 40
1.6666666666666665
  0
LINE
  8
_1-f_寸法
  6
CONTINUOUS
 62
    4
 10
132.50517927594933
 20
191.77968689834273
 11
127.41666666666686
 21
200.66666666666657
  0
INSERT
  2
-002-_2_
  8
_1-8_小物
 10
210
 20
148.5
 41
1
 42
1
 50
0
  0
CIRCLE
  8
_1-f_寸法
  6
CONTINUOUS
 62
    4
 10
120.00000000000034
 20
199.00000000000003
 40
1.6666666666666665
  0
LINE
  8
_1-f_寸法
  6
CONTINUOUS
 62
    4
 10
124.7083333333336
 20
205.41666666666669
 11
120.98598434121993
 21
200.34373087210477
  0
CIRCLE
  8
_1-f_寸法
  6
CONTINUOUS
 62
    4
 10
131.66666666666708
 20
198.66666666666666
 40
1.6666666666666665
  0
LINE
  8
_1-f_寸法
  6
CONTINUOUS
 62
    4
 10
130.74486661373976
 20
200.05521354747444
 11
126.66666666666708
 21
206.1983807102834
  0
INSERT
  2
-003-_3_
  8
_1-8_小物
 10
210
 20
148.5
 41
1
 42
1
 50
0
  0
LINE
  8
_1-0_躯体
  6
CONTINUOUS
 62
    4
 10
164.75000000000014
 20
213.49999999999989
 11
171.66666666666666
 21
213.49999999999989
  0
LINE
  8
_1-f_寸法
  6
CONTINUOUS
 62
    4
 10
173.33333333333377
 20
203.66666666666666
 11
179.93333333333376
 21
203.66666666666666
  0
LINE
  8
_1-f_寸法
  6
CONTINUOUS
 62
    4
 10
173.33333333333377
 20
213.66666666666666
 11
179.93333333333376
 21
213.66666666666666
  0
POINT
  8
_1-f_寸法
 62
    4
 10
178.33333333333377
 20
213.66666666666666
  0
POINT
  8
_1-f_寸法
 62
    4
 10
178.33333333333377
 20
203.66666666666666
  0
LINE
  8
_1-f_寸法
  6
CONTINUOUS
 62
    4
 10
178.33333333333377
 20
213.66666666666666
 11
178.33333333333377
 21
203.66666666666666
  0
TEXT
  8
_1-f_寸法
 62
    4
 10
178.33333333333377
 20
207.06666666666666
 40
3.2000000000000002
 41
1
 50
90
  1
30
  0
LINE
  8
_1-f_寸法
  6
CONTINUOUS
 62
    4
 10
173.33333333333377
 20
213.66666666666666
 11
179.93333333333376
 21
213.66666666666666
  0
LINE
  8
_1-f_寸法
  6
CONTINUOUS
 62
    4
 10
173.33333333333377
 20
203.66666666666666
 11
179.93333333333376
 21
203.66666666666666
  0
POINT
  8
_1-f_寸法
 62
    4
 10
178.33333333333377
 20
203.66666666666666
  0
POINT
  8
_1-f_寸法
 62
    4
 10
178.33333333333377
 20
213.66666666666666
  0
LINE
  8
_1-f_寸法
  6
CONTINUOUS
 62
    4
 10
178.33333333333377
 20
203.66666666666666
 11
178.33333333333377
 21
213.66666666666666
  0
TEXT
  8
_1-f_寸法
 62
    4
 10
178.33333333333377
 20
207.06666666666666
 40
3.2000000000000002
 41
1
 50
90
  1
30
  0
LINE
  8
_1-0_躯体
  6
CONTINUOUS
 62
    6
 10
115.00000000000023
 20
203.66666666666666
 11
168.33333333333377
 21
203.66666666666666
  0
LINE
  8
_1-0_躯体
  6
CONTINUOUS
 62
    4
 10
115.00000000000034
 20
202
 11
168.33333333333377
 21
202
  0
LINE
  8
_1-0_躯体
  6
CONTINUOUS
 62
    4
 10
168.33333333333377
 20
203.66666666666666
 11
168.33333333333377
 21
202
  0
INSERT
  2
-004-HATCHING
  8
_1-0_躯体
 10
210
 20
148.5
 41
1
 42
1
 50
0
  0
CIRCLE
  8
_1-f_寸法
  6
CONTINUOUS
 62
    4
 10
111.66666666666686
 20
208.66666666666666
 40
1.6666666666666665
  0
LINE
  8
_1-f_寸法
  6
CONTINUOUS
 62
    4
 10
110.48815536468931
 20
207.48815536468902
 11
108.04782085223553
 21
205.04782085223525
  0
CIRCLE
  8
_1-f_寸法
  6
CONTINUOUS
 62
    4
 10
158.33333333333331
 20
216.26666666666296
 40
1.6666666666666665
  0
LINE
  8
_1-f_寸法
  6
CONTINUOUS
 62
    4
 10
159.32957880585187
 20
214.93052567999121
 11
161.1666666666668
 21
212.46666666666297
  0
LINE
  8
_1-f_寸法
  6
CONTINUOUS
 62
    4
 10
126.66666666666708
 20
188.66666666666666
 11
126.66666666666708
 21
182.06666666666666
  0
LINE
  8
_1-f_寸法
  6
CONTINUOUS
 62
    4
 10
115.00000000000023
 20
188.66666666666666
 11
115.00000000000023
 21
182.06666666666666
  0
POINT
  8
_1-f_寸法
 62
    4
 10
115.00000000000023
 20
183.66666666666666
  0
POINT
  8
_1-f_寸法
 62
    4
 10
126.66666666666708
 20
183.66666666666666
  0
LINE
  8
_1-f_寸法
  6
CONTINUOUS
 62
    4
 10
115.00000000000023
 20
183.66666666666666
 11
126.66666666666708
 21
183.66666666666666
  0
TEXT
  8
_1-f_寸法
 62
    4
 10
119.23333333333359
 20
183.66666666666666
 40
3.2000000000000002
 41
1
 50
0
  1
35
  0
INSERT
  2
-005-$QLE
  8
_1-f_寸法
 10
210
 20
148.5
 41
1
 42
1
 50
0
  0
INSERT
  2
-006-_4_
  8
_1-8_小物
 10
210
 20
148.5
 41
1
 42
1
 50
0
  0
LINE
  8
_1-f_寸法
  6
CONTINUOUS
 62
    4
 10
165.00000000000028
 20
215.33333333333331
 11
165.00000000000028
 21
221.93333333333331
  0
LINE
  8
_1-f_寸法
  6
CONTINUOUS
 62
    4
 10
106.66666666666643
 20
215.33333333333331
 11
106.66666666666643
 21
221.93333333333331
  0
POINT
  8
_1-f_寸法
 62
    4
 10
106.66666666666643
 20
220.33333333333331
  0
POINT
  8
_1-f_寸法
 62
    4
 10
165.00000000000028
 20
220.33333333333331
  0
LINE
  8
_1-f_寸法
  6
CONTINUOUS
 62
    4
 10
106.66666666666643
 20
220.33333333333331
 11
165.00000000000028
 21
220.33333333333331
  0
TEXT
  8
_1-f_寸法
 62
    4
 10
133.43333333333337
 20
220.33333333333331
 40
3.2000000000000002
 41
1
 50
0
  1
175
  0
TEXT
  8
_1-f_寸法
 62
    4
 10
94.375
 20
215.75
 40
2.5
 41
1
 50
0
  1
3
  0
TEXT
  8
_1-f_寸法
 62
    4
 10
139.37500000000045
 20
215.75
 40
2.5
 41
1
 50
0
  1
2
  0
TEXT
  8
_1-f_寸法
 62
    4
 10
111.04166666666686
 20
207.41666666666666
 40
2.5
 41
1
 50
0
  1
5
  0
TEXT
  8
_1-f_寸法
 62
    4
 10
69.375
 20
199.08333333333331
 40
2.5
 41
1
 50
0
  1
6
  0
TEXT
  8
_1-f_寸法
 62
    4
 10
157.70833333333331
 20
215.01666666666296
 40
2.5
 41
1
 50
0
  1
7
  0
TEXT
  8
_1-f_寸法
 62
    4
 10
131.04166666666708
 20
197.41666666666666
 40
2.5
 41
1
 50
0
  1
8
  0
TEXT
  8
_1-f_寸法
 62
    4
 10
119.37500000000034
 20
197.75000000000003
 40
2.5
 41
1
 50
0
  1
9
  0
TEXT
  8
_1-f_寸法
 62
    4
 10
132.08333333333371
 20
189.08333333333331
 40
2.5
 41
1
 50
0
  1
10
  0
LINE
  8
_1-3_止水補助板
  6
CONTINUOUS
 62
    4
 10
48.333333333333314
 20
203.66666666667055
 11
48.333333333333314
 21
204.00000000000389
  0
LINE
  8
_1-3_止水補助板
  6
CONTINUOUS
 62
    4
 10
65
 20
203.66666666667055
 11
48.333333333333314
 21
203.66666666667055
  0
LINE
  8
_1-3_止水補助板
  6
CONTINUOUS
 62
    4
 10
65.255775662659573
 20
204.00000000000389
 11
48.333333333333314
 21
204.00000000000389
  0
INSERT
  2
-007-_5_
  8
_1-4_フレ__ム
 10
210
 20
148.5
 41
1
 42
1
 50
0
  0
LINE
  8
_1-0_躯体
  6
CONTINUOUS
 62
    6
 10
36.666666666666657
 20
203.66666666667055
 11
65
 21
203.66666666667055
  0
LINE
  8
_1-0_躯体
  6
CONTINUOUS
 62
    4
 10
36.666666666666686
 20
203.66666666667055
 11
36.666666666666686
 21
202.00000000000389
  0
LINE
  8
_1-0_躯体
  6
CONTINUOUS
 62
    4
 10
65
 20
202.00000000000389
 11
36.666666666666686
 21
202.00000000000389
  0
INSERT
  2
-008-HATCHING_1_
  8
_1-0_躯体
 10
210
 20
148.5
 41
1
 42
1
 50
0
  0
LINE
  8
_1-0_躯体
  6
CONTINUOUS
 62
    4
 10
40.249999999999829
 20
213.50000000000389
 11
33.333333333333314
 21
213.50000000000389
  0
LINE
  8
_1-0_躯体
  6
CENTER2
 62
    4
 10
53.333333333333314
 20
206.46390870032076
 11
53.333333333333314
 21
186.66666666667055
  0
INSERT
  2
-009-_6_
  8
_1-8_小物
 10
210
 20
148.5
 41
1
 42
1
 50
0
  0
INSERT
  2
-010-_7_
  8
_1-8_小物
 10
210
 20
148.5
 41
1
 42
1
 50
0
  0
INSERT
  2
-011-_8_
  8
_1-8_小物
 10
210
 20
148.5
 41
1
 42
1
 50
0
  0
LINE
  8
_1-f_寸法
  6
CONTINUOUS
 62
    4
 10
65
 20
188.66666666667055
 11
65
 21
182.06666666667059
  0
LINE
  8
_1-f_寸法
  6
CONTINUOUS
 62
    4
 10
53.333333333333314
 20
188.66666666667055
 11
53.333333333333314
 21
182.06666666667059
  0
POINT
  8
_1-f_寸法
 62
    4
 10
53.333333333333314
 20
183.66666666667055
  0
POINT
  8
_1-f_寸法
 62
    4
 10
65
 20
183.66666666667055
  0
LINE
  8
_1-f_寸法
  6
CONTINUOUS
 62
    4
 10
53.333333333333314
 20
183.66666666667055
 11
65
 21
183.66666666667055
  0
TEXT
  8
_1-f_寸法
 62
    4
 10
57.566666666666663
 20
183.66666666667055
 40
3.2000000000000002
 41
1
 50
0
  1
35
  0
LINE
  8
_1-f_寸法
  6
CONTINUOUS
 62
    4
 10
65
 20
215.33333333333724
 11
65
 21
221.9333333333372
  0
LINE
  8
_1-f_寸法
  6
CONTINUOUS
 62
    4
 10
40
 20
215.33333333333724
 11
40
 21
221.9333333333372
  0
POINT
  8
_1-f_寸法
 62
    4
 10
40
 20
220.33333333333724
  0
POINT
  8
_1-f_寸法
 62
    4
 10
65
 20
220.33333333333724
  0
LINE
  8
_1-f_寸法
  6
CONTINUOUS
 62
    4
 10
40
 20
220.33333333333724
 11
65
 21
220.33333333333724
  0
TEXT
  8
_1-f_寸法
 62
    4
 10
50.899999999999977
 20
220.33333333333724
 40
3.2000000000000002
 41
1
 50
0
  1
75
  0
CIRCLE
  8
_1-f_寸法
  6
CONTINUOUS
 62
    4
 10
55
 20
217.00000000000389
 40
1.6666666666666665
  0
LINE
  8
_1-f_寸法
  6
CONTINUOUS
 62
    4
 10
54.1666666666666
 20
215.55662432702982
 11
52.786823968106319
 21
213.16666666667055
  0
TEXT
  8
_1-f_寸法
 62
    4
 10
54.375
 20
215.75000000000389
 40
2.5
 41
1
 50
0
  1
1
  0
LINE
  8
_1-f_寸法
  6
CONTINUOUS
 62
    4
 10
106.66666666666643
 20
213.66666666666663
 11
106.66666666666643
 21
221.93333333333331
  0
LINE
  8
_1-f_寸法
  6
CONTINUOUS
 62
    4
 10
65
 20
213.66666666666663
 11
65
 21
221.93333333333331
  0
POINT
  8
_1-f_寸法
 62
    4
 10
65
 20
220.33333333333331
  0
POINT
  8
_1-f_寸法
 62
    4
 10
106.66666666666643
 20
220.33333333333331
  0
LINE
  8
_1-f_寸法
  6
CONTINUOUS
 62
    4
 10
65
 20
220.33333333333331
 11
106.66666666666643
 21
220.33333333333331
  0
TEXT
  8
_1-f_寸法
 62
    4
 10
83.433333333333223
 20
220.33333333333331
 40
3.2000000000000002
 41
1
 50
0
  1
125
  0
LINE
  8
_1-f_寸法
  6
CONTINUOUS
 62
    4
 10
165.00000000000028
 20
220.33333333333331
 11
165.00000000000028
 21
226.93333333333331
  0
LINE
  8
_1-f_寸法
  6
CONTINUOUS
 62
    4
 10
40
 20
220.33333333333331
 11
40
 21
226.93333333333331
  0
POINT
  8
_1-f_寸法
 62
    4
 10
40
 20
225.33333333333331
  0
POINT
  8
_1-f_寸法
 62
    4
 10
165.00000000000028
 20
225.33333333333331
  0
LINE
  8
_1-f_寸法
  6
CONTINUOUS
 62
    4
 10
40
 20
225.33333333333331
 11
165.00000000000028
 21
225.33333333333331
  0
TEXT
  8
_1-f_寸法
 62
    4
 10
100.10000000000015
 20
225.33333333333331
 40
3.2000000000000002
 41
1
 50
0
  1
375
  0
CIRCLE
  8
_1-f_寸法
  6
CONTINUOUS
 62
    4
 10
68.333333333333314
 20
208.66666666666666
 40
1.6666666666666665
  0
LINE
  8
_1-f_寸法
  6
CONTINUOUS
 62
    4
 10
67.154822031355764
 20
207.48815536468902
 11
64.71448751890199
 21
205.04782085223525
  0
TEXT
  8
_1-f_寸法
 62
    4
 10
67.708333333333314
 20
207.41666666666666
 40
2.5
 41
1
 50
0
  1
4
  0
INSERT
  2
-012-_9_
  8
_1-4_フレ__ム
 10
210
 20
148.5
 41
1
 42
1
 50
0
  0
LINE
  8
_1-0_躯体
  6
CENTER2
 62
    4
 10
153.33333333333314
 20
206.79724203365018
 11
153.33333333333314
 21
187
  0
INSERT
  2
-013-_10_
  8
_1-8_小物
 10
210
 20
148.5
 41
1
 42
1
 50
0
  0
INSERT
  2
-014-_11_
  8
_1-8_小物
 10
210
 20
148.5
 41
1
 42
1
 50
0
  0
LINE
  8
_1-f_寸法
  6
CONTINUOUS
 62
    4
 10
153.33333333333314
 20
188.66666666666666
 11
153.33333333333314
 21
182.06666666666666
  0
LINE
  8
_1-f_寸法
  6
CONTINUOUS
 62
    4
 10
126.66666666666708
 20
188.66666666666666
 11
126.66666666666708
 21
182.06666666666666
  0
POINT
  8
_1-f_寸法
 62
    4
 10
126.66666666666708
 20
183.66666666666666
  0
POINT
  8
_1-f_寸法
 62
    4
 10
153.33333333333314
 20
183.66666666666666
  0
LINE
  8
_1-f_寸法
  6
CONTINUOUS
 62
    4
 10
126.66666666666708
 20
183.66666666666666
 11
153.33333333333314
 21
183.66666666666666
  0
TEXT
  8
_1-f_寸法
 62
    4
 10
138.40000000000009
 20
183.66666666666666
 40
3.2000000000000002
 41
1
 50
0
  1
80
  0
CIRCLE
  8
_1-f_寸法
  6
CONTINUOUS
 62
    4
 10
101.66666616666691
 20
207
 40
1.6666666666666665
  0
LINE
  8
_1-4_フレ__ム
  6
CONTINUOUS
 62
    4
 10
106.41666616666672
 20
209.76666633333343
 11
103.106847240866
 21
207.8388422088191
  0
TEXT
  8
_1-f_寸法
 62
    4
 10
100.41666616666691
 20
205.75
 40
2.5
 41
1
 50
0
  1
11
  0
LINE
  8
_1-f_寸法
  6
CONTINUOUS
 62
    4
 10
106.66666666666694
 20
188.66666666666666
 11
106.66666666666694
 21
182.06666666666666
  0
LINE
  8
_1-f_寸法
  6
CONTINUOUS
 62
    4
 10
115.00000000000023
 20
188.66666666666666
 11
115.00000000000023
 21
182.06666666666666
  0
POINT
  8
_1-f_寸法
 62
    4
 10
115.00000000000023
 20
183.66666666666666
  0
POINT
  8
_1-f_寸法
 62
    4
 10
106.66666666666694
 20
183.66666666666666
  0
LINE
  8
_1-f_寸法
  6
CONTINUOUS
 62
    4
 10
115.00000000000023
 20
183.66666666666666
 11
106.66666666666694
 21
183.66666666666666
  0
TEXT
  8
_1-f_寸法
 62
    4
 10
109.23333333333359
 20
183.66666666666666
 40
3.2000000000000002
 41
1
 50
0
  1
25
  0
LINE
  8
_1-f_寸法
  6
CONTINUOUS
 62
    4
 10
106.66666666666694
 20
188.66666666666666
 11
106.66666666666694
 21
201.65250666666685
  0
INSERT
  2
-015-_12_
  8
_1-f_寸法
 10
210
 20
148.5
 41
1
 42
1
 50
0
  0
INSERT
  2
-016-_13_
  8
_1-f_寸法
 10
210
 20
148.5
 41
1
 42
1
 50
0
  0
INSERT
  2
-017-_14_
  8
_1-7_カバ__
 10
210
 20
148.5
 41
1
 42
1
 50
0
  0
INSERT
  2
-018-_15_
  8
_1-8_小物
 10
210
 20
148.5
 41
1
 42
1
 50
0
  0
TEXT
  8
_0-0_図面枠
 62
    4
 10
48.400007499999987
 20
85.733337333333282
 40
3.2000000000000002
 41
1
 50
0
  1
ＴＴＧセンタープレート２(Ｃ)Ｓ
  0
TEXT
  8
_0-0_図面枠
 62
    4
 10
30
 20
270
 40
3.2000000000000002
 41
1
 50
0
  1
◇床＋床（１５０ＴＴＧ２－Ｓ）　Ｓ＝１／３
  0
LINE
  8
_0-0_図面枠
  6
CONTINUOUS
 62
    4
 10
187.38952399655849
 20
259.77749333152167
 11
178.72926995871413
 21
264.77749333152167
  0
LINE
  8
_0-0_図面枠
  6
CONTINUOUS
 62
    4
 10
193.88471452494178
 20
263.52749333152167
 11
185.22446048709742
 21
268.52749333152167
  0
LINE
  8
_0-0_図面枠
  6
CONTINUOUS
 62
    4
 10
192.46489856474321
 20
269.34722445834205
 11
189.5545875060196
 21
271.02749333152167
  0
LINE
  8
_0-0_図面枠
  6
CONTINUOUS
 62
    4
 10
198.21484154386397
 20
266.02749333152167
 11
195.94825785628657
 21
267.33610603368533
  0
LINE
  8
_0-0_図面枠
  6
CONTINUOUS
 62
    4
 10
204.71003207224726
 20
269.77749333152167
 11
196.04977803440292
 21
274.77749333152167
  0
LINE
  8
_0-0_図面枠
  6
CONTINUOUS
 62
    2
 10
204.71003207224726
 20
266.77749333152167
 11
204.71003207224726
 21
269.77749333152167
  0
LINE
  8
_0-0_図面枠
  6
CONTINUOUS
 62
    4
 10
204.71003207224726
 20
266.77749333152167
 11
202.11195586089394
 21
268.27749333152167
  0
LINE
  8
_0-0_図面枠
  6
CONTINUOUS
 62
    4
 10
193.88471452494178
 20
260.52749333152167
 11
191.28663831358847
 21
262.02749333152167
  0
TEXT
  8
_0-0_図面枠
 62
    4
 10
47.200000000000017
 20
27.533333333333317
 40
2.5
 41
1
 50
0
  1
 センタープレートジョイントプレート
  0
TEXT
  8
_0-0_図面枠
 62
    4
 10
47.200000000000017
 20
24.533333333333317
 40
2.5
 41
1
 50
0
  1
（１５０ＴＴＧ２ＪＰ-Ｓ）
  0
TEXT
  8
_0-0_図面枠
 62
    4
 10
102.06667966666669
 20
25.733337333333282
 40
3.2000000000000002
 41
1
 50
0
  1
ＳＵＳ　ｔ＝０．８
  0
ENDSEC
  0
EOF
