  0
SECTION
  2
HEADER
  9
$ACADVER
  1
AC1009
  9
$INSBASE
 10
0
 20
0
 30
0
  9
$EXTMIN
 10
0
 20
0
  9
$EXTMAX
 10
420
 20
297
  9
$LIMMIN
 10
0
 20
0
  9
$LIMMAX
 10
420
 20
297
  9
$LTSCALE
 40
1
  0
ENDSEC
  0
SECTION
  2
TABLES
  0
TABLE
  2
LTYPE
 70
     9
  0
LTYPE
  2
CONTINUOUS
 70
    64
  3
実線
 72
    65
 73
     0
 40
0.0
  0
LTYPE
  2
DASHED1
 70
    64
  3
--  --  --  --  --  --  --  --  
 72
    65
 73
     2
 40
2.5
 49
1.25
 49
-1.25
  0
LTYPE
  2
DASHED2
 70
    64
  3
----    ----    ----    ----    
 72
    65
 73
     2
 40
5.0
 49
2.5
 49
-2.5
  0
LTYPE
  2
DASHED3
 70
    64
  3
------  ------  ------  ------  
 72
    65
 73
     2
 40
5.0
 49
3.75
 49
-1.25
  0
LTYPE
  2
CENTER1
 70
    64
  3
----- - ----- - ----- - ----- - 
 72
    65
 73
     4
 40
10.0
 49
6.25
 49
-1.25
 49
1.25
 49
-1.25
  0
LTYPE
  2
CENTER2
 70
    64
  3
----------  --  ----------  --  
 72
    65
 73
     4
 40
20.0
 49
12.5
 49
-2.5
 49
2.5
 49
-2.5
  0
LTYPE
  2
PHANTOM1
 70
    64
  3
--- - - --- - - --- - - --- - - 
 72
    65
 73
     6
 40
10.0
 49
3.25
 49
-1.25
 49
1.25
 49
-1.25
 49
1.25
 49
-1.25
  0
LTYPE
  2
PHANTOM2
 70
    64
  3
--------  -  -  --------  -  -  
 72
    65
 73
     6
 40
20.0
 49
10.0
 49
-2.5
 49
1.25
 49
-2.5
 49
1.25
 49
-2.5
  0
LTYPE
  2
DOT
 70
    64
  3
-   -   -   -   -   -   -   -   
 72
    65
 73
     2
 40
2.5
 49
0.625
 49
-1.875
  0
LTYPE
  2
DUMMY
 70
    64
  3
ダミー
 72
    65
 73
     0
 40
0.0
  0
LTYPE
  2
RAND1
 70
    64
  3
ランダム線1
 72
    65
 73
     4
 40
10.0
 49
1.0
 49
-2.0
 49
3.0
 49
-4.0
  0
LTYPE
  2
RAND2
 70
    64
  3
ランダム線2
 72
    65
 73
     4
 40
14.0
 49
2.0
 49
-3.0
 49
4.0
 49
-5.0
  0
LTYPE
  2
RAND3
 70
    64
  3
ランダム線3
 72
    65
 73
     4
 40
18.0
 49
3.0
 49
-4.0
 49
5.0
 49
-6.0
  0
LTYPE
  2
RAND4
 70
    64
  3
ランダム線4
 72
    65
 73
     4
 40
22.0
 49
4.0
 49
-5.0
 49
6.0
 49
-7.0
  0
LTYPE
  2
RAND5
 70
    64
  3
ランダム線5
 72
    65
 73
     4
 40
26.0
 49
5.0
 49
-6.0
 49
7.0
 49
-8.0
  0
LTYPE
  2
LONG1
 70
    64
  3
----------  --  ----------  --  
 72
    65
 73
     4
 40
40.0
 49
32.5
 49
-2.5
 49
2.5
 49
-2.5
  0
LTYPE
  2
LONG2
 70
    64
  3
--------  -  -  --------  -  -  
 72
    65
 73
     6
 40
40.0
 49
30.0
 49
-2.5
 49
1.25
 49
-2.5
 49
1.25
 49
-2.5
  0
LTYPE
  2
LONG3
 70
    64
  3
+++++++++++++++..+++++++++++++++
 72
    65
 73
     2
 40
40.0
 49
37.5
 49
-2.5
  0
LTYPE
  2
LONG4
 70
    64
  3
+++++++++++++++..+++++++++++++++
 72
    65
 73
     2
 40
80.0
 49
75.0
 49
-5.0
  0
LTYPE
  2
LONG5
 70
    64
  3
----------  --  ----------  --  
 72
    65
 73
     4
 40
60.0
 49
37.5
 49
-7.5
 49
7.5
 49
-7.5
  0
LTYPE
  2
dashed
 70
   64
  3
-------   -------------   ------
 72
   65
 73
    2
 40
7.5
 49
6
 49
-1.5
  0
LTYPE
  2
dashed_spaced
 70
   64
  3
----        --------        ----
 72
   65
 73
    2
 40
12
 49
6
 49
-6
  0
LTYPE
  2
long_dashed_dotted
 70
   64
  3
------------- --- --------------
 72
   65
 73
    4
 40
15.25
 49
12
 49
-1.5
 49
0.25
 49
-1.5
  0
LTYPE
  2
long_dashed_double-dotted
 70
   64
  3
----------- --- --- ------------
 72
   65
 73
    6
 40
17
 49
12
 49
-1.5
 49
0.25
 49
-1.5
 49
0.25
 49
-1.5
  0
LTYPE
  2
long_dashed_triplicate-dotted
 70
   64
  3
--------- --- --- --- ----------
 72
   65
 73
    8
 40
18.75
 49
12
 49
-1.5
 49
0.25
 49
-1.5
 49
0.25
 49
-1.5
 49
0.25
 49
-1.5
  0
LTYPE
  2
dotted
 70
   64
  3
   -       -       -       -    
 72
   65
 73
    2
 40
1.75
 49
0.25
 49
-1.5
  0
LTYPE
  2
chain
 70
   64
  3
-------------- -- --------------
 72
   65
 73
    4
 40
18.5
 49
12
 49
-1.5
 49
3.5
 49
-1.5
  0
LTYPE
  2
chain_double_dash
 70
   64
  3
------------ -- -- -------------
 72
   65
 73
    6
 40
23.5
 49
12
 49
-1.5
 49
3.5
 49
-1.5
 49
3.5
 49
-1.5
  0
LTYPE
  2
dashed_dotted
 70
   64
  3
-----------     -     ----------
 72
   65
 73
    4
 40
9.25
 49
6
 49
-1.5
 49
0.25
 49
-1.5
  0
LTYPE
  2
double-dashed_dotted
 70
   64
  3
------   -----------   -   -----
 72
   65
 73
    6
 40
16.75
 49
6
 49
-1.5
 49
6
 49
-1.5
 49
0.25
 49
-1.5
  0
LTYPE
  2
dashed_double-dotted
 70
   64
  3
---------    -    -    ---------
 72
   65
 73
    6
 40
11
 49
6
 49
-1.5
 49
0.25
 49
-1.5
 49
0.25
 49
-1.5
  0
LTYPE
  2
double-dashed_double-dotted
 70
   64
  3
-----   ---------   -   -   ----
 72
   65
 73
    8
 40
18.5
 49
6
 49
-1.5
 49
6
 49
-1.5
 49
0.25
 49
-1.5
 49
0.25
 49
-1.5
  0
LTYPE
  2
dashed_triplicate-dotted
 70
   64
  3
-------    -    -    -    ------
 72
   65
 73
    8
 40
12.75
 49
6
 49
-1.5
 49
0.25
 49
-1.5
 49
0.25
 49
-1.5
 49
0.25
 49
-1.5
  0
LTYPE
  2
double-dashed_triplicate-dotted
 70
   64
  3
-----  ---------  -  -  -  -----
 72
   65
 73
   10
 40
20.25
 49
6
 49
-1.5
 49
6
 49
-1.5
 49
0.25
 49
-1.5
 49
0.25
 49
-1.5
 49
0.25
 49
-1.5
  0
LTYPE
  2
undefined
 70
   64
  3
--------------------------------
 72
   65
 73
    0
 40
0
  0
ENDTAB
  0
TABLE
  2
STYLE
  5
3
100
AcDbSymbolTable
 70
     1
  0
STYLE
  5
10
100
AcDbSymbolTableRecord
100
AcDbTextStyleTableRecord
  2
STANDARD
 70
     0
 40
0.0
 41
1.0
 50
0.0
 71
     0
 42
0.2
  3
txt
  4
bigfont.shx
  0
STYLE
  5
26
100
AcDbSymbolTableRecord
100
AcDbTextStyleTableRecord
  2
TATEGAKI
 70
    68
 40
0.0
 41
1.0
 50
0.0
 71
     0
 42
1.0
  3
txt
  4
bigfont.shx
  0
ENDTAB
  0
TABLE
  2
LAYER
 70
    9
  0
LAYER
  2
_0-0_図面枠
 70
   64
 62
    7
  6
CONTINUOUS
  0
LAYER
  2
_1-0_躯体
 70
   64
 62
    7
  6
CONTINUOUS
  0
LAYER
  2
_1-3_止水補助板
 70
   64
 62
    7
  6
CONTINUOUS
  0
LAYER
  2
_1-4_フレ__ム
 70
   64
 62
    7
  6
CONTINUOUS
  0
LAYER
  2
_1-7_カバ__
 70
   64
 62
    7
  6
CONTINUOUS
  0
LAYER
  2
_1-8_小物
 70
   64
 62
    7
  6
CONTINUOUS
  0
LAYER
  2
_1-9_センタ__プレ__ト
 70
   64
 62
    7
  6
CONTINUOUS
  0
LAYER
  2
_1-f_寸法
 70
   64
 62
    7
  6
CONTINUOUS
  0
LAYER
  2
ADD_LINE
 70
   64
 62
    7
  6
CONTINUOUS
  0
ENDTAB
  0
ENDSEC
  0
SECTION
  2
BLOCKS
  0
BLOCK
  2
-000-
 70
   64
 10
0
 20
0
 30
0
  0
LINE
  8
_0-0_図面枠
  6
CONTINUOUS
 62
    7
 10
-21.739611258569283
 20
123.45090259426553
 11
-22.269941344419294
 21
123.14474955231555
  0
LINE
  8
_0-0_図面枠
  6
CONTINUOUS
 62
    7
 10
-20.833744600669291
 20
121.49924270821549
 11
-21.739611258569283
 21
123.45090259426553
  0
LINE
  8
_0-0_図面枠
  6
CONTINUOUS
 62
    7
 10
-24.214484992719292
 20
122.0221883985655
 11
-20.833744600669291
 21
121.49924270821549
  0
LINE
  8
_0-0_図面枠
  6
CONTINUOUS
 62
    7
 10
-23.684154906819288
 20
122.32834144051554
 11
-24.214484992719292
 21
122.0221883985655
  0
LINE
  8
_0-0_図面枠
  6
CONTINUOUS
 62
    7
 10
-28.280348984519293
 20
124.98166780391551
 11
-23.684154906819288
 21
122.32834144051554
  0
LINE
  8
_0-0_図面枠
  6
CONTINUOUS
 62
    7
 10
-32.87654306221927
 20
122.32834144051554
 11
-28.280348984519293
 21
124.98166780391551
  0
LINE
  8
_0-0_図面枠
  6
CONTINUOUS
 62
    7
 10
-32.346212976369287
 20
122.0221883985655
 11
-32.87654306221927
 21
122.32834144051554
  0
LINE
  8
_0-0_図面枠
  6
CONTINUOUS
 62
    7
 10
-35.726953368369294
 20
121.49924270821549
 11
-32.346212976369287
 21
122.0221883985655
  0
LINE
  8
_0-0_図面枠
  6
CONTINUOUS
 62
    7
 10
-34.821086710519324
 20
123.45090259426553
 11
-35.726953368369294
 21
121.49924270821549
  0
LINE
  8
_0-0_図面枠
  6
CONTINUOUS
 62
    7
 10
-34.29075662461932
 20
123.14474955231555
 11
-34.821086710519324
 21
123.45090259426553
  0
LINE
  8
_0-0_図面枠
  6
CONTINUOUS
 62
    7
 10
-29.694562546919286
 20
125.79807591576554
 11
-34.29075662461932
 21
123.14474955231555
  0
LINE
  8
_0-0_図面枠
  6
CONTINUOUS
 62
    7
 10
-34.29075662461932
 20
128.45140227916551
 11
-29.694562546919286
 21
125.79807591576554
  0
LINE
  8
_0-0_図面枠
  6
CONTINUOUS
 62
    7
 10
-34.821086710519324
 20
128.14524923726555
 11
-34.29075662461932
 21
128.45140227916551
  0
LINE
  8
_0-0_図面枠
  6
CONTINUOUS
 62
    7
 10
-35.726953368369294
 20
130.09690912331553
 11
-34.821086710519324
 21
128.14524923726555
  0
LINE
  8
_0-0_図面枠
  6
CONTINUOUS
 62
    7
 10
-32.346212976369287
 20
129.57396343296551
 11
-35.726953368369294
 21
130.09690912331553
  0
LINE
  8
_0-0_図面枠
  6
CONTINUOUS
 62
    7
 10
-32.87654306221927
 20
129.26781039101553
 11
-32.346212976369287
 21
129.57396343296551
  0
LINE
  8
_0-0_図面枠
  6
CONTINUOUS
 62
    7
 10
-28.280348984519293
 20
126.61448402756554
 11
-32.87654306221927
 21
129.26781039101553
  0
LINE
  8
_0-0_図面枠
  6
CONTINUOUS
 62
    7
 10
-23.684154906819288
 20
129.26781039101553
 11
-28.280348984519293
 21
126.61448402756554
  0
LINE
  8
_0-0_図面枠
  6
CONTINUOUS
 62
    7
 10
-24.214484992719292
 20
129.57396343296551
 11
-23.684154906819288
 21
129.26781039101553
  0
LINE
  8
_0-0_図面枠
  6
CONTINUOUS
 62
    7
 10
-20.833744600669291
 20
130.09690912331553
 11
-24.214484992719292
 21
129.57396343296551
  0
LINE
  8
_0-0_図面枠
  6
CONTINUOUS
 62
    7
 10
-21.739611258569283
 20
128.14524923726555
 11
-20.833744600669291
 21
130.09690912331553
  0
LINE
  8
_0-0_図面枠
  6
CONTINUOUS
 62
    7
 10
-22.269941344419294
 20
128.45140227916551
 11
-21.739611258569283
 21
128.14524923726555
  0
LINE
  8
_0-0_図面枠
  6
CONTINUOUS
 62
    7
 10
-26.866135422169293
 20
125.79807591576554
 11
-22.269941344419294
 21
128.45140227916551
  0
LINE
  8
_0-0_図面枠
  6
CONTINUOUS
 62
    7
 10
-22.269941344419294
 20
123.14474955231555
 11
-26.866135422169293
 21
125.79807591576554
  0
LINE
  8
_0-0_図面枠
  6
CONTINUOUS
 62
    7
 10
-35.726953368369294
 20
121.49924270821549
 11
-35.726953368369294
 21
120.88683709931553
  0
LINE
  8
_0-0_図面枠
  6
CONTINUOUS
 62
    7
 10
-32.346212976369287
 20
122.0221883985655
 11
-32.346212976369287
 21
121.40978278966554
  0
LINE
  8
_0-0_図面枠
  6
CONTINUOUS
 62
    7
 10
-35.726953368369294
 20
120.88683709931553
 11
-32.346212976369287
 21
121.40978278966554
  0
LINE
  8
_0-0_図面枠
  6
CONTINUOUS
 62
    7
 10
-24.214484992719292
 20
122.0221883985655
 11
-24.214484992719292
 21
121.40978278966554
  0
LINE
  8
_0-0_図面枠
  6
CONTINUOUS
 62
    7
 10
-20.833744600669291
 20
121.49924270821549
 11
-20.833744600669291
 21
120.88683709931553
  0
LINE
  8
_0-0_図面枠
  6
CONTINUOUS
 62
    7
 10
-24.214484992719292
 20
121.40978278966554
 11
-20.833744600669291
 21
120.88683709931553
  0
LINE
  8
_0-0_図面枠
  6
CONTINUOUS
 62
    7
 10
-28.280348984519293
 20
124.98166780391551
 11
-28.280348984519293
 21
124.36926219501555
  0
LINE
  8
_0-0_図面枠
  6
CONTINUOUS
 62
    7
 10
-32.346212976369287
 20
122.02208887351554
 11
-28.280348984519293
 21
124.36926219501555
  0
LINE
  8
_0-0_図面枠
  6
CONTINUOUS
 62
    7
 10
-28.280348984519293
 20
124.36926219501555
 11
-24.214484992719292
 21
122.02208887351554
  0
LINE
  8
_0-0_図面枠
  6
CONTINUOUS
 62
    7
 10
-34.29075662461932
 20
128.45140227916551
 11
-34.29075662461932
 21
127.83899667026554
  0
LINE
  8
_0-0_図面枠
  6
CONTINUOUS
 62
    7
 10
-34.29075662461932
 20
127.83899667026554
 11
-30.224978833369306
 21
125.49187311131556
  0
LINE
  8
_0-0_図面枠
  6
CONTINUOUS
 62
    7
 10
-22.269941344419294
 20
128.45140227916551
 11
-22.269941344419294
 21
127.83899667026554
  0
LINE
  8
_0-0_図面枠
  6
CONTINUOUS
 62
    7
 10
-26.335719135719302
 20
125.49187311131556
 11
-22.269941344419294
 21
127.83899667026554
  0
LINE
  8
_0-0_図面枠
  6
CONTINUOUS
 62
    7
 10
-21.739611258569283
 20
128.14524923726555
 11
-21.739611258569283
 21
127.5328436283155
  0
LINE
  8
_0-0_図面枠
  6
CONTINUOUS
 62
    7
 10
-22.269941344419294
 20
127.83899667026554
 11
-21.739611258569283
 21
127.5328436283155
  0
LINE
  8
_0-0_図面枠
  6
CONTINUOUS
 62
    7
 10
-20.833744600669291
 20
130.09690912331553
 11
-20.833744600669291
 21
129.48450351441551
  0
LINE
  8
_0-0_図面枠
  6
CONTINUOUS
 62
    7
 10
-21.739611258569283
 20
127.5328436283155
 11
-20.833744600669291
 21
129.48450351441551
  0
LINE
  8
_0-0_図面枠
  6
CONTINUOUS
 62
    7
 10
-34.821086710519324
 20
128.14524923726555
 11
-34.821086710519324
 21
127.5328436283155
  0
LINE
  8
_0-0_図面枠
  6
CONTINUOUS
 62
    7
 10
-34.821086710519324
 20
127.5328436283155
 11
-34.29075662461932
 21
127.83899667026554
  0
LINE
  8
_0-0_図面枠
  6
CONTINUOUS
 62
    7
 10
-35.726953368369294
 20
130.09690912331553
 11
-35.726953368369294
 21
129.48450351441551
  0
LINE
  8
_0-0_図面枠
  6
CONTINUOUS
 62
    7
 10
-35.726953368369294
 20
129.48450351441551
 11
-34.821086710519324
 21
127.5328436283155
  0
LINE
  8
_0-0_図面枠
  6
CONTINUOUS
 62
    7
 10
-24.214484992719292
 20
129.57396343296551
 11
-24.214484992719292
 21
128.96165734906555
  0
LINE
  8
_0-0_図面枠
  6
CONTINUOUS
 62
    7
 10
-32.346212976369287
 20
129.57396343296551
 11
-32.346212976369287
 21
128.96165734906555
  0
LINE
  8
ADD_LINE
  6
DOT
 62
    4
 10
-35.726953368369294
 20
130.09690912331553
 11
-20.834148028223836
 21
121.49854395119382
  0
LINE
  8
ADD_LINE
  6
DOT
 62
    4
 10
-20.833744600669291
 20
130.09690912331553
 11
-35.726549940814749
 21
121.49854395119382
  0
ENDBLK
  0
BLOCK
  2
-001-_1_
 70
   64
 10
0
 20
0
 30
0
  0
LINE
  8
_1-4_フレ__ム
  6
CONTINUOUS
 62
    4
 10
-125.16666666666644
 20
61.100000000000051
 11
-124.99999999999993
 21
60.433333333333394
  0
LINE
  8
_1-4_フレ__ム
  6
CONTINUOUS
 62
    4
 10
-124.99999999999993
 20
61.100000000000051
 11
-125.16666666666644
 21
61.100000000000051
  0
LINE
  8
_1-4_フレ__ム
  6
CONTINUOUS
 62
    4
 10
-124.99999999999993
 20
62.100000000000051
 11
-124.99999999999993
 21
61.100000000000051
  0
ARC
  8
_1-4_フレ__ム
  6
CONTINUOUS
 62
    4
 10
-125.49999999999986
 20
62.100000000000051
 40
0.5
 50
0
 51
180
  0
LINE
  8
_1-4_フレ__ム
  6
CONTINUOUS
 62
    4
 10
-125.99999999999977
 20
61.100000000000051
 11
-125.99999999999977
 21
62.100000000000051
  0
LINE
  8
_1-4_フレ__ム
  6
CONTINUOUS
 62
    4
 10
-125.83333333333326
 20
61.100000000000051
 11
-125.99999999999977
 21
61.100000000000051
  0
LINE
  8
_1-4_フレ__ム
  6
CONTINUOUS
 62
    4
 10
-125.99999999999977
 20
60.433333333333394
 11
-125.83333333333326
 21
61.100000000000051
  0
ARC
  8
_1-4_フレ__ム
  6
CONTINUOUS
 62
    4
 10
-147.50000000000023
 20
62.5
 40
0.3333333333333333
 50
90
 51
180
  0
LINE
  8
_1-4_フレ__ム
  6
CONTINUOUS
 62
    4
 10
-144.33333333333348
 20
62.833333333333314
 11
-147.50000000000023
 21
62.833333333333314
  0
ARC
  8
_1-4_フレ__ム
  6
CONTINUOUS
 62
    4
 10
-144.33333333333348
 20
63.5
 40
0.6666666666666666
 50
270
 51
0
  0
LINE
  8
_1-4_フレ__ム
  6
CONTINUOUS
 62
    4
 10
-146.06666666666678
 20
63.666666666666657
 11
-144.83333333333343
 21
63.666666666666657
  0
LINE
  8
_1-4_フレ__ム
  6
CONTINUOUS
 62
    4
 10
-146.16666666666691
 20
63.566666666666606
 11
-146.06666666666678
 21
63.666666666666657
  0
LINE
  8
_1-4_フレ__ム
  6
CONTINUOUS
 62
    4
 10
-146.26666666666696
 20
63.666666666666657
 11
-146.16666666666691
 21
63.566666666666606
  0
LINE
  8
_1-4_フレ__ム
  6
CONTINUOUS
 62
    4
 10
-147.50000000000023
 20
63.666666666666657
 11
-146.26666666666696
 21
63.666666666666657
  0
ARC
  8
_1-4_フレ__ム
  6
CONTINUOUS
 62
    4
 10
-148.83333333333357
 20
62.666666666666657
 40
0.1666666666666666
 50
270
 51
0
  0
ARC
  8
_1-4_フレ__ム
  6
CONTINUOUS
 62
    4
 10
-149.75000000000017
 20
64.75
 40
0.25
 50
0
 51
180
  0
LINE
  8
_1-4_フレ__ム
  6
CONTINUOUS
 62
    4
 10
-150.00000000000023
 20
62.166666666666657
 11
-150.00000000000023
 21
64.75
  0
ARC
  8
_1-4_フレ__ム
  6
CONTINUOUS
 62
    4
 10
-149.83333333333343
 20
62.166666666666657
 40
0.1666666666666666
 50
180
 51
270
  0
LINE
  8
_1-4_フレ__ム
  6
CONTINUOUS
 62
    4
 10
-149.00000000000009
 20
62
 11
-149.83333333333343
 21
62
  0
ARC
  8
_1-4_フレ__ム
  6
CONTINUOUS
 62
    4
 10
-149.00000000000009
 20
61.666666666666657
 40
0.3333333333333333
 50
0
 51
90
  0
ARC
  8
_1-4_フレ__ム
  6
CONTINUOUS
 62
    4
 10
-125.33333333333326
 20
55.833333333333314
 40
0.3333333333333333
 50
270
 51
0
  0
ARC
  8
_1-4_フレ__ム
  6
CONTINUOUS
 62
    4
 10
-147.16666666666691
 20
57
 40
0.6666666666666666
 50
180
 51
270
  0
LINE
  8
_1-4_フレ__ム
  6
CONTINUOUS
 62
    4
 10
-125.33333333333326
 20
55.5
 11
-148.66666666666691
 21
55.5
  0
ARC
  8
_1-4_フレ__ム
  6
CONTINUOUS
 62
    4
 10
-126.99999999999993
 20
57.333333333333314
 40
1
 50
270
 51
0
  0
LINE
  8
_1-4_フレ__ム
  6
CONTINUOUS
 62
    4
 10
-136.66666666666691
 20
56.233333333333263
 11
-136.56666666666669
 21
56.333333333333314
  0
LINE
  8
_1-4_フレ__ム
  6
CONTINUOUS
 62
    4
 10
-136.76666666666651
 20
56.333333333333314
 11
-136.66666666666691
 21
56.233333333333263
  0
LINE
  8
_1-4_フレ__ム
  6
CONTINUOUS
 62
    4
 10
-136.56666666666669
 20
56.333333333333314
 11
-126.99999999999993
 21
56.333333333333314
  0
LINE
  8
_1-4_フレ__ム
  6
CONTINUOUS
 62
    4
 10
-147.16666666666691
 20
56.333333333333314
 11
-136.76666666666651
 21
56.333333333333314
  0
LINE
  8
_1-4_フレ__ム
  6
CONTINUOUS
 62
    4
 10
-147.83333333333357
 20
62.5
 11
-147.83333333333357
 21
57
  0
LINE
  8
_1-4_フレ__ム
  6
CONTINUOUS
 62
    4
 10
-148.66666666666691
 20
55.5
 11
-148.66666666666691
 21
61.666666666666657
  0
LINE
  8
_1-4_フレ__ム
  6
CONTINUOUS
 62
    4
 10
-125.99999999999977
 20
57.333333333333314
 11
-125.99999999999977
 21
60.433333333333394
  0
LINE
  8
_1-4_フレ__ム
  6
CONTINUOUS
 62
    4
 10
-124.99999999999993
 20
60.433333333333394
 11
-124.99999999999993
 21
55.833333333333314
  0
LINE
  8
_1-4_フレ__ム
  6
CONTINUOUS
 62
    4
 10
-143.66666666666691
 20
64.166666666666657
 11
-143.66666666666691
 21
63.5
  0
LINE
  8
_1-4_フレ__ム
  6
CONTINUOUS
 62
    4
 10
-144.83333333333343
 20
64.166666666666657
 11
-143.66666666666691
 21
64.166666666666657
  0
LINE
  8
_1-4_フレ__ム
  6
CONTINUOUS
 62
    4
 10
-144.83333333333343
 20
63.666666666666657
 11
-144.83333333333343
 21
64.166666666666657
  0
LINE
  8
_1-4_フレ__ム
  6
CONTINUOUS
 62
    4
 10
-147.50000000000023
 20
64.166666666666657
 11
-147.50000000000023
 21
63.666666666666657
  0
LINE
  8
_1-4_フレ__ム
  6
CONTINUOUS
 62
    4
 10
-148.66666666666691
 20
64.166666666666657
 11
-147.50000000000023
 21
64.166666666666657
  0
LINE
  8
_1-4_フレ__ム
  6
CONTINUOUS
 62
    4
 10
-148.66666666666691
 20
62.666666666666657
 11
-148.66666666666691
 21
64.166666666666657
  0
LINE
  8
_1-4_フレ__ム
  6
CONTINUOUS
 62
    4
 10
-149.50000000000023
 20
64.75
 11
-149.50000000000023
 21
62.5
  0
LINE
  8
_1-4_フレ__ム
  6
CONTINUOUS
 62
    4
 10
-149.50000000000023
 20
62.5
 11
-148.83333333333357
 21
62.5
  0
LINE
  8
_1-4_フレ__ム
  6
CENTER2
 62
    4
 10
-146.16666666666694
 20
64.666666666666657
 11
-146.16666666666694
 21
61.833333333333314
  0
LINE
  8
_1-4_フレ__ム
  6
CENTER2
 62
    4
 10
-136.66666666666669
 20
58
 11
-136.66666666666669
 21
53.833333333333314
  0
ENDBLK
  0
BLOCK
  2
-002-HATCHING
 70
   64
 10
0
 20
0
 30
0
  0
LINE
  8
_1-0_躯体
  6
CONTINUOUS
 62
    4
 10
-125
 20
54.246560698096289
 11
-125.74656069809632
 21
53.5
  0
LINE
  8
_1-0_躯体
  6
CONTINUOUS
 62
    4
 10
-125.02270307301171
 20
55.166666666666657
 11
-126.68936973967838
 21
53.5
  0
LINE
  8
_1-0_躯体
  6
CONTINUOUS
 62
    4
 10
-125.96551211459375
 20
55.166666666666657
 11
-127.63217878126042
 21
53.5
  0
LINE
  8
_1-0_躯体
  6
CONTINUOUS
 62
    4
 10
-126.90832115617584
 20
55.166666666666657
 11
-128.5749878228425
 21
53.5
  0
LINE
  8
_1-0_躯体
  6
CONTINUOUS
 62
    4
 10
-127.8511301977579
 20
55.166666666666657
 11
-129.51779686442458
 21
53.5
  0
LINE
  8
_1-0_躯体
  6
CONTINUOUS
 62
    4
 10
-128.79393923933998
 20
55.166666666666657
 11
-130.46060590600666
 21
53.5
  0
LINE
  8
_1-0_躯体
  6
CONTINUOUS
 62
    4
 10
-129.73674828092203
 20
55.166666666666657
 11
-131.40341494758871
 21
53.5
  0
LINE
  8
_1-0_躯体
  6
CONTINUOUS
 62
    4
 10
-130.67955732250408
 20
55.166666666666657
 11
-132.34622398917077
 21
53.5
  0
LINE
  8
_1-0_躯体
  6
CONTINUOUS
 62
    4
 10
-131.62236636408616
 20
55.166666666666657
 11
-133.28903303075282
 21
53.5
  0
LINE
  8
_1-0_躯体
  6
CONTINUOUS
 62
    4
 10
-132.56517540566819
 20
55.166666666666657
 11
-134.23184207233487
 21
53.5
  0
LINE
  8
_1-0_躯体
  6
CONTINUOUS
 62
    4
 10
-133.50798444725027
 20
55.166666666666657
 11
-135.17465111391692
 21
53.5
  0
LINE
  8
_1-0_躯体
  6
CONTINUOUS
 62
    4
 10
-134.45079348883235
 20
55.166666666666657
 11
-136.117460155499
 21
53.5
  0
LINE
  8
_1-0_躯体
  6
CONTINUOUS
 62
    4
 10
-135.3936025304144
 20
55.166666666666657
 11
-137.06026919708108
 21
53.5
  0
LINE
  8
_1-0_躯体
  6
CONTINUOUS
 62
    4
 10
-136.33641157199648
 20
55.166666666666657
 11
-138.00307823866314
 21
53.5
  0
LINE
  8
_1-0_躯体
  6
CONTINUOUS
 62
    4
 10
-137.27922061357853
 20
55.166666666666657
 11
-138.94588728024519
 21
53.5
  0
LINE
  8
_1-0_躯体
  6
CONTINUOUS
 62
    4
 10
-138.22202965516061
 20
55.166666666666657
 11
-139.88869632182727
 21
53.5
  0
LINE
  8
_1-0_躯体
  6
CONTINUOUS
 62
    4
 10
-139.16483869674266
 20
55.166666666666657
 11
-140.83150536340932
 21
53.5
  0
LINE
  8
_1-0_躯体
  6
CONTINUOUS
 62
    4
 10
-140.10764773832472
 20
55.166666666666657
 11
-141.7743144049914
 21
53.5
  0
LINE
  8
_1-0_躯体
  6
CONTINUOUS
 62
    4
 10
-141.0504567799068
 20
55.166666666666657
 11
-142.71712344657348
 21
53.5
  0
LINE
  8
_1-0_躯体
  6
CONTINUOUS
 62
    4
 10
-141.99326582148888
 20
55.166666666666657
 11
-143.65993248815553
 21
53.5
  0
LINE
  8
_1-0_躯体
  6
CONTINUOUS
 62
    4
 10
-142.93607486307093
 20
55.166666666666657
 11
-144.60274152973761
 21
53.5
  0
LINE
  8
_1-0_躯体
  6
CONTINUOUS
 62
    4
 10
-143.87888390465301
 20
55.166666666666657
 11
-145.54555057131967
 21
53.5
  0
LINE
  8
_1-0_躯体
  6
CONTINUOUS
 62
    4
 10
-144.82169294623506
 20
55.166666666666657
 11
-146.48835961290172
 21
53.5
  0
LINE
  8
_1-0_躯体
  6
CONTINUOUS
 62
    4
 10
-145.76450198781711
 20
55.166666666666657
 11
-147.4311686544838
 21
53.5
  0
LINE
  8
_1-0_躯体
  6
CONTINUOUS
 62
    4
 10
-146.70731102939919
 20
55.166666666666657
 11
-148.37397769606588
 21
53.5
  0
LINE
  8
_1-0_躯体
  6
CONTINUOUS
 62
    4
 10
-147.65012007098127
 20
55.166666666666657
 11
-149.31678673764793
 21
53.5
  0
LINE
  8
_1-0_躯体
  6
CONTINUOUS
 62
    4
 10
-148.59292911256333
 20
55.166666666666657
 11
-150.25959577922998
 21
53.5
  0
LINE
  8
_1-0_躯体
  6
CONTINUOUS
 62
    4
 10
-149.53573815414538
 20
55.166666666666657
 11
-151.20240482081203
 21
53.5
  0
LINE
  8
_1-0_躯体
  6
CONTINUOUS
 62
    4
 10
-150.47854719572743
 20
55.166666666666657
 11
-152.14521386239409
 21
53.5
  0
LINE
  8
_1-0_躯体
  6
CONTINUOUS
 62
    4
 10
-151.42135623730948
 20
55.166666666666657
 11
-153.08802290397617
 21
53.5
  0
LINE
  8
_1-0_躯体
  6
CONTINUOUS
 62
    4
 10
-152.36416527889156
 20
55.166666666666657
 11
-153.33333333333331
 21
54.197498612224905
  0
LINE
  8
_1-0_躯体
  6
CONTINUOUS
 62
    4
 10
-153.30697432047361
 20
55.166666666666657
 11
-153.33333333333331
 21
55.140307653806985
  0
ENDBLK
  0
BLOCK
  2
-003-_2_
 70
   64
 10
0
 20
0
 30
0
  0
LINE
  8
_1-8_小物
  6
CONTINUOUS
 62
    4
 10
-124.5
 20
62.0999993333335
 11
-124.5
 21
60.433333333333394
  0
LINE
  8
_1-8_小物
  6
CONTINUOUS
 62
    4
 10
-124.5
 20
60.433333333333394
 11
-124.99999999999977
 21
60.433333333333394
  0
LINE
  8
_1-8_小物
  6
CONTINUOUS
 62
    4
 10
-125.99999999999993
 20
60.433333333333394
 11
-126.49999999999993
 21
60.433333333333394
  0
LINE
  8
_1-8_小物
  6
CONTINUOUS
 62
    4
 10
-126.49999999999993
 20
60.433333333333394
 11
-126.49999999999993
 21
62.0999993333335
  0
ARC
  8
_1-8_小物
  6
CONTINUOUS
 62
    4
 10
-125.49999999999986
 20
62.0999993333335
 40
0.566667
 50
0
 51
180
  0
ARC
  8
_1-8_小物
  6
CONTINUOUS
 62
    4
 10
-125.49999999999986
 20
62.0999993333335
 40
1
 50
0
 51
180
  0
LINE
  8
_1-8_小物
  6
CONTINUOUS
 62
    4
 10
-125.99999800000009
 20
61.099999333333386
 11
-125.91871699999987
 21
61.099999333333386
  0
ARC
  8
_1-8_小物
  6
CONTINUOUS
 62
    4
 10
-125.91871699999987
 20
61.033333333333445
 40
0.066667
 50
345.96359800000414
 51
90
  0
LINE
  8
_1-8_小物
  6
CONTINUOUS
 62
    4
 10
-125.99999999999993
 20
60.433333333333394
 11
-125.85404099999982
 21
61.017164333333454
  0
LINE
  8
_1-8_小物
  6
CONTINUOUS
 62
    4
 10
-124.99999999999977
 20
61.099999333333386
 11
-125.0812819999998
 21
61.099999333333386
  0
ARC
  8
_1-8_小物
  6
CONTINUOUS
 62
    4
 10
-125.0812819999998
 20
61.033333333333445
 40
0.066667
 50
90
 51
194.03619200001489
  0
LINE
  8
_1-8_小物
  6
CONTINUOUS
 62
    4
 10
-125.00000099999981
 20
60.433333333333394
 11
-125.14595800000006
 21
61.017164333333454
  0
LINE
  8
_1-8_小物
  6
CONTINUOUS
 62
    4
 10
-125.99999800000009
 20
61.099999333333386
 11
-126.06666499999976
 21
61.099999333333386
  0
LINE
  8
_1-8_小物
  6
CONTINUOUS
 62
    4
 10
-126.06666499999976
 20
61.099999333333386
 11
-126.06666699999982
 21
62.0999993333335
  0
LINE
  8
_1-8_小物
  6
CONTINUOUS
 62
    4
 10
-125.00000099999981
 20
61.099999333333386
 11
-124.93333299999988
 21
61.099999333333386
  0
LINE
  8
_1-8_小物
  6
CONTINUOUS
 62
    4
 10
-124.93333299999988
 20
61.099999333333386
 11
-124.93333299999988
 21
62.0999993333335
  0
ENDBLK
  0
BLOCK
  2
-004-_3_
 70
   64
 10
0
 20
0
 30
0
  0
LINE
  8
_1-8_小物
  6
CONTINUOUS
 62
    4
 10
-133.66666666666634
 20
56.833333333333314
 11
-139.66666666666666
 21
56.833333333333314
  0
LINE
  8
_1-8_小物
  6
CONTINUOUS
 62
    4
 10
-133.66666666666634
 20
56.333333333333314
 11
-139.66666666666666
 21
56.333333333333314
  0
LINE
  8
_1-8_小物
  6
CONTINUOUS
 62
    4
 10
-133.66666666666634
 20
56.833333333333314
 11
-133.66666666666634
 21
56.333333333333314
  0
LINE
  8
_1-8_小物
  6
CONTINUOUS
 62
    4
 10
-139.66666666666666
 20
56.833333333333314
 11
-139.66666666666666
 21
56.333333333333314
  0
LINE
  8
_1-8_小物
  6
CONTINUOUS
 62
    4
 10
-135.74999999999972
 20
56.833333333333314
 11
-135.74999999999972
 21
56.333333333333314
  0
LINE
  8
_1-8_小物
  6
CONTINUOUS
 62
    4
 10
-137.58333333333331
 20
56.833333333333314
 11
-137.58333333333331
 21
56.333333333333314
  0
LINE
  8
_1-8_小物
  6
CONTINUOUS
 62
    4
 10
-135.1666666666664
 20
56.833333333333314
 11
-135.20297092793317
 21
57.24829293833335
  0
LINE
  8
_1-8_小物
  6
CONTINUOUS
 62
    4
 10
-138.13036240543323
 20
57.24829293833335
 11
-138.16666666666634
 21
56.833333333333314
  0
ARC
  8
_1-8_小物
  6
CONTINUOUS
 62
    4
 10
-137.80161815503351
 20
57.219531543233245
 40
0.3299999999999999
 50
127.36755803205445
 51
175.00000000119871
  0
ARC
  8
_1-8_小物
  6
CONTINUOUS
 62
    4
 10
-135.53171517829986
 20
57.219531543233245
 40
0.3299999999999999
 50
4.999999998801286
 51
52.63244196794556
  0
ARC
  8
_1-8_小物
  6
CONTINUOUS
 62
    4
 10
-136.66666666666669
 20
55.733333333333292
 40
2.1999999999999997
 50
52.632441967704935
 51
68.266383543398447
  0
ARC
  8
_1-8_小物
  6
CONTINUOUS
 62
    4
 10
-136.66666666666669
 20
55.733333333333292
 40
2.1999999999999997
 50
111.74840859090331
 51
127.36755803230515
  0
LINE
  8
_1-8_小物
  6
CONTINUOUS
 62
    4
 10
-136.5616666666665
 20
57.919709043200044
 11
-136.5616666666665
 21
57.774437413199905
  0
LINE
  8
_1-8_小物
  6
CONTINUOUS
 62
    4
 10
-136.44590377269952
 20
57.919709043200044
 11
-136.5616666666665
 21
57.919709043200044
  0
LINE
  8
_1-8_小物
  6
CONTINUOUS
 62
    4
 10
-135.85249891049989
 20
57.774437413199905
 11
-136.44590377269952
 21
57.919709043200044
  0
LINE
  8
_1-8_小物
  6
CONTINUOUS
 62
    4
 10
-136.88742956066653
 20
57.919709043200044
 11
-137.32073298323331
 21
57.831230436066733
  0
LINE
  8
_1-8_小物
  6
CONTINUOUS
 62
    4
 10
-137.32073298323331
 20
57.831230436066733
 11
-137.48083442286617
 21
57.774437413199905
  0
LINE
  8
_1-8_小物
  6
CONTINUOUS
 62
    4
 10
-136.77166666666653
 20
57.919709043200044
 11
-136.88742956066653
 21
57.919709043200044
  0
LINE
  8
_1-8_小物
  6
CONTINUOUS
 62
    4
 10
-136.77166666666653
 20
57.774437413199905
 11
-136.77166666666653
 21
57.919709043200044
  0
LINE
  8
_1-8_小物
  6
CONTINUOUS
 62
    4
 10
-136.5616666666665
 20
57.774437413199905
 11
-136.66666666666669
 21
57.776139138000019
  0
LINE
  8
_1-8_小物
  6
CONTINUOUS
 62
    4
 10
-136.66666666666669
 20
57.776139138000019
 11
-136.77166666666653
 21
57.774437413199905
  0
LINE
  8
_1-8_小物
  6
CONTINUOUS
 62
    4
 10
-135.20297092793317
 20
57.24829293833335
 11
-138.13036240543323
 21
57.24829293833335
  0
LINE
  8
_1-8_小物
  6
CONTINUOUS
 62
    4
 10
-136.66666666666669
 20
57.481801815566712
 11
-138.00190371183334
 21
57.481801815566712
  0
LINE
  8
_1-8_小物
  6
CONTINUOUS
 62
    4
 10
-135.33142962153306
 20
57.481801815566712
 11
-136.66666666666669
 21
57.481801815566712
  0
ENDBLK
  0
BLOCK
  2
-005-_4_
 70
   64
 10
0
 20
0
 30
0
  0
LINE
  8
_1-8_小物
  6
CONTINUOUS
 62
    4
 10
-134.86390833333343
 20
43.573391666666595
 11
-134.82901833333381
 21
42.907638333333267
  0
LINE
  8
_1-8_小物
  6
CONTINUOUS
 62
    4
 10
-134.91624500000034
 20
44.572021666666529
 11
-135.564551666667
 21
44.204254999999904
  0
LINE
  8
_1-8_小物
  6
CONTINUOUS
 62
    4
 10
-135.564551666667
 20
44.204254999999904
 11
-135.52966166666675
 21
43.538501666666576
  0
LINE
  8
_1-8_小物
  6
CONTINUOUS
 62
    4
 10
-135.52966166666675
 20
43.538501666666576
 11
-134.86390833333343
 21
43.573391666666595
  0
LINE
  8
_1-8_小物
  6
CONTINUOUS
 62
    4
 10
-134.95113500000025
 20
45.237774999999971
 11
-134.91624500000034
 21
44.572021666666529
  0
LINE
  8
_1-8_小物
  6
CONTINUOUS
 62
    4
 10
-135.00347166666688
 20
46.236403333333357
 11
-135.65177833333382
 21
45.86863666666639
  0
LINE
  8
_1-8_小物
  6
CONTINUOUS
 62
    4
 10
-135.65177833333382
 20
45.86863666666639
 11
-135.61688833333363
 21
45.20288333333329
  0
LINE
  8
_1-8_小物
  6
CONTINUOUS
 62
    4
 10
-135.61688833333363
 20
45.20288333333329
 11
-134.95113500000025
 21
45.237774999999971
  0
LINE
  8
_1-8_小物
  6
CONTINUOUS
 62
    4
 10
-135.03836166666707
 20
46.902156666666684
 11
-135.00347166666688
 21
46.236403333333357
  0
LINE
  8
_1-8_小物
  6
CONTINUOUS
 62
    4
 10
-135.09069833333342
 20
47.900786666666392
 11
-135.73900500000008
 21
47.533019999999993
  0
LINE
  8
_1-8_小物
  6
CONTINUOUS
 62
    4
 10
-135.73900500000008
 20
47.533019999999993
 11
-135.70411500000046
 21
46.867266666666666
  0
LINE
  8
_1-8_小物
  6
CONTINUOUS
 62
    4
 10
-135.70411500000046
 20
46.867266666666666
 11
-135.03836166666707
 21
46.902156666666684
  0
LINE
  8
_1-8_小物
  6
CONTINUOUS
 62
    4
 10
-135.12558833333361
 20
48.566539999999947
 11
-135.09069833333342
 21
47.900786666666392
  0
LINE
  8
_1-8_小物
  6
CONTINUOUS
 62
    4
 10
-135.17792500000024
 20
49.565169999999995
 11
-135.8262316666669
 21
49.197401666666593
  0
LINE
  8
_1-8_小物
  6
CONTINUOUS
 62
    4
 10
-135.8262316666669
 20
49.197401666666593
 11
-135.79134166666699
 21
48.531648333333266
  0
LINE
  8
_1-8_小物
  6
CONTINUOUS
 62
    4
 10
-135.79134166666699
 20
48.531648333333266
 11
-135.12558833333361
 21
48.566539999999947
  0
LINE
  8
_1-8_小物
  6
CONTINUOUS
 62
    4
 10
-135.21281500000021
 20
50.230921666666546
 11
-135.17792500000024
 21
49.565169999999995
  0
LINE
  8
_1-8_小物
  6
CONTINUOUS
 62
    4
 10
-135.91345833333372
 20
50.861784999999855
 11
-135.87856833333353
 21
50.196031666666528
  0
LINE
  8
_1-8_小物
  6
CONTINUOUS
 62
    4
 10
-135.87856833333353
 20
50.196031666666528
 11
-135.21281500000021
 21
50.230921666666546
  0
LINE
  8
_1-8_小物
  6
CONTINUOUS
 62
    4
 10
-135.33333333333366
 20
51.166666666666657
 11
-135.91345833333372
 21
50.861784999999855
  0
LINE
  8
_1-8_小物
  6
CONTINUOUS
 62
    4
 10
-138.46942500000023
 20
43.573391666666595
 11
-138.50431500000013
 21
42.907638333333267
  0
LINE
  8
_1-8_小物
  6
CONTINUOUS
 62
    4
 10
-138.4170883333336
 20
44.572021666666529
 11
-137.76878166666694
 21
44.204254999999904
  0
LINE
  8
_1-8_小物
  6
CONTINUOUS
 62
    4
 10
-137.76878166666694
 20
44.204254999999904
 11
-137.80367166666719
 21
43.538501666666576
  0
LINE
  8
_1-8_小物
  6
CONTINUOUS
 62
    4
 10
-137.80367166666719
 20
43.538501666666576
 11
-138.46942500000023
 21
43.573391666666595
  0
LINE
  8
_1-8_小物
  6
CONTINUOUS
 62
    4
 10
-138.38219833333341
 20
45.237774999999971
 11
-138.4170883333336
 21
44.572021666666529
  0
LINE
  8
_1-8_小物
  6
CONTINUOUS
 62
    4
 10
-138.32986166666706
 20
46.236403333333357
 11
-137.6815550000004
 21
45.86863666666639
  0
LINE
  8
_1-8_小物
  6
CONTINUOUS
 62
    4
 10
-137.6815550000004
 20
45.86863666666639
 11
-137.71644500000002
 21
45.20288333333329
  0
LINE
  8
_1-8_小物
  6
CONTINUOUS
 62
    4
 10
-137.71644500000002
 20
45.20288333333329
 11
-138.38219833333341
 21
45.237774999999971
  0
LINE
  8
_1-8_小物
  6
CONTINUOUS
 62
    4
 10
-138.29497166666715
 20
46.902156666666684
 11
-138.32986166666706
 21
46.236403333333357
  0
LINE
  8
_1-8_小物
  6
CONTINUOUS
 62
    4
 10
-138.24263500000052
 20
47.900786666666392
 11
-137.59432833333358
 21
47.533019999999993
  0
LINE
  8
_1-8_小物
  6
CONTINUOUS
 62
    4
 10
-137.59432833333358
 20
47.533019999999993
 11
-137.62921833333348
 21
46.867266666666666
  0
LINE
  8
_1-8_小物
  6
CONTINUOUS
 62
    4
 10
-137.62921833333348
 20
46.867266666666666
 11
-138.29497166666715
 21
46.902156666666684
  0
LINE
  8
_1-8_小物
  6
CONTINUOUS
 62
    4
 10
-138.20774500000033
 20
48.566539999999947
 11
-138.24263500000052
 21
47.900786666666392
  0
LINE
  8
_1-8_小物
  6
CONTINUOUS
 62
    4
 10
-138.15540833333336
 20
49.565169999999995
 11
-137.50710166666676
 21
49.197401666666593
  0
LINE
  8
_1-8_小物
  6
CONTINUOUS
 62
    4
 10
-137.50710166666676
 20
49.197401666666593
 11
-137.54199166666695
 21
48.531648333333266
  0
LINE
  8
_1-8_小物
  6
CONTINUOUS
 62
    4
 10
-137.54199166666695
 20
48.531648333333266
 11
-138.20774500000033
 21
48.566539999999947
  0
LINE
  8
_1-8_小物
  6
CONTINUOUS
 62
    4
 10
-138.12051833333379
 20
50.230921666666546
 11
-138.15540833333336
 21
49.565169999999995
  0
LINE
  8
_1-8_小物
  6
CONTINUOUS
 62
    4
 10
-137.41987500000022
 20
50.861784999999855
 11
-137.45476500000041
 21
50.196031666666528
  0
LINE
  8
_1-8_小物
  6
CONTINUOUS
 62
    4
 10
-137.45476500000041
 20
50.196031666666528
 11
-138.12051833333379
 21
50.230921666666546
  0
LINE
  8
_1-8_小物
  6
CONTINUOUS
 62
    4
 10
-136.68643500000024
 20
43.186434999999875
 11
-136.0418683333337
 21
43.758324999999928
  0
LINE
  8
_1-8_小物
  6
CONTINUOUS
 62
    4
 10
-137.28981500000037
 20
43.789813333333342
 11
-136.66666666666669
 21
43.166666666666544
  0
LINE
  8
_1-8_小物
  6
CONTINUOUS
 62
    4
 10
-138
 20
51.166666666666657
 11
-137.41987500000022
 21
50.861784999999855
  0
LINE
  8
_1-8_小物
  6
CONTINUOUS
 62
    4
 10
-135.12558833333361
 20
48.566539999999947
 11
-134.56046666666714
 21
50.119199999999779
  0
LINE
  8
_1-8_小物
  6
CONTINUOUS
 62
    4
 10
-135.48031500000013
 20
48.566539999999947
 11
-134.87369666666683
 21
50.233206666666575
  0
LINE
  8
_1-8_小物
  6
CONTINUOUS
 62
    4
 10
-138.20774500000033
 20
48.566539999999947
 11
-138.77286666666686
 21
50.119199999999779
  0
LINE
  8
_1-8_小物
  6
CONTINUOUS
 62
    4
 10
-137.85301833333386
 20
48.566539999999947
 11
-138.45963666666711
 21
50.233206666666575
  0
LINE
  8
_1-8_小物
  6
CONTINUOUS
 62
    4
 10
-135.99408500000027
 20
42.846579999999818
 11
-134.82901833333381
 21
42.907638333333267
  0
LINE
  8
_1-8_小物
  6
CONTINUOUS
 62
    4
 10
-134.82901833333381
 20
42.907638333333267
 11
-135.45988000000034
 21
42.206995000000035
  0
LINE
  8
_1-8_小物
  6
CONTINUOUS
 62
    4
 10
-135.45988000000034
 20
42.206995000000035
 11
-135.95919500000008
 21
42.180826666666491
  0
LINE
  8
_1-8_小物
  6
CONTINUOUS
 62
    4
 10
-135.95919500000008
 20
42.180826666666491
 11
-136.5
 21
52.499999999999801
  0
LINE
  8
_1-8_小物
  6
CONTINUOUS
 62
    4
 10
-135.33333333333366
 20
51.166666666666657
 11
-135.33333333333366
 21
52.499999999999801
  0
LINE
  8
_1-8_小物
  6
CONTINUOUS
 62
    4
 10
-137.33924833333367
 20
42.846579999999818
 11
-138.50431500000013
 21
42.907638333333267
  0
LINE
  8
_1-8_小物
  6
CONTINUOUS
 62
    4
 10
-138.50431500000013
 20
42.907638333333267
 11
-137.8734533333336
 21
42.206995000000035
  0
LINE
  8
_1-8_小物
  6
CONTINUOUS
 62
    4
 10
-137.8734533333336
 20
42.206995000000035
 11
-137.37413833333358
 21
42.180826666666491
  0
LINE
  8
_1-8_小物
  6
CONTINUOUS
 62
    4
 10
-137.37413833333358
 20
42.180826666666491
 11
-136.83333333333366
 21
52.499999999999801
  0
LINE
  8
_1-8_小物
  6
CONTINUOUS
 62
    4
 10
-138
 20
51.166666666666657
 11
-138
 21
52.499999999999801
  0
LINE
  8
_1-8_小物
  6
CONTINUOUS
 62
    4
 10
-138.77286666666686
 20
50.119199999999779
 11
-139.10365166666696
 21
52.387073333333461
  0
ARC
  8
_1-8_小物
  6
CONTINUOUS
 62
    4
 10
-138.9717150000003
 20
52.406318333333303
 40
0.1333333333333333
 50
98.130101999965902
 51
188.29846600002313
  0
LINE
  8
_1-8_小物
  6
CONTINUOUS
 62
    4
 10
-138.99057166666717
 20
52.538311666666601
 11
-138.92496333333355
 21
52.547683333333367
  0
ARC
  8
_1-8_小物
  6
CONTINUOUS
 62
    4
 10
-138.90610666666663
 20
52.415689999999955
 40
0.1333333333333333
 50
8.130102000040166
 51
98.130102000226714
  0
LINE
  8
_1-8_小物
  6
CONTINUOUS
 62
    4
 10
-138.77411333333356
 20
52.434546666666535
 11
-138.45963666666711
 21
50.233206666666575
  0
LINE
  8
_1-8_小物
  6
CONTINUOUS
 62
    4
 10
-134.56046666666714
 20
50.119199999999779
 11
-134.22968166666698
 21
52.387073333333461
  0
ARC
  8
_1-8_小物
  6
CONTINUOUS
 62
    4
 10
-134.36161833333364
 20
52.406318333333303
 40
0.1333333333333333
 50
351.70153399996303
 51
81.869898000046192
  0
LINE
  8
_1-8_小物
  6
CONTINUOUS
 62
    4
 10
-134.34276333333372
 20
52.538311666666601
 11
-134.40837000000039
 21
52.547683333333367
  0
ARC
  8
_1-8_小物
  6
CONTINUOUS
 62
    4
 10
-134.42722666666668
 20
52.415689999999955
 40
0.1333333333333333
 50
81.869898000046192
 51
171.86989799999611
  0
LINE
  8
_1-8_小物
  6
CONTINUOUS
 62
    4
 10
-134.55922000000038
 20
52.434546666666535
 11
-134.87369666666683
 21
50.233206666666575
  0
LINE
  8
_1-8_小物
  6
CONTINUOUS
 62
    4
 10
-134.56046666666714
 20
50.119199999999779
 11
-134.22968166666698
 21
52.387073333333461
  0
ARC
  8
_1-8_小物
  6
CONTINUOUS
 62
    4
 10
-134.36161833333364
 20
52.406318333333303
 40
0.1333333333333333
 50
351.70153399996303
 51
81.869898000046192
  0
LINE
  8
_1-8_小物
  6
CONTINUOUS
 62
    4
 10
-134.34276333333372
 20
52.538311666666601
 11
-134.40837000000039
 21
52.547683333333367
  0
ARC
  8
_1-8_小物
  6
CONTINUOUS
 62
    4
 10
-134.42722666666668
 20
52.415689999999955
 40
0.1333333333333333
 50
81.869898000046192
 51
171.86989799999611
  0
LINE
  8
_1-8_小物
  6
CONTINUOUS
 62
    4
 10
-134.55922000000038
 20
52.434546666666535
 11
-134.87369666666683
 21
50.233206666666575
  0
LINE
  8
_1-8_小物
  6
CONTINUOUS
 62
    4
 10
-135
 20
55.166666666666657
 11
-135.33333333333366
 21
53.500000000000028
  0
LINE
  8
_1-8_小物
  6
CONTINUOUS
 62
    4
 10
-135.33333333333366
 20
55.166666666666657
 11
-135.33333333333366
 21
52.499999999999801
  0
LINE
  8
_1-8_小物
  6
CONTINUOUS
 62
    4
 10
-136.5
 20
52.499999999999801
 11
-136.66666666666669
 21
52.499999999999801
  0
LINE
  8
_1-8_小物
  6
CONTINUOUS
 62
    4
 10
-136.66666666666669
 20
53.500000000000028
 11
-136.66666666666669
 21
55.166666666666657
  0
LINE
  8
_1-8_小物
  6
CONTINUOUS
 62
    4
 10
-136.33333333333366
 20
55.166666666666657
 11
-136.66666666666669
 21
53.500000000000028
  0
LINE
  8
_1-8_小物
  6
CONTINUOUS
 62
    4
 10
-137.00000000000028
 20
55.166666666666657
 11
-136.66666666666669
 21
53.500000000000028
  0
LINE
  8
_1-8_小物
  6
CONTINUOUS
 62
    4
 10
-138.33333333333331
 20
55.166666666666657
 11
-138
 21
53.500000000000028
  0
LINE
  8
_1-8_小物
  6
CONTINUOUS
 62
    4
 10
-138
 20
55.166666666666657
 11
-138
 21
52.499999999999801
  0
LINE
  8
_1-8_小物
  6
CONTINUOUS
 62
    4
 10
-136.83333333333366
 20
52.499999999999801
 11
-136.66666666666669
 21
52.499999999999801
  0
LINE
  8
_1-8_小物
  6
CONTINUOUS
 62
    4
 10
-135
 20
55.166666666666657
 11
-138.33333333333331
 21
55.166666666666657
  0
ENDBLK
  0
BLOCK
  2
-006-_5_
 70
   64
 10
0
 20
0
 30
0
  0
LINE
  8
_1-8_小物
  6
CONTINUOUS
 62
    4
 10
-92.166667166666656
 20
62.099999333329635
 11
-92.166667166666656
 21
60.433333333329557
  0
LINE
  8
_1-8_小物
  6
CONTINUOUS
 62
    4
 10
-92.166667166666656
 20
60.433333333329557
 11
-91.666667166666883
 21
60.433333333329557
  0
LINE
  8
_1-8_小物
  6
CONTINUOUS
 62
    4
 10
-90.66666716666677
 20
60.433333333329557
 11
-90.16666716666677
 21
60.433333333329557
  0
LINE
  8
_1-8_小物
  6
CONTINUOUS
 62
    4
 10
-90.16666716666677
 20
60.433333333329557
 11
-90.16666716666677
 21
62.099999333329635
  0
ARC
  8
_1-8_小物
  6
CONTINUOUS
 62
    4
 10
-91.166667166666883
 20
62.099999333329635
 40
0.566667
 50
0
 51
180
  0
ARC
  8
_1-8_小物
  6
CONTINUOUS
 62
    4
 10
-91.166667166666883
 20
62.099999333329635
 40
1
 50
0
 51
180
  0
LINE
  8
_1-8_小物
  6
CONTINUOUS
 62
    4
 10
-90.666669166666651
 20
61.099999333329549
 11
-90.747950166666868
 21
61.099999333329549
  0
ARC
  8
_1-8_小物
  6
CONTINUOUS
 62
    4
 10
-90.747950166666868
 20
61.033333333329608
 40
0.066667
 50
90
 51
194.03640200001951
  0
LINE
  8
_1-8_小物
  6
CONTINUOUS
 62
    4
 10
-90.66666716666677
 20
60.433333333329557
 11
-90.812626166666831
 21
61.017164333329617
  0
LINE
  8
_1-8_小物
  6
CONTINUOUS
 62
    4
 10
-91.666667166666883
 20
61.099999333329549
 11
-91.585385166666896
 21
61.099999333329549
  0
ARC
  8
_1-8_小物
  6
CONTINUOUS
 62
    4
 10
-91.585385166666896
 20
61.033333333329608
 40
0.066667
 50
345.96380800000878
 51
90
  0
LINE
  8
_1-8_小物
  6
CONTINUOUS
 62
    4
 10
-91.666666166666886
 20
60.433333333329557
 11
-91.520709166666592
 21
61.017164333329617
  0
LINE
  8
_1-8_小物
  6
CONTINUOUS
 62
    4
 10
-90.666669166666651
 20
61.099999333329549
 11
-90.60000216666694
 21
61.099999333329549
  0
LINE
  8
_1-8_小物
  6
CONTINUOUS
 62
    4
 10
-90.60000216666694
 20
61.099999333329549
 11
-90.600000166666831
 21
62.099999333329635
  0
LINE
  8
_1-8_小物
  6
CONTINUOUS
 62
    4
 10
-91.666666166666886
 20
61.099999333329549
 11
-91.733334166666822
 21
61.099999333329549
  0
LINE
  8
_1-8_小物
  6
CONTINUOUS
 62
    4
 10
-91.733334166666822
 20
61.099999333329549
 11
-91.733334166666822
 21
62.099999333329635
  0
ENDBLK
  0
BLOCK
  2
-007-HATCHING_1_
 70
   64
 10
0
 20
0
 30
0
  0
LINE
  8
_1-0_躯体
  6
CONTINUOUS
 62
    4
 10
-44.999999999999886
 20
54.384223389124855
 11
-45.884223389128579
 21
53.499999999996163
  0
LINE
  8
_1-0_躯体
  6
CONTINUOUS
 62
    4
 10
-45.160365764044002
 20
55.16666666666282
 11
-46.827032430710659
 21
53.499999999996163
  0
LINE
  8
_1-0_躯体
  6
CONTINUOUS
 62
    4
 10
-46.103174805626054
 20
55.16666666666282
 11
-47.76984147229274
 21
53.499999999996163
  0
LINE
  8
_1-0_躯体
  6
CONTINUOUS
 62
    4
 10
-47.045983847208134
 20
55.16666666666282
 11
-48.71265051387482
 21
53.499999999996163
  0
LINE
  8
_1-0_躯体
  6
CONTINUOUS
 62
    4
 10
-47.988792888790215
 20
55.16666666666282
 11
-49.655459555456872
 21
53.499999999996163
  0
LINE
  8
_1-0_躯体
  6
CONTINUOUS
 62
    4
 10
-48.931601930372295
 20
55.16666666666282
 11
-50.598268597038953
 21
53.499999999996163
  0
LINE
  8
_1-0_躯体
  6
CONTINUOUS
 62
    4
 10
-49.874410971954347
 20
55.16666666666282
 11
-51.541077638621033
 21
53.499999999996163
  0
LINE
  8
_1-0_躯体
  6
CONTINUOUS
 62
    4
 10
-50.817220013536428
 20
55.16666666666282
 11
-52.483886680203085
 21
53.499999999996163
  0
LINE
  8
_1-0_躯体
  6
CONTINUOUS
 62
    4
 10
-51.760029055118508
 20
55.16666666666282
 11
-53.426695721785165
 21
53.499999999996163
  0
LINE
  8
_1-0_躯体
  6
CONTINUOUS
 62
    4
 10
-52.702838096700503
 20
55.16666666666282
 11
-54.369504763367161
 21
53.499999999996163
  0
LINE
  8
_1-0_躯体
  6
CONTINUOUS
 62
    4
 10
-53.645647138282499
 20
55.16666666666282
 11
-55.312313804949156
 21
53.499999999996163
  0
LINE
  8
_1-0_躯体
  6
CONTINUOUS
 62
    4
 10
-54.588456179864551
 20
55.16666666666282
 11
-56.255122846531236
 21
53.499999999996163
  0
LINE
  8
_1-0_躯体
  6
CONTINUOUS
 62
    4
 10
-55.531265221446631
 20
55.16666666666282
 11
-57.197931888113288
 21
53.499999999996163
  0
LINE
  8
_1-0_躯体
  6
CONTINUOUS
 62
    4
 10
-56.474074263028712
 20
55.16666666666282
 11
-58.140740929695369
 21
53.499999999996163
  0
LINE
  8
_1-0_躯体
  6
CONTINUOUS
 62
    4
 10
-57.416883304610764
 20
55.16666666666282
 11
-59.083549971277449
 21
53.499999999996163
  0
LINE
  8
_1-0_躯体
  6
CONTINUOUS
 62
    4
 10
-58.359692346192844
 20
55.16666666666282
 11
-60.026359012859501
 21
53.499999999996163
  0
LINE
  8
_1-0_躯体
  6
CONTINUOUS
 62
    4
 10
-59.302501387774925
 20
55.16666666666282
 11
-60.969168054441582
 21
53.499999999996163
  0
LINE
  8
_1-0_躯体
  6
CONTINUOUS
 62
    4
 10
-60.245310429356977
 20
55.16666666666282
 11
-61.911977096023691
 21
53.499999999996163
  0
LINE
  8
_1-0_躯体
  6
CONTINUOUS
 62
    4
 10
-61.188119470939057
 20
55.16666666666282
 11
-62.854786137605714
 21
53.499999999996163
  0
LINE
  8
_1-0_躯体
  6
CONTINUOUS
 62
    4
 10
-62.130928512521166
 20
55.16666666666282
 11
-63.797595179187795
 21
53.499999999996163
  0
LINE
  8
_1-0_躯体
  6
CONTINUOUS
 62
    4
 10
-63.073737554103189
 20
55.16666666666282
 11
-64.740404220769904
 21
53.499999999996163
  0
LINE
  8
_1-0_躯体
  6
CONTINUOUS
 62
    4
 10
-64.01654659568527
 20
55.16666666666282
 11
-65.683213262351927
 21
53.499999999996163
  0
LINE
  8
_1-0_躯体
  6
CONTINUOUS
 62
    4
 10
-64.959355637267379
 20
55.16666666666282
 11
-66.626022303934008
 21
53.499999999996163
  0
LINE
  8
_1-0_躯体
  6
CONTINUOUS
 62
    4
 10
-65.902164678849402
 20
55.16666666666282
 11
-67.568831345516116
 21
53.499999999996163
  0
LINE
  8
_1-0_躯体
  6
CONTINUOUS
 62
    4
 10
-66.844973720431483
 20
55.16666666666282
 11
-68.51164038709814
 21
53.499999999996163
  0
LINE
  8
_1-0_躯体
  6
CONTINUOUS
 62
    4
 10
-67.787782762013592
 20
55.16666666666282
 11
-69.454449428680221
 21
53.499999999996163
  0
LINE
  8
_1-0_躯体
  6
CONTINUOUS
 62
    4
 10
-68.730591803595587
 20
55.16666666666282
 11
-70.397258470262216
 21
53.499999999996163
  0
LINE
  8
_1-0_躯体
  6
CONTINUOUS
 62
    4
 10
-69.673400845177611
 20
55.16666666666282
 11
-71.340067511844325
 21
53.499999999996163
  0
LINE
  8
_1-0_躯体
  6
CONTINUOUS
 62
    4
 10
-70.616209886759805
 20
55.16666666666282
 11
-72.282876553426433
 21
53.499999999996163
  0
LINE
  8
_1-0_躯体
  6
CONTINUOUS
 62
    4
 10
-71.5590189283418
 20
55.16666666666282
 11
-73.225685595008429
 21
53.499999999996163
  0
LINE
  8
_1-0_躯体
  6
CONTINUOUS
 62
    4
 10
-72.501827969923824
 20
55.16666666666282
 11
-74.168494636590538
 21
53.499999999996163
  0
LINE
  8
_1-0_躯体
  6
CONTINUOUS
 62
    4
 10
-73.444637011505904
 20
55.16666666666282
 11
-75.111303678172561
 21
53.499999999996163
  0
LINE
  8
_1-0_躯体
  6
CONTINUOUS
 62
    4
 10
-74.387446053088013
 20
55.16666666666282
 11
-76.054112719754642
 21
53.499999999996163
  0
LINE
  8
_1-0_躯体
  6
CONTINUOUS
 62
    4
 10
-75.330255094670008
 20
55.16666666666282
 11
-76.996921761336637
 21
53.499999999996163
  0
LINE
  8
_1-0_躯体
  6
CONTINUOUS
 62
    4
 10
-76.273064136252032
 20
55.16666666666282
 11
-77.939730802918746
 21
53.499999999996163
  0
LINE
  8
_1-0_躯体
  6
CONTINUOUS
 62
    4
 10
-77.215873177834141
 20
55.16666666666282
 11
-78.882539844500855
 21
53.499999999996163
  0
LINE
  8
_1-0_躯体
  6
CONTINUOUS
 62
    4
 10
-78.158682219416221
 20
55.16666666666282
 11
-79.825348886082878
 21
53.499999999996163
  0
LINE
  8
_1-0_躯体
  6
CONTINUOUS
 62
    4
 10
-79.101491260998245
 20
55.16666666666282
 11
-80.768157927664959
 21
53.499999999996163
  0
LINE
  8
_1-0_躯体
  6
CONTINUOUS
 62
    4
 10
-80.044300302580353
 20
55.16666666666282
 11
-81.710966969247067
 21
53.499999999996163
  0
LINE
  8
_1-0_躯体
  6
CONTINUOUS
 62
    4
 10
-80.987109344162434
 20
55.16666666666282
 11
-82.653776010829091
 21
53.499999999996163
  0
LINE
  8
_1-0_躯体
  6
CONTINUOUS
 62
    4
 10
-81.929918385744458
 20
55.16666666666282
 11
-83.596585052411157
 21
53.499999999996163
  0
LINE
  8
_1-0_躯体
  6
CONTINUOUS
 62
    4
 10
-82.872727427326566
 20
55.16666666666282
 11
-84.539394093993195
 21
53.499999999996163
  0
LINE
  8
_1-0_躯体
  6
CONTINUOUS
 62
    4
 10
-83.815536468908633
 20
55.16666666666282
 11
-85.482203135575304
 21
53.499999999996163
  0
LINE
  8
_1-0_躯体
  6
CONTINUOUS
 62
    4
 10
-84.75834551049067
 20
55.16666666666282
 11
-86.42501217715737
 21
53.499999999996163
  0
LINE
  8
_1-0_躯体
  6
CONTINUOUS
 62
    4
 10
-85.701154552072779
 20
55.16666666666282
 11
-87.367821218739408
 21
53.499999999996163
  0
LINE
  8
_1-0_躯体
  6
CONTINUOUS
 62
    4
 10
-86.643963593654846
 20
55.16666666666282
 11
-88.310630260321517
 21
53.499999999996163
  0
LINE
  8
_1-0_躯体
  6
CONTINUOUS
 62
    4
 10
-87.586772635236883
 20
55.16666666666282
 11
-89.253439301903512
 21
53.499999999996163
  0
LINE
  8
_1-0_躯体
  6
CONTINUOUS
 62
    4
 10
-88.52958167681895
 20
55.16666666666282
 11
-90.196248343485621
 21
53.499999999996163
  0
LINE
  8
_1-0_躯体
  6
CONTINUOUS
 62
    4
 10
-89.472390718400987
 20
55.16666666666282
 11
-91.139057385067687
 21
53.499999999996163
  0
LINE
  8
_1-0_躯体
  6
CONTINUOUS
 62
    4
 10
-90.415199759983096
 20
55.16666666666282
 11
-91.666666666666671
 21
53.915199759979259
  0
LINE
  8
_1-0_躯体
  6
CONTINUOUS
 62
    4
 10
-91.358008801565092
 20
55.16666666666282
 11
-91.666666666666671
 21
54.858008801561283
  0
ENDBLK
  0
BLOCK
  2
-008-$QLE
 70
   64
 10
0
 20
0
 30
0
  0
LINE
  8
_1-f_寸法
  6
CONTINUOUS
 62
    4
 10
-51.666666666666657
 20
53.499999999996163
 11
-48.668269823872123
 21
48.306624327022092
  0
LINE
  8
_1-f_寸法
  6
CONTINUOUS
 62
    4
 10
-48.668269823872123
 20
48.306624327022092
 11
-9.948269823872181
 21
48.306624327022092
  0
POINT
  8
_1-f_寸法
 62
    4
 10
-51.666666666666657
 20
53.499999999996163
  0
TEXT
  8
_1-f_寸法
 62
    4
 10
-48.34826982387213
 20
48.306624327022092
 40
3.2000000000000002
 41
1
 50
0
  1
ならしモルタル(別途工事)
  0
ENDBLK
  0
BLOCK
  2
-009-_6_
 70
   64
 10
0
 20
0
 30
0
  0
LINE
  8
_1-8_小物
  6
CONTINUOUS
 62
    4
 10
-50.500000000000199
 20
65.16666666666282
 11
-53.8333333333334
 21
65.16666666666282
  0
LINE
  8
_1-8_小物
  6
CONTINUOUS
 62
    4
 10
-52.166666666666799
 20
59.833333333329506
 11
-52.850000000000108
 21
60.227856017275741
  0
LINE
  8
_1-8_小物
  6
CONTINUOUS
 62
    4
 10
-52.166666666666799
 20
59.833333333329506
 11
-51.483333333333491
 21
60.227856017275741
  0
LINE
  8
_1-8_小物
  6
CONTINUOUS
 62
    4
 10
-51.570000000000078
 20
62.902460573110432
 11
-51.366666666666703
 21
62.78506585966548
  0
LINE
  8
_1-8_小物
  6
CONTINUOUS
 62
    4
 10
-51.366666666666703
 20
62.78506585966548
 11
-51.570000000000078
 21
62.667671146220528
  0
LINE
  8
_1-8_小物
  6
CONTINUOUS
 62
    4
 10
-52.76333333333352
 20
62.233333333329512
 11
-52.966666666666896
 21
62.350728046774464
  0
LINE
  8
_1-8_小物
  6
CONTINUOUS
 62
    4
 10
-52.966666666666896
 20
62.350728046774464
 11
-52.76333333333352
 21
62.468122760219444
  0
LINE
  8
_1-8_小物
  6
CONTINUOUS
 62
    4
 10
-52.76333333333352
 20
62.468122760219444
 11
-51.570000000000078
 21
62.902460573110432
  0
LINE
  8
_1-8_小物
  6
CONTINUOUS
 62
    4
 10
-52.76333333333352
 20
62.233333333329512
 11
-51.570000000000078
 21
62.667671146220528
  0
LINE
  8
_1-8_小物
  6
CONTINUOUS
 62
    4
 10
-51.366666666666703
 20
62.78506585966548
 11
-52.966666666666896
 21
62.350728046774464
  0
LINE
  8
_1-8_小物
  6
CONTINUOUS
 62
    4
 10
-51.570000000000078
 20
63.402460573110432
 11
-51.366666666666703
 21
63.28506585966548
  0
LINE
  8
_1-8_小物
  6
CONTINUOUS
 62
    4
 10
-51.366666666666703
 20
63.28506585966548
 11
-51.570000000000078
 21
63.167671146220528
  0
LINE
  8
_1-8_小物
  6
CONTINUOUS
 62
    4
 10
-52.76333333333352
 20
62.733333333329512
 11
-52.966666666666896
 21
62.850728046774464
  0
LINE
  8
_1-8_小物
  6
CONTINUOUS
 62
    4
 10
-52.966666666666896
 20
62.850728046774464
 11
-52.76333333333352
 21
62.968122760219444
  0
LINE
  8
_1-8_小物
  6
CONTINUOUS
 62
    4
 10
-52.76333333333352
 20
62.968122760219444
 11
-51.570000000000078
 21
63.402460573110432
  0
LINE
  8
_1-8_小物
  6
CONTINUOUS
 62
    4
 10
-52.76333333333352
 20
62.733333333329512
 11
-51.570000000000078
 21
63.167671146220528
  0
LINE
  8
_1-8_小物
  6
CONTINUOUS
 62
    4
 10
-51.366666666666703
 20
63.28506585966548
 11
-52.966666666666896
 21
62.850728046774464
  0
LINE
  8
_1-8_小物
  6
CONTINUOUS
 62
    4
 10
-51.570000000000078
 20
63.902460573110432
 11
-51.366666666666703
 21
63.78506585966548
  0
LINE
  8
_1-8_小物
  6
CONTINUOUS
 62
    4
 10
-51.366666666666703
 20
63.78506585966548
 11
-51.570000000000078
 21
63.667671146220528
  0
LINE
  8
_1-8_小物
  6
CONTINUOUS
 62
    4
 10
-52.76333333333352
 20
63.233333333329512
 11
-52.966666666666896
 21
63.350728046774464
  0
LINE
  8
_1-8_小物
  6
CONTINUOUS
 62
    4
 10
-52.966666666666896
 20
63.350728046774464
 11
-52.76333333333352
 21
63.468122760219444
  0
LINE
  8
_1-8_小物
  6
CONTINUOUS
 62
    4
 10
-52.76333333333352
 20
63.468122760219444
 11
-51.570000000000078
 21
63.902460573110432
  0
LINE
  8
_1-8_小物
  6
CONTINUOUS
 62
    4
 10
-52.76333333333352
 20
63.233333333329512
 11
-51.570000000000078
 21
63.667671146220528
  0
LINE
  8
_1-8_小物
  6
CONTINUOUS
 62
    4
 10
-51.366666666666703
 20
63.78506585966548
 11
-52.966666666666896
 21
63.350728046774464
  0
LINE
  8
_1-8_小物
  6
CONTINUOUS
 62
    4
 10
-52.76333333333352
 20
63.733333333329512
 11
-52.966666666666896
 21
63.850728046774464
  0
LINE
  8
_1-8_小物
  6
CONTINUOUS
 62
    4
 10
-52.966666666666896
 20
63.850728046774464
 11
-52.76333333333352
 21
63.968122760219444
  0
LINE
  8
_1-8_小物
  6
CONTINUOUS
 62
    4
 10
-52.850000000000108
 20
62.066666666662854
 11
-52.850000000000108
 21
60.227856017275741
  0
LINE
  8
_1-8_小物
  6
CONTINUOUS
 62
    4
 10
-51.483333333333491
 20
62.066666666662854
 11
-52.850000000000108
 21
62.066666666662854
  0
LINE
  8
_1-8_小物
  6
CONTINUOUS
 62
    4
 10
-51.483333333333491
 20
62.066666666662854
 11
-51.483333333333491
 21
60.227856017275741
  0
LINE
  8
_1-8_小物
  6
CONTINUOUS
 62
    4
 10
-52.76333333333352
 20
63.968122760219444
 11
-52.492586175555346
 21
64.066666666662854
  0
LINE
  8
_1-8_小物
  6
CONTINUOUS
 62
    4
 10
-52.76333333333352
 20
63.733333333329512
 11
-52.166666666666799
 21
63.950502239775034
  0
LINE
  8
_1-8_小物
  6
CONTINUOUS
 62
    4
 10
-52.166666666666799
 20
64.067896953219986
 11
-52.966666666666896
 21
63.850728046774464
  0
LINE
  8
_1-8_小物
  6
CONTINUOUS
 62
    4
 10
-52.76333333333352
 20
64.066666666662854
 11
-52.76333333333352
 21
63.968122760219444
  0
LINE
  8
_1-8_小物
  6
CONTINUOUS
 62
    4
 10
-52.76333333333352
 20
63.733333333329512
 11
-52.76333333333352
 21
63.468122760219444
  0
LINE
  8
_1-8_小物
  6
CONTINUOUS
 62
    4
 10
-52.76333333333352
 20
63.233333333329512
 11
-52.76333333333352
 21
62.968122760219444
  0
LINE
  8
_1-8_小物
  6
CONTINUOUS
 62
    4
 10
-52.76333333333352
 20
62.733333333329512
 11
-52.76333333333352
 21
62.468122760219444
  0
LINE
  8
_1-8_小物
  6
CONTINUOUS
 62
    4
 10
-52.76333333333352
 20
62.233333333329512
 11
-52.76333333333352
 21
62.066666666662854
  0
LINE
  8
_1-8_小物
  6
CONTINUOUS
 62
    4
 10
-51.570000000000078
 20
64.066666666662854
 11
-51.570000000000078
 21
63.902460573110432
  0
LINE
  8
_1-8_小物
  6
CONTINUOUS
 62
    4
 10
-51.570000000000078
 20
62.667671146220528
 11
-51.570000000000078
 21
62.066666666662854
  0
LINE
  8
_1-8_小物
  6
CONTINUOUS
 62
    4
 10
-51.570000000000078
 20
63.167671146220528
 11
-51.570000000000078
 21
62.902460573110432
  0
LINE
  8
_1-8_小物
  6
CONTINUOUS
 62
    4
 10
-51.570000000000078
 20
63.667671146220528
 11
-51.570000000000078
 21
63.402460573110432
  0
LINE
  8
_1-8_小物
  6
CONTINUOUS
 62
    4
 10
-51.5833333333334
 20
62.066666666662854
 11
-51.5833333333334
 21
60.285591044194717
  0
LINE
  8
_1-8_小物
  6
CONTINUOUS
 62
    4
 10
-52.166666666666799
 20
59.948803387167459
 11
-51.5833333333334
 21
60.285591044194717
  0
LINE
  8
_1-8_小物
  6
CONTINUOUS
 62
    4
 10
-52.166666666666799
 20
59.948803387167459
 11
-51.793230229040006
 21
62.066666666662854
  0
LINE
  8
_1-8_小物
  6
CENTER2
 62
    4
 10
-52.166666666666799
 20
65.83364038695629
 11
-52.166666666666799
 21
59.084349393775994
  0
LINE
  8
_1-8_小物
  6
CONTINUOUS
 62
    4
 10
-53.8333333333334
 20
65.16666666666282
 11
-53.8333333333334
 21
65.099999999996157
  0
LINE
  8
_1-8_小物
  6
CONTINUOUS
 62
    4
 10
-50.500000000000199
 20
65.099999999996157
 11
-53.8333333333334
 21
65.099999999996157
  0
LINE
  8
_1-8_小物
  6
CONTINUOUS
 62
    4
 10
-50.500000000000199
 20
65.16666666666282
 11
-50.500000000000199
 21
65.099999999996157
  0
LINE
  8
_1-8_小物
  6
CONTINUOUS
 62
    4
 10
-53.8333333333334
 20
65.099999999996157
 11
-52.800000000000011
 21
64.066666666662854
  0
LINE
  8
_1-8_小物
  6
CONTINUOUS
 62
    4
 10
-51.533333333333587
 20
64.066666666662854
 11
-52.800000000000011
 21
64.066666666662854
  0
LINE
  8
_1-8_小物
  6
CONTINUOUS
 62
    4
 10
-50.500000000000199
 20
65.099999999996157
 11
-51.533333333333587
 21
64.066666666662854
  0
ENDBLK
  0
BLOCK
  2
-010-_7_
 70
   64
 10
0
 20
0
 30
0
  0
LINE
  8
_1-8_小物
  6
CONTINUOUS
 62
    4
 10
-58.197241666667082
 20
41.906724999996072
 11
-58.162351666667576
 21
41.240971666662773
  0
LINE
  8
_1-8_小物
  6
CONTINUOUS
 62
    4
 10
-58.249578333334114
 20
42.905354999996035
 11
-58.897885000000656
 21
42.537588333329381
  0
LINE
  8
_1-8_小物
  6
CONTINUOUS
 62
    4
 10
-58.897885000000656
 20
42.537588333329381
 11
-58.862995000000524
 21
41.871834999996082
  0
LINE
  8
_1-8_小物
  6
CONTINUOUS
 62
    4
 10
-58.862995000000524
 20
41.871834999996082
 11
-58.197241666667082
 21
41.906724999996072
  0
LINE
  8
_1-8_小物
  6
CONTINUOUS
 62
    4
 10
-58.284468333334019
 20
43.571108333329477
 11
-58.249578333334114
 21
42.905354999996035
  0
LINE
  8
_1-8_小物
  6
CONTINUOUS
 62
    4
 10
-58.336805000000652
 20
44.569736666662834
 11
-58.985111666667592
 21
44.201969999995868
  0
LINE
  8
_1-8_小物
  6
CONTINUOUS
 62
    4
 10
-58.985111666667592
 20
44.201969999995868
 11
-58.950221666667289
 21
43.536216666662796
  0
LINE
  8
_1-8_小物
  6
CONTINUOUS
 62
    4
 10
-58.950221666667289
 20
43.536216666662796
 11
-58.284468333334019
 21
43.571108333329477
  0
LINE
  8
_1-8_小物
  6
CONTINUOUS
 62
    4
 10
-58.371695000000841
 20
45.23548999999619
 11
-58.336805000000652
 21
44.569736666662834
  0
LINE
  8
_1-8_小物
  6
CONTINUOUS
 62
    4
 10
-58.42403166666719
 20
46.234119999995869
 11
-59.072338333333732
 21
45.866353333329499
  0
LINE
  8
_1-8_小物
  6
CONTINUOUS
 62
    4
 10
-59.072338333333732
 20
45.866353333329499
 11
-59.037448333334225
 21
45.200599999996143
  0
LINE
  8
_1-8_小物
  6
CONTINUOUS
 62
    4
 10
-59.037448333334225
 20
45.200599999996143
 11
-58.371695000000841
 21
45.23548999999619
  0
LINE
  8
_1-8_小物
  6
CONTINUOUS
 62
    4
 10
-58.458921666667379
 20
46.899873333329452
 11
-58.42403166666719
 21
46.234119999995869
  0
LINE
  8
_1-8_小物
  6
CONTINUOUS
 62
    4
 10
-58.511258333334013
 20
47.898503333329501
 11
-59.159565000000669
 21
47.530734999996071
  0
LINE
  8
_1-8_小物
  6
CONTINUOUS
 62
    4
 10
-59.159565000000669
 20
47.530734999996071
 11
-59.124675000000764
 21
46.864981666662771
  0
LINE
  8
_1-8_小物
  6
CONTINUOUS
 62
    4
 10
-59.124675000000764
 20
46.864981666662771
 11
-58.458921666667379
 21
46.899873333329452
  0
LINE
  8
_1-8_小物
  6
CONTINUOUS
 62
    4
 10
-58.546148333333917
 20
48.564254999996024
 11
-58.511258333334013
 21
47.898503333329501
  0
LINE
  8
_1-8_小物
  6
CONTINUOUS
 62
    4
 10
-59.246791666667491
 20
49.195118333329333
 11
-59.211901666667302
 21
48.529364999996034
  0
LINE
  8
_1-8_小物
  6
CONTINUOUS
 62
    4
 10
-59.211901666667302
 20
48.529364999996034
 11
-58.546148333333917
 21
48.564254999996024
  0
LINE
  8
_1-8_小物
  6
CONTINUOUS
 62
    4
 10
-58.666666666667311
 20
49.499999999996163
 11
-59.246791666667491
 21
49.195118333329333
  0
LINE
  8
_1-8_小物
  6
CONTINUOUS
 62
    4
 10
-61.802758333333998
 20
41.906724999996072
 11
-61.837648333333902
 21
41.240971666662773
  0
LINE
  8
_1-8_小物
  6
CONTINUOUS
 62
    4
 10
-61.750421666667364
 20
42.905354999996035
 11
-61.102115000000708
 21
42.537588333329381
  0
LINE
  8
_1-8_小物
  6
CONTINUOUS
 62
    4
 10
-61.102115000000708
 20
42.537588333329381
 11
-61.13700500000084
 21
41.871834999996082
  0
LINE
  8
_1-8_小物
  6
CONTINUOUS
 62
    4
 10
-61.13700500000084
 20
41.871834999996082
 11
-61.802758333333998
 21
41.906724999996072
  0
LINE
  8
_1-8_小物
  6
CONTINUOUS
 62
    4
 10
-61.715531666667061
 20
43.571108333329477
 11
-61.750421666667364
 21
42.905354999996035
  0
LINE
  8
_1-8_小物
  6
CONTINUOUS
 62
    4
 10
-61.663195000000826
 20
44.569736666662834
 11
-61.01488833333417
 21
44.201969999995868
  0
LINE
  8
_1-8_小物
  6
CONTINUOUS
 62
    4
 10
-61.01488833333417
 20
44.201969999995868
 11
-61.049778333333791
 21
43.536216666662796
  0
LINE
  8
_1-8_小物
  6
CONTINUOUS
 62
    4
 10
-61.049778333333791
 20
43.536216666662796
 11
-61.715531666667061
 21
43.571108333329477
  0
LINE
  8
_1-8_小物
  6
CONTINUOUS
 62
    4
 10
-61.628305000000921
 20
45.23548999999619
 11
-61.663195000000826
 21
44.569736666662834
  0
LINE
  8
_1-8_小物
  6
CONTINUOUS
 62
    4
 10
-61.575968333334288
 20
46.234119999995869
 11
-60.927661666667348
 21
45.866353333329499
  0
LINE
  8
_1-8_小物
  6
CONTINUOUS
 62
    4
 10
-60.927661666667348
 20
45.866353333329499
 11
-60.962551666667252
 21
45.200599999996143
  0
LINE
  8
_1-8_小物
  6
CONTINUOUS
 62
    4
 10
-60.962551666667252
 20
45.200599999996143
 11
-61.628305000000921
 21
45.23548999999619
  0
LINE
  8
_1-8_小物
  6
CONTINUOUS
 62
    4
 10
-61.541078333333985
 20
46.899873333329452
 11
-61.575968333334288
 21
46.234119999995869
  0
LINE
  8
_1-8_小物
  6
CONTINUOUS
 62
    4
 10
-61.488741666667124
 20
47.898503333329501
 11
-60.840435000000411
 21
47.530734999996071
  0
LINE
  8
_1-8_小物
  6
CONTINUOUS
 62
    4
 10
-60.840435000000411
 20
47.530734999996071
 11
-60.875325000000714
 21
46.864981666662771
  0
LINE
  8
_1-8_小物
  6
CONTINUOUS
 62
    4
 10
-60.875325000000714
 20
46.864981666662771
 11
-61.541078333333985
 21
46.899873333329452
  0
LINE
  8
_1-8_小物
  6
CONTINUOUS
 62
    4
 10
-61.453851666667447
 20
48.564254999996024
 11
-61.488741666667124
 21
47.898503333329501
  0
LINE
  8
_1-8_小物
  6
CONTINUOUS
 62
    4
 10
-60.753208333333873
 20
49.195118333329333
 11
-60.788098333334176
 21
48.529364999996034
  0
LINE
  8
_1-8_小物
  6
CONTINUOUS
 62
    4
 10
-60.788098333334176
 20
48.529364999996034
 11
-61.453851666667447
 21
48.564254999996024
  0
LINE
  8
_1-8_小物
  6
CONTINUOUS
 62
    4
 10
-60.0197683333339
 20
41.519768333329353
 11
-59.375201666667465
 21
42.091658333329434
  0
LINE
  8
_1-8_小物
  6
CONTINUOUS
 62
    4
 10
-60.623148333334143
 20
42.123146666662819
 11
-60.000000000000341
 21
41.499999999996021
  0
LINE
  8
_1-8_小物
  6
CONTINUOUS
 62
    4
 10
-61.333333333333769
 20
49.499999999996163
 11
-60.753208333333873
 21
49.195118333329333
  0
LINE
  8
_1-8_小物
  6
CONTINUOUS
 62
    4
 10
-58.458921666667379
 20
46.899873333329452
 11
-57.893800000000851
 21
48.452533333329285
  0
LINE
  8
_1-8_小物
  6
CONTINUOUS
 62
    4
 10
-58.813648333333845
 20
46.899873333329452
 11
-58.2070300000006
 21
48.566539999996053
  0
LINE
  8
_1-8_小物
  6
CONTINUOUS
 62
    4
 10
-61.541078333333985
 20
46.899873333329452
 11
-62.106200000000513
 21
48.452533333329285
  0
LINE
  8
_1-8_小物
  6
CONTINUOUS
 62
    4
 10
-61.18635166666752
 20
46.899873333329452
 11
-61.792970000000764
 21
48.566539999996053
  0
LINE
  8
_1-8_小物
  6
CONTINUOUS
 62
    4
 10
-59.327418333334037
 20
41.179913333329324
 11
-58.162351666667576
 21
41.240971666662773
  0
LINE
  8
_1-8_小物
  6
CONTINUOUS
 62
    4
 10
-58.162351666667576
 20
41.240971666662773
 11
-58.793213333334108
 21
40.540328333329512
  0
LINE
  8
_1-8_小物
  6
CONTINUOUS
 62
    4
 10
-58.793213333334108
 20
40.540328333329512
 11
-59.292528333333735
 21
40.514159999995968
  0
LINE
  8
_1-8_小物
  6
CONTINUOUS
 62
    4
 10
-59.292528333333735
 20
40.514159999995968
 11
-59.833333333333769
 21
50.833333333329279
  0
LINE
  8
_1-8_小物
  6
CONTINUOUS
 62
    4
 10
-58.666666666667311
 20
49.499999999996163
 11
-58.666666666667311
 21
50.833333333329279
  0
LINE
  8
_1-8_小物
  6
CONTINUOUS
 62
    4
 10
-60.67258166666744
 20
41.179913333329324
 11
-61.837648333333902
 21
41.240971666662773
  0
LINE
  8
_1-8_小物
  6
CONTINUOUS
 62
    4
 10
-61.837648333333902
 20
41.240971666662773
 11
-61.206786666667369
 21
40.540328333329512
  0
LINE
  8
_1-8_小物
  6
CONTINUOUS
 62
    4
 10
-61.206786666667369
 20
40.540328333329512
 11
-60.707471666667345
 21
40.514159999995968
  0
LINE
  8
_1-8_小物
  6
CONTINUOUS
 62
    4
 10
-60.707471666667345
 20
40.514159999995968
 11
-60.166666666667311
 21
50.833333333329279
  0
LINE
  8
_1-8_小物
  6
CONTINUOUS
 62
    4
 10
-61.333333333333769
 20
49.499999999996163
 11
-61.333333333333769
 21
50.833333333329279
  0
LINE
  8
_1-8_小物
  6
CONTINUOUS
 62
    4
 10
-62.106200000000513
 20
48.452533333329285
 11
-62.436985000000618
 21
50.720406666662967
  0
ARC
  8
_1-8_小物
  6
CONTINUOUS
 62
    4
 10
-62.305048333333957
 20
50.73965166666278
 40
0.1333333333333333
 50
98.130101999965902
 51
188.29846600001105
  0
LINE
  8
_1-8_小物
  6
CONTINUOUS
 62
    4
 10
-62.323905000000991
 20
50.871644999996107
 11
-62.258296666667206
 21
50.881016666662873
  0
ARC
  8
_1-8_小物
  6
CONTINUOUS
 62
    4
 10
-62.2394400000004
 20
50.749023333329461
 40
0.1333333333333333
 50
8.1301020000280779
 51
98.130102000226714
  0
LINE
  8
_1-8_小物
  6
CONTINUOUS
 62
    4
 10
-62.107446666667215
 20
50.76787999999604
 11
-61.792970000000764
 21
48.566539999996053
  0
LINE
  8
_1-8_小物
  6
CONTINUOUS
 62
    4
 10
-57.893800000000851
 20
48.452533333329285
 11
-57.563015000000746
 21
50.720406666662967
  0
ARC
  8
_1-8_小物
  6
CONTINUOUS
 62
    4
 10
-57.694951666667407
 20
50.73965166666278
 40
0.1333333333333333
 50
351.70153399996303
 51
81.869898000046192
  0
LINE
  8
_1-8_小物
  6
CONTINUOUS
 62
    4
 10
-57.676096666667377
 20
50.871644999996107
 11
-57.741703333334158
 21
50.881016666662873
  0
ARC
  8
_1-8_小物
  6
CONTINUOUS
 62
    4
 10
-57.760560000000453
 20
50.749023333329461
 40
0.1333333333333333
 50
81.869898000046192
 51
171.86989800000993
  0
LINE
  8
_1-8_小物
  6
CONTINUOUS
 62
    4
 10
-57.892553333334149
 20
50.76787999999604
 11
-58.2070300000006
 21
48.566539999996053
  0
LINE
  8
_1-8_小物
  6
CONTINUOUS
 62
    4
 10
-57.893800000000851
 20
48.452533333329285
 11
-57.563015000000746
 21
50.720406666662967
  0
ARC
  8
_1-8_小物
  6
CONTINUOUS
 62
    4
 10
-57.694951666667407
 20
50.73965166666278
 40
0.1333333333333333
 50
351.70153399996303
 51
81.869898000046192
  0
LINE
  8
_1-8_小物
  6
CONTINUOUS
 62
    4
 10
-57.676096666667377
 20
50.871644999996107
 11
-57.741703333334158
 21
50.881016666662873
  0
ARC
  8
_1-8_小物
  6
CONTINUOUS
 62
    4
 10
-57.760560000000453
 20
50.749023333329461
 40
0.1333333333333333
 50
81.869898000046192
 51
171.86989800000993
  0
LINE
  8
_1-8_小物
  6
CONTINUOUS
 62
    4
 10
-57.892553333334149
 20
50.76787999999604
 11
-58.2070300000006
 21
48.566539999996053
  0
LINE
  8
_1-8_小物
  6
CONTINUOUS
 62
    4
 10
-58.333333333333769
 20
53.499999999996163
 11
-58.666666666667311
 21
51.833333333329506
  0
LINE
  8
_1-8_小物
  6
CONTINUOUS
 62
    4
 10
-58.666666666667311
 20
53.499999999996163
 11
-58.666666666667311
 21
50.833333333329279
  0
LINE
  8
_1-8_小物
  6
CONTINUOUS
 62
    4
 10
-59.833333333333769
 20
50.833333333329279
 11
-60.000000000000341
 21
50.833333333329279
  0
LINE
  8
_1-8_小物
  6
CONTINUOUS
 62
    4
 10
-60.000000000000341
 20
51.833333333329506
 11
-60.000000000000341
 21
53.499999999996163
  0
LINE
  8
_1-8_小物
  6
CONTINUOUS
 62
    4
 10
-59.666666666667311
 20
53.499999999996163
 11
-60.000000000000341
 21
51.833333333329506
  0
LINE
  8
_1-8_小物
  6
CONTINUOUS
 62
    4
 10
-60.333333333334053
 20
53.499999999996163
 11
-60.000000000000341
 21
51.833333333329506
  0
LINE
  8
_1-8_小物
  6
CONTINUOUS
 62
    4
 10
-61.666666666667084
 20
53.499999999996163
 11
-61.333333333333769
 21
51.833333333329506
  0
LINE
  8
_1-8_小物
  6
CONTINUOUS
 62
    4
 10
-61.333333333333769
 20
53.499999999996163
 11
-61.333333333333769
 21
50.833333333329279
  0
LINE
  8
_1-8_小物
  6
CONTINUOUS
 62
    4
 10
-60.166666666667311
 20
50.833333333329279
 11
-60.000000000000341
 21
50.833333333329279
  0
LINE
  8
_1-8_小物
  6
CONTINUOUS
 62
    4
 10
-58.333333333333769
 20
53.499999999996163
 11
-61.666666666667084
 21
53.499999999996163
  0
ENDBLK
  0
BLOCK
  2
-011-_8_
 70
   64
 10
0
 20
0
 30
0
  0
LINE
  8
_1-8_小物
  6
CONTINUOUS
 62
    4
 10
-57.000000000000341
 20
56.833333333329449
 11
-63.000000000000682
 21
56.833333333329449
  0
LINE
  8
_1-8_小物
  6
CONTINUOUS
 62
    4
 10
-57.000000000000341
 20
56.333333333329449
 11
-63.000000000000682
 21
56.333333333329449
  0
LINE
  8
_1-8_小物
  6
CONTINUOUS
 62
    4
 10
-57.000000000000341
 20
56.833333333329449
 11
-57.000000000000341
 21
56.333333333329449
  0
LINE
  8
_1-8_小物
  6
CONTINUOUS
 62
    4
 10
-63.000000000000682
 20
56.833333333329449
 11
-63.000000000000682
 21
56.333333333329449
  0
LINE
  8
_1-8_小物
  6
CONTINUOUS
 62
    4
 10
-59.083333333333712
 20
56.833333333329449
 11
-59.083333333333712
 21
56.333333333329449
  0
LINE
  8
_1-8_小物
  6
CONTINUOUS
 62
    4
 10
-60.916666666667311
 20
56.833333333329449
 11
-60.916666666667311
 21
56.333333333329449
  0
LINE
  8
_1-8_小物
  6
CONTINUOUS
 62
    4
 10
-58.500000000000341
 20
56.833333333329449
 11
-58.536304261267219
 21
57.248292938329485
  0
LINE
  8
_1-8_小物
  6
CONTINUOUS
 62
    4
 10
-61.463695738767228
 20
57.248292938329485
 11
-61.500000000000341
 21
56.833333333329449
  0
ARC
  8
_1-8_小物
  6
CONTINUOUS
 62
    4
 10
-61.134951488367506
 20
57.21953154322938
 40
0.3299999999999999
 50
127.36755803205445
 51
175.00000000119914
  0
ARC
  8
_1-8_小物
  6
CONTINUOUS
 62
    4
 10
-58.865048511633859
 20
57.21953154322938
 40
0.3299999999999999
 50
4.999999998801286
 51
52.632441967949475
  0
ARC
  8
_1-8_小物
  6
CONTINUOUS
 62
    4
 10
-60.000000000000682
 20
55.733333333329426
 40
2.1999999999999997
 50
52.632441967704935
 51
68.266383543398447
  0
ARC
  8
_1-8_小物
  6
CONTINUOUS
 62
    4
 10
-60.000000000000682
 20
55.733333333329426
 40
2.1999999999999997
 50
111.74840859090331
 51
127.36755803230515
  0
LINE
  8
_1-8_小物
  6
CONTINUOUS
 62
    4
 10
-59.89500000000055
 20
57.919709043196178
 11
-59.89500000000055
 21
57.77443741319604
  0
LINE
  8
_1-8_小物
  6
CONTINUOUS
 62
    4
 10
-59.77923710603352
 20
57.919709043196178
 11
-59.89500000000055
 21
57.919709043196178
  0
LINE
  8
_1-8_小物
  6
CONTINUOUS
 62
    4
 10
-59.185832243833943
 20
57.77443741319604
 11
-59.77923710603352
 21
57.919709043196178
  0
LINE
  8
_1-8_小物
  6
CONTINUOUS
 62
    4
 10
-60.220762894000586
 20
57.919709043196178
 11
-60.65406631656731
 21
57.831230436062867
  0
LINE
  8
_1-8_小物
  6
CONTINUOUS
 62
    4
 10
-60.65406631656731
 20
57.831230436062867
 11
-60.814167756200163
 21
57.77443741319604
  0
LINE
  8
_1-8_小物
  6
CONTINUOUS
 62
    4
 10
-60.105000000000587
 20
57.919709043196178
 11
-60.220762894000586
 21
57.919709043196178
  0
LINE
  8
_1-8_小物
  6
CONTINUOUS
 62
    4
 10
-60.105000000000587
 20
57.77443741319604
 11
-60.105000000000587
 21
57.919709043196178
  0
LINE
  8
_1-8_小物
  6
CONTINUOUS
 62
    4
 10
-59.89500000000055
 20
57.77443741319604
 11
-60.000000000000682
 21
57.776139137996154
  0
LINE
  8
_1-8_小物
  6
CONTINUOUS
 62
    4
 10
-60.000000000000682
 20
57.776139137996154
 11
-60.105000000000587
 21
57.77443741319604
  0
LINE
  8
_1-8_小物
  6
CONTINUOUS
 62
    4
 10
-58.536304261267219
 20
57.248292938329485
 11
-61.463695738767228
 21
57.248292938329485
  0
LINE
  8
_1-8_小物
  6
CONTINUOUS
 62
    4
 10
-60.000000000000682
 20
57.481801815562847
 11
-61.335237045167332
 21
57.481801815562847
  0
LINE
  8
_1-8_小物
  6
CONTINUOUS
 62
    4
 10
-58.664762954867115
 20
57.481801815562847
 11
-60.000000000000682
 21
57.481801815562847
  0
ENDBLK
  0
BLOCK
  2
-012-_9_
 70
   64
 10
0
 20
0
 30
0
  0
LINE
  8
_1-8_小物
  6
CONTINUOUS
 62
    4
 10
-78.197241666666798
 20
41.906724999996072
 11
-78.162351666667263
 21
41.240971666662773
  0
LINE
  8
_1-8_小物
  6
CONTINUOUS
 62
    4
 10
-78.249578333333801
 20
42.905354999996035
 11
-78.897885000000372
 21
42.537588333329381
  0
LINE
  8
_1-8_小物
  6
CONTINUOUS
 62
    4
 10
-78.897885000000372
 20
42.537588333329381
 11
-78.86299500000024
 21
41.871834999996082
  0
LINE
  8
_1-8_小物
  6
CONTINUOUS
 62
    4
 10
-78.86299500000024
 20
41.871834999996082
 11
-78.197241666666798
 21
41.906724999996072
  0
LINE
  8
_1-8_小物
  6
CONTINUOUS
 62
    4
 10
-78.284468333333706
 20
43.571108333329477
 11
-78.249578333333801
 21
42.905354999996035
  0
LINE
  8
_1-8_小物
  6
CONTINUOUS
 62
    4
 10
-78.336805000000339
 20
44.569736666662834
 11
-78.985111666667279
 21
44.201969999995868
  0
LINE
  8
_1-8_小物
  6
CONTINUOUS
 62
    4
 10
-78.985111666667279
 20
44.201969999995868
 11
-78.950221666667005
 21
43.536216666662796
  0
LINE
  8
_1-8_小物
  6
CONTINUOUS
 62
    4
 10
-78.950221666667005
 20
43.536216666662796
 11
-78.284468333333706
 21
43.571108333329477
  0
LINE
  8
_1-8_小物
  6
CONTINUOUS
 62
    4
 10
-78.371695000000557
 20
45.23548999999619
 11
-78.336805000000339
 21
44.569736666662834
  0
LINE
  8
_1-8_小物
  6
CONTINUOUS
 62
    4
 10
-78.424031666666878
 20
46.234119999995869
 11
-79.072338333333448
 21
45.866353333329499
  0
LINE
  8
_1-8_小物
  6
CONTINUOUS
 62
    4
 10
-79.072338333333448
 20
45.866353333329499
 11
-79.037448333333913
 21
45.200599999996143
  0
LINE
  8
_1-8_小物
  6
CONTINUOUS
 62
    4
 10
-79.037448333333913
 20
45.200599999996143
 11
-78.371695000000557
 21
45.23548999999619
  0
LINE
  8
_1-8_小物
  6
CONTINUOUS
 62
    4
 10
-78.458921666667095
 20
46.899873333329452
 11
-78.424031666666878
 21
46.234119999995869
  0
LINE
  8
_1-8_小物
  6
CONTINUOUS
 62
    4
 10
-78.511258333333728
 20
47.898503333329501
 11
-79.159565000000356
 21
47.530734999996071
  0
LINE
  8
_1-8_小物
  6
CONTINUOUS
 62
    4
 10
-79.159565000000356
 20
47.530734999996071
 11
-79.124675000000451
 21
46.864981666662771
  0
LINE
  8
_1-8_小物
  6
CONTINUOUS
 62
    4
 10
-79.124675000000451
 20
46.864981666662771
 11
-78.458921666667095
 21
46.899873333329452
  0
LINE
  8
_1-8_小物
  6
CONTINUOUS
 62
    4
 10
-78.546148333333633
 20
48.564254999996024
 11
-78.511258333333728
 21
47.898503333329501
  0
LINE
  8
_1-8_小物
  6
CONTINUOUS
 62
    4
 10
-79.246791666667207
 20
49.195118333329333
 11
-79.211901666666989
 21
48.529364999996034
  0
LINE
  8
_1-8_小物
  6
CONTINUOUS
 62
    4
 10
-79.211901666666989
 20
48.529364999996034
 11
-78.546148333333633
 21
48.564254999996024
  0
LINE
  8
_1-8_小物
  6
CONTINUOUS
 62
    4
 10
-78.666666666667027
 20
49.499999999996163
 11
-79.246791666667207
 21
49.195118333329333
  0
LINE
  8
_1-8_小物
  6
CONTINUOUS
 62
    4
 10
-81.802758333333685
 20
41.906724999996072
 11
-81.83764833333359
 21
41.240971666662773
  0
LINE
  8
_1-8_小物
  6
CONTINUOUS
 62
    4
 10
-81.750421666667052
 20
42.905354999996035
 11
-81.102115000000424
 21
42.537588333329381
  0
LINE
  8
_1-8_小物
  6
CONTINUOUS
 62
    4
 10
-81.102115000000424
 20
42.537588333329381
 11
-81.137005000000556
 21
41.871834999996082
  0
LINE
  8
_1-8_小物
  6
CONTINUOUS
 62
    4
 10
-81.137005000000556
 20
41.871834999996082
 11
-81.802758333333685
 21
41.906724999996072
  0
LINE
  8
_1-8_小物
  6
CONTINUOUS
 62
    4
 10
-81.715531666666777
 20
43.571108333329477
 11
-81.750421666667052
 21
42.905354999996035
  0
LINE
  8
_1-8_小物
  6
CONTINUOUS
 62
    4
 10
-81.663195000000513
 20
44.569736666662834
 11
-81.014888333333886
 21
44.201969999995868
  0
LINE
  8
_1-8_小物
  6
CONTINUOUS
 62
    4
 10
-81.014888333333886
 20
44.201969999995868
 11
-81.049778333333478
 21
43.536216666662796
  0
LINE
  8
_1-8_小物
  6
CONTINUOUS
 62
    4
 10
-81.049778333333478
 20
43.536216666662796
 11
-81.715531666666777
 21
43.571108333329477
  0
LINE
  8
_1-8_小物
  6
CONTINUOUS
 62
    4
 10
-81.628305000000609
 20
45.23548999999619
 11
-81.663195000000513
 21
44.569736666662834
  0
LINE
  8
_1-8_小物
  6
CONTINUOUS
 62
    4
 10
-81.575968333333975
 20
46.234119999995869
 11
-80.927661666667035
 21
45.866353333329499
  0
LINE
  8
_1-8_小物
  6
CONTINUOUS
 62
    4
 10
-80.927661666667035
 20
45.866353333329499
 11
-80.96255166666694
 21
45.200599999996143
  0
LINE
  8
_1-8_小物
  6
CONTINUOUS
 62
    4
 10
-80.96255166666694
 20
45.200599999996143
 11
-81.628305000000609
 21
45.23548999999619
  0
LINE
  8
_1-8_小物
  6
CONTINUOUS
 62
    4
 10
-81.541078333333701
 20
46.899873333329452
 11
-81.575968333333975
 21
46.234119999995869
  0
LINE
  8
_1-8_小物
  6
CONTINUOUS
 62
    4
 10
-81.48874166666684
 20
47.898503333329501
 11
-80.840435000000127
 21
47.530734999996071
  0
LINE
  8
_1-8_小物
  6
CONTINUOUS
 62
    4
 10
-80.840435000000127
 20
47.530734999996071
 11
-80.875325000000402
 21
46.864981666662771
  0
LINE
  8
_1-8_小物
  6
CONTINUOUS
 62
    4
 10
-80.875325000000402
 20
46.864981666662771
 11
-81.541078333333701
 21
46.899873333329452
  0
LINE
  8
_1-8_小物
  6
CONTINUOUS
 62
    4
 10
-81.453851666667163
 20
48.564254999996024
 11
-81.48874166666684
 21
47.898503333329501
  0
LINE
  8
_1-8_小物
  6
CONTINUOUS
 62
    4
 10
-80.753208333333589
 20
49.195118333329333
 11
-80.788098333333863
 21
48.529364999996034
  0
LINE
  8
_1-8_小物
  6
CONTINUOUS
 62
    4
 10
-80.788098333333863
 20
48.529364999996034
 11
-81.453851666667163
 21
48.564254999996024
  0
LINE
  8
_1-8_小物
  6
CONTINUOUS
 62
    4
 10
-80.019768333333616
 20
41.519768333329353
 11
-79.375201666667152
 21
42.091658333329434
  0
LINE
  8
_1-8_小物
  6
CONTINUOUS
 62
    4
 10
-80.623148333333859
 20
42.123146666662819
 11
-80.000000000000057
 21
41.499999999996021
  0
LINE
  8
_1-8_小物
  6
CONTINUOUS
 62
    4
 10
-81.333333333333456
 20
49.499999999996163
 11
-80.753208333333589
 21
49.195118333329333
  0
LINE
  8
_1-8_小物
  6
CONTINUOUS
 62
    4
 10
-78.458921666667095
 20
46.899873333329452
 11
-77.893800000000567
 21
48.452533333329285
  0
LINE
  8
_1-8_小物
  6
CONTINUOUS
 62
    4
 10
-78.81364833333356
 20
46.899873333329452
 11
-78.207030000000316
 21
48.566539999996053
  0
LINE
  8
_1-8_小物
  6
CONTINUOUS
 62
    4
 10
-81.541078333333701
 20
46.899873333329452
 11
-82.106200000000229
 21
48.452533333329285
  0
LINE
  8
_1-8_小物
  6
CONTINUOUS
 62
    4
 10
-81.186351666667235
 20
46.899873333329452
 11
-81.79297000000048
 21
48.566539999996053
  0
LINE
  8
_1-8_小物
  6
CONTINUOUS
 62
    4
 10
-79.327418333333725
 20
41.179913333329324
 11
-78.162351666667263
 21
41.240971666662773
  0
LINE
  8
_1-8_小物
  6
CONTINUOUS
 62
    4
 10
-78.162351666667263
 20
41.240971666662773
 11
-78.793213333333796
 21
40.540328333329512
  0
LINE
  8
_1-8_小物
  6
CONTINUOUS
 62
    4
 10
-78.793213333333796
 20
40.540328333329512
 11
-79.292528333333451
 21
40.514159999995968
  0
LINE
  8
_1-8_小物
  6
CONTINUOUS
 62
    4
 10
-79.292528333333451
 20
40.514159999995968
 11
-79.833333333333456
 21
50.833333333329279
  0
LINE
  8
_1-8_小物
  6
CONTINUOUS
 62
    4
 10
-78.666666666667027
 20
49.499999999996163
 11
-78.666666666667027
 21
50.833333333329279
  0
LINE
  8
_1-8_小物
  6
CONTINUOUS
 62
    4
 10
-80.672581666667128
 20
41.179913333329324
 11
-81.83764833333359
 21
41.240971666662773
  0
LINE
  8
_1-8_小物
  6
CONTINUOUS
 62
    4
 10
-81.83764833333359
 20
41.240971666662773
 11
-81.206786666667057
 21
40.540328333329512
  0
LINE
  8
_1-8_小物
  6
CONTINUOUS
 62
    4
 10
-81.206786666667057
 20
40.540328333329512
 11
-80.707471666667033
 21
40.514159999995968
  0
LINE
  8
_1-8_小物
  6
CONTINUOUS
 62
    4
 10
-80.707471666667033
 20
40.514159999995968
 11
-80.166666666667027
 21
50.833333333329279
  0
LINE
  8
_1-8_小物
  6
CONTINUOUS
 62
    4
 10
-81.333333333333456
 20
49.499999999996163
 11
-81.333333333333456
 21
50.833333333329279
  0
LINE
  8
_1-8_小物
  6
CONTINUOUS
 62
    4
 10
-82.106200000000229
 20
48.452533333329285
 11
-82.436985000000334
 21
50.720406666662967
  0
ARC
  8
_1-8_小物
  6
CONTINUOUS
 62
    4
 10
-82.305048333333673
 20
50.73965166666278
 40
0.1333333333333333
 50
98.130101999959862
 51
188.29846600001105
  0
LINE
  8
_1-8_小物
  6
CONTINUOUS
 62
    4
 10
-82.323905000000622
 20
50.871644999996107
 11
-82.258296666666922
 21
50.881016666662873
  0
ARC
  8
_1-8_小物
  6
CONTINUOUS
 62
    4
 10
-82.239440000000116
 20
50.749023333329461
 40
0.1333333333333333
 50
8.1301020000280779
 51
98.130102000226714
  0
LINE
  8
_1-8_小物
  6
CONTINUOUS
 62
    4
 10
-82.107446666666931
 20
50.76787999999604
 11
-81.79297000000048
 21
48.566539999996053
  0
LINE
  8
_1-8_小物
  6
CONTINUOUS
 62
    4
 10
-77.893800000000567
 20
48.452533333329285
 11
-77.563015000000462
 21
50.720406666662967
  0
ARC
  8
_1-8_小物
  6
CONTINUOUS
 62
    4
 10
-77.694951666667123
 20
50.73965166666278
 40
0.1333333333333333
 50
351.70153399996303
 51
81.869898000046192
  0
LINE
  8
_1-8_小物
  6
CONTINUOUS
 62
    4
 10
-77.676096666667092
 20
50.871644999996107
 11
-77.741703333333874
 21
50.881016666662873
  0
ARC
  8
_1-8_小物
  6
CONTINUOUS
 62
    4
 10
-77.76056000000014
 20
50.749023333329461
 40
0.1333333333333333
 50
81.869898000046192
 51
171.86989800000993
  0
LINE
  8
_1-8_小物
  6
CONTINUOUS
 62
    4
 10
-77.892553333333865
 20
50.76787999999604
 11
-78.207030000000316
 21
48.566539999996053
  0
LINE
  8
_1-8_小物
  6
CONTINUOUS
 62
    4
 10
-77.893800000000567
 20
48.452533333329285
 11
-77.563015000000462
 21
50.720406666662967
  0
ARC
  8
_1-8_小物
  6
CONTINUOUS
 62
    4
 10
-77.694951666667123
 20
50.73965166666278
 40
0.1333333333333333
 50
351.70153399996303
 51
81.869898000046192
  0
LINE
  8
_1-8_小物
  6
CONTINUOUS
 62
    4
 10
-77.676096666667092
 20
50.871644999996107
 11
-77.741703333333874
 21
50.881016666662873
  0
ARC
  8
_1-8_小物
  6
CONTINUOUS
 62
    4
 10
-77.76056000000014
 20
50.749023333329461
 40
0.1333333333333333
 50
81.869898000046192
 51
171.86989800000993
  0
LINE
  8
_1-8_小物
  6
CONTINUOUS
 62
    4
 10
-77.892553333333865
 20
50.76787999999604
 11
-78.207030000000316
 21
48.566539999996053
  0
LINE
  8
_1-8_小物
  6
CONTINUOUS
 62
    4
 10
-78.333333333333456
 20
53.499999999996163
 11
-78.666666666667027
 21
51.833333333329506
  0
LINE
  8
_1-8_小物
  6
CONTINUOUS
 62
    4
 10
-78.666666666667027
 20
53.499999999996163
 11
-78.666666666667027
 21
50.833333333329279
  0
LINE
  8
_1-8_小物
  6
CONTINUOUS
 62
    4
 10
-79.833333333333456
 20
50.833333333329279
 11
-80.000000000000057
 21
50.833333333329279
  0
LINE
  8
_1-8_小物
  6
CONTINUOUS
 62
    4
 10
-80.000000000000057
 20
51.833333333329506
 11
-80.000000000000057
 21
53.499999999996163
  0
LINE
  8
_1-8_小物
  6
CONTINUOUS
 62
    4
 10
-79.666666666667027
 20
53.499999999996163
 11
-80.000000000000057
 21
51.833333333329506
  0
LINE
  8
_1-8_小物
  6
CONTINUOUS
 62
    4
 10
-80.333333333333769
 20
53.499999999996163
 11
-80.000000000000057
 21
51.833333333329506
  0
LINE
  8
_1-8_小物
  6
CONTINUOUS
 62
    4
 10
-81.666666666666799
 20
53.499999999996163
 11
-81.333333333333456
 21
51.833333333329506
  0
LINE
  8
_1-8_小物
  6
CONTINUOUS
 62
    4
 10
-81.333333333333456
 20
53.499999999996163
 11
-81.333333333333456
 21
50.833333333329279
  0
LINE
  8
_1-8_小物
  6
CONTINUOUS
 62
    4
 10
-80.166666666667027
 20
50.833333333329279
 11
-80.000000000000057
 21
50.833333333329279
  0
LINE
  8
_1-8_小物
  6
CONTINUOUS
 62
    4
 10
-78.333333333333456
 20
53.499999999996163
 11
-81.666666666666799
 21
53.499999999996163
  0
ENDBLK
  0
BLOCK
  2
-013-_10_
 70
   64
 10
0
 20
0
 30
0
  0
LINE
  8
_1-8_小物
  6
CONTINUOUS
 62
    4
 10
-77.000000000000057
 20
57.16666666666282
 11
-83.000000000000398
 21
57.16666666666282
  0
LINE
  8
_1-8_小物
  6
CONTINUOUS
 62
    4
 10
-77.000000000000057
 20
56.66666666666282
 11
-83.000000000000398
 21
56.66666666666282
  0
LINE
  8
_1-8_小物
  6
CONTINUOUS
 62
    4
 10
-77.000000000000057
 20
57.16666666666282
 11
-77.000000000000057
 21
56.66666666666282
  0
LINE
  8
_1-8_小物
  6
CONTINUOUS
 62
    4
 10
-83.000000000000398
 20
57.16666666666282
 11
-83.000000000000398
 21
56.66666666666282
  0
LINE
  8
_1-8_小物
  6
CONTINUOUS
 62
    4
 10
-79.083333333333428
 20
57.16666666666282
 11
-79.083333333333428
 21
56.66666666666282
  0
LINE
  8
_1-8_小物
  6
CONTINUOUS
 62
    4
 10
-80.916666666667027
 20
57.16666666666282
 11
-80.916666666667027
 21
56.66666666666282
  0
LINE
  8
_1-8_小物
  6
CONTINUOUS
 62
    4
 10
-78.500000000000057
 20
57.16666666666282
 11
-78.536304261266935
 21
57.581626271662856
  0
LINE
  8
_1-8_小物
  6
CONTINUOUS
 62
    4
 10
-81.463695738766944
 20
57.581626271662856
 11
-81.500000000000057
 21
57.16666666666282
  0
ARC
  8
_1-8_小物
  6
CONTINUOUS
 62
    4
 10
-81.134951488367221
 20
57.552864876562751
 40
0.3299999999999999
 50
127.36755803205445
 51
175.00000000119914
  0
ARC
  8
_1-8_小物
  6
CONTINUOUS
 62
    4
 10
-78.865048511633574
 20
57.552864876562751
 40
0.3299999999999999
 50
4.999999998801286
 51
52.632441967949475
  0
ARC
  8
_1-8_小物
  6
CONTINUOUS
 62
    4
 10
-80.000000000000398
 20
56.066666666662798
 40
2.1999999999999997
 50
52.632441967704935
 51
68.266383543398447
  0
ARC
  8
_1-8_小物
  6
CONTINUOUS
 62
    4
 10
-80.000000000000398
 20
56.066666666662798
 40
2.1999999999999997
 50
111.74840859090331
 51
127.36755803230515
  0
LINE
  8
_1-8_小物
  6
CONTINUOUS
 62
    4
 10
-79.895000000000266
 20
58.25304237652955
 11
-79.895000000000266
 21
58.107770746529411
  0
LINE
  8
_1-8_小物
  6
CONTINUOUS
 62
    4
 10
-79.779237106033236
 20
58.25304237652955
 11
-79.895000000000266
 21
58.25304237652955
  0
LINE
  8
_1-8_小物
  6
CONTINUOUS
 62
    4
 10
-79.185832243833659
 20
58.107770746529411
 11
-79.779237106033236
 21
58.25304237652955
  0
LINE
  8
_1-8_小物
  6
CONTINUOUS
 62
    4
 10
-80.220762894000302
 20
58.25304237652955
 11
-80.654066316567025
 21
58.164563769396239
  0
LINE
  8
_1-8_小物
  6
CONTINUOUS
 62
    4
 10
-80.654066316567025
 20
58.164563769396239
 11
-80.814167756199879
 21
58.107770746529411
  0
LINE
  8
_1-8_小物
  6
CONTINUOUS
 62
    4
 10
-80.105000000000302
 20
58.25304237652955
 11
-80.220762894000302
 21
58.25304237652955
  0
LINE
  8
_1-8_小物
  6
CONTINUOUS
 62
    4
 10
-80.105000000000302
 20
58.107770746529411
 11
-80.105000000000302
 21
58.25304237652955
  0
LINE
  8
_1-8_小物
  6
CONTINUOUS
 62
    4
 10
-79.895000000000266
 20
58.107770746529411
 11
-80.000000000000398
 21
58.109472471329525
  0
LINE
  8
_1-8_小物
  6
CONTINUOUS
 62
    4
 10
-80.000000000000398
 20
58.109472471329525
 11
-80.105000000000302
 21
58.107770746529411
  0
LINE
  8
_1-8_小物
  6
CONTINUOUS
 62
    4
 10
-78.536304261266935
 20
57.581626271662856
 11
-81.463695738766944
 21
57.581626271662856
  0
LINE
  8
_1-8_小物
  6
CONTINUOUS
 62
    4
 10
-80.000000000000398
 20
57.815135148896218
 11
-81.335237045167048
 21
57.815135148896218
  0
LINE
  8
_1-8_小物
  6
CONTINUOUS
 62
    4
 10
-78.664762954866831
 20
57.815135148896218
 11
-80.000000000000398
 21
57.815135148896218
  0
ENDBLK
  0
BLOCK
  2
-014-_11_
 70
   64
 10
0
 20
0
 30
0
  0
LINE
  8
_1-4_フレ__ム
  6
CONTINUOUS
 62
    4
 10
-73.233333333333178
 20
56.66666666666282
 11
-73.3333333333334
 21
56.566666666662911
  0
LINE
  8
_1-4_フレ__ム
  6
CONTINUOUS
 62
    4
 10
-73.3333333333334
 20
56.566666666662911
 11
-73.433333333333309
 21
56.66666666666282
  0
LINE
  8
_1-4_フレ__ム
  6
DASHED1
 62
    4
 10
-62.500000000000369
 20
55.499999999996163
 11
-62.500000000000369
 21
56.333333333329506
  0
LINE
  8
_1-4_フレ__ム
  6
DASHED1
 62
    4
 10
-57.500000000000369
 20
55.499999999996163
 11
-57.500000000000369
 21
56.333333333329506
  0
LINE
  8
_1-4_フレ__ム
  6
DASHED1
 62
    4
 10
-82.500000000000043
 20
55.499999999996163
 11
-82.500000000000043
 21
56.66666666666282
  0
LINE
  8
_1-4_フレ__ム
  6
DASHED1
 62
    4
 10
-77.500000000000057
 20
55.499999999996163
 11
-77.500000000000057
 21
56.66666666666282
  0
ARC
  8
_1-4_フレ__ム
  6
CONTINUOUS
 62
    4
 10
-50.8333333333334
 20
62.499999999996163
 40
0.3333333333333333
 50
0
 51
90
  0
LINE
  8
_1-4_フレ__ム
  6
CONTINUOUS
 62
    4
 10
-54.000000000000199
 20
62.833333333329506
 11
-50.8333333333334
 21
62.833333333329506
  0
ARC
  8
_1-4_フレ__ム
  6
CONTINUOUS
 62
    4
 10
-54.000000000000199
 20
63.499999999996163
 40
0.6666666666666666
 50
180
 51
270
  0
LINE
  8
_1-4_フレ__ム
  6
CONTINUOUS
 62
    4
 10
-52.266666666666936
 20
63.66666666666282
 11
-53.500000000000199
 21
63.66666666666282
  0
LINE
  8
_1-4_フレ__ム
  6
CONTINUOUS
 62
    4
 10
-52.166666666666714
 20
63.566666666662911
 11
-52.266666666666936
 21
63.66666666666282
  0
LINE
  8
_1-4_フレ__ム
  6
CONTINUOUS
 62
    4
 10
-52.066666666666805
 20
63.66666666666282
 11
-52.166666666666714
 21
63.566666666662911
  0
LINE
  8
_1-4_フレ__ム
  6
CONTINUOUS
 62
    4
 10
-50.8333333333334
 20
63.66666666666282
 11
-52.066666666666805
 21
63.66666666666282
  0
ARC
  8
_1-4_フレ__ム
  6
CONTINUOUS
 62
    4
 10
-49.500000000000199
 20
62.66666666666282
 40
0.1666666666666666
 50
180
 51
270
  0
ARC
  8
_1-4_フレ__ム
  6
CONTINUOUS
 62
    4
 10
-48.583333333333542
 20
64.749999999996163
 40
0.25
 50
0
 51
180
  0
LINE
  8
_1-4_フレ__ム
  6
CONTINUOUS
 62
    4
 10
-48.3333333333334
 20
62.16666666666282
 11
-48.3333333333334
 21
64.749999999996163
  0
ARC
  8
_1-4_フレ__ム
  6
CONTINUOUS
 62
    4
 10
-48.500000000000199
 20
62.16666666666282
 40
0.1666666666666666
 50
270
 51
0
  0
LINE
  8
_1-4_フレ__ム
  6
CONTINUOUS
 62
    4
 10
-49.333333333333542
 20
61.999999999996163
 11
-48.500000000000199
 21
61.999999999996163
  0
ARC
  8
_1-4_フレ__ム
  6
CONTINUOUS
 62
    4
 10
-49.333333333333542
 20
61.66666666666282
 40
0.3333333333333333
 50
90
 51
180
  0
LINE
  8
_1-4_フレ__ム
  6
CONTINUOUS
 62
    4
 10
-91.499999999999886
 20
61.099999999996214
 11
-91.666666666666714
 21
60.433333333329557
  0
LINE
  8
_1-4_フレ__ム
  6
CONTINUOUS
 62
    4
 10
-91.666666666666714
 20
61.099999999996214
 11
-91.499999999999886
 21
61.099999999996214
  0
LINE
  8
_1-4_フレ__ム
  6
CONTINUOUS
 62
    4
 10
-91.666666666666714
 20
62.099999999996214
 11
-91.666666666666714
 21
61.099999999996214
  0
ARC
  8
_1-4_フレ__ム
  6
CONTINUOUS
 62
    4
 10
-91.166666666666714
 20
62.099999999996214
 40
0.5
 50
0
 51
180
  0
LINE
  8
_1-4_フレ__ム
  6
CONTINUOUS
 62
    4
 10
-90.666666666666558
 20
61.099999999996214
 11
-90.666666666666558
 21
62.099999999996214
  0
LINE
  8
_1-4_フレ__ム
  6
CONTINUOUS
 62
    4
 10
-90.833333333333371
 20
61.099999999996214
 11
-90.666666666666558
 21
61.099999999996214
  0
LINE
  8
_1-4_フレ__ム
  6
CONTINUOUS
 62
    4
 10
-90.666666666666558
 20
60.433333333329557
 11
-90.833333333333371
 21
61.099999999996214
  0
LINE
  8
_1-4_フレ__ム
  6
CONTINUOUS
 62
    4
 10
-71.566666666666521
 20
56.66666666666282
 11
-71.666666666666714
 21
56.566666666662911
  0
LINE
  8
_1-4_フレ__ム
  6
CONTINUOUS
 62
    4
 10
-66.666666666666714
 20
56.66666666666282
 11
-71.566666666666521
 21
56.66666666666282
  0
ARC
  8
_1-4_フレ__ム
  6
CONTINUOUS
 62
    4
 10
-51.166666666666714
 20
56.999999999996163
 40
0.6666666666666666
 50
270
 51
0
  0
LINE
  8
_1-4_フレ__ム
  6
CONTINUOUS
 62
    4
 10
-91.333333333333371
 20
55.499999999996163
 11
-49.666666666666714
 21
55.499999999996163
  0
ARC
  8
_1-4_フレ__ム
  6
CONTINUOUS
 62
    4
 10
-91.333333333333371
 20
55.833333333329506
 40
0.3333333333333333
 50
180
 51
270
  0
ARC
  8
_1-4_フレ__ム
  6
CONTINUOUS
 62
    4
 10
-89.666666666666714
 20
57.66666666666282
 40
1
 50
180
 51
270
  0
LINE
  8
_1-4_フレ__ム
  6
CONTINUOUS
 62
    4
 10
-71.666666666666714
 20
56.566666666662911
 11
-71.766666666666623
 21
56.66666666666282
  0
LINE
  8
_1-4_フレ__ム
  6
CONTINUOUS
 62
    4
 10
-91.666666666666714
 20
60.433333333329557
 11
-91.666666666666714
 21
55.833333333329506
  0
LINE
  8
_1-4_フレ__ム
  6
CONTINUOUS
 62
    4
 10
-90.666666666666558
 20
57.66666666666282
 11
-90.666666666666558
 21
60.433333333329557
  0
LINE
  8
_1-4_フレ__ム
  6
CONTINUOUS
 62
    4
 10
-49.666666666666714
 20
55.499999999996163
 11
-49.666666666666714
 21
61.66666666666282
  0
LINE
  8
_1-4_フレ__ム
  6
CONTINUOUS
 62
    4
 10
-50.500000000000369
 20
62.499999999996163
 11
-50.500000000000369
 21
56.999999999996163
  0
LINE
  8
_1-4_フレ__ム
  6
CONTINUOUS
 62
    4
 10
-48.8333333333334
 20
64.749999999996163
 11
-48.8333333333334
 21
62.499999999996163
  0
LINE
  8
_1-4_フレ__ム
  6
CONTINUOUS
 62
    4
 10
-48.8333333333334
 20
62.499999999996163
 11
-49.500000000000199
 21
62.499999999996163
  0
LINE
  8
_1-4_フレ__ム
  6
CONTINUOUS
 62
    4
 10
-49.666666666666714
 20
62.66666666666282
 11
-49.666666666666714
 21
64.16666666666282
  0
LINE
  8
_1-4_フレ__ム
  6
CONTINUOUS
 62
    4
 10
-49.666666666666714
 20
64.16666666666282
 11
-50.8333333333334
 21
64.16666666666282
  0
LINE
  8
_1-4_フレ__ム
  6
CONTINUOUS
 62
    4
 10
-50.8333333333334
 20
64.16666666666282
 11
-50.8333333333334
 21
63.66666666666282
  0
LINE
  8
_1-4_フレ__ム
  6
CONTINUOUS
 62
    4
 10
-53.500000000000199
 20
63.66666666666282
 11
-53.500000000000199
 21
64.16666666666282
  0
LINE
  8
_1-4_フレ__ム
  6
CONTINUOUS
 62
    4
 10
-53.500000000000199
 20
64.16666666666282
 11
-54.666666666666714
 21
64.16666666666282
  0
LINE
  8
_1-4_フレ__ム
  6
CONTINUOUS
 62
    4
 10
-54.666666666666714
 20
64.16666666666282
 11
-54.666666666666714
 21
63.499999999996163
  0
LINE
  8
_1-4_フレ__ム
  6
CONTINUOUS
 62
    4
 10
-79.900000000000006
 20
56.66666666666282
 11
-80.000000000000199
 21
56.566666666662911
  0
LINE
  8
_1-4_フレ__ム
  6
CONTINUOUS
 62
    4
 10
-80.000000000000199
 20
56.566666666662911
 11
-80.100000000000108
 21
56.66666666666282
  0
LINE
  8
_1-4_フレ__ム
  6
CONTINUOUS
 62
    4
 10
-66.666666666666714
 20
56.66666666666282
 11
-65.8333333333334
 21
56.33333333332962
  0
LINE
  8
_1-4_フレ__ム
  6
CONTINUOUS
 62
    4
 10
-80.100000000000108
 20
56.66666666666282
 11
-89.666666666666714
 21
56.66666666666282
  0
LINE
  8
_1-4_フレ__ム
  6
CONTINUOUS
 62
    4
 10
-59.999999999999915
 20
56.233333333329398
 11
-60.099999999999824
 21
56.33333333332962
  0
LINE
  8
_1-4_フレ__ム
  6
CONTINUOUS
 62
    4
 10
-59.900000000000006
 20
56.33333333332962
 11
-59.999999999999915
 21
56.233333333329398
  0
LINE
  8
_1-4_フレ__ム
  6
CONTINUOUS
 62
    4
 10
-51.166666666666714
 20
56.333333333329506
 11
-59.900000000000006
 21
56.333333333329506
  0
LINE
  8
_1-4_フレ__ム
  6
CONTINUOUS
 62
    4
 10
-60.099999999999824
 20
56.333333333329506
 11
-65.8333333333334
 21
56.333333333329506
  0
LINE
  8
_1-4_フレ__ム
  6
CONTINUOUS
 62
    4
 10
-71.766666666666623
 20
56.66666666666282
 11
-73.233333333333178
 21
56.66666666666282
  0
LINE
  8
_1-4_フレ__ム
  6
CONTINUOUS
 62
    4
 10
-73.433333333333309
 20
56.66666666666282
 11
-79.900000000000006
 21
56.66666666666282
  0
LINE
  8
_1-4_フレ__ム
  6
CENTER2
 62
    4
 10
-52.166666666666686
 20
64.66666666666282
 11
-52.166666666666686
 21
61.833333333329506
  0
LINE
  8
_1-4_フレ__ム
  6
CENTER2
 62
    4
 10
-80.000000000000057
 20
53.833333333329506
 11
-80.000000000000057
 21
58.333333333329506
  0
LINE
  8
_1-4_フレ__ム
  6
CENTER2
 62
    4
 10
-60.000000000000369
 20
53.83333333332962
 11
-60.000000000000369
 21
57.999999999996277
  0
ENDBLK
  0
BLOCK
  2
-015-_12_
 70
   64
 10
0
 20
0
 30
0
  0
LINE
  8
_1-7_カバ__
  6
CONTINUOUS
 62
    4
 10
-91.66666200000013
 20
64.833333333329506
 11
-91.333328666666773
 21
65.16666666666282
  0
LINE
  8
_1-7_カバ__
  6
CONTINUOUS
 62
    4
 10
-49.33332866666683
 20
65.16666666666282
 11
-48.999995333333487
 21
64.833333333329506
  0
LINE
  8
_1-7_カバ__
  6
CONTINUOUS
 62
    4
 10
-48.999995333333487
 20
64.833333333329506
 11
-48.999995333333487
 21
64.16666666666282
  0
LINE
  8
_1-7_カバ__
  6
CONTINUOUS
 62
    4
 10
-91.333328666666773
 20
65.16666666666282
 11
-49.33332866666683
 21
65.16666666666282
  0
LINE
  8
_1-7_カバ__
  6
CONTINUOUS
 62
    4
 10
-91.66666200000013
 20
64.16666666666282
 11
-91.66666200000013
 21
64.833333333329506
  0
LINE
  8
_1-7_カバ__
  6
CONTINUOUS
 62
    4
 10
-48.999995333333487
 20
64.16666666666282
 11
-91.66666200000013
 21
64.16666666666282
  0
LINE
  8
_1-7_カバ__
  6
DASHED1
 62
    4
 10
-51.250000000000142
 20
64.16666666666282
 11
-51.250000000000142
 21
64.333328666662851
  0
LINE
  8
_1-7_カバ__
  6
DASHED1
 62
    4
 10
-53.083333333333485
 20
64.16666666666282
 11
-53.083333333333485
 21
64.333337999996161
  0
LINE
  8
_1-7_カバ__
  6
DASHED1
 62
    4
 10
-51.250000000000142
 20
64.333328666662851
 11
-53.083333333333485
 21
64.333328666662851
  0
LINE
  8
_1-7_カバ__
  6
DASHED1
 62
    4
 10
-53.083333333333485
 20
64.333337999996161
 11
-53.916662000000144
 21
65.16666666666282
  0
LINE
  8
_1-7_カバ__
  6
DASHED1
 62
    4
 10
-50.416662000000144
 20
65.16666666666282
 11
-51.250000000000142
 21
64.333328666662851
  0
LINE
  8
_1-7_カバ__
  6
CENTER2
 62
    4
 10
-52.166666666666799
 20
62.452776833329494
 11
-52.166666666666799
 21
66.270218833329466
  0
ENDBLK
  0
BLOCK
  2
-016-_13_
 70
   64
 10
0
 20
0
 30
0
  0
LINE
  8
_1-9_センタ__プレ__ト
  6
CENTER2
 62
    4
 10
-108.33333333333334
 20
60.598595019006012
 11
-108.33333333333334
 21
65.099999333331596
  0
LINE
  8
_1-9_センタ__プレ__ト
  6
CONTINUOUS
 62
    4
 10
-117.83333333333319
 20
63.999999333331459
 11
-117.83333333333319
 21
64.099999333331596
  0
LINE
  8
_1-9_センタ__プレ__ト
  6
CONTINUOUS
 62
    4
 10
-117.83333333333319
 20
63.999999333331459
 11
-116.83333333333296
 21
63.999999333331459
  0
LINE
  8
_1-9_センタ__プレ__ト
  6
CONTINUOUS
 62
    4
 10
-116.83333333333296
 20
63.999999333331459
 11
-116.83333333333296
 21
64.099999333331596
  0
LINE
  8
_1-9_センタ__プレ__ト
  6
CONTINUOUS
 62
    4
 10
-116.83333333333296
 20
64.099999333331596
 11
-115.83333333333312
 21
64.099999333331596
  0
LINE
  8
_1-9_センタ__プレ__ト
  6
CONTINUOUS
 62
    4
 10
-115.83333333333312
 20
63.999999333331459
 11
-115.83333333333312
 21
64.099999333331596
  0
LINE
  8
_1-9_センタ__プレ__ト
  6
CONTINUOUS
 62
    4
 10
-115.83333333333312
 20
63.999999333331459
 11
-114.83333333333312
 21
63.999999333331459
  0
LINE
  8
_1-9_センタ__プレ__ト
  6
CONTINUOUS
 62
    4
 10
-114.83333333333312
 20
63.999999333331459
 11
-114.83333333333312
 21
64.099999333331596
  0
LINE
  8
_1-9_センタ__プレ__ト
  6
CONTINUOUS
 62
    4
 10
-114.83333333333312
 20
64.099999333331596
 11
-113.83333333333326
 21
64.099999333331596
  0
LINE
  8
_1-9_センタ__プレ__ト
  6
CONTINUOUS
 62
    4
 10
-113.83333333333326
 20
63.999999333331459
 11
-113.83333333333326
 21
64.099999333331596
  0
LINE
  8
_1-9_センタ__プレ__ト
  6
CONTINUOUS
 62
    4
 10
-113.83333333333326
 20
63.999999333331459
 11
-112.83333333333319
 21
63.999999333331459
  0
LINE
  8
_1-9_センタ__プレ__ト
  6
CONTINUOUS
 62
    4
 10
-112.83333333333319
 20
63.999999333331459
 11
-112.83333333333319
 21
64.099999333331596
  0
LINE
  8
_1-9_センタ__プレ__ト
  6
CONTINUOUS
 62
    4
 10
-112.83333333333319
 20
64.099999333331596
 11
-111.83333333333334
 21
64.099999333331596
  0
LINE
  8
_1-9_センタ__プレ__ト
  6
CONTINUOUS
 62
    4
 10
-111.83333333333334
 20
63.999999333331459
 11
-111.83333333333334
 21
64.099999333331596
  0
LINE
  8
_1-9_センタ__プレ__ト
  6
CONTINUOUS
 62
    4
 10
-111.83333333333334
 20
63.999999333331459
 11
-110.83333333333312
 21
63.999999333331459
  0
LINE
  8
_1-9_センタ__プレ__ト
  6
CONTINUOUS
 62
    4
 10
-110.83333333333312
 20
63.999999333331459
 11
-110.83333333333312
 21
64.099999333331596
  0
LINE
  8
_1-9_センタ__プレ__ト
  6
CONTINUOUS
 62
    4
 10
-110.83333333333312
 20
64.099999333331596
 11
-109.83333333333326
 21
64.099999333331596
  0
LINE
  8
_1-9_センタ__プレ__ト
  6
CONTINUOUS
 62
    4
 10
-109.83333333333326
 20
63.999999333331459
 11
-109.83333333333326
 21
64.099999333331596
  0
LINE
  8
_1-9_センタ__プレ__ト
  6
CONTINUOUS
 62
    4
 10
-109.83333333333326
 20
63.999999333331459
 11
-108.83333333333326
 21
63.999999333331459
  0
LINE
  8
_1-9_センタ__プレ__ト
  6
CONTINUOUS
 62
    4
 10
-108.83333333333326
 20
63.999999333331459
 11
-108.83333333333326
 21
64.099999333331596
  0
LINE
  8
_1-9_センタ__プレ__ト
  6
CONTINUOUS
 62
    4
 10
-108.83333333333326
 20
64.099999333331596
 11
-107.83333333333341
 21
64.099999333331596
  0
LINE
  8
_1-9_センタ__プレ__ト
  6
CONTINUOUS
 62
    4
 10
-107.83333333333341
 20
63.999999333331459
 11
-107.83333333333341
 21
64.099999333331596
  0
LINE
  8
_1-9_センタ__プレ__ト
  6
CONTINUOUS
 62
    4
 10
-107.83333333333341
 20
63.999999333331459
 11
-106.83333333333334
 21
63.999999333331459
  0
LINE
  8
_1-9_センタ__プレ__ト
  6
CONTINUOUS
 62
    4
 10
-106.83333333333334
 20
63.999999333331459
 11
-106.83333333333334
 21
64.099999333331596
  0
LINE
  8
_1-9_センタ__プレ__ト
  6
CONTINUOUS
 62
    4
 10
-106.83333333333334
 20
64.099999333331596
 11
-105.83333333333348
 21
64.099999333331596
  0
LINE
  8
_1-9_センタ__プレ__ト
  6
CONTINUOUS
 62
    4
 10
-105.83333333333348
 20
63.999999333331459
 11
-105.83333333333348
 21
64.099999333331596
  0
LINE
  8
_1-9_センタ__プレ__ト
  6
CONTINUOUS
 62
    4
 10
-105.83333333333348
 20
63.999999333331459
 11
-104.83333333333326
 21
63.999999333331459
  0
LINE
  8
_1-9_センタ__プレ__ト
  6
CONTINUOUS
 62
    4
 10
-104.83333333333326
 20
63.999999333331459
 11
-104.83333333333326
 21
64.099999333331596
  0
LINE
  8
_1-9_センタ__プレ__ト
  6
CONTINUOUS
 62
    4
 10
-104.83333333333326
 20
64.099999333331596
 11
-103.83333333333341
 21
64.099999333331596
  0
LINE
  8
_1-9_センタ__プレ__ト
  6
CONTINUOUS
 62
    4
 10
-103.83333333333341
 20
63.999999333331459
 11
-103.83333333333341
 21
64.099999333331596
  0
LINE
  8
_1-9_センタ__プレ__ト
  6
CONTINUOUS
 62
    4
 10
-103.83333333333341
 20
63.999999333331459
 11
-102.83333333333341
 21
63.999999333331459
  0
LINE
  8
_1-9_センタ__プレ__ト
  6
CONTINUOUS
 62
    4
 10
-102.83333333333341
 20
63.999999333331459
 11
-102.83333333333341
 21
64.099999333331596
  0
LINE
  8
_1-9_センタ__プレ__ト
  6
CONTINUOUS
 62
    4
 10
-75.83333533333365
 20
63.999999333331573
 11
-75.83333533333365
 21
64.099999333331596
  0
LINE
  8
_1-9_センタ__プレ__ト
  6
CONTINUOUS
 62
    4
 10
-74.880181439815743
 20
63.788690202461254
 11
-74.837919613641532
 21
63.879320981164994
  0
LINE
  8
_1-9_センタ__プレ__ト
  6
CONTINUOUS
 62
    4
 10
-73.931611826605177
 20
63.4567027194243
 11
-74.837919613641532
 21
63.879320981164994
  0
LINE
  8
_1-9_センタ__プレ__ト
  6
CONTINUOUS
 62
    4
 10
-73.067565865742637
 20
62.943453678979978
 11
-73.025304039568425
 21
63.034084457683718
  0
LINE
  8
_1-9_センタ__プレ__ト
  6
CONTINUOUS
 62
    4
 10
-73.973873652779133
 20
63.366071940720673
 11
-73.931611826605177
 21
63.4567027194243
  0
LINE
  8
_1-9_センタ__プレ__ト
  6
CONTINUOUS
 62
    4
 10
-73.067565865742637
 20
62.943453678979978
 11
-73.973873652779133
 21
63.366071940720673
  0
LINE
  8
_1-9_センタ__プレ__ト
  6
CONTINUOUS
 62
    4
 10
-72.118996252531844
 20
62.611466195943336
 11
-73.025304039568425
 21
63.034084457683946
  0
LINE
  8
_1-9_センタ__プレ__ト
  6
CONTINUOUS
 62
    4
 10
-71.25495029166953
 20
62.098217155498958
 11
-71.212688465495319
 21
62.188847934202727
  0
LINE
  8
_1-9_センタ__プレ__ト
  6
CONTINUOUS
 62
    4
 10
-72.161258078705885
 20
62.520835417239653
 11
-72.118996252531844
 21
62.611466195943336
  0
LINE
  8
_1-9_センタ__プレ__ト
  6
CONTINUOUS
 62
    4
 10
-71.25495029166953
 20
62.098217155498958
 11
-72.161258078705885
 21
62.520835417239653
  0
LINE
  8
_1-9_センタ__プレ__ト
  6
CONTINUOUS
 62
    4
 10
-70.306380678458964
 20
61.766229672462316
 11
-71.212688465495319
 21
62.188847934202983
  0
LINE
  8
_1-9_センタ__プレ__ト
  6
CONTINUOUS
 62
    4
 10
-70.348642504632778
 20
61.675598893758661
 11
-70.306380678458964
 21
61.766229672462316
  0
LINE
  8
_1-9_センタ__プレ__ト
  6
CONTINUOUS
 62
    4
 10
-69.895488611114416
 20
61.464289762888313
 11
-70.348642504632778
 21
61.675598893758661
  0
LINE
  8
_1-9_センタ__プレ__ト
  6
CONTINUOUS
 62
    4
 10
-70.275845046681468
 20
60.648612754554847
 11
-69.895488611114786
 21
61.464289762888313
  0
LINE
  8
_1-9_センタ__プレ__ト
  6
CONTINUOUS
 62
    4
 10
-102.83333333333341
 20
64.099999333331596
 11
-101.83333333333357
 21
64.099999333331596
  0
LINE
  8
_1-9_センタ__プレ__ト
  6
CONTINUOUS
 62
    4
 10
-101.83333333333357
 20
63.999999333331459
 11
-101.83333333333357
 21
64.099999333331596
  0
LINE
  8
_1-9_センタ__プレ__ト
  6
CONTINUOUS
 62
    4
 10
-101.83333333333357
 20
63.999999333331459
 11
-100.83333333333334
 21
63.999999333331459
  0
LINE
  8
_1-9_センタ__プレ__ト
  6
CONTINUOUS
 62
    4
 10
-100.83333333333334
 20
63.999999333331459
 11
-100.83333333333334
 21
64.099999333331596
  0
LINE
  8
_1-9_センタ__プレ__ト
  6
CONTINUOUS
 62
    4
 10
-100.83333333333334
 20
64.099999333331596
 11
-99.833333333333485
 21
64.099999333331596
  0
LINE
  8
_1-9_センタ__プレ__ト
  6
CONTINUOUS
 62
    4
 10
-99.833333333333485
 20
63.999999333331459
 11
-99.833333333333485
 21
64.099999333331596
  0
LINE
  8
_1-9_センタ__プレ__ト
  6
CONTINUOUS
 62
    4
 10
-99.833333333333485
 20
63.999999333331459
 11
-98.833333333333485
 21
63.999999333331459
  0
LINE
  8
_1-9_センタ__プレ__ト
  6
CONTINUOUS
 62
    4
 10
-98.833333333333485
 20
63.999999333331459
 11
-98.833333333333485
 21
64.099999333331596
  0
LINE
  8
_1-9_センタ__プレ__ト
  6
CONTINUOUS
 62
    4
 10
-98.833333333333485
 20
64.099999333331596
 11
-97.833333333333641
 21
64.099999333331596
  0
LINE
  8
_1-9_センタ__プレ__ト
  6
CONTINUOUS
 62
    4
 10
-97.833333333333641
 20
63.999999333331459
 11
-97.833333333333641
 21
64.099999333331596
  0
LINE
  8
_1-9_センタ__プレ__ト
  6
CONTINUOUS
 62
    4
 10
-97.833333333333641
 20
63.999999333331459
 11
-96.83333333333357
 21
63.999999333331459
  0
LINE
  8
_1-9_センタ__プレ__ト
  6
CONTINUOUS
 62
    4
 10
-96.83333333333357
 20
63.999999333331459
 11
-96.83333333333357
 21
64.099999333331596
  0
LINE
  8
_1-9_センタ__プレ__ト
  6
CONTINUOUS
 62
    4
 10
-96.83333333333357
 20
64.099999333331596
 11
-95.833333333333712
 21
64.099999333331596
  0
LINE
  8
_1-9_センタ__プレ__ト
  6
CONTINUOUS
 62
    4
 10
-95.833333333333712
 20
63.999999333331459
 11
-95.833333333333712
 21
64.099999333331596
  0
LINE
  8
_1-9_センタ__プレ__ト
  6
CONTINUOUS
 62
    4
 10
-95.833333333333712
 20
63.999999333331459
 11
-94.833333333333485
 21
63.999999333331459
  0
LINE
  8
_1-9_センタ__プレ__ト
  6
CONTINUOUS
 62
    4
 10
-94.833333333333485
 20
63.999999333331459
 11
-94.833333333333485
 21
64.099999333331596
  0
LINE
  8
_1-9_センタ__プレ__ト
  6
CONTINUOUS
 62
    4
 10
-94.833333333333485
 20
64.099999333331596
 11
-93.833333333333641
 21
64.099999333331596
  0
LINE
  8
_1-9_センタ__プレ__ト
  6
CONTINUOUS
 62
    4
 10
-93.833333333333641
 20
63.999999333331459
 11
-93.833333333333641
 21
64.099999333331596
  0
LINE
  8
_1-9_センタ__プレ__ト
  6
CONTINUOUS
 62
    4
 10
-93.833333333333641
 20
63.999999333331459
 11
-92.833333333333641
 21
63.999999333331459
  0
LINE
  8
_1-9_センタ__プレ__ト
  6
CONTINUOUS
 62
    4
 10
-92.833333333333641
 20
63.999999333331459
 11
-92.833333333333641
 21
64.099999333331596
  0
LINE
  8
_1-9_センタ__プレ__ト
  6
CONTINUOUS
 62
    4
 10
-92.833333333333641
 20
64.099999333331596
 11
-91.833333333333798
 21
64.099999333331596
  0
LINE
  8
_1-9_センタ__プレ__ト
  6
CONTINUOUS
 62
    4
 10
-91.833333333333798
 20
63.999999333331459
 11
-91.833333333333798
 21
64.099999333331596
  0
LINE
  8
_1-9_センタ__プレ__ト
  6
CONTINUOUS
 62
    4
 10
-91.833333333333798
 20
63.999999333331459
 11
-90.83333333333357
 21
63.999999333331459
  0
LINE
  8
_1-9_センタ__プレ__ト
  6
CONTINUOUS
 62
    4
 10
-90.83333333333357
 20
63.999999333331459
 11
-90.83333333333357
 21
64.099999333331596
  0
LINE
  8
_1-9_センタ__プレ__ト
  6
CONTINUOUS
 62
    4
 10
-90.83333333333357
 20
64.099999333331596
 11
-89.833333333333712
 21
64.099999333331596
  0
LINE
  8
_1-9_センタ__プレ__ト
  6
CONTINUOUS
 62
    4
 10
-89.833333333333712
 20
63.999999333331459
 11
-89.833333333333712
 21
64.099999333331596
  0
LINE
  8
_1-9_センタ__プレ__ト
  6
CONTINUOUS
 62
    4
 10
-89.833333333333712
 20
63.999999333331459
 11
-88.833333333333641
 21
63.999999333331459
  0
LINE
  8
_1-9_センタ__プレ__ト
  6
CONTINUOUS
 62
    4
 10
-88.833333333333641
 20
63.999999333331459
 11
-88.833333333333641
 21
64.099999333331596
  0
LINE
  8
_1-9_センタ__プレ__ト
  6
CONTINUOUS
 62
    4
 10
-88.833333333333641
 20
64.099999333331596
 11
-87.833333333333798
 21
64.099999333331596
  0
LINE
  8
_1-9_センタ__プレ__ト
  6
CONTINUOUS
 62
    4
 10
-87.833333333333798
 20
63.999999333331459
 11
-87.833333333333798
 21
64.099999333331596
  0
LINE
  8
_1-9_センタ__プレ__ト
  6
CONTINUOUS
 62
    4
 10
-87.833333333333798
 20
63.999999333331459
 11
-86.833333333333798
 21
63.999999333331459
  0
LINE
  8
_1-9_センタ__プレ__ト
  6
CONTINUOUS
 62
    4
 10
-86.833333333333798
 20
63.999999333331459
 11
-86.833333333333798
 21
64.099999333331596
  0
LINE
  8
_1-9_センタ__プレ__ト
  6
CONTINUOUS
 62
    4
 10
-86.833333333333798
 20
64.099999333331596
 11
-85.83333333333394
 21
64.099999333331596
  0
LINE
  8
_1-9_センタ__プレ__ト
  6
CONTINUOUS
 62
    4
 10
-85.83333333333394
 20
63.999999333331459
 11
-85.83333333333394
 21
64.099999333331596
  0
LINE
  8
_1-9_センタ__プレ__ト
  6
CONTINUOUS
 62
    4
 10
-85.83333333333394
 20
63.999999333331459
 11
-84.833333333333712
 21
63.999999333331459
  0
LINE
  8
_1-9_センタ__プレ__ト
  6
CONTINUOUS
 62
    4
 10
-84.833333333333712
 20
63.999999333331459
 11
-84.833333333333712
 21
64.099999333331596
  0
LINE
  8
_1-9_センタ__プレ__ト
  6
CONTINUOUS
 62
    4
 10
-84.833333333333712
 20
64.099999333331596
 11
-83.833333333333869
 21
64.099999333331596
  0
LINE
  8
_1-9_センタ__プレ__ト
  6
CONTINUOUS
 62
    4
 10
-83.833333333333869
 20
63.999999333331459
 11
-83.833333333333869
 21
64.099999333331596
  0
LINE
  8
_1-9_センタ__プレ__ト
  6
CONTINUOUS
 62
    4
 10
-83.833333333333869
 20
63.999999333331459
 11
-82.833333333333798
 21
63.999999333331459
  0
LINE
  8
_1-9_センタ__プレ__ト
  6
CONTINUOUS
 62
    4
 10
-82.833333333333798
 20
63.999999333331459
 11
-82.833333333333798
 21
64.099999333331596
  0
LINE
  8
_1-9_センタ__プレ__ト
  6
CONTINUOUS
 62
    4
 10
-82.833333333333798
 20
64.099999333331596
 11
-81.833333333333968
 21
64.099999333331596
  0
LINE
  8
_1-9_センタ__プレ__ト
  6
CONTINUOUS
 62
    4
 10
-81.833333333333968
 20
63.999999333331459
 11
-81.833333333333968
 21
64.099999333331596
  0
LINE
  8
_1-9_センタ__プレ__ト
  6
CONTINUOUS
 62
    4
 10
-81.833333333333968
 20
63.999999333331459
 11
-80.833333333333968
 21
63.999999333331459
  0
LINE
  8
_1-9_センタ__プレ__ト
  6
CONTINUOUS
 62
    4
 10
-80.833333333333968
 20
63.999999333331459
 11
-80.833333333333968
 21
64.099999333331596
  0
LINE
  8
_1-9_センタ__プレ__ト
  6
CONTINUOUS
 62
    4
 10
-80.833333333333968
 20
64.099999333331596
 11
-79.83333333333411
 21
64.099999333331596
  0
LINE
  8
_1-9_センタ__プレ__ト
  6
CONTINUOUS
 62
    4
 10
-79.83333333333411
 20
63.999999333331459
 11
-79.83333333333411
 21
64.099999333331596
  0
LINE
  8
_1-9_センタ__プレ__ト
  6
CONTINUOUS
 62
    4
 10
-79.83333333333411
 20
63.999999333331459
 11
-78.833333333333883
 21
63.999999333331459
  0
LINE
  8
_1-9_センタ__プレ__ト
  6
CONTINUOUS
 62
    4
 10
-78.833333333333883
 20
63.999999333331459
 11
-78.833333333333883
 21
64.099999333331596
  0
LINE
  8
_1-9_センタ__プレ__ト
  6
CONTINUOUS
 62
    4
 10
-78.833333333333883
 20
64.099999333331596
 11
-77.833333333334025
 21
64.099999333331596
  0
LINE
  8
_1-9_センタ__プレ__ト
  6
CONTINUOUS
 62
    4
 10
-77.833333333334025
 20
63.999999333331459
 11
-77.833333333334025
 21
64.099999333331596
  0
LINE
  8
_1-9_センタ__プレ__ト
  6
CONTINUOUS
 62
    4
 10
-77.833333333334025
 20
63.999999333331459
 11
-76.833333333333968
 21
63.999999333331459
  0
LINE
  8
_1-9_センタ__プレ__ト
  6
CONTINUOUS
 62
    4
 10
-76.833333333333968
 20
63.999999333331459
 11
-76.833333333333968
 21
64.099999333331596
  0
LINE
  8
_1-9_センタ__プレ__ト
  6
CONTINUOUS
 62
    4
 10
-76.833333333333968
 20
64.099999333331596
 11
-75.83333333333411
 21
64.099999333331596
  0
LINE
  8
_1-9_センタ__プレ__ト
  6
CONTINUOUS
 62
    4
 10
-75.333335333333878
 20
63.999999333331573
 11
-75.83333533333365
 21
63.999999333331573
  0
LINE
  8
_1-9_センタ__プレ__ト
  6
CONTINUOUS
 62
    4
 10
-74.880181439815743
 20
63.788690202461254
 11
-75.333335333333878
 21
63.999999333331573
  0
LINE
  8
_1-9_センタ__プレ__ト
  6
CONTINUOUS
 62
    4
 10
-70.275845046681468
 20
60.648612754554847
 11
-75.532860529712423
 21
63.099999333331567
  0
LINE
  8
_1-9_センタ__プレ__ト
  6
CONTINUOUS
 62
    4
 10
-129.42016142216653
 20
63.507595456825527
 11
-129.5186421974679
 21
63.524960274592274
  0
LINE
  8
_1-9_センタ__プレ__ト
  6
CONTINUOUS
 62
    4
 10
-129.69229037513463
 20
62.540152521580183
 11
-129.5186421974679
 21
63.524960274592274
  0
LINE
  8
_1-9_センタ__プレ__ト
  6
CONTINUOUS
 62
    4
 10
-129.7674577775002
 20
61.537979950801457
 11
-129.86593855280171
 21
61.555344768568148
  0
LINE
  8
_1-9_センタ__プレ__ト
  6
CONTINUOUS
 62
    4
 10
-129.59380959983349
 20
62.522787703813549
 11
-129.69229037513463
 21
62.540152521580183
  0
LINE
  8
_1-9_センタ__プレ__ト
  6
CONTINUOUS
 62
    4
 10
-129.7674577775002
 20
61.537979950801457
 11
-129.59380959983349
 21
62.522787703813549
  0
LINE
  8
_1-9_センタ__プレ__ト
  6
CONTINUOUS
 62
    4
 10
-130.03958673046918
 20
60.570537015556056
 11
-129.86593855280194
 21
61.555344768568318
  0
LINE
  8
_1-9_センタ__プレ__ト
  6
CONTINUOUS
 62
    4
 10
-130.11475413283438
 20
59.568364444777501
 11
-130.21323490813592
 21
59.585729262544191
  0
LINE
  8
_1-9_センタ__プレ__ト
  6
CONTINUOUS
 62
    4
 10
-129.94110595516767
 20
60.553172197789536
 11
-130.03958673046918
 21
60.570537015556056
  0
LINE
  8
_1-9_センタ__プレ__ト
  6
CONTINUOUS
 62
    4
 10
-130.11475413283438
 20
59.568364444777501
 11
-129.94110595516767
 21
60.553172197789536
  0
LINE
  8
_1-9_センタ__プレ__ト
  6
CONTINUOUS
 62
    4
 10
-128.83333333333297
 20
64.099999333331596
 11
-127.83333333333312
 21
64.099999333331596
  0
LINE
  8
_1-9_センタ__プレ__ト
  6
CONTINUOUS
 62
    4
 10
-128.83333333333297
 20
63.999999333331459
 11
-128.83333333333297
 21
64.099999333331596
  0
LINE
  8
_1-9_センタ__プレ__ト
  6
CONTINUOUS
 62
    4
 10
-127.83333333333312
 20
63.999999333331459
 11
-127.83333333333312
 21
64.099999333331596
  0
LINE
  8
_1-9_センタ__プレ__ト
  6
CONTINUOUS
 62
    4
 10
-127.83333333333312
 20
63.999999333331459
 11
-126.83333333333303
 21
63.999999333331459
  0
LINE
  8
_1-9_センタ__プレ__ト
  6
CONTINUOUS
 62
    4
 10
-126.83333333333303
 20
63.999999333331459
 11
-126.83333333333303
 21
64.099999333331596
  0
LINE
  8
_1-9_センタ__プレ__ト
  6
CONTINUOUS
 62
    4
 10
-129.33333733333319
 20
63.999999333331459
 11
-128.83333333333297
 21
63.999999333331459
  0
LINE
  8
_1-9_センタ__プレ__ト
  6
CONTINUOUS
 62
    4
 10
-129.42016142216653
 20
63.507595456825527
 11
-129.33333733333319
 21
63.999999333331459
  0
LINE
  8
_1-9_センタ__プレ__ト
  6
CONTINUOUS
 62
    4
 10
-130.30005899696948
 20
59.093325386038487
 11
-130.21323490813614
 21
59.585729262544248
  0
LINE
  8
_1-9_センタ__プレ__ト
  6
CONTINUOUS
 62
    4
 10
-129.31525124395657
 20
58.919677208371297
 11
-130.30005899696948
 21
59.093325386038487
  0
LINE
  8
_1-9_センタ__プレ__ト
  6
CONTINUOUS
 62
    4
 10
-129.31525124395657
 20
58.919677208371297
 11
-128.57814766527349
 21
63.099999333331567
  0
LINE
  8
_1-9_センタ__プレ__ト
  6
CONTINUOUS
 62
    4
 10
-126.83333333333303
 20
64.099999333331596
 11
-125.8333333333332
 21
64.099999333331596
  0
LINE
  8
_1-9_センタ__プレ__ト
  6
CONTINUOUS
 62
    4
 10
-75.532860529712423
 20
63.099999333331567
 11
-128.57814766527349
 21
63.099999333331567
  0
LINE
  8
_1-9_センタ__プレ__ト
  6
CONTINUOUS
 62
    4
 10
-125.83333333333312
 20
63.999999333331459
 11
-125.83333333333312
 21
64.099999333331596
  0
LINE
  8
_1-9_センタ__プレ__ト
  6
CONTINUOUS
 62
    4
 10
-125.83333333333312
 20
63.999999333331459
 11
-124.83333333333289
 21
63.999999333331459
  0
LINE
  8
_1-9_センタ__プレ__ト
  6
CONTINUOUS
 62
    4
 10
-124.83333333333289
 20
63.999999333331459
 11
-124.83333333333289
 21
64.099999333331596
  0
LINE
  8
_1-9_センタ__プレ__ト
  6
CONTINUOUS
 62
    4
 10
-124.83333333333289
 20
64.099999333331596
 11
-123.83333333333303
 21
64.099999333331596
  0
LINE
  8
_1-9_センタ__プレ__ト
  6
CONTINUOUS
 62
    4
 10
-123.83333333333303
 20
63.999999333331459
 11
-123.83333333333303
 21
64.099999333331596
  0
LINE
  8
_1-9_センタ__プレ__ト
  6
CONTINUOUS
 62
    4
 10
-123.83333333333303
 20
63.999999333331459
 11
-122.83333333333303
 21
63.999999333331459
  0
LINE
  8
_1-9_センタ__プレ__ト
  6
CONTINUOUS
 62
    4
 10
-122.83333333333303
 20
63.999999333331459
 11
-122.83333333333303
 21
64.099999333331596
  0
LINE
  8
_1-9_センタ__プレ__ト
  6
CONTINUOUS
 62
    4
 10
-122.83333333333303
 20
64.099999333331596
 11
-121.83333333333319
 21
64.099999333331596
  0
LINE
  8
_1-9_センタ__プレ__ト
  6
CONTINUOUS
 62
    4
 10
-121.83333333333319
 20
63.999999333331459
 11
-121.83333333333319
 21
64.099999333331596
  0
LINE
  8
_1-9_センタ__プレ__ト
  6
CONTINUOUS
 62
    4
 10
-121.83333333333319
 20
63.999999333331459
 11
-120.83333333333312
 21
63.999999333331459
  0
LINE
  8
_1-9_センタ__プレ__ト
  6
CONTINUOUS
 62
    4
 10
-120.83333333333312
 20
63.999999333331459
 11
-120.83333333333312
 21
64.099999333331596
  0
LINE
  8
_1-9_センタ__プレ__ト
  6
CONTINUOUS
 62
    4
 10
-120.83333333333312
 20
64.099999333331596
 11
-119.83333333333326
 21
64.099999333331596
  0
LINE
  8
_1-9_センタ__プレ__ト
  6
CONTINUOUS
 62
    4
 10
-119.83333333333326
 20
63.999999333331459
 11
-119.83333333333326
 21
64.099999333331596
  0
LINE
  8
_1-9_センタ__プレ__ト
  6
CONTINUOUS
 62
    4
 10
-119.83333333333326
 20
63.999999333331459
 11
-118.83333333333303
 21
63.999999333331459
  0
LINE
  8
_1-9_センタ__プレ__ト
  6
CONTINUOUS
 62
    4
 10
-118.83333333333303
 20
63.999999333331459
 11
-118.83333333333303
 21
64.099999333331596
  0
LINE
  8
_1-9_センタ__プレ__ト
  6
CONTINUOUS
 62
    4
 10
-118.83333333333303
 20
64.099999333331596
 11
-117.83333333333319
 21
64.099999333331596
  0
ENDBLK
  0
BLOCK
  2
-017-_14_
 70
   64
 10
0
 20
0
 30
0
  0
LINE
  8
_1-7_カバ__
  6
CENTER2
 62
    4
 10
-146.16666666666683
 20
62.452776833333303
 11
-146.16666666666683
 21
66.270218833333303
  0
LINE
  8
_1-7_カバ__
  6
CONTINUOUS
 62
    4
 10
-125.00000466666683
 20
64.833333333333314
 11
-125.33333800000015
 21
65.166666666666657
  0
LINE
  8
_1-7_カバ__
  6
CONTINUOUS
 62
    4
 10
-125.00000466666683
 20
64.166666666666657
 11
-125.00000466666683
 21
64.833333333333314
  0
LINE
  8
_1-7_カバ__
  6
CONTINUOUS
 62
    4
 10
-125.00000466666683
 20
64.166666666666657
 11
-149.33333800000014
 21
64.166666666666657
  0
LINE
  8
_1-7_カバ__
  6
CONTINUOUS
 62
    4
 10
-125.33333800000015
 20
65.166666666666657
 11
-149.00000466666683
 21
65.166666666666657
  0
LINE
  8
_1-7_カバ__
  6
CONTINUOUS
 62
    4
 10
-149.33333800000014
 20
64.833333333333314
 11
-149.33333800000014
 21
64.166666666666657
  0
LINE
  8
_1-7_カバ__
  6
CONTINUOUS
 62
    4
 10
-149.00000466666683
 20
65.166666666666657
 11
-149.33333800000014
 21
64.833333333333314
  0
LINE
  8
_1-7_カバ__
  6
DASHED1
 62
    4
 10
-147.08333333333348
 20
64.33332866666666
 11
-145.25000933333348
 21
64.33332866666666
  0
LINE
  8
_1-7_カバ__
  6
DASHED1
 62
    4
 10
-147.08333333333348
 20
64.166666666666657
 11
-147.08333333333348
 21
64.33332866666666
  0
LINE
  8
_1-7_カバ__
  6
DASHED1
 62
    4
 10
-145.25000000000017
 20
64.166666666666657
 11
-145.25000000000017
 21
64.333337999999969
  0
LINE
  8
_1-7_カバ__
  6
DASHED1
 62
    4
 10
-147.91667133333348
 20
65.166666666666657
 11
-147.08333333333348
 21
64.33332866666666
  0
LINE
  8
_1-7_カバ__
  6
DASHED1
 62
    4
 10
-145.25000933333348
 20
64.33332866666666
 11
-144.41667133333348
 21
65.166666666666657
  0
ENDBLK
  0
BLOCK
  2
-018-_15_
 70
   64
 10
0
 20
0
 30
0
  0
LINE
  8
_1-8_小物
  6
CONTINUOUS
 62
    4
 10
-144.5000000000002
 20
65.166666666666657
 11
-147.83333333333343
 21
65.166666666666657
  0
LINE
  8
_1-8_小物
  6
CONTINUOUS
 62
    4
 10
-146.1666666666668
 20
59.833333333333314
 11
-146.85000000000011
 21
60.227856017279578
  0
LINE
  8
_1-8_小物
  6
CONTINUOUS
 62
    4
 10
-146.1666666666668
 20
59.833333333333314
 11
-145.48333333333352
 21
60.227856017279578
  0
LINE
  8
_1-8_小物
  6
CONTINUOUS
 62
    4
 10
-145.57000000000011
 20
62.902460573114269
 11
-145.36666666666673
 21
62.785065859669317
  0
LINE
  8
_1-8_小物
  6
CONTINUOUS
 62
    4
 10
-145.36666666666673
 20
62.785065859669317
 11
-145.57000000000011
 21
62.667671146224336
  0
LINE
  8
_1-8_小物
  6
CONTINUOUS
 62
    4
 10
-146.76333333333352
 20
62.233333333333348
 11
-146.9666666666669
 21
62.3507280467783
  0
LINE
  8
_1-8_小物
  6
CONTINUOUS
 62
    4
 10
-146.9666666666669
 20
62.3507280467783
 11
-146.76333333333352
 21
62.468122760223252
  0
LINE
  8
_1-8_小物
  6
CONTINUOUS
 62
    4
 10
-146.76333333333352
 20
62.468122760223252
 11
-145.57000000000011
 21
62.902460573114269
  0
LINE
  8
_1-8_小物
  6
CONTINUOUS
 62
    4
 10
-146.76333333333352
 20
62.233333333333348
 11
-145.57000000000011
 21
62.667671146224336
  0
LINE
  8
_1-8_小物
  6
CONTINUOUS
 62
    4
 10
-145.36666666666673
 20
62.785065859669317
 11
-146.9666666666669
 21
62.3507280467783
  0
LINE
  8
_1-8_小物
  6
CONTINUOUS
 62
    4
 10
-145.57000000000011
 20
63.402460573114269
 11
-145.36666666666673
 21
63.285065859669317
  0
LINE
  8
_1-8_小物
  6
CONTINUOUS
 62
    4
 10
-145.36666666666673
 20
63.285065859669317
 11
-145.57000000000011
 21
63.167671146224336
  0
LINE
  8
_1-8_小物
  6
CONTINUOUS
 62
    4
 10
-146.76333333333352
 20
62.733333333333348
 11
-146.9666666666669
 21
62.8507280467783
  0
LINE
  8
_1-8_小物
  6
CONTINUOUS
 62
    4
 10
-146.9666666666669
 20
62.8507280467783
 11
-146.76333333333352
 21
62.968122760223252
  0
LINE
  8
_1-8_小物
  6
CONTINUOUS
 62
    4
 10
-146.76333333333352
 20
62.968122760223252
 11
-145.57000000000011
 21
63.402460573114269
  0
LINE
  8
_1-8_小物
  6
CONTINUOUS
 62
    4
 10
-146.76333333333352
 20
62.733333333333348
 11
-145.57000000000011
 21
63.167671146224336
  0
LINE
  8
_1-8_小物
  6
CONTINUOUS
 62
    4
 10
-145.36666666666673
 20
63.285065859669317
 11
-146.9666666666669
 21
62.8507280467783
  0
LINE
  8
_1-8_小物
  6
CONTINUOUS
 62
    4
 10
-145.57000000000011
 20
63.902460573114269
 11
-145.36666666666673
 21
63.785065859669317
  0
LINE
  8
_1-8_小物
  6
CONTINUOUS
 62
    4
 10
-145.36666666666673
 20
63.785065859669317
 11
-145.57000000000011
 21
63.667671146224336
  0
LINE
  8
_1-8_小物
  6
CONTINUOUS
 62
    4
 10
-146.76333333333352
 20
63.233333333333348
 11
-146.9666666666669
 21
63.3507280467783
  0
LINE
  8
_1-8_小物
  6
CONTINUOUS
 62
    4
 10
-146.9666666666669
 20
63.3507280467783
 11
-146.76333333333352
 21
63.468122760223252
  0
LINE
  8
_1-8_小物
  6
CONTINUOUS
 62
    4
 10
-146.76333333333352
 20
63.468122760223252
 11
-145.57000000000011
 21
63.902460573114269
  0
LINE
  8
_1-8_小物
  6
CONTINUOUS
 62
    4
 10
-146.76333333333352
 20
63.233333333333348
 11
-145.57000000000011
 21
63.667671146224336
  0
LINE
  8
_1-8_小物
  6
CONTINUOUS
 62
    4
 10
-145.36666666666673
 20
63.785065859669317
 11
-146.9666666666669
 21
63.3507280467783
  0
LINE
  8
_1-8_小物
  6
CONTINUOUS
 62
    4
 10
-146.76333333333352
 20
63.733333333333348
 11
-146.9666666666669
 21
63.8507280467783
  0
LINE
  8
_1-8_小物
  6
CONTINUOUS
 62
    4
 10
-146.9666666666669
 20
63.8507280467783
 11
-146.76333333333352
 21
63.968122760223252
  0
LINE
  8
_1-8_小物
  6
CONTINUOUS
 62
    4
 10
-146.85000000000011
 20
62.066666666666663
 11
-146.85000000000011
 21
60.227856017279578
  0
LINE
  8
_1-8_小物
  6
CONTINUOUS
 62
    4
 10
-145.48333333333352
 20
62.066666666666663
 11
-146.85000000000011
 21
62.066666666666663
  0
LINE
  8
_1-8_小物
  6
CONTINUOUS
 62
    4
 10
-145.48333333333352
 20
62.066666666666663
 11
-145.48333333333352
 21
60.227856017279578
  0
LINE
  8
_1-8_小物
  6
CONTINUOUS
 62
    4
 10
-146.76333333333352
 20
63.968122760223252
 11
-146.49258617555535
 21
64.066666666666663
  0
LINE
  8
_1-8_小物
  6
CONTINUOUS
 62
    4
 10
-146.76333333333352
 20
63.733333333333348
 11
-146.1666666666668
 21
63.950502239778871
  0
LINE
  8
_1-8_小物
  6
CONTINUOUS
 62
    4
 10
-146.1666666666668
 20
64.067896953223823
 11
-146.9666666666669
 21
63.8507280467783
  0
LINE
  8
_1-8_小物
  6
CONTINUOUS
 62
    4
 10
-146.76333333333352
 20
64.066666666666663
 11
-146.76333333333352
 21
63.968122760223252
  0
LINE
  8
_1-8_小物
  6
CONTINUOUS
 62
    4
 10
-146.76333333333352
 20
63.733333333333348
 11
-146.76333333333352
 21
63.468122760223252
  0
LINE
  8
_1-8_小物
  6
CONTINUOUS
 62
    4
 10
-146.76333333333352
 20
63.233333333333348
 11
-146.76333333333352
 21
62.968122760223252
  0
LINE
  8
_1-8_小物
  6
CONTINUOUS
 62
    4
 10
-146.76333333333352
 20
62.733333333333348
 11
-146.76333333333352
 21
62.468122760223252
  0
LINE
  8
_1-8_小物
  6
CONTINUOUS
 62
    4
 10
-146.76333333333352
 20
62.233333333333348
 11
-146.76333333333352
 21
62.066666666666663
  0
LINE
  8
_1-8_小物
  6
CONTINUOUS
 62
    4
 10
-145.57000000000011
 20
64.066666666666663
 11
-145.57000000000011
 21
63.902460573114269
  0
LINE
  8
_1-8_小物
  6
CONTINUOUS
 62
    4
 10
-145.57000000000011
 20
62.667671146224336
 11
-145.57000000000011
 21
62.066666666666663
  0
LINE
  8
_1-8_小物
  6
CONTINUOUS
 62
    4
 10
-145.57000000000011
 20
63.167671146224336
 11
-145.57000000000011
 21
62.902460573114269
  0
LINE
  8
_1-8_小物
  6
CONTINUOUS
 62
    4
 10
-145.57000000000011
 20
63.667671146224336
 11
-145.57000000000011
 21
63.402460573114269
  0
LINE
  8
_1-8_小物
  6
CONTINUOUS
 62
    4
 10
-145.58333333333343
 20
62.066666666666663
 11
-145.58333333333343
 21
60.285591044198554
  0
LINE
  8
_1-8_小物
  6
CONTINUOUS
 62
    4
 10
-146.1666666666668
 20
59.948803387171267
 11
-145.58333333333343
 21
60.285591044198554
  0
LINE
  8
_1-8_小物
  6
CONTINUOUS
 62
    4
 10
-146.1666666666668
 20
59.948803387171267
 11
-145.79323022904003
 21
62.066666666666663
  0
LINE
  8
_1-8_小物
  6
CENTER2
 62
    4
 10
-146.1666666666668
 20
65.833640386960099
 11
-146.1666666666668
 21
59.084349393779831
  0
LINE
  8
_1-8_小物
  6
CONTINUOUS
 62
    4
 10
-147.83333333333343
 20
65.166666666666657
 11
-147.83333333333343
 21
65.099999999999966
  0
LINE
  8
_1-8_小物
  6
CONTINUOUS
 62
    4
 10
-144.5000000000002
 20
65.099999999999966
 11
-147.83333333333343
 21
65.099999999999966
  0
LINE
  8
_1-8_小物
  6
CONTINUOUS
 62
    4
 10
-144.5000000000002
 20
65.166666666666657
 11
-144.5000000000002
 21
65.099999999999966
  0
LINE
  8
_1-8_小物
  6
CONTINUOUS
 62
    4
 10
-147.83333333333343
 20
65.099999999999966
 11
-146.80000000000001
 21
64.066666666666663
  0
LINE
  8
_1-8_小物
  6
CONTINUOUS
 62
    4
 10
-145.53333333333359
 20
64.066666666666663
 11
-146.80000000000001
 21
64.066666666666663
  0
LINE
  8
_1-8_小物
  6
CONTINUOUS
 62
    4
 10
-144.5000000000002
 20
65.099999999999966
 11
-145.53333333333359
 21
64.066666666666663
  0
ENDBLK
  0
ENDSEC
  0
SECTION
  2
ENTITIES
  0
LINE
  8
_0-0_図面枠
  6
CONTINUOUS
 62
    6
 10
410.00000000000006
 20
287
 11
10
 21
287.00000000000006
  0
LINE
  8
_0-0_図面枠
  6
CONTINUOUS
 62
    6
 10
410
 20
9.9999999999998863
 11
410.00000000000006
 21
287
  0
LINE
  8
_0-0_図面枠
  6
CONTINUOUS
 62
    6
 10
9.9999999999999147
 20
10
 11
410
 21
9.9999999999998863
  0
LINE
  8
_0-0_図面枠
  6
CONTINUOUS
 62
    6
 10
10
 20
287.00000000000006
 11
9.9999999999999147
 21
10
  0
TEXT
  8
_0-0_図面枠
 62
    4
 10
20
 20
280
 40
3.2000000000000002
 41
1
 50
0
  1
（ステンレス１００タイプ）
  0
LINE
  8
_0-0_図面枠
  6
CONTINUOUS
 62
    2
 10
165.00000000000003
 20
246.99999999999994
 11
210.00000000000003
 21
246.99999999999994
  0
LINE
  8
_0-0_図面枠
  6
CONTINUOUS
 62
    2
 10
165.00000000000003
 20
246.99999999999994
 11
165.00000000000003
 21
287
  0
LINE
  8
_0-0_図面枠
  6
CONTINUOUS
 62
    4
 10
203.41099396657057
 20
266.02749333152161
 11
203.3763215892879
 21
266.007475225164
  0
LINE
  8
_0-0_図面枠
  6
CONTINUOUS
 62
    2
 10
187.38952399655849
 20
259.77749333152161
 11
204.71003207224726
 21
269.77749333152161
  0
LINE
  8
_0-0_図面枠
  6
CONTINUOUS
 62
    2
 10
187.38952399655849
 20
259.77749333152161
 11
187.38952399655849
 21
256.77749333152161
  0
LINE
  8
_0-0_図面枠
  6
CONTINUOUS
 62
    2
 10
193.88471452494178
 20
260.52749333152161
 11
193.88471452494178
 21
263.52749333152161
  0
LINE
  8
_0-0_図面枠
  6
CONTINUOUS
 62
    2
 10
187.38952399655849
 20
256.77749333152161
 11
193.88471452494178
 21
260.52749333152161
  0
LINE
  8
_0-0_図面枠
  6
CONTINUOUS
 62
    2
 10
204.71003207224726
 20
269.77749333152161
 11
204.71003207224726
 21
266.77749333152161
  0
LINE
  8
_0-0_図面枠
  6
CONTINUOUS
 62
    2
 10
204.71003207224726
 20
266.77749333152161
 11
198.21484154386397
 21
263.02749333152161
  0
LINE
  8
_0-0_図面枠
  6
CONTINUOUS
 62
    2
 10
198.21484154386397
 20
263.02749333152161
 11
198.21484154386397
 21
266.02749333152161
  0
LINE
  8
_0-0_図面枠
  6
CONTINUOUS
 62
    2
 10
198.21484154386397
 20
263.02749333152161
 11
195.61676533251065
 21
264.52749333152161
  0
LINE
  8
_0-0_図面枠
  6
CONTINUOUS
 62
    2
 10
187.38952399655849
 20
256.77749333152161
 11
178.72926995871413
 21
261.77749333152161
  0
INSERT
  2
-000-
  8
_0-0_図面枠
 10
210
 20
148.5
 41
1
 42
1
 50
0
  0
LINE
  8
_0-0_図面枠
  6
CONTINUOUS
 62
    3
 10
193.88471452494178
 20
260.52749333152161
 11
185.22446048709736
 21
255.52749333152161
  0
LINE
  8
_0-0_図面枠
  6
CONTINUOUS
 62
    3
 10
193.88471452494178
 20
260.52749333152161
 11
193.88471452494178
 21
250.52749333152161
  0
LINE
  8
_0-0_図面枠
  6
CONTINUOUS
 62
    3
 10
198.21484154386397
 20
263.02749333152161
 11
198.21484154386397
 21
253.02749333152161
  0
LINE
  8
_0-0_図面枠
  6
CONTINUOUS
 62
    3
 10
198.21484154386397
 20
263.02749333152161
 11
206.87509558170834
 21
268.02749333152161
  0
TEXT
  8
_0-0_図面枠
 62
    4
 10
168.58712759789969
 20
279.54737717230722
 40
2.5
 41
1
 50
0
  1
-25
  0
TEXT
  8
_0-0_図面枠
 62
    4
 10
191.10298128817081
 20
279.54737717230716
 40
2.5
 41
1
 50
0
  1
+25
  0
TEXT
  8
_0-0_図面枠
 62
    4
 10
191.10298128817078
 20
266.54784298319493
 40
2.5
 41
1
 50
0
  1
+25
  0
TEXT
  8
_0-0_図面枠
 62
    4
 10
168.5867241920304
 20
266.54854175273658
 40
2.5
 41
1
 50
0
  1
-25
  0
LINE
  8
_0-0_図面枠
  6
CONTINUOUS
 62
    2
 10
210.00000000000003
 20
246.99999999999994
 11
210.00000000000003
 21
287
  0
LINE
  8
_0-0_図面枠
  6
CONTINUOUS
 62
    4
 10
182.14999999999998
 20
48.533333333333303
 11
40
 21
48.533333333333303
  0
LINE
  8
_0-0_図面枠
  6
CONTINUOUS
 62
    4
 10
182.14999999999998
 20
60.533333333333303
 11
40
 21
60.533333333333303
  0
LINE
  8
_0-0_図面枠
  6
CONTINUOUS
 62
    4
 10
182.14999999999998
 20
54.533333333333303
 11
40
 21
54.533333333333303
  0
LINE
  8
_0-0_図面枠
  6
CONTINUOUS
 62
    4
 10
182.14999999999998
 20
66.533333333333303
 11
40
 21
66.533333333333303
  0
LINE
  8
_0-0_図面枠
  6
CONTINUOUS
 62
    4
 10
182.14999999999998
 20
102.53333333333336
 11
40
 21
102.53333333333336
  0
LINE
  8
_0-0_図面枠
  6
CONTINUOUS
 62
    4
 10
182.14999999999998
 20
96.53333333333336
 11
40
 21
96.53333333333336
  0
LINE
  8
_0-0_図面枠
  6
CONTINUOUS
 62
    4
 10
182.14999999999998
 20
90.53333333333336
 11
40
 21
90.53333333333336
  0
LINE
  8
_0-0_図面枠
  6
CONTINUOUS
 62
    4
 10
182.14999999999998
 20
84.53333333333336
 11
40
 21
84.53333333333336
  0
LINE
  8
_0-0_図面枠
  6
CONTINUOUS
 62
    4
 10
182.14999999999998
 20
78.53333333333336
 11
40
 21
78.53333333333336
  0
LINE
  8
_0-0_図面枠
  6
CONTINUOUS
 62
    4
 10
182.14999999999998
 20
72.533333333333303
 11
40
 21
72.533333333333303
  0
LINE
  8
_0-0_図面枠
  6
CONTINUOUS
 62
    4
 10
182.14999999999998
 20
113.33333333333331
 11
40
 21
113.33333333333331
  0
LINE
  8
_0-0_図面枠
  6
CONTINUOUS
 62
    4
 10
182.14999999999998
 20
42.533333333333303
 11
40
 21
42.533333333333303
  0
LINE
  8
_0-0_図面枠
  6
CONTINUOUS
 62
    4
 10
182.14999999999998
 20
36.533333333333303
 11
40
 21
36.533333333333303
  0
LINE
  8
_0-0_図面枠
  6
CONTINUOUS
 62
    4
 10
182.14999999999998
 20
30.533333333333303
 11
40
 21
30.533333333333303
  0
LINE
  8
_0-0_図面枠
  6
CONTINUOUS
 62
    4
 10
182.14999999999998
 20
24.533333333333303
 11
40
 21
24.533333333333303
  0
TEXT
  8
_0-0_図面枠
 62
    4
 10
165.55126400000003
 20
108.53334383333328
 40
3.2000000000000002
 41
1
 50
0
  1
使用
  0
TEXT
  8
_0-0_図面枠
 62
    4
 10
150.50638249999994
 20
108.53334383333328
 40
3.2000000000000002
 41
1
 50
0
  1
定　尺
  0
TEXT
  8
_0-0_図面枠
 62
    4
 10
148.34354749999997
 20
103.73333733333328
 40
3.2000000000000002
 41
1
 50
0
  1
（ｍｍ）
  0
TEXT
  8
_0-0_図面枠
 62
    4
 10
165.55126400000003
 20
103.73333733333328
 40
3.2000000000000002
 41
1
 50
0
  1
数量
  0
TEXT
  8
_0-0_図面枠
 62
    4
 10
40.497067999999985
 20
97.760882833333255
 40
3.2000000000000002
 41
1
 50
0
  1
　１
  0
TEXT
  8
_0-0_図面枠
 62
    4
 10
43.586831999999987
 20
91.760882833333255
 40
3.2000000000000002
 41
1
 50
0
  1
２
  0
TEXT
  8
_0-0_図面枠
 62
    4
 10
43.586831999999987
 20
85.760882833333255
 40
3.2000000000000002
 41
1
 50
0
  1
３
  0
TEXT
  8
_0-0_図面枠
 62
    4
 10
43.586831999999987
 20
79.760882833333255
 40
3.2000000000000002
 41
1
 50
0
  1
４
  0
TEXT
  8
_0-0_図面枠
 62
    4
 10
43.586831999999987
 20
73.760894333333283
 40
3.2000000000000002
 41
1
 50
0
  1
５
  0
TEXT
  8
_0-0_図面枠
 62
    4
 10
43.586831999999987
 20
67.760894333333283
 40
3.2000000000000002
 41
1
 50
0
  1
６
  0
TEXT
  8
_0-0_図面枠
 62
    4
 10
43.586831999999987
 20
61.760888833333297
 40
3.2000000000000002
 41
1
 50
0
  1
７
  0
TEXT
  8
_0-0_図面枠
 62
    4
 10
43.586831999999987
 20
55.760888833333297
 40
3.2000000000000002
 41
1
 50
0
  1
８
  0
LINE
  8
_0-0_図面枠
  6
CONTINUOUS
 62
    4
 10
182.14999999999998
 20
18.533333333333303
 11
40
 21
18.533333333333303
  0
LINE
  8
_0-0_図面枠
  6
CONTINUOUS
 62
    4
 10
40
 20
18.533333333333303
 11
40
 21
113.33333333333331
  0
LINE
  8
_0-0_図面枠
  6
CONTINUOUS
 62
    4
 10
47.200000000000017
 20
18.533333333333303
 11
47.200000000000017
 21
113.33333333333331
  0
LINE
  8
_0-0_図面枠
  6
CONTINUOUS
 62
    4
 10
182.14999999999998
 20
18.533333333333303
 11
182.14999999999998
 21
113.33333333333331
  0
LINE
  8
_0-0_図面枠
  6
CONTINUOUS
 62
    4
 10
162.95000000000002
 20
18.533333333333303
 11
162.95000000000002
 21
113.33333333333331
  0
LINE
  8
_0-0_図面枠
  6
CONTINUOUS
 62
    4
 10
147.95000000000002
 20
18.533333333333303
 11
147.95000000000002
 21
113.33333333333331
  0
LINE
  8
_0-0_図面枠
  6
CONTINUOUS
 62
    4
 10
174.95000000000005
 20
18.533333333333303
 11
174.95000000000005
 21
113.33333333333331
  0
LINE
  8
_0-0_図面枠
  6
CONTINUOUS
 62
    4
 10
146.95000000000002
 20
18.533333333333303
 11
146.95000000000002
 21
113.33333333333331
  0
TEXT
  8
_0-0_図面枠
 62
    4
 10
69.300000000000011
 20
106.33333333333334
 40
3.2000000000000002
 41
1
 50
0
  1
部材名称
  0
TEXT
  8
_0-0_図面枠
 62
    4
 10
178.54999999999998
 20
111.13333333333334
 40
3.2000000000000002
 41
1
 50
0
  1
単位
  7
TATEGAKI
  0
LINE
  8
_0-0_図面枠
  6
CONTINUOUS
 62
    4
 10
100.86666666666669
 20
18.533333333333303
 11
100.86666666666669
 21
113.33333333333331
  0
TEXT
  8
_0-0_図面枠
 62
    4
 10
119.10833333333336
 20
106.33333333333333
 40
3.2000000000000002
 41
1
 50
0
  1
規　格
  0
TEXT
  8
_0-0_図面枠
 62
    4
 10
177.00512500000002
 20
43.733325833333311
 40
3.2000000000000002
 41
1
 50
0
  1
本
  0
TEXT
  8
_0-0_図面枠
 62
    4
 10
43.586831999999987
 20
49.760888833333297
 40
3.2000000000000002
 41
1
 50
0
  1
９
  0
TEXT
  8
_0-0_図面枠
 62
    4
 10
40.497050499999972
 20
43.760888833333283
 40
3.2000000000000002
 41
1
 50
0
  1
１０
  0
TEXT
  8
_0-0_図面枠
 62
    4
 10
48.400007499999987
 20
67.733337333333282
 40
3.2000000000000002
 41
1
 50
0
  1
止水補助板
  0
TEXT
  8
_0-0_図面枠
 62
    4
 10
177.00512500000011
 20
61.733325833333367
 40
3.2000000000000002
 41
1
 50
0
  1
本
  0
TEXT
  8
_0-0_図面枠
 62
    4
 10
102.06667966666683
 20
61.733342833333381
 40
3.2000000000000002
 41
1
 50
0
  1
皿５×１６
  0
TEXT
  8
_0-0_図面枠
 62
    4
 10
166.27045749999999
 20
61.783341833333338
 40
3.2000000000000002
 41
1
 50
0
  1
２２
  0
TEXT
  8
_0-0_図面枠
 62
    4
 10
48.400007499999987
 20
55.733342833333325
 40
3.2000000000000002
 41
1
 50
0
  1
ステンタッピンねじ
  0
TEXT
  8
_0-0_図面枠
 62
    4
 10
48.400007499999987
 20
49.733342833333325
 40
3.2000000000000002
 41
1
 50
0
  1
ステンワッシャー
  0
TEXT
  8
_0-0_図面枠
 62
    4
 10
177.00512500000002
 20
49.733342833333325
 40
3.2000000000000002
 41
1
 50
0
  1
枚
  0
TEXT
  8
_0-0_図面枠
 62
    4
 10
177.00512500000002
 20
55.733325833333311
 40
3.2000000000000002
 41
1
 50
0
  1
本
  0
TEXT
  8
_0-0_図面枠
 62
    4
 10
102.06669116666673
 20
55.733342833333325
 40
3.2000000000000002
 41
1
 50
0
  1
なべ５×５０
  0
TEXT
  8
_0-0_図面枠
 62
    4
 10
102.0666336666667
 20
49.73333733333331
 40
3.2000000000000002
 41
1
 50
0
  1
１．５×１８×５．５穴
  0
TEXT
  8
_0-0_図面枠
 62
    4
 10
48.4000075000001
 20
61.733342833333381
 40
3.2000000000000002
 41
1
 50
0
  1
ステンドリリングねじ
  0
TEXT
  8
_0-0_図面枠
 62
    4
 10
102.06669116666674
 20
67.733337333333338
 40
3.2000000000000002
 41
1
 50
0
  1
ＦＳ４００
  0
TEXT
  8
_0-0_図面枠
 62
    4
 10
48.400007499999987
 20
79.733337333333282
 40
3.2000000000000002
 41
1
 50
0
  1
ＴＴＧフレーム(Ａ)
  0
TEXT
  8
_0-0_図面枠
 62
    4
 10
149.270477
 20
85.733337333333282
 40
3.2000000000000002
 41
1
 50
0
  1
３０００
  0
TEXT
  8
_0-0_図面枠
 62
    4
 10
169.36022149999994
 20
85.783336333333239
 40
3.2000000000000002
 41
1
 50
0
  1
１
  0
TEXT
  8
_0-0_図面枠
 62
    4
 10
177.00512500000002
 20
85.733337333333282
 40
3.2000000000000002
 41
1
 50
0
  1
本
  0
TEXT
  8
_0-0_図面枠
 62
    4
 10
149.270477
 20
91.733337333333282
 40
3.2000000000000002
 41
1
 50
0
  1
３０００
  0
TEXT
  8
_0-0_図面枠
 62
    4
 10
169.36022149999994
 20
91.783336333333239
 40
3.2000000000000002
 41
1
 50
0
  1
１
  0
TEXT
  8
_0-0_図面枠
 62
    4
 10
177.00512500000002
 20
91.733337333333282
 40
3.2000000000000002
 41
1
 50
0
  1
本
  0
TEXT
  8
_0-0_図面枠
 62
    4
 10
149.270477
 20
97.733337333333282
 40
3.2000000000000002
 41
1
 50
0
  1
３０００
  0
TEXT
  8
_0-0_図面枠
 62
    4
 10
169.36022149999994
 20
97.783336333333239
 40
3.2000000000000002
 41
1
 50
0
  1
１
  0
TEXT
  8
_0-0_図面枠
 62
    4
 10
177.00512500000002
 20
97.733337333333282
 40
3.2000000000000002
 41
1
 50
0
  1
本
  0
TEXT
  8
_0-0_図面枠
 62
    4
 10
149.270477
 20
79.733337333333282
 40
3.2000000000000002
 41
1
 50
0
  1
３０００
  0
TEXT
  8
_0-0_図面枠
 62
    4
 10
169.36022149999994
 20
79.783336333333239
 40
3.2000000000000002
 41
1
 50
0
  1
１
  0
TEXT
  8
_0-0_図面枠
 62
    4
 10
177.00512500000002
 20
79.733337333333282
 40
3.2000000000000002
 41
1
 50
0
  1
本
  0
TEXT
  8
_0-0_図面枠
 62
    4
 10
149.270477
 20
73.733337333333225
 40
3.2000000000000002
 41
1
 50
0
  1
３０００
  0
TEXT
  8
_0-0_図面枠
 62
    4
 10
169.36022149999994
 20
73.783336333333182
 40
3.2000000000000002
 41
1
 50
0
  1
１
  0
TEXT
  8
_0-0_図面枠
 62
    4
 10
177.00512500000002
 20
73.733337333333225
 40
3.2000000000000002
 41
1
 50
0
  1
本
  0
TEXT
  8
_0-0_図面枠
 62
    4
 10
166.27045749999999
 20
55.783341833333282
 40
3.2000000000000002
 41
1
 50
0
  1
１８
  0
TEXT
  8
_0-0_図面枠
 62
    4
 10
166.27045749999999
 20
49.783341833333282
 40
3.2000000000000002
 41
1
 50
0
  1
１８
  0
TEXT
  8
_0-0_図面枠
 62
    4
 10
166.27045749999999
 20
43.783341833333282
 40
3.2000000000000002
 41
1
 50
0
  1
１８
  0
TEXT
  8
_0-0_図面枠
 62
    4
 10
48.400007499999958
 20
73.733337333333225
 40
3.2000000000000002
 41
1
 50
0
  1
ＴＣＧフレーム(Ｂ)
  0
TEXT
  8
_0-0_図面枠
 62
    4
 10
149.270477
 20
31.733348333333296
 40
3.2000000000000002
 41
1
 50
0
  1
６０００
  0
TEXT
  8
_0-0_図面枠
 62
    4
 10
169.36022149999994
 20
31.783336333333281
 40
3.2000000000000002
 41
1
 50
0
  1
１
  0
TEXT
  8
_0-0_図面枠
 62
    4
 10
177.00512500000002
 20
31.73334283333331
 40
3.2000000000000002
 41
1
 50
0
  1
巻
  0
TEXT
  8
_0-0_図面枠
 62
    4
 10
48.400007499999987
 20
31.73334283333331
 40
3.2000000000000002
 41
1
 50
0
  1
ブチルテープ
  0
TEXT
  8
_0-0_図面枠
 62
    4
 10
102.06669116666673
 20
31.73334283333331
 40
3.2000000000000002
 41
1
 50
0
  1
ｔ１．０×ｗ３０
  0
TEXT
  8
_0-0_図面枠
 62
    4
 10
43.586831999999987
 20
31.760894333333269
 40
3.2000000000000002
 41
1
 50
0
  1
※
  0
TEXT
  8
_0-0_図面枠
 62
    4
 10
40.497050499999972
 20
37.760888833333283
 40
3.2000000000000002
 41
1
 50
0
  1
１１
  0
TEXT
  8
_0-0_図面枠
 62
    4
 10
48.400007499999987
 20
37.733342833333325
 40
3.2000000000000002
 41
1
 50
0
  1
ユカホルダーキャップ
  0
TEXT
  8
_0-0_図面枠
 62
    4
 10
149.27047700000003
 20
37.733348333333311
 40
3.2000000000000002
 41
1
 50
0
  1
３０１０
  0
TEXT
  8
_0-0_図面枠
 62
    4
 10
169.36022149999997
 20
37.783336333333295
 40
3.2000000000000002
 41
1
 50
0
  1
２
  0
TEXT
  8
_0-0_図面枠
 62
    4
 10
177.00512500000002
 20
37.733325833333311
 40
3.2000000000000002
 41
1
 50
0
  1
本
  0
TEXT
  8
_0-0_図面枠
 62
    4
 10
102.06669116666673
 20
43.733342833333325
 40
3.2000000000000002
 41
1
 50
0
  1
φ８×４０
  0
TEXT
  8
_0-0_図面枠
 62
    4
 10
122.30833333333339
 20
97.933333333333366
 40
3.2000000000000002
 41
1
 50
0
  1
―
  0
TEXT
  8
_0-0_図面枠
 62
    4
 10
122.30833333333339
 20
91.933333333333366
 40
3.2000000000000002
 41
1
 50
0
  1
―
  0
TEXT
  8
_0-0_図面枠
 62
    4
 10
122.30833333333339
 20
85.933333333333366
 40
3.2000000000000002
 41
1
 50
0
  1
―
  0
TEXT
  8
_0-0_図面枠
 62
    4
 10
122.30833333333339
 20
79.933333333333366
 40
3.2000000000000002
 41
1
 50
0
  1
―
  0
TEXT
  8
_0-0_図面枠
 62
    4
 10
122.30833333333339
 20
73.933333333333366
 40
3.2000000000000002
 41
1
 50
0
  1
―
  0
TEXT
  8
_0-0_図面枠
 62
    4
 10
122.30833333333338
 20
37.933333333333294
 40
3.2000000000000002
 41
1
 50
0
  1
―
  0
TEXT
  8
_0-0_図面枠
 62
    4
 10
153.85000000000002
 20
61.93333333333328
 40
3.2000000000000002
 41
1
 50
0
  1
―
  0
TEXT
  8
_0-0_図面枠
 62
    4
 10
153.85000000000002
 20
55.93333333333328
 40
3.2000000000000002
 41
1
 50
0
  1
―
  0
TEXT
  8
_0-0_図面枠
 62
    4
 10
153.85000000000002
 20
49.93333333333328
 40
3.2000000000000002
 41
1
 50
0
  1
―
  0
TEXT
  8
_0-0_図面枠
 62
    4
 10
153.85000000000002
 20
43.93333333333328
 40
3.2000000000000002
 41
1
 50
0
  1
―
  0
TEXT
  8
_0-0_図面枠
 62
    4
 10
169.36022149999994
 20
25.783336333333295
 40
3.2000000000000002
 41
1
 50
0
  1
１
  0
TEXT
  8
_0-0_図面枠
 62
    4
 10
43.586831999999987
 20
25.760894333333283
 40
3.2000000000000002
 41
1
 50
0
  1
※
  0
TEXT
  8
_0-0_図面枠
 62
    4
 10
177.00512500000002
 20
25.733342833333325
 40
3.2000000000000002
 41
1
 50
0
  1
個
  0
TEXT
  8
_0-0_図面枠
 62
    4
 10
153.85000000000002
 20
25.933333333333294
 40
3.2000000000000002
 41
1
 50
0
  1
―
  0
TEXT
  8
_0-0_図面枠
 62
    4
 10
102.06669116666673
 20
25.733342833333325
 40
3.2000000000000002
 41
1
 50
0
  1
ＳＵＳ　ｔ＝０．８
  0
TEXT
  8
_0-0_図面枠
 62
    4
 10
48.400007499999987
 20
97.733337333333282
 40
3.2000000000000002
 41
1
 50
0
  1
ＴＴＧサイドプレート(Ａ)Ｓ
  0
TEXT
  8
_0-0_図面枠
 62
    4
 10
48.400007499999987
 20
91.733337333333282
 40
3.2000000000000002
 41
1
 50
0
  1
ＴＴＧサイドプレート(Ｃ)Ｓ
  0
TEXT
  8
_0-0_図面枠
 62
    4
 10
149.270477
 20
67.73334283333331
 40
3.2000000000000002
 41
1
 50
0
  1
３１００
  0
TEXT
  8
_0-0_図面枠
 62
    4
 10
169.36022149999991
 20
67.783336333333239
 40
3.2000000000000002
 41
1
 50
0
  1
１
  0
TEXT
  8
_0-0_図面枠
 62
    4
 10
177.00512500000002
 20
67.733325833333311
 40
3.2000000000000002
 41
1
 50
0
  1
枚
  0
TEXT
  8
_0-0_図面枠
 62
    4
 10
48.400007499999987
 20
43.733337333333282
 40
3.2000000000000002
 41
1
 50
0
  1
アンカープラグ
  0
LINE
  8
_1-0_躯体
  6
CENTER2
 62
    4
 10
101.66666666666666
 20
213.83333333333337
 11
101.66666666666666
 21
180.33333333333331
  0
CIRCLE
  8
_1-f_寸法
  6
CONTINUOUS
 62
    4
 10
106.66666666666666
 20
217
 40
1.6666666666666665
  0
LINE
  8
_1-f_寸法
  6
CONTINUOUS
 62
    4
 10
105.83333333333333
 20
215.55662432702593
 11
103.85712641563396
 21
212.13373353930152
  0
LINE
  8
_1-3_止水補助板
  6
CONTINUOUS
 62
    4
 10
68.333333333333314
 20
203.66666666666666
 11
68.333333333333314
 21
204
  0
LINE
  8
_1-3_止水補助板
  6
CONTINUOUS
 62
    4
 10
85
 20
203.66666666666666
 11
68.333333333333314
 21
203.66666666666666
  0
LINE
  8
_1-3_止水補助板
  6
CONTINUOUS
 62
    4
 10
85.255775662659588
 20
204
 11
68.333333333333314
 21
204
  0
ARC
  8
_1-3_止水補助板
  6
CONTINUOUS
 62
    4
 10
101.66666666666697
 20
182.25058203026896
 40
10.555873196056922
 50
195.00000000000023
 51
344.99999999999977
  0
ARC
  8
_1-3_止水補助板
  6
CONTINUOUS
 62
    4
 10
101.66666666666697
 20
182.25058203026896
 40
10.22253986272359
 50
195.0000000000002
 51
344.99999999999983
  0
LINE
  8
_1-3_止水補助板
  6
CONTINUOUS
 62
    4
 10
118.0775576706734
 20
203.99999999999994
 11
111.54088193034079
 21
179.60479402447632
  0
LINE
  8
_1-3_止水補助板
  6
CONTINUOUS
 62
    4
 10
118.33333333333333
 20
203.66666666666666
 11
111.86285720577081
 21
179.51852100944217
  0
LINE
  8
_1-3_止水補助板
  6
CONTINUOUS
 62
    4
 10
85.000000000000455
 20
203.66666666666666
 11
91.470476127563131
 21
179.51852100944217
  0
LINE
  8
_1-3_止水補助板
  6
CONTINUOUS
 62
    4
 10
85.255775662660341
 20
203.99999999999994
 11
91.792451402993152
 21
179.60479402447632
  0
INSERT
  2
-001-_1_
  8
_1-4_フレ__ム
 10
210
 20
148.5
 41
1
 42
1
 50
0
  0
LINE
  8
_1-0_躯体
  6
CONTINUOUS
 62
    6
 10
56.666666666666657
 20
203.66666666666666
 11
85
 21
203.66666666666666
  0
LINE
  8
_1-0_躯体
  6
CONTINUOUS
 62
    4
 10
56.666666666666686
 20
203.66666666666666
 11
56.666666666666686
 21
202
  0
LINE
  8
_1-0_躯体
  6
CONTINUOUS
 62
    4
 10
85
 20
202
 11
56.666666666666686
 21
202
  0
INSERT
  2
-002-HATCHING
  8
_1-0_躯体
 10
210
 20
148.5
 41
1
 42
1
 50
0
  0
LINE
  8
_1-0_躯体
  6
CONTINUOUS
 62
    4
 10
60.249999999999829
 20
213.5
 11
53.333333333333314
 21
213.5
  0
LINE
  8
_1-0_躯体
  6
CENTER2
 62
    4
 10
73.333333333333314
 20
206.46390870031684
 11
73.333333333333314
 21
186.66666666666666
  0
INSERT
  2
-003-_2_
  8
_1-8_小物
 10
210
 20
148.5
 41
1
 42
1
 50
0
  0
INSERT
  2
-004-_3_
  8
_1-8_小物
 10
210
 20
148.5
 41
1
 42
1
 50
0
  0
INSERT
  2
-005-_4_
  8
_1-8_小物
 10
210
 20
148.5
 41
1
 42
1
 50
0
  0
LINE
  8
_1-f_寸法
  6
CONTINUOUS
 62
    4
 10
85
 20
188.66666666666666
 11
85
 21
182.06666666666666
  0
LINE
  8
_1-f_寸法
  6
CONTINUOUS
 62
    4
 10
73.333333333333314
 20
188.66666666666666
 11
73.333333333333314
 21
182.06666666666666
  0
POINT
  8
_1-f_寸法
 62
    4
 10
73.333333333333314
 20
183.66666666666666
  0
POINT
  8
_1-f_寸法
 62
    4
 10
85
 20
183.66666666666666
  0
LINE
  8
_1-f_寸法
  6
CONTINUOUS
 62
    4
 10
73.333333333333314
 20
183.66666666666666
 11
85
 21
183.66666666666666
  0
TEXT
  8
_1-f_寸法
 62
    4
 10
77.566666666666663
 20
183.66666666666666
 40
3.2000000000000002
 41
1
 50
0
  1
35
  0
CIRCLE
  8
_1-f_寸法
  6
CONTINUOUS
 62
    4
 10
90
 20
200.33333333333331
 40
1.6666666666666665
  0
LINE
  8
_1-f_寸法
  6
CONTINUOUS
 62
    4
 10
89.166666666666657
 20
198.88995766035924
 11
87.312829960377385
 21
195.6790182961301
  0
LINE
  8
_1-0_躯体
  6
CONTINUOUS
 62
    6
 10
85
 20
203.66666666666666
 11
85
 21
165.33333333333331
  0
LINE
  8
_1-f_寸法
  6
CONTINUOUS
 62
    4
 10
118.33333333333333
 20
163.66666666666666
 11
118.33333333333333
 21
157.06666666666666
  0
LINE
  8
_1-f_寸法
  6
CONTINUOUS
 62
    4
 10
85
 20
163.66666666666666
 11
85
 21
157.06666666666666
  0
POINT
  8
_1-f_寸法
 62
    4
 10
85
 20
158.66666666666666
  0
POINT
  8
_1-f_寸法
 62
    4
 10
118.33333333333333
 20
158.66666666666666
  0
LINE
  8
_1-f_寸法
  6
CONTINUOUS
 62
    4
 10
85
 20
158.66666666666666
 11
118.33333333333333
 21
158.66666666666666
  0
TEXT
  8
_1-f_寸法
 62
    4
 10
99.266666666666666
 20
158.66666666666666
 40
3.2000000000000002
 41
1
 50
0
  1
100
  0
LINE
  8
_1-f_寸法
  6
CONTINUOUS
 62
    4
 10
85.000000000000014
 20
215.33333333333331
 11
85.000000000000014
 21
221.93333333333331
  0
LINE
  8
_1-f_寸法
  6
CONTINUOUS
 62
    4
 10
60
 20
215.33333333333331
 11
60
 21
221.93333333333331
  0
POINT
  8
_1-f_寸法
 62
    4
 10
60
 20
220.33333333333331
  0
POINT
  8
_1-f_寸法
 62
    4
 10
85.000000000000014
 20
220.33333333333331
  0
LINE
  8
_1-f_寸法
  6
CONTINUOUS
 62
    4
 10
60
 20
220.33333333333331
 11
85.000000000000014
 21
220.33333333333331
  0
TEXT
  8
_1-f_寸法
 62
    4
 10
70.899999999999977
 20
220.33333333333331
 40
3.2000000000000002
 41
1
 50
0
  1
75
  0
LINE
  8
_1-f_寸法
  6
CONTINUOUS
 62
    4
 10
118.33333333333331
 20
215.33333333333331
 11
118.33333333333331
 21
221.93333333333331
  0
POINT
  8
_1-f_寸法
 62
    4
 10
118.33333333333331
 20
220.33333333333331
  0
LINE
  8
_1-f_寸法
  6
CONTINUOUS
 62
    4
 10
85.000000000000014
 20
220.33333333333331
 11
118.33333333333331
 21
220.33333333333331
  0
TEXT
  8
_1-f_寸法
 62
    4
 10
99.266666666666666
 20
220.33333333333331
 40
3.2000000000000002
 41
1
 50
0
  1
100
  0
LINE
  8
_1-3_止水補助板
  6
CONTINUOUS
 62
    4
 10
134.99999999999994
 20
203.66666666666282
 11
134.99999999999994
 21
203.99999999999616
  0
LINE
  8
_1-3_止水補助板
  6
CONTINUOUS
 62
    4
 10
118.33333333333333
 20
203.66666666666282
 11
134.99999999999994
 21
203.66666666666282
  0
LINE
  8
_1-3_止水補助板
  6
CONTINUOUS
 62
    4
 10
118.0775576706737
 20
203.99999999999616
 11
134.99999999999994
 21
203.99999999999616
  0
LINE
  8
_1-0_躯体
  6
CONTINUOUS
 62
    6
 10
118.33333333333333
 20
203.66666666666282
 11
118.33333333333333
 21
165.33333333332951
  0
CIRCLE
  8
_1-f_寸法
  6
CONTINUOUS
 62
    4
 10
143.33333333333343
 20
216.99999999999616
 40
1.6666666666666665
  0
LINE
  8
_1-f_寸法
  6
CONTINUOUS
 62
    4
 10
142.50000000000003
 20
215.55662432702209
 11
141.12015730143975
 21
213.16666666666282
  0
INSERT
  2
-006-_5_
  8
_1-8_小物
 10
210
 20
148.5
 41
1
 42
1
 50
0
  0
LINE
  8
_1-0_躯体
  6
CONTINUOUS
 62
    4
 10
165.00000000000011
 20
203.66666666666282
 11
165.00000000000011
 21
201.99999999999616
  0
LINE
  8
_1-0_躯体
  6
CONTINUOUS
 62
    4
 10
161.41666666666683
 20
213.49999999999616
 11
168.33333333333337
 21
213.49999999999616
  0
LINE
  8
_1-0_躯体
  6
CONTINUOUS
 62
    6
 10
118.33333333333333
 20
203.66666666666282
 11
165.00000000000011
 21
203.66666666666282
  0
LINE
  8
_1-0_躯体
  6
CONTINUOUS
 62
    4
 10
118.3333333333334
 20
201.99999999999616
 11
165.00000000000011
 21
201.99999999999616
  0
INSERT
  2
-007-HATCHING_1_
  8
_1-0_躯体
 10
210
 20
148.5
 41
1
 42
1
 50
0
  0
CIRCLE
  8
_1-f_寸法
  6
CONTINUOUS
 62
    4
 10
154.99999999999963
 20
216.26666666666296
 40
1.6666666666666665
  0
LINE
  8
_1-f_寸法
  6
CONTINUOUS
 62
    4
 10
155.99624547251818
 20
214.93052567999121
 11
157.83333333333312
 21
212.46666666666297
  0
INSERT
  2
-008-$QLE
  8
_1-f_寸法
 10
210
 20
148.5
 41
1
 42
1
 50
0
  0
CIRCLE
  8
_1-f_寸法
  6
CONTINUOUS
 62
    4
 10
123.33333333333333
 20
208.66666666666282
 40
1.6666666666666665
  0
LINE
  8
_1-f_寸法
  6
CONTINUOUS
 62
    4
 10
122.15482203135574
 20
207.48815536468521
 11
119.71448751890196
 21
205.04782085223144
  0
LINE
  8
_1-f_寸法
  6
CONTINUOUS
 62
    4
 10
170.00000000000011
 20
203.66666666666282
 11
176.60000000000008
 21
203.66666666666282
  0
LINE
  8
_1-f_寸法
  6
CONTINUOUS
 62
    4
 10
170.00000000000011
 20
213.66666666666282
 11
176.60000000000008
 21
213.66666666666282
  0
POINT
  8
_1-f_寸法
 62
    4
 10
175.00000000000011
 20
213.66666666666282
  0
POINT
  8
_1-f_寸法
 62
    4
 10
175.00000000000011
 20
203.66666666666282
  0
LINE
  8
_1-f_寸法
  6
CONTINUOUS
 62
    4
 10
175.00000000000011
 20
213.66666666666282
 11
175.00000000000011
 21
203.66666666666282
  0
TEXT
  8
_1-f_寸法
 62
    4
 10
175.00000000000011
 20
207.06666666666285
 40
3.2000000000000002
 41
1
 50
90
  1
30
  0
LINE
  8
_1-f_寸法
  6
CONTINUOUS
 62
    4
 10
170.00000000000011
 20
213.66666666666282
 11
176.60000000000008
 21
213.66666666666282
  0
LINE
  8
_1-f_寸法
  6
CONTINUOUS
 62
    4
 10
170.00000000000011
 20
203.66666666666282
 11
176.60000000000008
 21
203.66666666666282
  0
POINT
  8
_1-f_寸法
 62
    4
 10
175.00000000000011
 20
203.66666666666282
  0
POINT
  8
_1-f_寸法
 62
    4
 10
175.00000000000011
 20
213.66666666666282
  0
LINE
  8
_1-f_寸法
  6
CONTINUOUS
 62
    4
 10
175.00000000000011
 20
203.66666666666282
 11
175.00000000000011
 21
213.66666666666282
  0
TEXT
  8
_1-f_寸法
 62
    4
 10
175.00000000000011
 20
207.06666666666285
 40
3.2000000000000002
 41
1
 50
90
  1
30
  0
INSERT
  2
-009-_6_
  8
_1-8_小物
 10
210
 20
148.5
 41
1
 42
1
 50
0
  0
LINE
  8
_1-f_寸法
  6
CONTINUOUS
 62
    4
 10
161.6666666666666
 20
215.33333333333331
 11
161.6666666666666
 21
221.93333333333331
  0
LINE
  8
_1-f_寸法
  6
CONTINUOUS
 62
    4
 10
118.33333333333333
 20
215.33333333333331
 11
118.33333333333333
 21
221.93333333333331
  0
POINT
  8
_1-f_寸法
 62
    4
 10
118.33333333333333
 20
220.33333333333331
  0
POINT
  8
_1-f_寸法
 62
    4
 10
161.6666666666666
 20
220.33333333333331
  0
LINE
  8
_1-f_寸法
  6
CONTINUOUS
 62
    4
 10
118.33333333333333
 20
220.33333333333331
 11
161.6666666666666
 21
220.33333333333331
  0
TEXT
  8
_1-f_寸法
 62
    4
 10
137.59999999999994
 20
220.33333333333331
 40
3.2000000000000002
 41
1
 50
0
  1
130
  0
LINE
  8
_1-f_寸法
  6
CONTINUOUS
 62
    4
 10
161.66666666666666
 20
220.33333333333331
 11
161.66666666666666
 21
226.93333333333331
  0
LINE
  8
_1-f_寸法
  6
CONTINUOUS
 62
    4
 10
60
 20
220.33333333333331
 11
60
 21
226.93333333333331
  0
POINT
  8
_1-f_寸法
 62
    4
 10
60
 20
225.33333333333331
  0
POINT
  8
_1-f_寸法
 62
    4
 10
161.66666666666666
 20
225.33333333333331
  0
LINE
  8
_1-f_寸法
  6
CONTINUOUS
 62
    4
 10
60
 20
225.33333333333331
 11
161.66666666666666
 21
225.33333333333331
  0
TEXT
  8
_1-f_寸法
 62
    4
 10
108.43333333333334
 20
225.33333333333331
 40
3.2000000000000002
 41
1
 50
0
  1
305
  0
CIRCLE
  8
_1-f_寸法
  6
CONTINUOUS
 62
    4
 10
75
 20
217
 40
1.6666666666666665
  0
LINE
  8
_1-f_寸法
  6
CONTINUOUS
 62
    4
 10
74.1666666666666
 20
215.55662432702593
 11
72.786823968106319
 21
213.16666666666666
  0
CIRCLE
  8
_1-f_寸法
  6
CONTINUOUS
 62
    4
 10
88.333333333333329
 20
208.66666666666472
 40
1.6666666666666665
  0
LINE
  8
_1-f_寸法
  6
CONTINUOUS
 62
    4
 10
87.154822031355735
 20
207.48815536468709
 11
84.714487518901961
 21
205.04782085223331
  0
TEXT
  8
_1-f_寸法
 62
    4
 10
106.04166666666666
 20
215.75
 40
2.5
 41
1
 50
0
  1
3
  0
TEXT
  8
_1-f_寸法
 62
    4
 10
74.375
 20
215.75
 40
2.5
 41
1
 50
0
  1
1
  0
TEXT
  8
_1-f_寸法
 62
    4
 10
142.70833333333343
 20
215.74999999999616
 40
2.5
 41
1
 50
0
  1
2
  0
TEXT
  8
_1-f_寸法
 62
    4
 10
87.708333333333329
 20
207.41666666666472
 40
2.5
 41
1
 50
0
  1
4
  0
TEXT
  8
_1-f_寸法
 62
    4
 10
122.70833333333333
 20
207.41666666666282
 40
2.5
 41
1
 50
0
  1
5
  0
TEXT
  8
_1-f_寸法
 62
    4
 10
89.375
 20
199.08333333333331
 40
2.5
 41
1
 50
0
  1
6
  0
TEXT
  8
_1-f_寸法
 62
    4
 10
154.37499999999963
 20
215.01666666666296
 40
2.5
 41
1
 50
0
  1
7
  0
LINE
  8
_1-0_躯体
  6
CENTER2
 62
    4
 10
149.99999999999966
 20
206.79724203364634
 11
149.99999999999966
 21
186.99999999999616
  0
INSERT
  2
-010-_7_
  8
_1-8_小物
 10
210
 20
148.5
 41
1
 42
1
 50
0
  0
INSERT
  2
-011-_8_
  8
_1-8_小物
 10
210
 20
148.5
 41
1
 42
1
 50
0
  0
LINE
  8
_1-0_躯体
  6
CENTER2
 62
    4
 10
129.99999999999994
 20
206.79724203364634
 11
129.99999999999994
 21
186.99999999999616
  0
INSERT
  2
-012-_9_
  8
_1-8_小物
 10
210
 20
148.5
 41
1
 42
1
 50
0
  0
CIRCLE
  8
_1-f_寸法
  6
CONTINUOUS
 62
    4
 10
136.66666666666654
 20
190.33333333332951
 40
1.6666666666666665
  0
LINE
  8
_1-f_寸法
  6
CONTINUOUS
 62
    4
 10
135.83851260928216
 20
191.77968689833892
 11
130.74999999999972
 21
200.66666666666276
  0
INSERT
  2
-013-_10_
  8
_1-8_小物
 10
210
 20
148.5
 41
1
 42
1
 50
0
  0
CIRCLE
  8
_1-f_寸法
  6
CONTINUOUS
 62
    4
 10
123.33333333333329
 20
198.99999999999619
 40
1.6666666666666665
  0
LINE
  8
_1-f_寸法
  6
CONTINUOUS
 62
    4
 10
128.04166666666654
 20
205.41666666666288
 11
124.31931767455291
 21
200.34373087210093
  0
CIRCLE
  8
_1-f_寸法
  6
CONTINUOUS
 62
    4
 10
134.99999999999994
 20
198.66666666666282
 40
1.6666666666666665
  0
LINE
  8
_1-f_寸法
  6
CONTINUOUS
 62
    4
 10
134.07819994707262
 20
200.0552135474706
 11
129.99999999999994
 21
206.19838071027959
  0
TEXT
  8
_1-f_寸法
 62
    4
 10
134.37499999999994
 20
197.41666666666282
 40
2.5
 41
1
 50
0
  1
8
  0
TEXT
  8
_1-f_寸法
 62
    4
 10
122.70833333333329
 20
197.74999999999619
 40
2.5
 41
1
 50
0
  1
9
  0
TEXT
  8
_1-f_寸法
 62
    4
 10
135.41666666666654
 20
189.08333333332951
 40
2.5
 41
1
 50
0
  1
10
  0
LINE
  8
_1-f_寸法
  6
CONTINUOUS
 62
    4
 10
129.99999999999994
 20
188.66666666666282
 11
129.99999999999994
 21
182.06666666666285
  0
LINE
  8
_1-f_寸法
  6
CONTINUOUS
 62
    4
 10
118.33333333333344
 20
188.66666666666282
 11
118.33333333333344
 21
182.06666666666285
  0
POINT
  8
_1-f_寸法
 62
    4
 10
118.33333333333344
 20
183.66666666666282
  0
POINT
  8
_1-f_寸法
 62
    4
 10
129.99999999999994
 20
183.66666666666282
  0
LINE
  8
_1-f_寸法
  6
CONTINUOUS
 62
    4
 10
118.33333333333344
 20
183.66666666666282
 11
129.99999999999994
 21
183.66666666666282
  0
TEXT
  8
_1-f_寸法
 62
    4
 10
122.56666666666669
 20
183.66666666666282
 40
3.2000000000000002
 41
1
 50
0
  1
35
  0
LINE
  8
_1-f_寸法
  6
CONTINUOUS
 62
    4
 10
149.99999999999966
 20
188.66666666666282
 11
149.99999999999966
 21
182.06666666666285
  0
POINT
  8
_1-f_寸法
 62
    4
 10
149.99999999999966
 20
183.66666666666282
  0
LINE
  8
_1-f_寸法
  6
CONTINUOUS
 62
    4
 10
129.99999999999994
 20
183.66666666666282
 11
149.99999999999966
 21
183.66666666666282
  0
TEXT
  8
_1-f_寸法
 62
    4
 10
138.39999999999981
 20
183.66666666666282
 40
3.2000000000000002
 41
1
 50
0
  1
60
  0
CIRCLE
  8
_1-f_寸法
  6
CONTINUOUS
 62
    4
 10
113.33333283333334
 20
206.99999999999616
 40
1.6666666666666665
  0
TEXT
  8
_1-f_寸法
 62
    4
 10
112.08333283333334
 20
205.74999999999616
 40
2.5
 41
1
 50
0
  1
11
  0
LINE
  8
_1-f_寸法
  6
CONTINUOUS
 62
    4
 10
118.08333283333316
 20
209.7666663333296
 11
114.77351390753245
 21
207.83884220881527
  0
INSERT
  2
-014-_11_
  8
_1-4_フレ__ム
 10
210
 20
148.5
 41
1
 42
1
 50
0
  0
INSERT
  2
-015-_12_
  8
_1-7_カバ__
 10
210
 20
148.5
 41
1
 42
1
 50
0
  0
INSERT
  2
-016-_13_
  8
_1-9_センタ__プレ__ト
 10
210
 20
148.5
 41
1
 42
1
 50
0
  0
INSERT
  2
-017-_14_
  8
_1-7_カバ__
 10
210
 20
148.5
 41
1
 42
1
 50
0
  0
INSERT
  2
-018-_15_
  8
_1-8_小物
 10
210
 20
148.5
 41
1
 42
1
 50
0
  0
TEXT
  8
_0-0_図面枠
 62
    4
 10
48.400007499999987
 20
85.733337333333282
 40
3.2000000000000002
 41
1
 50
0
  1
ＴＴＧセンタープレート２(Ｂ)Ｓ
  0
TEXT
  8
_0-0_図面枠
 62
    4
 10
30
 20
270
 40
3.2000000000000002
 41
1
 50
0
  1
◇床＋床（１００ＴＴＧ２－Ｓ）　Ｓ＝１／３
  0
LINE
  8
_0-0_図面枠
  6
CONTINUOUS
 62
    4
 10
187.38952399655849
 20
259.77749333152161
 11
178.72926995871413
 21
264.77749333152161
  0
LINE
  8
_0-0_図面枠
  6
CONTINUOUS
 62
    4
 10
193.88471452494178
 20
263.52749333152161
 11
185.22446048709742
 21
268.52749333152161
  0
LINE
  8
_0-0_図面枠
  6
CONTINUOUS
 62
    4
 10
192.46489856474321
 20
269.347224458342
 11
189.5545875060196
 21
271.02749333152161
  0
LINE
  8
_0-0_図面枠
  6
CONTINUOUS
 62
    4
 10
198.21484154386397
 20
266.02749333152161
 11
195.94825785628657
 21
267.33610603368527
  0
LINE
  8
_0-0_図面枠
  6
CONTINUOUS
 62
    4
 10
204.71003207224726
 20
269.77749333152161
 11
196.04977803440292
 21
274.77749333152161
  0
LINE
  8
_0-0_図面枠
  6
CONTINUOUS
 62
    4
 10
204.71003207224726
 20
266.77749333152161
 11
202.11195586089394
 21
268.27749333152161
  0
LINE
  8
_0-0_図面枠
  6
CONTINUOUS
 62
    4
 10
193.88471452494178
 20
260.52749333152161
 11
191.28663831358847
 21
262.02749333152161
  0
TEXT
  8
_0-0_図面枠
 62
    4
 10
47.200000000000017
 20
27.533333333333317
 40
2.5
 41
1
 50
0
  1
 センタープレートジョイントプレート
  0
TEXT
  8
_0-0_図面枠
 62
    4
 10
47.200000000000017
 20
24.533333333333317
 40
2.5
 41
1
 50
0
  1
（１００ＴＴＧ２ＪＰ-Ｓ）
  0
ENDSEC
  0
EOF
