  0
SECTION
  2
HEADER
  9
$ACADVER
  1
AC1015
  9
$DWGCODEPAGE
  3
ANSI_932
  9
$EXTMIN
 10
33.5
 20
27
  9
$EXTMAX
 10
857.5
 20
603
  9
$LIMMIN
 10
0
 20
0
  9
$LIMMAX
 10
891
 20
630
  9
$LTSCALE
 40
3
  9
$DIMSCALE
 40
3
  9
$DIMSTYLE
  2
M7DIMSTL
  9
$HANDSEED
  5
7FFFFFFF
  9
$MEASUREMENT
 70
     1
  0
ENDSEC
  0
SECTION
  2
CLASSES
  0
CLASS
  1
CSOFTARXCLASS
  2
CSoftArxClass
  3
CSRasterApi
 90
     0
280
     0
281
     0
  0
CLASS
  1
IMAGEDEF
  2
AcDbRasterImageDef
  3
ISM
 90
     0
280
     0
281
     0
  0
CLASS
  1
RASTERVARIABLES
  2
AcDbRasterVariables
  3
ISM
 90
     0
280
     0
281
     0
  0
CLASS
  1
IMAGE
  2
AcDbRasterImage
  3
ISM
 90
   127
280
     0
281
     0
  0
CLASS
  1
IMAGEDEF_REACTOR
  2
AcDbRasterImageDefReactor
  3
ISM
 90
     1
280
     0
281
     0
  0
CLASS
  1
HATCH
  2
AcDbHatch
  3
M7
 90
     0
280
     0
281
     1
  0
ENDSEC
  0
SECTION
  2
TABLES
  0
TABLE
  2
VPORT
  5
FF
100
AcDbSymbolTable
 70
     5
  0
VPORT
  5
100
100
AcDbSymbolTableRecord
100
AcDbViewportTableRecord
  2
*ACTIVE
 70
     0
 10
0
 20
0
 11
1
 21
1
 12
445.5
 22
315
 13
0
 23
0
 14
0
 24
0
 15
0
 25
0
 16
0
 26
0
 36
1
 17
0
 27
0
 37
0
 40
315
 41
1.414285714286
 42
50
 43
0
 44
0
 50
0
 51
0
 71
     0
 72
   100
 73
     1
 74
     3
 75
     0
 76
     0
 77
     0
 78
     0
  0
ENDTAB
  0
TABLE
  2
LTYPE
  5
101
100
AcDbSymbolTable
 70
     1
  0
LTYPE
  5
102
100
AcDbSymbolTableRecord
100
AcDbLinetypeTableRecord
  2
BYBLOCK
 70
     0
  3

 72
    65
 73
     0
 40
0
  0
LTYPE
  5
103
100
AcDbSymbolTableRecord
100
AcDbLinetypeTableRecord
  2
BYLAYER
 70
     0
  3

 72
    65
 73
     0
 40
0
  0
LTYPE
  5
104
100
AcDbSymbolTableRecord
100
AcDbLinetypeTableRecord
  2
CONTINUOUS
 70
     0
  3
Solid line
 72
    65
 73
     0
 40
0
  0
LTYPE
  5
105
100
AcDbSymbolTableRecord
100
AcDbLinetypeTableRecord
  2
DOT
 70
     0
  3
...............................
 72
    65
 73
     2
 40
2
 49
1
 74
     0
 49
-1
 74
     0
  0
LTYPE
  5
106
100
AcDbSymbolTableRecord
100
AcDbLinetypeTableRecord
  2
DASHED
 70
     0
  3
- - - - - - - - - - - - - - - -
 72
    65
 73
     2
 40
4
 49
2
 74
     0
 49
-2
 74
     0
  0
LTYPE
  5
107
100
AcDbSymbolTableRecord
100
AcDbLinetypeTableRecord
  2
DASHED2
 70
     0
  3
-- -- -- -- -- -- -- -- -- -- -
 72
    65
 73
     2
 40
8
 49
5
 74
     0
 49
-3
 74
     0
  0
LTYPE
  5
108
100
AcDbSymbolTableRecord
100
AcDbLinetypeTableRecord
  2
CENTER
 70
     0
  3
--------- - --------- - -------
 72
    65
 73
     4
 40
23
 49
20
 74
     0
 49
-1
 74
     0
 49
1
 74
     0
 49
-1
 74
     0
  0
LTYPE
  5
109
100
AcDbSymbolTableRecord
100
AcDbLinetypeTableRecord
  2
CENTERX2
 70
     0
  3
-------------- - --------------
 72
    65
 73
     4
 40
43
 49
40
 74
     0
 49
-1
 74
     0
 49
1
 74
     0
 49
-1
 74
     0
  0
LTYPE
  5
10A
100
AcDbSymbolTableRecord
100
AcDbLinetypeTableRecord
  2
CENTER2
 70
     0
  3
------ - ----- - ------ - -----
 72
    65
 73
     4
 40
13
 49
10
 74
     0
 49
-1
 74
     0
 49
1
 74
     0
 49
-1
 74
     0
  0
LTYPE
  5
10B
100
AcDbSymbolTableRecord
100
AcDbLinetypeTableRecord
  2
PHANTOM
 70
     0
  3
-------- - - ------- - - ------
 72
    65
 73
     6
 40
25
 49
20
 74
     0
 49
-1
 74
     0
 49
1
 74
     0
 49
-1
 74
     0
 49
1
 74
     0
 49
-1
 74
     0
  0
LTYPE
  5
10C
100
AcDbSymbolTableRecord
100
AcDbLinetypeTableRecord
  2
PHANTOMX2
 70
     0
  3
------------- - - -------------
 72
    65
 73
     6
 40
45
 49
40
 74
     0
 49
-1
 74
     0
 49
1
 74
     0
 49
-1
 74
     0
 49
1
 74
     0
 49
-1
 74
     0
  0
LTYPE
  5
10D
100
AcDbSymbolTableRecord
100
AcDbLinetypeTableRecord
  2
PHANTOM2
 70
     0
  3
---- - - ---- - - ---- - - ----
 72
    65
 73
     6
 40
15
 49
10
 74
     0
 49
-1
 74
     0
 49
1
 74
     0
 49
-1
 74
     0
 49
1
 74
     0
 49
-1
 74
     0
  0
LTYPE
  5
10E
100
AcDbSymbolTableRecord
100
AcDbLinetypeTableRecord
  2
ACAD_ISO06W100
 70
     0
  3
------------ - - - ------------
 72
    65
 73
     8
 40
47
 49
40
 74
     0
 49
-1
 74
     0
 49
1
 74
     0
 49
-1
 74
     0
 49
1
 74
     0
 49
-1
 74
     0
 49
1
 74
     0
 49
-1
 74
     0
  0
LTYPE
  5
10F
100
AcDbSymbolTableRecord
100
AcDbLinetypeTableRecord
  2
ACAD_ISO14W100
 70
     0
  3
---- - - - -------- - - - -----
 72
    65
 73
     8
 40
27
 49
20
 74
     0
 49
-1
 74
     0
 49
1
 74
     0
 49
-1
 74
     0
 49
1
 74
     0
 49
-1
 74
     0
 49
1
 74
     0
 49
-1
 74
     0
  0
LTYPE
  5
110
100
AcDbSymbolTableRecord
100
AcDbLinetypeTableRecord
  2
ACAD_ISO11W100
 70
     0
  3
------- ------ - ------- ------
 72
    65
 73
     6
 40
44
 49
20
 74
     0
 49
-1
 74
     0
 49
20
 74
     0
 49
-1
 74
     0
 49
1
 74
     0
 49
-1
 74
     0
  0
LTYPE
  5
111
100
AcDbSymbolTableRecord
100
AcDbLinetypeTableRecord
  2
ACAD_ISO13W100
 70
     0
  3
------ ------ - - ------ ------
 72
    65
 73
     8
 40
46
 49
20
 74
     0
 49
-1
 74
     0
 49
20
 74
     0
 49
-1
 74
     0
 49
1
 74
     0
 49
-1
 74
     0
 49
1
 74
     0
 49
-1
 74
     0
  0
LTYPE
  5
112
100
AcDbSymbolTableRecord
100
AcDbLinetypeTableRecord
  2
ACAD_ISO15W100
 70
     0
  3
------ ----- - - - ------ -----
 72
    65
 73
    10
 40
48
 49
20
 74
     0
 49
-1
 74
     0
 49
20
 74
     0
 49
-1
 74
     0
 49
1
 74
     0
 49
-1
 74
     0
 49
1
 74
     0
 49
-1
 74
     0
 49
1
 74
     0
 49
-1
 74
     0
  0
LTYPE
  5
113
100
AcDbSymbolTableRecord
100
AcDbLinetypeTableRecord
  2
HIDDEN
 70
     0
  3
. . . . . . . . . . . . . . . .
 72
    65
 73
     2
 40
1.5
 49
1
 74
     0
 49
-0.5
 74
     0
  0
ENDTAB
  0
TABLE
  2
LAYER
  5
114
100
AcDbSymbolTable
 70
     1
  0
LAYER
  5
115
100
AcDbSymbolTableRecord
100
AcDbLayerTableRecord
  2
0
 70
     0
 62
     7
  6
CONTINUOUS
390
116
  0
LAYER
  5
117
100
AcDbSymbolTableRecord
100
AcDbLayerTableRecord
  2
_0-0_0
 70
     0
 62
     7
  6
CONTINUOUS
390
   278
  0
LAYER
  5
118
100
AcDbSymbolTableRecord
100
AcDbLayerTableRecord
  2
_0-2_寸法
 70
     0
 62
     7
  6
CONTINUOUS
390
   278
  0
LAYER
  5
119
100
AcDbSymbolTableRecord
100
AcDbLayerTableRecord
  2
_0-3_躯体と製品
 70
     0
 62
     7
  6
CONTINUOUS
390
   278
  0
LAYER
  5
11A
100
AcDbSymbolTableRecord
100
AcDbLayerTableRecord
  2
_0-4_図枠
 70
     0
 62
     7
  6
CONTINUOUS
390
   278
  0
LAYER
  5
11B
100
AcDbSymbolTableRecord
100
AcDbLayerTableRecord
  2
ADD_LINE
 70
     0
 62
     7
  6
CONTINUOUS
390
   278
  0
ENDTAB
  0
TABLE
  2
STYLE
  5
11C
100
AcDbSymbolTable
 70
     1
  0
STYLE
  5
11D
100
AcDbSymbolTableRecord
100
AcDbTextStyleTableRecord
  2
STANDARD
 70
     0
 40
0
 41
0
 50
0
 71
     0
 42
1
  3
txt
  4
bigfont
  0
STYLE
  5
11E
100
AcDbSymbolTableRecord
100
AcDbTextStyleTableRecord
  2
VSTANDARD
 70
     4
 40
0
 41
0
 50
0
 71
     0
 42
1
  3
txt
  4
bigfont
  0
ENDTAB
  0
TABLE
  2
VIEW
  5
11F
100
AcDbSymbolTable
 70
     0
  0
ENDTAB
  0
TABLE
  2
UCS
  5
120
100
AcDbSymbolTable
 70
     0
  0
ENDTAB
  0
TABLE
  2
APPID
  5
121
100
AcDbSymbolTable
 70
     1
  0
APPID
  5
122
100
AcDbSymbolTableRecord
100
AcDbRegAppTableRecord
  2
ACAD
 70
     0
  0
ENDTAB
  0
TABLE
  2
DIMSTYLE
  5
123
100
AcDbSymbolTable
 70
     1
100
AcDbDimStyleTable
 71
     0
  0
DIMSTYLE
105
124
100
AcDbSymbolTableRecord
100
AcDbDimStyleTableRecord
  2
M7DIMSTL
 70
     0
  3

  4

  5

  6

  7

 40
3
 41
2.5
 42
0.625
 43
3.75
 44
1.25
 45
0
 46
0
 47
0
 48
0
140
2.5
141
2.5
142
0
143
0.03937007874016
144
1
145
0
146
1
147
0.625
 71
     0
 72
     0
 73
     0
 74
     0
 75
     0
 76
     0
 77
     1
 78
     8
170
     0
171
     3
172
     1
173
     0
174
     0
175
     0
176
     0
177
     0
178
     0
270
     2
271
     2
272
     2
273
     2
274
     3
340
11D
275
     0
280
     0
281
     0
282
     0
283
     0
284
     8
285
     0
286
     0
287
     3
288
     0
  0
ENDTAB
  0
TABLE
  2
BLOCK_RECORD
  5
125
100
AcDbSymbolTable
 70
     2
  0
BLOCK_RECORD
  5
126
100
AcDbSymbolTableRecord
100
AcDbBlockTableRecord
  2
*MODEL_SPACE
  0
BLOCK_RECORD
  5
127
100
AcDbSymbolTableRecord
100
AcDbBlockTableRecord
  2
*PAPER_SPACE
  0
BLOCK_RECORD
  5
128
100
AcDbSymbolTableRecord
100
AcDbBlockTableRecord
  2
_DOT
  0
BLOCK_RECORD
  5
129
100
AcDbSymbolTableRecord
100
AcDbBlockTableRecord
  2
_OPEN30
  0
BLOCK_RECORD
  5
12A
100
AcDbSymbolTableRecord
100
AcDbBlockTableRecord
  2
_ClosedBlank
  0
BLOCK_RECORD
  5
12B
100
AcDbSymbolTableRecord
100
AcDbBlockTableRecord
  2
_Origin
  0
BLOCK_RECORD
  5
12C
100
AcDbSymbolTableRecord
100
AcDbBlockTableRecord
  2
_Oblique
  0
BLOCK_RECORD
  5
12D
100
AcDbSymbolTableRecord
100
AcDbBlockTableRecord
  2
_Origin2
  0
BLOCK_RECORD
  5
12E
100
AcDbSymbolTableRecord
100
AcDbBlockTableRecord
  2
_BoxBlank
  0
BLOCK_RECORD
  5
12F
100
AcDbSymbolTableRecord
100
AcDbBlockTableRecord
  2
_BoxFilled
  0
BLOCK_RECORD
  5
130
100
AcDbSymbolTableRecord
100
AcDbBlockTableRecord
  2
_Integral
  0
BLOCK_RECORD
  5
131
100
AcDbSymbolTableRecord
100
AcDbBlockTableRecord
  2
BK2
  0
BLOCK_RECORD
  5
132
100
AcDbSymbolTableRecord
100
AcDbBlockTableRecord
  2
BK3
  0
BLOCK_RECORD
  5
133
100
AcDbSymbolTableRecord
100
AcDbBlockTableRecord
  2
BK4
  0
BLOCK_RECORD
  5
134
100
AcDbSymbolTableRecord
100
AcDbBlockTableRecord
  2
BK5
  0
BLOCK_RECORD
  5
135
100
AcDbSymbolTableRecord
100
AcDbBlockTableRecord
  2
BK6
  0
BLOCK_RECORD
  5
136
100
AcDbSymbolTableRecord
100
AcDbBlockTableRecord
  2
BK7
  0
BLOCK_RECORD
  5
137
100
AcDbSymbolTableRecord
100
AcDbBlockTableRecord
  2
BK8
  0
BLOCK_RECORD
  5
138
100
AcDbSymbolTableRecord
100
AcDbBlockTableRecord
  2
BK9
  0
BLOCK_RECORD
  5
139
100
AcDbSymbolTableRecord
100
AcDbBlockTableRecord
  2
BK10
  0
BLOCK_RECORD
  5
13A
100
AcDbSymbolTableRecord
100
AcDbBlockTableRecord
  2
BK11
  0
BLOCK_RECORD
  5
13B
100
AcDbSymbolTableRecord
100
AcDbBlockTableRecord
  2
BK12
  0
BLOCK_RECORD
  5
13C
100
AcDbSymbolTableRecord
100
AcDbBlockTableRecord
  2
BK13
  0
BLOCK_RECORD
  5
13D
100
AcDbSymbolTableRecord
100
AcDbBlockTableRecord
  2
BK14
  0
BLOCK_RECORD
  5
13E
100
AcDbSymbolTableRecord
100
AcDbBlockTableRecord
  2
BK15
  0
BLOCK_RECORD
  5
13F
100
AcDbSymbolTableRecord
100
AcDbBlockTableRecord
  2
BK16
  0
BLOCK_RECORD
  5
140
100
AcDbSymbolTableRecord
100
AcDbBlockTableRecord
  2
BK17
  0
BLOCK_RECORD
  5
141
100
AcDbSymbolTableRecord
100
AcDbBlockTableRecord
  2
BK18
  0
BLOCK_RECORD
  5
142
100
AcDbSymbolTableRecord
100
AcDbBlockTableRecord
  2
BK19
  0
BLOCK_RECORD
  5
143
100
AcDbSymbolTableRecord
100
AcDbBlockTableRecord
  2
BK20
  0
BLOCK_RECORD
  5
144
100
AcDbSymbolTableRecord
100
AcDbBlockTableRecord
  2
BK21
  0
BLOCK_RECORD
  5
145
100
AcDbSymbolTableRecord
100
AcDbBlockTableRecord
  2
BK22
  0
BLOCK_RECORD
  5
146
100
AcDbSymbolTableRecord
100
AcDbBlockTableRecord
  2
BK23
  0
BLOCK_RECORD
  5
147
100
AcDbSymbolTableRecord
100
AcDbBlockTableRecord
  2
BK24
  0
ENDTAB
  0
ENDSEC
  0
SECTION
  2
BLOCKS
  0
BLOCK
  5
148
100
AcDbEntity
  8
0
100
AcDbBlockBegin
  2
*MODEL_SPACE
 70
     0
 10
0
 20
0
  3
*MODEL_SPACE
  1

  0
ENDBLK
  5
149
100
AcDbEntity
  8
0
100
AcDbBlockEnd
  0
BLOCK
  5
14A
100
AcDbEntity
 67
     1
  8
0
100
AcDbBlockBegin
  2
*PAPER_SPACE
 70
     0
 10
0
 20
0
  3
*PAPER_SPACE
  1

  0
ENDBLK
  5
14B
100
AcDbEntity
 67
     1
  8
0
100
AcDbBlockEnd
  0
BLOCK
  5
14C
100
AcDbEntity
 67
     1
  8
0
100
AcDbBlockBegin
  2
_DOT
 70
     0
 10
0
 20
0
  3
_DOT
  1

  0
LWPOLYLINE
  5
14D
100
AcDbEntity
  8
0
  6
BYBLOCK
 62
     0
100
AcDbPolyline
 90
     2
 70
     1
 43
0.5
 10
-0.25
 20
0
 42
1
 10
0.25
 20
0
 42
1
  0
LINE
  5
14E
100
AcDbEntity
  8
0
  6
BYBLOCK
 62
     0
100
AcDbLine
 10
-0.5
 20
0
 11
-1
 21
0
  0
ENDBLK
  5
14F
100
AcDbEntity
  8
0
100
AcDbBlockEnd
  0
BLOCK
  5
150
100
AcDbEntity
 67
     1
  8
0
100
AcDbBlockBegin
  2
_OPEN30
 70
     0
 10
0
 20
0
  3
_OPEN30
  1

  0
LINE
  5
151
100
AcDbEntity
  8
0
  6
BYBLOCK
 62
     0
100
AcDbLine
 10
-1
 20
0.26794919
 11
0
 21
0
  0
LINE
  5
152
100
AcDbEntity
  8
0
  6
BYBLOCK
 62
     0
100
AcDbLine
 10
-1
 20
-0.26794919
 11
0
 21
0
  0
LINE
  5
153
100
AcDbEntity
  8
0
  6
BYBLOCK
 62
     0
100
AcDbLine
 10
0
 20
0
 11
-1
 21
0
  0
ENDBLK
  5
154
100
AcDbEntity
  8
0
100
AcDbBlockEnd
  0
BLOCK
  5
155
100
AcDbEntity
 67
     1
  8
0
100
AcDbBlockBegin
  2
_ClosedBlank
 70
     0
 10
0
 20
0
  3
_ClosedBlank
  1

  0
LINE
  5
156
100
AcDbEntity
  8
0
  6
BYBLOCK
 62
     0
100
AcDbLine
 10
-1
 20
0.1666666666667
 11
0
 21
0
  0
LINE
  5
157
100
AcDbEntity
  8
0
  6
BYBLOCK
 62
     0
100
AcDbLine
 10
0
 20
0
 11
-1
 21
-0.1666666666667
  0
LINE
  5
158
100
AcDbEntity
  8
0
  6
BYBLOCK
 62
     0
100
AcDbLine
 10
-1
 20
0.1666666666667
 11
-1
 21
-0.1666666666667
  0
ENDBLK
  5
159
100
AcDbEntity
  8
0
100
AcDbBlockEnd
  0
BLOCK
  5
15A
100
AcDbEntity
 67
     1
  8
0
100
AcDbBlockBegin
  2
_Origin
 70
     0
 10
0
 20
0
  3
_Origin
  1

  0
CIRCLE
  5
15B
100
AcDbEntity
  8
0
  6
BYBLOCK
 62
     0
100
AcDbCircle
 10
0
 20
0
 40
0.5
  0
LINE
  5
15C
100
AcDbEntity
  8
0
  6
BYBLOCK
 62
     0
100
AcDbLine
 10
0
 20
0
 11
-1
 21
0
  0
ENDBLK
  5
15D
100
AcDbEntity
  8
0
100
AcDbBlockEnd
  0
BLOCK
  5
15E
100
AcDbEntity
 67
     1
  8
0
100
AcDbBlockBegin
  2
_Oblique
 70
     0
 10
0
 20
0
  3
_Oblique
  1

  0
LINE
  5
15F
100
AcDbEntity
  8
0
  6
BYBLOCK
 62
     0
100
AcDbLine
 10
-0.5
 20
-0.5
 11
0.5
 21
0.5
  0
ENDBLK
  5
160
100
AcDbEntity
  8
0
100
AcDbBlockEnd
  0
BLOCK
  5
161
100
AcDbEntity
 67
     1
  8
0
100
AcDbBlockBegin
  2
_Origin2
 70
     0
 10
0
 20
0
  3
_Origin2
  1

  0
CIRCLE
  5
162
100
AcDbEntity
  8
0
  6
BYBLOCK
 62
     0
100
AcDbCircle
 10
0
 20
0
 40
0.5
  0
CIRCLE
  5
163
100
AcDbEntity
  8
0
  6
BYBLOCK
 62
     0
100
AcDbCircle
 10
0
 20
0
 40
0.25
  0
LINE
  5
164
100
AcDbEntity
  8
0
  6
BYBLOCK
 62
     0
100
AcDbLine
 10
-0.5
 20
0
 11
-1
 21
0
  0
ENDBLK
  5
165
100
AcDbEntity
  8
0
100
AcDbBlockEnd
  0
BLOCK
  5
166
100
AcDbEntity
 67
     1
  8
0
100
AcDbBlockBegin
  2
_BoxBlank
 70
     0
 10
0
 20
0
  3
_BoxBlank
  1

  0
LINE
  5
167
100
AcDbEntity
  8
0
  6
BYBLOCK
 62
     0
100
AcDbLine
 10
-0.5
 20
-0.5
 11
0.5
 21
-0.5
  0
LINE
  5
168
100
AcDbEntity
  8
0
  6
BYBLOCK
 62
     0
100
AcDbLine
 10
0.5
 20
-0.5
 11
0.5
 21
0.5
  0
LINE
  5
169
100
AcDbEntity
  8
0
  6
BYBLOCK
 62
     0
100
AcDbLine
 10
0.5
 20
0.5
 11
-0.5
 21
0.5
  0
LINE
  5
16A
100
AcDbEntity
  8
0
  6
BYBLOCK
 62
     0
100
AcDbLine
 10
-0.5
 20
0.5
 11
-0.5
 21
-0.5
  0
LINE
  5
16B
100
AcDbEntity
  8
0
  6
BYBLOCK
 62
     0
100
AcDbLine
 10
-0.5
 20
0
 11
-1
 21
0
  0
ENDBLK
  5
16C
100
AcDbEntity
  8
0
100
AcDbBlockEnd
  0
BLOCK
  5
16D
100
AcDbEntity
 67
     1
  8
0
100
AcDbBlockBegin
  2
_BoxFilled
 70
     0
 10
0
 20
0
  3
_BoxFilled
  1

  0
SOLID
  5
16E
100
AcDbEntity
  8
0
  6
BYBLOCK
 62
     0
100
AcDbTrace
 10
-0.5
 20
0.5
 11
0.5
 21
0.5
 12
-0.5
 22
-0.5
 13
0.5
 23
-0.5
  0
LINE
  5
16F
100
AcDbEntity
  8
0
  6
BYBLOCK
 62
     0
100
AcDbLine
 10
-0.5
 20
0
 11
-1
 21
0
  0
ENDBLK
  5
170
100
AcDbEntity
  8
0
100
AcDbBlockEnd
  0
BLOCK
  5
171
100
AcDbEntity
 67
     1
  8
0
100
AcDbBlockBegin
  2
_Integral
 70
     0
 10
0
 20
0
  3
_Integral
  1

  0
ARC
  5
172
100
AcDbEntity
  8
0
  6
BYBLOCK
 62
     0
100
AcDbCircle
 10
0.44488802
 20
-0.09133463
 40
0.45416667
100
AcDbArc
 50
101.999999998
 51
167.9999999799
  0
ARC
  5
173
100
AcDbEntity
  8
0
  6
BYBLOCK
 62
     0
100
AcDbCircle
 10
-0.44488802
 20
0.09133463
 40
0.45416667
100
AcDbArc
 50
282.0000000215
 51
348.0000000034
  0
ENDBLK
  5
174
100
AcDbEntity
  8
0
100
AcDbBlockEnd
  0
BLOCK
  5
175
100
AcDbEntity
  8
_0-2_寸法
100
AcDbBlockBegin
  2
BK2
 70
    64
 10
0
 20
0
  3
BK2
  1

  0
LINE
  5
176
100
AcDbEntity
  8
_0-2_寸法
  6
CONTINUOUS
 62
     0
100
AcDbLine
 10
270.5
 20
469.9154654157
 11
270.5
 21
544
  0
LINE
  5
177
100
AcDbEntity
  8
_0-2_寸法
  6
CONTINUOUS
 62
     0
100
AcDbLine
 10
620.5
 20
469.9154654157
 11
620.5
 21
544
  0
LINE
  5
178
100
AcDbEntity
  8
_0-2_寸法
  6
CONTINUOUS
 62
     0
100
AcDbLine
 10
271.5
 20
544
 11
619.5
 21
544
  0
TEXT
  5
179
100
AcDbEntity
  8
_0-2_寸法
  6
CONTINUOUS
 62
     0
100
AcDbText
 10
444.25
 20
545
 40
5
  1
W
  7
STANDARD
100
AcDbText
  0
CIRCLE
  5
17A
100
AcDbEntity
  8
_0-2_寸法
  6
CONTINUOUS
 62
     0
100
AcDbCircle
 10
270.5
 20
469.9154654157
 40
1.4
  0
CIRCLE
  5
17B
100
AcDbEntity
  8
_0-2_寸法
  6
CONTINUOUS
 62
     0
100
AcDbCircle
 10
620.5
 20
469.9154654157
 40
1.4
  0
CIRCLE
  5
17C
100
AcDbEntity
  8
_0-2_寸法
  6
CONTINUOUS
 62
     0
100
AcDbCircle
 10
620.5
 20
544
 40
1.4
  0
ENDBLK
  5
17D
100
AcDbEntity
 67
     1
  8
_0-2_寸法
100
AcDbBlockEnd
  0
BLOCK
  5
17E
100
AcDbEntity
  8
_0-2_寸法
100
AcDbBlockBegin
  2
BK3
 70
    64
 10
0
 20
0
  3
BK3
  1

  0
CIRCLE
  5
17F
100
AcDbEntity
  8
_0-2_寸法
  6
CONTINUOUS
 62
     0
100
AcDbCircle
 10
270.5
 20
544
 40
0.25
  0
LINE
  5
180
100
AcDbEntity
  8
_0-2_寸法
  6
CONTINUOUS
 62
     0
100
AcDbLine
 10
270.25
 20
544
 11
270.75
 21
544
  0
LINE
  5
181
100
AcDbEntity
  8
_0-2_寸法
  6
CONTINUOUS
 62
     0
100
AcDbLine
 10
271
 20
544
 11
271.5
 21
544
  0
ENDBLK
  5
182
100
AcDbEntity
 67
     1
  8
_0-2_寸法
100
AcDbBlockEnd
  0
BLOCK
  5
183
100
AcDbEntity
  8
_0-2_寸法
100
AcDbBlockBegin
  2
BK4
 70
    64
 10
0
 20
0
  3
BK4
  1

  0
CIRCLE
  5
184
100
AcDbEntity
  8
_0-2_寸法
  6
CONTINUOUS
 62
     0
100
AcDbCircle
 10
620.5
 20
544
 40
0.25
  0
LINE
  5
185
100
AcDbEntity
  8
_0-2_寸法
  6
CONTINUOUS
 62
     0
100
AcDbLine
 10
620.75
 20
544
 11
620.25
 21
544
  0
LINE
  5
186
100
AcDbEntity
  8
_0-2_寸法
  6
CONTINUOUS
 62
     0
100
AcDbLine
 10
620
 20
544
 11
619.5
 21
544
  0
ENDBLK
  5
187
100
AcDbEntity
 67
     1
  8
_0-2_寸法
100
AcDbBlockEnd
  0
BLOCK
  5
188
100
AcDbEntity
  8
_0-2_寸法
100
AcDbBlockBegin
  2
BK5
 70
    64
 10
0
 20
0
  3
BK5
  1

  0
LINE
  5
189
100
AcDbEntity
  8
_0-2_寸法
  6
CONTINUOUS
 62
     0
100
AcDbLine
 10
321.5
 20
359
 11
369.5
 21
359
  0
TEXT
  5
18A
100
AcDbEntity
  8
_0-2_寸法
  6
CONTINUOUS
 62
     0
100
AcDbText
 10
343
 20
360
 40
5
  1
50
  7
STANDARD
100
AcDbText
  0
CIRCLE
  5
18B
100
AcDbEntity
  8
_0-2_寸法
  6
CONTINUOUS
 62
     0
100
AcDbCircle
 10
320.5
 20
359
 40
1.4
  0
CIRCLE
  5
18C
100
AcDbEntity
  8
_0-2_寸法
  6
CONTINUOUS
 62
     0
100
AcDbCircle
 10
370.5
 20
359
 40
1.4
  0
CIRCLE
  5
18D
100
AcDbEntity
  8
_0-2_寸法
  6
CONTINUOUS
 62
     0
100
AcDbCircle
 10
370.5
 20
359
 40
1.4
  0
ENDBLK
  5
18E
100
AcDbEntity
 67
     1
  8
_0-2_寸法
100
AcDbBlockEnd
  0
BLOCK
  5
18F
100
AcDbEntity
  8
_0-2_寸法
100
AcDbBlockBegin
  2
BK6
 70
    64
 10
0
 20
0
  3
BK6
  1

  0
CIRCLE
  5
190
100
AcDbEntity
  8
_0-2_寸法
  6
CONTINUOUS
 62
     0
100
AcDbCircle
 10
320.5
 20
359
 40
0.25
  0
LINE
  5
191
100
AcDbEntity
  8
_0-2_寸法
  6
CONTINUOUS
 62
     0
100
AcDbLine
 10
320.25
 20
359
 11
320.75
 21
359
  0
LINE
  5
192
100
AcDbEntity
  8
_0-2_寸法
  6
CONTINUOUS
 62
     0
100
AcDbLine
 10
321
 20
359
 11
321.5
 21
359
  0
ENDBLK
  5
193
100
AcDbEntity
 67
     1
  8
_0-2_寸法
100
AcDbBlockEnd
  0
BLOCK
  5
194
100
AcDbEntity
  8
_0-2_寸法
100
AcDbBlockBegin
  2
BK7
 70
    64
 10
0
 20
0
  3
BK7
  1

  0
CIRCLE
  5
195
100
AcDbEntity
  8
_0-2_寸法
  6
CONTINUOUS
 62
     0
100
AcDbCircle
 10
370.5
 20
359
 40
0.25
  0
LINE
  5
196
100
AcDbEntity
  8
_0-2_寸法
  6
CONTINUOUS
 62
     0
100
AcDbLine
 10
370.75
 20
359
 11
370.25
 21
359
  0
LINE
  5
197
100
AcDbEntity
  8
_0-2_寸法
  6
CONTINUOUS
 62
     0
100
AcDbLine
 10
370
 20
359
 11
369.5
 21
359
  0
ENDBLK
  5
198
100
AcDbEntity
 67
     1
  8
_0-2_寸法
100
AcDbBlockEnd
  0
BLOCK
  5
199
100
AcDbEntity
  8
_0-2_寸法
100
AcDbBlockBegin
  2
BK8
 70
    64
 10
0
 20
0
  3
BK8
  1

  0
LINE
  5
19A
100
AcDbEntity
  8
_0-2_寸法
  6
CONTINUOUS
 62
     0
100
AcDbLine
 10
521.5
 20
359
 11
569.5
 21
359
  0
TEXT
  5
19B
100
AcDbEntity
  8
_0-2_寸法
  6
CONTINUOUS
 62
     0
100
AcDbText
 10
543
 20
360
 40
5
  1
50
  7
STANDARD
100
AcDbText
  0
CIRCLE
  5
19C
100
AcDbEntity
  8
_0-2_寸法
  6
CONTINUOUS
 62
     0
100
AcDbCircle
 10
520.5
 20
359
 40
1.4
  0
CIRCLE
  5
19D
100
AcDbEntity
  8
_0-2_寸法
  6
CONTINUOUS
 62
     0
100
AcDbCircle
 10
570.5
 20
359
 40
1.4
  0
CIRCLE
  5
19E
100
AcDbEntity
  8
_0-2_寸法
  6
CONTINUOUS
 62
     0
100
AcDbCircle
 10
570.5
 20
359
 40
1.4
  0
ENDBLK
  5
19F
100
AcDbEntity
 67
     1
  8
_0-2_寸法
100
AcDbBlockEnd
  0
BLOCK
  5
1A0
100
AcDbEntity
  8
_0-2_寸法
100
AcDbBlockBegin
  2
BK9
 70
    64
 10
0
 20
0
  3
BK9
  1

  0
CIRCLE
  5
1A1
100
AcDbEntity
  8
_0-2_寸法
  6
CONTINUOUS
 62
     0
100
AcDbCircle
 10
520.5
 20
359
 40
0.25
  0
LINE
  5
1A2
100
AcDbEntity
  8
_0-2_寸法
  6
CONTINUOUS
 62
     0
100
AcDbLine
 10
520.25
 20
359
 11
520.75
 21
359
  0
LINE
  5
1A3
100
AcDbEntity
  8
_0-2_寸法
  6
CONTINUOUS
 62
     0
100
AcDbLine
 10
521
 20
359
 11
521.5
 21
359
  0
ENDBLK
  5
1A4
100
AcDbEntity
 67
     1
  8
_0-2_寸法
100
AcDbBlockEnd
  0
BLOCK
  5
1A5
100
AcDbEntity
  8
_0-2_寸法
100
AcDbBlockBegin
  2
BK10
 70
    64
 10
0
 20
0
  3
BK10
  1

  0
CIRCLE
  5
1A6
100
AcDbEntity
  8
_0-2_寸法
  6
CONTINUOUS
 62
     0
100
AcDbCircle
 10
570.5
 20
359
 40
0.25
  0
LINE
  5
1A7
100
AcDbEntity
  8
_0-2_寸法
  6
CONTINUOUS
 62
     0
100
AcDbLine
 10
570.75
 20
359
 11
570.25
 21
359
  0
LINE
  5
1A8
100
AcDbEntity
  8
_0-2_寸法
  6
CONTINUOUS
 62
     0
100
AcDbLine
 10
570
 20
359
 11
569.5
 21
359
  0
ENDBLK
  5
1A9
100
AcDbEntity
 67
     1
  8
_0-2_寸法
100
AcDbBlockEnd
  0
BLOCK
  5
1AA
100
AcDbEntity
  8
_0-2_寸法
100
AcDbBlockBegin
  2
BK11
 70
    64
 10
0
 20
0
  3
BK11
  1

  0
LINE
  5
1AB
100
AcDbEntity
  8
_0-2_寸法
  6
CONTINUOUS
 62
     0
100
AcDbLine
 10
573.2516787385
 20
419
 11
660.5
 21
419
  0
LINE
  5
1AC
100
AcDbEntity
  8
_0-2_寸法
  6
CONTINUOUS
 62
     0
100
AcDbLine
 10
622.5
 20
377.9154654157
 11
660.5
 21
377.9154654157
  0
LINE
  5
1AD
100
AcDbEntity
  8
_0-2_寸法
  6
CONTINUOUS
 62
     0
100
AcDbLine
 10
660.5
 20
418
 11
660.5
 21
378.9154654157
  0
TEXT
  5
1AE
100
AcDbEntity
  8
_0-2_寸法
  6
CONTINUOUS
 62
     0
100
AcDbText
 10
659.5
 20
395.9577327079
 40
5
  1
44
 50
90
  7
STANDARD
100
AcDbText
  0
CIRCLE
  5
1AF
100
AcDbEntity
  8
_0-2_寸法
  6
CONTINUOUS
 62
     0
100
AcDbCircle
 10
573.2516787385
 20
419
 40
1.4
  0
CIRCLE
  5
1B0
100
AcDbEntity
  8
_0-2_寸法
  6
CONTINUOUS
 62
     0
100
AcDbCircle
 10
622.5
 20
377.9154654157
 40
1.4
  0
CIRCLE
  5
1B1
100
AcDbEntity
  8
_0-2_寸法
  6
CONTINUOUS
 62
     0
100
AcDbCircle
 10
660.5
 20
377.9154654157
 40
1.4
  0
ENDBLK
  5
1B2
100
AcDbEntity
 67
     1
  8
_0-2_寸法
100
AcDbBlockEnd
  0
BLOCK
  5
1B3
100
AcDbEntity
  8
_0-2_寸法
100
AcDbBlockBegin
  2
BK12
 70
    64
 10
0
 20
0
  3
BK12
  1

  0
CIRCLE
  5
1B4
100
AcDbEntity
  8
_0-2_寸法
  6
CONTINUOUS
 62
     0
100
AcDbCircle
 10
660.5
 20
419
 40
0.25
  0
LINE
  5
1B5
100
AcDbEntity
  8
_0-2_寸法
  6
CONTINUOUS
 62
     0
100
AcDbLine
 10
660.5
 20
419.25
 11
660.5
 21
418.75
  0
LINE
  5
1B6
100
AcDbEntity
  8
_0-2_寸法
  6
CONTINUOUS
 62
     0
100
AcDbLine
 10
660.5
 20
418.5
 11
660.5
 21
418
  0
ENDBLK
  5
1B7
100
AcDbEntity
 67
     1
  8
_0-2_寸法
100
AcDbBlockEnd
  0
BLOCK
  5
1B8
100
AcDbEntity
  8
_0-2_寸法
100
AcDbBlockBegin
  2
BK13
 70
    64
 10
0
 20
0
  3
BK13
  1

  0
CIRCLE
  5
1B9
100
AcDbEntity
  8
_0-2_寸法
  6
CONTINUOUS
 62
     0
100
AcDbCircle
 10
660.5
 20
377.9154654157
 40
0.25
  0
LINE
  5
1BA
100
AcDbEntity
  8
_0-2_寸法
  6
CONTINUOUS
 62
     0
100
AcDbLine
 10
660.5
 20
377.6654654157
 11
660.5
 21
378.1654654157
  0
LINE
  5
1BB
100
AcDbEntity
  8
_0-2_寸法
  6
CONTINUOUS
 62
     0
100
AcDbLine
 10
660.5
 20
378.4154654157
 11
660.5
 21
378.9154654157
  0
ENDBLK
  5
1BC
100
AcDbEntity
 67
     1
  8
_0-2_寸法
100
AcDbBlockEnd
  0
BLOCK
  5
1BD
100
AcDbEntity
  8
_0-2_寸法
100
AcDbBlockBegin
  2
BK14
 70
    64
 10
0
 20
0
  3
BK14
  1

  0
LINE
  5
1BE
100
AcDbEntity
  8
_0-2_寸法
  6
CONTINUOUS
 62
     0
100
AcDbLine
 10
622.5
 20
467.9154654157
 11
680.5
 21
467.9154654157
  0
LINE
  5
1BF
100
AcDbEntity
  8
_0-2_寸法
  6
CONTINUOUS
 62
     0
100
AcDbLine
 10
622.5
 20
377.9154654157
 11
680.5
 21
377.9154654157
  0
LINE
  5
1C0
100
AcDbEntity
  8
_0-2_寸法
  6
CONTINUOUS
 62
     0
100
AcDbLine
 10
680.5
 20
466.9154654157
 11
680.5
 21
378.9154654157
  0
TEXT
  5
1C1
100
AcDbEntity
  8
_0-2_寸法
  6
CONTINUOUS
 62
     0
100
AcDbText
 10
679.5
 20
420.4154654157
 40
5
  1
90
 50
90
  7
STANDARD
100
AcDbText
  0
CIRCLE
  5
1C2
100
AcDbEntity
  8
_0-2_寸法
  6
CONTINUOUS
 62
     0
100
AcDbCircle
 10
622.5
 20
467.9154654157
 40
1.4
  0
CIRCLE
  5
1C3
100
AcDbEntity
  8
_0-2_寸法
  6
CONTINUOUS
 62
     0
100
AcDbCircle
 10
622.5
 20
377.9154654157
 40
1.4
  0
CIRCLE
  5
1C4
100
AcDbEntity
  8
_0-2_寸法
  6
CONTINUOUS
 62
     0
100
AcDbCircle
 10
680.5
 20
377.9154654157
 40
1.4
  0
ENDBLK
  5
1C5
100
AcDbEntity
 67
     1
  8
_0-2_寸法
100
AcDbBlockEnd
  0
BLOCK
  5
1C6
100
AcDbEntity
  8
_0-2_寸法
100
AcDbBlockBegin
  2
BK15
 70
    64
 10
0
 20
0
  3
BK15
  1

  0
CIRCLE
  5
1C7
100
AcDbEntity
  8
_0-2_寸法
  6
CONTINUOUS
 62
     0
100
AcDbCircle
 10
680.5
 20
467.9154654157
 40
0.25
  0
LINE
  5
1C8
100
AcDbEntity
  8
_0-2_寸法
  6
CONTINUOUS
 62
     0
100
AcDbLine
 10
680.5
 20
468.1654654157
 11
680.5
 21
467.6654654157
  0
LINE
  5
1C9
100
AcDbEntity
  8
_0-2_寸法
  6
CONTINUOUS
 62
     0
100
AcDbLine
 10
680.5
 20
467.4154654157
 11
680.5
 21
466.9154654157
  0
ENDBLK
  5
1CA
100
AcDbEntity
 67
     1
  8
_0-2_寸法
100
AcDbBlockEnd
  0
BLOCK
  5
1CB
100
AcDbEntity
  8
_0-2_寸法
100
AcDbBlockBegin
  2
BK16
 70
    64
 10
0
 20
0
  3
BK16
  1

  0
CIRCLE
  5
1CC
100
AcDbEntity
  8
_0-2_寸法
  6
CONTINUOUS
 62
     0
100
AcDbCircle
 10
680.5
 20
377.9154654157
 40
0.25
  0
LINE
  5
1CD
100
AcDbEntity
  8
_0-2_寸法
  6
CONTINUOUS
 62
     0
100
AcDbLine
 10
680.5
 20
377.6654654157
 11
680.5
 21
378.1654654157
  0
LINE
  5
1CE
100
AcDbEntity
  8
_0-2_寸法
  6
CONTINUOUS
 62
     0
100
AcDbLine
 10
680.5
 20
378.4154654157
 11
680.5
 21
378.9154654157
  0
ENDBLK
  5
1CF
100
AcDbEntity
 67
     1
  8
_0-2_寸法
100
AcDbBlockEnd
  0
BLOCK
  5
1D0
100
AcDbEntity
  8
_0-2_寸法
100
AcDbBlockBegin
  2
BK17
 70
    64
 10
0
 20
0
  3
BK17
  1

  0
CIRCLE
  5
1D1
100
AcDbEntity
  8
_0-2_寸法
  6
CONTINUOUS
 62
     0
100
AcDbCircle
 10
320.5
 20
299
 40
0.25
  0
LINE
  5
1D2
100
AcDbEntity
  8
_0-2_寸法
  6
CONTINUOUS
 62
     0
100
AcDbLine
 10
320.75
 20
299
 11
320.25
 21
299
  0
LINE
  5
1D3
100
AcDbEntity
  8
_0-2_寸法
  6
CONTINUOUS
 62
     0
100
AcDbLine
 10
320
 20
299
 11
319.5
 21
299
  0
ENDBLK
  5
1D4
100
AcDbEntity
 67
     1
  8
_0-2_寸法
100
AcDbBlockEnd
  0
BLOCK
  5
1D5
100
AcDbEntity
  8
_0-2_寸法
100
AcDbBlockBegin
  2
BK18
 70
    64
 10
0
 20
0
  3
BK18
  1

  0
CIRCLE
  5
1D6
100
AcDbEntity
  8
_0-2_寸法
  6
CONTINUOUS
 62
     0
100
AcDbCircle
 10
320.5
 20
299
 40
0.25
  0
LINE
  5
1D7
100
AcDbEntity
  8
_0-2_寸法
  6
CONTINUOUS
 62
     0
100
AcDbLine
 10
320.25
 20
299
 11
320.75
 21
299
  0
LINE
  5
1D8
100
AcDbEntity
  8
_0-2_寸法
  6
CONTINUOUS
 62
     0
100
AcDbLine
 10
321
 20
299
 11
321.5
 21
299
  0
ENDBLK
  5
1D9
100
AcDbEntity
 67
     1
  8
_0-2_寸法
100
AcDbBlockEnd
  0
BLOCK
  5
1DA
100
AcDbEntity
  8
_0-2_寸法
100
AcDbBlockBegin
  2
BK19
 70
    64
 10
0
 20
0
  3
BK19
  1

  0
CIRCLE
  5
1DB
100
AcDbEntity
  8
_0-2_寸法
  6
CONTINUOUS
 62
     0
100
AcDbCircle
 10
420.5
 20
299
 40
0.25
  0
LINE
  5
1DC
100
AcDbEntity
  8
_0-2_寸法
  6
CONTINUOUS
 62
     0
100
AcDbLine
 10
420.75
 20
299
 11
420.25
 21
299
  0
LINE
  5
1DD
100
AcDbEntity
  8
_0-2_寸法
  6
CONTINUOUS
 62
     0
100
AcDbLine
 10
420
 20
299
 11
419.5
 21
299
  0
ENDBLK
  5
1DE
100
AcDbEntity
 67
     1
  8
_0-2_寸法
100
AcDbBlockEnd
  0
BLOCK
  5
1DF
100
AcDbEntity
  8
_0-2_寸法
100
AcDbBlockBegin
  2
BK20
 70
    64
 10
0
 20
0
  3
BK20
  1

  0
CIRCLE
  5
1E0
100
AcDbEntity
  8
_0-2_寸法
  6
CONTINUOUS
 62
     0
100
AcDbCircle
 10
420.5
 20
299
 40
0.25
  0
LINE
  5
1E1
100
AcDbEntity
  8
_0-2_寸法
  6
CONTINUOUS
 62
     0
100
AcDbLine
 10
420.25
 20
299
 11
420.75
 21
299
  0
LINE
  5
1E2
100
AcDbEntity
  8
_0-2_寸法
  6
CONTINUOUS
 62
     0
100
AcDbLine
 10
421
 20
299
 11
421.5
 21
299
  0
ENDBLK
  5
1E3
100
AcDbEntity
 67
     1
  8
_0-2_寸法
100
AcDbBlockEnd
  0
BLOCK
  5
1E4
100
AcDbEntity
  8
_0-2_寸法
100
AcDbBlockBegin
  2
BK21
 70
    64
 10
0
 20
0
  3
BK21
  1

  0
CIRCLE
  5
1E5
100
AcDbEntity
  8
_0-2_寸法
  6
CONTINUOUS
 62
     0
100
AcDbCircle
 10
470.5
 20
299
 40
0.25
  0
LINE
  5
1E6
100
AcDbEntity
  8
_0-2_寸法
  6
CONTINUOUS
 62
     0
100
AcDbLine
 10
470.75
 20
299
 11
470.25
 21
299
  0
LINE
  5
1E7
100
AcDbEntity
  8
_0-2_寸法
  6
CONTINUOUS
 62
     0
100
AcDbLine
 10
470
 20
299
 11
469.5
 21
299
  0
ENDBLK
  5
1E8
100
AcDbEntity
 67
     1
  8
_0-2_寸法
100
AcDbBlockEnd
  0
BLOCK
  5
1E9
100
AcDbEntity
  8
_0-2_寸法
100
AcDbBlockBegin
  2
BK22
 70
    64
 10
0
 20
0
  3
BK22
  1

  0
CIRCLE
  5
1EA
100
AcDbEntity
  8
_0-2_寸法
  6
CONTINUOUS
 62
     0
100
AcDbCircle
 10
470.5
 20
299
 40
0.25
  0
LINE
  5
1EB
100
AcDbEntity
  8
_0-2_寸法
  6
CONTINUOUS
 62
     0
100
AcDbLine
 10
470.25
 20
299
 11
470.75
 21
299
  0
LINE
  5
1EC
100
AcDbEntity
  8
_0-2_寸法
  6
CONTINUOUS
 62
     0
100
AcDbLine
 10
471
 20
299
 11
471.5
 21
299
  0
ENDBLK
  5
1ED
100
AcDbEntity
 67
     1
  8
_0-2_寸法
100
AcDbBlockEnd
  0
BLOCK
  5
1EE
100
AcDbEntity
  8
_0-2_寸法
100
AcDbBlockBegin
  2
BK23
 70
    64
 10
0
 20
0
  3
BK23
  1

  0
CIRCLE
  5
1EF
100
AcDbEntity
  8
_0-2_寸法
  6
CONTINUOUS
 62
     0
100
AcDbCircle
 10
570.5
 20
299
 40
0.25
  0
LINE
  5
1F0
100
AcDbEntity
  8
_0-2_寸法
  6
CONTINUOUS
 62
     0
100
AcDbLine
 10
570.75
 20
299
 11
570.25
 21
299
  0
LINE
  5
1F1
100
AcDbEntity
  8
_0-2_寸法
  6
CONTINUOUS
 62
     0
100
AcDbLine
 10
570
 20
299
 11
569.5
 21
299
  0
ENDBLK
  5
1F2
100
AcDbEntity
 67
     1
  8
_0-2_寸法
100
AcDbBlockEnd
  0
BLOCK
  5
1F3
100
AcDbEntity
  8
_0-2_寸法
100
AcDbBlockBegin
  2
BK24
 70
    64
 10
0
 20
0
  3
BK24
  1

  0
CIRCLE
  5
1F4
100
AcDbEntity
  8
_0-2_寸法
  6
CONTINUOUS
 62
     0
100
AcDbCircle
 10
570.5
 20
299
 40
0.25
  0
LINE
  5
1F5
100
AcDbEntity
  8
_0-2_寸法
  6
CONTINUOUS
 62
     0
100
AcDbLine
 10
570.25
 20
299
 11
570.75
 21
299
  0
LINE
  5
1F6
100
AcDbEntity
  8
_0-2_寸法
  6
CONTINUOUS
 62
     0
100
AcDbLine
 10
571
 20
299
 11
571.5
 21
299
  0
ENDBLK
  5
1F7
100
AcDbEntity
 67
     1
  8
_0-2_寸法
100
AcDbBlockEnd
  0
ENDSEC
  0
SECTION
  2
ENTITIES
  0
LINE
  5
1F8
100
AcDbEntity
  8
_0-4_図枠
  6
CONTINUOUS
 62
     0
100
AcDbLine
 10
857.5
 20
603
 11
33.5
 21
603
  0
LINE
  5
1F9
100
AcDbEntity
  8
_0-4_図枠
  6
CONTINUOUS
 62
     0
100
AcDbLine
 10
33.5
 20
603
 11
33.5
 21
27
  0
LINE
  5
1FA
100
AcDbEntity
  8
_0-4_図枠
  6
CONTINUOUS
 62
     0
100
AcDbLine
 10
857.5
 20
27
 11
857.5
 21
603
  0
LINE
  5
1FB
100
AcDbEntity
  8
_0-4_図枠
  6
CONTINUOUS
 62
     0
100
AcDbLine
 10
33.5
 20
27
 11
857.5
 21
27
  0
TEXT
  5
1FC
100
AcDbEntity
  8
_0-4_図枠
  6
CONTINUOUS
 62
     0
100
AcDbText
 10
54.45873532035
 20
536.4174087909
 40
10
  1
　　Ｓ＝１／２
  7
STANDARD
100
AcDbText
  0
TEXT
  5
1FD
100
AcDbEntity
  8
_0-4_図枠
  6
CONTINUOUS
 62
     0
100
AcDbText
 10
53.44303483725
 20
561.8099208682
 40
10
  1
　　屋根－屋根
  7
STANDARD
100
AcDbText
  0
TEXT
  5
1FE
100
AcDbEntity
  8
_0-4_図枠
  6
CONTINUOUS
 62
     0
100
AcDbText
 10
311.75
 20
234.5833333333
 40
5
  1
規　格
  7
STANDARD
100
AcDbText
  0
TEXT
  5
1FF
100
AcDbEntity
  8
_0-4_図枠
  6
CONTINUOUS
 62
     0
100
AcDbText
 10
210.3333333333
 20
234.5833333333
 40
5
  1
部材名称
  7
STANDARD
100
AcDbText
  0
TEXT
  5
200
100
AcDbEntity
  8
_0-4_図枠
  6
CONTINUOUS
 62
     0
100
AcDbText
 10
177.5833333333
 20
210.5833333333
 40
4.99
  1
ＦＹＹフレーム
  7
STANDARD
100
AcDbText
  0
LINE
  5
201
100
AcDbEntity
  8
_0-4_図枠
  6
CONTINUOUS
 62
     0
100
AcDbLine
 10
370.5
 20
196
 11
161.5
 21
196
  0
LINE
  5
202
100
AcDbEntity
  8
_0-4_図枠
  6
CONTINUOUS
 62
     0
100
AcDbLine
 10
370.5
 20
208
 11
161.5
 21
208
  0
LINE
  5
203
100
AcDbEntity
  8
_0-4_図枠
  6
CONTINUOUS
 62
     0
100
AcDbLine
 10
370.5
 20
220
 11
161.5
 21
220
  0
LINE
  5
204
100
AcDbEntity
  8
_0-4_図枠
  6
CONTINUOUS
 62
     0
100
AcDbLine
 10
370.5
 20
232
 11
161.5
 21
232
  0
LINE
  5
205
100
AcDbEntity
  8
_0-4_図枠
  6
CONTINUOUS
 62
     0
100
AcDbLine
 10
370.5
 20
160
 11
161.5
 21
160
  0
LINE
  5
206
100
AcDbEntity
  8
_0-4_図枠
  6
CONTINUOUS
 62
     0
100
AcDbLine
 10
370.5
 20
172
 11
161.5
 21
172
  0
LINE
  5
207
100
AcDbEntity
  8
_0-4_図枠
  6
CONTINUOUS
 62
     0
100
AcDbLine
 10
370.5
 20
184
 11
161.5
 21
184
  0
LINE
  5
208
100
AcDbEntity
  8
_0-4_図枠
  6
CONTINUOUS
 62
     0
100
AcDbLine
 10
370.5
 20
244
 11
161.5
 21
244
  0
TEXT
  5
209
100
AcDbEntity
  8
_0-4_図枠
  6
CONTINUOUS
 62
     0
100
AcDbText
 10
164.8333333333
 20
150.5833333333
 40
5
  1
 7
  7
STANDARD
100
AcDbText
  0
TEXT
  5
20A
100
AcDbEntity
  8
_0-4_図枠
  6
CONTINUOUS
 62
     0
100
AcDbText
 10
164.8333333333
 20
162.5833333333
 40
5
  1
 6
  7
STANDARD
100
AcDbText
  0
TEXT
  5
20B
100
AcDbEntity
  8
_0-4_図枠
  6
CONTINUOUS
 62
     0
100
AcDbText
 10
164.8333333333
 20
174.5833333333
 40
5
  1
 5
  7
STANDARD
100
AcDbText
  0
TEXT
  5
20C
100
AcDbEntity
  8
_0-4_図枠
  6
CONTINUOUS
 62
     0
100
AcDbText
 10
164.8333333333
 20
186.5833333333
 40
4.99
  1
 4
  7
STANDARD
100
AcDbText
  0
TEXT
  5
20D
100
AcDbEntity
  8
_0-4_図枠
  6
CONTINUOUS
 62
     0
100
AcDbText
 10
164.8333333333
 20
198.5833333333
 40
4.99
  1
 3
  7
STANDARD
100
AcDbText
  0
TEXT
  5
20E
100
AcDbEntity
  8
_0-4_図枠
  6
CONTINUOUS
 62
     0
100
AcDbText
 10
164.8333333333
 20
210.5833333333
 40
4.99
  1
 2
  7
STANDARD
100
AcDbText
  0
TEXT
  5
20F
100
AcDbEntity
  8
_0-4_図枠
  6
CONTINUOUS
 62
     0
100
AcDbText
 10
162.875
 20
234.5833333333
 40
5
  1
No.
 41
0.998
  7
STANDARD
100
AcDbText
  0
TEXT
  5
210
100
AcDbEntity
  8
_0-4_図枠
  6
CONTINUOUS
 62
     0
100
AcDbText
 10
164.8333333333
 20
222.5833333333
 40
5
  1
 1
  7
STANDARD
100
AcDbText
  0
TEXT
  5
211
100
AcDbEntity
  8
_0-4_図枠
  6
CONTINUOUS
 62
     0
100
AcDbText
 10
176.3333333333
 20
162.5833333333
 40
5
  1
ＦＹＹ水切ジョイント
  7
STANDARD
100
AcDbText
  0
TEXT
  5
212
100
AcDbEntity
  8
_0-4_図枠
  6
CONTINUOUS
 62
     0
100
AcDbText
 10
176.3333333333
 20
174.5833333333
 40
5
  1
ＦＹＹフレームナット
  7
STANDARD
100
AcDbText
  0
TEXT
  5
213
100
AcDbEntity
  8
_0-4_図枠
  6
CONTINUOUS
 62
     0
100
AcDbText
 10
177.5833333333
 20
198.5833333333
 40
4.99
  1
ＦＹＹホルダー
  7
STANDARD
100
AcDbText
  0
TEXT
  5
214
100
AcDbEntity
  8
_0-4_図枠
  6
CONTINUOUS
 62
     0
100
AcDbText
 10
175.5
 20
186.5833333333
 40
4.99
  1
ＦＹＹホルダースプリング
  7
STANDARD
100
AcDbText
  0
TEXT
  5
215
100
AcDbEntity
  8
_0-4_図枠
  6
CONTINUOUS
 62
     0
100
AcDbText
 10
178.4166666667
 20
150.5833333333
 40
5
  1
止水補助板
 41
0.998
  7
STANDARD
100
AcDbText
  0
LINE
  5
216
100
AcDbEntity
  8
_0-4_図枠
  6
CONTINUOUS
 62
     0
100
AcDbLine
 10
370.5
 20
100
 11
161.5
 21
100
  0
LINE
  5
217
100
AcDbEntity
  8
_0-4_図枠
  6
CONTINUOUS
 62
     0
100
AcDbLine
 10
370.5
 20
112
 11
161.5
 21
112
  0
LINE
  5
218
100
AcDbEntity
  8
_0-4_図枠
  6
CONTINUOUS
 62
     0
100
AcDbLine
 10
370.5
 20
136
 11
161.5
 21
136
  0
LINE
  5
219
100
AcDbEntity
  8
_0-4_図枠
  6
CONTINUOUS
 62
     0
100
AcDbLine
 10
370.5
 20
124
 11
161.5
 21
124
  0
LINE
  5
21A
100
AcDbEntity
  8
_0-4_図枠
  6
CONTINUOUS
 62
     0
100
AcDbLine
 10
370.5
 20
76
 11
161.5
 21
76
  0
LINE
  5
21B
100
AcDbEntity
  8
_0-4_図枠
  6
CONTINUOUS
 62
     0
100
AcDbLine
 10
370.5
 20
88
 11
161.5
 21
88
  0
TEXT
  5
21C
100
AcDbEntity
  8
_0-4_図枠
  6
CONTINUOUS
 62
     0
100
AcDbText
 10
177.1666666667
 20
90.58333333333
 40
4.99
  1
ステンワッシャー
  7
STANDARD
100
AcDbText
  0
TEXT
  5
21D
100
AcDbEntity
  8
_0-4_図枠
  6
CONTINUOUS
 62
     0
100
AcDbText
 10
176.75
 20
102.5833333333
 40
4.99
  1
アジャストアンカー
  7
STANDARD
100
AcDbText
  0
TEXT
  5
21E
100
AcDbEntity
  8
_0-4_図枠
  6
CONTINUOUS
 62
     0
100
AcDbText
 10
177.1666666667
 20
114.5833333333
 40
5
  1
ステン六角ボルト
 41
0.998
  7
STANDARD
100
AcDbText
  0
TEXT
  5
21F
100
AcDbEntity
  8
_0-4_図枠
  6
CONTINUOUS
 62
     0
100
AcDbText
 10
178
 20
78.58333333333
 40
4.99
  1
ブチルテープ
  7
STANDARD
100
AcDbText
  0
TEXT
  5
220
100
AcDbEntity
  8
_0-4_図枠
  6
CONTINUOUS
 62
     0
100
AcDbText
 10
164.8333333333
 20
78.58333333333
 40
4.99
  1
※
  7
STANDARD
100
AcDbText
  0
LINE
  5
221
100
AcDbEntity
  8
_0-4_図枠
  6
CONTINUOUS
 62
     0
100
AcDbLine
 10
370.5
 20
148
 11
161.5
 21
148
  0
TEXT
  5
222
100
AcDbEntity
  8
_0-4_図枠
  6
CONTINUOUS
 62
     0
100
AcDbText
 10
164.8333333333
 20
102.5833333333
 40
5
  1
11
  7
STANDARD
100
AcDbText
  0
TEXT
  5
223
100
AcDbEntity
  8
_0-4_図枠
  6
CONTINUOUS
 62
     0
100
AcDbText
 10
164.8333333333
 20
114.5833333333
 40
5
  1
10
  7
STANDARD
100
AcDbText
  0
TEXT
  5
224
100
AcDbEntity
  8
_0-4_図枠
  6
CONTINUOUS
 62
     0
100
AcDbText
 10
164.8333333333
 20
126.5833333333
 40
5
  1
 9
  7
STANDARD
100
AcDbText
  0
TEXT
  5
225
100
AcDbEntity
  8
_0-4_図枠
  6
CONTINUOUS
 62
     0
100
AcDbText
 10
164.8333333333
 20
138.5833333333
 40
5
  1
 8
  7
STANDARD
100
AcDbText
  0
TEXT
  5
226
100
AcDbEntity
  8
_0-4_図枠
  6
CONTINUOUS
 62
     0
100
AcDbText
 10
164.8333333333
 20
90.58333333333
 40
5
  1
12
  7
STANDARD
100
AcDbText
  0
LINE
  5
227
100
AcDbEntity
  8
_0-4_図枠
  6
CONTINUOUS
 62
     0
100
AcDbLine
 10
161.5
 20
76
 11
161.5
 21
244
  0
LINE
  5
228
100
AcDbEntity
  8
_0-4_図枠
  6
CONTINUOUS
 62
     0
100
AcDbLine
 10
175.5
 20
76
 11
175.5
 21
244
  0
LINE
  5
229
100
AcDbEntity
  8
_0-4_図枠
  6
CONTINUOUS
 62
     0
100
AcDbLine
 10
275.5
 20
76
 11
275.5
 21
244
  0
LINE
  5
22A
100
AcDbEntity
  8
_0-4_図枠
  6
CONTINUOUS
 62
     0
100
AcDbLine
 10
370.5
 20
76
 11
370.5
 21
244
  0
LINE
  5
22B
100
AcDbEntity
  8
_0-4_図枠
  6
CONTINUOUS
 62
     0
100
AcDbLine
 10
371.5
 20
76
 11
371.5
 21
244
  0
TEXT
  5
22C
100
AcDbEntity
  8
_0-4_図枠
  6
CONTINUOUS
 62
     0
100
AcDbText
 10
177.1666666667
 20
138.5833333333
 40
5
  1
ウォーターガード
 41
0.998
  7
STANDARD
100
AcDbText
  0
TEXT
  5
22D
100
AcDbEntity
  8
_0-4_図枠
  6
CONTINUOUS
 62
     0
100
AcDbText
 10
177.1666666667
 20
222.5833333333
 40
5
  1
ＦＹＹキヤップＳ
 41
0.998
  7
STANDARD
100
AcDbText
  0
LINE
  5
22E
100
AcDbEntity
  8
_0-4_図枠
  6
CONTINUOUS
 62
     0
100
AcDbLine
 10
371.5
 20
244
 11
438.5
 21
244
  0
LINE
  5
22F
100
AcDbEntity
  8
_0-4_図枠
  6
CONTINUOUS
 62
     0
100
AcDbLine
 10
371.5
 20
160
 11
438.5
 21
160
  0
LINE
  5
230
100
AcDbEntity
  8
_0-4_図枠
  6
CONTINUOUS
 62
     0
100
AcDbLine
 10
371.5
 20
172
 11
438.5
 21
172
  0
LINE
  5
231
100
AcDbEntity
  8
_0-4_図枠
  6
CONTINUOUS
 62
     0
100
AcDbLine
 10
371.5
 20
184
 11
438.5
 21
184
  0
LINE
  5
232
100
AcDbEntity
  8
_0-4_図枠
  6
CONTINUOUS
 62
     0
100
AcDbLine
 10
371.5
 20
196
 11
438.5
 21
196
  0
LINE
  5
233
100
AcDbEntity
  8
_0-4_図枠
  6
CONTINUOUS
 62
     0
100
AcDbLine
 10
371.5
 20
208
 11
438.5
 21
208
  0
LINE
  5
234
100
AcDbEntity
  8
_0-4_図枠
  6
CONTINUOUS
 62
     0
100
AcDbLine
 10
371.5
 20
220
 11
438.5
 21
220
  0
LINE
  5
235
100
AcDbEntity
  8
_0-4_図枠
  6
CONTINUOUS
 62
     0
100
AcDbLine
 10
371.5
 20
232
 11
438.5
 21
232
  0
TEXT
  5
236
100
AcDbEntity
  8
_0-4_図枠
  6
CONTINUOUS
 62
     0
100
AcDbText
 10
428.0833333333
 20
210.5833333333
 40
4.99
  1
〃
  7
STANDARD
100
AcDbText
  0
TEXT
  5
237
100
AcDbEntity
  8
_0-4_図枠
  6
CONTINUOUS
 62
     0
100
AcDbText
 10
428.0833333333
 20
222.5833333333
 40
5
  1
本
 41
0.998
  7
STANDARD
100
AcDbText
  0
TEXT
  5
238
100
AcDbEntity
  8
_0-4_図枠
  6
CONTINUOUS
 62
     0
100
AcDbText
 10
424.1666666667
 20
234.5833333333
 40
5
  1
単位
 41
0.998
  7
STANDARD
100
AcDbText
  0
TEXT
  5
239
100
AcDbEntity
  8
_0-4_図枠
  6
CONTINUOUS
 62
     0
100
AcDbText
 10
381.4166666667
 20
210.5833333333
 40
4.99
  1
2000
  7
STANDARD
100
AcDbText
  0
TEXT
  5
23A
100
AcDbEntity
  8
_0-4_図枠
  6
CONTINUOUS
 62
     0
100
AcDbText
 10
381.4166666667
 20
222.5833333333
 40
5
  1
2000
 41
0.998
  7
STANDARD
100
AcDbText
  0
TEXT
  5
23B
100
AcDbEntity
  8
_0-4_図枠
  6
CONTINUOUS
 62
     0
100
AcDbText
 10
373.5833333333
 20
234.5833333333
 40
5
  1
定尺(mm)
  7
STANDARD
100
AcDbText
  0
TEXT
  5
23C
100
AcDbEntity
  8
_0-4_図枠
  6
CONTINUOUS
 62
     0
100
AcDbText
 10
411.8333333333
 20
210.5833333333
 40
4.99
  1
 2
  7
STANDARD
100
AcDbText
  0
TEXT
  5
23D
100
AcDbEntity
  8
_0-4_図枠
  6
CONTINUOUS
 62
     0
100
AcDbText
 10
411.8333333333
 20
222.5833333333
 40
5
  1
 1
 41
0.998
  7
STANDARD
100
AcDbText
  0
TEXT
  5
23E
100
AcDbEntity
  8
_0-4_図枠
  6
CONTINUOUS
 62
     0
100
AcDbText
 10
408.1666666667
 20
234.5833333333
 40
5
  1
入数
  7
STANDARD
100
AcDbText
  0
TEXT
  5
23F
100
AcDbEntity
  8
_0-4_図枠
  6
CONTINUOUS
 62
     0
100
AcDbText
 10
374.1666666667
 20
244.9031162741
 40
5
  1
（2000mmセット）
 41
0.998
  7
STANDARD
100
AcDbText
  0
TEXT
  5
240
100
AcDbEntity
  8
_0-4_図枠
  6
CONTINUOUS
 62
     0
100
AcDbText
 10
428.0833333333
 20
162.5833333333
 40
5
  1
〃
 41
0.998
  7
STANDARD
100
AcDbText
  0
TEXT
  5
241
100
AcDbEntity
  8
_0-4_図枠
  6
CONTINUOUS
 62
     0
100
AcDbText
 10
428.0833333333
 20
174.5833333333
 40
5
  1
〃
 41
0.998
  7
STANDARD
100
AcDbText
  0
TEXT
  5
242
100
AcDbEntity
  8
_0-4_図枠
  6
CONTINUOUS
 62
     0
100
AcDbText
 10
428.0833333333
 20
186.5833333333
 40
4.99
  1
〃
  7
STANDARD
100
AcDbText
  0
TEXT
  5
243
100
AcDbEntity
  8
_0-4_図枠
  6
CONTINUOUS
 62
     0
100
AcDbText
 10
428.0833333333
 20
198.5833333333
 40
4.99
  1
個
  7
STANDARD
100
AcDbText
  0
TEXT
  5
244
100
AcDbEntity
  8
_0-4_図枠
  6
CONTINUOUS
 62
     0
100
AcDbText
 10
411.8333333333
 20
162.5833333333
 40
5
  1
 1
 41
0.998
  7
STANDARD
100
AcDbText
  0
TEXT
  5
245
100
AcDbEntity
  8
_0-4_図枠
  6
CONTINUOUS
 62
     0
100
AcDbText
 10
411.8333333333
 20
174.5833333333
 40
5
  1
 8
 41
0.998
  7
STANDARD
100
AcDbText
  0
TEXT
  5
246
100
AcDbEntity
  8
_0-4_図枠
  6
CONTINUOUS
 62
     0
100
AcDbText
 10
411.8333333333
 20
186.5833333333
 40
4.99
  1
 8
  7
STANDARD
100
AcDbText
  0
TEXT
  5
247
100
AcDbEntity
  8
_0-4_図枠
  6
CONTINUOUS
 62
     0
100
AcDbText
 10
411.8333333333
 20
198.5833333333
 40
4.99
  1
 4
  7
STANDARD
100
AcDbText
  0
LINE
  5
248
100
AcDbEntity
  8
_0-4_図枠
  6
CONTINUOUS
 62
     0
100
AcDbLine
 10
371.5
 20
160
 11
438.5
 21
160
  0
TEXT
  5
249
100
AcDbEntity
  8
_0-4_図枠
  6
CONTINUOUS
 62
     0
100
AcDbText
 10
428.0833333333
 20
150.5833333333
 40
5
  1
〃
 41
0.998
  7
STANDARD
100
AcDbText
  0
TEXT
  5
24A
100
AcDbEntity
  8
_0-4_図枠
  6
CONTINUOUS
 62
     0
100
AcDbText
 10
381.4166666667
 20
150.5833333333
 40
5
  1
2100
 41
0.998
  7
STANDARD
100
AcDbText
  0
TEXT
  5
24B
100
AcDbEntity
  8
_0-4_図枠
  6
CONTINUOUS
 62
     0
100
AcDbText
 10
411.8333333333
 20
150.5833333333
 40
5
  1
 1
 41
0.998
  7
STANDARD
100
AcDbText
  0
LINE
  5
24C
100
AcDbEntity
  8
_0-4_図枠
  6
CONTINUOUS
 62
     0
100
AcDbLine
 10
371.5
 20
136
 11
438.5
 21
136
  0
LINE
  5
24D
100
AcDbEntity
  8
_0-4_図枠
  6
CONTINUOUS
 62
     0
100
AcDbLine
 10
371.5
 20
76
 11
438.5
 21
76
  0
LINE
  5
24E
100
AcDbEntity
  8
_0-4_図枠
  6
CONTINUOUS
 62
     0
100
AcDbLine
 10
371.5
 20
88
 11
438.5
 21
88
  0
LINE
  5
24F
100
AcDbEntity
  8
_0-4_図枠
  6
CONTINUOUS
 62
     0
100
AcDbLine
 10
371.5
 20
100
 11
438.5
 21
100
  0
LINE
  5
250
100
AcDbEntity
  8
_0-4_図枠
  6
CONTINUOUS
 62
     0
100
AcDbLine
 10
371.5
 20
124
 11
438.5
 21
124
  0
LINE
  5
251
100
AcDbEntity
  8
_0-4_図枠
  6
CONTINUOUS
 62
     0
100
AcDbLine
 10
371.5
 20
136
 11
438.5
 21
136
  0
LINE
  5
252
100
AcDbEntity
  8
_0-4_図枠
  6
CONTINUOUS
 62
     0
100
AcDbLine
 10
371.5
 20
112
 11
438.5
 21
112
  0
TEXT
  5
253
100
AcDbEntity
  8
_0-4_図枠
  6
CONTINUOUS
 62
     0
100
AcDbText
 10
428.0833333333
 20
90.58333333333
 40
4.99
  1
枚
  7
STANDARD
100
AcDbText
  0
TEXT
  5
254
100
AcDbEntity
  8
_0-4_図枠
  6
CONTINUOUS
 62
     0
100
AcDbText
 10
428.0833333333
 20
102.5833333333
 40
4.99
  1
〃
  7
STANDARD
100
AcDbText
  0
TEXT
  5
255
100
AcDbEntity
  8
_0-4_図枠
  6
CONTINUOUS
 62
     0
100
AcDbText
 10
428.0833333333
 20
114.5833333333
 40
5
  1
〃
 41
0.998
  7
STANDARD
100
AcDbText
  0
TEXT
  5
256
100
AcDbEntity
  8
_0-4_図枠
  6
CONTINUOUS
 62
     0
100
AcDbText
 10
428.0833333333
 20
126.5833333333
 40
5
  1
本
 41
0.998
  7
STANDARD
100
AcDbText
  0
TEXT
  5
257
100
AcDbEntity
  8
_0-4_図枠
  6
CONTINUOUS
 62
     0
100
AcDbText
 10
411.8333333333
 20
90.58333333333
 40
4.99
  1
10
  7
STANDARD
100
AcDbText
  0
TEXT
  5
258
100
AcDbEntity
  8
_0-4_図枠
  6
CONTINUOUS
 62
     0
100
AcDbText
 10
411.8333333333
 20
102.5833333333
 40
4.99
  1
10
  7
STANDARD
100
AcDbText
  0
TEXT
  5
259
100
AcDbEntity
  8
_0-4_図枠
  6
CONTINUOUS
 62
     0
100
AcDbText
 10
411.8333333333
 20
114.5833333333
 40
5
  1
10
 41
0.998
  7
STANDARD
100
AcDbText
  0
TEXT
  5
25A
100
AcDbEntity
  8
_0-4_図枠
  6
CONTINUOUS
 62
     0
100
AcDbText
 10
411.8333333333
 20
126.5833333333
 40
5
  1
 8
 41
0.998
  7
STANDARD
100
AcDbText
  0
TEXT
  5
25B
100
AcDbEntity
  8
_0-4_図枠
  6
CONTINUOUS
 62
     0
100
AcDbText
 10
428.0833333333
 20
78.58333333333
 40
4.99
  1
巻
  7
STANDARD
100
AcDbText
  0
TEXT
  5
25C
100
AcDbEntity
  8
_0-4_図枠
  6
CONTINUOUS
 62
     0
100
AcDbText
 10
381.4166666667
 20
78.58333333333
 40
4.99
  1
6000
  7
STANDARD
100
AcDbText
  0
TEXT
  5
25D
100
AcDbEntity
  8
_0-4_図枠
  6
CONTINUOUS
 62
     0
100
AcDbText
 10
411.8333333333
 20
78.58333333333
 40
4.99
  1
 1
  7
STANDARD
100
AcDbText
  0
LINE
  5
25E
100
AcDbEntity
  8
_0-4_図枠
  6
CONTINUOUS
 62
     0
100
AcDbLine
 10
371.5
 20
76
 11
371.5
 21
244
  0
LINE
  5
25F
100
AcDbEntity
  8
_0-4_図枠
  6
CONTINUOUS
 62
     0
100
AcDbLine
 10
371.5
 20
148
 11
438.5
 21
148
  0
LINE
  5
260
100
AcDbEntity
  8
_0-4_図枠
  6
CONTINUOUS
 62
     0
100
AcDbLine
 10
406.5
 20
76
 11
406.5
 21
244
  0
LINE
  5
261
100
AcDbEntity
  8
_0-4_図枠
  6
CONTINUOUS
 62
     0
100
AcDbLine
 10
424.5
 20
76
 11
424.5
 21
244
  0
LINE
  5
262
100
AcDbEntity
  8
_0-4_図枠
  6
CONTINUOUS
 62
     0
100
AcDbLine
 10
438.5
 20
76
 11
438.5
 21
244
  0
TEXT
  5
263
100
AcDbEntity
  8
_0-4_図枠
  6
CONTINUOUS
 62
     0
100
AcDbText
 10
428.0833333333
 20
138.5833333333
 40
5
  1
〃
 41
0.998
  7
STANDARD
100
AcDbText
  0
TEXT
  5
264
100
AcDbEntity
  8
_0-4_図枠
  6
CONTINUOUS
 62
     0
100
AcDbText
 10
411.8333333333
 20
138.5833333333
 40
5
  1
 2
 41
0.998
  7
STANDARD
100
AcDbText
  0
TEXT
  5
265
100
AcDbEntity
  8
_0-4_図枠
  6
CONTINUOUS
 62
     0
100
AcDbText
 10
381.4166666667
 20
138.5833333333
 40
5
  1
2000
 41
0.998
  7
STANDARD
100
AcDbText
  0
TEXT
  5
266
100
AcDbEntity
  8
_0-4_図枠
  6
CONTINUOUS
 62
     0
100
AcDbText
 10
53.04650870913
 20
584.4696321568
 40
10
  1
◇ステンレス５０タイプ（５０ＦＹＹＧ－Ｓ）
  7
STANDARD
100
AcDbText
  0
TEXT
  5
267
100
AcDbEntity
  8
ADD_LINE
  6
CONTINUOUS
 62
     0
100
AcDbText
 10
613.5
 20
235
 40
4.99
  1
Ｗ
  7
STANDARD
100
AcDbText
  0
TEXT
  5
268
100
AcDbEntity
  8
ADD_LINE
  6
CONTINUOUS
 62
     0
100
AcDbText
 10
549.4999995
 20
235
 40
4.99
  1
タ　イ　プ
  7
STANDARD
100
AcDbText
  0
TEXT
  5
269
100
AcDbEntity
  8
ADD_LINE
  6
CONTINUOUS
 62
     0
100
AcDbText
 10
643.5
 20
235
 40
4.99
  1
Ｃ
  7
STANDARD
100
AcDbText
  0
LINE
  5
26A
100
AcDbEntity
  8
ADD_LINE
  6
CONTINUOUS
 62
     0
100
AcDbLine
 10
661.5
 20
244
 11
526.5
 21
244
  0
TEXT
  5
26B
100
AcDbEntity
  8
ADD_LINE
  6
CONTINUOUS
 62
     0
100
AcDbText
 10
620.5
 20
245.3197829407
 40
4.99
  1
（単位：mm）
  7
STANDARD
100
AcDbText
  0
LINE
  5
26C
100
AcDbEntity
  8
ADD_LINE
  6
CONTINUOUS
 62
     0
100
AcDbLine
 10
661.5
 20
100
 11
526.5
 21
100
  0
LINE
  5
26D
100
AcDbEntity
  8
ADD_LINE
  6
CONTINUOUS
 62
     0
100
AcDbLine
 10
661.5
 20
112
 11
526.5
 21
112
  0
LINE
  5
26E
100
AcDbEntity
  8
ADD_LINE
  6
CONTINUOUS
 62
     0
100
AcDbLine
 10
661.5
 20
124
 11
526.5
 21
124
  0
LINE
  5
26F
100
AcDbEntity
  8
ADD_LINE
  6
CONTINUOUS
 62
     0
100
AcDbLine
 10
661.5
 20
136
 11
526.5
 21
136
  0
LINE
  5
270
100
AcDbEntity
  8
ADD_LINE
  6
CONTINUOUS
 62
     0
100
AcDbLine
 10
661.5
 20
148
 11
526.5
 21
148
  0
LINE
  5
271
100
AcDbEntity
  8
ADD_LINE
  6
CONTINUOUS
 62
     0
100
AcDbLine
 10
661.5
 20
160
 11
526.5
 21
160
  0
LINE
  5
272
100
AcDbEntity
  8
ADD_LINE
  6
CONTINUOUS
 62
     0
100
AcDbLine
 10
661.5
 20
172
 11
526.5
 21
172
  0
LINE
  5
273
100
AcDbEntity
  8
ADD_LINE
  6
CONTINUOUS
 62
     0
100
AcDbLine
 10
661.5
 20
184
 11
526.5
 21
184
  0
LINE
  5
274
100
AcDbEntity
  8
ADD_LINE
  6
CONTINUOUS
 62
     0
100
AcDbLine
 10
661.5
 20
196
 11
526.5
 21
196
  0
LINE
  5
275
100
AcDbEntity
  8
ADD_LINE
  6
CONTINUOUS
 62
     0
100
AcDbLine
 10
661.5
 20
208
 11
526.5
 21
208
  0
LINE
  5
276
100
AcDbEntity
  8
ADD_LINE
  6
CONTINUOUS
 62
     0
100
AcDbLine
 10
661.5
 20
232
 11
526.5
 21
232
  0
LINE
  5
277
100
AcDbEntity
  8
ADD_LINE
  6
CONTINUOUS
 62
     0
100
AcDbLine
 10
661.5
 20
220
 11
526.5
 21
220
  0
TEXT
  5
278
100
AcDbEntity
  8
ADD_LINE
  6
CONTINUOUS
 62
     0
100
AcDbText
 10
611.5
 20
103
 40
4.99
  1
900
  7
STANDARD
100
AcDbText
  0
TEXT
  5
279
100
AcDbEntity
  8
ADD_LINE
  6
CONTINUOUS
 62
     0
100
AcDbText
 10
611.5
 20
115
 40
4.99
  1
850
  7
STANDARD
100
AcDbText
  0
TEXT
  5
27A
100
AcDbEntity
  8
ADD_LINE
  6
CONTINUOUS
 62
     0
100
AcDbText
 10
611.5
 20
127
 40
4.99
  1
800
  7
STANDARD
100
AcDbText
  0
TEXT
  5
27B
100
AcDbEntity
  8
ADD_LINE
  6
CONTINUOUS
 62
     0
100
AcDbText
 10
611.5
 20
139
 40
4.99
  1
750
  7
STANDARD
100
AcDbText
  0
TEXT
  5
27C
100
AcDbEntity
  8
ADD_LINE
  6
CONTINUOUS
 62
     0
100
AcDbText
 10
611.5
 20
151
 40
4.99
  1
700
  7
STANDARD
100
AcDbText
  0
TEXT
  5
27D
100
AcDbEntity
  8
ADD_LINE
  6
CONTINUOUS
 62
     0
100
AcDbText
 10
611.5
 20
163
 40
4.99
  1
650
  7
STANDARD
100
AcDbText
  0
TEXT
  5
27E
100
AcDbEntity
  8
ADD_LINE
  6
CONTINUOUS
 62
     0
100
AcDbText
 10
611.5
 20
175
 40
4.99
  1
600
  7
STANDARD
100
AcDbText
  0
TEXT
  5
27F
100
AcDbEntity
  8
ADD_LINE
  6
CONTINUOUS
 62
     0
100
AcDbText
 10
611.5
 20
187
 40
4.99
  1
550
  7
STANDARD
100
AcDbText
  0
TEXT
  5
280
100
AcDbEntity
  8
ADD_LINE
  6
CONTINUOUS
 62
     0
100
AcDbText
 10
611.5
 20
211
 40
4.99
  1
450
  7
STANDARD
100
AcDbText
  0
TEXT
  5
281
100
AcDbEntity
  8
ADD_LINE
  6
CONTINUOUS
 62
     0
100
AcDbText
 10
611.5
 20
199
 40
4.99
  1
500
  7
STANDARD
100
AcDbText
  0
TEXT
  5
282
100
AcDbEntity
  8
ADD_LINE
  6
CONTINUOUS
 62
     0
100
AcDbText
 10
641.5
 20
211
 40
4.99
  1
125
  7
STANDARD
100
AcDbText
  0
TEXT
  5
283
100
AcDbEntity
  8
ADD_LINE
  6
CONTINUOUS
 62
     0
100
AcDbText
 10
641.5
 20
199
 40
4.99
  1
150
  7
STANDARD
100
AcDbText
  0
TEXT
  5
284
100
AcDbEntity
  8
ADD_LINE
  6
CONTINUOUS
 62
     0
100
AcDbText
 10
641.5
 20
115
 40
4.99
  1
325
  7
STANDARD
100
AcDbText
  0
TEXT
  5
285
100
AcDbEntity
  8
ADD_LINE
  6
CONTINUOUS
 62
     0
100
AcDbText
 10
641.5
 20
127
 40
4.99
  1
300
  7
STANDARD
100
AcDbText
  0
TEXT
  5
286
100
AcDbEntity
  8
ADD_LINE
  6
CONTINUOUS
 62
     0
100
AcDbText
 10
641.5
 20
139
 40
4.99
  1
275
  7
STANDARD
100
AcDbText
  0
TEXT
  5
287
100
AcDbEntity
  8
ADD_LINE
  6
CONTINUOUS
 62
     0
100
AcDbText
 10
641.5
 20
151
 40
4.99
  1
250
  7
STANDARD
100
AcDbText
  0
TEXT
  5
288
100
AcDbEntity
  8
ADD_LINE
  6
CONTINUOUS
 62
     0
100
AcDbText
 10
641.5
 20
163
 40
4.99
  1
225
  7
STANDARD
100
AcDbText
  0
TEXT
  5
289
100
AcDbEntity
  8
ADD_LINE
  6
CONTINUOUS
 62
     0
100
AcDbText
 10
641.5
 20
175
 40
4.99
  1
200
  7
STANDARD
100
AcDbText
  0
TEXT
  5
28A
100
AcDbEntity
  8
ADD_LINE
  6
CONTINUOUS
 62
     0
100
AcDbText
 10
641.5
 20
187
 40
4.99
  1
175
  7
STANDARD
100
AcDbText
  0
TEXT
  5
28B
100
AcDbEntity
  8
ADD_LINE
  6
CONTINUOUS
 62
     0
100
AcDbText
 10
611.5
 20
223
 40
4.99
  1
400
  7
STANDARD
100
AcDbText
  0
TEXT
  5
28C
100
AcDbEntity
  8
ADD_LINE
  6
CONTINUOUS
 62
     0
100
AcDbText
 10
641.5
 20
223
 40
4.99
  1
100
  7
STANDARD
100
AcDbText
  0
TEXT
  5
28D
100
AcDbEntity
  8
_0-2_寸法
  6
CONTINUOUS
 62
     0
100
AcDbText
 10
641.8647253307
 20
103.5342848254
 40
4.99
  1
350
  7
STANDARD
100
AcDbText
  0
TEXT
  5
28E
100
AcDbEntity
  8
ADD_LINE
  6
CONTINUOUS
 62
     0
100
AcDbText
 10
540.9246585044
 20
211
 40
4.99
  1
 　　〃　　　４５０
  7
STANDARD
100
AcDbText
  0
TEXT
  5
28F
100
AcDbEntity
  8
ADD_LINE
  6
CONTINUOUS
 62
     0
100
AcDbText
 10
540.9246585044
 20
199
 40
4.99
  1
 　　〃　　　５００
  7
STANDARD
100
AcDbText
  0
TEXT
  5
290
100
AcDbEntity
  8
ADD_LINE
  6
CONTINUOUS
 62
     0
100
AcDbText
 10
540.9246585044
 20
187
 40
4.99
  1
 　　〃　　　５５０
  7
STANDARD
100
AcDbText
  0
TEXT
  5
291
100
AcDbEntity
  8
ADD_LINE
  6
CONTINUOUS
 62
     0
100
AcDbText
 10
540.9246585044
 20
175
 40
4.99
  1
 　　〃　　　６００
  7
STANDARD
100
AcDbText
  0
TEXT
  5
292
100
AcDbEntity
  8
ADD_LINE
  6
CONTINUOUS
 62
     0
100
AcDbText
 10
540.9246585044
 20
163
 40
4.99
  1
 　　〃　　　６５０
  7
STANDARD
100
AcDbText
  0
TEXT
  5
293
100
AcDbEntity
  8
ADD_LINE
  6
CONTINUOUS
 62
     0
100
AcDbText
 10
540.9246585044
 20
151
 40
4.99
  1
 　　〃　　　７００
  7
STANDARD
100
AcDbText
  0
TEXT
  5
294
100
AcDbEntity
  8
ADD_LINE
  6
CONTINUOUS
 62
     0
100
AcDbText
 10
540.9246585044
 20
139
 40
4.99
  1
 　　〃　　　７５０
  7
STANDARD
100
AcDbText
  0
TEXT
  5
295
100
AcDbEntity
  8
ADD_LINE
  6
CONTINUOUS
 62
     0
100
AcDbText
 10
540.9246585044
 20
127
 40
4.99
  1
 　　〃　　　８００
  7
STANDARD
100
AcDbText
  0
TEXT
  5
296
100
AcDbEntity
  8
ADD_LINE
  6
CONTINUOUS
 62
     0
100
AcDbText
 10
540.9246585044
 20
115
 40
4.99
  1
 　　〃　　　８５０
  7
STANDARD
100
AcDbText
  0
TEXT
  5
297
100
AcDbEntity
  8
ADD_LINE
  6
CONTINUOUS
 62
     0
100
AcDbText
 10
540.9246585044
 20
103
 40
4.99
  1
 　　〃　　　９００
  7
STANDARD
100
AcDbText
  0
LINE
  5
298
100
AcDbEntity
  8
ADD_LINE
  6
CONTINUOUS
 62
     0
100
AcDbLine
 10
661.5
 20
244
 11
661.5
 21
100
  0
LINE
  5
299
100
AcDbEntity
  8
ADD_LINE
  6
CONTINUOUS
 62
     0
100
AcDbLine
 10
631.5
 20
244
 11
631.5
 21
100
  0
LINE
  5
29A
100
AcDbEntity
  8
ADD_LINE
  6
CONTINUOUS
 62
     0
100
AcDbLine
 10
601.5
 20
244
 11
601.5
 21
100
  0
LINE
  5
29B
100
AcDbEntity
  8
ADD_LINE
  6
CONTINUOUS
 62
     0
100
AcDbLine
 10
526.5
 20
244
 11
526.5
 21
100
  0
TEXT
  5
29C
100
AcDbEntity
  8
ADD_LINE
  6
CONTINUOUS
 62
     0
100
AcDbText
 10
533.3580127559
 20
223.2516813984
 40
4.99
  1
５０ＦＹＹＧ－Ｓ４００
  7
STANDARD
100
AcDbText
  0
ARC
  5
29D
100
AcDbEntity
  8
_0-3_躯体と製品
  6
CONTINUOUS
 62
     0
100
AcDbCircle
 10
420.4714402261
 20
418.0004079135
 40
1
100
AcDbArc
 50
5
 51
88.36342295838
  0
LINE
  5
29E
100
AcDbEntity
  8
_0-3_躯体と製品
  6
CONTINUOUS
 62
     0
100
AcDbLine
 10
421.4676349242
 20
418.0875636563
 11
427.7514194704
 21
346.2635776338
  0
ARC
  5
29F
100
AcDbEntity
  8
_0-3_躯体と製品
  6
CONTINUOUS
 62
     0
100
AcDbCircle
 10
470.5285597739
 20
418.0004079135
 40
1
100
AcDbArc
 50
91.63657704162
 51
175
  0
LINE
  5
2A0
100
AcDbEntity
  8
_0-3_躯体と製品
  6
CONTINUOUS
 62
     0
100
AcDbLine
 10
469.5323650758
 20
418.0875636563
 11
463.2485805296
 21
346.2635776338
  0
LINE
  5
2A1
100
AcDbEntity
  8
_0-3_躯体と製品
  6
CONTINUOUS
 62
     0
100
AcDbLine
 10
505.5
 20
419
 11
535.5
 21
419
  0
LINE
  5
2A2
100
AcDbEntity
  8
_0-3_躯体と製品
  6
CONTINUOUS
 62
     0
100
AcDbLine
 10
535.5
 20
419
 11
535.5
 21
420
  0
LINE
  5
2A3
100
AcDbEntity
  8
_0-3_躯体と製品
  6
CONTINUOUS
 62
     0
100
AcDbLine
 10
535.5
 20
420
 11
505.5
 21
420
  0
LINE
  5
2A4
100
AcDbEntity
  8
_0-3_躯体と製品
  6
CONTINUOUS
 62
     0
100
AcDbLine
 10
505.5
 20
420
 11
505.5
 21
419
  0
LINE
  5
2A5
100
AcDbEntity
  8
_0-3_躯体と製品
  6
CONTINUOUS
 62
     0
100
AcDbLine
 10
535.3436848989
 20
419
 11
535.5
 21
419.1563151011
  0
LINE
  5
2A6
100
AcDbEntity
  8
_0-3_躯体と製品
  6
CONTINUOUS
 62
     0
100
AcDbLine
 10
533.9294713365
 20
419
 11
534.9294713365
 21
420
  0
LINE
  5
2A7
100
AcDbEntity
  8
_0-3_躯体と製品
  6
CONTINUOUS
 62
     0
100
AcDbLine
 10
532.5152577741
 20
419
 11
533.5152577741
 21
420
  0
LINE
  5
2A8
100
AcDbEntity
  8
_0-3_躯体と製品
  6
CONTINUOUS
 62
     0
100
AcDbLine
 10
531.1010442118
 20
419
 11
532.1010442118
 21
420
  0
LINE
  5
2A9
100
AcDbEntity
  8
_0-3_躯体と製品
  6
CONTINUOUS
 62
     0
100
AcDbLine
 10
529.6868306494
 20
419
 11
530.6868306494
 21
420
  0
LINE
  5
2AA
100
AcDbEntity
  8
_0-3_躯体と製品
  6
CONTINUOUS
 62
     0
100
AcDbLine
 10
528.272617087
 20
419
 11
529.272617087
 21
420
  0
LINE
  5
2AB
100
AcDbEntity
  8
_0-3_躯体と製品
  6
CONTINUOUS
 62
     0
100
AcDbLine
 10
526.8584035246
 20
419
 11
527.8584035246
 21
420
  0
LINE
  5
2AC
100
AcDbEntity
  8
_0-3_躯体と製品
  6
CONTINUOUS
 62
     0
100
AcDbLine
 10
525.4441899623
 20
419
 11
526.4441899623
 21
420
  0
LINE
  5
2AD
100
AcDbEntity
  8
_0-3_躯体と製品
  6
CONTINUOUS
 62
     0
100
AcDbLine
 10
524.0299763999
 20
419
 11
525.0299763999
 21
420
  0
LINE
  5
2AE
100
AcDbEntity
  8
_0-3_躯体と製品
  6
CONTINUOUS
 62
     0
100
AcDbLine
 10
522.6157628375
 20
419
 11
523.6157628375
 21
420
  0
LINE
  5
2AF
100
AcDbEntity
  8
_0-3_躯体と製品
  6
CONTINUOUS
 62
     0
100
AcDbLine
 10
521.2015492751
 20
419
 11
522.2015492751
 21
420
  0
LINE
  5
2B0
100
AcDbEntity
  8
_0-3_躯体と製品
  6
CONTINUOUS
 62
     0
100
AcDbLine
 10
519.7873357128
 20
419
 11
520.7873357128
 21
420
  0
LINE
  5
2B1
100
AcDbEntity
  8
_0-3_躯体と製品
  6
CONTINUOUS
 62
     0
100
AcDbLine
 10
518.3731221504
 20
419
 11
519.3731221504
 21
420
  0
LINE
  5
2B2
100
AcDbEntity
  8
_0-3_躯体と製品
  6
CONTINUOUS
 62
     0
100
AcDbLine
 10
516.958908588
 20
419
 11
517.958908588
 21
420
  0
LINE
  5
2B3
100
AcDbEntity
  8
_0-3_躯体と製品
  6
CONTINUOUS
 62
     0
100
AcDbLine
 10
515.5446950257
 20
419
 11
516.5446950257
 21
420
  0
LINE
  5
2B4
100
AcDbEntity
  8
_0-3_躯体と製品
  6
CONTINUOUS
 62
     0
100
AcDbLine
 10
514.1304814633
 20
419
 11
515.1304814633
 21
420
  0
LINE
  5
2B5
100
AcDbEntity
  8
_0-3_躯体と製品
  6
CONTINUOUS
 62
     0
100
AcDbLine
 10
512.7162679009
 20
419
 11
513.7162679009
 21
420
  0
LINE
  5
2B6
100
AcDbEntity
  8
_0-3_躯体と製品
  6
CONTINUOUS
 62
     0
100
AcDbLine
 10
511.3020543385
 20
419
 11
512.3020543385
 21
420
  0
LINE
  5
2B7
100
AcDbEntity
  8
_0-3_躯体と製品
  6
CONTINUOUS
 62
     0
100
AcDbLine
 10
509.8878407762
 20
419
 11
510.8878407762
 21
420
  0
LINE
  5
2B8
100
AcDbEntity
  8
_0-3_躯体と製品
  6
CONTINUOUS
 62
     0
100
AcDbLine
 10
508.4736272138
 20
419
 11
509.4736272138
 21
420
  0
LINE
  5
2B9
100
AcDbEntity
  8
_0-3_躯体と製品
  6
CONTINUOUS
 62
     0
100
AcDbLine
 10
507.0594136514
 20
419
 11
508.0594136514
 21
420
  0
LINE
  5
2BA
100
AcDbEntity
  8
_0-3_躯体と製品
  6
CONTINUOUS
 62
     0
100
AcDbLine
 10
505.645200089
 20
419
 11
506.645200089
 21
420
  0
LINE
  5
2BB
100
AcDbEntity
  8
_0-3_躯体と製品
  6
CONTINUOUS
 62
     0
100
AcDbLine
 10
617.6570078687
 20
468.0644603198
 11
445.5
 21
477.0868267902
  0
LINE
  5
2BC
100
AcDbEntity
  8
_0-3_躯体と製品
  6
CONTINUOUS
 62
     0
100
AcDbLine
 10
620.5
 20
465.0685717156
 11
620.5
 21
380.9154654157
  0
LINE
  5
2BD
100
AcDbEntity
  8
_0-3_躯体と製品
  6
CONTINUOUS
 62
     0
100
AcDbLine
 10
591.7895666054
 20
465.6585299668
 11
589.4050736378
 21
468.0430229343
  0
LINE
  5
2BE
100
AcDbEntity
  8
_0-3_躯体と製品
  6
CONTINUOUS
 62
     0
100
AcDbLine
 10
373.4958886043
 20
439.0805222966
 11
373.6842980467
 21
435.4854559715
  0
LINE
  5
2BF
100
AcDbEntity
  8
_0-3_躯体と製品
  6
CONTINUOUS
 62
     0
100
AcDbLine
 10
367.5041113957
 20
438.7665065592
 11
367.6925208382
 21
435.171440234
  0
LINE
  5
2C0
100
AcDbEntity
  8
_0-3_躯体と製品
  6
CONTINUOUS
 62
     0
100
AcDbLine
 10
517.5041113957
 20
439.0805222966
 11
517.3157019533
 21
435.4854559715
  0
LINE
  5
2C1
100
AcDbEntity
  8
_0-3_躯体と製品
  6
CONTINUOUS
 62
     0
100
AcDbLine
 10
523.4958886043
 20
438.7665065592
 11
523.3074791618
 21
435.171440234
  0
LINE
  5
2C2
100
AcDbEntity
  8
_0-3_躯体と製品
  6
CONTINUOUS
 62
     0
100
AcDbLine
 10
356.5
 20
429.5
 11
356.5
 21
427.9
  0
LINE
  5
2C3
100
AcDbEntity
  8
_0-3_躯体と製品
  6
CONTINUOUS
 62
     0
100
AcDbLine
 10
384.5
 20
429.5
 11
384.5
 21
427.9
  0
LINE
  5
2C4
100
AcDbEntity
  8
_0-3_躯体と製品
  6
CONTINUOUS
 62
     0
100
AcDbLine
 10
506.5
 20
429.5
 11
506.5
 21
427.9
  0
LINE
  5
2C5
100
AcDbEntity
  8
_0-3_躯体と製品
  6
CONTINUOUS
 62
     0
100
AcDbLine
 10
529.5099055081
 20
438.4513252887
 11
511.7099055081
 21
439.3841837599
  0
LINE
  5
2C6
100
AcDbEntity
  8
_0-3_躯体と製品
  6
CONTINUOUS
 62
     0
100
AcDbLine
 10
529.4261679781
 20
436.853518033
 11
511.6261679781
 21
437.7863765043
  0
ARC
  5
2C7
100
AcDbEntity
  8
_0-3_躯体と製品
  6
CONTINUOUS
 62
     0
100
AcDbCircle
 10
525.9562519084
 20
436.0339962826
 40
1
100
AcDbArc
 50
86.99999999999
 51
177
  0
LINE
  5
2C8
100
AcDbEntity
  8
_0-3_躯体と製品
  6
CONTINUOUS
 62
     0
100
AcDbLine
 10
524.9576223736
 20
436.0863322388
 11
524.9052864174
 21
435.0877027041
  0
ARC
  5
2C9
100
AcDbEntity
  8
_0-3_躯体と製品
  6
CONTINUOUS
 62
     0
100
AcDbCircle
 10
514.7716011191
 20
436.6201589925
 40
1
100
AcDbArc
 50
-2.999999999999
 51
86.99999999999
  0
LINE
  5
2CA
100
AcDbEntity
  8
_0-3_躯体と製品
  6
CONTINUOUS
 62
     0
100
AcDbLine
 10
515.7702306539
 20
436.5678230362
 11
515.7178946977
 21
435.5691935015
  0
LINE
  5
2CB
100
AcDbEntity
  8
_0-3_躯体と製品
  6
CONTINUOUS
 62
     0
100
AcDbLine
 10
524.9052864174
 20
435.0877027041
 11
515.7178946977
 21
435.5691935015
  0
ARC
  5
2CC
100
AcDbEntity
  8
_0-3_躯体と製品
  6
CONTINUOUS
 62
     0
100
AcDbCircle
 10
529.4
 20
436.3542032657
 40
2.1
100
AcDbArc
 50
0
 51
86.99999999999
  0
LINE
  5
2CD
100
AcDbEntity
  8
_0-3_躯体と製品
  6
CONTINUOUS
 62
     0
100
AcDbLine
 10
531.5
 20
436.3542032657
 11
531.5
 21
430
  0
ARC
  5
2CE
100
AcDbEntity
  8
_0-3_躯体と製品
  6
CONTINUOUS
 62
     0
100
AcDbCircle
 10
511.6
 20
437.2870617369
 40
2.1
100
AcDbArc
 50
86.99999999999
 51
180
  0
ARC
  5
2CF
100
AcDbEntity
  8
_0-3_躯体と製品
  6
CONTINUOUS
 62
     0
100
AcDbCircle
 10
529.4
 20
436.3542032657
 40
0.5
100
AcDbArc
 50
0
 51
86.99999999999
  0
LINE
  5
2D0
100
AcDbEntity
  8
_0-3_躯体と製品
  6
CONTINUOUS
 62
     0
100
AcDbLine
 10
529.9
 20
436.3542032657
 11
529.9
 21
430
  0
ARC
  5
2D1
100
AcDbEntity
  8
_0-3_躯体と製品
  6
CONTINUOUS
 62
     0
100
AcDbCircle
 10
511.6
 20
437.2870617369
 40
0.5
100
AcDbArc
 50
86.99999999999
 51
180
  0
LINE
  5
2D2
100
AcDbEntity
  8
_0-3_躯体と製品
  6
CONTINUOUS
 62
     0
100
AcDbLine
 10
511.1
 20
437.2870617369
 11
511.1
 21
430
  0
ARC
  5
2D3
100
AcDbEntity
  8
_0-3_躯体と製品
  6
CONTINUOUS
 62
     0
100
AcDbCircle
 10
532
 20
430
 40
0.5
100
AcDbArc
 50
180
 51
270
  0
ARC
  5
2D4
100
AcDbEntity
  8
_0-3_躯体と製品
  6
CONTINUOUS
 62
     0
100
AcDbCircle
 10
532
 20
430
 40
2.1
100
AcDbArc
 50
180
 51
270
  0
LINE
  5
2D5
100
AcDbEntity
  8
_0-3_躯体と製品
  6
CONTINUOUS
 62
     0
100
AcDbLine
 10
536.5
 20
429.5
 11
536.5
 21
427.9
  0
LINE
  5
2D6
100
AcDbEntity
  8
_0-3_躯体と製品
  6
CONTINUOUS
 62
     0
100
AcDbLine
 10
532
 20
429.5
 11
536.5
 21
429.5
  0
LINE
  5
2D7
100
AcDbEntity
  8
_0-3_躯体と製品
  6
CONTINUOUS
 62
     0
100
AcDbLine
 10
536.5
 20
427.9
 11
532
 21
427.9
  0
ARC
  5
2D8
100
AcDbEntity
  8
_0-3_躯体と製品
  6
CONTINUOUS
 62
     0
100
AcDbCircle
 10
509
 20
430
 40
0.5
100
AcDbArc
 50
-90
 51
0
  0
ARC
  5
2D9
100
AcDbEntity
  8
_0-3_躯体と製品
  6
CONTINUOUS
 62
     0
100
AcDbCircle
 10
509
 20
430
 40
2.1
100
AcDbArc
 50
-90
 51
0
  0
LINE
  5
2DA
100
AcDbEntity
  8
_0-3_躯体と製品
  6
CONTINUOUS
 62
     0
100
AcDbLine
 10
504.5
 20
429.5
 11
509
 21
429.5
  0
LINE
  5
2DB
100
AcDbEntity
  8
_0-3_躯体と製品
  6
CONTINUOUS
 62
     0
100
AcDbLine
 10
504.5
 20
427.9
 11
504.5
 21
429.5
  0
LINE
  5
2DC
100
AcDbEntity
  8
_0-3_躯体と製品
  6
CONTINUOUS
 62
     0
100
AcDbLine
 10
504.5
 20
427.9
 11
509
 21
427.9
  0
LINE
  5
2DD
100
AcDbEntity
  8
_0-3_躯体と製品
  6
CONTINUOUS
 62
     0
100
AcDbLine
 10
509.5
 20
437.2870617369
 11
509.5
 21
430
  0
LINE
  5
2DE
100
AcDbEntity
  8
_0-3_躯体と製品
  6
CONTINUOUS
 62
     0
100
AcDbLine
 10
381.5
 20
437.2870617369
 11
381.5
 21
430
  0
LINE
  5
2DF
100
AcDbEntity
  8
_0-3_躯体と製品
  6
CONTINUOUS
 62
     0
100
AcDbLine
 10
386.5
 20
427.9
 11
382
 21
427.9
  0
LINE
  5
2E0
100
AcDbEntity
  8
_0-3_躯体と製品
  6
CONTINUOUS
 62
     0
100
AcDbLine
 10
386.5
 20
427.9
 11
386.5
 21
429.5
  0
LINE
  5
2E1
100
AcDbEntity
  8
_0-3_躯体と製品
  6
CONTINUOUS
 62
     0
100
AcDbLine
 10
386.5
 20
429.5
 11
382
 21
429.5
  0
ARC
  5
2E2
100
AcDbEntity
  8
_0-3_躯体と製品
  6
CONTINUOUS
 62
     0
100
AcDbCircle
 10
382
 20
430
 40
2.1
100
AcDbArc
 50
180
 51
270
  0
ARC
  5
2E3
100
AcDbEntity
  8
_0-3_躯体と製品
  6
CONTINUOUS
 62
     0
100
AcDbCircle
 10
382
 20
430
 40
0.5
100
AcDbArc
 50
180
 51
270
  0
LINE
  5
2E4
100
AcDbEntity
  8
_0-3_躯体と製品
  6
CONTINUOUS
 62
     0
100
AcDbLine
 10
354.5
 20
427.9
 11
359
 21
427.9
  0
LINE
  5
2E5
100
AcDbEntity
  8
_0-3_躯体と製品
  6
CONTINUOUS
 62
     0
100
AcDbLine
 10
359
 20
429.5
 11
354.5
 21
429.5
  0
ARC
  5
2E6
100
AcDbEntity
  8
_0-3_躯体と製品
  6
CONTINUOUS
 62
     0
100
AcDbCircle
 10
359
 20
430
 40
2.1
100
AcDbArc
 50
-90
 51
0
  0
ARC
  5
2E7
100
AcDbEntity
  8
_0-3_躯体と製品
  6
CONTINUOUS
 62
     0
100
AcDbCircle
 10
359
 20
430
 40
0.5
100
AcDbArc
 50
-90
 51
0
  0
LINE
  5
2E8
100
AcDbEntity
  8
_0-3_躯体と製品
  6
CONTINUOUS
 62
     0
100
AcDbLine
 10
379.9
 20
437.2870617369
 11
379.9
 21
430
  0
ARC
  5
2E9
100
AcDbEntity
  8
_0-3_躯体と製品
  6
CONTINUOUS
 62
     0
100
AcDbCircle
 10
379.4
 20
437.2870617369
 40
0.5
100
AcDbArc
 50
0
 51
93.00000000001
  0
LINE
  5
2EA
100
AcDbEntity
  8
_0-3_躯体と製品
  6
CONTINUOUS
 62
     0
100
AcDbLine
 10
361.1
 20
436.3542032657
 11
361.1
 21
430
  0
ARC
  5
2EB
100
AcDbEntity
  8
_0-3_躯体と製品
  6
CONTINUOUS
 62
     0
100
AcDbCircle
 10
361.6
 20
436.3542032657
 40
0.5
100
AcDbArc
 50
93.00000000001
 51
180
  0
ARC
  5
2EC
100
AcDbEntity
  8
_0-3_躯体と製品
  6
CONTINUOUS
 62
     0
100
AcDbCircle
 10
379.4
 20
437.2870617369
 40
2.1
100
AcDbArc
 50
0
 51
93.00000000001
  0
LINE
  5
2ED
100
AcDbEntity
  8
_0-3_躯体と製品
  6
CONTINUOUS
 62
     0
100
AcDbLine
 10
359.5
 20
436.3542032657
 11
359.5
 21
430
  0
ARC
  5
2EE
100
AcDbEntity
  8
_0-3_躯体と製品
  6
CONTINUOUS
 62
     0
100
AcDbCircle
 10
361.6
 20
436.3542032657
 40
2.1
100
AcDbArc
 50
93.00000000001
 51
180
  0
LINE
  5
2EF
100
AcDbEntity
  8
_0-3_躯体と製品
  6
CONTINUOUS
 62
     0
100
AcDbLine
 10
366.0947135826
 20
435.0877027041
 11
375.2821053023
 21
435.5691935015
  0
LINE
  5
2F0
100
AcDbEntity
  8
_0-3_躯体と製品
  6
CONTINUOUS
 62
     0
100
AcDbLine
 10
375.2297693461
 20
436.5678230362
 11
375.2821053023
 21
435.5691935015
  0
ARC
  5
2F1
100
AcDbEntity
  8
_0-3_躯体と製品
  6
CONTINUOUS
 62
     0
100
AcDbCircle
 10
376.2283988809
 20
436.6201589925
 40
1
100
AcDbArc
 50
93.00000000001
 51
183
  0
LINE
  5
2F2
100
AcDbEntity
  8
_0-3_躯体と製品
  6
CONTINUOUS
 62
     0
100
AcDbLine
 10
366.0423776264
 20
436.0863322388
 11
366.0947135826
 21
435.0877027041
  0
ARC
  5
2F3
100
AcDbEntity
  8
_0-3_躯体と製品
  6
CONTINUOUS
 62
     0
100
AcDbCircle
 10
365.0437480916
 20
436.0339962826
 40
1
100
AcDbArc
 50
2.999999999999
 51
93.00000000001
  0
LINE
  5
2F4
100
AcDbEntity
  8
_0-3_躯体と製品
  6
CONTINUOUS
 62
     0
100
AcDbLine
 10
361.5738320219
 20
436.853518033
 11
379.3738320219
 21
437.7863765043
  0
LINE
  5
2F5
100
AcDbEntity
  8
_0-3_躯体と製品
  6
CONTINUOUS
 62
     0
100
AcDbLine
 10
361.4900944919
 20
438.4513252887
 11
379.2900944919
 21
439.3841837599
  0
LINE
  5
2F6
100
AcDbEntity
  8
_0-3_躯体と製品
  6
CONTINUOUS
 62
     0
100
AcDbLine
 10
570.5
 20
419
 11
470.5
 21
419
  0
LINE
  5
2F7
100
AcDbEntity
  8
_0-3_躯体と製品
  6
CONTINUOUS
 62
     0
100
AcDbLine
 10
320.5
 20
419
 11
420.5
 21
419
  0
LINE
  5
2F8
100
AcDbEntity
  8
_0-3_躯体と製品
  6
CONTINUOUS
 62
     0
100
AcDbLine
 10
516.45
 20
421
 11
516.45
 21
411.7
  0
LINE
  5
2F9
100
AcDbEntity
  8
_0-3_躯体と製品
  6
CONTINUOUS
 62
     0
100
AcDbLine
 10
524.55
 20
421
 11
524.55
 21
411.7
  0
LINE
  5
2FA
100
AcDbEntity
  8
_0-3_躯体と製品
  6
CONTINUOUS
 62
     0
100
AcDbLine
 10
515.75
 20
411
 11
516.45
 21
411.7
  0
LINE
  5
2FB
100
AcDbEntity
  8
_0-3_躯体と製品
  6
CONTINUOUS
 62
     0
100
AcDbLine
 10
515.75
 20
392.371826
 11
515.75
 21
411
  0
LINE
  5
2FC
100
AcDbEntity
  8
_0-3_躯体と製品
  6
CONTINUOUS
 62
     0
100
AcDbLine
 10
516
 20
380.5
 11
516
 21
381.363304
  0
LINE
  5
2FD
100
AcDbEntity
  8
_0-3_躯体と製品
  6
CONTINUOUS
 62
     0
100
AcDbLine
 10
513.87497
 20
381.738004
 11
515.75
 21
392.371826
  0
LINE
  5
2FE
100
AcDbEntity
  8
_0-3_躯体と製品
  6
CONTINUOUS
 62
     0
100
AcDbLine
 10
520
 20
392
 11
521
 21
392
  0
LINE
  5
2FF
100
AcDbEntity
  8
_0-3_躯体と製品
  6
CONTINUOUS
 62
     0
100
AcDbLine
 10
525.25
 20
411
 11
524.55
 21
411.7
  0
LINE
  5
300
100
AcDbEntity
  8
_0-3_躯体と製品
  6
CONTINUOUS
 62
     0
100
AcDbLine
 10
525.25
 20
392.371826
 11
525.25
 21
411
  0
LINE
  5
301
100
AcDbEntity
  8
_0-3_躯体と製品
  6
CONTINUOUS
 62
     0
100
AcDbLine
 10
524
 20
379.5
 11
517
 21
379.5
  0
ARC
  5
302
100
AcDbEntity
  8
_0-3_躯体と製品
  6
CONTINUOUS
 62
     0
100
AcDbCircle
 10
524
 20
380.5
 40
1
100
AcDbArc
 50
-90
 51
0
  0
LINE
  5
303
100
AcDbEntity
  8
_0-3_躯体と製品
  6
CONTINUOUS
 62
     0
100
AcDbLine
 10
525
 20
380.5
 11
525
 21
381.363304
  0
LINE
  5
304
100
AcDbEntity
  8
_0-3_躯体と製品
  6
CONTINUOUS
 62
     0
100
AcDbLine
 10
527.12503
 20
381.738004
 11
522.939597
 21
381
  0
LINE
  5
305
100
AcDbEntity
  8
_0-3_躯体と製品
  6
CONTINUOUS
 62
     0
100
AcDbLine
 10
520
 20
392
 11
518.060403
 21
381
  0
LINE
  5
306
100
AcDbEntity
  8
_0-3_躯体と製品
  6
CONTINUOUS
 62
     0
100
AcDbLine
 10
521
 20
392
 11
522.939597
 21
381
  0
LINE
  5
307
100
AcDbEntity
  8
_0-3_躯体と製品
  6
CONTINUOUS
 62
     0
100
AcDbLine
 10
527.12503
 20
381.738004
 11
525.25
 21
392.371826
  0
LINE
  5
308
100
AcDbEntity
  8
_0-3_躯体と製品
  6
CONTINUOUS
 62
     0
100
AcDbLine
 10
515.75
 20
411
 11
525.25
 21
411
  0
LINE
  5
309
100
AcDbEntity
  8
_0-3_躯体と製品
  6
CONTINUOUS
 62
     0
100
AcDbLine
 10
516.45
 20
411.7
 11
524.55
 21
411.7
  0
LINE
  5
30A
100
AcDbEntity
  8
_0-3_躯体と製品
  6
CONTINUOUS
 62
     0
100
AcDbLine
 10
513.87497
 20
381.738004
 11
518.060403
 21
381
  0
ARC
  5
30B
100
AcDbEntity
  8
_0-3_躯体と製品
  6
CONTINUOUS
 62
     0
100
AcDbCircle
 10
517
 20
380.5
 40
1
100
AcDbArc
 50
180
 51
270
  0
ARC
  5
30C
100
AcDbEntity
  8
_0-3_躯体と製品
  6
CONTINUOUS
 62
     0
100
AcDbCircle
 10
374
 20
380.5
 40
1
100
AcDbArc
 50
-90
 51
0
  0
LINE
  5
30D
100
AcDbEntity
  8
_0-3_躯体と製品
  6
CONTINUOUS
 62
     0
100
AcDbLine
 10
377.12503
 20
381.738004
 11
372.939597
 21
381
  0
LINE
  5
30E
100
AcDbEntity
  8
_0-3_躯体と製品
  6
CONTINUOUS
 62
     0
100
AcDbLine
 10
374.55
 20
411.7
 11
366.45
 21
411.7
  0
LINE
  5
30F
100
AcDbEntity
  8
_0-3_躯体と製品
  6
CONTINUOUS
 62
     0
100
AcDbLine
 10
375.25
 20
411
 11
365.75
 21
411
  0
LINE
  5
310
100
AcDbEntity
  8
_0-3_躯体と製品
  6
CONTINUOUS
 62
     0
100
AcDbLine
 10
363.87497
 20
381.738004
 11
365.75
 21
392.371826
  0
LINE
  5
311
100
AcDbEntity
  8
_0-3_躯体と製品
  6
CONTINUOUS
 62
     0
100
AcDbLine
 10
370
 20
392
 11
368.060403
 21
381
  0
LINE
  5
312
100
AcDbEntity
  8
_0-3_躯体と製品
  6
CONTINUOUS
 62
     0
100
AcDbLine
 10
371
 20
392
 11
372.939597
 21
381
  0
LINE
  5
313
100
AcDbEntity
  8
_0-3_躯体と製品
  6
CONTINUOUS
 62
     0
100
AcDbLine
 10
363.87497
 20
381.738004
 11
368.060403
 21
381
  0
LINE
  5
314
100
AcDbEntity
  8
_0-3_躯体と製品
  6
CONTINUOUS
 62
     0
100
AcDbLine
 10
366
 20
380.5
 11
366
 21
381.363304
  0
ARC
  5
315
100
AcDbEntity
  8
_0-3_躯体と製品
  6
CONTINUOUS
 62
     0
100
AcDbCircle
 10
367
 20
380.5
 40
1
100
AcDbArc
 50
180
 51
270
  0
LINE
  5
316
100
AcDbEntity
  8
_0-3_躯体と製品
  6
CONTINUOUS
 62
     0
100
AcDbLine
 10
367
 20
379.5
 11
374
 21
379.5
  0
LINE
  5
317
100
AcDbEntity
  8
_0-3_躯体と製品
  6
CONTINUOUS
 62
     0
100
AcDbLine
 10
365.75
 20
392.371826
 11
365.75
 21
411
  0
LINE
  5
318
100
AcDbEntity
  8
_0-3_躯体と製品
  6
CONTINUOUS
 62
     0
100
AcDbLine
 10
365.75
 20
411
 11
366.45
 21
411.7
  0
LINE
  5
319
100
AcDbEntity
  8
_0-3_躯体と製品
  6
CONTINUOUS
 62
     0
100
AcDbLine
 10
371
 20
392
 11
370
 21
392
  0
LINE
  5
31A
100
AcDbEntity
  8
_0-3_躯体と製品
  6
CONTINUOUS
 62
     0
100
AcDbLine
 10
377.12503
 20
381.738004
 11
375.25
 21
392.371826
  0
LINE
  5
31B
100
AcDbEntity
  8
_0-3_躯体と製品
  6
CONTINUOUS
 62
     0
100
AcDbLine
 10
375
 20
380.5
 11
375
 21
381.363304
  0
LINE
  5
31C
100
AcDbEntity
  8
_0-3_躯体と製品
  6
CONTINUOUS
 62
     0
100
AcDbLine
 10
375.25
 20
392.371826
 11
375.25
 21
411
  0
LINE
  5
31D
100
AcDbEntity
  8
_0-3_躯体と製品
  6
CONTINUOUS
 62
     0
100
AcDbLine
 10
375.25
 20
411
 11
374.55
 21
411.7
  0
LINE
  5
31E
100
AcDbEntity
  8
_0-3_躯体と製品
  6
CONTINUOUS
 62
     0
100
AcDbLine
 10
366.45
 20
421
 11
366.45
 21
411.7
  0
LINE
  5
31F
100
AcDbEntity
  8
_0-3_躯体と製品
  6
CONTINUOUS
 62
     0
100
AcDbLine
 10
374.55
 20
421
 11
374.55
 21
411.7
  0
LINE
  5
320
100
AcDbEntity
  8
_0-3_躯体と製品
  6
CONTINUOUS
 62
     0
100
AcDbLine
 10
520.5
 20
423
 11
520
 21
423.5
  0
LINE
  5
321
100
AcDbEntity
  8
_0-3_躯体と製品
  6
CONTINUOUS
 62
     0
100
AcDbLine
 10
536.7
 20
429.5
 11
533.75
 21
429.5
  0
ARC
  5
322
100
AcDbEntity
  8
_0-3_躯体と製品
  6
CONTINUOUS
 62
     0
100
AcDbCircle
 10
536.7
 20
429.2
 40
0.3
100
AcDbArc
 50
0
 51
90
  0
LINE
  5
323
100
AcDbEntity
  8
_0-3_躯体と製品
  6
CONTINUOUS
 62
     0
100
AcDbLine
 10
537
 20
429.2
 11
537
 21
427.3
  0
ARC
  5
324
100
AcDbEntity
  8
_0-3_躯体と製品
  6
CONTINUOUS
 62
     0
100
AcDbCircle
 10
536.7
 20
427.3
 40
0.3
100
AcDbArc
 50
-90
 51
0
  0
LINE
  5
325
100
AcDbEntity
  8
_0-3_躯体と製品
  6
CONTINUOUS
 62
     0
100
AcDbLine
 10
536.7
 20
427
 11
534.75
 21
427
  0
LINE
  5
326
100
AcDbEntity
  8
_0-3_躯体と製品
  6
CONTINUOUS
 62
     0
100
AcDbLine
 10
537
 20
425.2
 11
537
 21
423.8
  0
ARC
  5
327
100
AcDbEntity
  8
_0-3_躯体と製品
  6
CONTINUOUS
 62
     0
100
AcDbCircle
 10
536.7
 20
425.2
 40
0.3
100
AcDbArc
 50
0
 51
90
  0
LINE
  5
328
100
AcDbEntity
  8
_0-3_躯体と製品
  6
CONTINUOUS
 62
     0
100
AcDbLine
 10
536.7
 20
425.5
 11
534.75
 21
425.5
  0
ARC
  5
329
100
AcDbEntity
  8
_0-3_躯体と製品
  6
CONTINUOUS
 62
     0
100
AcDbCircle
 10
534.75
 20
426.25
 40
0.75
100
AcDbArc
 50
90
 51
270
  0
ARC
  5
32A
100
AcDbEntity
  8
_0-3_躯体と製品
  6
CONTINUOUS
 62
     0
100
AcDbCircle
 10
533.75
 20
430.25
 40
0.75
100
AcDbArc
 50
90
 51
270
  0
LINE
  5
32B
100
AcDbEntity
  8
_0-3_躯体と製品
  6
CONTINUOUS
 62
     0
100
AcDbLine
 10
537
 20
431.5
 11
537
 21
439
  0
ARC
  5
32C
100
AcDbEntity
  8
_0-3_躯体と製品
  6
CONTINUOUS
 62
     0
100
AcDbCircle
 10
536.5
 20
431.5
 40
0.5
100
AcDbArc
 50
-90
 51
0
  0
LINE
  5
32D
100
AcDbEntity
  8
_0-3_躯体と製品
  6
CONTINUOUS
 62
     0
100
AcDbLine
 10
536.5
 20
431
 11
533.75
 21
431
  0
ARC
  5
32E
100
AcDbEntity
  8
_0-3_躯体と製品
  6
CONTINUOUS
 62
     0
100
AcDbCircle
 10
536.7
 20
423.8
 40
0.3
100
AcDbArc
 50
-90
 51
0
  0
ARC
  5
32F
100
AcDbEntity
  8
_0-3_躯体と製品
  6
CONTINUOUS
 62
     0
100
AcDbCircle
 10
539.5
 20
424
 40
0.5
100
AcDbArc
 50
180
 51
270
  0
LINE
  5
330
100
AcDbEntity
  8
_0-3_躯体と製品
  6
CONTINUOUS
 62
     0
100
AcDbLine
 10
539
 20
421
 11
539
 21
422
  0
LINE
  5
331
100
AcDbEntity
  8
_0-3_躯体と製品
  6
CONTINUOUS
 62
     0
100
AcDbLine
 10
520.5
 20
423
 11
521
 21
423.5
  0
ARC
  5
332
100
AcDbEntity
  8
_0-3_躯体と製品
  6
CONTINUOUS
 62
     0
100
AcDbCircle
 10
538
 20
439
 40
1
100
AcDbArc
 50
0
 51
180
  0
LINE
  5
333
100
AcDbEntity
  8
_0-3_躯体と製品
  6
CONTINUOUS
 62
     0
100
AcDbLine
 10
537
 20
421
 11
539
 21
421
  0
LINE
  5
334
100
AcDbEntity
  8
_0-3_躯体と製品
  6
CONTINUOUS
 62
     0
100
AcDbLine
 10
537
 20
421.5
 11
537
 21
421
  0
LINE
  5
335
100
AcDbEntity
  8
_0-3_躯体と製品
  6
CONTINUOUS
 62
     0
100
AcDbLine
 10
525.5
 20
421.5
 11
537
 21
421.5
  0
LINE
  5
336
100
AcDbEntity
  8
_0-3_躯体と製品
  6
CONTINUOUS
 62
     0
100
AcDbLine
 10
525.5
 20
421
 11
525.5
 21
421.5
  0
LINE
  5
337
100
AcDbEntity
  8
_0-3_躯体と製品
  6
CONTINUOUS
 62
     0
100
AcDbLine
 10
504.3
 20
423.5
 11
520
 21
423.5
  0
LINE
  5
338
100
AcDbEntity
  8
_0-3_躯体と製品
  6
CONTINUOUS
 62
     0
100
AcDbLine
 10
521
 20
423.5
 11
536.7
 21
423.5
  0
LINE
  5
339
100
AcDbEntity
  8
_0-3_躯体と製品
  6
CONTINUOUS
 62
     0
100
AcDbLine
 10
515.5
 20
421
 11
525.5
 21
421
  0
LINE
  5
33A
100
AcDbEntity
  8
_0-3_躯体と製品
  6
CONTINUOUS
 62
     0
100
AcDbLine
 10
502.5
 20
430.5
 11
502.5
 21
421
  0
ARC
  5
33B
100
AcDbEntity
  8
_0-3_躯体と製品
  6
CONTINUOUS
 62
     0
100
AcDbCircle
 10
503
 20
430.5
 40
0.5
100
AcDbArc
 50
90
 51
180
  0
LINE
  5
33C
100
AcDbEntity
  8
_0-3_躯体と製品
  6
CONTINUOUS
 62
     0
100
AcDbLine
 10
503
 20
431
 11
507.25
 21
431
  0
LINE
  5
33D
100
AcDbEntity
  8
_0-3_躯体と製品
  6
CONTINUOUS
 62
     0
100
AcDbLine
 10
504
 20
423.8
 11
504
 21
425.2
  0
ARC
  5
33E
100
AcDbEntity
  8
_0-3_躯体と製品
  6
CONTINUOUS
 62
     0
100
AcDbCircle
 10
504.3
 20
423.8
 40
0.3
100
AcDbArc
 50
180
 51
270
  0
LINE
  5
33F
100
AcDbEntity
  8
_0-3_躯体と製品
  6
CONTINUOUS
 62
     0
100
AcDbLine
 10
504.3
 20
425.5
 11
506.25
 21
425.5
  0
ARC
  5
340
100
AcDbEntity
  8
_0-3_躯体と製品
  6
CONTINUOUS
 62
     0
100
AcDbCircle
 10
504.3
 20
425.2
 40
0.3
100
AcDbArc
 50
90
 51
180
  0
LINE
  5
341
100
AcDbEntity
  8
_0-3_躯体と製品
  6
CONTINUOUS
 62
     0
100
AcDbLine
 10
504
 20
427.3
 11
504
 21
429.2
  0
ARC
  5
342
100
AcDbEntity
  8
_0-3_躯体と製品
  6
CONTINUOUS
 62
     0
100
AcDbCircle
 10
504.3
 20
427.3
 40
0.3
100
AcDbArc
 50
180
 51
270
  0
LINE
  5
343
100
AcDbEntity
  8
_0-3_躯体と製品
  6
CONTINUOUS
 62
     0
100
AcDbLine
 10
504.3
 20
427
 11
506.25
 21
427
  0
LINE
  5
344
100
AcDbEntity
  8
_0-3_躯体と製品
  6
CONTINUOUS
 62
     0
100
AcDbLine
 10
504.3
 20
429.5
 11
507.25
 21
429.5
  0
ARC
  5
345
100
AcDbEntity
  8
_0-3_躯体と製品
  6
CONTINUOUS
 62
     0
100
AcDbCircle
 10
504.3
 20
429.2
 40
0.3
100
AcDbArc
 50
90
 51
180
  0
ARC
  5
346
100
AcDbEntity
  8
_0-3_躯体と製品
  6
CONTINUOUS
 62
     0
100
AcDbCircle
 10
506.25
 20
426.25
 40
0.75
100
AcDbArc
 50
-90
 51
90
  0
ARC
  5
347
100
AcDbEntity
  8
_0-3_躯体と製品
  6
CONTINUOUS
 62
     0
100
AcDbCircle
 10
507.25
 20
430.25
 40
0.75
100
AcDbArc
 50
-90
 51
90
  0
LINE
  5
348
100
AcDbEntity
  8
_0-3_躯体と製品
  6
CONTINUOUS
 62
     0
100
AcDbLine
 10
515.5
 20
421.5
 11
515.5
 21
421
  0
LINE
  5
349
100
AcDbEntity
  8
_0-3_躯体と製品
  6
CONTINUOUS
 62
     0
100
AcDbLine
 10
504
 20
421.5
 11
515.5
 21
421.5
  0
LINE
  5
34A
100
AcDbEntity
  8
_0-3_躯体と製品
  6
CONTINUOUS
 62
     0
100
AcDbLine
 10
504
 20
421
 11
504
 21
421.5
  0
LINE
  5
34B
100
AcDbEntity
  8
_0-3_躯体と製品
  6
CONTINUOUS
 62
     0
100
AcDbLine
 10
502.5
 20
421
 11
504
 21
421
  0
LINE
  5
34C
100
AcDbEntity
  8
_0-3_躯体と製品
  6
CONTINUOUS
 62
     0
100
AcDbLine
 10
388.5
 20
421
 11
387
 21
421
  0
LINE
  5
34D
100
AcDbEntity
  8
_0-3_躯体と製品
  6
CONTINUOUS
 62
     0
100
AcDbLine
 10
387
 20
421
 11
387
 21
421.5
  0
LINE
  5
34E
100
AcDbEntity
  8
_0-3_躯体と製品
  6
CONTINUOUS
 62
     0
100
AcDbLine
 10
387
 20
421.5
 11
375.5
 21
421.5
  0
LINE
  5
34F
100
AcDbEntity
  8
_0-3_躯体と製品
  6
CONTINUOUS
 62
     0
100
AcDbLine
 10
375.5
 20
421.5
 11
375.5
 21
421
  0
ARC
  5
350
100
AcDbEntity
  8
_0-3_躯体と製品
  6
CONTINUOUS
 62
     0
100
AcDbCircle
 10
383.75
 20
430.25
 40
0.75
100
AcDbArc
 50
90
 51
270
  0
ARC
  5
351
100
AcDbEntity
  8
_0-3_躯体と製品
  6
CONTINUOUS
 62
     0
100
AcDbCircle
 10
384.75
 20
426.25
 40
0.75
100
AcDbArc
 50
90
 51
270
  0
ARC
  5
352
100
AcDbEntity
  8
_0-3_躯体と製品
  6
CONTINUOUS
 62
     0
100
AcDbCircle
 10
386.7
 20
429.2
 40
0.3
100
AcDbArc
 50
0
 51
90
  0
LINE
  5
353
100
AcDbEntity
  8
_0-3_躯体と製品
  6
CONTINUOUS
 62
     0
100
AcDbLine
 10
386.7
 20
429.5
 11
383.75
 21
429.5
  0
LINE
  5
354
100
AcDbEntity
  8
_0-3_躯体と製品
  6
CONTINUOUS
 62
     0
100
AcDbLine
 10
386.7
 20
427
 11
384.75
 21
427
  0
ARC
  5
355
100
AcDbEntity
  8
_0-3_躯体と製品
  6
CONTINUOUS
 62
     0
100
AcDbCircle
 10
386.7
 20
427.3
 40
0.3
100
AcDbArc
 50
-90
 51
0
  0
LINE
  5
356
100
AcDbEntity
  8
_0-3_躯体と製品
  6
CONTINUOUS
 62
     0
100
AcDbLine
 10
387
 20
427.3
 11
387
 21
429.2
  0
ARC
  5
357
100
AcDbEntity
  8
_0-3_躯体と製品
  6
CONTINUOUS
 62
     0
100
AcDbCircle
 10
386.7
 20
425.2
 40
0.3
100
AcDbArc
 50
0
 51
90
  0
LINE
  5
358
100
AcDbEntity
  8
_0-3_躯体と製品
  6
CONTINUOUS
 62
     0
100
AcDbLine
 10
386.7
 20
425.5
 11
384.75
 21
425.5
  0
ARC
  5
359
100
AcDbEntity
  8
_0-3_躯体と製品
  6
CONTINUOUS
 62
     0
100
AcDbCircle
 10
386.7
 20
423.8
 40
0.3
100
AcDbArc
 50
-90
 51
0
  0
LINE
  5
35A
100
AcDbEntity
  8
_0-3_躯体と製品
  6
CONTINUOUS
 62
     0
100
AcDbLine
 10
387
 20
423.8
 11
387
 21
425.2
  0
LINE
  5
35B
100
AcDbEntity
  8
_0-3_躯体と製品
  6
CONTINUOUS
 62
     0
100
AcDbLine
 10
388
 20
431
 11
383.75
 21
431
  0
ARC
  5
35C
100
AcDbEntity
  8
_0-3_躯体と製品
  6
CONTINUOUS
 62
     0
100
AcDbCircle
 10
388
 20
430.5
 40
0.5
100
AcDbArc
 50
0
 51
90
  0
LINE
  5
35D
100
AcDbEntity
  8
_0-3_躯体と製品
  6
CONTINUOUS
 62
     0
100
AcDbLine
 10
388.5
 20
430.5
 11
388.5
 21
421
  0
LINE
  5
35E
100
AcDbEntity
  8
_0-3_躯体と製品
  6
CONTINUOUS
 62
     0
100
AcDbLine
 10
375.5
 20
421
 11
365.5
 21
421
  0
LINE
  5
35F
100
AcDbEntity
  8
_0-3_躯体と製品
  6
CONTINUOUS
 62
     0
100
AcDbLine
 10
370
 20
423.5
 11
354.3
 21
423.5
  0
LINE
  5
360
100
AcDbEntity
  8
_0-3_躯体と製品
  6
CONTINUOUS
 62
     0
100
AcDbLine
 10
386.7
 20
423.5
 11
371
 21
423.5
  0
LINE
  5
361
100
AcDbEntity
  8
_0-3_躯体と製品
  6
CONTINUOUS
 62
     0
100
AcDbLine
 10
365.5
 20
421
 11
365.5
 21
421.5
  0
LINE
  5
362
100
AcDbEntity
  8
_0-3_躯体と製品
  6
CONTINUOUS
 62
     0
100
AcDbLine
 10
365.5
 20
421.5
 11
354
 21
421.5
  0
LINE
  5
363
100
AcDbEntity
  8
_0-3_躯体と製品
  6
CONTINUOUS
 62
     0
100
AcDbLine
 10
370.5
 20
423
 11
370
 21
423.5
  0
LINE
  5
364
100
AcDbEntity
  8
_0-3_躯体と製品
  6
CONTINUOUS
 62
     0
100
AcDbLine
 10
354.5
 20
431
 11
357.25
 21
431
  0
ARC
  5
365
100
AcDbEntity
  8
_0-3_躯体と製品
  6
CONTINUOUS
 62
     0
100
AcDbCircle
 10
357.25
 20
430.25
 40
0.75
100
AcDbArc
 50
-90
 51
90
  0
ARC
  5
366
100
AcDbEntity
  8
_0-3_躯体と製品
  6
CONTINUOUS
 62
     0
100
AcDbCircle
 10
356.25
 20
426.25
 40
0.75
100
AcDbArc
 50
-90
 51
90
  0
LINE
  5
367
100
AcDbEntity
  8
_0-3_躯体と製品
  6
CONTINUOUS
 62
     0
100
AcDbLine
 10
354.3
 20
425.5
 11
356.25
 21
425.5
  0
LINE
  5
368
100
AcDbEntity
  8
_0-3_躯体と製品
  6
CONTINUOUS
 62
     0
100
AcDbLine
 10
354.3
 20
427
 11
356.25
 21
427
  0
LINE
  5
369
100
AcDbEntity
  8
_0-3_躯体と製品
  6
CONTINUOUS
 62
     0
100
AcDbLine
 10
354.3
 20
429.5
 11
357.25
 21
429.5
  0
LINE
  5
36A
100
AcDbEntity
  8
_0-3_躯体と製品
  6
CONTINUOUS
 62
     0
100
AcDbLine
 10
370.5
 20
423
 11
371
 21
423.5
  0
ARC
  5
36B
100
AcDbEntity
  8
_0-3_躯体と製品
  6
CONTINUOUS
 62
     0
100
AcDbCircle
 10
532.4136348158
 20
462.3243329515
 40
1
100
AcDbArc
 50
37.62684736228
 51
86.99999999999
  0
LINE
  5
36C
100
AcDbEntity
  8
_0-3_躯体と製品
  6
CONTINUOUS
 62
     0
100
AcDbLine
 10
511.191885643
 20
465.238987921
 11
532.5078395371
 21
464.1218661141
  0
ARC
  5
36D
100
AcDbEntity
  8
_0-3_躯体と製品
  6
CONTINUOUS
 62
     0
100
AcDbCircle
 10
511.0976809217
 20
463.4414547584
 40
1.8
100
AcDbArc
 50
86.99999999999
 51
136.3731526377
  0
LINE
  5
36E
100
AcDbEntity
  8
_0-3_躯体と製品
  6
CONTINUOUS
 62
     0
100
AcDbLine
 10
511.150016878
 20
464.4400842932
 11
532.4659707721
 21
463.3229624863
  0
LINE
  5
36F
100
AcDbEntity
  8
_0-3_躯体と製品
  6
CONTINUOUS
 62
     0
100
AcDbLine
 10
510.3738322782
 20
464.1314135552
 11
497.4438811844
 21
450.5663606786
  0
ARC
  5
370
100
AcDbEntity
  8
_0-3_躯体と製品
  6
CONTINUOUS
 62
     0
100
AcDbCircle
 10
511.0976809217
 20
463.4414547584
 40
1
100
AcDbArc
 50
86.99999999999
 51
136.3731526377
  0
LINE
  5
371
100
AcDbEntity
  8
_0-3_躯体と製品
  6
CONTINUOUS
 62
     0
100
AcDbLine
 10
492.8837980268
 20
453.0853680842
 11
493.517400953
 21
453.5737811593
  0
LINE
  5
372
100
AcDbEntity
  8
_0-3_躯体と製品
  6
CONTINUOUS
 62
     0
100
AcDbLine
 10
492.8837980268
 20
453.0853680842
 11
494.7153470732
 21
450.7093570921
  0
ARC
  5
373
100
AcDbEntity
  8
_0-3_躯体と製品
  6
CONTINUOUS
 62
     0
100
AcDbCircle
 10
496.1409536425
 20
451.8082865301
 40
1
100
AcDbArc
 50
-142.3731512671
 51
-43.62684736228
  0
ARC
  5
374
100
AcDbEntity
  8
_0-3_躯体と製品
  6
CONTINUOUS
 62
     0
100
AcDbCircle
 10
496.1409536425
 20
451.8082865301
 40
1.8
100
AcDbArc
 50
-142.3731518763
 51
-43.62684736228
  0
LINE
  5
375
100
AcDbEntity
  8
_0-3_躯体と製品
  6
CONTINUOUS
 62
     0
100
AcDbLine
 10
548.8661554141
 20
450.6730758519
 11
546.7962790073
 21
448.5015299039
  0
LINE
  5
376
100
AcDbEntity
  8
_0-3_躯体と製品
  6
CONTINUOUS
 62
     0
100
AcDbLine
 10
549.4452343289
 20
450.1211088145
 11
548.8661554141
 21
450.6730758519
  0
LINE
  5
377
100
AcDbEntity
  8
_0-3_躯体と製品
  6
CONTINUOUS
 62
     0
100
AcDbLine
 10
549.4452343289
 20
450.1211088145
 11
547.3753579221
 21
447.9495628665
  0
ARC
  5
378
100
AcDbEntity
  8
_0-3_躯体と製品
  6
CONTINUOUS
 62
     0
100
AcDbCircle
 10
546.0724303802
 20
449.1914887179
 40
1
100
AcDbArc
 50
-142.3731526377
 51
-43.62684873286
  0
ARC
  5
379
100
AcDbEntity
  8
_0-3_躯体と製品
  6
CONTINUOUS
 62
     0
100
AcDbCircle
 10
546.0724303802
 20
449.1914887179
 40
1.8
100
AcDbArc
 50
-142.3731526377
 51
-43.62684812372
  0
LINE
  5
37A
100
AcDbEntity
  8
_0-3_躯体と製品
  6
CONTINUOUS
 62
     0
100
AcDbLine
 10
533.8392413997
 20
463.4232623706
 11
545.2804267371
 21
448.5809723551
  0
LINE
  5
37B
100
AcDbEntity
  8
_0-3_躯体と製品
  6
CONTINUOUS
 62
     0
100
AcDbLine
 10
533.2056384735
 20
462.9348492954
 11
544.646823811
 21
448.0925592799
  0
ARC
  5
37C
100
AcDbEntity
  8
_0-3_躯体と製品
  6
CONTINUOUS
 62
     0
100
AcDbCircle
 10
532.4136348158
 20
462.3243329515
 40
1.8
100
AcDbArc
 50
37.62684736228
 51
86.99999999999
  0
LINE
  5
37D
100
AcDbEntity
  8
_0-3_躯体と製品
  6
CONTINUOUS
 62
     0
100
AcDbLine
 10
493.517400953
 20
453.5737811593
 11
495.3489499994
 21
451.1977701672
  0
LINE
  5
37E
100
AcDbEntity
  8
_0-3_躯体と製品
  6
CONTINUOUS
 62
     0
100
AcDbLine
 10
509.7947533633
 20
464.6833805926
 11
496.8648022861
 21
451.1183277333
  0
ARC
  5
37F
100
AcDbEntity
  8
_0-3_躯体と製品
  6
CONTINUOUS
 62
     0
100
AcDbCircle
 10
358.5863651842
 20
462.3243329515
 40
1
100
AcDbArc
 50
93.00000000001
 51
142.3731526377
  0
LINE
  5
380
100
AcDbEntity
  8
_0-3_躯体と製品
  6
CONTINUOUS
 62
     0
100
AcDbLine
 10
379.808114357
 20
465.238987921
 11
358.4921604629
 21
464.1218661141
  0
ARC
  5
381
100
AcDbEntity
  8
_0-3_躯体と製品
  6
CONTINUOUS
 62
     0
100
AcDbCircle
 10
379.9023190783
 20
463.4414547584
 40
1.8
100
AcDbArc
 50
43.62684736228
 51
93.00000000001
  0
LINE
  5
382
100
AcDbEntity
  8
_0-3_躯体と製品
  6
CONTINUOUS
 62
     0
100
AcDbLine
 10
379.849983122
 20
464.4400842932
 11
358.5340292279
 21
463.3229624863
  0
LINE
  5
383
100
AcDbEntity
  8
_0-3_躯体と製品
  6
CONTINUOUS
 62
     0
100
AcDbLine
 10
380.6261677218
 20
464.1314135552
 11
393.5561188156
 21
450.5663606786
  0
ARC
  5
384
100
AcDbEntity
  8
_0-3_躯体と製品
  6
CONTINUOUS
 62
     0
100
AcDbCircle
 10
379.9023190783
 20
463.4414547584
 40
1
100
AcDbArc
 50
43.62684736228
 51
93.00000000001
  0
LINE
  5
385
100
AcDbEntity
  8
_0-3_躯体と製品
  6
CONTINUOUS
 62
     0
100
AcDbLine
 10
398.1162019732
 20
453.0853680842
 11
397.482599047
 21
453.5737811593
  0
LINE
  5
386
100
AcDbEntity
  8
_0-3_躯体と製品
  6
CONTINUOUS
 62
     0
100
AcDbLine
 10
398.1162019732
 20
453.0853680842
 11
396.2846529268
 21
450.7093570921
  0
ARC
  5
387
100
AcDbEntity
  8
_0-3_躯体と製品
  6
CONTINUOUS
 62
     0
100
AcDbCircle
 10
394.8590463575
 20
451.8082865301
 40
1
100
AcDbArc
 50
-136.3731526377
 51
-37.62684873286
  0
ARC
  5
388
100
AcDbEntity
  8
_0-3_躯体と製品
  6
CONTINUOUS
 62
     0
100
AcDbCircle
 10
394.8590463575
 20
451.8082865301
 40
1.8
100
AcDbArc
 50
-136.3731526377
 51
-37.62684812372
  0
LINE
  5
389
100
AcDbEntity
  8
_0-3_躯体と製品
  6
CONTINUOUS
 62
     0
100
AcDbLine
 10
342.1338445859
 20
450.6730758519
 11
344.2037209927
 21
448.5015299039
  0
LINE
  5
38A
100
AcDbEntity
  8
_0-3_躯体と製品
  6
CONTINUOUS
 62
     0
100
AcDbLine
 10
341.5547656711
 20
450.1211088145
 11
342.1338445859
 21
450.6730758519
  0
LINE
  5
38B
100
AcDbEntity
  8
_0-3_躯体と製品
  6
CONTINUOUS
 62
     0
100
AcDbLine
 10
341.5547656711
 20
450.1211088145
 11
343.6246420779
 21
447.9495628665
  0
ARC
  5
38C
100
AcDbEntity
  8
_0-3_躯体と製品
  6
CONTINUOUS
 62
     0
100
AcDbCircle
 10
344.9275696198
 20
449.1914887179
 40
1
100
AcDbArc
 50
-136.3731512671
 51
-37.62684736228
  0
ARC
  5
38D
100
AcDbEntity
  8
_0-3_躯体と製品
  6
CONTINUOUS
 62
     0
100
AcDbCircle
 10
344.9275696198
 20
449.1914887179
 40
1.8
100
AcDbArc
 50
-136.3731518763
 51
-37.62684736228
  0
LINE
  5
38E
100
AcDbEntity
  8
_0-3_躯体と製品
  6
CONTINUOUS
 62
     0
100
AcDbLine
 10
357.1607586003
 20
463.4232623706
 11
345.7195732629
 21
448.5809723551
  0
LINE
  5
38F
100
AcDbEntity
  8
_0-3_躯体と製品
  6
CONTINUOUS
 62
     0
100
AcDbLine
 10
357.7943615265
 20
462.9348492954
 11
346.353176189
 21
448.0925592799
  0
ARC
  5
390
100
AcDbEntity
  8
_0-3_躯体と製品
  6
CONTINUOUS
 62
     0
100
AcDbCircle
 10
358.5863651842
 20
462.3243329515
 40
1.8
100
AcDbArc
 50
93.00000000001
 51
142.3731526377
  0
LINE
  5
391
100
AcDbEntity
  8
_0-3_躯体と製品
  6
CONTINUOUS
 62
     0
100
AcDbLine
 10
397.482599047
 20
453.5737811593
 11
395.6510500006
 21
451.1977701672
  0
LINE
  5
392
100
AcDbEntity
  8
_0-3_躯体と製品
  6
CONTINUOUS
 62
     0
100
AcDbLine
 10
381.2052466367
 20
464.6833805926
 11
394.1351977139
 21
451.1183277333
  0
LINE
  5
393
100
AcDbEntity
  8
_0-3_躯体と製品
  6
CONTINUOUS
 62
     0
100
AcDbLine
 10
524.2780303038
 20
464.5531721399
 11
523.0324345452
 21
440.7857892128
  0
LINE
  5
394
100
AcDbEntity
  8
_0-3_躯体と製品
  6
CONTINUOUS
 62
     0
100
AcDbLine
 10
524.8457511943
 20
464.5234191488
 11
523.6001554357
 21
440.7560362216
  0
LINE
  5
395
100
AcDbEntity
  8
_0-3_躯体と製品
  6
CONTINUOUS
 62
     0
100
AcDbLine
 10
518.8539739857
 20
464.8374348863
 11
517.6083782272
 21
441.0700519591
  0
LINE
  5
396
100
AcDbEntity
  8
_0-3_躯体と製品
  6
CONTINUOUS
 62
     0
100
AcDbLine
 10
519.4216948763
 20
464.8076818951
 11
518.1760991177
 21
441.040298968
  0
ARC
  5
397
100
AcDbEntity
  8
_0-3_躯体と製品
  6
CONTINUOUS
 62
     0
100
AcDbCircle
 10
520.6659338423
 20
467.884606277
 40
0.6
100
AcDbArc
 50
-3
 51
100.700233
  0
ARC
  5
398
100
AcDbEntity
  8
_0-3_躯体と製品
  6
CONTINUOUS
 62
     0
100
AcDbCircle
 10
523.3622335862
 20
467.7432991951
 40
0.6
100
AcDbArc
 50
73.299767
 51
177
  0
LINE
  5
399
100
AcDbEntity
  8
_0-3_躯体と製品
  6
CONTINUOUS
 62
     0
100
AcDbLine
 10
522.7610019407
 20
467.7355095528
 11
521.2630576386
 21
467.8140134871
  0
ARC
  5
39A
100
AcDbEntity
  8
_0-3_躯体と製品
  6
CONTINUOUS
 62
     0
100
AcDbCircle
 10
520.0366318948
 20
464.580328999
 40
3.45
100
AcDbArc
 50
126.309124
 51
173.762163
  0
ARC
  5
39B
100
AcDbEntity
  8
_0-3_躯体と製品
  6
CONTINUOUS
 62
     0
100
AcDbCircle
 10
523.6479679001
 20
464.386557719
 40
3.45
100
AcDbArc
 50
0.3127429999989
 51
47.820489
  0
ARC
  5
39C
100
AcDbEntity
  8
_0-3_躯体と製品
  6
CONTINUOUS
 62
     0
100
AcDbCircle
 10
521.7242563474
 20
462.2837171327
 40
6.3
100
AcDbArc
 50
47.696869
 51
126.309371
  0
LINE
  5
39D
100
AcDbEntity
  8
_0-3_躯体と製品
  6
CONTINUOUS
 62
     0
100
AcDbLine
 10
523.0437457169
 20
430.1391063229
 11
517.0519685084
 21
430.4531220603
  0
LINE
  5
39E
100
AcDbEntity
  8
_0-3_躯体と製品
  6
CONTINUOUS
 62
     0
100
AcDbLine
 10
517.3157019533
 20
435.4854559715
 11
517.0519685084
 21
430.4531220603
  0
LINE
  5
39F
100
AcDbEntity
  8
_0-3_躯体と製品
  6
CONTINUOUS
 62
     0
100
AcDbLine
 10
523.3074791618
 20
435.171440234
 11
523.0437457169
 21
430.1391063229
  0
LINE
  5
3A0
100
AcDbEntity
  8
_0-3_躯体と製品
  6
CONTINUOUS
 62
     0
100
AcDbLine
 10
523.6001554357
 20
440.7560362216
 11
523.4958886043
 21
438.7665065592
  0
LINE
  5
3A1
100
AcDbEntity
  8
_0-3_躯体と製品
  6
CONTINUOUS
 62
     0
100
AcDbLine
 10
523.0324345452
 20
440.7857892128
 11
522.9281677138
 21
438.7962595503
  0
LINE
  5
3A2
100
AcDbEntity
  8
_0-3_躯体と製品
  6
CONTINUOUS
 62
     0
100
AcDbLine
 10
518.1760991177
 20
441.040298968
 11
518.0718322862
 21
439.0507693055
  0
LINE
  5
3A3
100
AcDbEntity
  8
_0-3_躯体と製品
  6
CONTINUOUS
 62
     0
100
AcDbLine
 10
517.6083782272
 20
441.0700519591
 11
517.5041113957
 21
439.0805222966
  0
LINE
  5
3A4
100
AcDbEntity
  8
_0-3_躯体と製品
  6
CONTINUOUS
 62
     0
100
AcDbLine
 10
366.7219696962
 20
464.5531721399
 11
367.9675654548
 21
440.7857892128
  0
LINE
  5
3A5
100
AcDbEntity
  8
_0-3_躯体と製品
  6
CONTINUOUS
 62
     0
100
AcDbLine
 10
366.1542488057
 20
464.5234191488
 11
367.3998445643
 21
440.7560362216
  0
LINE
  5
3A6
100
AcDbEntity
  8
_0-3_躯体と製品
  6
CONTINUOUS
 62
     0
100
AcDbLine
 10
372.1460260143
 20
464.8374348863
 11
373.3916217728
 21
441.0700519591
  0
LINE
  5
3A7
100
AcDbEntity
  8
_0-3_躯体と製品
  6
CONTINUOUS
 62
     0
100
AcDbLine
 10
371.5783051237
 20
464.8076818951
 11
372.8239008823
 21
441.040298968
  0
ARC
  5
3A8
100
AcDbEntity
  8
_0-3_躯体と製品
  6
CONTINUOUS
 62
     0
100
AcDbCircle
 10
370.3340661577
 20
467.884606277
 40
0.6
100
AcDbArc
 50
79.29976699999
 51
183
  0
ARC
  5
3A9
100
AcDbEntity
  8
_0-3_躯体と製品
  6
CONTINUOUS
 62
     0
100
AcDbCircle
 10
367.6377664138
 20
467.7432991951
 40
0.6
100
AcDbArc
 50
3
 51
106.700233
  0
LINE
  5
3AA
100
AcDbEntity
  8
_0-3_躯体と製品
  6
CONTINUOUS
 62
     0
100
AcDbLine
 10
368.2389980593
 20
467.7355095528
 11
369.7369423614
 21
467.8140134871
  0
ARC
  5
3AB
100
AcDbEntity
  8
_0-3_躯体と製品
  6
CONTINUOUS
 62
     0
100
AcDbCircle
 10
370.9633681052
 20
464.580328999
 40
3.45
100
AcDbArc
 50
6.237837000001
 51
53.690876
  0
ARC
  5
3AC
100
AcDbEntity
  8
_0-3_躯体と製品
  6
CONTINUOUS
 62
     0
100
AcDbCircle
 10
367.3520320999
 20
464.386557719
 40
3.45
100
AcDbArc
 50
132.179511
 51
179.687257
  0
ARC
  5
3AD
100
AcDbEntity
  8
_0-3_躯体と製品
  6
CONTINUOUS
 62
     0
100
AcDbCircle
 10
369.2757436526
 20
462.2837171327
 40
6.3
100
AcDbArc
 50
53.690629
 51
132.303131
  0
LINE
  5
3AE
100
AcDbEntity
  8
_0-3_躯体と製品
  6
CONTINUOUS
 62
     0
100
AcDbLine
 10
367.9562542831
 20
430.1391063229
 11
373.9480314916
 21
430.4531220603
  0
LINE
  5
3AF
100
AcDbEntity
  8
_0-3_躯体と製品
  6
CONTINUOUS
 62
     0
100
AcDbLine
 10
373.6842980467
 20
435.4854559715
 11
373.9480314916
 21
430.4531220603
  0
LINE
  5
3B0
100
AcDbEntity
  8
_0-3_躯体と製品
  6
CONTINUOUS
 62
     0
100
AcDbLine
 10
367.6925208382
 20
435.171440234
 11
367.9562542831
 21
430.1391063229
  0
LINE
  5
3B1
100
AcDbEntity
  8
_0-3_躯体と製品
  6
CONTINUOUS
 62
     0
100
AcDbLine
 10
367.3998445643
 20
440.7560362216
 11
367.5041113957
 21
438.7665065592
  0
LINE
  5
3B2
100
AcDbEntity
  8
_0-3_躯体と製品
  6
CONTINUOUS
 62
     0
100
AcDbLine
 10
367.9675654548
 20
440.7857892128
 11
368.0718322862
 21
438.7962595503
  0
LINE
  5
3B3
100
AcDbEntity
  8
_0-3_躯体と製品
  6
CONTINUOUS
 62
     0
100
AcDbLine
 10
372.8239008823
 20
441.040298968
 11
372.9281677138
 21
439.0507693055
  0
LINE
  5
3B4
100
AcDbEntity
  8
_0-3_躯体と製品
  6
CONTINUOUS
 62
     0
100
AcDbLine
 10
373.3916217728
 20
441.0700519591
 11
373.4958886043
 21
439.0805222966
  0
CIRCLE
  5
3B5
100
AcDbEntity
  8
_0-3_躯体と製品
  6
CONTINUOUS
 62
     0
100
AcDbCircle
 10
520.5
 20
438.9235144279
 40
1.4
  0
CIRCLE
  5
3B6
100
AcDbEntity
  8
_0-3_躯体と製品
  6
CONTINUOUS
 62
     0
100
AcDbCircle
 10
370.5
 20
438.9235144279
 40
1.4
  0
LINE
  5
3B7
100
AcDbEntity
  8
_0-3_躯体と製品
  6
CONTINUOUS
 62
     0
100
AcDbLine
 10
555.6632645605
 20
445.0839139515
 11
555.7574692817
 21
446.881447114
  0
LINE
  5
3B8
100
AcDbEntity
  8
_0-3_躯体と製品
  6
CONTINUOUS
 62
     0
100
AcDbLine
 10
577.3272149135
 20
465.9787460349
 11
576.8127264274
 21
466.493234521
  0
LINE
  5
3B9
100
AcDbEntity
  8
_0-3_躯体と製品
  6
CONTINUOUS
 62
     0
100
AcDbLine
 10
562.1281885582
 20
444.2444154685
 11
590.5891302987
 21
442.7528407156
  0
ARC
  5
3BA
100
AcDbEntity
  8
_0-3_躯体と製品
  6
CONTINUOUS
 62
     0
100
AcDbCircle
 10
562.0496846239
 20
442.7464711664
 40
1.5
100
AcDbArc
 50
86.99999999999
 51
267
  0
LINE
  5
3BB
100
AcDbEntity
  8
_0-3_躯体と製品
  6
CONTINUOUS
 62
     0
100
AcDbLine
 10
561.9711806895
 20
441.2485268643
 11
565.4663840612
 21
441.0653510174
  0
LINE
  5
3BC
100
AcDbEntity
  8
_0-3_躯体と製品
  6
CONTINUOUS
 62
     0
100
AcDbLine
 10
565.5187200174
 20
442.0639805522
 11
565.4663840612
 21
441.0653510174
  0
LINE
  5
3BD
100
AcDbEntity
  8
_0-3_躯体と製品
  6
CONTINUOUS
 62
     0
100
AcDbLine
 10
565.5187200174
 20
442.0639805522
 11
585.4913107125
 21
441.0172614273
  0
LINE
  5
3BE
100
AcDbEntity
  8
_0-3_躯体と製品
  6
CONTINUOUS
 62
     0
100
AcDbLine
 10
585.4913107125
 20
441.0172614273
 11
585.4389747562
 21
440.0186318926
  0
LINE
  5
3BF
100
AcDbEntity
  8
_0-3_躯体と製品
  6
CONTINUOUS
 62
     0
100
AcDbLine
 10
585.4389747562
 20
440.0186318926
 11
590.43212243
 21
439.7569521113
  0
LINE
  5
3C0
100
AcDbEntity
  8
_0-3_躯体と製品
  6
CONTINUOUS
 62
     0
100
AcDbLine
 10
590.3012825394
 20
437.2603782745
 11
591.7666893142
 21
465.2220052476
  0
ARC
  5
3C1
100
AcDbEntity
  8
_0-3_躯体と製品
  6
CONTINUOUS
 62
     0
100
AcDbCircle
 10
600.5669064561
 20
435.9772010269
 40
0.6
100
AcDbArc
 50
167
 51
347
  0
ARC
  5
3C2
100
AcDbEntity
  8
_0-3_躯体と製品
  6
CONTINUOUS
 62
     0
100
AcDbCircle
 10
600.0782919277
 20
438.7507316164
 40
0.5
100
AcDbArc
 50
-13
 51
86.99999999999
  0
ARC
  5
3C3
100
AcDbEntity
  8
_0-3_躯体と製品
  6
CONTINUOUS
 62
     0
100
AcDbCircle
 10
602.1520461951
 20
438.8423252296
 40
0.3
100
AcDbArc
 50
86.99999999999
 51
167
  0
ARC
  5
3C4
100
AcDbEntity
  8
_0-3_躯体と製品
  6
CONTINUOUS
 62
     0
100
AcDbCircle
 10
604.8342874346
 20
390.8154654157
 40
0.6
100
AcDbArc
 50
90
 51
270
  0
LINE
  5
3C5
100
AcDbEntity
  8
_0-3_躯体と製品
  6
CONTINUOUS
 62
     0
100
AcDbLine
 10
616.0017617125
 20
383.1001527099
 11
616.0017617125
 21
379.4154654157
  0
LINE
  5
3C6
100
AcDbEntity
  8
_0-3_躯体と製品
  6
CONTINUOUS
 62
     0
100
AcDbLine
 10
619.0017617125
 20
381.9154654157
 11
619.0017617125
 21
383.4154654157
  0
LINE
  5
3C7
100
AcDbEntity
  8
_0-3_躯体と製品
  6
CONTINUOUS
 62
     0
100
AcDbLine
 10
616.5017617125
 20
379.4154654157
 11
616.0017617125
 21
379.4154654157
  0
ARC
  5
3C8
100
AcDbEntity
  8
_0-3_躯体と製品
  6
CONTINUOUS
 62
     0
100
AcDbCircle
 10
616.5017617125
 20
381.9154654157
 40
2.5
100
AcDbArc
 50
-90
 51
0
  0
LINE
  5
3C9
100
AcDbEntity
  8
_0-3_躯体と製品
  6
CONTINUOUS
 62
     0
100
AcDbLine
 10
609.2342874346
 20
391.4154654157
 11
609.2342874346
 21
392.4154654157
  0
LINE
  5
3CA
100
AcDbEntity
  8
_0-3_躯体と製品
  6
CONTINUOUS
 62
     0
100
AcDbLine
 10
609.2342874346
 20
392.4154654157
 11
607.2342874346
 21
391.4154654157
  0
LINE
  5
3CB
100
AcDbEntity
  8
_0-3_躯体と製品
  6
CONTINUOUS
 62
     0
100
AcDbLine
 10
604.8342874346
 20
391.4154654157
 11
607.2342874346
 21
391.4154654157
  0
ARC
  5
3CC
100
AcDbEntity
  8
_0-3_躯体と製品
  6
CONTINUOUS
 62
     0
100
AcDbCircle
 10
613.6168388563
 20
391.9154654157
 40
0.5
100
AcDbArc
 50
-90
 51
12
  0
LINE
  5
3CD
100
AcDbEntity
  8
_0-3_躯体と製品
  6
CONTINUOUS
 62
     0
100
AcDbLine
 10
614.084463292
 20
390.2154654157
 11
604.8342874346
 21
390.2154654157
  0
LINE
  5
3CE
100
AcDbEntity
  8
_0-3_躯体と製品
  6
CONTINUOUS
 62
     0
100
AcDbLine
 10
614.5735370923
 20
389.8194212611
 11
616.0017617125
 21
383.1001527099
  0
ARC
  5
3CF
100
AcDbEntity
  8
_0-3_躯体と製品
  6
CONTINUOUS
 62
     0
100
AcDbCircle
 10
614.084463292
 20
389.7154654157
 40
0.5
100
AcDbArc
 50
12
 51
90
  0
LINE
  5
3D0
100
AcDbEntity
  8
_0-3_躯体と製品
  6
CONTINUOUS
 62
     0
100
AcDbLine
 10
590.3536184957
 20
438.2590078092
 11
590.43212243
 21
439.7569521113
  0
ARC
  5
3D1
100
AcDbEntity
  8
_0-3_躯体と製品
  6
CONTINUOUS
 62
     0
100
AcDbCircle
 10
590.852933263
 20
438.2328398311
 40
0.5
100
AcDbArc
 50
177
 51
267
  0
LINE
  5
3D2
100
AcDbEntity
  8
_0-3_躯体と製品
  6
CONTINUOUS
 62
     0
100
AcDbLine
 10
591.3260800523
 20
437.7073570856
 11
590.8267652849
 21
437.7335250637
  0
ARC
  5
3D3
100
AcDbEntity
  8
_0-3_躯体と製品
  6
CONTINUOUS
 62
     0
100
AcDbCircle
 10
591.3522480304
 20
438.206671853
 40
0.5
100
AcDbArc
 50
-93.00000000001
 51
-2.999999999999
  0
ARC
  5
3D4
100
AcDbEntity
  8
_0-3_躯体と製品
  6
CONTINUOUS
 62
     0
100
AcDbCircle
 10
603.2927574578
 20
438.0815824434
 40
1
100
AcDbArc
 50
12
 51
86.99999999999
  0
ARC
  5
3D5
100
AcDbEntity
  8
_0-3_躯体と製品
  6
CONTINUOUS
 62
     0
100
AcDbCircle
 10
604.1113688071
 20
439.0400531865
 40
3
100
AcDbArc
 50
12
 51
86.99999999999
  0
LINE
  5
3D6
100
AcDbEntity
  8
_0-3_躯体と製品
  6
CONTINUOUS
 62
     0
100
AcDbLine
 10
590.7199701894
 20
445.2494145525
 11
590.5891302987
 21
442.7528407156
  0
ARC
  5
3D7
100
AcDbEntity
  8
_0-3_躯体と製品
  6
CONTINUOUS
 62
     0
100
AcDbCircle
 10
591.2192849567
 20
445.2232465744
 40
0.5
100
AcDbArc
 50
86.99999999999
 51
177
  0
LINE
  5
3D8
100
AcDbEntity
  8
_0-3_躯体と製品
  6
CONTINUOUS
 62
     0
100
AcDbLine
 10
591.7447677022
 20
445.6963933636
 11
591.2454529349
 21
445.7225613417
  0
ARC
  5
3D9
100
AcDbEntity
  8
_0-3_躯体と製品
  6
CONTINUOUS
 62
     0
100
AcDbCircle
 10
591.7185997241
 20
445.1970785962
 40
0.5
100
AcDbArc
 50
-2.999999999999
 51
86.99999999999
  0
LINE
  5
3DA
100
AcDbEntity
  8
_0-3_躯体と製品
  6
CONTINUOUS
 62
     0
100
AcDbLine
 10
607.0458116093
 20
439.6637882589
 11
619.0017617125
 21
383.4154654157
  0
LINE
  5
3DB
100
AcDbEntity
  8
_0-3_躯体と製品
  6
CONTINUOUS
 62
     0
100
AcDbLine
 10
604.2709050585
 20
438.2894941342
 11
614.1059126567
 21
392.0194212611
  0
LINE
  5
3DC
100
AcDbEntity
  8
_0-3_躯体と製品
  6
CONTINUOUS
 62
     0
100
AcDbLine
 10
613.6168388563
 20
391.4154654157
 11
609.2342874346
 21
391.4154654157
  0
LINE
  5
3DD
100
AcDbEntity
  8
_0-3_躯体と製品
  6
CONTINUOUS
 62
     0
100
AcDbLine
 10
592.113242579
 20
443.1736515486
 11
592.2179144915
 21
445.1709106181
  0
LINE
  5
3DE
100
AcDbEntity
  8
_0-3_躯体と製品
  6
CONTINUOUS
 62
     0
100
AcDbLine
 10
592.5863893683
 20
442.6481688031
 11
604.2683766758
 21
442.0359417907
  0
ARC
  5
3DF
100
AcDbEntity
  8
_0-3_躯体と製品
  6
CONTINUOUS
 62
     0
100
AcDbCircle
 10
592.6125573464
 20
443.1474835705
 40
0.5
100
AcDbArc
 50
177
 51
267
  0
LINE
  5
3E0
100
AcDbEntity
  8
_0-3_躯体と製品
  6
CONTINUOUS
 62
     0
100
AcDbLine
 10
591.903898754
 20
439.1791334096
 11
591.8515627978
 21
438.1805038748
  0
ARC
  5
3E1
100
AcDbEntity
  8
_0-3_躯体と製品
  6
CONTINUOUS
 62
     0
100
AcDbCircle
 10
592.4032135214
 20
439.1529654315
 40
0.5
100
AcDbArc
 50
86.99999999999
 51
177
  0
LINE
  5
3E2
100
AcDbEntity
  8
_0-3_躯体と製品
  6
CONTINUOUS
 62
     0
100
AcDbLine
 10
601.8597351757
 20
438.9098105459
 11
601.1515284949
 21
435.8422303943
  0
LINE
  5
3E3
100
AcDbEntity
  8
_0-3_躯体と製品
  6
CONTINUOUS
 62
     0
100
AcDbLine
 10
603.3450934141
 20
439.0802119781
 11
602.167746982
 21
439.1419140901
  0
LINE
  5
3E4
100
AcDbEntity
  8
_0-3_躯体と製品
  6
CONTINUOUS
 62
     0
100
AcDbLine
 10
592.4293814995
 20
439.6522801989
 11
600.1044599058
 21
439.2500463838
  0
LINE
  5
3E5
100
AcDbEntity
  8
_0-3_躯体と製品
  6
CONTINUOUS
 62
     0
100
AcDbLine
 10
600.5654769601
 20
438.6382560892
 11
599.9822844172
 21
436.1121716595
  0
LINE
  5
3E6
100
AcDbEntity
  8
_0-3_躯体と製品
  6
CONTINUOUS
 62
     0
100
AcDbLine
 10
485.7591971276
 20
448.7474308885
 11
485.8534018489
 21
450.544964051
  0
LINE
  5
3E7
100
AcDbEntity
  8
_0-3_躯体と製品
  6
CONTINUOUS
 62
     0
100
AcDbLine
 10
591.7666893142
 20
465.2220052476
 11
445.5
 21
472.8875176176
  0
LINE
  5
3E8
100
AcDbEntity
  8
_0-3_躯体と製品
  6
CONTINUOUS
 62
     0
100
AcDbLine
 10
590.3012825394
 20
437.2603782745
 11
445.5
 21
444.8490919297
  0
LINE
  5
3E9
100
AcDbEntity
  8
_0-3_躯体と製品
  6
CONTINUOUS
 62
     0
100
AcDbLine
 10
590.7095029981
 20
445.0496886455
 11
445.5
 21
452.6597962285
  0
LINE
  5
3EA
100
AcDbEntity
  8
_0-3_躯体と製品
  6
CONTINUOUS
 62
     0
100
AcDbLine
 10
590.6152982769
 20
443.252155483
 11
445.5
 21
450.8573260057
  0
LINE
  5
3EB
100
AcDbEntity
  8
_0-3_躯体と製品
  6
CONTINUOUS
 62
     0
100
AcDbLine
 10
590.43212243
 20
439.7569521113
 11
445.5
 21
447.3525227947
  0
LINE
  5
3EC
100
AcDbEntity
  8
_0-3_躯体と製品
  6
CONTINUOUS
 62
     0
100
AcDbLine
 10
590.3536184957
 20
438.2590078092
 11
445.5
 21
445.8504642757
  0
LINE
  5
3ED
100
AcDbEntity
  8
_0-3_躯体と製品
  6
CONTINUOUS
 62
     0
100
AcDbLine
 10
591.6881853799
 20
463.7240609454
 11
445.4214960656
 21
471.3895733155
  0
LINE
  5
3EE
100
AcDbEntity
  8
_0-3_躯体と製品
  6
CONTINUOUS
 62
     0
100
AcDbLine
 10
591.5311775111
 20
460.7281723412
 11
445.5
 21
468.3813420606
  0
LINE
  5
3EF
100
AcDbEntity
  8
_0-3_躯体と製品
  6
CONTINUOUS
 62
     0
100
AcDbLine
 10
591.4526735768
 20
459.2302280391
 11
445.5
 21
466.8792835416
  0
LINE
  5
3F0
100
AcDbEntity
  8
_0-3_躯体と製品
  6
CONTINUOUS
 62
     0
100
AcDbLine
 10
609.2342874346
 20
392.4154654157
 11
609.2342874346
 21
391.9154654157
  0
LINE
  5
3F1
100
AcDbEntity
  8
_0-3_躯体と製品
  6
CONTINUOUS
 62
     0
100
AcDbLine
 10
272
 20
380.9154654157
 11
272
 21
465.0685717156
  0
ARC
  5
3F2
100
AcDbEntity
  8
_0-3_躯体と製品
  6
CONTINUOUS
 62
     0
100
AcDbCircle
 10
273.5
 20
380.9154654157
 40
1.5
100
AcDbArc
 50
180
 51
270
  0
LINE
  5
3F3
100
AcDbEntity
  8
_0-3_躯体と製品
  6
CONTINUOUS
 62
     0
100
AcDbLine
 10
273.4214960656
 20
466.5665160177
 11
445.5
 21
475.5847682713
  0
ARC
  5
3F4
100
AcDbEntity
  8
_0-3_躯体と製品
  6
CONTINUOUS
 62
     0
100
AcDbCircle
 10
273.5
 20
465.0685717156
 40
1.5
100
AcDbArc
 50
93.00000000001
 51
180
  0
ARC
  5
3F5
100
AcDbEntity
  8
_0-3_躯体と製品
  6
CONTINUOUS
 62
     0
100
AcDbCircle
 10
617.5
 20
380.9154654157
 40
1.5
100
AcDbArc
 50
-90
 51
0
  0
LINE
  5
3F6
100
AcDbEntity
  8
_0-3_躯体と製品
  6
CONTINUOUS
 62
     0
100
AcDbLine
 10
619
 20
380.9154654157
 11
619
 21
465.0685717156
  0
ARC
  5
3F7
100
AcDbEntity
  8
_0-3_躯体と製品
  6
CONTINUOUS
 62
     0
100
AcDbCircle
 10
617.5
 20
380.9154654157
 40
3
100
AcDbArc
 50
-90
 51
0
  0
ARC
  5
3F8
100
AcDbEntity
  8
_0-3_躯体と製品
  6
CONTINUOUS
 62
     0
100
AcDbCircle
 10
617.5
 20
465.0685717156
 40
3
100
AcDbArc
 50
0
 51
86.99999999999
  0
LINE
  5
3F9
100
AcDbEntity
  8
_0-3_躯体と製品
  6
CONTINUOUS
 62
     0
100
AcDbLine
 10
617.5
 20
377.9154654157
 11
610.5
 21
377.9154654157
  0
LINE
  5
3FA
100
AcDbEntity
  8
_0-3_躯体と製品
  6
CONTINUOUS
 62
     0
100
AcDbLine
 10
273.3429921313
 20
468.0644603198
 11
445.5
 21
477.0868267902
  0
ARC
  5
3FB
100
AcDbEntity
  8
_0-3_躯体と製品
  6
CONTINUOUS
 62
     0
100
AcDbCircle
 10
273.5
 20
380.9154654157
 40
3
100
AcDbArc
 50
180
 51
270
  0
LINE
  5
3FC
100
AcDbEntity
  8
_0-3_躯体と製品
  6
CONTINUOUS
 62
     0
100
AcDbLine
 10
270.5
 20
465.0685717156
 11
270.5
 21
380.9154654157
  0
ARC
  5
3FD
100
AcDbEntity
  8
_0-3_躯体と製品
  6
CONTINUOUS
 62
     0
100
AcDbCircle
 10
273.5
 20
465.0685717156
 40
3
100
AcDbArc
 50
93.00000000001
 51
180
  0
LINE
  5
3FE
100
AcDbEntity
  8
_0-3_躯体と製品
  6
CONTINUOUS
 62
     0
100
AcDbLine
 10
273.5
 20
377.9154654157
 11
280.5
 21
377.9154654157
  0
ARC
  5
3FF
100
AcDbEntity
  8
_0-3_躯体と製品
  6
CONTINUOUS
 62
     0
100
AcDbCircle
 10
617.5
 20
465.0685717156
 40
1.5
100
AcDbArc
 50
0
 51
86.99999999999
  0
LINE
  5
400
100
AcDbEntity
  8
_0-3_躯体と製品
  6
CONTINUOUS
 62
     0
100
AcDbLine
 10
617.5785039344
 20
466.5665160177
 11
445.5
 21
475.5847682713
  0
LINE
  5
401
100
AcDbEntity
  8
_0-3_躯体と製品
  6
CONTINUOUS
 62
     0
100
AcDbLine
 10
280.5
 20
377.9154654157
 11
280.5
 21
379.4154654157
  0
LINE
  5
402
100
AcDbEntity
  8
_0-3_躯体と製品
  6
CONTINUOUS
 62
     0
100
AcDbLine
 10
273.5
 20
379.4154654157
 11
280.5
 21
379.4154654157
  0
LINE
  5
403
100
AcDbEntity
  8
_0-3_躯体と製品
  6
CONTINUOUS
 62
     0
100
AcDbLine
 10
610.5
 20
377.9154654157
 11
610.5
 21
379.4154654157
  0
LINE
  5
404
100
AcDbEntity
  8
_0-3_躯体と製品
  6
CONTINUOUS
 62
     0
100
AcDbLine
 10
617.5
 20
379.4154654157
 11
610.5
 21
379.4154654157
  0
LINE
  5
405
100
AcDbEntity
  8
_0-3_躯体と製品
  6
CONTINUOUS
 62
     0
100
AcDbLine
 10
599.6164623608
 20
460.6797210377
 11
613.5700759102
 21
382.539485161
  0
ARC
  5
406
100
AcDbEntity
  8
_0-3_躯体と製品
  6
CONTINUOUS
 62
     0
100
AcDbCircle
 10
596.6631796343
 20
460.1523491223
 40
3
100
AcDbArc
 50
10.1246716554
 51
86.99999999999
  0
LINE
  5
407
100
AcDbEntity
  8
_0-3_躯体と製品
  6
CONTINUOUS
 62
     0
100
AcDbLine
 10
618
 20
383.3305430342
 11
613.5700759103
 21
382.5394851606
  0
LINE
  5
408
100
AcDbEntity
  8
_0-3_躯体と製品
  6
CONTINUOUS
 62
     0
100
AcDbLine
 10
596.820187503
 20
463.1482377265
 11
591.6721472441
 21
463.4180350842
  0
LINE
  5
409
100
AcDbEntity
  8
_0-3_躯体と製品
  6
CONTINUOUS
 62
     0
100
AcDbLine
 10
597.0556993061
 20
467.6420706329
 11
591.9076590472
 21
467.9118679906
  0
LINE
  5
40A
100
AcDbEntity
  8
_0-3_躯体と製品
  6
CONTINUOUS
 62
     0
100
AcDbLine
 10
591.7666893142
 20
465.2220052476
 11
591.9076590472
 21
467.9118679906
  0
LINE
  5
40B
100
AcDbEntity
  8
_0-3_躯体と製品
  6
CONTINUOUS
 62
     0
100
AcDbLine
 10
590.7590707087
 20
465.2748123011
 11
587.9126452161
 21
468.1212377936
  0
LINE
  5
40C
100
AcDbEntity
  8
_0-3_躯体と製品
  6
CONTINUOUS
 62
     0
100
AcDbLine
 10
589.266642287
 20
465.3530271604
 11
586.4202167945
 21
468.199452653
  0
LINE
  5
40D
100
AcDbEntity
  8
_0-3_躯体と製品
  6
CONTINUOUS
 62
     0
100
AcDbLine
 10
587.7742138654
 20
465.4312420197
 11
584.9277883728
 21
468.2776675123
  0
LINE
  5
40E
100
AcDbEntity
  8
_0-3_躯体と製品
  6
CONTINUOUS
 62
     0
100
AcDbLine
 10
586.2817854437
 20
465.509456879
 11
583.4353599511
 21
468.3558823716
  0
LINE
  5
40F
100
AcDbEntity
  8
_0-3_躯体と製品
  6
CONTINUOUS
 62
     0
100
AcDbLine
 10
584.789357022
 20
465.5876717383
 11
581.9429315294
 21
468.4340972309
  0
LINE
  5
410
100
AcDbEntity
  8
_0-3_躯体と製品
  6
CONTINUOUS
 62
     0
100
AcDbLine
 10
583.2969286003
 20
465.6658865977
 11
580.4505031077
 21
468.5123120902
  0
LINE
  5
411
100
AcDbEntity
  8
_0-3_躯体と製品
  6
CONTINUOUS
 62
     0
100
AcDbLine
 10
581.8045001786
 20
465.744101457
 11
578.958074686
 21
468.5905269496
  0
LINE
  5
412
100
AcDbEntity
  8
_0-3_躯体と製品
  6
CONTINUOUS
 62
     0
100
AcDbLine
 10
580.3120717569
 20
465.8223163163
 11
577.4656462643
 21
468.6687418089
  0
LINE
  5
413
100
AcDbEntity
  8
_0-3_躯体と製品
  6
CONTINUOUS
 62
     0
100
AcDbLine
 10
576.7872462929
 20
466.0070445912
 11
576.9282160258
 21
468.6969073342
  0
LINE
  5
414
100
AcDbEntity
  8
_0-3_躯体と製品
  6
CONTINUOUS
 62
     0
100
AcDbLine
 10
578.8196433352
 20
465.9005311756
 11
576.8831514031
 21
467.8370231077
  0
LINE
  5
415
100
AcDbEntity
  8
_0-3_躯体と製品
  6
CONTINUOUS
 62
     0
100
AcDbLine
 10
591.859991581
 20
467.0023185535
 11
590.8975020595
 21
467.964808075
  0
LINE
  5
416
100
AcDbEntity
  8
_0-3_躯体と製品
  6
CONTINUOUS
 62
     0
100
AcDbLine
 10
335.3367354395
 20
445.0839139515
 11
335.2425307183
 21
446.881447114
  0
LINE
  5
417
100
AcDbEntity
  8
_0-3_躯体と製品
  6
CONTINUOUS
 62
     0
100
AcDbLine
 10
328.8718114418
 20
444.2444154685
 11
300.4108697013
 21
442.7528407156
  0
ARC
  5
418
100
AcDbEntity
  8
_0-3_躯体と製品
  6
CONTINUOUS
 62
     0
100
AcDbCircle
 10
328.9503153761
 20
442.7464711664
 40
1.5
100
AcDbArc
 50
-86.99999999999
 51
93.00000000001
  0
LINE
  5
419
100
AcDbEntity
  8
_0-3_躯体と製品
  6
CONTINUOUS
 62
     0
100
AcDbLine
 10
329.0288193105
 20
441.2485268643
 11
325.5336159388
 21
441.0653510174
  0
LINE
  5
41A
100
AcDbEntity
  8
_0-3_躯体と製品
  6
CONTINUOUS
 62
     0
100
AcDbLine
 10
325.4812799826
 20
442.0639805522
 11
325.5336159388
 21
441.0653510174
  0
LINE
  5
41B
100
AcDbEntity
  8
_0-3_躯体と製品
  6
CONTINUOUS
 62
     0
100
AcDbLine
 10
325.4812799826
 20
442.0639805522
 11
305.5086892875
 21
441.0172614273
  0
LINE
  5
41C
100
AcDbEntity
  8
_0-3_躯体と製品
  6
CONTINUOUS
 62
     0
100
AcDbLine
 10
305.5086892875
 20
441.0172614273
 11
305.5610252438
 21
440.0186318926
  0
LINE
  5
41D
100
AcDbEntity
  8
_0-3_躯体と製品
  6
CONTINUOUS
 62
     0
100
AcDbLine
 10
305.5610252438
 20
440.0186318926
 11
300.56787757
 21
439.7569521113
  0
LINE
  5
41E
100
AcDbEntity
  8
_0-3_躯体と製品
  6
CONTINUOUS
 62
     0
100
AcDbLine
 10
300.6987174606
 20
437.2603782745
 11
299.2333106858
 21
465.2220052476
  0
ARC
  5
41F
100
AcDbEntity
  8
_0-3_躯体と製品
  6
CONTINUOUS
 62
     0
100
AcDbCircle
 10
290.4330935439
 20
435.9772010269
 40
0.6
100
AcDbArc
 50
-167
 51
13
  0
ARC
  5
420
100
AcDbEntity
  8
_0-3_躯体と製品
  6
CONTINUOUS
 62
     0
100
AcDbCircle
 10
290.9217080723
 20
438.7507316164
 40
0.5
100
AcDbArc
 50
93.00000000001
 51
193
  0
ARC
  5
421
100
AcDbEntity
  8
_0-3_躯体と製品
  6
CONTINUOUS
 62
     0
100
AcDbCircle
 10
288.8479538049
 20
438.8423252296
 40
0.3
100
AcDbArc
 50
12.99999999999
 51
93.00000000001
  0
ARC
  5
422
100
AcDbEntity
  8
_0-3_躯体と製品
  6
CONTINUOUS
 62
     0
100
AcDbCircle
 10
286.1657125654
 20
390.8154654157
 40
0.6
100
AcDbArc
 50
-90
 51
90
  0
LINE
  5
423
100
AcDbEntity
  8
_0-3_躯体と製品
  6
CONTINUOUS
 62
     0
100
AcDbLine
 10
274.9982382875
 20
383.1001527099
 11
274.9982382875
 21
379.4154654157
  0
LINE
  5
424
100
AcDbEntity
  8
_0-3_躯体と製品
  6
CONTINUOUS
 62
     0
100
AcDbLine
 10
271.9982382875
 20
381.9154654157
 11
271.9982382875
 21
383.4154654157
  0
LINE
  5
425
100
AcDbEntity
  8
_0-3_躯体と製品
  6
CONTINUOUS
 62
     0
100
AcDbLine
 10
274.4982382875
 20
379.4154654157
 11
274.9982382875
 21
379.4154654157
  0
ARC
  5
426
100
AcDbEntity
  8
_0-3_躯体と製品
  6
CONTINUOUS
 62
     0
100
AcDbCircle
 10
274.4982382875
 20
381.9154654157
 40
2.5
100
AcDbArc
 50
180
 51
270
  0
LINE
  5
427
100
AcDbEntity
  8
_0-3_躯体と製品
  6
CONTINUOUS
 62
     0
100
AcDbLine
 10
281.7657125654
 20
391.4154654157
 11
281.7657125654
 21
392.4154654157
  0
LINE
  5
428
100
AcDbEntity
  8
_0-3_躯体と製品
  6
CONTINUOUS
 62
     0
100
AcDbLine
 10
281.7657125654
 20
392.4154654157
 11
283.7657125654
 21
391.4154654157
  0
LINE
  5
429
100
AcDbEntity
  8
_0-3_躯体と製品
  6
CONTINUOUS
 62
     0
100
AcDbLine
 10
286.1657125654
 20
391.4154654157
 11
283.7657125654
 21
391.4154654157
  0
ARC
  5
42A
100
AcDbEntity
  8
_0-3_躯体と製品
  6
CONTINUOUS
 62
     0
100
AcDbCircle
 10
277.3831611437
 20
391.9154654157
 40
0.5
100
AcDbArc
 50
168
 51
270
  0
LINE
  5
42B
100
AcDbEntity
  8
_0-3_躯体と製品
  6
CONTINUOUS
 62
     0
100
AcDbLine
 10
276.915536708
 20
390.2154654157
 11
286.1657125654
 21
390.2154654157
  0
LINE
  5
42C
100
AcDbEntity
  8
_0-3_躯体と製品
  6
CONTINUOUS
 62
     0
100
AcDbLine
 10
276.4264629077
 20
389.8194212611
 11
274.9982382875
 21
383.1001527099
  0
ARC
  5
42D
100
AcDbEntity
  8
_0-3_躯体と製品
  6
CONTINUOUS
 62
     0
100
AcDbCircle
 10
276.915536708
 20
389.7154654157
 40
0.5
100
AcDbArc
 50
90
 51
168
  0
LINE
  5
42E
100
AcDbEntity
  8
_0-3_躯体と製品
  6
CONTINUOUS
 62
     0
100
AcDbLine
 10
300.6463815043
 20
438.2590078092
 11
300.56787757
 21
439.7569521113
  0
ARC
  5
42F
100
AcDbEntity
  8
_0-3_躯体と製品
  6
CONTINUOUS
 62
     0
100
AcDbCircle
 10
300.147066737
 20
438.2328398311
 40
0.5
100
AcDbArc
 50
-86.99999999999
 51
2.999999999999
  0
LINE
  5
430
100
AcDbEntity
  8
_0-3_躯体と製品
  6
CONTINUOUS
 62
     0
100
AcDbLine
 10
299.6739199477
 20
437.7073570856
 11
300.1732347151
 21
437.7335250637
  0
ARC
  5
431
100
AcDbEntity
  8
_0-3_躯体と製品
  6
CONTINUOUS
 62
     0
100
AcDbCircle
 10
299.6477519696
 20
438.206671853
 40
0.5
100
AcDbArc
 50
-177
 51
-86.99999999999
  0
ARC
  5
432
100
AcDbEntity
  8
_0-3_躯体と製品
  6
CONTINUOUS
 62
     0
100
AcDbCircle
 10
287.7072425422
 20
438.0815824434
 40
1
100
AcDbArc
 50
93.00000000001
 51
168
  0
ARC
  5
433
100
AcDbEntity
  8
_0-3_躯体と製品
  6
CONTINUOUS
 62
     0
100
AcDbCircle
 10
286.8886311929
 20
439.0400531865
 40
3
100
AcDbArc
 50
93.00000000001
 51
168
  0
LINE
  5
434
100
AcDbEntity
  8
_0-3_躯体と製品
  6
CONTINUOUS
 62
     0
100
AcDbLine
 10
300.2800298106
 20
445.2494145525
 11
300.4108697013
 21
442.7528407156
  0
ARC
  5
435
100
AcDbEntity
  8
_0-3_躯体と製品
  6
CONTINUOUS
 62
     0
100
AcDbCircle
 10
299.7807150433
 20
445.2232465744
 40
0.5
100
AcDbArc
 50
2.999999999999
 51
93.00000000001
  0
LINE
  5
436
100
AcDbEntity
  8
_0-3_躯体と製品
  6
CONTINUOUS
 62
     0
100
AcDbLine
 10
299.2552322978
 20
445.6963933636
 11
299.7545470651
 21
445.7225613417
  0
ARC
  5
437
100
AcDbEntity
  8
_0-3_躯体と製品
  6
CONTINUOUS
 62
     0
100
AcDbCircle
 10
299.2814002759
 20
445.1970785962
 40
0.5
100
AcDbArc
 50
93.00000000001
 51
183
  0
LINE
  5
438
100
AcDbEntity
  8
_0-3_躯体と製品
  6
CONTINUOUS
 62
     0
100
AcDbLine
 10
283.9541883907
 20
439.6637882589
 11
271.9982382875
 21
383.4154654157
  0
LINE
  5
439
100
AcDbEntity
  8
_0-3_躯体と製品
  6
CONTINUOUS
 62
     0
100
AcDbLine
 10
286.7290949415
 20
438.2894941342
 11
276.8940873433
 21
392.0194212611
  0
LINE
  5
43A
100
AcDbEntity
  8
_0-3_躯体と製品
  6
CONTINUOUS
 62
     0
100
AcDbLine
 10
277.3831611437
 20
391.4154654157
 11
281.7657125654
 21
391.4154654157
  0
LINE
  5
43B
100
AcDbEntity
  8
_0-3_躯体と製品
  6
CONTINUOUS
 62
     0
100
AcDbLine
 10
298.886757421
 20
443.1736515486
 11
298.7820855085
 21
445.1709106181
  0
LINE
  5
43C
100
AcDbEntity
  8
_0-3_躯体と製品
  6
CONTINUOUS
 62
     0
100
AcDbLine
 10
298.4136106317
 20
442.6481688031
 11
286.7316233242
 21
442.0359417907
  0
ARC
  5
43D
100
AcDbEntity
  8
_0-3_躯体と製品
  6
CONTINUOUS
 62
     0
100
AcDbCircle
 10
298.3874426536
 20
443.1474835705
 40
0.5
100
AcDbArc
 50
-86.99999999999
 51
2.999999999999
  0
LINE
  5
43E
100
AcDbEntity
  8
_0-3_躯体と製品
  6
CONTINUOUS
 62
     0
100
AcDbLine
 10
299.096101246
 20
439.1791334096
 11
299.1484372022
 21
438.1805038748
  0
ARC
  5
43F
100
AcDbEntity
  8
_0-3_躯体と製品
  6
CONTINUOUS
 62
     0
100
AcDbCircle
 10
298.5967864786
 20
439.1529654315
 40
0.5
100
AcDbArc
 50
2.999999999999
 51
93.00000000001
  0
LINE
  5
440
100
AcDbEntity
  8
_0-3_躯体と製品
  6
CONTINUOUS
 62
     0
100
AcDbLine
 10
289.1402648243
 20
438.9098105459
 11
289.8484715051
 21
435.8422303943
  0
LINE
  5
441
100
AcDbEntity
  8
_0-3_躯体と製品
  6
CONTINUOUS
 62
     0
100
AcDbLine
 10
287.6549065859
 20
439.0802119781
 11
288.832253018
 21
439.1419140901
  0
LINE
  5
442
100
AcDbEntity
  8
_0-3_躯体と製品
  6
CONTINUOUS
 62
     0
100
AcDbLine
 10
298.5706185005
 20
439.6522801989
 11
290.8955400942
 21
439.2500463838
  0
LINE
  5
443
100
AcDbEntity
  8
_0-3_躯体と製品
  6
CONTINUOUS
 62
     0
100
AcDbLine
 10
290.4345230399
 20
438.6382560892
 11
291.0177155828
 21
436.1121716595
  0
LINE
  5
444
100
AcDbEntity
  8
_0-3_躯体と製品
  6
CONTINUOUS
 62
     0
100
AcDbLine
 10
405.2408028724
 20
448.7474308885
 11
405.1465981511
 21
450.544964051
  0
LINE
  5
445
100
AcDbEntity
  8
_0-3_躯体と製品
  6
CONTINUOUS
 62
     0
100
AcDbLine
 10
299.2333106858
 20
465.2220052476
 11
445.5
 21
472.8875176176
  0
LINE
  5
446
100
AcDbEntity
  8
_0-3_躯体と製品
  6
CONTINUOUS
 62
     0
100
AcDbLine
 10
300.6987174606
 20
437.2603782745
 11
445.5
 21
444.8490919297
  0
LINE
  5
447
100
AcDbEntity
  8
_0-3_躯体と製品
  6
CONTINUOUS
 62
     0
100
AcDbLine
 10
300.2904970019
 20
445.0496886455
 11
445.5
 21
452.6597962285
  0
LINE
  5
448
100
AcDbEntity
  8
_0-3_躯体と製品
  6
CONTINUOUS
 62
     0
100
AcDbLine
 10
300.3847017231
 20
443.252155483
 11
445.5
 21
450.8573260057
  0
LINE
  5
449
100
AcDbEntity
  8
_0-3_躯体と製品
  6
CONTINUOUS
 62
     0
100
AcDbLine
 10
300.56787757
 20
439.7569521113
 11
445.5
 21
447.3525227947
  0
LINE
  5
44A
100
AcDbEntity
  8
_0-3_躯体と製品
  6
CONTINUOUS
 62
     0
100
AcDbLine
 10
300.6463815043
 20
438.2590078092
 11
445.5
 21
445.8504642757
  0
LINE
  5
44B
100
AcDbEntity
  8
_0-3_躯体と製品
  6
CONTINUOUS
 62
     0
100
AcDbLine
 10
299.3118146201
 20
463.7240609454
 11
445.5785039344
 21
471.3895733155
  0
LINE
  5
44C
100
AcDbEntity
  8
_0-3_躯体と製品
  6
CONTINUOUS
 62
     0
100
AcDbLine
 10
299.4688224889
 20
460.7281723412
 11
445.5
 21
468.3813420606
  0
LINE
  5
44D
100
AcDbEntity
  8
_0-3_躯体と製品
  6
CONTINUOUS
 62
     0
100
AcDbLine
 10
299.5473264232
 20
459.2302280391
 11
445.5
 21
466.8792835416
  0
LINE
  5
44E
100
AcDbEntity
  8
_0-3_躯体と製品
  6
CONTINUOUS
 62
     0
100
AcDbLine
 10
281.7657125654
 20
392.4154654157
 11
281.7657125654
 21
391.9154654157
  0
LINE
  5
44F
100
AcDbEntity
  8
_0-3_躯体と製品
  6
CONTINUOUS
 62
     0
100
AcDbLine
 10
291.3835376392
 20
460.6797210377
 11
277.4299240898
 21
382.539485161
  0
ARC
  5
450
100
AcDbEntity
  8
_0-3_躯体と製品
  6
CONTINUOUS
 62
     0
100
AcDbCircle
 10
294.3368203657
 20
460.1523491223
 40
3
100
AcDbArc
 50
93.00000000001
 51
169.8753283446
  0
LINE
  5
451
100
AcDbEntity
  8
_0-3_躯体と製品
  6
CONTINUOUS
 62
     0
100
AcDbLine
 10
286.9536135494
 20
461.4707789109
 11
273
 21
383.3305430342
  0
ARC
  5
452
100
AcDbEntity
  8
_0-3_躯体と製品
  6
CONTINUOUS
 62
     0
100
AcDbCircle
 10
294.3368203657
 20
460.1523491223
 40
7.5
100
AcDbArc
 50
93.00000000001
 51
169.8753283446
  0
LINE
  5
453
100
AcDbEntity
  8
_0-3_躯体と製品
  6
CONTINUOUS
 62
     0
100
AcDbLine
 10
273
 20
383.3305430342
 11
277.4299240897
 21
382.5394851606
  0
LINE
  5
454
100
AcDbEntity
  8
_0-3_躯体と製品
  6
CONTINUOUS
 62
     0
100
AcDbLine
 10
294.179812497
 20
463.1482377265
 11
299.3278527559
 21
463.4180350842
  0
LINE
  5
455
100
AcDbEntity
  8
_0-3_躯体と製品
  6
CONTINUOUS
 62
     0
100
AcDbLine
 10
293.9443006939
 20
467.6420706329
 11
299.0923409528
 21
467.9118679906
  0
CIRCLE
  5
456
100
AcDbEntity
  8
_0-3_躯体と製品
  6
CONTINUOUS
 62
     0
100
AcDbCircle
 10
620.5
 20
467.9154654157
 40
1.4
  0
ARC
  5
457
100
AcDbEntity
  8
_0-3_躯体と製品
  6
CONTINUOUS
 62
     0
100
AcDbCircle
 10
596.6631796343
 20
460.1523491223
 40
7.5
100
AcDbArc
 50
10.1246716554
 51
86.99999999999
  0
LINE
  5
458
100
AcDbEntity
  8
_0-3_躯体と製品
  6
CONTINUOUS
 62
     0
100
AcDbLine
 10
604.0463864506
 20
461.4707789109
 11
618
 21
383.3305430342
  0
CIRCLE
  5
459
100
AcDbEntity
  8
_0-3_躯体と製品
  6
CONTINUOUS
 62
     0
100
AcDbCircle
 10
270.5
 20
467.9154654157
 40
1.4
  0
LINE
  5
45A
100
AcDbEntity
  8
_0-3_躯体と製品
  6
CONTINUOUS
 62
     0
100
AcDbLine
 10
439.0262452223
 20
468.0420669491
 11
438.1726730413
 21
468.8956391301
  0
LINE
  5
45B
100
AcDbEntity
  8
_0-3_躯体と製品
  6
CONTINUOUS
 62
     0
100
AcDbLine
 10
440.370033809
 20
468.1124919248
 11
438.0944581819
 21
470.3880675518
  0
LINE
  5
45C
100
AcDbEntity
  8
_0-3_躯体と製品
  6
CONTINUOUS
 62
     0
100
AcDbLine
 10
441.7138223957
 20
468.1829169004
 11
438.0162433226
 21
471.8804959735
  0
LINE
  5
45D
100
AcDbEntity
  8
_0-3_躯体と製品
  6
CONTINUOUS
 62
     0
100
AcDbLine
 10
443.0576109824
 20
468.2533418761
 11
439.25158687
 21
472.0593659884
  0
LINE
  5
45E
100
AcDbEntity
  8
_0-3_躯体と製品
  6
CONTINUOUS
 62
     0
100
AcDbLine
 10
438.775833856
 20
472.5351190025
 11
438.1872481686
 21
473.1237046899
  0
LINE
  5
45F
100
AcDbEntity
  8
_0-3_躯体と製品
  6
CONTINUOUS
 62
     0
100
AcDbLine
 10
444.4013995691
 20
468.3237668517
 11
440.5953754568
 21
472.1297909641
  0
LINE
  5
460
100
AcDbEntity
  8
_0-3_躯体と製品
  6
CONTINUOUS
 62
     0
100
AcDbLine
 10
445.7723090344
 20
468.3670709489
 11
441.9391640435
 21
472.2002159398
  0
LINE
  5
461
100
AcDbEntity
  8
_0-3_躯体と製品
  6
CONTINUOUS
 62
     0
100
AcDbLine
 10
447.2647374561
 20
468.2888560895
 11
443.2829526302
 21
472.2706409154
  0
LINE
  5
462
100
AcDbEntity
  8
_0-3_躯体と製品
  6
CONTINUOUS
 62
     0
100
AcDbLine
 10
448.7571658778
 20
468.2106412302
 11
444.6267412169
 21
472.3410658911
  0
LINE
  5
463
100
AcDbEntity
  8
_0-3_躯体と製品
  6
CONTINUOUS
 62
     0
100
AcDbLine
 10
450.2495942994
 20
468.1324263709
 11
446.0225762885
 21
472.3594443818
  0
LINE
  5
464
100
AcDbEntity
  8
_0-3_躯体と製品
  6
CONTINUOUS
 62
     0
100
AcDbLine
 10
451.7420227211
 20
468.0542115116
 11
447.5150047102
 21
472.2812295225
  0
LINE
  5
465
100
AcDbEntity
  8
_0-3_躯体と製品
  6
CONTINUOUS
 62
     0
100
AcDbLine
 10
452.8018045841
 20
468.408643211
 11
449.0074331319
 21
472.2030146632
  0
LINE
  5
466
100
AcDbEntity
  8
_0-3_躯体と製品
  6
CONTINUOUS
 62
     0
100
AcDbLine
 10
452.8722295597
 20
469.7524317977
 11
450.4998615536
 21
472.1247998039
  0
LINE
  5
467
100
AcDbEntity
  8
_0-3_躯体と製品
  6
CONTINUOUS
 62
     0
100
AcDbLine
 10
452.9426545354
 20
471.0962203844
 11
451.9922899753
 21
472.0465849446
  0
LINE
  5
468
100
AcDbEntity
  8
_0-3_躯体と製品
  6
CONTINUOUS
 62
     0
100
AcDbLine
 10
452.9897215107
 20
471.9943117728
 11
445.5
 21
472.3868314446
  0
LINE
  5
469
100
AcDbEntity
  8
_0-3_躯体と製品
  6
CONTINUOUS
 62
     0
100
AcDbLine
 10
452.9897215107
 20
471.9943117728
 11
452.7803776857
 21
467.9997936338
  0
LINE
  5
46A
100
AcDbEntity
  8
_0-3_躯体と製品
  6
CONTINUOUS
 62
     0
100
AcDbLine
 10
438.0102784893
 20
471.9943117728
 11
445.5
 21
472.3868314446
  0
LINE
  5
46B
100
AcDbEntity
  8
_0-3_躯体と製品
  6
CONTINUOUS
 62
     0
100
AcDbLine
 10
438.0102784893
 20
471.9943117728
 11
438.2196223143
 21
467.9997936338
  0
LINE
  5
46C
100
AcDbEntity
  8
_0-3_躯体と製品
  6
CONTINUOUS
 62
     0
100
AcDbLine
 10
446.9866274588
 20
472.8096067739
 11
444.275632351
 21
475.5206018817
  0
LINE
  5
46D
100
AcDbEntity
  8
_0-3_躯体と製品
  6
CONTINUOUS
 62
     0
100
AcDbLine
 10
441.4634110294
 20
472.6759689538
 11
438.9004780041
 21
475.2389019791
  0
LINE
  5
46E
100
AcDbEntity
  8
_0-3_躯体と製品
  6
CONTINUOUS
 62
     0
100
AcDbLine
 10
442.8071996161
 20
472.7463939295
 11
440.2442665908
 21
475.3093269548
  0
LINE
  5
46F
100
AcDbEntity
  8
_0-3_躯体と製品
  6
CONTINUOUS
 62
     0
100
AcDbLine
 10
444.1509882029
 20
472.8168189051
 11
441.5880551775
 21
475.3797519304
  0
LINE
  5
470
100
AcDbEntity
  8
_0-3_躯体と製品
  6
CONTINUOUS
 62
     0
100
AcDbLine
 10
445.4947767896
 20
472.8872438808
 11
442.9318437643
 21
475.4501769061
  0
LINE
  5
471
100
AcDbEntity
  8
_0-3_躯体と製品
  6
CONTINUOUS
 62
     0
100
AcDbLine
 10
438.0786525814
 20
475.1958319338
 11
438.2196223143
 21
472.5059691908
  0
LINE
  5
472
100
AcDbEntity
  8
_0-3_躯体と製品
  6
CONTINUOUS
 62
     0
100
AcDbLine
 10
440.1196224427
 20
472.6055439781
 11
438.1090333093
 21
474.6161331116
  0
LINE
  5
473
100
AcDbEntity
  8
_0-3_躯体と製品
  6
CONTINUOUS
 62
     0
100
AcDbLine
 10
452.9213474186
 20
475.1958319338
 11
452.7803776857
 21
472.5059691908
  0
LINE
  5
474
100
AcDbEntity
  8
_0-3_躯体と製品
  6
CONTINUOUS
 62
     0
100
AcDbLine
 10
448.4790558805
 20
472.7313919146
 11
445.6326303879
 21
475.5778174072
  0
LINE
  5
475
100
AcDbEntity
  8
_0-3_躯体と製品
  6
CONTINUOUS
 62
     0
100
AcDbLine
 10
449.9714843022
 20
472.6531770552
 11
447.1250588096
 21
475.4996025478
  0
LINE
  5
476
100
AcDbEntity
  8
_0-3_躯体と製品
  6
CONTINUOUS
 62
     0
100
AcDbLine
 10
451.4639127239
 20
472.5749621959
 11
448.6174872313
 21
475.4213876885
  0
LINE
  5
477
100
AcDbEntity
  8
_0-3_躯体と製品
  6
CONTINUOUS
 62
     0
100
AcDbLine
 10
452.7886810805
 20
472.6644074017
 11
450.109915653
 21
475.3431728292
  0
LINE
  5
478
100
AcDbEntity
  8
_0-3_躯体と製品
  6
CONTINUOUS
 62
     0
100
AcDbLine
 10
452.8591060561
 20
474.0081959885
 11
451.6023440747
 21
475.2649579699
  0
CIRCLE
  5
479
100
AcDbEntity
  8
_0-3_躯体と製品
  6
CONTINUOUS
 62
     0
100
AcDbCircle
 10
445.5
 20
477.0868267902
 40
1.4
  0
CIRCLE
  5
47A
100
AcDbEntity
  8
_0-3_躯体と製品
  6
CONTINUOUS
 62
     0
100
AcDbCircle
 10
270.5
 20
377.9154654157
 40
1.4
  0
CIRCLE
  5
47B
100
AcDbEntity
  8
_0-3_躯体と製品
  6
CONTINUOUS
 62
     0
100
AcDbCircle
 10
620.5
 20
377.9154654157
 40
1.4
  0
LINE
  5
47C
100
AcDbEntity
  8
_0-3_躯体と製品
  6
CONTINUOUS
 62
     0
100
AcDbLine
 10
299.2104333946
 20
465.6585299668
 11
301.5949263622
 21
468.0430229343
  0
LINE
  5
47D
100
AcDbEntity
  8
_0-3_躯体と製品
  6
CONTINUOUS
 62
     0
100
AcDbLine
 10
313.6727850865
 20
465.9787460349
 11
314.1872735726
 21
466.493234521
  0
LINE
  5
47E
100
AcDbEntity
  8
_0-3_躯体と製品
  6
CONTINUOUS
 62
     0
100
AcDbLine
 10
299.2333106858
 20
465.2220052476
 11
299.0923409528
 21
467.9118679906
  0
LINE
  5
47F
100
AcDbEntity
  8
_0-3_躯体と製品
  6
CONTINUOUS
 62
     0
100
AcDbLine
 10
300.2409292913
 20
465.2748123011
 11
303.0873547839
 21
468.1212377936
  0
LINE
  5
480
100
AcDbEntity
  8
_0-3_躯体と製品
  6
CONTINUOUS
 62
     0
100
AcDbLine
 10
301.733357713
 20
465.3530271604
 11
304.5797832055
 21
468.199452653
  0
LINE
  5
481
100
AcDbEntity
  8
_0-3_躯体と製品
  6
CONTINUOUS
 62
     0
100
AcDbLine
 10
303.2257861346
 20
465.4312420197
 11
306.0722116272
 21
468.2776675123
  0
LINE
  5
482
100
AcDbEntity
  8
_0-3_躯体と製品
  6
CONTINUOUS
 62
     0
100
AcDbLine
 10
304.7182145563
 20
465.509456879
 11
307.5646400489
 21
468.3558823716
  0
LINE
  5
483
100
AcDbEntity
  8
_0-3_躯体と製品
  6
CONTINUOUS
 62
     0
100
AcDbLine
 10
306.210642978
 20
465.5876717383
 11
309.0570684706
 21
468.4340972309
  0
LINE
  5
484
100
AcDbEntity
  8
_0-3_躯体と製品
  6
CONTINUOUS
 62
     0
100
AcDbLine
 10
307.7030713997
 20
465.6658865977
 11
310.5494968923
 21
468.5123120902
  0
LINE
  5
485
100
AcDbEntity
  8
_0-3_躯体と製品
  6
CONTINUOUS
 62
     0
100
AcDbLine
 10
309.1954998214
 20
465.744101457
 11
312.041925314
 21
468.5905269496
  0
LINE
  5
486
100
AcDbEntity
  8
_0-3_躯体と製品
  6
CONTINUOUS
 62
     0
100
AcDbLine
 10
310.6879282431
 20
465.8223163163
 11
313.5343537357
 21
468.6687418089
  0
LINE
  5
487
100
AcDbEntity
  8
_0-3_躯体と製品
  6
CONTINUOUS
 62
     0
100
AcDbLine
 10
314.2127537071
 20
466.0070445912
 11
314.0717839742
 21
468.6969073342
  0
LINE
  5
488
100
AcDbEntity
  8
_0-3_躯体と製品
  6
CONTINUOUS
 62
     0
100
AcDbLine
 10
312.1803566648
 20
465.9005311756
 11
314.1168485969
 21
467.8370231077
  0
LINE
  5
489
100
AcDbEntity
  8
_0-3_躯体と製品
  6
CONTINUOUS
 62
     0
100
AcDbLine
 10
299.140008419
 20
467.0023185535
 11
300.1024979405
 21
467.964808075
  0
LINE
  5
48A
100
AcDbEntity
  8
_0-3_躯体と製品
  6
CONTINUOUS
 62
     0
100
AcDbLine
 10
385.5
 20
419
 11
355.5
 21
419
  0
LINE
  5
48B
100
AcDbEntity
  8
_0-3_躯体と製品
  6
CONTINUOUS
 62
     0
100
AcDbLine
 10
355.5
 20
420
 11
385.5
 21
420
  0
LINE
  5
48C
100
AcDbEntity
  8
_0-3_躯体と製品
  6
CONTINUOUS
 62
     0
100
AcDbLine
 10
385.5
 20
420
 11
385.5
 21
419
  0
LINE
  5
48D
100
AcDbEntity
  8
_0-3_躯体と製品
  6
CONTINUOUS
 62
     0
100
AcDbLine
 10
357.0705286635
 20
419
 11
356.0705286635
 21
420
  0
LINE
  5
48E
100
AcDbEntity
  8
_0-3_躯体と製品
  6
CONTINUOUS
 62
     0
100
AcDbLine
 10
358.4847422259
 20
419
 11
357.4847422259
 21
420
  0
LINE
  5
48F
100
AcDbEntity
  8
_0-3_躯体と製品
  6
CONTINUOUS
 62
     0
100
AcDbLine
 10
359.8989557882
 20
419
 11
358.8989557882
 21
420
  0
LINE
  5
490
100
AcDbEntity
  8
_0-3_躯体と製品
  6
CONTINUOUS
 62
     0
100
AcDbLine
 10
361.3131693506
 20
419
 11
360.3131693506
 21
420
  0
LINE
  5
491
100
AcDbEntity
  8
_0-3_躯体と製品
  6
CONTINUOUS
 62
     0
100
AcDbLine
 10
362.727382913
 20
419
 11
361.727382913
 21
420
  0
LINE
  5
492
100
AcDbEntity
  8
_0-3_躯体と製品
  6
CONTINUOUS
 62
     0
100
AcDbLine
 10
364.1415964754
 20
419
 11
363.1415964754
 21
420
  0
LINE
  5
493
100
AcDbEntity
  8
_0-3_躯体と製品
  6
CONTINUOUS
 62
     0
100
AcDbLine
 10
365.5558100377
 20
419
 11
364.5558100377
 21
420
  0
LINE
  5
494
100
AcDbEntity
  8
_0-3_躯体と製品
  6
CONTINUOUS
 62
     0
100
AcDbLine
 10
366.9700236001
 20
419
 11
365.9700236001
 21
420
  0
LINE
  5
495
100
AcDbEntity
  8
_0-3_躯体と製品
  6
CONTINUOUS
 62
     0
100
AcDbLine
 10
368.3842371625
 20
419
 11
367.3842371625
 21
420
  0
LINE
  5
496
100
AcDbEntity
  8
_0-3_躯体と製品
  6
CONTINUOUS
 62
     0
100
AcDbLine
 10
369.7984507249
 20
419
 11
368.7984507249
 21
420
  0
LINE
  5
497
100
AcDbEntity
  8
_0-3_躯体と製品
  6
CONTINUOUS
 62
     0
100
AcDbLine
 10
371.2126642872
 20
419
 11
370.2126642872
 21
420
  0
LINE
  5
498
100
AcDbEntity
  8
_0-3_躯体と製品
  6
CONTINUOUS
 62
     0
100
AcDbLine
 10
372.6268778496
 20
419
 11
371.6268778496
 21
420
  0
LINE
  5
499
100
AcDbEntity
  8
_0-3_躯体と製品
  6
CONTINUOUS
 62
     0
100
AcDbLine
 10
374.041091412
 20
419
 11
373.041091412
 21
420
  0
LINE
  5
49A
100
AcDbEntity
  8
_0-3_躯体と製品
  6
CONTINUOUS
 62
     0
100
AcDbLine
 10
375.4553049743
 20
419
 11
374.4553049743
 21
420
  0
LINE
  5
49B
100
AcDbEntity
  8
_0-3_躯体と製品
  6
CONTINUOUS
 62
     0
100
AcDbLine
 10
376.8695185367
 20
419
 11
375.8695185367
 21
420
  0
LINE
  5
49C
100
AcDbEntity
  8
_0-3_躯体と製品
  6
CONTINUOUS
 62
     0
100
AcDbLine
 10
378.2837320991
 20
419
 11
377.2837320991
 21
420
  0
LINE
  5
49D
100
AcDbEntity
  8
_0-3_躯体と製品
  6
CONTINUOUS
 62
     0
100
AcDbLine
 10
379.6979456615
 20
419
 11
378.6979456615
 21
420
  0
LINE
  5
49E
100
AcDbEntity
  8
_0-3_躯体と製品
  6
CONTINUOUS
 62
     0
100
AcDbLine
 10
381.1121592238
 20
419
 11
380.1121592238
 21
420
  0
LINE
  5
49F
100
AcDbEntity
  8
_0-3_躯体と製品
  6
CONTINUOUS
 62
     0
100
AcDbLine
 10
382.5263727862
 20
419
 11
381.5263727862
 21
420
  0
LINE
  5
4A0
100
AcDbEntity
  8
_0-3_躯体と製品
  6
CONTINUOUS
 62
     0
100
AcDbLine
 10
383.9405863486
 20
419
 11
382.9405863486
 21
420
  0
LINE
  5
4A1
100
AcDbEntity
  8
_0-3_躯体と製品
  6
CONTINUOUS
 62
     0
100
AcDbLine
 10
385.354799911
 20
419
 11
384.354799911
 21
420
  0
TEXT
  5
4A2
100
AcDbEntity
  8
_0-4_図枠
  6
CONTINUOUS
 62
     0
100
AcDbText
 10
357
 20
479.4575765915
 40
5
  1
勾配３度
  7
STANDARD
100
AcDbText
  0
ARC
  5
4A3
100
AcDbEntity
  8
_0-3_躯体と製品
  6
CONTINUOUS
 62
     0
100
AcDbCircle
 10
445.5
 20
347.8163772238
 40
16.81637722385
100
AcDbArc
 50
-175
 51
-4.999999999999
  0
ARC
  5
4A4
100
AcDbEntity
  8
_0-3_躯体と製品
  6
CONTINUOUS
 62
     0
100
AcDbCircle
 10
445.5
 20
347.8163772238
 40
17.81637722385
100
AcDbArc
 50
-175
 51
-4.999999999999
  0
LINE
  5
4A5
100
AcDbEntity
  8
_0-3_躯体と製品
  6
CONTINUOUS
 62
     0
100
AcDbLine
 10
468.5361703777
 20
418.174719399
 11
462.2523858315
 21
346.3507333766
  0
LINE
  5
4A6
100
AcDbEntity
  8
_0-3_躯体と製品
  6
CONTINUOUS
 62
     0
100
AcDbLine
 10
422.4638296223
 20
418.174719399
 11
428.7476141685
 21
346.3507333766
  0
LINE
  5
4A7
100
AcDbEntity
  8
_0-3_躯体と製品
  6
CONTINUOUS
 62
     0
100
AcDbLine
 10
320.5
 20
419
 11
320.5
 21
279
  0
LINE
  5
4A8
100
AcDbEntity
  8
_0-3_躯体と製品
  6
CONTINUOUS
 62
     0
100
AcDbLine
 10
420.5
 20
419
 11
420.5
 21
279
  0
LINE
  5
4A9
100
AcDbEntity
  8
_0-3_躯体と製品
  6
CONTINUOUS
 62
     0
100
AcDbLine
 10
470.5
 20
419
 11
470.5
 21
279
  0
LINE
  5
4AA
100
AcDbEntity
  8
_0-3_躯体と製品
  6
CONTINUOUS
 62
     0
100
AcDbLine
 10
570.5
 20
419
 11
570.5
 21
279
  0
LINE
  5
4AB
100
AcDbEntity
  8
_0-3_躯体と製品
  6
CONTINUOUS
 62
     0
100
AcDbLine
 10
520.5
 20
420
 11
520.5
 21
421
  0
ARC
  5
4AC
100
AcDbEntity
  8
_0-3_躯体と製品
  6
CONTINUOUS
 62
     0
100
AcDbCircle
 10
535.5
 20
411.75
 40
8.25
100
AcDbArc
 50
71.07535558395
 51
90
  0
ARC
  5
4AD
100
AcDbEntity
  8
_0-3_躯体と製品
  6
CONTINUOUS
 62
     0
100
AcDbCircle
 10
541.5
 20
429.25
 40
10.25
100
AcDbArc
 50
-108.9246444161
 51
-90
  0
ARC
  5
4AE
100
AcDbEntity
  8
_0-3_躯体と製品
  6
CONTINUOUS
 62
     0
100
AcDbCircle
 10
505.5
 20
411.75
 40
8.25
100
AcDbArc
 50
90
 51
108.9246444161
  0
ARC
  5
4AF
100
AcDbEntity
  8
_0-3_躯体と製品
  6
CONTINUOUS
 62
     0
100
AcDbCircle
 10
499.5
 20
429.25
 40
10.25
100
AcDbArc
 50
-90
 51
-71.07535558395
  0
ARC
  5
4B0
100
AcDbEntity
  8
_0-3_躯体と製品
  6
CONTINUOUS
 62
     0
100
AcDbCircle
 10
505.5
 20
411.75
 40
9.25
100
AcDbArc
 50
90
 51
108.9246444161
  0
LINE
  5
4B1
100
AcDbEntity
  8
_0-3_躯体と製品
  6
CONTINUOUS
 62
     0
100
AcDbLine
 10
535.5
 20
421
 11
505.5
 21
421
  0
ARC
  5
4B2
100
AcDbEntity
  8
_0-3_躯体と製品
  6
CONTINUOUS
 62
     0
100
AcDbCircle
 10
535.5
 20
411.75
 40
9.25
100
AcDbArc
 50
71.07535558395
 51
90
  0
ARC
  5
4B3
100
AcDbEntity
  8
_0-3_躯体と製品
  6
CONTINUOUS
 62
     0
100
AcDbCircle
 10
541.5
 20
429.25
 40
9.25
100
AcDbArc
 50
-108.9246444161
 51
-90
  0
ARC
  5
4B4
100
AcDbEntity
  8
_0-3_躯体と製品
  6
CONTINUOUS
 62
     0
100
AcDbCircle
 10
499.5
 20
429.25
 40
9.25
100
AcDbArc
 50
-90
 51
-71.07535558395
  0
LINE
  5
4B5
100
AcDbEntity
  8
_0-3_躯体と製品
  6
CONTINUOUS
 62
     0
100
AcDbLine
 10
370.5
 20
420
 11
370.5
 21
421
  0
ARC
  5
4B6
100
AcDbEntity
  8
_0-3_躯体と製品
  6
CONTINUOUS
 62
     0
100
AcDbCircle
 10
385.5
 20
411.75
 40
8.25
100
AcDbArc
 50
71.07535558395
 51
90
  0
ARC
  5
4B7
100
AcDbEntity
  8
_0-3_躯体と製品
  6
CONTINUOUS
 62
     0
100
AcDbCircle
 10
391.5
 20
429.25
 40
10.25
100
AcDbArc
 50
-108.9246444161
 51
-90
  0
LINE
  5
4B8
100
AcDbEntity
  8
_0-3_躯体と製品
  6
CONTINUOUS
 62
     0
100
AcDbLine
 10
385.5
 20
421
 11
355.5
 21
421
  0
ARC
  5
4B9
100
AcDbEntity
  8
_0-3_躯体と製品
  6
CONTINUOUS
 62
     0
100
AcDbCircle
 10
385.5
 20
411.75
 40
9.25
100
AcDbArc
 50
71.07535558395
 51
90
  0
ARC
  5
4BA
100
AcDbEntity
  8
_0-3_躯体と製品
  6
CONTINUOUS
 62
     0
100
AcDbCircle
 10
391.5
 20
429.25
 40
9.25
100
AcDbArc
 50
-108.9246444161
 51
-90
  0
LINE
  5
4BB
100
AcDbEntity
  8
_0-3_躯体と製品
  6
CONTINUOUS
 62
     0
100
AcDbLine
 10
391.5
 20
420
 11
420.5118319055
 21
420
  0
ARC
  5
4BC
100
AcDbEntity
  8
_0-3_躯体と製品
  6
CONTINUOUS
 62
     0
100
AcDbCircle
 10
420.4714402261
 20
418.0004079135
 40
2
100
AcDbArc
 50
5
 51
88.84278494675
  0
ARC
  5
4BD
100
AcDbEntity
  8
_0-3_躯体と製品
  6
CONTINUOUS
 62
     0
100
AcDbCircle
 10
470.5285597739
 20
418.0004079135
 40
2
100
AcDbArc
 50
91.15721505319
 51
175
  0
LINE
  5
4BE
100
AcDbEntity
  8
_0-3_躯体と製品
  6
CONTINUOUS
 62
     0
100
AcDbLine
 10
499.5
 20
420
 11
470.4881680945
 21
420
  0
LINE
  5
4BF
100
AcDbEntity
  8
_0-4_図枠
  6
CONTINUOUS
 62
     0
100
AcDbLine
 10
395.5
 20
479.4732995561
 11
345.5
 21
479.4732995561
  0
LINE
  5
4C0
100
AcDbEntity
  8
_0-4_図枠
  6
CONTINUOUS
 62
     0
100
AcDbLine
 10
345.5
 20
476.8529105919
 11
345.5
 21
479.4732995561
  0
LINE
  5
4C1
100
AcDbEntity
  8
_0-4_図枠
  6
CONTINUOUS
 62
     0
100
AcDbLine
 10
395.5
 20
479.4732995561
 11
345.5
 21
476.8529105919
  0
LINE
  5
4C2
100
AcDbEntity
  8
_0-3_躯体と製品
  6
CONTINUOUS
 62
     0
100
AcDbLine
 10
368.7753601383
 20
471.8316033668
 11
371.1280314749
 21
426.9399600108
  0
LINE
  5
4C3
100
AcDbEntity
  8
_0-3_躯体と製品
  6
CONTINUOUS
 62
     0
100
AcDbLine
 10
370.5
 20
443.9235144279
 11
370.5
 21
355
  0
LINE
  5
4C4
100
AcDbEntity
  8
_0-3_躯体と製品
  6
CONTINUOUS
 62
     0
100
AcDbLine
 10
522.2246398617
 20
471.8316033668
 11
519.8719685251
 21
426.9399600108
  0
LINE
  5
4C5
100
AcDbEntity
  8
_0-3_躯体と製品
  6
CONTINUOUS
 62
     0
100
AcDbLine
 10
520.5
 20
443.9235144279
 11
520.5
 21
355
  0
LINE
  5
4C6
100
AcDbEntity
  8
_0-3_躯体と製品
  6
CONTINUOUS
 62
     0
100
AcDbLine
 10
445.5
 20
493.836820527
 11
445.5
 21
320
  0
LINE
  5
4C7
100
AcDbEntity
  8
_0-3_躯体と製品
  6
CONTINUOUS
 62
     0
100
AcDbLine
 10
361.5
 20
425
 11
379.5
 21
425
  0
LINE
  5
4C8
100
AcDbEntity
  8
_0-3_躯体と製品
  6
CONTINUOUS
 62
     0
100
AcDbLine
 10
379.5
 20
425
 11
379.5
 21
423.5
  0
LINE
  5
4C9
100
AcDbEntity
  8
_0-3_躯体と製品
  6
CONTINUOUS
 62
     0
100
AcDbLine
 10
361.5
 20
425
 11
361.5
 21
423.5
  0
ARC
  5
4CA
100
AcDbEntity
  8
_0-3_躯体と製品
  6
CONTINUOUS
 62
     0
100
AcDbCircle
 10
370.5
 20
420.3888469604
 40
9.553418012636
100
AcDbArc
 50
72.41204622605
 51
107.587953774
  0
ARC
  5
4CB
100
AcDbEntity
  8
_0-3_躯体と製品
  6
CONTINUOUS
 62
     0
100
AcDbCircle
 10
366.1698729811
 20
427.3864422247
 40
2.555822748428
100
AcDbArc
 50
55.61575253204
 51
124.384247468
  0
ARC
  5
4CC
100
AcDbEntity
  8
_0-3_躯体と製品
  6
CONTINUOUS
 62
     0
100
AcDbCircle
 10
374.8301270189
 20
427.3864422247
 40
2.555822748428
100
AcDbArc
 50
55.61575253204
 51
124.384247468
  0
LINE
  5
4CD
100
AcDbEntity
  8
_0-3_躯体と製品
  6
CONTINUOUS
 62
     0
100
AcDbLine
 10
364.7264973081
 20
429.4956829857
 11
364.7264973081
 21
425
  0
LINE
  5
4CE
100
AcDbEntity
  8
_0-3_躯体と製品
  6
CONTINUOUS
 62
     0
100
AcDbLine
 10
365.6
 20
430
 11
364.7264973081
 21
429.4956829857
  0
LINE
  5
4CF
100
AcDbEntity
  8
_0-3_躯体と製品
  6
CONTINUOUS
 62
     0
100
AcDbLine
 10
365.6
 20
430
 11
375.4
 21
430
  0
LINE
  5
4D0
100
AcDbEntity
  8
_0-3_躯体と製品
  6
CONTINUOUS
 62
     0
100
AcDbLine
 10
375.4
 20
430
 11
376.2735026919
 21
429.4956829857
  0
LINE
  5
4D1
100
AcDbEntity
  8
_0-3_躯体と製品
  6
CONTINUOUS
 62
     0
100
AcDbLine
 10
367.6132486541
 20
429.4956829857
 11
367.6132486541
 21
425
  0
LINE
  5
4D2
100
AcDbEntity
  8
_0-3_躯体と製品
  6
CONTINUOUS
 62
     0
100
AcDbLine
 10
373.3867513459
 20
429.4956829857
 11
373.3867513459
 21
425
  0
LINE
  5
4D3
100
AcDbEntity
  8
_0-3_躯体と製品
  6
CONTINUOUS
 62
     0
100
AcDbLine
 10
376.2735026919
 20
429.4956829857
 11
376.2735026919
 21
425
  0
LINE
  5
4D4
100
AcDbEntity
  8
_0-3_躯体と製品
  6
CONTINUOUS
 62
     0
100
AcDbLine
 10
511.5
 20
425
 11
529.5
 21
425
  0
LINE
  5
4D5
100
AcDbEntity
  8
_0-3_躯体と製品
  6
CONTINUOUS
 62
     0
100
AcDbLine
 10
529.5
 20
425
 11
529.5
 21
423.5
  0
LINE
  5
4D6
100
AcDbEntity
  8
_0-3_躯体と製品
  6
CONTINUOUS
 62
     0
100
AcDbLine
 10
511.5
 20
425
 11
511.5
 21
423.5
  0
ARC
  5
4D7
100
AcDbEntity
  8
_0-3_躯体と製品
  6
CONTINUOUS
 62
     0
100
AcDbCircle
 10
520.5
 20
420.3888469604
 40
9.553418012636
100
AcDbArc
 50
72.41204622605
 51
107.587953774
  0
ARC
  5
4D8
100
AcDbEntity
  8
_0-3_躯体と製品
  6
CONTINUOUS
 62
     0
100
AcDbCircle
 10
516.1698729811
 20
427.3864422247
 40
2.555822748428
100
AcDbArc
 50
55.61575253204
 51
124.384247468
  0
ARC
  5
4D9
100
AcDbEntity
  8
_0-3_躯体と製品
  6
CONTINUOUS
 62
     0
100
AcDbCircle
 10
524.8301270189
 20
427.3864422247
 40
2.555822748428
100
AcDbArc
 50
55.61575253204
 51
124.384247468
  0
LINE
  5
4DA
100
AcDbEntity
  8
_0-3_躯体と製品
  6
CONTINUOUS
 62
     0
100
AcDbLine
 10
514.7264973081
 20
429.4956829857
 11
514.7264973081
 21
425
  0
LINE
  5
4DB
100
AcDbEntity
  8
_0-3_躯体と製品
  6
CONTINUOUS
 62
     0
100
AcDbLine
 10
515.6
 20
430
 11
514.7264973081
 21
429.4956829857
  0
LINE
  5
4DC
100
AcDbEntity
  8
_0-3_躯体と製品
  6
CONTINUOUS
 62
     0
100
AcDbLine
 10
515.6
 20
430
 11
525.4
 21
430
  0
LINE
  5
4DD
100
AcDbEntity
  8
_0-3_躯体と製品
  6
CONTINUOUS
 62
     0
100
AcDbLine
 10
525.4
 20
430
 11
526.2735026919
 21
429.4956829857
  0
LINE
  5
4DE
100
AcDbEntity
  8
_0-3_躯体と製品
  6
CONTINUOUS
 62
     0
100
AcDbLine
 10
517.6132486541
 20
429.4956829857
 11
517.6132486541
 21
425
  0
LINE
  5
4DF
100
AcDbEntity
  8
_0-3_躯体と製品
  6
CONTINUOUS
 62
     0
100
AcDbLine
 10
523.3867513459
 20
429.4956829857
 11
523.3867513459
 21
425
  0
LINE
  5
4E0
100
AcDbEntity
  8
_0-3_躯体と製品
  6
CONTINUOUS
 62
     0
100
AcDbLine
 10
526.2735026919
 20
429.4956829857
 11
526.2735026919
 21
425
  0
CIRCLE
  5
4E1
100
AcDbEntity
  8
_0-4_図枠
  6
CONTINUOUS
 62
     0
100
AcDbCircle
 10
570.4733407388
 20
452.5981941001
 40
0.9
  0
CIRCLE
  5
4E2
100
AcDbEntity
  8
_0-4_図枠
  6
CONTINUOUS
 62
     0
100
AcDbCircle
 10
522.5544450374
 20
454.4631696873
 40
0.9
  0
CIRCLE
  5
4E3
100
AcDbEntity
  8
_0-4_図枠
  6
CONTINUOUS
 62
     0
100
AcDbCircle
 10
518.373989024
 20
393.9173386019
 40
0.9
  0
CIRCLE
  5
4E4
100
AcDbEntity
  8
_0-4_図枠
  6
CONTINUOUS
 62
     0
100
AcDbCircle
 10
538.1038290284
 20
457.1854223307
 40
0.9
  0
CIRCLE
  5
4E5
100
AcDbEntity
  8
_0-4_図枠
  6
CONTINUOUS
 62
     0
100
AcDbCircle
 10
524.8374108287
 20
427.1005721473
 40
0.9
  0
CIRCLE
  5
4E6
100
AcDbEntity
  8
_0-4_図枠
  6
CONTINUOUS
 62
     0
100
AcDbCircle
 10
530.6774827281
 20
434.4886149116
 40
0.9
  0
CIRCLE
  5
4E7
100
AcDbEntity
  8
_0-4_図枠
  6
CONTINUOUS
 62
     0
100
AcDbCircle
 10
587.3986558504
 20
481.9136998075
 40
6
  0
LINE
  5
4E8
100
AcDbEntity
  8
_0-4_図枠
  6
CONTINUOUS
 62
     0
100
AcDbLine
 10
570.4733407388
 20
452.5981941001
 11
584.3986558504
 21
476.7175473848
  0
CIRCLE
  5
4E9
100
AcDbEntity
  8
_0-4_図枠
  6
CONTINUOUS
 62
     0
100
AcDbCircle
 10
538.0216915842
 20
432.751336986
 40
0.9
  0
CIRCLE
  5
4EA
100
AcDbEntity
  8
_0-4_図枠
  6
CONTINUOUS
 62
     0
100
AcDbCircle
 10
565.8347458396
 20
480.9249600701
 40
6
  0
LINE
  5
4EB
100
AcDbEntity
  8
_0-4_図枠
  6
CONTINUOUS
 62
     0
100
AcDbLine
 10
538.0216915842
 20
432.751336986
 11
562.8347458396
 21
475.7288076474
  0
CIRCLE
  5
4EC
100
AcDbEntity
  8
_0-4_図枠
  6
CONTINUOUS
 62
     0
100
AcDbCircle
 10
559.3909188008
 20
494.0557433617
 40
6
  0
LINE
  5
4ED
100
AcDbEntity
  8
_0-4_図枠
  6
CONTINUOUS
 62
     0
100
AcDbLine
 10
538.1038290284
 20
457.1854223307
 11
556.3909188008
 21
488.859590939
  0
CIRCLE
  5
4EE
100
AcDbEntity
  8
_0-4_図枠
  6
CONTINUOUS
 62
     0
100
AcDbCircle
 10
543.3799775765
 20
490.5340501396
 40
6
  0
LINE
  5
4EF
100
AcDbEntity
  8
_0-4_図枠
  6
CONTINUOUS
 62
     0
100
AcDbLine
 10
522.5544450374
 20
454.4631696873
 11
540.3799775765
 21
485.3378977168
  0
CIRCLE
  5
4F0
100
AcDbEntity
  8
_0-4_図枠
  6
CONTINUOUS
 62
     0
100
AcDbCircle
 10
545.4591688599
 20
408.8859835099
 40
6
  0
LINE
  5
4F1
100
AcDbEntity
  8
_0-4_図枠
  6
CONTINUOUS
 62
     0
100
AcDbLine
 10
530.6774827281
 20
434.4886149116
 11
542.4591688599
 21
414.0821359326
  0
CIRCLE
  5
4F2
100
AcDbEntity
  8
_0-4_図枠
  6
CONTINUOUS
 62
     0
100
AcDbCircle
 10
544.2597964936
 20
393.4600133715
 40
6
  0
LINE
  5
4F3
100
AcDbEntity
  8
_0-4_図枠
  6
CONTINUOUS
 62
     0
100
AcDbLine
 10
524.8374108287
 20
427.1005721473
 11
541.2597964936
 21
398.6561657942
  0
CIRCLE
  5
4F4
100
AcDbEntity
  8
_0-4_図枠
  6
CONTINUOUS
 62
     0
100
AcDbCircle
 10
505.3323748293
 20
371.3286002038
 40
6
  0
LINE
  5
4F5
100
AcDbEntity
  8
_0-4_図枠
  6
CONTINUOUS
 62
     0
100
AcDbLine
 10
518.373989024
 20
393.9173386019
 11
508.3323748293
 21
376.5247526265
  0
CIRCLE
  5
4F6
100
AcDbEntity
  8
_0-4_図枠
  6
CONTINUOUS
 62
     0
100
AcDbCircle
 10
513.378248247
 20
424.2361569326
 40
0.9
  0
CIRCLE
  5
4F7
100
AcDbEntity
  8
_0-4_図枠
  6
CONTINUOUS
 62
     0
100
AcDbCircle
 10
500.6809946151
 20
402.2438685256
 40
6
  0
LINE
  5
4F8
100
AcDbEntity
  8
_0-4_図枠
  6
CONTINUOUS
 62
     0
100
AcDbLine
 10
513.378248247
 20
424.2361569326
 11
503.6809946151
 21
407.4400209483
  0
TEXT
  5
4F9
100
AcDbEntity
  8
_0-4_図枠
  6
CONTINUOUS
 62
     0
100
AcDbText
 10
562.8347458396
 20
477.9249600701
 40
5
  1
２
  7
STANDARD
100
AcDbText
  0
CIRCLE
  5
4FA
100
AcDbEntity
  8
_0-4_図枠
  6
CONTINUOUS
 62
     0
100
AcDbCircle
 10
604.0335221994
 20
449.8944336563
 40
0.9
  0
LINE
  5
4FB
100
AcDbEntity
  8
_0-4_図枠
  6
CONTINUOUS
 62
     0
100
AcDbLine
 10
604.0335221994
 20
449.8944336563
 11
627.6700033428
 21
490.8340199088
  0
CIRCLE
  5
4FC
100
AcDbEntity
  8
_0-4_図枠
  6
CONTINUOUS
 62
     0
100
AcDbCircle
 10
630.6700033428
 20
496.0301723315
 40
6
  0
CIRCLE
  5
4FD
100
AcDbEntity
  8
_0-4_図枠
  6
CONTINUOUS
 62
     0
100
AcDbCircle
 10
438.8466669235
 20
368.8070894847
 40
6
  0
LINE
  5
4FE
100
AcDbEntity
  8
_0-4_図枠
  6
CONTINUOUS
 62
     0
100
AcDbLine
 10
427.9345875449
 20
349.9068135848
 11
435.8466669235
 21
363.610937062
  0
CIRCLE
  5
4FF
100
AcDbEntity
  8
_0-4_図枠
  6
CONTINUOUS
 62
     0
100
AcDbCircle
 10
427.9345875449
 20
349.9068135848
 40
0.9
  0
LINE
  5
500
100
AcDbEntity
  8
_0-3_躯体と製品
  6
CONTINUOUS
 62
     0
100
AcDbLine
 10
522.7397582713
 20
435.2011932252
 11
522.4671752847
 21
430
  0
LINE
  5
501
100
AcDbEntity
  8
_0-3_躯体と製品
  6
CONTINUOUS
 62
     0
100
AcDbLine
 10
523.0437457169
 20
430.1391063229
 11
522.8892524938
 21
430
  0
LINE
  5
502
100
AcDbEntity
  8
_0-3_躯体と製品
  6
CONTINUOUS
 62
     0
100
AcDbLine
 10
517.4599614441
 20
430
 11
517.0519685084
 21
430.4531220603
  0
LINE
  5
503
100
AcDbEntity
  8
_0-3_躯体と製品
  6
CONTINUOUS
 62
     0
100
AcDbLine
 10
517.8834228438
 20
435.4557029804
 11
517.5975015661
 21
430
  0
LINE
  5
504
100
AcDbEntity
  8
_0-3_躯体と製品
  6
CONTINUOUS
 62
     0
100
AcDbLine
 10
373.1165771562
 20
435.4557029804
 11
373.4024984339
 21
430
  0
LINE
  5
505
100
AcDbEntity
  8
_0-3_躯体と製品
  6
CONTINUOUS
 62
     0
100
AcDbLine
 10
373.5400385559
 20
430
 11
373.9480314916
 21
430.4531220603
  0
LINE
  5
506
100
AcDbEntity
  8
_0-3_躯体と製品
  6
CONTINUOUS
 62
     0
100
AcDbLine
 10
367.9562542831
 20
430.1391063229
 11
368.1107475062
 21
430
  0
LINE
  5
507
100
AcDbEntity
  8
_0-3_躯体と製品
  6
CONTINUOUS
 62
     0
100
AcDbLine
 10
368.2602417287
 20
435.2011932252
 11
368.5328247153
 21
430
  0
CIRCLE
  5
508
100
AcDbEntity
  8
_0-4_図枠
  6
CONTINUOUS
 62
     0
100
AcDbCircle
 10
603.7093559719
 20
468.0220969438
 40
0.9
  0
LINE
  5
509
100
AcDbEntity
  8
_0-4_図枠
  6
CONTINUOUS
 62
     0
100
AcDbLine
 10
603.7093559719
 20
468.0220969438
 11
628.8458371153
 21
511.5597594077
  0
TEXT
  5
50A
100
AcDbEntity
  8
_0-4_図枠
  6
CONTINUOUS
 62
     0
100
AcDbText
 10
628.8458371153
 20
513.7559118304
 40
5
  1
１
  7
STANDARD
100
AcDbText
  0
CIRCLE
  5
50B
100
AcDbEntity
  8
_0-4_図枠
  6
CONTINUOUS
 62
     0
100
AcDbCircle
 10
631.8458371153
 20
516.7559118304
 40
6
  0
ARC
  5
50C
100
AcDbEntity
  8
_0-0_0
  6
CONTINUOUS
 62
     0
100
AcDbCircle
 10
349.499999
 20
429.241232
 40
10.25
100
AcDbArc
 50
-90
 51
-71.07535558395
  0
ARC
  5
50D
100
AcDbEntity
  8
_0-0_0
  6
CONTINUOUS
 62
     0
100
AcDbCircle
 10
349.499999
 20
429.241232
 40
9.25
100
AcDbArc
 50
-90
 51
-71.07535558395
  0
ARC
  5
50E
100
AcDbEntity
  8
_0-0_0
  6
CONTINUOUS
 62
     0
100
AcDbCircle
 10
349.499999
 20
429.241232
 40
9.25
100
AcDbArc
 50
-90
 51
-71.07535558395
  0
ARC
  5
50F
100
AcDbEntity
  8
_0-0_0
  6
CONTINUOUS
 62
     0
100
AcDbCircle
 10
349.499999
 20
429.241232
 40
10.25
100
AcDbArc
 50
-90
 51
-71.07535558395
  0
ARC
  5
510
100
AcDbEntity
  8
_0-0_0
  6
CONTINUOUS
 62
     0
100
AcDbCircle
 10
354.299999
 20
427.300001
 40
0.3
100
AcDbArc
 50
180
 51
270
  0
ARC
  5
511
100
AcDbEntity
  8
_0-0_0
  6
CONTINUOUS
 62
     0
100
AcDbCircle
 10
354.299999
 20
429.200003
 40
0.3
100
AcDbArc
 50
90
 51
180
  0
ARC
  5
512
100
AcDbEntity
  8
_0-0_0
  6
CONTINUOUS
 62
     0
100
AcDbCircle
 10
354.5
 20
431.500001
 40
0.500001
100
AcDbArc
 50
180
 51
270
  0
ARC
  5
513
100
AcDbEntity
  8
_0-0_0
  6
CONTINUOUS
 62
     0
100
AcDbCircle
 10
354.299999
 20
425.200001
 40
0.3
100
AcDbArc
 50
90
 51
180
  0
ARC
  5
514
100
AcDbEntity
  8
_0-0_0
  6
CONTINUOUS
 62
     0
100
AcDbCircle
 10
354.5
 20
424.000001
 40
0.500001
100
AcDbArc
 50
180
 51
270
  0
ARC
  5
515
100
AcDbEntity
  8
_0-0_0
  6
CONTINUOUS
 62
     0
100
AcDbCircle
 10
353
 20
439.000001
 40
0.999999
100
AcDbArc
 50
0
 51
180
  0
LINE
  5
516
100
AcDbEntity
  8
_0-0_0
  6
CONTINUOUS
 62
     0
100
AcDbLine
 10
353.999999
 20
431.500001
 11
353.999999
 21
439.000001
  0
LINE
  5
517
100
AcDbEntity
  8
_0-0_0
  6
CONTINUOUS
 62
     0
100
AcDbLine
 10
353.999999
 20
427.300001
 11
353.999999
 21
429.200003
  0
ARC
  5
518
100
AcDbEntity
  8
_0-0_0
  6
CONTINUOUS
 62
     0
100
AcDbCircle
 10
351.5
 20
424.000001
 40
0.500001
100
AcDbArc
 50
-90
 51
0
  0
LINE
  5
519
100
AcDbEntity
  8
_0-0_0
  6
CONTINUOUS
 62
     0
100
AcDbLine
 10
351.999998
 20
422.000003
 11
351.999998
 21
421.000001
  0
LINE
  5
51A
100
AcDbEntity
  8
_0-0_0
  6
CONTINUOUS
 62
     0
100
AcDbLine
 10
353.999999
 20
421.500002
 11
353.999999
 21
421.000001
  0
LINE
  5
51B
100
AcDbEntity
  8
_0-0_0
  6
CONTINUOUS
 62
     0
100
AcDbLine
 10
353.999999
 20
424.000001
 11
353.999999
 21
425.200001
  0
LINE
  5
51C
100
AcDbEntity
  8
_0-0_0
  6
CONTINUOUS
 62
     0
100
AcDbLine
 10
341.499998
 20
422.000003
 11
341.499998
 21
421.000001
  0
LINE
  5
51D
100
AcDbEntity
  8
_0-0_0
  6
CONTINUOUS
 62
     0
100
AcDbLine
 10
339.999998
 20
421.000001
 11
341.499998
 21
421.000001
  0
LINE
  5
51E
100
AcDbEntity
  8
_0-0_0
  6
CONTINUOUS
 62
     0
100
AcDbLine
 10
351.999998
 20
421.000001
 11
353.999999
 21
421.000001
  0
LINE
  5
51F
100
AcDbEntity
  8
_0-0_0
  6
CONTINUOUS
 62
     0
100
AcDbLine
 10
339.999998
 20
423.000003
 11
339.999998
 21
421.000001
  0
ARC
  5
520
100
AcDbEntity
  8
_0-0_0
  6
CONTINUOUS
 62
     0
100
AcDbCircle
 10
340.499998
 20
423.000003
 40
0.5
100
AcDbArc
 50
90
 51
180
  0
LINE
  5
521
100
AcDbEntity
  8
_0-0_0
  6
CONTINUOUS
 62
     0
100
AcDbLine
 10
351.749998
 20
426.750003
 11
350.4999979999
 21
426.750003
  0
LINE
  5
522
100
AcDbEntity
  8
_0-0_0
  6
CONTINUOUS
 62
     0
100
AcDbLine
 10
347.4999979999
 20
426.750003
 11
346.249998
 21
426.750003
  0
LINE
  5
523
100
AcDbEntity
  8
_0-0_0
  6
CONTINUOUS
 62
     0
100
AcDbLine
 10
351.999998
 20
422.000003
 11
344.4940491262
 21
422.000003
  0
LINE
  5
524
100
AcDbEntity
  8
_0-0_0
  6
CONTINUOUS
 62
     0
100
AcDbLine
 10
344.4940491262
 20
422.000003
 11
341.499998
 21
422.000003
  0
LINE
  5
525
100
AcDbEntity
  8
_0-0_0
  6
CONTINUOUS
 62
     0
100
AcDbLine
 10
346.499998
 20
423.500003
 11
351.5
 21
423.500003
  0
LINE
  5
526
100
AcDbEntity
  8
_0-0_0
  6
CONTINUOUS
 62
     0
100
AcDbLine
 10
340.499998
 20
423.500003
 11
344.499998
 21
423.500003
  0
ARC
  5
527
100
AcDbEntity
  8
_0-0_0
  6
CONTINUOUS
 62
     0
100
AcDbCircle
 10
346.499998
 20
424.000003
 40
0.25
100
AcDbArc
 50
180
 51
270
  0
ARC
  5
528
100
AcDbEntity
  8
_0-0_0
  6
CONTINUOUS
 62
     0
100
AcDbCircle
 10
351.5
 20
424.000001
 40
0.250001
100
AcDbArc
 50
-90
 51
0
  0
LINE
  5
529
100
AcDbEntity
  8
_0-0_0
  6
CONTINUOUS
 62
     0
100
AcDbLine
 10
346.249998
 20
424.000003
 11
346.249998
 21
426.750003
  0
LINE
  5
52A
100
AcDbEntity
  8
_0-0_0
  6
CONTINUOUS
 62
     0
100
AcDbLine
 10
351.749998
 20
424.000001
 11
351.749998
 21
426.750003
  0
LINE
  5
52B
100
AcDbEntity
  8
_0-0_0
  6
CONTINUOUS
 62
     0
100
AcDbLine
 10
346.499998
 20
423.750003
 11
351.5
 21
423.750003
  0
LINE
  5
52C
100
AcDbEntity
  8
_0-0_0
  6
CONTINUOUS
 62
     0
100
AcDbLine
 10
351.999998
 20
439.000001
 11
351.999998
 21
428.500003
  0
LINE
  5
52D
100
AcDbEntity
  8
_0-0_0
  6
CONTINUOUS
 62
     0
100
AcDbLine
 10
351.999998
 20
427.000003
 11
351.999998
 21
424.000001
  0
LINE
  5
52E
100
AcDbEntity
  8
_0-0_0
  6
CONTINUOUS
 62
     0
100
AcDbLine
 10
345.999998
 20
424.000003
 11
345.999998
 21
427.000003
  0
LINE
  5
52F
100
AcDbEntity
  8
_0-0_0
  6
CONTINUOUS
 62
     0
100
AcDbLine
 10
344.499998
 20
428.000003
 11
344.499998
 21
423.500003
  0
ARC
  5
530
100
AcDbEntity
  8
_0-0_0
  6
CONTINUOUS
 62
     0
100
AcDbCircle
 10
344.999998
 20
428.000003
 40
0.5
100
AcDbArc
 50
90
 51
180
  0
ARC
  5
531
100
AcDbEntity
  8
_0-0_0
  6
CONTINUOUS
 62
     0
100
AcDbCircle
 10
346.499998
 20
424.000003
 40
0.5
100
AcDbArc
 50
180
 51
270
  0
LINE
  5
532
100
AcDbEntity
  8
_0-0_0
  6
CONTINUOUS
 62
     0
100
AcDbLine
 10
344.999998
 20
428.500003
 11
346.249998
 21
428.500003
  0
ARC
  5
533
100
AcDbEntity
  8
_0-0_0
  6
CONTINUOUS
 62
     0
100
AcDbCircle
 10
346.249998
 20
427.500003
 40
1
100
AcDbArc
 50
0
 51
90
  0
LINE
  5
534
100
AcDbEntity
  8
_0-0_0
  6
CONTINUOUS
 62
     0
100
AcDbLine
 10
347.249998
 20
427.500003
 11
347.249998
 21
427.000003
  0
LINE
  5
535
100
AcDbEntity
  8
_0-0_0
  6
CONTINUOUS
 62
     0
100
AcDbLine
 10
347.249998
 20
427.000003
 11
345.999998
 21
427.000003
  0
LINE
  5
536
100
AcDbEntity
  8
_0-0_0
  6
CONTINUOUS
 62
     0
100
AcDbLine
 10
351.999998
 20
427.000003
 11
350.749998
 21
427.000003
  0
LINE
  5
537
100
AcDbEntity
  8
_0-0_0
  6
CONTINUOUS
 62
     0
100
AcDbLine
 10
350.749998
 20
427.500003
 11
350.749998
 21
427.000003
  0
ARC
  5
538
100
AcDbEntity
  8
_0-0_0
  6
CONTINUOUS
 62
     0
100
AcDbCircle
 10
351.749998
 20
427.500003
 40
1
100
AcDbArc
 50
90
 51
180
  0
LINE
  5
539
100
AcDbEntity
  8
_0-0_0
  6
CONTINUOUS
 62
     0
100
AcDbLine
 10
351.749998
 20
428.500003
 11
351.999998
 21
428.500003
  0
LINE
  5
53A
100
AcDbEntity
  8
_0-0_0
  6
CONTINUOUS
 62
     0
100
AcDbLine
 10
350.4999979999
 20
426.750003
 11
350.4999979999
 21
445.6695588599
  0
LINE
  5
53B
100
AcDbEntity
  8
_0-0_0
  6
CONTINUOUS
 62
     0
100
AcDbLine
 10
347.4999979999
 20
426.750003
 11
347.4999979999
 21
447.1328218559
  0
LINE
  5
53C
100
AcDbEntity
  8
_0-0_0
  6
CONTINUOUS
 62
     0
100
AcDbLine
 10
349.499999
 20
418.991232
 11
349.499999
 21
419.991232
  0
CIRCLE
  5
53D
100
AcDbEntity
  8
_0-0_0
  6
CONTINUOUS
 62
     0
100
AcDbCircle
 10
343.7715475589
 20
458.8049750069
 40
0.9
  0
ARC
  5
53E
100
AcDbEntity
  8
_0-0_0
  6
CONTINUOUS
 62
     0
100
AcDbCircle
 10
355.499999
 20
411.741232
 40
9.25
100
AcDbArc
 50
90
 51
108.9246444161
  0
LINE
  5
53F
100
AcDbEntity
  8
_0-0_0
  6
CONTINUOUS
 62
     0
100
AcDbLine
 10
355.499999
 20
419.991232
 11
355.499999
 21
418.991232
  0
ARC
  5
540
100
AcDbEntity
  8
_0-0_0
  6
CONTINUOUS
 62
     0
100
AcDbCircle
 10
355.499999
 20
411.741232
 40
8.25
100
AcDbArc
 50
90
 51
108.9246444161
  0
ARC
  5
541
100
AcDbEntity
  8
_0-0_0
  6
CONTINUOUS
 62
     0
100
AcDbCircle
 10
355.499999
 20
411.741232
 40
8.25
100
AcDbArc
 50
90
 51
108.9246444161
  0
ARC
  5
542
100
AcDbEntity
  8
_0-0_0
  6
CONTINUOUS
 62
     0
100
AcDbCircle
 10
355.499999
 20
411.741232
 40
9.25
100
AcDbArc
 50
90
 51
108.9246444161
  0
LINE
  5
543
100
AcDbEntity
  8
_0-0_0
  6
CONTINUOUS
 62
     0
100
AcDbLine
 10
356.3755366619
 20
418.991232
 11
355.499999
 21
419.8667696619
  0
LINE
  5
544
100
AcDbEntity
  8
_0-0_0
  6
CONTINUOUS
 62
     0
100
AcDbLine
 10
355.499999
 20
419.991232
 11
355.499999
 21
418.991232
  0
LINE
  5
545
100
AcDbEntity
  8
_0-0_0
  6
CONTINUOUS
 62
     0
100
AcDbLine
 10
351.999998
 20
421.000001
 11
353.999999
 21
421.000001
  0
ARC
  5
546
100
AcDbEntity
  8
_0-0_0
  6
CONTINUOUS
 62
     0
100
AcDbCircle
 10
539.499998
 20
423.999998
 40
0.500001
100
AcDbArc
 50
180
 51
270
  0
LINE
  5
547
100
AcDbEntity
  8
_0-0_0
  6
CONTINUOUS
 62
     0
100
AcDbLine
 10
549.5
 20
422
 11
549.5
 21
420.999998
  0
LINE
  5
548
100
AcDbEntity
  8
_0-0_0
  6
CONTINUOUS
 62
     0
100
AcDbLine
 10
551
 20
420.999998
 11
549.5
 21
420.999998
  0
LINE
  5
549
100
AcDbEntity
  8
_0-0_0
  6
CONTINUOUS
 62
     0
100
AcDbLine
 10
551
 20
423
 11
551
 21
420.999998
  0
ARC
  5
54A
100
AcDbEntity
  8
_0-0_0
  6
CONTINUOUS
 62
     0
100
AcDbCircle
 10
550.5
 20
423
 40
0.5
100
AcDbArc
 50
0
 51
90
  0
LINE
  5
54B
100
AcDbEntity
  8
_0-0_0
  6
CONTINUOUS
 62
     0
100
AcDbLine
 10
539.25
 20
426.75
 11
540.5000000001
 21
426.75
  0
LINE
  5
54C
100
AcDbEntity
  8
_0-0_0
  6
CONTINUOUS
 62
     0
100
AcDbLine
 10
543.5000000001
 20
426.75
 11
544.75
 21
426.75
  0
LINE
  5
54D
100
AcDbEntity
  8
_0-0_0
  6
CONTINUOUS
 62
     0
100
AcDbLine
 10
539
 20
422
 11
546.5059488738
 21
422
  0
LINE
  5
54E
100
AcDbEntity
  8
_0-0_0
  6
CONTINUOUS
 62
     0
100
AcDbLine
 10
546.5059488738
 20
422
 11
549.5
 21
422
  0
LINE
  5
54F
100
AcDbEntity
  8
_0-0_0
  6
CONTINUOUS
 62
     0
100
AcDbLine
 10
544.5
 20
423.5
 11
539.499998
 21
423.5
  0
LINE
  5
550
100
AcDbEntity
  8
_0-0_0
  6
CONTINUOUS
 62
     0
100
AcDbLine
 10
550.5
 20
423.5
 11
546.5
 21
423.5
  0
ARC
  5
551
100
AcDbEntity
  8
_0-0_0
  6
CONTINUOUS
 62
     0
100
AcDbCircle
 10
544.5
 20
424
 40
0.25
100
AcDbArc
 50
-90
 51
0
  0
ARC
  5
552
100
AcDbEntity
  8
_0-0_0
  6
CONTINUOUS
 62
     0
100
AcDbCircle
 10
539.499998
 20
423.999998
 40
0.250001
100
AcDbArc
 50
180
 51
270
  0
LINE
  5
553
100
AcDbEntity
  8
_0-0_0
  6
CONTINUOUS
 62
     0
100
AcDbLine
 10
544.75
 20
424
 11
544.75
 21
426.75
  0
LINE
  5
554
100
AcDbEntity
  8
_0-0_0
  6
CONTINUOUS
 62
     0
100
AcDbLine
 10
539.25
 20
423.999998
 11
539.25
 21
426.75
  0
LINE
  5
555
100
AcDbEntity
  8
_0-0_0
  6
CONTINUOUS
 62
     0
100
AcDbLine
 10
544.5
 20
423.75
 11
539.499998
 21
423.75
  0
LINE
  5
556
100
AcDbEntity
  8
_0-0_0
  6
CONTINUOUS
 62
     0
100
AcDbLine
 10
539
 20
427
 11
539
 21
423.999998
  0
LINE
  5
557
100
AcDbEntity
  8
_0-0_0
  6
CONTINUOUS
 62
     0
100
AcDbLine
 10
545
 20
424
 11
545
 21
427
  0
LINE
  5
558
100
AcDbEntity
  8
_0-0_0
  6
CONTINUOUS
 62
     0
100
AcDbLine
 10
546.5
 20
428
 11
546.5
 21
423.5
  0
ARC
  5
559
100
AcDbEntity
  8
_0-0_0
  6
CONTINUOUS
 62
     0
100
AcDbCircle
 10
546
 20
428
 40
0.5
100
AcDbArc
 50
0
 51
90
  0
ARC
  5
55A
100
AcDbEntity
  8
_0-0_0
  6
CONTINUOUS
 62
     0
100
AcDbCircle
 10
544.5
 20
424
 40
0.5
100
AcDbArc
 50
-90
 51
0
  0
LINE
  5
55B
100
AcDbEntity
  8
_0-0_0
  6
CONTINUOUS
 62
     0
100
AcDbLine
 10
546
 20
428.5
 11
544.75
 21
428.5
  0
ARC
  5
55C
100
AcDbEntity
  8
_0-0_0
  6
CONTINUOUS
 62
     0
100
AcDbCircle
 10
544.75
 20
427.5
 40
1
100
AcDbArc
 50
90
 51
180
  0
LINE
  5
55D
100
AcDbEntity
  8
_0-0_0
  6
CONTINUOUS
 62
     0
100
AcDbLine
 10
543.75
 20
427.5
 11
543.75
 21
427
  0
LINE
  5
55E
100
AcDbEntity
  8
_0-0_0
  6
CONTINUOUS
 62
     0
100
AcDbLine
 10
543.75
 20
427
 11
545
 21
427
  0
LINE
  5
55F
100
AcDbEntity
  8
_0-0_0
  6
CONTINUOUS
 62
     0
100
AcDbLine
 10
539
 20
427
 11
540.25
 21
427
  0
LINE
  5
560
100
AcDbEntity
  8
_0-0_0
  6
CONTINUOUS
 62
     0
100
AcDbLine
 10
540.25
 20
427.5
 11
540.25
 21
427
  0
ARC
  5
561
100
AcDbEntity
  8
_0-0_0
  6
CONTINUOUS
 62
     0
100
AcDbCircle
 10
539.25
 20
427.5
 40
1
100
AcDbArc
 50
0
 51
90
  0
LINE
  5
562
100
AcDbEntity
  8
_0-0_0
  6
CONTINUOUS
 62
     0
100
AcDbLine
 10
539.25
 20
428.5
 11
539
 21
428.5
  0
LINE
  5
563
100
AcDbEntity
  8
_0-0_0
  6
CONTINUOUS
 62
     0
100
AcDbLine
 10
540.5000000001
 20
426.75
 11
540.5000000001
 21
445.6695558599
  0
LINE
  5
564
100
AcDbEntity
  8
_0-0_0
  6
CONTINUOUS
 62
     0
100
AcDbLine
 10
543.5000000001
 20
426.75
 11
543.5000000001
 21
447.1328188559
  0
LINE
  5
565
100
AcDbEntity
  8
_0-3_躯体と製品
  6
CONTINUOUS
 62
     0
100
AcDbLine
 10
539
 20
428.5
 11
539
 21
439
  0
ARC
  5
566
100
AcDbEntity
  8
_0-0_0
  6
CONTINUOUS
 62
     0
100
AcDbCircle
 10
324.4214979491
 20
445.0354781348
 40
23.08754100601
100
AcDbArc
 50
1.184024179326
 51
102.1986608952
  0
ARC
  5
567
100
AcDbEntity
  8
_0-0_0
  6
CONTINUOUS
 62
     0
100
AcDbCircle
 10
325.5342596311
 20
444.3611599539
 40
25
100
AcDbArc
 50
3
 51
104.4095443492
  0
ARC
  5
568
100
AcDbEntity
  8
_0-0_0
  6
CONTINUOUS
 62
     0
100
AcDbCircle
 10
319.4374044812
 20
468.0904321147
 40
0.5
100
AcDbArc
 50
104.4095443492
 51
282.1986608952
  0
ARC
  5
569
100
AcDbEntity
  8
_0-0_0
  6
CONTINUOUS
 62
     0
100
AcDbCircle
 10
571.5625935188
 20
468.0904291147
 40
0.5
100
AcDbArc
 50
-102.1986608952
 51
75.59045565078
  0
ARC
  5
56A
100
AcDbEntity
  8
_0-0_0
  6
CONTINUOUS
 62
     0
100
AcDbCircle
 10
565.4657383689
 20
444.3611569539
 40
25
100
AcDbArc
 50
75.59045565079
 51
177
  0
ARC
  5
56B
100
AcDbEntity
  8
_0-0_0
  6
CONTINUOUS
 62
     0
100
AcDbCircle
 10
566.5785000509
 20
445.0354751348
 40
23.08754100601
100
AcDbArc
 50
77.80133910481
 51
178.8159758207
  0
CIRCLE
  5
56C
100
AcDbEntity
  8
_0-4_図枠
  6
CONTINUOUS
 62
     0
100
AcDbCircle
 10
335.9348460195
 20
412.1857280032
 40
6
  0
LINE
  5
56D
100
AcDbEntity
  8
_0-4_図枠
  6
CONTINUOUS
 62
     0
100
AcDbLine
 10
348.6320996514
 20
434.1780164102
 11
338.9348460195
 21
417.3818804259
  0
CIRCLE
  5
56E
100
AcDbEntity
  8
_0-4_図枠
  6
CONTINUOUS
 62
     0
100
AcDbCircle
 10
348.6320996514
 20
434.1780164102
 40
0.9
  0
TEXT
  5
56F
100
AcDbEntity
  8
_0-4_図枠
  6
CONTINUOUS
 62
     0
100
AcDbText
 10
332.6848460195
 20
409.1857280032
 40
5
  1
８
  7
STANDARD
100
AcDbText
  0
LINE
  5
570
100
AcDbEntity
  8
_0-0_0
  6
CONTINUOUS
 62
     0
100
AcDbLine
 10
541.5
 20
420
 11
541.5
 21
419
  0
TEXT
  5
571
100
AcDbEntity
  8
_0-4_図枠
  6
CONTINUOUS
 62
     0
100
AcDbText
 10
584.3986558504
 20
478.9136998075
 40
5
  1
３
  7
STANDARD
100
AcDbText
  0
TEXT
  5
572
100
AcDbEntity
  8
_0-4_図枠
  6
CONTINUOUS
 62
     0
100
AcDbText
 10
556.3909188008
 20
491.0557433617
 40
5
  1
４
  7
STANDARD
100
AcDbText
  0
TEXT
  5
573
100
AcDbEntity
  8
_0-4_図枠
  6
CONTINUOUS
 62
     0
100
AcDbText
 10
542.4591688599
 20
405.8859835099
 40
5
  1
５
  7
STANDARD
100
AcDbText
  0
TEXT
  5
574
100
AcDbEntity
  8
_0-4_図枠
  6
CONTINUOUS
 62
     0
100
AcDbText
 10
627.6700033428
 20
493.0301723315
 40
5
  1
６
  7
STANDARD
100
AcDbText
  0
TEXT
  5
575
100
AcDbEntity
  8
_0-4_図枠
  6
CONTINUOUS
 62
     0
100
AcDbText
 10
435.8466669235
 20
365.8070894847
 40
5
  1
７
  7
STANDARD
100
AcDbText
  0
TEXT
  5
576
100
AcDbEntity
  8
_0-4_図枠
  6
CONTINUOUS
 62
     0
100
AcDbText
 10
540.1299775765
 20
487.5340501396
 40
5
  1
９
  7
STANDARD
100
AcDbText
  0
TEXT
  5
577
100
AcDbEntity
  8
_0-4_図枠
  6
CONTINUOUS
 62
     0
100
AcDbText
 10
541.0097964936
 20
390.4600133715
 40
5
  1
10
  7
STANDARD
100
AcDbText
  0
TEXT
  5
578
100
AcDbEntity
  8
_0-4_図枠
  6
CONTINUOUS
 62
     0
100
AcDbText
 10
502.0823748293
 20
368.3286002038
 40
5
  1
11
  7
STANDARD
100
AcDbText
  0
TEXT
  5
579
100
AcDbEntity
  8
_0-4_図枠
  6
CONTINUOUS
 62
     0
100
AcDbText
 10
497.4309946151
 20
399.2438685256
 40
5
  1
12
  7
STANDARD
100
AcDbText
  0
INSERT
  5
57A
100
AcDbEntity
  8
_0-2_寸法
100
AcDbBlockReference
  2
BK2
 10
0
 20
0
  0
INSERT
  5
57B
100
AcDbEntity
  8
_0-2_寸法
100
AcDbBlockReference
  2
BK3
 10
0
 20
0
  0
INSERT
  5
57C
100
AcDbEntity
  8
_0-2_寸法
100
AcDbBlockReference
  2
BK4
 10
0
 20
0
  0
INSERT
  5
57D
100
AcDbEntity
  8
_0-2_寸法
100
AcDbBlockReference
  2
BK5
 10
0
 20
0
  0
INSERT
  5
57E
100
AcDbEntity
  8
_0-2_寸法
100
AcDbBlockReference
  2
BK6
 10
0
 20
0
  0
INSERT
  5
57F
100
AcDbEntity
  8
_0-2_寸法
100
AcDbBlockReference
  2
BK7
 10
0
 20
0
  0
INSERT
  5
580
100
AcDbEntity
  8
_0-2_寸法
100
AcDbBlockReference
  2
BK8
 10
0
 20
0
  0
INSERT
  5
581
100
AcDbEntity
  8
_0-2_寸法
100
AcDbBlockReference
  2
BK9
 10
0
 20
0
  0
INSERT
  5
582
100
AcDbEntity
  8
_0-2_寸法
100
AcDbBlockReference
  2
BK10
 10
0
 20
0
  0
INSERT
  5
583
100
AcDbEntity
  8
_0-2_寸法
100
AcDbBlockReference
  2
BK11
 10
0
 20
0
  0
INSERT
  5
584
100
AcDbEntity
  8
_0-2_寸法
100
AcDbBlockReference
  2
BK12
 10
0
 20
0
  0
INSERT
  5
585
100
AcDbEntity
  8
_0-2_寸法
100
AcDbBlockReference
  2
BK13
 10
0
 20
0
  0
INSERT
  5
586
100
AcDbEntity
  8
_0-2_寸法
100
AcDbBlockReference
  2
BK14
 10
0
 20
0
  0
INSERT
  5
587
100
AcDbEntity
  8
_0-2_寸法
100
AcDbBlockReference
  2
BK15
 10
0
 20
0
  0
INSERT
  5
588
100
AcDbEntity
  8
_0-2_寸法
100
AcDbBlockReference
  2
BK16
 10
0
 20
0
  0
INSERT
  5
589
100
AcDbEntity
  8
_0-2_寸法
100
AcDbBlockReference
  2
BK17
 10
0
 20
0
  0
INSERT
  5
58A
100
AcDbEntity
  8
_0-2_寸法
100
AcDbBlockReference
  2
BK18
 10
0
 20
0
  0
INSERT
  5
58B
100
AcDbEntity
  8
_0-2_寸法
100
AcDbBlockReference
  2
BK19
 10
0
 20
0
  0
INSERT
  5
58C
100
AcDbEntity
  8
_0-2_寸法
100
AcDbBlockReference
  2
BK20
 10
0
 20
0
  0
INSERT
  5
58D
100
AcDbEntity
  8
_0-2_寸法
100
AcDbBlockReference
  2
BK21
 10
0
 20
0
  0
INSERT
  5
58E
100
AcDbEntity
  8
_0-2_寸法
100
AcDbBlockReference
  2
BK22
 10
0
 20
0
  0
INSERT
  5
58F
100
AcDbEntity
  8
_0-2_寸法
100
AcDbBlockReference
  2
BK23
 10
0
 20
0
  0
INSERT
  5
590
100
AcDbEntity
  8
_0-2_寸法
100
AcDbBlockReference
  2
BK24
 10
0
 20
0
  0
LINE
  5
591
100
AcDbEntity
  8
_0-2_寸法
  6
CONTINUOUS
 62
     0
100
AcDbLine
 10
270.5
 20
375.9154654157
 11
270.5
 21
299
  0
LINE
  5
592
100
AcDbEntity
  8
_0-2_寸法
  6
CONTINUOUS
 62
     0
100
AcDbLine
 10
271.5
 20
299
 11
319.5
 21
299
  0
CIRCLE
  5
593
100
AcDbEntity
  8
_0-2_寸法
  6
CONTINUOUS
 62
     0
100
AcDbCircle
 10
270.5
 20
375.9154654157
 40
1.4
  0
CIRCLE
  5
594
100
AcDbEntity
  8
_0-2_寸法
  6
CONTINUOUS
 62
     0
100
AcDbCircle
 10
320.5
 20
299
 40
1.4
  0
CIRCLE
  5
595
100
AcDbEntity
  8
_0-2_寸法
  6
CONTINUOUS
 62
     0
100
AcDbCircle
 10
320.5
 20
299
 40
1.4
  0
CIRCLE
  5
596
100
AcDbEntity
  8
_0-2_寸法
  6
CONTINUOUS
 62
     0
100
AcDbCircle
 10
270.5
 20
299
 40
0.25
  0
LINE
  5
597
100
AcDbEntity
  8
_0-2_寸法
  6
CONTINUOUS
 62
     0
100
AcDbLine
 10
270.25
 20
299
 11
270.75
 21
299
  0
LINE
  5
598
100
AcDbEntity
  8
_0-2_寸法
  6
CONTINUOUS
 62
     0
100
AcDbLine
 10
271
 20
299
 11
271.5
 21
299
  0
LINE
  5
599
100
AcDbEntity
  8
_0-2_寸法
  6
CONTINUOUS
 62
     0
100
AcDbLine
 10
321.5
 20
299
 11
419.5
 21
299
  0
CIRCLE
  5
59A
100
AcDbEntity
  8
_0-2_寸法
  6
CONTINUOUS
 62
     0
100
AcDbCircle
 10
320.5
 20
299
 40
1.4
  0
CIRCLE
  5
59B
100
AcDbEntity
  8
_0-2_寸法
  6
CONTINUOUS
 62
     0
100
AcDbCircle
 10
420.5
 20
299
 40
1.4
  0
CIRCLE
  5
59C
100
AcDbEntity
  8
_0-2_寸法
  6
CONTINUOUS
 62
     0
100
AcDbCircle
 10
420.5
 20
299
 40
1.4
  0
LINE
  5
59D
100
AcDbEntity
  8
_0-2_寸法
  6
CONTINUOUS
 62
     0
100
AcDbLine
 10
471.5
 20
299
 11
569.5
 21
299
  0
CIRCLE
  5
59E
100
AcDbEntity
  8
_0-2_寸法
  6
CONTINUOUS
 62
     0
100
AcDbCircle
 10
470.5
 20
299
 40
1.4
  0
CIRCLE
  5
59F
100
AcDbEntity
  8
_0-2_寸法
  6
CONTINUOUS
 62
     0
100
AcDbCircle
 10
570.5
 20
299
 40
1.4
  0
CIRCLE
  5
5A0
100
AcDbEntity
  8
_0-2_寸法
  6
CONTINUOUS
 62
     0
100
AcDbCircle
 10
570.5
 20
299
 40
1.4
  0
LINE
  5
5A1
100
AcDbEntity
  8
_0-2_寸法
  6
CONTINUOUS
 62
     0
100
AcDbLine
 10
620.5
 20
375.9154654157
 11
620.5
 21
299
  0
LINE
  5
5A2
100
AcDbEntity
  8
_0-2_寸法
  6
CONTINUOUS
 62
     0
100
AcDbLine
 10
571.5
 20
299
 11
619.5
 21
299
  0
CIRCLE
  5
5A3
100
AcDbEntity
  8
_0-2_寸法
  6
CONTINUOUS
 62
     0
100
AcDbCircle
 10
570.5
 20
299
 40
1.4
  0
CIRCLE
  5
5A4
100
AcDbEntity
  8
_0-2_寸法
  6
CONTINUOUS
 62
     0
100
AcDbCircle
 10
620.5
 20
375.9154654157
 40
1.4
  0
CIRCLE
  5
5A5
100
AcDbEntity
  8
_0-2_寸法
  6
CONTINUOUS
 62
     0
100
AcDbCircle
 10
620.5
 20
299
 40
1.4
  0
CIRCLE
  5
5A6
100
AcDbEntity
  8
_0-2_寸法
  6
CONTINUOUS
 62
     0
100
AcDbCircle
 10
620.5
 20
299
 40
0.25
  0
LINE
  5
5A7
100
AcDbEntity
  8
_0-2_寸法
  6
CONTINUOUS
 62
     0
100
AcDbLine
 10
620.75
 20
299
 11
620.25
 21
299
  0
LINE
  5
5A8
100
AcDbEntity
  8
_0-2_寸法
  6
CONTINUOUS
 62
     0
100
AcDbLine
 10
620
 20
299
 11
619.5
 21
299
  0
LINE
  5
5A9
100
AcDbEntity
  8
_0-2_寸法
  6
CONTINUOUS
 62
     0
100
AcDbLine
 10
421.5
 20
299
 11
469.5
 21
299
  0
CIRCLE
  5
5AA
100
AcDbEntity
  8
_0-2_寸法
  6
CONTINUOUS
 62
     0
100
AcDbCircle
 10
420.5
 20
299
 40
1.4
  0
CIRCLE
  5
5AB
100
AcDbEntity
  8
_0-2_寸法
  6
CONTINUOUS
 62
     0
100
AcDbCircle
 10
470.5
 20
299
 40
1.4
  0
CIRCLE
  5
5AC
100
AcDbEntity
  8
_0-2_寸法
  6
CONTINUOUS
 62
     0
100
AcDbCircle
 10
470.5
 20
299
 40
1.4
  0
TEXT
  5
5AD
100
AcDbEntity
  8
_0-2_寸法
  6
CONTINUOUS
 62
     0
100
AcDbText
 10
293
 20
299
 40
5
  1
50
  7
STANDARD
100
AcDbText
  0
TEXT
  5
5AE
100
AcDbEntity
  8
_0-2_寸法
  6
CONTINUOUS
 62
     0
100
AcDbText
 10
368
 20
299
 40
5
  1
Ｃ
  7
STANDARD
100
AcDbText
  0
TEXT
  5
5AF
100
AcDbEntity
  8
_0-2_寸法
  6
CONTINUOUS
 62
     0
100
AcDbText
 10
443
 20
299
 40
5
  1
50
  7
STANDARD
100
AcDbText
  0
TEXT
  5
5B0
100
AcDbEntity
  8
_0-2_寸法
  6
CONTINUOUS
 62
     0
100
AcDbText
 10
518
 20
299
 40
5
  1
Ｃ
  7
STANDARD
100
AcDbText
  0
TEXT
  5
5B1
100
AcDbEntity
  8
_0-2_寸法
  6
CONTINUOUS
 62
     0
100
AcDbText
 10
593
 20
299
 40
5
  1
50
  7
STANDARD
100
AcDbText
  0
TEXT
  5
5B2
100
AcDbEntity
  8
_0-4_図枠
  6
CONTINUOUS
 62
     0
100
AcDbText
 10
276.125
 20
222.5833333333
 40
5
  1
５０ＦＹＹ－Ｓ４００～９００
 41
0.998
  7
STANDARD
100
AcDbText
  0
TEXT
  5
5B3
100
AcDbEntity
  8
_0-4_図枠
  6
CONTINUOUS
 62
     0
100
AcDbText
 10
276.125
 20
198.5833333333
 40
4.99
  1
５０ＦＹＹＨ－４００～９００
  7
STANDARD
100
AcDbText
  0
TEXT
  5
5B4
100
AcDbEntity
  8
_0-4_図枠
  6
CONTINUOUS
 62
     0
100
AcDbText
 10
276.125
 20
162.5833333333
 40
5
  1
５０ＦＹＹＪ－４００～９００
 41
0.998
  7
STANDARD
100
AcDbText
  0
TEXT
  5
5B5
100
AcDbEntity
  8
_0-4_図枠
  6
CONTINUOUS
 62
     0
100
AcDbText
 10
278
 20
150.5833333333
 40
5
  1
ＦＳ４００～９００
 41
0.998
  7
STANDARD
100
AcDbText
  0
TEXT
  5
5B6
100
AcDbEntity
  8
_0-4_図枠
  6
CONTINUOUS
 62
     0
100
AcDbText
 10
178
 20
126.5833333333
 40
5
  1
ステン小ねじ
 41
0.998
  7
STANDARD
100
AcDbText
  0
TEXT
  5
5B7
100
AcDbEntity
  8
_0-4_図枠
  6
CONTINUOUS
 62
     0
100
AcDbText
 10
278.2083333333
 20
126.5833333333
 40
5
  1
なべＭ６×３５
 41
0.998
  7
STANDARD
100
AcDbText
  0
TEXT
  5
5B8
100
AcDbEntity
  8
_0-4_図枠
  6
CONTINUOUS
 62
     0
100
AcDbText
 10
279.0416666667
 20
114.5833333333
 40
5
  1
Ｍ６×４０
  7
STANDARD
100
AcDbText
  0
TEXT
  5
5B9
100
AcDbEntity
  8
_0-4_図枠
  6
CONTINUOUS
 62
     0
100
AcDbText
 10
278.625
 20
102.5833333333
 40
4.99
  1
ＡＧ－６６０
  7
STANDARD
100
AcDbText
  0
TEXT
  5
5BA
100
AcDbEntity
  8
_0-4_図枠
  6
CONTINUOUS
 62
     0
100
AcDbText
 10
277.5833333333
 20
90.58333333333
 40
4.99
  1
１.５×１８×６.５穴
  7
STANDARD
100
AcDbText
  0
TEXT
  5
5BB
100
AcDbEntity
  8
_0-4_図枠
  6
CONTINUOUS
 62
     0
100
AcDbText
 10
278.2083333333
 20
78.58333333333
 40
4.99
  1
ｔ１．０×ｗ３０
  7
STANDARD
100
AcDbText
  0
ENDSEC
  0
SECTION
  2
OBJECTS
  0
DICTIONARY
  5
5BC
100
AcDbDictionary
  3
ACAD_GROUP
350
5BD
  3
ACAD_IMAGE_DICT
350
5BE
  3
ACAD_MLINESTYLE
350
5BF
  0
DICTIONARY
  5
5BD
330
5BC
100
AcDbDictionary
  0
DICTIONARY
  5
5BE
100
AcDbDictionary
  0
DICTIONARY
  5
5BF
100
AcDbDictionary
  3
STANDARD
350
5C0
  0
RASTERVARIABLES
  5
5C1
100
AcDbRasterVariables
 90
     0
 70
     1
 71
     1
 72
     0
  0
MLINESTYLE
  5
5C0
100
AcDbMlineStyle
  2
STANDARD
 70
     0
  3

 62
   256
 51
90
 52
90
 71
     0
  0
ENDSEC
  0
EOF
