  0
SECTION
  2
HEADER
  9
$ACADVER
  1
AC1015
  9
$DWGCODEPAGE
  3
ANSI_932
  9
$EXTMIN
 10
8
 20
6
  9
$EXTMAX
 10
832
 20
582
  9
$LIMMIN
 10
0
 20
0
  9
$LIMMAX
 10
840
 20
588
  9
$LTSCALE
 40
2
  9
$DIMSCALE
 40
2
  9
$DIMSTYLE
  2
M7DIMSTL
  9
$HANDSEED
  5
7FFFFFFF
  9
$MEASUREMENT
 70
     1
  0
ENDSEC
  0
SECTION
  2
CLASSES
  0
CLASS
  1
CSOFTARXCLASS
  2
CSoftArxClass
  3
CSRasterApi
 90
     0
280
     0
281
     0
  0
CLASS
  1
IMAGEDEF
  2
AcDbRasterImageDef
  3
ISM
 90
     0
280
     0
281
     0
  0
CLASS
  1
RASTERVARIABLES
  2
AcDbRasterVariables
  3
ISM
 90
     0
280
     0
281
     0
  0
CLASS
  1
IMAGE
  2
AcDbRasterImage
  3
ISM
 90
   127
280
     0
281
     0
  0
CLASS
  1
IMAGEDEF_REACTOR
  2
AcDbRasterImageDefReactor
  3
ISM
 90
     1
280
     0
281
     0
  0
CLASS
  1
HATCH
  2
AcDbHatch
  3
M7
 90
     0
280
     0
281
     1
  0
ENDSEC
  0
SECTION
  2
TABLES
  0
TABLE
  2
VPORT
  5
FF
100
AcDbSymbolTable
 70
     5
  0
VPORT
  5
100
100
AcDbSymbolTableRecord
100
AcDbViewportTableRecord
  2
*ACTIVE
 70
     0
 10
0
 20
0
 11
1
 21
1
 12
420
 22
294
 13
0
 23
0
 14
0
 24
0
 15
0
 25
0
 16
0
 26
0
 36
1
 17
0
 27
0
 37
0
 40
294
 41
1.428571428571
 42
50
 43
0
 44
0
 50
0
 51
0
 71
     0
 72
   100
 73
     1
 74
     3
 75
     0
 76
     0
 77
     0
 78
     0
  0
ENDTAB
  0
TABLE
  2
LTYPE
  5
101
100
AcDbSymbolTable
 70
     1
  0
LTYPE
  5
102
100
AcDbSymbolTableRecord
100
AcDbLinetypeTableRecord
  2
BYBLOCK
 70
     0
  3

 72
    65
 73
     0
 40
0
  0
LTYPE
  5
103
100
AcDbSymbolTableRecord
100
AcDbLinetypeTableRecord
  2
BYLAYER
 70
     0
  3

 72
    65
 73
     0
 40
0
  0
LTYPE
  5
104
100
AcDbSymbolTableRecord
100
AcDbLinetypeTableRecord
  2
CONTINUOUS
 70
     0
  3
Solid line
 72
    65
 73
     0
 40
0
  0
LTYPE
  5
105
100
AcDbSymbolTableRecord
100
AcDbLinetypeTableRecord
  2
DOT
 70
     0
  3
...............................
 72
    65
 73
     2
 40
2
 49
1
 74
     0
 49
-1
 74
     0
  0
LTYPE
  5
106
100
AcDbSymbolTableRecord
100
AcDbLinetypeTableRecord
  2
DASHED
 70
     0
  3
- - - - - - - - - - - - - - - -
 72
    65
 73
     2
 40
4
 49
2
 74
     0
 49
-2
 74
     0
  0
LTYPE
  5
107
100
AcDbSymbolTableRecord
100
AcDbLinetypeTableRecord
  2
DASHED2
 70
     0
  3
-- -- -- -- -- -- -- -- -- -- -
 72
    65
 73
     2
 40
8
 49
5
 74
     0
 49
-3
 74
     0
  0
LTYPE
  5
108
100
AcDbSymbolTableRecord
100
AcDbLinetypeTableRecord
  2
CENTER
 70
     0
  3
--------- - --------- - -------
 72
    65
 73
     4
 40
23
 49
20
 74
     0
 49
-1
 74
     0
 49
1
 74
     0
 49
-1
 74
     0
  0
LTYPE
  5
109
100
AcDbSymbolTableRecord
100
AcDbLinetypeTableRecord
  2
CENTERX2
 70
     0
  3
-------------- - --------------
 72
    65
 73
     4
 40
43
 49
40
 74
     0
 49
-1
 74
     0
 49
1
 74
     0
 49
-1
 74
     0
  0
LTYPE
  5
10A
100
AcDbSymbolTableRecord
100
AcDbLinetypeTableRecord
  2
CENTER2
 70
     0
  3
------ - ----- - ------ - -----
 72
    65
 73
     4
 40
13
 49
10
 74
     0
 49
-1
 74
     0
 49
1
 74
     0
 49
-1
 74
     0
  0
LTYPE
  5
10B
100
AcDbSymbolTableRecord
100
AcDbLinetypeTableRecord
  2
PHANTOM
 70
     0
  3
-------- - - ------- - - ------
 72
    65
 73
     6
 40
25
 49
20
 74
     0
 49
-1
 74
     0
 49
1
 74
     0
 49
-1
 74
     0
 49
1
 74
     0
 49
-1
 74
     0
  0
LTYPE
  5
10C
100
AcDbSymbolTableRecord
100
AcDbLinetypeTableRecord
  2
PHANTOMX2
 70
     0
  3
------------- - - -------------
 72
    65
 73
     6
 40
45
 49
40
 74
     0
 49
-1
 74
     0
 49
1
 74
     0
 49
-1
 74
     0
 49
1
 74
     0
 49
-1
 74
     0
  0
LTYPE
  5
10D
100
AcDbSymbolTableRecord
100
AcDbLinetypeTableRecord
  2
PHANTOM2
 70
     0
  3
---- - - ---- - - ---- - - ----
 72
    65
 73
     6
 40
15
 49
10
 74
     0
 49
-1
 74
     0
 49
1
 74
     0
 49
-1
 74
     0
 49
1
 74
     0
 49
-1
 74
     0
  0
LTYPE
  5
10E
100
AcDbSymbolTableRecord
100
AcDbLinetypeTableRecord
  2
ACAD_ISO06W100
 70
     0
  3
------------ - - - ------------
 72
    65
 73
     8
 40
47
 49
40
 74
     0
 49
-1
 74
     0
 49
1
 74
     0
 49
-1
 74
     0
 49
1
 74
     0
 49
-1
 74
     0
 49
1
 74
     0
 49
-1
 74
     0
  0
LTYPE
  5
10F
100
AcDbSymbolTableRecord
100
AcDbLinetypeTableRecord
  2
ACAD_ISO14W100
 70
     0
  3
---- - - - -------- - - - -----
 72
    65
 73
     8
 40
27
 49
20
 74
     0
 49
-1
 74
     0
 49
1
 74
     0
 49
-1
 74
     0
 49
1
 74
     0
 49
-1
 74
     0
 49
1
 74
     0
 49
-1
 74
     0
  0
LTYPE
  5
110
100
AcDbSymbolTableRecord
100
AcDbLinetypeTableRecord
  2
ACAD_ISO11W100
 70
     0
  3
------- ------ - ------- ------
 72
    65
 73
     6
 40
44
 49
20
 74
     0
 49
-1
 74
     0
 49
20
 74
     0
 49
-1
 74
     0
 49
1
 74
     0
 49
-1
 74
     0
  0
LTYPE
  5
111
100
AcDbSymbolTableRecord
100
AcDbLinetypeTableRecord
  2
ACAD_ISO13W100
 70
     0
  3
------ ------ - - ------ ------
 72
    65
 73
     8
 40
46
 49
20
 74
     0
 49
-1
 74
     0
 49
20
 74
     0
 49
-1
 74
     0
 49
1
 74
     0
 49
-1
 74
     0
 49
1
 74
     0
 49
-1
 74
     0
  0
LTYPE
  5
112
100
AcDbSymbolTableRecord
100
AcDbLinetypeTableRecord
  2
ACAD_ISO15W100
 70
     0
  3
------ ----- - - - ------ -----
 72
    65
 73
    10
 40
48
 49
20
 74
     0
 49
-1
 74
     0
 49
20
 74
     0
 49
-1
 74
     0
 49
1
 74
     0
 49
-1
 74
     0
 49
1
 74
     0
 49
-1
 74
     0
 49
1
 74
     0
 49
-1
 74
     0
  0
LTYPE
  5
113
100
AcDbSymbolTableRecord
100
AcDbLinetypeTableRecord
  2
HIDDEN
 70
     0
  3
. . . . . . . . . . . . . . . .
 72
    65
 73
     2
 40
1.5
 49
1
 74
     0
 49
-0.5
 74
     0
  0
ENDTAB
  0
TABLE
  2
LAYER
  5
114
100
AcDbSymbolTable
 70
     1
  0
LAYER
  5
115
100
AcDbSymbolTableRecord
100
AcDbLayerTableRecord
  2
0
 70
     0
 62
     7
  6
CONTINUOUS
390
116
  0
LAYER
  5
117
100
AcDbSymbolTableRecord
100
AcDbLayerTableRecord
  2
_0-0_
 70
     0
 62
     7
  6
CONTINUOUS
390
   278
  0
LAYER
  5
118
100
AcDbSymbolTableRecord
100
AcDbLayerTableRecord
  2
_0-2_寸法
 70
     0
 62
     7
  6
CONTINUOUS
390
   278
  0
LAYER
  5
119
100
AcDbSymbolTableRecord
100
AcDbLayerTableRecord
  2
_0-3_躯体と製品
 70
     0
 62
     7
  6
CONTINUOUS
390
   278
  0
LAYER
  5
11A
100
AcDbSymbolTableRecord
100
AcDbLayerTableRecord
  2
_0-4_図枠
 70
     0
 62
     7
  6
CONTINUOUS
390
   278
  0
ENDTAB
  0
TABLE
  2
STYLE
  5
11B
100
AcDbSymbolTable
 70
     1
  0
STYLE
  5
11C
100
AcDbSymbolTableRecord
100
AcDbTextStyleTableRecord
  2
STANDARD
 70
     0
 40
0
 41
0
 50
0
 71
     0
 42
1
  3
txt
  4
bigfont
  0
STYLE
  5
11D
100
AcDbSymbolTableRecord
100
AcDbTextStyleTableRecord
  2
VSTANDARD
 70
     4
 40
0
 41
0
 50
0
 71
     0
 42
1
  3
txt
  4
bigfont
  0
ENDTAB
  0
TABLE
  2
VIEW
  5
11E
100
AcDbSymbolTable
 70
     0
  0
ENDTAB
  0
TABLE
  2
UCS
  5
11F
100
AcDbSymbolTable
 70
     0
  0
ENDTAB
  0
TABLE
  2
APPID
  5
120
100
AcDbSymbolTable
 70
     1
  0
APPID
  5
121
100
AcDbSymbolTableRecord
100
AcDbRegAppTableRecord
  2
ACAD
 70
     0
  0
ENDTAB
  0
TABLE
  2
DIMSTYLE
  5
122
100
AcDbSymbolTable
 70
     1
100
AcDbDimStyleTable
 71
     0
  0
DIMSTYLE
105
123
100
AcDbSymbolTableRecord
100
AcDbDimStyleTableRecord
  2
M7DIMSTL
 70
     0
  3

  4

  5

  6

  7

 40
2
 41
2.5
 42
0.625
 43
3.75
 44
1.25
 45
0
 46
0
 47
0
 48
0
140
2.5
141
2.5
142
0
143
0.03937007874016
144
1
145
0
146
1
147
0.625
 71
     0
 72
     0
 73
     0
 74
     0
 75
     0
 76
     0
 77
     1
 78
     8
170
     0
171
     3
172
     1
173
     0
174
     0
175
     0
176
     0
177
     0
178
     0
270
     2
271
     2
272
     2
273
     2
274
     3
340
11C
275
     0
280
     0
281
     0
282
     0
283
     0
284
     8
285
     0
286
     0
287
     3
288
     0
  0
ENDTAB
  0
TABLE
  2
BLOCK_RECORD
  5
124
100
AcDbSymbolTable
 70
     2
  0
BLOCK_RECORD
  5
125
100
AcDbSymbolTableRecord
100
AcDbBlockTableRecord
  2
*MODEL_SPACE
  0
BLOCK_RECORD
  5
126
100
AcDbSymbolTableRecord
100
AcDbBlockTableRecord
  2
*PAPER_SPACE
  0
BLOCK_RECORD
  5
127
100
AcDbSymbolTableRecord
100
AcDbBlockTableRecord
  2
_DOT
  0
BLOCK_RECORD
  5
128
100
AcDbSymbolTableRecord
100
AcDbBlockTableRecord
  2
_OPEN30
  0
BLOCK_RECORD
  5
129
100
AcDbSymbolTableRecord
100
AcDbBlockTableRecord
  2
_ClosedBlank
  0
BLOCK_RECORD
  5
12A
100
AcDbSymbolTableRecord
100
AcDbBlockTableRecord
  2
_Origin
  0
BLOCK_RECORD
  5
12B
100
AcDbSymbolTableRecord
100
AcDbBlockTableRecord
  2
_Oblique
  0
BLOCK_RECORD
  5
12C
100
AcDbSymbolTableRecord
100
AcDbBlockTableRecord
  2
_Origin2
  0
BLOCK_RECORD
  5
12D
100
AcDbSymbolTableRecord
100
AcDbBlockTableRecord
  2
_BoxBlank
  0
BLOCK_RECORD
  5
12E
100
AcDbSymbolTableRecord
100
AcDbBlockTableRecord
  2
_BoxFilled
  0
BLOCK_RECORD
  5
12F
100
AcDbSymbolTableRecord
100
AcDbBlockTableRecord
  2
_Integral
  0
BLOCK_RECORD
  5
130
100
AcDbSymbolTableRecord
100
AcDbBlockTableRecord
  2
BK2
  0
BLOCK_RECORD
  5
131
100
AcDbSymbolTableRecord
100
AcDbBlockTableRecord
  2
BK3
  0
BLOCK_RECORD
  5
132
100
AcDbSymbolTableRecord
100
AcDbBlockTableRecord
  2
BK4
  0
BLOCK_RECORD
  5
133
100
AcDbSymbolTableRecord
100
AcDbBlockTableRecord
  2
BK5
  0
BLOCK_RECORD
  5
134
100
AcDbSymbolTableRecord
100
AcDbBlockTableRecord
  2
BK6
  0
BLOCK_RECORD
  5
135
100
AcDbSymbolTableRecord
100
AcDbBlockTableRecord
  2
BK7
  0
BLOCK_RECORD
  5
136
100
AcDbSymbolTableRecord
100
AcDbBlockTableRecord
  2
BK8
  0
BLOCK_RECORD
  5
137
100
AcDbSymbolTableRecord
100
AcDbBlockTableRecord
  2
BK9
  0
BLOCK_RECORD
  5
138
100
AcDbSymbolTableRecord
100
AcDbBlockTableRecord
  2
BK10
  0
BLOCK_RECORD
  5
139
100
AcDbSymbolTableRecord
100
AcDbBlockTableRecord
  2
BK11
  0
BLOCK_RECORD
  5
13A
100
AcDbSymbolTableRecord
100
AcDbBlockTableRecord
  2
BK12
  0
BLOCK_RECORD
  5
13B
100
AcDbSymbolTableRecord
100
AcDbBlockTableRecord
  2
BK13
  0
BLOCK_RECORD
  5
13C
100
AcDbSymbolTableRecord
100
AcDbBlockTableRecord
  2
BK14
  0
BLOCK_RECORD
  5
13D
100
AcDbSymbolTableRecord
100
AcDbBlockTableRecord
  2
BK15
  0
BLOCK_RECORD
  5
13E
100
AcDbSymbolTableRecord
100
AcDbBlockTableRecord
  2
BK16
  0
BLOCK_RECORD
  5
13F
100
AcDbSymbolTableRecord
100
AcDbBlockTableRecord
  2
BK17
  0
BLOCK_RECORD
  5
140
100
AcDbSymbolTableRecord
100
AcDbBlockTableRecord
  2
BK18
  0
BLOCK_RECORD
  5
141
100
AcDbSymbolTableRecord
100
AcDbBlockTableRecord
  2
BK19
  0
BLOCK_RECORD
  5
142
100
AcDbSymbolTableRecord
100
AcDbBlockTableRecord
  2
BK20
  0
BLOCK_RECORD
  5
143
100
AcDbSymbolTableRecord
100
AcDbBlockTableRecord
  2
BK21
  0
BLOCK_RECORD
  5
144
100
AcDbSymbolTableRecord
100
AcDbBlockTableRecord
  2
BK22
  0
ENDTAB
  0
ENDSEC
  0
SECTION
  2
BLOCKS
  0
BLOCK
  5
145
100
AcDbEntity
  8
0
100
AcDbBlockBegin
  2
*MODEL_SPACE
 70
     0
 10
0
 20
0
  3
*MODEL_SPACE
  1

  0
ENDBLK
  5
146
100
AcDbEntity
  8
0
100
AcDbBlockEnd
  0
BLOCK
  5
147
100
AcDbEntity
 67
     1
  8
0
100
AcDbBlockBegin
  2
*PAPER_SPACE
 70
     0
 10
0
 20
0
  3
*PAPER_SPACE
  1

  0
ENDBLK
  5
148
100
AcDbEntity
 67
     1
  8
0
100
AcDbBlockEnd
  0
BLOCK
  5
149
100
AcDbEntity
 67
     1
  8
0
100
AcDbBlockBegin
  2
_DOT
 70
     0
 10
0
 20
0
  3
_DOT
  1

  0
LWPOLYLINE
  5
14A
100
AcDbEntity
  8
0
  6
BYBLOCK
 62
     0
100
AcDbPolyline
 90
     2
 70
     1
 43
0.5
 10
-0.25
 20
0
 42
1
 10
0.25
 20
0
 42
1
  0
LINE
  5
14B
100
AcDbEntity
  8
0
  6
BYBLOCK
 62
     0
100
AcDbLine
 10
-0.5
 20
0
 11
-1
 21
0
  0
ENDBLK
  5
14C
100
AcDbEntity
  8
0
100
AcDbBlockEnd
  0
BLOCK
  5
14D
100
AcDbEntity
 67
     1
  8
0
100
AcDbBlockBegin
  2
_OPEN30
 70
     0
 10
0
 20
0
  3
_OPEN30
  1

  0
LINE
  5
14E
100
AcDbEntity
  8
0
  6
BYBLOCK
 62
     0
100
AcDbLine
 10
-1
 20
0.26794919
 11
0
 21
0
  0
LINE
  5
14F
100
AcDbEntity
  8
0
  6
BYBLOCK
 62
     0
100
AcDbLine
 10
-1
 20
-0.26794919
 11
0
 21
0
  0
LINE
  5
150
100
AcDbEntity
  8
0
  6
BYBLOCK
 62
     0
100
AcDbLine
 10
0
 20
0
 11
-1
 21
0
  0
ENDBLK
  5
151
100
AcDbEntity
  8
0
100
AcDbBlockEnd
  0
BLOCK
  5
152
100
AcDbEntity
 67
     1
  8
0
100
AcDbBlockBegin
  2
_ClosedBlank
 70
     0
 10
0
 20
0
  3
_ClosedBlank
  1

  0
LINE
  5
153
100
AcDbEntity
  8
0
  6
BYBLOCK
 62
     0
100
AcDbLine
 10
-1
 20
0.1666666666667
 11
0
 21
0
  0
LINE
  5
154
100
AcDbEntity
  8
0
  6
BYBLOCK
 62
     0
100
AcDbLine
 10
0
 20
0
 11
-1
 21
-0.1666666666667
  0
LINE
  5
155
100
AcDbEntity
  8
0
  6
BYBLOCK
 62
     0
100
AcDbLine
 10
-1
 20
0.1666666666667
 11
-1
 21
-0.1666666666667
  0
ENDBLK
  5
156
100
AcDbEntity
  8
0
100
AcDbBlockEnd
  0
BLOCK
  5
157
100
AcDbEntity
 67
     1
  8
0
100
AcDbBlockBegin
  2
_Origin
 70
     0
 10
0
 20
0
  3
_Origin
  1

  0
CIRCLE
  5
158
100
AcDbEntity
  8
0
  6
BYBLOCK
 62
     0
100
AcDbCircle
 10
0
 20
0
 40
0.5
  0
LINE
  5
159
100
AcDbEntity
  8
0
  6
BYBLOCK
 62
     0
100
AcDbLine
 10
0
 20
0
 11
-1
 21
0
  0
ENDBLK
  5
15A
100
AcDbEntity
  8
0
100
AcDbBlockEnd
  0
BLOCK
  5
15B
100
AcDbEntity
 67
     1
  8
0
100
AcDbBlockBegin
  2
_Oblique
 70
     0
 10
0
 20
0
  3
_Oblique
  1

  0
LINE
  5
15C
100
AcDbEntity
  8
0
  6
BYBLOCK
 62
     0
100
AcDbLine
 10
-0.5
 20
-0.5
 11
0.5
 21
0.5
  0
ENDBLK
  5
15D
100
AcDbEntity
  8
0
100
AcDbBlockEnd
  0
BLOCK
  5
15E
100
AcDbEntity
 67
     1
  8
0
100
AcDbBlockBegin
  2
_Origin2
 70
     0
 10
0
 20
0
  3
_Origin2
  1

  0
CIRCLE
  5
15F
100
AcDbEntity
  8
0
  6
BYBLOCK
 62
     0
100
AcDbCircle
 10
0
 20
0
 40
0.5
  0
CIRCLE
  5
160
100
AcDbEntity
  8
0
  6
BYBLOCK
 62
     0
100
AcDbCircle
 10
0
 20
0
 40
0.25
  0
LINE
  5
161
100
AcDbEntity
  8
0
  6
BYBLOCK
 62
     0
100
AcDbLine
 10
-0.5
 20
0
 11
-1
 21
0
  0
ENDBLK
  5
162
100
AcDbEntity
  8
0
100
AcDbBlockEnd
  0
BLOCK
  5
163
100
AcDbEntity
 67
     1
  8
0
100
AcDbBlockBegin
  2
_BoxBlank
 70
     0
 10
0
 20
0
  3
_BoxBlank
  1

  0
LINE
  5
164
100
AcDbEntity
  8
0
  6
BYBLOCK
 62
     0
100
AcDbLine
 10
-0.5
 20
-0.5
 11
0.5
 21
-0.5
  0
LINE
  5
165
100
AcDbEntity
  8
0
  6
BYBLOCK
 62
     0
100
AcDbLine
 10
0.5
 20
-0.5
 11
0.5
 21
0.5
  0
LINE
  5
166
100
AcDbEntity
  8
0
  6
BYBLOCK
 62
     0
100
AcDbLine
 10
0.5
 20
0.5
 11
-0.5
 21
0.5
  0
LINE
  5
167
100
AcDbEntity
  8
0
  6
BYBLOCK
 62
     0
100
AcDbLine
 10
-0.5
 20
0.5
 11
-0.5
 21
-0.5
  0
LINE
  5
168
100
AcDbEntity
  8
0
  6
BYBLOCK
 62
     0
100
AcDbLine
 10
-0.5
 20
0
 11
-1
 21
0
  0
ENDBLK
  5
169
100
AcDbEntity
  8
0
100
AcDbBlockEnd
  0
BLOCK
  5
16A
100
AcDbEntity
 67
     1
  8
0
100
AcDbBlockBegin
  2
_BoxFilled
 70
     0
 10
0
 20
0
  3
_BoxFilled
  1

  0
SOLID
  5
16B
100
AcDbEntity
  8
0
  6
BYBLOCK
 62
     0
100
AcDbTrace
 10
-0.5
 20
0.5
 11
0.5
 21
0.5
 12
-0.5
 22
-0.5
 13
0.5
 23
-0.5
  0
LINE
  5
16C
100
AcDbEntity
  8
0
  6
BYBLOCK
 62
     0
100
AcDbLine
 10
-0.5
 20
0
 11
-1
 21
0
  0
ENDBLK
  5
16D
100
AcDbEntity
  8
0
100
AcDbBlockEnd
  0
BLOCK
  5
16E
100
AcDbEntity
 67
     1
  8
0
100
AcDbBlockBegin
  2
_Integral
 70
     0
 10
0
 20
0
  3
_Integral
  1

  0
ARC
  5
16F
100
AcDbEntity
  8
0
  6
BYBLOCK
 62
     0
100
AcDbCircle
 10
0.44488802
 20
-0.09133463
 40
0.45416667
100
AcDbArc
 50
101.999999998
 51
167.9999999799
  0
ARC
  5
170
100
AcDbEntity
  8
0
  6
BYBLOCK
 62
     0
100
AcDbCircle
 10
-0.44488802
 20
0.09133463
 40
0.45416667
100
AcDbArc
 50
282.0000000215
 51
348.0000000034
  0
ENDBLK
  5
171
100
AcDbEntity
  8
0
100
AcDbBlockEnd
  0
BLOCK
  5
172
100
AcDbEntity
  8
_0-2_寸法
100
AcDbBlockBegin
  2
BK2
 70
    64
 10
0
 20
0
  3
BK2
  1

  0
LINE
  5
173
100
AcDbEntity
  8
_0-2_寸法
  6
CONTINUOUS
 62
     0
100
AcDbLine
 10
246
 20
338
 11
294
 21
338
  0
TEXT
  5
174
100
AcDbEntity
  8
_0-2_寸法
  6
CONTINUOUS
 62
     0
100
AcDbText
 10
267
 20
339
 40
6
  1
50
  7
STANDARD
100
AcDbText
  0
CIRCLE
  5
175
100
AcDbEntity
  8
_0-2_寸法
  6
CONTINUOUS
 62
     0
100
AcDbCircle
 10
245
 20
338
 40
1.4
  0
CIRCLE
  5
176
100
AcDbEntity
  8
_0-2_寸法
  6
CONTINUOUS
 62
     0
100
AcDbCircle
 10
295
 20
338
 40
1.4
  0
CIRCLE
  5
177
100
AcDbEntity
  8
_0-2_寸法
  6
CONTINUOUS
 62
     0
100
AcDbCircle
 10
295
 20
338
 40
1.4
  0
ENDBLK
  5
178
100
AcDbEntity
 67
     1
  8
_0-2_寸法
100
AcDbBlockEnd
  0
BLOCK
  5
179
100
AcDbEntity
  8
_0-2_寸法
100
AcDbBlockBegin
  2
BK3
 70
    64
 10
0
 20
0
  3
BK3
  1

  0
CIRCLE
  5
17A
100
AcDbEntity
  8
_0-2_寸法
  6
CONTINUOUS
 62
     0
100
AcDbCircle
 10
245
 20
338
 40
0.25
  0
LINE
  5
17B
100
AcDbEntity
  8
_0-2_寸法
  6
CONTINUOUS
 62
     0
100
AcDbLine
 10
244.75
 20
338
 11
245.25
 21
338
  0
LINE
  5
17C
100
AcDbEntity
  8
_0-2_寸法
  6
CONTINUOUS
 62
     0
100
AcDbLine
 10
245.5
 20
338
 11
246
 21
338
  0
ENDBLK
  5
17D
100
AcDbEntity
 67
     1
  8
_0-2_寸法
100
AcDbBlockEnd
  0
BLOCK
  5
17E
100
AcDbEntity
  8
_0-2_寸法
100
AcDbBlockBegin
  2
BK4
 70
    64
 10
0
 20
0
  3
BK4
  1

  0
CIRCLE
  5
17F
100
AcDbEntity
  8
_0-2_寸法
  6
CONTINUOUS
 62
     0
100
AcDbCircle
 10
295
 20
338
 40
0.25
  0
LINE
  5
180
100
AcDbEntity
  8
_0-2_寸法
  6
CONTINUOUS
 62
     0
100
AcDbLine
 10
295.25
 20
338
 11
294.75
 21
338
  0
LINE
  5
181
100
AcDbEntity
  8
_0-2_寸法
  6
CONTINUOUS
 62
     0
100
AcDbLine
 10
294.5
 20
338
 11
294
 21
338
  0
ENDBLK
  5
182
100
AcDbEntity
 67
     1
  8
_0-2_寸法
100
AcDbBlockEnd
  0
BLOCK
  5
183
100
AcDbEntity
  8
_0-2_寸法
100
AcDbBlockBegin
  2
BK5
 70
    64
 10
0
 20
0
  3
BK5
  1

  0
LINE
  5
184
100
AcDbEntity
  8
_0-2_寸法
  6
CONTINUOUS
 62
     0
100
AcDbLine
 10
546
 20
338
 11
594
 21
338
  0
TEXT
  5
185
100
AcDbEntity
  8
_0-2_寸法
  6
CONTINUOUS
 62
     0
100
AcDbText
 10
567
 20
339
 40
6
  1
50
  7
STANDARD
100
AcDbText
  0
CIRCLE
  5
186
100
AcDbEntity
  8
_0-2_寸法
  6
CONTINUOUS
 62
     0
100
AcDbCircle
 10
545
 20
338
 40
1.4
  0
CIRCLE
  5
187
100
AcDbEntity
  8
_0-2_寸法
  6
CONTINUOUS
 62
     0
100
AcDbCircle
 10
595
 20
338
 40
1.4
  0
CIRCLE
  5
188
100
AcDbEntity
  8
_0-2_寸法
  6
CONTINUOUS
 62
     0
100
AcDbCircle
 10
595
 20
338
 40
1.4
  0
ENDBLK
  5
189
100
AcDbEntity
 67
     1
  8
_0-2_寸法
100
AcDbBlockEnd
  0
BLOCK
  5
18A
100
AcDbEntity
  8
_0-2_寸法
100
AcDbBlockBegin
  2
BK6
 70
    64
 10
0
 20
0
  3
BK6
  1

  0
CIRCLE
  5
18B
100
AcDbEntity
  8
_0-2_寸法
  6
CONTINUOUS
 62
     0
100
AcDbCircle
 10
545
 20
338
 40
0.25
  0
LINE
  5
18C
100
AcDbEntity
  8
_0-2_寸法
  6
CONTINUOUS
 62
     0
100
AcDbLine
 10
544.75
 20
338
 11
545.25
 21
338
  0
LINE
  5
18D
100
AcDbEntity
  8
_0-2_寸法
  6
CONTINUOUS
 62
     0
100
AcDbLine
 10
545.5
 20
338
 11
546
 21
338
  0
ENDBLK
  5
18E
100
AcDbEntity
 67
     1
  8
_0-2_寸法
100
AcDbBlockEnd
  0
BLOCK
  5
18F
100
AcDbEntity
  8
_0-2_寸法
100
AcDbBlockBegin
  2
BK7
 70
    64
 10
0
 20
0
  3
BK7
  1

  0
CIRCLE
  5
190
100
AcDbEntity
  8
_0-2_寸法
  6
CONTINUOUS
 62
     0
100
AcDbCircle
 10
595
 20
338
 40
0.25
  0
LINE
  5
191
100
AcDbEntity
  8
_0-2_寸法
  6
CONTINUOUS
 62
     0
100
AcDbLine
 10
595.25
 20
338
 11
594.75
 21
338
  0
LINE
  5
192
100
AcDbEntity
  8
_0-2_寸法
  6
CONTINUOUS
 62
     0
100
AcDbLine
 10
594.5
 20
338
 11
594
 21
338
  0
ENDBLK
  5
193
100
AcDbEntity
 67
     1
  8
_0-2_寸法
100
AcDbBlockEnd
  0
BLOCK
  5
194
100
AcDbEntity
  8
_0-2_寸法
100
AcDbBlockBegin
  2
BK8
 70
    64
 10
0
 20
0
  3
BK8
  1

  0
LINE
  5
195
100
AcDbEntity
  8
_0-2_寸法
  6
CONTINUOUS
 62
     0
100
AcDbLine
 10
598.7037264786
 20
398
 11
710
 21
398
  0
LINE
  5
196
100
AcDbEntity
  8
_0-2_寸法
  6
CONTINUOUS
 62
     0
100
AcDbLine
 10
672
 20
355.1368256398
 11
710
 21
355.1368256398
  0
LINE
  5
197
100
AcDbEntity
  8
_0-2_寸法
  6
CONTINUOUS
 62
     0
100
AcDbLine
 10
710
 20
397
 11
710
 21
356.1368256398
  0
TEXT
  5
198
100
AcDbEntity
  8
_0-2_寸法
  6
CONTINUOUS
 62
     0
100
AcDbText
 10
709
 20
373.5684128199
 40
6
  1
44
 50
90
  7
STANDARD
100
AcDbText
  0
CIRCLE
  5
199
100
AcDbEntity
  8
_0-2_寸法
  6
CONTINUOUS
 62
     0
100
AcDbCircle
 10
598.7037264786
 20
398
 40
1.4
  0
CIRCLE
  5
19A
100
AcDbEntity
  8
_0-2_寸法
  6
CONTINUOUS
 62
     0
100
AcDbCircle
 10
672
 20
355.1368256398
 40
1.4
  0
CIRCLE
  5
19B
100
AcDbEntity
  8
_0-2_寸法
  6
CONTINUOUS
 62
     0
100
AcDbCircle
 10
710
 20
355.1368256398
 40
1.4
  0
ENDBLK
  5
19C
100
AcDbEntity
 67
     1
  8
_0-2_寸法
100
AcDbBlockEnd
  0
BLOCK
  5
19D
100
AcDbEntity
  8
_0-2_寸法
100
AcDbBlockBegin
  2
BK9
 70
    64
 10
0
 20
0
  3
BK9
  1

  0
CIRCLE
  5
19E
100
AcDbEntity
  8
_0-2_寸法
  6
CONTINUOUS
 62
     0
100
AcDbCircle
 10
710
 20
398
 40
0.25
  0
LINE
  5
19F
100
AcDbEntity
  8
_0-2_寸法
  6
CONTINUOUS
 62
     0
100
AcDbLine
 10
710
 20
398.25
 11
710
 21
397.75
  0
LINE
  5
1A0
100
AcDbEntity
  8
_0-2_寸法
  6
CONTINUOUS
 62
     0
100
AcDbLine
 10
710
 20
397.5
 11
710
 21
397
  0
ENDBLK
  5
1A1
100
AcDbEntity
 67
     1
  8
_0-2_寸法
100
AcDbBlockEnd
  0
BLOCK
  5
1A2
100
AcDbEntity
  8
_0-2_寸法
100
AcDbBlockBegin
  2
BK10
 70
    64
 10
0
 20
0
  3
BK10
  1

  0
CIRCLE
  5
1A3
100
AcDbEntity
  8
_0-2_寸法
  6
CONTINUOUS
 62
     0
100
AcDbCircle
 10
710
 20
355.1368256398
 40
0.25
  0
LINE
  5
1A4
100
AcDbEntity
  8
_0-2_寸法
  6
CONTINUOUS
 62
     0
100
AcDbLine
 10
710
 20
354.8868256398
 11
710
 21
355.3868256398
  0
LINE
  5
1A5
100
AcDbEntity
  8
_0-2_寸法
  6
CONTINUOUS
 62
     0
100
AcDbLine
 10
710
 20
355.6368256398
 11
710
 21
356.1368256398
  0
ENDBLK
  5
1A6
100
AcDbEntity
 67
     1
  8
_0-2_寸法
100
AcDbBlockEnd
  0
BLOCK
  5
1A7
100
AcDbEntity
  8
_0-2_寸法
100
AcDbBlockBegin
  2
BK11
 70
    64
 10
0
 20
0
  3
BK11
  1

  0
LINE
  5
1A8
100
AcDbEntity
  8
_0-2_寸法
  6
CONTINUOUS
 62
     0
100
AcDbLine
 10
672
 20
355.1368256398
 11
730
 21
355.1368256398
  0
LINE
  5
1A9
100
AcDbEntity
  8
_0-2_寸法
  6
CONTINUOUS
 62
     0
100
AcDbLine
 10
672
 20
445.1368256398
 11
730
 21
445.1368256398
  0
LINE
  5
1AA
100
AcDbEntity
  8
_0-2_寸法
  6
CONTINUOUS
 62
     0
100
AcDbLine
 10
730
 20
356.1368256398
 11
730
 21
444.1368256398
  0
TEXT
  5
1AB
100
AcDbEntity
  8
_0-2_寸法
  6
CONTINUOUS
 62
     0
100
AcDbText
 10
729
 20
397.1368256398
 40
6
  1
90
 50
90
  7
STANDARD
100
AcDbText
  0
CIRCLE
  5
1AC
100
AcDbEntity
  8
_0-2_寸法
  6
CONTINUOUS
 62
     0
100
AcDbCircle
 10
672
 20
355.1368256398
 40
1.4
  0
CIRCLE
  5
1AD
100
AcDbEntity
  8
_0-2_寸法
  6
CONTINUOUS
 62
     0
100
AcDbCircle
 10
672
 20
445.1368256398
 40
1.4
  0
CIRCLE
  5
1AE
100
AcDbEntity
  8
_0-2_寸法
  6
CONTINUOUS
 62
     0
100
AcDbCircle
 10
730
 20
445.1368256398
 40
1.4
  0
ENDBLK
  5
1AF
100
AcDbEntity
 67
     1
  8
_0-2_寸法
100
AcDbBlockEnd
  0
BLOCK
  5
1B0
100
AcDbEntity
  8
_0-2_寸法
100
AcDbBlockBegin
  2
BK12
 70
    64
 10
0
 20
0
  3
BK12
  1

  0
CIRCLE
  5
1B1
100
AcDbEntity
  8
_0-2_寸法
  6
CONTINUOUS
 62
     0
100
AcDbCircle
 10
730
 20
355.1368256398
 40
0.25
  0
LINE
  5
1B2
100
AcDbEntity
  8
_0-2_寸法
  6
CONTINUOUS
 62
     0
100
AcDbLine
 10
730
 20
354.8868256398
 11
730
 21
355.3868256398
  0
LINE
  5
1B3
100
AcDbEntity
  8
_0-2_寸法
  6
CONTINUOUS
 62
     0
100
AcDbLine
 10
730
 20
355.6368256398
 11
730
 21
356.1368256398
  0
ENDBLK
  5
1B4
100
AcDbEntity
 67
     1
  8
_0-2_寸法
100
AcDbBlockEnd
  0
BLOCK
  5
1B5
100
AcDbEntity
  8
_0-2_寸法
100
AcDbBlockBegin
  2
BK13
 70
    64
 10
0
 20
0
  3
BK13
  1

  0
CIRCLE
  5
1B6
100
AcDbEntity
  8
_0-2_寸法
  6
CONTINUOUS
 62
     0
100
AcDbCircle
 10
730
 20
445.1368256398
 40
0.25
  0
LINE
  5
1B7
100
AcDbEntity
  8
_0-2_寸法
  6
CONTINUOUS
 62
     0
100
AcDbLine
 10
730
 20
445.3868256398
 11
730
 21
444.8868256398
  0
LINE
  5
1B8
100
AcDbEntity
  8
_0-2_寸法
  6
CONTINUOUS
 62
     0
100
AcDbLine
 10
730
 20
444.6368256398
 11
730
 21
444.1368256398
  0
ENDBLK
  5
1B9
100
AcDbEntity
 67
     1
  8
_0-2_寸法
100
AcDbBlockEnd
  0
BLOCK
  5
1BA
100
AcDbEntity
  8
_0-2_寸法
100
AcDbBlockBegin
  2
BK14
 70
    64
 10
0
 20
0
  3
BK14
  1

  0
LINE
  5
1BB
100
AcDbEntity
  8
_0-2_寸法
  6
CONTINUOUS
 62
     0
100
AcDbLine
 10
670
 20
447.1368256398
 11
670
 21
523
  0
LINE
  5
1BC
100
AcDbEntity
  8
_0-2_寸法
  6
CONTINUOUS
 62
     0
100
AcDbLine
 10
170
 20
447.1368256398
 11
170
 21
523
  0
LINE
  5
1BD
100
AcDbEntity
  8
_0-2_寸法
  6
CONTINUOUS
 62
     0
100
AcDbLine
 10
669
 20
523
 11
171
 21
523
  0
TEXT
  5
1BE
100
AcDbEntity
  8
_0-2_寸法
  6
CONTINUOUS
 62
     0
100
AcDbText
 10
418.5
 20
524
 40
6
  1
W
  7
STANDARD
100
AcDbText
  0
CIRCLE
  5
1BF
100
AcDbEntity
  8
_0-2_寸法
  6
CONTINUOUS
 62
     0
100
AcDbCircle
 10
670
 20
447.1368256398
 40
1.4
  0
CIRCLE
  5
1C0
100
AcDbEntity
  8
_0-2_寸法
  6
CONTINUOUS
 62
     0
100
AcDbCircle
 10
170
 20
447.1368256398
 40
1.4
  0
CIRCLE
  5
1C1
100
AcDbEntity
  8
_0-2_寸法
  6
CONTINUOUS
 62
     0
100
AcDbCircle
 10
170
 20
523
 40
1.4
  0
ENDBLK
  5
1C2
100
AcDbEntity
 67
     1
  8
_0-2_寸法
100
AcDbBlockEnd
  0
BLOCK
  5
1C3
100
AcDbEntity
  8
_0-2_寸法
100
AcDbBlockBegin
  2
BK15
 70
    64
 10
0
 20
0
  3
BK15
  1

  0
CIRCLE
  5
1C4
100
AcDbEntity
  8
_0-2_寸法
  6
CONTINUOUS
 62
     0
100
AcDbCircle
 10
670
 20
523
 40
0.25
  0
LINE
  5
1C5
100
AcDbEntity
  8
_0-2_寸法
  6
CONTINUOUS
 62
     0
100
AcDbLine
 10
670.25
 20
523
 11
669.75
 21
523
  0
LINE
  5
1C6
100
AcDbEntity
  8
_0-2_寸法
  6
CONTINUOUS
 62
     0
100
AcDbLine
 10
669.5
 20
523
 11
669
 21
523
  0
ENDBLK
  5
1C7
100
AcDbEntity
 67
     1
  8
_0-2_寸法
100
AcDbBlockEnd
  0
BLOCK
  5
1C8
100
AcDbEntity
  8
_0-2_寸法
100
AcDbBlockBegin
  2
BK16
 70
    64
 10
0
 20
0
  3
BK16
  1

  0
CIRCLE
  5
1C9
100
AcDbEntity
  8
_0-2_寸法
  6
CONTINUOUS
 62
     0
100
AcDbCircle
 10
170
 20
523
 40
0.25
  0
LINE
  5
1CA
100
AcDbEntity
  8
_0-2_寸法
  6
CONTINUOUS
 62
     0
100
AcDbLine
 10
169.75
 20
523
 11
170.25
 21
523
  0
LINE
  5
1CB
100
AcDbEntity
  8
_0-2_寸法
  6
CONTINUOUS
 62
     0
100
AcDbLine
 10
170.5
 20
523
 11
171
 21
523
  0
ENDBLK
  5
1CC
100
AcDbEntity
 67
     1
  8
_0-2_寸法
100
AcDbBlockEnd
  0
BLOCK
  5
1CD
100
AcDbEntity
  8
_0-2_寸法
100
AcDbBlockBegin
  2
BK17
 70
    64
 10
0
 20
0
  3
BK17
  1

  0
CIRCLE
  5
1CE
100
AcDbEntity
  8
_0-2_寸法
  6
CONTINUOUS
 62
     0
100
AcDbCircle
 10
445
 20
268
 40
0.25
  0
LINE
  5
1CF
100
AcDbEntity
  8
_0-2_寸法
  6
CONTINUOUS
 62
     0
100
AcDbLine
 10
444.75
 20
268
 11
445.25
 21
268
  0
LINE
  5
1D0
100
AcDbEntity
  8
_0-2_寸法
  6
CONTINUOUS
 62
     0
100
AcDbLine
 10
445.5
 20
268
 11
446
 21
268
  0
ENDBLK
  5
1D1
100
AcDbEntity
 67
     1
  8
_0-2_寸法
100
AcDbBlockEnd
  0
BLOCK
  5
1D2
100
AcDbEntity
  8
_0-2_寸法
100
AcDbBlockBegin
  2
BK18
 70
    64
 10
0
 20
0
  3
BK18
  1

  0
CIRCLE
  5
1D3
100
AcDbEntity
  8
_0-2_寸法
  6
CONTINUOUS
 62
     0
100
AcDbCircle
 10
595
 20
268
 40
0.25
  0
LINE
  5
1D4
100
AcDbEntity
  8
_0-2_寸法
  6
CONTINUOUS
 62
     0
100
AcDbLine
 10
594.75
 20
268
 11
595.25
 21
268
  0
LINE
  5
1D5
100
AcDbEntity
  8
_0-2_寸法
  6
CONTINUOUS
 62
     0
100
AcDbLine
 10
595.5
 20
268
 11
596
 21
268
  0
ENDBLK
  5
1D6
100
AcDbEntity
 67
     1
  8
_0-2_寸法
100
AcDbBlockEnd
  0
BLOCK
  5
1D7
100
AcDbEntity
  8
_0-2_寸法
100
AcDbBlockBegin
  2
BK19
 70
    64
 10
0
 20
0
  3
BK19
  1

  0
CIRCLE
  5
1D8
100
AcDbEntity
  8
_0-2_寸法
  6
CONTINUOUS
 62
     0
100
AcDbCircle
 10
670
 20
268
 40
0.25
  0
LINE
  5
1D9
100
AcDbEntity
  8
_0-2_寸法
  6
CONTINUOUS
 62
     0
100
AcDbLine
 10
670.25
 20
268
 11
669.75
 21
268
  0
LINE
  5
1DA
100
AcDbEntity
  8
_0-2_寸法
  6
CONTINUOUS
 62
     0
100
AcDbLine
 10
669.5
 20
268
 11
669
 21
268
  0
ENDBLK
  5
1DB
100
AcDbEntity
 67
     1
  8
_0-2_寸法
100
AcDbBlockEnd
  0
BLOCK
  5
1DC
100
AcDbEntity
  8
_0-2_寸法
100
AcDbBlockBegin
  2
BK20
 70
    64
 10
0
 20
0
  3
BK20
  1

  0
CIRCLE
  5
1DD
100
AcDbEntity
  8
_0-2_寸法
  6
CONTINUOUS
 62
     0
100
AcDbCircle
 10
395
 20
268
 40
0.25
  0
LINE
  5
1DE
100
AcDbEntity
  8
_0-2_寸法
  6
CONTINUOUS
 62
     0
100
AcDbLine
 10
395.25
 20
268
 11
394.75
 21
268
  0
LINE
  5
1DF
100
AcDbEntity
  8
_0-2_寸法
  6
CONTINUOUS
 62
     0
100
AcDbLine
 10
394.5
 20
268
 11
394
 21
268
  0
ENDBLK
  5
1E0
100
AcDbEntity
 67
     1
  8
_0-2_寸法
100
AcDbBlockEnd
  0
BLOCK
  5
1E1
100
AcDbEntity
  8
_0-2_寸法
100
AcDbBlockBegin
  2
BK21
 70
    64
 10
0
 20
0
  3
BK21
  1

  0
CIRCLE
  5
1E2
100
AcDbEntity
  8
_0-2_寸法
  6
CONTINUOUS
 62
     0
100
AcDbCircle
 10
170
 20
268
 40
0.25
  0
LINE
  5
1E3
100
AcDbEntity
  8
_0-2_寸法
  6
CONTINUOUS
 62
     0
100
AcDbLine
 10
169.75
 20
268
 11
170.25
 21
268
  0
LINE
  5
1E4
100
AcDbEntity
  8
_0-2_寸法
  6
CONTINUOUS
 62
     0
100
AcDbLine
 10
170.5
 20
268
 11
171
 21
268
  0
ENDBLK
  5
1E5
100
AcDbEntity
 67
     1
  8
_0-2_寸法
100
AcDbBlockEnd
  0
BLOCK
  5
1E6
100
AcDbEntity
  8
_0-2_寸法
100
AcDbBlockBegin
  2
BK22
 70
    64
 10
0
 20
0
  3
BK22
  1

  0
CIRCLE
  5
1E7
100
AcDbEntity
  8
_0-2_寸法
  6
CONTINUOUS
 62
     0
100
AcDbCircle
 10
245
 20
268
 40
0.25
  0
LINE
  5
1E8
100
AcDbEntity
  8
_0-2_寸法
  6
CONTINUOUS
 62
     0
100
AcDbLine
 10
245.25
 20
268
 11
244.75
 21
268
  0
LINE
  5
1E9
100
AcDbEntity
  8
_0-2_寸法
  6
CONTINUOUS
 62
     0
100
AcDbLine
 10
244.5
 20
268
 11
244
 21
268
  0
ENDBLK
  5
1EA
100
AcDbEntity
 67
     1
  8
_0-2_寸法
100
AcDbBlockEnd
  0
ENDSEC
  0
SECTION
  2
ENTITIES
  0
LINE
  5
1EB
100
AcDbEntity
  8
_0-4_図枠
  6
CONTINUOUS
 62
     0
100
AcDbLine
 10
448
 20
223
 11
515
 21
223
  0
LINE
  5
1EC
100
AcDbEntity
  8
_0-4_図枠
  6
CONTINUOUS
 62
     0
100
AcDbLine
 10
8
 20
6
 11
832
 21
6
  0
TEXT
  5
1ED
100
AcDbEntity
  8
_0-4_図枠
  6
CONTINUOUS
 62
     0
100
AcDbText
 10
321.5
 20
214
 40
5
  1
規　格
  7
STANDARD
100
AcDbText
  0
TEXT
  5
1EE
100
AcDbEntity
  8
_0-4_図枠
  6
CONTINUOUS
 62
     0
100
AcDbText
 10
220.5
 20
214
 40
5
  1
部材名称
  7
STANDARD
100
AcDbText
  0
TEXT
  5
1EF
100
AcDbEntity
  8
_0-4_図枠
  6
CONTINUOUS
 62
     0
100
AcDbText
 10
189
 20
190
 40
5
  1
ＦＹＹフレーム
  7
STANDARD
100
AcDbText
  0
TEXT
  5
1F0
100
AcDbEntity
  8
_0-4_図枠
  6
CONTINUOUS
 62
     0
100
AcDbText
 10
189
 20
202
 40
5
  1
ＦＹＹキヤップＡ
  7
STANDARD
100
AcDbText
  0
LINE
  5
1F1
100
AcDbEntity
  8
_0-4_図枠
  6
CONTINUOUS
 62
     0
100
AcDbLine
 10
447
 20
187
 11
380
 21
187
  0
LINE
  5
1F2
100
AcDbEntity
  8
_0-4_図枠
  6
CONTINUOUS
 62
     0
100
AcDbLine
 10
447
 20
199
 11
380
 21
199
  0
LINE
  5
1F3
100
AcDbEntity
  8
_0-4_図枠
  6
CONTINUOUS
 62
     0
100
AcDbLine
 10
447
 20
211
 11
380
 21
211
  0
LINE
  5
1F4
100
AcDbEntity
  8
_0-4_図枠
  6
CONTINUOUS
 62
     0
100
AcDbLine
 10
447
 20
223
 11
380
 21
223
  0
LINE
  5
1F5
100
AcDbEntity
  8
_0-4_図枠
  6
CONTINUOUS
 62
     0
100
AcDbLine
 10
448
 20
139
 11
515
 21
139
  0
LINE
  5
1F6
100
AcDbEntity
  8
_0-4_図枠
  6
CONTINUOUS
 62
     0
100
AcDbLine
 10
448
 20
151
 11
515
 21
151
  0
LINE
  5
1F7
100
AcDbEntity
  8
_0-4_図枠
  6
CONTINUOUS
 62
     0
100
AcDbLine
 10
448
 20
163
 11
515
 21
163
  0
LINE
  5
1F8
100
AcDbEntity
  8
_0-4_図枠
  6
CONTINUOUS
 62
     0
100
AcDbLine
 10
448
 20
175
 11
515
 21
175
  0
LINE
  5
1F9
100
AcDbEntity
  8
_0-4_図枠
  6
CONTINUOUS
 62
     0
100
AcDbLine
 10
448
 20
187
 11
515
 21
187
  0
LINE
  5
1FA
100
AcDbEntity
  8
_0-4_図枠
  6
CONTINUOUS
 62
     0
100
AcDbLine
 10
448
 20
199
 11
515
 21
199
  0
LINE
  5
1FB
100
AcDbEntity
  8
_0-4_図枠
  6
CONTINUOUS
 62
     0
100
AcDbLine
 10
448
 20
211
 11
515
 21
211
  0
TEXT
  5
1FC
100
AcDbEntity
  8
_0-4_図枠
  6
CONTINUOUS
 62
     0
100
AcDbText
 10
437
 20
190
 40
5
  1
〃
  7
STANDARD
100
AcDbText
  0
TEXT
  5
1FD
100
AcDbEntity
  8
_0-4_図枠
  6
CONTINUOUS
 62
     0
100
AcDbText
 10
437
 20
202
 40
5
  1
本
  7
STANDARD
100
AcDbText
  0
TEXT
  5
1FE
100
AcDbEntity
  8
_0-4_図枠
  6
CONTINUOUS
 62
     0
100
AcDbText
 10
505
 20
190
 40
5
  1
〃
  7
STANDARD
100
AcDbText
  0
TEXT
  5
1FF
100
AcDbEntity
  8
_0-4_図枠
  6
CONTINUOUS
 62
     0
100
AcDbText
 10
505
 20
202
 40
5
  1
本
  7
STANDARD
100
AcDbText
  0
TEXT
  5
200
100
AcDbEntity
  8
_0-4_図枠
  6
CONTINUOUS
 62
     0
100
AcDbText
 10
501.5
 20
214
 40
5
  1
単位
  7
STANDARD
100
AcDbText
  0
TEXT
  5
201
100
AcDbEntity
  8
_0-4_図枠
  6
CONTINUOUS
 62
     0
100
AcDbText
 10
433.5
 20
214
 40
5
  1
単位
  7
STANDARD
100
AcDbText
  0
TEXT
  5
202
100
AcDbEntity
  8
_0-4_図枠
  6
CONTINUOUS
 62
     0
100
AcDbText
 10
390.75
 20
190
 40
5
  1
3000
  7
STANDARD
100
AcDbText
  0
TEXT
  5
203
100
AcDbEntity
  8
_0-4_図枠
  6
CONTINUOUS
 62
     0
100
AcDbText
 10
458.75
 20
190
 40
5
  1
2000
  7
STANDARD
100
AcDbText
  0
TEXT
  5
204
100
AcDbEntity
  8
_0-4_図枠
  6
CONTINUOUS
 62
     0
100
AcDbText
 10
458.75
 20
202
 40
5
  1
2000
  7
STANDARD
100
AcDbText
  0
TEXT
  5
205
100
AcDbEntity
  8
_0-4_図枠
  6
CONTINUOUS
 62
     0
100
AcDbText
 10
451.75
 20
214
 40
5
  1
定尺(mm)
  7
STANDARD
100
AcDbText
  0
TEXT
  5
206
100
AcDbEntity
  8
_0-4_図枠
  6
CONTINUOUS
 62
     0
100
AcDbText
 10
390.75
 20
202
 40
5
  1
3000
  7
STANDARD
100
AcDbText
  0
TEXT
  5
207
100
AcDbEntity
  8
_0-4_図枠
  6
CONTINUOUS
 62
     0
100
AcDbText
 10
417.5
 20
214
 40
5
  1
入数
  7
STANDARD
100
AcDbText
  0
TEXT
  5
208
100
AcDbEntity
  8
_0-4_図枠
  6
CONTINUOUS
 62
     0
100
AcDbText
 10
420.75
 20
202
 40
5
  1
 1
  7
STANDARD
100
AcDbText
  0
TEXT
  5
209
100
AcDbEntity
  8
_0-4_図枠
  6
CONTINUOUS
 62
     0
100
AcDbText
 10
420.75
 20
190
 40
5
  1
 2
  7
STANDARD
100
AcDbText
  0
TEXT
  5
20A
100
AcDbEntity
  8
_0-4_図枠
  6
CONTINUOUS
 62
     0
100
AcDbText
 10
488.75
 20
190
 40
5
  1
 2
  7
STANDARD
100
AcDbText
  0
TEXT
  5
20B
100
AcDbEntity
  8
_0-4_図枠
  6
CONTINUOUS
 62
     0
100
AcDbText
 10
488.75
 20
202
 40
5
  1
 1
  7
STANDARD
100
AcDbText
  0
TEXT
  5
20C
100
AcDbEntity
  8
_0-4_図枠
  6
CONTINUOUS
 62
     0
100
AcDbText
 10
485.5
 20
214
 40
5
  1
入数
  7
STANDARD
100
AcDbText
  0
LINE
  5
20D
100
AcDbEntity
  8
_0-4_図枠
  6
CONTINUOUS
 62
     0
100
AcDbLine
 10
379
 20
175
 11
170
 21
175
  0
LINE
  5
20E
100
AcDbEntity
  8
_0-4_図枠
  6
CONTINUOUS
 62
     0
100
AcDbLine
 10
379
 20
187
 11
170
 21
187
  0
LINE
  5
20F
100
AcDbEntity
  8
_0-4_図枠
  6
CONTINUOUS
 62
     0
100
AcDbLine
 10
379
 20
199
 11
170
 21
199
  0
LINE
  5
210
100
AcDbEntity
  8
_0-4_図枠
  6
CONTINUOUS
 62
     0
100
AcDbLine
 10
379
 20
211
 11
170
 21
211
  0
LINE
  5
211
100
AcDbEntity
  8
_0-4_図枠
  6
CONTINUOUS
 62
     0
100
AcDbLine
 10
379
 20
139
 11
170
 21
139
  0
LINE
  5
212
100
AcDbEntity
  8
_0-4_図枠
  6
CONTINUOUS
 62
     0
100
AcDbLine
 10
379
 20
151
 11
170
 21
151
  0
LINE
  5
213
100
AcDbEntity
  8
_0-4_図枠
  6
CONTINUOUS
 62
     0
100
AcDbLine
 10
379
 20
163
 11
170
 21
163
  0
LINE
  5
214
100
AcDbEntity
  8
_0-4_図枠
  6
CONTINUOUS
 62
     0
100
AcDbLine
 10
379
 20
223
 11
170
 21
223
  0
TEXT
  5
215
100
AcDbEntity
  8
_0-4_図枠
  6
CONTINUOUS
 62
     0
100
AcDbText
 10
173.75
 20
130
 40
5
  1
 7
  7
STANDARD
100
AcDbText
  0
TEXT
  5
216
100
AcDbEntity
  8
_0-4_図枠
  6
CONTINUOUS
 62
     0
100
AcDbText
 10
173.75
 20
142
 40
5
  1
 6
  7
STANDARD
100
AcDbText
  0
TEXT
  5
217
100
AcDbEntity
  8
_0-4_図枠
  6
CONTINUOUS
 62
     0
100
AcDbText
 10
173.75
 20
154
 40
5
  1
 5
  7
STANDARD
100
AcDbText
  0
TEXT
  5
218
100
AcDbEntity
  8
_0-4_図枠
  6
CONTINUOUS
 62
     0
100
AcDbText
 10
173.75
 20
166
 40
5
  1
 4
  7
STANDARD
100
AcDbText
  0
TEXT
  5
219
100
AcDbEntity
  8
_0-4_図枠
  6
CONTINUOUS
 62
     0
100
AcDbText
 10
173.75
 20
178
 40
5
  1
 3
  7
STANDARD
100
AcDbText
  0
TEXT
  5
21A
100
AcDbEntity
  8
_0-4_図枠
  6
CONTINUOUS
 62
     0
100
AcDbText
 10
173.75
 20
190
 40
5
  1
 2
  7
STANDARD
100
AcDbText
  0
TEXT
  5
21B
100
AcDbEntity
  8
_0-4_図枠
  6
CONTINUOUS
 62
     0
100
AcDbText
 10
172
 20
214
 40
5
  1
No.
  7
STANDARD
100
AcDbText
  0
TEXT
  5
21C
100
AcDbEntity
  8
_0-4_図枠
  6
CONTINUOUS
 62
     0
100
AcDbText
 10
173.75
 20
202
 40
5
  1
 1
  7
STANDARD
100
AcDbText
  0
TEXT
  5
21D
100
AcDbEntity
  8
_0-4_図枠
  6
CONTINUOUS
 62
     0
100
AcDbText
 10
383.75
 20
214
 40
5
  1
定尺(mm)
  7
STANDARD
100
AcDbText
  0
TEXT
  5
21E
100
AcDbEntity
  8
_0-4_図枠
  6
CONTINUOUS
 62
     0
100
AcDbText
 10
622
 20
214
 40
5
  1
Ｗ
  7
STANDARD
100
AcDbText
  0
TEXT
  5
21F
100
AcDbEntity
  8
_0-4_図枠
  6
CONTINUOUS
 62
     0
100
AcDbText
 10
557.9999995
 20
214
 40
5
  1
タ　イ　プ
  7
STANDARD
100
AcDbText
  0
TEXT
  5
220
100
AcDbEntity
  8
_0-4_図枠
  6
CONTINUOUS
 62
     0
100
AcDbText
 10
652
 20
214
 40
5
  1
Ｃ
  7
STANDARD
100
AcDbText
  0
LINE
  5
221
100
AcDbEntity
  8
_0-4_図枠
  6
CONTINUOUS
 62
     0
100
AcDbLine
 10
670
 20
223
 11
535
 21
223
  0
TEXT
  5
222
100
AcDbEntity
  8
_0-4_図枠
  6
CONTINUOUS
 62
     0
100
AcDbText
 10
629
 20
224.3197829407
 40
5
  1
（単位：mm）
  7
STANDARD
100
AcDbText
  0
TEXT
  5
223
100
AcDbEntity
  8
_0-4_図枠
  6
CONTINUOUS
 62
     0
100
AcDbText
 10
454
 20
224.3197829407
 40
5
  1
（2000mmセット）
  7
STANDARD
100
AcDbText
  0
TEXT
  5
224
100
AcDbEntity
  8
_0-4_図枠
  6
CONTINUOUS
 62
     0
100
AcDbText
 10
386
 20
224.3197829407
 40
5
  1
（3000mmセット）
  7
STANDARD
100
AcDbText
  0
TEXT
  5
225
100
AcDbEntity
  8
_0-4_図枠
  6
CONTINUOUS
 62
     0
100
AcDbText
 10
189
 20
142
 40
5
  1
ＦＹＹ水切ジョイント
  7
STANDARD
100
AcDbText
  0
TEXT
  5
226
100
AcDbEntity
  8
_0-4_図枠
  6
CONTINUOUS
 62
     0
100
AcDbText
 10
189
 20
154
 40
5
  1
ＦＹＹフレームナット
  7
STANDARD
100
AcDbText
  0
TEXT
  5
227
100
AcDbEntity
  8
_0-4_図枠
  6
CONTINUOUS
 62
     0
100
AcDbText
 10
189
 20
178
 40
5
  1
ＦＹＹホルダー
  7
STANDARD
100
AcDbText
  0
TEXT
  5
228
100
AcDbEntity
  8
_0-4_図枠
  6
CONTINUOUS
 62
     0
100
AcDbText
 10
189
 20
166
 40
5
  1
ＦＹＹホルダースプリング
  7
STANDARD
100
AcDbText
  0
LINE
  5
229
100
AcDbEntity
  8
_0-4_図枠
  6
CONTINUOUS
 62
     0
100
AcDbLine
 10
447
 20
187
 11
380
 21
187
  0
LINE
  5
22A
100
AcDbEntity
  8
_0-4_図枠
  6
CONTINUOUS
 62
     0
100
AcDbLine
 10
447
 20
139
 11
380
 21
139
  0
LINE
  5
22B
100
AcDbEntity
  8
_0-4_図枠
  6
CONTINUOUS
 62
     0
100
AcDbLine
 10
447
 20
151
 11
380
 21
151
  0
LINE
  5
22C
100
AcDbEntity
  8
_0-4_図枠
  6
CONTINUOUS
 62
     0
100
AcDbLine
 10
447
 20
163
 11
380
 21
163
  0
LINE
  5
22D
100
AcDbEntity
  8
_0-4_図枠
  6
CONTINUOUS
 62
     0
100
AcDbLine
 10
447
 20
175
 11
380
 21
175
  0
TEXT
  5
22E
100
AcDbEntity
  8
_0-4_図枠
  6
CONTINUOUS
 62
     0
100
AcDbText
 10
437
 20
142
 40
5
  1
〃
  7
STANDARD
100
AcDbText
  0
TEXT
  5
22F
100
AcDbEntity
  8
_0-4_図枠
  6
CONTINUOUS
 62
     0
100
AcDbText
 10
437
 20
154
 40
5
  1
〃
  7
STANDARD
100
AcDbText
  0
TEXT
  5
230
100
AcDbEntity
  8
_0-4_図枠
  6
CONTINUOUS
 62
     0
100
AcDbText
 10
437
 20
166
 40
5
  1
〃
  7
STANDARD
100
AcDbText
  0
TEXT
  5
231
100
AcDbEntity
  8
_0-4_図枠
  6
CONTINUOUS
 62
     0
100
AcDbText
 10
437
 20
178
 40
5
  1
個
  7
STANDARD
100
AcDbText
  0
TEXT
  5
232
100
AcDbEntity
  8
_0-4_図枠
  6
CONTINUOUS
 62
     0
100
AcDbText
 10
505
 20
142
 40
5
  1
〃
  7
STANDARD
100
AcDbText
  0
TEXT
  5
233
100
AcDbEntity
  8
_0-4_図枠
  6
CONTINUOUS
 62
     0
100
AcDbText
 10
505
 20
154
 40
5
  1
〃
  7
STANDARD
100
AcDbText
  0
TEXT
  5
234
100
AcDbEntity
  8
_0-4_図枠
  6
CONTINUOUS
 62
     0
100
AcDbText
 10
505
 20
166
 40
5
  1
〃
  7
STANDARD
100
AcDbText
  0
TEXT
  5
235
100
AcDbEntity
  8
_0-4_図枠
  6
CONTINUOUS
 62
     0
100
AcDbText
 10
505
 20
178
 40
5
  1
個
  7
STANDARD
100
AcDbText
  0
TEXT
  5
236
100
AcDbEntity
  8
_0-4_図枠
  6
CONTINUOUS
 62
     0
100
AcDbText
 10
420.75
 20
178
 40
5
  1
 6
  7
STANDARD
100
AcDbText
  0
TEXT
  5
237
100
AcDbEntity
  8
_0-4_図枠
  6
CONTINUOUS
 62
     0
100
AcDbText
 10
420.75
 20
166
 40
5
  1
12
  7
STANDARD
100
AcDbText
  0
TEXT
  5
238
100
AcDbEntity
  8
_0-4_図枠
  6
CONTINUOUS
 62
     0
100
AcDbText
 10
420.75
 20
154
 40
5
  1
12
  7
STANDARD
100
AcDbText
  0
TEXT
  5
239
100
AcDbEntity
  8
_0-4_図枠
  6
CONTINUOUS
 62
     0
100
AcDbText
 10
420.75
 20
142
 40
5
  1
 1
  7
STANDARD
100
AcDbText
  0
TEXT
  5
23A
100
AcDbEntity
  8
_0-4_図枠
  6
CONTINUOUS
 62
     0
100
AcDbText
 10
488.75
 20
142
 40
5
  1
 1
  7
STANDARD
100
AcDbText
  0
TEXT
  5
23B
100
AcDbEntity
  8
_0-4_図枠
  6
CONTINUOUS
 62
     0
100
AcDbText
 10
488.75
 20
154
 40
5
  1
 8
  7
STANDARD
100
AcDbText
  0
TEXT
  5
23C
100
AcDbEntity
  8
_0-4_図枠
  6
CONTINUOUS
 62
     0
100
AcDbText
 10
488.75
 20
166
 40
5
  1
 8
  7
STANDARD
100
AcDbText
  0
TEXT
  5
23D
100
AcDbEntity
  8
_0-4_図枠
  6
CONTINUOUS
 62
     0
100
AcDbText
 10
488.75
 20
178
 40
5
  1
 4
  7
STANDARD
100
AcDbText
  0
TEXT
  5
23E
100
AcDbEntity
  8
_0-4_図枠
  6
CONTINUOUS
 62
     0
100
AcDbText
 10
189
 20
130
 40
5
  1
止水補助板
  7
STANDARD
100
AcDbText
  0
LINE
  5
23F
100
AcDbEntity
  8
_0-4_図枠
  6
CONTINUOUS
 62
     0
100
AcDbLine
 10
447
 20
139
 11
380
 21
139
  0
LINE
  5
240
100
AcDbEntity
  8
_0-4_図枠
  6
CONTINUOUS
 62
     0
100
AcDbLine
 10
448
 20
139
 11
515
 21
139
  0
TEXT
  5
241
100
AcDbEntity
  8
_0-4_図枠
  6
CONTINUOUS
 62
     0
100
AcDbText
 10
437
 20
130
 40
5
  1
〃
  7
STANDARD
100
AcDbText
  0
TEXT
  5
242
100
AcDbEntity
  8
_0-4_図枠
  6
CONTINUOUS
 62
     0
100
AcDbText
 10
505
 20
130
 40
5
  1
〃
  7
STANDARD
100
AcDbText
  0
TEXT
  5
243
100
AcDbEntity
  8
_0-4_図枠
  6
CONTINUOUS
 62
     0
100
AcDbText
 10
390.75
 20
130
 40
5
  1
3100
  7
STANDARD
100
AcDbText
  0
TEXT
  5
244
100
AcDbEntity
  8
_0-4_図枠
  6
CONTINUOUS
 62
     0
100
AcDbText
 10
458.75
 20
130
 40
5
  1
2100
  7
STANDARD
100
AcDbText
  0
TEXT
  5
245
100
AcDbEntity
  8
_0-4_図枠
  6
CONTINUOUS
 62
     0
100
AcDbText
 10
488.75
 20
130
 40
5
  1
 1
  7
STANDARD
100
AcDbText
  0
TEXT
  5
246
100
AcDbEntity
  8
_0-4_図枠
  6
CONTINUOUS
 62
     0
100
AcDbText
 10
420.75
 20
130
 40
5
  1
 1
  7
STANDARD
100
AcDbText
  0
LINE
  5
247
100
AcDbEntity
  8
_0-4_図枠
  6
CONTINUOUS
 62
     0
100
AcDbLine
 10
448
 20
115
 11
515
 21
115
  0
LINE
  5
248
100
AcDbEntity
  8
_0-4_図枠
  6
CONTINUOUS
 62
     0
100
AcDbLine
 10
379
 20
79
 11
170
 21
79
  0
LINE
  5
249
100
AcDbEntity
  8
_0-4_図枠
  6
CONTINUOUS
 62
     0
100
AcDbLine
 10
379
 20
91
 11
170
 21
91
  0
LINE
  5
24A
100
AcDbEntity
  8
_0-4_図枠
  6
CONTINUOUS
 62
     0
100
AcDbLine
 10
379
 20
115
 11
170
 21
115
  0
LINE
  5
24B
100
AcDbEntity
  8
_0-4_図枠
  6
CONTINUOUS
 62
     0
100
AcDbLine
 10
379
 20
103
 11
170
 21
103
  0
LINE
  5
24C
100
AcDbEntity
  8
_0-4_図枠
  6
CONTINUOUS
 62
     0
100
AcDbLine
 10
379
 20
55
 11
170
 21
55
  0
LINE
  5
24D
100
AcDbEntity
  8
_0-4_図枠
  6
CONTINUOUS
 62
     0
100
AcDbLine
 10
379
 20
67
 11
170
 21
67
  0
TEXT
  5
24E
100
AcDbEntity
  8
_0-4_図枠
  6
CONTINUOUS
 62
     0
100
AcDbText
 10
189
 20
70
 40
5
  1
ステンワッシャー
  7
STANDARD
100
AcDbText
  0
TEXT
  5
24F
100
AcDbEntity
  8
_0-4_図枠
  6
CONTINUOUS
 62
     0
100
AcDbText
 10
189
 20
82
 40
5
  1
アジャストアンカー
  7
STANDARD
100
AcDbText
  0
TEXT
  5
250
100
AcDbEntity
  8
_0-4_図枠
  6
CONTINUOUS
 62
     0
100
AcDbText
 10
189
 20
94
 40
5
  1
ステン六角ボルト
  7
STANDARD
100
AcDbText
  0
LINE
  5
251
100
AcDbEntity
  8
_0-4_図枠
  6
CONTINUOUS
 62
     0
100
AcDbLine
 10
447
 20
55
 11
380
 21
55
  0
LINE
  5
252
100
AcDbEntity
  8
_0-4_図枠
  6
CONTINUOUS
 62
     0
100
AcDbLine
 10
447
 20
103
 11
380
 21
103
  0
LINE
  5
253
100
AcDbEntity
  8
_0-4_図枠
  6
CONTINUOUS
 62
     0
100
AcDbLine
 10
447
 20
115
 11
380
 21
115
  0
LINE
  5
254
100
AcDbEntity
  8
_0-4_図枠
  6
CONTINUOUS
 62
     0
100
AcDbLine
 10
447
 20
67
 11
380
 21
67
  0
LINE
  5
255
100
AcDbEntity
  8
_0-4_図枠
  6
CONTINUOUS
 62
     0
100
AcDbLine
 10
447
 20
79
 11
380
 21
79
  0
LINE
  5
256
100
AcDbEntity
  8
_0-4_図枠
  6
CONTINUOUS
 62
     0
100
AcDbLine
 10
447
 20
91
 11
380
 21
91
  0
LINE
  5
257
100
AcDbEntity
  8
_0-4_図枠
  6
CONTINUOUS
 62
     0
100
AcDbLine
 10
448
 20
55
 11
515
 21
55
  0
LINE
  5
258
100
AcDbEntity
  8
_0-4_図枠
  6
CONTINUOUS
 62
     0
100
AcDbLine
 10
448
 20
67
 11
515
 21
67
  0
LINE
  5
259
100
AcDbEntity
  8
_0-4_図枠
  6
CONTINUOUS
 62
     0
100
AcDbLine
 10
448
 20
79
 11
515
 21
79
  0
LINE
  5
25A
100
AcDbEntity
  8
_0-4_図枠
  6
CONTINUOUS
 62
     0
100
AcDbLine
 10
448
 20
103
 11
515
 21
103
  0
LINE
  5
25B
100
AcDbEntity
  8
_0-4_図枠
  6
CONTINUOUS
 62
     0
100
AcDbLine
 10
448
 20
115
 11
515
 21
115
  0
LINE
  5
25C
100
AcDbEntity
  8
_0-4_図枠
  6
CONTINUOUS
 62
     0
100
AcDbLine
 10
448
 20
91
 11
515
 21
91
  0
TEXT
  5
25D
100
AcDbEntity
  8
_0-4_図枠
  6
CONTINUOUS
 62
     0
100
AcDbText
 10
437
 20
70
 40
5
  1
枚
  7
STANDARD
100
AcDbText
  0
TEXT
  5
25E
100
AcDbEntity
  8
_0-4_図枠
  6
CONTINUOUS
 62
     0
100
AcDbText
 10
437
 20
82
 40
5
  1
〃
  7
STANDARD
100
AcDbText
  0
TEXT
  5
25F
100
AcDbEntity
  8
_0-4_図枠
  6
CONTINUOUS
 62
     0
100
AcDbText
 10
437
 20
94
 40
5
  1
〃
  7
STANDARD
100
AcDbText
  0
TEXT
  5
260
100
AcDbEntity
  8
_0-4_図枠
  6
CONTINUOUS
 62
     0
100
AcDbText
 10
437
 20
106
 40
5
  1
本
  7
STANDARD
100
AcDbText
  0
TEXT
  5
261
100
AcDbEntity
  8
_0-4_図枠
  6
CONTINUOUS
 62
     0
100
AcDbText
 10
505
 20
70
 40
5
  1
枚
  7
STANDARD
100
AcDbText
  0
TEXT
  5
262
100
AcDbEntity
  8
_0-4_図枠
  6
CONTINUOUS
 62
     0
100
AcDbText
 10
505
 20
82
 40
5
  1
〃
  7
STANDARD
100
AcDbText
  0
TEXT
  5
263
100
AcDbEntity
  8
_0-4_図枠
  6
CONTINUOUS
 62
     0
100
AcDbText
 10
505
 20
94
 40
5
  1
〃
  7
STANDARD
100
AcDbText
  0
TEXT
  5
264
100
AcDbEntity
  8
_0-4_図枠
  6
CONTINUOUS
 62
     0
100
AcDbText
 10
505
 20
106
 40
5
  1
本
  7
STANDARD
100
AcDbText
  0
TEXT
  5
265
100
AcDbEntity
  8
_0-4_図枠
  6
CONTINUOUS
 62
     0
100
AcDbText
 10
420.75
 20
106
 40
5
  1
12
  7
STANDARD
100
AcDbText
  0
TEXT
  5
266
100
AcDbEntity
  8
_0-4_図枠
  6
CONTINUOUS
 62
     0
100
AcDbText
 10
420.75
 20
94
 40
5
  1
12
  7
STANDARD
100
AcDbText
  0
TEXT
  5
267
100
AcDbEntity
  8
_0-4_図枠
  6
CONTINUOUS
 62
     0
100
AcDbText
 10
420.75
 20
82
 40
5
  1
12
  7
STANDARD
100
AcDbText
  0
TEXT
  5
268
100
AcDbEntity
  8
_0-4_図枠
  6
CONTINUOUS
 62
     0
100
AcDbText
 10
420.75
 20
70
 40
5
  1
12
  7
STANDARD
100
AcDbText
  0
TEXT
  5
269
100
AcDbEntity
  8
_0-4_図枠
  6
CONTINUOUS
 62
     0
100
AcDbText
 10
488.75
 20
70
 40
5
  1
10
  7
STANDARD
100
AcDbText
  0
TEXT
  5
26A
100
AcDbEntity
  8
_0-4_図枠
  6
CONTINUOUS
 62
     0
100
AcDbText
 10
488.75
 20
82
 40
5
  1
10
  7
STANDARD
100
AcDbText
  0
TEXT
  5
26B
100
AcDbEntity
  8
_0-4_図枠
  6
CONTINUOUS
 62
     0
100
AcDbText
 10
488.75
 20
94
 40
5
  1
10
  7
STANDARD
100
AcDbText
  0
TEXT
  5
26C
100
AcDbEntity
  8
_0-4_図枠
  6
CONTINUOUS
 62
     0
100
AcDbText
 10
488.75
 20
106
 40
5
  1
 8
  7
STANDARD
100
AcDbText
  0
TEXT
  5
26D
100
AcDbEntity
  8
_0-4_図枠
  6
CONTINUOUS
 62
     0
100
AcDbText
 10
189
 20
58
 40
5
  1
ブチルテープ
  7
STANDARD
100
AcDbText
  0
TEXT
  5
26E
100
AcDbEntity
  8
_0-4_図枠
  6
CONTINUOUS
 62
     0
100
AcDbText
 10
437
 20
58
 40
5
  1
巻
  7
STANDARD
100
AcDbText
  0
TEXT
  5
26F
100
AcDbEntity
  8
_0-4_図枠
  6
CONTINUOUS
 62
     0
100
AcDbText
 10
505
 20
58
 40
5
  1
巻
  7
STANDARD
100
AcDbText
  0
TEXT
  5
270
100
AcDbEntity
  8
_0-4_図枠
  6
CONTINUOUS
 62
     0
100
AcDbText
 10
390.75
 20
58
 40
5
  1
6000
  7
STANDARD
100
AcDbText
  0
TEXT
  5
271
100
AcDbEntity
  8
_0-4_図枠
  6
CONTINUOUS
 62
     0
100
AcDbText
 10
458.75
 20
58
 40
5
  1
6000
  7
STANDARD
100
AcDbText
  0
TEXT
  5
272
100
AcDbEntity
  8
_0-4_図枠
  6
CONTINUOUS
 62
     0
100
AcDbText
 10
420.75
 20
58
 40
5
  1
 1
  7
STANDARD
100
AcDbText
  0
TEXT
  5
273
100
AcDbEntity
  8
_0-4_図枠
  6
CONTINUOUS
 62
     0
100
AcDbText
 10
488.75
 20
58
 40
5
  1
 1
  7
STANDARD
100
AcDbText
  0
TEXT
  5
274
100
AcDbEntity
  8
_0-4_図枠
  6
CONTINUOUS
 62
     0
100
AcDbText
 10
173.75
 20
58
 40
5
  1
※
  7
STANDARD
100
AcDbText
  0
LINE
  5
275
100
AcDbEntity
  8
_0-4_図枠
  6
CONTINUOUS
 62
     0
100
AcDbLine
 10
379
 20
127
 11
170
 21
127
  0
TEXT
  5
276
100
AcDbEntity
  8
_0-4_図枠
  6
CONTINUOUS
 62
     0
100
AcDbText
 10
173.75
 20
82
 40
5
  1
11
  7
STANDARD
100
AcDbText
  0
TEXT
  5
277
100
AcDbEntity
  8
_0-4_図枠
  6
CONTINUOUS
 62
     0
100
AcDbText
 10
173.75
 20
94
 40
5
  1
10
  7
STANDARD
100
AcDbText
  0
TEXT
  5
278
100
AcDbEntity
  8
_0-4_図枠
  6
CONTINUOUS
 62
     0
100
AcDbText
 10
173.75
 20
106
 40
5
  1
 9
  7
STANDARD
100
AcDbText
  0
TEXT
  5
279
100
AcDbEntity
  8
_0-4_図枠
  6
CONTINUOUS
 62
     0
100
AcDbText
 10
173.75
 20
118
 40
5
  1
 8
  7
STANDARD
100
AcDbText
  0
TEXT
  5
27A
100
AcDbEntity
  8
_0-4_図枠
  6
CONTINUOUS
 62
     0
100
AcDbText
 10
173.75
 20
70
 40
5
  1
12
  7
STANDARD
100
AcDbText
  0
LINE
  5
27B
100
AcDbEntity
  8
_0-4_図枠
  6
CONTINUOUS
 62
     0
100
AcDbLine
 10
170
 20
55
 11
170
 21
223
  0
LINE
  5
27C
100
AcDbEntity
  8
_0-4_図枠
  6
CONTINUOUS
 62
     0
100
AcDbLine
 10
184
 20
55
 11
184
 21
223
  0
LINE
  5
27D
100
AcDbEntity
  8
_0-4_図枠
  6
CONTINUOUS
 62
     0
100
AcDbLine
 10
284
 20
55
 11
284
 21
223
  0
LINE
  5
27E
100
AcDbEntity
  8
_0-4_図枠
  6
CONTINUOUS
 62
     0
100
AcDbLine
 10
379
 20
55
 11
379
 21
223
  0
LINE
  5
27F
100
AcDbEntity
  8
_0-4_図枠
  6
CONTINUOUS
 62
     0
100
AcDbLine
 10
380
 20
55
 11
380
 21
223
  0
LINE
  5
280
100
AcDbEntity
  8
_0-4_図枠
  6
CONTINUOUS
 62
     0
100
AcDbLine
 10
415
 20
55
 11
415
 21
223
  0
LINE
  5
281
100
AcDbEntity
  8
_0-4_図枠
  6
CONTINUOUS
 62
     0
100
AcDbLine
 10
433
 20
55
 11
433
 21
223
  0
LINE
  5
282
100
AcDbEntity
  8
_0-4_図枠
  6
CONTINUOUS
 62
     0
100
AcDbLine
 10
447
 20
55
 11
447
 21
223
  0
LINE
  5
283
100
AcDbEntity
  8
_0-4_図枠
  6
CONTINUOUS
 62
     0
100
AcDbLine
 10
448
 20
55
 11
448
 21
223
  0
LINE
  5
284
100
AcDbEntity
  8
_0-4_図枠
  6
CONTINUOUS
 62
     0
100
AcDbLine
 10
447
 20
127
 11
380
 21
127
  0
LINE
  5
285
100
AcDbEntity
  8
_0-4_図枠
  6
CONTINUOUS
 62
     0
100
AcDbLine
 10
448
 20
127
 11
515
 21
127
  0
LINE
  5
286
100
AcDbEntity
  8
_0-4_図枠
  6
CONTINUOUS
 62
     0
100
AcDbLine
 10
483
 20
55
 11
483
 21
223
  0
LINE
  5
287
100
AcDbEntity
  8
_0-4_図枠
  6
CONTINUOUS
 62
     0
100
AcDbLine
 10
501
 20
55
 11
501
 21
223
  0
LINE
  5
288
100
AcDbEntity
  8
_0-4_図枠
  6
CONTINUOUS
 62
     0
100
AcDbLine
 10
515
 20
55
 11
515
 21
223
  0
TEXT
  5
289
100
AcDbEntity
  8
_0-4_図枠
  6
CONTINUOUS
 62
     0
100
AcDbText
 10
189
 20
118
 40
5
  1
ウォーターガード
  7
STANDARD
100
AcDbText
  0
TEXT
  5
28A
100
AcDbEntity
  8
_0-4_図枠
  6
CONTINUOUS
 62
     0
100
AcDbText
 10
437
 20
118
 40
5
  1
〃
  7
STANDARD
100
AcDbText
  0
TEXT
  5
28B
100
AcDbEntity
  8
_0-4_図枠
  6
CONTINUOUS
 62
     0
100
AcDbText
 10
390.75
 20
118
 40
5
  1
3000
  7
STANDARD
100
AcDbText
  0
TEXT
  5
28C
100
AcDbEntity
  8
_0-4_図枠
  6
CONTINUOUS
 62
     0
100
AcDbText
 10
420.75
 20
118
 40
5
  1
 2
  7
STANDARD
100
AcDbText
  0
LINE
  5
28D
100
AcDbEntity
  8
_0-4_図枠
  6
CONTINUOUS
 62
     0
100
AcDbLine
 10
670
 20
79
 11
535
 21
79
  0
LINE
  5
28E
100
AcDbEntity
  8
_0-4_図枠
  6
CONTINUOUS
 62
     0
100
AcDbLine
 10
670
 20
91
 11
535
 21
91
  0
LINE
  5
28F
100
AcDbEntity
  8
_0-4_図枠
  6
CONTINUOUS
 62
     0
100
AcDbLine
 10
670
 20
103
 11
535
 21
103
  0
LINE
  5
290
100
AcDbEntity
  8
_0-4_図枠
  6
CONTINUOUS
 62
     0
100
AcDbLine
 10
670
 20
115
 11
535
 21
115
  0
LINE
  5
291
100
AcDbEntity
  8
_0-4_図枠
  6
CONTINUOUS
 62
     0
100
AcDbLine
 10
670
 20
127
 11
535
 21
127
  0
LINE
  5
292
100
AcDbEntity
  8
_0-4_図枠
  6
CONTINUOUS
 62
     0
100
AcDbLine
 10
670
 20
139
 11
535
 21
139
  0
LINE
  5
293
100
AcDbEntity
  8
_0-4_図枠
  6
CONTINUOUS
 62
     0
100
AcDbLine
 10
670
 20
151
 11
535
 21
151
  0
LINE
  5
294
100
AcDbEntity
  8
_0-4_図枠
  6
CONTINUOUS
 62
     0
100
AcDbLine
 10
670
 20
163
 11
535
 21
163
  0
LINE
  5
295
100
AcDbEntity
  8
_0-4_図枠
  6
CONTINUOUS
 62
     0
100
AcDbLine
 10
670
 20
175
 11
535
 21
175
  0
LINE
  5
296
100
AcDbEntity
  8
_0-4_図枠
  6
CONTINUOUS
 62
     0
100
AcDbLine
 10
670
 20
187
 11
535
 21
187
  0
LINE
  5
297
100
AcDbEntity
  8
_0-4_図枠
  6
CONTINUOUS
 62
     0
100
AcDbLine
 10
670
 20
211
 11
535
 21
211
  0
LINE
  5
298
100
AcDbEntity
  8
_0-4_図枠
  6
CONTINUOUS
 62
     0
100
AcDbLine
 10
670
 20
199
 11
535
 21
199
  0
TEXT
  5
299
100
AcDbEntity
  8
_0-4_図枠
  6
CONTINUOUS
 62
     0
100
AcDbText
 10
505
 20
118
 40
5
  1
〃
  7
STANDARD
100
AcDbText
  0
TEXT
  5
29A
100
AcDbEntity
  8
_0-4_図枠
  6
CONTINUOUS
 62
     0
100
AcDbText
 10
488.75
 20
118
 40
5
  1
 2
  7
STANDARD
100
AcDbText
  0
TEXT
  5
29B
100
AcDbEntity
  8
_0-4_図枠
  6
CONTINUOUS
 62
     0
100
AcDbText
 10
458.75
 20
118
 40
5
  1
2000
  7
STANDARD
100
AcDbText
  0
TEXT
  5
29C
100
AcDbEntity
  8
_0-4_図枠
  6
CONTINUOUS
 62
     0
100
AcDbText
 10
620
 20
82
 40
5
  1
900
  7
STANDARD
100
AcDbText
  0
TEXT
  5
29D
100
AcDbEntity
  8
_0-4_図枠
  6
CONTINUOUS
 62
     0
100
AcDbText
 10
620
 20
94
 40
5
  1
850
  7
STANDARD
100
AcDbText
  0
TEXT
  5
29E
100
AcDbEntity
  8
_0-4_図枠
  6
CONTINUOUS
 62
     0
100
AcDbText
 10
620
 20
106
 40
5
  1
800
  7
STANDARD
100
AcDbText
  0
TEXT
  5
29F
100
AcDbEntity
  8
_0-4_図枠
  6
CONTINUOUS
 62
     0
100
AcDbText
 10
620
 20
118
 40
5
  1
750
  7
STANDARD
100
AcDbText
  0
TEXT
  5
2A0
100
AcDbEntity
  8
_0-4_図枠
  6
CONTINUOUS
 62
     0
100
AcDbText
 10
620
 20
130
 40
5
  1
700
  7
STANDARD
100
AcDbText
  0
TEXT
  5
2A1
100
AcDbEntity
  8
_0-4_図枠
  6
CONTINUOUS
 62
     0
100
AcDbText
 10
620
 20
142
 40
5
  1
650
  7
STANDARD
100
AcDbText
  0
TEXT
  5
2A2
100
AcDbEntity
  8
_0-4_図枠
  6
CONTINUOUS
 62
     0
100
AcDbText
 10
620
 20
154
 40
5
  1
600
  7
STANDARD
100
AcDbText
  0
TEXT
  5
2A3
100
AcDbEntity
  8
_0-4_図枠
  6
CONTINUOUS
 62
     0
100
AcDbText
 10
620
 20
166
 40
5
  1
550
  7
STANDARD
100
AcDbText
  0
TEXT
  5
2A4
100
AcDbEntity
  8
_0-4_図枠
  6
CONTINUOUS
 62
     0
100
AcDbText
 10
620
 20
190
 40
5
  1
450
  7
STANDARD
100
AcDbText
  0
TEXT
  5
2A5
100
AcDbEntity
  8
_0-4_図枠
  6
CONTINUOUS
 62
     0
100
AcDbText
 10
620
 20
178
 40
5
  1
500
  7
STANDARD
100
AcDbText
  0
TEXT
  5
2A6
100
AcDbEntity
  8
_0-4_図枠
  6
CONTINUOUS
 62
     0
100
AcDbText
 10
650
 20
190
 40
5
  1
125
  7
STANDARD
100
AcDbText
  0
TEXT
  5
2A7
100
AcDbEntity
  8
_0-4_図枠
  6
CONTINUOUS
 62
     0
100
AcDbText
 10
650
 20
178
 40
5
  1
150
  7
STANDARD
100
AcDbText
  0
TEXT
  5
2A8
100
AcDbEntity
  8
_0-4_図枠
  6
CONTINUOUS
 62
     0
100
AcDbText
 10
650
 20
94
 40
5
  1
325
  7
STANDARD
100
AcDbText
  0
TEXT
  5
2A9
100
AcDbEntity
  8
_0-4_図枠
  6
CONTINUOUS
 62
     0
100
AcDbText
 10
650
 20
106
 40
5
  1
300
  7
STANDARD
100
AcDbText
  0
TEXT
  5
2AA
100
AcDbEntity
  8
_0-4_図枠
  6
CONTINUOUS
 62
     0
100
AcDbText
 10
650
 20
118
 40
5
  1
275
  7
STANDARD
100
AcDbText
  0
TEXT
  5
2AB
100
AcDbEntity
  8
_0-4_図枠
  6
CONTINUOUS
 62
     0
100
AcDbText
 10
650
 20
130
 40
5
  1
250
  7
STANDARD
100
AcDbText
  0
TEXT
  5
2AC
100
AcDbEntity
  8
_0-4_図枠
  6
CONTINUOUS
 62
     0
100
AcDbText
 10
650
 20
142
 40
5
  1
225
  7
STANDARD
100
AcDbText
  0
TEXT
  5
2AD
100
AcDbEntity
  8
_0-4_図枠
  6
CONTINUOUS
 62
     0
100
AcDbText
 10
650
 20
154
 40
5
  1
200
  7
STANDARD
100
AcDbText
  0
TEXT
  5
2AE
100
AcDbEntity
  8
_0-4_図枠
  6
CONTINUOUS
 62
     0
100
AcDbText
 10
650
 20
166
 40
5
  1
175
  7
STANDARD
100
AcDbText
  0
TEXT
  5
2AF
100
AcDbEntity
  8
_0-4_図枠
  6
CONTINUOUS
 62
     0
100
AcDbText
 10
620
 20
202
 40
5
  1
400
  7
STANDARD
100
AcDbText
  0
TEXT
  5
2B0
100
AcDbEntity
  8
_0-4_図枠
  6
CONTINUOUS
 62
     0
100
AcDbText
 10
650
 20
202
 40
5
  1
100
  7
STANDARD
100
AcDbText
  0
TEXT
  5
2B1
100
AcDbEntity
  8
_0-0_
  6
CONTINUOUS
 62
     0
100
AcDbText
 10
650.3647253307
 20
82.53428482545
 40
5
  1
350
  7
STANDARD
100
AcDbText
  0
TEXT
  5
2B2
100
AcDbEntity
  8
_0-4_図枠
  6
CONTINUOUS
 62
     0
100
AcDbText
 10
541.8580127559
 20
202.2516813984
 40
5
  1
５０ＦＹＹＧ－Ａ４００
  7
STANDARD
100
AcDbText
  0
TEXT
  5
2B3
100
AcDbEntity
  8
_0-4_図枠
  6
CONTINUOUS
 62
     0
100
AcDbText
 10
549.4246585044
 20
190
 40
5
  1
 　　〃　　　４５０
  7
STANDARD
100
AcDbText
  0
TEXT
  5
2B4
100
AcDbEntity
  8
_0-4_図枠
  6
CONTINUOUS
 62
     0
100
AcDbText
 10
549.4246585044
 20
178
 40
5
  1
 　　〃　　　５００
  7
STANDARD
100
AcDbText
  0
TEXT
  5
2B5
100
AcDbEntity
  8
_0-4_図枠
  6
CONTINUOUS
 62
     0
100
AcDbText
 10
549.4246585044
 20
166
 40
5
  1
 　　〃　　　５５０
  7
STANDARD
100
AcDbText
  0
TEXT
  5
2B6
100
AcDbEntity
  8
_0-4_図枠
  6
CONTINUOUS
 62
     0
100
AcDbText
 10
549.4246585044
 20
154
 40
5
  1
 　　〃　　　６００
  7
STANDARD
100
AcDbText
  0
TEXT
  5
2B7
100
AcDbEntity
  8
_0-4_図枠
  6
CONTINUOUS
 62
     0
100
AcDbText
 10
549.4246585044
 20
142
 40
5
  1
 　　〃　　　６５０
  7
STANDARD
100
AcDbText
  0
TEXT
  5
2B8
100
AcDbEntity
  8
_0-4_図枠
  6
CONTINUOUS
 62
     0
100
AcDbText
 10
549.4246585044
 20
130
 40
5
  1
 　　〃　　　７００
  7
STANDARD
100
AcDbText
  0
TEXT
  5
2B9
100
AcDbEntity
  8
_0-4_図枠
  6
CONTINUOUS
 62
     0
100
AcDbText
 10
549.4246585044
 20
118
 40
5
  1
 　　〃　　　７５０
  7
STANDARD
100
AcDbText
  0
TEXT
  5
2BA
100
AcDbEntity
  8
_0-4_図枠
  6
CONTINUOUS
 62
     0
100
AcDbText
 10
549.4246585044
 20
106
 40
5
  1
 　　〃　　　８００
  7
STANDARD
100
AcDbText
  0
TEXT
  5
2BB
100
AcDbEntity
  8
_0-4_図枠
  6
CONTINUOUS
 62
     0
100
AcDbText
 10
549.4246585044
 20
94
 40
5
  1
 　　〃　　　８５０
  7
STANDARD
100
AcDbText
  0
TEXT
  5
2BC
100
AcDbEntity
  8
_0-4_図枠
  6
CONTINUOUS
 62
     0
100
AcDbText
 10
549.4246585044
 20
82
 40
5
  1
 　　〃　　　９００
  7
STANDARD
100
AcDbText
  0
LINE
  5
2BD
100
AcDbEntity
  8
_0-4_図枠
  6
CONTINUOUS
 62
     0
100
AcDbLine
 10
670
 20
223
 11
670
 21
79
  0
LINE
  5
2BE
100
AcDbEntity
  8
_0-4_図枠
  6
CONTINUOUS
 62
     0
100
AcDbLine
 10
640
 20
223
 11
640
 21
79
  0
LINE
  5
2BF
100
AcDbEntity
  8
_0-4_図枠
  6
CONTINUOUS
 62
     0
100
AcDbLine
 10
610
 20
223
 11
610
 21
79
  0
LINE
  5
2C0
100
AcDbEntity
  8
_0-4_図枠
  6
CONTINUOUS
 62
     0
100
AcDbLine
 10
535
 20
223
 11
535
 21
79
  0
LINE
  5
2C1
100
AcDbEntity
  8
_0-3_躯体と製品
  6
CONTINUOUS
 62
     0
100
AcDbLine
 10
297.9958886043
 20
418.0805222966
 11
298.1842980467
 21
414.4854559715
  0
LINE
  5
2C2
100
AcDbEntity
  8
_0-3_躯体と製品
  6
CONTINUOUS
 62
     0
100
AcDbLine
 10
292.0041113957
 20
417.7665065592
 11
292.1925208382
 21
414.171440234
  0
LINE
  5
2C3
100
AcDbEntity
  8
_0-0_
  6
CONTINUOUS
 62
     0
100
AcDbLine
 10
292.4683294731
 20
417.7996049194
 11
292.6567384053
 21
414.2045382145
  0
LINE
  5
2C4
100
AcDbEntity
  8
_0-3_躯体と製品
  6
CONTINUOUS
 62
     0
100
AcDbLine
 10
298.1842980467
 20
414.4854559715
 11
298.4480314916
 21
409.4531220603
  0
LINE
  5
2C5
100
AcDbEntity
  8
_0-3_躯体と製品
  6
CONTINUOUS
 62
     0
100
AcDbLine
 10
297.6165771562
 20
414.4557029804
 11
297.9024984339
 21
409
  0
LINE
  5
2C6
100
AcDbEntity
  8
_0-3_躯体と製品
  6
CONTINUOUS
 62
     0
100
AcDbLine
 10
292.7602417287
 20
414.2011932252
 11
293.0328247153
 21
409
  0
LINE
  5
2C7
100
AcDbEntity
  8
_0-3_躯体と製品
  6
CONTINUOUS
 62
     0
100
AcDbLine
 10
292.1925208382
 20
414.171440234
 11
292.4562542831
 21
409.1391063229
  0
LINE
  5
2C8
100
AcDbEntity
  8
_0-3_躯体と製品
  6
CONTINUOUS
 62
     0
100
AcDbLine
 10
292.4562542831
 20
409.1391063229
 11
298.4480314916
 21
409.4531220603
  0
LINE
  5
2C9
100
AcDbEntity
  8
_0-3_躯体と製品
  6
CONTINUOUS
 62
     0
100
AcDbLine
 10
298.0400385559
 20
409
 11
298.4480314916
 21
409.4531220603
  0
LINE
  5
2CA
100
AcDbEntity
  8
_0-3_躯体と製品
  6
CONTINUOUS
 62
     0
100
AcDbLine
 10
292.4562542831
 20
409.1391063229
 11
292.6107475062
 21
409
  0
LINE
  5
2CB
100
AcDbEntity
  8
_0-3_躯体と製品
  6
CONTINUOUS
 62
     0
100
AcDbLine
 10
306
 20
416.2870617369
 11
306
 21
409
  0
LINE
  5
2CC
100
AcDbEntity
  8
_0-3_躯体と製品
  6
CONTINUOUS
 62
     0
100
AcDbLine
 10
311
 20
406.9
 11
306.5
 21
406.9
  0
LINE
  5
2CD
100
AcDbEntity
  8
_0-3_躯体と製品
  6
CONTINUOUS
 62
     0
100
AcDbLine
 10
311
 20
406.9
 11
311
 21
408.5
  0
LINE
  5
2CE
100
AcDbEntity
  8
_0-3_躯体と製品
  6
CONTINUOUS
 62
     0
100
AcDbLine
 10
311
 20
408.5
 11
306.5
 21
408.5
  0
ARC
  5
2CF
100
AcDbEntity
  8
_0-3_躯体と製品
  6
CONTINUOUS
 62
     0
100
AcDbCircle
 10
306.5
 20
409
 40
2.1
100
AcDbArc
 50
180
 51
270
  0
ARC
  5
2D0
100
AcDbEntity
  8
_0-3_躯体と製品
  6
CONTINUOUS
 62
     0
100
AcDbCircle
 10
306.5
 20
409
 40
0.5
100
AcDbArc
 50
180
 51
270
  0
LINE
  5
2D1
100
AcDbEntity
  8
_0-3_躯体と製品
  6
CONTINUOUS
 62
     0
100
AcDbLine
 10
304.4
 20
416.2870617369
 11
304.4
 21
409
  0
ARC
  5
2D2
100
AcDbEntity
  8
_0-3_躯体と製品
  6
CONTINUOUS
 62
     0
100
AcDbCircle
 10
303.9
 20
416.2870617369
 40
0.5
100
AcDbArc
 50
0
 51
93
  0
ARC
  5
2D3
100
AcDbEntity
  8
_0-3_躯体と製品
  6
CONTINUOUS
 62
     0
100
AcDbCircle
 10
286.1
 20
415.3542032657
 40
0.5
100
AcDbArc
 50
93
 51
180
  0
ARC
  5
2D4
100
AcDbEntity
  8
_0-3_躯体と製品
  6
CONTINUOUS
 62
     0
100
AcDbCircle
 10
303.9
 20
416.2870617369
 40
2.1
100
AcDbArc
 50
0
 51
93
  0
ARC
  5
2D5
100
AcDbEntity
  8
_0-3_躯体と製品
  6
CONTINUOUS
 62
     0
100
AcDbCircle
 10
286.1
 20
415.3542032657
 40
2.1
100
AcDbArc
 50
93
 51
180
  0
LINE
  5
2D6
100
AcDbEntity
  8
_0-3_躯体と製品
  6
CONTINUOUS
 62
     0
100
AcDbLine
 10
290.5947135826
 20
414.0877027041
 11
299.7821053023
 21
414.5691935015
  0
LINE
  5
2D7
100
AcDbEntity
  8
_0-3_躯体と製品
  6
CONTINUOUS
 62
     0
100
AcDbLine
 10
299.7297693461
 20
415.5678230362
 11
299.7821053023
 21
414.5691935015
  0
ARC
  5
2D8
100
AcDbEntity
  8
_0-3_躯体と製品
  6
CONTINUOUS
 62
     0
100
AcDbCircle
 10
300.7283988809
 20
415.6201589925
 40
1
100
AcDbArc
 50
93
 51
183
  0
LINE
  5
2D9
100
AcDbEntity
  8
_0-3_躯体と製品
  6
CONTINUOUS
 62
     0
100
AcDbLine
 10
290.5423776264
 20
415.0863322388
 11
290.5947135826
 21
414.0877027041
  0
ARC
  5
2DA
100
AcDbEntity
  8
_0-3_躯体と製品
  6
CONTINUOUS
 62
     0
100
AcDbCircle
 10
289.5437480916
 20
415.0339962826
 40
1
100
AcDbArc
 50
2.999999999999
 51
93
  0
LINE
  5
2DB
100
AcDbEntity
  8
_0-3_躯体と製品
  6
CONTINUOUS
 62
     0
100
AcDbLine
 10
286.0738320219
 20
415.853518033
 11
303.8738320219
 21
416.7863765043
  0
LINE
  5
2DC
100
AcDbEntity
  8
_0-3_躯体と製品
  6
CONTINUOUS
 62
     0
100
AcDbLine
 10
285.9900944919
 20
417.4513252887
 11
303.7900944919
 21
418.3841837599
  0
LINE
  5
2DD
100
AcDbEntity
  8
_0-3_躯体と製品
  6
CONTINUOUS
 62
     0
100
AcDbLine
 10
309
 20
408.5
 11
309
 21
406.9
  0
LINE
  5
2DE
100
AcDbEntity
  8
_0-3_躯体と製品
  6
CONTINUOUS
 62
     0
100
AcDbLine
 10
313
 20
400
 11
311.5
 21
400
  0
LINE
  5
2DF
100
AcDbEntity
  8
_0-3_躯体と製品
  6
CONTINUOUS
 62
     0
100
AcDbLine
 10
311.5
 20
400
 11
311.5
 21
400.5
  0
LINE
  5
2E0
100
AcDbEntity
  8
_0-3_躯体と製品
  6
CONTINUOUS
 62
     0
100
AcDbLine
 10
311.5
 20
400.5
 11
300
 21
400.5
  0
LINE
  5
2E1
100
AcDbEntity
  8
_0-3_躯体と製品
  6
CONTINUOUS
 62
     0
100
AcDbLine
 10
300
 20
400.5
 11
300
 21
400
  0
ARC
  5
2E2
100
AcDbEntity
  8
_0-3_躯体と製品
  6
CONTINUOUS
 62
     0
100
AcDbCircle
 10
308.25
 20
409.25
 40
0.75
100
AcDbArc
 50
90
 51
270
  0
ARC
  5
2E3
100
AcDbEntity
  8
_0-3_躯体と製品
  6
CONTINUOUS
 62
     0
100
AcDbCircle
 10
309.25
 20
405.25
 40
0.75
100
AcDbArc
 50
90
 51
270
  0
ARC
  5
2E4
100
AcDbEntity
  8
_0-3_躯体と製品
  6
CONTINUOUS
 62
     0
100
AcDbCircle
 10
311.2
 20
408.2
 40
0.3
100
AcDbArc
 50
0
 51
90
  0
LINE
  5
2E5
100
AcDbEntity
  8
_0-3_躯体と製品
  6
CONTINUOUS
 62
     0
100
AcDbLine
 10
311.2
 20
408.5
 11
308.25
 21
408.5
  0
LINE
  5
2E6
100
AcDbEntity
  8
_0-3_躯体と製品
  6
CONTINUOUS
 62
     0
100
AcDbLine
 10
311.2
 20
406
 11
309.25
 21
406
  0
ARC
  5
2E7
100
AcDbEntity
  8
_0-3_躯体と製品
  6
CONTINUOUS
 62
     0
100
AcDbCircle
 10
311.2
 20
406.3
 40
0.3
100
AcDbArc
 50
-90
 51
0
  0
LINE
  5
2E8
100
AcDbEntity
  8
_0-3_躯体と製品
  6
CONTINUOUS
 62
     0
100
AcDbLine
 10
311.5
 20
406.3
 11
311.5
 21
408.2
  0
ARC
  5
2E9
100
AcDbEntity
  8
_0-3_躯体と製品
  6
CONTINUOUS
 62
     0
100
AcDbCircle
 10
311.2
 20
404.2
 40
0.3
100
AcDbArc
 50
0
 51
90
  0
LINE
  5
2EA
100
AcDbEntity
  8
_0-3_躯体と製品
  6
CONTINUOUS
 62
     0
100
AcDbLine
 10
311.2
 20
404.5
 11
309.25
 21
404.5
  0
ARC
  5
2EB
100
AcDbEntity
  8
_0-3_躯体と製品
  6
CONTINUOUS
 62
     0
100
AcDbCircle
 10
311.2
 20
402.8
 40
0.3
100
AcDbArc
 50
-90
 51
0
  0
LINE
  5
2EC
100
AcDbEntity
  8
_0-3_躯体と製品
  6
CONTINUOUS
 62
     0
100
AcDbLine
 10
311.5
 20
402.8
 11
311.5
 21
404.2
  0
LINE
  5
2ED
100
AcDbEntity
  8
_0-3_躯体と製品
  6
CONTINUOUS
 62
     0
100
AcDbLine
 10
312.5
 20
410
 11
308.25
 21
410
  0
ARC
  5
2EE
100
AcDbEntity
  8
_0-3_躯体と製品
  6
CONTINUOUS
 62
     0
100
AcDbCircle
 10
312.5
 20
409.5
 40
0.5
100
AcDbArc
 50
0
 51
90
  0
LINE
  5
2EF
100
AcDbEntity
  8
_0-3_躯体と製品
  6
CONTINUOUS
 62
     0
100
AcDbLine
 10
313
 20
409.5
 11
313
 21
400
  0
LINE
  5
2F0
100
AcDbEntity
  8
_0-3_躯体と製品
  6
CONTINUOUS
 62
     0
100
AcDbLine
 10
300
 20
400
 11
290
 21
400
  0
LINE
  5
2F1
100
AcDbEntity
  8
_0-3_躯体と製品
  6
CONTINUOUS
 62
     0
100
AcDbLine
 10
294.5
 20
402.5
 11
278.8
 21
402.5
  0
LINE
  5
2F2
100
AcDbEntity
  8
_0-3_躯体と製品
  6
CONTINUOUS
 62
     0
100
AcDbLine
 10
311.2
 20
402.5
 11
295.5
 21
402.5
  0
LINE
  5
2F3
100
AcDbEntity
  8
_0-3_躯体と製品
  6
CONTINUOUS
 62
     0
100
AcDbLine
 10
290
 20
400
 11
290
 21
400.5
  0
LINE
  5
2F4
100
AcDbEntity
  8
_0-3_躯体と製品
  6
CONTINUOUS
 62
     0
100
AcDbLine
 10
290
 20
400.5
 11
278.5
 21
400.5
  0
LINE
  5
2F5
100
AcDbEntity
  8
_0-3_躯体と製品
  6
CONTINUOUS
 62
     0
100
AcDbLine
 10
295
 20
402
 11
294.5
 21
402.5
  0
LINE
  5
2F6
100
AcDbEntity
  8
_0-3_躯体と製品
  6
CONTINUOUS
 62
     0
100
AcDbLine
 10
295
 20
402
 11
295.5
 21
402.5
  0
LINE
  5
2F7
100
AcDbEntity
  8
_0-3_躯体と製品
  6
CONTINUOUS
 62
     0
100
AcDbLine
 10
295
 20
399
 11
295
 21
400
  0
ARC
  5
2F8
100
AcDbEntity
  8
_0-3_躯体と製品
  6
CONTINUOUS
 62
     0
100
AcDbCircle
 10
280
 20
390.75
 40
9.25
100
AcDbArc
 50
90
 51
108.9246444161
  0
LINE
  5
2F9
100
AcDbEntity
  8
_0-3_躯体と製品
  6
CONTINUOUS
 62
     0
100
AcDbLine
 10
310
 20
400
 11
280
 21
400
  0
ARC
  5
2FA
100
AcDbEntity
  8
_0-3_躯体と製品
  6
CONTINUOUS
 62
     0
100
AcDbCircle
 10
310
 20
390.75
 40
9.25
100
AcDbArc
 50
71.07535558395
 51
90
  0
LINE
  5
2FB
100
AcDbEntity
  8
_0-3_躯体と製品
  6
CONTINUOUS
 62
     0
100
AcDbLine
 10
304
 20
404
 11
286
 21
404
  0
LINE
  5
2FC
100
AcDbEntity
  8
_0-3_躯体と製品
  6
CONTINUOUS
 62
     0
100
AcDbLine
 10
286
 20
404
 11
286
 21
402.5
  0
LINE
  5
2FD
100
AcDbEntity
  8
_0-3_躯体と製品
  6
CONTINUOUS
 62
     0
100
AcDbLine
 10
304
 20
404
 11
304
 21
402.5
  0
ARC
  5
2FE
100
AcDbEntity
  8
_0-3_躯体と製品
  6
CONTINUOUS
 62
     0
100
AcDbCircle
 10
295
 20
399.3888469604
 40
9.553418012636
100
AcDbArc
 50
72.41204622605
 51
107.587953774
  0
ARC
  5
2FF
100
AcDbEntity
  8
_0-3_躯体と製品
  6
CONTINUOUS
 62
     0
100
AcDbCircle
 10
299.3301270189
 20
406.3864422247
 40
2.555822748428
100
AcDbArc
 50
55.61575253204
 51
124.384247468
  0
ARC
  5
300
100
AcDbEntity
  8
_0-3_躯体と製品
  6
CONTINUOUS
 62
     0
100
AcDbCircle
 10
290.6698729811
 20
406.3864422247
 40
2.555822748428
100
AcDbArc
 50
55.61575253203
 51
124.384247468
  0
LINE
  5
301
100
AcDbEntity
  8
_0-3_躯体と製品
  6
CONTINUOUS
 62
     0
100
AcDbLine
 10
300.7735026919
 20
408.4956829857
 11
300.7735026919
 21
404
  0
LINE
  5
302
100
AcDbEntity
  8
_0-3_躯体と製品
  6
CONTINUOUS
 62
     0
100
AcDbLine
 10
299.9
 20
409
 11
300.7735026919
 21
408.4956829857
  0
LINE
  5
303
100
AcDbEntity
  8
_0-3_躯体と製品
  6
CONTINUOUS
 62
     0
100
AcDbLine
 10
299.9
 20
409
 11
290.1
 21
409
  0
LINE
  5
304
100
AcDbEntity
  8
_0-3_躯体と製品
  6
CONTINUOUS
 62
     0
100
AcDbLine
 10
290.1
 20
409
 11
289.2264973081
 21
408.4956829857
  0
LINE
  5
305
100
AcDbEntity
  8
_0-3_躯体と製品
  6
CONTINUOUS
 62
     0
100
AcDbLine
 10
297.8867513459
 20
408.4956829857
 11
297.8867513459
 21
404
  0
LINE
  5
306
100
AcDbEntity
  8
_0-3_躯体と製品
  6
CONTINUOUS
 62
     0
100
AcDbLine
 10
292.1132486541
 20
408.4956829857
 11
292.1132486541
 21
404
  0
LINE
  5
307
100
AcDbEntity
  8
_0-3_躯体と製品
  6
CONTINUOUS
 62
     0
100
AcDbLine
 10
289.2264973081
 20
408.4956829857
 11
289.2264973081
 21
404
  0
LINE
  5
308
100
AcDbEntity
  8
_0-3_躯体と製品
  6
CONTINUOUS
 62
     0
100
AcDbLine
 10
445
 20
398
 11
445
 21
248
  0
LINE
  5
309
100
AcDbEntity
  8
_0-3_躯体と製品
  6
CONTINUOUS
 62
     0
100
AcDbLine
 10
245
 20
398
 11
245
 21
248
  0
LINE
  5
30A
100
AcDbEntity
  8
_0-3_躯体と製品
  6
CONTINUOUS
 62
     0
100
AcDbLine
 10
595
 20
398
 11
595
 21
248
  0
LINE
  5
30B
100
AcDbEntity
  8
_0-2_寸法
  6
CONTINUOUS
 62
     0
100
AcDbLine
 10
170
 20
268
 11
670
 21
268
  0
LINE
  5
30C
100
AcDbEntity
  8
_0-3_躯体と製品
  6
CONTINUOUS
 62
     0
100
AcDbLine
 10
212.2824563256
 20
443.6218913997
 11
214.1061513169
 21
445.445586391
  0
LINE
  5
30D
100
AcDbEntity
  8
_0-3_躯体と製品
  6
CONTINUOUS
 62
     0
100
AcDbLine
 10
210.7900279039
 20
443.5436765403
 11
212.6137228952
 21
445.3673715317
  0
LINE
  5
30E
100
AcDbEntity
  8
_0-3_躯体と製品
  6
CONTINUOUS
 62
     0
100
AcDbLine
 10
209.2975994822
 20
443.465461681
 11
211.1212944736
 21
445.2891566724
  0
LINE
  5
30F
100
AcDbEntity
  8
_0-3_躯体と製品
  6
CONTINUOUS
 62
     0
100
AcDbLine
 10
207.8051710605
 20
443.3872468217
 11
209.6288660519
 21
445.2109418131
  0
LINE
  5
310
100
AcDbEntity
  8
_0-3_躯体と製品
  6
CONTINUOUS
 62
     0
100
AcDbLine
 10
206.3127426388
 20
443.3090319624
 11
208.1364376302
 21
445.1327269537
  0
LINE
  5
311
100
AcDbEntity
  8
_0-3_躯体と製品
  6
CONTINUOUS
 62
     0
100
AcDbLine
 10
204.8203142171
 20
443.2308171031
 11
206.6440092085
 21
445.0545120944
  0
LINE
  5
312
100
AcDbEntity
  8
_0-3_躯体と製品
  6
CONTINUOUS
 62
     0
100
AcDbLine
 10
203.3278857954
 20
443.1526022438
 11
205.1515807868
 21
444.9762972351
  0
LINE
  5
313
100
AcDbEntity
  8
_0-3_躯体と製品
  6
CONTINUOUS
 62
     0
100
AcDbLine
 10
201.8354573737
 20
443.0743873844
 11
203.6591523651
 21
444.8980823758
  0
LINE
  5
314
100
AcDbEntity
  8
_0-3_躯体と製品
  6
CONTINUOUS
 62
     0
100
AcDbLine
 10
200.343028952
 20
442.9961725251
 11
202.1667239434
 21
444.8198675165
  0
LINE
  5
315
100
AcDbEntity
  8
_0-3_躯体と製品
  6
CONTINUOUS
 62
     0
100
AcDbLine
 10
199.3125330554
 20
443.3798901909
 11
200.6742955217
 21
444.7416526571
  0
LINE
  5
316
100
AcDbEntity
  8
_0-3_躯体と製品
  6
CONTINUOUS
 62
     0
100
AcDbLine
 10
199.3354103466
 20
442.9433654716
 11
199.2450915251
 21
444.6667512495
  0
LINE
  5
317
100
AcDbEntity
  8
_0-3_躯体と製品
  6
CONTINUOUS
 62
     0
100
AcDbLine
 10
214.3148533679
 20
443.7284048153
 11
214.2245345464
 21
445.4517905932
  0
LINE
  5
318
100
AcDbEntity
  8
_0-3_躯体と製品
  6
CONTINUOUS
 62
     0
100
AcDbLine
 10
213.7748847473
 20
443.700106259
 11
214.2893732334
 21
444.2145947451
  0
LINE
  5
319
100
AcDbEntity
  8
_0-3_躯体と製品
  6
CONTINUOUS
 62
     0
100
AcDbLine
 10
560
 20
399
 11
560
 21
398
  0
LINE
  5
31A
100
AcDbEntity
  8
_0-3_躯体と製品
  6
CONTINUOUS
 62
     0
100
AcDbLine
 10
530
 20
399
 11
560
 21
399
  0
LINE
  5
31B
100
AcDbEntity
  8
_0-3_躯体と製品
  6
CONTINUOUS
 62
     0
100
AcDbLine
 10
530
 20
398
 11
530
 21
399
  0
LINE
  5
31C
100
AcDbEntity
  8
_0-3_躯体と製品
  6
CONTINUOUS
 62
     0
100
AcDbLine
 10
560
 20
398
 11
530
 21
398
  0
LINE
  5
31D
100
AcDbEntity
  8
_0-3_躯体と製品
  6
CONTINUOUS
 62
     0
100
AcDbLine
 10
559.1244623381
 20
398
 11
560
 21
398.8755376619
  0
LINE
  5
31E
100
AcDbEntity
  8
_0-3_躯体と製品
  6
CONTINUOUS
 62
     0
100
AcDbLine
 10
557.7102487758
 20
398
 11
558.7102487758
 21
399
  0
LINE
  5
31F
100
AcDbEntity
  8
_0-3_躯体と製品
  6
CONTINUOUS
 62
     0
100
AcDbLine
 10
556.2960352134
 20
398
 11
557.2960352134
 21
399
  0
LINE
  5
320
100
AcDbEntity
  8
_0-3_躯体と製品
  6
CONTINUOUS
 62
     0
100
AcDbLine
 10
554.881821651
 20
398
 11
555.881821651
 21
399
  0
LINE
  5
321
100
AcDbEntity
  8
_0-3_躯体と製品
  6
CONTINUOUS
 62
     0
100
AcDbLine
 10
553.4676080886
 20
398
 11
554.4676080886
 21
399
  0
LINE
  5
322
100
AcDbEntity
  8
_0-3_躯体と製品
  6
CONTINUOUS
 62
     0
100
AcDbLine
 10
552.0533945263
 20
398
 11
553.0533945263
 21
399
  0
LINE
  5
323
100
AcDbEntity
  8
_0-3_躯体と製品
  6
CONTINUOUS
 62
     0
100
AcDbLine
 10
550.6391809639
 20
398
 11
551.6391809639
 21
399
  0
LINE
  5
324
100
AcDbEntity
  8
_0-3_躯体と製品
  6
CONTINUOUS
 62
     0
100
AcDbLine
 10
549.2249674015
 20
398
 11
550.2249674015
 21
399
  0
LINE
  5
325
100
AcDbEntity
  8
_0-3_躯体と製品
  6
CONTINUOUS
 62
     0
100
AcDbLine
 10
547.8107538392
 20
398
 11
548.8107538392
 21
399
  0
LINE
  5
326
100
AcDbEntity
  8
_0-3_躯体と製品
  6
CONTINUOUS
 62
     0
100
AcDbLine
 10
546.3965402768
 20
398
 11
547.3965402768
 21
399
  0
LINE
  5
327
100
AcDbEntity
  8
_0-3_躯体と製品
  6
CONTINUOUS
 62
     0
100
AcDbLine
 10
544.9823267144
 20
398
 11
545.9823267144
 21
399
  0
LINE
  5
328
100
AcDbEntity
  8
_0-3_躯体と製品
  6
CONTINUOUS
 62
     0
100
AcDbLine
 10
543.568113152
 20
398
 11
544.568113152
 21
399
  0
LINE
  5
329
100
AcDbEntity
  8
_0-3_躯体と製品
  6
CONTINUOUS
 62
     0
100
AcDbLine
 10
542.1538995897
 20
398
 11
543.1538995897
 21
399
  0
LINE
  5
32A
100
AcDbEntity
  8
_0-3_躯体と製品
  6
CONTINUOUS
 62
     0
100
AcDbLine
 10
540.7396860273
 20
398
 11
541.7396860273
 21
399
  0
LINE
  5
32B
100
AcDbEntity
  8
_0-3_躯体と製品
  6
CONTINUOUS
 62
     0
100
AcDbLine
 10
539.3254724649
 20
398
 11
540.3254724649
 21
399
  0
LINE
  5
32C
100
AcDbEntity
  8
_0-3_躯体と製品
  6
CONTINUOUS
 62
     0
100
AcDbLine
 10
537.9112589025
 20
398
 11
538.9112589025
 21
399
  0
LINE
  5
32D
100
AcDbEntity
  8
_0-3_躯体と製品
  6
CONTINUOUS
 62
     0
100
AcDbLine
 10
536.4970453402
 20
398
 11
537.4970453402
 21
399
  0
LINE
  5
32E
100
AcDbEntity
  8
_0-3_躯体と製品
  6
CONTINUOUS
 62
     0
100
AcDbLine
 10
535.0828317778
 20
398
 11
536.0828317778
 21
399
  0
LINE
  5
32F
100
AcDbEntity
  8
_0-3_躯体と製品
  6
CONTINUOUS
 62
     0
100
AcDbLine
 10
533.6686182154
 20
398
 11
534.6686182154
 21
399
  0
LINE
  5
330
100
AcDbEntity
  8
_0-3_躯体と製品
  6
CONTINUOUS
 62
     0
100
AcDbLine
 10
532.2544046531
 20
398
 11
533.2544046531
 21
399
  0
LINE
  5
331
100
AcDbEntity
  8
_0-3_躯体と製品
  6
CONTINUOUS
 62
     0
100
AcDbLine
 10
530.8401910907
 20
398
 11
531.8401910907
 21
399
  0
LINE
  5
332
100
AcDbEntity
  8
_0-3_躯体と製品
  6
CONTINUOUS
 62
     0
100
AcDbLine
 10
530
 20
398.5740224717
 11
530.4259775283
 21
399
  0
LINE
  5
333
100
AcDbEntity
  8
_0-3_躯体と製品
  6
CONTINUOUS
 62
     0
100
AcDbLine
 10
310
 20
398
 11
310
 21
399
  0
LINE
  5
334
100
AcDbEntity
  8
_0-3_躯体と製品
  6
CONTINUOUS
 62
     0
100
AcDbLine
 10
280
 20
399
 11
280
 21
398
  0
LINE
  5
335
100
AcDbEntity
  8
_0-3_躯体と製品
  6
CONTINUOUS
 62
     0
100
AcDbLine
 10
310
 20
399
 11
280
 21
399
  0
LINE
  5
336
100
AcDbEntity
  8
_0-3_躯体と製品
  6
CONTINUOUS
 62
     0
100
AcDbLine
 10
280
 20
398
 11
310
 21
398
  0
LINE
  5
337
100
AcDbEntity
  8
_0-3_躯体と製品
  6
CONTINUOUS
 62
     0
100
AcDbLine
 10
286.5323919114
 20
398
 11
285.5323919114
 21
399
  0
LINE
  5
338
100
AcDbEntity
  8
_0-3_躯体と製品
  6
CONTINUOUS
 62
     0
100
AcDbLine
 10
287.9466054737
 20
398
 11
286.9466054737
 21
399
  0
LINE
  5
339
100
AcDbEntity
  8
_0-3_躯体と製品
  6
CONTINUOUS
 62
     0
100
AcDbLine
 10
289.3608190361
 20
398
 11
288.3608190361
 21
399
  0
LINE
  5
33A
100
AcDbEntity
  8
_0-3_躯体と製品
  6
CONTINUOUS
 62
     0
100
AcDbLine
 10
290.7750325985
 20
398
 11
289.7750325985
 21
399
  0
LINE
  5
33B
100
AcDbEntity
  8
_0-3_躯体と製品
  6
CONTINUOUS
 62
     0
100
AcDbLine
 10
292.1892461608
 20
398
 11
291.1892461608
 21
399
  0
LINE
  5
33C
100
AcDbEntity
  8
_0-3_躯体と製品
  6
CONTINUOUS
 62
     0
100
AcDbLine
 10
293.6034597232
 20
398
 11
292.6034597232
 21
399
  0
LINE
  5
33D
100
AcDbEntity
  8
_0-3_躯体と製品
  6
CONTINUOUS
 62
     0
100
AcDbLine
 10
295.0176732856
 20
398
 11
294.0176732856
 21
399
  0
LINE
  5
33E
100
AcDbEntity
  8
_0-3_躯体と製品
  6
CONTINUOUS
 62
     0
100
AcDbLine
 10
296.431886848
 20
398
 11
295.431886848
 21
399
  0
LINE
  5
33F
100
AcDbEntity
  8
_0-3_躯体と製品
  6
CONTINUOUS
 62
     0
100
AcDbLine
 10
297.8461004103
 20
398
 11
296.8461004103
 21
399
  0
LINE
  5
340
100
AcDbEntity
  8
_0-3_躯体と製品
  6
CONTINUOUS
 62
     0
100
AcDbLine
 10
299.2603139727
 20
398
 11
298.2603139727
 21
399
  0
LINE
  5
341
100
AcDbEntity
  8
_0-3_躯体と製品
  6
CONTINUOUS
 62
     0
100
AcDbLine
 10
300.6745275351
 20
398
 11
299.6745275351
 21
399
  0
LINE
  5
342
100
AcDbEntity
  8
_0-3_躯体と製品
  6
CONTINUOUS
 62
     0
100
AcDbLine
 10
302.0887410975
 20
398
 11
301.0887410975
 21
399
  0
LINE
  5
343
100
AcDbEntity
  8
_0-3_躯体と製品
  6
CONTINUOUS
 62
     0
100
AcDbLine
 10
303.5029546598
 20
398
 11
302.5029546598
 21
399
  0
LINE
  5
344
100
AcDbEntity
  8
_0-3_躯体と製品
  6
CONTINUOUS
 62
     0
100
AcDbLine
 10
304.9171682222
 20
398
 11
303.9171682222
 21
399
  0
LINE
  5
345
100
AcDbEntity
  8
_0-3_躯体と製品
  6
CONTINUOUS
 62
     0
100
AcDbLine
 10
306.3313817846
 20
398
 11
305.3313817846
 21
399
  0
LINE
  5
346
100
AcDbEntity
  8
_0-3_躯体と製品
  6
CONTINUOUS
 62
     0
100
AcDbLine
 10
307.7455953469
 20
398
 11
306.7455953469
 21
399
  0
LINE
  5
347
100
AcDbEntity
  8
_0-3_躯体と製品
  6
CONTINUOUS
 62
     0
100
AcDbLine
 10
309.1598089093
 20
398
 11
308.1598089093
 21
399
  0
LINE
  5
348
100
AcDbEntity
  8
_0-3_躯体と製品
  6
CONTINUOUS
 62
     0
100
AcDbLine
 10
310
 20
398.5740224717
 11
309.5740224717
 21
399
  0
CIRCLE
  5
349
100
AcDbEntity
  8
_0-3_躯体と製品
  6
CONTINUOUS
 62
     0
100
AcDbCircle
 10
670
 20
355.1368256398
 40
1.4
  0
CIRCLE
  5
34A
100
AcDbEntity
  8
_0-3_躯体と製品
  6
CONTINUOUS
 62
     0
100
AcDbCircle
 10
170
 20
355.1368256398
 40
1.4
  0
CIRCLE
  5
34B
100
AcDbEntity
  8
_0-3_躯体と製品
  6
CONTINUOUS
 62
     0
100
AcDbCircle
 10
420
 20
458.2387704605
 40
1.4
  0
LINE
  5
34C
100
AcDbEntity
  8
_0-3_躯体と製品
  6
CONTINUOUS
 62
     0
100
AcDbLine
 10
419.9947767896
 20
454.5076328449
 11
418.3527144438
 21
456.1496951907
  0
LINE
  5
34D
100
AcDbEntity
  8
_0-3_躯体と製品
  6
CONTINUOUS
 62
     0
100
AcDbLine
 10
418.6509882029
 20
454.4372078693
 11
417.0089258571
 21
456.079270215
  0
LINE
  5
34E
100
AcDbEntity
  8
_0-3_躯体と製品
  6
CONTINUOUS
 62
     0
100
AcDbLine
 10
417.3071996161
 20
454.3667828936
 11
415.6651372704
 21
456.0088452394
  0
LINE
  5
34F
100
AcDbEntity
  8
_0-3_躯体と製品
  6
CONTINUOUS
 62
     0
100
AcDbLine
 10
415.9634110294
 20
454.2963579179
 11
414.3213486837
 21
455.9384202637
  0
LINE
  5
350
100
AcDbEntity
  8
_0-3_躯体と製品
  6
CONTINUOUS
 62
     0
100
AcDbLine
 10
414.6196224427
 20
454.2259329423
 11
412.9775600969
 21
455.8679952881
  0
LINE
  5
351
100
AcDbEntity
  8
_0-3_躯体と製品
  6
CONTINUOUS
 62
     0
100
AcDbLine
 10
412.6293034928
 20
455.8497439328
 11
412.7196223143
 21
454.1263581549
  0
LINE
  5
352
100
AcDbEntity
  8
_0-3_躯体と製品
  6
CONTINUOUS
 62
     0
100
AcDbLine
 10
421.4866274588
 20
454.429995738
 11
419.6965030305
 21
456.2201201663
  0
LINE
  5
353
100
AcDbEntity
  8
_0-3_躯体と製品
  6
CONTINUOUS
 62
     0
100
AcDbLine
 10
427.3591060561
 20
455.6285849526
 11
427.125074576
 21
455.8626164328
  0
LINE
  5
354
100
AcDbEntity
  8
_0-3_躯体と製品
  6
CONTINUOUS
 62
     0
100
AcDbLine
 10
427.2886810805
 20
454.2847963659
 11
425.6326461543
 21
455.9408312921
  0
LINE
  5
355
100
AcDbEntity
  8
_0-3_躯体と製品
  6
CONTINUOUS
 62
     0
100
AcDbLine
 10
425.9639127239
 20
454.1953511601
 11
424.1402177326
 21
456.0190461514
  0
LINE
  5
356
100
AcDbEntity
  8
_0-3_躯体と製品
  6
CONTINUOUS
 62
     0
100
AcDbLine
 10
424.4714843022
 20
454.2735660194
 11
422.6477893109
 21
456.0972610107
  0
LINE
  5
357
100
AcDbEntity
  8
_0-3_躯体と製品
  6
CONTINUOUS
 62
     0
100
AcDbLine
 10
422.9790558805
 20
454.3517808787
 11
421.1553608892
 21
456.1754758701
  0
LINE
  5
358
100
AcDbEntity
  8
_0-3_躯体と製品
  6
CONTINUOUS
 62
     0
100
AcDbLine
 10
427.3706965072
 20
455.8497439328
 11
427.2803776857
 21
454.1263581549
  0
LINE
  5
359
100
AcDbEntity
  8
_0-3_躯体と製品
  6
CONTINUOUS
 62
     0
100
AcDbLine
 10
412.5102784893
 20
453.614700737
 11
412.7196223143
 21
449.6201825979
  0
LINE
  5
35A
100
AcDbEntity
  8
_0-3_躯体と製品
  6
CONTINUOUS
 62
     0
100
AcDbLine
 10
412.5102784893
 20
453.614700737
 11
420
 21
454.0072204088
  0
LINE
  5
35B
100
AcDbEntity
  8
_0-3_躯体と製品
  6
CONTINUOUS
 62
     0
100
AcDbLine
 10
427.4897215107
 20
453.614700737
 11
427.2803776857
 21
449.6201825979
  0
LINE
  5
35C
100
AcDbEntity
  8
_0-3_躯体と製品
  6
CONTINUOUS
 62
     0
100
AcDbLine
 10
427.4897215107
 20
453.614700737
 11
420
 21
454.0072204088
  0
LINE
  5
35D
100
AcDbEntity
  8
_0-3_躯体と製品
  6
CONTINUOUS
 62
     0
100
AcDbLine
 10
427.4426545354
 20
452.7166093486
 11
426.4922899753
 21
453.6669739087
  0
LINE
  5
35E
100
AcDbEntity
  8
_0-3_躯体と製品
  6
CONTINUOUS
 62
     0
100
AcDbLine
 10
427.3722295597
 20
451.3728207619
 11
424.9998615536
 21
453.745188768
  0
LINE
  5
35F
100
AcDbEntity
  8
_0-3_躯体と製品
  6
CONTINUOUS
 62
     0
100
AcDbLine
 10
427.3018045841
 20
450.0290321752
 11
423.5074331319
 21
453.8234036273
  0
LINE
  5
360
100
AcDbEntity
  8
_0-3_躯体と製品
  6
CONTINUOUS
 62
     0
100
AcDbLine
 10
426.2420227211
 20
449.6746004757
 11
422.0150047102
 21
453.9016184867
  0
LINE
  5
361
100
AcDbEntity
  8
_0-3_躯体と製品
  6
CONTINUOUS
 62
     0
100
AcDbLine
 10
424.7495942994
 20
449.7528153351
 11
420.5225762885
 21
453.979833346
  0
LINE
  5
362
100
AcDbEntity
  8
_0-3_躯体と製品
  6
CONTINUOUS
 62
     0
100
AcDbLine
 10
423.2571658778
 20
449.8310301944
 11
419.1267412169
 21
453.9614548552
  0
LINE
  5
363
100
AcDbEntity
  8
_0-3_躯体と製品
  6
CONTINUOUS
 62
     0
100
AcDbLine
 10
421.7647374561
 20
449.9092450537
 11
417.7829526302
 21
453.8910298796
  0
LINE
  5
364
100
AcDbEntity
  8
_0-3_躯体と製品
  6
CONTINUOUS
 62
     0
100
AcDbLine
 10
420.2723090344
 20
449.987459913
 11
416.4391640435
 21
453.8206049039
  0
LINE
  5
365
100
AcDbEntity
  8
_0-3_躯体と製品
  6
CONTINUOUS
 62
     0
100
AcDbLine
 10
418.9013995691
 20
449.9441558159
 11
415.0953754568
 21
453.7501799282
  0
LINE
  5
366
100
AcDbEntity
  8
_0-3_躯体と製品
  6
CONTINUOUS
 62
     0
100
AcDbLine
 10
413.275833856
 20
454.1555079666
 11
412.6872481686
 21
454.744093654
  0
LINE
  5
367
100
AcDbEntity
  8
_0-3_躯体と製品
  6
CONTINUOUS
 62
     0
100
AcDbLine
 10
417.5576109824
 20
449.8737308402
 11
413.75158687
 21
453.6797549526
  0
LINE
  5
368
100
AcDbEntity
  8
_0-3_躯体と製品
  6
CONTINUOUS
 62
     0
100
AcDbLine
 10
416.2138223957
 20
449.8033058646
 11
412.5162433226
 21
453.5008849376
  0
LINE
  5
369
100
AcDbEntity
  8
_0-3_躯体と製品
  6
CONTINUOUS
 62
     0
100
AcDbLine
 10
414.870033809
 20
449.7328808889
 11
412.594458182
 21
452.0084565159
  0
LINE
  5
36A
100
AcDbEntity
  8
_0-3_躯体と製品
  6
CONTINUOUS
 62
     0
100
AcDbLine
 10
413.5262452223
 20
449.6624559133
 11
412.6726730413
 21
450.5160280942
  0
LINE
  5
36B
100
AcDbEntity
  8
_0-3_躯体と製品
  6
CONTINUOUS
 62
     0
100
AcDbLine
 10
193.679812497
 20
439.8689117776
 11
199.4806033282
 21
440.1729183431
  0
LINE
  5
36C
100
AcDbEntity
  8
_0-3_躯体と製品
  6
CONTINUOUS
 62
     0
100
AcDbLine
 10
193.4443006939
 20
444.362744684
 11
199.2450915251
 21
444.6667512495
  0
LINE
  5
36D
100
AcDbEntity
  8
_0-3_躯体と製品
  6
CONTINUOUS
 62
     0
100
AcDbLine
 10
646.320187503
 20
439.8689117776
 11
640.5193966718
 21
440.1729183431
  0
LINE
  5
36E
100
AcDbEntity
  8
_0-3_躯体と製品
  6
CONTINUOUS
 62
     0
100
AcDbLine
 10
646.5556993061
 20
444.362744684
 11
640.7549084749
 21
444.6667512495
  0
ARC
  5
36F
100
AcDbEntity
  8
_0-3_躯体と製品
  6
CONTINUOUS
 62
     0
100
AcDbCircle
 10
193.8368203657
 20
436.8730231733
 40
3
100
AcDbArc
 50
93
 51
169.8753283446
  0
ARC
  5
370
100
AcDbEntity
  8
_0-3_躯体と製品
  6
CONTINUOUS
 62
     0
100
AcDbCircle
 10
193.8368203657
 20
436.8730231733
 40
7.5
100
AcDbArc
 50
93
 51
169.8753283446
  0
LINE
  5
371
100
AcDbEntity
  8
_0-3_躯体と製品
  6
CONTINUOUS
 62
     0
100
AcDbLine
 10
190.8835376392
 20
437.4003950888
 11
176.9299240898
 21
359.260159212
  0
LINE
  5
372
100
AcDbEntity
  8
_0-3_躯体と製品
  6
CONTINUOUS
 62
     0
100
AcDbLine
 10
172.5
 20
360.0512170852
 11
176.9299240897
 21
359.2601592117
  0
LINE
  5
373
100
AcDbEntity
  8
_0-3_躯体と製品
  6
CONTINUOUS
 62
     0
100
AcDbLine
 10
186.4536135494
 20
438.191452962
 11
172.5
 21
360.0512170852
  0
ARC
  5
374
100
AcDbEntity
  8
_0-3_躯体と製品
  6
CONTINUOUS
 62
     0
100
AcDbCircle
 10
646.1631796343
 20
436.8730231733
 40
3
100
AcDbArc
 50
10.1246716554
 51
87
  0
ARC
  5
375
100
AcDbEntity
  8
_0-3_躯体と製品
  6
CONTINUOUS
 62
     0
100
AcDbCircle
 10
646.1631796343
 20
436.8730231733
 40
7.5
100
AcDbArc
 50
10.1246716554
 51
87
  0
LINE
  5
376
100
AcDbEntity
  8
_0-3_躯体と製品
  6
CONTINUOUS
 62
     0
100
AcDbLine
 10
649.1164623608
 20
437.4003950888
 11
663.0700759102
 21
359.260159212
  0
LINE
  5
377
100
AcDbEntity
  8
_0-3_躯体と製品
  6
CONTINUOUS
 62
     0
100
AcDbLine
 10
667.5
 20
360.0512170852
 11
663.0700759103
 21
359.2601592117
  0
LINE
  5
378
100
AcDbEntity
  8
_0-3_躯体と製品
  6
CONTINUOUS
 62
     0
100
AcDbLine
 10
653.5463864506
 20
438.191452962
 11
667.5
 21
360.0512170852
  0
LINE
  5
379
100
AcDbEntity
  8
_0-3_躯体と製品
  6
CONTINUOUS
 62
     0
100
AcDbLine
 10
627.7175436744
 20
443.6218913997
 11
625.8938486831
 21
445.445586391
  0
LINE
  5
37A
100
AcDbEntity
  8
_0-3_躯体と製品
  6
CONTINUOUS
 62
     0
100
AcDbLine
 10
629.2099720961
 20
443.5436765403
 11
627.3862771048
 21
445.3673715317
  0
LINE
  5
37B
100
AcDbEntity
  8
_0-3_躯体と製品
  6
CONTINUOUS
 62
     0
100
AcDbLine
 10
630.7024005178
 20
443.465461681
 11
628.8787055264
 21
445.2891566724
  0
LINE
  5
37C
100
AcDbEntity
  8
_0-3_躯体と製品
  6
CONTINUOUS
 62
     0
100
AcDbLine
 10
632.1948289395
 20
443.3872468217
 11
630.3711339481
 21
445.2109418131
  0
LINE
  5
37D
100
AcDbEntity
  8
_0-3_躯体と製品
  6
CONTINUOUS
 62
     0
100
AcDbLine
 10
633.6872573612
 20
443.3090319624
 11
631.8635623698
 21
445.1327269537
  0
LINE
  5
37E
100
AcDbEntity
  8
_0-3_躯体と製品
  6
CONTINUOUS
 62
     0
100
AcDbLine
 10
635.1796857829
 20
443.2308171031
 11
633.3559907915
 21
445.0545120944
  0
LINE
  5
37F
100
AcDbEntity
  8
_0-3_躯体と製品
  6
CONTINUOUS
 62
     0
100
AcDbLine
 10
636.6721142046
 20
443.1526022438
 11
634.8484192132
 21
444.9762972351
  0
LINE
  5
380
100
AcDbEntity
  8
_0-3_躯体と製品
  6
CONTINUOUS
 62
     0
100
AcDbLine
 10
638.1645426263
 20
443.0743873844
 11
636.3408476349
 21
444.8980823758
  0
LINE
  5
381
100
AcDbEntity
  8
_0-3_躯体と製品
  6
CONTINUOUS
 62
     0
100
AcDbLine
 10
639.656971048
 20
442.9961725251
 11
637.8332760566
 21
444.8198675165
  0
LINE
  5
382
100
AcDbEntity
  8
_0-3_躯体と製品
  6
CONTINUOUS
 62
     0
100
AcDbLine
 10
640.6874669446
 20
443.3798901909
 11
639.3257044783
 21
444.7416526571
  0
LINE
  5
383
100
AcDbEntity
  8
_0-3_躯体と製品
  6
CONTINUOUS
 62
     0
100
AcDbLine
 10
640.6645896534
 20
442.9433654716
 11
640.7549084749
 21
444.6667512495
  0
LINE
  5
384
100
AcDbEntity
  8
_0-3_躯体と製品
  6
CONTINUOUS
 62
     0
100
AcDbLine
 10
625.6851466321
 20
443.7284048153
 11
625.7754654536
 21
445.4517905932
  0
ARC
  5
385
100
AcDbEntity
  8
_0-3_躯体と製品
  6
CONTINUOUS
 62
     0
100
AcDbCircle
 10
173
 20
442.2899319396
 40
3
100
AcDbArc
 50
93
 51
180
  0
ARC
  5
386
100
AcDbEntity
  8
_0-3_躯体と製品
  6
CONTINUOUS
 62
     0
100
AcDbCircle
 10
173
 20
358.1368256398
 40
3
100
AcDbArc
 50
180
 51
270
  0
ARC
  5
387
100
AcDbEntity
  8
_0-3_躯体と製品
  6
CONTINUOUS
 62
     0
100
AcDbCircle
 10
173
 20
442.2899319396
 40
1
100
AcDbArc
 50
93
 51
180
  0
LINE
  5
388
100
AcDbEntity
  8
_0-3_躯体と製品
  6
CONTINUOUS
 62
     0
100
AcDbLine
 10
172
 20
358.1368256398
 11
172
 21
442.2899319396
  0
LINE
  5
389
100
AcDbEntity
  8
_0-3_躯体と製品
  6
CONTINUOUS
 62
     0
100
AcDbLine
 10
173
 20
357.1368256398
 11
180
 21
357.1368256398
  0
ARC
  5
38A
100
AcDbEntity
  8
_0-3_躯体と製品
  6
CONTINUOUS
 62
     0
100
AcDbCircle
 10
173
 20
358.1368256398
 40
1
100
AcDbArc
 50
180
 51
270
  0
LINE
  5
38B
100
AcDbEntity
  8
_0-3_躯体と製品
  6
CONTINUOUS
 62
     0
100
AcDbLine
 10
180
 20
355.1368256398
 11
180
 21
357.1368256398
  0
CIRCLE
  5
38C
100
AcDbEntity
  8
_0-3_躯体と製品
  6
CONTINUOUS
 62
     0
100
AcDbCircle
 10
170
 20
445.1368256398
 40
1.4
  0
LINE
  5
38D
100
AcDbEntity
  8
_0-3_躯体と製品
  6
CONTINUOUS
 62
     0
100
AcDbLine
 10
172.8429921313
 20
445.2858205439
 11
420
 21
458.2387704605
  0
LINE
  5
38E
100
AcDbEntity
  8
_0-3_躯体と製品
  6
CONTINUOUS
 62
     0
100
AcDbLine
 10
172.9476640438
 20
443.2885614744
 11
420
 21
456.2360257685
  0
LINE
  5
38F
100
AcDbEntity
  8
_0-3_躯体と製品
  6
CONTINUOUS
 62
     0
100
AcDbLine
 10
667
 20
355.1368256398
 11
660
 21
355.1368256398
  0
ARC
  5
390
100
AcDbEntity
  8
_0-3_躯体と製品
  6
CONTINUOUS
 62
     0
100
AcDbCircle
 10
667
 20
442.2899319396
 40
3
100
AcDbArc
 50
0
 51
87
  0
ARC
  5
391
100
AcDbEntity
  8
_0-3_躯体と製品
  6
CONTINUOUS
 62
     0
100
AcDbCircle
 10
667
 20
358.1368256398
 40
3
100
AcDbArc
 50
-90
 51
0
  0
ARC
  5
392
100
AcDbEntity
  8
_0-3_躯体と製品
  6
CONTINUOUS
 62
     0
100
AcDbCircle
 10
667
 20
442.2899319396
 40
1
100
AcDbArc
 50
0
 51
87
  0
LINE
  5
393
100
AcDbEntity
  8
_0-3_躯体と製品
  6
CONTINUOUS
 62
     0
100
AcDbLine
 10
668
 20
358.1368256398
 11
668
 21
442.2899319396
  0
LINE
  5
394
100
AcDbEntity
  8
_0-3_躯体と製品
  6
CONTINUOUS
 62
     0
100
AcDbLine
 10
667
 20
357.1368256398
 11
660
 21
357.1368256398
  0
ARC
  5
395
100
AcDbEntity
  8
_0-3_躯体と製品
  6
CONTINUOUS
 62
     0
100
AcDbCircle
 10
667
 20
358.1368256398
 40
1
100
AcDbArc
 50
-90
 51
0
  0
LINE
  5
396
100
AcDbEntity
  8
_0-3_躯体と製品
  6
CONTINUOUS
 62
     0
100
AcDbLine
 10
660
 20
355.1368256398
 11
660
 21
357.1368256398
  0
CIRCLE
  5
397
100
AcDbEntity
  8
_0-3_躯体と製品
  6
CONTINUOUS
 62
     0
100
AcDbCircle
 10
670
 20
445.1368256398
 40
1.4
  0
LINE
  5
398
100
AcDbEntity
  8
_0-3_躯体と製品
  6
CONTINUOUS
 62
     0
100
AcDbLine
 10
670
 20
442.2899319396
 11
670
 21
358.1368256398
  0
LINE
  5
399
100
AcDbEntity
  8
_0-3_躯体と製品
  6
CONTINUOUS
 62
     0
100
AcDbLine
 10
667.1570078687
 20
445.2858205439
 11
420
 21
458.2387704605
  0
LINE
  5
39A
100
AcDbEntity
  8
_0-3_躯体と製品
  6
CONTINUOUS
 62
     0
100
AcDbLine
 10
667.0523359562
 20
443.2885614744
 11
420
 21
456.2360257685
  0
LINE
  5
39B
100
AcDbEntity
  8
_0-3_躯体と製品
  6
CONTINUOUS
 62
     0
100
AcDbLine
 10
290.95
 20
400
 11
290.95
 21
390.7
  0
LINE
  5
39C
100
AcDbEntity
  8
_0-3_躯体と製品
  6
CONTINUOUS
 62
     0
100
AcDbLine
 10
299.05
 20
400
 11
299.05
 21
390.7
  0
LINE
  5
39D
100
AcDbEntity
  8
_0-3_躯体と製品
  6
CONTINUOUS
 62
     0
100
AcDbLine
 10
290.25
 20
390
 11
290.95
 21
390.7
  0
LINE
  5
39E
100
AcDbEntity
  8
_0-3_躯体と製品
  6
CONTINUOUS
 62
     0
100
AcDbLine
 10
290.25
 20
371.371826
 11
290.25
 21
390
  0
LINE
  5
39F
100
AcDbEntity
  8
_0-3_躯体と製品
  6
CONTINUOUS
 62
     0
100
AcDbLine
 10
290.5
 20
359.5
 11
290.5
 21
360.363304
  0
LINE
  5
3A0
100
AcDbEntity
  8
_0-3_躯体と製品
  6
CONTINUOUS
 62
     0
100
AcDbLine
 10
288.37497
 20
360.738004
 11
290.25
 21
371.371826
  0
LINE
  5
3A1
100
AcDbEntity
  8
_0-3_躯体と製品
  6
CONTINUOUS
 62
     0
100
AcDbLine
 10
294.5
 20
371
 11
295.5
 21
371
  0
LINE
  5
3A2
100
AcDbEntity
  8
_0-3_躯体と製品
  6
CONTINUOUS
 62
     0
100
AcDbLine
 10
299.75
 20
390
 11
299.05
 21
390.7
  0
LINE
  5
3A3
100
AcDbEntity
  8
_0-3_躯体と製品
  6
CONTINUOUS
 62
     0
100
AcDbLine
 10
299.75
 20
371.371826
 11
299.75
 21
390
  0
LINE
  5
3A4
100
AcDbEntity
  8
_0-3_躯体と製品
  6
CONTINUOUS
 62
     0
100
AcDbLine
 10
298.5
 20
358.5
 11
291.5
 21
358.5
  0
ARC
  5
3A5
100
AcDbEntity
  8
_0-3_躯体と製品
  6
CONTINUOUS
 62
     0
100
AcDbCircle
 10
298.5
 20
359.5
 40
1
100
AcDbArc
 50
-90
 51
0
  0
LINE
  5
3A6
100
AcDbEntity
  8
_0-3_躯体と製品
  6
CONTINUOUS
 62
     0
100
AcDbLine
 10
299.5
 20
359.5
 11
299.5
 21
360.363304
  0
LINE
  5
3A7
100
AcDbEntity
  8
_0-3_躯体と製品
  6
CONTINUOUS
 62
     0
100
AcDbLine
 10
301.62503
 20
360.738004
 11
297.439597
 21
360
  0
LINE
  5
3A8
100
AcDbEntity
  8
_0-3_躯体と製品
  6
CONTINUOUS
 62
     0
100
AcDbLine
 10
294.5
 20
371
 11
292.560403
 21
360
  0
LINE
  5
3A9
100
AcDbEntity
  8
_0-3_躯体と製品
  6
CONTINUOUS
 62
     0
100
AcDbLine
 10
295.5
 20
371
 11
297.439597
 21
360
  0
LINE
  5
3AA
100
AcDbEntity
  8
_0-3_躯体と製品
  6
CONTINUOUS
 62
     0
100
AcDbLine
 10
301.62503
 20
360.738004
 11
299.75
 21
371.371826
  0
LINE
  5
3AB
100
AcDbEntity
  8
_0-3_躯体と製品
  6
CONTINUOUS
 62
     0
100
AcDbLine
 10
290.25
 20
390
 11
299.75
 21
390
  0
LINE
  5
3AC
100
AcDbEntity
  8
_0-3_躯体と製品
  6
CONTINUOUS
 62
     0
100
AcDbLine
 10
290.95
 20
390.7
 11
299.05
 21
390.7
  0
LINE
  5
3AD
100
AcDbEntity
  8
_0-3_躯体と製品
  6
CONTINUOUS
 62
     0
100
AcDbLine
 10
288.37497
 20
360.738004
 11
292.560403
 21
360
  0
ARC
  5
3AE
100
AcDbEntity
  8
_0-3_躯体と製品
  6
CONTINUOUS
 62
     0
100
AcDbCircle
 10
291.5
 20
359.5
 40
1
100
AcDbArc
 50
180
 51
270
  0
LINE
  5
3AF
100
AcDbEntity
  8
_0-3_躯体と製品
  6
CONTINUOUS
 62
     0
100
AcDbLine
 10
291.2219696962
 20
443.5531721399
 11
292.4675654548
 21
419.7857892128
  0
LINE
  5
3B0
100
AcDbEntity
  8
_0-3_躯体と製品
  6
CONTINUOUS
 62
     0
100
AcDbLine
 10
290.6542488057
 20
443.5234191488
 11
291.8998445643
 21
419.7560362216
  0
LINE
  5
3B1
100
AcDbEntity
  8
_0-3_躯体と製品
  6
CONTINUOUS
 62
     0
100
AcDbLine
 10
296.6460260143
 20
443.8374348863
 11
297.8916217728
 21
420.0700519591
  0
LINE
  5
3B2
100
AcDbEntity
  8
_0-3_躯体と製品
  6
CONTINUOUS
 62
     0
100
AcDbLine
 10
296.0783051237
 20
443.8076818951
 11
297.3239008823
 21
420.040298968
  0
ARC
  5
3B3
100
AcDbEntity
  8
_0-3_躯体と製品
  6
CONTINUOUS
 62
     0
100
AcDbCircle
 10
283.0863651842
 20
441.3243329515
 40
1
100
AcDbArc
 50
93
 51
142.3731526377
  0
LINE
  5
3B4
100
AcDbEntity
  8
_0-3_躯体と製品
  6
CONTINUOUS
 62
     0
100
AcDbLine
 10
304.308114357
 20
444.238987921
 11
282.9921604629
 21
443.1218661141
  0
ARC
  5
3B5
100
AcDbEntity
  8
_0-3_躯体と製品
  6
CONTINUOUS
 62
     0
100
AcDbCircle
 10
304.4023190783
 20
442.4414547584
 40
1.8
100
AcDbArc
 50
43.62684736228
 51
93
  0
LINE
  5
3B6
100
AcDbEntity
  8
_0-3_躯体と製品
  6
CONTINUOUS
 62
     0
100
AcDbLine
 10
304.349983122
 20
443.4400842932
 11
283.0340292279
 21
442.3229624863
  0
LINE
  5
3B7
100
AcDbEntity
  8
_0-3_躯体と製品
  6
CONTINUOUS
 62
     0
100
AcDbLine
 10
305.1261677218
 20
443.1314135552
 11
318.0561188156
 21
429.5663606786
  0
ARC
  5
3B8
100
AcDbEntity
  8
_0-3_躯体と製品
  6
CONTINUOUS
 62
     0
100
AcDbCircle
 10
304.4023190783
 20
442.4414547584
 40
1
100
AcDbArc
 50
43.62684736228
 51
93
  0
LINE
  5
3B9
100
AcDbEntity
  8
_0-3_躯体と製品
  6
CONTINUOUS
 62
     0
100
AcDbLine
 10
322.6162019732
 20
432.0853680842
 11
321.982599047
 21
432.5737811593
  0
LINE
  5
3BA
100
AcDbEntity
  8
_0-3_躯体と製品
  6
CONTINUOUS
 62
     0
100
AcDbLine
 10
322.6162019732
 20
432.0853680842
 11
320.7846529268
 21
429.7093570921
  0
ARC
  5
3BB
100
AcDbEntity
  8
_0-3_躯体と製品
  6
CONTINUOUS
 62
     0
100
AcDbCircle
 10
319.3590463575
 20
430.8082865301
 40
1
100
AcDbArc
 50
-136.3731526377
 51
-37.62684873287
  0
ARC
  5
3BC
100
AcDbEntity
  8
_0-3_躯体と製品
  6
CONTINUOUS
 62
     0
100
AcDbCircle
 10
319.3590463575
 20
430.8082865301
 40
1.8
100
AcDbArc
 50
-136.3731526377
 51
-37.62684812372
  0
LINE
  5
3BD
100
AcDbEntity
  8
_0-3_躯体と製品
  6
CONTINUOUS
 62
     0
100
AcDbLine
 10
266.6338445859
 20
429.6730758519
 11
268.7037209927
 21
427.5015299039
  0
LINE
  5
3BE
100
AcDbEntity
  8
_0-3_躯体と製品
  6
CONTINUOUS
 62
     0
100
AcDbLine
 10
266.0547656711
 20
429.1211088145
 11
266.6338445859
 21
429.6730758519
  0
LINE
  5
3BF
100
AcDbEntity
  8
_0-3_躯体と製品
  6
CONTINUOUS
 62
     0
100
AcDbLine
 10
266.0547656711
 20
429.1211088145
 11
268.1246420779
 21
426.9495628665
  0
ARC
  5
3C0
100
AcDbEntity
  8
_0-3_躯体と製品
  6
CONTINUOUS
 62
     0
100
AcDbCircle
 10
269.4275696198
 20
428.1914887179
 40
1
100
AcDbArc
 50
-136.3731512671
 51
-37.62684736228
  0
ARC
  5
3C1
100
AcDbEntity
  8
_0-3_躯体と製品
  6
CONTINUOUS
 62
     0
100
AcDbCircle
 10
269.4275696198
 20
428.1914887179
 40
1.8
100
AcDbArc
 50
-136.3731518763
 51
-37.62684736228
  0
LINE
  5
3C2
100
AcDbEntity
  8
_0-3_躯体と製品
  6
CONTINUOUS
 62
     0
100
AcDbLine
 10
281.6607586003
 20
442.4232623706
 11
270.2195732629
 21
427.5809723551
  0
LINE
  5
3C3
100
AcDbEntity
  8
_0-3_躯体と製品
  6
CONTINUOUS
 62
     0
100
AcDbLine
 10
282.2943615265
 20
441.9348492954
 11
270.853176189
 21
427.0925592799
  0
ARC
  5
3C4
100
AcDbEntity
  8
_0-3_躯体と製品
  6
CONTINUOUS
 62
     0
100
AcDbCircle
 10
283.0863651842
 20
441.3243329515
 40
1.8
100
AcDbArc
 50
93
 51
142.3731526377
  0
LINE
  5
3C5
100
AcDbEntity
  8
_0-3_躯体と製品
  6
CONTINUOUS
 62
     0
100
AcDbLine
 10
321.982599047
 20
432.5737811593
 11
320.1510500006
 21
430.1977701672
  0
LINE
  5
3C6
100
AcDbEntity
  8
_0-3_躯体と製品
  6
CONTINUOUS
 62
     0
100
AcDbLine
 10
305.7052466367
 20
443.6833805926
 11
318.6351977139
 21
430.1183277333
  0
ARC
  5
3C7
100
AcDbEntity
  8
_0-3_躯体と製品
  6
CONTINUOUS
 62
     0
100
AcDbCircle
 10
294.8340661577
 20
446.884606277
 40
0.6
100
AcDbArc
 50
79.299767
 51
183
  0
ARC
  5
3C8
100
AcDbEntity
  8
_0-3_躯体と製品
  6
CONTINUOUS
 62
     0
100
AcDbCircle
 10
292.1377664138
 20
446.7432991951
 40
0.6
100
AcDbArc
 50
3
 51
106.700233
  0
LINE
  5
3C9
100
AcDbEntity
  8
_0-3_躯体と製品
  6
CONTINUOUS
 62
     0
100
AcDbLine
 10
292.7389980593
 20
446.7355095528
 11
294.2369423614
 21
446.8140134871
  0
ARC
  5
3CA
100
AcDbEntity
  8
_0-3_躯体と製品
  6
CONTINUOUS
 62
     0
100
AcDbCircle
 10
295.4633681052
 20
443.580328999
 40
3.45
100
AcDbArc
 50
6.237837000001
 51
53.690876
  0
ARC
  5
3CB
100
AcDbEntity
  8
_0-3_躯体と製品
  6
CONTINUOUS
 62
     0
100
AcDbCircle
 10
291.8520320999
 20
443.386557719
 40
3.45
100
AcDbArc
 50
132.179511
 51
179.687257
  0
ARC
  5
3CC
100
AcDbEntity
  8
_0-3_躯体と製品
  6
CONTINUOUS
 62
     0
100
AcDbCircle
 10
293.7757436526
 20
441.2837171327
 40
6.3
100
AcDbArc
 50
53.690629
 51
132.303131
  0
LINE
  5
3CD
100
AcDbEntity
  8
_0-3_躯体と製品
  6
CONTINUOUS
 62
     0
100
AcDbLine
 10
199.4139142809
 20
441.4454211695
 11
420.0785039344
 21
453.0099622796
  0
LINE
  5
3CE
100
AcDbEntity
  8
_0-3_躯体と製品
  6
CONTINUOUS
 62
     0
100
AcDbLine
 10
200.3925966627
 20
422.7710488696
 11
420
 21
434.2801851926
  0
LINE
  5
3CF
100
AcDbEntity
  8
_0-3_躯体と製品
  6
CONTINUOUS
 62
     0
100
AcDbLine
 10
200.4868013839
 20
420.973515707
 11
420
 21
432.4777149698
  0
LINE
  5
3D0
100
AcDbEntity
  8
_0-3_躯体と製品
  6
CONTINUOUS
 62
     0
100
AcDbLine
 10
200.6699772308
 20
417.4783123354
 11
420
 21
428.9729117588
  0
LINE
  5
3D1
100
AcDbEntity
  8
_0-3_躯体と製品
  6
CONTINUOUS
 62
     0
100
AcDbLine
 10
200.7484811651
 20
415.9803680333
 11
420
 21
427.4708532398
  0
LINE
  5
3D2
100
AcDbEntity
  8
_0-3_躯体と製品
  6
CONTINUOUS
 62
     0
100
AcDbLine
 10
205.6631249045
 20
417.7399921166
 11
200.6699772308
 21
417.4783123354
  0
LINE
  5
3D3
100
AcDbEntity
  8
_0-3_躯体と製品
  6
CONTINUOUS
 62
     0
100
AcDbLine
 10
205.6107889483
 20
418.7386216514
 11
205.6631249045
 21
417.7399921166
  0
LINE
  5
3D4
100
AcDbEntity
  8
_0-3_躯体と製品
  6
CONTINUOUS
 62
     0
100
AcDbLine
 10
225.5833796434
 20
419.7853407762
 11
205.6107889483
 21
418.7386216514
  0
LINE
  5
3D5
100
AcDbEntity
  8
_0-3_躯体と製品
  6
CONTINUOUS
 62
     0
100
AcDbLine
 10
225.5833796434
 20
419.7853407762
 11
225.6357155996
 21
418.7867112415
  0
LINE
  5
3D6
100
AcDbEntity
  8
_0-3_躯体と製品
  6
CONTINUOUS
 62
     0
100
AcDbLine
 10
229.1309189713
 20
418.9698870883
 11
225.6357155996
 21
418.7867112415
  0
ARC
  5
3D7
100
AcDbEntity
  8
_0-3_躯体と製品
  6
CONTINUOUS
 62
     0
100
AcDbCircle
 10
229.0524150369
 20
420.4678313904
 40
1.5
100
AcDbArc
 50
-87
 51
93
  0
LINE
  5
3D8
100
AcDbEntity
  8
_0-3_躯体と製品
  6
CONTINUOUS
 62
     0
100
AcDbLine
 10
228.9739111025
 20
421.9657756926
 11
200.512969362
 21
420.4742009397
  0
LINE
  5
3D9
100
AcDbEntity
  8
_0-3_躯体と製品
  6
CONTINUOUS
 62
     0
100
AcDbLine
 10
200.8008171214
 20
414.9817384985
 11
199.3354103466
 21
442.9433654716
  0
LINE
  5
3DA
100
AcDbEntity
  8
_0-3_躯体と製品
  6
CONTINUOUS
 62
     0
100
AcDbLine
 10
199.5709221497
 20
438.4495325652
 11
420
 21
450.0017310248
  0
LINE
  5
3DB
100
AcDbEntity
  8
_0-3_躯体と製品
  6
CONTINUOUS
 62
     0
100
AcDbLine
 10
199.649426084
 20
436.9515882631
 11
420
 21
448.4996725058
  0
LINE
  5
3DC
100
AcDbEntity
  8
_0-3_躯体と製品
  6
CONTINUOUS
 62
     0
100
AcDbLine
 10
199.3354103466
 20
442.9433654716
 11
420
 21
454.5079065818
  0
LINE
  5
3DD
100
AcDbEntity
  8
_0-3_躯体と製品
  6
CONTINUOUS
 62
     0
100
AcDbLine
 10
190.5366227007
 20
416.3596163133
 11
191.1198152436
 21
413.8335318835
  0
LINE
  5
3DE
100
AcDbEntity
  8
_0-3_躯体と製品
  6
CONTINUOUS
 62
     0
100
AcDbLine
 10
198.6727181613
 20
417.3736404229
 11
190.9976397549
 21
416.9714066078
  0
LINE
  5
3DF
100
AcDbEntity
  8
_0-3_躯体と製品
  6
CONTINUOUS
 62
     0
100
AcDbLine
 10
187.7570062467
 20
416.8015722022
 11
188.9343526788
 21
416.8632743141
  0
LINE
  5
3E0
100
AcDbEntity
  8
_0-3_躯体と製品
  6
CONTINUOUS
 62
     0
100
AcDbLine
 10
189.2423644851
 20
416.63117077
 11
189.9505711659
 21
413.5635906183
  0
ARC
  5
3E1
100
AcDbEntity
  8
_0-3_躯体と製品
  6
CONTINUOUS
 62
     0
100
AcDbCircle
 10
198.6988861394
 20
416.8743256555
 40
0.5
100
AcDbArc
 50
2.999999999999
 51
93
  0
LINE
  5
3E2
100
AcDbEntity
  8
_0-3_躯体と製品
  6
CONTINUOUS
 62
     0
100
AcDbLine
 10
199.1982009068
 20
416.9004936337
 11
199.250536863
 21
415.9018640989
  0
ARC
  5
3E3
100
AcDbEntity
  8
_0-3_躯体と製品
  6
CONTINUOUS
 62
     0
100
AcDbCircle
 10
198.4895423144
 20
420.8688437945
 40
0.5
100
AcDbArc
 50
-87
 51
2.999999999999
  0
LINE
  5
3E4
100
AcDbEntity
  8
_0-3_躯体と製品
  6
CONTINUOUS
 62
     0
100
AcDbLine
 10
198.5157102925
 20
420.3695290272
 11
186.833722985
 21
419.7573020148
  0
LINE
  5
3E5
100
AcDbEntity
  8
_0-3_躯体と製品
  6
CONTINUOUS
 62
     0
100
AcDbLine
 10
198.9888570818
 20
420.8950117727
 11
198.8841851693
 21
422.8922708422
  0
LINE
  5
3E6
100
AcDbEntity
  8
_0-3_躯体と製品
  6
CONTINUOUS
 62
     0
100
AcDbLine
 10
177.4852608045
 20
369.1368256398
 11
181.8678122262
 21
369.1368256398
  0
LINE
  5
3E7
100
AcDbEntity
  8
_0-3_躯体と製品
  6
CONTINUOUS
 62
     0
100
AcDbLine
 10
186.8311946022
 20
416.0108543582
 11
176.9961870041
 21
369.7407814852
  0
LINE
  5
3E8
100
AcDbEntity
  8
_0-3_躯体と製品
  6
CONTINUOUS
 62
     0
100
AcDbLine
 10
184.0562880515
 20
417.385148483
 11
172.1003379483
 21
361.1368256398
  0
ARC
  5
3E9
100
AcDbEntity
  8
_0-3_躯体と製品
  6
CONTINUOUS
 62
     0
100
AcDbCircle
 10
199.3834999367
 20
422.9184388203
 40
0.5
100
AcDbArc
 50
93
 51
183
  0
LINE
  5
3EA
100
AcDbEntity
  8
_0-3_躯体と製品
  6
CONTINUOUS
 62
     0
100
AcDbLine
 10
199.3573319586
 20
423.4177535877
 11
199.8566467259
 21
423.4439215658
  0
ARC
  5
3EB
100
AcDbEntity
  8
_0-3_躯体と製品
  6
CONTINUOUS
 62
     0
100
AcDbCircle
 10
199.8828147041
 20
422.9446067984
 40
0.5
100
AcDbArc
 50
2.999999999999
 51
93
  0
ARC
  5
3EC
100
AcDbEntity
  8
_0-3_躯体と製品
  6
CONTINUOUS
 62
     0
100
AcDbCircle
 10
186.9907308537
 20
416.7614134105
 40
3
100
AcDbArc
 50
93
 51
168
  0
ARC
  5
3ED
100
AcDbEntity
  8
_0-3_躯体と製品
  6
CONTINUOUS
 62
     0
100
AcDbCircle
 10
187.809342203
 20
415.8029426674
 40
1
100
AcDbArc
 50
93
 51
168
  0
ARC
  5
3EE
100
AcDbEntity
  8
_0-3_躯体と製品
  6
CONTINUOUS
 62
     0
100
AcDbCircle
 10
199.7498516304
 20
415.928032077
 40
0.5
100
AcDbArc
 50
-177
 51
-87
  0
LINE
  5
3EF
100
AcDbEntity
  8
_0-3_躯体と製品
  6
CONTINUOUS
 62
     0
100
AcDbLine
 10
199.7760196085
 20
415.4287173096
 11
200.2753343759
 21
415.4548852878
  0
ARC
  5
3F0
100
AcDbEntity
  8
_0-3_躯体と製品
  6
CONTINUOUS
 62
     0
100
AcDbCircle
 10
200.2491663978
 20
415.9542000551
 40
0.5
100
AcDbArc
 50
-87
 51
2.999999999999
  0
ARC
  5
3F1
100
AcDbEntity
  8
_0-3_躯体と製品
  6
CONTINUOUS
 62
     0
100
AcDbCircle
 10
177.0176363688
 20
367.4368256398
 40
0.5
100
AcDbArc
 50
90
 51
168
  0
LINE
  5
3F2
100
AcDbEntity
  8
_0-3_躯体と製品
  6
CONTINUOUS
 62
     0
100
AcDbLine
 10
176.5285625684
 20
367.5407814852
 11
175.1003379483
 21
360.821512934
  0
LINE
  5
3F3
100
AcDbEntity
  8
_0-3_躯体と製品
  6
CONTINUOUS
 62
     0
100
AcDbLine
 10
177.0176363688
 20
367.9368256398
 11
186.2678122262
 21
367.9368256398
  0
ARC
  5
3F4
100
AcDbEntity
  8
_0-3_躯体と製品
  6
CONTINUOUS
 62
     0
100
AcDbCircle
 10
177.4852608045
 20
369.6368256398
 40
0.5
100
AcDbArc
 50
168
 51
270
  0
LINE
  5
3F5
100
AcDbEntity
  8
_0-3_躯体と製品
  6
CONTINUOUS
 62
     0
100
AcDbLine
 10
186.2678122262
 20
369.1368256398
 11
183.8678122262
 21
369.1368256398
  0
LINE
  5
3F6
100
AcDbEntity
  8
_0-3_躯体と製品
  6
CONTINUOUS
 62
     0
100
AcDbLine
 10
181.8678122262
 20
370.1368256398
 11
183.8678122262
 21
369.1368256398
  0
LINE
  5
3F7
100
AcDbEntity
  8
_0-3_躯体と製品
  6
CONTINUOUS
 62
     0
100
AcDbLine
 10
181.8678122262
 20
369.1368256398
 11
181.8678122262
 21
370.1368256398
  0
ARC
  5
3F8
100
AcDbEntity
  8
_0-3_躯体と製品
  6
CONTINUOUS
 62
     0
100
AcDbCircle
 10
174.6003379483
 20
359.6368256398
 40
2.5
100
AcDbArc
 50
180
 51
270
  0
LINE
  5
3F9
100
AcDbEntity
  8
_0-3_躯体と製品
  6
CONTINUOUS
 62
     0
100
AcDbLine
 10
174.6003379483
 20
357.1368256398
 11
175.1003379483
 21
357.1368256398
  0
LINE
  5
3FA
100
AcDbEntity
  8
_0-3_躯体と製品
  6
CONTINUOUS
 62
     0
100
AcDbLine
 10
172.1003379483
 20
359.6368256398
 11
172.1003379483
 21
361.1368256398
  0
LINE
  5
3FB
100
AcDbEntity
  8
_0-3_躯体と製品
  6
CONTINUOUS
 62
     0
100
AcDbLine
 10
175.1003379483
 20
360.821512934
 11
175.1003379483
 21
357.1368256398
  0
ARC
  5
3FC
100
AcDbEntity
  8
_0-3_躯体と製品
  6
CONTINUOUS
 62
     0
100
AcDbCircle
 10
186.2678122262
 20
368.5368256398
 40
0.6
100
AcDbArc
 50
-90
 51
90
  0
ARC
  5
3FD
100
AcDbEntity
  8
_0-3_躯体と製品
  6
CONTINUOUS
 62
     0
100
AcDbCircle
 10
188.9500534657
 20
416.5636854537
 40
0.3
100
AcDbArc
 50
13
 51
93
  0
ARC
  5
3FE
100
AcDbEntity
  8
_0-3_躯体と製品
  6
CONTINUOUS
 62
     0
100
AcDbCircle
 10
191.0238077331
 20
416.4720918404
 40
0.5
100
AcDbArc
 50
93
 51
193
  0
ARC
  5
3FF
100
AcDbEntity
  8
_0-3_躯体と製品
  6
CONTINUOUS
 62
     0
100
AcDbCircle
 10
190.5351932047
 20
413.6985612509
 40
0.6
100
AcDbArc
 50
-167
 51
13
  0
LINE
  5
400
100
AcDbEntity
  8
_0-3_躯体と製品
  6
CONTINUOUS
 62
     0
100
AcDbLine
 10
640.5860857191
 20
441.4454211695
 11
419.9214960656
 21
453.0099622796
  0
LINE
  5
401
100
AcDbEntity
  8
_0-3_躯体と製品
  6
CONTINUOUS
 62
     0
100
AcDbLine
 10
639.6074033373
 20
422.7710488696
 11
420
 21
434.2801851926
  0
LINE
  5
402
100
AcDbEntity
  8
_0-3_躯体と製品
  6
CONTINUOUS
 62
     0
100
AcDbLine
 10
639.5131986161
 20
420.973515707
 11
420
 21
432.4777149698
  0
LINE
  5
403
100
AcDbEntity
  8
_0-3_躯体と製品
  6
CONTINUOUS
 62
     0
100
AcDbLine
 10
639.3300227692
 20
417.4783123354
 11
420
 21
428.9729117588
  0
LINE
  5
404
100
AcDbEntity
  8
_0-3_躯体と製品
  6
CONTINUOUS
 62
     0
100
AcDbLine
 10
639.2515188349
 20
415.9803680333
 11
420
 21
427.4708532398
  0
LINE
  5
405
100
AcDbEntity
  8
_0-3_躯体と製品
  6
CONTINUOUS
 62
     0
100
AcDbLine
 10
626.2251152527
 20
443.700106259
 11
625.7106267666
 21
444.2145947451
  0
LINE
  5
406
100
AcDbEntity
  8
_0-3_躯体と製品
  6
CONTINUOUS
 62
     0
100
AcDbLine
 10
634.3368750955
 20
417.7399921166
 11
639.3300227692
 21
417.4783123354
  0
LINE
  5
407
100
AcDbEntity
  8
_0-3_躯体と製品
  6
CONTINUOUS
 62
     0
100
AcDbLine
 10
634.3892110517
 20
418.7386216514
 11
634.3368750955
 21
417.7399921166
  0
LINE
  5
408
100
AcDbEntity
  8
_0-3_躯体と製品
  6
CONTINUOUS
 62
     0
100
AcDbLine
 10
614.4166203566
 20
419.7853407762
 11
634.3892110517
 21
418.7386216514
  0
LINE
  5
409
100
AcDbEntity
  8
_0-3_躯体と製品
  6
CONTINUOUS
 62
     0
100
AcDbLine
 10
614.4166203566
 20
419.7853407762
 11
614.3642844004
 21
418.7867112415
  0
LINE
  5
40A
100
AcDbEntity
  8
_0-3_躯体と製品
  6
CONTINUOUS
 62
     0
100
AcDbLine
 10
610.8690810287
 20
418.9698870883
 11
614.3642844004
 21
418.7867112415
  0
ARC
  5
40B
100
AcDbEntity
  8
_0-3_躯体と製品
  6
CONTINUOUS
 62
     0
100
AcDbCircle
 10
610.9475849631
 20
420.4678313904
 40
1.5
100
AcDbArc
 50
87
 51
267
  0
LINE
  5
40C
100
AcDbEntity
  8
_0-3_躯体と製品
  6
CONTINUOUS
 62
     0
100
AcDbLine
 10
611.0260888975
 20
421.9657756926
 11
639.487030638
 21
420.4742009397
  0
LINE
  5
40D
100
AcDbEntity
  8
_0-3_躯体と製品
  6
CONTINUOUS
 62
     0
100
AcDbLine
 10
640.6645896534
 20
442.9433654716
 11
420
 21
454.5079065818
  0
LINE
  5
40E
100
AcDbEntity
  8
_0-3_躯体と製品
  6
CONTINUOUS
 62
     0
100
AcDbLine
 10
640.4290778503
 20
438.4495325652
 11
420
 21
450.0017310248
  0
LINE
  5
40F
100
AcDbEntity
  8
_0-3_躯体と製品
  6
CONTINUOUS
 62
     0
100
AcDbLine
 10
640.350573916
 20
436.9515882631
 11
420
 21
448.4996725058
  0
LINE
  5
410
100
AcDbEntity
  8
_0-3_躯体と製品
  6
CONTINUOUS
 62
     0
100
AcDbLine
 10
639.1991828786
 20
414.9817384985
 11
640.6645896534
 21
442.9433654716
  0
LINE
  5
411
100
AcDbEntity
  8
_0-3_躯体と製品
  6
CONTINUOUS
 62
     0
100
AcDbLine
 10
649.4633772993
 20
416.3596163133
 11
648.8801847564
 21
413.8335318835
  0
LINE
  5
412
100
AcDbEntity
  8
_0-3_躯体と製品
  6
CONTINUOUS
 62
     0
100
AcDbLine
 10
641.3272818387
 20
417.3736404229
 11
649.0023602451
 21
416.9714066078
  0
LINE
  5
413
100
AcDbEntity
  8
_0-3_躯体と製品
  6
CONTINUOUS
 62
     0
100
AcDbLine
 10
652.2429937533
 20
416.8015722022
 11
651.0656473212
 21
416.8632743141
  0
LINE
  5
414
100
AcDbEntity
  8
_0-3_躯体と製品
  6
CONTINUOUS
 62
     0
100
AcDbLine
 10
650.7576355149
 20
416.63117077
 11
650.0494288341
 21
413.5635906183
  0
ARC
  5
415
100
AcDbEntity
  8
_0-3_躯体と製品
  6
CONTINUOUS
 62
     0
100
AcDbCircle
 10
641.3011138606
 20
416.8743256555
 40
0.5
100
AcDbArc
 50
86.99999999999
 51
177
  0
LINE
  5
416
100
AcDbEntity
  8
_0-3_躯体と製品
  6
CONTINUOUS
 62
     0
100
AcDbLine
 10
640.8017990932
 20
416.9004936337
 11
640.749463137
 21
415.9018640989
  0
ARC
  5
417
100
AcDbEntity
  8
_0-3_躯体と製品
  6
CONTINUOUS
 62
     0
100
AcDbCircle
 10
641.5104576856
 20
420.8688437945
 40
0.5
100
AcDbArc
 50
177
 51
267
  0
LINE
  5
418
100
AcDbEntity
  8
_0-3_躯体と製品
  6
CONTINUOUS
 62
     0
100
AcDbLine
 10
641.4842897075
 20
420.3695290272
 11
653.166277015
 21
419.7573020148
  0
LINE
  5
419
100
AcDbEntity
  8
_0-3_躯体と製品
  6
CONTINUOUS
 62
     0
100
AcDbLine
 10
641.0111429182
 20
420.8950117727
 11
641.1158148307
 21
422.8922708422
  0
LINE
  5
41A
100
AcDbEntity
  8
_0-3_躯体と製品
  6
CONTINUOUS
 62
     0
100
AcDbLine
 10
662.5147391955
 20
369.1368256398
 11
658.1321877738
 21
369.1368256398
  0
LINE
  5
41B
100
AcDbEntity
  8
_0-3_躯体と製品
  6
CONTINUOUS
 62
     0
100
AcDbLine
 10
653.1688053978
 20
416.0108543582
 11
663.0038129959
 21
369.7407814852
  0
LINE
  5
41C
100
AcDbEntity
  8
_0-3_躯体と製品
  6
CONTINUOUS
 62
     0
100
AcDbLine
 10
655.9437119485
 20
417.385148483
 11
667.8996620517
 21
361.1368256398
  0
ARC
  5
41D
100
AcDbEntity
  8
_0-3_躯体と製品
  6
CONTINUOUS
 62
     0
100
AcDbCircle
 10
640.6165000633
 20
422.9184388203
 40
0.5
100
AcDbArc
 50
-2.999999999999
 51
86.99999999999
  0
LINE
  5
41E
100
AcDbEntity
  8
_0-3_躯体と製品
  6
CONTINUOUS
 62
     0
100
AcDbLine
 10
640.6426680414
 20
423.4177535877
 11
640.1433532741
 21
423.4439215658
  0
ARC
  5
41F
100
AcDbEntity
  8
_0-3_躯体と製品
  6
CONTINUOUS
 62
     0
100
AcDbCircle
 10
640.117185296
 20
422.9446067984
 40
0.5
100
AcDbArc
 50
86.99999999999
 51
177
  0
ARC
  5
420
100
AcDbEntity
  8
_0-3_躯体と製品
  6
CONTINUOUS
 62
     0
100
AcDbCircle
 10
653.0092691463
 20
416.7614134105
 40
3
100
AcDbArc
 50
12
 51
87
  0
ARC
  5
421
100
AcDbEntity
  8
_0-3_躯体と製品
  6
CONTINUOUS
 62
     0
100
AcDbCircle
 10
652.190657797
 20
415.8029426674
 40
1
100
AcDbArc
 50
12
 51
87
  0
ARC
  5
422
100
AcDbEntity
  8
_0-3_躯体と製品
  6
CONTINUOUS
 62
     0
100
AcDbCircle
 10
640.2501483696
 20
415.928032077
 40
0.5
100
AcDbArc
 50
-93.00000000001
 51
-2.999999999999
  0
LINE
  5
423
100
AcDbEntity
  8
_0-3_躯体と製品
  6
CONTINUOUS
 62
     0
100
AcDbLine
 10
640.2239803915
 20
415.4287173096
 11
639.7246656241
 21
415.4548852878
  0
ARC
  5
424
100
AcDbEntity
  8
_0-3_躯体と製品
  6
CONTINUOUS
 62
     0
100
AcDbCircle
 10
639.7508336022
 20
415.9542000551
 40
0.5
100
AcDbArc
 50
177
 51
267
  0
ARC
  5
425
100
AcDbEntity
  8
_0-3_躯体と製品
  6
CONTINUOUS
 62
     0
100
AcDbCircle
 10
662.9823636312
 20
367.4368256398
 40
0.5
100
AcDbArc
 50
12
 51
90
  0
LINE
  5
426
100
AcDbEntity
  8
_0-3_躯体と製品
  6
CONTINUOUS
 62
     0
100
AcDbLine
 10
663.4714374316
 20
367.5407814852
 11
664.8996620517
 21
360.821512934
  0
LINE
  5
427
100
AcDbEntity
  8
_0-3_躯体と製品
  6
CONTINUOUS
 62
     0
100
AcDbLine
 10
662.9823636312
 20
367.9368256398
 11
653.7321877738
 21
367.9368256398
  0
ARC
  5
428
100
AcDbEntity
  8
_0-3_躯体と製品
  6
CONTINUOUS
 62
     0
100
AcDbCircle
 10
662.5147391955
 20
369.6368256398
 40
0.5
100
AcDbArc
 50
-90
 51
12
  0
LINE
  5
429
100
AcDbEntity
  8
_0-3_躯体と製品
  6
CONTINUOUS
 62
     0
100
AcDbLine
 10
653.7321877738
 20
369.1368256398
 11
656.1321877738
 21
369.1368256398
  0
LINE
  5
42A
100
AcDbEntity
  8
_0-3_躯体と製品
  6
CONTINUOUS
 62
     0
100
AcDbLine
 10
658.1321877738
 20
370.1368256398
 11
656.1321877738
 21
369.1368256398
  0
LINE
  5
42B
100
AcDbEntity
  8
_0-3_躯体と製品
  6
CONTINUOUS
 62
     0
100
AcDbLine
 10
658.1321877738
 20
369.1368256398
 11
658.1321877738
 21
370.1368256398
  0
ARC
  5
42C
100
AcDbEntity
  8
_0-3_躯体と製品
  6
CONTINUOUS
 62
     0
100
AcDbCircle
 10
665.3996620517
 20
359.6368256398
 40
2.5
100
AcDbArc
 50
-90
 51
0
  0
LINE
  5
42D
100
AcDbEntity
  8
_0-3_躯体と製品
  6
CONTINUOUS
 62
     0
100
AcDbLine
 10
665.3996620517
 20
357.1368256398
 11
664.8996620517
 21
357.1368256398
  0
LINE
  5
42E
100
AcDbEntity
  8
_0-3_躯体と製品
  6
CONTINUOUS
 62
     0
100
AcDbLine
 10
667.8996620517
 20
359.6368256398
 11
667.8996620517
 21
361.1368256398
  0
LINE
  5
42F
100
AcDbEntity
  8
_0-3_躯体と製品
  6
CONTINUOUS
 62
     0
100
AcDbLine
 10
664.8996620517
 20
360.821512934
 11
664.8996620517
 21
357.1368256398
  0
ARC
  5
430
100
AcDbEntity
  8
_0-3_躯体と製品
  6
CONTINUOUS
 62
     0
100
AcDbCircle
 10
653.7321877738
 20
368.5368256398
 40
0.6
100
AcDbArc
 50
90
 51
270
  0
ARC
  5
431
100
AcDbEntity
  8
_0-3_躯体と製品
  6
CONTINUOUS
 62
     0
100
AcDbCircle
 10
651.0499465343
 20
416.5636854537
 40
0.3
100
AcDbArc
 50
86.99999999999
 51
167
  0
ARC
  5
432
100
AcDbEntity
  8
_0-3_躯体と製品
  6
CONTINUOUS
 62
     0
100
AcDbCircle
 10
648.9761922669
 20
416.4720918404
 40
0.5
100
AcDbArc
 50
-13
 51
86.99999999999
  0
ARC
  5
433
100
AcDbEntity
  8
_0-3_躯体と製品
  6
CONTINUOUS
 62
     0
100
AcDbCircle
 10
649.4648067953
 20
413.6985612509
 40
0.6
100
AcDbArc
 50
167
 51
347
  0
LINE
  5
434
100
AcDbEntity
  8
_0-3_躯体と製品
  6
CONTINUOUS
 62
     0
100
AcDbLine
 10
200.8008171214
 20
414.9817384985
 11
420
 21
426.4694808938
  0
LINE
  5
435
100
AcDbEntity
  8
_0-3_躯体と製品
  6
CONTINUOUS
 62
     0
100
AcDbLine
 10
639.1991828786
 20
414.9817384985
 11
420
 21
426.4694808938
  0
LINE
  5
436
100
AcDbEntity
  8
_0-3_躯体と製品
  6
CONTINUOUS
 62
     0
100
AcDbLine
 10
181.8678122262
 20
370.1368256398
 11
181.8678122262
 21
369.6368256398
  0
LINE
  5
437
100
AcDbEntity
  8
_0-3_躯体と製品
  6
CONTINUOUS
 62
     0
100
AcDbLine
 10
534
 20
416.2870617369
 11
534
 21
409
  0
LINE
  5
438
100
AcDbEntity
  8
_0-3_躯体と製品
  6
CONTINUOUS
 62
     0
100
AcDbLine
 10
529
 20
406.9
 11
533.5
 21
406.9
  0
LINE
  5
439
100
AcDbEntity
  8
_0-3_躯体と製品
  6
CONTINUOUS
 62
     0
100
AcDbLine
 10
529
 20
406.9
 11
529
 21
408.5
  0
LINE
  5
43A
100
AcDbEntity
  8
_0-3_躯体と製品
  6
CONTINUOUS
 62
     0
100
AcDbLine
 10
529
 20
408.5
 11
533.5
 21
408.5
  0
ARC
  5
43B
100
AcDbEntity
  8
_0-3_躯体と製品
  6
CONTINUOUS
 62
     0
100
AcDbCircle
 10
533.5
 20
409
 40
2.1
100
AcDbArc
 50
-90
 51
0
  0
ARC
  5
43C
100
AcDbEntity
  8
_0-3_躯体と製品
  6
CONTINUOUS
 62
     0
100
AcDbCircle
 10
533.5
 20
409
 40
0.5
100
AcDbArc
 50
-90
 51
0
  0
LINE
  5
43D
100
AcDbEntity
  8
_0-3_躯体と製品
  6
CONTINUOUS
 62
     0
100
AcDbLine
 10
535.6
 20
416.2870617369
 11
535.6
 21
409
  0
ARC
  5
43E
100
AcDbEntity
  8
_0-3_躯体と製品
  6
CONTINUOUS
 62
     0
100
AcDbCircle
 10
536.1
 20
416.2870617369
 40
0.5
100
AcDbArc
 50
86.99999999999
 51
180
  0
ARC
  5
43F
100
AcDbEntity
  8
_0-3_躯体と製品
  6
CONTINUOUS
 62
     0
100
AcDbCircle
 10
536.1
 20
416.2870617369
 40
2.1
100
AcDbArc
 50
87
 51
180
  0
LINE
  5
440
100
AcDbEntity
  8
_0-3_躯体と製品
  6
CONTINUOUS
 62
     0
100
AcDbLine
 10
549.4052864174
 20
414.0877027041
 11
540.2178946977
 21
414.5691935015
  0
LINE
  5
441
100
AcDbEntity
  8
_0-3_躯体と製品
  6
CONTINUOUS
 62
     0
100
AcDbLine
 10
540.2702306539
 20
415.5678230362
 11
540.2178946977
 21
414.5691935015
  0
ARC
  5
442
100
AcDbEntity
  8
_0-3_躯体と製品
  6
CONTINUOUS
 62
     0
100
AcDbCircle
 10
539.2716011191
 20
415.6201589925
 40
1
100
AcDbArc
 50
-2.999999999999
 51
87
  0
LINE
  5
443
100
AcDbEntity
  8
_0-3_躯体と製品
  6
CONTINUOUS
 62
     0
100
AcDbLine
 10
549.4576223736
 20
415.0863322388
 11
549.4052864174
 21
414.0877027041
  0
ARC
  5
444
100
AcDbEntity
  8
_0-3_躯体と製品
  6
CONTINUOUS
 62
     0
100
AcDbCircle
 10
550.4562519084
 20
415.0339962826
 40
1
100
AcDbArc
 50
87
 51
177
  0
LINE
  5
445
100
AcDbEntity
  8
_0-3_躯体と製品
  6
CONTINUOUS
 62
     0
100
AcDbLine
 10
554.0099055081
 20
417.4513252887
 11
536.2099055081
 21
418.3841837599
  0
LINE
  5
446
100
AcDbEntity
  8
_0-3_躯体と製品
  6
CONTINUOUS
 62
     0
100
AcDbLine
 10
542.0041113957
 20
418.0805222966
 11
541.8157019533
 21
414.4854559715
  0
LINE
  5
447
100
AcDbEntity
  8
_0-3_躯体と製品
  6
CONTINUOUS
 62
     0
100
AcDbLine
 10
547.9958886043
 20
417.7665065592
 11
547.8074791618
 21
414.171440234
  0
LINE
  5
448
100
AcDbEntity
  8
_0-3_躯体と製品
  6
CONTINUOUS
 62
     0
100
AcDbLine
 10
531
 20
408.5
 11
531
 21
406.9
  0
LINE
  5
449
100
AcDbEntity
  8
_0-3_躯体と製品
  6
CONTINUOUS
 62
     0
100
AcDbLine
 10
549.05
 20
400
 11
549.05
 21
390.7
  0
LINE
  5
44A
100
AcDbEntity
  8
_0-3_躯体と製品
  6
CONTINUOUS
 62
     0
100
AcDbLine
 10
540.95
 20
400
 11
540.95
 21
390.7
  0
LINE
  5
44B
100
AcDbEntity
  8
_0-3_躯体と製品
  6
CONTINUOUS
 62
     0
100
AcDbLine
 10
549.75
 20
390
 11
549.05
 21
390.7
  0
LINE
  5
44C
100
AcDbEntity
  8
_0-3_躯体と製品
  6
CONTINUOUS
 62
     0
100
AcDbLine
 10
549.75
 20
371.371826
 11
549.75
 21
390
  0
LINE
  5
44D
100
AcDbEntity
  8
_0-3_躯体と製品
  6
CONTINUOUS
 62
     0
100
AcDbLine
 10
549.5
 20
359.5
 11
549.5
 21
360.363304
  0
LINE
  5
44E
100
AcDbEntity
  8
_0-3_躯体と製品
  6
CONTINUOUS
 62
     0
100
AcDbLine
 10
551.62503
 20
360.738004
 11
549.75
 21
371.371826
  0
LINE
  5
44F
100
AcDbEntity
  8
_0-3_躯体と製品
  6
CONTINUOUS
 62
     0
100
AcDbLine
 10
545.5
 20
371
 11
544.5
 21
371
  0
LINE
  5
450
100
AcDbEntity
  8
_0-3_躯体と製品
  6
CONTINUOUS
 62
     0
100
AcDbLine
 10
540.25
 20
390
 11
540.95
 21
390.7
  0
LINE
  5
451
100
AcDbEntity
  8
_0-3_躯体と製品
  6
CONTINUOUS
 62
     0
100
AcDbLine
 10
540.25
 20
371.371826
 11
540.25
 21
390
  0
LINE
  5
452
100
AcDbEntity
  8
_0-3_躯体と製品
  6
CONTINUOUS
 62
     0
100
AcDbLine
 10
541.5
 20
358.5
 11
548.5
 21
358.5
  0
ARC
  5
453
100
AcDbEntity
  8
_0-3_躯体と製品
  6
CONTINUOUS
 62
     0
100
AcDbCircle
 10
541.5
 20
359.5
 40
1
100
AcDbArc
 50
180
 51
270
  0
LINE
  5
454
100
AcDbEntity
  8
_0-3_躯体と製品
  6
CONTINUOUS
 62
     0
100
AcDbLine
 10
540.5
 20
359.5
 11
540.5
 21
360.363304
  0
LINE
  5
455
100
AcDbEntity
  8
_0-3_躯体と製品
  6
CONTINUOUS
 62
     0
100
AcDbLine
 10
538.37497
 20
360.738004
 11
542.560403
 21
360
  0
LINE
  5
456
100
AcDbEntity
  8
_0-3_躯体と製品
  6
CONTINUOUS
 62
     0
100
AcDbLine
 10
545.5
 20
371
 11
547.439597
 21
360
  0
LINE
  5
457
100
AcDbEntity
  8
_0-3_躯体と製品
  6
CONTINUOUS
 62
     0
100
AcDbLine
 10
544.5
 20
371
 11
542.560403
 21
360
  0
LINE
  5
458
100
AcDbEntity
  8
_0-3_躯体と製品
  6
CONTINUOUS
 62
     0
100
AcDbLine
 10
538.37497
 20
360.738004
 11
540.25
 21
371.371826
  0
LINE
  5
459
100
AcDbEntity
  8
_0-3_躯体と製品
  6
CONTINUOUS
 62
     0
100
AcDbLine
 10
549.75
 20
390
 11
540.25
 21
390
  0
LINE
  5
45A
100
AcDbEntity
  8
_0-3_躯体と製品
  6
CONTINUOUS
 62
     0
100
AcDbLine
 10
549.05
 20
390.7
 11
540.95
 21
390.7
  0
LINE
  5
45B
100
AcDbEntity
  8
_0-3_躯体と製品
  6
CONTINUOUS
 62
     0
100
AcDbLine
 10
551.62503
 20
360.738004
 11
547.439597
 21
360
  0
ARC
  5
45C
100
AcDbEntity
  8
_0-3_躯体と製品
  6
CONTINUOUS
 62
     0
100
AcDbCircle
 10
548.5
 20
359.5
 40
1
100
AcDbArc
 50
-90
 51
0
  0
LINE
  5
45D
100
AcDbEntity
  8
_0-3_躯体と製品
  6
CONTINUOUS
 62
     0
100
AcDbLine
 10
527
 20
400
 11
528.5
 21
400
  0
LINE
  5
45E
100
AcDbEntity
  8
_0-3_躯体と製品
  6
CONTINUOUS
 62
     0
100
AcDbLine
 10
528.5
 20
400
 11
528.5
 21
400.5
  0
LINE
  5
45F
100
AcDbEntity
  8
_0-3_躯体と製品
  6
CONTINUOUS
 62
     0
100
AcDbLine
 10
528.5
 20
400.5
 11
540
 21
400.5
  0
LINE
  5
460
100
AcDbEntity
  8
_0-3_躯体と製品
  6
CONTINUOUS
 62
     0
100
AcDbLine
 10
540
 20
400.5
 11
540
 21
400
  0
ARC
  5
461
100
AcDbEntity
  8
_0-3_躯体と製品
  6
CONTINUOUS
 62
     0
100
AcDbCircle
 10
531.75
 20
409.25
 40
0.75
100
AcDbArc
 50
-90
 51
90
  0
ARC
  5
462
100
AcDbEntity
  8
_0-3_躯体と製品
  6
CONTINUOUS
 62
     0
100
AcDbCircle
 10
530.75
 20
405.25
 40
0.75
100
AcDbArc
 50
-90
 51
90
  0
ARC
  5
463
100
AcDbEntity
  8
_0-3_躯体と製品
  6
CONTINUOUS
 62
     0
100
AcDbCircle
 10
528.8
 20
408.2
 40
0.3
100
AcDbArc
 50
90
 51
180
  0
LINE
  5
464
100
AcDbEntity
  8
_0-3_躯体と製品
  6
CONTINUOUS
 62
     0
100
AcDbLine
 10
528.8
 20
408.5
 11
531.75
 21
408.5
  0
LINE
  5
465
100
AcDbEntity
  8
_0-3_躯体と製品
  6
CONTINUOUS
 62
     0
100
AcDbLine
 10
528.8
 20
406
 11
530.75
 21
406
  0
ARC
  5
466
100
AcDbEntity
  8
_0-3_躯体と製品
  6
CONTINUOUS
 62
     0
100
AcDbCircle
 10
528.8
 20
406.3
 40
0.3
100
AcDbArc
 50
180
 51
270
  0
LINE
  5
467
100
AcDbEntity
  8
_0-3_躯体と製品
  6
CONTINUOUS
 62
     0
100
AcDbLine
 10
528.5
 20
406.3
 11
528.5
 21
408.2
  0
ARC
  5
468
100
AcDbEntity
  8
_0-3_躯体と製品
  6
CONTINUOUS
 62
     0
100
AcDbCircle
 10
528.8
 20
404.2
 40
0.3
100
AcDbArc
 50
90
 51
180
  0
LINE
  5
469
100
AcDbEntity
  8
_0-3_躯体と製品
  6
CONTINUOUS
 62
     0
100
AcDbLine
 10
528.8
 20
404.5
 11
530.75
 21
404.5
  0
ARC
  5
46A
100
AcDbEntity
  8
_0-3_躯体と製品
  6
CONTINUOUS
 62
     0
100
AcDbCircle
 10
528.8
 20
402.8
 40
0.3
100
AcDbArc
 50
180
 51
270
  0
LINE
  5
46B
100
AcDbEntity
  8
_0-3_躯体と製品
  6
CONTINUOUS
 62
     0
100
AcDbLine
 10
528.5
 20
402.8
 11
528.5
 21
404.2
  0
LINE
  5
46C
100
AcDbEntity
  8
_0-3_躯体と製品
  6
CONTINUOUS
 62
     0
100
AcDbLine
 10
527.5
 20
410
 11
531.75
 21
410
  0
ARC
  5
46D
100
AcDbEntity
  8
_0-3_躯体と製品
  6
CONTINUOUS
 62
     0
100
AcDbCircle
 10
527.5
 20
409.5
 40
0.5
100
AcDbArc
 50
90
 51
180
  0
LINE
  5
46E
100
AcDbEntity
  8
_0-3_躯体と製品
  6
CONTINUOUS
 62
     0
100
AcDbLine
 10
527
 20
409.5
 11
527
 21
400
  0
LINE
  5
46F
100
AcDbEntity
  8
_0-3_躯体と製品
  6
CONTINUOUS
 62
     0
100
AcDbLine
 10
540
 20
400
 11
550
 21
400
  0
LINE
  5
470
100
AcDbEntity
  8
_0-3_躯体と製品
  6
CONTINUOUS
 62
     0
100
AcDbLine
 10
545.5
 20
402.5
 11
561.2
 21
402.5
  0
LINE
  5
471
100
AcDbEntity
  8
_0-3_躯体と製品
  6
CONTINUOUS
 62
     0
100
AcDbLine
 10
528.8
 20
402.5
 11
544.5
 21
402.5
  0
LINE
  5
472
100
AcDbEntity
  8
_0-3_躯体と製品
  6
CONTINUOUS
 62
     0
100
AcDbLine
 10
550
 20
400
 11
550
 21
400.5
  0
LINE
  5
473
100
AcDbEntity
  8
_0-3_躯体と製品
  6
CONTINUOUS
 62
     0
100
AcDbLine
 10
545
 20
402
 11
545.5
 21
402.5
  0
ARC
  5
474
100
AcDbEntity
  8
_0-3_躯体と製品
  6
CONTINUOUS
 62
     0
100
AcDbCircle
 10
561.2
 20
402.8
 40
0.3
100
AcDbArc
 50
-90
 51
0
  0
LINE
  5
475
100
AcDbEntity
  8
_0-3_躯体と製品
  6
CONTINUOUS
 62
     0
100
AcDbLine
 10
561
 20
410
 11
558.25
 21
410
  0
ARC
  5
476
100
AcDbEntity
  8
_0-3_躯体と製品
  6
CONTINUOUS
 62
     0
100
AcDbCircle
 10
561
 20
410.5
 40
0.5
100
AcDbArc
 50
-90
 51
0
  0
ARC
  5
477
100
AcDbEntity
  8
_0-3_躯体と製品
  6
CONTINUOUS
 62
     0
100
AcDbCircle
 10
558.25
 20
409.25
 40
0.75
100
AcDbArc
 50
90
 51
270
  0
ARC
  5
478
100
AcDbEntity
  8
_0-3_躯体と製品
  6
CONTINUOUS
 62
     0
100
AcDbCircle
 10
559.25
 20
405.25
 40
0.75
100
AcDbArc
 50
90
 51
270
  0
LINE
  5
479
100
AcDbEntity
  8
_0-3_躯体と製品
  6
CONTINUOUS
 62
     0
100
AcDbLine
 10
561.2
 20
404.5
 11
559.25
 21
404.5
  0
ARC
  5
47A
100
AcDbEntity
  8
_0-3_躯体と製品
  6
CONTINUOUS
 62
     0
100
AcDbCircle
 10
561.2
 20
404.2
 40
0.3
100
AcDbArc
 50
0
 51
90
  0
LINE
  5
47B
100
AcDbEntity
  8
_0-3_躯体と製品
  6
CONTINUOUS
 62
     0
100
AcDbLine
 10
561.5
 20
404.2
 11
561.5
 21
402.8
  0
LINE
  5
47C
100
AcDbEntity
  8
_0-3_躯体と製品
  6
CONTINUOUS
 62
     0
100
AcDbLine
 10
561.2
 20
406
 11
559.25
 21
406
  0
ARC
  5
47D
100
AcDbEntity
  8
_0-3_躯体と製品
  6
CONTINUOUS
 62
     0
100
AcDbCircle
 10
561.2
 20
406.3
 40
0.3
100
AcDbArc
 50
-90
 51
0
  0
LINE
  5
47E
100
AcDbEntity
  8
_0-3_躯体と製品
  6
CONTINUOUS
 62
     0
100
AcDbLine
 10
561.5
 20
408.2
 11
561.5
 21
406.3
  0
ARC
  5
47F
100
AcDbEntity
  8
_0-3_躯体と製品
  6
CONTINUOUS
 62
     0
100
AcDbCircle
 10
561.2
 20
408.2
 40
0.3
100
AcDbArc
 50
0
 51
90
  0
LINE
  5
480
100
AcDbEntity
  8
_0-3_躯体と製品
  6
CONTINUOUS
 62
     0
100
AcDbLine
 10
561.2
 20
408.5
 11
558.25
 21
408.5
  0
LINE
  5
481
100
AcDbEntity
  8
_0-3_躯体と製品
  6
CONTINUOUS
 62
     0
100
AcDbLine
 10
545
 20
402
 11
544.5
 21
402.5
  0
LINE
  5
482
100
AcDbEntity
  8
_0-3_躯体と製品
  6
CONTINUOUS
 62
     0
100
AcDbLine
 10
548.7780303038
 20
443.5531721399
 11
547.5324345452
 21
419.7857892128
  0
LINE
  5
483
100
AcDbEntity
  8
_0-3_躯体と製品
  6
CONTINUOUS
 62
     0
100
AcDbLine
 10
549.3457511943
 20
443.5234191488
 11
548.1001554357
 21
419.7560362216
  0
LINE
  5
484
100
AcDbEntity
  8
_0-3_躯体と製品
  6
CONTINUOUS
 62
     0
100
AcDbLine
 10
543.3539739857
 20
443.8374348863
 11
542.1083782272
 21
420.0700519591
  0
LINE
  5
485
100
AcDbEntity
  8
_0-3_躯体と製品
  6
CONTINUOUS
 62
     0
100
AcDbLine
 10
543.9216948763
 20
443.8076818951
 11
542.6760991177
 21
420.040298968
  0
ARC
  5
486
100
AcDbEntity
  8
_0-3_躯体と製品
  6
CONTINUOUS
 62
     0
100
AcDbCircle
 10
556.9136348158
 20
441.3243329515
 40
1
100
AcDbArc
 50
37.62684736228
 51
87
  0
LINE
  5
487
100
AcDbEntity
  8
_0-3_躯体と製品
  6
CONTINUOUS
 62
     0
100
AcDbLine
 10
535.691885643
 20
444.238987921
 11
557.0078395371
 21
443.1218661141
  0
ARC
  5
488
100
AcDbEntity
  8
_0-3_躯体と製品
  6
CONTINUOUS
 62
     0
100
AcDbCircle
 10
535.5976809217
 20
442.4414547584
 40
1.8
100
AcDbArc
 50
87
 51
136.3731526377
  0
LINE
  5
489
100
AcDbEntity
  8
_0-3_躯体と製品
  6
CONTINUOUS
 62
     0
100
AcDbLine
 10
535.650016878
 20
443.4400842932
 11
556.9659707721
 21
442.3229624863
  0
LINE
  5
48A
100
AcDbEntity
  8
_0-3_躯体と製品
  6
CONTINUOUS
 62
     0
100
AcDbLine
 10
534.8738322782
 20
443.1314135552
 11
521.9438811844
 21
429.5663606786
  0
ARC
  5
48B
100
AcDbEntity
  8
_0-3_躯体と製品
  6
CONTINUOUS
 62
     0
100
AcDbCircle
 10
535.5976809217
 20
442.4414547584
 40
1
100
AcDbArc
 50
87
 51
136.3731526377
  0
LINE
  5
48C
100
AcDbEntity
  8
_0-3_躯体と製品
  6
CONTINUOUS
 62
     0
100
AcDbLine
 10
517.3837980268
 20
432.0853680842
 11
518.017400953
 21
432.5737811593
  0
LINE
  5
48D
100
AcDbEntity
  8
_0-3_躯体と製品
  6
CONTINUOUS
 62
     0
100
AcDbLine
 10
517.3837980268
 20
432.0853680842
 11
519.2153470732
 21
429.7093570921
  0
ARC
  5
48E
100
AcDbEntity
  8
_0-3_躯体と製品
  6
CONTINUOUS
 62
     0
100
AcDbCircle
 10
520.6409536425
 20
430.8082865301
 40
1
100
AcDbArc
 50
-142.3731512671
 51
-43.62684736228
  0
ARC
  5
48F
100
AcDbEntity
  8
_0-3_躯体と製品
  6
CONTINUOUS
 62
     0
100
AcDbCircle
 10
520.6409536425
 20
430.8082865301
 40
1.8
100
AcDbArc
 50
-142.3731518763
 51
-43.62684736228
  0
LINE
  5
490
100
AcDbEntity
  8
_0-3_躯体と製品
  6
CONTINUOUS
 62
     0
100
AcDbLine
 10
573.3661554141
 20
429.6730758519
 11
571.2962790073
 21
427.5015299039
  0
LINE
  5
491
100
AcDbEntity
  8
_0-3_躯体と製品
  6
CONTINUOUS
 62
     0
100
AcDbLine
 10
573.9452343289
 20
429.1211088145
 11
573.3661554141
 21
429.6730758519
  0
LINE
  5
492
100
AcDbEntity
  8
_0-3_躯体と製品
  6
CONTINUOUS
 62
     0
100
AcDbLine
 10
573.9452343289
 20
429.1211088145
 11
571.8753579221
 21
426.9495628665
  0
ARC
  5
493
100
AcDbEntity
  8
_0-3_躯体と製品
  6
CONTINUOUS
 62
     0
100
AcDbCircle
 10
570.5724303802
 20
428.1914887179
 40
1
100
AcDbArc
 50
-142.3731526377
 51
-43.62684873287
  0
ARC
  5
494
100
AcDbEntity
  8
_0-3_躯体と製品
  6
CONTINUOUS
 62
     0
100
AcDbCircle
 10
570.5724303802
 20
428.1914887179
 40
1.8
100
AcDbArc
 50
-142.3731526377
 51
-43.62684812372
  0
LINE
  5
495
100
AcDbEntity
  8
_0-3_躯体と製品
  6
CONTINUOUS
 62
     0
100
AcDbLine
 10
558.3392413997
 20
442.4232623706
 11
569.7804267371
 21
427.5809723551
  0
LINE
  5
496
100
AcDbEntity
  8
_0-3_躯体と製品
  6
CONTINUOUS
 62
     0
100
AcDbLine
 10
557.7056384735
 20
441.9348492954
 11
569.146823811
 21
427.0925592799
  0
ARC
  5
497
100
AcDbEntity
  8
_0-3_躯体と製品
  6
CONTINUOUS
 62
     0
100
AcDbCircle
 10
556.9136348158
 20
441.3243329515
 40
1.8
100
AcDbArc
 50
37.62684736228
 51
87
  0
LINE
  5
498
100
AcDbEntity
  8
_0-3_躯体と製品
  6
CONTINUOUS
 62
     0
100
AcDbLine
 10
518.017400953
 20
432.5737811593
 11
519.8489499994
 21
430.1977701672
  0
LINE
  5
499
100
AcDbEntity
  8
_0-3_躯体と製品
  6
CONTINUOUS
 62
     0
100
AcDbLine
 10
534.2947533633
 20
443.6833805926
 11
521.3648022861
 21
430.1183277333
  0
ARC
  5
49A
100
AcDbEntity
  8
_0-3_躯体と製品
  6
CONTINUOUS
 62
     0
100
AcDbCircle
 10
545.1659338423
 20
446.884606277
 40
0.6
100
AcDbArc
 50
-3
 51
100.700233
  0
ARC
  5
49B
100
AcDbEntity
  8
_0-3_躯体と製品
  6
CONTINUOUS
 62
     0
100
AcDbCircle
 10
547.8622335862
 20
446.7432991951
 40
0.6
100
AcDbArc
 50
73.299767
 51
177
  0
LINE
  5
49C
100
AcDbEntity
  8
_0-3_躯体と製品
  6
CONTINUOUS
 62
     0
100
AcDbLine
 10
547.2610019407
 20
446.7355095528
 11
545.7630576386
 21
446.8140134871
  0
ARC
  5
49D
100
AcDbEntity
  8
_0-3_躯体と製品
  6
CONTINUOUS
 62
     0
100
AcDbCircle
 10
544.5366318948
 20
443.580328999
 40
3.45
100
AcDbArc
 50
126.309124
 51
173.762163
  0
ARC
  5
49E
100
AcDbEntity
  8
_0-3_躯体と製品
  6
CONTINUOUS
 62
     0
100
AcDbCircle
 10
548.1479679001
 20
443.386557719
 40
3.45
100
AcDbArc
 50
0.3127429999999
 51
47.820489
  0
ARC
  5
49F
100
AcDbEntity
  8
_0-3_躯体と製品
  6
CONTINUOUS
 62
     0
100
AcDbCircle
 10
546.2242563474
 20
441.2837171327
 40
6.3
100
AcDbArc
 50
47.696869
 51
126.309371
  0
LINE
  5
4A0
100
AcDbEntity
  8
_0-3_躯体と製品
  6
CONTINUOUS
 62
     0
100
AcDbLine
 10
547.5437457169
 20
409.1391063229
 11
541.5519685084
 21
409.4531220603
  0
LINE
  5
4A1
100
AcDbEntity
  8
_0-3_躯体と製品
  6
CONTINUOUS
 62
     0
100
AcDbLine
 10
542.1083782272
 20
420.0700519591
 11
542.0041113957
 21
418.0805222966
  0
LINE
  5
4A2
100
AcDbEntity
  8
_0-3_躯体と製品
  6
CONTINUOUS
 62
     0
100
AcDbLine
 10
541.8157019533
 20
414.4854559715
 11
541.5519685084
 21
409.4531220603
  0
LINE
  5
4A3
100
AcDbEntity
  8
_0-3_躯体と製品
  6
CONTINUOUS
 62
     0
100
AcDbLine
 10
548.1001554357
 20
419.7560362216
 11
547.9958886043
 21
417.7665065592
  0
LINE
  5
4A4
100
AcDbEntity
  8
_0-3_躯体と製品
  6
CONTINUOUS
 62
     0
100
AcDbLine
 10
547.8074791618
 20
414.171440234
 11
547.5437457169
 21
409.1391063229
  0
LINE
  5
4A5
100
AcDbEntity
  8
_0-3_躯体と製品
  6
CONTINUOUS
 62
     0
100
AcDbLine
 10
542.6760991177
 20
420.040298968
 11
542.5718322862
 21
418.0507693055
  0
LINE
  5
4A6
100
AcDbEntity
  8
_0-3_躯体と製品
  6
CONTINUOUS
 62
     0
100
AcDbLine
 10
547.5324345452
 20
419.7857892128
 11
547.4281677138
 21
417.7962595503
  0
CIRCLE
  5
4A7
100
AcDbEntity
  8
_0-3_躯体と製品
  6
CONTINUOUS
 62
     0
100
AcDbCircle
 10
545
 20
417.9235144279
 40
1.4
  0
LINE
  5
4A8
100
AcDbEntity
  8
_0-3_躯体と製品
  6
CONTINUOUS
 62
     0
100
AcDbLine
 10
658.1321877738
 20
370.1368256398
 11
658.1321877738
 21
369.6368256398
  0
LINE
  5
4A9
100
AcDbEntity
  8
_0-3_躯体と製品
  6
CONTINUOUS
 62
     0
100
AcDbLine
 10
340.2949362496
 20
428.300549581
 11
340.2007315283
 21
430.0980827436
  0
LINE
  5
4AA
100
AcDbEntity
  8
_0-3_躯体と製品
  6
CONTINUOUS
 62
     0
100
AcDbLine
 10
240.4319827741
 20
423.0669539568
 11
240.3377780529
 21
424.8644871193
  0
LINE
  5
4AB
100
AcDbEntity
  8
_0-3_躯体と製品
  6
CONTINUOUS
 62
     0
100
AcDbLine
 10
499.7050637504
 20
428.300549581
 11
499.7992684717
 21
430.0980827436
  0
LINE
  5
4AC
100
AcDbEntity
  8
_0-3_躯体と製品
  6
CONTINUOUS
 62
     0
100
AcDbLine
 10
599.5680172259
 20
423.0669539568
 11
599.6622219471
 21
424.8644871193
  0
LINE
  5
4AD
100
AcDbEntity
  8
_0-3_躯体と製品
  6
CONTINUOUS
 62
     0
100
AcDbLine
 10
170
 20
442.2899319396
 11
170
 21
358.1368256398
  0
LINE
  5
4AE
100
AcDbEntity
  8
_0-3_躯体と製品
  6
CONTINUOUS
 62
     0
100
AcDbLine
 10
173
 20
355.1368256398
 11
180
 21
355.1368256398
  0
LINE
  5
4AF
100
AcDbEntity
  8
_0-4_図枠
  6
CONTINUOUS
 62
     0
100
AcDbLine
 10
832
 20
582
 11
8
 21
582
  0
LINE
  5
4B0
100
AcDbEntity
  8
_0-4_図枠
  6
CONTINUOUS
 62
     0
100
AcDbLine
 10
8
 20
582
 11
8
 21
6
  0
LINE
  5
4B1
100
AcDbEntity
  8
_0-4_図枠
  6
CONTINUOUS
 62
     0
100
AcDbLine
 10
832
 20
6
 11
832
 21
582
  0
TEXT
  5
4B2
100
AcDbEntity
  8
_0-4_図枠
  6
CONTINUOUS
 62
     0
100
AcDbText
 10
331.5
 20
460.6095202618
 40
5
  1
勾配３度
  7
STANDARD
100
AcDbText
  0
LINE
  5
4B3
100
AcDbEntity
  8
_0-2_寸法
  6
CONTINUOUS
 62
     0
100
AcDbLine
 10
245
 20
338
 11
295
 21
338
  0
LINE
  5
4B4
100
AcDbEntity
  8
_0-2_寸法
  6
CONTINUOUS
 62
     0
100
AcDbLine
 10
545
 20
338
 11
595
 21
338
  0
LINE
  5
4B5
100
AcDbEntity
  8
_0-3_躯体と製品
  6
CONTINUOUS
 62
     0
100
AcDbLine
 10
545
 20
399
 11
545
 21
400
  0
ARC
  5
4B6
100
AcDbEntity
  8
_0-3_躯体と製品
  6
CONTINUOUS
 62
     0
100
AcDbCircle
 10
560
 20
390.75
 40
8.25
100
AcDbArc
 50
71.07535558395
 51
90
  0
ARC
  5
4B7
100
AcDbEntity
  8
_0-3_躯体と製品
  6
CONTINUOUS
 62
     0
100
AcDbCircle
 10
566
 20
408.25
 40
10.25
100
AcDbArc
 50
-108.9246444161
 51
-90
  0
ARC
  5
4B8
100
AcDbEntity
  8
_0-3_躯体と製品
  6
CONTINUOUS
 62
     0
100
AcDbCircle
 10
530
 20
390.75
 40
8.25
100
AcDbArc
 50
90
 51
108.9246444161
  0
ARC
  5
4B9
100
AcDbEntity
  8
_0-3_躯体と製品
  6
CONTINUOUS
 62
     0
100
AcDbCircle
 10
524
 20
408.25
 40
10.25
100
AcDbArc
 50
-90
 51
-71.07535558395
  0
ARC
  5
4BA
100
AcDbEntity
  8
_0-3_躯体と製品
  6
CONTINUOUS
 62
     0
100
AcDbCircle
 10
530
 20
390.75
 40
9.25
100
AcDbArc
 50
90
 51
108.9246444161
  0
LINE
  5
4BB
100
AcDbEntity
  8
_0-3_躯体と製品
  6
CONTINUOUS
 62
     0
100
AcDbLine
 10
560
 20
400
 11
530
 21
400
  0
ARC
  5
4BC
100
AcDbEntity
  8
_0-3_躯体と製品
  6
CONTINUOUS
 62
     0
100
AcDbCircle
 10
560
 20
390.75
 40
9.25
100
AcDbArc
 50
71.07535558395
 51
90
  0
ARC
  5
4BD
100
AcDbEntity
  8
_0-3_躯体と製品
  6
CONTINUOUS
 62
     0
100
AcDbCircle
 10
566
 20
408.25
 40
9.25
100
AcDbArc
 50
-108.9246444161
 51
-90
  0
ARC
  5
4BE
100
AcDbEntity
  8
_0-3_躯体と製品
  6
CONTINUOUS
 62
     0
100
AcDbCircle
 10
524
 20
408.25
 40
9.25
100
AcDbArc
 50
-90
 51
-71.07535558395
  0
ARC
  5
4BF
100
AcDbEntity
  8
_0-3_躯体と製品
  6
CONTINUOUS
 62
     0
100
AcDbCircle
 10
310
 20
390.75
 40
8.25
100
AcDbArc
 50
71.07535558395
 51
90
  0
ARC
  5
4C0
100
AcDbEntity
  8
_0-3_躯体と製品
  6
CONTINUOUS
 62
     0
100
AcDbCircle
 10
316
 20
408.25
 40
10.25
100
AcDbArc
 50
-108.9246444161
 51
-90
  0
ARC
  5
4C1
100
AcDbEntity
  8
_0-3_躯体と製品
  6
CONTINUOUS
 62
     0
100
AcDbCircle
 10
280
 20
390.75
 40
8.25
100
AcDbArc
 50
90
 51
108.9246444161
  0
ARC
  5
4C2
100
AcDbEntity
  8
_0-3_躯体と製品
  6
CONTINUOUS
 62
     0
100
AcDbCircle
 10
274
 20
408.25
 40
10.25
100
AcDbArc
 50
-90
 51
-71.07535558395
  0
ARC
  5
4C3
100
AcDbEntity
  8
_0-3_躯体と製品
  6
CONTINUOUS
 62
     0
100
AcDbCircle
 10
316
 20
408.25
 40
9.25
100
AcDbArc
 50
-108.9246444161
 51
-90
  0
ARC
  5
4C4
100
AcDbEntity
  8
_0-3_躯体と製品
  6
CONTINUOUS
 62
     0
100
AcDbCircle
 10
274
 20
408.25
 40
9.25
100
AcDbArc
 50
-90
 51
-71.07535558395
  0
LINE
  5
4C5
100
AcDbEntity
  8
_0-4_図枠
  6
CONTINUOUS
 62
     0
100
AcDbLine
 10
370
 20
460.6252432264
 11
320
 21
460.6252432264
  0
LINE
  5
4C6
100
AcDbEntity
  8
_0-4_図枠
  6
CONTINUOUS
 62
     0
100
AcDbLine
 10
370
 20
460.6252432264
 11
320
 21
458.0048542622
  0
LINE
  5
4C7
100
AcDbEntity
  8
_0-4_図枠
  6
CONTINUOUS
 62
     0
100
AcDbLine
 10
320
 20
458.0048542622
 11
320
 21
460.6252432264
  0
LINE
  5
4C8
100
AcDbEntity
  8
_0-3_躯体と製品
  6
CONTINUOUS
 62
     0
100
AcDbLine
 10
293.2753601383
 20
450.8316033668
 11
295.6280314749
 21
405.9399600108
  0
LINE
  5
4C9
100
AcDbEntity
  8
_0-3_躯体と製品
  6
CONTINUOUS
 62
     0
100
AcDbLine
 10
295
 20
422.9235144279
 11
295
 21
338
  0
LINE
  5
4CA
100
AcDbEntity
  8
_0-3_躯体と製品
  6
CONTINUOUS
 62
     0
100
AcDbLine
 10
546.7246398617
 20
450.8316033668
 11
544.3719685251
 21
405.9399600108
  0
LINE
  5
4CB
100
AcDbEntity
  8
_0-2_寸法
  6
CONTINUOUS
 62
     0
100
AcDbLine
 10
545
 20
422.9235144279
 11
545
 21
338
  0
LINE
  5
4CC
100
AcDbEntity
  8
_0-3_躯体と製品
  6
CONTINUOUS
 62
     0
100
AcDbLine
 10
536
 20
404
 11
554
 21
404
  0
LINE
  5
4CD
100
AcDbEntity
  8
_0-3_躯体と製品
  6
CONTINUOUS
 62
     0
100
AcDbLine
 10
554
 20
404
 11
554
 21
402.5
  0
LINE
  5
4CE
100
AcDbEntity
  8
_0-3_躯体と製品
  6
CONTINUOUS
 62
     0
100
AcDbLine
 10
536
 20
404
 11
536
 21
402.5
  0
ARC
  5
4CF
100
AcDbEntity
  8
_0-3_躯体と製品
  6
CONTINUOUS
 62
     0
100
AcDbCircle
 10
545
 20
399.3888469604
 40
9.553418012636
100
AcDbArc
 50
72.41204622605
 51
107.587953774
  0
ARC
  5
4D0
100
AcDbEntity
  8
_0-3_躯体と製品
  6
CONTINUOUS
 62
     0
100
AcDbCircle
 10
540.6698729811
 20
406.3864422247
 40
2.555822748428
100
AcDbArc
 50
55.61575253203
 51
124.384247468
  0
ARC
  5
4D1
100
AcDbEntity
  8
_0-3_躯体と製品
  6
CONTINUOUS
 62
     0
100
AcDbCircle
 10
549.3301270189
 20
406.3864422247
 40
2.555822748428
100
AcDbArc
 50
55.61575253204
 51
124.384247468
  0
LINE
  5
4D2
100
AcDbEntity
  8
_0-3_躯体と製品
  6
CONTINUOUS
 62
     0
100
AcDbLine
 10
539.2264973081
 20
408.4956829857
 11
539.2264973081
 21
404
  0
LINE
  5
4D3
100
AcDbEntity
  8
_0-3_躯体と製品
  6
CONTINUOUS
 62
     0
100
AcDbLine
 10
540.1
 20
409
 11
539.2264973081
 21
408.4956829857
  0
LINE
  5
4D4
100
AcDbEntity
  8
_0-3_躯体と製品
  6
CONTINUOUS
 62
     0
100
AcDbLine
 10
540.1
 20
409
 11
549.9
 21
409
  0
LINE
  5
4D5
100
AcDbEntity
  8
_0-3_躯体と製品
  6
CONTINUOUS
 62
     0
100
AcDbLine
 10
549.9
 20
409
 11
550.7735026919
 21
408.4956829857
  0
LINE
  5
4D6
100
AcDbEntity
  8
_0-3_躯体と製品
  6
CONTINUOUS
 62
     0
100
AcDbLine
 10
542.1132486541
 20
408.4956829857
 11
542.1132486541
 21
404
  0
LINE
  5
4D7
100
AcDbEntity
  8
_0-3_躯体と製品
  6
CONTINUOUS
 62
     0
100
AcDbLine
 10
547.8867513459
 20
408.4956829857
 11
547.8867513459
 21
404
  0
LINE
  5
4D8
100
AcDbEntity
  8
_0-3_躯体と製品
  6
CONTINUOUS
 62
     0
100
AcDbLine
 10
550.7735026919
 20
408.4956829857
 11
550.7735026919
 21
404
  0
CIRCLE
  5
4D9
100
AcDbEntity
  8
_0-4_図枠
  6
CONTINUOUS
 62
     0
100
AcDbCircle
 10
594.9733407388
 20
431.5981941001
 40
0.9
  0
CIRCLE
  5
4DA
100
AcDbEntity
  8
_0-4_図枠
  6
CONTINUOUS
 62
     0
100
AcDbCircle
 10
547.0544450374
 20
433.4631696873
 40
0.9
  0
CIRCLE
  5
4DB
100
AcDbEntity
  8
_0-4_図枠
  6
CONTINUOUS
 62
     0
100
AcDbCircle
 10
542.873989024
 20
372.9173386019
 40
0.9
  0
CIRCLE
  5
4DC
100
AcDbEntity
  8
_0-4_図枠
  6
CONTINUOUS
 62
     0
100
AcDbCircle
 10
562.6038290284
 20
436.1854223307
 40
0.9
  0
CIRCLE
  5
4DD
100
AcDbEntity
  8
_0-4_図枠
  6
CONTINUOUS
 62
     0
100
AcDbCircle
 10
549.3374108287
 20
406.1005721473
 40
0.9
  0
CIRCLE
  5
4DE
100
AcDbEntity
  8
_0-4_図枠
  6
CONTINUOUS
 62
     0
100
AcDbCircle
 10
555.1774827281
 20
413.4886149116
 40
0.9
  0
CIRCLE
  5
4DF
100
AcDbEntity
  8
_0-4_図枠
  6
CONTINUOUS
 62
     0
100
AcDbCircle
 10
611.8986558504
 20
460.9136998075
 40
6
  0
LINE
  5
4E0
100
AcDbEntity
  8
_0-4_図枠
  6
CONTINUOUS
 62
     0
100
AcDbLine
 10
594.9733407388
 20
431.5981941001
 11
608.8986558504
 21
455.7175473848
  0
CIRCLE
  5
4E1
100
AcDbEntity
  8
_0-4_図枠
  6
CONTINUOUS
 62
     0
100
AcDbCircle
 10
562.5216915842
 20
411.751336986
 40
0.9
  0
CIRCLE
  5
4E2
100
AcDbEntity
  8
_0-4_図枠
  6
CONTINUOUS
 62
     0
100
AcDbCircle
 10
590.3347458396
 20
459.9249600701
 40
6
  0
LINE
  5
4E3
100
AcDbEntity
  8
_0-4_図枠
  6
CONTINUOUS
 62
     0
100
AcDbLine
 10
562.5216915842
 20
411.751336986
 11
587.3347458396
 21
454.7288076474
  0
CIRCLE
  5
4E4
100
AcDbEntity
  8
_0-4_図枠
  6
CONTINUOUS
 62
     0
100
AcDbCircle
 10
583.8909188008
 20
473.0557433617
 40
6
  0
LINE
  5
4E5
100
AcDbEntity
  8
_0-4_図枠
  6
CONTINUOUS
 62
     0
100
AcDbLine
 10
562.6038290284
 20
436.1854223307
 11
580.8909188008
 21
467.859590939
  0
CIRCLE
  5
4E6
100
AcDbEntity
  8
_0-4_図枠
  6
CONTINUOUS
 62
     0
100
AcDbCircle
 10
567.8799775765
 20
469.5340501395
 40
6
  0
LINE
  5
4E7
100
AcDbEntity
  8
_0-4_図枠
  6
CONTINUOUS
 62
     0
100
AcDbLine
 10
547.0544450374
 20
433.4631696873
 11
564.8799775765
 21
464.3378977168
  0
CIRCLE
  5
4E8
100
AcDbEntity
  8
_0-4_図枠
  6
CONTINUOUS
 62
     0
100
AcDbCircle
 10
569.9591688599
 20
387.8859835099
 40
6
  0
LINE
  5
4E9
100
AcDbEntity
  8
_0-4_図枠
  6
CONTINUOUS
 62
     0
100
AcDbLine
 10
555.1774827281
 20
413.4886149116
 11
566.9591688599
 21
393.0821359326
  0
CIRCLE
  5
4EA
100
AcDbEntity
  8
_0-4_図枠
  6
CONTINUOUS
 62
     0
100
AcDbCircle
 10
568.7597964936
 20
372.4600133715
 40
6
  0
LINE
  5
4EB
100
AcDbEntity
  8
_0-4_図枠
  6
CONTINUOUS
 62
     0
100
AcDbLine
 10
549.3374108287
 20
406.1005721473
 11
565.7597964936
 21
377.6561657942
  0
CIRCLE
  5
4EC
100
AcDbEntity
  8
_0-4_図枠
  6
CONTINUOUS
 62
     0
100
AcDbCircle
 10
529.8323748293
 20
350.3286002038
 40
6
  0
LINE
  5
4ED
100
AcDbEntity
  8
_0-4_図枠
  6
CONTINUOUS
 62
     0
100
AcDbLine
 10
542.873989024
 20
372.9173386019
 11
532.8323748293
 21
355.5247526265
  0
CIRCLE
  5
4EE
100
AcDbEntity
  8
_0-4_図枠
  6
CONTINUOUS
 62
     0
100
AcDbCircle
 10
537.878248247
 20
403.2361569326
 40
0.9
  0
CIRCLE
  5
4EF
100
AcDbEntity
  8
_0-4_図枠
  6
CONTINUOUS
 62
     0
100
AcDbCircle
 10
525.1809946151
 20
381.2438685256
 40
6
  0
LINE
  5
4F0
100
AcDbEntity
  8
_0-4_図枠
  6
CONTINUOUS
 62
     0
100
AcDbLine
 10
537.878248247
 20
403.2361569326
 11
528.1809946151
 21
386.4400209483
  0
TEXT
  5
4F1
100
AcDbEntity
  8
_0-4_図枠
  6
CONTINUOUS
 62
     0
100
AcDbText
 10
587.3347458396
 20
456.9249600701
 40
5
  1
２
  7
STANDARD
100
AcDbText
  0
LINE
  5
4F2
100
AcDbEntity
  8
_0-3_躯体と製品
  6
CONTINUOUS
 62
     0
100
AcDbLine
 10
541.9599614441
 20
409
 11
541.5519685084
 21
409.4531220603
  0
LINE
  5
4F3
100
AcDbEntity
  8
_0-3_躯体と製品
  6
CONTINUOUS
 62
     0
100
AcDbLine
 10
542.3834228438
 20
414.4557029804
 11
542.0975015661
 21
409
  0
LINE
  5
4F4
100
AcDbEntity
  8
_0-3_躯体と製品
  6
CONTINUOUS
 62
     0
100
AcDbLine
 10
547.2397582713
 20
414.2011932252
 11
546.9671752847
 21
409
  0
LINE
  5
4F5
100
AcDbEntity
  8
_0-3_躯体と製品
  6
CONTINUOUS
 62
     0
100
AcDbLine
 10
547.5437457169
 20
409.1391063229
 11
547.3892524938
 21
409
  0
CIRCLE
  5
4F6
100
AcDbEntity
  8
_0-4_図枠
  6
CONTINUOUS
 62
     0
100
AcDbCircle
 10
681.3458371153
 20
493.7584303422
 40
6
  0
LINE
  5
4F7
100
AcDbEntity
  8
_0-4_図枠
  6
CONTINUOUS
 62
     0
100
AcDbLine
 10
653.2093559719
 20
445.0246154556
 11
678.3458371153
 21
488.5622779195
  0
CIRCLE
  5
4F8
100
AcDbEntity
  8
_0-4_図枠
  6
CONTINUOUS
 62
     0
100
AcDbCircle
 10
653.2093559719
 20
445.0246154556
 40
0.9
  0
TEXT
  5
4F9
100
AcDbEntity
  8
_0-4_図枠
  6
CONTINUOUS
 62
     0
100
AcDbText
 10
678.3458371153
 20
490.7584303422
 40
5
  1
１
  7
STANDARD
100
AcDbText
  0
CIRCLE
  5
4FA
100
AcDbEntity
  8
_0-4_図枠
  6
CONTINUOUS
 62
     0
100
AcDbCircle
 10
651.8787300494
 20
380.0081682271
 40
0.9
  0
CIRCLE
  5
4FB
100
AcDbEntity
  8
_0-4_図枠
  6
CONTINUOUS
 62
     0
100
AcDbCircle
 10
653.422710182
 20
427.5896259022
 40
0.9
  0
LINE
  5
4FC
100
AcDbEntity
  8
_0-4_図枠
  6
CONTINUOUS
 62
     0
100
AcDbLine
 10
651.8787300494
 20
380.0081682271
 11
676.8467438657
 21
423.2540367211
  0
LINE
  5
4FD
100
AcDbEntity
  8
_0-4_図枠
  6
CONTINUOUS
 62
     0
100
AcDbLine
 10
653.422710182
 20
427.5896259022
 11
677.0591913254
 21
468.5292121547
  0
TEXT
  5
4FE
100
AcDbEntity
  8
_0-4_図枠
  6
CONTINUOUS
 62
     0
100
AcDbText
 10
676.8467438657
 20
425.4501891439
 40
5
  1
３
  7
STANDARD
100
AcDbText
  0
CIRCLE
  5
4FF
100
AcDbEntity
  8
_0-4_図枠
  6
CONTINUOUS
 62
     0
100
AcDbCircle
 10
679.8467438657
 20
428.4501891439
 40
6
  0
CIRCLE
  5
500
100
AcDbEntity
  8
_0-4_図枠
  6
CONTINUOUS
 62
     0
100
AcDbCircle
 10
680.0591913254
 20
473.7253645774
 40
6
  0
LINE
  5
501
100
AcDbEntity
  8
_0-3_躯体と製品
  6
CONTINUOUS
 62
     0
100
AcDbLine
 10
420
 20
469.5707831024
 11
420
 21
289
  0
TEXT
  5
502
100
AcDbEntity
  8
_0-4_図枠
  6
CONTINUOUS
 62
     0
100
AcDbText
 10
26.91289884807
 20
530.6515038533
 40
10
  1
　　Ｓ＝１／２
  7
STANDARD
100
AcDbText
  0
TEXT
  5
503
100
AcDbEntity
  8
_0-4_図枠
  6
CONTINUOUS
 62
     0
100
AcDbText
 10
27.92859933117
 20
545.8870110997
 40
10
  1
　　屋根－屋根
  7
STANDARD
100
AcDbText
  0
ARC
  5
504
100
AcDbEntity
  8
_0-3_躯体と製品
  6
CONTINUOUS
 62
     0
100
AcDbCircle
 10
445.0166643523
 20
397.00013886
 40
1
100
AcDbArc
 50
90.95484125387
 51
175
  0
LINE
  5
505
100
AcDbEntity
  8
_0-3_躯体と製品
  6
CONTINUOUS
 62
     0
100
AcDbLine
 10
595
 20
398
 11
445
 21
398
  0
ARC
  5
506
100
AcDbEntity
  8
_0-3_躯体と製品
  6
CONTINUOUS
 62
     0
100
AcDbCircle
 10
445.0166643523
 20
397.00013886
 40
2
100
AcDbArc
 50
90.67517081889
 51
175
  0
LINE
  5
507
100
AcDbEntity
  8
_0-3_躯体と製品
  6
CONTINUOUS
 62
     0
100
AcDbLine
 10
524
 20
399
 11
444.9930969902
 21
399
  0
LINE
  5
508
100
AcDbEntity
  8
_0-3_躯体と製品
  6
CONTINUOUS
 62
     0
100
AcDbLine
 10
395
 20
398
 11
395
 21
248
  0
ARC
  5
509
100
AcDbEntity
  8
_0-3_躯体と製品
  6
CONTINUOUS
 62
     0
100
AcDbCircle
 10
394.9833356477
 20
397.00013886
 40
1
100
AcDbArc
 50
5
 51
89.04515874613
  0
LINE
  5
50A
100
AcDbEntity
  8
_0-3_躯体と製品
  6
CONTINUOUS
 62
     0
100
AcDbLine
 10
245
 20
398
 11
395
 21
398
  0
LINE
  5
50B
100
AcDbEntity
  8
_0-3_躯体と製品
  6
CONTINUOUS
 62
     0
100
AcDbLine
 10
316
 20
399
 11
395.0069030098
 21
399
  0
ARC
  5
50C
100
AcDbEntity
  8
_0-3_躯体と製品
  6
CONTINUOUS
 62
     0
100
AcDbCircle
 10
394.9833356477
 20
397.00013886
 40
2
100
AcDbArc
 50
5
 51
89.32482918094
  0
LINE
  5
50D
100
AcDbEntity
  8
_0-2_寸法
  6
CONTINUOUS
 62
     0
100
AcDbLine
 10
446
 20
268
 11
569
 21
268
  0
CIRCLE
  5
50E
100
AcDbEntity
  8
_0-2_寸法
  6
CONTINUOUS
 62
     0
100
AcDbCircle
 10
445
 20
268
 40
1.4
  0
LINE
  5
50F
100
AcDbEntity
  8
_0-2_寸法
  6
CONTINUOUS
 62
     0
100
AcDbLine
 10
595
 20
274.8918044188
 11
595
 21
268
  0
LINE
  5
510
100
AcDbEntity
  8
_0-2_寸法
  6
CONTINUOUS
 62
     0
100
AcDbLine
 10
670
 20
353.1368256398
 11
670
 21
268
  0
LINE
  5
511
100
AcDbEntity
  8
_0-2_寸法
  6
CONTINUOUS
 62
     0
100
AcDbLine
 10
596
 20
268
 11
669
 21
268
  0
CIRCLE
  5
512
100
AcDbEntity
  8
_0-2_寸法
  6
CONTINUOUS
 62
     0
100
AcDbCircle
 10
670
 20
353.1368256398
 40
1.4
  0
CIRCLE
  5
513
100
AcDbEntity
  8
_0-2_寸法
  6
CONTINUOUS
 62
     0
100
AcDbCircle
 10
670
 20
268
 40
1.4
  0
LINE
  5
514
100
AcDbEntity
  8
_0-2_寸法
  6
CONTINUOUS
 62
     0
100
AcDbLine
 10
271
 20
268
 11
394
 21
268
  0
CIRCLE
  5
515
100
AcDbEntity
  8
_0-2_寸法
  6
CONTINUOUS
 62
     0
100
AcDbCircle
 10
395
 20
268
 40
1.4
  0
CIRCLE
  5
516
100
AcDbEntity
  8
_0-2_寸法
  6
CONTINUOUS
 62
     0
100
AcDbCircle
 10
395
 20
268
 40
1.4
  0
LINE
  5
517
100
AcDbEntity
  8
_0-2_寸法
  6
CONTINUOUS
 62
     0
100
AcDbLine
 10
170
 20
353.1368256398
 11
170
 21
268
  0
LINE
  5
518
100
AcDbEntity
  8
_0-2_寸法
  6
CONTINUOUS
 62
     0
100
AcDbLine
 10
171
 20
268
 11
244
 21
268
  0
CIRCLE
  5
519
100
AcDbEntity
  8
_0-2_寸法
  6
CONTINUOUS
 62
     0
100
AcDbCircle
 10
170
 20
353.1368256398
 40
1.4
  0
CIRCLE
  5
51A
100
AcDbEntity
  8
_0-2_寸法
  6
CONTINUOUS
 62
     0
100
AcDbCircle
 10
245
 20
268
 40
1.4
  0
CIRCLE
  5
51B
100
AcDbEntity
  8
_0-2_寸法
  6
CONTINUOUS
 62
     0
100
AcDbCircle
 10
245
 20
268
 40
1.4
  0
LINE
  5
51C
100
AcDbEntity
  8
_0-3_躯体と製品
  6
CONTINUOUS
 62
     0
100
AcDbLine
 10
439.9238939618
 20
361.7369334219
 11
443.0242749562
 21
397.1744503455
  0
LINE
  5
51D
100
AcDbEntity
  8
_0-3_躯体と製品
  6
CONTINUOUS
 62
     0
100
AcDbLine
 10
400.0761060382
 20
361.7369334219
 11
396.9757250438
 21
397.1744503455
  0
ARC
  5
51E
100
AcDbEntity
  8
_0-3_躯体と製品
  6
CONTINUOUS
 62
     0
100
AcDbCircle
 10
420
 20
363.4800482769
 40
20
100
AcDbArc
 50
-175
 51
-5
  0
ARC
  5
51F
100
AcDbEntity
  8
_0-0_
  6
CONTINUOUS
 62
     0
100
AcDbCircle
 10
420
 20
363.4800482769
 40
21
100
AcDbArc
 50
-175
 51
-5
  0
LINE
  5
520
100
AcDbEntity
  8
_0-3_躯体と製品
  6
CONTINUOUS
 62
     0
100
AcDbLine
 10
395.9795303458
 20
397.0872946027
 11
399.0799113401
 21
361.6497776792
  0
LINE
  5
521
100
AcDbEntity
  8
_0-3_躯体と製品
  6
CONTINUOUS
 62
     0
100
AcDbLine
 10
444.0204696542
 20
397.0872946027
 11
440.9200886599
 21
361.6497776792
  0
CIRCLE
  5
522
100
AcDbEntity
  8
_0-4_図枠
  6
CONTINUOUS
 62
     0
100
AcDbCircle
 10
409.5040695782
 20
347.2464154433
 40
0.9
  0
LINE
  5
523
100
AcDbEntity
  8
_0-4_図枠
  6
CONTINUOUS
 62
     0
100
AcDbLine
 10
409.5040695782
 20
347.2464154433
 11
423.3873567646
 21
371.2929742263
  0
CIRCLE
  5
524
100
AcDbEntity
  8
_0-4_図枠
  6
CONTINUOUS
 62
     0
100
AcDbCircle
 10
426.3873567646
 20
376.489126649
 40
6
  0
LINE
  5
525
100
AcDbEntity
  8
_0-0_
  6
CONTINUOUS
 62
     0
100
AcDbLine
 10
299.782105
 20
414.577963
 11
290.594713
 21
414.096472
  0
LINE
  5
526
100
AcDbEntity
  8
_0-0_
  6
CONTINUOUS
 62
     0
100
AcDbLine
 10
310
 20
398.5740224717
 11
309.5740224717
 21
399
  0
ARC
  5
527
100
AcDbEntity
  8
_0-0_
  6
CONTINUOUS
 62
     0
100
AcDbCircle
 10
310
 20
390.75
 40
8.25
100
AcDbArc
 50
71.07535558395
 51
90
  0
ARC
  5
528
100
AcDbEntity
  8
_0-0_
  6
CONTINUOUS
 62
     0
100
AcDbCircle
 10
280
 20
390.75
 40
8.25
100
AcDbArc
 50
90
 51
108.9246444161
  0
ARC
  5
529
100
AcDbEntity
  8
_0-0_
  6
CONTINUOUS
 62
     0
100
AcDbCircle
 10
280
 20
390.75
 40
9.25
100
AcDbArc
 50
90
 51
108.9246444161
  0
ARC
  5
52A
100
AcDbEntity
  8
_0-0_
  6
CONTINUOUS
 62
     0
100
AcDbCircle
 10
310
 20
390.75
 40
9.25
100
AcDbArc
 50
71.07535558395
 51
90
  0
ARC
  5
52B
100
AcDbEntity
  8
_0-0_
  6
CONTINUOUS
 62
     0
100
AcDbCircle
 10
316
 20
408.25
 40
9.25
100
AcDbArc
 50
-108.9246444161
 51
-90
  0
ARC
  5
52C
100
AcDbEntity
  8
_0-0_
  6
CONTINUOUS
 62
     0
100
AcDbCircle
 10
274
 20
408.25
 40
9.25
100
AcDbArc
 50
-90
 51
-71.07535558395
  0
LINE
  5
52D
100
AcDbEntity
  8
_0-0_
  6
CONTINUOUS
 62
     0
100
AcDbLine
 10
309.1598089093
 20
398
 11
308.1598089093
 21
399
  0
LINE
  5
52E
100
AcDbEntity
  8
_0-0_
  6
CONTINUOUS
 62
     0
100
AcDbLine
 10
307.7455953469
 20
398
 11
306.7455953469
 21
399
  0
LINE
  5
52F
100
AcDbEntity
  8
_0-0_
  6
CONTINUOUS
 62
     0
100
AcDbLine
 10
306.3313817846
 20
398
 11
305.3313817846
 21
399
  0
LINE
  5
530
100
AcDbEntity
  8
_0-0_
  6
CONTINUOUS
 62
     0
100
AcDbLine
 10
304.9171682222
 20
398
 11
303.9171682222
 21
399
  0
LINE
  5
531
100
AcDbEntity
  8
_0-0_
  6
CONTINUOUS
 62
     0
100
AcDbLine
 10
303.5029546598
 20
398
 11
302.5029546598
 21
399
  0
LINE
  5
532
100
AcDbEntity
  8
_0-0_
  6
CONTINUOUS
 62
     0
100
AcDbLine
 10
302.0887410975
 20
398
 11
301.0887410975
 21
399
  0
LINE
  5
533
100
AcDbEntity
  8
_0-0_
  6
CONTINUOUS
 62
     0
100
AcDbLine
 10
300.6745275351
 20
398
 11
299.6745275351
 21
399
  0
LINE
  5
534
100
AcDbEntity
  8
_0-0_
  6
CONTINUOUS
 62
     0
100
AcDbLine
 10
299.2603139727
 20
398
 11
298.2603139727
 21
399
  0
LINE
  5
535
100
AcDbEntity
  8
_0-0_
  6
CONTINUOUS
 62
     0
100
AcDbLine
 10
297.8461004103
 20
398
 11
296.8461004103
 21
399
  0
LINE
  5
536
100
AcDbEntity
  8
_0-0_
  6
CONTINUOUS
 62
     0
100
AcDbLine
 10
296.431886848
 20
398
 11
295.431886848
 21
399
  0
LINE
  5
537
100
AcDbEntity
  8
_0-0_
  6
CONTINUOUS
 62
     0
100
AcDbLine
 10
295.0176732856
 20
398
 11
294.0176732856
 21
399
  0
LINE
  5
538
100
AcDbEntity
  8
_0-0_
  6
CONTINUOUS
 62
     0
100
AcDbLine
 10
293.6034597232
 20
398
 11
292.6034597232
 21
399
  0
LINE
  5
539
100
AcDbEntity
  8
_0-0_
  6
CONTINUOUS
 62
     0
100
AcDbLine
 10
292.1892461608
 20
398
 11
291.1892461608
 21
399
  0
LINE
  5
53A
100
AcDbEntity
  8
_0-0_
  6
CONTINUOUS
 62
     0
100
AcDbLine
 10
290.7750325985
 20
398
 11
289.7750325985
 21
399
  0
LINE
  5
53B
100
AcDbEntity
  8
_0-0_
  6
CONTINUOUS
 62
     0
100
AcDbLine
 10
289.3608190361
 20
398
 11
288.3608190361
 21
399
  0
LINE
  5
53C
100
AcDbEntity
  8
_0-0_
  6
CONTINUOUS
 62
     0
100
AcDbLine
 10
287.9466054737
 20
398
 11
286.9466054737
 21
399
  0
LINE
  5
53D
100
AcDbEntity
  8
_0-0_
  6
CONTINUOUS
 62
     0
100
AcDbLine
 10
286.5323919114
 20
398
 11
285.5323919114
 21
399
  0
LINE
  5
53E
100
AcDbEntity
  8
_0-0_
  6
CONTINUOUS
 62
     0
100
AcDbLine
 10
285.118178349
 20
398
 11
284.118178349
 21
399
  0
LINE
  5
53F
100
AcDbEntity
  8
_0-0_
  6
CONTINUOUS
 62
     0
100
AcDbLine
 10
283.7039647866
 20
398
 11
282.7039647866
 21
399
  0
LINE
  5
540
100
AcDbEntity
  8
_0-0_
  6
CONTINUOUS
 62
     0
100
AcDbLine
 10
282.2897512242
 20
398
 11
281.2897512242
 21
399
  0
LINE
  5
541
100
AcDbEntity
  8
_0-0_
  6
CONTINUOUS
 62
     0
100
AcDbLine
 10
280.8755376619
 20
398
 11
280
 21
398.8755376619
  0
LINE
  5
542
100
AcDbEntity
  8
_0-0_
  6
CONTINUOUS
 62
     0
100
AcDbLine
 10
280
 20
398
 11
310
 21
398
  0
LINE
  5
543
100
AcDbEntity
  8
_0-0_
  6
CONTINUOUS
 62
     0
100
AcDbLine
 10
310
 20
398
 11
310
 21
399
  0
LINE
  5
544
100
AcDbEntity
  8
_0-0_
  6
CONTINUOUS
 62
     0
100
AcDbLine
 10
310
 20
399
 11
280
 21
399
  0
LINE
  5
545
100
AcDbEntity
  8
_0-0_
  6
CONTINUOUS
 62
     0
100
AcDbLine
 10
280
 20
399
 11
280
 21
398
  0
ARC
  5
546
100
AcDbEntity
  8
_0-0_
  6
CONTINUOUS
 62
     0
100
AcDbCircle
 10
316
 20
408.25
 40
10.25
100
AcDbArc
 50
-108.9246444161
 51
-90
  0
ARC
  5
547
100
AcDbEntity
  8
_0-0_
  6
CONTINUOUS
 62
     0
100
AcDbCircle
 10
274
 20
408.25
 40
10.25
100
AcDbArc
 50
-90
 51
-71.07535558395
  0
LINE
  5
548
100
AcDbEntity
  8
_0-0_
  6
CONTINUOUS
 62
     0
100
AcDbLine
 10
286
 20
404.10877
 11
286
 21
402.508771
  0
LINE
  5
549
100
AcDbEntity
  8
_0-0_
  6
CONTINUOUS
 62
     0
100
AcDbLine
 10
286
 20
404.10877
 11
304
 21
404.10877
  0
LINE
  5
54A
100
AcDbEntity
  8
_0-0_
  6
CONTINUOUS
 62
     0
100
AcDbLine
 10
304
 20
404.10877
 11
304
 21
402.508771
  0
LINE
  5
54B
100
AcDbEntity
  8
_0-0_
  6
CONTINUOUS
 62
     0
100
AcDbLine
 10
300.88
 20
408.371833
 11
300.88
 21
404.10877
  0
LINE
  5
54C
100
AcDbEntity
  8
_0-0_
  6
CONTINUOUS
 62
     0
100
AcDbLine
 10
299.95
 20
408.90877
 11
300.88
 21
408.371833
  0
ARC
  5
54D
100
AcDbEntity
  8
_0-0_
  6
CONTINUOUS
 62
     0
100
AcDbCircle
 10
299.95
 20
405.099376
 40
3.809394
100
AcDbArc
 50
90
 51
120.789964
  0
ARC
  5
54E
100
AcDbEntity
  8
_0-0_
  6
CONTINUOUS
 62
     0
100
AcDbCircle
 10
295
 20
400.25941
 40
8.64936
100
AcDbArc
 50
69.705445
 51
110.294555
  0
LINE
  5
54F
100
AcDbEntity
  8
_0-0_
  6
CONTINUOUS
 62
     0
100
AcDbLine
 10
298
 20
408.371833
 11
298
 21
404.10877
  0
LINE
  5
550
100
AcDbEntity
  8
_0-0_
  6
CONTINUOUS
 62
     0
100
AcDbLine
 10
292
 20
408.371833
 11
292
 21
404.10877
  0
LINE
  5
551
100
AcDbEntity
  8
_0-0_
  6
CONTINUOUS
 62
     0
100
AcDbLine
 10
289.12
 20
408.371833
 11
289.12
 21
404.10877
  0
LINE
  5
552
100
AcDbEntity
  8
_0-0_
  6
CONTINUOUS
 62
     0
100
AcDbLine
 10
290.05
 20
408.90877
 11
289.12
 21
408.371833
  0
LINE
  5
553
100
AcDbEntity
  8
_0-0_
  6
CONTINUOUS
 62
     0
100
AcDbLine
 10
299.95
 20
408.90877
 11
290.05
 21
408.90877
  0
ARC
  5
554
100
AcDbEntity
  8
_0-0_
  6
CONTINUOUS
 62
     0
100
AcDbCircle
 10
290.05
 20
405.099376
 40
3.809394
100
AcDbArc
 50
59.210036
 51
90
  0
LINE
  5
555
100
AcDbEntity
  8
_0-0_
  6
CONTINUOUS
 62
     0
100
AcDbLine
 10
299.72977
 20
415.576594
 11
299.782105
 21
414.577963
  0
LINE
  5
556
100
AcDbEntity
  8
_0-0_
  6
CONTINUOUS
 62
     0
100
AcDbLine
 10
290.542378
 20
415.095103
 11
290.594713
 21
414.096472
  0
ARC
  5
557
100
AcDbEntity
  8
_0-0_
  6
CONTINUOUS
 62
     0
100
AcDbCircle
 10
300.728398
 20
415.628929
 40
0.999999
100
AcDbArc
 50
93
 51
183
  0
ARC
  5
558
100
AcDbEntity
  8
_0-0_
  6
CONTINUOUS
 62
     0
100
AcDbCircle
 10
289.543747
 20
415.042765
 40
0.999999
100
AcDbArc
 50
2.999999999999
 51
93
  0
ARC
  5
559
100
AcDbEntity
  8
_0-0_
  6
CONTINUOUS
 62
     0
100
AcDbCircle
 10
307
 20
409.50877
 40
0.999999
100
AcDbArc
 50
180
 51
270
  0
LINE
  5
55A
100
AcDbEntity
  8
_0-0_
  6
CONTINUOUS
 62
     0
100
AcDbLine
 10
307
 20
408.508771
 11
311.2
 21
408.508771
  0
ARC
  5
55B
100
AcDbEntity
  8
_0-0_
  6
CONTINUOUS
 62
     0
100
AcDbCircle
 10
303.4
 20
415.768942
 40
0.999999
100
AcDbArc
 50
0
 51
93
  0
LINE
  5
55C
100
AcDbEntity
  8
_0-0_
  6
CONTINUOUS
 62
     0
100
AcDbLine
 10
286.547665
 20
415.887121
 11
303.347665
 21
416.76757
  0
ARC
  5
55D
100
AcDbEntity
  8
_0-0_
  6
CONTINUOUS
 62
     0
100
AcDbCircle
 10
286.6
 20
414.88849
 40
0.999999
100
AcDbArc
 50
93
 51
180
  0
LINE
  5
55E
100
AcDbEntity
  8
_0-0_
  6
CONTINUOUS
 62
     0
100
AcDbLine
 10
283
 20
408.508771
 11
278.8
 21
408.508771
  0
ARC
  5
55F
100
AcDbEntity
  8
_0-0_
  6
CONTINUOUS
 62
     0
100
AcDbCircle
 10
283
 20
409.50877
 40
0.999999
100
AcDbArc
 50
-90
 51
0
  0
LINE
  5
560
100
AcDbEntity
  8
_0-0_
  6
CONTINUOUS
 62
     0
100
AcDbLine
 10
304.399999
 20
409.50877
 11
304.399999
 21
415.768942
  0
ARC
  5
561
100
AcDbEntity
  8
_0-0_
  6
CONTINUOUS
 62
     0
100
AcDbCircle
 10
307
 20
409.50877
 40
2.600001
100
AcDbArc
 50
180
 51
270
  0
LINE
  5
562
100
AcDbEntity
  8
_0-0_
  6
CONTINUOUS
 62
     0
100
AcDbLine
 10
307
 20
406.908769
 11
311.5
 21
406.908769
  0
LINE
  5
563
100
AcDbEntity
  8
_0-0_
  6
CONTINUOUS
 62
     0
100
AcDbLine
 10
306.000001
 20
415.768942
 11
306.000001
 21
409.50877
  0
ARC
  5
564
100
AcDbEntity
  8
_0-0_
  6
CONTINUOUS
 62
     0
100
AcDbCircle
 10
303.4
 20
415.768942
 40
2.600001
100
AcDbArc
 50
0
 51
93
  0
LINE
  5
565
100
AcDbEntity
  8
_0-0_
  6
CONTINUOUS
 62
     0
100
AcDbLine
 10
283.999999
 20
414.88849
 11
283.999999
 21
409.50877
  0
ARC
  5
566
100
AcDbEntity
  8
_0-0_
  6
CONTINUOUS
 62
     0
100
AcDbCircle
 10
286.6
 20
414.88849
 40
2.600001
100
AcDbArc
 50
93
 51
180
  0
LINE
  5
567
100
AcDbEntity
  8
_0-0_
  6
CONTINUOUS
 62
     0
100
AcDbLine
 10
286.463926
 20
417.484927
 11
303.263926
 21
418.365379
  0
LINE
  5
568
100
AcDbEntity
  8
_0-0_
  6
CONTINUOUS
 62
     0
100
AcDbLine
 10
285.600001
 20
409.50877
 11
285.600001
 21
414.88849
  0
ARC
  5
569
100
AcDbEntity
  8
_0-0_
  6
CONTINUOUS
 62
     0
100
AcDbCircle
 10
283
 20
409.50877
 40
2.600001
100
AcDbArc
 50
-90
 51
0
  0
LINE
  5
56A
100
AcDbEntity
  8
_0-0_
  6
CONTINUOUS
 62
     0
100
AcDbLine
 10
283
 20
406.908769
 11
278.5
 21
406.908769
  0
LINE
  5
56B
100
AcDbEntity
  8
_0-0_
  6
CONTINUOUS
 62
     0
100
AcDbLine
 10
278.8
 20
406.008769
 11
280.75
 21
406.008769
  0
ARC
  5
56C
100
AcDbEntity
  8
_0-0_
  6
CONTINUOUS
 62
     0
100
AcDbCircle
 10
278.8
 20
406.308769
 40
0.3
100
AcDbArc
 50
180
 51
270
  0
ARC
  5
56D
100
AcDbEntity
  8
_0-0_
  6
CONTINUOUS
 62
     0
100
AcDbCircle
 10
278.8
 20
408.208771
 40
0.3
100
AcDbArc
 50
90
 51
180
  0
LINE
  5
56E
100
AcDbEntity
  8
_0-0_
  6
CONTINUOUS
 62
     0
100
AcDbLine
 10
295.500001
 20
402.508771
 11
295
 21
402.00877
  0
LINE
  5
56F
100
AcDbEntity
  8
_0-0_
  6
CONTINUOUS
 62
     0
100
AcDbLine
 10
294.499999
 20
402.508771
 11
295
 21
402.00877
  0
LINE
  5
570
100
AcDbEntity
  8
_0-0_
  6
CONTINUOUS
 62
     0
100
AcDbLine
 10
300.000001
 20
400.50877
 11
300.000001
 21
400.008769
  0
LINE
  5
571
100
AcDbEntity
  8
_0-0_
  6
CONTINUOUS
 62
     0
100
AcDbLine
 10
279.000001
 20
410.008771
 11
281.749999
 21
410.008771
  0
ARC
  5
572
100
AcDbEntity
  8
_0-0_
  6
CONTINUOUS
 62
     0
100
AcDbCircle
 10
279.000001
 20
410.508769
 40
0.500001
100
AcDbArc
 50
180
 51
270
  0
ARC
  5
573
100
AcDbEntity
  8
_0-0_
  6
CONTINUOUS
 62
     0
100
AcDbCircle
 10
281.749999
 20
409.258771
 40
0.75
100
AcDbArc
 50
-90
 51
90
  0
LINE
  5
574
100
AcDbEntity
  8
_0-0_
  6
CONTINUOUS
 62
     0
100
AcDbLine
 10
289.999999
 20
400.50877
 11
278.5
 21
400.50877
  0
LINE
  5
575
100
AcDbEntity
  8
_0-0_
  6
CONTINUOUS
 62
     0
100
AcDbLine
 10
289.999999
 20
400.50877
 11
289.999999
 21
400.008769
  0
ARC
  5
576
100
AcDbEntity
  8
_0-0_
  6
CONTINUOUS
 62
     0
100
AcDbCircle
 10
280.75
 20
405.258769
 40
0.75
100
AcDbArc
 50
-90
 51
90
  0
LINE
  5
577
100
AcDbEntity
  8
_0-0_
  6
CONTINUOUS
 62
     0
100
AcDbLine
 10
278.8
 20
404.508769
 11
280.75
 21
404.508769
  0
ARC
  5
578
100
AcDbEntity
  8
_0-0_
  6
CONTINUOUS
 62
     0
100
AcDbCircle
 10
278.8
 20
404.208769
 40
0.3
100
AcDbArc
 50
90
 51
180
  0
LINE
  5
579
100
AcDbEntity
  8
_0-0_
  6
CONTINUOUS
 62
     0
100
AcDbLine
 10
311.5
 20
400.50877
 11
300.000001
 21
400.50877
  0
LINE
  5
57A
100
AcDbEntity
  8
_0-0_
  6
CONTINUOUS
 62
     0
100
AcDbLine
 10
311.2
 20
406.008769
 11
309.25
 21
406.008769
  0
ARC
  5
57B
100
AcDbEntity
  8
_0-0_
  6
CONTINUOUS
 62
     0
100
AcDbCircle
 10
311.2
 20
406.308769
 40
0.3
100
AcDbArc
 50
-90
 51
0
  0
LINE
  5
57C
100
AcDbEntity
  8
_0-0_
  6
CONTINUOUS
 62
     0
100
AcDbLine
 10
311.5
 20
406.308769
 11
311.5
 21
408.208771
  0
ARC
  5
57D
100
AcDbEntity
  8
_0-0_
  6
CONTINUOUS
 62
     0
100
AcDbCircle
 10
311.2
 20
408.208771
 40
0.3
100
AcDbArc
 50
0
 51
90
  0
LINE
  5
57E
100
AcDbEntity
  8
_0-0_
  6
CONTINUOUS
 62
     0
100
AcDbLine
 10
312.499999
 20
410.008771
 11
308.250001
 21
410.008771
  0
ARC
  5
57F
100
AcDbEntity
  8
_0-0_
  6
CONTINUOUS
 62
     0
100
AcDbCircle
 10
312.499999
 20
409.50877
 40
0.500001
100
AcDbArc
 50
0
 51
90
  0
ARC
  5
580
100
AcDbEntity
  8
_0-0_
  6
CONTINUOUS
 62
     0
100
AcDbCircle
 10
308.250001
 20
409.258771
 40
0.75
100
AcDbArc
 50
90
 51
270
  0
LINE
  5
581
100
AcDbEntity
  8
_0-0_
  6
CONTINUOUS
 62
     0
100
AcDbLine
 10
313
 20
409.50877
 11
313
 21
400.008769
  0
LINE
  5
582
100
AcDbEntity
  8
_0-0_
  6
CONTINUOUS
 62
     0
100
AcDbLine
 10
311.5
 20
400.50877
 11
311.5
 21
400.008769
  0
ARC
  5
583
100
AcDbEntity
  8
_0-0_
  6
CONTINUOUS
 62
     0
100
AcDbCircle
 10
309.25
 20
405.258769
 40
0.75
100
AcDbArc
 50
90
 51
270
  0
ARC
  5
584
100
AcDbEntity
  8
_0-0_
  6
CONTINUOUS
 62
     0
100
AcDbCircle
 10
311.2
 20
402.808771
 40
0.3
100
AcDbArc
 50
-90
 51
0
  0
LINE
  5
585
100
AcDbEntity
  8
_0-0_
  6
CONTINUOUS
 62
     0
100
AcDbLine
 10
311.5
 20
402.808771
 11
311.5
 21
404.208769
  0
ARC
  5
586
100
AcDbEntity
  8
_0-0_
  6
CONTINUOUS
 62
     0
100
AcDbCircle
 10
311.2
 20
404.208769
 40
0.3
100
AcDbArc
 50
0
 51
90
  0
LINE
  5
587
100
AcDbEntity
  8
_0-0_
  6
CONTINUOUS
 62
     0
100
AcDbLine
 10
311.2
 20
404.508769
 11
309.25
 21
404.508769
  0
ARC
  5
588
100
AcDbEntity
  8
_0-0_
  6
CONTINUOUS
 62
     0
100
AcDbCircle
 10
279.000001
 20
403.008769
 40
0.500001
100
AcDbArc
 50
180
 51
270
  0
LINE
  5
589
100
AcDbEntity
  8
_0-0_
  6
CONTINUOUS
 62
     0
100
AcDbLine
 10
279.000001
 20
402.508771
 11
311.2
 21
402.508771
  0
LINE
  5
58A
100
AcDbEntity
  8
_0-0_
  6
CONTINUOUS
 62
     0
100
AcDbLine
 10
310
 20
400
 11
280
 21
400
  0
LINE
  5
58B
100
AcDbEntity
  8
_0-0_
  6
CONTINUOUS
 62
     0
100
AcDbLine
 10
311.5
 20
400.008769
 11
313
 21
400.008769
  0
ARC
  5
58C
100
AcDbEntity
  8
_0-0_
  6
CONTINUOUS
 62
     0
100
AcDbCircle
 10
277.500001
 20
418.008769
 40
0.999999
100
AcDbArc
 50
0
 51
180
  0
LINE
  5
58D
100
AcDbEntity
  8
_0-0_
  6
CONTINUOUS
 62
     0
100
AcDbLine
 10
278.5
 20
410.508769
 11
278.5
 21
418.008769
  0
LINE
  5
58E
100
AcDbEntity
  8
_0-0_
  6
CONTINUOUS
 62
     0
100
AcDbLine
 10
278.5
 20
406.308769
 11
278.5
 21
408.208771
  0
ARC
  5
58F
100
AcDbEntity
  8
_0-0_
  6
CONTINUOUS
 62
     0
100
AcDbCircle
 10
276.000001
 20
403.008769
 40
0.500001
100
AcDbArc
 50
-90
 51
0
  0
LINE
  5
590
100
AcDbEntity
  8
_0-0_
  6
CONTINUOUS
 62
     0
100
AcDbLine
 10
276.499999
 20
401.008771
 11
276.499999
 21
400.008769
  0
LINE
  5
591
100
AcDbEntity
  8
_0-0_
  6
CONTINUOUS
 62
     0
100
AcDbLine
 10
278.5
 20
400.50877
 11
278.5
 21
400.008769
  0
LINE
  5
592
100
AcDbEntity
  8
_0-0_
  6
CONTINUOUS
 62
     0
100
AcDbLine
 10
278.5
 20
403.008769
 11
278.5
 21
404.208769
  0
LINE
  5
593
100
AcDbEntity
  8
_0-0_
  6
CONTINUOUS
 62
     0
100
AcDbLine
 10
265.999999
 20
401.008771
 11
265.999999
 21
400.008769
  0
LINE
  5
594
100
AcDbEntity
  8
_0-0_
  6
CONTINUOUS
 62
     0
100
AcDbLine
 10
264.499999
 20
400.008769
 11
265.999999
 21
400.008769
  0
LINE
  5
595
100
AcDbEntity
  8
_0-0_
  6
CONTINUOUS
 62
     0
100
AcDbLine
 10
276.499999
 20
400.008769
 11
278.5
 21
400.008769
  0
LINE
  5
596
100
AcDbEntity
  8
_0-0_
  6
CONTINUOUS
 62
     0
100
AcDbLine
 10
264.499999
 20
402.008771
 11
264.499999
 21
400.008769
  0
ARC
  5
597
100
AcDbEntity
  8
_0-0_
  6
CONTINUOUS
 62
     0
100
AcDbCircle
 10
264.999999
 20
402.008771
 40
0.5
100
AcDbArc
 50
90
 51
180
  0
LINE
  5
598
100
AcDbEntity
  8
_0-0_
  6
CONTINUOUS
 62
     0
100
AcDbLine
 10
276.249999
 20
405.758771
 11
274.9999989999
 21
405.758771
  0
LINE
  5
599
100
AcDbEntity
  8
_0-0_
  6
CONTINUOUS
 62
     0
100
AcDbLine
 10
271.9999989999
 20
405.758771
 11
270.749999
 21
405.758771
  0
LINE
  5
59A
100
AcDbEntity
  8
_0-0_
  6
CONTINUOUS
 62
     0
100
AcDbLine
 10
276.499999
 20
401.008771
 11
268.9940501262
 21
401.008771
  0
LINE
  5
59B
100
AcDbEntity
  8
_0-0_
  6
CONTINUOUS
 62
     0
100
AcDbLine
 10
268.9940501262
 20
401.008771
 11
265.999999
 21
401.008771
  0
LINE
  5
59C
100
AcDbEntity
  8
_0-0_
  6
CONTINUOUS
 62
     0
100
AcDbLine
 10
270.999999
 20
402.508771
 11
276.000001
 21
402.508771
  0
LINE
  5
59D
100
AcDbEntity
  8
_0-0_
  6
CONTINUOUS
 62
     0
100
AcDbLine
 10
264.999999
 20
402.508771
 11
268.999999
 21
402.508771
  0
ARC
  5
59E
100
AcDbEntity
  8
_0-0_
  6
CONTINUOUS
 62
     0
100
AcDbCircle
 10
270.999999
 20
403.008771
 40
0.25
100
AcDbArc
 50
180
 51
270
  0
ARC
  5
59F
100
AcDbEntity
  8
_0-0_
  6
CONTINUOUS
 62
     0
100
AcDbCircle
 10
276.000001
 20
403.008769
 40
0.250001
100
AcDbArc
 50
-90
 51
0
  0
LINE
  5
5A0
100
AcDbEntity
  8
_0-0_
  6
CONTINUOUS
 62
     0
100
AcDbLine
 10
270.749999
 20
403.008771
 11
270.749999
 21
405.758771
  0
LINE
  5
5A1
100
AcDbEntity
  8
_0-0_
  6
CONTINUOUS
 62
     0
100
AcDbLine
 10
276.249999
 20
403.008769
 11
276.249999
 21
405.758771
  0
LINE
  5
5A2
100
AcDbEntity
  8
_0-0_
  6
CONTINUOUS
 62
     0
100
AcDbLine
 10
270.999999
 20
402.758771
 11
276.000001
 21
402.758771
  0
LINE
  5
5A3
100
AcDbEntity
  8
_0-0_
  6
CONTINUOUS
 62
     0
100
AcDbLine
 10
276.499999
 20
418.008769
 11
276.499999
 21
407.508771
  0
LINE
  5
5A4
100
AcDbEntity
  8
_0-0_
  6
CONTINUOUS
 62
     0
100
AcDbLine
 10
276.499999
 20
406.008771
 11
276.499999
 21
403.008769
  0
LINE
  5
5A5
100
AcDbEntity
  8
_0-0_
  6
CONTINUOUS
 62
     0
100
AcDbLine
 10
270.499999
 20
403.008771
 11
270.499999
 21
406.008771
  0
LINE
  5
5A6
100
AcDbEntity
  8
_0-0_
  6
CONTINUOUS
 62
     0
100
AcDbLine
 10
268.999999
 20
407.008771
 11
268.999999
 21
402.508771
  0
ARC
  5
5A7
100
AcDbEntity
  8
_0-0_
  6
CONTINUOUS
 62
     0
100
AcDbCircle
 10
269.499999
 20
407.008771
 40
0.5
100
AcDbArc
 50
90
 51
180
  0
ARC
  5
5A8
100
AcDbEntity
  8
_0-0_
  6
CONTINUOUS
 62
     0
100
AcDbCircle
 10
270.999999
 20
403.008771
 40
0.5
100
AcDbArc
 50
180
 51
270
  0
LINE
  5
5A9
100
AcDbEntity
  8
_0-0_
  6
CONTINUOUS
 62
     0
100
AcDbLine
 10
269.499999
 20
407.508771
 11
270.749999
 21
407.508771
  0
ARC
  5
5AA
100
AcDbEntity
  8
_0-0_
  6
CONTINUOUS
 62
     0
100
AcDbCircle
 10
270.749999
 20
406.508771
 40
1
100
AcDbArc
 50
0
 51
90
  0
LINE
  5
5AB
100
AcDbEntity
  8
_0-0_
  6
CONTINUOUS
 62
     0
100
AcDbLine
 10
271.749999
 20
406.508771
 11
271.749999
 21
406.008771
  0
LINE
  5
5AC
100
AcDbEntity
  8
_0-0_
  6
CONTINUOUS
 62
     0
100
AcDbLine
 10
271.749999
 20
406.008771
 11
270.499999
 21
406.008771
  0
LINE
  5
5AD
100
AcDbEntity
  8
_0-0_
  6
CONTINUOUS
 62
     0
100
AcDbLine
 10
276.499999
 20
406.008771
 11
275.249999
 21
406.008771
  0
LINE
  5
5AE
100
AcDbEntity
  8
_0-0_
  6
CONTINUOUS
 62
     0
100
AcDbLine
 10
275.249999
 20
406.508771
 11
275.249999
 21
406.008771
  0
ARC
  5
5AF
100
AcDbEntity
  8
_0-0_
  6
CONTINUOUS
 62
     0
100
AcDbCircle
 10
276.249999
 20
406.508771
 40
1
100
AcDbArc
 50
90
 51
180
  0
LINE
  5
5B0
100
AcDbEntity
  8
_0-0_
  6
CONTINUOUS
 62
     0
100
AcDbLine
 10
276.249999
 20
407.508771
 11
276.499999
 21
407.508771
  0
LINE
  5
5B1
100
AcDbEntity
  8
_0-0_
  6
CONTINUOUS
 62
     0
100
AcDbLine
 10
274.9999989999
 20
405.758771
 11
274.9999989999
 21
424.6783268599
  0
LINE
  5
5B2
100
AcDbEntity
  8
_0-0_
  6
CONTINUOUS
 62
     0
100
AcDbLine
 10
271.9999989999
 20
405.758771
 11
271.9999989999
 21
426.1415898559
  0
ARC
  5
5B3
100
AcDbEntity
  8
_0-0_
  6
CONTINUOUS
 62
     0
100
AcDbCircle
 10
243.191297883
 20
446.0023048123
 40
0.5
100
AcDbArc
 50
106.4095443492
 51
284.1986608952
  0
ARC
  5
5B4
100
AcDbEntity
  8
_0-0_
  6
CONTINUOUS
 62
     0
100
AcDbCircle
 10
250.1125786489
 20
422.5002650592
 40
25
100
AcDbArc
 50
5
 51
106.4095443492
  0
ARC
  5
5B5
100
AcDbEntity
  8
_0-0_
  6
CONTINUOUS
 62
     0
100
AcDbCircle
 10
248.9769614662
 20
423.135337641
 40
23.08754100601
100
AcDbArc
 50
3.184024179326
 51
104.1986608952
  0
ARC
  5
5B6
100
AcDbEntity
  8
_0-3_躯体と製品
  6
CONTINUOUS
 62
     0
100
AcDbCircle
 10
560.000001
 20
390.741232
 40
9.25
100
AcDbArc
 50
71.07535558395
 51
90
  0
LINE
  5
5B7
100
AcDbEntity
  8
_0-3_躯体と製品
  6
CONTINUOUS
 62
     0
100
AcDbLine
 10
554.000001
 20
403.991232
 11
554.000001
 21
402.491232
  0
LINE
  5
5B8
100
AcDbEntity
  8
_0-3_躯体と製品
  6
CONTINUOUS
 62
     0
100
AcDbLine
 10
550.7735036919
 20
408.4869149857
 11
550.7735036919
 21
403.991232
  0
LINE
  5
5B9
100
AcDbEntity
  8
_0-3_躯体と製品
  6
CONTINUOUS
 62
     0
100
AcDbLine
 10
560.000001
 20
398.991232
 11
560.000001
 21
397.991232
  0
LINE
  5
5BA
100
AcDbEntity
  8
_0-3_躯体と製品
  6
CONTINUOUS
 62
     0
100
AcDbLine
 10
553.4676090886
 20
397.991232
 11
554.4676090886
 21
398.991232
  0
LINE
  5
5BB
100
AcDbEntity
  8
_0-3_躯体と製品
  6
CONTINUOUS
 62
     0
100
AcDbLine
 10
552.0533955263
 20
397.991232
 11
553.0533955263
 21
398.991232
  0
LINE
  5
5BC
100
AcDbEntity
  8
_0-3_躯体と製品
  6
CONTINUOUS
 62
     0
100
AcDbLine
 10
550.6391819639
 20
397.991232
 11
551.6391819639
 21
398.991232
  0
ARC
  5
5BD
100
AcDbEntity
  8
_0-3_躯体と製品
  6
CONTINUOUS
 62
     0
100
AcDbCircle
 10
556.9136358158
 20
441.3155649515
 40
1
100
AcDbArc
 50
37.62684736228
 51
87
  0
LINE
  5
5BE
100
AcDbEntity
  8
_0-3_躯体と製品
  6
CONTINUOUS
 62
     0
100
AcDbLine
 10
573.3661564141
 20
429.6643078519
 11
571.2962800073
 21
427.4927619039
  0
LINE
  5
5BF
100
AcDbEntity
  8
_0-3_躯体と製品
  6
CONTINUOUS
 62
     0
100
AcDbLine
 10
573.9452353289
 20
429.1123408145
 11
573.3661564141
 21
429.6643078519
  0
LINE
  5
5C0
100
AcDbEntity
  8
_0-3_躯体と製品
  6
CONTINUOUS
 62
     0
100
AcDbLine
 10
573.9452353289
 20
429.1123408145
 11
571.8753589221
 21
426.9407948665
  0
ARC
  5
5C1
100
AcDbEntity
  8
_0-3_躯体と製品
  6
CONTINUOUS
 62
     0
100
AcDbCircle
 10
570.5724313802
 20
428.1827207179
 40
1
100
AcDbArc
 50
-142.3731526377
 51
-43.62684873287
  0
ARC
  5
5C2
100
AcDbEntity
  8
_0-3_躯体と製品
  6
CONTINUOUS
 62
     0
100
AcDbCircle
 10
570.5724313802
 20
428.1827207179
 40
1.8
100
AcDbArc
 50
-142.3731526377
 51
-43.62684812372
  0
LINE
  5
5C3
100
AcDbEntity
  8
_0-3_躯体と製品
  6
CONTINUOUS
 62
     0
100
AcDbLine
 10
558.3392423997
 20
442.4144943706
 11
569.7804277371
 21
427.5722043551
  0
LINE
  5
5C4
100
AcDbEntity
  8
_0-3_躯体と製品
  6
CONTINUOUS
 62
     0
100
AcDbLine
 10
557.7056394735
 20
441.9260812954
 11
569.146824811
 21
427.0837912799
  0
ARC
  5
5C5
100
AcDbEntity
  8
_0-3_躯体と製品
  6
CONTINUOUS
 62
     0
100
AcDbCircle
 10
556.9136358158
 20
441.3155649515
 40
1.8
100
AcDbArc
 50
37.62684736228
 51
87
  0
LINE
  5
5C6
100
AcDbEntity
  8
_0-3_躯体と製品
  6
CONTINUOUS
 62
     0
100
AcDbLine
 10
599.5680182259
 20
423.0581859567
 11
599.6622229471
 21
424.8557191193
  0
ARC
  5
5C7
100
AcDbEntity
  8
_0-3_躯体と製品
  6
CONTINUOUS
 62
     0
100
AcDbCircle
 10
560.000001
 20
390.741232
 40
8.25
100
AcDbArc
 50
71.07535558395
 51
90
  0
ARC
  5
5C8
100
AcDbEntity
  8
_0-3_躯体と製品
  6
CONTINUOUS
 62
     0
100
AcDbCircle
 10
566.000001
 20
408.241232
 40
10.25
100
AcDbArc
 50
-108.9246444161
 51
-90
  0
ARC
  5
5C9
100
AcDbEntity
  8
_0-3_躯体と製品
  6
CONTINUOUS
 62
     0
100
AcDbCircle
 10
566.000001
 20
408.241232
 40
9.25
100
AcDbArc
 50
-108.9246444161
 51
-90
  0
ARC
  5
5CA
100
AcDbEntity
  8
_0-0_
  6
CONTINUOUS
 62
     0
100
AcDbCircle
 10
560.000001
 20
390.741232
 40
8.25
100
AcDbArc
 50
71.07535558395
 51
90
  0
ARC
  5
5CB
100
AcDbEntity
  8
_0-0_
  6
CONTINUOUS
 62
     0
100
AcDbCircle
 10
560.000001
 20
390.741232
 40
9.25
100
AcDbArc
 50
71.07535558395
 51
90
  0
ARC
  5
5CC
100
AcDbEntity
  8
_0-0_
  6
CONTINUOUS
 62
     0
100
AcDbCircle
 10
566.000001
 20
408.241232
 40
9.25
100
AcDbArc
 50
-108.9246444161
 51
-90
  0
LINE
  5
5CD
100
AcDbEntity
  8
_0-0_
  6
CONTINUOUS
 62
     0
100
AcDbLine
 10
550.6391819639
 20
397.991232
 11
551.6391819639
 21
398.991232
  0
LINE
  5
5CE
100
AcDbEntity
  8
_0-0_
  6
CONTINUOUS
 62
     0
100
AcDbLine
 10
552.0533955263
 20
397.991232
 11
553.0533955263
 21
398.991232
  0
LINE
  5
5CF
100
AcDbEntity
  8
_0-0_
  6
CONTINUOUS
 62
     0
100
AcDbLine
 10
553.4676090886
 20
397.991232
 11
554.4676090886
 21
398.991232
  0
LINE
  5
5D0
100
AcDbEntity
  8
_0-0_
  6
CONTINUOUS
 62
     0
100
AcDbLine
 10
554.881822651
 20
397.991232
 11
555.881822651
 21
398.991232
  0
LINE
  5
5D1
100
AcDbEntity
  8
_0-0_
  6
CONTINUOUS
 62
     0
100
AcDbLine
 10
556.2960362134
 20
397.991232
 11
557.2960362134
 21
398.991232
  0
LINE
  5
5D2
100
AcDbEntity
  8
_0-0_
  6
CONTINUOUS
 62
     0
100
AcDbLine
 10
557.7102497758
 20
397.991232
 11
558.7102497758
 21
398.991232
  0
LINE
  5
5D3
100
AcDbEntity
  8
_0-0_
  6
CONTINUOUS
 62
     0
100
AcDbLine
 10
559.1244633381
 20
397.991232
 11
560.000001
 21
398.8667696619
  0
LINE
  5
5D4
100
AcDbEntity
  8
_0-0_
  6
CONTINUOUS
 62
     0
100
AcDbLine
 10
560.000001
 20
398.991232
 11
560.000001
 21
397.991232
  0
ARC
  5
5D5
100
AcDbEntity
  8
_0-0_
  6
CONTINUOUS
 62
     0
100
AcDbCircle
 10
566.000001
 20
408.241232
 40
10.25
100
AcDbArc
 50
-108.9246444161
 51
-90
  0
LINE
  5
5D6
100
AcDbEntity
  8
_0-0_
  6
CONTINUOUS
 62
     0
100
AcDbLine
 10
554.000001
 20
404.100002
 11
554.000001
 21
402.500003
  0
LINE
  5
5D7
100
AcDbEntity
  8
_0-0_
  6
CONTINUOUS
 62
     0
100
AcDbLine
 10
550.880001
 20
408.363065
 11
550.880001
 21
404.100002
  0
ARC
  5
5D8
100
AcDbEntity
  8
_0-0_
  6
CONTINUOUS
 62
     0
100
AcDbCircle
 10
553.400001
 20
414.879722
 40
0.999999
100
AcDbArc
 50
0
 51
87
  0
LINE
  5
5D9
100
AcDbEntity
  8
_0-0_
  6
CONTINUOUS
 62
     0
100
AcDbLine
 10
557.000001
 20
408.500003
 11
561.200001
 21
408.500003
  0
ARC
  5
5DA
100
AcDbEntity
  8
_0-0_
  6
CONTINUOUS
 62
     0
100
AcDbCircle
 10
557.000001
 20
409.500002
 40
0.999999
100
AcDbArc
 50
180
 51
270
  0
LINE
  5
5DB
100
AcDbEntity
  8
_0-0_
  6
CONTINUOUS
 62
     0
100
AcDbLine
 10
556.000002
 20
414.879722
 11
556.000002
 21
409.500002
  0
ARC
  5
5DC
100
AcDbEntity
  8
_0-0_
  6
CONTINUOUS
 62
     0
100
AcDbCircle
 10
553.400001
 20
414.879722
 40
2.600001
100
AcDbArc
 50
0
 51
87
  0
LINE
  5
5DD
100
AcDbEntity
  8
_0-0_
  6
CONTINUOUS
 62
     0
100
AcDbLine
 10
554.4
 20
409.500002
 11
554.4
 21
414.879722
  0
ARC
  5
5DE
100
AcDbEntity
  8
_0-0_
  6
CONTINUOUS
 62
     0
100
AcDbCircle
 10
557.000001
 20
409.500002
 40
2.600001
100
AcDbArc
 50
180
 51
270
  0
LINE
  5
5DF
100
AcDbEntity
  8
_0-0_
  6
CONTINUOUS
 62
     0
100
AcDbLine
 10
557.000001
 20
406.900001
 11
561.500001
 21
406.900001
  0
LINE
  5
5E0
100
AcDbEntity
  8
_0-0_
  6
CONTINUOUS
 62
     0
100
AcDbLine
 10
561.200001
 20
406.000001
 11
559.250001
 21
406.000001
  0
ARC
  5
5E1
100
AcDbEntity
  8
_0-0_
  6
CONTINUOUS
 62
     0
100
AcDbCircle
 10
561.200001
 20
406.300001
 40
0.3
100
AcDbArc
 50
-90
 51
0
  0
ARC
  5
5E2
100
AcDbEntity
  8
_0-0_
  6
CONTINUOUS
 62
     0
100
AcDbCircle
 10
561.200001
 20
408.200003
 40
0.3
100
AcDbArc
 50
0
 51
90
  0
LINE
  5
5E3
100
AcDbEntity
  8
_0-0_
  6
CONTINUOUS
 62
     0
100
AcDbLine
 10
561
 20
410.000003
 11
558.250002
 21
410.000003
  0
ARC
  5
5E4
100
AcDbEntity
  8
_0-0_
  6
CONTINUOUS
 62
     0
100
AcDbCircle
 10
561
 20
410.500001
 40
0.500001
100
AcDbArc
 50
-90
 51
0
  0
ARC
  5
5E5
100
AcDbEntity
  8
_0-0_
  6
CONTINUOUS
 62
     0
100
AcDbCircle
 10
558.250002
 20
409.250003
 40
0.75
100
AcDbArc
 50
90
 51
270
  0
ARC
  5
5E6
100
AcDbEntity
  8
_0-0_
  6
CONTINUOUS
 62
     0
100
AcDbCircle
 10
559.250001
 20
405.250001
 40
0.75
100
AcDbArc
 50
90
 51
270
  0
LINE
  5
5E7
100
AcDbEntity
  8
_0-0_
  6
CONTINUOUS
 62
     0
100
AcDbLine
 10
561.200001
 20
404.500001
 11
559.250001
 21
404.500001
  0
ARC
  5
5E8
100
AcDbEntity
  8
_0-0_
  6
CONTINUOUS
 62
     0
100
AcDbCircle
 10
561.200001
 20
404.200001
 40
0.3
100
AcDbArc
 50
0
 51
90
  0
ARC
  5
5E9
100
AcDbEntity
  8
_0-0_
  6
CONTINUOUS
 62
     0
100
AcDbCircle
 10
561
 20
403.000001
 40
0.500001
100
AcDbArc
 50
-90
 51
0
  0
ARC
  5
5EA
100
AcDbEntity
  8
_0-0_
  6
CONTINUOUS
 62
     0
100
AcDbCircle
 10
562.5
 20
418.000001
 40
0.999999
100
AcDbArc
 50
0
 51
180
  0
LINE
  5
5EB
100
AcDbEntity
  8
_0-0_
  6
CONTINUOUS
 62
     0
100
AcDbLine
 10
561.500001
 20
410.500001
 11
561.500001
 21
418.000001
  0
LINE
  5
5EC
100
AcDbEntity
  8
_0-0_
  6
CONTINUOUS
 62
     0
100
AcDbLine
 10
561.500001
 20
406.300001
 11
561.500001
 21
408.200003
  0
ARC
  5
5ED
100
AcDbEntity
  8
_0-0_
  6
CONTINUOUS
 62
     0
100
AcDbCircle
 10
564
 20
403.000001
 40
0.500001
100
AcDbArc
 50
180
 51
270
  0
LINE
  5
5EE
100
AcDbEntity
  8
_0-0_
  6
CONTINUOUS
 62
     0
100
AcDbLine
 10
563.500002
 20
401.000003
 11
563.500002
 21
400.000001
  0
LINE
  5
5EF
100
AcDbEntity
  8
_0-0_
  6
CONTINUOUS
 62
     0
100
AcDbLine
 10
561.500001
 20
400.500002
 11
561.500001
 21
400.000001
  0
LINE
  5
5F0
100
AcDbEntity
  8
_0-0_
  6
CONTINUOUS
 62
     0
100
AcDbLine
 10
561.500001
 20
403.000001
 11
561.500001
 21
404.200001
  0
LINE
  5
5F1
100
AcDbEntity
  8
_0-0_
  6
CONTINUOUS
 62
     0
100
AcDbLine
 10
574.000002
 20
401.000003
 11
574.000002
 21
400.000001
  0
LINE
  5
5F2
100
AcDbEntity
  8
_0-0_
  6
CONTINUOUS
 62
     0
100
AcDbLine
 10
575.500002
 20
400.000001
 11
574.000002
 21
400.000001
  0
LINE
  5
5F3
100
AcDbEntity
  8
_0-0_
  6
CONTINUOUS
 62
     0
100
AcDbLine
 10
563.500002
 20
400.000001
 11
561.500001
 21
400.000001
  0
LINE
  5
5F4
100
AcDbEntity
  8
_0-0_
  6
CONTINUOUS
 62
     0
100
AcDbLine
 10
575.500002
 20
402.000003
 11
575.500002
 21
400.000001
  0
ARC
  5
5F5
100
AcDbEntity
  8
_0-0_
  6
CONTINUOUS
 62
     0
100
AcDbCircle
 10
575.000002
 20
402.000003
 40
0.5
100
AcDbArc
 50
0
 51
90
  0
LINE
  5
5F6
100
AcDbEntity
  8
_0-0_
  6
CONTINUOUS
 62
     0
100
AcDbLine
 10
563.750002
 20
405.750003
 11
565.0000020001
 21
405.750003
  0
LINE
  5
5F7
100
AcDbEntity
  8
_0-0_
  6
CONTINUOUS
 62
     0
100
AcDbLine
 10
568.0000020001
 20
405.750003
 11
569.250002
 21
405.750003
  0
LINE
  5
5F8
100
AcDbEntity
  8
_0-0_
  6
CONTINUOUS
 62
     0
100
AcDbLine
 10
563.500002
 20
401.000003
 11
571.0059508738
 21
401.000003
  0
LINE
  5
5F9
100
AcDbEntity
  8
_0-0_
  6
CONTINUOUS
 62
     0
100
AcDbLine
 10
571.0059508738
 20
401.000003
 11
574.000002
 21
401.000003
  0
LINE
  5
5FA
100
AcDbEntity
  8
_0-0_
  6
CONTINUOUS
 62
     0
100
AcDbLine
 10
569.000002
 20
402.500003
 11
564
 21
402.500003
  0
LINE
  5
5FB
100
AcDbEntity
  8
_0-0_
  6
CONTINUOUS
 62
     0
100
AcDbLine
 10
575.000002
 20
402.500003
 11
571.000002
 21
402.500003
  0
ARC
  5
5FC
100
AcDbEntity
  8
_0-0_
  6
CONTINUOUS
 62
     0
100
AcDbCircle
 10
569.000002
 20
403.000003
 40
0.25
100
AcDbArc
 50
-90
 51
0
  0
ARC
  5
5FD
100
AcDbEntity
  8
_0-0_
  6
CONTINUOUS
 62
     0
100
AcDbCircle
 10
564
 20
403.000001
 40
0.250001
100
AcDbArc
 50
180
 51
270
  0
LINE
  5
5FE
100
AcDbEntity
  8
_0-0_
  6
CONTINUOUS
 62
     0
100
AcDbLine
 10
569.250002
 20
403.000003
 11
569.250002
 21
405.750003
  0
LINE
  5
5FF
100
AcDbEntity
  8
_0-0_
  6
CONTINUOUS
 62
     0
100
AcDbLine
 10
563.750002
 20
403.000001
 11
563.750002
 21
405.750003
  0
LINE
  5
600
100
AcDbEntity
  8
_0-0_
  6
CONTINUOUS
 62
     0
100
AcDbLine
 10
569.000002
 20
402.750003
 11
564
 21
402.750003
  0
LINE
  5
601
100
AcDbEntity
  8
_0-0_
  6
CONTINUOUS
 62
     0
100
AcDbLine
 10
563.500002
 20
418.000001
 11
563.500002
 21
407.500003
  0
LINE
  5
602
100
AcDbEntity
  8
_0-0_
  6
CONTINUOUS
 62
     0
100
AcDbLine
 10
563.500002
 20
406.000003
 11
563.500002
 21
403.000001
  0
LINE
  5
603
100
AcDbEntity
  8
_0-0_
  6
CONTINUOUS
 62
     0
100
AcDbLine
 10
569.500002
 20
403.000003
 11
569.500002
 21
406.000003
  0
LINE
  5
604
100
AcDbEntity
  8
_0-0_
  6
CONTINUOUS
 62
     0
100
AcDbLine
 10
571.000002
 20
407.000003
 11
571.000002
 21
402.500003
  0
ARC
  5
605
100
AcDbEntity
  8
_0-0_
  6
CONTINUOUS
 62
     0
100
AcDbCircle
 10
570.500002
 20
407.000003
 40
0.5
100
AcDbArc
 50
0
 51
90
  0
ARC
  5
606
100
AcDbEntity
  8
_0-0_
  6
CONTINUOUS
 62
     0
100
AcDbCircle
 10
569.000002
 20
403.000003
 40
0.5
100
AcDbArc
 50
-90
 51
0
  0
LINE
  5
607
100
AcDbEntity
  8
_0-0_
  6
CONTINUOUS
 62
     0
100
AcDbLine
 10
570.500002
 20
407.500003
 11
569.250002
 21
407.500003
  0
ARC
  5
608
100
AcDbEntity
  8
_0-0_
  6
CONTINUOUS
 62
     0
100
AcDbCircle
 10
569.250002
 20
406.500003
 40
1
100
AcDbArc
 50
90
 51
180
  0
LINE
  5
609
100
AcDbEntity
  8
_0-0_
  6
CONTINUOUS
 62
     0
100
AcDbLine
 10
568.250002
 20
406.500003
 11
568.250002
 21
406.000003
  0
LINE
  5
60A
100
AcDbEntity
  8
_0-0_
  6
CONTINUOUS
 62
     0
100
AcDbLine
 10
568.250002
 20
406.000003
 11
569.500002
 21
406.000003
  0
LINE
  5
60B
100
AcDbEntity
  8
_0-0_
  6
CONTINUOUS
 62
     0
100
AcDbLine
 10
563.500002
 20
406.000003
 11
564.750002
 21
406.000003
  0
LINE
  5
60C
100
AcDbEntity
  8
_0-0_
  6
CONTINUOUS
 62
     0
100
AcDbLine
 10
564.750002
 20
406.500003
 11
564.750002
 21
406.000003
  0
ARC
  5
60D
100
AcDbEntity
  8
_0-0_
  6
CONTINUOUS
 62
     0
100
AcDbCircle
 10
563.750002
 20
406.500003
 40
1
100
AcDbArc
 50
0
 51
90
  0
LINE
  5
60E
100
AcDbEntity
  8
_0-0_
  6
CONTINUOUS
 62
     0
100
AcDbLine
 10
563.750002
 20
407.500003
 11
563.500002
 21
407.500003
  0
LINE
  5
60F
100
AcDbEntity
  8
_0-0_
  6
CONTINUOUS
 62
     0
100
AcDbLine
 10
565.0000020001
 20
405.750003
 11
565.0000020001
 21
424.6695588599
  0
LINE
  5
610
100
AcDbEntity
  8
_0-0_
  6
CONTINUOUS
 62
     0
100
AcDbLine
 10
568.0000020001
 20
405.750003
 11
568.0000020001
 21
426.1328218559
  0
ARC
  5
611
100
AcDbEntity
  8
_0-0_
  6
CONTINUOUS
 62
     0
100
AcDbCircle
 10
596.808703117
 20
445.9935368123
 40
0.5
100
AcDbArc
 50
-104.1986608952
 51
73.59045565079
  0
ARC
  5
612
100
AcDbEntity
  8
_0-0_
  6
CONTINUOUS
 62
     0
100
AcDbCircle
 10
589.8874223511
 20
422.4914970592
 40
25
100
AcDbArc
 50
73.59045565079
 51
175
  0
ARC
  5
613
100
AcDbEntity
  8
_0-0_
  6
CONTINUOUS
 62
     0
100
AcDbCircle
 10
591.0230395338
 20
423.126569641
 40
23.08754100601
100
AcDbArc
 50
75.80133910481
 51
176.8159758207
  0
LINE
  5
614
100
AcDbEntity
  8
_0-3_躯体と製品
  6
CONTINUOUS
 62
     0
100
AcDbLine
 10
553.4523369003
 20
415.8783504676
 11
536.1261679781
 21
416.7863765043
  0
LINE
  5
615
100
AcDbEntity
  8
_0-3_躯体と製品
  6
CONTINUOUS
 62
     0
100
AcDbLine
 10
561
 20
406.9
 11
556.8737916224
 21
406.9
  0
LINE
  5
616
100
AcDbEntity
  8
_0-3_躯体と製品
  6
CONTINUOUS
 62
     0
100
AcDbLine
 10
554.4
 20
414.879722
 11
554.4
 21
409.4064171457
  0
LINE
  5
617
100
AcDbEntity
  8
_0-3_躯体と製品
  6
CONTINUOUS
 62
     0
100
AcDbLine
 10
557.000001
 20
408.5
 11
561
 21
408.5
  0
LINE
  5
618
100
AcDbEntity
  8
_0-3_躯体と製品
  6
CONTINUOUS
 62
     0
100
AcDbLine
 10
556
 20
415.3542032657
 11
556
 21
409.375884539
  0
LINE
  5
619
100
AcDbEntity
  8
_0-0_
  6
CONTINUOUS
 62
     0
100
AcDbLine
 10
274
 20
398
 11
274
 21
399
  0
LINE
  5
61A
100
AcDbEntity
  8
_0-0_
  6
CONTINUOUS
 62
     0
100
AcDbLine
 10
566
 20
398
 11
566
 21
399
  0
TEXT
  5
61B
100
AcDbEntity
  8
_0-4_図枠
  6
CONTINUOUS
 62
     0
100
AcDbText
 10
608.8986558504
 20
457.9136998075
 40
5
  1
３
  7
STANDARD
100
AcDbText
  0
TEXT
  5
61C
100
AcDbEntity
  8
_0-4_図枠
  6
CONTINUOUS
 62
     0
100
AcDbText
 10
580.8909188008
 20
470.0557433617
 40
5
  1
４
  7
STANDARD
100
AcDbText
  0
TEXT
  5
61D
100
AcDbEntity
  8
_0-4_図枠
  6
CONTINUOUS
 62
     0
100
AcDbText
 10
566.9591688599
 20
384.8859835099
 40
5
  1
５
  7
STANDARD
100
AcDbText
  0
TEXT
  5
61E
100
AcDbEntity
  8
_0-4_図枠
  6
CONTINUOUS
 62
     0
100
AcDbText
 10
677.0591913254
 20
470.7253645774
 40
5
  1
６
  7
STANDARD
100
AcDbText
  0
TEXT
  5
61F
100
AcDbEntity
  8
_0-4_図枠
  6
CONTINUOUS
 62
     0
100
AcDbText
 10
423.3873567646
 20
373.489126649
 40
5
  1
７
  7
STANDARD
100
AcDbText
  0
LINE
  5
620
100
AcDbEntity
  8
_0-0_
  6
CONTINUOUS
 62
     0
100
AcDbLine
 10
291.8998445643
 20
419.7560362216
 11
292.0041113957
 21
417.7665065592
  0
LINE
  5
621
100
AcDbEntity
  8
_0-0_
  6
CONTINUOUS
 62
     0
100
AcDbLine
 10
297.8916217728
 20
420.0700519591
 11
297.9958886043
 21
418.0805222966
  0
TEXT
  5
622
100
AcDbEntity
  8
_0-4_図枠
  6
CONTINUOUS
 62
     0
100
AcDbText
 10
564.6299775765
 20
466.5340501395
 40
5
  1
９
  7
STANDARD
100
AcDbText
  0
TEXT
  5
623
100
AcDbEntity
  8
_0-4_図枠
  6
CONTINUOUS
 62
     0
100
AcDbText
 10
565.5097964936
 20
369.4600133715
 40
5
  1
10
  7
STANDARD
100
AcDbText
  0
TEXT
  5
624
100
AcDbEntity
  8
_0-4_図枠
  6
CONTINUOUS
 62
     0
100
AcDbText
 10
521.9309946151
 20
378.2438685256
 40
5
  1
12
  7
STANDARD
100
AcDbText
  0
TEXT
  5
625
100
AcDbEntity
  8
_0-4_図枠
  6
CONTINUOUS
 62
     0
100
AcDbText
 10
526.5823748293
 20
347.3286002038
 40
5
  1
11
  7
STANDARD
100
AcDbText
  0
CIRCLE
  5
626
100
AcDbEntity
  8
_0-4_図枠
  6
CONTINUOUS
 62
     0
100
AcDbCircle
 10
268.2715485589
 20
437.8137430069
 40
0.9
  0
LINE
  5
627
100
AcDbEntity
  8
_0-4_図枠
  6
CONTINUOUS
 62
     0
100
AcDbLine
 10
268.2715485589
 20
437.8137430069
 11
252.1594956262
 21
409.9068487133
  0
CIRCLE
  5
628
100
AcDbEntity
  8
_0-4_図枠
  6
CONTINUOUS
 62
     0
100
AcDbCircle
 10
249.1594956262
 20
404.7106962906
 40
6
  0
TEXT
  5
629
100
AcDbEntity
  8
_0-4_図枠
  6
CONTINUOUS
 62
     0
100
AcDbText
 10
245.9094956262
 20
401.7106962906
 40
5
  1
８
  7
STANDARD
100
AcDbText
  0
TEXT
  5
62A
100
AcDbEntity
  8
_0-4_図枠
  6
CONTINUOUS
 62
     0
100
AcDbText
 10
27.54650870913
 20
563.4696321568
 40
10
  1
◇アルミ５０タイプ（５０ＦＹＹＧ－Ａ）
  7
STANDARD
100
AcDbText
  0
TEXT
  5
62B
100
AcDbEntity
  8
_0-2_寸法
  6
CONTINUOUS
 62
     0
100
AcDbText
 10
204.5
 20
268
 40
6
  1
75
  7
STANDARD
100
AcDbText
  0
TEXT
  5
62C
100
AcDbEntity
  8
_0-2_寸法
  6
CONTINUOUS
 62
     0
100
AcDbText
 10
317
 20
268
 40
6
  1
Ｃ
  7
STANDARD
100
AcDbText
  0
TEXT
  5
62D
100
AcDbEntity
  8
_0-0_
  6
CONTINUOUS
 62
     0
100
AcDbText
 10
417
 20
268
 40
6
  1
50
  7
STANDARD
100
AcDbText
  0
TEXT
  5
62E
100
AcDbEntity
  8
_0-2_寸法
  6
CONTINUOUS
 62
     0
100
AcDbText
 10
517
 20
268
 40
6
  1
Ｃ
  7
STANDARD
100
AcDbText
  0
CIRCLE
  5
62F
100
AcDbEntity
  8
_0-2_寸法
  6
CONTINUOUS
 62
     0
100
AcDbCircle
 10
595
 20
268
 40
1.4
  0
TEXT
  5
630
100
AcDbEntity
  8
_0-2_寸法
  6
CONTINUOUS
 62
     0
100
AcDbText
 10
629.5
 20
268
 40
6
  1
75
  7
STANDARD
100
AcDbText
  0
TEXT
  5
631
100
AcDbEntity
  8
_0-4_図枠
  6
CONTINUOUS
 62
     0
100
AcDbText
 10
189
 20
106
 40
5
  1
ステン小ねじ
  7
STANDARD
100
AcDbText
  0
TEXT
  5
632
100
AcDbEntity
  8
_0-4_図枠
  6
CONTINUOUS
 62
     0
100
AcDbText
 10
289
 20
202
 40
5
  1
５０ＦＹＹ－Ａ４００～９００
  7
STANDARD
100
AcDbText
  0
TEXT
  5
633
100
AcDbEntity
  8
_0-4_図枠
  6
CONTINUOUS
 62
     0
100
AcDbText
 10
289
 20
178
 40
5
  1
５０ＦＹＹＨ－３５０～９００
  7
STANDARD
100
AcDbText
  0
TEXT
  5
634
100
AcDbEntity
  8
_0-4_図枠
  6
CONTINUOUS
 62
     0
100
AcDbText
 10
289
 20
142
 40
5
  1
５０ＦＹＹＪ－３５０～９００
  7
STANDARD
100
AcDbText
  0
TEXT
  5
635
100
AcDbEntity
  8
_0-4_図枠
  6
CONTINUOUS
 62
     0
100
AcDbText
 10
289
 20
130
 40
5
  1
ＦＳ４００～９００
  7
STANDARD
100
AcDbText
  0
TEXT
  5
636
100
AcDbEntity
  8
_0-4_図枠
  6
CONTINUOUS
 62
     0
100
AcDbText
 10
289
 20
106
 40
5
  1
なべＭ６×３５
  7
STANDARD
100
AcDbText
  0
TEXT
  5
637
100
AcDbEntity
  8
_0-4_図枠
  6
CONTINUOUS
 62
     0
100
AcDbText
 10
289
 20
94
 40
5
  1
Ｍ６×４０
  7
STANDARD
100
AcDbText
  0
TEXT
  5
638
100
AcDbEntity
  8
_0-4_図枠
  6
CONTINUOUS
 62
     0
100
AcDbText
 10
289
 20
82
 40
5
  1
ＡＧ－６６０
  7
STANDARD
100
AcDbText
  0
TEXT
  5
639
100
AcDbEntity
  8
_0-4_図枠
  6
CONTINUOUS
 62
     0
100
AcDbText
 10
289
 20
70
 40
5
  1
１.５×１８×６.５穴
  7
STANDARD
100
AcDbText
  0
TEXT
  5
63A
100
AcDbEntity
  8
_0-4_図枠
  6
CONTINUOUS
 62
     0
100
AcDbText
 10
289
 20
58
 40
5
  1
ｔ１．０×ｗ３０
  7
STANDARD
100
AcDbText
  0
INSERT
  5
63B
100
AcDbEntity
  8
_0-2_寸法
100
AcDbBlockReference
  2
BK2
 10
0
 20
0
  0
INSERT
  5
63C
100
AcDbEntity
  8
_0-2_寸法
100
AcDbBlockReference
  2
BK3
 10
0
 20
0
  0
INSERT
  5
63D
100
AcDbEntity
  8
_0-2_寸法
100
AcDbBlockReference
  2
BK4
 10
0
 20
0
  0
INSERT
  5
63E
100
AcDbEntity
  8
_0-2_寸法
100
AcDbBlockReference
  2
BK5
 10
0
 20
0
  0
INSERT
  5
63F
100
AcDbEntity
  8
_0-2_寸法
100
AcDbBlockReference
  2
BK6
 10
0
 20
0
  0
INSERT
  5
640
100
AcDbEntity
  8
_0-2_寸法
100
AcDbBlockReference
  2
BK7
 10
0
 20
0
  0
INSERT
  5
641
100
AcDbEntity
  8
_0-2_寸法
100
AcDbBlockReference
  2
BK8
 10
0
 20
0
  0
INSERT
  5
642
100
AcDbEntity
  8
_0-2_寸法
100
AcDbBlockReference
  2
BK9
 10
0
 20
0
  0
INSERT
  5
643
100
AcDbEntity
  8
_0-2_寸法
100
AcDbBlockReference
  2
BK10
 10
0
 20
0
  0
INSERT
  5
644
100
AcDbEntity
  8
_0-2_寸法
100
AcDbBlockReference
  2
BK11
 10
0
 20
0
  0
INSERT
  5
645
100
AcDbEntity
  8
_0-2_寸法
100
AcDbBlockReference
  2
BK12
 10
0
 20
0
  0
INSERT
  5
646
100
AcDbEntity
  8
_0-2_寸法
100
AcDbBlockReference
  2
BK13
 10
0
 20
0
  0
INSERT
  5
647
100
AcDbEntity
  8
_0-2_寸法
100
AcDbBlockReference
  2
BK14
 10
0
 20
0
  0
INSERT
  5
648
100
AcDbEntity
  8
_0-2_寸法
100
AcDbBlockReference
  2
BK15
 10
0
 20
0
  0
INSERT
  5
649
100
AcDbEntity
  8
_0-2_寸法
100
AcDbBlockReference
  2
BK16
 10
0
 20
0
  0
INSERT
  5
64A
100
AcDbEntity
  8
_0-2_寸法
100
AcDbBlockReference
  2
BK17
 10
0
 20
0
  0
INSERT
  5
64B
100
AcDbEntity
  8
_0-2_寸法
100
AcDbBlockReference
  2
BK18
 10
0
 20
0
  0
INSERT
  5
64C
100
AcDbEntity
  8
_0-2_寸法
100
AcDbBlockReference
  2
BK19
 10
0
 20
0
  0
INSERT
  5
64D
100
AcDbEntity
  8
_0-2_寸法
100
AcDbBlockReference
  2
BK20
 10
0
 20
0
  0
INSERT
  5
64E
100
AcDbEntity
  8
_0-2_寸法
100
AcDbBlockReference
  2
BK21
 10
0
 20
0
  0
INSERT
  5
64F
100
AcDbEntity
  8
_0-2_寸法
100
AcDbBlockReference
  2
BK22
 10
0
 20
0
  0
ENDSEC
  0
SECTION
  2
OBJECTS
  0
DICTIONARY
  5
650
100
AcDbDictionary
  3
ACAD_GROUP
350
651
  3
ACAD_IMAGE_DICT
350
652
  3
ACAD_MLINESTYLE
350
653
  0
DICTIONARY
  5
651
330
650
100
AcDbDictionary
  0
DICTIONARY
  5
652
100
AcDbDictionary
  0
DICTIONARY
  5
653
100
AcDbDictionary
  3
STANDARD
350
654
  0
RASTERVARIABLES
  5
655
100
AcDbRasterVariables
 90
     0
 70
     1
 71
     1
 72
     0
  0
MLINESTYLE
  5
654
100
AcDbMlineStyle
  2
STANDARD
 70
     0
  3

 62
   256
 51
90
 52
90
 71
     0
  0
ENDSEC
  0
EOF
