  0
SECTION
  2
HEADER
  9
$ACADVER
  1
AC1015
  9
$DWGCODEPAGE
  3
ANSI_932
  9
$EXTMIN
 10
8
 20
6
  9
$EXTMAX
 10
832
 20
582
  9
$LIMMIN
 10
0
 20
0
  9
$LIMMAX
 10
840
 20
588
  9
$LTSCALE
 40
2
  9
$DIMSCALE
 40
2
  9
$DIMSTYLE
  2
M7DIMSTL
  9
$HANDSEED
  5
7FFFFFFF
  9
$MEASUREMENT
 70
     1
  0
ENDSEC
  0
SECTION
  2
CLASSES
  0
CLASS
  1
CSOFTARXCLASS
  2
CSoftArxClass
  3
CSRasterApi
 90
     0
280
     0
281
     0
  0
CLASS
  1
IMAGEDEF
  2
AcDbRasterImageDef
  3
ISM
 90
     0
280
     0
281
     0
  0
CLASS
  1
RASTERVARIABLES
  2
AcDbRasterVariables
  3
ISM
 90
     0
280
     0
281
     0
  0
CLASS
  1
IMAGE
  2
AcDbRasterImage
  3
ISM
 90
   127
280
     0
281
     0
  0
CLASS
  1
IMAGEDEF_REACTOR
  2
AcDbRasterImageDefReactor
  3
ISM
 90
     1
280
     0
281
     0
  0
CLASS
  1
HATCH
  2
AcDbHatch
  3
M7
 90
     0
280
     0
281
     1
  0
ENDSEC
  0
SECTION
  2
TABLES
  0
TABLE
  2
VPORT
  5
FF
100
AcDbSymbolTable
 70
     5
  0
VPORT
  5
100
100
AcDbSymbolTableRecord
100
AcDbViewportTableRecord
  2
*ACTIVE
 70
     0
 10
0
 20
0
 11
1
 21
1
 12
420
 22
294
 13
0
 23
0
 14
0
 24
0
 15
0
 25
0
 16
0
 26
0
 36
1
 17
0
 27
0
 37
0
 40
294
 41
1.428571428571
 42
50
 43
0
 44
0
 50
0
 51
0
 71
     0
 72
   100
 73
     1
 74
     3
 75
     0
 76
     0
 77
     0
 78
     0
  0
ENDTAB
  0
TABLE
  2
LTYPE
  5
101
100
AcDbSymbolTable
 70
     1
  0
LTYPE
  5
102
100
AcDbSymbolTableRecord
100
AcDbLinetypeTableRecord
  2
BYBLOCK
 70
     0
  3

 72
    65
 73
     0
 40
0
  0
LTYPE
  5
103
100
AcDbSymbolTableRecord
100
AcDbLinetypeTableRecord
  2
BYLAYER
 70
     0
  3

 72
    65
 73
     0
 40
0
  0
LTYPE
  5
104
100
AcDbSymbolTableRecord
100
AcDbLinetypeTableRecord
  2
CONTINUOUS
 70
     0
  3
Solid line
 72
    65
 73
     0
 40
0
  0
LTYPE
  5
105
100
AcDbSymbolTableRecord
100
AcDbLinetypeTableRecord
  2
DOT
 70
     0
  3
...............................
 72
    65
 73
     2
 40
4
 49
1
 74
     0
 49
-1
 74
     0
  0
LTYPE
  5
106
100
AcDbSymbolTableRecord
100
AcDbLinetypeTableRecord
  2
DASHED
 70
     0
  3
- - - - - - - - - - - - - - - -
 72
    65
 73
     2
 40
8
 49
2
 74
     0
 49
-2
 74
     0
  0
LTYPE
  5
107
100
AcDbSymbolTableRecord
100
AcDbLinetypeTableRecord
  2
DASHED2
 70
     0
  3
-- -- -- -- -- -- -- -- -- -- -
 72
    65
 73
     2
 40
16
 49
5
 74
     0
 49
-3
 74
     0
  0
LTYPE
  5
108
100
AcDbSymbolTableRecord
100
AcDbLinetypeTableRecord
  2
CENTER
 70
     0
  3
--------- - --------- - -------
 72
    65
 73
     4
 40
46
 49
20
 74
     0
 49
-1
 74
     0
 49
1
 74
     0
 49
-1
 74
     0
  0
LTYPE
  5
109
100
AcDbSymbolTableRecord
100
AcDbLinetypeTableRecord
  2
CENTERX2
 70
     0
  3
-------------- - --------------
 72
    65
 73
     4
 40
86
 49
40
 74
     0
 49
-1
 74
     0
 49
1
 74
     0
 49
-1
 74
     0
  0
LTYPE
  5
10A
100
AcDbSymbolTableRecord
100
AcDbLinetypeTableRecord
  2
CENTER2
 70
     0
  3
------ - ----- - ------ - -----
 72
    65
 73
     4
 40
26
 49
10
 74
     0
 49
-1
 74
     0
 49
1
 74
     0
 49
-1
 74
     0
  0
LTYPE
  5
10B
100
AcDbSymbolTableRecord
100
AcDbLinetypeTableRecord
  2
PHANTOM
 70
     0
  3
-------- - - ------- - - ------
 72
    65
 73
     6
 40
50
 49
20
 74
     0
 49
-1
 74
     0
 49
1
 74
     0
 49
-1
 74
     0
 49
1
 74
     0
 49
-1
 74
     0
  0
LTYPE
  5
10C
100
AcDbSymbolTableRecord
100
AcDbLinetypeTableRecord
  2
PHANTOMX2
 70
     0
  3
------------- - - -------------
 72
    65
 73
     6
 40
90
 49
40
 74
     0
 49
-1
 74
     0
 49
1
 74
     0
 49
-1
 74
     0
 49
1
 74
     0
 49
-1
 74
     0
  0
LTYPE
  5
10D
100
AcDbSymbolTableRecord
100
AcDbLinetypeTableRecord
  2
PHANTOM2
 70
     0
  3
---- - - ---- - - ---- - - ----
 72
    65
 73
     6
 40
30
 49
10
 74
     0
 49
-1
 74
     0
 49
1
 74
     0
 49
-1
 74
     0
 49
1
 74
     0
 49
-1
 74
     0
  0
LTYPE
  5
10E
100
AcDbSymbolTableRecord
100
AcDbLinetypeTableRecord
  2
ACAD_ISO06W100
 70
     0
  3
------------ - - - ------------
 72
    65
 73
     8
 40
94
 49
40
 74
     0
 49
-1
 74
     0
 49
1
 74
     0
 49
-1
 74
     0
 49
1
 74
     0
 49
-1
 74
     0
 49
1
 74
     0
 49
-1
 74
     0
  0
LTYPE
  5
10F
100
AcDbSymbolTableRecord
100
AcDbLinetypeTableRecord
  2
ACAD_ISO14W100
 70
     0
  3
---- - - - -------- - - - -----
 72
    65
 73
     8
 40
54
 49
20
 74
     0
 49
-1
 74
     0
 49
1
 74
     0
 49
-1
 74
     0
 49
1
 74
     0
 49
-1
 74
     0
 49
1
 74
     0
 49
-1
 74
     0
  0
LTYPE
  5
110
100
AcDbSymbolTableRecord
100
AcDbLinetypeTableRecord
  2
ACAD_ISO11W100
 70
     0
  3
------- ------ - ------- ------
 72
    65
 73
     6
 40
88
 49
20
 74
     0
 49
-1
 74
     0
 49
20
 74
     0
 49
-1
 74
     0
 49
1
 74
     0
 49
-1
 74
     0
  0
LTYPE
  5
111
100
AcDbSymbolTableRecord
100
AcDbLinetypeTableRecord
  2
ACAD_ISO13W100
 70
     0
  3
------ ------ - - ------ ------
 72
    65
 73
     8
 40
92
 49
20
 74
     0
 49
-1
 74
     0
 49
20
 74
     0
 49
-1
 74
     0
 49
1
 74
     0
 49
-1
 74
     0
 49
1
 74
     0
 49
-1
 74
     0
  0
LTYPE
  5
112
100
AcDbSymbolTableRecord
100
AcDbLinetypeTableRecord
  2
ACAD_ISO15W100
 70
     0
  3
------ ----- - - - ------ -----
 72
    65
 73
    10
 40
96
 49
20
 74
     0
 49
-1
 74
     0
 49
20
 74
     0
 49
-1
 74
     0
 49
1
 74
     0
 49
-1
 74
     0
 49
1
 74
     0
 49
-1
 74
     0
 49
1
 74
     0
 49
-1
 74
     0
  0
LTYPE
  5
113
100
AcDbSymbolTableRecord
100
AcDbLinetypeTableRecord
  2
HIDDEN
 70
     0
  3
. . . . . . . . . . . . . . . .
 72
    65
 73
     2
 40
3
 49
1
 74
     0
 49
-0.5
 74
     0
  0
ENDTAB
  0
TABLE
  2
LAYER
  5
114
100
AcDbSymbolTable
 70
     1
  0
LAYER
  5
115
100
AcDbSymbolTableRecord
100
AcDbLayerTableRecord
  2
0
 70
     0
 62
     7
  6
CONTINUOUS
390
116
  0
LAYER
  5
117
100
AcDbSymbolTableRecord
100
AcDbLayerTableRecord
  2
_0-0_0
 70
     0
 62
     7
  6
CONTINUOUS
390
   278
  0
LAYER
  5
118
100
AcDbSymbolTableRecord
100
AcDbLayerTableRecord
  2
_0-2_寸法
 70
     0
 62
     7
  6
CONTINUOUS
390
   278
  0
LAYER
  5
119
100
AcDbSymbolTableRecord
100
AcDbLayerTableRecord
  2
_0-3_躯体と製品
 70
     0
 62
     7
  6
CONTINUOUS
390
   278
  0
LAYER
  5
11A
100
AcDbSymbolTableRecord
100
AcDbLayerTableRecord
  2
_0-4_図枠
 70
     0
 62
     7
  6
CONTINUOUS
390
   278
  0
ENDTAB
  0
TABLE
  2
STYLE
  5
11B
100
AcDbSymbolTable
 70
     1
  0
STYLE
  5
11C
100
AcDbSymbolTableRecord
100
AcDbTextStyleTableRecord
  2
STANDARD
 70
     0
 40
0
 41
0
 50
0
 71
     0
 42
1
  3
txt
  4
bigfont
  0
STYLE
  5
11D
100
AcDbSymbolTableRecord
100
AcDbTextStyleTableRecord
  2
VSTANDARD
 70
     4
 40
0
 41
0
 50
0
 71
     0
 42
1
  3
txt
  4
bigfont
  0
ENDTAB
  0
TABLE
  2
VIEW
  5
11E
100
AcDbSymbolTable
 70
     0
  0
ENDTAB
  0
TABLE
  2
UCS
  5
11F
100
AcDbSymbolTable
 70
     0
  0
ENDTAB
  0
TABLE
  2
APPID
  5
120
100
AcDbSymbolTable
 70
     1
  0
APPID
  5
121
100
AcDbSymbolTableRecord
100
AcDbRegAppTableRecord
  2
ACAD
 70
     0
  0
ENDTAB
  0
TABLE
  2
DIMSTYLE
  5
122
100
AcDbSymbolTable
 70
     1
100
AcDbDimStyleTable
 71
     0
  0
DIMSTYLE
105
123
100
AcDbSymbolTableRecord
100
AcDbDimStyleTableRecord
  2
M7DIMSTL
 70
     0
  3

  4

  5

  6

  7

 40
2
 41
2.5
 42
0.625
 43
3.75
 44
1.25
 45
0
 46
0
 47
0
 48
0
140
2.5
141
2.5
142
0
143
0.03937007874016
144
1
145
0
146
1
147
0.625
 71
     0
 72
     0
 73
     0
 74
     0
 75
     0
 76
     0
 77
     1
 78
     8
170
     0
171
     3
172
     1
173
     0
174
     0
175
     0
176
     0
177
     0
178
     0
270
     2
271
     2
272
     2
273
     2
274
     3
340
11C
275
     0
280
     0
281
     0
282
     0
283
     0
284
     8
285
     0
286
     0
287
     3
288
     0
  0
ENDTAB
  0
TABLE
  2
BLOCK_RECORD
  5
124
100
AcDbSymbolTable
 70
     2
  0
BLOCK_RECORD
  5
125
100
AcDbSymbolTableRecord
100
AcDbBlockTableRecord
  2
*MODEL_SPACE
  0
BLOCK_RECORD
  5
126
100
AcDbSymbolTableRecord
100
AcDbBlockTableRecord
  2
*PAPER_SPACE
  0
BLOCK_RECORD
  5
127
100
AcDbSymbolTableRecord
100
AcDbBlockTableRecord
  2
_DOT
  0
BLOCK_RECORD
  5
128
100
AcDbSymbolTableRecord
100
AcDbBlockTableRecord
  2
_OPEN30
  0
BLOCK_RECORD
  5
129
100
AcDbSymbolTableRecord
100
AcDbBlockTableRecord
  2
_ClosedBlank
  0
BLOCK_RECORD
  5
12A
100
AcDbSymbolTableRecord
100
AcDbBlockTableRecord
  2
_Origin
  0
BLOCK_RECORD
  5
12B
100
AcDbSymbolTableRecord
100
AcDbBlockTableRecord
  2
_Oblique
  0
BLOCK_RECORD
  5
12C
100
AcDbSymbolTableRecord
100
AcDbBlockTableRecord
  2
_Origin2
  0
BLOCK_RECORD
  5
12D
100
AcDbSymbolTableRecord
100
AcDbBlockTableRecord
  2
_BoxBlank
  0
BLOCK_RECORD
  5
12E
100
AcDbSymbolTableRecord
100
AcDbBlockTableRecord
  2
_BoxFilled
  0
BLOCK_RECORD
  5
12F
100
AcDbSymbolTableRecord
100
AcDbBlockTableRecord
  2
_Integral
  0
BLOCK_RECORD
  5
130
100
AcDbSymbolTableRecord
100
AcDbBlockTableRecord
  2
BK2
  0
BLOCK_RECORD
  5
131
100
AcDbSymbolTableRecord
100
AcDbBlockTableRecord
  2
BK3
  0
BLOCK_RECORD
  5
132
100
AcDbSymbolTableRecord
100
AcDbBlockTableRecord
  2
BK4
  0
BLOCK_RECORD
  5
133
100
AcDbSymbolTableRecord
100
AcDbBlockTableRecord
  2
BK5
  0
BLOCK_RECORD
  5
134
100
AcDbSymbolTableRecord
100
AcDbBlockTableRecord
  2
BK6
  0
BLOCK_RECORD
  5
135
100
AcDbSymbolTableRecord
100
AcDbBlockTableRecord
  2
BK7
  0
BLOCK_RECORD
  5
136
100
AcDbSymbolTableRecord
100
AcDbBlockTableRecord
  2
BK8
  0
BLOCK_RECORD
  5
137
100
AcDbSymbolTableRecord
100
AcDbBlockTableRecord
  2
BK9
  0
BLOCK_RECORD
  5
138
100
AcDbSymbolTableRecord
100
AcDbBlockTableRecord
  2
BK10
  0
BLOCK_RECORD
  5
139
100
AcDbSymbolTableRecord
100
AcDbBlockTableRecord
  2
BK11
  0
BLOCK_RECORD
  5
13A
100
AcDbSymbolTableRecord
100
AcDbBlockTableRecord
  2
BK12
  0
BLOCK_RECORD
  5
13B
100
AcDbSymbolTableRecord
100
AcDbBlockTableRecord
  2
BK13
  0
BLOCK_RECORD
  5
13C
100
AcDbSymbolTableRecord
100
AcDbBlockTableRecord
  2
BK14
  0
BLOCK_RECORD
  5
13D
100
AcDbSymbolTableRecord
100
AcDbBlockTableRecord
  2
BK15
  0
BLOCK_RECORD
  5
13E
100
AcDbSymbolTableRecord
100
AcDbBlockTableRecord
  2
BK16
  0
BLOCK_RECORD
  5
13F
100
AcDbSymbolTableRecord
100
AcDbBlockTableRecord
  2
BK17
  0
BLOCK_RECORD
  5
140
100
AcDbSymbolTableRecord
100
AcDbBlockTableRecord
  2
BK18
  0
BLOCK_RECORD
  5
141
100
AcDbSymbolTableRecord
100
AcDbBlockTableRecord
  2
BK19
  0
BLOCK_RECORD
  5
142
100
AcDbSymbolTableRecord
100
AcDbBlockTableRecord
  2
BK20
  0
BLOCK_RECORD
  5
143
100
AcDbSymbolTableRecord
100
AcDbBlockTableRecord
  2
BK21
  0
BLOCK_RECORD
  5
144
100
AcDbSymbolTableRecord
100
AcDbBlockTableRecord
  2
BK22
  0
BLOCK_RECORD
  5
145
100
AcDbSymbolTableRecord
100
AcDbBlockTableRecord
  2
BK23
  0
BLOCK_RECORD
  5
146
100
AcDbSymbolTableRecord
100
AcDbBlockTableRecord
  2
BK24
  0
BLOCK_RECORD
  5
147
100
AcDbSymbolTableRecord
100
AcDbBlockTableRecord
  2
BK25
  0
BLOCK_RECORD
  5
148
100
AcDbSymbolTableRecord
100
AcDbBlockTableRecord
  2
BK26
  0
BLOCK_RECORD
  5
149
100
AcDbSymbolTableRecord
100
AcDbBlockTableRecord
  2
BK27
  0
BLOCK_RECORD
  5
14A
100
AcDbSymbolTableRecord
100
AcDbBlockTableRecord
  2
BK28
  0
BLOCK_RECORD
  5
14B
100
AcDbSymbolTableRecord
100
AcDbBlockTableRecord
  2
BK29
  0
BLOCK_RECORD
  5
14C
100
AcDbSymbolTableRecord
100
AcDbBlockTableRecord
  2
BK30
  0
BLOCK_RECORD
  5
14D
100
AcDbSymbolTableRecord
100
AcDbBlockTableRecord
  2
BK31
  0
BLOCK_RECORD
  5
14E
100
AcDbSymbolTableRecord
100
AcDbBlockTableRecord
  2
BK32
  0
BLOCK_RECORD
  5
14F
100
AcDbSymbolTableRecord
100
AcDbBlockTableRecord
  2
BK33
  0
BLOCK_RECORD
  5
150
100
AcDbSymbolTableRecord
100
AcDbBlockTableRecord
  2
BK34
  0
BLOCK_RECORD
  5
151
100
AcDbSymbolTableRecord
100
AcDbBlockTableRecord
  2
BK35
  0
BLOCK_RECORD
  5
152
100
AcDbSymbolTableRecord
100
AcDbBlockTableRecord
  2
BK36
  0
BLOCK_RECORD
  5
153
100
AcDbSymbolTableRecord
100
AcDbBlockTableRecord
  2
BK37
  0
BLOCK_RECORD
  5
154
100
AcDbSymbolTableRecord
100
AcDbBlockTableRecord
  2
BK38
  0
BLOCK_RECORD
  5
155
100
AcDbSymbolTableRecord
100
AcDbBlockTableRecord
  2
BK39
  0
BLOCK_RECORD
  5
156
100
AcDbSymbolTableRecord
100
AcDbBlockTableRecord
  2
BK40
  0
BLOCK_RECORD
  5
157
100
AcDbSymbolTableRecord
100
AcDbBlockTableRecord
  2
BK41
  0
BLOCK_RECORD
  5
158
100
AcDbSymbolTableRecord
100
AcDbBlockTableRecord
  2
BK42
  0
ENDTAB
  0
ENDSEC
  0
SECTION
  2
BLOCKS
  0
BLOCK
  5
159
100
AcDbEntity
  8
0
100
AcDbBlockBegin
  2
*MODEL_SPACE
 70
     0
 10
0
 20
0
  3
*MODEL_SPACE
  1

  0
ENDBLK
  5
15A
100
AcDbEntity
  8
0
100
AcDbBlockEnd
  0
BLOCK
  5
15B
100
AcDbEntity
 67
     1
  8
0
100
AcDbBlockBegin
  2
*PAPER_SPACE
 70
     0
 10
0
 20
0
  3
*PAPER_SPACE
  1

  0
ENDBLK
  5
15C
100
AcDbEntity
 67
     1
  8
0
100
AcDbBlockEnd
  0
BLOCK
  5
15D
100
AcDbEntity
 67
     1
  8
0
100
AcDbBlockBegin
  2
_DOT
 70
     0
 10
0
 20
0
  3
_DOT
  1

  0
LWPOLYLINE
  5
15E
100
AcDbEntity
  8
0
  6
BYBLOCK
 62
     0
100
AcDbPolyline
 90
     2
 70
     1
 43
0.5
 10
-0.25
 20
0
 42
1
 10
0.25
 20
0
 42
1
  0
LINE
  5
15F
100
AcDbEntity
  8
0
  6
BYBLOCK
 62
     0
100
AcDbLine
 10
-0.5
 20
0
 11
-1
 21
0
  0
ENDBLK
  5
160
100
AcDbEntity
  8
0
100
AcDbBlockEnd
  0
BLOCK
  5
161
100
AcDbEntity
 67
     1
  8
0
100
AcDbBlockBegin
  2
_OPEN30
 70
     0
 10
0
 20
0
  3
_OPEN30
  1

  0
LINE
  5
162
100
AcDbEntity
  8
0
  6
BYBLOCK
 62
     0
100
AcDbLine
 10
-1
 20
0.26794919
 11
0
 21
0
  0
LINE
  5
163
100
AcDbEntity
  8
0
  6
BYBLOCK
 62
     0
100
AcDbLine
 10
-1
 20
-0.26794919
 11
0
 21
0
  0
LINE
  5
164
100
AcDbEntity
  8
0
  6
BYBLOCK
 62
     0
100
AcDbLine
 10
0
 20
0
 11
-1
 21
0
  0
ENDBLK
  5
165
100
AcDbEntity
  8
0
100
AcDbBlockEnd
  0
BLOCK
  5
166
100
AcDbEntity
 67
     1
  8
0
100
AcDbBlockBegin
  2
_ClosedBlank
 70
     0
 10
0
 20
0
  3
_ClosedBlank
  1

  0
LINE
  5
167
100
AcDbEntity
  8
0
  6
BYBLOCK
 62
     0
100
AcDbLine
 10
-1
 20
0.1666666666667
 11
0
 21
0
  0
LINE
  5
168
100
AcDbEntity
  8
0
  6
BYBLOCK
 62
     0
100
AcDbLine
 10
0
 20
0
 11
-1
 21
-0.1666666666667
  0
LINE
  5
169
100
AcDbEntity
  8
0
  6
BYBLOCK
 62
     0
100
AcDbLine
 10
-1
 20
0.1666666666667
 11
-1
 21
-0.1666666666667
  0
ENDBLK
  5
16A
100
AcDbEntity
  8
0
100
AcDbBlockEnd
  0
BLOCK
  5
16B
100
AcDbEntity
 67
     1
  8
0
100
AcDbBlockBegin
  2
_Origin
 70
     0
 10
0
 20
0
  3
_Origin
  1

  0
CIRCLE
  5
16C
100
AcDbEntity
  8
0
  6
BYBLOCK
 62
     0
100
AcDbCircle
 10
0
 20
0
 40
0.5
  0
LINE
  5
16D
100
AcDbEntity
  8
0
  6
BYBLOCK
 62
     0
100
AcDbLine
 10
0
 20
0
 11
-1
 21
0
  0
ENDBLK
  5
16E
100
AcDbEntity
  8
0
100
AcDbBlockEnd
  0
BLOCK
  5
16F
100
AcDbEntity
 67
     1
  8
0
100
AcDbBlockBegin
  2
_Oblique
 70
     0
 10
0
 20
0
  3
_Oblique
  1

  0
LINE
  5
170
100
AcDbEntity
  8
0
  6
BYBLOCK
 62
     0
100
AcDbLine
 10
-0.5
 20
-0.5
 11
0.5
 21
0.5
  0
ENDBLK
  5
171
100
AcDbEntity
  8
0
100
AcDbBlockEnd
  0
BLOCK
  5
172
100
AcDbEntity
 67
     1
  8
0
100
AcDbBlockBegin
  2
_Origin2
 70
     0
 10
0
 20
0
  3
_Origin2
  1

  0
CIRCLE
  5
173
100
AcDbEntity
  8
0
  6
BYBLOCK
 62
     0
100
AcDbCircle
 10
0
 20
0
 40
0.5
  0
CIRCLE
  5
174
100
AcDbEntity
  8
0
  6
BYBLOCK
 62
     0
100
AcDbCircle
 10
0
 20
0
 40
0.25
  0
LINE
  5
175
100
AcDbEntity
  8
0
  6
BYBLOCK
 62
     0
100
AcDbLine
 10
-0.5
 20
0
 11
-1
 21
0
  0
ENDBLK
  5
176
100
AcDbEntity
  8
0
100
AcDbBlockEnd
  0
BLOCK
  5
177
100
AcDbEntity
 67
     1
  8
0
100
AcDbBlockBegin
  2
_BoxBlank
 70
     0
 10
0
 20
0
  3
_BoxBlank
  1

  0
LINE
  5
178
100
AcDbEntity
  8
0
  6
BYBLOCK
 62
     0
100
AcDbLine
 10
-0.5
 20
-0.5
 11
0.5
 21
-0.5
  0
LINE
  5
179
100
AcDbEntity
  8
0
  6
BYBLOCK
 62
     0
100
AcDbLine
 10
0.5
 20
-0.5
 11
0.5
 21
0.5
  0
LINE
  5
17A
100
AcDbEntity
  8
0
  6
BYBLOCK
 62
     0
100
AcDbLine
 10
0.5
 20
0.5
 11
-0.5
 21
0.5
  0
LINE
  5
17B
100
AcDbEntity
  8
0
  6
BYBLOCK
 62
     0
100
AcDbLine
 10
-0.5
 20
0.5
 11
-0.5
 21
-0.5
  0
LINE
  5
17C
100
AcDbEntity
  8
0
  6
BYBLOCK
 62
     0
100
AcDbLine
 10
-0.5
 20
0
 11
-1
 21
0
  0
ENDBLK
  5
17D
100
AcDbEntity
  8
0
100
AcDbBlockEnd
  0
BLOCK
  5
17E
100
AcDbEntity
 67
     1
  8
0
100
AcDbBlockBegin
  2
_BoxFilled
 70
     0
 10
0
 20
0
  3
_BoxFilled
  1

  0
SOLID
  5
17F
100
AcDbEntity
  8
0
  6
BYBLOCK
 62
     0
100
AcDbTrace
 10
-0.5
 20
0.5
 11
0.5
 21
0.5
 12
-0.5
 22
-0.5
 13
0.5
 23
-0.5
  0
LINE
  5
180
100
AcDbEntity
  8
0
  6
BYBLOCK
 62
     0
100
AcDbLine
 10
-0.5
 20
0
 11
-1
 21
0
  0
ENDBLK
  5
181
100
AcDbEntity
  8
0
100
AcDbBlockEnd
  0
BLOCK
  5
182
100
AcDbEntity
 67
     1
  8
0
100
AcDbBlockBegin
  2
_Integral
 70
     0
 10
0
 20
0
  3
_Integral
  1

  0
ARC
  5
183
100
AcDbEntity
  8
0
  6
BYBLOCK
 62
     0
100
AcDbCircle
 10
0.44488802
 20
-0.09133463
 40
0.45416667
100
AcDbArc
 50
101.999999998
 51
167.9999999799
  0
ARC
  5
184
100
AcDbEntity
  8
0
  6
BYBLOCK
 62
     0
100
AcDbCircle
 10
-0.44488802
 20
0.09133463
 40
0.45416667
100
AcDbArc
 50
282.0000000215
 51
348.0000000034
  0
ENDBLK
  5
185
100
AcDbEntity
  8
0
100
AcDbBlockEnd
  0
BLOCK
  5
186
100
AcDbEntity
  8
_0-2_寸法
100
AcDbBlockBegin
  2
BK2
 70
    64
 10
0
 20
0
  3
BK2
  1

  0
CIRCLE
  5
187
100
AcDbEntity
  8
_0-2_寸法
  6
CONTINUOUS
 62
     0
100
AcDbCircle
 10
306.5
 20
264
 40
0.25
  0
LINE
  5
188
100
AcDbEntity
  8
_0-2_寸法
  6
CONTINUOUS
 62
     0
100
AcDbLine
 10
306.25
 20
264
 11
306.75
 21
264
  0
LINE
  5
189
100
AcDbEntity
  8
_0-2_寸法
  6
CONTINUOUS
 62
     0
100
AcDbLine
 10
307
 20
264
 11
307.5
 21
264
  0
ENDBLK
  5
18A
100
AcDbEntity
 67
     1
  8
_0-2_寸法
100
AcDbBlockEnd
  0
BLOCK
  5
18B
100
AcDbEntity
  8
_0-2_寸法
100
AcDbBlockBegin
  2
BK3
 70
    64
 10
0
 20
0
  3
BK3
  1

  0
CIRCLE
  5
18C
100
AcDbEntity
  8
_0-2_寸法
  6
CONTINUOUS
 62
     0
100
AcDbCircle
 10
331.5
 20
264
 40
0.25
  0
LINE
  5
18D
100
AcDbEntity
  8
_0-2_寸法
  6
CONTINUOUS
 62
     0
100
AcDbLine
 10
331.75
 20
264
 11
331.25
 21
264
  0
LINE
  5
18E
100
AcDbEntity
  8
_0-2_寸法
  6
CONTINUOUS
 62
     0
100
AcDbLine
 10
331
 20
264
 11
330.5
 21
264
  0
ENDBLK
  5
18F
100
AcDbEntity
 67
     1
  8
_0-2_寸法
100
AcDbBlockEnd
  0
BLOCK
  5
190
100
AcDbEntity
  8
_0-2_寸法
100
AcDbBlockBegin
  2
BK4
 70
    64
 10
0
 20
0
  3
BK4
  1

  0
CIRCLE
  5
191
100
AcDbEntity
  8
_0-2_寸法
  6
CONTINUOUS
 62
     0
100
AcDbCircle
 10
331.5
 20
264
 40
0.25
  0
LINE
  5
192
100
AcDbEntity
  8
_0-2_寸法
  6
CONTINUOUS
 62
     0
100
AcDbLine
 10
331.25
 20
264
 11
331.75
 21
264
  0
LINE
  5
193
100
AcDbEntity
  8
_0-2_寸法
  6
CONTINUOUS
 62
     0
100
AcDbLine
 10
332
 20
264
 11
332.5
 21
264
  0
ENDBLK
  5
194
100
AcDbEntity
 67
     1
  8
_0-2_寸法
100
AcDbBlockEnd
  0
BLOCK
  5
195
100
AcDbEntity
  8
_0-2_寸法
100
AcDbBlockBegin
  2
BK5
 70
    64
 10
0
 20
0
  3
BK5
  1

  0
CIRCLE
  5
196
100
AcDbEntity
  8
_0-2_寸法
  6
CONTINUOUS
 62
     0
100
AcDbCircle
 10
381.5
 20
264
 40
0.25
  0
LINE
  5
197
100
AcDbEntity
  8
_0-2_寸法
  6
CONTINUOUS
 62
     0
100
AcDbLine
 10
381.75
 20
264
 11
381.25
 21
264
  0
LINE
  5
198
100
AcDbEntity
  8
_0-2_寸法
  6
CONTINUOUS
 62
     0
100
AcDbLine
 10
381
 20
264
 11
380.5
 21
264
  0
ENDBLK
  5
199
100
AcDbEntity
 67
     1
  8
_0-2_寸法
100
AcDbBlockEnd
  0
BLOCK
  5
19A
100
AcDbEntity
  8
_0-2_寸法
100
AcDbBlockBegin
  2
BK6
 70
    64
 10
0
 20
0
  3
BK6
  1

  0
CIRCLE
  5
19B
100
AcDbEntity
  8
_0-2_寸法
  6
CONTINUOUS
 62
     0
100
AcDbCircle
 10
381.5
 20
264
 40
0.25
  0
LINE
  5
19C
100
AcDbEntity
  8
_0-2_寸法
  6
CONTINUOUS
 62
     0
100
AcDbLine
 10
381.25
 20
264
 11
381.75
 21
264
  0
LINE
  5
19D
100
AcDbEntity
  8
_0-2_寸法
  6
CONTINUOUS
 62
     0
100
AcDbLine
 10
382
 20
264
 11
382.5
 21
264
  0
ENDBLK
  5
19E
100
AcDbEntity
 67
     1
  8
_0-2_寸法
100
AcDbBlockEnd
  0
BLOCK
  5
19F
100
AcDbEntity
  8
_0-2_寸法
100
AcDbBlockBegin
  2
BK7
 70
    64
 10
0
 20
0
  3
BK7
  1

  0
CIRCLE
  5
1A0
100
AcDbEntity
  8
_0-2_寸法
  6
CONTINUOUS
 62
     0
100
AcDbCircle
 10
481.5
 20
264
 40
0.25
  0
LINE
  5
1A1
100
AcDbEntity
  8
_0-2_寸法
  6
CONTINUOUS
 62
     0
100
AcDbLine
 10
481.75
 20
264
 11
481.25
 21
264
  0
LINE
  5
1A2
100
AcDbEntity
  8
_0-2_寸法
  6
CONTINUOUS
 62
     0
100
AcDbLine
 10
481
 20
264
 11
480.5
 21
264
  0
ENDBLK
  5
1A3
100
AcDbEntity
 67
     1
  8
_0-2_寸法
100
AcDbBlockEnd
  0
BLOCK
  5
1A4
100
AcDbEntity
  8
_0-2_寸法
100
AcDbBlockBegin
  2
BK8
 70
    64
 10
0
 20
0
  3
BK8
  1

  0
CIRCLE
  5
1A5
100
AcDbEntity
  8
_0-2_寸法
  6
CONTINUOUS
 62
     0
100
AcDbCircle
 10
481.5
 20
264.0434120444
 40
0.25
  0
LINE
  5
1A6
100
AcDbEntity
  8
_0-2_寸法
  6
CONTINUOUS
 62
     0
100
AcDbLine
 10
481.25
 20
264.0434120444
 11
481.75
 21
264.0434120444
  0
LINE
  5
1A7
100
AcDbEntity
  8
_0-2_寸法
  6
CONTINUOUS
 62
     0
100
AcDbLine
 10
482
 20
264.0434120444
 11
482.5
 21
264.0434120444
  0
ENDBLK
  5
1A8
100
AcDbEntity
 67
     1
  8
_0-2_寸法
100
AcDbBlockEnd
  0
BLOCK
  5
1A9
100
AcDbEntity
  8
_0-2_寸法
100
AcDbBlockBegin
  2
BK9
 70
    64
 10
0
 20
0
  3
BK9
  1

  0
CIRCLE
  5
1AA
100
AcDbEntity
  8
_0-2_寸法
  6
CONTINUOUS
 62
     0
100
AcDbCircle
 10
532.5
 20
264.0434120444
 40
0.25
  0
LINE
  5
1AB
100
AcDbEntity
  8
_0-2_寸法
  6
CONTINUOUS
 62
     0
100
AcDbLine
 10
532.75
 20
264.0434120444
 11
532.25
 21
264.0434120444
  0
LINE
  5
1AC
100
AcDbEntity
  8
_0-2_寸法
  6
CONTINUOUS
 62
     0
100
AcDbLine
 10
532
 20
264.0434120444
 11
531.5
 21
264.0434120444
  0
ENDBLK
  5
1AD
100
AcDbEntity
 67
     1
  8
_0-2_寸法
100
AcDbBlockEnd
  0
BLOCK
  5
1AE
100
AcDbEntity
  8
_0-2_寸法
100
AcDbBlockBegin
  2
BK10
 70
    64
 10
0
 20
0
  3
BK10
  1

  0
CIRCLE
  5
1AF
100
AcDbEntity
  8
_0-2_寸法
  6
CONTINUOUS
 62
     0
100
AcDbCircle
 10
532.5
 20
543.9716498733
 40
0.25
  0
LINE
  5
1B0
100
AcDbEntity
  8
_0-2_寸法
  6
CONTINUOUS
 62
     0
100
AcDbLine
 10
532.75
 20
543.9716498733
 11
532.25
 21
543.9716498733
  0
LINE
  5
1B1
100
AcDbEntity
  8
_0-2_寸法
  6
CONTINUOUS
 62
     0
100
AcDbLine
 10
532
 20
543.9716498733
 11
531.5
 21
543.9716498733
  0
ENDBLK
  5
1B2
100
AcDbEntity
 67
     1
  8
_0-2_寸法
100
AcDbBlockEnd
  0
BLOCK
  5
1B3
100
AcDbEntity
  8
_0-2_寸法
100
AcDbBlockBegin
  2
BK11
 70
    64
 10
0
 20
0
  3
BK11
  1

  0
CIRCLE
  5
1B4
100
AcDbEntity
  8
_0-2_寸法
  6
CONTINUOUS
 62
     0
100
AcDbCircle
 10
307.5
 20
543.9716498733
 40
0.25
  0
LINE
  5
1B5
100
AcDbEntity
  8
_0-2_寸法
  6
CONTINUOUS
 62
     0
100
AcDbLine
 10
307.25
 20
543.9716498733
 11
307.75
 21
543.9716498733
  0
LINE
  5
1B6
100
AcDbEntity
  8
_0-2_寸法
  6
CONTINUOUS
 62
     0
100
AcDbLine
 10
308
 20
543.9716498733
 11
308.5
 21
543.9716498733
  0
ENDBLK
  5
1B7
100
AcDbEntity
 67
     1
  8
_0-2_寸法
100
AcDbBlockEnd
  0
BLOCK
  5
1B8
100
AcDbEntity
  8
_0-2_寸法
100
AcDbBlockBegin
  2
BK12
 70
    64
 10
0
 20
0
  3
BK12
  1

  0
LINE
  5
1B9
100
AcDbEntity
  8
_0-2_寸法
  6
CONTINUOUS
 62
     0
100
AcDbLine
 10
432.5
 20
309
 11
480.5
 21
309
  0
TEXT
  5
1BA
100
AcDbEntity
  8
_0-2_寸法
  6
CONTINUOUS
 62
     0
100
AcDbText
 10
454
 20
310
 40
5
  1
50
  7
STANDARD
100
AcDbText
  0
CIRCLE
  5
1BB
100
AcDbEntity
  8
_0-2_寸法
  6
CONTINUOUS
 62
     0
100
AcDbCircle
 10
431.5
 20
309
 40
1.4
  0
CIRCLE
  5
1BC
100
AcDbEntity
  8
_0-2_寸法
  6
CONTINUOUS
 62
     0
100
AcDbCircle
 10
481.5
 20
309
 40
1.4
  0
CIRCLE
  5
1BD
100
AcDbEntity
  8
_0-2_寸法
  6
CONTINUOUS
 62
     0
100
AcDbCircle
 10
481.5
 20
309
 40
1.4
  0
ENDBLK
  5
1BE
100
AcDbEntity
 67
     1
  8
_0-2_寸法
100
AcDbBlockEnd
  0
BLOCK
  5
1BF
100
AcDbEntity
  8
_0-2_寸法
100
AcDbBlockBegin
  2
BK13
 70
    64
 10
0
 20
0
  3
BK13
  1

  0
CIRCLE
  5
1C0
100
AcDbEntity
  8
_0-2_寸法
  6
CONTINUOUS
 62
     0
100
AcDbCircle
 10
431.5
 20
309
 40
0.25
  0
LINE
  5
1C1
100
AcDbEntity
  8
_0-2_寸法
  6
CONTINUOUS
 62
     0
100
AcDbLine
 10
431.25
 20
309
 11
431.75
 21
309
  0
LINE
  5
1C2
100
AcDbEntity
  8
_0-2_寸法
  6
CONTINUOUS
 62
     0
100
AcDbLine
 10
432
 20
309
 11
432.5
 21
309
  0
ENDBLK
  5
1C3
100
AcDbEntity
 67
     1
  8
_0-2_寸法
100
AcDbBlockEnd
  0
BLOCK
  5
1C4
100
AcDbEntity
  8
_0-2_寸法
100
AcDbBlockBegin
  2
BK14
 70
    64
 10
0
 20
0
  3
BK14
  1

  0
CIRCLE
  5
1C5
100
AcDbEntity
  8
_0-2_寸法
  6
CONTINUOUS
 62
     0
100
AcDbCircle
 10
481.5
 20
309
 40
0.25
  0
LINE
  5
1C6
100
AcDbEntity
  8
_0-2_寸法
  6
CONTINUOUS
 62
     0
100
AcDbLine
 10
481.75
 20
309
 11
481.25
 21
309
  0
LINE
  5
1C7
100
AcDbEntity
  8
_0-2_寸法
  6
CONTINUOUS
 62
     0
100
AcDbLine
 10
481
 20
309
 11
480.5
 21
309
  0
ENDBLK
  5
1C8
100
AcDbEntity
 67
     1
  8
_0-2_寸法
100
AcDbBlockEnd
  0
BLOCK
  5
1C9
100
AcDbEntity
  8
_0-2_寸法
100
AcDbBlockBegin
  2
BK15
 70
    64
 10
0
 20
0
  3
BK15
  1

  0
LINE
  5
1CA
100
AcDbEntity
  8
_0-2_寸法
  6
CONTINUOUS
 62
     0
100
AcDbLine
 10
534.5
 20
327.8801541434
 11
572.5
 21
327.8801541434
  0
LINE
  5
1CB
100
AcDbEntity
  8
_0-2_寸法
  6
CONTINUOUS
 62
     0
100
AcDbLine
 10
485.5
 20
369
 11
572.5
 21
369
  0
LINE
  5
1CC
100
AcDbEntity
  8
_0-2_寸法
  6
CONTINUOUS
 62
     0
100
AcDbLine
 10
572.5
 20
328.8801541434
 11
572.5
 21
368
  0
TEXT
  5
1CD
100
AcDbEntity
  8
_0-2_寸法
  6
CONTINUOUS
 62
     0
100
AcDbText
 10
571.5
 20
345.9400770717
 40
5
  1
44
 50
90
  7
STANDARD
100
AcDbText
  0
CIRCLE
  5
1CE
100
AcDbEntity
  8
_0-2_寸法
  6
CONTINUOUS
 62
     0
100
AcDbCircle
 10
534.5
 20
327.8801541434
 40
1.4
  0
CIRCLE
  5
1CF
100
AcDbEntity
  8
_0-2_寸法
  6
CONTINUOUS
 62
     0
100
AcDbCircle
 10
485.5
 20
369
 40
1.4
  0
CIRCLE
  5
1D0
100
AcDbEntity
  8
_0-2_寸法
  6
CONTINUOUS
 62
     0
100
AcDbCircle
 10
572.5
 20
369
 40
1.4
  0
ENDBLK
  5
1D1
100
AcDbEntity
 67
     1
  8
_0-2_寸法
100
AcDbBlockEnd
  0
BLOCK
  5
1D2
100
AcDbEntity
  8
_0-2_寸法
100
AcDbBlockBegin
  2
BK16
 70
    64
 10
0
 20
0
  3
BK16
  1

  0
CIRCLE
  5
1D3
100
AcDbEntity
  8
_0-2_寸法
  6
CONTINUOUS
 62
     0
100
AcDbCircle
 10
572.5
 20
327.8801541434
 40
0.25
  0
LINE
  5
1D4
100
AcDbEntity
  8
_0-2_寸法
  6
CONTINUOUS
 62
     0
100
AcDbLine
 10
572.5
 20
327.6301541434
 11
572.5
 21
328.1301541434
  0
LINE
  5
1D5
100
AcDbEntity
  8
_0-2_寸法
  6
CONTINUOUS
 62
     0
100
AcDbLine
 10
572.5
 20
328.3801541434
 11
572.5
 21
328.8801541434
  0
ENDBLK
  5
1D6
100
AcDbEntity
 67
     1
  8
_0-2_寸法
100
AcDbBlockEnd
  0
BLOCK
  5
1D7
100
AcDbEntity
  8
_0-2_寸法
100
AcDbBlockBegin
  2
BK17
 70
    64
 10
0
 20
0
  3
BK17
  1

  0
CIRCLE
  5
1D8
100
AcDbEntity
  8
_0-2_寸法
  6
CONTINUOUS
 62
     0
100
AcDbCircle
 10
572.5
 20
369
 40
0.25
  0
LINE
  5
1D9
100
AcDbEntity
  8
_0-2_寸法
  6
CONTINUOUS
 62
     0
100
AcDbLine
 10
572.5
 20
369.25
 11
572.5
 21
368.75
  0
LINE
  5
1DA
100
AcDbEntity
  8
_0-2_寸法
  6
CONTINUOUS
 62
     0
100
AcDbLine
 10
572.5
 20
368.5
 11
572.5
 21
368
  0
ENDBLK
  5
1DB
100
AcDbEntity
 67
     1
  8
_0-2_寸法
100
AcDbBlockEnd
  0
BLOCK
  5
1DC
100
AcDbEntity
  8
_0-2_寸法
100
AcDbBlockBegin
  2
BK18
 70
    64
 10
0
 20
0
  3
BK18
  1

  0
LINE
  5
1DD
100
AcDbEntity
  8
_0-2_寸法
  6
CONTINUOUS
 62
     0
100
AcDbLine
 10
534.5
 20
327.8801541434
 11
592.5
 21
327.8801541434
  0
LINE
  5
1DE
100
AcDbEntity
  8
_0-2_寸法
  6
CONTINUOUS
 62
     0
100
AcDbLine
 10
534.5
 20
417.8801541434
 11
592.5
 21
417.8801541434
  0
LINE
  5
1DF
100
AcDbEntity
  8
_0-2_寸法
  6
CONTINUOUS
 62
     0
100
AcDbLine
 10
592.5
 20
328.8801541434
 11
592.5
 21
416.8801541434
  0
TEXT
  5
1E0
100
AcDbEntity
  8
_0-2_寸法
  6
CONTINUOUS
 62
     0
100
AcDbText
 10
591.5
 20
370.3801541434
 40
5
  1
90
 50
90
  7
STANDARD
100
AcDbText
  0
CIRCLE
  5
1E1
100
AcDbEntity
  8
_0-2_寸法
  6
CONTINUOUS
 62
     0
100
AcDbCircle
 10
534.5
 20
327.8801541434
 40
1.4
  0
CIRCLE
  5
1E2
100
AcDbEntity
  8
_0-2_寸法
  6
CONTINUOUS
 62
     0
100
AcDbCircle
 10
534.5
 20
417.8801541434
 40
1.4
  0
CIRCLE
  5
1E3
100
AcDbEntity
  8
_0-2_寸法
  6
CONTINUOUS
 62
     0
100
AcDbCircle
 10
592.5
 20
417.8801541434
 40
1.4
  0
ENDBLK
  5
1E4
100
AcDbEntity
 67
     1
  8
_0-2_寸法
100
AcDbBlockEnd
  0
BLOCK
  5
1E5
100
AcDbEntity
  8
_0-2_寸法
100
AcDbBlockBegin
  2
BK19
 70
    64
 10
0
 20
0
  3
BK19
  1

  0
CIRCLE
  5
1E6
100
AcDbEntity
  8
_0-2_寸法
  6
CONTINUOUS
 62
     0
100
AcDbCircle
 10
592.5
 20
327.8801541434
 40
0.25
  0
LINE
  5
1E7
100
AcDbEntity
  8
_0-2_寸法
  6
CONTINUOUS
 62
     0
100
AcDbLine
 10
592.5
 20
327.6301541434
 11
592.5
 21
328.1301541434
  0
LINE
  5
1E8
100
AcDbEntity
  8
_0-2_寸法
  6
CONTINUOUS
 62
     0
100
AcDbLine
 10
592.5
 20
328.3801541434
 11
592.5
 21
328.8801541434
  0
ENDBLK
  5
1E9
100
AcDbEntity
 67
     1
  8
_0-2_寸法
100
AcDbBlockEnd
  0
BLOCK
  5
1EA
100
AcDbEntity
  8
_0-2_寸法
100
AcDbBlockBegin
  2
BK20
 70
    64
 10
0
 20
0
  3
BK20
  1

  0
CIRCLE
  5
1EB
100
AcDbEntity
  8
_0-2_寸法
  6
CONTINUOUS
 62
     0
100
AcDbCircle
 10
592.5
 20
417.8801541434
 40
0.25
  0
LINE
  5
1EC
100
AcDbEntity
  8
_0-2_寸法
  6
CONTINUOUS
 62
     0
100
AcDbLine
 10
592.5
 20
418.1301541434
 11
592.5
 21
417.6301541434
  0
LINE
  5
1ED
100
AcDbEntity
  8
_0-2_寸法
  6
CONTINUOUS
 62
     0
100
AcDbLine
 10
592.5
 20
417.3801541434
 11
592.5
 21
416.8801541434
  0
ENDBLK
  5
1EE
100
AcDbEntity
 67
     1
  8
_0-2_寸法
100
AcDbBlockEnd
  0
BLOCK
  5
1EF
100
AcDbEntity
  8
_0-2_寸法
100
AcDbBlockBegin
  2
BK21
 70
    64
 10
0
 20
0
  3
BK21
  1

  0
LINE
  5
1F0
100
AcDbEntity
  8
_0-2_寸法
  6
CONTINUOUS
 62
     0
100
AcDbLine
 10
532.5
 20
419.8801541434
 11
532.5
 21
461.9716498733
  0
LINE
  5
1F1
100
AcDbEntity
  8
_0-2_寸法
  6
CONTINUOUS
 62
     0
100
AcDbLine
 10
322.5
 20
442.8857877928
 11
322.5
 21
461.9716498733
  0
LINE
  5
1F2
100
AcDbEntity
  8
_0-2_寸法
  6
CONTINUOUS
 62
     0
100
AcDbLine
 10
531.5
 20
461.9716498733
 11
323.5
 21
461.9716498733
  0
TEXT
  5
1F3
100
AcDbEntity
  8
_0-2_寸法
  6
CONTINUOUS
 62
     0
100
AcDbText
 10
426.25
 20
462.9716498733
 40
5
  1
A
  7
STANDARD
100
AcDbText
  0
CIRCLE
  5
1F4
100
AcDbEntity
  8
_0-2_寸法
  6
CONTINUOUS
 62
     0
100
AcDbCircle
 10
532.5
 20
419.8801541434
 40
1.4
  0
CIRCLE
  5
1F5
100
AcDbEntity
  8
_0-2_寸法
  6
CONTINUOUS
 62
     0
100
AcDbCircle
 10
322.5
 20
442.8857877928
 40
1.4
  0
CIRCLE
  5
1F6
100
AcDbEntity
  8
_0-2_寸法
  6
CONTINUOUS
 62
     0
100
AcDbCircle
 10
322.5
 20
461.9716498733
 40
1.4
  0
ENDBLK
  5
1F7
100
AcDbEntity
 67
     1
  8
_0-2_寸法
100
AcDbBlockEnd
  0
BLOCK
  5
1F8
100
AcDbEntity
  8
_0-2_寸法
100
AcDbBlockBegin
  2
BK22
 70
    64
 10
0
 20
0
  3
BK22
  1

  0
CIRCLE
  5
1F9
100
AcDbEntity
  8
_0-2_寸法
  6
CONTINUOUS
 62
     0
100
AcDbCircle
 10
532.5
 20
461.9716498733
 40
0.25
  0
LINE
  5
1FA
100
AcDbEntity
  8
_0-2_寸法
  6
CONTINUOUS
 62
     0
100
AcDbLine
 10
532.75
 20
461.9716498733
 11
532.25
 21
461.9716498733
  0
LINE
  5
1FB
100
AcDbEntity
  8
_0-2_寸法
  6
CONTINUOUS
 62
     0
100
AcDbLine
 10
532
 20
461.9716498733
 11
531.5
 21
461.9716498733
  0
ENDBLK
  5
1FC
100
AcDbEntity
 67
     1
  8
_0-2_寸法
100
AcDbBlockEnd
  0
BLOCK
  5
1FD
100
AcDbEntity
  8
_0-2_寸法
100
AcDbBlockBegin
  2
BK23
 70
    64
 10
0
 20
0
  3
BK23
  1

  0
CIRCLE
  5
1FE
100
AcDbEntity
  8
_0-2_寸法
  6
CONTINUOUS
 62
     0
100
AcDbCircle
 10
322.5
 20
461.9716498733
 40
0.25
  0
LINE
  5
1FF
100
AcDbEntity
  8
_0-2_寸法
  6
CONTINUOUS
 62
     0
100
AcDbLine
 10
322.25
 20
461.9716498733
 11
322.75
 21
461.9716498733
  0
LINE
  5
200
100
AcDbEntity
  8
_0-2_寸法
  6
CONTINUOUS
 62
     0
100
AcDbLine
 10
323
 20
461.9716498733
 11
323.5
 21
461.9716498733
  0
ENDBLK
  5
201
100
AcDbEntity
 67
     1
  8
_0-2_寸法
100
AcDbBlockEnd
  0
BLOCK
  5
202
100
AcDbEntity
  8
_0-2_寸法
100
AcDbBlockBegin
  2
BK24
 70
    64
 10
0
 20
0
  3
BK24
  1

  0
LINE
  5
203
100
AcDbEntity
  8
_0-2_寸法
  6
CONTINUOUS
 62
     0
100
AcDbLine
 10
532.5
 20
419.8801541434
 11
532.5
 21
543.9716498733
  0
LINE
  5
204
100
AcDbEntity
  8
_0-2_寸法
  6
CONTINUOUS
 62
     0
100
AcDbLine
 10
307.5
 20
470.9716498733
 11
307.5
 21
543.9716498733
  0
LINE
  5
205
100
AcDbEntity
  8
_0-2_寸法
  6
CONTINUOUS
 62
     0
100
AcDbLine
 10
531.5
 20
543.9716498733
 11
308.5
 21
543.9716498733
  0
TEXT
  5
206
100
AcDbEntity
  8
_0-2_寸法
  6
CONTINUOUS
 62
     0
100
AcDbText
 10
418.75
 20
544.9716498733
 40
5
  1
W
  7
STANDARD
100
AcDbText
  0
CIRCLE
  5
207
100
AcDbEntity
  8
_0-2_寸法
  6
CONTINUOUS
 62
     0
100
AcDbCircle
 10
532.5
 20
419.8801541434
 40
1.4
  0
CIRCLE
  5
208
100
AcDbEntity
  8
_0-2_寸法
  6
CONTINUOUS
 62
     0
100
AcDbCircle
 10
307.5
 20
470.9716498733
 40
1.4
  0
CIRCLE
  5
209
100
AcDbEntity
  8
_0-2_寸法
  6
CONTINUOUS
 62
     0
100
AcDbCircle
 10
307.5
 20
543.9716498733
 40
1.4
  0
ENDBLK
  5
20A
100
AcDbEntity
 67
     1
  8
_0-2_寸法
100
AcDbBlockEnd
  0
BLOCK
  5
20B
100
AcDbEntity
  8
_0-2_寸法
100
AcDbBlockBegin
  2
BK25
 70
    64
 10
0
 20
0
  3
BK25
  1

  0
LINE
  5
20C
100
AcDbEntity
  8
_0-2_寸法
  6
CONTINUOUS
 62
     0
100
AcDbLine
 10
342.7
 20
432.9716498733
 11
375.7
 21
432.9716498733
  0
LINE
  5
20D
100
AcDbEntity
  8
_0-2_寸法
  6
CONTINUOUS
 62
     0
100
AcDbLine
 10
342.7
 20
468.9716498733
 11
375.7
 21
468.9716498733
  0
LINE
  5
20E
100
AcDbEntity
  8
_0-2_寸法
  6
CONTINUOUS
 62
     0
100
AcDbLine
 10
375.7
 20
433.9716498733
 11
375.7
 21
467.9716498733
  0
TEXT
  5
20F
100
AcDbEntity
  8
_0-2_寸法
  6
CONTINUOUS
 62
     0
100
AcDbText
 10
374.7
 20
448.4716498733
 40
5
  1
36
 50
90
  7
STANDARD
100
AcDbText
  0
CIRCLE
  5
210
100
AcDbEntity
  8
_0-2_寸法
  6
CONTINUOUS
 62
     0
100
AcDbCircle
 10
342.7
 20
432.9716498733
 40
1.4
  0
CIRCLE
  5
211
100
AcDbEntity
  8
_0-2_寸法
  6
CONTINUOUS
 62
     0
100
AcDbCircle
 10
342.7
 20
468.9716498733
 40
1.4
  0
CIRCLE
  5
212
100
AcDbEntity
  8
_0-2_寸法
  6
CONTINUOUS
 62
     0
100
AcDbCircle
 10
375.7
 20
468.9716498733
 40
1.4
  0
ENDBLK
  5
213
100
AcDbEntity
 67
     1
  8
_0-2_寸法
100
AcDbBlockEnd
  0
BLOCK
  5
214
100
AcDbEntity
  8
_0-2_寸法
100
AcDbBlockBegin
  2
BK26
 70
    64
 10
0
 20
0
  3
BK26
  1

  0
CIRCLE
  5
215
100
AcDbEntity
  8
_0-2_寸法
  6
CONTINUOUS
 62
     0
100
AcDbCircle
 10
375.7
 20
432.9716498733
 40
0.25
  0
LINE
  5
216
100
AcDbEntity
  8
_0-2_寸法
  6
CONTINUOUS
 62
     0
100
AcDbLine
 10
375.7
 20
432.7216498733
 11
375.7
 21
433.2216498733
  0
LINE
  5
217
100
AcDbEntity
  8
_0-2_寸法
  6
CONTINUOUS
 62
     0
100
AcDbLine
 10
375.7
 20
433.4716498733
 11
375.7
 21
433.9716498733
  0
ENDBLK
  5
218
100
AcDbEntity
 67
     1
  8
_0-2_寸法
100
AcDbBlockEnd
  0
BLOCK
  5
219
100
AcDbEntity
  8
_0-2_寸法
100
AcDbBlockBegin
  2
BK27
 70
    64
 10
0
 20
0
  3
BK27
  1

  0
CIRCLE
  5
21A
100
AcDbEntity
  8
_0-2_寸法
  6
CONTINUOUS
 62
     0
100
AcDbCircle
 10
375.7
 20
468.9716498733
 40
0.25
  0
LINE
  5
21B
100
AcDbEntity
  8
_0-2_寸法
  6
CONTINUOUS
 62
     0
100
AcDbLine
 10
375.7
 20
469.2216498733
 11
375.7
 21
468.7216498733
  0
LINE
  5
21C
100
AcDbEntity
  8
_0-2_寸法
  6
CONTINUOUS
 62
     0
100
AcDbLine
 10
375.7
 20
468.4716498733
 11
375.7
 21
467.9716498733
  0
ENDBLK
  5
21D
100
AcDbEntity
 67
     1
  8
_0-2_寸法
100
AcDbBlockEnd
  0
BLOCK
  5
21E
100
AcDbEntity
  8
_0-2_寸法
100
AcDbBlockBegin
  2
BK28
 70
    64
 10
0
 20
0
  3
BK28
  1

  0
LINE
  5
21F
100
AcDbEntity
  8
_0-2_寸法
  6
CONTINUOUS
 62
     0
100
AcDbLine
 10
342.7
 20
468.9716498733
 11
375.7
 21
468.9716498733
  0
LINE
  5
220
100
AcDbEntity
  8
_0-2_寸法
  6
CONTINUOUS
 62
     0
100
AcDbLine
 10
333.5
 20
483.9716498733
 11
375.7
 21
483.9716498733
  0
LINE
  5
221
100
AcDbEntity
  8
_0-2_寸法
  6
CONTINUOUS
 62
     0
100
AcDbLine
 10
375.7
 20
469.9716498733
 11
375.7
 21
482.9716498733
  0
TEXT
  5
222
100
AcDbEntity
  8
_0-2_寸法
  6
CONTINUOUS
 62
     0
100
AcDbText
 10
374.7
 20
473.9716498733
 40
5
  1
15
 50
90
  7
STANDARD
100
AcDbText
  0
CIRCLE
  5
223
100
AcDbEntity
  8
_0-2_寸法
  6
CONTINUOUS
 62
     0
100
AcDbCircle
 10
342.7
 20
468.9716498733
 40
1.4
  0
CIRCLE
  5
224
100
AcDbEntity
  8
_0-2_寸法
  6
CONTINUOUS
 62
     0
100
AcDbCircle
 10
333.5
 20
483.9716498733
 40
1.4
  0
CIRCLE
  5
225
100
AcDbEntity
  8
_0-2_寸法
  6
CONTINUOUS
 62
     0
100
AcDbCircle
 10
375.7
 20
483.9716498733
 40
1.4
  0
ENDBLK
  5
226
100
AcDbEntity
 67
     1
  8
_0-2_寸法
100
AcDbBlockEnd
  0
BLOCK
  5
227
100
AcDbEntity
  8
_0-2_寸法
100
AcDbBlockBegin
  2
BK29
 70
    64
 10
0
 20
0
  3
BK29
  1

  0
CIRCLE
  5
228
100
AcDbEntity
  8
_0-2_寸法
  6
CONTINUOUS
 62
     0
100
AcDbCircle
 10
375.7
 20
468.9716498733
 40
0.25
  0
LINE
  5
229
100
AcDbEntity
  8
_0-2_寸法
  6
CONTINUOUS
 62
     0
100
AcDbLine
 10
375.7
 20
468.7216498733
 11
375.7
 21
469.2216498733
  0
LINE
  5
22A
100
AcDbEntity
  8
_0-2_寸法
  6
CONTINUOUS
 62
     0
100
AcDbLine
 10
375.7
 20
469.4716498733
 11
375.7
 21
469.9716498733
  0
ENDBLK
  5
22B
100
AcDbEntity
 67
     1
  8
_0-2_寸法
100
AcDbBlockEnd
  0
BLOCK
  5
22C
100
AcDbEntity
  8
_0-2_寸法
100
AcDbBlockBegin
  2
BK30
 70
    64
 10
0
 20
0
  3
BK30
  1

  0
CIRCLE
  5
22D
100
AcDbEntity
  8
_0-2_寸法
  6
CONTINUOUS
 62
     0
100
AcDbCircle
 10
375.7
 20
483.9716498733
 40
0.25
  0
LINE
  5
22E
100
AcDbEntity
  8
_0-2_寸法
  6
CONTINUOUS
 62
     0
100
AcDbLine
 10
375.7
 20
484.2216498733
 11
375.7
 21
483.7216498733
  0
LINE
  5
22F
100
AcDbEntity
  8
_0-2_寸法
  6
CONTINUOUS
 62
     0
100
AcDbLine
 10
375.7
 20
483.4716498733
 11
375.7
 21
482.9716498733
  0
ENDBLK
  5
230
100
AcDbEntity
 67
     1
  8
_0-2_寸法
100
AcDbBlockEnd
  0
BLOCK
  5
231
100
AcDbEntity
  8
_0-2_寸法
100
AcDbBlockBegin
  2
BK31
 70
    64
 10
0
 20
0
  3
BK31
  1

  0
LINE
  5
232
100
AcDbEntity
  8
_0-2_寸法
  6
CONTINUOUS
 62
     0
100
AcDbLine
 10
340.7
 20
471.9432997466
 11
340.7
 21
513.9716498733
  0
LINE
  5
233
100
AcDbEntity
  8
_0-2_寸法
  6
CONTINUOUS
 62
     0
100
AcDbLine
 10
320.7
 20
485.9716498733
 11
320.7
 21
513.9716498733
  0
LINE
  5
234
100
AcDbEntity
  8
_0-2_寸法
  6
CONTINUOUS
 62
     0
100
AcDbLine
 10
339.7
 20
513.9716498733
 11
321.7
 21
513.9716498733
  0
TEXT
  5
235
100
AcDbEntity
  8
_0-2_寸法
  6
CONTINUOUS
 62
     0
100
AcDbText
 10
328.2
 20
514.9716498733
 40
5
  1
20
  7
STANDARD
100
AcDbText
  0
CIRCLE
  5
236
100
AcDbEntity
  8
_0-2_寸法
  6
CONTINUOUS
 62
     0
100
AcDbCircle
 10
340.7
 20
471.9432997466
 40
1.4
  0
CIRCLE
  5
237
100
AcDbEntity
  8
_0-2_寸法
  6
CONTINUOUS
 62
     0
100
AcDbCircle
 10
320.7
 20
485.9716498733
 40
1.4
  0
CIRCLE
  5
238
100
AcDbEntity
  8
_0-2_寸法
  6
CONTINUOUS
 62
     0
100
AcDbCircle
 10
320.7
 20
513.9716498733
 40
1.4
  0
ENDBLK
  5
239
100
AcDbEntity
 67
     1
  8
_0-2_寸法
100
AcDbBlockEnd
  0
BLOCK
  5
23A
100
AcDbEntity
  8
_0-2_寸法
100
AcDbBlockBegin
  2
BK32
 70
    64
 10
0
 20
0
  3
BK32
  1

  0
CIRCLE
  5
23B
100
AcDbEntity
  8
_0-2_寸法
  6
CONTINUOUS
 62
     0
100
AcDbCircle
 10
340.7
 20
513.9716498733
 40
0.25
  0
LINE
  5
23C
100
AcDbEntity
  8
_0-2_寸法
  6
CONTINUOUS
 62
     0
100
AcDbLine
 10
340.95
 20
513.9716498733
 11
340.45
 21
513.9716498733
  0
LINE
  5
23D
100
AcDbEntity
  8
_0-2_寸法
  6
CONTINUOUS
 62
     0
100
AcDbLine
 10
340.2
 20
513.9716498733
 11
339.7
 21
513.9716498733
  0
ENDBLK
  5
23E
100
AcDbEntity
 67
     1
  8
_0-2_寸法
100
AcDbBlockEnd
  0
BLOCK
  5
23F
100
AcDbEntity
  8
_0-2_寸法
100
AcDbBlockBegin
  2
BK33
 70
    64
 10
0
 20
0
  3
BK33
  1

  0
CIRCLE
  5
240
100
AcDbEntity
  8
_0-2_寸法
  6
CONTINUOUS
 62
     0
100
AcDbCircle
 10
320.7
 20
513.9716498733
 40
0.25
  0
LINE
  5
241
100
AcDbEntity
  8
_0-2_寸法
  6
CONTINUOUS
 62
     0
100
AcDbLine
 10
320.45
 20
513.9716498733
 11
320.95
 21
513.9716498733
  0
LINE
  5
242
100
AcDbEntity
  8
_0-2_寸法
  6
CONTINUOUS
 62
     0
100
AcDbLine
 10
321.2
 20
513.9716498733
 11
321.7
 21
513.9716498733
  0
ENDBLK
  5
243
100
AcDbEntity
 67
     1
  8
_0-2_寸法
100
AcDbBlockEnd
  0
BLOCK
  5
244
100
AcDbEntity
  8
_0-2_寸法
100
AcDbBlockBegin
  2
BK34
 70
    64
 10
0
 20
0
  3
BK34
  1

  0
LINE
  5
245
100
AcDbEntity
  8
_0-2_寸法
  6
CONTINUOUS
 62
     0
100
AcDbLine
 10
340.7
 20
471.9432997466
 11
340.7
 21
528.9716498733
  0
LINE
  5
246
100
AcDbEntity
  8
_0-2_寸法
  6
CONTINUOUS
 62
     0
100
AcDbLine
 10
307.5
 20
470.9716498733
 11
307.5
 21
528.9716498733
  0
LINE
  5
247
100
AcDbEntity
  8
_0-2_寸法
  6
CONTINUOUS
 62
     0
100
AcDbLine
 10
339.7
 20
528.9716498733
 11
308.5
 21
528.9716498733
  0
TEXT
  5
248
100
AcDbEntity
  8
_0-2_寸法
  6
CONTINUOUS
 62
     0
100
AcDbText
 10
319.1
 20
529.9716498733
 40
5
  1
33.2
  7
STANDARD
100
AcDbText
  0
CIRCLE
  5
249
100
AcDbEntity
  8
_0-2_寸法
  6
CONTINUOUS
 62
     0
100
AcDbCircle
 10
340.7
 20
471.9432997466
 40
1.4
  0
CIRCLE
  5
24A
100
AcDbEntity
  8
_0-2_寸法
  6
CONTINUOUS
 62
     0
100
AcDbCircle
 10
307.5
 20
470.9716498733
 40
1.4
  0
CIRCLE
  5
24B
100
AcDbEntity
  8
_0-2_寸法
  6
CONTINUOUS
 62
     0
100
AcDbCircle
 10
307.5
 20
528.9716498733
 40
1.4
  0
ENDBLK
  5
24C
100
AcDbEntity
 67
     1
  8
_0-2_寸法
100
AcDbBlockEnd
  0
BLOCK
  5
24D
100
AcDbEntity
  8
_0-2_寸法
100
AcDbBlockBegin
  2
BK35
 70
    64
 10
0
 20
0
  3
BK35
  1

  0
CIRCLE
  5
24E
100
AcDbEntity
  8
_0-2_寸法
  6
CONTINUOUS
 62
     0
100
AcDbCircle
 10
340.7
 20
528.9716498733
 40
0.25
  0
LINE
  5
24F
100
AcDbEntity
  8
_0-2_寸法
  6
CONTINUOUS
 62
     0
100
AcDbLine
 10
340.95
 20
528.9716498733
 11
340.45
 21
528.9716498733
  0
LINE
  5
250
100
AcDbEntity
  8
_0-2_寸法
  6
CONTINUOUS
 62
     0
100
AcDbLine
 10
340.2
 20
528.9716498733
 11
339.7
 21
528.9716498733
  0
ENDBLK
  5
251
100
AcDbEntity
 67
     1
  8
_0-2_寸法
100
AcDbBlockEnd
  0
BLOCK
  5
252
100
AcDbEntity
  8
_0-2_寸法
100
AcDbBlockBegin
  2
BK36
 70
    64
 10
0
 20
0
  3
BK36
  1

  0
CIRCLE
  5
253
100
AcDbEntity
  8
_0-2_寸法
  6
CONTINUOUS
 62
     0
100
AcDbCircle
 10
307.5
 20
528.9716498733
 40
0.25
  0
LINE
  5
254
100
AcDbEntity
  8
_0-2_寸法
  6
CONTINUOUS
 62
     0
100
AcDbLine
 10
307.25
 20
528.9716498733
 11
307.75
 21
528.9716498733
  0
LINE
  5
255
100
AcDbEntity
  8
_0-2_寸法
  6
CONTINUOUS
 62
     0
100
AcDbLine
 10
308
 20
528.9716498733
 11
308.5
 21
528.9716498733
  0
ENDBLK
  5
256
100
AcDbEntity
 67
     1
  8
_0-2_寸法
100
AcDbBlockEnd
  0
BLOCK
  5
257
100
AcDbEntity
  8
_0-2_寸法
100
AcDbBlockBegin
  2
BK37
 70
    64
 10
0
 20
0
  3
BK37
  1

  0
LINE
  5
258
100
AcDbEntity
  8
_0-2_寸法
  6
CONTINUOUS
 62
     0
100
AcDbLine
 10
304.5
 20
369
 11
251.5
 21
369
  0
LINE
  5
259
100
AcDbEntity
  8
_0-2_寸法
  6
CONTINUOUS
 62
     0
100
AcDbLine
 10
251.5
 20
370
 11
251.5
 21
424.2716498733
  0
TEXT
  5
25A
100
AcDbEntity
  8
_0-2_寸法
  6
CONTINUOUS
 62
     0
100
AcDbText
 10
250.5
 20
395.8858249367
 40
5
  1
D
 50
90
  7
STANDARD
100
AcDbText
  0
CIRCLE
  5
25B
100
AcDbEntity
  8
_0-2_寸法
  6
CONTINUOUS
 62
     0
100
AcDbCircle
 10
304.5
 20
369
 40
1.4
  0
CIRCLE
  5
25C
100
AcDbEntity
  8
_0-2_寸法
  6
CONTINUOUS
 62
     0
100
AcDbCircle
 10
251.5
 20
425.2716498733
 40
1.4
  0
CIRCLE
  5
25D
100
AcDbEntity
  8
_0-2_寸法
  6
CONTINUOUS
 62
     0
100
AcDbCircle
 10
251.5
 20
425.2716498733
 40
1.4
  0
ENDBLK
  5
25E
100
AcDbEntity
 67
     1
  8
_0-2_寸法
100
AcDbBlockEnd
  0
BLOCK
  5
25F
100
AcDbEntity
  8
_0-2_寸法
100
AcDbBlockBegin
  2
BK38
 70
    64
 10
0
 20
0
  3
BK38
  1

  0
CIRCLE
  5
260
100
AcDbEntity
  8
_0-2_寸法
  6
CONTINUOUS
 62
     0
100
AcDbCircle
 10
251.5
 20
369
 40
0.25
  0
LINE
  5
261
100
AcDbEntity
  8
_0-2_寸法
  6
CONTINUOUS
 62
     0
100
AcDbLine
 10
251.5
 20
368.75
 11
251.5
 21
369.25
  0
LINE
  5
262
100
AcDbEntity
  8
_0-2_寸法
  6
CONTINUOUS
 62
     0
100
AcDbLine
 10
251.5
 20
369.5
 11
251.5
 21
370
  0
ENDBLK
  5
263
100
AcDbEntity
 67
     1
  8
_0-2_寸法
100
AcDbBlockEnd
  0
BLOCK
  5
264
100
AcDbEntity
  8
_0-2_寸法
100
AcDbBlockBegin
  2
BK39
 70
    64
 10
0
 20
0
  3
BK39
  1

  0
CIRCLE
  5
265
100
AcDbEntity
  8
_0-2_寸法
  6
CONTINUOUS
 62
     0
100
AcDbCircle
 10
251.5
 20
425.2716498733
 40
0.25
  0
LINE
  5
266
100
AcDbEntity
  8
_0-2_寸法
  6
CONTINUOUS
 62
     0
100
AcDbLine
 10
251.5
 20
425.5216498733
 11
251.5
 21
425.0216498733
  0
LINE
  5
267
100
AcDbEntity
  8
_0-2_寸法
  6
CONTINUOUS
 62
     0
100
AcDbLine
 10
251.5
 20
424.7716498733
 11
251.5
 21
424.2716498733
  0
ENDBLK
  5
268
100
AcDbEntity
 67
     1
  8
_0-2_寸法
100
AcDbBlockEnd
  0
BLOCK
  5
269
100
AcDbEntity
  8
_0-2_寸法
100
AcDbBlockBegin
  2
BK40
 70
    64
 10
0
 20
0
  3
BK40
  1

  0
LINE
  5
26A
100
AcDbEntity
  8
_0-2_寸法
  6
CONTINUOUS
 62
     0
100
AcDbLine
 10
304.5
 20
369
 11
231.5
 21
369
  0
LINE
  5
26B
100
AcDbEntity
  8
_0-2_寸法
  6
CONTINUOUS
 62
     0
100
AcDbLine
 10
304.5
 20
483.9716498733
 11
231.5
 21
483.9716498733
  0
LINE
  5
26C
100
AcDbEntity
  8
_0-2_寸法
  6
CONTINUOUS
 62
     0
100
AcDbLine
 10
231.5
 20
370
 11
231.5
 21
482.9716498733
  0
TEXT
  5
26D
100
AcDbEntity
  8
_0-2_寸法
  6
CONTINUOUS
 62
     0
100
AcDbText
 10
230.5
 20
425.2358249367
 40
5
  1
E
 50
90
  7
STANDARD
100
AcDbText
  0
CIRCLE
  5
26E
100
AcDbEntity
  8
_0-2_寸法
  6
CONTINUOUS
 62
     0
100
AcDbCircle
 10
304.5
 20
369
 40
1.4
  0
CIRCLE
  5
26F
100
AcDbEntity
  8
_0-2_寸法
  6
CONTINUOUS
 62
     0
100
AcDbCircle
 10
304.5
 20
483.9716498733
 40
1.4
  0
CIRCLE
  5
270
100
AcDbEntity
  8
_0-2_寸法
  6
CONTINUOUS
 62
     0
100
AcDbCircle
 10
231.5
 20
483.9716498733
 40
1.4
  0
ENDBLK
  5
271
100
AcDbEntity
 67
     1
  8
_0-2_寸法
100
AcDbBlockEnd
  0
BLOCK
  5
272
100
AcDbEntity
  8
_0-2_寸法
100
AcDbBlockBegin
  2
BK41
 70
    64
 10
0
 20
0
  3
BK41
  1

  0
CIRCLE
  5
273
100
AcDbEntity
  8
_0-2_寸法
  6
CONTINUOUS
 62
     0
100
AcDbCircle
 10
231.5
 20
369
 40
0.25
  0
LINE
  5
274
100
AcDbEntity
  8
_0-2_寸法
  6
CONTINUOUS
 62
     0
100
AcDbLine
 10
231.5
 20
368.75
 11
231.5
 21
369.25
  0
LINE
  5
275
100
AcDbEntity
  8
_0-2_寸法
  6
CONTINUOUS
 62
     0
100
AcDbLine
 10
231.5
 20
369.5
 11
231.5
 21
370
  0
ENDBLK
  5
276
100
AcDbEntity
 67
     1
  8
_0-2_寸法
100
AcDbBlockEnd
  0
BLOCK
  5
277
100
AcDbEntity
  8
_0-2_寸法
100
AcDbBlockBegin
  2
BK42
 70
    64
 10
0
 20
0
  3
BK42
  1

  0
CIRCLE
  5
278
100
AcDbEntity
  8
_0-2_寸法
  6
CONTINUOUS
 62
     0
100
AcDbCircle
 10
231.5
 20
483.9716498733
 40
0.25
  0
LINE
  5
279
100
AcDbEntity
  8
_0-2_寸法
  6
CONTINUOUS
 62
     0
100
AcDbLine
 10
231.5
 20
484.2216498733
 11
231.5
 21
483.7216498733
  0
LINE
  5
27A
100
AcDbEntity
  8
_0-2_寸法
  6
CONTINUOUS
 62
     0
100
AcDbLine
 10
231.5
 20
483.4716498733
 11
231.5
 21
482.9716498733
  0
ENDBLK
  5
27B
100
AcDbEntity
 67
     1
  8
_0-2_寸法
100
AcDbBlockEnd
  0
ENDSEC
  0
SECTION
  2
ENTITIES
  0
TEXT
  5
27C
100
AcDbEntity
  8
_0-4_図枠
  6
CONTINUOUS
 62
     0
100
AcDbText
 10
20.82630015923
 20
528.6311732828
 40
10
  1
　　Ｓ＝１／２
  7
STANDARD
100
AcDbText
  0
TEXT
  5
27D
100
AcDbEntity
  8
_0-4_図枠
  6
CONTINUOUS
 62
     0
100
AcDbText
 10
21.84200064233
 20
545.8980814953
 40
10
  1
　　屋根－壁（切欠き壁）
  7
STANDARD
100
AcDbText
  0
TEXT
  5
27E
100
AcDbEntity
  8
_0-4_図枠
  6
CONTINUOUS
 62
     0
100
AcDbText
 10
640
 20
234.7453347102
 40
5
  1
（単位：mm）
  7
STANDARD
100
AcDbText
  0
TEXT
  5
27F
100
AcDbEntity
  8
_0-4_図枠
  6
CONTINUOUS
 62
     0
100
AcDbText
 10
661
 20
118.5
 40
5
  1
128
  7
STANDARD
100
AcDbText
  0
TEXT
  5
280
100
AcDbEntity
  8
_0-4_図枠
  6
CONTINUOUS
 62
     0
100
AcDbText
 10
632.75
 20
118.5
 40
5
  1
70
  7
STANDARD
100
AcDbText
  0
TEXT
  5
281
100
AcDbEntity
  8
_0-4_図枠
  6
CONTINUOUS
 62
     0
100
AcDbText
 10
601
 20
118.5
 40
5
  1
375
  7
STANDARD
100
AcDbText
  0
TEXT
  5
282
100
AcDbEntity
  8
_0-4_図枠
  6
CONTINUOUS
 62
     0
100
AcDbText
 10
661
 20
127.5
 40
5
  1
127
  7
STANDARD
100
AcDbText
  0
TEXT
  5
283
100
AcDbEntity
  8
_0-4_図枠
  6
CONTINUOUS
 62
     0
100
AcDbText
 10
632.75
 20
127.5
 40
5
  1
68
  7
STANDARD
100
AcDbText
  0
TEXT
  5
284
100
AcDbEntity
  8
_0-4_図枠
  6
CONTINUOUS
 62
     0
100
AcDbText
 10
601
 20
127.5
 40
5
  1
350
  7
STANDARD
100
AcDbText
  0
TEXT
  5
285
100
AcDbEntity
  8
_0-4_図枠
  6
CONTINUOUS
 62
     0
100
AcDbText
 10
661
 20
136.5
 40
5
  1
126
  7
STANDARD
100
AcDbText
  0
TEXT
  5
286
100
AcDbEntity
  8
_0-4_図枠
  6
CONTINUOUS
 62
     0
100
AcDbText
 10
632.75
 20
136.5
 40
5
  1
67
  7
STANDARD
100
AcDbText
  0
TEXT
  5
287
100
AcDbEntity
  8
_0-4_図枠
  6
CONTINUOUS
 62
     0
100
AcDbText
 10
601
 20
136.5
 40
5
  1
325
  7
STANDARD
100
AcDbText
  0
TEXT
  5
288
100
AcDbEntity
  8
_0-4_図枠
  6
CONTINUOUS
 62
     0
100
AcDbText
 10
661
 20
145.5
 40
5
  1
124
  7
STANDARD
100
AcDbText
  0
TEXT
  5
289
100
AcDbEntity
  8
_0-4_図枠
  6
CONTINUOUS
 62
     0
100
AcDbText
 10
632.75
 20
145.5
 40
5
  1
66
  7
STANDARD
100
AcDbText
  0
TEXT
  5
28A
100
AcDbEntity
  8
_0-4_図枠
  6
CONTINUOUS
 62
     0
100
AcDbText
 10
601
 20
145.5
 40
5
  1
300
  7
STANDARD
100
AcDbText
  0
TEXT
  5
28B
100
AcDbEntity
  8
_0-4_図枠
  6
CONTINUOUS
 62
     0
100
AcDbText
 10
661
 20
154.5
 40
5
  1
123
  7
STANDARD
100
AcDbText
  0
TEXT
  5
28C
100
AcDbEntity
  8
_0-4_図枠
  6
CONTINUOUS
 62
     0
100
AcDbText
 10
632.75
 20
154.5
 40
5
  1
64
  7
STANDARD
100
AcDbText
  0
TEXT
  5
28D
100
AcDbEntity
  8
_0-4_図枠
  6
CONTINUOUS
 62
     0
100
AcDbText
 10
601
 20
154.5
 40
5
  1
275
  7
STANDARD
100
AcDbText
  0
TEXT
  5
28E
100
AcDbEntity
  8
_0-4_図枠
  6
CONTINUOUS
 62
     0
100
AcDbText
 10
661
 20
163.5
 40
5
  1
122
  7
STANDARD
100
AcDbText
  0
TEXT
  5
28F
100
AcDbEntity
  8
_0-4_図枠
  6
CONTINUOUS
 62
     0
100
AcDbText
 10
632.75
 20
163.5
 40
5
  1
63
  7
STANDARD
100
AcDbText
  0
TEXT
  5
290
100
AcDbEntity
  8
_0-4_図枠
  6
CONTINUOUS
 62
     0
100
AcDbText
 10
601
 20
163.5
 40
5
  1
250
  7
STANDARD
100
AcDbText
  0
TEXT
  5
291
100
AcDbEntity
  8
_0-4_図枠
  6
CONTINUOUS
 62
     0
100
AcDbText
 10
661
 20
172.5
 40
5
  1
121
  7
STANDARD
100
AcDbText
  0
TEXT
  5
292
100
AcDbEntity
  8
_0-4_図枠
  6
CONTINUOUS
 62
     0
100
AcDbText
 10
632.75
 20
172.5
 40
5
  1
62
  7
STANDARD
100
AcDbText
  0
TEXT
  5
293
100
AcDbEntity
  8
_0-4_図枠
  6
CONTINUOUS
 62
     0
100
AcDbText
 10
601
 20
172.5
 40
5
  1
225
  7
STANDARD
100
AcDbText
  0
TEXT
  5
294
100
AcDbEntity
  8
_0-4_図枠
  6
CONTINUOUS
 62
     0
100
AcDbText
 10
661
 20
181.5
 40
5
  1
119
  7
STANDARD
100
AcDbText
  0
TEXT
  5
295
100
AcDbEntity
  8
_0-4_図枠
  6
CONTINUOUS
 62
     0
100
AcDbText
 10
632.75
 20
181.5
 40
5
  1
61
  7
STANDARD
100
AcDbText
  0
TEXT
  5
296
100
AcDbEntity
  8
_0-4_図枠
  6
CONTINUOUS
 62
     0
100
AcDbText
 10
601
 20
181.5
 40
5
  1
200
  7
STANDARD
100
AcDbText
  0
TEXT
  5
297
100
AcDbEntity
  8
_0-4_図枠
  6
CONTINUOUS
 62
     0
100
AcDbText
 10
661
 20
190.5
 40
5
  1
118
  7
STANDARD
100
AcDbText
  0
TEXT
  5
298
100
AcDbEntity
  8
_0-4_図枠
  6
CONTINUOUS
 62
     0
100
AcDbText
 10
632.75
 20
190.5
 40
5
  1
59
  7
STANDARD
100
AcDbText
  0
TEXT
  5
299
100
AcDbEntity
  8
_0-4_図枠
  6
CONTINUOUS
 62
     0
100
AcDbText
 10
601
 20
190.5
 40
5
  1
175
  7
STANDARD
100
AcDbText
  0
TEXT
  5
29A
100
AcDbEntity
  8
_0-4_図枠
  6
CONTINUOUS
 62
     0
100
AcDbText
 10
661
 20
199.5
 40
5
  1
117
  7
STANDARD
100
AcDbText
  0
TEXT
  5
29B
100
AcDbEntity
  8
_0-4_図枠
  6
CONTINUOUS
 62
     0
100
AcDbText
 10
632.75
 20
199.5
 40
5
  1
58
  7
STANDARD
100
AcDbText
  0
TEXT
  5
29C
100
AcDbEntity
  8
_0-4_図枠
  6
CONTINUOUS
 62
     0
100
AcDbText
 10
601
 20
199.5
 40
5
  1
150
  7
STANDARD
100
AcDbText
  0
TEXT
  5
29D
100
AcDbEntity
  8
_0-4_図枠
  6
CONTINUOUS
 62
     0
100
AcDbText
 10
661
 20
208.5
 40
5
  1
115
  7
STANDARD
100
AcDbText
  0
TEXT
  5
29E
100
AcDbEntity
  8
_0-4_図枠
  6
CONTINUOUS
 62
     0
100
AcDbText
 10
632.75
 20
208.5
 40
5
  1
57
  7
STANDARD
100
AcDbText
  0
TEXT
  5
29F
100
AcDbEntity
  8
_0-4_図枠
  6
CONTINUOUS
 62
     0
100
AcDbText
 10
601
 20
208.5
 40
5
  1
125
  7
STANDARD
100
AcDbText
  0
TEXT
  5
2A0
100
AcDbEntity
  8
_0-4_図枠
  6
CONTINUOUS
 62
     0
100
AcDbText
 10
661
 20
217.5
 40
5
  1
114
  7
STANDARD
100
AcDbText
  0
TEXT
  5
2A1
100
AcDbEntity
  8
_0-4_図枠
  6
CONTINUOUS
 62
     0
100
AcDbText
 10
632.75
 20
217.5
 40
5
  1
55
  7
STANDARD
100
AcDbText
  0
TEXT
  5
2A2
100
AcDbEntity
  8
_0-4_図枠
  6
CONTINUOUS
 62
     0
100
AcDbText
 10
601
 20
217.5
 40
5
  1
100
  7
STANDARD
100
AcDbText
  0
TEXT
  5
2A3
100
AcDbEntity
  8
_0-4_図枠
  6
CONTINUOUS
 62
     0
100
AcDbText
 10
663
 20
226.5
 40
5
  1
Ｅ
  7
STANDARD
100
AcDbText
  0
TEXT
  5
2A4
100
AcDbEntity
  8
_0-4_図枠
  6
CONTINUOUS
 62
     0
100
AcDbText
 10
633
 20
226.5
 40
5
  1
Ｄ
  7
STANDARD
100
AcDbText
  0
TEXT
  5
2A5
100
AcDbEntity
  8
_0-4_図枠
  6
CONTINUOUS
 62
     0
100
AcDbText
 10
603
 20
226.5
 40
5
  1
Ｃ
  7
STANDARD
100
AcDbText
  0
TEXT
  5
2A6
100
AcDbEntity
  8
_0-4_図枠
  6
CONTINUOUS
 62
     0
100
AcDbText
 10
571
 20
118.5
 40
5
  1
485
  7
STANDARD
100
AcDbText
  0
TEXT
  5
2A7
100
AcDbEntity
  8
_0-4_図枠
  6
CONTINUOUS
 62
     0
100
AcDbText
 10
541
 20
118.5
 40
5
  1
500
  7
STANDARD
100
AcDbText
  0
TEXT
  5
2A8
100
AcDbEntity
  8
_0-4_図枠
  6
CONTINUOUS
 62
     0
100
AcDbText
 10
571
 20
127.5
 40
5
  1
460
  7
STANDARD
100
AcDbText
  0
TEXT
  5
2A9
100
AcDbEntity
  8
_0-4_図枠
  6
CONTINUOUS
 62
     0
100
AcDbText
 10
541
 20
127.5
 40
5
  1
475
  7
STANDARD
100
AcDbText
  0
TEXT
  5
2AA
100
AcDbEntity
  8
_0-4_図枠
  6
CONTINUOUS
 62
     0
100
AcDbText
 10
571
 20
136.5
 40
5
  1
435
  7
STANDARD
100
AcDbText
  0
TEXT
  5
2AB
100
AcDbEntity
  8
_0-4_図枠
  6
CONTINUOUS
 62
     0
100
AcDbText
 10
541
 20
136.5
 40
5
  1
450
  7
STANDARD
100
AcDbText
  0
TEXT
  5
2AC
100
AcDbEntity
  8
_0-4_図枠
  6
CONTINUOUS
 62
     0
100
AcDbText
 10
571
 20
145.5
 40
5
  1
410
  7
STANDARD
100
AcDbText
  0
TEXT
  5
2AD
100
AcDbEntity
  8
_0-4_図枠
  6
CONTINUOUS
 62
     0
100
AcDbText
 10
541
 20
145.5
 40
5
  1
425
  7
STANDARD
100
AcDbText
  0
TEXT
  5
2AE
100
AcDbEntity
  8
_0-4_図枠
  6
CONTINUOUS
 62
     0
100
AcDbText
 10
571
 20
154.5
 40
5
  1
385
  7
STANDARD
100
AcDbText
  0
TEXT
  5
2AF
100
AcDbEntity
  8
_0-4_図枠
  6
CONTINUOUS
 62
     0
100
AcDbText
 10
541
 20
154.5
 40
5
  1
400
  7
STANDARD
100
AcDbText
  0
TEXT
  5
2B0
100
AcDbEntity
  8
_0-4_図枠
  6
CONTINUOUS
 62
     0
100
AcDbText
 10
571
 20
163.5
 40
5
  1
360
  7
STANDARD
100
AcDbText
  0
TEXT
  5
2B1
100
AcDbEntity
  8
_0-4_図枠
  6
CONTINUOUS
 62
     0
100
AcDbText
 10
541
 20
163.5
 40
5
  1
375
  7
STANDARD
100
AcDbText
  0
TEXT
  5
2B2
100
AcDbEntity
  8
_0-4_図枠
  6
CONTINUOUS
 62
     0
100
AcDbText
 10
571
 20
172.5
 40
5
  1
335
  7
STANDARD
100
AcDbText
  0
TEXT
  5
2B3
100
AcDbEntity
  8
_0-4_図枠
  6
CONTINUOUS
 62
     0
100
AcDbText
 10
541
 20
172.5
 40
5
  1
350
  7
STANDARD
100
AcDbText
  0
TEXT
  5
2B4
100
AcDbEntity
  8
_0-4_図枠
  6
CONTINUOUS
 62
     0
100
AcDbText
 10
571
 20
181.5
 40
5
  1
310
  7
STANDARD
100
AcDbText
  0
TEXT
  5
2B5
100
AcDbEntity
  8
_0-4_図枠
  6
CONTINUOUS
 62
     0
100
AcDbText
 10
541
 20
181.5
 40
5
  1
325
  7
STANDARD
100
AcDbText
  0
TEXT
  5
2B6
100
AcDbEntity
  8
_0-4_図枠
  6
CONTINUOUS
 62
     0
100
AcDbText
 10
571
 20
190.5
 40
5
  1
285
  7
STANDARD
100
AcDbText
  0
TEXT
  5
2B7
100
AcDbEntity
  8
_0-4_図枠
  6
CONTINUOUS
 62
     0
100
AcDbText
 10
541
 20
190.5
 40
5
  1
300
  7
STANDARD
100
AcDbText
  0
TEXT
  5
2B8
100
AcDbEntity
  8
_0-4_図枠
  6
CONTINUOUS
 62
     0
100
AcDbText
 10
571
 20
199.5
 40
5
  1
260
  7
STANDARD
100
AcDbText
  0
TEXT
  5
2B9
100
AcDbEntity
  8
_0-4_図枠
  6
CONTINUOUS
 62
     0
100
AcDbText
 10
541
 20
199.5
 40
5
  1
275
  7
STANDARD
100
AcDbText
  0
TEXT
  5
2BA
100
AcDbEntity
  8
_0-4_図枠
  6
CONTINUOUS
 62
     0
100
AcDbText
 10
571
 20
208.5
 40
5
  1
235
  7
STANDARD
100
AcDbText
  0
TEXT
  5
2BB
100
AcDbEntity
  8
_0-4_図枠
  6
CONTINUOUS
 62
     0
100
AcDbText
 10
541
 20
208.5
 40
5
  1
250
  7
STANDARD
100
AcDbText
  0
TEXT
  5
2BC
100
AcDbEntity
  8
_0-4_図枠
  6
CONTINUOUS
 62
     0
100
AcDbText
 10
571
 20
217.5
 40
5
  1
210
  7
STANDARD
100
AcDbText
  0
TEXT
  5
2BD
100
AcDbEntity
  8
_0-4_図枠
  6
CONTINUOUS
 62
     0
100
AcDbText
 10
541
 20
217.5
 40
5
  1
225
  7
STANDARD
100
AcDbText
  0
TEXT
  5
2BE
100
AcDbEntity
  8
_0-4_図枠
  6
CONTINUOUS
 62
     0
100
AcDbText
 10
573
 20
226.5
 40
5
  1
Ａ
  7
STANDARD
100
AcDbText
  0
TEXT
  5
2BF
100
AcDbEntity
  8
_0-4_図枠
  6
CONTINUOUS
 62
     0
100
AcDbText
 10
543
 20
226.5
 40
5
  1
Ｗ
  7
STANDARD
100
AcDbText
  0
TEXT
  5
2C0
100
AcDbEntity
  8
_0-4_図枠
  6
CONTINUOUS
 62
     0
100
AcDbText
 10
476.5
 20
226.5
 40
5
  1
タ　イ　プ
  7
STANDARD
100
AcDbText
  0
LINE
  5
2C1
100
AcDbEntity
  8
_0-4_図枠
  6
CONTINUOUS
 62
     0
100
AcDbLine
 10
832
 20
6
 11
832
 21
582
  0
LINE
  5
2C2
100
AcDbEntity
  8
_0-4_図枠
  6
CONTINUOUS
 62
     0
100
AcDbLine
 10
8
 20
6
 11
832
 21
6
  0
LINE
  5
2C3
100
AcDbEntity
  8
_0-4_図枠
  6
CONTINUOUS
 62
     0
100
AcDbLine
 10
8
 20
582
 11
8
 21
6
  0
LINE
  5
2C4
100
AcDbEntity
  8
_0-4_図枠
  6
CONTINUOUS
 62
     0
100
AcDbLine
 10
832
 20
582
 11
8
 21
582
  0
LINE
  5
2C5
100
AcDbEntity
  8
_0-4_図枠
  6
CONTINUOUS
 62
     0
100
AcDbLine
 10
651
 20
234
 11
651
 21
117
  0
LINE
  5
2C6
100
AcDbEntity
  8
_0-4_図枠
  6
CONTINUOUS
 62
     0
100
AcDbLine
 10
621
 20
234
 11
621
 21
117
  0
LINE
  5
2C7
100
AcDbEntity
  8
_0-4_図枠
  6
CONTINUOUS
 62
     0
100
AcDbLine
 10
591
 20
234
 11
591
 21
117
  0
LINE
  5
2C8
100
AcDbEntity
  8
_0-4_図枠
  6
CONTINUOUS
 62
     0
100
AcDbLine
 10
681
 20
234
 11
681
 21
117
  0
LINE
  5
2C9
100
AcDbEntity
  8
_0-4_図枠
  6
CONTINUOUS
 62
     0
100
AcDbLine
 10
681
 20
117
 11
456
 21
117
  0
LINE
  5
2CA
100
AcDbEntity
  8
_0-4_図枠
  6
CONTINUOUS
 62
     0
100
AcDbLine
 10
681
 20
126
 11
456
 21
126
  0
LINE
  5
2CB
100
AcDbEntity
  8
_0-4_図枠
  6
CONTINUOUS
 62
     0
100
AcDbLine
 10
681
 20
135
 11
456
 21
135
  0
LINE
  5
2CC
100
AcDbEntity
  8
_0-4_図枠
  6
CONTINUOUS
 62
     0
100
AcDbLine
 10
681
 20
144
 11
456
 21
144
  0
LINE
  5
2CD
100
AcDbEntity
  8
_0-4_図枠
  6
CONTINUOUS
 62
     0
100
AcDbLine
 10
681
 20
153
 11
456
 21
153
  0
LINE
  5
2CE
100
AcDbEntity
  8
_0-4_図枠
  6
CONTINUOUS
 62
     0
100
AcDbLine
 10
681
 20
162
 11
456
 21
162
  0
LINE
  5
2CF
100
AcDbEntity
  8
_0-4_図枠
  6
CONTINUOUS
 62
     0
100
AcDbLine
 10
681
 20
171
 11
456
 21
171
  0
LINE
  5
2D0
100
AcDbEntity
  8
_0-4_図枠
  6
CONTINUOUS
 62
     0
100
AcDbLine
 10
681
 20
180
 11
456
 21
180
  0
LINE
  5
2D1
100
AcDbEntity
  8
_0-4_図枠
  6
CONTINUOUS
 62
     0
100
AcDbLine
 10
681
 20
189
 11
456
 21
189
  0
LINE
  5
2D2
100
AcDbEntity
  8
_0-4_図枠
  6
CONTINUOUS
 62
     0
100
AcDbLine
 10
681
 20
198
 11
456
 21
198
  0
LINE
  5
2D3
100
AcDbEntity
  8
_0-4_図枠
  6
CONTINUOUS
 62
     0
100
AcDbLine
 10
681
 20
207
 11
456
 21
207
  0
LINE
  5
2D4
100
AcDbEntity
  8
_0-4_図枠
  6
CONTINUOUS
 62
     0
100
AcDbLine
 10
681
 20
216
 11
456
 21
216
  0
LINE
  5
2D5
100
AcDbEntity
  8
_0-4_図枠
  6
CONTINUOUS
 62
     0
100
AcDbLine
 10
681
 20
225
 11
456
 21
225
  0
LINE
  5
2D6
100
AcDbEntity
  8
_0-4_図枠
  6
CONTINUOUS
 62
     0
100
AcDbLine
 10
681
 20
234
 11
456
 21
234
  0
LINE
  5
2D7
100
AcDbEntity
  8
_0-4_図枠
  6
CONTINUOUS
 62
     0
100
AcDbLine
 10
531
 20
234
 11
531
 21
117
  0
LINE
  5
2D8
100
AcDbEntity
  8
_0-4_図枠
  6
CONTINUOUS
 62
     0
100
AcDbLine
 10
561
 20
234
 11
561
 21
117
  0
LINE
  5
2D9
100
AcDbEntity
  8
_0-4_図枠
  6
CONTINUOUS
 62
     0
100
AcDbLine
 10
456
 20
234
 11
456
 21
117
  0
LINE
  5
2DA
100
AcDbEntity
  8
_0-0_0
  6
CONTINUOUS
 62
     0
100
AcDbLine
 10
300
 20
45
 11
91
 21
45
  0
LINE
  5
2DB
100
AcDbEntity
  8
_0-0_0
  6
CONTINUOUS
 62
     0
100
AcDbLine
 10
300
 20
36
 11
91
 21
36
  0
LINE
  5
2DC
100
AcDbEntity
  8
_0-0_0
  6
CONTINUOUS
 62
     0
100
AcDbLine
 10
300
 20
126
 11
91
 21
126
  0
LINE
  5
2DD
100
AcDbEntity
  8
_0-0_0
  6
CONTINUOUS
 62
     0
100
AcDbLine
 10
300
 20
135
 11
91
 21
135
  0
LINE
  5
2DE
100
AcDbEntity
  8
_0-0_0
  6
CONTINUOUS
 62
     0
100
AcDbLine
 10
300
 20
54
 11
91
 21
54
  0
LINE
  5
2DF
100
AcDbEntity
  8
_0-0_0
  6
CONTINUOUS
 62
     0
100
AcDbLine
 10
300
 20
63
 11
91
 21
63
  0
LINE
  5
2E0
100
AcDbEntity
  8
_0-0_0
  6
CONTINUOUS
 62
     0
100
AcDbLine
 10
300
 20
72
 11
91
 21
72
  0
LINE
  5
2E1
100
AcDbEntity
  8
_0-0_0
  6
CONTINUOUS
 62
     0
100
AcDbLine
 10
300
 20
81
 11
91
 21
81
  0
LINE
  5
2E2
100
AcDbEntity
  8
_0-0_0
  6
CONTINUOUS
 62
     0
100
AcDbLine
 10
300
 20
90
 11
91
 21
90
  0
LINE
  5
2E3
100
AcDbEntity
  8
_0-0_0
  6
CONTINUOUS
 62
     0
100
AcDbLine
 10
300
 20
99
 11
91
 21
99
  0
LINE
  5
2E4
100
AcDbEntity
  8
_0-0_0
  6
CONTINUOUS
 62
     0
100
AcDbLine
 10
300
 20
108
 11
91
 21
108
  0
LINE
  5
2E5
100
AcDbEntity
  8
_0-0_0
  6
CONTINUOUS
 62
     0
100
AcDbLine
 10
300
 20
117
 11
91
 21
117
  0
LINE
  5
2E6
100
AcDbEntity
  8
_0-0_0
  6
CONTINUOUS
 62
     0
100
AcDbLine
 10
300
 20
144
 11
91
 21
144
  0
LINE
  5
2E7
100
AcDbEntity
  8
_0-0_0
  6
CONTINUOUS
 62
     0
100
AcDbLine
 10
300
 20
153
 11
91
 21
153
  0
LINE
  5
2E8
100
AcDbEntity
  8
_0-0_0
  6
CONTINUOUS
 62
     0
100
AcDbLine
 10
300
 20
162
 11
91
 21
162
  0
LINE
  5
2E9
100
AcDbEntity
  8
_0-0_0
  6
CONTINUOUS
 62
     0
100
AcDbLine
 10
300
 20
171
 11
91
 21
171
  0
LINE
  5
2EA
100
AcDbEntity
  8
_0-0_0
  6
CONTINUOUS
 62
     0
100
AcDbLine
 10
300
 20
180
 11
91
 21
180
  0
LINE
  5
2EB
100
AcDbEntity
  8
_0-0_0
  6
CONTINUOUS
 62
     0
100
AcDbLine
 10
300
 20
189
 11
91
 21
189
  0
LINE
  5
2EC
100
AcDbEntity
  8
_0-0_0
  6
CONTINUOUS
 62
     0
100
AcDbLine
 10
300
 20
198
 11
91
 21
198
  0
LINE
  5
2ED
100
AcDbEntity
  8
_0-0_0
  6
CONTINUOUS
 62
     0
100
AcDbLine
 10
300
 20
207
 11
91
 21
207
  0
LINE
  5
2EE
100
AcDbEntity
  8
_0-0_0
  6
CONTINUOUS
 62
     0
100
AcDbLine
 10
300
 20
216
 11
91
 21
216
  0
LINE
  5
2EF
100
AcDbEntity
  8
_0-0_0
  6
CONTINUOUS
 62
     0
100
AcDbLine
 10
300
 20
225
 11
91
 21
225
  0
LINE
  5
2F0
100
AcDbEntity
  8
_0-0_0
  6
CONTINUOUS
 62
     0
100
AcDbLine
 10
300
 20
234
 11
91
 21
234
  0
TEXT
  5
2F1
100
AcDbEntity
  8
_0-0_0
  6
CONTINUOUS
 62
     0
100
AcDbText
 10
113.3333333333
 20
190.9166666667
 40
4.99
  1
ＦＹＫ壁フレーム
  7
STANDARD
100
AcDbText
  0
TEXT
  5
2F2
100
AcDbEntity
  8
_0-0_0
  6
CONTINUOUS
 62
     0
100
AcDbText
 10
112.9166666667
 20
199.9166666667
 40
5
  1
ＦＹＹフレーム
 41
0.998
  7
STANDARD
100
AcDbText
  0
TEXT
  5
2F3
100
AcDbEntity
  8
_0-0_0
  6
CONTINUOUS
 62
     0
100
AcDbText
 10
95.16666666667
 20
46.91666666667
 40
4.99
  1
20
  7
STANDARD
100
AcDbText
  0
TEXT
  5
2F4
100
AcDbEntity
  8
_0-0_0
  6
CONTINUOUS
 62
     0
100
AcDbText
 10
95.16666666667
 20
55.91666666667
 40
4.99
  1
19
  7
STANDARD
100
AcDbText
  0
TEXT
  5
2F5
100
AcDbEntity
  8
_0-0_0
  6
CONTINUOUS
 62
     0
100
AcDbText
 10
95.16666666667
 20
82.91666666667
 40
4.99
  1
16
  7
STANDARD
100
AcDbText
  0
TEXT
  5
2F6
100
AcDbEntity
  8
_0-0_0
  6
CONTINUOUS
 62
     0
100
AcDbText
 10
95.16666666667
 20
73.91666666667
 40
4.99
  1
17
  7
STANDARD
100
AcDbText
  0
TEXT
  5
2F7
100
AcDbEntity
  8
_0-0_0
  6
CONTINUOUS
 62
     0
100
AcDbText
 10
95.16666666667
 20
64.91666666667
 40
4.99
  1
18
  7
STANDARD
100
AcDbText
  0
TEXT
  5
2F8
100
AcDbEntity
  8
_0-0_0
  6
CONTINUOUS
 62
     0
100
AcDbText
 10
95.16666666667
 20
91.91666666667
 40
4.99
  1
15
  7
STANDARD
100
AcDbText
  0
TEXT
  5
2F9
100
AcDbEntity
  8
_0-0_0
  6
CONTINUOUS
 62
     0
100
AcDbText
 10
95.16666666667
 20
100.9166666667
 40
4.99
  1
14
  7
STANDARD
100
AcDbText
  0
TEXT
  5
2FA
100
AcDbEntity
  8
_0-0_0
  6
CONTINUOUS
 62
     0
100
AcDbText
 10
95.16666666667
 20
199.9166666667
 40
5
  1
 3
 41
0.998
  7
STANDARD
100
AcDbText
  0
TEXT
  5
2FB
100
AcDbEntity
  8
_0-0_0
  6
CONTINUOUS
 62
     0
100
AcDbText
 10
95.16666666667
 20
154.9166666667
 40
5
  1
 8
  7
STANDARD
100
AcDbText
  0
TEXT
  5
2FC
100
AcDbEntity
  8
_0-0_0
  6
CONTINUOUS
 62
     0
100
AcDbText
 10
95.16666666667
 20
127.9166666667
 40
5
  1
11
  7
STANDARD
100
AcDbText
  0
TEXT
  5
2FD
100
AcDbEntity
  8
_0-0_0
  6
CONTINUOUS
 62
     0
100
AcDbText
 10
95.16666666667
 20
118.9166666667
 40
5
  1
12
  7
STANDARD
100
AcDbText
  0
TEXT
  5
2FE
100
AcDbEntity
  8
_0-0_0
  6
CONTINUOUS
 62
     0
100
AcDbText
 10
95.16666666667
 20
109.9166666667
 40
5
  1
13
  7
STANDARD
100
AcDbText
  0
TEXT
  5
2FF
100
AcDbEntity
  8
_0-0_0
  6
CONTINUOUS
 62
     0
100
AcDbText
 10
95.16666666667
 20
136.9166666667
 40
5
  1
10
  7
STANDARD
100
AcDbText
  0
TEXT
  5
300
100
AcDbEntity
  8
_0-0_0
  6
CONTINUOUS
 62
     0
100
AcDbText
 10
95.16666666667
 20
145.9166666667
 40
5
  1
 9
  7
STANDARD
100
AcDbText
  0
TEXT
  5
301
100
AcDbEntity
  8
_0-0_0
  6
CONTINUOUS
 62
     0
100
AcDbText
 10
95.16666666667
 20
163.9166666667
 40
5
  1
 7
  7
STANDARD
100
AcDbText
  0
TEXT
  5
302
100
AcDbEntity
  8
_0-0_0
  6
CONTINUOUS
 62
     0
100
AcDbText
 10
95.16666666667
 20
172.9166666667
 40
4.99
  1
 6
  7
STANDARD
100
AcDbText
  0
TEXT
  5
303
100
AcDbEntity
  8
_0-0_0
  6
CONTINUOUS
 62
     0
100
AcDbText
 10
95.16666666667
 20
181.9166666667
 40
4.99
  1
 5
  7
STANDARD
100
AcDbText
  0
TEXT
  5
304
100
AcDbEntity
  8
_0-0_0
  6
CONTINUOUS
 62
     0
100
AcDbText
 10
95.16666666667
 20
190.9166666667
 40
4.99
  1
 4
  7
STANDARD
100
AcDbText
  0
TEXT
  5
305
100
AcDbEntity
  8
_0-0_0
  6
CONTINUOUS
 62
     0
100
AcDbText
 10
95.16666666667
 20
208.9166666667
 40
5
  1
 2
 41
0.998
  7
STANDARD
100
AcDbText
  0
TEXT
  5
306
100
AcDbEntity
  8
_0-0_0
  6
CONTINUOUS
 62
     0
100
AcDbText
 10
95.16666666667
 20
217.9166666667
 40
4.99
  1
 1
  7
STANDARD
100
AcDbText
  0
TEXT
  5
307
100
AcDbEntity
  8
_0-0_0
  6
CONTINUOUS
 62
     0
100
AcDbText
 10
93.625
 20
226.9166666667
 40
5
  1
No.
 41
0.998
  7
STANDARD
100
AcDbText
  0
TEXT
  5
308
100
AcDbEntity
  8
_0-0_0
  6
CONTINUOUS
 62
     0
100
AcDbText
 10
243.75
 20
226.9166666667
 40
5
  1
規　格
 41
0.998
  7
STANDARD
100
AcDbText
  0
TEXT
  5
309
100
AcDbEntity
  8
_0-0_0
  6
CONTINUOUS
 62
     0
100
AcDbText
 10
143.1666666667
 20
226.9166666667
 40
5
  1
部材名称
 41
0.998
  7
STANDARD
100
AcDbText
  0
TEXT
  5
30A
100
AcDbEntity
  8
_0-0_0
  6
CONTINUOUS
 62
     0
100
AcDbText
 10
114.5833333333
 20
145.9166666667
 40
5
  1
ＦＹＫｻｲﾄﾞｷｬｯﾌﾟ ｼﾞｮｲﾝﾄ
  7
STANDARD
100
AcDbText
  0
TEXT
  5
30B
100
AcDbEntity
  8
_0-0_0
  6
CONTINUOUS
 62
     0
100
AcDbText
 10
114.1666666667
 20
154.9166666667
 40
5
  1
ＦＹＫ水切ジョイント
  7
STANDARD
100
AcDbText
  0
TEXT
  5
30C
100
AcDbEntity
  8
_0-0_0
  6
CONTINUOUS
 62
     0
100
AcDbText
 10
114.1666666667
 20
163.9166666667
 40
5
  1
ＦＹＹフレームナット
  7
STANDARD
100
AcDbText
  0
TEXT
  5
30D
100
AcDbEntity
  8
_0-0_0
  6
CONTINUOUS
 62
     0
100
AcDbText
 10
115
 20
172.9166666667
 40
4.99
  1
ＦＹＹホルダースプリング
  7
STANDARD
100
AcDbText
  0
TEXT
  5
30E
100
AcDbEntity
  8
_0-0_0
  6
CONTINUOUS
 62
     0
100
AcDbText
 10
112.9166666667
 20
181.9166666667
 40
4.99
  1
ＦＹＫホルダー
  7
STANDARD
100
AcDbText
  0
TEXT
  5
30F
100
AcDbEntity
  8
_0-0_0
  6
CONTINUOUS
 62
     0
100
AcDbText
 10
112.0833333333
 20
136.9166666667
 40
5
  1
止水補助板
  7
STANDARD
100
AcDbText
  0
TEXT
  5
310
100
AcDbEntity
  8
_0-0_0
  6
CONTINUOUS
 62
     0
100
AcDbText
 10
112.5
 20
37.91666666667
 40
5
  1
ブチルテープ
  7
STANDARD
100
AcDbText
  0
TEXT
  5
311
100
AcDbEntity
  8
_0-0_0
  6
CONTINUOUS
 62
     0
100
AcDbText
 10
113.3333333333
 20
46.91666666667
 40
4.99
  1
ステンワッシャー
  7
STANDARD
100
AcDbText
  0
TEXT
  5
312
100
AcDbEntity
  8
_0-0_0
  6
CONTINUOUS
 62
     0
100
AcDbText
 10
113.3333333333
 20
55.91666666667
 40
4.99
  1
ステスワッシャー
  7
STANDARD
100
AcDbText
  0
TEXT
  5
313
100
AcDbEntity
  8
_0-0_0
  6
CONTINUOUS
 62
     0
100
AcDbText
 10
113.75
 20
64.91666666667
 40
4.99
  1
ステンタッピンねじ
  7
STANDARD
100
AcDbText
  0
TEXT
  5
314
100
AcDbEntity
  8
_0-0_0
  6
CONTINUOUS
 62
     0
100
AcDbText
 10
112.9166666667
 20
73.91666666667
 40
4.99
  1
アンカープラグ
  7
STANDARD
100
AcDbText
  0
TEXT
  5
315
100
AcDbEntity
  8
_0-0_0
  6
CONTINUOUS
 62
     0
100
AcDbText
 10
113.75
 20
82.91666666667
 40
4.99
  1
アジャストアンカー
  7
STANDARD
100
AcDbText
  0
TEXT
  5
316
100
AcDbEntity
  8
_0-0_0
  6
CONTINUOUS
 62
     0
100
AcDbText
 10
113.3333333333
 20
91.91666666667
 40
4.99
  1
ステン六角ボルト
  7
STANDARD
100
AcDbText
  0
TEXT
  5
317
100
AcDbEntity
  8
_0-0_0
  6
CONTINUOUS
 62
     0
100
AcDbText
 10
112.5
 20
118.9166666667
 40
5
  1
ガスケットＮ
  7
STANDARD
100
AcDbText
  0
TEXT
  5
318
100
AcDbEntity
  8
_0-0_0
  6
CONTINUOUS
 62
     0
100
AcDbText
 10
113.3333333333
 20
127.9166666667
 40
5
  1
ウォーターガード
  7
STANDARD
100
AcDbText
  0
TEXT
  5
319
100
AcDbEntity
  8
_0-0_0
  6
CONTINUOUS
 62
     0
100
AcDbText
 10
95.41666666667
 20
37.91666666667
 40
5
  1
※
  7
STANDARD
100
AcDbText
  0
LINE
  5
31A
100
AcDbEntity
  8
_0-0_0
  6
CONTINUOUS
 62
     0
100
AcDbLine
 10
91
 20
36
 11
91
 21
234
  0
LINE
  5
31B
100
AcDbEntity
  8
_0-0_0
  6
CONTINUOUS
 62
     0
100
AcDbLine
 10
105
 20
36
 11
105
 21
234
  0
LINE
  5
31C
100
AcDbEntity
  8
_0-0_0
  6
CONTINUOUS
 62
     0
100
AcDbLine
 10
301
 20
36
 11
301
 21
234
  0
LINE
  5
31D
100
AcDbEntity
  8
_0-0_0
  6
CONTINUOUS
 62
     0
100
AcDbLine
 10
300
 20
36
 11
300
 21
234
  0
LINE
  5
31E
100
AcDbEntity
  8
_0-0_0
  6
CONTINUOUS
 62
     0
100
AcDbLine
 10
205
 20
36
 11
205
 21
234
  0
TEXT
  5
31F
100
AcDbEntity
  8
_0-0_0
  6
CONTINUOUS
 62
     0
100
AcDbText
 10
310.3333333333
 20
235.0600336776
 40
5
  1
（2000mmセット）
  7
STANDARD
100
AcDbText
  0
TEXT
  5
320
100
AcDbEntity
  8
_0-0_0
  6
CONTINUOUS
 62
     0
100
AcDbText
 10
312.5833333333
 20
190.9166666667
 40
4.99
  1
2000
  7
STANDARD
100
AcDbText
  0
TEXT
  5
321
100
AcDbEntity
  8
_0-0_0
  6
CONTINUOUS
 62
     0
100
AcDbText
 10
312.5833333333
 20
199.9166666667
 40
5
  1
2000
 41
0.998
  7
STANDARD
100
AcDbText
  0
TEXT
  5
322
100
AcDbEntity
  8
_0-0_0
  6
CONTINUOUS
 62
     0
100
AcDbText
 10
312.5833333333
 20
208.9166666667
 40
5
  1
2000
 41
0.998
  7
STANDARD
100
AcDbText
  0
TEXT
  5
323
100
AcDbEntity
  8
_0-0_0
  6
CONTINUOUS
 62
     0
100
AcDbText
 10
312.5833333333
 20
217.9166666667
 40
4.99
  1
2000
  7
STANDARD
100
AcDbText
  0
TEXT
  5
324
100
AcDbEntity
  8
_0-0_0
  6
CONTINUOUS
 62
     0
100
AcDbText
 10
306.4166666667
 20
226.9166666667
 40
5
  1
定尺(mm)
 41
0.998
  7
STANDARD
100
AcDbText
  0
LINE
  5
325
100
AcDbEntity
  8
_0-0_0
  6
CONTINUOUS
 62
     0
100
AcDbLine
 10
301
 20
189
 11
368
 21
189
  0
LINE
  5
326
100
AcDbEntity
  8
_0-0_0
  6
CONTINUOUS
 62
     0
100
AcDbLine
 10
301
 20
198
 11
368
 21
198
  0
LINE
  5
327
100
AcDbEntity
  8
_0-0_0
  6
CONTINUOUS
 62
     0
100
AcDbLine
 10
301
 20
207
 11
368
 21
207
  0
LINE
  5
328
100
AcDbEntity
  8
_0-0_0
  6
CONTINUOUS
 62
     0
100
AcDbLine
 10
301
 20
216
 11
368
 21
216
  0
LINE
  5
329
100
AcDbEntity
  8
_0-0_0
  6
CONTINUOUS
 62
     0
100
AcDbLine
 10
301
 20
225
 11
368
 21
225
  0
LINE
  5
32A
100
AcDbEntity
  8
_0-0_0
  6
CONTINUOUS
 62
     0
100
AcDbLine
 10
301
 20
234
 11
368
 21
234
  0
TEXT
  5
32B
100
AcDbEntity
  8
_0-0_0
  6
CONTINUOUS
 62
     0
100
AcDbText
 10
358.4166666667
 20
199.9166666667
 40
5
  1
〃
 41
0.998
  7
STANDARD
100
AcDbText
  0
TEXT
  5
32C
100
AcDbEntity
  8
_0-0_0
  6
CONTINUOUS
 62
     0
100
AcDbText
 10
342.1666666667
 20
199.9166666667
 40
5
  1
 1
 41
0.998
  7
STANDARD
100
AcDbText
  0
TEXT
  5
32D
100
AcDbEntity
  8
_0-0_0
  6
CONTINUOUS
 62
     0
100
AcDbText
 10
342.1666666667
 20
190.9166666667
 40
4.99
  1
 1
  7
STANDARD
100
AcDbText
  0
TEXT
  5
32E
100
AcDbEntity
  8
_0-0_0
  6
CONTINUOUS
 62
     0
100
AcDbText
 10
358.4166666667
 20
190.9166666667
 40
4.99
  1
〃
  7
STANDARD
100
AcDbText
  0
TEXT
  5
32F
100
AcDbEntity
  8
_0-0_0
  6
CONTINUOUS
 62
     0
100
AcDbText
 10
342.1666666667
 20
208.9166666667
 40
5
  1
 1
 41
0.998
  7
STANDARD
100
AcDbText
  0
TEXT
  5
330
100
AcDbEntity
  8
_0-0_0
  6
CONTINUOUS
 62
     0
100
AcDbText
 10
342.1666666667
 20
217.9166666667
 40
4.99
  1
 1
  7
STANDARD
100
AcDbText
  0
TEXT
  5
331
100
AcDbEntity
  8
_0-0_0
  6
CONTINUOUS
 62
     0
100
AcDbText
 10
339.3333333333
 20
226.9166666667
 40
5
  1
入数
 41
0.998
  7
STANDARD
100
AcDbText
  0
TEXT
  5
332
100
AcDbEntity
  8
_0-0_0
  6
CONTINUOUS
 62
     0
100
AcDbText
 10
358.4166666667
 20
208.9166666667
 40
5
  1
〃
 41
0.998
  7
STANDARD
100
AcDbText
  0
TEXT
  5
333
100
AcDbEntity
  8
_0-0_0
  6
CONTINUOUS
 62
     0
100
AcDbText
 10
358.4166666667
 20
217.9166666667
 40
4.99
  1
本
  7
STANDARD
100
AcDbText
  0
TEXT
  5
334
100
AcDbEntity
  8
_0-0_0
  6
CONTINUOUS
 62
     0
100
AcDbText
 10
355.3333333333
 20
226.9166666667
 40
5
  1
単位
 41
0.998
  7
STANDARD
100
AcDbText
  0
LINE
  5
335
100
AcDbEntity
  8
_0-0_0
  6
CONTINUOUS
 62
     0
100
AcDbLine
 10
301
 20
144
 11
368
 21
144
  0
LINE
  5
336
100
AcDbEntity
  8
_0-0_0
  6
CONTINUOUS
 62
     0
100
AcDbLine
 10
301
 20
153
 11
368
 21
153
  0
LINE
  5
337
100
AcDbEntity
  8
_0-0_0
  6
CONTINUOUS
 62
     0
100
AcDbLine
 10
301
 20
162
 11
368
 21
162
  0
LINE
  5
338
100
AcDbEntity
  8
_0-0_0
  6
CONTINUOUS
 62
     0
100
AcDbLine
 10
301
 20
171
 11
368
 21
171
  0
LINE
  5
339
100
AcDbEntity
  8
_0-0_0
  6
CONTINUOUS
 62
     0
100
AcDbLine
 10
301
 20
180
 11
368
 21
180
  0
LINE
  5
33A
100
AcDbEntity
  8
_0-0_0
  6
CONTINUOUS
 62
     0
100
AcDbLine
 10
301
 20
189
 11
368
 21
189
  0
TEXT
  5
33B
100
AcDbEntity
  8
_0-0_0
  6
CONTINUOUS
 62
     0
100
AcDbText
 10
342.1666666667
 20
163.9166666667
 40
5
  1
 4
  7
STANDARD
100
AcDbText
  0
TEXT
  5
33C
100
AcDbEntity
  8
_0-0_0
  6
CONTINUOUS
 62
     0
100
AcDbText
 10
342.1666666667
 20
145.9166666667
 40
5
  1
 1
  7
STANDARD
100
AcDbText
  0
TEXT
  5
33D
100
AcDbEntity
  8
_0-0_0
  6
CONTINUOUS
 62
     0
100
AcDbText
 10
342.1666666667
 20
154.9166666667
 40
5
  1
 1
  7
STANDARD
100
AcDbText
  0
TEXT
  5
33E
100
AcDbEntity
  8
_0-0_0
  6
CONTINUOUS
 62
     0
100
AcDbText
 10
358.4166666667
 20
145.9166666667
 40
5
  1
〃
  7
STANDARD
100
AcDbText
  0
TEXT
  5
33F
100
AcDbEntity
  8
_0-0_0
  6
CONTINUOUS
 62
     0
100
AcDbText
 10
358.4166666667
 20
154.9166666667
 40
5
  1
〃
  7
STANDARD
100
AcDbText
  0
TEXT
  5
340
100
AcDbEntity
  8
_0-0_0
  6
CONTINUOUS
 62
     0
100
AcDbText
 10
342.1666666667
 20
172.9166666667
 40
4.99
  1
 4
  7
STANDARD
100
AcDbText
  0
TEXT
  5
341
100
AcDbEntity
  8
_0-0_0
  6
CONTINUOUS
 62
     0
100
AcDbText
 10
342.1666666667
 20
181.9166666667
 40
4.99
  1
 4
  7
STANDARD
100
AcDbText
  0
TEXT
  5
342
100
AcDbEntity
  8
_0-0_0
  6
CONTINUOUS
 62
     0
100
AcDbText
 10
358.4166666667
 20
172.9166666667
 40
4.99
  1
〃
  7
STANDARD
100
AcDbText
  0
TEXT
  5
343
100
AcDbEntity
  8
_0-0_0
  6
CONTINUOUS
 62
     0
100
AcDbText
 10
358.4166666667
 20
163.9166666667
 40
5
  1
〃
  7
STANDARD
100
AcDbText
  0
TEXT
  5
344
100
AcDbEntity
  8
_0-0_0
  6
CONTINUOUS
 62
     0
100
AcDbText
 10
358.4166666667
 20
181.9166666667
 40
4.99
  1
〃
  7
STANDARD
100
AcDbText
  0
TEXT
  5
345
100
AcDbEntity
  8
_0-0_0
  6
CONTINUOUS
 62
     0
100
AcDbText
 10
312.5833333333
 20
136.9166666667
 40
5
  1
2100
  7
STANDARD
100
AcDbText
  0
TEXT
  5
346
100
AcDbEntity
  8
_0-0_0
  6
CONTINUOUS
 62
     0
100
AcDbText
 10
342.1666666667
 20
136.9166666667
 40
5
  1
 1
  7
STANDARD
100
AcDbText
  0
TEXT
  5
347
100
AcDbEntity
  8
_0-0_0
  6
CONTINUOUS
 62
     0
100
AcDbText
 10
358.4166666667
 20
136.9166666667
 40
5
  1
〃
  7
STANDARD
100
AcDbText
  0
LINE
  5
348
100
AcDbEntity
  8
_0-0_0
  6
CONTINUOUS
 62
     0
100
AcDbLine
 10
301
 20
126
 11
368
 21
126
  0
LINE
  5
349
100
AcDbEntity
  8
_0-0_0
  6
CONTINUOUS
 62
     0
100
AcDbLine
 10
301
 20
135
 11
368
 21
135
  0
TEXT
  5
34A
100
AcDbEntity
  8
_0-0_0
  6
CONTINUOUS
 62
     0
100
AcDbText
 10
312.5833333333
 20
37.91666666667
 40
5
  1
6000
  7
STANDARD
100
AcDbText
  0
TEXT
  5
34B
100
AcDbEntity
  8
_0-0_0
  6
CONTINUOUS
 62
     0
100
AcDbText
 10
312.5833333333
 20
118.9166666667
 40
5
  1
2000
  7
STANDARD
100
AcDbText
  0
TEXT
  5
34C
100
AcDbEntity
  8
_0-0_0
  6
CONTINUOUS
 62
     0
100
AcDbText
 10
312.5833333333
 20
127.9166666667
 40
5
  1
2100
  7
STANDARD
100
AcDbText
  0
LINE
  5
34D
100
AcDbEntity
  8
_0-0_0
  6
CONTINUOUS
 62
     0
100
AcDbLine
 10
301
 20
36
 11
368
 21
36
  0
LINE
  5
34E
100
AcDbEntity
  8
_0-0_0
  6
CONTINUOUS
 62
     0
100
AcDbLine
 10
301
 20
45
 11
368
 21
45
  0
LINE
  5
34F
100
AcDbEntity
  8
_0-0_0
  6
CONTINUOUS
 62
     0
100
AcDbLine
 10
301
 20
54
 11
368
 21
54
  0
LINE
  5
350
100
AcDbEntity
  8
_0-0_0
  6
CONTINUOUS
 62
     0
100
AcDbLine
 10
301
 20
63
 11
368
 21
63
  0
LINE
  5
351
100
AcDbEntity
  8
_0-0_0
  6
CONTINUOUS
 62
     0
100
AcDbLine
 10
301
 20
72
 11
368
 21
72
  0
LINE
  5
352
100
AcDbEntity
  8
_0-0_0
  6
CONTINUOUS
 62
     0
100
AcDbLine
 10
301
 20
81
 11
368
 21
81
  0
LINE
  5
353
100
AcDbEntity
  8
_0-0_0
  6
CONTINUOUS
 62
     0
100
AcDbLine
 10
301
 20
90
 11
368
 21
90
  0
LINE
  5
354
100
AcDbEntity
  8
_0-0_0
  6
CONTINUOUS
 62
     0
100
AcDbLine
 10
301
 20
99
 11
368
 21
99
  0
LINE
  5
355
100
AcDbEntity
  8
_0-0_0
  6
CONTINUOUS
 62
     0
100
AcDbLine
 10
301
 20
108
 11
368
 21
108
  0
LINE
  5
356
100
AcDbEntity
  8
_0-0_0
  6
CONTINUOUS
 62
     0
100
AcDbLine
 10
301
 20
117
 11
368
 21
117
  0
TEXT
  5
357
100
AcDbEntity
  8
_0-0_0
  6
CONTINUOUS
 62
     0
100
AcDbText
 10
342.1666666667
 20
46.91666666667
 40
4.99
  1
 5
  7
STANDARD
100
AcDbText
  0
TEXT
  5
358
100
AcDbEntity
  8
_0-0_0
  6
CONTINUOUS
 62
     0
100
AcDbText
 10
342.1666666667
 20
37.91666666667
 40
5
  1
 1
  7
STANDARD
100
AcDbText
  0
TEXT
  5
359
100
AcDbEntity
  8
_0-0_0
  6
CONTINUOUS
 62
     0
100
AcDbText
 10
342.1666666667
 20
55.91666666667
 40
4.99
  1
 5
  7
STANDARD
100
AcDbText
  0
TEXT
  5
35A
100
AcDbEntity
  8
_0-0_0
  6
CONTINUOUS
 62
     0
100
AcDbText
 10
342.1666666667
 20
64.91666666667
 40
4.99
  1
 5
  7
STANDARD
100
AcDbText
  0
TEXT
  5
35B
100
AcDbEntity
  8
_0-0_0
  6
CONTINUOUS
 62
     0
100
AcDbText
 10
358.4166666667
 20
37.91666666667
 40
5
  1
巻
  7
STANDARD
100
AcDbText
  0
TEXT
  5
35C
100
AcDbEntity
  8
_0-0_0
  6
CONTINUOUS
 62
     0
100
AcDbText
 10
358.4166666667
 20
55.91666666667
 40
4.99
  1
枚
  7
STANDARD
100
AcDbText
  0
TEXT
  5
35D
100
AcDbEntity
  8
_0-0_0
  6
CONTINUOUS
 62
     0
100
AcDbText
 10
358.4166666667
 20
46.91666666667
 40
4.99
  1
〃
  7
STANDARD
100
AcDbText
  0
TEXT
  5
35E
100
AcDbEntity
  8
_0-0_0
  6
CONTINUOUS
 62
     0
100
AcDbText
 10
358.4166666667
 20
64.91666666667
 40
4.99
  1
〃
  7
STANDARD
100
AcDbText
  0
TEXT
  5
35F
100
AcDbEntity
  8
_0-0_0
  6
CONTINUOUS
 62
     0
100
AcDbText
 10
342.1666666667
 20
91.91666666667
 40
4.99
  1
 5
  7
STANDARD
100
AcDbText
  0
TEXT
  5
360
100
AcDbEntity
  8
_0-0_0
  6
CONTINUOUS
 62
     0
100
AcDbText
 10
342.1666666667
 20
82.91666666667
 40
4.99
  1
 5
  7
STANDARD
100
AcDbText
  0
TEXT
  5
361
100
AcDbEntity
  8
_0-0_0
  6
CONTINUOUS
 62
     0
100
AcDbText
 10
342.1666666667
 20
73.91666666667
 40
4.99
  1
 5
  7
STANDARD
100
AcDbText
  0
TEXT
  5
362
100
AcDbEntity
  8
_0-0_0
  6
CONTINUOUS
 62
     0
100
AcDbText
 10
342.1666666667
 20
100.9166666667
 40
4.99
  1
 5
  7
STANDARD
100
AcDbText
  0
TEXT
  5
363
100
AcDbEntity
  8
_0-0_0
  6
CONTINUOUS
 62
     0
100
AcDbText
 10
342.1666666667
 20
109.9166666667
 40
5
  1
 4
  7
STANDARD
100
AcDbText
  0
TEXT
  5
364
100
AcDbEntity
  8
_0-0_0
  6
CONTINUOUS
 62
     0
100
AcDbText
 10
358.4166666667
 20
91.91666666667
 40
4.99
  1
〃
  7
STANDARD
100
AcDbText
  0
TEXT
  5
365
100
AcDbEntity
  8
_0-0_0
  6
CONTINUOUS
 62
     0
100
AcDbText
 10
358.4166666667
 20
73.91666666667
 40
4.99
  1
〃
  7
STANDARD
100
AcDbText
  0
TEXT
  5
366
100
AcDbEntity
  8
_0-0_0
  6
CONTINUOUS
 62
     0
100
AcDbText
 10
358.4166666667
 20
82.91666666667
 40
4.99
  1
〃
  7
STANDARD
100
AcDbText
  0
TEXT
  5
367
100
AcDbEntity
  8
_0-0_0
  6
CONTINUOUS
 62
     0
100
AcDbText
 10
358.4166666667
 20
100.9166666667
 40
4.99
  1
〃
  7
STANDARD
100
AcDbText
  0
TEXT
  5
368
100
AcDbEntity
  8
_0-0_0
  6
CONTINUOUS
 62
     0
100
AcDbText
 10
358.4166666667
 20
109.9166666667
 40
5
  1
〃
  7
STANDARD
100
AcDbText
  0
TEXT
  5
369
100
AcDbEntity
  8
_0-0_0
  6
CONTINUOUS
 62
     0
100
AcDbText
 10
342.1666666667
 20
127.9166666667
 40
5
  1
 1
  7
STANDARD
100
AcDbText
  0
TEXT
  5
36A
100
AcDbEntity
  8
_0-0_0
  6
CONTINUOUS
 62
     0
100
AcDbText
 10
342.1666666667
 20
118.9166666667
 40
5
  1
 1
  7
STANDARD
100
AcDbText
  0
TEXT
  5
36B
100
AcDbEntity
  8
_0-0_0
  6
CONTINUOUS
 62
     0
100
AcDbText
 10
358.4166666667
 20
127.9166666667
 40
5
  1
〃
  7
STANDARD
100
AcDbText
  0
TEXT
  5
36C
100
AcDbEntity
  8
_0-0_0
  6
CONTINUOUS
 62
     0
100
AcDbText
 10
358.4166666667
 20
118.9166666667
 40
5
  1
本
  7
STANDARD
100
AcDbText
  0
LINE
  5
36D
100
AcDbEntity
  8
_0-0_0
  6
CONTINUOUS
 62
     0
100
AcDbLine
 10
368
 20
36
 11
368
 21
234
  0
LINE
  5
36E
100
AcDbEntity
  8
_0-0_0
  6
CONTINUOUS
 62
     0
100
AcDbLine
 10
301
 20
36
 11
301
 21
234
  0
LINE
  5
36F
100
AcDbEntity
  8
_0-0_0
  6
CONTINUOUS
 62
     0
100
AcDbLine
 10
354
 20
36
 11
354
 21
234
  0
LINE
  5
370
100
AcDbEntity
  8
_0-0_0
  6
CONTINUOUS
 62
     0
100
AcDbLine
 10
336
 20
36
 11
336
 21
234
  0
TEXT
  5
371
100
AcDbEntity
  8
_0-0_0
  6
CONTINUOUS
 62
     0
100
AcDbText
 10
113.3333333333
 20
217.9166666667
 40
4.99
  1
ＦＹＫキャップＳ
  7
STANDARD
100
AcDbText
  0
TEXT
  5
372
100
AcDbEntity
  8
_0-0_0
  6
CONTINUOUS
 62
     0
100
AcDbText
 10
114.5833333333
 20
208.9166666667
 40
5
  1
ＦＹＫサイドキャップＳ
  7
STANDARD
100
AcDbText
  0
TEXT
  5
373
100
AcDbEntity
  8
_0-4_図枠
  6
CONTINUOUS
 62
     0
100
AcDbText
 10
27.54650870913
 20
563.4696321568
 40
10
  1
◇ステンレス５０タイプ（５０ＦＹＫＧ－Ｓ）
  7
STANDARD
100
AcDbText
  0
TEXT
  5
374
100
AcDbEntity
  8
_0-4_図枠
  6
CONTINUOUS
 62
     0
100
AcDbText
 10
467.5
 20
208.5
 40
5
  1
　　 〃　 　２５０
  7
STANDARD
100
AcDbText
  0
TEXT
  5
375
100
AcDbEntity
  8
_0-4_図枠
  6
CONTINUOUS
 62
     0
100
AcDbText
 10
467.5
 20
199.5
 40
5
  1
　　 〃　 　２７５
  7
STANDARD
100
AcDbText
  0
TEXT
  5
376
100
AcDbEntity
  8
_0-4_図枠
  6
CONTINUOUS
 62
     0
100
AcDbText
 10
467.5
 20
190.5
 40
5
  1
　　 〃　 　３００
  7
STANDARD
100
AcDbText
  0
TEXT
  5
377
100
AcDbEntity
  8
_0-4_図枠
  6
CONTINUOUS
 62
     0
100
AcDbText
 10
467.5
 20
181.5
 40
5
  1
　　 〃　 　３２５
  7
STANDARD
100
AcDbText
  0
TEXT
  5
378
100
AcDbEntity
  8
_0-4_図枠
  6
CONTINUOUS
 62
     0
100
AcDbText
 10
467.5
 20
172.5
 40
5
  1
　　 〃　 　３５０
  7
STANDARD
100
AcDbText
  0
TEXT
  5
379
100
AcDbEntity
  8
_0-4_図枠
  6
CONTINUOUS
 62
     0
100
AcDbText
 10
467.5
 20
163.5
 40
5
  1
　　 〃　 　３７５
  7
STANDARD
100
AcDbText
  0
TEXT
  5
37A
100
AcDbEntity
  8
_0-4_図枠
  6
CONTINUOUS
 62
     0
100
AcDbText
 10
467.5
 20
154.5
 40
5
  1
　　 〃　 　４００
  7
STANDARD
100
AcDbText
  0
TEXT
  5
37B
100
AcDbEntity
  8
_0-4_図枠
  6
CONTINUOUS
 62
     0
100
AcDbText
 10
467.5
 20
145.5
 40
5
  1
　　 〃　 　４２５
  7
STANDARD
100
AcDbText
  0
TEXT
  5
37C
100
AcDbEntity
  8
_0-4_図枠
  6
CONTINUOUS
 62
     0
100
AcDbText
 10
467.5
 20
136.5
 40
5
  1
　　 〃　 　４５０
  7
STANDARD
100
AcDbText
  0
TEXT
  5
37D
100
AcDbEntity
  8
_0-4_図枠
  6
CONTINUOUS
 62
     0
100
AcDbText
 10
467.5
 20
127.5
 40
5
  1
　　 〃　 　４７５
  7
STANDARD
100
AcDbText
  0
TEXT
  5
37E
100
AcDbEntity
  8
_0-4_図枠
  6
CONTINUOUS
 62
     0
100
AcDbText
 10
467.5
 20
118.5
 40
5
  1
　　 〃　 　５００
  7
STANDARD
100
AcDbText
  0
LINE
  5
37F
100
AcDbEntity
  8
_0-3_躯体と製品
  6
CONTINUOUS
 62
     0
100
AcDbLine
 10
434.0437457169
 20
380.1391063229
 11
433.8892524938
 21
380
  0
LINE
  5
380
100
AcDbEntity
  8
_0-3_躯体と製品
  6
CONTINUOUS
 62
     0
100
AcDbLine
 10
433.7397582713
 20
385.2011932252
 11
433.4671752847
 21
380
  0
LINE
  5
381
100
AcDbEntity
  8
_0-3_躯体と製品
  6
CONTINUOUS
 62
     0
100
AcDbLine
 10
428.8834228438
 20
385.4557029804
 11
428.5975015661
 21
380
  0
LINE
  5
382
100
AcDbEntity
  8
_0-3_躯体と製品
  6
CONTINUOUS
 62
     0
100
AcDbLine
 10
428.4599614441
 20
380
 11
428.0519685084
 21
380.4531220603
  0
CIRCLE
  5
383
100
AcDbEntity
  8
_0-4_図枠
  6
CONTINUOUS
 62
     0
100
AcDbCircle
 10
543.8458371153
 20
466.7286090126
 40
6
  0
TEXT
  5
384
100
AcDbEntity
  8
_0-4_図枠
  6
CONTINUOUS
 62
     0
100
AcDbText
 10
540.8458371153
 20
463.7286090126
 40
5
  1
１
  7
STANDARD
100
AcDbText
  0
LINE
  5
385
100
AcDbEntity
  8
_0-4_図枠
  6
CONTINUOUS
 62
     0
100
AcDbLine
 10
515.7093559719
 20
417.9947941261
 11
540.8458371153
 21
461.5324565899
  0
CIRCLE
  5
386
100
AcDbEntity
  8
_0-4_図枠
  6
CONTINUOUS
 62
     0
100
AcDbCircle
 10
515.7093559719
 20
417.9947941261
 40
0.9
  0
LINE
  5
387
100
AcDbEntity
  8
_0-4_図枠
  6
CONTINUOUS
 62
     0
100
AcDbLine
 10
334.0211428793
 20
468.3994153881
 11
352.2579643841
 21
499.9865168031
  0
TEXT
  5
388
100
AcDbEntity
  8
_0-4_図枠
  6
CONTINUOUS
 62
     0
100
AcDbText
 10
352.2579643841
 20
502.1826692258
 40
5
  1
２
  7
STANDARD
100
AcDbText
  0
CIRCLE
  5
389
100
AcDbEntity
  8
_0-4_図枠
  6
CONTINUOUS
 62
     0
100
AcDbCircle
 10
355.2579643841
 20
505.1826692258
 40
6
  0
CIRCLE
  5
38A
100
AcDbEntity
  8
_0-4_図枠
  6
CONTINUOUS
 62
     0
100
AcDbCircle
 10
334.0211428793
 20
468.3994153881
 40
0.9
  0
LINE
  5
38B
100
AcDbEntity
  8
_0-4_図枠
  6
CONTINUOUS
 62
     0
100
AcDbLine
 10
516.2535827102
 20
399.8329544058
 11
539.8900638536
 21
440.7725406584
  0
CIRCLE
  5
38C
100
AcDbEntity
  8
_0-4_図枠
  6
CONTINUOUS
 62
     0
100
AcDbCircle
 10
542.8900638536
 20
445.9686930811
 40
6
  0
CIRCLE
  5
38D
100
AcDbEntity
  8
_0-4_図枠
  6
CONTINUOUS
 62
     0
100
AcDbCircle
 10
516.2535827102
 20
399.8329544058
 40
0.9
  0
LINE
  5
38E
100
AcDbEntity
  8
_0-4_図枠
  6
CONTINUOUS
 62
     0
100
AcDbLine
 10
424.378248247
 20
374.2361569326
 11
414.6809946151
 21
357.4400209483
  0
CIRCLE
  5
38F
100
AcDbEntity
  8
_0-4_図枠
  6
CONTINUOUS
 62
     0
100
AcDbCircle
 10
411.6809946151
 20
352.2438685256
 40
6
  0
CIRCLE
  5
390
100
AcDbEntity
  8
_0-4_図枠
  6
CONTINUOUS
 62
     0
100
AcDbCircle
 10
424.378248247
 20
374.2361569326
 40
0.9
  0
LINE
  5
391
100
AcDbEntity
  8
_0-4_図枠
  6
CONTINUOUS
 62
     0
100
AcDbLine
 10
429.373989024
 20
343.9173386019
 11
419.3323748293
 21
326.5247526265
  0
CIRCLE
  5
392
100
AcDbEntity
  8
_0-4_図枠
  6
CONTINUOUS
 62
     0
100
AcDbCircle
 10
416.3323748293
 20
321.3286002038
 40
6
  0
LINE
  5
393
100
AcDbEntity
  8
_0-4_図枠
  6
CONTINUOUS
 62
     0
100
AcDbLine
 10
435.8374108287
 20
377.1005721473
 11
452.2597964936
 21
348.6561657942
  0
CIRCLE
  5
394
100
AcDbEntity
  8
_0-4_図枠
  6
CONTINUOUS
 62
     0
100
AcDbCircle
 10
455.2597964936
 20
343.4600133715
 40
6
  0
LINE
  5
395
100
AcDbEntity
  8
_0-4_図枠
  6
CONTINUOUS
 62
     0
100
AcDbLine
 10
441.6774827281
 20
384.4886149116
 11
453.4591688599
 21
364.0821359326
  0
CIRCLE
  5
396
100
AcDbEntity
  8
_0-4_図枠
  6
CONTINUOUS
 62
     0
100
AcDbCircle
 10
456.4591688599
 20
358.8859835099
 40
6
  0
LINE
  5
397
100
AcDbEntity
  8
_0-4_図枠
  6
CONTINUOUS
 62
     0
100
AcDbLine
 10
433.5544450374
 20
404.4631696873
 11
451.3799775765
 21
435.3378977168
  0
CIRCLE
  5
398
100
AcDbEntity
  8
_0-4_図枠
  6
CONTINUOUS
 62
     0
100
AcDbCircle
 10
454.3799775765
 20
440.5340501396
 40
6
  0
LINE
  5
399
100
AcDbEntity
  8
_0-4_図枠
  6
CONTINUOUS
 62
     0
100
AcDbLine
 10
449.1038290284
 20
407.1854223307
 11
467.3909188008
 21
438.859590939
  0
CIRCLE
  5
39A
100
AcDbEntity
  8
_0-4_図枠
  6
CONTINUOUS
 62
     0
100
AcDbCircle
 10
470.3909188008
 20
444.0557433617
 40
6
  0
LINE
  5
39B
100
AcDbEntity
  8
_0-4_図枠
  6
CONTINUOUS
 62
     0
100
AcDbLine
 10
449.0216915842
 20
382.751336986
 11
473.8347458396
 21
425.7288076474
  0
TEXT
  5
39C
100
AcDbEntity
  8
_0-4_図枠
  6
CONTINUOUS
 62
     0
100
AcDbText
 10
473.8347458396
 20
427.9249600701
 40
5
  1
３
  7
STANDARD
100
AcDbText
  0
CIRCLE
  5
39D
100
AcDbEntity
  8
_0-4_図枠
  6
CONTINUOUS
 62
     0
100
AcDbCircle
 10
476.8347458396
 20
430.9249600701
 40
6
  0
CIRCLE
  5
39E
100
AcDbEntity
  8
_0-4_図枠
  6
CONTINUOUS
 62
     0
100
AcDbCircle
 10
449.0216915842
 20
382.751336986
 40
0.9
  0
LINE
  5
39F
100
AcDbEntity
  8
_0-4_図枠
  6
CONTINUOUS
 62
     0
100
AcDbLine
 10
481.4733407388
 20
402.5981941001
 11
495.3986558504
 21
426.7175473848
  0
CIRCLE
  5
3A0
100
AcDbEntity
  8
_0-4_図枠
  6
CONTINUOUS
 62
     0
100
AcDbCircle
 10
498.3986558504
 20
431.9136998075
 40
6
  0
CIRCLE
  5
3A1
100
AcDbEntity
  8
_0-4_図枠
  6
CONTINUOUS
 62
     0
100
AcDbCircle
 10
441.6774827281
 20
384.4886149116
 40
0.9
  0
CIRCLE
  5
3A2
100
AcDbEntity
  8
_0-4_図枠
  6
CONTINUOUS
 62
     0
100
AcDbCircle
 10
435.8374108287
 20
377.1005721473
 40
0.9
  0
CIRCLE
  5
3A3
100
AcDbEntity
  8
_0-4_図枠
  6
CONTINUOUS
 62
     0
100
AcDbCircle
 10
449.1038290284
 20
407.1854223307
 40
0.9
  0
CIRCLE
  5
3A4
100
AcDbEntity
  8
_0-4_図枠
  6
CONTINUOUS
 62
     0
100
AcDbCircle
 10
429.373989024
 20
343.9173386019
 40
0.9
  0
CIRCLE
  5
3A5
100
AcDbEntity
  8
_0-4_図枠
  6
CONTINUOUS
 62
     0
100
AcDbCircle
 10
433.5544450374
 20
404.4631696873
 40
0.9
  0
CIRCLE
  5
3A6
100
AcDbEntity
  8
_0-4_図枠
  6
CONTINUOUS
 62
     0
100
AcDbCircle
 10
481.4733407388
 20
402.5981941001
 40
0.9
  0
CIRCLE
  5
3A7
100
AcDbEntity
  8
_0-4_図枠
  6
CONTINUOUS
 62
     0
100
AcDbCircle
 10
353.2900884372
 20
337.9627857344
 40
6
  0
LINE
  5
3A8
100
AcDbEntity
  8
_0-4_図枠
  6
CONTINUOUS
 62
     0
100
AcDbLine
 10
342.413070926
 20
319.1232387701
 11
350.2900884372
 21
332.7666333117
  0
CIRCLE
  5
3A9
100
AcDbEntity
  8
_0-4_図枠
  6
CONTINUOUS
 62
     0
100
AcDbCircle
 10
342.413070926
 20
319.1232387701
 40
0.9
  0
LINE
  5
3AA
100
AcDbEntity
  8
_0-4_図枠
  6
CONTINUOUS
 62
     0
100
AcDbLine
 10
311.7838028878
 20
418.6553216451
 11
296.1183766197
 21
402.9898953769
  0
CIRCLE
  5
3AB
100
AcDbEntity
  8
_0-4_図枠
  6
CONTINUOUS
 62
     0
100
AcDbCircle
 10
291.8757359325
 20
398.7472546898
 40
6
  0
LINE
  5
3AC
100
AcDbEntity
  8
_0-4_図枠
  6
CONTINUOUS
 62
     0
100
AcDbLine
 10
313.8630038442
 20
427.1908842778
 11
294.3771809495
 21
446.6767071725
  0
CIRCLE
  5
3AD
100
AcDbEntity
  8
_0-4_図枠
  6
CONTINUOUS
 62
     0
100
AcDbCircle
 10
290.1345402624
 20
450.9193478597
 40
6
  0
CIRCLE
  5
3AE
100
AcDbEntity
  8
_0-4_図枠
  6
CONTINUOUS
 62
     0
100
AcDbCircle
 10
262.0682362501
 20
449.8206076469
 40
6
  0
LINE
  5
3AF
100
AcDbEntity
  8
_0-4_図枠
  6
CONTINUOUS
 62
     0
100
AcDbLine
 10
274.5663603572
 20
428.1732216941
 11
265.0682362501
 21
444.6244552242
  0
CIRCLE
  5
3B0
100
AcDbEntity
  8
_0-4_図枠
  6
CONTINUOUS
 62
     0
100
AcDbCircle
 10
274.5663603572
 20
428.1732216941
 40
0.9
  0
CIRCLE
  5
3B1
100
AcDbEntity
  8
_0-4_図枠
  6
CONTINUOUS
 62
     0
100
AcDbCircle
 10
313.8630038442
 20
427.1908842778
 40
0.9
  0
LINE
  5
3B2
100
AcDbEntity
  8
_0-4_図枠
  6
CONTINUOUS
 62
     0
100
AcDbLine
 10
313.470412466
 20
458.0090368455
 11
295.3512972233
 21
489.392265034
  0
TEXT
  5
3B3
100
AcDbEntity
  8
_0-4_図枠
  6
CONTINUOUS
 62
     0
100
AcDbText
 10
289.3512972233
 20
491.5884174567
 40
5
  1
４
  7
STANDARD
100
AcDbText
  0
CIRCLE
  5
3B4
100
AcDbEntity
  8
_0-4_図枠
  6
CONTINUOUS
 62
     0
100
AcDbCircle
 10
292.3512972233
 20
494.5884174567
 40
6
  0
LINE
  5
3B5
100
AcDbEntity
  8
_0-4_図枠
  6
CONTINUOUS
 62
     0
100
AcDbLine
 10
317.6419097734
 20
476.5278792634
 11
297.8318935557
 21
510.8398338513
  0
CIRCLE
  5
3B6
100
AcDbEntity
  8
_0-4_図枠
  6
CONTINUOUS
 62
     0
100
AcDbCircle
 10
294.8318935557
 20
516.035986274
 40
6
  0
LINE
  5
3B7
100
AcDbEntity
  8
_0-4_図枠
  6
CONTINUOUS
 62
     0
100
AcDbLine
 10
338.7176991381
 20
449.7313426095
 11
360.1865555244
 21
486.9164926509
  0
CIRCLE
  5
3B8
100
AcDbEntity
  8
_0-4_図枠
  6
CONTINUOUS
 62
     0
100
AcDbCircle
 10
363.1865555244
 20
492.1126450736
 40
6
  0
LINE
  5
3B9
100
AcDbEntity
  8
_0-4_図枠
  6
CONTINUOUS
 62
     0
100
AcDbLine
 10
338.2208942486
 20
430.6731164004
 11
362.1125019454
 21
389.291637995
  0
CIRCLE
  5
3BA
100
AcDbEntity
  8
_0-4_図枠
  6
CONTINUOUS
 62
     0
100
AcDbCircle
 10
365.1125019454
 20
384.0954855723
 40
6
  0
CIRCLE
  5
3BB
100
AcDbEntity
  8
_0-4_図枠
  6
CONTINUOUS
 62
     0
100
AcDbCircle
 10
311.7838028878
 20
418.6553216451
 40
0.9
  0
CIRCLE
  5
3BC
100
AcDbEntity
  8
_0-4_図枠
  6
CONTINUOUS
 62
     0
100
AcDbCircle
 10
317.6419097734
 20
476.5278792634
 40
0.9
  0
CIRCLE
  5
3BD
100
AcDbEntity
  8
_0-4_図枠
  6
CONTINUOUS
 62
     0
100
AcDbCircle
 10
338.2208942486
 20
430.6731164004
 40
0.9
  0
CIRCLE
  5
3BE
100
AcDbEntity
  8
_0-4_図枠
  6
CONTINUOUS
 62
     0
100
AcDbCircle
 10
338.7176991381
 20
449.7313426095
 40
0.9
  0
CIRCLE
  5
3BF
100
AcDbEntity
  8
_0-4_図枠
  6
CONTINUOUS
 62
     0
100
AcDbCircle
 10
313.470412466
 20
458.0090368455
 40
0.9
  0
LINE
  5
3C0
100
AcDbEntity
  8
_0-3_躯体と製品
  6
CONTINUOUS
 62
     0
100
AcDbLine
 10
437.2735026919
 20
379.4956829857
 11
437.2735026919
 21
375
  0
LINE
  5
3C1
100
AcDbEntity
  8
_0-3_躯体と製品
  6
CONTINUOUS
 62
     0
100
AcDbLine
 10
434.3867513459
 20
379.4956829857
 11
434.3867513459
 21
375
  0
LINE
  5
3C2
100
AcDbEntity
  8
_0-3_躯体と製品
  6
CONTINUOUS
 62
     0
100
AcDbLine
 10
428.6132486541
 20
379.4956829857
 11
428.6132486541
 21
375
  0
LINE
  5
3C3
100
AcDbEntity
  8
_0-3_躯体と製品
  6
CONTINUOUS
 62
     0
100
AcDbLine
 10
436.4
 20
380
 11
437.2735026919
 21
379.4956829857
  0
LINE
  5
3C4
100
AcDbEntity
  8
_0-3_躯体と製品
  6
CONTINUOUS
 62
     0
100
AcDbLine
 10
426.6
 20
380
 11
436.4
 21
380
  0
LINE
  5
3C5
100
AcDbEntity
  8
_0-3_躯体と製品
  6
CONTINUOUS
 62
     0
100
AcDbLine
 10
426.6
 20
380
 11
425.7264973081
 21
379.4956829857
  0
LINE
  5
3C6
100
AcDbEntity
  8
_0-3_躯体と製品
  6
CONTINUOUS
 62
     0
100
AcDbLine
 10
425.7264973081
 20
379.4956829857
 11
425.7264973081
 21
375
  0
ARC
  5
3C7
100
AcDbEntity
  8
_0-3_躯体と製品
  6
CONTINUOUS
 62
     0
100
AcDbCircle
 10
435.8301270189
 20
377.3864422247
 40
2.555822748428
100
AcDbArc
 50
55.61575253204
 51
124.384247468
  0
ARC
  5
3C8
100
AcDbEntity
  8
_0-3_躯体と製品
  6
CONTINUOUS
 62
     0
100
AcDbCircle
 10
427.1698729811
 20
377.3864422247
 40
2.555822748428
100
AcDbArc
 50
55.61575253204
 51
124.384247468
  0
ARC
  5
3C9
100
AcDbEntity
  8
_0-3_躯体と製品
  6
CONTINUOUS
 62
     0
100
AcDbCircle
 10
431.5
 20
370.3888469604
 40
9.553418012636
100
AcDbArc
 50
72.41204622605
 51
107.587953774
  0
LINE
  5
3CA
100
AcDbEntity
  8
_0-3_躯体と製品
  6
CONTINUOUS
 62
     0
100
AcDbLine
 10
422.5
 20
375
 11
422.5
 21
373.5
  0
LINE
  5
3CB
100
AcDbEntity
  8
_0-3_躯体と製品
  6
CONTINUOUS
 62
     0
100
AcDbLine
 10
440.5
 20
375
 11
440.5
 21
373.5
  0
LINE
  5
3CC
100
AcDbEntity
  8
_0-3_躯体と製品
  6
CONTINUOUS
 62
     0
100
AcDbLine
 10
422.5
 20
375
 11
440.5
 21
375
  0
LINE
  5
3CD
100
AcDbEntity
  8
_0-3_躯体と製品
  6
CONTINUOUS
 62
     0
100
AcDbLine
 10
312.5
 20
434.2716498733
 11
312.5
 21
416.2716498733
  0
LINE
  5
3CE
100
AcDbEntity
  8
_0-3_躯体と製品
  6
CONTINUOUS
 62
     0
100
AcDbLine
 10
311
 20
416.2716498733
 11
312.5
 21
416.2716498733
  0
LINE
  5
3CF
100
AcDbEntity
  8
_0-3_躯体と製品
  6
CONTINUOUS
 62
     0
100
AcDbLine
 10
311
 20
434.2716498733
 11
312.5
 21
434.2716498733
  0
ARC
  5
3D0
100
AcDbEntity
  8
_0-3_躯体と製品
  6
CONTINUOUS
 62
     0
100
AcDbCircle
 10
312.371291
 20
423.7688868733
 40
3
100
AcDbArc
 50
-87.541074
 51
-38.614638
  0
ARC
  5
3D1
100
AcDbEntity
  8
_0-3_躯体と製品
  6
CONTINUOUS
 62
     0
100
AcDbCircle
 10
310.500002
 20
425.2716498733
 40
5.4
100
AcDbArc
 50
-38.682187
 51
0
  0
ARC
  5
3D2
100
AcDbEntity
  8
_0-3_躯体と製品
  6
CONTINUOUS
 62
     0
100
AcDbCircle
 10
310.500002
 20
425.2716498733
 40
5.4
100
AcDbArc
 50
0
 51
38.851062
  0
ARC
  5
3D3
100
AcDbEntity
  8
_0-3_躯体と製品
  6
CONTINUOUS
 62
     0
100
AcDbCircle
 10
312.371291
 20
426.7744098733
 40
3
100
AcDbArc
 50
38.614638
 51
87.541074
  0
LINE
  5
3D4
100
AcDbEntity
  8
_0-3_躯体と製品
  6
CONTINUOUS
 62
     0
100
AcDbLine
 10
323.1652316691
 20
474.7162393007
 11
324.5585601373
 21
469.4589369998
  0
LINE
  5
3D5
100
AcDbEntity
  8
_0-3_躯体と製品
  6
CONTINUOUS
 62
     0
100
AcDbLine
 10
320.8414398627
 20
483.4843627468
 11
322.1096934909
 21
478.6989924125
  0
LINE
  5
3D6
100
AcDbEntity
  8
_0-3_躯体と製品
  6
CONTINUOUS
 62
     0
100
AcDbLine
 10
328.0616090456
 20
468.9716498733
 11
330.8846604662
 21
471.7947012939
  0
LINE
  5
3D7
100
AcDbEntity
  8
_0-3_躯体と製品
  6
CONTINUOUS
 62
     0
100
AcDbLine
 10
325.2331819208
 20
468.9716498733
 11
330.5810195142
 21
474.3194874667
  0
LINE
  5
3D8
100
AcDbEntity
  8
_0-3_躯体と製品
  6
CONTINUOUS
 62
     0
100
AcDbLine
 10
324.7
 20
471.2668950772
 11
330.506321796
 21
477.0732168732
  0
LINE
  5
3D9
100
AcDbEntity
  8
_0-3_躯体と製品
  6
CONTINUOUS
 62
     0
100
AcDbLine
 10
324.7
 20
474.095322202
 11
330.7347444201
 21
480.1300666221
  0
LINE
  5
3DA
100
AcDbEntity
  8
_0-3_躯体と製品
  6
CONTINUOUS
 62
     0
100
AcDbLine
 10
324.7
 20
476.9237493267
 11
331.4106390679
 21
483.6343883946
  0
LINE
  5
3DB
100
AcDbEntity
  8
_0-3_躯体と製品
  6
CONTINUOUS
 62
     0
100
AcDbLine
 10
324.7
 20
482.5806035762
 11
326.0910462971
 21
483.9716498733
  0
LINE
  5
3DC
100
AcDbEntity
  8
_0-3_躯体と製品
  6
CONTINUOUS
 62
     0
100
AcDbLine
 10
324.7
 20
479.7521764515
 11
328.9194734218
 21
483.9716498733
  0
ARC
  5
3DD
100
AcDbEntity
  8
_0-3_躯体と製品
  6
CONTINUOUS
 62
     0
100
AcDbCircle
 10
359.125
 20
476.4716498733
 40
28.625
100
AcDbArc
 50
164.8107132628
 51
195.1892867372
  0
LINE
  5
3DE
100
AcDbEntity
  8
_0-3_躯体と製品
  6
CONTINUOUS
 62
     0
100
AcDbLine
 10
331.5
 20
558.9716498733
 11
331.5
 21
483.9716498733
  0
LINE
  5
3DF
100
AcDbEntity
  8
_0-3_躯体と製品
  6
CONTINUOUS
 62
     0
100
AcDbLine
 10
308.5
 20
392.7716497339
 11
308.5
 21
468.9716498733
  0
TEXT
  5
3E0
100
AcDbEntity
  8
_0-2_寸法
  6
CONTINUOUS
 62
     0
100
AcDbText
 10
403.5
 20
455.1726675796
 40
5
  1
（キャップ幅）
  7
STANDARD
100
AcDbText
  0
LINE
  5
3E1
100
AcDbEntity
  8
_0-3_躯体と製品
  6
CONTINUOUS
 62
     0
100
AcDbLine
 10
307.5
 20
392.719242094
 11
307.5
 21
438.9716498733
  0
LINE
  5
3E2
100
AcDbEntity
  8
_0-3_躯体と製品
  6
CONTINUOUS
 62
     0
100
AcDbLine
 10
320.7
 20
479.2716498733
 11
320.7
 21
482.9716498733
  0
LINE
  5
3E3
100
AcDbEntity
  8
_0-3_躯体と製品
  6
CONTINUOUS
 62
     0
100
AcDbLine
 10
324.7
 20
469.9716498733
 11
324.7
 21
482.9716498733
  0
ARC
  5
3E4
100
AcDbEntity
  8
_0-3_躯体と製品
  6
CONTINUOUS
 62
     0
100
AcDbCircle
 10
323.7
 20
482.9716498733
 40
1
100
AcDbArc
 50
0
 51
90
  0
LINE
  5
3E5
100
AcDbEntity
  8
_0-3_躯体と製品
  6
CONTINUOUS
 62
     0
100
AcDbLine
 10
323.7
 20
483.9716498733
 11
321.7
 21
483.9716498733
  0
ARC
  5
3E6
100
AcDbEntity
  8
_0-3_躯体と製品
  6
CONTINUOUS
 62
     0
100
AcDbCircle
 10
321.7
 20
482.9716498733
 40
1
100
AcDbArc
 50
90
 51
180
  0
LINE
  5
3E7
100
AcDbEntity
  8
_0-3_躯体と製品
  6
CONTINUOUS
 62
     0
100
AcDbLine
 10
307.5
 20
468.9716498733
 11
308.5
 21
468.9716498733
  0
LINE
  5
3E8
100
AcDbEntity
  8
_0-3_躯体と製品
  6
CONTINUOUS
 62
     0
100
AcDbLine
 10
306.5
 20
483.9716498733
 11
331.5
 21
483.9716498733
  0
LINE
  5
3E9
100
AcDbEntity
  8
_0-3_躯体と製品
  6
CONTINUOUS
 62
     0
100
AcDbLine
 10
306.5
 20
483.9716498733
 11
306.5
 21
369
  0
LINE
  5
3EA
100
AcDbEntity
  8
_0-3_躯体と製品
  6
CONTINUOUS
 62
     0
100
AcDbLine
 10
306.5
 20
468.5953839196
 11
307.5
 21
467.5953839196
  0
LINE
  5
3EB
100
AcDbEntity
  8
_0-3_躯体と製品
  6
CONTINUOUS
 62
     0
100
AcDbLine
 10
306.5
 20
467.1811703572
 11
307.5
 21
466.1811703572
  0
LINE
  5
3EC
100
AcDbEntity
  8
_0-3_躯体と製品
  6
CONTINUOUS
 62
     0
100
AcDbLine
 10
306.5
 20
465.7669567948
 11
307.5
 21
464.7669567948
  0
LINE
  5
3ED
100
AcDbEntity
  8
_0-3_躯体と製品
  6
CONTINUOUS
 62
     0
100
AcDbLine
 10
306.5
 20
464.3527432324
 11
307.5
 21
463.3527432324
  0
LINE
  5
3EE
100
AcDbEntity
  8
_0-3_躯体と製品
  6
CONTINUOUS
 62
     0
100
AcDbLine
 10
306.5
 20
462.9385296701
 11
307.5
 21
461.9385296701
  0
LINE
  5
3EF
100
AcDbEntity
  8
_0-3_躯体と製品
  6
CONTINUOUS
 62
     0
100
AcDbLine
 10
306.5
 20
461.5243161077
 11
307.5
 21
460.5243161077
  0
LINE
  5
3F0
100
AcDbEntity
  8
_0-3_躯体と製品
  6
CONTINUOUS
 62
     0
100
AcDbLine
 10
306.5
 20
460.1101025453
 11
307.5
 21
459.1101025453
  0
LINE
  5
3F1
100
AcDbEntity
  8
_0-3_躯体と製品
  6
CONTINUOUS
 62
     0
100
AcDbLine
 10
306.5
 20
458.6958889829
 11
307.5
 21
457.6958889829
  0
LINE
  5
3F2
100
AcDbEntity
  8
_0-3_躯体と製品
  6
CONTINUOUS
 62
     0
100
AcDbLine
 10
306.5
 20
457.2816754206
 11
307.5
 21
456.2816754206
  0
LINE
  5
3F3
100
AcDbEntity
  8
_0-3_躯体と製品
  6
CONTINUOUS
 62
     0
100
AcDbLine
 10
306.5
 20
455.8674618582
 11
307.5
 21
454.8674618582
  0
LINE
  5
3F4
100
AcDbEntity
  8
_0-3_躯体と製品
  6
CONTINUOUS
 62
     0
100
AcDbLine
 10
306.5
 20
454.4532482958
 11
307.5
 21
453.4532482958
  0
LINE
  5
3F5
100
AcDbEntity
  8
_0-3_躯体と製品
  6
CONTINUOUS
 62
     0
100
AcDbLine
 10
306.5
 20
453.0390347335
 11
307.5
 21
452.0390347335
  0
LINE
  5
3F6
100
AcDbEntity
  8
_0-3_躯体と製品
  6
CONTINUOUS
 62
     0
100
AcDbLine
 10
306.5
 20
451.6248211711
 11
307.5
 21
450.6248211711
  0
LINE
  5
3F7
100
AcDbEntity
  8
_0-3_躯体と製品
  6
CONTINUOUS
 62
     0
100
AcDbLine
 10
306.5
 20
450.2106076087
 11
307.5
 21
449.2106076087
  0
LINE
  5
3F8
100
AcDbEntity
  8
_0-3_躯体と製品
  6
CONTINUOUS
 62
     0
100
AcDbLine
 10
306.5
 20
448.7963940463
 11
307.5
 21
447.7963940463
  0
LINE
  5
3F9
100
AcDbEntity
  8
_0-3_躯体と製品
  6
CONTINUOUS
 62
     0
100
AcDbLine
 10
306.5
 20
447.382180484
 11
307.5
 21
446.382180484
  0
LINE
  5
3FA
100
AcDbEntity
  8
_0-3_躯体と製品
  6
CONTINUOUS
 62
     0
100
AcDbLine
 10
306.5
 20
445.9679669216
 11
307.5
 21
444.9679669216
  0
LINE
  5
3FB
100
AcDbEntity
  8
_0-3_躯体と製品
  6
CONTINUOUS
 62
     0
100
AcDbLine
 10
306.5
 20
444.5537533592
 11
307.5
 21
443.5537533592
  0
LINE
  5
3FC
100
AcDbEntity
  8
_0-3_躯体と製品
  6
CONTINUOUS
 62
     0
100
AcDbLine
 10
306.5
 20
443.1395397968
 11
307.5
 21
442.1395397968
  0
LINE
  5
3FD
100
AcDbEntity
  8
_0-3_躯体と製品
  6
CONTINUOUS
 62
     0
100
AcDbLine
 10
306.5
 20
441.7253262345
 11
307.5
 21
440.7253262345
  0
LINE
  5
3FE
100
AcDbEntity
  8
_0-3_躯体と製品
  6
CONTINUOUS
 62
     0
100
AcDbLine
 10
306.5
 20
440.3111126721
 11
307.5
 21
439.3111126721
  0
LINE
  5
3FF
100
AcDbEntity
  8
_0-3_躯体と製品
  6
CONTINUOUS
 62
     0
100
AcDbLine
 10
306.5
 20
468.9716498733
 11
306.5
 21
438.9716498733
  0
LINE
  5
400
100
AcDbEntity
  8
_0-3_躯体と製品
  6
CONTINUOUS
 62
     0
100
AcDbLine
 10
306.5
 20
438.9716498733
 11
307.5
 21
438.9716498733
  0
LINE
  5
401
100
AcDbEntity
  8
_0-3_躯体と製品
  6
CONTINUOUS
 62
     0
100
AcDbLine
 10
307.5
 20
438.9716498733
 11
307.5
 21
468.9716498733
  0
LINE
  5
402
100
AcDbEntity
  8
_0-3_躯体と製品
  6
CONTINUOUS
 62
     0
100
AcDbLine
 10
307.5
 20
468.9716498733
 11
306.5
 21
468.9716498733
  0
LINE
  5
403
100
AcDbEntity
  8
_0-3_躯体と製品
  6
CONTINUOUS
 62
     0
100
AcDbLine
 10
481.5
 20
369
 11
481.5
 21
249
  0
LINE
  5
404
100
AcDbEntity
  8
_0-3_躯体と製品
  6
CONTINUOUS
 62
     0
100
AcDbLine
 10
309.3772773174
 20
475.7716498733
 11
326.245311
 21
475.7716498733
  0
LINE
  5
405
100
AcDbEntity
  8
_0-3_躯体と製品
  6
CONTINUOUS
 62
     0
100
AcDbLine
 10
322.2569283006
 20
425.2716498733
 11
247.5
 21
425.2716498733
  0
LINE
  5
406
100
AcDbEntity
  8
_0-3_躯体と製品
  6
CONTINUOUS
 62
     0
100
AcDbLine
 10
431.5
 20
393.9235144279
 11
431.5
 21
305
  0
LINE
  5
407
100
AcDbEntity
  8
_0-3_躯体と製品
  6
CONTINUOUS
 62
     0
100
AcDbLine
 10
433.211536875
 20
421.5815834852
 11
430.8719685251
 21
376.9399600108
  0
LINE
  5
408
100
AcDbEntity
  8
_0-4_図枠
  6
CONTINUOUS
 62
     0
100
AcDbLine
 10
435.7
 20
427.960088908
 11
435.7
 21
430.5804778721
  0
LINE
  5
409
100
AcDbEntity
  8
_0-4_図枠
  6
CONTINUOUS
 62
     0
100
AcDbLine
 10
385.7
 20
430.5804778721
 11
435.7
 21
427.960088908
  0
LINE
  5
40A
100
AcDbEntity
  8
_0-4_図枠
  6
CONTINUOUS
 62
     0
100
AcDbLine
 10
385.7
 20
430.5804778721
 11
435.7
 21
430.5804778721
  0
ARC
  5
40B
100
AcDbEntity
  8
_0-3_躯体と製品
  6
CONTINUOUS
 62
     0
100
AcDbCircle
 10
331.5
 20
368
 40
2
100
AcDbArc
 50
5
 51
90
  0
LINE
  5
40C
100
AcDbEntity
  8
_0-3_躯体と製品
  6
CONTINUOUS
 62
     0
100
AcDbLine
 10
331.219242094
 20
370
 11
331.5
 21
370
  0
ARC
  5
40D
100
AcDbEntity
  8
_0-3_躯体と製品
  6
CONTINUOUS
 62
     0
100
AcDbCircle
 10
331.219242094
 20
392.719242094
 40
22.71924209403
100
AcDbArc
 50
179.8678327724
 51
270
  0
LINE
  5
40E
100
AcDbEntity
  8
_0-3_躯体と製品
  6
CONTINUOUS
 62
     0
100
AcDbLine
 10
308.5
 20
392.7716497339
 11
308.5
 21
394.2716498733
  0
LINE
  5
40F
100
AcDbEntity
  8
_0-3_躯体と製品
  6
CONTINUOUS
 62
     0
100
AcDbLine
 10
381.4881680945
 20
370
 11
410.5
 21
370
  0
ARC
  5
410
100
AcDbEntity
  8
_0-3_躯体と製品
  6
CONTINUOUS
 62
     0
100
AcDbCircle
 10
381.5285597739
 20
368.0004079135
 40
2
100
AcDbArc
 50
91.15721505325
 51
175
  0
LINE
  5
411
100
AcDbEntity
  8
_0-3_躯体と製品
  6
CONTINUOUS
 62
     0
100
AcDbLine
 10
307.5
 20
422.7716498733
 11
306.5
 21
422.7716498733
  0
LINE
  5
412
100
AcDbEntity
  8
_0-3_躯体と製品
  6
CONTINUOUS
 62
     0
100
AcDbLine
 10
307.5
 20
427.7716498733
 11
306.5
 21
427.7716498733
  0
ARC
  5
413
100
AcDbEntity
  8
_0-3_躯体と製品
  6
CONTINUOUS
 62
     0
100
AcDbCircle
 10
410.5
 20
379.25
 40
9.25
100
AcDbArc
 50
-90
 51
-71.07535558395
  0
LINE
  5
414
100
AcDbEntity
  8
_0-3_躯体と製品
  6
CONTINUOUS
 62
     0
100
AcDbLine
 10
446.5
 20
371
 11
416.5
 21
371
  0
ARC
  5
415
100
AcDbEntity
  8
_0-3_躯体と製品
  6
CONTINUOUS
 62
     0
100
AcDbCircle
 10
410.5
 20
379.25
 40
10.25
100
AcDbArc
 50
-90
 51
-71.07535558395
  0
ARC
  5
416
100
AcDbEntity
  8
_0-3_躯体と製品
  6
CONTINUOUS
 62
     0
100
AcDbCircle
 10
416.5
 20
361.75
 40
8.25
100
AcDbArc
 50
90
 51
108.9246444161
  0
ARC
  5
417
100
AcDbEntity
  8
_0-3_躯体と製品
  6
CONTINUOUS
 62
     0
100
AcDbCircle
 10
452.5
 20
379.25
 40
10.25
100
AcDbArc
 50
-108.9246444161
 51
-90
  0
ARC
  5
418
100
AcDbEntity
  8
_0-3_躯体と製品
  6
CONTINUOUS
 62
     0
100
AcDbCircle
 10
446.5
 20
361.75
 40
8.25
100
AcDbArc
 50
71.07535558395
 51
90
  0
LINE
  5
419
100
AcDbEntity
  8
_0-3_躯体と製品
  6
CONTINUOUS
 62
     0
100
AcDbLine
 10
431.5
 20
370
 11
431.5
 21
371
  0
ARC
  5
41A
100
AcDbEntity
  8
_0-3_躯体と製品
  6
CONTINUOUS
 62
     0
100
AcDbCircle
 10
452.5
 20
379.25
 40
9.25
100
AcDbArc
 50
-108.9246444161
 51
-90
  0
ARC
  5
41B
100
AcDbEntity
  8
_0-3_躯体と製品
  6
CONTINUOUS
 62
     0
100
AcDbCircle
 10
446.5
 20
361.75
 40
9.25
100
AcDbArc
 50
71.07535558395
 51
90
  0
ARC
  5
41C
100
AcDbEntity
  8
_0-3_躯体と製品
  6
CONTINUOUS
 62
     0
100
AcDbCircle
 10
416.5
 20
361.75
 40
9.25
100
AcDbArc
 50
90
 51
108.9246444161
  0
ARC
  5
41D
100
AcDbEntity
  8
_0-3_躯体と製品
  6
CONTINUOUS
 62
     0
100
AcDbCircle
 10
330.9483044606
 20
429.8385614726
 40
0.7
100
AcDbArc
 50
30.67968111682
 51
52.92733576741
  0
ARC
  5
41E
100
AcDbEntity
  8
_0-3_躯体と製品
  6
CONTINUOUS
 62
     0
100
AcDbCircle
 10
330.9483044606
 20
429.8385614726
 40
1.5
100
AcDbArc
 50
30.67968111682
 51
52.92733576741
  0
LINE
  5
41F
100
AcDbEntity
  8
_0-3_躯体と製品
  6
CONTINUOUS
 62
     0
100
AcDbLine
 10
331.8525455494
 20
431.0353689147
 11
330.6903786449
 21
431.9134375414
  0
TEXT
  5
420
100
AcDbEntity
  8
_0-4_図枠
  6
CONTINUOUS
 62
     0
100
AcDbText
 10
397.2
 20
430.5647549075
 40
5
  1
勾配３度
  7
STANDARD
100
AcDbText
  0
ARC
  5
421
100
AcDbEntity
  8
_0-3_躯体と製品
  6
CONTINUOUS
 62
     0
100
AcDbCircle
 10
334.9904608394
 20
432.236679862
 40
4
100
AcDbArc
 50
-149.3203188832
 51
-35.2263141345
  0
LINE
  5
422
100
AcDbEntity
  8
_0-3_躯体と製品
  6
CONTINUOUS
 62
     0
100
AcDbLine
 10
331.3702836354
 20
430.3970716123
 11
330.2081167309
 21
431.2751402389
  0
ARC
  5
423
100
AcDbEntity
  8
_0-3_躯体と製品
  6
CONTINUOUS
 62
     0
100
AcDbCircle
 10
334.9904608394
 20
432.236679862
 40
3.2
100
AcDbArc
 50
-149.3203188832
 51
-35.2263141345
  0
ARC
  5
424
100
AcDbEntity
  8
_0-3_躯体と製品
  6
CONTINUOUS
 62
     0
100
AcDbCircle
 10
330.4492476879
 20
431.5942888901
 40
0.4
100
AcDbArc
 50
52.92733576741
 51
232.9273357674
  0
LINE
  5
425
100
AcDbEntity
  8
_0-3_躯体と製品
  6
CONTINUOUS
 62
     0
100
AcDbLine
 10
338.7206640798
 20
431.9716498733
 11
337.6044770797
 21
430.3908957209
  0
LINE
  5
426
100
AcDbEntity
  8
_0-3_躯体と製品
  6
CONTINUOUS
 62
     0
100
AcDbLine
 10
339.7
 20
431.9716498733
 11
338.2579811397
 21
429.9294496856
  0
LINE
  5
427
100
AcDbEntity
  8
_0-3_躯体と製品
  6
CONTINUOUS
 62
     0
100
AcDbLine
 10
416.5
 20
370
 11
416.5
 21
369
  0
LINE
  5
428
100
AcDbEntity
  8
_0-3_躯体と製品
  6
CONTINUOUS
 62
     0
100
AcDbLine
 10
446.5
 20
370
 11
416.5
 21
370
  0
LINE
  5
429
100
AcDbEntity
  8
_0-3_躯体と製品
  6
CONTINUOUS
 62
     0
100
AcDbLine
 10
446.5
 20
369
 11
446.5
 21
370
  0
LINE
  5
42A
100
AcDbEntity
  8
_0-3_躯体と製品
  6
CONTINUOUS
 62
     0
100
AcDbLine
 10
416.5
 20
369
 11
446.5
 21
369
  0
LINE
  5
42B
100
AcDbEntity
  8
_0-3_躯体と製品
  6
CONTINUOUS
 62
     0
100
AcDbLine
 10
503.3468199937
 20
413.3997734906
 11
509.320187503
 21
413.0867225646
  0
LINE
  5
42C
100
AcDbEntity
  8
_0-3_躯体と製品
  6
CONTINUOUS
 62
     0
100
AcDbLine
 10
503.5823317967
 20
417.893606397
 11
509.5556993061
 21
417.580555471
  0
LINE
  5
42D
100
AcDbEntity
  8
_0-3_躯体と製品
  6
CONTINUOUS
 62
     0
100
AcDbLine
 10
318.1074803282
 20
423.1077559183
 11
338.5729467591
 21
422.0352062707
  0
LINE
  5
42E
100
AcDbEntity
  8
_0-3_躯体と製品
  6
CONTINUOUS
 62
     0
100
AcDbLine
 10
318.3429921313
 20
427.6015888247
 11
338.8084585622
 21
426.5290391771
  0
ARC
  5
42F
100
AcDbEntity
  8
_0-3_躯体と製品
  6
CONTINUOUS
 62
     0
100
AcDbCircle
 10
514.6580666484
 20
388.1301541434
 40
0.75
100
AcDbArc
 50
0
 51
180
  0
LINE
  5
430
100
AcDbEntity
  8
_0-3_躯体と製品
  6
CONTINUOUS
 62
     0
100
AcDbLine
 10
513.9080666484
 20
381.5801541434
 11
513.9080666484
 21
388.1301541434
  0
LINE
  5
431
100
AcDbEntity
  8
_0-3_躯体と製品
  6
CONTINUOUS
 62
     0
100
AcDbLine
 10
520.9080666484
 20
342.3801541434
 11
520.9080666484
 21
341.8801541434
  0
LINE
  5
432
100
AcDbEntity
  8
_0-3_躯体と製品
  6
CONTINUOUS
 62
     0
100
AcDbLine
 10
321.7
 20
468.9716498733
 11
323.7
 21
468.9716498733
  0
ARC
  5
433
100
AcDbEntity
  8
_0-3_躯体と製品
  6
CONTINUOUS
 62
     0
100
AcDbCircle
 10
323.7
 20
469.9716498733
 40
1
100
AcDbArc
 50
-90
 51
0
  0
ARC
  5
434
100
AcDbEntity
  8
_0-3_躯体と製品
  6
CONTINUOUS
 62
     0
100
AcDbCircle
 10
321.7
 20
469.9716498733
 40
1
100
AcDbArc
 50
180
 51
270
  0
ARC
  5
435
100
AcDbEntity
  8
_0-3_躯体と製品
  6
CONTINUOUS
 62
     0
100
AcDbCircle
 10
319.1
 20
475.7716498733
 40
4.2
100
AcDbArc
 50
14.09578924417
 51
42.74124453868
  0
ARC
  5
436
100
AcDbEntity
  8
_0-3_躯体と製品
  6
CONTINUOUS
 62
     0
100
AcDbCircle
 10
319.1
 20
475.7716498733
 40
4.2
100
AcDbArc
 50
-42.74124453868
 51
-14.09578924417
  0
LINE
  5
437
100
AcDbEntity
  8
_0-3_躯体と製品
  6
CONTINUOUS
 62
     0
100
AcDbLine
 10
322.7657195747
 20
476.2716498733
 11
322.7657195747
 21
475.2716498733
  0
ARC
  5
438
100
AcDbEntity
  8
_0-3_躯体と製品
  6
CONTINUOUS
 62
     0
100
AcDbCircle
 10
322.7657195747
 20
476.6921285967
 40
0.4204787234043
100
AcDbArc
 50
-90
 51
14.09578924417
  0
LINE
  5
439
100
AcDbEntity
  8
_0-3_躯体と製品
  6
CONTINUOUS
 62
     0
100
AcDbLine
 10
320.7
 20
472.2716498733
 11
320.7
 21
479.2716498733
  0
ARC
  5
43A
100
AcDbEntity
  8
_0-3_躯体と製品
  6
CONTINUOUS
 62
     0
100
AcDbCircle
 10
320.7
 20
474.2930784447
 40
2.021428571429
100
AcDbArc
 50
-90
 51
-42.74124453868
  0
ARC
  5
43B
100
AcDbEntity
  8
_0-3_躯体と製品
  6
CONTINUOUS
 62
     0
100
AcDbCircle
 10
320.7
 20
477.2502213019
 40
2.021428571429
100
AcDbArc
 50
42.74124453868
 51
90
  0
ARC
  5
43C
100
AcDbEntity
  8
_0-3_躯体と製品
  6
CONTINUOUS
 62
     0
100
AcDbCircle
 10
322.7657195747
 20
474.8511711499
 40
0.4204787234043
100
AcDbArc
 50
-14.09578924417
 51
90
  0
ARC
  5
43D
100
AcDbEntity
  8
_0-3_躯体と製品
  6
CONTINUOUS
 62
     0
100
AcDbCircle
 10
331
 20
434.3457032044
 40
0.3
100
AcDbArc
 50
85.25268174597
 51
180
  0
LINE
  5
43E
100
AcDbEntity
  8
_0-3_躯体と製品
  6
CONTINUOUS
 62
     0
100
AcDbLine
 10
331.0248284689
 20
434.6446740176
 11
336.6794162637
 21
434.175080496
  0
LINE
  5
43F
100
AcDbEntity
  8
_0-3_躯体と製品
  6
CONTINUOUS
 62
     0
100
AcDbLine
 10
330.7
 20
434.3457032044
 11
330.7
 21
433.2716498733
  0
ARC
  5
440
100
AcDbEntity
  8
_0-3_躯体と製品
  6
CONTINUOUS
 62
     0
100
AcDbCircle
 10
330.7
 20
434.6716498733
 40
1
100
AcDbArc
 50
85.25268174597
 51
180
  0
LINE
  5
441
100
AcDbEntity
  8
_0-3_躯体と製品
  6
CONTINUOUS
 62
     0
100
AcDbLine
 10
330.7827615629
 20
435.6682192506
 11
336.263893138
 21
435.2130306547
  0
LINE
  5
442
100
AcDbEntity
  8
_0-3_躯体と製品
  6
CONTINUOUS
 62
     0
100
AcDbLine
 10
329.7
 20
434.6716498733
 11
329.7
 21
432.9716498733
  0
LINE
  5
443
100
AcDbEntity
  8
_0-3_躯体と製品
  6
CONTINUOUS
 62
     0
100
AcDbLine
 10
336.803558608
 20
435.6699345619
 11
336.8449393895
 21
436.1682192506
  0
ARC
  5
444
100
AcDbEntity
  8
_0-3_躯体と製品
  6
CONTINUOUS
 62
     0
100
AcDbCircle
 10
336.7621778266
 20
435.1716498733
 40
1
100
AcDbArc
 50
-94.74731825403
 51
-4.747318257725
  0
LINE
  5
445
100
AcDbEntity
  8
_0-3_躯体と製品
  6
CONTINUOUS
 62
     0
100
AcDbLine
 10
337.7587472038
 20
435.0888883104
 11
337.8415087668
 21
436.0854576877
  0
ARC
  5
446
100
AcDbEntity
  8
_0-3_躯体と製品
  6
CONTINUOUS
 62
     0
100
AcDbCircle
 10
337.3432240781
 20
436.1268384691
 40
0.4999999999355
100
AcDbArc
 50
-4.747318254022
 51
175.252681746
  0
ARC
  5
447
100
AcDbEntity
  8
_0-3_躯体と製品
  6
CONTINUOUS
 62
     0
100
AcDbCircle
 10
336.3052739194
 20
435.7113153434
 40
0.5
100
AcDbArc
 50
-94.74731825403
 51
-4.747318257728
  0
ARC
  5
448
100
AcDbEntity
  8
_0-3_躯体と製品
  6
CONTINUOUS
 62
     0
100
AcDbCircle
 10
330.7
 20
432.9716498733
 40
1
100
AcDbArc
 50
180
 51
270
  0
LINE
  5
449
100
AcDbEntity
  8
_0-3_躯体と製品
  6
CONTINUOUS
 62
     0
100
AcDbLine
 10
331
 20
432.9716498733
 11
339.2
 21
432.9716498733
  0
LINE
  5
44A
100
AcDbEntity
  8
_0-3_躯体と製品
  6
CONTINUOUS
 62
     0
100
AcDbLine
 10
339.7
 20
432.4716498733
 11
339.7
 21
431.9716498733
  0
ARC
  5
44B
100
AcDbEntity
  8
_0-3_躯体と製品
  6
CONTINUOUS
 62
     0
100
AcDbCircle
 10
339.2
 20
432.4716498733
 40
0.5
100
AcDbArc
 50
0
 51
90
  0
CIRCLE
  5
44C
100
AcDbEntity
  8
_0-3_躯体と製品
  6
CONTINUOUS
 62
     0
100
AcDbCircle
 10
340.7
 20
468.9716498733
 40
1.4
  0
LINE
  5
44D
100
AcDbEntity
  8
_0-3_躯体と製品
  6
CONTINUOUS
 62
     0
100
AcDbLine
 10
319.5
 20
473.7716498733
 11
320.7
 21
473.7716498733
  0
LINE
  5
44E
100
AcDbEntity
  8
_0-3_躯体と製品
  6
CONTINUOUS
 62
     0
100
AcDbLine
 10
319.5
 20
477.7716498733
 11
320.7
 21
477.7716498733
  0
LINE
  5
44F
100
AcDbEntity
  8
_0-3_躯体と製品
  6
CONTINUOUS
 62
     0
100
AcDbLine
 10
339.5
 20
435.1716498733
 11
339.5
 21
466.7716498733
  0
ARC
  5
450
100
AcDbEntity
  8
_0-3_躯体と製品
  6
CONTINUOUS
 62
     0
100
AcDbCircle
 10
338.5
 20
435.1716498733
 40
1
100
AcDbArc
 50
-90
 51
0
  0
LINE
  5
451
100
AcDbEntity
  8
_0-3_躯体と製品
  6
CONTINUOUS
 62
     0
100
AcDbLine
 10
338.5
 20
434.1716498733
 11
330.7
 21
434.1716498733
  0
ARC
  5
452
100
AcDbEntity
  8
_0-3_躯体と製品
  6
CONTINUOUS
 62
     0
100
AcDbCircle
 10
338.5
 20
435.1716498733
 40
2.2
100
AcDbArc
 50
-90
 51
0
  0
LINE
  5
453
100
AcDbEntity
  8
_0-3_躯体と製品
  6
CONTINUOUS
 62
     0
100
AcDbLine
 10
330.7
 20
434.1716498733
 11
330.7
 21
432.9716498733
  0
LINE
  5
454
100
AcDbEntity
  8
_0-3_躯体と製品
  6
CONTINUOUS
 62
     0
100
AcDbLine
 10
321.7
 20
467.7716498733
 11
338.5
 21
467.7716498733
  0
LINE
  5
455
100
AcDbEntity
  8
_0-3_躯体と製品
  6
CONTINUOUS
 62
     0
100
AcDbLine
 10
310.7
 20
480.9716498733
 11
310.7
 21
479.7716498733
  0
LINE
  5
456
100
AcDbEntity
  8
_0-3_躯体と製品
  6
CONTINUOUS
 62
     0
100
AcDbLine
 10
310.7
 20
479.7716498733
 11
318.5
 21
479.7716498733
  0
ARC
  5
457
100
AcDbEntity
  8
_0-3_躯体と製品
  6
CONTINUOUS
 62
     0
100
AcDbCircle
 10
338.5
 20
466.7716498733
 40
2.2
100
AcDbArc
 50
0
 51
90
  0
ARC
  5
458
100
AcDbEntity
  8
_0-3_躯体と製品
  6
CONTINUOUS
 62
     0
100
AcDbCircle
 10
321.7
 20
469.9716498733
 40
2.2
100
AcDbArc
 50
180
 51
270
  0
ARC
  5
459
100
AcDbEntity
  8
_0-3_躯体と製品
  6
CONTINUOUS
 62
     0
100
AcDbCircle
 10
338.5
 20
466.7716498733
 40
1
100
AcDbArc
 50
0
 51
90
  0
ARC
  5
45A
100
AcDbEntity
  8
_0-3_躯体と製品
  6
CONTINUOUS
 62
     0
100
AcDbCircle
 10
321.7
 20
469.9716498733
 40
1
100
AcDbArc
 50
180
 51
270
  0
LINE
  5
45B
100
AcDbEntity
  8
_0-3_躯体と製品
  6
CONTINUOUS
 62
     0
100
AcDbLine
 10
320.7
 20
478.7716498733
 11
320.7
 21
469.9716498733
  0
LINE
  5
45C
100
AcDbEntity
  8
_0-3_躯体と製品
  6
CONTINUOUS
 62
     0
100
AcDbLine
 10
319.5
 20
469.9716498733
 11
319.5
 21
478.7716498733
  0
ARC
  5
45D
100
AcDbEntity
  8
_0-3_躯体と製品
  6
CONTINUOUS
 62
     0
100
AcDbCircle
 10
318.5
 20
478.7716498733
 40
2.2
100
AcDbArc
 50
0
 51
90
  0
LINE
  5
45E
100
AcDbEntity
  8
_0-3_躯体と製品
  6
CONTINUOUS
 62
     0
100
AcDbLine
 10
318.5
 20
480.9716498733
 11
310.7
 21
480.9716498733
  0
ARC
  5
45F
100
AcDbEntity
  8
_0-3_躯体と製品
  6
CONTINUOUS
 62
     0
100
AcDbCircle
 10
318.5
 20
478.7716498733
 40
1
100
AcDbArc
 50
0
 51
90
  0
LINE
  5
460
100
AcDbEntity
  8
_0-3_躯体と製品
  6
CONTINUOUS
 62
     0
100
AcDbLine
 10
310.7
 20
480.9593058733
 11
310.712344
 21
480.9716498733
  0
LINE
  5
461
100
AcDbEntity
  8
_0-3_躯体と製品
  6
CONTINUOUS
 62
     0
100
AcDbLine
 10
294.5
 20
429.2716488733
 11
306.5
 21
429.2716488733
  0
LINE
  5
462
100
AcDbEntity
  8
_0-3_躯体と製品
  6
CONTINUOUS
 62
     0
100
AcDbLine
 10
286.699619
 20
420.6484128733
 11
291.357599
 21
418.9530468733
  0
LINE
  5
463
100
AcDbEntity
  8
_0-3_躯体と製品
  6
CONTINUOUS
 62
     0
100
AcDbLine
 10
298.30364
 20
431.5939878733
 11
291.69962
 21
430.6505568733
  0
LINE
  5
464
100
AcDbEntity
  8
_0-3_躯体と製品
  6
CONTINUOUS
 62
     0
100
AcDbLine
 10
272.369444
 20
423.4022028733
 11
270.5
 21
425.2716498733
  0
LINE
  5
465
100
AcDbEntity
  8
_0-3_躯体と製品
  6
CONTINUOUS
 62
     0
100
AcDbLine
 10
271.720178
 20
419.8633728733
 11
269.722919
 21
419.7587028733
  0
LINE
  5
466
100
AcDbEntity
  8
_0-3_躯体と製品
  6
CONTINUOUS
 62
     0
100
AcDbLine
 10
271.615505
 20
421.8606318733
 11
271.720178
 21
419.8633728733
  0
LINE
  5
467
100
AcDbEntity
  8
_0-3_躯体と製品
  6
CONTINUOUS
 62
     0
100
AcDbLine
 10
273.612764
 20
421.9653048733
 11
271.615505
 21
421.8606318733
  0
LINE
  5
468
100
AcDbEntity
  8
_0-3_躯体と製品
  6
CONTINUOUS
 62
     0
100
AcDbLine
 10
274.716065
 20
420.0203808733
 11
273.612764
 21
421.9653048733
  0
LINE
  5
469
100
AcDbEntity
  8
_0-3_躯体と製品
  6
CONTINUOUS
 62
     0
100
AcDbLine
 10
276.713324
 20
420.1250538733
 11
274.716065
 21
420.0203808733
  0
LINE
  5
46A
100
AcDbEntity
  8
_0-3_躯体と製品
  6
CONTINUOUS
 62
     0
100
AcDbLine
 10
276.608654
 20
422.1223128733
 11
276.713324
 21
420.1250538733
  0
LINE
  5
46B
100
AcDbEntity
  8
_0-3_躯体と製品
  6
CONTINUOUS
 62
     0
100
AcDbLine
 10
278.605913
 20
422.2269858733
 11
276.608654
 21
422.1223128733
  0
LINE
  5
46C
100
AcDbEntity
  8
_0-3_躯体と製品
  6
CONTINUOUS
 62
     0
100
AcDbLine
 10
279.709214
 20
420.2820618733
 11
278.605913
 21
422.2269858733
  0
LINE
  5
46D
100
AcDbEntity
  8
_0-3_躯体と製品
  6
CONTINUOUS
 62
     0
100
AcDbLine
 10
281.706473
 20
420.3867348733
 11
279.709214
 21
420.2820618733
  0
LINE
  5
46E
100
AcDbEntity
  8
_0-3_躯体と製品
  6
CONTINUOUS
 62
     0
100
AcDbLine
 10
281.6018
 20
422.3839938733
 11
281.706473
 21
420.3867348733
  0
LINE
  5
46F
100
AcDbEntity
  8
_0-3_躯体と製品
  6
CONTINUOUS
 62
     0
100
AcDbLine
 10
283.599059
 20
422.4886638733
 11
281.6018
 21
422.3839938733
  0
LINE
  5
470
100
AcDbEntity
  8
_0-3_躯体と製品
  6
CONTINUOUS
 62
     0
100
AcDbLine
 10
284.70236
 20
420.5437428733
 11
283.599059
 21
422.4886638733
  0
LINE
  5
471
100
AcDbEntity
  8
_0-3_躯体と製品
  6
CONTINUOUS
 62
     0
100
AcDbLine
 10
286.699619
 20
420.6484128733
 11
284.70236
 21
420.5437428733
  0
LINE
  5
472
100
AcDbEntity
  8
_0-3_躯体と製品
  6
CONTINUOUS
 62
     0
100
AcDbLine
 10
286.594949
 20
422.6456718733
 11
286.699619
 21
420.6484128733
  0
LINE
  5
473
100
AcDbEntity
  8
_0-3_躯体と製品
  6
CONTINUOUS
 62
     0
100
AcDbLine
 10
288.592208
 20
422.7503448733
 11
286.594949
 21
422.6456718733
  0
LINE
  5
474
100
AcDbEntity
  8
_0-3_躯体と製品
  6
CONTINUOUS
 62
     0
100
AcDbLine
 10
289.695509
 20
420.8054208733
 11
288.592208
 21
422.7503448733
  0
LINE
  5
475
100
AcDbEntity
  8
_0-3_躯体と製品
  6
CONTINUOUS
 62
     0
100
AcDbLine
 10
267.542483
 20
423.1492338733
 11
298.499999
 21
424.7716488733
  0
LINE
  5
476
100
AcDbEntity
  8
_0-3_躯体と製品
  6
CONTINUOUS
 62
     0
100
AcDbLine
 10
267.620987
 20
421.6512888733
 11
267.542483
 21
423.1492338733
  0
LINE
  5
477
100
AcDbEntity
  8
_0-3_躯体と製品
  6
CONTINUOUS
 62
     0
100
AcDbLine
 10
269.722919
 20
419.7587028733
 11
267.620987
 21
421.6512888733
  0
LINE
  5
478
100
AcDbEntity
  8
_0-3_躯体と製品
  6
CONTINUOUS
 62
     0
100
AcDbLine
 10
269.539742
 20
423.2539068733
 11
269.722919
 21
419.7587028733
  0
LINE
  5
479
100
AcDbEntity
  8
_0-3_躯体と製品
  6
CONTINUOUS
 62
     0
100
AcDbLine
 10
291.692768
 20
420.9100938733
 11
289.695509
 21
420.8054208733
  0
LINE
  5
47A
100
AcDbEntity
  8
_0-3_躯体と製品
  6
CONTINUOUS
 62
     0
100
AcDbLine
 10
291.588095
 20
422.9073528733
 11
291.692768
 21
420.9100938733
  0
LINE
  5
47B
100
AcDbEntity
  8
_0-3_躯体と製品
  6
CONTINUOUS
 62
     0
100
AcDbLine
 10
293.585354
 20
423.0120228733
 11
291.588095
 21
422.9073528733
  0
LINE
  5
47C
100
AcDbEntity
  8
_0-3_躯体と製品
  6
CONTINUOUS
 62
     0
100
AcDbLine
 10
306.5
 20
420.2716488733
 11
301.499999
 21
421.2716478733
  0
LINE
  5
47D
100
AcDbEntity
  8
_0-3_躯体と製品
  6
CONTINUOUS
 62
     0
100
AcDbLine
 10
271.720178
 20
430.6799238733
 11
269.722919
 21
430.7845938733
  0
LINE
  5
47E
100
AcDbEntity
  8
_0-3_躯体と製品
  6
CONTINUOUS
 62
     0
100
AcDbLine
 10
271.615505
 20
428.6826648733
 11
271.720178
 21
430.6799238733
  0
LINE
  5
47F
100
AcDbEntity
  8
_0-3_躯体と製品
  6
CONTINUOUS
 62
     0
100
AcDbLine
 10
273.612764
 20
428.5779918733
 11
271.615505
 21
428.6826648733
  0
LINE
  5
480
100
AcDbEntity
  8
_0-3_躯体と製品
  6
CONTINUOUS
 62
     0
100
AcDbLine
 10
274.716065
 20
430.5229158733
 11
273.612764
 21
428.5779918733
  0
LINE
  5
481
100
AcDbEntity
  8
_0-3_躯体と製品
  6
CONTINUOUS
 62
     0
100
AcDbLine
 10
276.713324
 20
430.4182428733
 11
274.716065
 21
430.5229158733
  0
LINE
  5
482
100
AcDbEntity
  8
_0-3_躯体と製品
  6
CONTINUOUS
 62
     0
100
AcDbLine
 10
276.608654
 20
428.4209838733
 11
276.713324
 21
430.4182428733
  0
LINE
  5
483
100
AcDbEntity
  8
_0-3_躯体と製品
  6
CONTINUOUS
 62
     0
100
AcDbLine
 10
278.605913
 20
428.3163108733
 11
276.608654
 21
428.4209838733
  0
LINE
  5
484
100
AcDbEntity
  8
_0-3_躯体と製品
  6
CONTINUOUS
 62
     0
100
AcDbLine
 10
279.709214
 20
430.2612348733
 11
278.605913
 21
428.3163108733
  0
LINE
  5
485
100
AcDbEntity
  8
_0-3_躯体と製品
  6
CONTINUOUS
 62
     0
100
AcDbLine
 10
281.706473
 20
430.1565618733
 11
279.709214
 21
430.2612348733
  0
LINE
  5
486
100
AcDbEntity
  8
_0-3_躯体と製品
  6
CONTINUOUS
 62
     0
100
AcDbLine
 10
281.6018
 20
428.1593028733
 11
281.706473
 21
430.1565618733
  0
LINE
  5
487
100
AcDbEntity
  8
_0-3_躯体と製品
  6
CONTINUOUS
 62
     0
100
AcDbLine
 10
283.599059
 20
428.0546328733
 11
281.6018
 21
428.1593028733
  0
LINE
  5
488
100
AcDbEntity
  8
_0-3_躯体と製品
  6
CONTINUOUS
 62
     0
100
AcDbLine
 10
284.70236
 20
429.9995538733
 11
283.599059
 21
428.0546328733
  0
LINE
  5
489
100
AcDbEntity
  8
_0-3_躯体と製品
  6
CONTINUOUS
 62
     0
100
AcDbLine
 10
286.699619
 20
429.8948838733
 11
284.70236
 21
429.9995538733
  0
LINE
  5
48A
100
AcDbEntity
  8
_0-3_躯体と製品
  6
CONTINUOUS
 62
     0
100
AcDbLine
 10
286.594949
 20
427.8976248733
 11
286.699619
 21
429.8948838733
  0
LINE
  5
48B
100
AcDbEntity
  8
_0-3_躯体と製品
  6
CONTINUOUS
 62
     0
100
AcDbLine
 10
288.592208
 20
427.7929518733
 11
286.594949
 21
427.8976248733
  0
LINE
  5
48C
100
AcDbEntity
  8
_0-3_躯体と製品
  6
CONTINUOUS
 62
     0
100
AcDbLine
 10
289.695509
 20
429.7378758733
 11
288.592208
 21
427.7929518733
  0
LINE
  5
48D
100
AcDbEntity
  8
_0-3_躯体と製品
  6
CONTINUOUS
 62
     0
100
AcDbLine
 10
267.542483
 20
427.3940628733
 11
298.499999
 21
425.7716478733
  0
LINE
  5
48E
100
AcDbEntity
  8
_0-3_躯体と製品
  6
CONTINUOUS
 62
     0
100
AcDbLine
 10
267.620987
 20
428.8920078733
 11
267.542483
 21
427.3940628733
  0
LINE
  5
48F
100
AcDbEntity
  8
_0-3_躯体と製品
  6
CONTINUOUS
 62
     0
100
AcDbLine
 10
269.722919
 20
430.7845938733
 11
267.620987
 21
428.8920078733
  0
LINE
  5
490
100
AcDbEntity
  8
_0-3_躯体と製品
  6
CONTINUOUS
 62
     0
100
AcDbLine
 10
269.539742
 20
427.2893898733
 11
269.722919
 21
430.7845938733
  0
LINE
  5
491
100
AcDbEntity
  8
_0-3_躯体と製品
  6
CONTINUOUS
 62
     0
100
AcDbLine
 10
291.692768
 20
429.6332028733
 11
289.695509
 21
429.7378758733
  0
LINE
  5
492
100
AcDbEntity
  8
_0-3_躯体と製品
  6
CONTINUOUS
 62
     0
100
AcDbLine
 10
291.588095
 20
427.6359438733
 11
291.692768
 21
429.6332028733
  0
LINE
  5
493
100
AcDbEntity
  8
_0-3_躯体と製品
  6
CONTINUOUS
 62
     0
100
AcDbLine
 10
293.585354
 20
427.5312738733
 11
291.588095
 21
427.6359438733
  0
LINE
  5
494
100
AcDbEntity
  8
_0-3_躯体と製品
  6
CONTINUOUS
 62
     0
100
AcDbLine
 10
272.369444
 20
427.1410938733
 11
270.5
 21
425.2716498733
  0
LINE
  5
495
100
AcDbEntity
  8
_0-3_躯体と製品
  6
CONTINUOUS
 62
     0
100
AcDbLine
 10
301.499999
 20
425.2716498733
 11
306.5
 21
425.2716498733
  0
LINE
  5
496
100
AcDbEntity
  8
_0-3_躯体と製品
  6
CONTINUOUS
 62
     0
100
AcDbLine
 10
306.5
 20
424.2716478733
 11
301.499999
 21
425.2716498733
  0
LINE
  5
497
100
AcDbEntity
  8
_0-3_躯体と製品
  6
CONTINUOUS
 62
     0
100
AcDbLine
 10
306.5
 20
426.2716488733
 11
301.499999
 21
425.2716498733
  0
LINE
  5
498
100
AcDbEntity
  8
_0-3_躯体と製品
  6
CONTINUOUS
 62
     0
100
AcDbLine
 10
306.5
 20
430.2716478733
 11
301.499999
 21
429.2716488733
  0
LINE
  5
499
100
AcDbEntity
  8
_0-3_躯体と製品
  6
CONTINUOUS
 62
     0
100
AcDbLine
 10
294.5
 20
429.2716488733
 11
293.585354
 21
427.5312738733
  0
LINE
  5
49A
100
AcDbEntity
  8
_0-3_躯体と製品
  6
CONTINUOUS
 62
     0
100
AcDbLine
 10
298.499999
 20
425.7716478733
 11
298.499999
 21
424.7716488733
  0
ARC
  5
49B
100
AcDbEntity
  8
_0-3_躯体と製品
  6
CONTINUOUS
 62
     0
100
AcDbCircle
 10
298.247072
 20
431.9899668733
 40
0.399999
100
AcDbArc
 50
-81.869898
 51
8.130102000005
  0
LINE
  5
49C
100
AcDbEntity
  8
_0-3_躯体と製品
  6
CONTINUOUS
 62
     0
100
AcDbLine
 10
298.614935
 20
432.2433618733
 11
298.643051
 21
432.0465378733
  0
ARC
  5
49D
100
AcDbEntity
  8
_0-3_躯体と製品
  6
CONTINUOUS
 62
     0
100
AcDbCircle
 10
298.218953
 20
432.1867938733
 40
0.399999
100
AcDbArc
 50
8.130102000005
 51
98.298466
  0
LINE
  5
49E
100
AcDbEntity
  8
_0-3_躯体と製品
  6
CONTINUOUS
 62
     0
100
AcDbLine
 10
291.357599
 20
431.5902498733
 11
298.161221
 21
432.5826048733
  0
LINE
  5
49F
100
AcDbEntity
  8
_0-3_躯体と製品
  6
CONTINUOUS
 62
     0
100
AcDbLine
 10
298.30364
 20
418.9493088733
 11
291.69962
 21
419.8927398733
  0
ARC
  5
4A0
100
AcDbEntity
  8
_0-3_躯体と製品
  6
CONTINUOUS
 62
     0
100
AcDbCircle
 10
298.247072
 20
418.5533298733
 40
0.399999
100
AcDbArc
 50
-8.130102000005
 51
81.869898
  0
LINE
  5
4A1
100
AcDbEntity
  8
_0-3_躯体と製品
  6
CONTINUOUS
 62
     0
100
AcDbLine
 10
298.614935
 20
418.2999348733
 11
298.643051
 21
418.4967618733
  0
ARC
  5
4A2
100
AcDbEntity
  8
_0-3_躯体と製品
  6
CONTINUOUS
 62
     0
100
AcDbCircle
 10
298.218953
 20
418.3565028733
 40
0.399999
100
AcDbArc
 50
-98.298466
 51
-8.130102000005
  0
LINE
  5
4A3
100
AcDbEntity
  8
_0-3_躯体と製品
  6
CONTINUOUS
 62
     0
100
AcDbLine
 10
291.357599
 20
418.9530468733
 11
298.161221
 21
417.9606918733
  0
LINE
  5
4A4
100
AcDbEntity
  8
_0-3_躯体と製品
  6
CONTINUOUS
 62
     0
100
AcDbLine
 10
286.699619
 20
421.7125908733
 11
291.69962
 21
419.8927398733
  0
LINE
  5
4A5
100
AcDbEntity
  8
_0-3_躯体と製品
  6
CONTINUOUS
 62
     0
100
AcDbLine
 10
286.699619
 20
429.8948838733
 11
291.357599
 21
431.5902498733
  0
LINE
  5
4A6
100
AcDbEntity
  8
_0-3_躯体と製品
  6
CONTINUOUS
 62
     0
100
AcDbLine
 10
286.699619
 20
428.8307058733
 11
291.69962
 21
430.6505568733
  0
LINE
  5
4A7
100
AcDbEntity
  8
_0-3_躯体と製品
  6
CONTINUOUS
 62
     0
100
AcDbLine
 10
294.5
 20
421.2716478733
 11
306.5
 21
421.2716478733
  0
LINE
  5
4A8
100
AcDbEntity
  8
_0-3_躯体と製品
  6
CONTINUOUS
 62
     0
100
AcDbLine
 10
293.585354
 20
423.0120228733
 11
294.5
 21
421.2716478733
  0
LINE
  5
4A9
100
AcDbEntity
  8
_0-3_躯体と製品
  6
CONTINUOUS
 62
     0
100
AcDbLine
 10
319.5
 20
473.7716498733
 11
316.5
 21
473.7716498733
  0
LINE
  5
4AA
100
AcDbEntity
  8
_0-3_躯体と製品
  6
CONTINUOUS
 62
     0
100
AcDbLine
 10
319.5
 20
474.2716498733
 11
311
 21
474.2716498733
  0
LINE
  5
4AB
100
AcDbEntity
  8
_0-3_躯体と製品
  6
CONTINUOUS
 62
     0
100
AcDbLine
 10
319.5
 20
477.2716498733
 11
311
 21
477.2716498733
  0
LINE
  5
4AC
100
AcDbEntity
  8
_0-3_躯体と製品
  6
CONTINUOUS
 62
     0
100
AcDbLine
 10
319.5
 20
477.7716498733
 11
316.5
 21
477.7716498733
  0
LINE
  5
4AD
100
AcDbEntity
  8
_0-3_躯体と製品
  6
CONTINUOUS
 62
     0
100
AcDbLine
 10
311.5
 20
477.7716498733
 11
311.5
 21
473.7716498733
  0
LINE
  5
4AE
100
AcDbEntity
  8
_0-3_躯体と製品
  6
CONTINUOUS
 62
     0
100
AcDbLine
 10
311
 20
477.2716498733
 11
311
 21
474.2716498733
  0
LINE
  5
4AF
100
AcDbEntity
  8
_0-3_躯体と製品
  6
CONTINUOUS
 62
     0
100
AcDbLine
 10
311
 20
477.2716498733
 11
311.5
 21
477.7716498733
  0
LINE
  5
4B0
100
AcDbEntity
  8
_0-3_躯体と製品
  6
CONTINUOUS
 62
     0
100
AcDbLine
 10
311
 20
474.2716498733
 11
311.5
 21
473.7716498733
  0
LINE
  5
4B1
100
AcDbEntity
  8
_0-3_躯体と製品
  6
CONTINUOUS
 62
     0
100
AcDbLine
 10
318.2000001803
 20
471.3613075858
 11
318.4103424678
 21
471.5716498733
  0
LINE
  5
4B2
100
AcDbEntity
  8
_0-3_躯体と製品
  6
CONTINUOUS
 62
     0
100
AcDbLine
 10
318.2000013925
 20
469.9470952356
 11
319.000001
 21
470.7470948431
  0
LINE
  5
4B3
100
AcDbEntity
  8
_0-3_躯体と製品
  6
CONTINUOUS
 62
     0
100
AcDbLine
 10
318.2000026047
 20
468.5328828854
 11
319.000001
 21
469.3328812808
  0
LINE
  5
4B4
100
AcDbEntity
  8
_0-3_躯体と製品
  6
CONTINUOUS
 62
     0
100
AcDbLine
 10
318.4237790449
 20
467.3424457633
 11
319.0184427256
 21
467.937109444
  0
LINE
  5
4B5
100
AcDbEntity
  8
_0-3_躯体と製品
  6
CONTINUOUS
 62
     0
100
AcDbLine
 10
319.2850875053
 20
466.7895406613
 11
320.0671977173
 21
467.5716508733
  0
LINE
  5
4B6
100
AcDbEntity
  8
_0-3_躯体と製品
  6
CONTINUOUS
 62
     0
100
AcDbLine
 10
320.6814102797
 20
466.7716498733
 11
321.4814112797
 21
467.5716508733
  0
LINE
  5
4B7
100
AcDbEntity
  8
_0-3_躯体と製品
  6
CONTINUOUS
 62
     0
100
AcDbLine
 10
322.095623842
 20
466.7716498733
 11
322.895624842
 21
467.5716508733
  0
LINE
  5
4B8
100
AcDbEntity
  8
_0-3_躯体と製品
  6
CONTINUOUS
 62
     0
100
AcDbLine
 10
323.5098374044
 20
466.7716498733
 11
324.3098384044
 21
467.5716508733
  0
LINE
  5
4B9
100
AcDbEntity
  8
_0-3_躯体と製品
  6
CONTINUOUS
 62
     0
100
AcDbLine
 10
324.9240509668
 20
466.7716498733
 11
325.7240519668
 21
467.5716508733
  0
LINE
  5
4BA
100
AcDbEntity
  8
_0-3_躯体と製品
  6
CONTINUOUS
 62
     0
100
AcDbLine
 10
326.3382645292
 20
466.7716498733
 11
327.1382655292
 21
467.5716508733
  0
LINE
  5
4BB
100
AcDbEntity
  8
_0-3_躯体と製品
  6
CONTINUOUS
 62
     0
100
AcDbLine
 10
327.7524780915
 20
466.7716498733
 11
328.5524790915
 21
467.5716508733
  0
LINE
  5
4BC
100
AcDbEntity
  8
_0-3_躯体と製品
  6
CONTINUOUS
 62
     0
100
AcDbLine
 10
329.1666916539
 20
466.7716498733
 11
329.9666926539
 21
467.5716508733
  0
LINE
  5
4BD
100
AcDbEntity
  8
_0-3_躯体と製品
  6
CONTINUOUS
 62
     0
100
AcDbLine
 10
330.5809052163
 20
466.7716498733
 11
331.3809062163
 21
467.5716508733
  0
LINE
  5
4BE
100
AcDbEntity
  8
_0-3_躯体と製品
  6
CONTINUOUS
 62
     0
100
AcDbLine
 10
331.9951187787
 20
466.7716498733
 11
332.7951197787
 21
467.5716508733
  0
LINE
  5
4BF
100
AcDbEntity
  8
_0-3_躯体と製品
  6
CONTINUOUS
 62
     0
100
AcDbLine
 10
333.409332341
 20
466.7716498733
 11
334.209333341
 21
467.5716508733
  0
LINE
  5
4C0
100
AcDbEntity
  8
_0-3_躯体と製品
  6
CONTINUOUS
 62
     0
100
AcDbLine
 10
334.8235459034
 20
466.7716498733
 11
335.6235469034
 21
467.5716508733
  0
LINE
  5
4C1
100
AcDbEntity
  8
_0-3_躯体と製品
  6
CONTINUOUS
 62
     0
100
AcDbLine
 10
336.2377594658
 20
466.7716498733
 11
337.0377604658
 21
467.5716508733
  0
LINE
  5
4C2
100
AcDbEntity
  8
_0-3_躯体と製品
  6
CONTINUOUS
 62
     0
100
AcDbLine
 10
337.6519730281
 20
466.7716498733
 11
338.365698075
 21
467.4853749201
  0
LINE
  5
4C3
100
AcDbEntity
  8
_0-3_躯体と製品
  6
CONTINUOUS
 62
     0
100
AcDbLine
 10
338.400002
 20
466.1054652828
 11
339.0898603545
 21
466.7953236373
  0
LINE
  5
4C4
100
AcDbEntity
  8
_0-3_躯体と製品
  6
CONTINUOUS
 62
     0
100
AcDbLine
 10
338.400002
 20
464.6912517204
 11
339.2
 21
465.4912497204
  0
LINE
  5
4C5
100
AcDbEntity
  8
_0-3_躯体と製品
  6
CONTINUOUS
 62
     0
100
AcDbLine
 10
338.400002
 20
463.277038158
 11
339.2
 21
464.077036158
  0
LINE
  5
4C6
100
AcDbEntity
  8
_0-3_躯体と製品
  6
CONTINUOUS
 62
     0
100
AcDbLine
 10
338.400002
 20
461.8628245957
 11
339.2
 21
462.6628225957
  0
LINE
  5
4C7
100
AcDbEntity
  8
_0-3_躯体と製品
  6
CONTINUOUS
 62
     0
100
AcDbLine
 10
338.400002
 20
460.4486110333
 11
339.2
 21
461.2486090333
  0
LINE
  5
4C8
100
AcDbEntity
  8
_0-3_躯体と製品
  6
CONTINUOUS
 62
     0
100
AcDbLine
 10
338.400002
 20
459.0343974709
 11
339.2
 21
459.8343954709
  0
LINE
  5
4C9
100
AcDbEntity
  8
_0-3_躯体と製品
  6
CONTINUOUS
 62
     0
100
AcDbLine
 10
338.400002
 20
457.6201839086
 11
339.2
 21
458.4201819086
  0
LINE
  5
4CA
100
AcDbEntity
  8
_0-3_躯体と製品
  6
CONTINUOUS
 62
     0
100
AcDbLine
 10
338.400002
 20
456.2059703462
 11
339.2
 21
457.0059683462
  0
LINE
  5
4CB
100
AcDbEntity
  8
_0-3_躯体と製品
  6
CONTINUOUS
 62
     0
100
AcDbLine
 10
338.400002
 20
454.7917567838
 11
339.2
 21
455.5917547838
  0
LINE
  5
4CC
100
AcDbEntity
  8
_0-3_躯体と製品
  6
CONTINUOUS
 62
     0
100
AcDbLine
 10
338.400002
 20
453.3775432214
 11
339.2
 21
454.1775412214
  0
LINE
  5
4CD
100
AcDbEntity
  8
_0-3_躯体と製品
  6
CONTINUOUS
 62
     0
100
AcDbLine
 10
338.400002
 20
451.9633296591
 11
339.2
 21
452.7633276591
  0
LINE
  5
4CE
100
AcDbEntity
  8
_0-3_躯体と製品
  6
CONTINUOUS
 62
     0
100
AcDbLine
 10
338.400002
 20
450.5491160967
 11
339.2
 21
451.3491140967
  0
LINE
  5
4CF
100
AcDbEntity
  8
_0-3_躯体と製品
  6
CONTINUOUS
 62
     0
100
AcDbLine
 10
338.400002
 20
449.1349025343
 11
339.2
 21
449.9349005343
  0
LINE
  5
4D0
100
AcDbEntity
  8
_0-3_躯体と製品
  6
CONTINUOUS
 62
     0
100
AcDbLine
 10
338.400002
 20
447.7206889719
 11
339.2
 21
448.5206869719
  0
LINE
  5
4D1
100
AcDbEntity
  8
_0-3_躯体と製品
  6
CONTINUOUS
 62
     0
100
AcDbLine
 10
338.400002
 20
446.3064754096
 11
339.2
 21
447.1064734096
  0
LINE
  5
4D2
100
AcDbEntity
  8
_0-3_躯体と製品
  6
CONTINUOUS
 62
     0
100
AcDbLine
 10
338.400002
 20
444.8922618472
 11
339.2
 21
445.6922598472
  0
LINE
  5
4D3
100
AcDbEntity
  8
_0-3_躯体と製品
  6
CONTINUOUS
 62
     0
100
AcDbLine
 10
338.400002
 20
443.4780482848
 11
339.2
 21
444.2780462848
  0
LINE
  5
4D4
100
AcDbEntity
  8
_0-3_躯体と製品
  6
CONTINUOUS
 62
     0
100
AcDbLine
 10
338.400002
 20
442.0638347224
 11
339.2
 21
442.8638327224
  0
LINE
  5
4D5
100
AcDbEntity
  8
_0-3_躯体と製品
  6
CONTINUOUS
 62
     0
100
AcDbLine
 10
338.400002
 20
440.6496211601
 11
339.2
 21
441.4496191601
  0
LINE
  5
4D6
100
AcDbEntity
  8
_0-3_躯体と製品
  6
CONTINUOUS
 62
     0
100
AcDbLine
 10
338.400002
 20
439.2354075977
 11
339.2
 21
440.0354055977
  0
LINE
  5
4D7
100
AcDbEntity
  8
_0-3_躯体と製品
  6
CONTINUOUS
 62
     0
100
AcDbLine
 10
338.400002
 20
437.8211940353
 11
339.2
 21
438.6211920353
  0
LINE
  5
4D8
100
AcDbEntity
  8
_0-3_躯体と製品
  6
CONTINUOUS
 62
     0
100
AcDbLine
 10
318.2
 20
471.5716498733
 11
318.200003
 21
468.0716518733
  0
LINE
  5
4D9
100
AcDbEntity
  8
_0-3_躯体と製品
  6
CONTINUOUS
 62
     0
100
AcDbLine
 10
337.900001
 20
466.7716498733
 11
319.500002
 21
466.7716498733
  0
LINE
  5
4DA
100
AcDbEntity
  8
_0-3_躯体と製品
  6
CONTINUOUS
 62
     0
100
AcDbLine
 10
338.400002
 20
437.5716508733
 11
339.2
 21
437.5716508733
  0
LINE
  5
4DB
100
AcDbEntity
  8
_0-3_躯体と製品
  6
CONTINUOUS
 62
     0
100
AcDbLine
 10
339.2
 20
466.2716518733
 11
339.2
 21
437.5716508733
  0
LINE
  5
4DC
100
AcDbEntity
  8
_0-3_躯体と製品
  6
CONTINUOUS
 62
     0
100
AcDbLine
 10
338.400002
 20
466.2716518733
 11
338.400002
 21
437.5716508733
  0
ARC
  5
4DD
100
AcDbEntity
  8
_0-3_躯体と製品
  6
CONTINUOUS
 62
     0
100
AcDbCircle
 10
337.900001
 20
466.2716518733
 40
0.500001
100
AcDbArc
 50
0
 51
90
  0
ARC
  5
4DE
100
AcDbEntity
  8
_0-3_躯体と製品
  6
CONTINUOUS
 62
     0
100
AcDbCircle
 10
337.900001
 20
466.2716518733
 40
1.299999
100
AcDbArc
 50
0
 51
90
  0
LINE
  5
4DF
100
AcDbEntity
  8
_0-3_躯体と製品
  6
CONTINUOUS
 62
     0
100
AcDbLine
 10
337.900001
 20
467.5716508733
 11
319.500002
 21
467.5716508733
  0
LINE
  5
4E0
100
AcDbEntity
  8
_0-3_躯体と製品
  6
CONTINUOUS
 62
     0
100
AcDbLine
 10
318.2
 20
471.5716498733
 11
319.000001
 21
471.5716498733
  0
ARC
  5
4E1
100
AcDbEntity
  8
_0-3_躯体と製品
  6
CONTINUOUS
 62
     0
100
AcDbCircle
 10
319.500002
 20
468.0716518733
 40
1.299999
100
AcDbArc
 50
180
 51
270
  0
ARC
  5
4E2
100
AcDbEntity
  8
_0-3_躯体と製品
  6
CONTINUOUS
 62
     0
100
AcDbCircle
 10
319.500002
 20
468.0716518733
 40
0.500001
100
AcDbArc
 50
180
 51
270
  0
LINE
  5
4E3
100
AcDbEntity
  8
_0-3_躯体と製品
  6
CONTINUOUS
 62
     0
100
AcDbLine
 10
319.000001
 20
468.0716518733
 11
319.000001
 21
471.5716498733
  0
LINE
  5
4E4
100
AcDbEntity
  8
_0-3_躯体と製品
  6
CONTINUOUS
 62
     0
100
AcDbLine
 10
308.5
 20
430.2716498733
 11
309
 21
430.2716498733
  0
LINE
  5
4E5
100
AcDbEntity
  8
_0-3_躯体と製品
  6
CONTINUOUS
 62
     0
100
AcDbLine
 10
308.5
 20
420.2716498733
 11
309
 21
420.2716498733
  0
LINE
  5
4E6
100
AcDbEntity
  8
_0-3_躯体と製品
  6
CONTINUOUS
 62
     0
100
AcDbLine
 10
311
 20
425.7716498733
 11
310.5
 21
425.2716498733
  0
LINE
  5
4E7
100
AcDbEntity
  8
_0-3_躯体と製品
  6
CONTINUOUS
 62
     0
100
AcDbLine
 10
311
 20
424.7716498733
 11
310.5
 21
425.2716498733
  0
LINE
  5
4E8
100
AcDbEntity
  8
_0-3_躯体と製品
  6
CONTINUOUS
 62
     0
100
AcDbLine
 10
308.5
 20
430.2716498733
 11
308.5
 21
420.2716498733
  0
LINE
  5
4E9
100
AcDbEntity
  8
_0-3_躯体と製品
  6
CONTINUOUS
 62
     0
100
AcDbLine
 10
308.5
 20
471.7716498733
 11
309
 21
471.7716498733
  0
LINE
  5
4EA
100
AcDbEntity
  8
_0-3_躯体と製品
  6
CONTINUOUS
 62
     0
100
AcDbLine
 10
309
 20
471.7716498733
 11
309
 21
458.7716498733
  0
LINE
  5
4EB
100
AcDbEntity
  8
_0-3_躯体と製品
  6
CONTINUOUS
 62
     0
100
AcDbLine
 10
309
 20
458.7716498733
 11
308.5
 21
458.7716498733
  0
LINE
  5
4EC
100
AcDbEntity
  8
_0-3_躯体と製品
  6
CONTINUOUS
 62
     0
100
AcDbLine
 10
308.5
 20
457.2716498733
 11
309
 21
457.2716498733
  0
ARC
  5
4ED
100
AcDbEntity
  8
_0-3_躯体と製品
  6
CONTINUOUS
 62
     0
100
AcDbCircle
 10
318.5
 20
467.0716498733
 40
0.3
100
AcDbArc
 50
180
 51
270
  0
LINE
  5
4EE
100
AcDbEntity
  8
_0-3_躯体と製品
  6
CONTINUOUS
 62
     0
100
AcDbLine
 10
318.5
 20
466.7716498733
 11
323.1
 21
466.7716498733
  0
LINE
  5
4EF
100
AcDbEntity
  8
_0-3_躯体と製品
  6
CONTINUOUS
 62
     0
100
AcDbLine
 10
317
 20
466.5716498733
 11
317
 21
471.2716498733
  0
ARC
  5
4F0
100
AcDbEntity
  8
_0-3_躯体と製品
  6
CONTINUOUS
 62
     0
100
AcDbCircle
 10
318
 20
466.5716498733
 40
1
100
AcDbArc
 50
180
 51
270
  0
LINE
  5
4F1
100
AcDbEntity
  8
_0-3_躯体と製品
  6
CONTINUOUS
 62
     0
100
AcDbLine
 10
318
 20
465.5716498733
 11
323.1
 21
465.5716498733
  0
ARC
  5
4F2
100
AcDbEntity
  8
_0-3_躯体と製品
  6
CONTINUOUS
 62
     0
100
AcDbCircle
 10
316.5
 20
471.2716498733
 40
0.5
100
AcDbArc
 50
0
 51
90
  0
LINE
  5
4F3
100
AcDbEntity
  8
_0-3_躯体と製品
  6
CONTINUOUS
 62
     0
100
AcDbLine
 10
316.5
 20
471.7716498733
 11
311.5
 21
471.7716498733
  0
ARC
  5
4F4
100
AcDbEntity
  8
_0-3_躯体と製品
  6
CONTINUOUS
 62
     0
100
AcDbCircle
 10
311.5
 20
471.2716498733
 40
0.5
100
AcDbArc
 50
90
 51
180
  0
LINE
  5
4F5
100
AcDbEntity
  8
_0-3_躯体と製品
  6
CONTINUOUS
 62
     0
100
AcDbLine
 10
311
 20
471.2716498733
 11
311
 21
459.2716498733
  0
ARC
  5
4F6
100
AcDbEntity
  8
_0-3_躯体と製品
  6
CONTINUOUS
 62
     0
100
AcDbCircle
 10
323.1
 20
466.1716498733
 40
0.6
100
AcDbArc
 50
-90
 51
90
  0
ARC
  5
4F7
100
AcDbEntity
  8
_0-3_躯体と製品
  6
CONTINUOUS
 62
     0
100
AcDbCircle
 10
311.5
 20
456.7716498733
 40
0.5
100
AcDbArc
 50
90
 51
180
  0
ARC
  5
4F8
100
AcDbEntity
  8
_0-3_躯体と製品
  6
CONTINUOUS
 62
     0
100
AcDbCircle
 10
311.5
 20
459.2716498733
 40
0.5
100
AcDbArc
 50
180
 51
270
  0
LINE
  5
4F9
100
AcDbEntity
  8
_0-3_躯体と製品
  6
CONTINUOUS
 62
     0
100
AcDbLine
 10
317
 20
458.7716498733
 11
311.5
 21
458.7716498733
  0
ARC
  5
4FA
100
AcDbEntity
  8
_0-3_躯体と製品
  6
CONTINUOUS
 62
     0
100
AcDbCircle
 10
317
 20
458.2716498733
 40
0.5
100
AcDbArc
 50
0
 51
90
  0
LINE
  5
4FB
100
AcDbEntity
  8
_0-3_躯体と製品
  6
CONTINUOUS
 62
     0
100
AcDbLine
 10
317.5
 20
452.2716498733
 11
317.5
 21
458.2716498733
  0
ARC
  5
4FC
100
AcDbEntity
  8
_0-3_躯体と製品
  6
CONTINUOUS
 62
     0
100
AcDbCircle
 10
316.5
 20
452.2716498733
 40
1
100
AcDbArc
 50
-90
 51
0
  0
LINE
  5
4FD
100
AcDbEntity
  8
_0-3_躯体と製品
  6
CONTINUOUS
 62
     0
100
AcDbLine
 10
316.5
 20
451.2716498733
 11
314.6
 21
451.2716498733
  0
LINE
  5
4FE
100
AcDbEntity
  8
_0-3_躯体と製品
  6
CONTINUOUS
 62
     0
100
AcDbLine
 10
316
 20
456.7716498733
 11
316
 21
452.9716498733
  0
ARC
  5
4FF
100
AcDbEntity
  8
_0-3_躯体と製品
  6
CONTINUOUS
 62
     0
100
AcDbCircle
 10
315.5
 20
456.7716498733
 40
0.5
100
AcDbArc
 50
0
 51
90
  0
LINE
  5
500
100
AcDbEntity
  8
_0-3_躯体と製品
  6
CONTINUOUS
 62
     0
100
AcDbLine
 10
315.5
 20
457.2716498733
 11
311.5
 21
457.2716498733
  0
LINE
  5
501
100
AcDbEntity
  8
_0-3_躯体と製品
  6
CONTINUOUS
 62
     0
100
AcDbLine
 10
315.5
 20
452.4716498733
 11
314.6
 21
452.4716498733
  0
ARC
  5
502
100
AcDbEntity
  8
_0-3_躯体と製品
  6
CONTINUOUS
 62
     0
100
AcDbCircle
 10
315.5
 20
452.9716498733
 40
0.5
100
AcDbArc
 50
-90
 51
0
  0
ARC
  5
503
100
AcDbEntity
  8
_0-3_躯体と製品
  6
CONTINUOUS
 62
     0
100
AcDbCircle
 10
314.6
 20
451.8716498733
 40
0.6
100
AcDbArc
 50
90
 51
270
  0
LINE
  5
504
100
AcDbEntity
  8
_0-3_躯体と製品
  6
CONTINUOUS
 62
     0
100
AcDbLine
 10
310
 20
474.0716498733
 11
310
 21
477.4716498733
  0
ARC
  5
505
100
AcDbEntity
  8
_0-3_躯体と製品
  6
CONTINUOUS
 62
     0
100
AcDbCircle
 10
310.3
 20
474.0716498733
 40
0.3
100
AcDbArc
 50
180
 51
270
  0
LINE
  5
506
100
AcDbEntity
  8
_0-3_躯体と製品
  6
CONTINUOUS
 62
     0
100
AcDbLine
 10
310.3
 20
473.7716498733
 11
311.5
 21
473.7716498733
  0
LINE
  5
507
100
AcDbEntity
  8
_0-3_躯体と製品
  6
CONTINUOUS
 62
     0
100
AcDbLine
 10
310.3
 20
477.7716498733
 11
311.5
 21
477.7716498733
  0
ARC
  5
508
100
AcDbEntity
  8
_0-3_躯体と製品
  6
CONTINUOUS
 62
     0
100
AcDbCircle
 10
310.3
 20
477.4716498733
 40
0.3
100
AcDbArc
 50
90
 51
180
  0
LINE
  5
509
100
AcDbEntity
  8
_0-3_躯体と製品
  6
CONTINUOUS
 62
     0
100
AcDbLine
 10
316.5
 20
477.7716498733
 11
319
 21
477.7716498733
  0
LINE
  5
50A
100
AcDbEntity
  8
_0-3_躯体と製品
  6
CONTINUOUS
 62
     0
100
AcDbLine
 10
316.5
 20
473.7716498733
 11
319
 21
473.7716498733
  0
LINE
  5
50B
100
AcDbEntity
  8
_0-3_躯体と製品
  6
CONTINUOUS
 62
     0
100
AcDbLine
 10
316.5
 20
477.7716498733
 11
316
 21
477.2716498733
  0
LINE
  5
50C
100
AcDbEntity
  8
_0-3_躯体と製品
  6
CONTINUOUS
 62
     0
100
AcDbLine
 10
316
 20
477.2716498733
 11
315.5
 21
477.7716498733
  0
LINE
  5
50D
100
AcDbEntity
  8
_0-3_躯体と製品
  6
CONTINUOUS
 62
     0
100
AcDbLine
 10
315.5
 20
477.7716498733
 11
315
 21
477.2716498733
  0
LINE
  5
50E
100
AcDbEntity
  8
_0-3_躯体と製品
  6
CONTINUOUS
 62
     0
100
AcDbLine
 10
315
 20
477.2716498733
 11
314.5
 21
477.7716498733
  0
LINE
  5
50F
100
AcDbEntity
  8
_0-3_躯体と製品
  6
CONTINUOUS
 62
     0
100
AcDbLine
 10
314.5
 20
477.7716498733
 11
314
 21
477.2716498733
  0
LINE
  5
510
100
AcDbEntity
  8
_0-3_躯体と製品
  6
CONTINUOUS
 62
     0
100
AcDbLine
 10
314
 20
477.2716498733
 11
313.5
 21
477.7716498733
  0
LINE
  5
511
100
AcDbEntity
  8
_0-3_躯体と製品
  6
CONTINUOUS
 62
     0
100
AcDbLine
 10
313.5
 20
477.7716498733
 11
313
 21
477.2716498733
  0
LINE
  5
512
100
AcDbEntity
  8
_0-3_躯体と製品
  6
CONTINUOUS
 62
     0
100
AcDbLine
 10
313
 20
477.2716498733
 11
312.5
 21
477.7716498733
  0
LINE
  5
513
100
AcDbEntity
  8
_0-3_躯体と製品
  6
CONTINUOUS
 62
     0
100
AcDbLine
 10
312.5
 20
477.7716498733
 11
312
 21
477.2716498733
  0
LINE
  5
514
100
AcDbEntity
  8
_0-3_躯体と製品
  6
CONTINUOUS
 62
     0
100
AcDbLine
 10
312
 20
477.2716498733
 11
311.5
 21
477.7716498733
  0
LINE
  5
515
100
AcDbEntity
  8
_0-3_躯体と製品
  6
CONTINUOUS
 62
     0
100
AcDbLine
 10
316.5
 20
473.7716498733
 11
316
 21
474.2716498733
  0
LINE
  5
516
100
AcDbEntity
  8
_0-3_躯体と製品
  6
CONTINUOUS
 62
     0
100
AcDbLine
 10
316
 20
474.2716498733
 11
315.5
 21
473.7716498733
  0
LINE
  5
517
100
AcDbEntity
  8
_0-3_躯体と製品
  6
CONTINUOUS
 62
     0
100
AcDbLine
 10
315.5
 20
473.7716498733
 11
315
 21
474.2716498733
  0
LINE
  5
518
100
AcDbEntity
  8
_0-3_躯体と製品
  6
CONTINUOUS
 62
     0
100
AcDbLine
 10
315
 20
474.2716498733
 11
314.5
 21
473.7716498733
  0
LINE
  5
519
100
AcDbEntity
  8
_0-3_躯体と製品
  6
CONTINUOUS
 62
     0
100
AcDbLine
 10
314.5
 20
473.7716498733
 11
314
 21
474.2716498733
  0
LINE
  5
51A
100
AcDbEntity
  8
_0-3_躯体と製品
  6
CONTINUOUS
 62
     0
100
AcDbLine
 10
314
 20
474.2716498733
 11
313.5
 21
473.7716498733
  0
LINE
  5
51B
100
AcDbEntity
  8
_0-3_躯体と製品
  6
CONTINUOUS
 62
     0
100
AcDbLine
 10
313.5
 20
473.7716498733
 11
313
 21
474.2716498733
  0
LINE
  5
51C
100
AcDbEntity
  8
_0-3_躯体と製品
  6
CONTINUOUS
 62
     0
100
AcDbLine
 10
313
 20
474.2716498733
 11
312.5
 21
473.7716498733
  0
LINE
  5
51D
100
AcDbEntity
  8
_0-3_躯体と製品
  6
CONTINUOUS
 62
     0
100
AcDbLine
 10
312.5
 20
473.7716498733
 11
312
 21
474.2716498733
  0
LINE
  5
51E
100
AcDbEntity
  8
_0-3_躯体と製品
  6
CONTINUOUS
 62
     0
100
AcDbLine
 10
312
 20
474.2716498733
 11
311.5
 21
473.7716498733
  0
LINE
  5
51F
100
AcDbEntity
  8
_0-3_躯体と製品
  6
CONTINUOUS
 62
     0
100
AcDbLine
 10
309
 20
479.7716498733
 11
317.5
 21
479.7716498733
  0
ARC
  5
520
100
AcDbEntity
  8
_0-3_躯体と製品
  6
CONTINUOUS
 62
     0
100
AcDbCircle
 10
309
 20
479.2716498733
 40
0.5
100
AcDbArc
 50
90
 51
180
  0
LINE
  5
521
100
AcDbEntity
  8
_0-3_躯体と製品
  6
CONTINUOUS
 62
     0
100
AcDbLine
 10
308.5
 20
479.2716498733
 11
308.5
 21
471.7716498733
  0
LINE
  5
522
100
AcDbEntity
  8
_0-3_躯体と製品
  6
CONTINUOUS
 62
     0
100
AcDbLine
 10
317.5
 20
479.7716498733
 11
317.5
 21
478.9716498733
  0
LINE
  5
523
100
AcDbEntity
  8
_0-3_躯体と製品
  6
CONTINUOUS
 62
     0
100
AcDbLine
 10
318.2
 20
472.5716498733
 11
318.9
 21
472.5716498733
  0
LINE
  5
524
100
AcDbEntity
  8
_0-3_躯体と製品
  6
CONTINUOUS
 62
     0
100
AcDbLine
 10
318.2
 20
467.0716498733
 11
318.2
 21
472.5716498733
  0
LINE
  5
525
100
AcDbEntity
  8
_0-3_躯体と製品
  6
CONTINUOUS
 62
     0
100
AcDbLine
 10
317.5
 20
478.9716498733
 11
318.9
 21
478.9716498733
  0
LINE
  5
526
100
AcDbEntity
  8
_0-3_躯体と製品
  6
CONTINUOUS
 62
     0
100
AcDbLine
 10
308.5
 20
458.7716498733
 11
308.5
 21
457.2716498733
  0
ARC
  5
527
100
AcDbEntity
  8
_0-3_躯体と製品
  6
CONTINUOUS
 62
     0
100
AcDbCircle
 10
318.9
 20
473.1716498733
 40
0.6
100
AcDbArc
 50
-90
 51
90
  0
ARC
  5
528
100
AcDbEntity
  8
_0-3_躯体と製品
  6
CONTINUOUS
 62
     0
100
AcDbCircle
 10
318.9
 20
478.3716498733
 40
0.6
100
AcDbArc
 50
-90
 51
90
  0
LINE
  5
529
100
AcDbEntity
  8
_0-3_躯体と製品
  6
CONTINUOUS
 62
     0
100
AcDbLine
 10
309
 20
457.2716498733
 11
309
 21
445.7716498733
  0
LINE
  5
52A
100
AcDbEntity
  8
_0-3_躯体と製品
  6
CONTINUOUS
 62
     0
100
AcDbLine
 10
311
 20
446.2716498733
 11
311
 21
456.7716498733
  0
LINE
  5
52B
100
AcDbEntity
  8
_0-3_躯体と製品
  6
CONTINUOUS
 62
     0
100
AcDbLine
 10
309
 20
445.7716498733
 11
308.5
 21
445.7716498733
  0
LINE
  5
52C
100
AcDbEntity
  8
_0-3_躯体と製品
  6
CONTINUOUS
 62
     0
100
AcDbLine
 10
308.5
 20
444.2716498733
 11
309
 21
444.2716498733
  0
LINE
  5
52D
100
AcDbEntity
  8
_0-3_躯体と製品
  6
CONTINUOUS
 62
     0
100
AcDbLine
 10
309
 20
444.2716498733
 11
309
 21
430.2716498733
  0
LINE
  5
52E
100
AcDbEntity
  8
_0-3_躯体と製品
  6
CONTINUOUS
 62
     0
100
AcDbLine
 10
309
 20
420.2716498733
 11
309
 21
406.2716498733
  0
LINE
  5
52F
100
AcDbEntity
  8
_0-3_躯体と製品
  6
CONTINUOUS
 62
     0
100
AcDbLine
 10
309
 20
406.2716498733
 11
308.5
 21
406.2716498733
  0
ARC
  5
530
100
AcDbEntity
  8
_0-3_躯体と製品
  6
CONTINUOUS
 62
     0
100
AcDbCircle
 10
311.5
 20
446.2716498733
 40
0.5
100
AcDbArc
 50
180
 51
270
  0
LINE
  5
531
100
AcDbEntity
  8
_0-3_躯体と製品
  6
CONTINUOUS
 62
     0
100
AcDbLine
 10
311.5
 20
445.7716498733
 11
320.5
 21
445.7716498733
  0
LINE
  5
532
100
AcDbEntity
  8
_0-3_躯体と製品
  6
CONTINUOUS
 62
     0
100
AcDbLine
 10
311.5
 20
399.7716498733
 11
317.25
 21
399.7716498733
  0
ARC
  5
533
100
AcDbEntity
  8
_0-3_躯体と製品
  6
CONTINUOUS
 62
     0
100
AcDbCircle
 10
311.5
 20
400.2716498733
 40
0.5
100
AcDbArc
 50
180
 51
270
  0
ARC
  5
534
100
AcDbEntity
  8
_0-3_躯体と製品
  6
CONTINUOUS
 62
     0
100
AcDbCircle
 10
311.5
 20
397.7716498733
 40
0.5
100
AcDbArc
 50
90
 51
180
  0
LINE
  5
535
100
AcDbEntity
  8
_0-3_躯体と製品
  6
CONTINUOUS
 62
     0
100
AcDbLine
 10
311.5
 20
398.2716498733
 11
314
 21
398.2716498733
  0
LINE
  5
536
100
AcDbEntity
  8
_0-3_躯体と製品
  6
CONTINUOUS
 62
     0
100
AcDbLine
 10
314
 20
398.2716498733
 11
315
 21
398.7716498733
  0
LINE
  5
537
100
AcDbEntity
  8
_0-3_躯体と製品
  6
CONTINUOUS
 62
     0
100
AcDbLine
 10
315
 20
398.7716498733
 11
315
 21
398.2716498733
  0
LINE
  5
538
100
AcDbEntity
  8
_0-3_躯体と製品
  6
CONTINUOUS
 62
     0
100
AcDbLine
 10
315
 20
398.2716498733
 11
316
 21
398.7716498733
  0
LINE
  5
539
100
AcDbEntity
  8
_0-3_躯体と製品
  6
CONTINUOUS
 62
     0
100
AcDbLine
 10
316
 20
398.7716498733
 11
316
 21
398.2716498733
  0
ARC
  5
53A
100
AcDbEntity
  8
_0-3_躯体と製品
  6
CONTINUOUS
 62
     0
100
AcDbCircle
 10
317.25
 20
399.0216498733
 40
0.75
100
AcDbArc
 50
-90
 51
90
  0
ARC
  5
53B
100
AcDbEntity
  8
_0-3_躯体と製品
  6
CONTINUOUS
 62
     0
100
AcDbCircle
 10
311.5
 20
443.7716498733
 40
0.5
100
AcDbArc
 50
90
 51
180
  0
ARC
  5
53C
100
AcDbEntity
  8
_0-3_躯体と製品
  6
CONTINUOUS
 62
     0
100
AcDbCircle
 10
320.5
 20
445.2716498733
 40
0.5
100
AcDbArc
 50
0
 51
90
  0
LINE
  5
53D
100
AcDbEntity
  8
_0-3_躯体と製品
  6
CONTINUOUS
 62
     0
100
AcDbLine
 10
320.5
 20
444.2716498733
 11
311.5
 21
444.2716498733
  0
ARC
  5
53E
100
AcDbEntity
  8
_0-3_躯体と製品
  6
CONTINUOUS
 62
     0
100
AcDbCircle
 10
320.5
 20
444.7716498733
 40
0.5
100
AcDbArc
 50
-90
 51
0
  0
LINE
  5
53F
100
AcDbEntity
  8
_0-3_躯体と製品
  6
CONTINUOUS
 62
     0
100
AcDbLine
 10
321
 20
444.7716498733
 11
321
 21
445.2716498733
  0
LINE
  5
540
100
AcDbEntity
  8
_0-3_躯体と製品
  6
CONTINUOUS
 62
     0
100
AcDbLine
 10
311
 20
404.2716498733
 11
311
 21
400.2716498733
  0
ARC
  5
541
100
AcDbEntity
  8
_0-3_躯体と製品
  6
CONTINUOUS
 62
     0
100
AcDbCircle
 10
311.5
 20
404.2716498733
 40
0.5
100
AcDbArc
 50
90
 51
180
  0
LINE
  5
542
100
AcDbEntity
  8
_0-3_躯体と製品
  6
CONTINUOUS
 62
     0
100
AcDbLine
 10
311.5
 20
404.7716498733
 11
322.25
 21
404.7716498733
  0
LINE
  5
543
100
AcDbEntity
  8
_0-3_躯体と製品
  6
CONTINUOUS
 62
     0
100
AcDbLine
 10
311
 20
406.7716498733
 11
311
 21
424.7716498733
  0
ARC
  5
544
100
AcDbEntity
  8
_0-3_躯体と製品
  6
CONTINUOUS
 62
     0
100
AcDbCircle
 10
311.5
 20
406.7716498733
 40
0.5
100
AcDbArc
 50
180
 51
270
  0
LINE
  5
545
100
AcDbEntity
  8
_0-3_躯体と製品
  6
CONTINUOUS
 62
     0
100
AcDbLine
 10
311.5
 20
406.2716498733
 11
322.25
 21
406.2716498733
  0
ARC
  5
546
100
AcDbEntity
  8
_0-3_躯体と製品
  6
CONTINUOUS
 62
     0
100
AcDbCircle
 10
322.25
 20
405.5216498733
 40
0.75
100
AcDbArc
 50
-90
 51
90
  0
ARC
  5
547
100
AcDbEntity
  8
_0-3_躯体と製品
  6
CONTINUOUS
 62
     0
100
AcDbCircle
 10
311.5
 20
394.7716498733
 40
0.5
100
AcDbArc
 50
180
 51
270
  0
LINE
  5
548
100
AcDbEntity
  8
_0-3_躯体と製品
  6
CONTINUOUS
 62
     0
100
AcDbLine
 10
311.5
 20
394.2716498733
 11
314
 21
394.2716498733
  0
ARC
  5
549
100
AcDbEntity
  8
_0-3_躯体と製品
  6
CONTINUOUS
 62
     0
100
AcDbCircle
 10
317.25
 20
393.5216498733
 40
0.75
100
AcDbArc
 50
-90
 51
90
  0
LINE
  5
54A
100
AcDbEntity
  8
_0-3_躯体と製品
  6
CONTINUOUS
 62
     0
100
AcDbLine
 10
314
 20
394.2716498733
 11
315
 21
393.7716498733
  0
LINE
  5
54B
100
AcDbEntity
  8
_0-3_躯体と製品
  6
CONTINUOUS
 62
     0
100
AcDbLine
 10
315
 20
394.2716498733
 11
315
 21
393.7716498733
  0
LINE
  5
54C
100
AcDbEntity
  8
_0-3_躯体と製品
  6
CONTINUOUS
 62
     0
100
AcDbLine
 10
315
 20
394.2716498733
 11
316
 21
393.7716498733
  0
LINE
  5
54D
100
AcDbEntity
  8
_0-3_躯体と製品
  6
CONTINUOUS
 62
     0
100
AcDbLine
 10
316
 20
394.2716498733
 11
316
 21
393.7716498733
  0
LINE
  5
54E
100
AcDbEntity
  8
_0-3_躯体と製品
  6
CONTINUOUS
 62
     0
100
AcDbLine
 10
311
 20
394.7716498733
 11
311
 21
397.7716498733
  0
LINE
  5
54F
100
AcDbEntity
  8
_0-3_躯体と製品
  6
CONTINUOUS
 62
     0
100
AcDbLine
 10
309.5
 20
394.7716498733
 11
309.5
 21
404.2716498733
  0
ARC
  5
550
100
AcDbEntity
  8
_0-3_躯体と製品
  6
CONTINUOUS
 62
     0
100
AcDbCircle
 10
309
 20
394.7716498733
 40
0.5
100
AcDbArc
 50
-90
 51
0
  0
LINE
  5
551
100
AcDbEntity
  8
_0-3_躯体と製品
  6
CONTINUOUS
 62
     0
100
AcDbLine
 10
309
 20
394.2716498733
 11
308.5
 21
394.2716498733
  0
LINE
  5
552
100
AcDbEntity
  8
_0-3_躯体と製品
  6
CONTINUOUS
 62
     0
100
AcDbLine
 10
317.25
 20
392.7716498733
 11
308.5
 21
392.7716498733
  0
LINE
  5
553
100
AcDbEntity
  8
_0-3_躯体と製品
  6
CONTINUOUS
 62
     0
100
AcDbLine
 10
309
 20
404.7716498733
 11
308.5
 21
404.7716498733
  0
ARC
  5
554
100
AcDbEntity
  8
_0-3_躯体と製品
  6
CONTINUOUS
 62
     0
100
AcDbCircle
 10
309
 20
404.2716498733
 40
0.5
100
AcDbArc
 50
0
 51
90
  0
LINE
  5
555
100
AcDbEntity
  8
_0-3_躯体と製品
  6
CONTINUOUS
 62
     0
100
AcDbLine
 10
317.25
 20
394.2716498733
 11
316
 21
394.2716498733
  0
LINE
  5
556
100
AcDbEntity
  8
_0-3_躯体と製品
  6
CONTINUOUS
 62
     0
100
AcDbLine
 10
317.25
 20
398.2716498733
 11
316
 21
398.2716498733
  0
LINE
  5
557
100
AcDbEntity
  8
_0-3_躯体と製品
  6
CONTINUOUS
 62
     0
100
AcDbLine
 10
308.5
 20
406.2716498733
 11
308.5
 21
404.7716498733
  0
LINE
  5
558
100
AcDbEntity
  8
_0-3_躯体と製品
  6
CONTINUOUS
 62
     0
100
AcDbLine
 10
308.5
 20
445.7716498733
 11
308.5
 21
444.2716498733
  0
LINE
  5
559
100
AcDbEntity
  8
_0-3_躯体と製品
  6
CONTINUOUS
 62
     0
100
AcDbLine
 10
311
 20
425.7716498733
 11
311
 21
443.7716498733
  0
CIRCLE
  5
55A
100
AcDbEntity
  8
_0-3_躯体と製品
  6
CONTINUOUS
 62
     0
100
AcDbCircle
 10
340.7
 20
432.9716498733
 40
1.4
  0
LINE
  5
55B
100
AcDbEntity
  8
_0-3_躯体と製品
  6
CONTINUOUS
 62
     0
100
AcDbLine
 10
338.5
 20
468.9716498733
 11
321.7
 21
468.9716498733
  0
LINE
  5
55C
100
AcDbEntity
  8
_0-3_躯体と製品
  6
CONTINUOUS
 62
     0
100
AcDbLine
 10
340.7
 20
435.1716498733
 11
340.7
 21
466.7716498733
  0
LINE
  5
55D
100
AcDbEntity
  8
_0-3_躯体と製品
  6
CONTINUOUS
 62
     0
100
AcDbLine
 10
338.5
 20
432.9716498733
 11
330.7
 21
432.9716498733
  0
LINE
  5
55E
100
AcDbEntity
  8
_0-3_躯体と製品
  6
CONTINUOUS
 62
     0
100
AcDbLine
 10
353.7393405816
 20
424.8174007177
 11
352.7588090094
 21
425.7979322899
  0
LINE
  5
55F
100
AcDbEntity
  8
_0-3_躯体と製品
  6
CONTINUOUS
 62
     0
100
AcDbLine
 10
503.5337707948
 20
416.9670072812
 11
502.5532392225
 21
417.9475388535
  0
LINE
  5
560
100
AcDbEntity
  8
_0-3_躯体と製品
  6
CONTINUOUS
 62
     0
100
AcDbLine
 10
353.668915606
 20
423.4736121309
 11
351.2663805877
 21
425.8761471492
  0
LINE
  5
561
100
AcDbEntity
  8
_0-3_躯体と製品
  6
CONTINUOUS
 62
     0
100
AcDbLine
 10
352.6384197093
 20
423.0898944652
 11
349.773952166
 21
425.9543620085
  0
LINE
  5
562
100
AcDbEntity
  8
_0-3_躯体と製品
  6
CONTINUOUS
 62
     0
100
AcDbLine
 10
351.1459912876
 20
423.1681093245
 11
348.2815237443
 21
426.0325768679
  0
LINE
  5
563
100
AcDbEntity
  8
_0-3_躯体と製品
  6
CONTINUOUS
 62
     0
100
AcDbLine
 10
349.653562866
 20
423.2463241838
 11
346.7890953226
 21
426.1107917272
  0
LINE
  5
564
100
AcDbEntity
  8
_0-3_躯体と製品
  6
CONTINUOUS
 62
     0
100
AcDbLine
 10
348.1611344443
 20
423.3245390431
 11
345.2966669009
 21
426.1890065865
  0
LINE
  5
565
100
AcDbEntity
  8
_0-3_躯体と製品
  6
CONTINUOUS
 62
     0
100
AcDbLine
 10
346.6687060226
 20
423.4027539025
 11
343.8042384792
 21
426.2672214458
  0
LINE
  5
566
100
AcDbEntity
  8
_0-3_躯体と製品
  6
CONTINUOUS
 62
     0
100
AcDbLine
 10
345.1762776009
 20
423.4809687618
 11
342.3118100575
 21
426.3454363051
  0
LINE
  5
567
100
AcDbEntity
  8
_0-3_躯体と製品
  6
CONTINUOUS
 62
     0
100
AcDbLine
 10
343.6838491792
 20
423.5591836211
 11
340.8193816358
 21
426.4236511645
  0
LINE
  5
568
100
AcDbEntity
  8
_0-3_躯体と製品
  6
CONTINUOUS
 62
     0
100
AcDbLine
 10
342.1914207575
 20
423.6373984804
 11
339.3269532141
 21
426.5018660238
  0
LINE
  5
569
100
AcDbEntity
  8
_0-3_躯体と製品
  6
CONTINUOUS
 62
     0
100
AcDbLine
 10
503.4633458191
 20
415.6232186945
 11
501.0608108009
 21
418.0257537128
  0
LINE
  5
56A
100
AcDbEntity
  8
_0-3_躯体と製品
  6
CONTINUOUS
 62
     0
100
AcDbLine
 10
502.4328499225
 20
415.2395010287
 11
499.5683823792
 21
418.1039685721
  0
LINE
  5
56B
100
AcDbEntity
  8
_0-3_躯体と製品
  6
CONTINUOUS
 62
     0
100
AcDbLine
 10
500.9404215008
 20
415.3177158881
 11
498.0759539575
 21
418.1821834314
  0
LINE
  5
56C
100
AcDbEntity
  8
_0-3_躯体と製品
  6
CONTINUOUS
 62
     0
100
AcDbLine
 10
499.4479930791
 20
415.3959307474
 11
496.5835255358
 21
418.2603982907
  0
LINE
  5
56D
100
AcDbEntity
  8
_0-3_躯体と製品
  6
CONTINUOUS
 62
     0
100
AcDbLine
 10
497.9555646574
 20
415.4741456067
 11
495.0910971141
 21
418.3386131501
  0
LINE
  5
56E
100
AcDbEntity
  8
_0-3_躯体と製品
  6
CONTINUOUS
 62
     0
100
AcDbLine
 10
496.4631362358
 20
415.552360466
 11
493.5986686924
 21
418.4168280094
  0
LINE
  5
56F
100
AcDbEntity
  8
_0-3_躯体と製品
  6
CONTINUOUS
 62
     0
100
AcDbLine
 10
494.9707078141
 20
415.6305753253
 11
492.1062402707
 21
418.4950428687
  0
LINE
  5
570
100
AcDbEntity
  8
_0-3_躯体と製品
  6
CONTINUOUS
 62
     0
100
AcDbLine
 10
493.4782793924
 20
415.7087901847
 11
490.613811849
 21
418.573257728
  0
LINE
  5
571
100
AcDbEntity
  8
_0-3_躯体と製品
  6
CONTINUOUS
 62
     0
100
AcDbLine
 10
491.9858509707
 20
415.787005044
 11
489.1213834273
 21
418.6514725873
  0
LINE
  5
572
100
AcDbEntity
  8
_0-3_躯体と製品
  6
CONTINUOUS
 62
     0
100
AcDbLine
 10
488.4610255067
 20
415.9717333189
 11
488.6028887754
 21
418.6786457406
  0
LINE
  5
573
100
AcDbEntity
  8
_0-3_躯体と製品
  6
CONTINUOUS
 62
     0
100
AcDbLine
 10
353.6460383148
 20
423.0370874117
 11
353.7879015836
 21
425.7439998334
  0
LINE
  5
574
100
AcDbEntity
  8
_0-3_躯体と製品
  6
CONTINUOUS
 62
     0
100
AcDbLine
 10
503.440468528
 20
415.1866939753
 11
503.5823317967
 21
417.893606397
  0
LINE
  5
575
100
AcDbEntity
  8
_0-3_躯体と製品
  6
CONTINUOUS
 62
     0
100
AcDbLine
 10
338.6665952935
 20
423.8221267553
 11
338.8084585622
 21
426.5290391771
  0
LINE
  5
576
100
AcDbEntity
  8
_0-3_躯体と製品
  6
CONTINUOUS
 62
     0
100
AcDbLine
 10
321
 20
429.8347523595
 11
321
 21
440.8857877928
  0
LINE
  5
577
100
AcDbEntity
  8
_0-3_躯体と製品
  6
CONTINUOUS
 62
     0
100
AcDbLine
 10
321
 20
440.8857877928
 11
322.5
 21
440.8857877928
  0
LINE
  5
578
100
AcDbEntity
  8
_0-3_躯体と製品
  6
CONTINUOUS
 62
     0
100
AcDbLine
 10
529.5
 20
329.3801541434
 11
522.5
 21
329.3801541434
  0
LINE
  5
579
100
AcDbEntity
  8
_0-3_躯体と製品
  6
CONTINUOUS
 62
     0
100
AcDbLine
 10
522.5
 20
327.8801541434
 11
522.5
 21
329.3801541434
  0
ARC
  5
57A
100
AcDbEntity
  8
_0-3_躯体と製品
  6
CONTINUOUS
 62
     0
100
AcDbCircle
 10
529.5
 20
330.8801541434
 40
1.5
100
AcDbArc
 50
-90
 51
0
  0
LINE
  5
57B
100
AcDbEntity
  8
_0-3_躯体と製品
  6
CONTINUOUS
 62
     0
100
AcDbLine
 10
531
 20
330.8801541434
 11
531
 21
415.0332604432
  0
LINE
  5
57C
100
AcDbEntity
  8
_0-3_躯体と製品
  6
CONTINUOUS
 62
     0
100
AcDbLine
 10
323.3691601094
 20
427.3381785227
 11
529.5785039344
 21
416.5312047454
  0
ARC
  5
57D
100
AcDbEntity
  8
_0-3_躯体と製品
  6
CONTINUOUS
 62
     0
100
AcDbCircle
 10
323.5
 20
429.8347523595
 40
1
100
AcDbArc
 50
180
 51
267
  0
LINE
  5
57E
100
AcDbEntity
  8
_0-3_躯体と製品
  6
CONTINUOUS
 62
     0
100
AcDbLine
 10
322.5
 20
429.8347523595
 11
322.5
 21
440.8857877928
  0
LINE
  5
57F
100
AcDbEntity
  8
_0-3_躯体と製品
  6
CONTINUOUS
 62
     0
100
AcDbLine
 10
532.5
 20
415.0332604432
 11
532.5
 21
330.8801541434
  0
ARC
  5
580
100
AcDbEntity
  8
_0-3_躯体と製品
  6
CONTINUOUS
 62
     0
100
AcDbCircle
 10
529.5
 20
330.8801541434
 40
3
100
AcDbArc
 50
-90
 51
0
  0
ARC
  5
581
100
AcDbEntity
  8
_0-3_躯体と製品
  6
CONTINUOUS
 62
     0
100
AcDbCircle
 10
529.5
 20
415.0332604432
 40
3
100
AcDbArc
 50
0
 51
86.99999999999
  0
LINE
  5
582
100
AcDbEntity
  8
_0-3_躯体と製品
  6
CONTINUOUS
 62
     0
100
AcDbLine
 10
529.5
 20
327.8801541434
 11
522.5
 21
327.8801541434
  0
ARC
  5
583
100
AcDbEntity
  8
_0-3_躯体と製品
  6
CONTINUOUS
 62
     0
100
AcDbCircle
 10
323.5
 20
429.8347523595
 40
2.5
100
AcDbArc
 50
180
 51
267
  0
ARC
  5
584
100
AcDbEntity
  8
_0-3_躯体と製品
  6
CONTINUOUS
 62
     0
100
AcDbCircle
 10
529.5
 20
415.0332604432
 40
1.5
100
AcDbArc
 50
0
 51
86.99999999999
  0
LINE
  5
585
100
AcDbEntity
  8
_0-3_躯体と製品
  6
CONTINUOUS
 62
     0
100
AcDbLine
 10
340.6989923358
 20
423.7156133397
 11
338.7625004037
 21
425.6521052718
  0
LINE
  5
586
100
AcDbEntity
  8
_0-3_躯体と製品
  6
CONTINUOUS
 62
     0
100
AcDbLine
 10
490.493422549
 20
415.8652199033
 11
488.5569306169
 21
417.8017118354
  0
LINE
  5
587
100
AcDbEntity
  8
_0-3_躯体と製品
  6
CONTINUOUS
 62
     0
100
AcDbLine
 10
353.5038287785
 20
420.3235678113
 11
351.1607467387
 21
422.6666498511
  0
LINE
  5
588
100
AcDbEntity
  8
_0-3_躯体と製品
  6
CONTINUOUS
 62
     0
100
AcDbLine
 10
353.5742537542
 20
421.667356398
 11
352.6531751604
 21
422.5884349918
  0
LINE
  5
589
100
AcDbEntity
  8
_0-3_躯体と製品
  6
CONTINUOUS
 62
     0
100
AcDbLine
 10
353.4334038029
 20
418.9797792245
 11
349.668318317
 21
422.7448647104
  0
LINE
  5
58A
100
AcDbEntity
  8
_0-3_躯体と製品
  6
CONTINUOUS
 62
     0
100
AcDbLine
 10
352.4029079062
 20
418.5960615588
 11
348.1758898953
 21
422.8230795697
  0
LINE
  5
58B
100
AcDbEntity
  8
_0-3_躯体と製品
  6
CONTINUOUS
 62
     0
100
AcDbLine
 10
350.9104794846
 20
418.6742764181
 11
346.6834614736
 21
422.901294429
  0
LINE
  5
58C
100
AcDbEntity
  8
_0-3_躯体と製品
  6
CONTINUOUS
 62
     0
100
AcDbLine
 10
349.4180510629
 20
418.7524912774
 11
345.1910330519
 21
422.9795092884
  0
LINE
  5
58D
100
AcDbEntity
  8
_0-3_躯体と製品
  6
CONTINUOUS
 62
     0
100
AcDbLine
 10
347.9256226412
 20
418.8307061367
 11
343.6986046302
 21
423.0577241477
  0
LINE
  5
58E
100
AcDbEntity
  8
_0-3_躯体と製品
  6
CONTINUOUS
 62
     0
100
AcDbLine
 10
346.4331942195
 20
418.9089209961
 11
342.2061762085
 21
423.135939007
  0
LINE
  5
58F
100
AcDbEntity
  8
_0-3_躯体と製品
  6
CONTINUOUS
 62
     0
100
AcDbLine
 10
344.9407657978
 20
418.9871358554
 11
340.7137477868
 21
423.2141538663
  0
LINE
  5
590
100
AcDbEntity
  8
_0-3_躯体と製品
  6
CONTINUOUS
 62
     0
100
AcDbLine
 10
343.4483373761
 20
419.0653507147
 11
339.2213193652
 21
423.2923687256
  0
LINE
  5
591
100
AcDbEntity
  8
_0-3_躯体と製品
  6
CONTINUOUS
 62
     0
100
AcDbLine
 10
341.9559089544
 20
419.143565574
 11
338.5974135763
 21
422.5020609522
  0
LINE
  5
592
100
AcDbEntity
  8
_0-3_躯体と製品
  6
CONTINUOUS
 62
     0
100
AcDbLine
 10
340.4634805327
 20
419.2217804333
 11
338.5269886006
 21
421.1582723654
  0
LINE
  5
593
100
AcDbEntity
  8
_0-3_躯体と製品
  6
CONTINUOUS
 62
     0
100
AcDbLine
 10
338.971052111
 20
419.2999952927
 11
338.4565636249
 21
419.8144837787
  0
LINE
  5
594
100
AcDbEntity
  8
_0-3_躯体と製品
  6
CONTINUOUS
 62
     0
100
AcDbLine
 10
339.2065639141
 20
423.7938281991
 11
338.692075428
 21
424.3083166851
  0
LINE
  5
595
100
AcDbEntity
  8
_0-3_躯体と製品
  6
CONTINUOUS
 62
     0
100
AcDbLine
 10
501.9750617532
 20
387.2250670021
 11
337.2011885187
 21
395.8604997822
  0
LINE
  5
596
100
AcDbEntity
  8
_0-3_躯体と製品
  6
CONTINUOUS
 62
     0
100
AcDbLine
 10
337.3320284093
 20
398.3570736191
 11
342.3251760831
 21
398.0953938379
  0
LINE
  5
597
100
AcDbEntity
  8
_0-3_躯体と製品
  6
CONTINUOUS
 62
     0
100
AcDbLine
 10
342.3251760831
 20
398.0953938379
 11
342.3775120393
 21
399.0940233726
  0
LINE
  5
598
100
AcDbEntity
  8
_0-3_躯体と製品
  6
CONTINUOUS
 62
     0
100
AcDbLine
 10
342.3775120393
 20
399.0940233726
 11
362.3501027344
 21
398.0473042478
  0
LINE
  5
599
100
AcDbEntity
  8
_0-3_躯体と製品
  6
CONTINUOUS
 62
     0
100
AcDbLine
 10
362.2977667782
 20
397.048674713
 11
362.3501027344
 21
398.0473042478
  0
LINE
  5
59A
100
AcDbEntity
  8
_0-3_躯体と製品
  6
CONTINUOUS
 62
     0
100
AcDbLine
 10
362.2977667782
 20
397.048674713
 11
365.7929701498
 21
396.8654988662
  0
ARC
  5
59B
100
AcDbEntity
  8
_0-3_躯体と製品
  6
CONTINUOUS
 62
     0
100
AcDbCircle
 10
365.8714740842
 20
398.3634431683
 40
1.5
100
AcDbArc
 50
-93.00000000001
 51
86.99999999999
  0
LINE
  5
59C
100
AcDbEntity
  8
_0-3_躯体と製品
  6
CONTINUOUS
 62
     0
100
AcDbLine
 10
337.489036278
 20
401.3529622234
 11
365.9499780185
 21
399.8613874704
  0
LINE
  5
59D
100
AcDbEntity
  8
_0-3_躯体と製品
  6
CONTINUOUS
 62
     0
100
AcDbLine
 10
315.8
 20
447.8868803558
 11
315.8
 21
446.3716498733
  0
LINE
  5
59E
100
AcDbEntity
  8
_0-3_躯体と製品
  6
CONTINUOUS
 62
     0
100
AcDbLine
 10
312.1557915925
 20
449.9692851601
 11
315.8
 21
447.8868803558
  0
ARC
  5
59F
100
AcDbEntity
  8
_0-3_躯体と製品
  6
CONTINUOUS
 62
     0
100
AcDbCircle
 10
312.9
 20
451.2716498733
 40
1.5
100
AcDbArc
 50
180
 51
240.2551187031
  0
LINE
  5
5A0
100
AcDbEntity
  8
_0-3_躯体と製品
  6
CONTINUOUS
 62
     0
100
AcDbLine
 10
311.4
 20
451.2716498733
 11
311.4
 21
454.5216498733
  0
ARC
  5
5A1
100
AcDbEntity
  8
_0-3_躯体と製品
  6
CONTINUOUS
 62
     0
100
AcDbCircle
 10
329
 20
400.796481417
 40
2
100
AcDbArc
 50
180
 51
267
  0
LINE
  5
5A2
100
AcDbEntity
  8
_0-3_躯体と製品
  6
CONTINUOUS
 62
     0
100
AcDbLine
 10
328.8953280875
 20
398.7992223474
 11
335.3347693398
 21
398.4617455316
  0
LINE
  5
5A3
100
AcDbEntity
  8
_0-3_躯体と製品
  6
CONTINUOUS
 62
     0
100
AcDbLine
 10
327
 20
400.796481417
 11
327
 21
408.2716498733
  0
ARC
  5
5A4
100
AcDbEntity
  8
_0-3_躯体と製品
  6
CONTINUOUS
 62
     0
100
AcDbCircle
 10
330.5
 20
402.72061444
 40
1
100
AcDbArc
 50
180
 51
267
  0
LINE
  5
5A5
100
AcDbEntity
  8
_0-3_躯体と製品
  6
CONTINUOUS
 62
     0
100
AcDbLine
 10
330.4476640438
 20
401.7219849053
 11
335.4917772085
 21
401.4576341359
  0
LINE
  5
5A6
100
AcDbEntity
  8
_0-3_躯体と製品
  6
CONTINUOUS
 62
     0
100
AcDbLine
 10
329.5
 20
402.72061444
 11
329.5
 21
409.7716498733
  0
ARC
  5
5A7
100
AcDbEntity
  8
_0-3_躯体と製品
  6
CONTINUOUS
 62
     0
100
AcDbCircle
 10
335.3086013617
 20
397.9624307642
 40
0.5
100
AcDbArc
 50
-2.999999999999
 51
86.99999999999
  0
LINE
  5
5A8
100
AcDbEntity
  8
_0-3_躯体と製品
  6
CONTINUOUS
 62
     0
100
AcDbLine
 10
335.8079161291
 20
397.9362627861
 11
335.7555801728
 21
396.9376332513
  0
ARC
  5
5A9
100
AcDbEntity
  8
_0-3_躯体と製品
  6
CONTINUOUS
 62
     0
100
AcDbCircle
 10
336.2548949402
 20
396.9114652732
 40
0.5
100
AcDbArc
 50
177
 51
267
  0
LINE
  5
5AA
100
AcDbEntity
  8
_0-3_躯体と製品
  6
CONTINUOUS
 62
     0
100
AcDbLine
 10
336.2287269621
 20
396.4121505058
 11
336.7280417294
 21
396.3859825277
  0
ARC
  5
5AB
100
AcDbEntity
  8
_0-3_躯体と製品
  6
CONTINUOUS
 62
     0
100
AcDbCircle
 10
336.7542097076
 20
396.8852972951
 40
0.5
100
AcDbArc
 50
-93.00000000001
 51
-2.999999999999
  0
ARC
  5
5AC
100
AcDbEntity
  8
_0-3_躯体と製品
  6
CONTINUOUS
 62
     0
100
AcDbCircle
 10
335.5179451866
 20
401.9569489032
 40
0.5
100
AcDbArc
 50
-93.00000000001
 51
-2.999999999999
  0
LINE
  5
5AD
100
AcDbEntity
  8
_0-3_躯体と製品
  6
CONTINUOUS
 62
     0
100
AcDbLine
 10
336.017259954
 20
401.9307809251
 11
336.1219318665
 21
403.9280399946
  0
ARC
  5
5AE
100
AcDbEntity
  8
_0-3_躯体と製品
  6
CONTINUOUS
 62
     0
100
AcDbCircle
 10
336.6212466339
 20
403.9018720165
 40
0.5
100
AcDbArc
 50
86.99999999999
 51
177
  0
LINE
  5
5AF
100
AcDbEntity
  8
_0-3_躯体と製品
  6
CONTINUOUS
 62
     0
100
AcDbLine
 10
336.647414612
 20
404.4011867839
 11
337.1467293794
 21
404.3750188058
  0
ARC
  5
5B0
100
AcDbEntity
  8
_0-3_躯体と製品
  6
CONTINUOUS
 62
     0
100
AcDbCircle
 10
337.1205614013
 20
403.8757040384
 40
0.5
100
AcDbArc
 50
-2.999999999999
 51
86.99999999999
  0
LINE
  5
5B1
100
AcDbEntity
  8
_0-3_躯体と製品
  6
CONTINUOUS
 62
     0
100
AcDbLine
 10
317.5
 20
447.7716498733
 11
323
 21
447.7716498733
  0
LINE
  5
5B2
100
AcDbEntity
  8
_0-3_躯体と製品
  6
CONTINUOUS
 62
     0
100
AcDbLine
 10
324
 20
449.2716498733
 11
316.4
 21
449.2716498733
  0
ARC
  5
5B3
100
AcDbEntity
  8
_0-3_躯体と製品
  6
CONTINUOUS
 62
     0
100
AcDbCircle
 10
317.5
 20
447.2716498733
 40
0.5
100
AcDbArc
 50
90
 51
180
  0
LINE
  5
5B4
100
AcDbEntity
  8
_0-3_躯体と製品
  6
CONTINUOUS
 62
     0
100
AcDbLine
 10
317
 20
447.2716498733
 11
317
 21
446.3716498733
  0
LINE
  5
5B5
100
AcDbEntity
  8
_0-3_躯体と製品
  6
CONTINUOUS
 62
     0
100
AcDbLine
 10
312.9
 20
451.2716498733
 11
316.4
 21
449.2716498733
  0
LINE
  5
5B6
100
AcDbEntity
  8
_0-3_躯体と製品
  6
CONTINUOUS
 62
     0
100
AcDbLine
 10
312.9
 20
454.5216498733
 11
312.9
 21
451.2716498733
  0
ARC
  5
5B7
100
AcDbEntity
  8
_0-3_躯体と製品
  6
CONTINUOUS
 62
     0
100
AcDbCircle
 10
312.15
 20
454.5216498733
 40
0.75
100
AcDbArc
 50
0
 51
180
  0
ARC
  5
5B8
100
AcDbEntity
  8
_0-3_躯体と製品
  6
CONTINUOUS
 62
     0
100
AcDbCircle
 10
316.4
 20
446.3716498733
 40
0.6
100
AcDbArc
 50
180
 51
360
  0
LINE
  5
5B9
100
AcDbEntity
  8
_0-3_躯体と製品
  6
CONTINUOUS
 62
     0
100
AcDbLine
 10
325
 20
434.7716498733
 11
325
 21
448.2716498733
  0
ARC
  5
5BA
100
AcDbEntity
  8
_0-3_躯体と製品
  6
CONTINUOUS
 62
     0
100
AcDbCircle
 10
322.5
 20
443.7716498733
 40
1
100
AcDbArc
 50
-90
 51
0
  0
LINE
  5
5BB
100
AcDbEntity
  8
_0-3_躯体と製品
  6
CONTINUOUS
 62
     0
100
AcDbLine
 10
326
 20
409.2716498733
 11
315.5
 21
409.2716498733
  0
LINE
  5
5BC
100
AcDbEntity
  8
_0-3_躯体と製品
  6
CONTINUOUS
 62
     0
100
AcDbLine
 10
322.5
 20
442.7716498733
 11
318
 21
442.7716498733
  0
LINE
  5
5BD
100
AcDbEntity
  8
_0-3_躯体と製品
  6
CONTINUOUS
 62
     0
100
AcDbLine
 10
327.5
 20
411.7716498733
 11
319.5
 21
411.7716498733
  0
LINE
  5
5BE
100
AcDbEntity
  8
_0-3_躯体と製品
  6
CONTINUOUS
 62
     0
100
AcDbLine
 10
319
 20
441.2716498733
 11
323
 21
441.2716498733
  0
ARC
  5
5BF
100
AcDbEntity
  8
_0-3_躯体と製品
  6
CONTINUOUS
 62
     0
100
AcDbCircle
 10
327.5
 20
409.7716498733
 40
2
100
AcDbArc
 50
0
 51
90
  0
ARC
  5
5C0
100
AcDbEntity
  8
_0-3_躯体と製品
  6
CONTINUOUS
 62
     0
100
AcDbCircle
 10
326
 20
408.2716498733
 40
1
100
AcDbArc
 50
0
 51
90
  0
LINE
  5
5C1
100
AcDbEntity
  8
_0-3_躯体と製品
  6
CONTINUOUS
 62
     0
100
AcDbLine
 10
324.5
 20
434.2716498733
 11
323.5
 21
434.2716498733
  0
ARC
  5
5C2
100
AcDbEntity
  8
_0-3_躯体と製品
  6
CONTINUOUS
 62
     0
100
AcDbCircle
 10
324.5
 20
434.7716498733
 40
0.5
100
AcDbArc
 50
-90
 51
0
  0
LINE
  5
5C3
100
AcDbEntity
  8
_0-3_躯体と製品
  6
CONTINUOUS
 62
     0
100
AcDbLine
 10
323.5
 20
440.7716498733
 11
323.5
 21
436.2716498733
  0
ARC
  5
5C4
100
AcDbEntity
  8
_0-3_躯体と製品
  6
CONTINUOUS
 62
     0
100
AcDbCircle
 10
323
 20
440.7716498733
 40
0.5
100
AcDbArc
 50
0
 51
90
  0
ARC
  5
5C5
100
AcDbEntity
  8
_0-3_躯体と製品
  6
CONTINUOUS
 62
     0
100
AcDbCircle
 10
323.5
 20
435.2716498733
 40
1
100
AcDbArc
 50
90
 51
270
  0
ARC
  5
5C6
100
AcDbEntity
  8
_0-3_躯体と製品
  6
CONTINUOUS
 62
     0
100
AcDbCircle
 10
324
 20
448.2716498733
 40
1
100
AcDbArc
 50
0
 51
90
  0
LINE
  5
5C7
100
AcDbEntity
  8
_0-3_躯体と製品
  6
CONTINUOUS
 62
     0
100
AcDbLine
 10
323.5
 20
443.7716498733
 11
323.5
 21
447.2716498733
  0
ARC
  5
5C8
100
AcDbEntity
  8
_0-3_躯体と製品
  6
CONTINUOUS
 62
     0
100
AcDbCircle
 10
323
 20
447.2716498733
 40
0.5
100
AcDbArc
 50
0
 51
90
  0
ARC
  5
5C9
100
AcDbEntity
  8
_0-3_躯体と製品
  6
CONTINUOUS
 62
     0
100
AcDbCircle
 10
319.5
 20
412.7716498733
 40
1
100
AcDbArc
 50
180
 51
270
  0
ARC
  5
5CA
100
AcDbEntity
  8
_0-3_躯体と製品
  6
CONTINUOUS
 62
     0
100
AcDbCircle
 10
319
 20
440.7716498733
 40
0.5
100
AcDbArc
 50
90
 51
180
  0
LINE
  5
5CB
100
AcDbEntity
  8
_0-3_躯体と製品
  6
CONTINUOUS
 62
     0
100
AcDbLine
 10
318.5
 20
412.7716498733
 11
318.5
 21
440.7716498733
  0
LINE
  5
5CC
100
AcDbEntity
  8
_0-3_躯体と製品
  6
CONTINUOUS
 62
     0
100
AcDbLine
 10
316
 20
410.7716498733
 11
314.5
 21
410.7716498733
  0
ARC
  5
5CD
100
AcDbEntity
  8
_0-3_躯体と製品
  6
CONTINUOUS
 62
     0
100
AcDbCircle
 10
316
 20
411.2716498733
 40
0.5
100
AcDbArc
 50
-90
 51
0
  0
LINE
  5
5CE
100
AcDbEntity
  8
_0-3_躯体と製品
  6
CONTINUOUS
 62
     0
100
AcDbLine
 10
316.5
 20
411.2716498733
 11
316.5
 21
441.2716498733
  0
ARC
  5
5CF
100
AcDbEntity
  8
_0-3_躯体と製品
  6
CONTINUOUS
 62
     0
100
AcDbCircle
 10
318
 20
441.2716498733
 40
1.5
100
AcDbArc
 50
90
 51
180
  0
ARC
  5
5D0
100
AcDbEntity
  8
_0-3_躯体と製品
  6
CONTINUOUS
 62
     0
100
AcDbCircle
 10
315.5
 20
408.7716498733
 40
0.5
100
AcDbArc
 50
90
 51
180
  0
LINE
  5
5D1
100
AcDbEntity
  8
_0-3_躯体と製品
  6
CONTINUOUS
 62
     0
100
AcDbLine
 10
315
 20
408.7716498733
 11
315
 21
407.5216498733
  0
ARC
  5
5D2
100
AcDbEntity
  8
_0-3_躯体と製品
  6
CONTINUOUS
 62
     0
100
AcDbCircle
 10
314.25
 20
407.5216498733
 40
0.75
100
AcDbArc
 50
180
 51
360
  0
ARC
  5
5D3
100
AcDbEntity
  8
_0-3_躯体と製品
  6
CONTINUOUS
 62
     0
100
AcDbCircle
 10
314.5
 20
409.7716498733
 40
1
100
AcDbArc
 50
90
 51
180
  0
LINE
  5
5D4
100
AcDbEntity
  8
_0-3_躯体と製品
  6
CONTINUOUS
 62
     0
100
AcDbLine
 10
313.5
 20
409.7716498733
 11
313.5
 21
407.5216498733
  0
LINE
  5
5D5
100
AcDbEntity
  8
_0-3_躯体と製品
  6
CONTINUOUS
 62
     0
100
AcDbLine
 10
353.4105265117
 20
418.5432545053
 11
353.6198703367
 21
422.5377726443
  0
LINE
  5
5D6
100
AcDbEntity
  8
_0-3_躯体と製品
  6
CONTINUOUS
 62
     0
100
AcDbLine
 10
338.6404273154
 20
423.322811988
 11
353.6198703367
 21
422.5377726443
  0
LINE
  5
5D7
100
AcDbEntity
  8
_0-3_躯体と製品
  6
CONTINUOUS
 62
     0
100
AcDbLine
 10
503.2982589917
 20
412.4731743748
 11
500.9551769519
 21
414.8162564146
  0
LINE
  5
5D8
100
AcDbEntity
  8
_0-3_躯体と製品
  6
CONTINUOUS
 62
     0
100
AcDbLine
 10
503.3686839674
 20
413.8169629615
 11
502.4476053736
 21
414.7380415553
  0
LINE
  5
5D9
100
AcDbEntity
  8
_0-3_躯体と製品
  6
CONTINUOUS
 62
     0
100
AcDbLine
 10
503.2278340161
 20
411.1293857881
 11
499.4627485302
 21
414.894471274
  0
LINE
  5
5DA
100
AcDbEntity
  8
_0-3_躯体と製品
  6
CONTINUOUS
 62
     0
100
AcDbLine
 10
502.1973381194
 20
410.7456681223
 11
497.9703201085
 21
414.9726861333
  0
LINE
  5
5DB
100
AcDbEntity
  8
_0-3_躯体と製品
  6
CONTINUOUS
 62
     0
100
AcDbLine
 10
500.7049096977
 20
410.8238829817
 11
496.4778916868
 21
415.0509009926
  0
LINE
  5
5DC
100
AcDbEntity
  8
_0-3_躯体と製品
  6
CONTINUOUS
 62
     0
100
AcDbLine
 10
499.212481276
 20
410.902097841
 11
494.9854632651
 21
415.1291158519
  0
LINE
  5
5DD
100
AcDbEntity
  8
_0-3_躯体と製品
  6
CONTINUOUS
 62
     0
100
AcDbLine
 10
497.7200528544
 20
410.9803127003
 11
493.4930348434
 21
415.2073307112
  0
LINE
  5
5DE
100
AcDbEntity
  8
_0-3_躯体と製品
  6
CONTINUOUS
 62
     0
100
AcDbLine
 10
496.2276244327
 20
411.0585275596
 11
492.0006064217
 21
415.2855455706
  0
LINE
  5
5DF
100
AcDbEntity
  8
_0-3_躯体と製品
  6
CONTINUOUS
 62
     0
100
AcDbLine
 10
494.735196011
 20
411.1367424189
 11
490.508178
 21
415.3637604299
  0
LINE
  5
5E0
100
AcDbEntity
  8
_0-3_躯体と製品
  6
CONTINUOUS
 62
     0
100
AcDbLine
 10
493.2427675893
 20
411.2149572783
 11
489.0157495783
 21
415.4419752892
  0
LINE
  5
5E1
100
AcDbEntity
  8
_0-3_躯体と製品
  6
CONTINUOUS
 62
     0
100
AcDbLine
 10
491.7503391676
 20
411.2931721376
 11
488.3918437894
 21
414.6516675157
  0
LINE
  5
5E2
100
AcDbEntity
  8
_0-3_躯体と製品
  6
CONTINUOUS
 62
     0
100
AcDbLine
 10
490.2579107459
 20
411.3713869969
 11
488.3214188138
 21
413.307878929
  0
LINE
  5
5E3
100
AcDbEntity
  8
_0-3_躯体と製品
  6
CONTINUOUS
 62
     0
100
AcDbLine
 10
488.2255137036
 20
411.4779004125
 11
488.4348575286
 21
415.4724185515
  0
LINE
  5
5E4
100
AcDbEntity
  8
_0-3_躯体と製品
  6
CONTINUOUS
 62
     0
100
AcDbLine
 10
503.4143005499
 20
414.6873792079
 11
488.4348575286
 21
415.4724185515
  0
LINE
  5
5E5
100
AcDbEntity
  8
_0-3_躯体と製品
  6
CONTINUOUS
 62
     0
100
AcDbLine
 10
488.7654823242
 20
411.4496018562
 11
488.2509938381
 21
411.9640903423
  0
LINE
  5
5E6
100
AcDbEntity
  8
_0-3_躯体と製品
  6
CONTINUOUS
 62
     0
100
AcDbLine
 10
503.1264527905
 20
409.1949167667
 11
338.352579556
 21
417.8303495468
  0
LINE
  5
5E7
100
AcDbEntity
  8
_0-3_躯体と製品
  6
CONTINUOUS
 62
     0
100
AcDbLine
 10
503.2049567249
 20
410.6928610689
 11
338.4310834904
 21
419.3282938489
  0
LINE
  5
5E8
100
AcDbEntity
  8
_0-3_躯体と製品
  6
CONTINUOUS
 62
     0
100
AcDbLine
 10
502.0273977094
 20
388.2236965369
 11
337.2535244749
 21
396.859129317
  0
LINE
  5
5E9
100
AcDbEntity
  8
_0-3_躯体と製品
  6
CONTINUOUS
 62
     0
100
AcDbLine
 10
502.1059016438
 20
389.721640839
 11
337.3320284093
 21
398.3570736191
  0
LINE
  5
5EA
100
AcDbEntity
  8
_0-3_躯体と製品
  6
CONTINUOUS
 62
     0
100
AcDbLine
 10
502.2890774907
 20
393.2168442107
 11
337.5152042562
 21
401.8522769907
  0
LINE
  5
5EB
100
AcDbEntity
  8
_0-3_躯体と製品
  6
CONTINUOUS
 62
     0
100
AcDbLine
 10
502.3832822119
 20
395.0143773732
 11
337.6094089774
 21
403.6498101533
  0
LINE
  5
5EC
100
AcDbEntity
  8
_0-3_躯体と製品
  6
CONTINUOUS
 62
     0
100
AcDbLine
 10
503.440468528
 20
415.1866939753
 11
338.6665952935
 21
423.8221267553
  0
LINE
  5
5ED
100
AcDbEntity
  8
_0-3_躯体と製品
  6
CONTINUOUS
 62
     0
100
AcDbLine
 10
337.2011885187
 20
395.8604997822
 11
338.6665952935
 21
423.8221267553
  0
ARC
  5
5EE
100
AcDbEntity
  8
_0-3_躯体と製品
  6
CONTINUOUS
 62
     0
100
AcDbCircle
 10
512.2406856698
 20
385.9418897546
 40
0.6
100
AcDbArc
 50
167
 51
347
  0
ARC
  5
5EF
100
AcDbEntity
  8
_0-3_躯体と製品
  6
CONTINUOUS
 62
     0
100
AcDbCircle
 10
511.7520711415
 20
388.7154203441
 40
0.5
100
AcDbArc
 50
-13
 51
86.99999999999
  0
ARC
  5
5F0
100
AcDbEntity
  8
_0-3_躯体と製品
  6
CONTINUOUS
 62
     0
100
AcDbCircle
 10
513.8258254089
 20
388.8070139573
 40
0.3
100
AcDbArc
 50
86.99999999999
 51
167
  0
ARC
  5
5F1
100
AcDbEntity
  8
_0-3_躯体と製品
  6
CONTINUOUS
 62
     0
100
AcDbCircle
 10
516.5080666484
 20
340.7801541434
 40
0.6
100
AcDbArc
 50
90
 51
270
  0
LINE
  5
5F2
100
AcDbEntity
  8
_0-3_躯体と製品
  6
CONTINUOUS
 62
     0
100
AcDbLine
 10
527.6755409263
 20
333.0648414376
 11
527.6755409263
 21
329.3801541434
  0
LINE
  5
5F3
100
AcDbEntity
  8
_0-3_躯体と製品
  6
CONTINUOUS
 62
     0
100
AcDbLine
 10
530.6755409263
 20
331.8801541434
 11
530.6755409263
 21
333.3801541434
  0
LINE
  5
5F4
100
AcDbEntity
  8
_0-3_躯体と製品
  6
CONTINUOUS
 62
     0
100
AcDbLine
 10
528.1755409263
 20
329.3801541434
 11
527.6755409263
 21
329.3801541434
  0
ARC
  5
5F5
100
AcDbEntity
  8
_0-3_躯体と製品
  6
CONTINUOUS
 62
     0
100
AcDbCircle
 10
528.1755409263
 20
331.8801541434
 40
2.5
100
AcDbArc
 50
-90
 51
0
  0
LINE
  5
5F6
100
AcDbEntity
  8
_0-3_躯体と製品
  6
CONTINUOUS
 62
     0
100
AcDbLine
 10
520.9080666484
 20
341.3801541434
 11
520.9080666484
 21
342.3801541434
  0
LINE
  5
5F7
100
AcDbEntity
  8
_0-3_躯体と製品
  6
CONTINUOUS
 62
     0
100
AcDbLine
 10
520.9080666484
 20
342.3801541434
 11
518.9080666484
 21
341.3801541434
  0
LINE
  5
5F8
100
AcDbEntity
  8
_0-3_躯体と製品
  6
CONTINUOUS
 62
     0
100
AcDbLine
 10
516.5080666484
 20
341.3801541434
 11
518.9080666484
 21
341.3801541434
  0
ARC
  5
5F9
100
AcDbEntity
  8
_0-3_躯体と製品
  6
CONTINUOUS
 62
     0
100
AcDbCircle
 10
525.2906180701
 20
341.8801541434
 40
0.5
100
AcDbArc
 50
-90
 51
12
  0
LINE
  5
5FA
100
AcDbEntity
  8
_0-3_躯体と製品
  6
CONTINUOUS
 62
     0
100
AcDbLine
 10
525.7582425058
 20
340.1801541434
 11
516.5080666484
 21
340.1801541434
  0
LINE
  5
5FB
100
AcDbEntity
  8
_0-3_躯体と製品
  6
CONTINUOUS
 62
     0
100
AcDbLine
 10
526.2473163061
 20
339.7841099888
 11
527.6755409263
 21
333.0648414376
  0
ARC
  5
5FC
100
AcDbEntity
  8
_0-3_躯体と製品
  6
CONTINUOUS
 62
     0
100
AcDbCircle
 10
525.7582425058
 20
339.6801541434
 40
0.5
100
AcDbArc
 50
12
 51
90
  0
ARC
  5
5FD
100
AcDbEntity
  8
_0-3_躯体と製品
  6
CONTINUOUS
 62
     0
100
AcDbCircle
 10
502.5267124768
 20
388.1975285588
 40
0.5
100
AcDbArc
 50
177
 51
267
  0
LINE
  5
5FE
100
AcDbEntity
  8
_0-3_躯体と製品
  6
CONTINUOUS
 62
     0
100
AcDbLine
 10
502.9998592661
 20
387.6720458133
 11
502.5005444987
 21
387.6982137914
  0
ARC
  5
5FF
100
AcDbEntity
  8
_0-3_躯体と製品
  6
CONTINUOUS
 62
     0
100
AcDbCircle
 10
503.0260272442
 20
388.1713605806
 40
0.5
100
AcDbArc
 50
-93.00000000001
 51
-2.999999999999
  0
ARC
  5
600
100
AcDbEntity
  8
_0-3_躯体と製品
  6
CONTINUOUS
 62
     0
100
AcDbCircle
 10
514.9665366716
 20
388.046271171
 40
1
100
AcDbArc
 50
12
 51
86.99999999999
  0
ARC
  5
601
100
AcDbEntity
  8
_0-3_躯体と製品
  6
CONTINUOUS
 62
     0
100
AcDbCircle
 10
515.7851480209
 20
389.0047419141
 40
3
100
AcDbArc
 50
12
 51
86.99999999999
  0
ARC
  5
602
100
AcDbEntity
  8
_0-3_躯体と製品
  6
CONTINUOUS
 62
     0
100
AcDbCircle
 10
502.8930641705
 20
395.187935302
 40
0.5
100
AcDbArc
 50
86.99999999999
 51
177
  0
LINE
  5
603
100
AcDbEntity
  8
_0-3_躯体と製品
  6
CONTINUOUS
 62
     0
100
AcDbLine
 10
503.418546916
 20
395.6610820913
 11
502.9192321486
 21
395.6872500694
  0
ARC
  5
604
100
AcDbEntity
  8
_0-3_躯体と製品
  6
CONTINUOUS
 62
     0
100
AcDbCircle
 10
503.3923789379
 20
395.1617673239
 40
0.5
100
AcDbArc
 50
-2.999999999999
 51
86.99999999999
  0
LINE
  5
605
100
AcDbEntity
  8
_0-3_躯体と製品
  6
CONTINUOUS
 62
     0
100
AcDbLine
 10
518.7195908231
 20
389.6284769866
 11
530.6755409263
 21
333.3801541434
  0
LINE
  5
606
100
AcDbEntity
  8
_0-3_躯体と製品
  6
CONTINUOUS
 62
     0
100
AcDbLine
 10
515.9446842723
 20
388.2541828619
 11
525.7796918705
 21
341.9841099888
  0
LINE
  5
607
100
AcDbEntity
  8
_0-3_躯体と製品
  6
CONTINUOUS
 62
     0
100
AcDbLine
 10
525.2906180701
 20
341.3801541434
 11
520.9080666484
 21
341.3801541434
  0
LINE
  5
608
100
AcDbEntity
  8
_0-3_躯体と製品
  6
CONTINUOUS
 62
     0
100
AcDbLine
 10
503.7870217928
 20
393.1383402763
 11
503.8916937053
 21
395.1355993458
  0
LINE
  5
609
100
AcDbEntity
  8
_0-3_躯体と製品
  6
CONTINUOUS
 62
     0
100
AcDbLine
 10
504.260168582
 20
392.6128575308
 11
515.9421558896
 21
392.0006305184
  0
ARC
  5
60A
100
AcDbEntity
  8
_0-3_躯体と製品
  6
CONTINUOUS
 62
     0
100
AcDbCircle
 10
504.2863365602
 20
393.1121722982
 40
0.5
100
AcDbArc
 50
177
 51
267
  0
LINE
  5
60B
100
AcDbEntity
  8
_0-3_躯体と製品
  6
CONTINUOUS
 62
     0
100
AcDbLine
 10
503.5776779678
 20
389.1438221373
 11
503.5253420116
 21
388.1451926025
  0
ARC
  5
60C
100
AcDbEntity
  8
_0-3_躯体と製品
  6
CONTINUOUS
 62
     0
100
AcDbCircle
 10
504.0769927352
 20
389.1176541592
 40
0.5
100
AcDbArc
 50
86.99999999999
 51
177
  0
LINE
  5
60D
100
AcDbEntity
  8
_0-3_躯体と製品
  6
CONTINUOUS
 62
     0
100
AcDbLine
 10
513.5335143895
 20
388.8744992736
 11
512.8253077087
 21
385.806919122
  0
LINE
  5
60E
100
AcDbEntity
  8
_0-3_躯体と製品
  6
CONTINUOUS
 62
     0
100
AcDbLine
 10
515.0188726278
 20
389.0449007058
 11
513.8415261958
 21
389.1066028177
  0
LINE
  5
60F
100
AcDbEntity
  8
_0-3_躯体と製品
  6
CONTINUOUS
 62
     0
100
AcDbLine
 10
504.1031607133
 20
389.6169689265
 11
511.7782391196
 21
389.2147351114
  0
LINE
  5
610
100
AcDbEntity
  8
_0-3_躯体と製品
  6
CONTINUOUS
 62
     0
100
AcDbLine
 10
512.2392561739
 20
388.6029448169
 11
511.656063631
 21
386.0768603872
  0
LINE
  5
611
100
AcDbEntity
  8
_0-3_躯体と製品
  6
CONTINUOUS
 62
     0
100
AcDbLine
 10
473.801967772
 20
394.2091041962
 11
502.2629095125
 21
392.7175294433
  0
ARC
  5
612
100
AcDbEntity
  8
_0-3_躯体と製品
  6
CONTINUOUS
 62
     0
100
AcDbCircle
 10
473.7234638377
 20
392.7111598941
 40
1.5
100
AcDbArc
 50
86.99999999999
 51
267
  0
LINE
  5
613
100
AcDbEntity
  8
_0-3_躯体と製品
  6
CONTINUOUS
 62
     0
100
AcDbLine
 10
473.6449599033
 20
391.2132155919
 11
477.1401632749
 21
391.0300397451
  0
LINE
  5
614
100
AcDbEntity
  8
_0-3_躯体と製品
  6
CONTINUOUS
 62
     0
100
AcDbLine
 10
477.1924992312
 20
392.0286692798
 11
477.1401632749
 21
391.0300397451
  0
LINE
  5
615
100
AcDbEntity
  8
_0-3_躯体と製品
  6
CONTINUOUS
 62
     0
100
AcDbLine
 10
477.1924992312
 20
392.0286692798
 11
497.1650899263
 21
390.981950155
  0
LINE
  5
616
100
AcDbEntity
  8
_0-3_躯体と製品
  6
CONTINUOUS
 62
     0
100
AcDbLine
 10
497.1650899263
 20
390.981950155
 11
497.11275397
 21
389.9833206202
  0
LINE
  5
617
100
AcDbEntity
  8
_0-3_躯体と製品
  6
CONTINUOUS
 62
     0
100
AcDbLine
 10
497.11275397
 20
389.9833206202
 11
502.1059016438
 21
389.721640839
  0
LINE
  5
618
100
AcDbEntity
  8
_0-3_躯体と製品
  6
CONTINUOUS
 62
     0
100
AcDbLine
 10
489.0009941273
 20
415.9434347626
 11
488.4865056412
 21
416.4579232487
  0
LINE
  5
619
100
AcDbEntity
  8
_0-3_躯体と製品
  6
CONTINUOUS
 62
     0
100
AcDbLine
 10
397.4329763414
 20
398.7121196162
 11
397.5271810627
 21
400.5096527787
  0
LINE
  5
61A
100
AcDbEntity
  8
_0-3_躯体と製品
  6
CONTINUOUS
 62
     0
100
AcDbLine
 10
467.3370437743
 20
395.0486026792
 11
467.4312484955
 21
396.8461358417
  0
LINE
  5
61B
100
AcDbEntity
  8
_0-3_躯体と製品
  6
CONTINUOUS
 62
     0
100
AcDbLine
 10
323.4476640438
 20
428.8361228248
 11
529.6570078687
 21
418.0291490475
  0
LINE
  5
61C
100
AcDbEntity
  8
_0-3_躯体と製品
  6
CONTINUOUS
 62
     0
100
AcDbLine
 10
488.3825215723
 20
414.4737890168
 11
353.5675343805
 21
421.5391431096
  0
LINE
  5
61D
100
AcDbEntity
  8
_0-3_躯体と製品
  6
CONTINUOUS
 62
     0
100
AcDbLine
 10
501.9750617532
 20
387.2250670021
 11
503.440468528
 21
415.1866939753
  0
LINE
  5
61E
100
AcDbEntity
  8
_0-3_躯体と製品
  6
CONTINUOUS
 62
     0
100
AcDbLine
 10
315.5
 20
430.597477429
 11
315.5
 21
442.7505837288
  0
LINE
  5
61F
100
AcDbEntity
  8
_0-3_躯体と製品
  6
CONTINUOUS
 62
     0
100
AcDbLine
 10
315.5
 20
442.7505837288
 11
311
 21
442.7505837288
  0
LINE
  5
620
100
AcDbEntity
  8
_0-3_躯体と製品
  6
CONTINUOUS
 62
     0
100
AcDbLine
 10
311
 20
430.597477429
 11
311
 21
442.7505837288
  0
ARC
  5
621
100
AcDbEntity
  8
_0-3_躯体と製品
  6
CONTINUOUS
 62
     0
100
AcDbCircle
 10
318.5
 20
430.597477429
 40
3
100
AcDbArc
 50
180
 51
267
  0
ARC
  5
622
100
AcDbEntity
  8
_0-3_躯体と製品
  6
CONTINUOUS
 62
     0
100
AcDbCircle
 10
318.5
 20
430.597477429
 40
7.5
100
AcDbArc
 50
180
 51
267
  0
ARC
  5
623
100
AcDbEntity
  8
_0-3_躯体と製品
  6
CONTINUOUS
 62
     0
100
AcDbCircle
 10
509.1631796343
 20
410.0908339603
 40
7.5
100
AcDbArc
 50
10.1246716554
 51
86.99999999999
  0
LINE
  5
624
100
AcDbEntity
  8
_0-3_躯体と製品
  6
CONTINUOUS
 62
     0
100
AcDbLine
 10
530.5
 20
333.2690278722
 11
526.0700759103
 21
332.4779699987
  0
LINE
  5
625
100
AcDbEntity
  8
_0-3_躯体と製品
  6
CONTINUOUS
 62
     0
100
AcDbLine
 10
512.1164623608
 20
410.6182058758
 11
526.0700759102
 21
332.477969999
  0
ARC
  5
626
100
AcDbEntity
  8
_0-3_躯体と製品
  6
CONTINUOUS
 62
     0
100
AcDbCircle
 10
509.1631796343
 20
410.0908339603
 40
3
100
AcDbArc
 50
10.1246716554
 51
86.99999999999
  0
LINE
  5
627
100
AcDbEntity
  8
_0-3_躯体と製品
  6
CONTINUOUS
 62
     0
100
AcDbLine
 10
516.5463864506
 20
411.4092637489
 11
530.5
 21
333.2690278722
  0
LINE
  5
628
100
AcDbEntity
  8
_0-3_躯体と製品
  6
CONTINUOUS
 62
     0
100
AcDbLine
 10
381.5
 20
369
 11
381.5
 21
249
  0
LINE
  5
629
100
AcDbEntity
  8
_0-3_躯体と製品
  6
CONTINUOUS
 62
     0
100
AcDbLine
 10
331.5
 20
369
 11
331.5
 21
249
  0
ARC
  5
62A
100
AcDbEntity
  8
_0-3_躯体と製品
  6
CONTINUOUS
 62
     0
100
AcDbCircle
 10
356.514262043
 20
333.9515579694
 40
20.95155796938
100
AcDbArc
 50
-175
 51
-4.999999999999
  0
LINE
  5
62B
100
AcDbEntity
  8
_0-3_躯体と製品
  6
CONTINUOUS
 62
     0
100
AcDbLine
 10
380.5323650758
 20
368.0875636563
 11
377.3860930089
 21
332.1255093728
  0
LINE
  5
62C
100
AcDbEntity
  8
_0-3_躯体と製品
  6
CONTINUOUS
 62
     0
100
AcDbLine
 10
379.5361703777
 20
368.174719399
 11
376.3898983108
 21
332.2126651156
  0
ARC
  5
62D
100
AcDbEntity
  8
_0-3_躯体と製品
  6
CONTINUOUS
 62
     0
100
AcDbCircle
 10
356.514262043
 20
333.9515579694
 40
19.95155796938
100
AcDbArc
 50
-175
 51
-4.999999999999
  0
LINE
  5
62E
100
AcDbEntity
  8
_0-3_躯体と製品
  6
CONTINUOUS
 62
     0
100
AcDbLine
 10
333.4923893962
 20
368.1743114855
 11
336.6386257753
 21
332.2126651156
  0
LINE
  5
62F
100
AcDbEntity
  8
_0-3_躯体と製品
  6
CONTINUOUS
 62
     0
100
AcDbLine
 10
332.4961946981
 20
368.0871557427
 11
335.6424310772
 21
332.1255093728
  0
ARC
  5
630
100
AcDbEntity
  8
_0-3_躯体と製品
  6
CONTINUOUS
 62
     0
100
AcDbCircle
 10
331.5
 20
368
 40
1
100
AcDbArc
 50
5
 51
90
  0
CIRCLE
  5
631
100
AcDbEntity
  8
_0-3_躯体と製品
  6
CONTINUOUS
 62
     0
100
AcDbCircle
 10
449.0523359562
 20
389.9986295348
 40
1.4
  0
CIRCLE
  5
632
100
AcDbEntity
  8
_0-3_躯体と製品
  6
CONTINUOUS
 62
     0
100
AcDbCircle
 10
431.5
 20
388.9235144279
 40
1.4
  0
LINE
  5
633
100
AcDbEntity
  8
_0-3_躯体と製品
  6
CONTINUOUS
 62
     0
100
AcDbLine
 10
428.6083782272
 20
391.0700519591
 11
428.5041113957
 21
389.0805222966
  0
LINE
  5
634
100
AcDbEntity
  8
_0-3_躯体と製品
  6
CONTINUOUS
 62
     0
100
AcDbLine
 10
429.1760991177
 20
391.040298968
 11
429.0718322862
 21
389.0507693055
  0
LINE
  5
635
100
AcDbEntity
  8
_0-3_躯体と製品
  6
CONTINUOUS
 62
     0
100
AcDbLine
 10
434.0324345452
 20
390.7857892128
 11
433.9281677138
 21
388.7962595503
  0
LINE
  5
636
100
AcDbEntity
  8
_0-3_躯体と製品
  6
CONTINUOUS
 62
     0
100
AcDbLine
 10
434.6001554357
 20
390.7560362216
 11
434.4958886043
 21
388.7665065592
  0
LINE
  5
637
100
AcDbEntity
  8
_0-3_躯体と製品
  6
CONTINUOUS
 62
     0
100
AcDbLine
 10
434.3074791618
 20
385.171440234
 11
434.0437457169
 21
380.1391063229
  0
LINE
  5
638
100
AcDbEntity
  8
_0-3_躯体と製品
  6
CONTINUOUS
 62
     0
100
AcDbLine
 10
428.3157019533
 20
385.4854559715
 11
428.0519685084
 21
380.4531220603
  0
LINE
  5
639
100
AcDbEntity
  8
_0-3_躯体と製品
  6
CONTINUOUS
 62
     0
100
AcDbLine
 10
434.0437457169
 20
380.1391063229
 11
428.0519685084
 21
380.4531220603
  0
ARC
  5
63A
100
AcDbEntity
  8
_0-3_躯体と製品
  6
CONTINUOUS
 62
     0
100
AcDbCircle
 10
432.7242563474
 20
412.2837171327
 40
6.3
100
AcDbArc
 50
47.696869
 51
126.309371
  0
ARC
  5
63B
100
AcDbEntity
  8
_0-3_躯体と製品
  6
CONTINUOUS
 62
     0
100
AcDbCircle
 10
434.6479679001
 20
414.386557719
 40
3.45
100
AcDbArc
 50
0.3127429999989
 51
47.820489
  0
ARC
  5
63C
100
AcDbEntity
  8
_0-3_躯体と製品
  6
CONTINUOUS
 62
     0
100
AcDbCircle
 10
431.0366318948
 20
414.580328999
 40
3.45
100
AcDbArc
 50
126.309124
 51
173.762163
  0
LINE
  5
63D
100
AcDbEntity
  8
_0-3_躯体と製品
  6
CONTINUOUS
 62
     0
100
AcDbLine
 10
433.7610019407
 20
417.7355095528
 11
432.2630576386
 21
417.8140134871
  0
ARC
  5
63E
100
AcDbEntity
  8
_0-3_躯体と製品
  6
CONTINUOUS
 62
     0
100
AcDbCircle
 10
434.3622335862
 20
417.7432991951
 40
0.6
100
AcDbArc
 50
73.299767
 51
177
  0
ARC
  5
63F
100
AcDbEntity
  8
_0-3_躯体と製品
  6
CONTINUOUS
 62
     0
100
AcDbCircle
 10
431.6659338423
 20
417.884606277
 40
0.6
100
AcDbArc
 50
-3
 51
100.700233
  0
LINE
  5
640
100
AcDbEntity
  8
_0-3_躯体と製品
  6
CONTINUOUS
 62
     0
100
AcDbLine
 10
430.4216948763
 20
414.8076818951
 11
429.1760991177
 21
391.040298968
  0
LINE
  5
641
100
AcDbEntity
  8
_0-3_躯体と製品
  6
CONTINUOUS
 62
     0
100
AcDbLine
 10
429.8539739857
 20
414.8374348863
 11
428.6083782272
 21
391.0700519591
  0
LINE
  5
642
100
AcDbEntity
  8
_0-3_躯体と製品
  6
CONTINUOUS
 62
     0
100
AcDbLine
 10
435.8457511943
 20
414.5234191488
 11
434.6001554357
 21
390.7560362216
  0
LINE
  5
643
100
AcDbEntity
  8
_0-3_躯体と製品
  6
CONTINUOUS
 62
     0
100
AcDbLine
 10
435.2780303038
 20
414.5531721399
 11
434.0324345452
 21
390.7857892128
  0
LINE
  5
644
100
AcDbEntity
  8
_0-3_躯体と製品
  6
CONTINUOUS
 62
     0
100
AcDbLine
 10
420.7947533633
 20
414.6833805926
 11
407.8648022861
 21
401.1183277333
  0
LINE
  5
645
100
AcDbEntity
  8
_0-3_躯体と製品
  6
CONTINUOUS
 62
     0
100
AcDbLine
 10
404.517400953
 20
403.5737811593
 11
406.3489499994
 21
401.1977701672
  0
ARC
  5
646
100
AcDbEntity
  8
_0-3_躯体と製品
  6
CONTINUOUS
 62
     0
100
AcDbCircle
 10
443.4136348158
 20
412.3243329515
 40
1.8
100
AcDbArc
 50
37.62684736228
 51
86.99999999999
  0
LINE
  5
647
100
AcDbEntity
  8
_0-3_躯体と製品
  6
CONTINUOUS
 62
     0
100
AcDbLine
 10
444.2056384735
 20
412.9348492954
 11
455.646823811
 21
398.0925592799
  0
LINE
  5
648
100
AcDbEntity
  8
_0-3_躯体と製品
  6
CONTINUOUS
 62
     0
100
AcDbLine
 10
444.8392413997
 20
413.4232623706
 11
456.2804267371
 21
398.5809723551
  0
ARC
  5
649
100
AcDbEntity
  8
_0-3_躯体と製品
  6
CONTINUOUS
 62
     0
100
AcDbCircle
 10
457.0724303802
 20
399.1914887179
 40
1.8
100
AcDbArc
 50
-142.3731526377
 51
-43.62684812372
  0
ARC
  5
64A
100
AcDbEntity
  8
_0-3_躯体と製品
  6
CONTINUOUS
 62
     0
100
AcDbCircle
 10
457.0724303802
 20
399.1914887179
 40
1
100
AcDbArc
 50
-142.3731526377
 51
-43.62684873287
  0
LINE
  5
64B
100
AcDbEntity
  8
_0-3_躯体と製品
  6
CONTINUOUS
 62
     0
100
AcDbLine
 10
460.4452343289
 20
400.1211088145
 11
458.3753579221
 21
397.9495628665
  0
LINE
  5
64C
100
AcDbEntity
  8
_0-3_躯体と製品
  6
CONTINUOUS
 62
     0
100
AcDbLine
 10
460.4452343289
 20
400.1211088145
 11
459.8661554141
 21
400.6730758519
  0
LINE
  5
64D
100
AcDbEntity
  8
_0-3_躯体と製品
  6
CONTINUOUS
 62
     0
100
AcDbLine
 10
459.8661554141
 20
400.6730758519
 11
457.7962790073
 21
398.5015299039
  0
ARC
  5
64E
100
AcDbEntity
  8
_0-3_躯体と製品
  6
CONTINUOUS
 62
     0
100
AcDbCircle
 10
407.1409536425
 20
401.8082865301
 40
1.8
100
AcDbArc
 50
-142.3731518763
 51
-43.62684736228
  0
ARC
  5
64F
100
AcDbEntity
  8
_0-3_躯体と製品
  6
CONTINUOUS
 62
     0
100
AcDbCircle
 10
407.1409536425
 20
401.8082865301
 40
1
100
AcDbArc
 50
-142.3731512671
 51
-43.62684736228
  0
LINE
  5
650
100
AcDbEntity
  8
_0-3_躯体と製品
  6
CONTINUOUS
 62
     0
100
AcDbLine
 10
403.8837980268
 20
403.0853680842
 11
405.7153470732
 21
400.7093570921
  0
LINE
  5
651
100
AcDbEntity
  8
_0-3_躯体と製品
  6
CONTINUOUS
 62
     0
100
AcDbLine
 10
403.8837980268
 20
403.0853680842
 11
404.517400953
 21
403.5737811593
  0
ARC
  5
652
100
AcDbEntity
  8
_0-3_躯体と製品
  6
CONTINUOUS
 62
     0
100
AcDbCircle
 10
422.0976809217
 20
413.4414547584
 40
1
100
AcDbArc
 50
86.99999999999
 51
136.3731526377
  0
LINE
  5
653
100
AcDbEntity
  8
_0-3_躯体と製品
  6
CONTINUOUS
 62
     0
100
AcDbLine
 10
421.3738322782
 20
414.1314135552
 11
408.4438811844
 21
400.5663606786
  0
LINE
  5
654
100
AcDbEntity
  8
_0-3_躯体と製品
  6
CONTINUOUS
 62
     0
100
AcDbLine
 10
422.150016878
 20
414.4400842932
 11
443.4659707721
 21
413.3229624863
  0
ARC
  5
655
100
AcDbEntity
  8
_0-3_躯体と製品
  6
CONTINUOUS
 62
     0
100
AcDbCircle
 10
422.0976809217
 20
413.4414547584
 40
1.8
100
AcDbArc
 50
86.99999999999
 51
136.3731526377
  0
LINE
  5
656
100
AcDbEntity
  8
_0-3_躯体と製品
  6
CONTINUOUS
 62
     0
100
AcDbLine
 10
422.191885643
 20
415.238987921
 11
443.5078395371
 21
414.1218661141
  0
ARC
  5
657
100
AcDbEntity
  8
_0-3_躯体と製品
  6
CONTINUOUS
 62
     0
100
AcDbCircle
 10
443.4136348158
 20
412.3243329515
 40
1
100
AcDbArc
 50
37.62684736228
 51
86.99999999999
  0
LINE
  5
658
100
AcDbEntity
  8
_0-3_躯体と製品
  6
CONTINUOUS
 62
     0
100
AcDbLine
 10
413.5
 20
371
 11
415
 21
371
  0
LINE
  5
659
100
AcDbEntity
  8
_0-3_躯体と製品
  6
CONTINUOUS
 62
     0
100
AcDbLine
 10
415
 20
371
 11
415
 21
371.5
  0
LINE
  5
65A
100
AcDbEntity
  8
_0-3_躯体と製品
  6
CONTINUOUS
 62
     0
100
AcDbLine
 10
415
 20
371.5
 11
426.5
 21
371.5
  0
LINE
  5
65B
100
AcDbEntity
  8
_0-3_躯体と製品
  6
CONTINUOUS
 62
     0
100
AcDbLine
 10
426.5
 20
371.5
 11
426.5
 21
371
  0
ARC
  5
65C
100
AcDbEntity
  8
_0-3_躯体と製品
  6
CONTINUOUS
 62
     0
100
AcDbCircle
 10
418.25
 20
380.25
 40
0.75
100
AcDbArc
 50
-90
 51
90
  0
ARC
  5
65D
100
AcDbEntity
  8
_0-3_躯体と製品
  6
CONTINUOUS
 62
     0
100
AcDbCircle
 10
417.25
 20
376.25
 40
0.75
100
AcDbArc
 50
-90
 51
90
  0
ARC
  5
65E
100
AcDbEntity
  8
_0-3_躯体と製品
  6
CONTINUOUS
 62
     0
100
AcDbCircle
 10
415.3
 20
379.2
 40
0.3
100
AcDbArc
 50
90
 51
180
  0
LINE
  5
65F
100
AcDbEntity
  8
_0-3_躯体と製品
  6
CONTINUOUS
 62
     0
100
AcDbLine
 10
415.3
 20
379.5
 11
418.25
 21
379.5
  0
LINE
  5
660
100
AcDbEntity
  8
_0-3_躯体と製品
  6
CONTINUOUS
 62
     0
100
AcDbLine
 10
415.3
 20
377
 11
417.25
 21
377
  0
ARC
  5
661
100
AcDbEntity
  8
_0-3_躯体と製品
  6
CONTINUOUS
 62
     0
100
AcDbCircle
 10
415.3
 20
377.3
 40
0.3
100
AcDbArc
 50
180
 51
270
  0
LINE
  5
662
100
AcDbEntity
  8
_0-3_躯体と製品
  6
CONTINUOUS
 62
     0
100
AcDbLine
 10
415
 20
377.3
 11
415
 21
379.2
  0
ARC
  5
663
100
AcDbEntity
  8
_0-3_躯体と製品
  6
CONTINUOUS
 62
     0
100
AcDbCircle
 10
415.3
 20
375.2
 40
0.3
100
AcDbArc
 50
90
 51
180
  0
LINE
  5
664
100
AcDbEntity
  8
_0-3_躯体と製品
  6
CONTINUOUS
 62
     0
100
AcDbLine
 10
415.3
 20
375.5
 11
417.25
 21
375.5
  0
ARC
  5
665
100
AcDbEntity
  8
_0-3_躯体と製品
  6
CONTINUOUS
 62
     0
100
AcDbCircle
 10
415.3
 20
373.8
 40
0.3
100
AcDbArc
 50
180
 51
270
  0
LINE
  5
666
100
AcDbEntity
  8
_0-3_躯体と製品
  6
CONTINUOUS
 62
     0
100
AcDbLine
 10
415
 20
373.8
 11
415
 21
375.2
  0
LINE
  5
667
100
AcDbEntity
  8
_0-3_躯体と製品
  6
CONTINUOUS
 62
     0
100
AcDbLine
 10
414
 20
381
 11
418.25
 21
381
  0
ARC
  5
668
100
AcDbEntity
  8
_0-3_躯体と製品
  6
CONTINUOUS
 62
     0
100
AcDbCircle
 10
414
 20
380.5
 40
0.5
100
AcDbArc
 50
90
 51
180
  0
LINE
  5
669
100
AcDbEntity
  8
_0-3_躯体と製品
  6
CONTINUOUS
 62
     0
100
AcDbLine
 10
413.5
 20
380.5
 11
413.5
 21
371
  0
LINE
  5
66A
100
AcDbEntity
  8
_0-3_躯体と製品
  6
CONTINUOUS
 62
     0
100
AcDbLine
 10
426.5
 20
371
 11
436.5
 21
371
  0
LINE
  5
66B
100
AcDbEntity
  8
_0-3_躯体と製品
  6
CONTINUOUS
 62
     0
100
AcDbLine
 10
432
 20
373.5
 11
447.7
 21
373.5
  0
LINE
  5
66C
100
AcDbEntity
  8
_0-3_躯体と製品
  6
CONTINUOUS
 62
     0
100
AcDbLine
 10
415.3
 20
373.5
 11
431
 21
373.5
  0
LINE
  5
66D
100
AcDbEntity
  8
_0-3_躯体と製品
  6
CONTINUOUS
 62
     0
100
AcDbLine
 10
436.5
 20
371
 11
436.5
 21
371.5
  0
LINE
  5
66E
100
AcDbEntity
  8
_0-3_躯体と製品
  6
CONTINUOUS
 62
     0
100
AcDbLine
 10
436.5
 20
371.5
 11
448
 21
371.5
  0
LINE
  5
66F
100
AcDbEntity
  8
_0-3_躯体と製品
  6
CONTINUOUS
 62
     0
100
AcDbLine
 10
448
 20
371.5
 11
448
 21
371
  0
LINE
  5
670
100
AcDbEntity
  8
_0-3_躯体と製品
  6
CONTINUOUS
 62
     0
100
AcDbLine
 10
448
 20
371
 11
450
 21
371
  0
ARC
  5
671
100
AcDbEntity
  8
_0-3_躯体と製品
  6
CONTINUOUS
 62
     0
100
AcDbCircle
 10
449
 20
389
 40
1
100
AcDbArc
 50
0
 51
180
  0
LINE
  5
672
100
AcDbEntity
  8
_0-3_躯体と製品
  6
CONTINUOUS
 62
     0
100
AcDbLine
 10
431.5
 20
373
 11
432
 21
373.5
  0
ARC
  5
673
100
AcDbEntity
  8
_0-3_躯体と製品
  6
CONTINUOUS
 62
     0
100
AcDbCircle
 10
447.7
 20
373.8
 40
0.3
100
AcDbArc
 50
-90
 51
0
  0
LINE
  5
674
100
AcDbEntity
  8
_0-3_躯体と製品
  6
CONTINUOUS
 62
     0
100
AcDbLine
 10
447.5
 20
381
 11
444.75
 21
381
  0
ARC
  5
675
100
AcDbEntity
  8
_0-3_躯体と製品
  6
CONTINUOUS
 62
     0
100
AcDbCircle
 10
447.5
 20
381.5
 40
0.5
100
AcDbArc
 50
-90
 51
0
  0
LINE
  5
676
100
AcDbEntity
  8
_0-3_躯体と製品
  6
CONTINUOUS
 62
     0
100
AcDbLine
 10
448
 20
381.5
 11
448
 21
389
  0
ARC
  5
677
100
AcDbEntity
  8
_0-3_躯体と製品
  6
CONTINUOUS
 62
     0
100
AcDbCircle
 10
444.75
 20
380.25
 40
0.75
100
AcDbArc
 50
90
 51
270
  0
ARC
  5
678
100
AcDbEntity
  8
_0-3_躯体と製品
  6
CONTINUOUS
 62
     0
100
AcDbCircle
 10
445.75
 20
376.25
 40
0.75
100
AcDbArc
 50
90
 51
270
  0
LINE
  5
679
100
AcDbEntity
  8
_0-3_躯体と製品
  6
CONTINUOUS
 62
     0
100
AcDbLine
 10
447.7
 20
375.5
 11
445.75
 21
375.5
  0
ARC
  5
67A
100
AcDbEntity
  8
_0-3_躯体と製品
  6
CONTINUOUS
 62
     0
100
AcDbCircle
 10
447.7
 20
375.2
 40
0.3
100
AcDbArc
 50
0
 51
90
  0
LINE
  5
67B
100
AcDbEntity
  8
_0-3_躯体と製品
  6
CONTINUOUS
 62
     0
100
AcDbLine
 10
448
 20
375.2
 11
448
 21
373.8
  0
LINE
  5
67C
100
AcDbEntity
  8
_0-3_躯体と製品
  6
CONTINUOUS
 62
     0
100
AcDbLine
 10
447.7
 20
377
 11
445.75
 21
377
  0
ARC
  5
67D
100
AcDbEntity
  8
_0-3_躯体と製品
  6
CONTINUOUS
 62
     0
100
AcDbCircle
 10
447.7
 20
377.3
 40
0.3
100
AcDbArc
 50
-90
 51
0
  0
LINE
  5
67E
100
AcDbEntity
  8
_0-3_躯体と製品
  6
CONTINUOUS
 62
     0
100
AcDbLine
 10
448
 20
379.2
 11
448
 21
377.3
  0
ARC
  5
67F
100
AcDbEntity
  8
_0-3_躯体と製品
  6
CONTINUOUS
 62
     0
100
AcDbCircle
 10
447.7
 20
379.2
 40
0.3
100
AcDbArc
 50
0
 51
90
  0
LINE
  5
680
100
AcDbEntity
  8
_0-3_躯体と製品
  6
CONTINUOUS
 62
     0
100
AcDbLine
 10
447.7
 20
379.5
 11
444.75
 21
379.5
  0
LINE
  5
681
100
AcDbEntity
  8
_0-3_躯体と製品
  6
CONTINUOUS
 62
     0
100
AcDbLine
 10
431.5
 20
373
 11
431
 21
373.5
  0
ARC
  5
682
100
AcDbEntity
  8
_0-3_躯体と製品
  6
CONTINUOUS
 62
     0
100
AcDbCircle
 10
428
 20
330.5
 40
1
100
AcDbArc
 50
180
 51
270
  0
LINE
  5
683
100
AcDbEntity
  8
_0-3_躯体と製品
  6
CONTINUOUS
 62
     0
100
AcDbLine
 10
424.87497
 20
331.738004
 11
429.060403
 21
331
  0
LINE
  5
684
100
AcDbEntity
  8
_0-3_躯体と製品
  6
CONTINUOUS
 62
     0
100
AcDbLine
 10
427.45
 20
361.7
 11
435.55
 21
361.7
  0
LINE
  5
685
100
AcDbEntity
  8
_0-3_躯体と製品
  6
CONTINUOUS
 62
     0
100
AcDbLine
 10
426.75
 20
361
 11
436.25
 21
361
  0
LINE
  5
686
100
AcDbEntity
  8
_0-3_躯体と製品
  6
CONTINUOUS
 62
     0
100
AcDbLine
 10
438.12503
 20
331.738004
 11
436.25
 21
342.371826
  0
LINE
  5
687
100
AcDbEntity
  8
_0-3_躯体と製品
  6
CONTINUOUS
 62
     0
100
AcDbLine
 10
432
 20
342
 11
433.939597
 21
331
  0
LINE
  5
688
100
AcDbEntity
  8
_0-3_躯体と製品
  6
CONTINUOUS
 62
     0
100
AcDbLine
 10
431
 20
342
 11
429.060403
 21
331
  0
LINE
  5
689
100
AcDbEntity
  8
_0-3_躯体と製品
  6
CONTINUOUS
 62
     0
100
AcDbLine
 10
438.12503
 20
331.738004
 11
433.939597
 21
331
  0
LINE
  5
68A
100
AcDbEntity
  8
_0-3_躯体と製品
  6
CONTINUOUS
 62
     0
100
AcDbLine
 10
436
 20
330.5
 11
436
 21
331.363304
  0
ARC
  5
68B
100
AcDbEntity
  8
_0-3_躯体と製品
  6
CONTINUOUS
 62
     0
100
AcDbCircle
 10
435
 20
330.5
 40
1
100
AcDbArc
 50
-90
 51
0
  0
LINE
  5
68C
100
AcDbEntity
  8
_0-3_躯体と製品
  6
CONTINUOUS
 62
     0
100
AcDbLine
 10
435
 20
329.5
 11
428
 21
329.5
  0
LINE
  5
68D
100
AcDbEntity
  8
_0-3_躯体と製品
  6
CONTINUOUS
 62
     0
100
AcDbLine
 10
436.25
 20
342.371826
 11
436.25
 21
361
  0
LINE
  5
68E
100
AcDbEntity
  8
_0-3_躯体と製品
  6
CONTINUOUS
 62
     0
100
AcDbLine
 10
436.25
 20
361
 11
435.55
 21
361.7
  0
LINE
  5
68F
100
AcDbEntity
  8
_0-3_躯体と製品
  6
CONTINUOUS
 62
     0
100
AcDbLine
 10
431
 20
342
 11
432
 21
342
  0
LINE
  5
690
100
AcDbEntity
  8
_0-3_躯体と製品
  6
CONTINUOUS
 62
     0
100
AcDbLine
 10
424.87497
 20
331.738004
 11
426.75
 21
342.371826
  0
LINE
  5
691
100
AcDbEntity
  8
_0-3_躯体と製品
  6
CONTINUOUS
 62
     0
100
AcDbLine
 10
427
 20
330.5
 11
427
 21
331.363304
  0
LINE
  5
692
100
AcDbEntity
  8
_0-3_躯体と製品
  6
CONTINUOUS
 62
     0
100
AcDbLine
 10
426.75
 20
342.371826
 11
426.75
 21
361
  0
LINE
  5
693
100
AcDbEntity
  8
_0-3_躯体と製品
  6
CONTINUOUS
 62
     0
100
AcDbLine
 10
426.75
 20
361
 11
427.45
 21
361.7
  0
LINE
  5
694
100
AcDbEntity
  8
_0-3_躯体と製品
  6
CONTINUOUS
 62
     0
100
AcDbLine
 10
435.55
 20
371
 11
435.55
 21
361.7
  0
LINE
  5
695
100
AcDbEntity
  8
_0-3_躯体と製品
  6
CONTINUOUS
 62
     0
100
AcDbLine
 10
427.45
 20
371
 11
427.45
 21
361.7
  0
LINE
  5
696
100
AcDbEntity
  8
_0-3_躯体と製品
  6
CONTINUOUS
 62
     0
100
AcDbLine
 10
416.645200089
 20
369
 11
417.645200089
 21
370
  0
LINE
  5
697
100
AcDbEntity
  8
_0-3_躯体と製品
  6
CONTINUOUS
 62
     0
100
AcDbLine
 10
418.0594136514
 20
369
 11
419.0594136514
 21
370
  0
LINE
  5
698
100
AcDbEntity
  8
_0-3_躯体と製品
  6
CONTINUOUS
 62
     0
100
AcDbLine
 10
419.4736272138
 20
369
 11
420.4736272138
 21
370
  0
LINE
  5
699
100
AcDbEntity
  8
_0-3_躯体と製品
  6
CONTINUOUS
 62
     0
100
AcDbLine
 10
420.8878407762
 20
369
 11
421.8878407762
 21
370
  0
LINE
  5
69A
100
AcDbEntity
  8
_0-3_躯体と製品
  6
CONTINUOUS
 62
     0
100
AcDbLine
 10
422.3020543385
 20
369
 11
423.3020543385
 21
370
  0
LINE
  5
69B
100
AcDbEntity
  8
_0-3_躯体と製品
  6
CONTINUOUS
 62
     0
100
AcDbLine
 10
423.7162679009
 20
369
 11
424.7162679009
 21
370
  0
LINE
  5
69C
100
AcDbEntity
  8
_0-3_躯体と製品
  6
CONTINUOUS
 62
     0
100
AcDbLine
 10
425.1304814633
 20
369
 11
426.1304814633
 21
370
  0
LINE
  5
69D
100
AcDbEntity
  8
_0-3_躯体と製品
  6
CONTINUOUS
 62
     0
100
AcDbLine
 10
426.5446950257
 20
369
 11
427.5446950257
 21
370
  0
LINE
  5
69E
100
AcDbEntity
  8
_0-3_躯体と製品
  6
CONTINUOUS
 62
     0
100
AcDbLine
 10
427.958908588
 20
369
 11
428.958908588
 21
370
  0
LINE
  5
69F
100
AcDbEntity
  8
_0-3_躯体と製品
  6
CONTINUOUS
 62
     0
100
AcDbLine
 10
429.3731221504
 20
369
 11
430.3731221504
 21
370
  0
LINE
  5
6A0
100
AcDbEntity
  8
_0-3_躯体と製品
  6
CONTINUOUS
 62
     0
100
AcDbLine
 10
430.7873357128
 20
369
 11
431.7873357128
 21
370
  0
LINE
  5
6A1
100
AcDbEntity
  8
_0-3_躯体と製品
  6
CONTINUOUS
 62
     0
100
AcDbLine
 10
432.2015492751
 20
369
 11
433.2015492751
 21
370
  0
LINE
  5
6A2
100
AcDbEntity
  8
_0-3_躯体と製品
  6
CONTINUOUS
 62
     0
100
AcDbLine
 10
433.6157628375
 20
369
 11
434.6157628375
 21
370
  0
LINE
  5
6A3
100
AcDbEntity
  8
_0-3_躯体と製品
  6
CONTINUOUS
 62
     0
100
AcDbLine
 10
435.0299763999
 20
369
 11
436.0299763999
 21
370
  0
LINE
  5
6A4
100
AcDbEntity
  8
_0-3_躯体と製品
  6
CONTINUOUS
 62
     0
100
AcDbLine
 10
436.4441899623
 20
369
 11
437.4441899623
 21
370
  0
LINE
  5
6A5
100
AcDbEntity
  8
_0-3_躯体と製品
  6
CONTINUOUS
 62
     0
100
AcDbLine
 10
437.8584035246
 20
369
 11
438.8584035246
 21
370
  0
LINE
  5
6A6
100
AcDbEntity
  8
_0-3_躯体と製品
  6
CONTINUOUS
 62
     0
100
AcDbLine
 10
439.272617087
 20
369
 11
440.272617087
 21
370
  0
LINE
  5
6A7
100
AcDbEntity
  8
_0-3_躯体と製品
  6
CONTINUOUS
 62
     0
100
AcDbLine
 10
440.6868306494
 20
369
 11
441.6868306494
 21
370
  0
LINE
  5
6A8
100
AcDbEntity
  8
_0-3_躯体と製品
  6
CONTINUOUS
 62
     0
100
AcDbLine
 10
442.1010442118
 20
369
 11
443.1010442118
 21
370
  0
LINE
  5
6A9
100
AcDbEntity
  8
_0-3_躯体と製品
  6
CONTINUOUS
 62
     0
100
AcDbLine
 10
443.5152577741
 20
369
 11
444.5152577741
 21
370
  0
LINE
  5
6AA
100
AcDbEntity
  8
_0-3_躯体と製品
  6
CONTINUOUS
 62
     0
100
AcDbLine
 10
444.9294713365
 20
369
 11
445.9294713365
 21
370
  0
LINE
  5
6AB
100
AcDbEntity
  8
_0-3_躯体と製品
  6
CONTINUOUS
 62
     0
100
AcDbLine
 10
446.3436848989
 20
369
 11
446.5
 21
369.1563151011
  0
LINE
  5
6AC
100
AcDbEntity
  8
_0-3_躯体と製品
  6
CONTINUOUS
 62
     0
100
AcDbLine
 10
420.5
 20
387.2870617369
 11
420.5
 21
380
  0
LINE
  5
6AD
100
AcDbEntity
  8
_0-3_躯体と製品
  6
CONTINUOUS
 62
     0
100
AcDbLine
 10
415.5
 20
377.9
 11
420
 21
377.9
  0
LINE
  5
6AE
100
AcDbEntity
  8
_0-3_躯体と製品
  6
CONTINUOUS
 62
     0
100
AcDbLine
 10
415.5
 20
377.9
 11
415.5
 21
379.5
  0
LINE
  5
6AF
100
AcDbEntity
  8
_0-3_躯体と製品
  6
CONTINUOUS
 62
     0
100
AcDbLine
 10
415.5
 20
379.5
 11
420
 21
379.5
  0
ARC
  5
6B0
100
AcDbEntity
  8
_0-3_躯体と製品
  6
CONTINUOUS
 62
     0
100
AcDbCircle
 10
420
 20
380
 40
2.1
100
AcDbArc
 50
-90
 51
0
  0
ARC
  5
6B1
100
AcDbEntity
  8
_0-3_躯体と製品
  6
CONTINUOUS
 62
     0
100
AcDbCircle
 10
420
 20
380
 40
0.5
100
AcDbArc
 50
-90
 51
0
  0
LINE
  5
6B2
100
AcDbEntity
  8
_0-3_躯体と製品
  6
CONTINUOUS
 62
     0
100
AcDbLine
 10
447.5
 20
377.9
 11
443
 21
377.9
  0
LINE
  5
6B3
100
AcDbEntity
  8
_0-3_躯体と製品
  6
CONTINUOUS
 62
     0
100
AcDbLine
 10
443
 20
379.5
 11
447.5
 21
379.5
  0
LINE
  5
6B4
100
AcDbEntity
  8
_0-3_躯体と製品
  6
CONTINUOUS
 62
     0
100
AcDbLine
 10
447.5
 20
379.5
 11
447.5
 21
377.9
  0
ARC
  5
6B5
100
AcDbEntity
  8
_0-3_躯体と製品
  6
CONTINUOUS
 62
     0
100
AcDbCircle
 10
443
 20
380
 40
2.1
100
AcDbArc
 50
180
 51
270
  0
ARC
  5
6B6
100
AcDbEntity
  8
_0-3_躯体と製品
  6
CONTINUOUS
 62
     0
100
AcDbCircle
 10
443
 20
380
 40
0.5
100
AcDbArc
 50
180
 51
270
  0
LINE
  5
6B7
100
AcDbEntity
  8
_0-3_躯体と製品
  6
CONTINUOUS
 62
     0
100
AcDbLine
 10
422.1
 20
387.2870617369
 11
422.1
 21
380
  0
ARC
  5
6B8
100
AcDbEntity
  8
_0-3_躯体と製品
  6
CONTINUOUS
 62
     0
100
AcDbCircle
 10
422.6
 20
387.2870617369
 40
0.5
100
AcDbArc
 50
86.99999999999
 51
180
  0
LINE
  5
6B9
100
AcDbEntity
  8
_0-3_躯体と製品
  6
CONTINUOUS
 62
     0
100
AcDbLine
 10
440.9
 20
386.3542032657
 11
440.9
 21
380
  0
ARC
  5
6BA
100
AcDbEntity
  8
_0-3_躯体と製品
  6
CONTINUOUS
 62
     0
100
AcDbCircle
 10
440.4
 20
386.3542032657
 40
0.5
100
AcDbArc
 50
0
 51
86.99999999999
  0
ARC
  5
6BB
100
AcDbEntity
  8
_0-3_躯体と製品
  6
CONTINUOUS
 62
     0
100
AcDbCircle
 10
422.6
 20
387.2870617369
 40
2.1
100
AcDbArc
 50
86.99999999999
 51
180
  0
LINE
  5
6BC
100
AcDbEntity
  8
_0-3_躯体と製品
  6
CONTINUOUS
 62
     0
100
AcDbLine
 10
442.5
 20
386.3542032657
 11
442.5
 21
380
  0
ARC
  5
6BD
100
AcDbEntity
  8
_0-3_躯体と製品
  6
CONTINUOUS
 62
     0
100
AcDbCircle
 10
440.4
 20
386.3542032657
 40
2.1
100
AcDbArc
 50
0
 51
86.99999999999
  0
LINE
  5
6BE
100
AcDbEntity
  8
_0-3_躯体と製品
  6
CONTINUOUS
 62
     0
100
AcDbLine
 10
435.9052864174
 20
385.0877027041
 11
426.7178946977
 21
385.5691935015
  0
LINE
  5
6BF
100
AcDbEntity
  8
_0-3_躯体と製品
  6
CONTINUOUS
 62
     0
100
AcDbLine
 10
426.7702306539
 20
386.5678230362
 11
426.7178946977
 21
385.5691935015
  0
ARC
  5
6C0
100
AcDbEntity
  8
_0-3_躯体と製品
  6
CONTINUOUS
 62
     0
100
AcDbCircle
 10
425.7716011191
 20
386.6201589925
 40
1
100
AcDbArc
 50
-2.999999999999
 51
86.99999999999
  0
LINE
  5
6C1
100
AcDbEntity
  8
_0-3_躯体と製品
  6
CONTINUOUS
 62
     0
100
AcDbLine
 10
435.9576223736
 20
386.0863322388
 11
435.9052864174
 21
385.0877027041
  0
ARC
  5
6C2
100
AcDbEntity
  8
_0-3_躯体と製品
  6
CONTINUOUS
 62
     0
100
AcDbCircle
 10
436.9562519084
 20
386.0339962826
 40
1
100
AcDbArc
 50
86.99999999999
 51
177
  0
LINE
  5
6C3
100
AcDbEntity
  8
_0-3_躯体と製品
  6
CONTINUOUS
 62
     0
100
AcDbLine
 10
440.4261679781
 20
386.853518033
 11
422.6261679781
 21
387.7863765043
  0
LINE
  5
6C4
100
AcDbEntity
  8
_0-3_躯体と製品
  6
CONTINUOUS
 62
     0
100
AcDbLine
 10
417.5
 20
379.5
 11
417.5
 21
377.9
  0
LINE
  5
6C5
100
AcDbEntity
  8
_0-3_躯体と製品
  6
CONTINUOUS
 62
     0
100
AcDbLine
 10
445.5
 20
379.5
 11
445.5
 21
377.9
  0
LINE
  5
6C6
100
AcDbEntity
  8
_0-3_躯体と製品
  6
CONTINUOUS
 62
     0
100
AcDbLine
 10
434.4958886043
 20
388.7665065592
 11
434.3074791618
 21
385.171440234
  0
LINE
  5
6C7
100
AcDbEntity
  8
_0-3_躯体と製品
  6
CONTINUOUS
 62
     0
100
AcDbLine
 10
428.5041113957
 20
389.0805222966
 11
428.3157019533
 21
385.4854559715
  0
ARC
  5
6C8
100
AcDbEntity
  8
_0-3_躯体と製品
  6
CONTINUOUS
 62
     0
100
AcDbCircle
 10
381.5285597739
 20
368.0004079135
 40
1
100
AcDbArc
 50
91.63657704162
 51
175
  0
LINE
  5
6C9
100
AcDbEntity
  8
_0-3_躯体と製品
  6
CONTINUOUS
 62
     0
100
AcDbLine
 10
306.5
 20
369
 11
331.5
 21
369
  0
LINE
  5
6CA
100
AcDbEntity
  8
_0-3_躯体と製品
  6
CONTINUOUS
 62
     0
100
AcDbLine
 10
381.5
 20
369
 11
481.5
 21
369
  0
ARC
  5
6CB
100
AcDbEntity
  8
_0-3_躯体と製品
  6
CONTINUOUS
 62
     0
100
AcDbCircle
 10
331.219242094
 20
392.719242094
 40
23.71924209403
100
AcDbArc
 50
180
 51
270
  0
LINE
  5
6CC
100
AcDbEntity
  8
_0-3_躯体と製品
  6
CONTINUOUS
 62
     0
100
AcDbLine
 10
330.7
 20
431.9716498733
 11
339.7
 21
431.9716498733
  0
LINE
  5
6CD
100
AcDbEntity
  8
_0-0_0
  6
CONTINUOUS
 62
     0
100
AcDbLine
 10
440.5099055081
 20
388.4513252887
 11
422.7099055081
 21
389.3841837599
  0
ARC
  5
6CE
100
AcDbEntity
  8
_0-0_0
  6
CONTINUOUS
 62
     0
100
AcDbCircle
 10
452.5
 20
379.25
 40
9.25
100
AcDbArc
 50
-108.9246444161
 51
-90
  0
ARC
  5
6CF
100
AcDbEntity
  8
_0-0_0
  6
CONTINUOUS
 62
     0
100
AcDbCircle
 10
450.499998
 20
374
 40
0.500001
100
AcDbArc
 50
180
 51
270
  0
LINE
  5
6D0
100
AcDbEntity
  8
_0-0_0
  6
CONTINUOUS
 62
     0
100
AcDbLine
 10
450
 20
372.000002
 11
450
 21
371
  0
LINE
  5
6D1
100
AcDbEntity
  8
_0-0_0
  6
CONTINUOUS
 62
     0
100
AcDbLine
 10
460.5
 20
372.000002
 11
460.5
 21
371
  0
LINE
  5
6D2
100
AcDbEntity
  8
_0-0_0
  6
CONTINUOUS
 62
     0
100
AcDbLine
 10
462
 20
371
 11
460.5
 21
371
  0
LINE
  5
6D3
100
AcDbEntity
  8
_0-0_0
  6
CONTINUOUS
 62
     0
100
AcDbLine
 10
462
 20
373.000002
 11
462
 21
371
  0
ARC
  5
6D4
100
AcDbEntity
  8
_0-0_0
  6
CONTINUOUS
 62
     0
100
AcDbCircle
 10
461.5
 20
373.000002
 40
0.5
100
AcDbArc
 50
0
 51
90
  0
LINE
  5
6D5
100
AcDbEntity
  8
_0-0_0
  6
CONTINUOUS
 62
     0
100
AcDbLine
 10
450.25
 20
376.750002
 11
451.5000000001
 21
376.750002
  0
LINE
  5
6D6
100
AcDbEntity
  8
_0-0_0
  6
CONTINUOUS
 62
     0
100
AcDbLine
 10
454.5000000001
 20
376.750002
 11
455.75
 21
376.750002
  0
LINE
  5
6D7
100
AcDbEntity
  8
_0-0_0
  6
CONTINUOUS
 62
     0
100
AcDbLine
 10
450
 20
372.000002
 11
457.5059488738
 21
372.000002
  0
LINE
  5
6D8
100
AcDbEntity
  8
_0-0_0
  6
CONTINUOUS
 62
     0
100
AcDbLine
 10
457.5059488738
 20
372.000002
 11
460.5
 21
372.000002
  0
LINE
  5
6D9
100
AcDbEntity
  8
_0-0_0
  6
CONTINUOUS
 62
     0
100
AcDbLine
 10
455.5
 20
373.500002
 11
450.499998
 21
373.500002
  0
LINE
  5
6DA
100
AcDbEntity
  8
_0-0_0
  6
CONTINUOUS
 62
     0
100
AcDbLine
 10
461.5
 20
373.500002
 11
457.5
 21
373.500002
  0
ARC
  5
6DB
100
AcDbEntity
  8
_0-0_0
  6
CONTINUOUS
 62
     0
100
AcDbCircle
 10
455.5
 20
374.000002
 40
0.25
100
AcDbArc
 50
-90
 51
0
  0
ARC
  5
6DC
100
AcDbEntity
  8
_0-0_0
  6
CONTINUOUS
 62
     0
100
AcDbCircle
 10
450.499998
 20
374
 40
0.250001
100
AcDbArc
 50
180
 51
270
  0
LINE
  5
6DD
100
AcDbEntity
  8
_0-0_0
  6
CONTINUOUS
 62
     0
100
AcDbLine
 10
455.75
 20
374.000002
 11
455.75
 21
376.750002
  0
LINE
  5
6DE
100
AcDbEntity
  8
_0-0_0
  6
CONTINUOUS
 62
     0
100
AcDbLine
 10
450.25
 20
374
 11
450.25
 21
376.750002
  0
LINE
  5
6DF
100
AcDbEntity
  8
_0-0_0
  6
CONTINUOUS
 62
     0
100
AcDbLine
 10
455.5
 20
373.750002
 11
450.499998
 21
373.750002
  0
LINE
  5
6E0
100
AcDbEntity
  8
_0-0_0
  6
CONTINUOUS
 62
     0
100
AcDbLine
 10
450
 20
377.000002
 11
450
 21
374
  0
LINE
  5
6E1
100
AcDbEntity
  8
_0-0_0
  6
CONTINUOUS
 62
     0
100
AcDbLine
 10
456
 20
374.000002
 11
456
 21
377.000002
  0
LINE
  5
6E2
100
AcDbEntity
  8
_0-0_0
  6
CONTINUOUS
 62
     0
100
AcDbLine
 10
457.5
 20
378.000002
 11
457.5
 21
373.500002
  0
ARC
  5
6E3
100
AcDbEntity
  8
_0-0_0
  6
CONTINUOUS
 62
     0
100
AcDbCircle
 10
457
 20
378.000002
 40
0.5
100
AcDbArc
 50
0
 51
90
  0
ARC
  5
6E4
100
AcDbEntity
  8
_0-0_0
  6
CONTINUOUS
 62
     0
100
AcDbCircle
 10
455.5
 20
374.000002
 40
0.5
100
AcDbArc
 50
-90
 51
0
  0
LINE
  5
6E5
100
AcDbEntity
  8
_0-0_0
  6
CONTINUOUS
 62
     0
100
AcDbLine
 10
457
 20
378.500002
 11
455.75
 21
378.500002
  0
ARC
  5
6E6
100
AcDbEntity
  8
_0-0_0
  6
CONTINUOUS
 62
     0
100
AcDbCircle
 10
455.75
 20
377.500002
 40
1
100
AcDbArc
 50
90
 51
180
  0
LINE
  5
6E7
100
AcDbEntity
  8
_0-0_0
  6
CONTINUOUS
 62
     0
100
AcDbLine
 10
454.75
 20
377.500002
 11
454.75
 21
377.000002
  0
LINE
  5
6E8
100
AcDbEntity
  8
_0-0_0
  6
CONTINUOUS
 62
     0
100
AcDbLine
 10
454.75
 20
377.000002
 11
456
 21
377.000002
  0
LINE
  5
6E9
100
AcDbEntity
  8
_0-0_0
  6
CONTINUOUS
 62
     0
100
AcDbLine
 10
450
 20
377.000002
 11
451.25
 21
377.000002
  0
LINE
  5
6EA
100
AcDbEntity
  8
_0-0_0
  6
CONTINUOUS
 62
     0
100
AcDbLine
 10
451.25
 20
377.500002
 11
451.25
 21
377.000002
  0
ARC
  5
6EB
100
AcDbEntity
  8
_0-0_0
  6
CONTINUOUS
 62
     0
100
AcDbCircle
 10
450.25
 20
377.500002
 40
1
100
AcDbArc
 50
0
 51
90
  0
LINE
  5
6EC
100
AcDbEntity
  8
_0-0_0
  6
CONTINUOUS
 62
     0
100
AcDbLine
 10
450.25
 20
378.500002
 11
450
 21
378.500002
  0
CIRCLE
  5
6ED
100
AcDbEntity
  8
_0-0_0
  6
CONTINUOUS
 62
     0
100
AcDbCircle
 10
454.346003974
 20
384.8499770839
 40
0.9
  0
LINE
  5
6EE
100
AcDbEntity
  8
_0-0_0
  6
CONTINUOUS
 62
     0
100
AcDbLine
 10
451.5000000001
 20
376.750002
 11
451.5000000001
 21
395.6695578599
  0
LINE
  5
6EF
100
AcDbEntity
  8
_0-0_0
  6
CONTINUOUS
 62
     0
100
AcDbLine
 10
454.5000000001
 20
376.750002
 11
454.5000000001
 21
397.1328208559
  0
LINE
  5
6F0
100
AcDbEntity
  8
_0-0_0
  6
CONTINUOUS
 62
     0
100
AcDbLine
 10
454.346003974
 20
384.8499770839
 11
464.8034515106
 21
366.737146633
  0
TEXT
  5
6F1
100
AcDbEntity
  8
_0-0_0
  6
CONTINUOUS
 62
     0
100
AcDbText
 10
465.386784844
 20
359.3743275436
 40
3.33
  1
11
  7
STANDARD
100
AcDbText
  0
CIRCLE
  5
6F2
100
AcDbEntity
  8
_0-0_0
  6
CONTINUOUS
 62
     0
100
AcDbCircle
 10
467.8034515106
 20
361.5409942103
 40
6
  0
LINE
  5
6F3
100
AcDbEntity
  8
_0-3_躯体と製品
  6
CONTINUOUS
 62
     0
100
AcDbLine
 10
450
 20
374
 11
450
 21
377.000002
  0
LINE
  5
6F4
100
AcDbEntity
  8
_0-3_躯体と製品
  6
CONTINUOUS
 62
     0
100
AcDbLine
 10
450
 20
378.500002
 11
450
 21
389
  0
ARC
  5
6F5
100
AcDbEntity
  8
_0-0_0
  6
CONTINUOUS
 62
     0
100
AcDbCircle
 10
482.5276809162
 20
418.0914852488
 40
0.5
100
AcDbArc
 50
-102.1986608952
 51
75.59045565079
  0
ARC
  5
6F6
100
AcDbEntity
  8
_0-0_0
  6
CONTINUOUS
 62
     0
100
AcDbCircle
 10
477.5435874483
 20
395.0365312689
 40
23.08754100601
100
AcDbArc
 50
77.80133910481
 51
178.8159758207
  0
ARC
  5
6F7
100
AcDbEntity
  8
_0-0_0
  6
CONTINUOUS
 62
     0
100
AcDbCircle
 10
476.4308257663
 20
394.362213088
 40
25
100
AcDbArc
 50
75.59045565079
 51
177
  0
TEXT
  5
6F8
100
AcDbEntity
  8
_0-4_図枠
  6
CONTINUOUS
 62
     0
100
AcDbText
 10
467.3909188008
 20
441.0557433617
 40
5
  1
６
  7
STANDARD
100
AcDbText
  0
TEXT
  5
6F9
100
AcDbEntity
  8
_0-4_図枠
  6
CONTINUOUS
 62
     0
100
AcDbText
 10
495.3986558504
 20
428.9136998075
 40
5
  1
５
  7
STANDARD
100
AcDbText
  0
TEXT
  5
6FA
100
AcDbEntity
  8
_0-4_図枠
  6
CONTINUOUS
 62
     0
100
AcDbText
 10
453.4591688599
 20
355.8859835099
 40
5
  1
７
  7
STANDARD
100
AcDbText
  0
TEXT
  5
6FB
100
AcDbEntity
  8
_0-4_図枠
  6
CONTINUOUS
 62
     0
100
AcDbText
 10
452.0097964936
 20
340.4600133715
 40
5
  1
15
  7
STANDARD
100
AcDbText
  0
TEXT
  5
6FC
100
AcDbEntity
  8
_0-4_図枠
  6
CONTINUOUS
 62
     0
100
AcDbText
 10
413.0823748293
 20
318.3286002038
 40
5
  1
16
  7
STANDARD
100
AcDbText
  0
TEXT
  5
6FD
100
AcDbEntity
  8
_0-4_図枠
  6
CONTINUOUS
 62
     0
100
AcDbText
 10
408.4309946151
 20
349.2438685256
 40
5
  1
19
  7
STANDARD
100
AcDbText
  0
TEXT
  5
6FE
100
AcDbEntity
  8
_0-4_図枠
  6
CONTINUOUS
 62
     0
100
AcDbText
 10
451.1299775765
 20
437.5340501395
 40
5
  1
13
  7
STANDARD
100
AcDbText
  0
TEXT
  5
6FF
100
AcDbEntity
  8
_0-4_図枠
  6
CONTINUOUS
 62
     0
100
AcDbText
 10
539.8900638536
 20
442.9686930811
 40
5
  1
８
  7
STANDARD
100
AcDbText
  0
TEXT
  5
700
100
AcDbEntity
  8
_0-4_図枠
  6
CONTINUOUS
 62
     0
100
AcDbText
 10
291.5818935557
 20
513.035986274
 40
5
  1
14
  7
STANDARD
100
AcDbText
  0
TEXT
  5
701
100
AcDbEntity
  8
_0-4_図枠
  6
CONTINUOUS
 62
     0
100
AcDbText
 10
359.9365555244
 20
489.1126450736
 40
5
  1
９
  7
STANDARD
100
AcDbText
  0
TEXT
  5
702
100
AcDbEntity
  8
_0-4_図枠
  6
CONTINUOUS
 62
     0
100
AcDbText
 10
286.8845402624
 20
447.9193478597
 40
5
  1
18
  7
STANDARD
100
AcDbText
  0
TEXT
  5
703
100
AcDbEntity
  8
_0-4_図枠
  6
CONTINUOUS
 62
     0
100
AcDbText
 10
258.8182362501
 20
446.8206076469
 40
5
  1
17
  7
STANDARD
100
AcDbText
  0
TEXT
  5
704
100
AcDbEntity
  8
_0-4_図枠
  6
CONTINUOUS
 62
     0
100
AcDbText
 10
288.6257359325
 20
395.7472546898
 40
5
  1
20
  7
STANDARD
100
AcDbText
  0
TEXT
  5
705
100
AcDbEntity
  8
_0-4_図枠
  6
CONTINUOUS
 62
     0
100
AcDbText
 10
350.0400884372
 20
334.9627857344
 40
5
  1
10
  7
STANDARD
100
AcDbText
  0
TEXT
  5
706
100
AcDbEntity
  8
_0-4_図枠
  6
CONTINUOUS
 62
     0
100
AcDbText
 10
361.8625019454
 20
381.0954855723
 40
5
  1
12
  7
STANDARD
100
AcDbText
  0
LINE
  5
707
100
AcDbEntity
  8
_0-3_躯体と製品
  6
CONTINUOUS
 62
     0
100
AcDbLine
 10
468.2451307349
 20
370
 11
452.5
 21
370
  0
LINE
  5
708
100
AcDbEntity
  8
_0-0_0
  6
CONTINUOUS
 62
     0
100
AcDbLine
 10
468.2451307349
 20
370
 11
468.2451307349
 21
369.031971103
  0
TEXT
  5
709
100
AcDbEntity
  8
_0-0_0
  6
CONTINUOUS
 62
     0
100
AcDbText
 10
214.1666666667
 20
217.9166666667
 40
4.99
  1
５０ＦＹＫ－Ｓ２２５～５００
  7
STANDARD
100
AcDbText
  0
TEXT
  5
70A
100
AcDbEntity
  8
_0-0_0
  6
CONTINUOUS
 62
     0
100
AcDbText
 10
214.1666666667
 20
154.9166666667
 40
5
  1
５０ＦＹＫＪ－２２５～５００
  7
STANDARD
100
AcDbText
  0
TEXT
  5
70B
100
AcDbEntity
  8
_0-0_0
  6
CONTINUOUS
 62
     0
100
AcDbText
 10
212.5
 20
136.9166666667
 40
5
  1
ＦＳ５００～７００
  7
STANDARD
100
AcDbText
  0
TEXT
  5
70C
100
AcDbEntity
  8
_0-0_0
  6
CONTINUOUS
 62
     0
100
AcDbText
 10
212.2916666667
 20
109.9166666667
 40
5
  1
なべＭ６×３５
  7
STANDARD
100
AcDbText
  0
TEXT
  5
70D
100
AcDbEntity
  8
_0-0_0
  6
CONTINUOUS
 62
     0
100
AcDbText
 10
212.2916666667
 20
100.9166666667
 40
4.99
  1
なべＭ４×１０
  7
STANDARD
100
AcDbText
  0
TEXT
  5
70E
100
AcDbEntity
  8
_0-0_0
  6
CONTINUOUS
 62
     0
100
AcDbText
 10
112.5
 20
109.9166666667
 40
5
  1
ステン小ねじ
  7
STANDARD
100
AcDbText
  0
TEXT
  5
70F
100
AcDbEntity
  8
_0-0_0
  6
CONTINUOUS
 62
     0
100
AcDbText
 10
112.5
 20
100.9166666667
 40
4.99
  1
ステン小ねじ
  7
STANDARD
100
AcDbText
  0
TEXT
  5
710
100
AcDbEntity
  8
_0-0_0
  6
CONTINUOUS
 62
     0
100
AcDbText
 10
211.875
 20
82.91666666667
 40
4.99
  1
ＡＧ－６６０
  7
STANDARD
100
AcDbText
  0
TEXT
  5
711
100
AcDbEntity
  8
_0-0_0
  6
CONTINUOUS
 62
     0
100
AcDbText
 10
214.7916666667
 20
73.91666666667
 40
4.99
  1
φ８×４０
  7
STANDARD
100
AcDbText
  0
TEXT
  5
712
100
AcDbEntity
  8
_0-0_0
  6
CONTINUOUS
 62
     0
100
AcDbText
 10
212.0833333333
 20
64.91666666667
 40
4.99
  1
なべ５×５０
  7
STANDARD
100
AcDbText
  0
TEXT
  5
713
100
AcDbEntity
  8
_0-0_0
  6
CONTINUOUS
 62
     0
100
AcDbText
 10
212.9166666667
 20
55.91666666667
 40
4.99
  1
１.５×１８×６.５穴
  7
STANDARD
100
AcDbText
  0
TEXT
  5
714
100
AcDbEntity
  8
_0-0_0
  6
CONTINUOUS
 62
     0
100
AcDbText
 10
212.9166666667
 20
46.91666666667
 40
4.99
  1
１.５×１８×５.５穴
  7
STANDARD
100
AcDbText
  0
TEXT
  5
715
100
AcDbEntity
  8
_0-0_0
  6
CONTINUOUS
 62
     0
100
AcDbText
 10
212.2916666667
 20
37.91666666667
 40
5
  1
ｔ１．０×ｗ３０
  7
STANDARD
100
AcDbText
  0
INSERT
  5
716
100
AcDbEntity
  8
_0-2_寸法
100
AcDbBlockReference
  2
BK2
 10
0
 20
0
  0
INSERT
  5
717
100
AcDbEntity
  8
_0-2_寸法
100
AcDbBlockReference
  2
BK3
 10
0
 20
0
  0
INSERT
  5
718
100
AcDbEntity
  8
_0-2_寸法
100
AcDbBlockReference
  2
BK4
 10
0
 20
0
  0
INSERT
  5
719
100
AcDbEntity
  8
_0-2_寸法
100
AcDbBlockReference
  2
BK5
 10
0
 20
0
  0
INSERT
  5
71A
100
AcDbEntity
  8
_0-2_寸法
100
AcDbBlockReference
  2
BK6
 10
0
 20
0
  0
INSERT
  5
71B
100
AcDbEntity
  8
_0-2_寸法
100
AcDbBlockReference
  2
BK7
 10
0
 20
0
  0
INSERT
  5
71C
100
AcDbEntity
  8
_0-2_寸法
100
AcDbBlockReference
  2
BK8
 10
0
 20
0
  0
INSERT
  5
71D
100
AcDbEntity
  8
_0-2_寸法
100
AcDbBlockReference
  2
BK9
 10
0
 20
0
  0
INSERT
  5
71E
100
AcDbEntity
  8
_0-2_寸法
100
AcDbBlockReference
  2
BK10
 10
0
 20
0
  0
INSERT
  5
71F
100
AcDbEntity
  8
_0-2_寸法
100
AcDbBlockReference
  2
BK11
 10
0
 20
0
  0
INSERT
  5
720
100
AcDbEntity
  8
_0-2_寸法
100
AcDbBlockReference
  2
BK12
 10
0
 20
0
  0
INSERT
  5
721
100
AcDbEntity
  8
_0-2_寸法
100
AcDbBlockReference
  2
BK13
 10
0
 20
0
  0
INSERT
  5
722
100
AcDbEntity
  8
_0-2_寸法
100
AcDbBlockReference
  2
BK14
 10
0
 20
0
  0
INSERT
  5
723
100
AcDbEntity
  8
_0-2_寸法
100
AcDbBlockReference
  2
BK15
 10
0
 20
0
  0
INSERT
  5
724
100
AcDbEntity
  8
_0-2_寸法
100
AcDbBlockReference
  2
BK16
 10
0
 20
0
  0
INSERT
  5
725
100
AcDbEntity
  8
_0-2_寸法
100
AcDbBlockReference
  2
BK17
 10
0
 20
0
  0
INSERT
  5
726
100
AcDbEntity
  8
_0-2_寸法
100
AcDbBlockReference
  2
BK18
 10
0
 20
0
  0
INSERT
  5
727
100
AcDbEntity
  8
_0-2_寸法
100
AcDbBlockReference
  2
BK19
 10
0
 20
0
  0
INSERT
  5
728
100
AcDbEntity
  8
_0-2_寸法
100
AcDbBlockReference
  2
BK20
 10
0
 20
0
  0
INSERT
  5
729
100
AcDbEntity
  8
_0-2_寸法
100
AcDbBlockReference
  2
BK21
 10
0
 20
0
  0
INSERT
  5
72A
100
AcDbEntity
  8
_0-2_寸法
100
AcDbBlockReference
  2
BK22
 10
0
 20
0
  0
INSERT
  5
72B
100
AcDbEntity
  8
_0-2_寸法
100
AcDbBlockReference
  2
BK23
 10
0
 20
0
  0
INSERT
  5
72C
100
AcDbEntity
  8
_0-2_寸法
100
AcDbBlockReference
  2
BK24
 10
0
 20
0
  0
INSERT
  5
72D
100
AcDbEntity
  8
_0-2_寸法
100
AcDbBlockReference
  2
BK25
 10
0
 20
0
  0
INSERT
  5
72E
100
AcDbEntity
  8
_0-2_寸法
100
AcDbBlockReference
  2
BK26
 10
0
 20
0
  0
INSERT
  5
72F
100
AcDbEntity
  8
_0-2_寸法
100
AcDbBlockReference
  2
BK27
 10
0
 20
0
  0
INSERT
  5
730
100
AcDbEntity
  8
_0-2_寸法
100
AcDbBlockReference
  2
BK28
 10
0
 20
0
  0
INSERT
  5
731
100
AcDbEntity
  8
_0-2_寸法
100
AcDbBlockReference
  2
BK29
 10
0
 20
0
  0
INSERT
  5
732
100
AcDbEntity
  8
_0-2_寸法
100
AcDbBlockReference
  2
BK30
 10
0
 20
0
  0
INSERT
  5
733
100
AcDbEntity
  8
_0-2_寸法
100
AcDbBlockReference
  2
BK31
 10
0
 20
0
  0
INSERT
  5
734
100
AcDbEntity
  8
_0-2_寸法
100
AcDbBlockReference
  2
BK32
 10
0
 20
0
  0
INSERT
  5
735
100
AcDbEntity
  8
_0-2_寸法
100
AcDbBlockReference
  2
BK33
 10
0
 20
0
  0
INSERT
  5
736
100
AcDbEntity
  8
_0-2_寸法
100
AcDbBlockReference
  2
BK34
 10
0
 20
0
  0
INSERT
  5
737
100
AcDbEntity
  8
_0-2_寸法
100
AcDbBlockReference
  2
BK35
 10
0
 20
0
  0
INSERT
  5
738
100
AcDbEntity
  8
_0-2_寸法
100
AcDbBlockReference
  2
BK36
 10
0
 20
0
  0
INSERT
  5
739
100
AcDbEntity
  8
_0-2_寸法
100
AcDbBlockReference
  2
BK37
 10
0
 20
0
  0
INSERT
  5
73A
100
AcDbEntity
  8
_0-2_寸法
100
AcDbBlockReference
  2
BK38
 10
0
 20
0
  0
INSERT
  5
73B
100
AcDbEntity
  8
_0-2_寸法
100
AcDbBlockReference
  2
BK39
 10
0
 20
0
  0
INSERT
  5
73C
100
AcDbEntity
  8
_0-2_寸法
100
AcDbBlockReference
  2
BK40
 10
0
 20
0
  0
INSERT
  5
73D
100
AcDbEntity
  8
_0-2_寸法
100
AcDbBlockReference
  2
BK41
 10
0
 20
0
  0
INSERT
  5
73E
100
AcDbEntity
  8
_0-2_寸法
100
AcDbBlockReference
  2
BK42
 10
0
 20
0
  0
LINE
  5
73F
100
AcDbEntity
  8
_0-2_寸法
  6
CONTINUOUS
 62
     0
100
AcDbLine
 10
331.5
 20
263.75
 11
331.5
 21
264
  0
LINE
  5
740
100
AcDbEntity
  8
_0-2_寸法
  6
CONTINUOUS
 62
     0
100
AcDbLine
 10
332.5
 20
264
 11
380.5
 21
264
  0
CIRCLE
  5
741
100
AcDbEntity
  8
_0-2_寸法
  6
CONTINUOUS
 62
     0
100
AcDbCircle
 10
331.5
 20
263.75
 40
1.4
  0
CIRCLE
  5
742
100
AcDbEntity
  8
_0-2_寸法
  6
CONTINUOUS
 62
     0
100
AcDbCircle
 10
381.5
 20
264
 40
1.4
  0
CIRCLE
  5
743
100
AcDbEntity
  8
_0-2_寸法
  6
CONTINUOUS
 62
     0
100
AcDbCircle
 10
381.5
 20
264
 40
1.4
  0
LINE
  5
744
100
AcDbEntity
  8
_0-2_寸法
  6
CONTINUOUS
 62
     0
100
AcDbLine
 10
381.5
 20
263.75
 11
381.5
 21
264
  0
LINE
  5
745
100
AcDbEntity
  8
_0-2_寸法
  6
CONTINUOUS
 62
     0
100
AcDbLine
 10
382.5
 20
264
 11
480.5
 21
264
  0
CIRCLE
  5
746
100
AcDbEntity
  8
_0-2_寸法
  6
CONTINUOUS
 62
     0
100
AcDbCircle
 10
381.5
 20
263.75
 40
1.4
  0
CIRCLE
  5
747
100
AcDbEntity
  8
_0-2_寸法
  6
CONTINUOUS
 62
     0
100
AcDbCircle
 10
481.5
 20
264
 40
1.4
  0
CIRCLE
  5
748
100
AcDbEntity
  8
_0-2_寸法
  6
CONTINUOUS
 62
     0
100
AcDbCircle
 10
481.5
 20
264
 40
1.4
  0
LINE
  5
749
100
AcDbEntity
  8
_0-2_寸法
  6
CONTINUOUS
 62
     0
100
AcDbLine
 10
306.5
 20
367
 11
306.5
 21
264
  0
LINE
  5
74A
100
AcDbEntity
  8
_0-2_寸法
  6
CONTINUOUS
 62
     0
100
AcDbLine
 10
307.5
 20
264
 11
330.5
 21
264
  0
CIRCLE
  5
74B
100
AcDbEntity
  8
_0-2_寸法
  6
CONTINUOUS
 62
     0
100
AcDbCircle
 10
306.5
 20
367
 40
1.4
  0
CIRCLE
  5
74C
100
AcDbEntity
  8
_0-2_寸法
  6
CONTINUOUS
 62
     0
100
AcDbCircle
 10
331.5
 20
264
 40
1.4
  0
CIRCLE
  5
74D
100
AcDbEntity
  8
_0-2_寸法
  6
CONTINUOUS
 62
     0
100
AcDbCircle
 10
331.5
 20
264
 40
1.4
  0
LINE
  5
74E
100
AcDbEntity
  8
_0-2_寸法
  6
CONTINUOUS
 62
     0
100
AcDbLine
 10
481.5
 20
263.75
 11
481.5
 21
264.0434120444
  0
LINE
  5
74F
100
AcDbEntity
  8
_0-2_寸法
  6
CONTINUOUS
 62
     0
100
AcDbLine
 10
532.5
 20
325.8801541434
 11
532.5
 21
264.0434120444
  0
LINE
  5
750
100
AcDbEntity
  8
_0-2_寸法
  6
CONTINUOUS
 62
     0
100
AcDbLine
 10
482.5
 20
264.0434120444
 11
531.5
 21
264.0434120444
  0
CIRCLE
  5
751
100
AcDbEntity
  8
_0-2_寸法
  6
CONTINUOUS
 62
     0
100
AcDbCircle
 10
481.5
 20
263.75
 40
1.4
  0
CIRCLE
  5
752
100
AcDbEntity
  8
_0-2_寸法
  6
CONTINUOUS
 62
     0
100
AcDbCircle
 10
532.5
 20
325.8801541434
 40
1.4
  0
CIRCLE
  5
753
100
AcDbEntity
  8
_0-2_寸法
  6
CONTINUOUS
 62
     0
100
AcDbCircle
 10
532.5
 20
264.0434120444
 40
1.4
  0
TEXT
  5
754
100
AcDbEntity
  8
_0-2_寸法
  6
CONTINUOUS
 62
     0
100
AcDbText
 10
316.5
 20
264
 40
5
  1
25
  7
STANDARD
100
AcDbText
  0
TEXT
  5
755
100
AcDbEntity
  8
_0-2_寸法
  6
CONTINUOUS
 62
     0
100
AcDbText
 10
354
 20
264
 40
5
  1
50
  7
STANDARD
100
AcDbText
  0
TEXT
  5
756
100
AcDbEntity
  8
_0-2_寸法
  6
CONTINUOUS
 62
     0
100
AcDbText
 10
429
 20
264
 40
5
  1
Ｃ
  7
STANDARD
100
AcDbText
  0
TEXT
  5
757
100
AcDbEntity
  8
_0-2_寸法
  6
CONTINUOUS
 62
     0
100
AcDbText
 10
504.5
 20
264.0217060222
 40
5
  1
50
  7
STANDARD
100
AcDbText
  0
TEXT
  5
758
100
AcDbEntity
  8
_0-4_図枠
  6
CONTINUOUS
 62
     0
100
AcDbText
 10
467.5
 20
217.5
 40
5
  1
５０ＦＹＫＧ－Ｓ２２５
  7
STANDARD
100
AcDbText
  0
TEXT
  5
759
100
AcDbEntity
  8
_0-0_0
  6
CONTINUOUS
 62
     0
100
AcDbText
 10
211.4583333333
 20
91.91666666667
 40
4.99
  1
Ｍ６×４０
  7
STANDARD
100
AcDbText
  0
TEXT
  5
75A
100
AcDbEntity
  8
_0-0_0
  6
CONTINUOUS
 62
     0
100
AcDbText
 10
214.1666666667
 20
181.9166666667
 40
4.99
  1
５０ＦＹＫＨ－２２５～５００
  7
STANDARD
100
AcDbText
  0
ENDSEC
  0
SECTION
  2
OBJECTS
  0
DICTIONARY
  5
75B
100
AcDbDictionary
  3
ACAD_GROUP
350
75C
  3
ACAD_IMAGE_DICT
350
75D
  3
ACAD_MLINESTYLE
350
75E
  0
DICTIONARY
  5
75C
330
75B
100
AcDbDictionary
  0
DICTIONARY
  5
75D
100
AcDbDictionary
  0
DICTIONARY
  5
75E
100
AcDbDictionary
  3
STANDARD
350
75F
  0
RASTERVARIABLES
  5
760
100
AcDbRasterVariables
 90
     0
 70
     1
 71
     1
 72
     0
  0
MLINESTYLE
  5
75F
100
AcDbMlineStyle
  2
STANDARD
 70
     0
  3

 62
   256
 51
90
 52
90
 71
     0
  0
ENDSEC
  0
EOF
