  0
SECTION
  2
HEADER
  9
$ACADVER
  1
AC1009
  9
$INSBASE
 10
0
 20
0
 30
0
  9
$EXTMIN
 10
0
 20
0
  9
$EXTMAX
 10
840
 20
594
  9
$LIMMIN
 10
0
 20
0
  9
$LIMMAX
 10
840
 20
594
  9
$LTSCALE
 40
2
  0
ENDSEC
  0
SECTION
  2
TABLES
  0
TABLE
  2
LTYPE
 70
     9
  0
LTYPE
  2
CONTINUOUS
 70
    64
  3
実線
 72
    65
 73
     0
 40
0.0
  0
LTYPE
  2
DASHED1
 70
    64
  3
--  --  --  --  --  --  --  --  
 72
    65
 73
     2
 40
2.5
 49
1.25
 49
-1.25
  0
LTYPE
  2
DASHED2
 70
    64
  3
----    ----    ----    ----    
 72
    65
 73
     2
 40
5.0
 49
2.5
 49
-2.5
  0
LTYPE
  2
DASHED3
 70
    64
  3
------  ------  ------  ------  
 72
    65
 73
     2
 40
5.0
 49
3.75
 49
-1.25
  0
LTYPE
  2
CENTER1
 70
    64
  3
----- - ----- - ----- - ----- - 
 72
    65
 73
     4
 40
10.0
 49
6.25
 49
-1.25
 49
1.25
 49
-1.25
  0
LTYPE
  2
CENTER2
 70
    64
  3
----------  --  ----------  --  
 72
    65
 73
     4
 40
20.0
 49
12.5
 49
-2.5
 49
2.5
 49
-2.5
  0
LTYPE
  2
PHANTOM1
 70
    64
  3
--- - - --- - - --- - - --- - - 
 72
    65
 73
     6
 40
10.0
 49
3.25
 49
-1.25
 49
1.25
 49
-1.25
 49
1.25
 49
-1.25
  0
LTYPE
  2
PHANTOM2
 70
    64
  3
--------  -  -  --------  -  -  
 72
    65
 73
     6
 40
20.0
 49
10.0
 49
-2.5
 49
1.25
 49
-2.5
 49
1.25
 49
-2.5
  0
LTYPE
  2
DOT
 70
    64
  3
-   -   -   -   -   -   -   -   
 72
    65
 73
     2
 40
2.5
 49
0.625
 49
-1.875
  0
LTYPE
  2
DUMMY
 70
    64
  3
ダミー
 72
    65
 73
     0
 40
0.0
  0
LTYPE
  2
RAND1
 70
    64
  3
ランダム線1
 72
    65
 73
     4
 40
10.0
 49
1.0
 49
-2.0
 49
3.0
 49
-4.0
  0
LTYPE
  2
RAND2
 70
    64
  3
ランダム線2
 72
    65
 73
     4
 40
14.0
 49
2.0
 49
-3.0
 49
4.0
 49
-5.0
  0
LTYPE
  2
RAND3
 70
    64
  3
ランダム線3
 72
    65
 73
     4
 40
18.0
 49
3.0
 49
-4.0
 49
5.0
 49
-6.0
  0
LTYPE
  2
RAND4
 70
    64
  3
ランダム線4
 72
    65
 73
     4
 40
22.0
 49
4.0
 49
-5.0
 49
6.0
 49
-7.0
  0
LTYPE
  2
RAND5
 70
    64
  3
ランダム線5
 72
    65
 73
     4
 40
26.0
 49
5.0
 49
-6.0
 49
7.0
 49
-8.0
  0
LTYPE
  2
LONG1
 70
    64
  3
----------  --  ----------  --  
 72
    65
 73
     4
 40
40.0
 49
32.5
 49
-2.5
 49
2.5
 49
-2.5
  0
LTYPE
  2
LONG2
 70
    64
  3
--------  -  -  --------  -  -  
 72
    65
 73
     6
 40
40.0
 49
30.0
 49
-2.5
 49
1.25
 49
-2.5
 49
1.25
 49
-2.5
  0
LTYPE
  2
LONG3
 70
    64
  3
+++++++++++++++..+++++++++++++++
 72
    65
 73
     2
 40
40.0
 49
37.5
 49
-2.5
  0
LTYPE
  2
LONG4
 70
    64
  3
+++++++++++++++..+++++++++++++++
 72
    65
 73
     2
 40
80.0
 49
75.0
 49
-5.0
  0
LTYPE
  2
LONG5
 70
    64
  3
----------  --  ----------  --  
 72
    65
 73
     4
 40
60.0
 49
37.5
 49
-7.5
 49
7.5
 49
-7.5
  0
LTYPE
  2
dashed
 70
   64
  3
-------   -------------   ------
 72
   65
 73
    2
 40
7.5
 49
6
 49
-1.5
  0
LTYPE
  2
dashed_spaced
 70
   64
  3
----        --------        ----
 72
   65
 73
    2
 40
12
 49
6
 49
-6
  0
LTYPE
  2
long_dashed_dotted
 70
   64
  3
------------- --- --------------
 72
   65
 73
    4
 40
15.25
 49
12
 49
-1.5
 49
0.25
 49
-1.5
  0
LTYPE
  2
long_dashed_double-dotted
 70
   64
  3
----------- --- --- ------------
 72
   65
 73
    6
 40
17
 49
12
 49
-1.5
 49
0.25
 49
-1.5
 49
0.25
 49
-1.5
  0
LTYPE
  2
long_dashed_triplicate-dotted
 70
   64
  3
--------- --- --- --- ----------
 72
   65
 73
    8
 40
18.75
 49
12
 49
-1.5
 49
0.25
 49
-1.5
 49
0.25
 49
-1.5
 49
0.25
 49
-1.5
  0
LTYPE
  2
dotted
 70
   64
  3
   -       -       -       -    
 72
   65
 73
    2
 40
1.75
 49
0.25
 49
-1.5
  0
LTYPE
  2
chain
 70
   64
  3
-------------- -- --------------
 72
   65
 73
    4
 40
18.5
 49
12
 49
-1.5
 49
3.5
 49
-1.5
  0
LTYPE
  2
chain_double_dash
 70
   64
  3
------------ -- -- -------------
 72
   65
 73
    6
 40
23.5
 49
12
 49
-1.5
 49
3.5
 49
-1.5
 49
3.5
 49
-1.5
  0
LTYPE
  2
dashed_dotted
 70
   64
  3
-----------     -     ----------
 72
   65
 73
    4
 40
9.25
 49
6
 49
-1.5
 49
0.25
 49
-1.5
  0
LTYPE
  2
double-dashed_dotted
 70
   64
  3
------   -----------   -   -----
 72
   65
 73
    6
 40
16.75
 49
6
 49
-1.5
 49
6
 49
-1.5
 49
0.25
 49
-1.5
  0
LTYPE
  2
dashed_double-dotted
 70
   64
  3
---------    -    -    ---------
 72
   65
 73
    6
 40
11
 49
6
 49
-1.5
 49
0.25
 49
-1.5
 49
0.25
 49
-1.5
  0
LTYPE
  2
double-dashed_double-dotted
 70
   64
  3
-----   ---------   -   -   ----
 72
   65
 73
    8
 40
18.5
 49
6
 49
-1.5
 49
6
 49
-1.5
 49
0.25
 49
-1.5
 49
0.25
 49
-1.5
  0
LTYPE
  2
dashed_triplicate-dotted
 70
   64
  3
-------    -    -    -    ------
 72
   65
 73
    8
 40
12.75
 49
6
 49
-1.5
 49
0.25
 49
-1.5
 49
0.25
 49
-1.5
 49
0.25
 49
-1.5
  0
LTYPE
  2
double-dashed_triplicate-dotted
 70
   64
  3
-----  ---------  -  -  -  -----
 72
   65
 73
   10
 40
20.25
 49
6
 49
-1.5
 49
6
 49
-1.5
 49
0.25
 49
-1.5
 49
0.25
 49
-1.5
 49
0.25
 49
-1.5
  0
LTYPE
  2
undefined
 70
   64
  3
--------------------------------
 72
   65
 73
    0
 40
0
  0
LTYPE
  2
DOT_17
 70
   64
  3
----        --------        ----
 72
   65
 73
    2
 40
2
 49
1
 49
-1
  0
LTYPE
  2
DASHED
 70
   64
  3
----        --------        ----
 72
   65
 73
    2
 40
4
 49
2
 49
-2
  0
LTYPE
  2
DASHED2_19
 70
   64
  3
-----      ----------      -----
 72
   65
 73
    2
 40
8
 49
5
 49
-3
  0
LTYPE
  2
CENTER
 70
   64
  3
--------------- - --------------
 72
   65
 73
    4
 40
23
 49
20
 49
-1
 49
1
 49
-1
  0
LTYPE
  2
CENTERX2
 70
   64
  3
--------------- - --------------
 72
   65
 73
    4
 40
43
 49
40
 49
-1
 49
1
 49
-1
  0
LTYPE
  2
CENTER2_22
 70
   64
  3
-------------  --  -------------
 72
   65
 73
    4
 40
13
 49
10
 49
-1
 49
1
 49
-1
  0
LTYPE
  2
PHANTOM
 70
   64
  3
-------------- - - -------------
 72
   65
 73
    6
 40
25
 49
20
 49
-1
 49
1
 49
-1
 49
1
 49
-1
  0
LTYPE
  2
PHANTOMX2
 70
   64
  3
-------------- - - -------------
 72
   65
 73
    6
 40
45
 49
40
 49
-1
 49
1
 49
-1
 49
1
 49
-1
  0
LTYPE
  2
PHANTOM2_25
 70
   64
  3
-----------  --  --  -----------
 72
   65
 73
    6
 40
15
 49
10
 49
-1
 49
1
 49
-1
 49
1
 49
-1
  0
LTYPE
  2
ACAD_ISO06W100
 70
   64
  3
------------- - - - ------------
 72
   65
 73
    8
 40
47
 49
40
 49
-1
 49
1
 49
-1
 49
1
 49
-1
 49
1
 49
-1
  0
LTYPE
  2
ACAD_ISO14W100
 70
   64
  3
------------- - - - ------------
 72
   65
 73
    8
 40
27
 49
20
 49
-1
 49
1
 49
-1
 49
1
 49
-1
 49
1
 49
-1
  0
LTYPE
  2
ACAD_ISO11W100
 70
   64
  3
------- -------------- - -------
 72
   65
 73
    6
 40
44
 49
20
 49
-1
 49
20
 49
-1
 49
1
 49
-1
  0
LTYPE
  2
ACAD_ISO13W100
 70
   64
  3
------- ------------- - - ------
 72
   65
 73
    8
 40
46
 49
20
 49
-1
 49
20
 49
-1
 49
1
 49
-1
 49
1
 49
-1
  0
LTYPE
  2
HIDDEN
 70
   64
  3
------     -----------     -----
 72
   65
 73
    2
 40
1.5
 49
1
 49
-0.5
  0
ENDTAB
  0
TABLE
  2
STYLE
  5
3
100
AcDbSymbolTable
 70
     1
  0
STYLE
  5
10
100
AcDbSymbolTableRecord
100
AcDbTextStyleTableRecord
  2
STANDARD
 70
     0
 40
0.0
 41
1.0
 50
0.0
 71
     0
 42
0.2
  3
txt
  4
bigfont.shx
  0
STYLE
  5
26
100
AcDbSymbolTableRecord
100
AcDbTextStyleTableRecord
  2
TATEGAKI
 70
    68
 40
0.0
 41
1.0
 50
0.0
 71
     0
 42
1.0
  3
txt
  4
bigfont.shx
  0
ENDTAB
  0
TABLE
  2
LAYER
 70
    5
  0
LAYER
  2
_0-0_0
 70
   64
 62
    7
  6
CONTINUOUS
  0
LAYER
  2
_0-2_寸法
 70
   64
 62
    7
  6
CONTINUOUS
  0
LAYER
  2
_0-3_躯体と製品
 70
   64
 62
    7
  6
CONTINUOUS
  0
LAYER
  2
_0-4_図枠
 70
   64
 62
    7
  6
CONTINUOUS
  0
LAYER
  2
ADD_LINE
 70
   64
 62
    7
  6
CONTINUOUS
  0
ENDTAB
  0
ENDSEC
  0
SECTION
  2
BLOCKS
  0
BLOCK
  2
-000-BK2
 70
   64
 10
0
 20
0
 30
0
  0
CIRCLE
  8
_0-2_寸法
  6
CONTINUOUS
 62
    7
 10
257
 20
390
 40
0.25
  0
LINE
  8
_0-2_寸法
  6
CONTINUOUS
 62
    7
 10
257
 20
389.75
 11
257
 21
390.25
  0
LINE
  8
_0-2_寸法
  6
CONTINUOUS
 62
    7
 10
257
 20
390.5
 11
257
 21
391
  0
ENDBLK
  0
BLOCK
  2
-001-BK3
 70
   64
 10
0
 20
0
 30
0
  0
CIRCLE
  8
_0-2_寸法
  6
CONTINUOUS
 62
    7
 10
257
 20
505.27164987330002
 40
0.25
  0
LINE
  8
_0-2_寸法
  6
CONTINUOUS
 62
    7
 10
257
 20
505.52164987330002
 11
257
 21
505.02164987330002
  0
LINE
  8
_0-2_寸法
  6
CONTINUOUS
 62
    7
 10
257
 20
504.77164987330002
 11
257
 21
504.27164987330002
  0
ENDBLK
  0
BLOCK
  2
-002-BK4
 70
   64
 10
0
 20
0
 30
0
  0
CIRCLE
  8
_0-2_寸法
  6
CONTINUOUS
 62
    7
 10
346.5
 20
540.27164987330002
 40
0.25
  0
LINE
  8
_0-2_寸法
  6
CONTINUOUS
 62
    7
 10
346.25
 20
540.27164987330002
 11
346.75
 21
540.27164987330002
  0
LINE
  8
_0-2_寸法
  6
CONTINUOUS
 62
    7
 10
347
 20
540.27164987330002
 11
347.5
 21
540.27164987330002
  0
ENDBLK
  0
BLOCK
  2
-003-BK5
 70
   64
 10
0
 20
0
 30
0
  0
CIRCLE
  8
_0-2_寸法
  6
CONTINUOUS
 62
    7
 10
366.5
 20
540.27164987330002
 40
0.25
  0
LINE
  8
_0-2_寸法
  6
CONTINUOUS
 62
    7
 10
366.75
 20
540.27164987330002
 11
366.25
 21
540.27164987330002
  0
LINE
  8
_0-2_寸法
  6
CONTINUOUS
 62
    7
 10
366
 20
540.27164987330002
 11
365.5
 21
540.27164987330002
  0
ENDBLK
  0
BLOCK
  2
-004-BK6
 70
   64
 10
0
 20
0
 30
0
  0
CIRCLE
  8
_0-2_寸法
  6
CONTINUOUS
 62
    7
 10
333
 20
555.27164987330002
 40
0.25
  0
LINE
  8
_0-2_寸法
  6
CONTINUOUS
 62
    7
 10
332.75
 20
555.27164987330002
 11
333.25
 21
555.27164987330002
  0
LINE
  8
_0-2_寸法
  6
CONTINUOUS
 62
    7
 10
333.5
 20
555.27164987330002
 11
334
 21
555.27164987330002
  0
ENDBLK
  0
BLOCK
  2
-005-BK7
 70
   64
 10
0
 20
0
 30
0
  0
CIRCLE
  8
_0-2_寸法
  6
CONTINUOUS
 62
    7
 10
366.5
 20
555.27164987330002
 40
0.25
  0
LINE
  8
_0-2_寸法
  6
CONTINUOUS
 62
    7
 10
366.75
 20
555.27164987330002
 11
366.25
 21
555.27164987330002
  0
LINE
  8
_0-2_寸法
  6
CONTINUOUS
 62
    7
 10
366
 20
555.27164987330002
 11
365.5
 21
555.27164987330002
  0
ENDBLK
  0
BLOCK
  2
-006-BK8
 70
   64
 10
0
 20
0
 30
0
  0
CIRCLE
  8
_0-2_寸法
  6
CONTINUOUS
 62
    7
 10
333
 20
570.27164987330002
 40
0.25
  0
LINE
  8
_0-2_寸法
  6
CONTINUOUS
 62
    7
 10
332.75
 20
570.27164987330002
 11
333.25
 21
570.27164987330002
  0
LINE
  8
_0-2_寸法
  6
CONTINUOUS
 62
    7
 10
333.5
 20
570.27164987330002
 11
334
 21
570.27164987330002
  0
ENDBLK
  0
BLOCK
  2
-007-BK9
 70
   64
 10
0
 20
0
 30
0
  0
CIRCLE
  8
_0-2_寸法
  6
CONTINUOUS
 62
    7
 10
558
 20
570.27164987330002
 40
0.25
  0
LINE
  8
_0-2_寸法
  6
CONTINUOUS
 62
    7
 10
558.25
 20
570.27164987330002
 11
557.75
 21
570.27164987330002
  0
LINE
  8
_0-2_寸法
  6
CONTINUOUS
 62
    7
 10
557.5
 20
570.27164987330002
 11
557
 21
570.27164987330002
  0
ENDBLK
  0
BLOCK
  2
-008-BK10
 70
   64
 10
0
 20
0
 30
0
  0
LINE
  8
_0-2_寸法
  6
CONTINUOUS
 62
    7
 10
458
 20
330
 11
506
 21
330
  0
TEXT
  8
_0-2_寸法
 62
    7
 10
479.5
 20
331
 40
5
 41
1
 50
0
  1
50
  0
CIRCLE
  8
_0-2_寸法
  6
CONTINUOUS
 62
    7
 10
457
 20
330
 40
1.3999999999999999
  0
CIRCLE
  8
_0-2_寸法
  6
CONTINUOUS
 62
    7
 10
507
 20
330
 40
1.3999999999999999
  0
CIRCLE
  8
_0-2_寸法
  6
CONTINUOUS
 62
    7
 10
507
 20
330
 40
1.3999999999999999
  0
ENDBLK
  0
BLOCK
  2
-009-BK11
 70
   64
 10
0
 20
0
 30
0
  0
CIRCLE
  8
_0-2_寸法
  6
CONTINUOUS
 62
    7
 10
457
 20
330
 40
0.25
  0
LINE
  8
_0-2_寸法
  6
CONTINUOUS
 62
    7
 10
456.75
 20
330
 11
457.25
 21
330
  0
LINE
  8
_0-2_寸法
  6
CONTINUOUS
 62
    7
 10
457.5
 20
330
 11
458
 21
330
  0
ENDBLK
  0
BLOCK
  2
-010-BK12
 70
   64
 10
0
 20
0
 30
0
  0
CIRCLE
  8
_0-2_寸法
  6
CONTINUOUS
 62
    7
 10
507
 20
330
 40
0.25
  0
LINE
  8
_0-2_寸法
  6
CONTINUOUS
 62
    7
 10
507.25
 20
330
 11
506.75
 21
330
  0
LINE
  8
_0-2_寸法
  6
CONTINUOUS
 62
    7
 10
506.5
 20
330
 11
506
 21
330
  0
ENDBLK
  0
BLOCK
  2
-011-BK13
 70
   64
 10
0
 20
0
 30
0
  0
LINE
  8
_0-2_寸法
  6
CONTINUOUS
 62
    7
 10
330
 20
390
 11
277
 21
390
  0
LINE
  8
_0-2_寸法
  6
CONTINUOUS
 62
    7
 10
277
 20
391
 11
277
 21
445.27164987330002
  0
TEXT
  8
_0-2_寸法
 62
    7
 10
276
 20
416.88582493669998
 40
5
 41
1
 50
90
  1
D
  0
CIRCLE
  8
_0-2_寸法
  6
CONTINUOUS
 62
    7
 10
330
 20
390
 40
1.3999999999999999
  0
CIRCLE
  8
_0-2_寸法
  6
CONTINUOUS
 62
    7
 10
277
 20
446.27164987330002
 40
1.3999999999999999
  0
CIRCLE
  8
_0-2_寸法
  6
CONTINUOUS
 62
    7
 10
277
 20
446.27164987330002
 40
1.3999999999999999
  0
ENDBLK
  0
BLOCK
  2
-012-BK14
 70
   64
 10
0
 20
0
 30
0
  0
CIRCLE
  8
_0-2_寸法
  6
CONTINUOUS
 62
    7
 10
277
 20
390
 40
0.25
  0
LINE
  8
_0-2_寸法
  6
CONTINUOUS
 62
    7
 10
277
 20
389.75
 11
277
 21
390.25
  0
LINE
  8
_0-2_寸法
  6
CONTINUOUS
 62
    7
 10
277
 20
390.5
 11
277
 21
391
  0
ENDBLK
  0
BLOCK
  2
-013-BK15
 70
   64
 10
0
 20
0
 30
0
  0
CIRCLE
  8
_0-2_寸法
  6
CONTINUOUS
 62
    7
 10
277
 20
446.27164987330002
 40
0.25
  0
LINE
  8
_0-2_寸法
  6
CONTINUOUS
 62
    7
 10
277
 20
446.52164987330002
 11
277
 21
446.02164987330002
  0
LINE
  8
_0-2_寸法
  6
CONTINUOUS
 62
    7
 10
277
 20
445.77164987330002
 11
277
 21
445.27164987330002
  0
ENDBLK
  0
BLOCK
  2
-014-BK16
 70
   64
 10
0
 20
0
 30
0
  0
LINE
  8
_0-2_寸法
  6
CONTINUOUS
 62
    7
 10
330
 20
390
 11
257
 21
390
  0
LINE
  8
_0-2_寸法
  6
CONTINUOUS
 62
    7
 10
330
 20
505.27164987330002
 11
257
 21
505.27164987330002
  0
LINE
  8
_0-2_寸法
  6
CONTINUOUS
 62
    7
 10
257
 20
391
 11
257
 21
504.27164987330002
  0
TEXT
  8
_0-2_寸法
 62
    7
 10
256
 20
446.38582493669998
 40
5
 41
1
 50
90
  1
E
  0
CIRCLE
  8
_0-2_寸法
  6
CONTINUOUS
 62
    7
 10
330
 20
390
 40
1.3999999999999999
  0
CIRCLE
  8
_0-2_寸法
  6
CONTINUOUS
 62
    7
 10
330
 20
505.27164987330002
 40
1.3999999999999999
  0
CIRCLE
  8
_0-2_寸法
  6
CONTINUOUS
 62
    7
 10
257
 20
505.27164987330002
 40
1.3999999999999999
  0
ENDBLK
  0
BLOCK
  2
-015-BK17
 70
   64
 10
0
 20
0
 30
0
  0
LINE
  8
_0-2_寸法
  6
CONTINUOUS
 62
    7
 10
560
 20
348.38015414339998
 11
598
 21
348.38015414339998
  0
LINE
  8
_0-2_寸法
  6
CONTINUOUS
 62
    7
 10
511
 20
390
 11
598
 21
390
  0
LINE
  8
_0-2_寸法
  6
CONTINUOUS
 62
    7
 10
598
 20
349.38015414339998
 11
598
 21
389
  0
TEXT
  8
_0-2_寸法
 62
    7
 10
597
 20
366.69007707169999
 40
5
 41
1
 50
90
  1
44
  0
CIRCLE
  8
_0-2_寸法
  6
CONTINUOUS
 62
    7
 10
560
 20
348.38015414339998
 40
1.3999999999999999
  0
CIRCLE
  8
_0-2_寸法
  6
CONTINUOUS
 62
    7
 10
511
 20
390
 40
1.3999999999999999
  0
CIRCLE
  8
_0-2_寸法
  6
CONTINUOUS
 62
    7
 10
598
 20
390
 40
1.3999999999999999
  0
ENDBLK
  0
BLOCK
  2
-016-BK18
 70
   64
 10
0
 20
0
 30
0
  0
CIRCLE
  8
_0-2_寸法
  6
CONTINUOUS
 62
    7
 10
598
 20
348.38015414339998
 40
0.25
  0
LINE
  8
_0-2_寸法
  6
CONTINUOUS
 62
    7
 10
598
 20
348.13015414339998
 11
598
 21
348.63015414339998
  0
LINE
  8
_0-2_寸法
  6
CONTINUOUS
 62
    7
 10
598
 20
348.88015414339998
 11
598
 21
349.38015414339998
  0
ENDBLK
  0
BLOCK
  2
-017-BK19
 70
   64
 10
0
 20
0
 30
0
  0
CIRCLE
  8
_0-2_寸法
  6
CONTINUOUS
 62
    7
 10
598
 20
390
 40
0.25
  0
LINE
  8
_0-2_寸法
  6
CONTINUOUS
 62
    7
 10
598
 20
390.25
 11
598
 21
389.75
  0
LINE
  8
_0-2_寸法
  6
CONTINUOUS
 62
    7
 10
598
 20
389.5
 11
598
 21
389
  0
ENDBLK
  0
BLOCK
  2
-018-BK20
 70
   64
 10
0
 20
0
 30
0
  0
LINE
  8
_0-2_寸法
  6
CONTINUOUS
 62
    7
 10
560
 20
348.38015414339998
 11
618
 21
348.38015414339998
  0
LINE
  8
_0-2_寸法
  6
CONTINUOUS
 62
    7
 10
560
 20
438.38015414339998
 11
618
 21
438.38015414339998
  0
LINE
  8
_0-2_寸法
  6
CONTINUOUS
 62
    7
 10
618
 20
349.38015414339998
 11
618
 21
437.38015414339998
  0
TEXT
  8
_0-2_寸法
 62
    7
 10
617
 20
390.88015414339998
 40
5
 41
1
 50
90
  1
90
  0
CIRCLE
  8
_0-2_寸法
  6
CONTINUOUS
 62
    7
 10
560
 20
348.38015414339998
 40
1.3999999999999999
  0
CIRCLE
  8
_0-2_寸法
  6
CONTINUOUS
 62
    7
 10
560
 20
438.38015414339998
 40
1.3999999999999999
  0
CIRCLE
  8
_0-2_寸法
  6
CONTINUOUS
 62
    7
 10
618
 20
438.38015414339998
 40
1.3999999999999999
  0
ENDBLK
  0
BLOCK
  2
-019-BK21
 70
   64
 10
0
 20
0
 30
0
  0
CIRCLE
  8
_0-2_寸法
  6
CONTINUOUS
 62
    7
 10
618
 20
348.38015414339998
 40
0.25
  0
LINE
  8
_0-2_寸法
  6
CONTINUOUS
 62
    7
 10
618
 20
348.13015414339998
 11
618
 21
348.63015414339998
  0
LINE
  8
_0-2_寸法
  6
CONTINUOUS
 62
    7
 10
618
 20
348.88015414339998
 11
618
 21
349.38015414339998
  0
ENDBLK
  0
BLOCK
  2
-020-BK22
 70
   64
 10
0
 20
0
 30
0
  0
CIRCLE
  8
_0-2_寸法
  6
CONTINUOUS
 62
    7
 10
618
 20
438.38015414339998
 40
0.25
  0
LINE
  8
_0-2_寸法
  6
CONTINUOUS
 62
    7
 10
618
 20
438.63015414339998
 11
618
 21
438.13015414339998
  0
LINE
  8
_0-2_寸法
  6
CONTINUOUS
 62
    7
 10
618
 20
437.88015414339998
 11
618
 21
437.38015414339998
  0
ENDBLK
  0
BLOCK
  2
-021-BK23
 70
   64
 10
0
 20
0
 30
0
  0
LINE
  8
_0-2_寸法
  6
CONTINUOUS
 62
    7
 10
368.5
 20
454.27164987330002
 11
401.5
 21
454.27164987330002
  0
LINE
  8
_0-2_寸法
  6
CONTINUOUS
 62
    7
 10
368.5
 20
490.27164987330002
 11
401.5
 21
490.27164987330002
  0
LINE
  8
_0-2_寸法
  6
CONTINUOUS
 62
    7
 10
401.5
 20
455.27164987330002
 11
401.5
 21
489.27164987330002
  0
TEXT
  8
_0-2_寸法
 62
    7
 10
400.5
 20
469.77164987330002
 40
5
 41
1
 50
90
  1
36
  0
CIRCLE
  8
_0-2_寸法
  6
CONTINUOUS
 62
    7
 10
368.5
 20
454.27164987330002
 40
1.3999999999999999
  0
CIRCLE
  8
_0-2_寸法
  6
CONTINUOUS
 62
    7
 10
368.5
 20
490.27164987330002
 40
1.3999999999999999
  0
CIRCLE
  8
_0-2_寸法
  6
CONTINUOUS
 62
    7
 10
401.5
 20
490.27164987330002
 40
1.3999999999999999
  0
ENDBLK
  0
BLOCK
  2
-022-BK24
 70
   64
 10
0
 20
0
 30
0
  0
CIRCLE
  8
_0-2_寸法
  6
CONTINUOUS
 62
    7
 10
401.5
 20
454.27164987330002
 40
0.25
  0
LINE
  8
_0-2_寸法
  6
CONTINUOUS
 62
    7
 10
401.5
 20
454.02164987330002
 11
401.5
 21
454.52164987330002
  0
LINE
  8
_0-2_寸法
  6
CONTINUOUS
 62
    7
 10
401.5
 20
454.77164987330002
 11
401.5
 21
455.27164987330002
  0
ENDBLK
  0
BLOCK
  2
-023-BK25
 70
   64
 10
0
 20
0
 30
0
  0
CIRCLE
  8
_0-2_寸法
  6
CONTINUOUS
 62
    7
 10
401.5
 20
490.27164987330002
 40
0.25
  0
LINE
  8
_0-2_寸法
  6
CONTINUOUS
 62
    7
 10
401.5
 20
490.52164987330002
 11
401.5
 21
490.02164987330002
  0
LINE
  8
_0-2_寸法
  6
CONTINUOUS
 62
    7
 10
401.5
 20
489.77164987330002
 11
401.5
 21
489.27164987330002
  0
ENDBLK
  0
BLOCK
  2
-024-BK26
 70
   64
 10
0
 20
0
 30
0
  0
LINE
  8
_0-2_寸法
  6
CONTINUOUS
 62
    7
 10
368.5
 20
490.27164987330002
 11
401.5
 21
490.27164987330002
  0
LINE
  8
_0-2_寸法
  6
CONTINUOUS
 62
    7
 10
359
 20
505.27164987330002
 11
401.5
 21
505.27164987330002
  0
LINE
  8
_0-2_寸法
  6
CONTINUOUS
 62
    7
 10
401.5
 20
491.27164987330002
 11
401.5
 21
504.27164987330002
  0
TEXT
  8
_0-2_寸法
 62
    7
 10
400.5
 20
495.27164987330002
 40
5
 41
1
 50
90
  1
15
  0
CIRCLE
  8
_0-2_寸法
  6
CONTINUOUS
 62
    7
 10
368.5
 20
490.27164987330002
 40
1.3999999999999999
  0
CIRCLE
  8
_0-2_寸法
  6
CONTINUOUS
 62
    7
 10
359
 20
505.27164987330002
 40
1.3999999999999999
  0
CIRCLE
  8
_0-2_寸法
  6
CONTINUOUS
 62
    7
 10
401.5
 20
505.27164987330002
 40
1.3999999999999999
  0
ENDBLK
  0
BLOCK
  2
-025-BK27
 70
   64
 10
0
 20
0
 30
0
  0
CIRCLE
  8
_0-2_寸法
  6
CONTINUOUS
 62
    7
 10
401.5
 20
490.27164987330002
 40
0.25
  0
LINE
  8
_0-2_寸法
  6
CONTINUOUS
 62
    7
 10
401.5
 20
490.02164987330002
 11
401.5
 21
490.52164987330002
  0
LINE
  8
_0-2_寸法
  6
CONTINUOUS
 62
    7
 10
401.5
 20
490.77164987330002
 11
401.5
 21
491.27164987330002
  0
ENDBLK
  0
BLOCK
  2
-026-BK28
 70
   64
 10
0
 20
0
 30
0
  0
CIRCLE
  8
_0-2_寸法
  6
CONTINUOUS
 62
    7
 10
401.5
 20
505.27164987330002
 40
0.25
  0
LINE
  8
_0-2_寸法
  6
CONTINUOUS
 62
    7
 10
401.5
 20
505.52164987330002
 11
401.5
 21
505.02164987330002
  0
LINE
  8
_0-2_寸法
  6
CONTINUOUS
 62
    7
 10
401.5
 20
504.77164987330002
 11
401.5
 21
504.27164987330002
  0
ENDBLK
  0
BLOCK
  2
-027-BK29
 70
   64
 10
0
 20
0
 30
0
  0
LINE
  8
_0-2_寸法
  6
CONTINUOUS
 62
    7
 10
346.5
 20
507.27164987330002
 11
346.5
 21
540.27164987330002
  0
LINE
  8
_0-2_寸法
  6
CONTINUOUS
 62
    7
 10
366.5
 20
493.54329974659998
 11
366.5
 21
540.27164987330002
  0
LINE
  8
_0-2_寸法
  6
CONTINUOUS
 62
    7
 10
347.5
 20
540.27164987330002
 11
365.5
 21
540.27164987330002
  0
TEXT
  8
_0-2_寸法
 62
    7
 10
354
 20
541.27164987330002
 40
5
 41
1
 50
0
  1
20
  0
CIRCLE
  8
_0-2_寸法
  6
CONTINUOUS
 62
    7
 10
346.5
 20
507.27164987330002
 40
1.3999999999999999
  0
CIRCLE
  8
_0-2_寸法
  6
CONTINUOUS
 62
    7
 10
366.5
 20
493.54329974659998
 40
1.3999999999999999
  0
CIRCLE
  8
_0-2_寸法
  6
CONTINUOUS
 62
    7
 10
366.5
 20
540.27164987330002
 40
1.3999999999999999
  0
ENDBLK
  0
BLOCK
  2
-028-BK30
 70
   64
 10
0
 20
0
 30
0
  0
LINE
  8
_0-2_寸法
  6
CONTINUOUS
 62
    7
 10
333
 20
492.27164987330002
 11
333
 21
555.27164987330002
  0
LINE
  8
_0-2_寸法
  6
CONTINUOUS
 62
    7
 10
366.5
 20
493.54329974659998
 11
366.5
 21
555.27164987330002
  0
LINE
  8
_0-2_寸法
  6
CONTINUOUS
 62
    7
 10
334
 20
555.27164987330002
 11
365.5
 21
555.27164987330002
  0
TEXT
  8
_0-2_寸法
 62
    7
 10
344.75
 20
556.27164987330002
 40
5
 41
1
 50
0
  1
33.5
  0
CIRCLE
  8
_0-2_寸法
  6
CONTINUOUS
 62
    7
 10
333
 20
492.27164987330002
 40
1.3999999999999999
  0
CIRCLE
  8
_0-2_寸法
  6
CONTINUOUS
 62
    7
 10
366.5
 20
493.54329974659998
 40
1.3999999999999999
  0
CIRCLE
  8
_0-2_寸法
  6
CONTINUOUS
 62
    7
 10
366.5
 20
555.27164987330002
 40
1.3999999999999999
  0
ENDBLK
  0
BLOCK
  2
-029-BK31
 70
   64
 10
0
 20
0
 30
0
  0
LINE
  8
_0-2_寸法
  6
CONTINUOUS
 62
    7
 10
333
 20
492.27164987330002
 11
333
 21
570.27164987330002
  0
LINE
  8
_0-2_寸法
  6
CONTINUOUS
 62
    7
 10
558
 20
440.38015414339998
 11
558
 21
570.27164987330002
  0
LINE
  8
_0-2_寸法
  6
CONTINUOUS
 62
    7
 10
334
 20
570.27164987330002
 11
557
 21
570.27164987330002
  0
TEXT
  8
_0-2_寸法
 62
    7
 10
444.25
 20
571.27164987330002
 40
5
 41
1
 50
0
  1
W
  0
CIRCLE
  8
_0-2_寸法
  6
CONTINUOUS
 62
    7
 10
333
 20
492.27164987330002
 40
1.3999999999999999
  0
CIRCLE
  8
_0-2_寸法
  6
CONTINUOUS
 62
    7
 10
558
 20
440.38015414339998
 40
1.3999999999999999
  0
CIRCLE
  8
_0-2_寸法
  6
CONTINUOUS
 62
    7
 10
558
 20
570.27164987330002
 40
1.3999999999999999
  0
ENDBLK
  0
BLOCK
  2
-030-BK32
 70
   64
 10
0
 20
0
 30
0
  0
LINE
  8
_0-2_寸法
  6
CONTINUOUS
 62
    7
 10
348
 20
463.38578779279999
 11
348
 21
483.27164987330002
  0
LINE
  8
_0-2_寸法
  6
CONTINUOUS
 62
    7
 10
558
 20
440.38015414339998
 11
558
 21
483.27164987330002
  0
LINE
  8
_0-2_寸法
  6
CONTINUOUS
 62
    7
 10
349
 20
483.27164987330002
 11
557
 21
483.27164987330002
  0
TEXT
  8
_0-2_寸法
 62
    7
 10
451.75
 20
484.27164987330002
 40
5
 41
1
 50
0
  1
A
  0
CIRCLE
  8
_0-2_寸法
  6
CONTINUOUS
 62
    7
 10
348
 20
463.38578779279999
 40
1.3999999999999999
  0
CIRCLE
  8
_0-2_寸法
  6
CONTINUOUS
 62
    7
 10
558
 20
440.38015414339998
 40
1.3999999999999999
  0
CIRCLE
  8
_0-2_寸法
  6
CONTINUOUS
 62
    7
 10
558
 20
483.27164987330002
 40
1.3999999999999999
  0
ENDBLK
  0
BLOCK
  2
-031-BK33
 70
   64
 10
0
 20
0
 30
0
  0
CIRCLE
  8
_0-2_寸法
  6
CONTINUOUS
 62
    7
 10
348
 20
483.27164987330002
 40
0.25
  0
LINE
  8
_0-2_寸法
  6
CONTINUOUS
 62
    7
 10
347.75
 20
483.27164987330002
 11
348.25
 21
483.27164987330002
  0
LINE
  8
_0-2_寸法
  6
CONTINUOUS
 62
    7
 10
348.5
 20
483.27164987330002
 11
349
 21
483.27164987330002
  0
ENDBLK
  0
BLOCK
  2
-032-BK34
 70
   64
 10
0
 20
0
 30
0
  0
CIRCLE
  8
_0-2_寸法
  6
CONTINUOUS
 62
    7
 10
558
 20
483.27164987330002
 40
0.25
  0
LINE
  8
_0-2_寸法
  6
CONTINUOUS
 62
    7
 10
558.25
 20
483.27164987330002
 11
557.75
 21
483.27164987330002
  0
LINE
  8
_0-2_寸法
  6
CONTINUOUS
 62
    7
 10
557.5
 20
483.27164987330002
 11
557
 21
483.27164987330002
  0
ENDBLK
  0
ENDSEC
  0
SECTION
  2
ENTITIES
  0
LINE
  8
_0-4_図枠
  6
CONTINUOUS
 62
    7
 10
8
 20
9
 11
832
 21
9
  0
LINE
  8
_0-4_図枠
  6
CONTINUOUS
 62
    7
 10
832
 20
585
 11
8
 21
585
  0
LINE
  8
_0-4_図枠
  6
CONTINUOUS
 62
    7
 10
8
 20
585
 11
8
 21
9
  0
TEXT
  8
_0-4_図枠
 62
    7
 10
25.904802574689995
 20
532.64687376589995
 40
10
 41
1
 50
0
  1
　　Ｓ＝１／２
  0
CIRCLE
  8
_0-4_図枠
  6
CONTINUOUS
 62
    7
 10
294.83189355569999
 20
519.03598627400004
 40
6
  0
LINE
  8
_0-4_図枠
  6
CONTINUOUS
 62
    7
 10
832
 20
9
 11
832
 21
585
  0
TEXT
  8
_0-4_図枠
 62
    7
 10
674
 20
237.66990039890001
 40
5
 41
1
 50
0
  1
（単位：mm）
  0
LINE
  8
_0-4_図枠
  6
CONTINUOUS
 62
    7
 10
715
 20
120
 11
490
 21
120
  0
LINE
  8
_0-4_図枠
  6
CONTINUOUS
 62
    7
 10
715
 20
129
 11
490
 21
129
  0
LINE
  8
_0-4_図枠
  6
CONTINUOUS
 62
    7
 10
715
 20
138
 11
490
 21
138
  0
LINE
  8
_0-4_図枠
  6
CONTINUOUS
 62
    7
 10
715
 20
147
 11
490
 21
147
  0
LINE
  8
_0-4_図枠
  6
CONTINUOUS
 62
    7
 10
715
 20
156
 11
490
 21
156
  0
LINE
  8
_0-4_図枠
  6
CONTINUOUS
 62
    7
 10
715
 20
165
 11
490
 21
165
  0
LINE
  8
_0-4_図枠
  6
CONTINUOUS
 62
    7
 10
715
 20
174
 11
490
 21
174
  0
LINE
  8
_0-4_図枠
  6
CONTINUOUS
 62
    7
 10
715
 20
183
 11
490
 21
183
  0
LINE
  8
_0-4_図枠
  6
CONTINUOUS
 62
    7
 10
715
 20
192
 11
490
 21
192
  0
LINE
  8
_0-4_図枠
  6
CONTINUOUS
 62
    7
 10
715
 20
201
 11
490
 21
201
  0
LINE
  8
_0-4_図枠
  6
CONTINUOUS
 62
    7
 10
715
 20
210
 11
490
 21
210
  0
LINE
  8
_0-4_図枠
  6
CONTINUOUS
 62
    7
 10
715
 20
219
 11
490
 21
219
  0
LINE
  8
_0-4_図枠
  6
CONTINUOUS
 62
    7
 10
715
 20
228
 11
490
 21
228
  0
LINE
  8
_0-4_図枠
  6
CONTINUOUS
 62
    7
 10
715
 20
237
 11
490
 21
237
  0
LINE
  8
_0-4_図枠
  6
CONTINUOUS
 62
    7
 10
490
 20
237
 11
490
 21
120
  0
TEXT
  8
_0-4_図枠
 62
    7
 10
510.5
 20
229.5
 40
5
 41
1
 50
0
  1
タ　イ　プ
  0
LINE
  8
_0-4_図枠
  6
CONTINUOUS
 62
    7
 10
655
 20
237
 11
655
 21
120
  0
LINE
  8
_0-4_図枠
  6
CONTINUOUS
 62
    7
 10
625
 20
237
 11
625
 21
120
  0
LINE
  8
_0-4_図枠
  6
CONTINUOUS
 62
    7
 10
565
 20
237
 11
565
 21
120
  0
LINE
  8
_0-4_図枠
  6
CONTINUOUS
 62
    7
 10
595
 20
237
 11
595
 21
120
  0
TEXT
  8
_0-4_図枠
 62
    7
 10
577
 20
229.5
 40
5
 41
1
 50
0
  1
Ｗ
  0
TEXT
  8
_0-4_図枠
 62
    7
 10
607
 20
229.5
 40
5
 41
1
 50
0
  1
Ａ
  0
TEXT
  8
_0-4_図枠
 62
    7
 10
637
 20
229.5
 40
5
 41
1
 50
0
  1
Ｃ
  0
TEXT
  8
_0-4_図枠
 62
    7
 10
667
 20
229.5
 40
5
 41
1
 50
0
  1
Ｄ
  0
LINE
  8
_0-4_図枠
  6
CONTINUOUS
 62
    7
 10
685
 20
237
 11
685
 21
120
  0
LINE
  8
_0-4_図枠
  6
CONTINUOUS
 62
    7
 10
715
 20
237
 11
715
 21
120
  0
TEXT
  8
_0-4_図枠
 62
    7
 10
697
 20
229.5
 40
5
 41
1
 50
0
  1
Ｅ
  0
TEXT
  8
_0-4_図枠
 62
    7
 10
291.58189355569999
 20
516.03598627400004
 40
5
 41
1
 50
0
  1
14
  0
LINE
  8
_0-0_0
  6
CONTINUOUS
 62
    7
 10
334
 20
48
 11
125
 21
48
  0
LINE
  8
_0-0_0
  6
CONTINUOUS
 62
    7
 10
334
 20
39
 11
125
 21
39
  0
LINE
  8
_0-0_0
  6
CONTINUOUS
 62
    7
 10
334
 20
129
 11
125
 21
129
  0
LINE
  8
_0-0_0
  6
CONTINUOUS
 62
    7
 10
334
 20
138
 11
125
 21
138
  0
TEXT
  8
_0-0_0
 62
    7
 10
409
 20
237.64336701089999
 40
5
 41
1
 50
0
  1
（2000mmセット）
  0
TEXT
  8
_0-0_0
 62
    7
 10
413.75
 20
193.5
 40
5
 41
1
 50
0
  1
2000
  0
TEXT
  8
_0-0_0
 62
    7
 10
413.75
 20
202.5
 40
5
 41
1
 50
0
  1
2000
  0
TEXT
  8
_0-0_0
 62
    7
 10
413.75
 20
211.5
 40
5
 41
1
 50
0
  1
2000
  0
TEXT
  8
_0-0_0
 62
    7
 10
413.75
 20
220.5
 40
5
 41
1
 50
0
  1
2000
  0
TEXT
  8
_0-0_0
 62
    7
 10
406.75
 20
229.5
 40
5
 41
1
 50
0
  1
定尺(mm)
  0
LINE
  8
_0-0_0
  6
CONTINUOUS
 62
    7
 10
403
 20
192
 11
470
 21
192
  0
LINE
  8
_0-0_0
  6
CONTINUOUS
 62
    7
 10
403
 20
201
 11
470
 21
201
  0
LINE
  8
_0-0_0
  6
CONTINUOUS
 62
    7
 10
403
 20
210
 11
470
 21
210
  0
LINE
  8
_0-0_0
  6
CONTINUOUS
 62
    7
 10
403
 20
219
 11
470
 21
219
  0
LINE
  8
_0-0_0
  6
CONTINUOUS
 62
    7
 10
403
 20
228
 11
470
 21
228
  0
LINE
  8
_0-0_0
  6
CONTINUOUS
 62
    7
 10
403
 20
237
 11
470
 21
237
  0
LINE
  8
_0-0_0
  6
CONTINUOUS
 62
    7
 10
334
 20
57
 11
125
 21
57
  0
LINE
  8
_0-0_0
  6
CONTINUOUS
 62
    7
 10
334
 20
66
 11
125
 21
66
  0
LINE
  8
_0-0_0
  6
CONTINUOUS
 62
    7
 10
334
 20
75
 11
125
 21
75
  0
LINE
  8
_0-0_0
  6
CONTINUOUS
 62
    7
 10
334
 20
84
 11
125
 21
84
  0
LINE
  8
_0-0_0
  6
CONTINUOUS
 62
    7
 10
334
 20
93
 11
125
 21
93
  0
LINE
  8
_0-0_0
  6
CONTINUOUS
 62
    7
 10
334
 20
102
 11
125
 21
102
  0
LINE
  8
_0-0_0
  6
CONTINUOUS
 62
    7
 10
334
 20
111
 11
125
 21
111
  0
LINE
  8
_0-0_0
  6
CONTINUOUS
 62
    7
 10
334
 20
120
 11
125
 21
120
  0
LINE
  8
_0-0_0
  6
CONTINUOUS
 62
    7
 10
334
 20
147
 11
125
 21
147
  0
LINE
  8
_0-0_0
  6
CONTINUOUS
 62
    7
 10
334
 20
156
 11
125
 21
156
  0
LINE
  8
_0-0_0
  6
CONTINUOUS
 62
    7
 10
334
 20
165
 11
125
 21
165
  0
LINE
  8
_0-0_0
  6
CONTINUOUS
 62
    7
 10
334
 20
174
 11
125
 21
174
  0
LINE
  8
_0-0_0
  6
CONTINUOUS
 62
    7
 10
334
 20
183
 11
125
 21
183
  0
LINE
  8
_0-0_0
  6
CONTINUOUS
 62
    7
 10
334
 20
192
 11
125
 21
192
  0
LINE
  8
_0-0_0
  6
CONTINUOUS
 62
    7
 10
334
 20
201
 11
125
 21
201
  0
LINE
  8
_0-0_0
  6
CONTINUOUS
 62
    7
 10
334
 20
210
 11
125
 21
210
  0
LINE
  8
_0-0_0
  6
CONTINUOUS
 62
    7
 10
334
 20
219
 11
125
 21
219
  0
LINE
  8
_0-0_0
  6
CONTINUOUS
 62
    7
 10
334
 20
228
 11
125
 21
228
  0
LINE
  8
_0-0_0
  6
CONTINUOUS
 62
    7
 10
334
 20
237
 11
125
 21
237
  0
TEXT
  8
_0-0_0
 62
    7
 10
144
 20
193.5
 40
5
 41
1
 50
0
  1
ＦＹＫ壁フレーム
  0
TEXT
  8
_0-0_0
 62
    7
 10
144
 20
202.5
 40
5
 41
1
 50
0
  1
ＦＹＹフレーム
  0
TEXT
  8
_0-0_0
 62
    7
 10
144
 20
211.5
 40
5
 41
1
 50
0
  1
ＦＹＫサイドキャップＡ
  0
TEXT
  8
_0-0_0
 62
    7
 10
144
 20
220.5
 40
5
 41
1
 50
0
  1
ＦＹＫキャップＡ
  0
TEXT
  8
_0-0_0
 62
    7
 10
128.75
 20
49.5
 40
5
 41
1
 50
0
  1
20
  0
TEXT
  8
_0-0_0
 62
    7
 10
128.75
 20
58.5
 40
5
 41
1
 50
0
  1
19
  0
TEXT
  8
_0-0_0
 62
    7
 10
128.75
 20
85.5
 40
5
 41
1
 50
0
  1
16
  0
TEXT
  8
_0-0_0
 62
    7
 10
128.75
 20
76.5
 40
5
 41
1
 50
0
  1
17
  0
TEXT
  8
_0-0_0
 62
    7
 10
128.75
 20
67.5
 40
5
 41
1
 50
0
  1
18
  0
TEXT
  8
_0-0_0
 62
    7
 10
128.75
 20
94.5
 40
5
 41
1
 50
0
  1
15
  0
TEXT
  8
_0-0_0
 62
    7
 10
128.75
 20
103.5
 40
5
 41
1
 50
0
  1
14
  0
TEXT
  8
_0-0_0
 62
    7
 10
128.75
 20
202.5
 40
5
 41
1
 50
0
  1
 3
  0
TEXT
  8
_0-0_0
 62
    7
 10
128.75
 20
157.5
 40
5
 41
1
 50
0
  1
 8
  0
TEXT
  8
_0-0_0
 62
    7
 10
128.75
 20
130.5
 40
5
 41
1
 50
0
  1
11
  0
TEXT
  8
_0-0_0
 62
    7
 10
128.75
 20
121.5
 40
5
 41
1
 50
0
  1
12
  0
TEXT
  8
_0-0_0
 62
    7
 10
128.75
 20
112.5
 40
5
 41
1
 50
0
  1
13
  0
TEXT
  8
_0-0_0
 62
    7
 10
128.75
 20
139.5
 40
5
 41
1
 50
0
  1
10
  0
TEXT
  8
_0-0_0
 62
    7
 10
128.75
 20
148.5
 40
5
 41
1
 50
0
  1
 9
  0
TEXT
  8
_0-0_0
 62
    7
 10
128.75
 20
166.5
 40
5
 41
1
 50
0
  1
 7
  0
TEXT
  8
_0-0_0
 62
    7
 10
128.75
 20
175.5
 40
5
 41
1
 50
0
  1
 6
  0
TEXT
  8
_0-0_0
 62
    7
 10
128.75
 20
184.5
 40
5
 41
1
 50
0
  1
 5
  0
TEXT
  8
_0-0_0
 62
    7
 10
128.75
 20
193.5
 40
5
 41
1
 50
0
  1
 4
  0
TEXT
  8
_0-0_0
 62
    7
 10
128.75
 20
211.5
 40
5
 41
1
 50
0
  1
 2
  0
TEXT
  8
_0-0_0
 62
    7
 10
128.75
 20
220.5
 40
5
 41
1
 50
0
  1
 1
  0
TEXT
  8
_0-0_0
 62
    7
 10
127
 20
229.5
 40
5
 41
1
 50
0
  1
No.
  0
TEXT
  8
_0-0_0
 62
    7
 10
276.5
 20
229.5
 40
5
 41
1
 50
0
  1
規　格
  0
TEXT
  8
_0-0_0
 62
    7
 10
175.5
 20
229.5
 40
5
 41
1
 50
0
  1
部材名称
  0
TEXT
  8
_0-0_0
 62
    7
 10
392
 20
202.5
 40
5
 41
1
 50
0
  1
〃
  0
TEXT
  8
_0-0_0
 62
    7
 10
375.75
 20
202.5
 40
5
 41
1
 50
0
  1
 1
  0
TEXT
  8
_0-0_0
 62
    7
 10
345.75
 20
202.5
 40
5
 41
1
 50
0
  1
3000
  0
TEXT
  8
_0-0_0
 62
    7
 10
345.75
 20
193.5
 40
5
 41
1
 50
0
  1
3000
  0
LINE
  8
_0-0_0
  6
CONTINUOUS
 62
    7
 10
402
 20
192
 11
335
 21
192
  0
LINE
  8
_0-0_0
  6
CONTINUOUS
 62
    7
 10
402
 20
201
 11
335
 21
201
  0
TEXT
  8
_0-0_0
 62
    7
 10
375.75
 20
193.5
 40
5
 41
1
 50
0
  1
 1
  0
TEXT
  8
_0-0_0
 62
    7
 10
392
 20
193.5
 40
5
 41
1
 50
0
  1
〃
  0
TEXT
  8
_0-0_0
 62
    7
 10
341
 20
237.64336701089999
 40
5
 41
1
 50
0
  1
（3000mmセット）
  0
TEXT
  8
_0-0_0
 62
    7
 10
345.75
 20
211.5
 40
5
 41
1
 50
0
  1
3000
  0
TEXT
  8
_0-0_0
 62
    7
 10
345.75
 20
220.5
 40
5
 41
1
 50
0
  1
3000
  0
TEXT
  8
_0-0_0
 62
    7
 10
338.75
 20
229.5
 40
5
 41
1
 50
0
  1
定尺(mm)
  0
LINE
  8
_0-0_0
  6
CONTINUOUS
 62
    7
 10
402
 20
210
 11
335
 21
210
  0
LINE
  8
_0-0_0
  6
CONTINUOUS
 62
    7
 10
402
 20
219
 11
335
 21
219
  0
LINE
  8
_0-0_0
  6
CONTINUOUS
 62
    7
 10
402
 20
228
 11
335
 21
228
  0
LINE
  8
_0-0_0
  6
CONTINUOUS
 62
    7
 10
402
 20
237
 11
335
 21
237
  0
TEXT
  8
_0-0_0
 62
    7
 10
375.75
 20
211.5
 40
5
 41
1
 50
0
  1
 1
  0
TEXT
  8
_0-0_0
 62
    7
 10
375.75
 20
220.5
 40
5
 41
1
 50
0
  1
 1
  0
TEXT
  8
_0-0_0
 62
    7
 10
372.5
 20
229.5
 40
5
 41
1
 50
0
  1
入数
  0
TEXT
  8
_0-0_0
 62
    7
 10
392
 20
211.5
 40
5
 41
1
 50
0
  1
〃
  0
TEXT
  8
_0-0_0
 62
    7
 10
392
 20
220.5
 40
5
 41
1
 50
0
  1
本
  0
TEXT
  8
_0-0_0
 62
    7
 10
388.5
 20
229.5
 40
5
 41
1
 50
0
  1
単位
  0
TEXT
  8
_0-0_0
 62
    7
 10
460
 20
202.5
 40
5
 41
1
 50
0
  1
〃
  0
TEXT
  8
_0-0_0
 62
    7
 10
443.75
 20
202.5
 40
5
 41
1
 50
0
  1
 1
  0
TEXT
  8
_0-0_0
 62
    7
 10
443.75
 20
193.5
 40
5
 41
1
 50
0
  1
 1
  0
TEXT
  8
_0-0_0
 62
    7
 10
460
 20
193.5
 40
5
 41
1
 50
0
  1
〃
  0
TEXT
  8
_0-0_0
 62
    7
 10
443.75
 20
211.5
 40
5
 41
1
 50
0
  1
 1
  0
TEXT
  8
_0-0_0
 62
    7
 10
443.75
 20
220.5
 40
5
 41
1
 50
0
  1
 1
  0
TEXT
  8
_0-0_0
 62
    7
 10
440.5
 20
229.5
 40
5
 41
1
 50
0
  1
入数
  0
TEXT
  8
_0-0_0
 62
    7
 10
460
 20
211.5
 40
5
 41
1
 50
0
  1
〃
  0
TEXT
  8
_0-0_0
 62
    7
 10
460
 20
220.5
 40
5
 41
1
 50
0
  1
本
  0
TEXT
  8
_0-0_0
 62
    7
 10
456.5
 20
229.5
 40
5
 41
1
 50
0
  1
単位
  0
LINE
  8
_0-0_0
  6
CONTINUOUS
 62
    7
 10
403
 20
147
 11
470
 21
147
  0
LINE
  8
_0-0_0
  6
CONTINUOUS
 62
    7
 10
403
 20
156
 11
470
 21
156
  0
LINE
  8
_0-0_0
  6
CONTINUOUS
 62
    7
 10
403
 20
165
 11
470
 21
165
  0
LINE
  8
_0-0_0
  6
CONTINUOUS
 62
    7
 10
403
 20
174
 11
470
 21
174
  0
LINE
  8
_0-0_0
  6
CONTINUOUS
 62
    7
 10
403
 20
183
 11
470
 21
183
  0
LINE
  8
_0-0_0
  6
CONTINUOUS
 62
    7
 10
403
 20
192
 11
470
 21
192
  0
TEXT
  8
_0-0_0
 62
    7
 10
144
 20
148.5
 40
5
 41
1
 50
0
  1
ＦＹＫｻｲﾄﾞｷｬｯﾌﾟ ｼﾞｮｲﾝﾄ
  0
TEXT
  8
_0-0_0
 62
    7
 10
144
 20
157.5
 40
5
 41
1
 50
0
  1
ＦＹＫ水切ジョイント
  0
TEXT
  8
_0-0_0
 62
    7
 10
144
 20
166.5
 40
5
 41
1
 50
0
  1
ＦＹＹフレームナット
  0
TEXT
  8
_0-0_0
 62
    7
 10
144
 20
175.5
 40
5
 41
1
 50
0
  1
ＦＹＹホルダースプリング
  0
TEXT
  8
_0-0_0
 62
    7
 10
144
 20
184.5
 40
5
 41
1
 50
0
  1
ＦＹＫホルダー
  0
LINE
  8
_0-0_0
  6
CONTINUOUS
 62
    7
 10
402
 20
147
 11
335
 21
147
  0
LINE
  8
_0-0_0
  6
CONTINUOUS
 62
    7
 10
402
 20
156
 11
335
 21
156
  0
LINE
  8
_0-0_0
  6
CONTINUOUS
 62
    7
 10
402
 20
165
 11
335
 21
165
  0
LINE
  8
_0-0_0
  6
CONTINUOUS
 62
    7
 10
402
 20
174
 11
335
 21
174
  0
LINE
  8
_0-0_0
  6
CONTINUOUS
 62
    7
 10
402
 20
183
 11
335
 21
183
  0
LINE
  8
_0-0_0
  6
CONTINUOUS
 62
    7
 10
402
 20
192
 11
335
 21
192
  0
TEXT
  8
_0-0_0
 62
    7
 10
375.75
 20
166.5
 40
5
 41
1
 50
0
  1
 6
  0
TEXT
  8
_0-0_0
 62
    7
 10
375.75
 20
148.5
 40
5
 41
1
 50
0
  1
 1
  0
TEXT
  8
_0-0_0
 62
    7
 10
375.75
 20
157.5
 40
5
 41
1
 50
0
  1
 1
  0
TEXT
  8
_0-0_0
 62
    7
 10
392
 20
148.5
 40
5
 41
1
 50
0
  1
〃
  0
TEXT
  8
_0-0_0
 62
    7
 10
392
 20
157.5
 40
5
 41
1
 50
0
  1
〃
  0
TEXT
  8
_0-0_0
 62
    7
 10
375.75
 20
175.5
 40
5
 41
1
 50
0
  1
 6
  0
TEXT
  8
_0-0_0
 62
    7
 10
375.75
 20
184.5
 40
5
 41
1
 50
0
  1
 6
  0
TEXT
  8
_0-0_0
 62
    7
 10
392
 20
175.5
 40
5
 41
1
 50
0
  1
〃
  0
TEXT
  8
_0-0_0
 62
    7
 10
392
 20
166.5
 40
5
 41
1
 50
0
  1
〃
  0
TEXT
  8
_0-0_0
 62
    7
 10
392
 20
184.5
 40
5
 41
1
 50
0
  1
〃
  0
TEXT
  8
_0-0_0
 62
    7
 10
443.75
 20
166.5
 40
5
 41
1
 50
0
  1
 4
  0
TEXT
  8
_0-0_0
 62
    7
 10
443.75
 20
148.5
 40
5
 41
1
 50
0
  1
 1
  0
TEXT
  8
_0-0_0
 62
    7
 10
443.75
 20
157.5
 40
5
 41
1
 50
0
  1
 1
  0
TEXT
  8
_0-0_0
 62
    7
 10
460
 20
148.5
 40
5
 41
1
 50
0
  1
〃
  0
TEXT
  8
_0-0_0
 62
    7
 10
460
 20
157.5
 40
5
 41
1
 50
0
  1
〃
  0
TEXT
  8
_0-0_0
 62
    7
 10
443.75
 20
175.5
 40
5
 41
1
 50
0
  1
 4
  0
TEXT
  8
_0-0_0
 62
    7
 10
443.75
 20
184.5
 40
5
 41
1
 50
0
  1
 4
  0
TEXT
  8
_0-0_0
 62
    7
 10
460
 20
175.5
 40
5
 41
1
 50
0
  1
〃
  0
TEXT
  8
_0-0_0
 62
    7
 10
460
 20
166.5
 40
5
 41
1
 50
0
  1
〃
  0
TEXT
  8
_0-0_0
 62
    7
 10
460
 20
184.5
 40
5
 41
1
 50
0
  1
〃
  0
TEXT
  8
_0-0_0
 62
    7
 10
144
 20
139.5
 40
5
 41
1
 50
0
  1
止水補助板
  0
TEXT
  8
_0-0_0
 62
    7
 10
413.75
 20
139.5
 40
5
 41
1
 50
0
  1
2100
  0
TEXT
  8
_0-0_0
 62
    7
 10
345.75
 20
139.5
 40
5
 41
1
 50
0
  1
3100
  0
TEXT
  8
_0-0_0
 62
    7
 10
375.75
 20
139.5
 40
5
 41
1
 50
0
  1
 1
  0
TEXT
  8
_0-0_0
 62
    7
 10
392
 20
139.5
 40
5
 41
1
 50
0
  1
〃
  0
TEXT
  8
_0-0_0
 62
    7
 10
443.75
 20
139.5
 40
5
 41
1
 50
0
  1
 1
  0
TEXT
  8
_0-0_0
 62
    7
 10
460
 20
139.5
 40
5
 41
1
 50
0
  1
〃
  0
LINE
  8
_0-0_0
  6
CONTINUOUS
 62
    7
 10
403
 20
129
 11
470
 21
129
  0
LINE
  8
_0-0_0
  6
CONTINUOUS
 62
    7
 10
403
 20
138
 11
470
 21
138
  0
LINE
  8
_0-0_0
  6
CONTINUOUS
 62
    7
 10
402
 20
129
 11
335
 21
129
  0
LINE
  8
_0-0_0
  6
CONTINUOUS
 62
    7
 10
402
 20
138
 11
335
 21
138
  0
TEXT
  8
_0-0_0
 62
    7
 10
413.75
 20
40.5
 40
5
 41
1
 50
0
  1
6000
  0
TEXT
  8
_0-0_0
 62
    7
 10
413.75
 20
121.5
 40
5
 41
1
 50
0
  1
2000
  0
TEXT
  8
_0-0_0
 62
    7
 10
413.75
 20
130.5
 40
5
 41
1
 50
0
  1
2100
  0
LINE
  8
_0-0_0
  6
CONTINUOUS
 62
    7
 10
403
 20
39
 11
470
 21
39
  0
LINE
  8
_0-0_0
  6
CONTINUOUS
 62
    7
 10
403
 20
48
 11
470
 21
48
  0
LINE
  8
_0-0_0
  6
CONTINUOUS
 62
    7
 10
403
 20
57
 11
470
 21
57
  0
LINE
  8
_0-0_0
  6
CONTINUOUS
 62
    7
 10
403
 20
66
 11
470
 21
66
  0
LINE
  8
_0-0_0
  6
CONTINUOUS
 62
    7
 10
403
 20
75
 11
470
 21
75
  0
LINE
  8
_0-0_0
  6
CONTINUOUS
 62
    7
 10
403
 20
84
 11
470
 21
84
  0
LINE
  8
_0-0_0
  6
CONTINUOUS
 62
    7
 10
403
 20
93
 11
470
 21
93
  0
LINE
  8
_0-0_0
  6
CONTINUOUS
 62
    7
 10
403
 20
102
 11
470
 21
102
  0
LINE
  8
_0-0_0
  6
CONTINUOUS
 62
    7
 10
403
 20
111
 11
470
 21
111
  0
LINE
  8
_0-0_0
  6
CONTINUOUS
 62
    7
 10
403
 20
120
 11
470
 21
120
  0
TEXT
  8
_0-0_0
 62
    7
 10
144
 20
40.5
 40
5
 41
1
 50
0
  1
ブチルテープ
  0
TEXT
  8
_0-0_0
 62
    7
 10
144
 20
49.5
 40
5
 41
1
 50
0
  1
ステンワッシャー
  0
TEXT
  8
_0-0_0
 62
    7
 10
144
 20
58.5
 40
5
 41
1
 50
0
  1
ステスワッシャー
  0
TEXT
  8
_0-0_0
 62
    7
 10
144
 20
67.5
 40
5
 41
1
 50
0
  1
ステンタッピンねじ
  0
TEXT
  8
_0-0_0
 62
    7
 10
144
 20
76.5
 40
5
 41
1
 50
0
  1
アンカープラグ
  0
TEXT
  8
_0-0_0
 62
    7
 10
144
 20
85.5
 40
5
 41
1
 50
0
  1
アジャストアンカー
  0
TEXT
  8
_0-0_0
 62
    7
 10
144
 20
94.5
 40
5
 41
1
 50
0
  1
ステン六角ボルト
  0
TEXT
  8
_0-0_0
 62
    7
 10
144
 20
121.5
 40
5
 41
1
 50
0
  1
ガスケットＮ
  0
TEXT
  8
_0-0_0
 62
    7
 10
345.75
 20
40.5
 40
5
 41
1
 50
0
  1
6000
  0
LINE
  8
_0-0_0
  6
CONTINUOUS
 62
    7
 10
402
 20
39
 11
335
 21
39
  0
LINE
  8
_0-0_0
  6
CONTINUOUS
 62
    7
 10
402
 20
48
 11
335
 21
48
  0
LINE
  8
_0-0_0
  6
CONTINUOUS
 62
    7
 10
402
 20
57
 11
335
 21
57
  0
LINE
  8
_0-0_0
  6
CONTINUOUS
 62
    7
 10
402
 20
66
 11
335
 21
66
  0
LINE
  8
_0-0_0
  6
CONTINUOUS
 62
    7
 10
402
 20
75
 11
335
 21
75
  0
LINE
  8
_0-0_0
  6
CONTINUOUS
 62
    7
 10
402
 20
84
 11
335
 21
84
  0
LINE
  8
_0-0_0
  6
CONTINUOUS
 62
    7
 10
402
 20
93
 11
335
 21
93
  0
LINE
  8
_0-0_0
  6
CONTINUOUS
 62
    7
 10
402
 20
102
 11
335
 21
102
  0
LINE
  8
_0-0_0
  6
CONTINUOUS
 62
    7
 10
402
 20
111
 11
335
 21
111
  0
LINE
  8
_0-0_0
  6
CONTINUOUS
 62
    7
 10
402
 20
120
 11
335
 21
120
  0
TEXT
  8
_0-0_0
 62
    7
 10
375.75
 20
49.5
 40
5
 41
1
 50
0
  1
 6
  0
TEXT
  8
_0-0_0
 62
    7
 10
375.75
 20
40.5
 40
5
 41
1
 50
0
  1
 1
  0
TEXT
  8
_0-0_0
 62
    7
 10
375.75
 20
58.5
 40
5
 41
1
 50
0
  1
 6
  0
TEXT
  8
_0-0_0
 62
    7
 10
375.75
 20
67.5
 40
5
 41
1
 50
0
  1
 6
  0
TEXT
  8
_0-0_0
 62
    7
 10
392
 20
40.5
 40
5
 41
1
 50
0
  1
巻
  0
TEXT
  8
_0-0_0
 62
    7
 10
392
 20
58.5
 40
5
 41
1
 50
0
  1
枚
  0
TEXT
  8
_0-0_0
 62
    7
 10
392
 20
49.5
 40
5
 41
1
 50
0
  1
〃
  0
TEXT
  8
_0-0_0
 62
    7
 10
392
 20
67.5
 40
5
 41
1
 50
0
  1
〃
  0
TEXT
  8
_0-0_0
 62
    7
 10
375.75
 20
94.5
 40
5
 41
1
 50
0
  1
 6
  0
TEXT
  8
_0-0_0
 62
    7
 10
375.75
 20
85.5
 40
5
 41
1
 50
0
  1
 6
  0
TEXT
  8
_0-0_0
 62
    7
 10
375.75
 20
76.5
 40
5
 41
1
 50
0
  1
 6
  0
TEXT
  8
_0-0_0
 62
    7
 10
375.75
 20
103.5
 40
5
 41
1
 50
0
  1
 6
  0
TEXT
  8
_0-0_0
 62
    7
 10
375.75
 20
112.5
 40
5
 41
1
 50
0
  1
 6
  0
TEXT
  8
_0-0_0
 62
    7
 10
392
 20
94.5
 40
5
 41
1
 50
0
  1
〃
  0
TEXT
  8
_0-0_0
 62
    7
 10
392
 20
76.5
 40
5
 41
1
 50
0
  1
〃
  0
TEXT
  8
_0-0_0
 62
    7
 10
392
 20
85.5
 40
5
 41
1
 50
0
  1
〃
  0
TEXT
  8
_0-0_0
 62
    7
 10
392
 20
103.5
 40
5
 41
1
 50
0
  1
〃
  0
TEXT
  8
_0-0_0
 62
    7
 10
392
 20
112.5
 40
5
 41
1
 50
0
  1
〃
  0
TEXT
  8
_0-0_0
 62
    7
 10
345.75
 20
121.5
 40
5
 41
1
 50
0
  1
3000
  0
TEXT
  8
_0-0_0
 62
    7
 10
345.75
 20
130.5
 40
5
 41
1
 50
0
  1
3100
  0
TEXT
  8
_0-0_0
 62
    7
 10
375.75
 20
130.5
 40
5
 41
1
 50
0
  1
 1
  0
TEXT
  8
_0-0_0
 62
    7
 10
375.75
 20
121.5
 40
5
 41
1
 50
0
  1
 1
  0
TEXT
  8
_0-0_0
 62
    7
 10
392
 20
130.5
 40
5
 41
1
 50
0
  1
〃
  0
TEXT
  8
_0-0_0
 62
    7
 10
392
 20
121.5
 40
5
 41
1
 50
0
  1
本
  0
TEXT
  8
_0-0_0
 62
    7
 10
443.75
 20
49.5
 40
5
 41
1
 50
0
  1
 5
  0
TEXT
  8
_0-0_0
 62
    7
 10
443.75
 20
40.5
 40
5
 41
1
 50
0
  1
 1
  0
TEXT
  8
_0-0_0
 62
    7
 10
443.75
 20
58.5
 40
5
 41
1
 50
0
  1
 5
  0
TEXT
  8
_0-0_0
 62
    7
 10
443.75
 20
67.5
 40
5
 41
1
 50
0
  1
 5
  0
TEXT
  8
_0-0_0
 62
    7
 10
460
 20
40.5
 40
5
 41
1
 50
0
  1
巻
  0
TEXT
  8
_0-0_0
 62
    7
 10
460
 20
58.5
 40
5
 41
1
 50
0
  1
枚
  0
TEXT
  8
_0-0_0
 62
    7
 10
460
 20
49.5
 40
5
 41
1
 50
0
  1
〃
  0
TEXT
  8
_0-0_0
 62
    7
 10
460
 20
67.5
 40
5
 41
1
 50
0
  1
〃
  0
TEXT
  8
_0-0_0
 62
    7
 10
443.75
 20
94.5
 40
5
 41
1
 50
0
  1
 5
  0
TEXT
  8
_0-0_0
 62
    7
 10
443.75
 20
85.5
 40
5
 41
1
 50
0
  1
 5
  0
TEXT
  8
_0-0_0
 62
    7
 10
443.75
 20
76.5
 40
5
 41
1
 50
0
  1
 5
  0
TEXT
  8
_0-0_0
 62
    7
 10
443.75
 20
103.5
 40
5
 41
1
 50
0
  1
 5
  0
TEXT
  8
_0-0_0
 62
    7
 10
443.75
 20
112.5
 40
5
 41
1
 50
0
  1
 4
  0
TEXT
  8
_0-0_0
 62
    7
 10
460
 20
94.5
 40
5
 41
1
 50
0
  1
〃
  0
TEXT
  8
_0-0_0
 62
    7
 10
460
 20
76.5
 40
5
 41
1
 50
0
  1
〃
  0
TEXT
  8
_0-0_0
 62
    7
 10
460
 20
85.5
 40
5
 41
1
 50
0
  1
〃
  0
TEXT
  8
_0-0_0
 62
    7
 10
460
 20
103.5
 40
5
 41
1
 50
0
  1
〃
  0
TEXT
  8
_0-0_0
 62
    7
 10
460
 20
112.5
 40
5
 41
1
 50
0
  1
〃
  0
TEXT
  8
_0-0_0
 62
    7
 10
443.75
 20
130.5
 40
5
 41
1
 50
0
  1
 1
  0
TEXT
  8
_0-0_0
 62
    7
 10
443.75
 20
121.5
 40
5
 41
1
 50
0
  1
 1
  0
TEXT
  8
_0-0_0
 62
    7
 10
460
 20
130.5
 40
5
 41
1
 50
0
  1
〃
  0
TEXT
  8
_0-0_0
 62
    7
 10
460
 20
121.5
 40
5
 41
1
 50
0
  1
本
  0
TEXT
  8
_0-0_0
 62
    7
 10
144
 20
130.5
 40
5
 41
1
 50
0
  1
ウォーターガード
  0
TEXT
  8
_0-0_0
 62
    7
 10
129
 20
40.5
 40
5
 41
1
 50
0
  1
※
  0
LINE
  8
_0-0_0
  6
CONTINUOUS
 62
    7
 10
125
 20
39
 11
125
 21
237
  0
LINE
  8
_0-0_0
  6
CONTINUOUS
 62
    7
 10
470
 20
39
 11
470
 21
237
  0
LINE
  8
_0-0_0
  6
CONTINUOUS
 62
    7
 10
139
 20
39
 11
139
 21
237
  0
LINE
  8
_0-0_0
  6
CONTINUOUS
 62
    7
 10
403
 20
39
 11
403
 21
237
  0
LINE
  8
_0-0_0
  6
CONTINUOUS
 62
    7
 10
402
 20
39
 11
402
 21
237
  0
LINE
  8
_0-0_0
  6
CONTINUOUS
 62
    7
 10
388
 20
39
 11
388
 21
237
  0
LINE
  8
_0-0_0
  6
CONTINUOUS
 62
    7
 10
370
 20
39
 11
370
 21
237
  0
LINE
  8
_0-0_0
  6
CONTINUOUS
 62
    7
 10
335
 20
39
 11
335
 21
237
  0
LINE
  8
_0-0_0
  6
CONTINUOUS
 62
    7
 10
334
 20
39
 11
334
 21
237
  0
LINE
  8
_0-0_0
  6
CONTINUOUS
 62
    7
 10
239
 20
39
 11
239
 21
237
  0
LINE
  8
_0-0_0
  6
CONTINUOUS
 62
    7
 10
456
 20
39
 11
456
 21
237
  0
LINE
  8
_0-0_0
  6
CONTINUOUS
 62
    7
 10
438
 20
39
 11
438
 21
237
  0
TEXT
  8
_0-4_図枠
 62
    7
 10
27.546508709139971
 20
566.4696321568
 40
10
 41
1
 50
0
  1
◇アルミ５０タイプ（５０ＦＹＫＧ－Ａ）
  0
LINE
  8
_0-4_図枠
  6
CONTINUOUS
 62
    7
 10
424.37824824699999
 20
377.23615693260001
 11
414.68099461510002
 21
360.4400209483
  0
LINE
  8
_0-4_図枠
  6
CONTINUOUS
 62
    7
 10
429.37398902400002
 20
346.91733860189998
 11
419.33237482930002
 21
329.5247526265
  0
CIRCLE
  8
_0-4_図枠
  6
CONTINUOUS
 62
    7
 10
416.33237482930002
 20
324.32860020380002
 40
6
  0
TEXT
  8
_0-2_寸法
 62
    7
 10
403.5
 20
458.4726675796
 40
5
 41
1
 50
0
  1
（キャップ幅）
  0
TEXT
  8
_0-4_図枠
 62
    7
 10
397.5
 20
433.0490325737
 40
5
 41
1
 50
0
  1
勾配３度
  0
LINE
  8
_0-4_図枠
  6
CONTINUOUS
 62
    7
 10
386
 20
433.06475553830001
 11
436
 21
430.44436657419999
  0
LINE
  8
_0-4_図枠
  6
CONTINUOUS
 62
    7
 10
386
 20
433.06475553830001
 11
436
 21
433.06475553830001
  0
LINE
  8
_0-3_躯体と製品
  6
CONTINUOUS
 62
    7
 10
446.5
 20
374
 11
416.48571720000001
 21
374
  0
LINE
  8
_0-3_躯体と製品
  6
CONTINUOUS
 62
    7
 10
416.5
 20
372
 11
446.5
 21
372
  0
LINE
  8
_0-3_躯体と製品
  6
CONTINUOUS
 62
    7
 10
446.5
 20
373
 11
416.5
 21
373
  0
LINE
  8
_0-3_躯体と製品
  6
CONTINUOUS
 62
    7
 10
503.440468528
 20
418.18669397529999
 11
338.6665952935
 21
426.82212675530002
  0
LINE
  8
_0-3_躯体と製品
  6
CONTINUOUS
 62
    7
 10
502.3832822119
 20
398.01437737319998
 11
337.60940897739999
 21
406.6498101533
  0
LINE
  8
_0-3_躯体と製品
  6
CONTINUOUS
 62
    7
 10
502.28907749070004
 20
396.2168442107
 11
337.51520425619998
 21
404.85227699069998
  0
LINE
  8
_0-3_躯体と製品
  6
CONTINUOUS
 62
    7
 10
502.10590164380005
 20
392.72164083899997
 11
337.33202840929999
 21
401.35707361909999
  0
LINE
  8
_0-3_躯体と製品
  6
CONTINUOUS
 62
    7
 10
502.02739770940002
 20
391.22369653689998
 11
337.25352447490002
 21
399.859129317
  0
LINE
  8
_0-3_躯体と製品
  6
CONTINUOUS
 62
    7
 10
503.20495672489994
 20
413.69286106890002
 11
338.4310834904
 21
422.32829384889999
  0
LINE
  8
_0-3_躯体と製品
  6
CONTINUOUS
 62
    7
 10
503.12645279059996
 20
412.19491676669998
 11
338.35257955600002
 21
420.83034954679999
  0
LINE
  8
_0-3_躯体と製品
  6
CONTINUOUS
 62
    7
 10
501.97506175319995
 20
390.22506700209999
 11
337.20118851870001
 21
398.86049978220001
  0
LINE
  8
_0-3_躯体と製品
  6
CONTINUOUS
 62
    7
 10
323.34299213129998
 20
429.3388637553
 11
529.55233595619995
 21
418.53188997799998
  0
LINE
  8
_0-3_躯体と製品
  6
CONTINUOUS
 62
    7
 10
488.38252157229999
 20
417.47378901680003
 11
353.56753438049998
 21
424.53914310959999
  0
LINE
  8
_0-3_躯体と製品
  6
CONTINUOUS
 62
    7
 10
420.7947533633
 20
417.68338059259997
 11
407.86480228609997
 21
404.11832773330002
  0
LINE
  8
_0-3_躯体と製品
  6
CONTINUOUS
 62
    7
 10
421.37383227819998
 20
417.13141355520003
 11
408.44388118440003
 21
403.56636067860001
  0
LINE
  8
_0-3_躯体と製品
  6
CONTINUOUS
 62
    7
 10
415
 20
374.5
 11
426.5
 21
374.5
  0
LINE
  8
_0-3_躯体と製品
  6
CONTINUOUS
 62
    7
 10
415.30000000000001
 20
376.5
 11
431
 21
376.5
  0
LINE
  8
_0-3_躯体と製品
  6
CONTINUOUS
 62
    7
 10
419.4736272138
 20
372
 11
420.4736272138
 21
373
  0
LINE
  8
_0-3_躯体と製品
  6
CONTINUOUS
 62
    7
 10
415.5
 20
380.89999999999998
 11
420
 21
380.89999999999998
  0
LINE
  8
_0-3_躯体と製品
  6
CONTINUOUS
 62
    7
 10
415.5
 20
382.5
 11
420
 21
382.5
  0
LINE
  8
_0-3_躯体と製品
  6
CONTINUOUS
 62
    7
 10
323.44766404379999
 20
431.33612282479999
 11
529.65700786870002
 21
420.52914904750003
  0
ARC
  8
_0-3_躯体と製品
  6
CONTINUOUS
 62
    7
 10
359.125
 20
479.77164987330002
 40
28.625
 50
164.81071326279999
 51
195.18928673720001
  0
LINE
  8
_0-4_図枠
  6
CONTINUOUS
 62
    7
 10
313.47041246600003
 20
461.00903684550002
 11
295.35129722329998
 21
492.39226503399999
  0
LINE
  8
_0-4_図枠
  6
CONTINUOUS
 62
    7
 10
317.64190977340002
 20
479.5278792634
 11
297.83189355569999
 21
513.8398338513
  0
LINE
  8
_0-4_図枠
  6
CONTINUOUS
 62
    7
 10
334.02114287929999
 20
471.5284544653
 11
352.25796438409998
 21
503.11555588030001
  0
LINE
  8
_0-4_図枠
  6
CONTINUOUS
 62
    7
 10
338.71769913809999
 20
452.73134260950002
 11
360.18655552439998
 21
489.91649265090001
  0
LINE
  8
_0-3_躯体と製品
  6
CONTINUOUS
 62
    7
 10
321.13161257209998
 20
486.76753622630002
 11
322.50677310010002
 21
481.59794796530002
  0
LINE
  8
_0-3_躯体と製品
  6
CONTINUOUS
 62
    7
 10
325
 20
477.39532220199999
 11
330.69276736210003
 21
483.08808956399997
  0
LINE
  8
_0-3_躯体と製品
  6
CONTINUOUS
 62
    7
 10
325
 20
480.22374932669999
 11
331.31022773870001
 21
486.53397706549998
  0
LINE
  8
_0-3_躯体と製品
  6
CONTINUOUS
 62
    7
 10
325
 20
473.27164987330002
 11
325
 21
486.27164987330002
  0
LINE
  8
_0-3_躯体と製品
  6
CONTINUOUS
 62
    7
 10
306.5
 20
487.27164987330002
 11
306.5
 21
372
  0
LINE
  8
_0-3_躯体と製品
  6
CONTINUOUS
 62
    7
 10
321
 20
483.27164987330002
 11
321
 21
479.07164987329998
  0
ARC
  8
_0-3_躯体と製品
  6
CONTINUOUS
 62
    7
 10
319
 20
482.27164987330002
 40
0.5
 50
0
 51
90
  0
ARC
  8
_0-3_躯体と製品
  6
CONTINUOUS
 62
    7
 10
309
 20
482.27164987330002
 40
0.5
 50
90
 51
180
  0
LINE
  8
_0-3_躯体と製品
  6
CONTINUOUS
 62
    7
 10
317.5
 20
482.77164987330002
 11
317.5
 21
481.97164987330001
  0
CIRCLE
  8
_0-4_図枠
  6
CONTINUOUS
 62
    7
 10
291.87573593249999
 20
401.7472546898
 40
6
  0
CIRCLE
  8
_0-4_図枠
  6
CONTINUOUS
 62
    7
 10
290.13454026239998
 20
453.9193478597
 40
6
  0
LINE
  8
_0-3_躯体と製品
  6
CONTINUOUS
 62
    7
 10
322.25692830060001
 20
428.27164987330002
 11
247.5
 21
428.27164987330002
  0
LINE
  8
_0-3_躯体と製品
  6
CONTINUOUS
 62
    7
 10
286.69961899999998
 20
423.6484128733
 11
291.35759899999999
 21
421.95304687330002
  0
LINE
  8
_0-3_躯体と製品
  6
CONTINUOUS
 62
    7
 10
288.59220800000003
 20
425.75034487329998
 11
286.59494899999999
 21
425.64567187329999
  0
LINE
  8
_0-3_躯体と製品
  6
CONTINUOUS
 62
    7
 10
267.542483
 20
426.14923387329998
 11
298.499999
 21
427.77164887330002
  0
LINE
  8
_0-3_躯体と製品
  6
CONTINUOUS
 62
    7
 10
288.59220800000003
 20
430.79295187330001
 11
286.59494899999999
 21
430.8976248733
  0
LINE
  8
_0-3_躯体と製品
  6
CONTINUOUS
 62
    7
 10
267.542483
 20
430.39406287330002
 11
298.499999
 21
428.77164787330003
  0
LINE
  8
_0-3_躯体と製品
  6
CONTINUOUS
 62
    7
 10
286.69961899999998
 20
424.71259087329997
 11
291.69961999999998
 21
422.8927398733
  0
LINE
  8
_0-3_躯体と製品
  6
CONTINUOUS
 62
    7
 10
286.69961899999998
 20
432.89488387329999
 11
291.35759899999999
 21
434.59024987330002
  0
LINE
  8
_0-3_躯体と製品
  6
CONTINUOUS
 62
    7
 10
286.69961899999998
 20
431.83070587330002
 11
291.69961999999998
 21
433.65055687329999
  0
LINE
  8
_0-4_図枠
  6
CONTINUOUS
 62
    7
 10
274.56636035719998
 20
431.17322169409999
 11
265.06823625009997
 21
447.62445522420001
  0
LINE
  8
_0-3_躯体と製品
  6
CONTINUOUS
 62
    7
 10
272.36944399999999
 20
426.40220287329998
 11
270.5
 21
428.27164987330002
  0
LINE
  8
_0-3_躯体と製品
  6
CONTINUOUS
 62
    7
 10
273.61276400000003
 20
424.9653048733
 11
271.61550499999998
 21
424.86063187330001
  0
LINE
  8
_0-3_躯体と製品
  6
CONTINUOUS
 62
    7
 10
273.61276400000003
 20
431.57799187329999
 11
271.61550499999998
 21
431.68266487329998
  0
LINE
  8
_0-3_躯体と製品
  6
CONTINUOUS
 62
    7
 10
272.36944399999999
 20
430.14109387330001
 11
270.5
 21
428.27164987330002
  0
LINE
  8
_0-3_躯体と製品
  6
CONTINUOUS
 62
    7
 10
271.61550499999998
 20
424.86063187330001
 11
271.72017799999998
 21
422.86337287330002
  0
LINE
  8
_0-3_躯体と製品
  6
CONTINUOUS
 62
    7
 10
269.72291899999999
 20
422.75870287330002
 11
267.62098700000001
 21
424.65128887330002
  0
LINE
  8
_0-3_躯体と製品
  6
CONTINUOUS
 62
    7
 10
269.53974199999999
 20
426.25390687330002
 11
269.72291899999999
 21
422.75870287330002
  0
LINE
  8
_0-3_躯体と製品
  6
CONTINUOUS
 62
    7
 10
271.72017799999998
 20
422.86337287330002
 11
269.72291899999999
 21
422.75870287330002
  0
LINE
  8
_0-3_躯体と製品
  6
CONTINUOUS
 62
    7
 10
267.62098700000001
 20
424.65128887330002
 11
267.542483
 21
426.14923387329998
  0
LINE
  8
_0-3_躯体と製品
  6
CONTINUOUS
 62
    7
 10
271.72017799999998
 20
433.67992387330003
 11
269.72291899999999
 21
433.78459387330003
  0
LINE
  8
_0-3_躯体と製品
  6
CONTINUOUS
 62
    7
 10
271.61550499999998
 20
431.68266487329998
 11
271.72017799999998
 21
433.67992387330003
  0
LINE
  8
_0-3_躯体と製品
  6
CONTINUOUS
 62
    7
 10
267.62098700000001
 20
431.89200787329997
 11
267.542483
 21
430.39406287330002
  0
LINE
  8
_0-3_躯体と製品
  6
CONTINUOUS
 62
    7
 10
269.72291899999999
 20
433.78459387330003
 11
267.62098700000001
 21
431.89200787329997
  0
LINE
  8
_0-3_躯体と製品
  6
CONTINUOUS
 62
    7
 10
269.53974199999999
 20
430.28938987330002
 11
269.72291899999999
 21
433.78459387330003
  0
LINE
  8
_0-3_躯体と製品
  6
CONTINUOUS
 62
    7
 10
274.71606500000001
 20
423.02038087329998
 11
273.61276400000003
 21
424.9653048733
  0
LINE
  8
_0-3_躯体と製品
  6
CONTINUOUS
 62
    7
 10
276.608654
 20
425.12231287330002
 11
276.713324
 21
423.12505387329998
  0
LINE
  8
_0-3_躯体と製品
  6
CONTINUOUS
 62
    7
 10
279.70921399999997
 20
423.28206187329999
 11
278.60591299999999
 21
425.22698587330001
  0
LINE
  8
_0-3_躯体と製品
  6
CONTINUOUS
 62
    7
 10
281.60180000000003
 20
425.38399387330003
 11
281.70647300000002
 21
423.38673487329999
  0
LINE
  8
_0-3_躯体と製品
  6
CONTINUOUS
 62
    7
 10
284.70236
 20
423.5437428733
 11
283.59905900000001
 21
425.48866387330003
  0
LINE
  8
_0-3_躯体と製品
  6
CONTINUOUS
 62
    7
 10
286.59494899999999
 20
425.64567187329999
 11
286.69961899999998
 21
423.6484128733
  0
LINE
  8
_0-3_躯体と製品
  6
CONTINUOUS
 62
    7
 10
281.70647300000002
 20
423.38673487329999
 11
279.70921399999997
 21
423.28206187329999
  0
LINE
  8
_0-3_躯体と製品
  6
CONTINUOUS
 62
    7
 10
276.713324
 20
423.12505387329998
 11
274.71606500000001
 21
423.02038087329998
  0
LINE
  8
_0-3_躯体と製品
  6
CONTINUOUS
 62
    7
 10
286.69961899999998
 20
423.6484128733
 11
284.70236
 21
423.5437428733
  0
LINE
  8
_0-3_躯体と製品
  6
CONTINUOUS
 62
    7
 10
281.70647300000002
 20
433.15656187330001
 11
279.70921399999997
 21
433.2612348733
  0
CIRCLE
  8
_0-4_図枠
  6
CONTINUOUS
 62
    7
 10
274.56636035719998
 20
431.17322169409999
 40
0.9
  0
LINE
  8
_0-3_躯体と製品
  6
CONTINUOUS
 62
    7
 10
278.60591299999999
 20
425.22698587330001
 11
276.608654
 21
425.12231287330002
  0
LINE
  8
_0-3_躯体と製品
  6
CONTINUOUS
 62
    7
 10
274.71606500000001
 20
433.52291587330001
 11
273.61276400000003
 21
431.57799187329999
  0
LINE
  8
_0-3_躯体と製品
  6
CONTINUOUS
 62
    7
 10
276.713324
 20
433.41824287330002
 11
274.71606500000001
 21
433.52291587330001
  0
LINE
  8
_0-3_躯体と製品
  6
CONTINUOUS
 62
    7
 10
276.608654
 20
431.42098387329997
 11
276.713324
 21
433.41824287330002
  0
LINE
  8
_0-3_躯体と製品
  6
CONTINUOUS
 62
    7
 10
278.60591299999999
 20
431.31631087329998
 11
276.608654
 21
431.42098387329997
  0
LINE
  8
_0-3_躯体と製品
  6
CONTINUOUS
 62
    7
 10
279.70921399999997
 20
433.2612348733
 11
278.60591299999999
 21
431.31631087329998
  0
LINE
  8
_0-3_躯体と製品
  6
CONTINUOUS
 62
    7
 10
283.59905900000001
 20
425.48866387330003
 11
281.60180000000003
 21
425.38399387330003
  0
LINE
  8
_0-3_躯体と製品
  6
CONTINUOUS
 62
    7
 10
281.60180000000003
 20
431.15930287330002
 11
281.70647300000002
 21
433.15656187330001
  0
LINE
  8
_0-3_躯体と製品
  6
CONTINUOUS
 62
    7
 10
283.59905900000001
 20
431.05463287330002
 11
281.60180000000003
 21
431.15930287330002
  0
LINE
  8
_0-3_躯体と製品
  6
CONTINUOUS
 62
    7
 10
284.70236
 20
432.99955387329999
 11
283.59905900000001
 21
431.05463287330002
  0
LINE
  8
_0-3_躯体と製品
  6
CONTINUOUS
 62
    7
 10
286.69961899999998
 20
432.89488387329999
 11
284.70236
 21
432.99955387329999
  0
LINE
  8
_0-3_躯体と製品
  6
CONTINUOUS
 62
    7
 10
286.59494899999999
 20
430.8976248733
 11
286.69961899999998
 21
432.89488387329999
  0
CIRCLE
  8
_0-4_図枠
  6
CONTINUOUS
 62
    7
 10
262.06823625009997
 20
452.82060764689999
 40
6
  0
CIRCLE
  8
_0-4_図枠
  6
CONTINUOUS
 62
    7
 10
365.11250194540003
 20
387.09548557229999
 40
6
  0
CIRCLE
  8
_0-4_図枠
  6
CONTINUOUS
 62
    7
 10
411.68099461510002
 20
355.24386852560002
 40
6
  0
ARC
  8
_0-3_躯体と製品
  6
CONTINUOUS
 62
    7
 10
415.30000000000001
 20
378.19999999999999
 40
0.2999999999999998
 50
90
 51
180
  0
LINE
  8
_0-3_躯体と製品
  6
CONTINUOUS
 62
    7
 10
413.5
 20
383.5
 11
413.5
 21
374
  0
ARC
  8
_0-3_躯体と製品
  6
CONTINUOUS
 62
    7
 10
410.5
 20
382.25
 40
10.25
 50
270
 51
288.92464441605
  0
ARC
  8
_0-3_躯体と製品
  6
CONTINUOUS
 62
    7
 10
410.5
 20
382.25
 40
9.25
 50
270
 51
288.92464441605
  0
ARC
  8
_0-3_躯体と製品
  6
CONTINUOUS
 62
    7
 10
416.5
 20
364.75
 40
8.25
 50
90
 51
108.92464441609999
  0
LINE
  8
_0-3_躯体と製品
  6
CONTINUOUS
 62
    7
 10
416.5
 20
373
 11
416.5
 21
372
  0
LINE
  8
_0-3_躯体と製品
  6
CONTINUOUS
 62
    7
 10
413.5
 20
374
 11
415
 21
374
  0
LINE
  8
_0-3_躯体と製品
  6
CONTINUOUS
 62
    7
 10
415
 20
374
 11
415
 21
374.5
  0
ARC
  8
_0-3_躯体と製品
  6
CONTINUOUS
 62
    7
 10
415.30000000000001
 20
376.80000000000001
 40
0.2999999999999998
 50
180
 51
270
  0
LINE
  8
_0-3_躯体と製品
  6
CONTINUOUS
 62
    7
 10
415
 20
376.80000000000001
 11
415
 21
378.19999999999999
  0
LINE
  8
_0-3_躯体と製品
  6
CONTINUOUS
 62
    7
 10
416.64520008900001
 20
372
 11
417.64520008900001
 21
373
  0
LINE
  8
_0-3_躯体と製品
  6
CONTINUOUS
 62
    7
 10
418.05941365140001
 20
372
 11
419.05941365140001
 21
373
  0
ARC
  8
_0-3_躯体と製品
  6
CONTINUOUS
 62
    7
 10
416.5
 20
364.75
 40
9.25
 50
90
 51
108.92464441609999
  0
ARC
  8
_0-3_躯体と製品
  6
CONTINUOUS
 62
    7
 10
418.25
 20
383.25
 40
0.75
 50
270
 51
90
  0
ARC
  8
_0-3_躯体と製品
  6
CONTINUOUS
 62
    7
 10
417.25
 20
379.25
 40
0.75
 50
270
 51
90
  0
ARC
  8
_0-3_躯体と製品
  6
CONTINUOUS
 62
    7
 10
415.30000000000001
 20
382.19999999999999
 40
0.2999999999999998
 50
90
 51
180
  0
LINE
  8
_0-3_躯体と製品
  6
CONTINUOUS
 62
    7
 10
415.30000000000001
 20
382.5
 11
418.25
 21
382.5
  0
LINE
  8
_0-3_躯体と製品
  6
CONTINUOUS
 62
    7
 10
415.30000000000001
 20
380
 11
417.25
 21
380
  0
ARC
  8
_0-3_躯体と製品
  6
CONTINUOUS
 62
    7
 10
415.30000000000001
 20
380.30000000000001
 40
0.2999999999999998
 50
180
 51
270
  0
LINE
  8
_0-3_躯体と製品
  6
CONTINUOUS
 62
    7
 10
415
 20
380.30000000000001
 11
415
 21
382.19999999999999
  0
LINE
  8
_0-3_躯体と製品
  6
CONTINUOUS
 62
    7
 10
415.30000000000001
 20
378.5
 11
417.25
 21
378.5
  0
LINE
  8
_0-3_躯体と製品
  6
CONTINUOUS
 62
    7
 10
414
 20
384
 11
418.25
 21
384
  0
ARC
  8
_0-3_躯体と製品
  6
CONTINUOUS
 62
    7
 10
414
 20
383.5
 40
0.5
 50
90
 51
180
  0
LINE
  8
_0-3_躯体と製品
  6
CONTINUOUS
 62
    7
 10
415.5
 20
380.89999999999998
 11
415.5
 21
382.5
  0
LINE
  8
_0-3_躯体と製品
  6
CONTINUOUS
 62
    7
 10
417.5
 20
382.5
 11
417.5
 21
380.89999999999998
  0
LINE
  8
_0-4_図枠
  6
CONTINUOUS
 62
    7
 10
338.22089424860002
 20
433.67311640039998
 11
362.11250194540003
 21
392.29163799499997
  0
LINE
  8
_0-3_躯体と製品
  6
CONTINUOUS
 62
    7
 10
337.48903627800001
 20
404.35296222340003
 11
365.94997801850002
 21
402.86138747040002
  0
LINE
  8
_0-3_躯体と製品
  6
CONTINUOUS
 62
    7
 10
342.37751203929997
 20
402.09402337260002
 11
362.35010273440002
 21
401.04730424780001
  0
LINE
  8
_0-4_図枠
  6
CONTINUOUS
 62
    7
 10
313.86300384420002
 20
430.19088427780002
 11
294.37718094949997
 21
449.67670717250002
  0
LINE
  8
_0-3_躯体と製品
  6
CONTINUOUS
 62
    7
 10
307.5
 20
395.71924209399998
 11
307.5
 21
442.27164987330002
  0
LINE
  8
_0-3_躯体と製品
  6
CONTINUOUS
 62
    7
 10
308.5
 20
395.71924209399998
 11
308.5
 21
472.27164987330002
  0
LINE
  8
_0-3_躯体と製品
  6
CONTINUOUS
 62
    7
 10
312.5
 20
437.27164987330002
 11
312.5
 21
419.27164987330002
  0
ARC
  8
_0-3_躯体と製品
  6
CONTINUOUS
 62
    7
 10
331
 20
436.77164987330002
 40
0.5
 50
180
 51
270
  0
ARC
  8
_0-3_躯体と製品
  6
CONTINUOUS
 62
    7
 10
340
 20
437.27164987330002
 40
1
 50
270
 51
0
  0
LINE
  8
_0-3_躯体と製品
  6
CONTINUOUS
 62
    7
 10
309
 20
447.27164987330002
 11
309
 21
433.27164987330002
  0
LINE
  8
_0-3_躯体と製品
  6
CONTINUOUS
 62
    7
 10
311
 20
428.77164987330002
 11
311
 21
446.77164987330002
  0
ARC
  8
_0-3_躯体と製品
  6
CONTINUOUS
 62
    7
 10
330.80000000000001
 20
436.57164987329998
 40
0.2999999999999998
 50
180
 51
270
  0
ARC
  8
_0-3_躯体と製品
  6
CONTINUOUS
 62
    7
 10
330.5
 20
436.27164987330002
 40
1
 50
180
 51
270
  0
ARC
  8
_0-3_躯体と製品
  6
CONTINUOUS
 62
    7
 10
339
 20
435.77164987330002
 40
0.5
 50
0
 51
90
  0
LINE
  8
_0-3_躯体と製品
  6
CONTINUOUS
 62
    7
 10
316.5
 20
414.27164987330002
 11
316.5
 21
444.27164987330002
  0
LINE
  8
_0-3_躯体と製品
  6
CONTINUOUS
 62
    7
 10
318.5
 20
415.77164987330002
 11
318.5
 21
443.77164987330002
  0
LINE
  8
_0-3_躯体と製品
  6
CONTINUOUS
 62
    7
 10
320.5
 20
432.33475235949999
 11
320.5
 21
443.38578779279999
  0
LINE
  8
_0-3_躯体と製品
  6
CONTINUOUS
 62
    7
 10
322.5
 20
432.33475235949999
 11
322.5
 21
443.38578779279999
  0
LINE
  8
_0-3_躯体と製品
  6
CONTINUOUS
 62
    7
 10
315.5
 20
432.59679125600002
 11
315.5
 21
444.74989755579998
  0
LINE
  8
_0-3_躯体と製品
  6
CONTINUOUS
 62
    7
 10
311
 20
432.59679125600002
 11
311
 21
444.74989755579998
  0
LINE
  8
_0-3_躯体と製品
  6
CONTINUOUS
 62
    7
 10
318.10748032819998
 20
425.10706974530001
 11
338.52064666519999
 21
424.03726102939999
  0
LINE
  8
_0-3_躯体と製品
  6
CONTINUOUS
 62
    7
 10
318.34299213129998
 20
429.60090265169998
 11
338.75615846829999
 21
428.53109393580002
  0
LINE
  8
_0-3_躯体と製品
  6
CONTINUOUS
 62
    7
 10
311.5
 20
407.77164987330002
 11
322.25
 21
407.77164987330002
  0
LINE
  8
_0-3_躯体と製品
  6
CONTINUOUS
 62
    7
 10
311.5
 20
409.27164987330002
 11
322.25
 21
409.27164987330002
  0
LINE
  8
_0-3_躯体と製品
  6
CONTINUOUS
 62
    7
 10
327.5
 20
414.77164987330002
 11
319.5
 21
414.77164987330002
  0
LINE
  8
_0-3_躯体と製品
  6
CONTINUOUS
 62
    7
 10
326
 20
412.27164987330002
 11
315.5
 21
412.27164987330002
  0
ARC
  8
_0-3_躯体と製品
  6
CONTINUOUS
 62
    7
 10
323.5
 20
432.33475235949999
 40
3
 50
180
 51
267
  0
LINE
  8
_0-4_図枠
  6
CONTINUOUS
 62
    7
 10
311.78380288789998
 20
421.6553216451
 11
296.11837661969997
 21
405.98989537689999
  0
LINE
  8
_0-3_躯体と製品
  6
CONTINUOUS
 62
    7
 10
309
 20
423.27164987330002
 11
309
 21
409.27164987330002
  0
LINE
  8
_0-3_躯体と製品
  6
CONTINUOUS
 62
    7
 10
311
 20
409.77164987330002
 11
311
 21
427.77164987330002
  0
ARC
  8
_0-3_躯体と製品
  6
CONTINUOUS
 62
    7
 10
314.5
 20
412.77164987330002
 40
1
 50
90
 51
180
  0
LINE
  8
_0-3_躯体と製品
  6
CONTINUOUS
 62
    7
 10
314
 20
401.27164987330002
 11
315
 21
401.77164987330002
  0
LINE
  8
_0-3_躯体と製品
  6
CONTINUOUS
 62
    7
 10
315
 20
401.77164987330002
 11
315
 21
401.27164987330002
  0
LINE
  8
_0-3_躯体と製品
  6
CONTINUOUS
 62
    7
 10
315
 20
401.27164987330002
 11
316
 21
401.77164987330002
  0
LINE
  8
_0-3_躯体と製品
  6
CONTINUOUS
 62
    7
 10
316
 20
401.77164987330002
 11
316
 21
401.27164987330002
  0
ARC
  8
_0-3_躯体と製品
  6
CONTINUOUS
 62
    7
 10
317.25
 20
402.02164987330002
 40
0.75
 50
270
 51
90
  0
LINE
  8
_0-3_躯体と製品
  6
CONTINUOUS
 62
    7
 10
309.5
 20
397.77164987330002
 11
309.5
 21
407.27164987330002
  0
LINE
  8
_0-3_躯体と製品
  6
CONTINUOUS
 62
    7
 10
311.5
 20
401.27164987330002
 11
314
 21
401.27164987330002
  0
LINE
  8
_0-3_躯体と製品
  6
CONTINUOUS
 62
    7
 10
311.5
 20
397.27164987330002
 11
314
 21
397.27164987330002
  0
LINE
  8
_0-3_躯体と製品
  6
CONTINUOUS
 62
    7
 10
317.25
 20
395.77164987330002
 11
308.5
 21
395.77164987330002
  0
ARC
  8
_0-3_躯体と製品
  6
CONTINUOUS
 62
    7
 10
311.5
 20
400.77164987330002
 40
0.5
 50
90
 51
180
  0
ARC
  8
_0-3_躯体と製品
  6
CONTINUOUS
 62
    7
 10
311.5
 20
397.77164987330002
 40
0.5
 50
180
 51
270
  0
LINE
  8
_0-3_躯体と製品
  6
CONTINUOUS
 62
    7
 10
311
 20
397.77164987330002
 11
311
 21
400.77164987330002
  0
ARC
  8
_0-3_躯体と製品
  6
CONTINUOUS
 62
    7
 10
309
 20
397.77164987330002
 40
0.5
 50
270
 51
0
  0
LINE
  8
_0-3_躯体と製品
  6
CONTINUOUS
 62
    7
 10
309
 20
397.27164987330002
 11
308.5
 21
397.27164987330002
  0
LINE
  8
_0-3_躯体と製品
  6
CONTINUOUS
 62
    7
 10
308.5
 20
395.77164987330002
 11
308.5
 21
397.27164987330002
  0
ARC
  8
_0-3_躯体と製品
  6
CONTINUOUS
 62
    7
 10
317.25
 20
396.52164987330002
 40
0.75
 50
270
 51
90
  0
LINE
  8
_0-3_躯体と製品
  6
CONTINUOUS
 62
    7
 10
314
 20
397.27164987330002
 11
315
 21
396.77164987330002
  0
LINE
  8
_0-3_躯体と製品
  6
CONTINUOUS
 62
    7
 10
315
 20
397.27164987330002
 11
315
 21
396.77164987330002
  0
LINE
  8
_0-3_躯体と製品
  6
CONTINUOUS
 62
    7
 10
315
 20
397.27164987330002
 11
316
 21
396.77164987330002
  0
LINE
  8
_0-3_躯体と製品
  6
CONTINUOUS
 62
    7
 10
316
 20
397.27164987330002
 11
316
 21
396.77164987330002
  0
LINE
  8
_0-3_躯体と製品
  6
CONTINUOUS
 62
    7
 10
317.25
 20
397.27164987330002
 11
316
 21
397.27164987330002
  0
LINE
  8
_0-3_躯体と製品
  6
CONTINUOUS
 62
    7
 10
317.25
 20
401.27164987330002
 11
316
 21
401.27164987330002
  0
LINE
  8
_0-3_躯体と製品
  6
CONTINUOUS
 62
    7
 10
311.5
 20
402.77164987330002
 11
317.25
 21
402.77164987330002
  0
LINE
  8
_0-3_躯体と製品
  6
CONTINUOUS
 62
    7
 10
309
 20
409.27164987330002
 11
308.5
 21
409.27164987330002
  0
ARC
  8
_0-3_躯体と製品
  6
CONTINUOUS
 62
    7
 10
311.5
 20
403.27164987330002
 40
0.5
 50
180
 51
270
  0
LINE
  8
_0-3_躯体と製品
  6
CONTINUOUS
 62
    7
 10
311
 20
407.27164987330002
 11
311
 21
403.27164987330002
  0
ARC
  8
_0-3_躯体と製品
  6
CONTINUOUS
 62
    7
 10
311.5
 20
407.27164987330002
 40
0.5
 50
90
 51
180
  0
ARC
  8
_0-3_躯体と製品
  6
CONTINUOUS
 62
    7
 10
311.5
 20
409.77164987330002
 40
0.5
 50
180
 51
270
  0
LINE
  8
_0-3_躯体と製品
  6
CONTINUOUS
 62
    7
 10
309
 20
407.77164987330002
 11
308.5
 21
407.77164987330002
  0
ARC
  8
_0-3_躯体と製品
  6
CONTINUOUS
 62
    7
 10
309
 20
407.27164987330002
 40
0.5
 50
0
 51
90
  0
LINE
  8
_0-3_躯体と製品
  6
CONTINUOUS
 62
    7
 10
308.5
 20
409.27164987330002
 11
308.5
 21
407.77164987330002
  0
LINE
  8
_0-3_躯体と製品
  6
CONTINUOUS
 62
    7
 10
313.5
 20
412.77164987330002
 11
313.5
 21
410.52164987330002
  0
ARC
  8
_0-3_躯体と製品
  6
CONTINUOUS
 62
    7
 10
314.25
 20
410.52164987330002
 40
0.75
 50
180
 51
0
  0
LINE
  8
_0-3_躯体と製品
  6
CONTINUOUS
 62
    7
 10
315
 20
411.77164987330002
 11
315
 21
410.52164987330002
  0
ARC
  8
_0-3_躯体と製品
  6
CONTINUOUS
 62
    7
 10
315.5
 20
411.77164987330002
 40
0.5
 50
90
 51
180
  0
LINE
  8
_0-3_躯体と製品
  6
CONTINUOUS
 62
    7
 10
294.5
 20
432.27164887330002
 11
306.5
 21
432.27164887330002
  0
LINE
  8
_0-3_躯体と製品
  6
CONTINUOUS
 62
    7
 10
306.5
 20
423.27164887330002
 11
301.499999
 21
424.27164787330003
  0
LINE
  8
_0-3_躯体と製品
  6
CONTINUOUS
 62
    7
 10
301.499999
 20
428.27164987330002
 11
306.5
 21
428.27164987330002
  0
LINE
  8
_0-3_躯体と製品
  6
CONTINUOUS
 62
    7
 10
306.5
 20
427.27164787330003
 11
301.499999
 21
428.27164987330002
  0
LINE
  8
_0-3_躯体と製品
  6
CONTINUOUS
 62
    7
 10
306.5
 20
429.27164887330002
 11
301.499999
 21
428.27164987330002
  0
LINE
  8
_0-3_躯体と製品
  6
CONTINUOUS
 62
    7
 10
306.5
 20
433.27164787330003
 11
301.499999
 21
432.27164887330002
  0
LINE
  8
_0-3_躯体と製品
  6
CONTINUOUS
 62
    7
 10
294.5
 20
424.27164787330003
 11
306.5
 21
424.27164787330003
  0
LINE
  8
_0-3_躯体と製品
  6
CONTINUOUS
 62
    7
 10
289.69550900000002
 20
423.80542087330002
 11
288.59220800000003
 21
425.75034487329998
  0
LINE
  8
_0-3_躯体と製品
  6
CONTINUOUS
 62
    7
 10
291.58809500000001
 20
425.9073528733
 11
291.692768
 21
423.91009387330001
  0
LINE
  8
_0-3_躯体と製品
  6
CONTINUOUS
 62
    7
 10
293.585354
 20
426.0120228733
 11
294.5
 21
424.27164787330003
  0
LINE
  8
_0-3_躯体と製品
  6
CONTINUOUS
 62
    7
 10
298.30363999999997
 20
421.94930887330003
 11
291.69961999999998
 21
422.8927398733
  0
LINE
  8
_0-3_躯体と製品
  6
CONTINUOUS
 62
    7
 10
291.35759899999999
 20
421.95304687330002
 11
298.16122100000001
 21
420.96069187329999
  0
LINE
  8
_0-3_躯体と製品
  6
CONTINUOUS
 62
    7
 10
291.692768
 20
423.91009387330001
 11
289.69550900000002
 21
423.80542087330002
  0
ARC
  8
_0-3_躯体と製品
  6
CONTINUOUS
 62
    7
 10
298.247072
 20
421.55332987330002
 40
0.3999989999999998
 50
351.86989799999498
 51
81.869897999999964
  0
LINE
  8
_0-3_躯体と製品
  6
CONTINUOUS
 62
    7
 10
298.614935
 20
421.2999348733
 11
298.64305100000001
 21
421.49676187329999
  0
ARC
  8
_0-3_躯体と製品
  6
CONTINUOUS
 62
    7
 10
298.218953
 20
421.35650287329997
 40
0.3999989999999998
 50
261.70153399999998
 51
351.86989799999498
  0
LINE
  8
_0-3_躯体と製品
  6
CONTINUOUS
 62
    7
 10
298.30363999999997
 20
434.59398787330002
 11
291.69961999999998
 21
433.65055687329999
  0
LINE
  8
_0-3_躯体と製品
  6
CONTINUOUS
 62
    7
 10
291.35759899999999
 20
434.59024987330002
 11
298.16122100000001
 21
435.5826048733
  0
LINE
  8
_0-3_躯体と製品
  6
CONTINUOUS
 62
    7
 10
293.585354
 20
426.0120228733
 11
291.58809500000001
 21
425.9073528733
  0
LINE
  8
_0-3_躯体と製品
  6
CONTINUOUS
 62
    7
 10
289.69550900000002
 20
432.73787587330003
 11
288.59220800000003
 21
430.79295187330001
  0
LINE
  8
_0-3_躯体と製品
  6
CONTINUOUS
 62
    7
 10
291.692768
 20
432.63320287329998
 11
289.69550900000002
 21
432.73787587330003
  0
LINE
  8
_0-3_躯体と製品
  6
CONTINUOUS
 62
    7
 10
291.58809500000001
 20
430.63594387329999
 11
291.692768
 21
432.63320287329998
  0
LINE
  8
_0-3_躯体と製品
  6
CONTINUOUS
 62
    7
 10
293.585354
 20
430.53127387329999
 11
291.58809500000001
 21
430.63594387329999
  0
LINE
  8
_0-3_躯体と製品
  6
CONTINUOUS
 62
    7
 10
294.5
 20
432.27164887330002
 11
293.585354
 21
430.53127387329999
  0
LINE
  8
_0-3_躯体と製品
  6
CONTINUOUS
 62
    7
 10
298.499999
 20
428.77164787330003
 11
298.499999
 21
427.77164887330002
  0
ARC
  8
_0-3_躯体と製品
  6
CONTINUOUS
 62
    7
 10
298.247072
 20
434.98996687329998
 40
0.3999989999999998
 50
278.13010199999997
 51
8.130102000004948
  0
LINE
  8
_0-3_躯体と製品
  6
CONTINUOUS
 62
    7
 10
298.614935
 20
435.24336187329999
 11
298.64305100000001
 21
435.0465378733
  0
ARC
  8
_0-3_躯体と製品
  6
CONTINUOUS
 62
    7
 10
298.218953
 20
435.18679387330002
 40
0.3999989999999998
 50
8.1301020000049995
 51
98.298466000000005
  0
ARC
  8
_0-3_躯体と製品
  6
CONTINUOUS
 62
    7
 10
312.37129099999999
 20
426.7688868733
 40
3
 50
272.45892600000002
 51
321.38536199999999
  0
LINE
  8
_0-3_躯体と製品
  6
CONTINUOUS
 62
    7
 10
308.5
 20
433.27164987330002
 11
308.5
 21
423.27164987330002
  0
ARC
  8
_0-3_躯体と製品
  6
CONTINUOUS
 62
    7
 10
318.5
 20
432.59679125600002
 40
7.5
 50
180
 51
267
  0
CIRCLE
  8
_0-4_図枠
  6
CONTINUOUS
 62
    7
 10
311.78380288789998
 20
421.6553216451
 40
0.9
  0
LINE
  8
_0-3_躯体と製品
  6
CONTINUOUS
 62
    7
 10
311
 20
419.27164987330002
 11
312.5
 21
419.27164987330002
  0
LINE
  8
_0-3_躯体と製品
  6
CONTINUOUS
 62
    7
 10
308.5
 20
423.27164987330002
 11
309
 21
423.27164987330002
  0
ARC
  8
_0-3_躯体と製品
  6
CONTINUOUS
 62
    7
 10
316
 20
414.27164987330002
 40
0.5
 50
270
 51
0
  0
LINE
  8
_0-3_躯体と製品
  6
CONTINUOUS
 62
    7
 10
316
 20
413.77164987330002
 11
314.5
 21
413.77164987330002
  0
ARC
  8
_0-3_躯体と製品
  6
CONTINUOUS
 62
    7
 10
319.5
 20
415.77164987330002
 40
1
 50
180
 51
270
  0
CIRCLE
  8
_0-4_図枠
  6
CONTINUOUS
 62
    7
 10
313.86300384420002
 20
430.19088427780002
 40
0.9
  0
ARC
  8
_0-3_躯体と製品
  6
CONTINUOUS
 62
    7
 10
312.37129099999999
 20
429.77440987329999
 40
3
 50
38.614637999999999
 51
87.541073999999995
  0
LINE
  8
_0-3_躯体と製品
  6
CONTINUOUS
 62
    7
 10
307.5
 20
425.77164987330002
 11
306.5
 21
425.77164987330002
  0
LINE
  8
_0-3_躯体と製品
  6
CONTINUOUS
 62
    7
 10
307.5
 20
430.77164987330002
 11
306.5
 21
430.77164987330002
  0
LINE
  8
_0-3_躯体と製品
  6
CONTINUOUS
 62
    7
 10
308.5
 20
433.27164987330002
 11
309
 21
433.27164987330002
  0
LINE
  8
_0-3_躯体と製品
  6
CONTINUOUS
 62
    7
 10
311
 20
428.77164987330002
 11
310.5
 21
428.27164987330002
  0
LINE
  8
_0-3_躯体と製品
  6
CONTINUOUS
 62
    7
 10
311
 20
427.77164987330002
 11
310.5
 21
428.27164987330002
  0
ARC
  8
_0-3_躯体と製品
  6
CONTINUOUS
 62
    7
 10
310.50000199999999
 20
428.27164987330002
 40
5.4000000000000004
 50
321.31781300000006
 51
0.0000000000000445
  0
ARC
  8
_0-3_躯体と製品
  6
CONTINUOUS
 62
    7
 10
310.50000199999999
 20
428.27164987330002
 40
5.4000000000000004
 50
0
 51
38.851061999999992
  0
ARC
  8
_0-3_躯体と製品
  6
CONTINUOUS
 62
    7
 10
318.5
 20
432.59679125600002
 40
3
 50
180
 51
267
  0
ARC
  8
_0-3_躯体と製品
  6
CONTINUOUS
 62
    7
 10
327.5
 20
412.77164987330002
 40
2
 50
0
 51
90
  0
LINE
  8
_0-3_躯体と製品
  6
CONTINUOUS
 62
    7
 10
337.20118851870001
 20
398.86049978220001
 11
338.6665952935
 21
426.82212675530002
  0
LINE
  8
_0-3_躯体と製品
  6
CONTINUOUS
 62
    7
 10
337.33202840929999
 20
401.35707361909999
 11
342.32517608310002
 21
401.09539383790002
  0
ARC
  8
_0-3_躯体と製品
  6
CONTINUOUS
 62
    7
 10
335.30860136170003
 20
400.96243076420001
 40
0.5
 50
357.00000000000102
 51
86.999999999989967
  0
ARC
  8
_0-3_躯体と製品
  6
CONTINUOUS
 62
    7
 10
336.75420970760001
 20
399.88529729509997
 40
0.5
 50
266.99999999998994
 51
357.00000000000091
  0
LINE
  8
_0-3_躯体と製品
  6
CONTINUOUS
 62
    7
 10
336.22872696209998
 20
399.41215050580001
 11
336.72804172939999
 21
399.38598252769998
  0
ARC
  8
_0-3_躯体と製品
  6
CONTINUOUS
 62
    7
 10
336.25489494020002
 20
399.91146527320001
 40
0.5
 50
176.99999999999997
 51
267
  0
LINE
  8
_0-3_躯体と製品
  6
CONTINUOUS
 62
    7
 10
335.80791612910002
 20
400.93626278609997
 11
335.75558017280002
 21
399.93763325129999
  0
ARC
  8
_0-3_躯体と製品
  6
CONTINUOUS
 62
    7
 10
330.5
 20
405.72061444000002
 40
1
 50
180
 51
267
  0
LINE
  8
_0-3_躯体と製品
  6
CONTINUOUS
 62
    7
 10
328.89532808749999
 20
401.79922234740002
 11
335.3347693398
 21
401.4617455316
  0
ARC
  8
_0-3_躯体と製品
  6
CONTINUOUS
 62
    7
 10
322.25
 20
408.52164987330002
 40
0.75
 50
270
 51
90
  0
ARC
  8
_0-3_躯体と製品
  6
CONTINUOUS
 62
    7
 10
326
 20
411.27164987330002
 40
1
 50
0
 51
90
  0
LINE
  8
_0-3_躯体と製品
  6
CONTINUOUS
 62
    7
 10
329.5
 20
405.72061444000002
 11
329.5
 21
412.77164987330002
  0
LINE
  8
_0-3_躯体と製品
  6
CONTINUOUS
 62
    7
 10
327
 20
403.796481417
 11
327
 21
411.27164987330002
  0
ARC
  8
_0-3_躯体と製品
  6
CONTINUOUS
 62
    7
 10
329
 20
403.796481417
 40
2
 50
180
 51
267
  0
ARC
  8
_0-3_躯体と製品
  6
CONTINUOUS
 62
    7
 10
337.12056140129999
 20
406.87570403839999
 40
0.5
 50
357.00000000000102
 51
86.999999999989967
  0
LINE
  8
_0-3_躯体と製品
  6
CONTINUOUS
 62
    7
 10
336.64741461199998
 20
407.40118678390002
 11
337.14672937940003
 21
407.37501880579998
  0
ARC
  8
_0-3_躯体と製品
  6
CONTINUOUS
 62
    7
 10
336.6212466339
 20
406.90187201650002
 40
0.5
 50
86.999999999989996
 51
177
  0
LINE
  8
_0-3_躯体と製品
  6
CONTINUOUS
 62
    7
 10
336.017259954
 20
404.93078092510001
 11
336.12193186650001
 21
406.9280399946
  0
ARC
  8
_0-3_躯体と製品
  6
CONTINUOUS
 62
    7
 10
335.5179451866
 20
404.95694890319999
 40
0.5
 50
266.99999999998994
 51
357.00000000000091
  0
LINE
  8
_0-3_躯体と製品
  6
CONTINUOUS
 62
    7
 10
330.44766404379999
 20
404.72198490530002
 11
335.49177720850003
 21
404.45763413589998
  0
LINE
  8
_0-3_躯体と製品
  6
CONTINUOUS
 62
    7
 10
342.32517608310002
 20
401.09539383790002
 11
342.37751203929997
 21
402.09402337260002
  0
CIRCLE
  8
_0-4_図枠
  6
CONTINUOUS
 62
    7
 10
338.22089424860002
 20
433.67311640039998
 40
0.9
  0
LINE
  8
_0-3_躯体と製品
  6
CONTINUOUS
 62
    7
 10
338.61286286000001
 20
435.27164987330002
 11
337.69807499780001
 21
433.3629680542
  0
ARC
  8
_0-3_躯体と製品
  6
CONTINUOUS
 62
    7
 10
334.81238812430001
 20
434.7460122576
 40
4
 50
218.40342406089999
 51
334.39265764477
  0
LINE
  8
_0-3_躯体と製品
  6
CONTINUOUS
 62
    7
 10
330.5
 20
435.27164987330002
 11
339.5
 21
435.27164987330002
  0
ARC
  8
_0-3_躯体と製品
  6
CONTINUOUS
 62
    7
 10
323.5
 20
432.33475235949999
 40
1
 50
180
 51
267
  0
ARC
  8
_0-3_躯体と製品
  6
CONTINUOUS
 62
    7
 10
334.81238812430001
 20
434.7460122576
 40
3.2000000000000002
 50
218.40342406089999
 51
334.39265764477
  0
LINE
  8
_0-3_躯体と製品
  6
CONTINUOUS
 62
    7
 10
330.68385140089998
 20
433.51508393990002
 11
331.67776278259998
 21
432.26123380320001
  0
LINE
  8
_0-3_躯体と製品
  6
CONTINUOUS
 62
    7
 10
331.31077646919999
 20
434.01203963080002
 11
332.30468785099998
 21
432.75818949410001
  0
ARC
  8
_0-3_躯体と製品
  6
CONTINUOUS
 62
    7
 10
330.99731393510001
 20
433.76356178539999
 40
0.4
 50
38.40342406093
 51
218.40342406089997
  0
LINE
  8
_0-3_躯体と製品
  6
CONTINUOUS
 62
    7
 10
353.41052651170003
 20
421.54325450530001
 11
353.61987033669999
 21
425.53777264429999
  0
LINE
  8
_0-3_躯体と製品
  6
CONTINUOUS
 62
    7
 10
341.9559089544
 20
422.14356557399998
 11
338.59741357630003
 21
425.5020609522
  0
LINE
  8
_0-3_躯体と製品
  6
CONTINUOUS
 62
    7
 10
343.44833737610003
 20
422.0653507147
 11
339.22131936519997
 21
426.2923687256
  0
LINE
  8
_0-3_躯体と製品
  6
CONTINUOUS
 62
    7
 10
344.9407657978
 20
421.98713585540003
 11
340.71374778680001
 21
426.21415386630002
  0
LINE
  8
_0-3_躯体と製品
  6
CONTINUOUS
 62
    7
 10
346.43319421950002
 20
421.90892099609999
 11
342.20617620849998
 21
426.13593900699999
  0
LINE
  8
_0-3_躯体と製品
  6
CONTINUOUS
 62
    7
 10
347.92562264119999
 20
421.83070613669997
 11
343.69860463020001
 21
426.05772414770001
  0
LINE
  8
_0-3_躯体と製品
  6
CONTINUOUS
 62
    7
 10
349.41805106290002
 20
421.7524912774
 11
345.19103305189998
 21
425.97950928839998
  0
LINE
  8
_0-3_躯体と製品
  6
CONTINUOUS
 62
    7
 10
350.91047948459999
 20
421.67427641810002
 11
346.6834614736
 21
425.90129442900002
  0
LINE
  8
_0-3_躯体と製品
  6
CONTINUOUS
 62
    7
 10
352.40290790620003
 20
421.59606155879999
 11
348.17588989529997
 21
425.82307956969998
  0
LINE
  8
_0-3_躯体と製品
  6
CONTINUOUS
 62
    7
 10
353.43340380289999
 20
421.97977922450002
 11
349.668318317
 21
425.74486471040001
  0
LINE
  8
_0-3_躯体と製品
  6
CONTINUOUS
 62
    7
 10
353.50382877850001
 20
423.32356781129999
 11
351.16074673870003
 21
425.66664985109998
  0
LINE
  8
_0-3_躯体と製品
  6
CONTINUOUS
 62
    7
 10
338.97105211100001
 20
422.29999529269998
 11
338.45656362490001
 21
422.81448377869998
  0
LINE
  8
_0-3_躯体と製品
  6
CONTINUOUS
 62
    7
 10
340.46348053269998
 20
422.22178043330001
 11
338.52698860060002
 21
424.15827236540002
  0
LINE
  8
_0-3_躯体と製品
  6
CONTINUOUS
 62
    7
 10
338.64042731540002
 20
426.32281198800001
 11
353.61987033669999
 21
425.53777264429999
  0
LINE
  8
_0-3_躯体と製品
  6
CONTINUOUS
 62
    7
 10
346.66870602260002
 20
426.40275390250002
 11
344.86026885929999
 21
428.21119106570001
  0
LINE
  8
_0-3_躯体と製品
  6
CONTINUOUS
 62
    7
 10
339.5
 20
435.27164987330002
 11
338.4194967162
 21
433.01720700340002
  0
LINE
  8
_0-3_躯体と製品
  6
CONTINUOUS
 62
    7
 10
339.5
 20
435.77164987330002
 11
339.5
 21
435.27164987330002
  0
LINE
  8
_0-3_躯体と製品
  6
CONTINUOUS
 62
    7
 10
338.6665952935
 20
426.82212675530002
 11
338.75615846829999
 21
428.53109393580002
  0
LINE
  8
_0-3_躯体と製品
  6
CONTINUOUS
 62
    7
 10
339.2065639141
 20
426.79382819910001
 11
338.69207542800001
 21
427.30831668510001
  0
LINE
  8
_0-3_躯体と製品
  6
CONTINUOUS
 62
    7
 10
340.69899233580003
 20
426.71561333969998
 11
338.8905551725
 21
428.52405050300001
  0
LINE
  8
_0-3_躯体と製品
  6
CONTINUOUS
 62
    7
 10
342.1914207575
 20
426.63739848040001
 11
340.38298359420003
 21
428.44583564369998
  0
LINE
  8
_0-3_躯体と製品
  6
CONTINUOUS
 62
    7
 10
343.68384917920002
 20
426.55918362109998
 11
341.8754120159
 21
428.3676207844
  0
LINE
  8
_0-3_躯体と製品
  6
CONTINUOUS
 62
    7
 10
345.17627760089999
 20
426.4809687618
 11
343.36784043760002
 21
428.28940592510003
  0
LINE
  8
_0-3_躯体と製品
  6
CONTINUOUS
 62
    7
 10
353.64603831480002
 20
426.03708741169999
 11
353.73560148960001
 21
427.74605459219998
  0
LINE
  8
_0-3_躯体と製品
  6
CONTINUOUS
 62
    7
 10
353.57425375420002
 20
424.66735639799998
 11
352.6531751604
 21
425.5884349918
  0
LINE
  8
_0-3_躯体と製品
  6
CONTINUOUS
 62
    7
 10
348.16113444429999
 20
426.3245390431
 11
346.35269728100002
 21
428.13297620639997
  0
LINE
  8
_0-3_躯体と製品
  6
CONTINUOUS
 62
    7
 10
349.65356286600002
 20
426.24632418380003
 11
347.84512570269999
 21
428.0547613471
  0
LINE
  8
_0-3_躯体と製品
  6
CONTINUOUS
 62
    7
 10
351.1459912876
 20
426.16810932449999
 11
349.33755412440001
 21
427.97654648780002
  0
LINE
  8
_0-3_躯体と製品
  6
CONTINUOUS
 62
    7
 10
352.63841970930002
 20
426.08989446520002
 11
350.829982546
 21
427.89833162849999
  0
LINE
  8
_0-3_躯体と製品
  6
CONTINUOUS
 62
    7
 10
353.66891560599998
 20
426.47361213089999
 11
352.32241096770002
 21
427.82011676920001
  0
LINE
  8
_0-3_躯体と製品
  6
CONTINUOUS
 62
    7
 10
309.3772773174
 20
478.77164987330002
 11
326.24531100000002
 21
478.77164987330002
  0
ARC
  8
_0-3_躯体と製品
  6
CONTINUOUS
 62
    7
 10
321
 20
477.29307844469997
 40
2.0214285714289999
 50
270
 51
317.25875546131999
  0
ARC
  8
_0-3_躯体と製品
  6
CONTINUOUS
 62
    7
 10
321
 20
480.25022130190001
 40
2.0214285714289999
 50
42.74124453868
 51
90
  0
ARC
  8
_0-3_躯体と製品
  6
CONTINUOUS
 62
    7
 10
322
 20
473.27164987330002
 40
1
 50
180
 51
270
  0
LINE
  8
_0-3_躯体と製品
  6
CONTINUOUS
 62
    7
 10
320.6814102797
 20
469.77164987330002
 11
321.48141127970001
 21
470.57165087329997
  0
LINE
  8
_0-3_躯体と製品
  6
CONTINUOUS
 62
    7
 10
337.90000099999997
 20
469.77164987330002
 11
319.50000199999999
 21
469.77164987330002
  0
LINE
  8
_0-3_躯体と製品
  6
CONTINUOUS
 62
    7
 10
337.90000099999997
 20
470.57165087329997
 11
319.50000199999999
 21
470.57165087329997
  0
ARC
  8
_0-3_躯体と製品
  6
CONTINUOUS
 62
    7
 10
321.5
 20
472.77164987330002
 40
0.5
 50
180
 51
270
  0
LINE
  8
_0-3_躯体と製品
  6
CONTINUOUS
 62
    7
 10
320.5
 20
470.77164987330002
 11
339
 21
470.77164987330002
  0
LINE
  8
_0-3_躯体と製品
  6
CONTINUOUS
 62
    7
 10
318.5
 20
469.77164987330002
 11
323.10000000000002
 21
469.77164987330002
  0
LINE
  8
_0-3_躯体と製品
  6
CONTINUOUS
 62
    7
 10
318
 20
468.57164987329998
 11
323.10000000000002
 21
468.57164987329998
  0
LINE
  8
_0-3_躯体と製品
  6
CONTINUOUS
 62
    7
 10
319
 20
444.27164987330002
 11
323
 21
444.27164987330002
  0
LINE
  8
_0-3_躯体と製品
  6
CONTINUOUS
 62
    7
 10
322.5
 20
445.77164987330002
 11
318
 21
445.77164987330002
  0
LINE
  8
_0-3_躯体と製品
  6
CONTINUOUS
 62
    7
 10
324
 20
452.27164987330002
 11
316.39999999999998
 21
452.27164987330002
  0
LINE
  8
_0-3_躯体と製品
  6
CONTINUOUS
 62
    7
 10
317.5
 20
450.77164987330002
 11
323
 21
450.77164987330002
  0
LINE
  8
_0-3_躯体と製品
  6
CONTINUOUS
 62
    7
 10
320.5
 20
443.38578779279999
 11
322.5
 21
443.38578779279999
  0
LINE
  8
_0-3_躯体と製品
  6
CONTINUOUS
 62
    7
 10
306.5
 20
472.27164987330002
 11
306.5
 21
442.27164987330002
  0
LINE
  8
_0-3_躯体と製品
  6
CONTINUOUS
 62
    7
 10
307.5
 20
442.27164987330002
 11
307.5
 21
472.27164987330002
  0
LINE
  8
_0-3_躯体と製品
  6
CONTINUOUS
 62
    7
 10
317.5
 20
455.27164987330002
 11
317.5
 21
461.27164987330002
  0
LINE
  8
_0-3_躯体と製品
  6
CONTINUOUS
 62
    7
 10
316
 20
459.77164987330002
 11
316
 21
455.97164987330001
  0
LINE
  8
_0-3_躯体と製品
  6
CONTINUOUS
 62
    7
 10
309
 20
460.27164987330002
 11
309
 21
448.77164987330002
  0
LINE
  8
_0-3_躯体と製品
  6
CONTINUOUS
 62
    7
 10
311
 20
449.27164987330002
 11
311
 21
459.77164987330002
  0
LINE
  8
_0-3_躯体と製品
  6
CONTINUOUS
 62
    7
 10
306.5
 20
447.85375335920003
 11
307.5
 21
446.85375335920003
  0
LINE
  8
_0-3_躯体と製品
  6
CONTINUOUS
 62
    7
 10
321
 20
447.77164987330002
 11
321
 21
448.27164987330002
  0
LINE
  8
_0-3_躯体と製品
  6
CONTINUOUS
 62
    7
 10
308.5
 20
448.77164987330002
 11
308.5
 21
447.27164987330002
  0
LINE
  8
_0-3_躯体と製品
  6
CONTINUOUS
 62
    7
 10
320.5
 20
447.27164987330002
 11
311.5
 21
447.27164987330002
  0
LINE
  8
_0-3_躯体と製品
  6
CONTINUOUS
 62
    7
 10
315.5
 20
444.74989755579998
 11
311
 21
444.74989755579998
  0
LINE
  8
_0-3_躯体と製品
  6
CONTINUOUS
 62
    7
 10
306.5
 20
446.43953979679998
 11
307.5
 21
445.43953979679998
  0
LINE
  8
_0-3_躯体と製品
  6
CONTINUOUS
 62
    7
 10
306.5
 20
445.02532623450003
 11
307.5
 21
444.02532623450003
  0
LINE
  8
_0-3_躯体と製品
  6
CONTINUOUS
 62
    7
 10
306.5
 20
443.61111267209998
 11
307.5
 21
442.61111267209998
  0
LINE
  8
_0-3_躯体と製品
  6
CONTINUOUS
 62
    7
 10
306.5
 20
442.27164987330002
 11
307.5
 21
442.27164987330002
  0
LINE
  8
_0-3_躯体と製品
  6
CONTINUOUS
 62
    7
 10
311
 20
437.27164987330002
 11
312.5
 21
437.27164987330002
  0
LINE
  8
_0-3_躯体と製品
  6
CONTINUOUS
 62
    7
 10
308.5
 20
447.27164987330002
 11
309
 21
447.27164987330002
  0
ARC
  8
_0-3_躯体と製品
  6
CONTINUOUS
 62
    7
 10
311.5
 20
446.77164987330002
 40
0.5
 50
90
 51
180
  0
ARC
  8
_0-3_躯体と製品
  6
CONTINUOUS
 62
    7
 10
320.5
 20
447.77164987330002
 40
0.5
 50
270
 51
0
  0
ARC
  8
_0-3_躯体と製品
  6
CONTINUOUS
 62
    7
 10
318
 20
444.27164987330002
 40
1.5
 50
90
 51
180
  0
ARC
  8
_0-3_躯体と製品
  6
CONTINUOUS
 62
    7
 10
319
 20
443.77164987330002
 40
0.5
 50
90
 51
180
  0
LINE
  8
_0-3_躯体と製品
  6
CONTINUOUS
 62
    7
 10
311.5
 20
448.77164987330002
 11
320.5
 21
448.77164987330002
  0
LINE
  8
_0-3_躯体と製品
  6
CONTINUOUS
 62
    7
 10
312.89999999999998
 20
454.27164987330002
 11
316.39999999999998
 21
452.27164987330002
  0
LINE
  8
_0-3_躯体と製品
  6
CONTINUOUS
 62
    7
 10
312.15579159250001
 20
452.96928516010001
 11
315.80000000000001
 21
450.88688035579997
  0
LINE
  8
_0-3_躯体と製品
  6
CONTINUOUS
 62
    7
 10
306.5
 20
459.1674618582
 11
307.5
 21
458.1674618582
  0
LINE
  8
_0-3_躯体と製品
  6
CONTINUOUS
 62
    7
 10
306.5
 20
457.75324829580001
 11
307.5
 21
456.75324829580001
  0
LINE
  8
_0-3_躯体と製品
  6
CONTINUOUS
 62
    7
 10
306.5
 20
456.3390347335
 11
307.5
 21
455.3390347335
  0
LINE
  8
_0-3_躯体と製品
  6
CONTINUOUS
 62
    7
 10
306.5
 20
454.92482117110001
 11
307.5
 21
453.92482117110001
  0
LINE
  8
_0-3_躯体と製品
  6
CONTINUOUS
 62
    7
 10
306.5
 20
453.51060760870001
 11
307.5
 21
452.51060760870001
  0
LINE
  8
_0-3_躯体と製品
  6
CONTINUOUS
 62
    7
 10
306.5
 20
452.09639404630002
 11
307.5
 21
451.09639404630002
  0
LINE
  8
_0-3_躯体と製品
  6
CONTINUOUS
 62
    7
 10
306.5
 20
450.68218048400001
 11
307.5
 21
449.68218048400001
  0
LINE
  8
_0-3_躯体と製品
  6
CONTINUOUS
 62
    7
 10
306.5
 20
449.26796692160002
 11
307.5
 21
448.26796692160002
  0
LINE
  8
_0-3_躯体と製品
  6
CONTINUOUS
 62
    7
 10
309
 20
448.77164987330002
 11
308.5
 21
448.77164987330002
  0
ARC
  8
_0-3_躯体と製品
  6
CONTINUOUS
 62
    7
 10
311.5
 20
449.27164987330002
 40
0.5
 50
180
 51
270
  0
ARC
  8
_0-3_躯体と製品
  6
CONTINUOUS
 62
    7
 10
312.14999999999998
 20
457.52164987330002
 40
0.75
 50
0
 51
180
  0
LINE
  8
_0-3_躯体と製品
  6
CONTINUOUS
 62
    7
 10
312.89999999999998
 20
457.52164987330002
 11
312.89999999999998
 21
454.27164987330002
  0
LINE
  8
_0-3_躯体と製品
  6
CONTINUOUS
 62
    7
 10
311.39999999999998
 20
454.27164987330002
 11
311.39999999999998
 21
457.52164987330002
  0
ARC
  8
_0-3_躯体と製品
  6
CONTINUOUS
 62
    7
 10
312.89999999999998
 20
454.27164987330002
 40
1.5
 50
180
 51
240.25511870310004
  0
ARC
  8
_0-3_躯体と製品
  6
CONTINUOUS
 62
    7
 10
316.5
 20
455.27164987330002
 40
1
 50
270
 51
0
  0
LINE
  8
_0-3_躯体と製品
  6
CONTINUOUS
 62
    7
 10
316.5
 20
454.27164987330002
 11
314.60000000000002
 21
454.27164987330002
  0
LINE
  8
_0-3_躯体と製品
  6
CONTINUOUS
 62
    7
 10
315.5
 20
455.47164987330001
 11
314.60000000000002
 21
455.47164987330001
  0
ARC
  8
_0-3_躯体と製品
  6
CONTINUOUS
 62
    7
 10
315.5
 20
455.97164987330001
 40
0.5
 50
270
 51
0
  0
ARC
  8
_0-3_躯体と製品
  6
CONTINUOUS
 62
    7
 10
314.60000000000002
 20
454.87164987329999
 40
0.5999999999999998
 50
90
 51
270
  0
ARC
  8
_0-3_躯体と製品
  6
CONTINUOUS
 62
    7
 10
320.5
 20
448.27164987330002
 40
0.5
 50
0
 51
90
  0
ARC
  8
_0-3_躯体と製品
  6
CONTINUOUS
 62
    7
 10
316.39999999999998
 20
449.37164987329999
 40
0.5999999999999998
 50
180
 51
0
  0
LINE
  8
_0-3_躯体と製品
  6
CONTINUOUS
 62
    7
 10
317
 20
450.27164987330002
 11
317
 21
449.37164987329999
  0
ARC
  8
_0-3_躯体と製品
  6
CONTINUOUS
 62
    7
 10
317.5
 20
450.27164987330002
 40
0.5
 50
90
 51
180
  0
LINE
  8
_0-3_躯体と製品
  6
CONTINUOUS
 62
    7
 10
315.80000000000001
 20
450.88688035579997
 11
315.80000000000001
 21
449.37164987329999
  0
LINE
  8
_0-3_躯体と製品
  6
CONTINUOUS
 62
    7
 10
306.5
 20
471.89538391960002
 11
307.5
 21
470.89538391960002
  0
ARC
  8
_0-3_躯体と製品
  6
CONTINUOUS
 62
    7
 10
319.50000199999999
 20
471.07165187330003
 40
1.2999989999999999
 50
180
 51
270
  0
ARC
  8
_0-3_躯体と製品
  6
CONTINUOUS
 62
    7
 10
319.50000199999999
 20
471.07165187330003
 40
0.500001
 50
180
 51
270
  0
ARC
  8
_0-3_躯体と製品
  6
CONTINUOUS
 62
    7
 10
320.5
 20
471.77164987330002
 40
1
 50
180
 51
270
  0
LINE
  8
_0-3_躯体と製品
  6
CONTINUOUS
 62
    7
 10
309
 20
474.77164987330002
 11
309
 21
461.77164987330002
  0
LINE
  8
_0-3_躯体と製品
  6
CONTINUOUS
 62
    7
 10
317
 20
469.57164987329998
 11
317
 21
474.27164987330002
  0
LINE
  8
_0-3_躯体と製品
  6
CONTINUOUS
 62
    7
 10
311
 20
474.27164987330002
 11
311
 21
462.27164987330002
  0
LINE
  8
_0-3_躯体と製品
  6
CONTINUOUS
 62
    7
 10
318.19999999999999
 20
470.07164987329998
 11
318.19999999999999
 21
475.57164987329998
  0
CIRCLE
  8
_0-4_図枠
  6
CONTINUOUS
 62
    7
 10
313.47041246600003
 20
461.00903684550002
 40
0.9
  0
LINE
  8
_0-3_躯体と製品
  6
CONTINUOUS
 62
    7
 10
317
 20
461.77164987330002
 11
311.5
 21
461.77164987330002
  0
LINE
  8
_0-3_躯体と製品
  6
CONTINUOUS
 62
    7
 10
315.5
 20
460.27164987330002
 11
311.5
 21
460.27164987330002
  0
LINE
  8
_0-3_躯体と製品
  6
CONTINUOUS
 62
    7
 10
306.5
 20
470.48117035720003
 11
307.5
 21
469.48117035720003
  0
LINE
  8
_0-3_躯体と製品
  6
CONTINUOUS
 62
    7
 10
306.5
 20
469.06695679479998
 11
307.5
 21
468.06695679479998
  0
LINE
  8
_0-3_躯体と製品
  6
CONTINUOUS
 62
    7
 10
306.5
 20
467.65274323239998
 11
307.5
 21
466.65274323239998
  0
LINE
  8
_0-3_躯体と製品
  6
CONTINUOUS
 62
    7
 10
306.5
 20
466.23852967009998
 11
307.5
 21
465.23852967009998
  0
LINE
  8
_0-3_躯体と製品
  6
CONTINUOUS
 62
    7
 10
306.5
 20
464.82431610769999
 11
307.5
 21
463.82431610769999
  0
LINE
  8
_0-3_躯体と製品
  6
CONTINUOUS
 62
    7
 10
306.5
 20
463.41010254529999
 11
307.5
 21
462.41010254529999
  0
LINE
  8
_0-3_躯体と製品
  6
CONTINUOUS
 62
    7
 10
306.5
 20
461.9958889829
 11
307.5
 21
460.9958889829
  0
LINE
  8
_0-3_躯体と製品
  6
CONTINUOUS
 62
    7
 10
306.5
 20
460.58167542059999
 11
307.5
 21
459.58167542059999
  0
LINE
  8
_0-3_躯体と製品
  6
CONTINUOUS
 62
    7
 10
309
 20
461.77164987330002
 11
308.5
 21
461.77164987330002
  0
LINE
  8
_0-3_躯体と製品
  6
CONTINUOUS
 62
    7
 10
308.5
 20
460.27164987330002
 11
309
 21
460.27164987330002
  0
ARC
  8
_0-3_躯体と製品
  6
CONTINUOUS
 62
    7
 10
311.5
 20
459.77164987330002
 40
0.5
 50
90
 51
180
  0
ARC
  8
_0-3_躯体と製品
  6
CONTINUOUS
 62
    7
 10
311.5
 20
462.27164987330002
 40
0.5
 50
180
 51
270
  0
LINE
  8
_0-3_躯体と製品
  6
CONTINUOUS
 62
    7
 10
308.5
 20
461.77164987330002
 11
308.5
 21
460.27164987330002
  0
LINE
  8
_0-3_躯体と製品
  6
CONTINUOUS
 62
    7
 10
318.42377904490002
 20
470.34244576330002
 11
319.01844272559998
 21
470.93710944399999
  0
LINE
  8
_0-3_躯体と製品
  6
CONTINUOUS
 62
    7
 10
319.2850875053
 20
469.78954066130001
 11
320.06719771730002
 21
470.57165087329997
  0
ARC
  8
_0-3_躯体と製品
  6
CONTINUOUS
 62
    7
 10
318.5
 20
470.07164987329998
 40
0.2999999999999998
 50
180
 51
270
  0
ARC
  8
_0-3_躯体と製品
  6
CONTINUOUS
 62
    7
 10
318
 20
469.57164987329998
 40
1
 50
180
 51
270
  0
ARC
  8
_0-3_躯体と製品
  6
CONTINUOUS
 62
    7
 10
317
 20
461.27164987330002
 40
0.5
 50
0
 51
90
  0
ARC
  8
_0-3_躯体と製品
  6
CONTINUOUS
 62
    7
 10
315.5
 20
459.77164987330002
 40
0.5
 50
0
 51
90
  0
LINE
  8
_0-3_躯体と製品
  6
CONTINUOUS
 62
    7
 10
319.5
 20
477.27164987330002
 11
311
 21
477.27164987330002
  0
LINE
  8
_0-3_躯体と製品
  6
CONTINUOUS
 62
    7
 10
319.5
 20
480.27164987330002
 11
311
 21
480.27164987330002
  0
LINE
  8
_0-3_躯体と製品
  6
CONTINUOUS
 62
    7
 10
316.5
 20
474.77164987330002
 11
311.5
 21
474.77164987330002
  0
LINE
  8
_0-3_躯体と製品
  6
CONTINUOUS
 62
    7
 10
313.5
 20
480.77164987330002
 11
313
 21
480.27164987330002
  0
LINE
  8
_0-3_躯体と製品
  6
CONTINUOUS
 62
    7
 10
313.5
 20
476.77164987330002
 11
313
 21
477.27164987330002
  0
LINE
  8
_0-3_躯体と製品
  6
CONTINUOUS
 62
    7
 10
307.5
 20
472.27164987330002
 11
308.5
 21
472.27164987330002
  0
LINE
  8
_0-3_躯体と製品
  6
CONTINUOUS
 62
    7
 10
307.5
 20
472.27164987330002
 11
306.5
 21
472.27164987330002
  0
LINE
  8
_0-3_躯体と製品
  6
CONTINUOUS
 62
    7
 10
311.5
 20
480.77164987330002
 11
311.5
 21
476.77164987330002
  0
LINE
  8
_0-3_躯体と製品
  6
CONTINUOUS
 62
    7
 10
311
 20
480.27164987330002
 11
311
 21
477.27164987330002
  0
LINE
  8
_0-3_躯体と製品
  6
CONTINUOUS
 62
    7
 10
311
 20
480.27164987330002
 11
311.5
 21
480.77164987330002
  0
LINE
  8
_0-3_躯体と製品
  6
CONTINUOUS
 62
    7
 10
311
 20
477.27164987330002
 11
311.5
 21
476.77164987330002
  0
LINE
  8
_0-3_躯体と製品
  6
CONTINUOUS
 62
    7
 10
308.5
 20
474.77164987330002
 11
309
 21
474.77164987330002
  0
ARC
  8
_0-3_躯体と製品
  6
CONTINUOUS
 62
    7
 10
311.5
 20
474.27164987330002
 40
0.5
 50
90
 51
180
  0
LINE
  8
_0-3_躯体と製品
  6
CONTINUOUS
 62
    7
 10
310
 20
477.07164987329998
 11
310
 21
480.47164987330001
  0
ARC
  8
_0-3_躯体と製品
  6
CONTINUOUS
 62
    7
 10
310.30000000000001
 20
477.07164987329998
 40
0.2999999999999998
 50
180
 51
270
  0
LINE
  8
_0-3_躯体と製品
  6
CONTINUOUS
 62
    7
 10
310.30000000000001
 20
476.77164987330002
 11
311.5
 21
476.77164987330002
  0
LINE
  8
_0-3_躯体と製品
  6
CONTINUOUS
 62
    7
 10
310.30000000000001
 20
480.77164987330002
 11
311.5
 21
480.77164987330002
  0
ARC
  8
_0-3_躯体と製品
  6
CONTINUOUS
 62
    7
 10
310.30000000000001
 20
480.47164987330001
 40
0.2999999999999998
 50
90
 51
180
  0
LINE
  8
_0-3_躯体と製品
  6
CONTINUOUS
 62
    7
 10
313
 20
480.27164987330002
 11
312.5
 21
480.77164987330002
  0
LINE
  8
_0-3_躯体と製品
  6
CONTINUOUS
 62
    7
 10
312.5
 20
480.77164987330002
 11
312
 21
480.27164987330002
  0
LINE
  8
_0-3_躯体と製品
  6
CONTINUOUS
 62
    7
 10
312
 20
480.27164987330002
 11
311.5
 21
480.77164987330002
  0
LINE
  8
_0-3_躯体と製品
  6
CONTINUOUS
 62
    7
 10
313
 20
477.27164987330002
 11
312.5
 21
476.77164987330002
  0
LINE
  8
_0-3_躯体と製品
  6
CONTINUOUS
 62
    7
 10
312.5
 20
476.77164987330002
 11
312
 21
477.27164987330002
  0
LINE
  8
_0-3_躯体と製品
  6
CONTINUOUS
 62
    7
 10
312
 20
477.27164987330002
 11
311.5
 21
476.77164987330002
  0
LINE
  8
_0-3_躯体と製品
  6
CONTINUOUS
 62
    7
 10
308.5
 20
482.27164987330002
 11
308.5
 21
474.77164987330002
  0
CIRCLE
  8
_0-4_図枠
  6
CONTINUOUS
 62
    7
 10
317.64190977340002
 20
479.5278792634
 40
0.9
  0
LINE
  8
_0-3_躯体と製品
  6
CONTINUOUS
 62
    7
 10
319.5
 20
476.77164987330002
 11
316.5
 21
476.77164987330002
  0
LINE
  8
_0-3_躯体と製品
  6
CONTINUOUS
 62
    7
 10
319.5
 20
480.77164987330002
 11
316.5
 21
480.77164987330002
  0
LINE
  8
_0-3_躯体と製品
  6
CONTINUOUS
 62
    7
 10
318.20000018029998
 20
474.36130758579998
 11
318.41034246779998
 21
474.57164987329998
  0
LINE
  8
_0-3_躯体と製品
  6
CONTINUOUS
 62
    7
 10
318.20000139249998
 20
472.94709523559999
 11
319.000001
 21
473.7470948431
  0
LINE
  8
_0-3_躯体と製品
  6
CONTINUOUS
 62
    7
 10
318.20000260469999
 20
471.5328828854
 11
319.000001
 21
472.3328812808
  0
LINE
  8
_0-3_躯体と製品
  6
CONTINUOUS
 62
    7
 10
318.19999999999999
 20
474.57164987329998
 11
318.20000299999998
 21
471.07165187330003
  0
LINE
  8
_0-3_躯体と製品
  6
CONTINUOUS
 62
    7
 10
318.19999999999999
 20
474.57164987329998
 11
319.000001
 21
474.57164987329998
  0
LINE
  8
_0-3_躯体と製品
  6
CONTINUOUS
 62
    7
 10
319.000001
 20
471.07165187330003
 11
319.000001
 21
474.57164987329998
  0
LINE
  8
_0-3_躯体と製品
  6
CONTINUOUS
 62
    7
 10
319.5
 20
471.77164987330002
 11
319.5
 21
482.27164987330002
  0
LINE
  8
_0-3_躯体と製品
  6
CONTINUOUS
 62
    7
 10
321
 20
478.47164987330001
 11
321
 21
472.77164987330002
  0
LINE
  8
_0-3_躯体と製品
  6
CONTINUOUS
 62
    7
 10
320.69999999999999
 20
478.77164987330002
 11
321
 21
478.47164987330001
  0
LINE
  8
_0-3_躯体と製品
  6
CONTINUOUS
 62
    7
 10
320.69999999999999
 20
478.77164987330002
 11
321
 21
479.07164987329998
  0
ARC
  8
_0-3_躯体と製品
  6
CONTINUOUS
 62
    7
 10
316.5
 20
474.27164987330002
 40
0.5
 50
0
 51
90
  0
LINE
  8
_0-3_躯体と製品
  6
CONTINUOUS
 62
    7
 10
316.5
 20
480.77164987330002
 11
319
 21
480.77164987330002
  0
LINE
  8
_0-3_躯体と製品
  6
CONTINUOUS
 62
    7
 10
316.5
 20
476.77164987330002
 11
319
 21
476.77164987330002
  0
LINE
  8
_0-3_躯体と製品
  6
CONTINUOUS
 62
    7
 10
316.5
 20
480.77164987330002
 11
316
 21
480.27164987330002
  0
LINE
  8
_0-3_躯体と製品
  6
CONTINUOUS
 62
    7
 10
316
 20
480.27164987330002
 11
315.5
 21
480.77164987330002
  0
LINE
  8
_0-3_躯体と製品
  6
CONTINUOUS
 62
    7
 10
315.5
 20
480.77164987330002
 11
315
 21
480.27164987330002
  0
LINE
  8
_0-3_躯体と製品
  6
CONTINUOUS
 62
    7
 10
315
 20
480.27164987330002
 11
314.5
 21
480.77164987330002
  0
LINE
  8
_0-3_躯体と製品
  6
CONTINUOUS
 62
    7
 10
314.5
 20
480.77164987330002
 11
314
 21
480.27164987330002
  0
LINE
  8
_0-3_躯体と製品
  6
CONTINUOUS
 62
    7
 10
314
 20
480.27164987330002
 11
313.5
 21
480.77164987330002
  0
LINE
  8
_0-3_躯体と製品
  6
CONTINUOUS
 62
    7
 10
316.5
 20
476.77164987330002
 11
316
 21
477.27164987330002
  0
LINE
  8
_0-3_躯体と製品
  6
CONTINUOUS
 62
    7
 10
316
 20
477.27164987330002
 11
315.5
 21
476.77164987330002
  0
LINE
  8
_0-3_躯体と製品
  6
CONTINUOUS
 62
    7
 10
315.5
 20
476.77164987330002
 11
315
 21
477.27164987330002
  0
LINE
  8
_0-3_躯体と製品
  6
CONTINUOUS
 62
    7
 10
315
 20
477.27164987330002
 11
314.5
 21
476.77164987330002
  0
LINE
  8
_0-3_躯体と製品
  6
CONTINUOUS
 62
    7
 10
314.5
 20
476.77164987330002
 11
314
 21
477.27164987330002
  0
LINE
  8
_0-3_躯体と製品
  6
CONTINUOUS
 62
    7
 10
314
 20
477.27164987330002
 11
313.5
 21
476.77164987330002
  0
LINE
  8
_0-3_躯体と製品
  6
CONTINUOUS
 62
    7
 10
318.19999999999999
 20
475.57164987329998
 11
318.89999999999998
 21
475.57164987329998
  0
LINE
  8
_0-3_躯体と製品
  6
CONTINUOUS
 62
    7
 10
317.5
 20
481.97164987330001
 11
318.89999999999998
 21
481.97164987330001
  0
ARC
  8
_0-3_躯体と製品
  6
CONTINUOUS
 62
    7
 10
318.89999999999998
 20
476.1716498733
 40
0.5999999999999998
 50
270
 51
90
  0
ARC
  8
_0-3_躯体と製品
  6
CONTINUOUS
 62
    7
 10
318.89999999999998
 20
481.37164987329999
 40
0.5999999999999998
 50
270
 51
90
  0
LINE
  8
_0-3_躯体と製品
  6
CONTINUOUS
 62
    7
 10
338.40000199999997
 20
459.20597034619999
 11
339.19999999999999
 21
460.00596834620001
  0
LINE
  8
_0-3_躯体と製品
  6
CONTINUOUS
 62
    7
 10
339.19999999999999
 20
469.27165187330002
 11
339.19999999999999
 21
440.57165087329997
  0
LINE
  8
_0-3_躯体と製品
  6
CONTINUOUS
 62
    7
 10
338.40000199999997
 20
469.27165187330002
 11
338.40000199999997
 21
440.57165087329997
  0
LINE
  8
_0-3_躯体と製品
  6
CONTINUOUS
 62
    7
 10
341
 20
471.27164987330002
 11
341
 21
437.27164987330002
  0
LINE
  8
_0-3_躯体と製品
  6
CONTINUOUS
 62
    7
 10
339.5
 20
470.27164987330002
 11
339.5
 21
438.27164987330002
  0
CIRCLE
  8
_0-4_図枠
  6
CONTINUOUS
 62
    7
 10
338.71769913809999
 20
452.73134260950002
 40
0.9
  0
LINE
  8
_0-3_躯体と製品
  6
CONTINUOUS
 62
    7
 10
340
 20
436.27164987330002
 11
331
 21
436.27164987330002
  0
LINE
  8
_0-3_躯体と製品
  6
CONTINUOUS
 62
    7
 10
339
 20
437.77164987330002
 11
331
 21
437.77164987330002
  0
LINE
  8
_0-3_躯体と製品
  6
CONTINUOUS
 62
    7
 10
330.80000000000001
 20
436.27164987330002
 11
339
 21
436.27164987330002
  0
LINE
  8
_0-3_躯体と製品
  6
CONTINUOUS
 62
    7
 10
323.5
 20
446.77164987330002
 11
323.5
 21
450.27164987330002
  0
LINE
  8
_0-3_躯体と製品
  6
CONTINUOUS
 62
    7
 10
325
 20
437.77164987330002
 11
325
 21
451.27164987330002
  0
ARC
  8
_0-3_躯体と製品
  6
CONTINUOUS
 62
    7
 10
330.5
 20
437.97164987330001
 40
1
 50
88.095067099440001
 51
180
  0
LINE
  8
_0-3_躯体と製品
  6
CONTINUOUS
 62
    7
 10
329.5
 20
437.97164987330001
 11
329.5
 21
436.27164987330002
  0
ARC
  8
_0-3_躯体と製品
  6
CONTINUOUS
 62
    7
 10
323.5
 20
438.27164987330002
 40
1
 50
90
 51
270
  0
ARC
  8
_0-3_躯体と製品
  6
CONTINUOUS
 62
    7
 10
323
 20
443.77164987330002
 40
0.5
 50
0
 51
90
  0
LINE
  8
_0-3_躯体と製品
  6
CONTINUOUS
 62
    7
 10
323.5
 20
443.77164987330002
 11
323.5
 21
439.27164987330002
  0
ARC
  8
_0-3_躯体と製品
  6
CONTINUOUS
 62
    7
 10
324.5
 20
437.77164987330002
 40
0.5
 50
270
 51
0
  0
LINE
  8
_0-3_躯体と製品
  6
CONTINUOUS
 62
    7
 10
324.5
 20
437.27164987330002
 11
323.5
 21
437.27164987330002
  0
ARC
  8
_0-3_躯体と製品
  6
CONTINUOUS
 62
    7
 10
322.5
 20
446.77164987330002
 40
1
 50
270
 51
0
  0
LINE
  8
_0-3_躯体と製品
  6
CONTINUOUS
 62
    7
 10
330.5
 20
437.66150610689999
 11
330.5
 21
436.57164987329998
  0
ARC
  8
_0-3_躯体と製品
  6
CONTINUOUS
 62
    7
 10
330.80000000000001
 20
437.66150610689999
 40
0.2999999999999998
 50
88.095067099450006
 51
180
  0
LINE
  8
_0-3_躯体と製品
  6
CONTINUOUS
 62
    7
 10
330.8099723679
 20
437.96134031420002
 11
336.49668414640001
 21
437.77220251559999
  0
LINE
  8
_0-3_躯体と製品
  6
CONTINUOUS
 62
    7
 10
330.53324122629999
 20
438.97109723099999
 11
336.03020169389998
 21
438.78827048649998
  0
LINE
  8
_0-3_躯体と製品
  6
CONTINUOUS
 62
    7
 10
336.54654598590002
 20
439.27137355209999
 11
336.56316659909999
 21
439.771097231
  0
ARC
  8
_0-3_躯体と製品
  6
CONTINUOUS
 62
    7
 10
336.52992537270001
 20
438.77164987330002
 40
1
 50
268.09506709943992
 51
358.09506709574293
  0
LINE
  8
_0-3_躯体と製品
  6
CONTINUOUS
 62
    7
 10
337.52937273049997
 20
438.73840864700003
 11
337.56261395680002
 21
439.73785600479999
  0
ARC
  8
_0-3_躯体と製品
  6
CONTINUOUS
 62
    7
 10
337.06289027790001
 20
439.75447661790002
 40
0.4999999999354998
 50
358.09506709943992
 51
178.09506709939996
  0
ARC
  8
_0-3_躯体と製品
  6
CONTINUOUS
 62
    7
 10
336.04682230700001
 20
439.28799416530001
 40
0.5
 50
268.09506709943992
 51
358.09506709574191
  0
ARC
  8
_0-3_躯体と製品
  6
CONTINUOUS
 62
    7
 10
331
 20
437.27164987330002
 40
0.5
 50
90
 51
180
  0
LINE
  8
_0-3_躯体と製品
  6
CONTINUOUS
 62
    7
 10
330.5
 20
436.77164987330002
 11
330.5
 21
437.27164987330002
  0
ARC
  8
_0-3_躯体と製品
  6
CONTINUOUS
 62
    7
 10
323
 20
450.27164987330002
 40
0.5
 50
0
 51
90
  0
ARC
  8
_0-3_躯体と製品
  6
CONTINUOUS
 62
    7
 10
324
 20
451.27164987330002
 40
1
 50
0
 51
90
  0
CIRCLE
  8
_0-3_躯体と製品
  6
CONTINUOUS
 62
    7
 10
341
 20
436.27164987330002
 40
1.3999999999999999
  0
LINE
  8
_0-3_躯体と製品
  6
CONTINUOUS
 62
    7
 10
338.40000199999997
 20
446.47804828480002
 11
339.19999999999999
 21
447.27804628479998
  0
LINE
  8
_0-3_躯体と製品
  6
CONTINUOUS
 62
    7
 10
338.40000199999997
 20
445.06383472239997
 11
339.19999999999999
 21
445.86383272239999
  0
LINE
  8
_0-3_躯体と製品
  6
CONTINUOUS
 62
    7
 10
338.40000199999997
 20
443.64962116010003
 11
339.19999999999999
 21
444.44961916009999
  0
LINE
  8
_0-3_躯体と製品
  6
CONTINUOUS
 62
    7
 10
338.40000199999997
 20
442.23540759769998
 11
339.19999999999999
 21
443.03540559769999
  0
LINE
  8
_0-3_躯体と製品
  6
CONTINUOUS
 62
    7
 10
338.40000199999997
 20
440.82119403529998
 11
339.19999999999999
 21
441.6211920353
  0
LINE
  8
_0-3_躯体と製品
  6
CONTINUOUS
 62
    7
 10
338.40000199999997
 20
440.57165087329997
 11
339.19999999999999
 21
440.57165087329997
  0
ARC
  8
_0-3_躯体と製品
  6
CONTINUOUS
 62
    7
 10
339
 20
438.27164987330002
 40
0.5
 50
270
 51
0
  0
LINE
  8
_0-3_躯体と製品
  6
CONTINUOUS
 62
    7
 10
338.40000199999997
 20
457.7917567838
 11
339.19999999999999
 21
458.59175478380001
  0
LINE
  8
_0-3_躯体と製品
  6
CONTINUOUS
 62
    7
 10
338.40000199999997
 20
456.3775432214
 11
339.19999999999999
 21
457.17754122140002
  0
LINE
  8
_0-3_躯体と製品
  6
CONTINUOUS
 62
    7
 10
338.40000199999997
 20
454.9633296591
 11
339.19999999999999
 21
455.76332765910001
  0
LINE
  8
_0-3_躯体と製品
  6
CONTINUOUS
 62
    7
 10
338.40000199999997
 20
453.5491160967
 11
339.19999999999999
 21
454.34911409670002
  0
LINE
  8
_0-3_躯体と製品
  6
CONTINUOUS
 62
    7
 10
338.40000199999997
 20
452.13490253430001
 11
339.19999999999999
 21
452.93490053430003
  0
LINE
  8
_0-3_躯体と製品
  6
CONTINUOUS
 62
    7
 10
338.40000199999997
 20
450.72068897190002
 11
339.19999999999999
 21
451.52068697189998
  0
LINE
  8
_0-3_躯体と製品
  6
CONTINUOUS
 62
    7
 10
338.40000199999997
 20
449.30647540960001
 11
339.19999999999999
 21
450.10647340960003
  0
LINE
  8
_0-3_躯体と製品
  6
CONTINUOUS
 62
    7
 10
338.40000199999997
 20
447.89226184720002
 11
339.19999999999999
 21
448.69225984719998
  0
LINE
  8
_0-3_躯体と製品
  6
CONTINUOUS
 62
    7
 10
337.65197302820002
 20
469.77164987330002
 11
338.36569807500001
 21
470.48537492010001
  0
LINE
  8
_0-3_躯体と製品
  6
CONTINUOUS
 62
    7
 10
321.5
 20
472.27164987330002
 11
340
 21
472.27164987330002
  0
CIRCLE
  8
_0-4_図枠
  6
CONTINUOUS
 62
    7
 10
334.02114287929999
 20
471.5284544653
 40
0.9
  0
LINE
  8
_0-3_躯体と製品
  6
CONTINUOUS
 62
    7
 10
329.16669165389999
 20
469.77164987330002
 11
329.9666926539
 21
470.57165087329997
  0
LINE
  8
_0-3_躯体と製品
  6
CONTINUOUS
 62
    7
 10
322.09562384200001
 20
469.77164987330002
 11
322.89562484200002
 21
470.57165087329997
  0
LINE
  8
_0-3_躯体と製品
  6
CONTINUOUS
 62
    7
 10
323.5098374044
 20
469.77164987330002
 11
324.30983840440001
 21
470.57165087329997
  0
LINE
  8
_0-3_躯体と製品
  6
CONTINUOUS
 62
    7
 10
324.9240509668
 20
469.77164987330002
 11
325.7240519668
 21
470.57165087329997
  0
LINE
  8
_0-3_躯体と製品
  6
CONTINUOUS
 62
    7
 10
326.33826452919999
 20
469.77164987330002
 11
327.1382655292
 21
470.57165087329997
  0
LINE
  8
_0-3_躯体と製品
  6
CONTINUOUS
 62
    7
 10
327.7524780915
 20
469.77164987330002
 11
328.5524790915
 21
470.57165087329997
  0
ARC
  8
_0-3_躯体と製品
  6
CONTINUOUS
 62
    7
 10
323.10000000000002
 20
469.1716498733
 40
0.5999999999999998
 50
270
 51
90
  0
LINE
  8
_0-3_躯体と製品
  6
CONTINUOUS
 62
    7
 10
330.58090521629998
 20
469.77164987330002
 11
331.38090621629999
 21
470.57165087329997
  0
LINE
  8
_0-3_躯体と製品
  6
CONTINUOUS
 62
    7
 10
331.99511877869998
 20
469.77164987330002
 11
332.79511977869998
 21
470.57165087329997
  0
LINE
  8
_0-3_躯体と製品
  6
CONTINUOUS
 62
    7
 10
333.40933234099998
 20
469.77164987330002
 11
334.20933334099999
 21
470.57165087329997
  0
LINE
  8
_0-3_躯体と製品
  6
CONTINUOUS
 62
    7
 10
334.82354590339997
 20
469.77164987330002
 11
335.62354690339998
 21
470.57165087329997
  0
LINE
  8
_0-3_躯体と製品
  6
CONTINUOUS
 62
    7
 10
336.23775946580002
 20
469.77164987330002
 11
337.03776046579998
 21
470.57165087329997
  0
LINE
  8
_0-3_躯体と製品
  6
CONTINUOUS
 62
    7
 10
328.36160904560001
 20
472.27164987330002
 11
330.9283121345
 21
474.83835296220002
  0
LINE
  8
_0-3_躯体と製品
  6
CONTINUOUS
 62
    7
 10
325.53318192080002
 20
472.27164987330002
 11
330.60331731799999
 21
477.3417852705
  0
LINE
  8
_0-3_躯体と製品
  6
CONTINUOUS
 62
    7
 10
325
 20
474.5668950772
 11
330.50153856719999
 21
480.06843364449998
  0
LINE
  8
_0-3_躯体と製品
  6
CONTINUOUS
 62
    7
 10
323.12449286930001
 20
479.275777715
 11
324.85819715330001
 21
472.75832965540002
  0
ARC
  8
_0-3_躯体と製品
  6
CONTINUOUS
 62
    7
 10
319.39999999999998
 20
478.77164987330002
 40
4.2000000000000002
 50
14.09578924417
 51
42.74124453868
  0
ARC
  8
_0-3_躯体と製品
  6
CONTINUOUS
 62
    7
 10
319.39999999999998
 20
478.77164987330002
 40
4.2000000000000002
 50
317.25875546131999
 51
345.90421075582998
  0
LINE
  8
_0-3_躯体と製品
  6
CONTINUOUS
 62
    7
 10
323.06571957469998
 20
479.27164987330002
 11
323.06571957469998
 21
478.27164987330002
  0
ARC
  8
_0-3_躯体と製品
  6
CONTINUOUS
 62
    7
 10
323.06571957469998
 20
479.6921285967
 40
0.4204787234042999
 50
270
 51
14.095789244169991
  0
ARC
  8
_0-3_躯体と製品
  6
CONTINUOUS
 62
    7
 10
323.06571957469998
 20
477.85117114989998
 40
0.4204787234042999
 50
345.90421075582998
 51
90
  0
LINE
  8
_0-3_躯体と製品
  6
CONTINUOUS
 62
    7
 10
322
 20
472.27164987330002
 11
324
 21
472.27164987330002
  0
ARC
  8
_0-3_躯体と製品
  6
CONTINUOUS
 62
    7
 10
324
 20
473.27164987330002
 40
1
 50
270
 51
0
  0
LINE
  8
_0-3_躯体と製品
  6
CONTINUOUS
 62
    7
 10
338.40000199999997
 20
469.10546528280003
 11
339.08986035449999
 21
469.79532363729999
  0
LINE
  8
_0-3_躯体と製品
  6
CONTINUOUS
 62
    7
 10
338.40000199999997
 20
467.69125172039998
 11
339.19999999999999
 21
468.49124972039999
  0
LINE
  8
_0-3_躯体と製品
  6
CONTINUOUS
 62
    7
 10
338.40000199999997
 20
466.27703815799998
 11
339.19999999999999
 21
467.077036158
  0
LINE
  8
_0-3_躯体と製品
  6
CONTINUOUS
 62
    7
 10
338.40000199999997
 20
464.86282459569998
 11
339.19999999999999
 21
465.66282259569999
  0
LINE
  8
_0-3_躯体と製品
  6
CONTINUOUS
 62
    7
 10
338.40000199999997
 20
463.44861103329998
 11
339.19999999999999
 21
464.2486090333
  0
LINE
  8
_0-3_躯体と製品
  6
CONTINUOUS
 62
    7
 10
338.40000199999997
 20
462.03439747089999
 11
339.19999999999999
 21
462.83439547090001
  0
LINE
  8
_0-3_躯体と製品
  6
CONTINUOUS
 62
    7
 10
338.40000199999997
 20
460.62018390859998
 11
339.19999999999999
 21
461.4201819086
  0
ARC
  8
_0-3_躯体と製品
  6
CONTINUOUS
 62
    7
 10
337.90000099999997
 20
469.27165187330002
 40
0.500001
 50
0
 51
90
  0
ARC
  8
_0-3_躯体と製品
  6
CONTINUOUS
 62
    7
 10
337.90000099999997
 20
469.27165187330002
 40
1.2999989999999999
 50
0
 51
90
  0
ARC
  8
_0-3_躯体と製品
  6
CONTINUOUS
 62
    7
 10
339
 20
470.27164987330002
 40
0.5
 50
0
 51
90
  0
CIRCLE
  8
_0-3_躯体と製品
  6
CONTINUOUS
 62
    7
 10
341
 20
472.27164987330002
 40
1.3999999999999999
  0
ARC
  8
_0-3_躯体と製品
  6
CONTINUOUS
 62
    7
 10
340
 20
471.27164987330002
 40
1
 50
0
 51
90
  0
ARC
  8
_0-3_躯体と製品
  6
CONTINUOUS
 62
    7
 10
365.87147408419997
 20
401.36344316830002
 40
1.5
 50
266.99999999998994
 51
86.999999999989953
  0
LINE
  8
_0-3_躯体と製品
  6
CONTINUOUS
 62
    7
 10
362.29776677820001
 20
400.04867471300003
 11
365.7929701498
 21
399.86549886620003
  0
LINE
  8
_0-3_躯体と製品
  6
CONTINUOUS
 62
    7
 10
362.29776677820001
 20
400.04867471300003
 11
362.35010273440002
 21
401.04730424780001
  0
LINE
  8
_0-3_躯体と製品
  6
CONTINUOUS
 62
    7
 10
397.43297634139998
 20
401.71211961620003
 11
397.52718106269998
 21
403.5096527787
  0
LINE
  8
_0-3_躯体と製品
  6
CONTINUOUS
 62
    7
 10
404.51740095299999
 20
406.57378115929998
 11
406.34894999940002
 21
404.19777016720002
  0
ARC
  8
_0-3_躯体と製品
  6
CONTINUOUS
 62
    7
 10
407.14095364249999
 20
404.80828653010002
 40
1.8
 50
217.6268481237
 51
316.37315263772001
  0
ARC
  8
_0-3_躯体と製品
  6
CONTINUOUS
 62
    7
 10
407.14095364249999
 20
404.80828653010002
 40
1
 50
217.62684873290002
 51
316.37315263772001
  0
LINE
  8
_0-3_躯体と製品
  6
CONTINUOUS
 62
    7
 10
403.88379802679998
 20
406.08536808420001
 11
405.71534707320001
 21
403.70935709209999
  0
LINE
  8
_0-3_躯体と製品
  6
CONTINUOUS
 62
    7
 10
403.88379802679998
 20
406.08536808420001
 11
404.51740095299999
 21
406.57378115929998
  0
CIRCLE
  8
_0-4_図枠
  6
CONTINUOUS
 62
    7
 10
292.35129722329998
 20
497.58841745669997
 40
6
  0
TEXT
  8
_0-4_図枠
 62
    7
 10
352.25796438409998
 20
505.31170830300005
 40
5
 41
1
 50
0
  1
２
  0
CIRCLE
  8
_0-4_図枠
  6
CONTINUOUS
 62
    7
 10
355.25796438409998
 20
508.31170830300005
 40
6
  0
LINE
  8
_0-3_躯体と製品
  6
CONTINUOUS
 62
    7
 10
331.5
 20
567.27164987330002
 11
331.5
 21
487.27164987330002
  0
ARC
  8
_0-3_躯体と製品
  6
CONTINUOUS
 62
    7
 10
322
 20
486.27164987330002
 40
1
 50
90
 51
180
  0
LINE
  8
_0-3_躯体と製品
  6
CONTINUOUS
 62
    7
 10
306.5
 20
487.27164987330002
 11
331.5
 21
487.27164987330002
  0
TEXT
  8
_0-4_図枠
 62
    7
 10
289.35129722329998
 20
494.58841745669997
 40
5
 41
1
 50
0
  1
４
  0
LINE
  8
_0-3_躯体と製品
  6
CONTINUOUS
 62
    7
 10
312
 20
482.77164987330002
 11
319
 21
482.77164987330002
  0
LINE
  8
_0-3_躯体と製品
  6
CONTINUOUS
 62
    7
 10
320
 20
484.27164987330002
 11
312
 21
484.27164987330002
  0
LINE
  8
_0-3_躯体と製品
  6
CONTINUOUS
 62
    7
 10
309
 20
482.77164987330002
 11
317.5
 21
482.77164987330002
  0
ARC
  8
_0-3_躯体と製品
  6
CONTINUOUS
 62
    7
 10
312
 20
483.27164987330002
 40
0.5
 50
180
 51
270
  0
LINE
  8
_0-3_躯体と製品
  6
CONTINUOUS
 62
    7
 10
311.5
 20
483.77164987330002
 11
311.5
 21
483.27164987330002
  0
ARC
  8
_0-3_躯体と製品
  6
CONTINUOUS
 62
    7
 10
312
 20
483.77164987330002
 40
0.5
 50
90
 51
180
  0
LINE
  8
_0-3_躯体と製品
  6
CONTINUOUS
 62
    7
 10
321
 20
483.27164987330002
 11
321
 21
486.27164987330002
  0
ARC
  8
_0-3_躯体と製品
  6
CONTINUOUS
 62
    7
 10
320
 20
483.27164987330002
 40
1
 50
0
 51
90
  0
LINE
  8
_0-3_躯体と製品
  6
CONTINUOUS
 62
    7
 10
325
 20
483.05217645149997
 11
329.21947342179999
 21
487.27164987330002
  0
LINE
  8
_0-3_躯体と製品
  6
CONTINUOUS
 62
    7
 10
325
 20
485.88060357619997
 11
326.39104629709999
 21
487.27164987330002
  0
ARC
  8
_0-3_躯体と製品
  6
CONTINUOUS
 62
    7
 10
324
 20
486.27164987330002
 40
1
 50
0
 51
90
  0
LINE
  8
_0-3_躯体と製品
  6
CONTINUOUS
 62
    7
 10
324
 20
487.27164987330002
 11
322
 21
487.27164987330002
  0
CIRCLE
  8
_0-4_図枠
  6
CONTINUOUS
 62
    7
 10
363.18655552439998
 20
495.11264507359999
 40
6
  0
LINE
  8
_0-3_躯体と製品
  6
CONTINUOUS
 62
    7
 10
481.5
 20
372
 11
481.5
 21
252
  0
LINE
  8
_0-4_図枠
  6
CONTINUOUS
 62
    7
 10
449.02169158420003
 20
385.75133698600001
 11
473.83474583959998
 21
428.7288076474
  0
LINE
  8
_0-3_躯体と製品
  6
CONTINUOUS
 62
    7
 10
431.5
 20
396.92351442789999
 11
431.5
 21
308
  0
LINE
  8
_0-3_躯体と製品
  6
CONTINUOUS
 62
    7
 10
433.22463986169998
 20
424.83160336679998
 11
430.87196852509999
 21
379.93996001080001
  0
LINE
  8
_0-3_躯体と製品
  6
CONTINUOUS
 62
    7
 10
512.2392561739
 20
391.60294481689999
 11
511.65606363100005
 21
389.07686038719999
  0
LINE
  8
_0-3_躯体と製品
  6
CONTINUOUS
 62
    7
 10
513.53351438950006
 20
391.87449927360001
 11
512.82530770870005
 21
388.80691912200001
  0
LINE
  8
_0-3_躯体と製品
  6
CONTINUOUS
 62
    7
 10
515.94468427230004
 20
391.25418286190001
 11
525.77969187049996
 21
344.98410998880001
  0
LINE
  8
_0-3_躯体と製品
  6
CONTINUOUS
 62
    7
 10
518.71959082310002
 20
392.62847698659999
 11
530.67554092629996
 21
336.38015414339998
  0
LINE
  8
_0-3_躯体と製品
  6
CONTINUOUS
 62
    7
 10
530.5
 20
333.38015414339998
 11
530.5
 21
417.53326044319999
  0
LINE
  8
_0-3_躯体と製品
  6
CONTINUOUS
 62
    7
 10
532.5
 20
417.53326044319999
 11
532.5
 21
333.38015414339998
  0
LINE
  8
_0-3_躯体と製品
  6
CONTINUOUS
 62
    7
 10
512.11646236080003
 20
412.6175197028
 11
526.07007591019999
 21
334.47728382600002
  0
LINE
  8
_0-3_躯体と製品
  6
CONTINUOUS
 62
    7
 10
516.54638645060004
 20
413.40857757589998
 11
530.5
 21
335.26834169919999
  0
LINE
  8
_0-3_躯体と製品
  6
CONTINUOUS
 62
    7
 10
448
 20
384.5
 11
448
 21
392
  0
LINE
  8
_0-3_躯体と製品
  6
CONTINUOUS
 62
    7
 10
420.5
 20
390.2870617369
 11
420.5
 21
383
  0
LINE
  8
_0-3_躯体と製品
  6
CONTINUOUS
 62
    7
 10
422.10000000000002
 20
390.2870617369
 11
422.10000000000002
 21
383
  0
ARC
  8
_0-3_躯体と製品
  6
CONTINUOUS
 62
    7
 10
440.39999999999998
 20
389.35420326569999
 40
0.5
 50
0
 51
86.999999999989996
  0
ARC
  8
_0-3_躯体と製品
  6
CONTINUOUS
 62
    7
 10
440.39999999999998
 20
389.35420326569999
 40
2.1000000000000001
 50
0
 51
86.999999999989996
  0
ARC
  8
_0-3_躯体と製品
  6
CONTINUOUS
 62
    7
 10
425.77160111910001
 20
389.62015899250002
 40
1
 50
357.00000000000102
 51
86.999999999989967
  0
ARC
  8
_0-3_躯体と製品
  6
CONTINUOUS
 62
    7
 10
436.95625190840002
 20
389.03399628260001
 40
1
 50
86.999999999989996
 51
177
  0
LINE
  8
_0-3_躯体と製品
  6
CONTINUOUS
 62
    7
 10
434.49588860429998
 20
391.76650655920002
 11
434.30747916180002
 21
388.17144023399999
  0
LINE
  8
_0-3_躯体と製品
  6
CONTINUOUS
 62
    7
 10
428.50411139570002
 20
392.08052229660001
 11
428.31570195329999
 21
388.48545597150002
  0
CIRCLE
  8
_0-4_図枠
  6
CONTINUOUS
 62
    7
 10
455.25979649359999
 20
346.4600133715
 40
6
  0
LINE
  8
_0-3_躯体と製品
  6
CONTINUOUS
 62
    7
 10
438.12502999999998
 20
334.73800399999999
 11
436.25
 21
345.371826
  0
LINE
  8
_0-3_躯体と製品
  6
CONTINUOUS
 62
    7
 10
432
 20
345
 11
433.93959699999999
 21
334
  0
LINE
  8
_0-3_躯体と製品
  6
CONTINUOUS
 62
    7
 10
431
 20
345
 11
429.06040300000001
 21
334
  0
LINE
  8
_0-3_躯体と製品
  6
CONTINUOUS
 62
    7
 10
424.87497000000002
 20
334.73800399999999
 11
426.75
 21
345.371826
  0
LINE
  8
_0-3_躯体と製品
  6
CONTINUOUS
 62
    7
 10
438.12502999999998
 20
334.73800399999999
 11
433.93959699999999
 21
334
  0
LINE
  8
_0-3_躯体と製品
  6
CONTINUOUS
 62
    7
 10
424.87497000000002
 20
334.73800399999999
 11
429.06040300000001
 21
334
  0
LINE
  8
_0-3_躯体と製品
  6
CONTINUOUS
 62
    7
 10
435
 20
332.5
 11
428
 21
332.5
  0
ARC
  8
_0-3_躯体と製品
  6
CONTINUOUS
 62
    7
 10
428
 20
333.5
 40
1
 50
180
 51
270
  0
LINE
  8
_0-3_躯体と製品
  6
CONTINUOUS
 62
    7
 10
427
 20
333.5
 11
427
 21
334.36330400000003
  0
LINE
  8
_0-3_躯体と製品
  6
CONTINUOUS
 62
    7
 10
436
 20
333.5
 11
436
 21
334.36330400000003
  0
ARC
  8
_0-3_躯体と製品
  6
CONTINUOUS
 62
    7
 10
435
 20
333.5
 40
1
 50
270
 51
0
  0
LINE
  8
_0-4_図枠
  6
CONTINUOUS
 62
    7
 10
441.67748272810002
 20
387.4886149116
 11
453.45916885989999
 21
367.08213593260001
  0
CIRCLE
  8
_0-4_図枠
  6
CONTINUOUS
 62
    7
 10
456.45916885989999
 20
361.88598350989997
 40
6
  0
LINE
  8
_0-4_図枠
  6
CONTINUOUS
 62
    7
 10
435.8374108287
 20
380.1005721473
 11
452.25979649359999
 21
351.65616579419998
  0
LINE
  8
_0-3_躯体と製品
  6
CONTINUOUS
 62
    7
 10
435.55000000000001
 20
374
 11
435.55000000000001
 21
364.69999999999999
  0
LINE
  8
_0-3_躯体と製品
  6
CONTINUOUS
 62
    7
 10
427.44999999999999
 20
374
 11
427.44999999999999
 21
364.69999999999999
  0
LINE
  8
_0-3_躯体と製品
  6
CONTINUOUS
 62
    7
 10
436.25
 20
345.371826
 11
436.25
 21
364
  0
LINE
  8
_0-3_躯体と製品
  6
CONTINUOUS
 62
    7
 10
426.75
 20
345.371826
 11
426.75
 21
364
  0
CIRCLE
  8
_0-4_図枠
  6
CONTINUOUS
 62
    7
 10
429.37398902400002
 20
346.91733860189998
 40
0.9
  0
LINE
  8
_0-3_躯体と製品
  6
CONTINUOUS
 62
    7
 10
431
 20
345
 11
432
 21
345
  0
LINE
  8
_0-3_躯体と製品
  6
CONTINUOUS
 62
    7
 10
427.44999999999999
 20
364.69999999999999
 11
435.55000000000001
 21
364.69999999999999
  0
LINE
  8
_0-3_躯体と製品
  6
CONTINUOUS
 62
    7
 10
426.75
 20
364
 11
436.25
 21
364
  0
LINE
  8
_0-3_躯体と製品
  6
CONTINUOUS
 62
    7
 10
426.75
 20
364
 11
427.44999999999999
 21
364.69999999999999
  0
LINE
  8
_0-3_躯体と製品
  6
CONTINUOUS
 62
    7
 10
436.25
 20
364
 11
435.55000000000001
 21
364.69999999999999
  0
CIRCLE
  8
_0-4_図枠
  6
CONTINUOUS
 62
    7
 10
435.8374108287
 20
380.1005721473
 40
0.9
  0
LINE
  8
_0-3_躯体と製品
  6
CONTINUOUS
 62
    7
 10
436.39999999999998
 20
383
 11
437.27350269189998
 21
382.4956829857
  0
ARC
  8
_0-3_躯体と製品
  6
CONTINUOUS
 62
    7
 10
435.83012701889999
 20
380.38644222469998
 40
2.5558227484280001
 50
55.615752532039998
 51
124.38424746800001
  0
LINE
  8
_0-3_躯体と製品
  6
CONTINUOUS
 62
    7
 10
422.5
 20
378
 11
440.5
 21
378
  0
LINE
  8
_0-3_躯体と製品
  6
CONTINUOUS
 62
    7
 10
426.5
 20
374
 11
436.5
 21
374
  0
LINE
  8
_0-3_躯体と製品
  6
CONTINUOUS
 62
    7
 10
432
 20
376.5
 11
447.69999999999999
 21
376.5
  0
LINE
  8
_0-3_躯体と製品
  6
CONTINUOUS
 62
    7
 10
434.3867513459
 20
382.4956829857
 11
434.3867513459
 21
378
  0
LINE
  8
_0-3_躯体と製品
  6
CONTINUOUS
 62
    7
 10
428.6132486541
 20
382.4956829857
 11
428.6132486541
 21
378
  0
LINE
  8
_0-3_躯体と製品
  6
CONTINUOUS
 62
    7
 10
425.72649730810002
 20
382.4956829857
 11
425.72649730810002
 21
378
  0
LINE
  8
_0-3_躯体と製品
  6
CONTINUOUS
 62
    7
 10
427.95890858799999
 20
372
 11
428.95890858799999
 21
373
  0
CIRCLE
  8
_0-4_図枠
  6
CONTINUOUS
 62
    7
 10
424.37824824699999
 20
377.23615693260001
 40
0.9
  0
LINE
  8
_0-3_躯体と製品
  6
CONTINUOUS
 62
    7
 10
422.5
 20
378
 11
422.5
 21
376.5
  0
LINE
  8
_0-3_躯体と製品
  6
CONTINUOUS
 62
    7
 10
426.5
 20
374.5
 11
426.5
 21
374
  0
LINE
  8
_0-3_躯体と製品
  6
CONTINUOUS
 62
    7
 10
420.88784077619999
 20
372
 11
421.88784077619999
 21
373
  0
LINE
  8
_0-3_躯体と製品
  6
CONTINUOUS
 62
    7
 10
422.3020543385
 20
372
 11
423.3020543385
 21
373
  0
LINE
  8
_0-3_躯体と製品
  6
CONTINUOUS
 62
    7
 10
423.71626790089999
 20
372
 11
424.71626790089999
 21
373
  0
LINE
  8
_0-3_躯体と製品
  6
CONTINUOUS
 62
    7
 10
425.13048146329999
 20
372
 11
426.13048146329999
 21
373
  0
LINE
  8
_0-3_躯体と製品
  6
CONTINUOUS
 62
    7
 10
426.54469502569998
 20
372
 11
427.54469502569998
 21
373
  0
LINE
  8
_0-3_躯体と製品
  6
CONTINUOUS
 62
    7
 10
431.5
 20
376
 11
432
 21
376.5
  0
LINE
  8
_0-3_躯体と製品
  6
CONTINUOUS
 62
    7
 10
431.5
 20
376
 11
431
 21
376.5
  0
LINE
  8
_0-3_躯体と製品
  6
CONTINUOUS
 62
    7
 10
431.5
 20
374
 11
431.5
 21
373
  0
LINE
  8
_0-3_躯体と製品
  6
CONTINUOUS
 62
    7
 10
429.37312215039998
 20
372
 11
430.37312215039998
 21
373
  0
LINE
  8
_0-3_躯体と製品
  6
CONTINUOUS
 62
    7
 10
430.78733571279997
 20
372
 11
431.78733571279997
 21
373
  0
LINE
  8
_0-3_躯体と製品
  6
CONTINUOUS
 62
    7
 10
432.20154927509998
 20
372
 11
433.20154927509998
 21
373
  0
LINE
  8
_0-3_躯体と製品
  6
CONTINUOUS
 62
    7
 10
433.61576283749997
 20
372
 11
434.61576283749997
 21
373
  0
LINE
  8
_0-3_躯体と製品
  6
CONTINUOUS
 62
    7
 10
435.02997639990002
 20
372
 11
436.02997639990002
 21
373
  0
LINE
  8
_0-3_躯体と製品
  6
CONTINUOUS
 62
    7
 10
428.45996144409997
 20
383
 11
428.05196850840002
 21
383.45312206030002
  0
LINE
  8
_0-3_躯体と製品
  6
CONTINUOUS
 62
    7
 10
426.60000000000002
 20
383
 11
436.39999999999998
 21
383
  0
ARC
  8
_0-3_躯体と製品
  6
CONTINUOUS
 62
    7
 10
427.16987298110001
 20
380.38644222469998
 40
2.5558227484280001
 50
55.615752532039998
 51
124.38424746800001
  0
LINE
  8
_0-3_躯体と製品
  6
CONTINUOUS
 62
    7
 10
428.31570195329999
 20
388.48545597150002
 11
428.05196850840002
 21
383.45312206030002
  0
LINE
  8
_0-3_躯体と製品
  6
CONTINUOUS
 62
    7
 10
434.04374571689999
 20
383.13910632289998
 11
428.05196850840002
 21
383.45312206030002
  0
LINE
  8
_0-3_躯体と製品
  6
CONTINUOUS
 62
    7
 10
435.90528641740002
 20
388.08770270410002
 11
426.71789469769999
 21
388.56919350150002
  0
LINE
  8
_0-3_躯体と製品
  6
CONTINUOUS
 62
    7
 10
426.60000000000002
 20
383
 11
425.72649730810002
 21
382.4956829857
  0
ARC
  8
_0-3_躯体と製品
  6
CONTINUOUS
 62
    7
 10
420
 20
383
 40
2.1000000000000001
 50
270
 51
0
  0
ARC
  8
_0-3_躯体と製品
  6
CONTINUOUS
 62
    7
 10
420
 20
383
 40
0.5
 50
270
 51
0
  0
LINE
  8
_0-3_躯体と製品
  6
CONTINUOUS
 62
    7
 10
426.7702306539
 20
389.56782303620002
 11
426.71789469769999
 21
388.56919350150002
  0
LINE
  8
_0-3_躯体と製品
  6
CONTINUOUS
 62
    7
 10
434.04374571689999
 20
383.13910632289998
 11
433.88925249379997
 21
383
  0
LINE
  8
_0-3_躯体と製品
  6
CONTINUOUS
 62
    7
 10
433.73975827129999
 20
388.20119322519997
 11
433.46717528469998
 21
383
  0
LINE
  8
_0-3_躯体と製品
  6
CONTINUOUS
 62
    7
 10
428.88342284380002
 20
388.45570298040002
 11
428.59750156609999
 21
383
  0
ARC
  8
_0-3_躯体と製品
  6
CONTINUOUS
 62
    7
 10
431.5
 20
373.38884696039997
 40
9.5534180126359995
 50
72.412046226049995
 51
107.587953774
  0
LINE
  8
_0-3_躯体と製品
  6
CONTINUOUS
 62
    7
 10
434.30747916180002
 20
388.17144023399999
 11
434.04374571689999
 21
383.13910632289998
  0
LINE
  8
_0-3_躯体と製品
  6
CONTINUOUS
 62
    7
 10
435.95762237359997
 20
389.08633223880003
 11
435.90528641740002
 21
388.08770270410002
  0
LINE
  8
_0-3_躯体と製品
  6
CONTINUOUS
 62
    7
 10
437.27350269189998
 20
382.4956829857
 11
437.27350269189998
 21
378
  0
ARC
  8
_0-3_躯体と製品
  6
CONTINUOUS
 62
    7
 10
447.69999999999999
 20
378.19999999999999
 40
0.2999999999999998
 50
0
 51
90
  0
LINE
  8
_0-3_躯体と製品
  6
CONTINUOUS
 62
    7
 10
436.5
 20
374.5
 11
448
 21
374.5
  0
LINE
  8
_0-3_躯体と製品
  6
CONTINUOUS
 62
    7
 10
440.5
 20
378
 11
440.5
 21
376.5
  0
LINE
  8
_0-3_躯体と製品
  6
CONTINUOUS
 62
    7
 10
436.5
 20
374
 11
436.5
 21
374.5
  0
LINE
  8
_0-3_躯体と製品
  6
CONTINUOUS
 62
    7
 10
436.44418996230002
 20
372
 11
437.44418996230002
 21
373
  0
LINE
  8
_0-3_躯体と製品
  6
CONTINUOUS
 62
    7
 10
437.85840352460002
 20
372
 11
438.85840352460002
 21
373
  0
LINE
  8
_0-3_躯体と製品
  6
CONTINUOUS
 62
    7
 10
439.27261708700001
 20
372
 11
440.27261708700001
 21
373
  0
LINE
  8
_0-3_躯体と製品
  6
CONTINUOUS
 62
    7
 10
440.68683064940001
 20
372
 11
441.68683064940001
 21
373
  0
LINE
  8
_0-3_躯体と製品
  6
CONTINUOUS
 62
    7
 10
442.1010442118
 20
372
 11
443.1010442118
 21
373
  0
LINE
  8
_0-3_躯体と製品
  6
CONTINUOUS
 62
    7
 10
443.51525777410001
 20
372
 11
444.51525777410001
 21
373
  0
ARC
  8
_0-3_躯体と製品
  6
CONTINUOUS
 62
    7
 10
446.5
 20
364.75
 40
9.25
 50
71.07535558395
 51
90
  0
ARC
  8
_0-3_躯体と製品
  6
CONTINUOUS
 62
    7
 10
452.5
 20
382.25
 40
10.25
 50
251.07535558390001
 51
270
  0
ARC
  8
_0-3_躯体と製品
  6
CONTINUOUS
 62
    7
 10
446.5
 20
364.75
 40
8.25
 50
71.07535558395
 51
90
  0
ARC
  8
_0-3_躯体と製品
  6
CONTINUOUS
 62
    7
 10
452.5
 20
382.25
 40
9.25
 50
251.07535558390001
 51
270
  0
LINE
  8
_0-3_躯体と製品
  6
CONTINUOUS
 62
    7
 10
446.5
 20
372
 11
446.5
 21
373
  0
LINE
  8
_0-3_躯体と製品
  6
CONTINUOUS
 62
    7
 10
448
 20
374.5
 11
448
 21
374
  0
LINE
  8
_0-3_躯体と製品
  6
CONTINUOUS
 62
    7
 10
448
 20
374
 11
450
 21
374
  0
ARC
  8
_0-3_躯体と製品
  6
CONTINUOUS
 62
    7
 10
447.69999999999999
 20
376.80000000000001
 40
0.2999999999999998
 50
270
 51
0
  0
LINE
  8
_0-3_躯体と製品
  6
CONTINUOUS
 62
    7
 10
448
 20
378.19999999999999
 11
448
 21
376.80000000000001
  0
LINE
  8
_0-3_躯体と製品
  6
CONTINUOUS
 62
    7
 10
444.9294713365
 20
372
 11
445.9294713365
 21
373
  0
LINE
  8
_0-3_躯体と製品
  6
CONTINUOUS
 62
    7
 10
446.34368489889999
 20
372
 11
446.5
 21
372.15631510110001
  0
ARC
  8
_0-3_躯体と製品
  6
CONTINUOUS
 62
    7
 10
444.75
 20
383.25
 40
0.75
 50
90
 51
270
  0
LINE
  8
_0-3_躯体と製品
  6
CONTINUOUS
 62
    7
 10
447.5
 20
380.89999999999998
 11
443
 21
380.89999999999998
  0
LINE
  8
_0-3_躯体と製品
  6
CONTINUOUS
 62
    7
 10
443
 20
382.5
 11
447.5
 21
382.5
  0
CIRCLE
  8
_0-4_図枠
  6
CONTINUOUS
 62
    7
 10
441.67748272810002
 20
387.4886149116
 40
0.9
  0
ARC
  8
_0-3_躯体と製品
  6
CONTINUOUS
 62
    7
 10
443
 20
383
 40
2.1000000000000001
 50
180
 51
270
  0
ARC
  8
_0-3_躯体と製品
  6
CONTINUOUS
 62
    7
 10
443
 20
383
 40
0.5
 50
180
 51
270
  0
LINE
  8
_0-3_躯体と製品
  6
CONTINUOUS
 62
    7
 10
440.89999999999998
 20
389.35420326569999
 11
440.89999999999998
 21
383
  0
LINE
  8
_0-3_躯体と製品
  6
CONTINUOUS
 62
    7
 10
442.5
 20
389.35420326569999
 11
442.5
 21
383
  0
CIRCLE
  8
_0-4_図枠
  6
CONTINUOUS
 62
    7
 10
449.02169158420003
 20
385.75133698600001
 40
0.9
  0
LINE
  8
_0-3_躯体と製品
  6
CONTINUOUS
 62
    7
 10
447.5
 20
384
 11
444.75
 21
384
  0
ARC
  8
_0-3_躯体と製品
  6
CONTINUOUS
 62
    7
 10
447.5
 20
384.5
 40
0.5
 50
270
 51
0
  0
ARC
  8
_0-3_躯体と製品
  6
CONTINUOUS
 62
    7
 10
445.75
 20
379.25
 40
0.75
 50
90
 51
270
  0
LINE
  8
_0-3_躯体と製品
  6
CONTINUOUS
 62
    7
 10
447.69999999999999
 20
378.5
 11
445.75
 21
378.5
  0
LINE
  8
_0-3_躯体と製品
  6
CONTINUOUS
 62
    7
 10
447.69999999999999
 20
380
 11
445.75
 21
380
  0
ARC
  8
_0-3_躯体と製品
  6
CONTINUOUS
 62
    7
 10
447.69999999999999
 20
380.30000000000001
 40
0.2999999999999998
 50
270
 51
0
  0
LINE
  8
_0-3_躯体と製品
  6
CONTINUOUS
 62
    7
 10
448
 20
382.19999999999999
 11
448
 21
380.30000000000001
  0
ARC
  8
_0-3_躯体と製品
  6
CONTINUOUS
 62
    7
 10
447.69999999999999
 20
382.19999999999999
 40
0.2999999999999998
 50
0
 51
90
  0
LINE
  8
_0-3_躯体と製品
  6
CONTINUOUS
 62
    7
 10
447.69999999999999
 20
382.5
 11
444.75
 21
382.5
  0
LINE
  8
_0-3_躯体と製品
  6
CONTINUOUS
 62
    7
 10
447.5
 20
382.5
 11
447.5
 21
380.89999999999998
  0
LINE
  8
_0-3_躯体と製品
  6
CONTINUOUS
 62
    7
 10
445.5
 20
382.5
 11
445.5
 21
380.89999999999998
  0
ARC
  8
_0-3_躯体と製品
  6
CONTINUOUS
 62
    7
 10
516.50806664840002
 20
343.78015414340001
 40
0.5999999999999998
 50
90
 51
270
  0
LINE
  8
_0-3_躯体と製品
  6
CONTINUOUS
 62
    7
 10
525.75824250580001
 20
343.18015414339999
 11
516.50806664840002
 21
343.18015414339999
  0
ARC
  8
_0-3_躯体と製品
  6
CONTINUOUS
 62
    7
 10
529.5
 20
333.38015414339998
 40
3
 50
270
 51
0
  0
LINE
  8
_0-3_躯体と製品
  6
CONTINUOUS
 62
    7
 10
522.5
 20
330.38015414339998
 11
522.5
 21
332.38015414339998
  0
LINE
  8
_0-3_躯体と製品
  6
CONTINUOUS
 62
    7
 10
529.5
 20
330.38015414339998
 11
522.5
 21
330.38015414339998
  0
CIRCLE
  8
_0-3_躯体と製品
  6
CONTINUOUS
 62
    7
 10
532.5
 20
330.38015414339998
 40
1.3999999999999999
  0
LINE
  8
_0-3_躯体と製品
  6
CONTINUOUS
 62
    7
 10
526.24731630609995
 20
342.78410998880003
 11
527.67554092629996
 21
336.06484143760002
  0
LINE
  8
_0-3_躯体と製品
  6
CONTINUOUS
 62
    7
 10
529.5
 20
332.38015414339998
 11
522.5
 21
332.38015414339998
  0
LINE
  8
_0-3_躯体と製品
  6
CONTINUOUS
 62
    7
 10
530.5
 20
335.26834169919999
 11
526.07007591030003
 21
334.4772838257
  0
ARC
  8
_0-3_躯体と製品
  6
CONTINUOUS
 62
    7
 10
525.75824250580001
 20
342.68015414339999
 40
0.5
 50
12
 51
90.000000000000014
  0
ARC
  8
_0-3_躯体と製品
  6
CONTINUOUS
 62
    7
 10
528.17554092629996
 20
334.88015414339998
 40
2.5
 50
270
 51
0
  0
LINE
  8
_0-3_躯体と製品
  6
CONTINUOUS
 62
    7
 10
528.17554092629996
 20
332.38015414339998
 11
527.67554092629996
 21
332.38015414339998
  0
LINE
  8
_0-3_躯体と製品
  6
CONTINUOUS
 62
    7
 10
530.67554092629996
 20
334.88015414339998
 11
530.67554092629996
 21
336.38015414339998
  0
LINE
  8
_0-3_躯体と製品
  6
CONTINUOUS
 62
    7
 10
527.67554092629996
 20
336.06484143760002
 11
527.67554092629996
 21
332.38015414339998
  0
ARC
  8
_0-3_躯体と製品
  6
CONTINUOUS
 62
    7
 10
529.5
 20
333.38015414339998
 40
1
 50
270
 51
0
  0
LINE
  8
_0-3_躯体と製品
  6
CONTINUOUS
 62
    7
 10
516.50806664840002
 20
344.38015414339998
 11
518.90806664839999
 21
344.38015414339998
  0
ARC
  8
_0-3_躯体と製品
  6
CONTINUOUS
 62
    7
 10
512.24068566990002
 20
388.94188975460003
 40
0.5999999999999998
 50
167
 51
347
  0
LINE
  8
_0-3_躯体と製品
  6
CONTINUOUS
 62
    7
 10
520.90806664839999
 20
345.38015414339998
 11
520.90806664839999
 21
344.88015414339998
  0
LINE
  8
_0-3_躯体と製品
  6
CONTINUOUS
 62
    7
 10
525.29061807009998
 20
344.38015414339998
 11
520.90806664839999
 21
344.38015414339998
  0
ARC
  8
_0-3_躯体と製品
  6
CONTINUOUS
 62
    7
 10
525.29061807009998
 20
344.88015414339998
 40
0.5
 50
270
 51
11.999999999999991
  0
LINE
  8
_0-3_躯体と製品
  6
CONTINUOUS
 62
    7
 10
520.90806664839999
 20
345.38015414339998
 11
518.90806664839999
 21
344.38015414339998
  0
LINE
  8
_0-3_躯体と製品
  6
CONTINUOUS
 62
    7
 10
520.90806664839999
 20
344.38015414339998
 11
520.90806664839999
 21
345.38015414339998
  0
LINE
  8
_0-4_図枠
  6
CONTINUOUS
 62
    7
 10
481.4733407388
 20
405.59819410009999
 11
495.39865585040002
 21
429.71754738480001
  0
LINE
  8
_0-3_躯体と製品
  6
CONTINUOUS
 62
    7
 10
477.19249923119997
 20
395.0286692798
 11
497.16508992629997
 21
393.98195015499999
  0
LINE
  8
_0-3_躯体と製品
  6
CONTINUOUS
 62
    7
 10
473.80196777200001
 20
397.20910419619997
 11
502.26290951249996
 21
395.71752944330001
  0
LINE
  8
_0-4_図枠
  6
CONTINUOUS
 62
    7
 10
433.5544450374
 20
407.46316968730002
 11
451.37997757649998
 21
438.3378977168
  0
LINE
  8
_0-4_図枠
  6
CONTINUOUS
 62
    7
 10
449.10382902840001
 20
410.18542233070002
 11
467.39091880080002
 21
441.85959093899999
  0
CIRCLE
  8
_0-4_図枠
  6
CONTINUOUS
 62
    7
 10
476.83474583959998
 20
433.92496007009998
 40
6
  0
LINE
  8
_0-3_躯体と製品
  6
CONTINUOUS
 62
    7
 10
444.20563847350002
 20
415.9348492954
 11
455.64682381099999
 21
401.0925592799
  0
LINE
  8
_0-3_躯体と製品
  6
CONTINUOUS
 62
    7
 10
444.83924139969997
 20
416.42326237060001
 11
456.28042673710002
 21
401.58097235510002
  0
LINE
  8
_0-3_躯体と製品
  6
CONTINUOUS
 62
    7
 10
430.42169487630002
 20
417.80768189510002
 11
429.17609911770001
 21
394.040298968
  0
LINE
  8
_0-3_躯体と製品
  6
CONTINUOUS
 62
    7
 10
429.85397398570001
 20
417.8374348863
 11
428.60837822719998
 21
394.0700519591
  0
LINE
  8
_0-3_躯体と製品
  6
CONTINUOUS
 62
    7
 10
435.84575119430002
 20
417.52341914879997
 11
434.6001554357
 21
393.75603622160003
  0
LINE
  8
_0-3_躯体と製品
  6
CONTINUOUS
 62
    7
 10
435.27803030379999
 20
417.55317213990003
 11
434.03243454519998
 21
393.78578921280001
  0
LINE
  8
_0-3_躯体と製品
  6
CONTINUOUS
 62
    7
 10
440.42616797810001
 20
389.853518033
 11
422.6261679781
 21
390.78637650429999
  0
LINE
  8
_0-3_躯体と製品
  6
CONTINUOUS
 62
    7
 10
440.50990550810002
 20
391.45132528869999
 11
422.70990550810001
 21
392.3841837599
  0
ARC
  8
_0-3_躯体と製品
  6
CONTINUOUS
 62
    7
 10
422.60000000000002
 20
390.2870617369
 40
0.5
 50
86.999999999989996
 51
180
  0
ARC
  8
_0-3_躯体と製品
  6
CONTINUOUS
 62
    7
 10
422.60000000000002
 20
390.2870617369
 40
2.1000000000000001
 50
86.999999999989996
 51
180
  0
CIRCLE
  8
_0-3_躯体と製品
  6
CONTINUOUS
 62
    7
 10
431.5
 20
391.92351442789999
 40
1.3999999999999999
  0
LINE
  8
_0-3_躯体と製品
  6
CONTINUOUS
 62
    7
 10
428.60837822719998
 20
394.0700519591
 11
428.50411139570002
 21
392.08052229660001
  0
LINE
  8
_0-3_躯体と製品
  6
CONTINUOUS
 62
    7
 10
429.17609911770001
 20
394.040298968
 11
429.07183228619999
 21
392.05076930550001
  0
LINE
  8
_0-3_躯体と製品
  6
CONTINUOUS
 62
    7
 10
434.03243454519998
 20
393.78578921280001
 11
433.92816771380001
 21
391.79625955030002
  0
LINE
  8
_0-3_躯体と製品
  6
CONTINUOUS
 62
    7
 10
434.6001554357
 20
393.75603622160003
 11
434.49588860429998
 21
391.76650655920002
  0
CIRCLE
  8
_0-4_図枠
  6
CONTINUOUS
 62
    7
 10
433.5544450374
 20
407.46316968730002
 40
0.9
  0
CIRCLE
  8
_0-3_躯体と製品
  6
CONTINUOUS
 62
    7
 10
449.05233595620001
 20
392.99862953479999
 40
1.3999999999999999
  0
ARC
  8
_0-3_躯体と製品
  6
CONTINUOUS
 62
    7
 10
449
 20
392
 40
1
 50
0
 51
180
  0
CIRCLE
  8
_0-4_図枠
  6
CONTINUOUS
 62
    7
 10
449.10382902840001
 20
410.18542233070002
 40
0.9
  0
ARC
  8
_0-3_躯体と製品
  6
CONTINUOUS
 62
    7
 10
432.7242563474
 20
415.28371713270002
 40
6.2999999999999998
 50
47.696869
 51
126.30937100000001
  0
LINE
  8
_0-3_躯体と製品
  6
CONTINUOUS
 62
    7
 10
422.15001687799997
 20
417.44008429320002
 11
443.46597077209998
 21
416.32296248630001
  0
LINE
  8
_0-3_躯体と製品
  6
CONTINUOUS
 62
    7
 10
422.19188564299998
 20
418.23898792099999
 11
443.50783953709998
 21
417.12186611409999
  0
ARC
  8
_0-3_躯体と製品
  6
CONTINUOUS
 62
    7
 10
431.0366318948
 20
417.58032899900002
 40
3.4500000000000002
 50
126.309124
 51
173.76216300000002
  0
ARC
  8
_0-3_躯体と製品
  6
CONTINUOUS
 62
    7
 10
422.09768092169998
 20
416.44145475840003
 40
1
 50
86.999999999989996
 51
136.3731526377
  0
ARC
  8
_0-3_躯体と製品
  6
CONTINUOUS
 62
    7
 10
422.09768092169998
 20
416.44145475840003
 40
1.8
 50
86.999999999989996
 51
136.3731526377
  0
LINE
  8
_0-3_躯体と製品
  6
CONTINUOUS
 62
    7
 10
433.7610019407
 20
420.73550955280001
 11
432.2630576386
 21
420.8140134871
  0
ARC
  8
_0-3_躯体と製品
  6
CONTINUOUS
 62
    7
 10
434.36223358619998
 20
420.74329919510001
 40
0.5999999999999998
 50
73.299767000000003
 51
176.99999999999997
  0
ARC
  8
_0-3_躯体と製品
  6
CONTINUOUS
 62
    7
 10
431.66593384229998
 20
420.88460627699999
 40
0.5999999999999998
 50
357.00000000000006
 51
100.70023300000001
  0
LINE
  8
_0-4_図枠
  6
CONTINUOUS
 62
    7
 10
436
 20
430.44436657419999
 11
436
 21
433.06475553830001
  0
ARC
  8
_0-3_躯体と製品
  6
CONTINUOUS
 62
    7
 10
443.41363481579998
 20
415.32433295150003
 40
1.8
 50
37.626847362280003
 51
86.999999999989996
  0
ARC
  8
_0-3_躯体と製品
  6
CONTINUOUS
 62
    7
 10
434.64796790010001
 20
417.386557719
 40
3.4500000000000002
 50
0.3127429999988998
 51
47.820489000000002
  0
ARC
  8
_0-3_躯体と製品
  6
CONTINUOUS
 62
    7
 10
443.41363481579998
 20
415.32433295150003
 40
1
 50
37.626847362280003
 51
86.999999999989996
  0
ARC
  8
_0-3_躯体と製品
  6
CONTINUOUS
 62
    7
 10
457.07243038019999
 20
402.19148871789997
 40
1
 50
217.6268473623
 51
316.37315126712997
  0
LINE
  8
_0-3_躯体と製品
  6
CONTINUOUS
 62
    7
 10
460.44523432890003
 20
403.12110881450002
 11
458.37535792210002
 21
400.9495628665
  0
ARC
  8
_0-3_躯体と製品
  6
CONTINUOUS
 62
    7
 10
457.07243038019999
 20
402.19148871789997
 40
1.8
 50
217.6268473623
 51
316.37315187627996
  0
LINE
  8
_0-3_躯体と製品
  6
CONTINUOUS
 62
    7
 10
467.33704377430001
 20
398.04860267919997
 11
467.43124849549997
 21
399.8461358417
  0
LINE
  8
_0-3_躯体と製品
  6
CONTINUOUS
 62
    7
 10
460.44523432890003
 20
403.12110881450002
 11
459.86615541409998
 21
403.67307585190002
  0
LINE
  8
_0-3_躯体と製品
  6
CONTINUOUS
 62
    7
 10
459.86615541409998
 20
403.67307585190002
 11
457.79627900729997
 21
401.50152990390001
  0
LINE
  8
_0-3_躯体と製品
  6
CONTINUOUS
 62
    7
 10
477.19249923119997
 20
395.0286692798
 11
477.14016327489998
 21
394.0300397451
  0
LINE
  8
_0-3_躯体と製品
  6
CONTINUOUS
 62
    7
 10
473.64495990329999
 20
394.2132155919
 11
477.14016327489998
 21
394.0300397451
  0
ARC
  8
_0-3_躯体と製品
  6
CONTINUOUS
 62
    7
 10
473.72346383770002
 20
395.71115989409998
 40
1.5
 50
86.999999999989996
 51
267
  0
CIRCLE
  8
_0-4_図枠
  6
CONTINUOUS
 62
    7
 10
481.4733407388
 20
405.59819410009999
 40
0.9
  0
TEXT
  8
_0-4_図枠
 62
    7
 10
473.83474583959998
 20
430.92496007009998
 40
5
 41
1
 50
0
  1
３
  0
CIRCLE
  8
_0-4_図枠
  6
CONTINUOUS
 62
    7
 10
454.37997757649998
 20
443.53405013960003
 40
6
  0
CIRCLE
  8
_0-4_図枠
  6
CONTINUOUS
 62
    7
 10
470.39091880080002
 20
447.05574336170002
 40
6
  0
LINE
  8
_0-4_図枠
  6
CONTINUOUS
 62
    7
 10
516.25358271020002
 20
402.83295440580002
 11
539.89006385360005
 21
443.77254065839998
  0
LINE
  8
_0-4_図枠
  6
CONTINUOUS
 62
    7
 10
515.70935597189998
 20
420.26794395920001
 11
540.84583711530001
 21
463.80560642310002
  0
CIRCLE
  8
_0-4_図枠
  6
CONTINUOUS
 62
    7
 10
498.39865585040002
 20
434.9136998075
 40
6
  0
ARC
  8
_0-3_躯体と製品
  6
CONTINUOUS
 62
    7
 10
515.78514802090001
 20
392.00474191410001
 40
3
 50
12
 51
86.999999999989996
  0
LINE
  8
_0-3_躯体と製品
  6
CONTINUOUS
 62
    7
 10
501.97506175319995
 20
390.22506700209999
 11
503.440468528
 21
418.18669397529999
  0
ARC
  8
_0-3_躯体と製品
  6
CONTINUOUS
 62
    7
 10
509.16317963430004
 20
412.0901477873
 40
3
 50
10.1246716554
 51
86.999999999989996
  0
ARC
  8
_0-3_躯体と製品
  6
CONTINUOUS
 62
    7
 10
502.52671247679996
 20
391.1975285588
 40
0.5
 50
176.99999999999997
 51
267
  0
LINE
  8
_0-3_躯体と製品
  6
CONTINUOUS
 62
    7
 10
497.11275396999997
 20
392.9833206202
 11
502.10590164380005
 21
392.72164083899997
  0
LINE
  8
_0-3_躯体と製品
  6
CONTINUOUS
 62
    7
 10
497.16508992629997
 20
393.98195015499999
 11
497.11275396999997
 21
392.9833206202
  0
LINE
  8
_0-3_躯体と製品
  6
CONTINUOUS
 62
    7
 10
504.10316071329999
 20
392.61696892650002
 11
511.77823911960002
 21
392.21473511139999
  0
LINE
  8
_0-3_躯体と製品
  6
CONTINUOUS
 62
    7
 10
504.26016858210005
 20
395.6128575308
 11
515.94215588960003
 21
395.00063051839999
  0
ARC
  8
_0-3_躯体と製品
  6
CONTINUOUS
 62
    7
 10
504.07699273519995
 20
392.11765415920001
 40
0.5
 50
86.999999999989996
 51
177
  0
LINE
  8
_0-3_躯体と製品
  6
CONTINUOUS
 62
    7
 10
503.57767796780001
 20
392.14382213729999
 11
503.52534201159995
 21
391.1451926025
  0
ARC
  8
_0-3_躯体と製品
  6
CONTINUOUS
 62
    7
 10
504.28633656019997
 20
396.11217229819999
 40
0.5
 50
176.99999999999997
 51
267
  0
LINE
  8
_0-3_躯体と製品
  6
CONTINUOUS
 62
    7
 10
503.78702179280003
 20
396.13834027630003
 11
503.89169370529999
 21
398.13559934580002
  0
ARC
  8
_0-3_躯体と製品
  6
CONTINUOUS
 62
    7
 10
503.39237893790005
 20
398.16176732389999
 40
0.5
 50
357.00000000000102
 51
86.999999999989967
  0
LINE
  8
_0-3_躯体と製品
  6
CONTINUOUS
 62
    7
 10
503.41854691599997
 20
398.66108209129999
 11
502.91923214860003
 21
398.68725006940002
  0
ARC
  8
_0-3_躯体と製品
  6
CONTINUOUS
 62
    7
 10
502.8930641705
 20
398.18793530200003
 40
0.5
 50
86.999999999989996
 51
177
  0
ARC
  8
_0-3_躯体と製品
  6
CONTINUOUS
 62
    7
 10
503.02602724420001
 20
391.17136058059998
 40
0.5
 50
266.99999999998994
 51
357.00000000000091
  0
LINE
  8
_0-3_躯体と製品
  6
CONTINUOUS
 62
    7
 10
502.99985926609997
 20
390.67204581329997
 11
502.50054449870004
 21
390.69821379140001
  0
LINE
  8
_0-3_躯体と製品
  6
CONTINUOUS
 62
    7
 10
515.01887262779996
 20
392.04490070579999
 11
513.84152619580004
 21
392.10660281769998
  0
ARC
  8
_0-3_躯体と製品
  6
CONTINUOUS
 62
    7
 10
514.96653667160001
 20
391.046271171
 40
1
 50
12
 51
86.999999999989996
  0
ARC
  8
_0-3_躯体と製品
  6
CONTINUOUS
 62
    7
 10
513.82582540889996
 20
391.8070139573
 40
0.2999999999999998
 50
86.999999999989996
 51
167
  0
ARC
  8
_0-3_躯体と製品
  6
CONTINUOUS
 62
    7
 10
511.75207114149998
 20
391.71542034409998
 40
0.5
 50
347
 51
86.999999999989981
  0
CIRCLE
  8
_0-4_図枠
  6
CONTINUOUS
 62
    7
 10
516.25358271020002
 20
402.83295440580002
 40
0.9
  0
LINE
  8
_0-3_躯体と製品
  6
CONTINUOUS
 62
    7
 10
503.41430054989996
 20
417.68737920789999
 11
488.43485752859999
 21
418.47241855150003
  0
LINE
  8
_0-3_躯体と製品
  6
CONTINUOUS
 62
    7
 10
502.1973381194
 20
413.7456681223
 11
497.9703201085
 21
417.97268613329999
  0
LINE
  8
_0-3_躯体と製品
  6
CONTINUOUS
 62
    7
 10
503.22783401610002
 20
414.12938578810002
 11
499.46274853019997
 21
417.89447127400001
  0
LINE
  8
_0-3_躯体と製品
  6
CONTINUOUS
 62
    7
 10
503.29825899169998
 20
415.47317437480001
 11
500.95517695189994
 21
417.81625641459999
  0
LINE
  8
_0-3_躯体と製品
  6
CONTINUOUS
 62
    7
 10
502.43284992250005
 20
418.23950102869998
 11
500.62441275920003
 21
420.047938192
  0
LINE
  8
_0-3_躯体と製品
  6
CONTINUOUS
 62
    7
 10
503.46334581910003
 20
418.6232186945
 11
502.1168411809
 21
419.96972333270003
  0
LINE
  8
_0-3_躯体と製品
  6
CONTINUOUS
 62
    7
 10
494.73519601099997
 20
414.13674241889998
 11
490.50817800000004
 21
418.36376042990003
  0
LINE
  8
_0-3_躯体と製品
  6
CONTINUOUS
 62
    7
 10
496.22762443270005
 20
414.05852755960001
 11
492.00060642170001
 21
418.28554557059999
  0
LINE
  8
_0-3_躯体と製品
  6
CONTINUOUS
 62
    7
 10
497.72005285440002
 20
413.98031270029998
 11
493.49303484339998
 21
418.20733071119997
  0
LINE
  8
_0-3_躯体と製品
  6
CONTINUOUS
 62
    7
 10
494.97070781410002
 20
418.63057532530001
 11
493.1622706508
 21
420.43901248859999
  0
LINE
  8
_0-3_躯体と製品
  6
CONTINUOUS
 62
    7
 10
489.00099412730003
 20
418.94343476260002
 11
488.48650564119998
 21
419.45792324870001
  0
LINE
  8
_0-3_躯体と製品
  6
CONTINUOUS
 62
    7
 10
488.76548232419998
 20
414.44960185619999
 11
488.25099383810004
 21
414.96409034229998
  0
LINE
  8
_0-3_躯体と製品
  6
CONTINUOUS
 62
    7
 10
488.22551370359997
 20
414.47790041249999
 11
488.43485752859999
 21
418.47241855150003
  0
LINE
  8
_0-3_躯体と製品
  6
CONTINUOUS
 62
    7
 10
490.25791074589995
 20
414.37138699690001
 11
488.32141881380005
 21
416.30787892900003
  0
LINE
  8
_0-3_躯体と製品
  6
CONTINUOUS
 62
    7
 10
491.75033916760003
 20
414.29317213759998
 11
488.39184378940001
 21
417.65166751570001
  0
LINE
  8
_0-3_躯体と製品
  6
CONTINUOUS
 62
    7
 10
493.2427675893
 20
414.21495727830001
 11
489.01574957829996
 21
418.4419752892
  0
LINE
  8
_0-3_躯体と製品
  6
CONTINUOUS
 62
    7
 10
488.46102550670003
 20
418.97173331890002
 11
488.55058868150002
 21
420.68070049940002
  0
LINE
  8
_0-3_躯体と製品
  6
CONTINUOUS
 62
    7
 10
490.493422549
 20
418.86521990329999
 11
488.68498538569997
 21
420.67365706660001
  0
LINE
  8
_0-3_躯体と製品
  6
CONTINUOUS
 62
    7
 10
491.98585097069997
 20
418.78700504400001
 11
490.17741380739994
 21
420.59544220729998
  0
LINE
  8
_0-3_躯体と製品
  6
CONTINUOUS
 62
    7
 10
493.47827939240005
 20
418.70879018469998
 11
491.66984222910003
 21
420.51722734790002
  0
LINE
  8
_0-3_躯体と製品
  6
CONTINUOUS
 62
    7
 10
499.21248127599995
 20
413.902097841
 11
494.98546326509995
 21
418.1291158519
  0
LINE
  8
_0-3_躯体と製品
  6
CONTINUOUS
 62
    7
 10
500.70490969770003
 20
413.82388298170002
 11
496.47789168680004
 21
418.05090099260002
  0
LINE
  8
_0-3_躯体と製品
  6
CONTINUOUS
 62
    7
 10
496.46313623579999
 20
418.55236046599998
 11
494.65469907249997
 21
420.36079762930001
  0
LINE
  8
_0-3_躯体と製品
  6
CONTINUOUS
 62
    7
 10
497.95556465749996
 20
418.47414560670001
 11
496.14712749420005
 21
420.28258276999998
  0
LINE
  8
_0-3_躯体と製品
  6
CONTINUOUS
 62
    7
 10
499.4479930791
 20
418.39593074739997
 11
497.63955591590002
 21
420.2043679107
  0
LINE
  8
_0-3_躯体と製品
  6
CONTINUOUS
 62
    7
 10
500.94042150079997
 20
418.3177158881
 11
499.13198433749994
 21
420.12615305129998
  0
ARC
  8
_0-3_躯体と製品
  6
CONTINUOUS
 62
    7
 10
509.16317963430004
 20
412.0901477873
 40
7.5
 50
10.1246716554
 51
86.999999999989996
  0
LINE
  8
_0-3_躯体と製品
  6
CONTINUOUS
 62
    7
 10
503.29451989970005
 20
415.40182824940001
 11
509.32018750300006
 21
415.08603639159998
  0
LINE
  8
_0-3_躯体と製品
  6
CONTINUOUS
 62
    7
 10
503.53003170279999
 20
419.89566115579998
 11
509.5556993061
 21
419.57986929800001
  0
LINE
  8
_0-3_躯体と製品
  6
CONTINUOUS
 62
    7
 10
503.36868396739999
 20
416.8169629615
 11
502.44760537360003
 21
417.73804155530001
  0
LINE
  8
_0-3_躯体と製品
  6
CONTINUOUS
 62
    7
 10
503.440468528
 20
418.18669397529999
 11
503.53003170279999
 21
419.89566115579998
  0
CIRCLE
  8
_0-4_図枠
  6
CONTINUOUS
 62
    7
 10
515.70935597189998
 20
420.26794395920001
 40
0.9
  0
ARC
  8
_0-3_躯体と製品
  6
CONTINUOUS
 62
    7
 10
529.5
 20
417.53326044319999
 40
3
 50
0
 51
86.999999999989996
  0
ARC
  8
_0-3_躯体と製品
  6
CONTINUOUS
 62
    7
 10
529.5
 20
417.53326044319999
 40
1
 50
0
 51
86.999999999989996
  0
CIRCLE
  8
_0-3_躯体と製品
  6
CONTINUOUS
 62
    7
 10
532.5
 20
420.38015414339998
 40
1.3999999999999999
  0
CIRCLE
  8
_0-4_図枠
  6
CONTINUOUS
 62
    7
 10
542.89006385360005
 20
448.96869308110001
 40
6
  0
CIRCLE
  8
_0-4_図枠
  6
CONTINUOUS
 62
    7
 10
543.84583711530001
 20
469.0017588458
 40
6
  0
TEXT
  8
_0-4_図枠
 62
    7
 10
540.84583711530001
 20
466.0017588458
 40
5
 41
1
 50
0
  1
１
  0
ARC
  8
_0-0_0
  6
CONTINUOUS
 62
    7
 10
450.49999800000001
 20
377
 40
0.500001
 50
180
 51
270
  0
LINE
  8
_0-0_0
  6
CONTINUOUS
 62
    7
 10
450
 20
375.00000199999999
 11
450
 21
374
  0
LINE
  8
_0-0_0
  6
CONTINUOUS
 62
    7
 10
460.5
 20
375.00000199999999
 11
460.5
 21
374
  0
LINE
  8
_0-0_0
  6
CONTINUOUS
 62
    7
 10
462
 20
374
 11
460.5
 21
374
  0
LINE
  8
_0-0_0
  6
CONTINUOUS
 62
    7
 10
462
 20
376.00000199999999
 11
462
 21
374
  0
ARC
  8
_0-0_0
  6
CONTINUOUS
 62
    7
 10
461.5
 20
376.00000199999999
 40
0.5
 50
0
 51
90
  0
LINE
  8
_0-0_0
  6
CONTINUOUS
 62
    7
 10
450.25
 20
379.75000199999999
 11
451.50000000009999
 21
379.75000199999999
  0
LINE
  8
_0-0_0
  6
CONTINUOUS
 62
    7
 10
454.50000000009999
 20
379.75000199999999
 11
455.75
 21
379.75000199999999
  0
LINE
  8
_0-0_0
  6
CONTINUOUS
 62
    7
 10
450
 20
375.00000199999999
 11
457.50594887379998
 21
375.00000199999999
  0
LINE
  8
_0-0_0
  6
CONTINUOUS
 62
    7
 10
457.50594887379998
 20
375.00000199999999
 11
460.5
 21
375.00000199999999
  0
LINE
  8
_0-0_0
  6
CONTINUOUS
 62
    7
 10
455.5
 20
376.50000199999999
 11
450.49999800000001
 21
376.50000199999999
  0
LINE
  8
_0-0_0
  6
CONTINUOUS
 62
    7
 10
461.5
 20
376.50000199999999
 11
457.5
 21
376.50000199999999
  0
ARC
  8
_0-0_0
  6
CONTINUOUS
 62
    7
 10
455.5
 20
377.00000199999999
 40
0.25
 50
270
 51
0
  0
ARC
  8
_0-0_0
  6
CONTINUOUS
 62
    7
 10
450.49999800000001
 20
377
 40
0.2500009999999999
 50
180
 51
270
  0
LINE
  8
_0-0_0
  6
CONTINUOUS
 62
    7
 10
455.75
 20
377.00000199999999
 11
455.75
 21
379.75000199999999
  0
LINE
  8
_0-0_0
  6
CONTINUOUS
 62
    7
 10
450.25
 20
377
 11
450.25
 21
379.75000199999999
  0
LINE
  8
_0-0_0
  6
CONTINUOUS
 62
    7
 10
455.5
 20
376.75000199999999
 11
450.49999800000001
 21
376.75000199999999
  0
LINE
  8
_0-0_0
  6
CONTINUOUS
 62
    7
 10
450
 20
392
 11
450
 21
381.50000199999999
  0
LINE
  8
_0-0_0
  6
CONTINUOUS
 62
    7
 10
450
 20
380.00000199999999
 11
450
 21
377
  0
LINE
  8
_0-0_0
  6
CONTINUOUS
 62
    7
 10
456
 20
377.00000199999999
 11
456
 21
380.00000199999999
  0
LINE
  8
_0-0_0
  6
CONTINUOUS
 62
    7
 10
457.5
 20
381.00000199999999
 11
457.5
 21
376.50000199999999
  0
ARC
  8
_0-0_0
  6
CONTINUOUS
 62
    7
 10
457
 20
381.00000199999999
 40
0.5
 50
0
 51
90
  0
ARC
  8
_0-0_0
  6
CONTINUOUS
 62
    7
 10
455.5
 20
377.00000199999999
 40
0.5
 50
270
 51
0
  0
LINE
  8
_0-0_0
  6
CONTINUOUS
 62
    7
 10
457
 20
381.50000199999999
 11
455.75
 21
381.50000199999999
  0
ARC
  8
_0-0_0
  6
CONTINUOUS
 62
    7
 10
455.75
 20
380.50000199999999
 40
1
 50
90
 51
180
  0
LINE
  8
_0-0_0
  6
CONTINUOUS
 62
    7
 10
454.75
 20
380.50000199999999
 11
454.75
 21
380.00000199999999
  0
LINE
  8
_0-0_0
  6
CONTINUOUS
 62
    7
 10
454.75
 20
380.00000199999999
 11
456
 21
380.00000199999999
  0
LINE
  8
_0-0_0
  6
CONTINUOUS
 62
    7
 10
450
 20
380.00000199999999
 11
451.25
 21
380.00000199999999
  0
LINE
  8
_0-0_0
  6
CONTINUOUS
 62
    7
 10
451.25
 20
380.50000199999999
 11
451.25
 21
380.00000199999999
  0
ARC
  8
_0-0_0
  6
CONTINUOUS
 62
    7
 10
450.25
 20
380.50000199999999
 40
1
 50
0
 51
90
  0
LINE
  8
_0-0_0
  6
CONTINUOUS
 62
    7
 10
450.25
 20
381.50000199999999
 11
450
 21
381.50000199999999
  0
LINE
  8
_0-0_0
  6
CONTINUOUS
 62
    7
 10
451.50000000009999
 20
379.75000199999999
 11
451.50000000009999
 21
398.66955785990001
  0
LINE
  8
_0-0_0
  6
CONTINUOUS
 62
    7
 10
454.50000000009999
 20
379.75000199999999
 11
454.50000000009999
 21
400.13282085589998
  0
ARC
  8
_0-0_0
  6
CONTINUOUS
 62
    7
 10
477.52303753379999
 20
397.12656864100001
 40
23.087541006009999
 50
75.801339104809998
 51
176.8159758207
  0
ARC
  8
_0-0_0
  6
CONTINUOUS
 62
    7
 10
476.38742035109999
 20
396.49149605920002
 40
25
 50
73.590455650790005
 51
175
  0
ARC
  8
_0-0_0
  6
CONTINUOUS
 62
    7
 10
483.308701117
 20
419.99353581230002
 40
0.5
 50
255.80133910479998
 51
73.590455650789977
  0
LINE
  8
_0-3_躯体と製品
  6
CONTINUOUS
 62
    7
 10
450
 20
381.50000199999999
 11
450
 21
392
  0
LINE
  8
_0-4_図枠
  6
CONTINUOUS
 62
    7
 10
454.34600397399998
 20
387.8499770839
 11
464.80345151059998
 21
369.73714663300001
  0
TEXT
  8
_0-4_図枠
 62
    7
 10
464.55345151059998
 20
361.54099421030003
 40
5
 41
1
 50
0
  1
11
  0
CIRCLE
  8
_0-4_図枠
  6
CONTINUOUS
 62
    7
 10
467.80345151059998
 20
364.54099421030003
 40
6
  0
CIRCLE
  8
_0-4_図枠
  6
CONTINUOUS
 62
    7
 10
454.34600397399998
 20
387.8499770839
 40
0.9
  0
TEXT
  8
_0-4_図枠
 62
    7
 10
495.39865585040002
 20
431.9136998075
 40
5
 41
1
 50
0
  1
５
  0
TEXT
  8
_0-4_図枠
 62
    7
 10
467.39091880080002
 20
444.05574336170002
 40
5
 41
1
 50
0
  1
６
  0
TEXT
  8
_0-4_図枠
 62
    7
 10
453.45916885989999
 20
358.88598350989997
 40
5
 41
1
 50
0
  1
７
  0
TEXT
  8
_0-4_図枠
 62
    7
 10
539.89006385360005
 20
445.96869308110001
 40
5
 41
1
 50
0
  1
８
  0
TEXT
  8
_0-4_図枠
 62
    7
 10
359.93655552439998
 20
492.11264507359999
 40
5
 41
1
 50
0
  1
９
  0
TEXT
  8
_0-4_図枠
 62
    7
 10
361.86250194540003
 20
384.09548557229999
 40
5
 41
1
 50
0
  1
12
  0
TEXT
  8
_0-4_図枠
 62
    7
 10
451.12997757649998
 20
440.53405013949998
 40
5
 41
1
 50
0
  1
13
  0
TEXT
  8
_0-4_図枠
 62
    7
 10
452.00979649359999
 20
343.4600133715
 40
5
 41
1
 50
0
  1
15
  0
TEXT
  8
_0-4_図枠
 62
    7
 10
413.08237482930002
 20
321.32860020380002
 40
5
 41
1
 50
0
  1
16
  0
TEXT
  8
_0-4_図枠
 62
    7
 10
258.81823625009997
 20
449.82060764689999
 40
5
 41
1
 50
0
  1
17
  0
TEXT
  8
_0-4_図枠
 62
    7
 10
286.88454026239998
 20
450.9193478597
 40
5
 41
1
 50
0
  1
18
  0
TEXT
  8
_0-4_図枠
 62
    7
 10
288.62573593249999
 20
398.7472546898
 40
5
 41
1
 50
0
  1
20
  0
TEXT
  8
_0-4_図枠
 62
    7
 10
408.43099461510002
 20
352.24386852560002
 40
5
 41
1
 50
0
  1
19
  0
CIRCLE
  8
_0-2_寸法
  6
CONTINUOUS
 62
    7
 10
481.5
 20
267
 40
1.3999999999999999
  0
CIRCLE
  8
_0-2_寸法
  6
CONTINUOUS
 62
    7
 10
481.5
 20
267
 40
1.3999999999999999
  0
LINE
  8
_0-2_寸法
  6
CONTINUOUS
 62
    7
 10
481.5
 20
266.75
 11
481.5
 21
267
  0
LINE
  8
_0-2_寸法
  6
CONTINUOUS
 62
    7
 10
532.5
 20
330.38015414339998
 11
532.5
 21
267
  0
LINE
  8
_0-2_寸法
  6
CONTINUOUS
 62
    7
 10
482.5
 20
267
 11
531.5
 21
267
  0
CIRCLE
  8
_0-2_寸法
  6
CONTINUOUS
 62
    7
 10
481.5
 20
266.75
 40
1.3999999999999999
  0
CIRCLE
  8
_0-2_寸法
  6
CONTINUOUS
 62
    7
 10
532.5
 20
330.38015414339998
 40
1.3999999999999999
  0
CIRCLE
  8
_0-2_寸法
  6
CONTINUOUS
 62
    7
 10
532.5
 20
267
 40
1.3999999999999999
  0
CIRCLE
  8
_0-2_寸法
  6
CONTINUOUS
 62
    7
 10
306.5
 20
267
 40
0.25
  0
LINE
  8
_0-2_寸法
  6
CONTINUOUS
 62
    7
 10
306.25
 20
267
 11
306.75
 21
267
  0
LINE
  8
_0-2_寸法
  6
CONTINUOUS
 62
    7
 10
307
 20
267
 11
307.5
 21
267
  0
CIRCLE
  8
_0-2_寸法
  6
CONTINUOUS
 62
    7
 10
481.5
 20
267
 40
0.25
  0
LINE
  8
_0-2_寸法
  6
CONTINUOUS
 62
    7
 10
481.75
 20
267
 11
481.25
 21
267
  0
LINE
  8
_0-2_寸法
  6
CONTINUOUS
 62
    7
 10
481
 20
267
 11
480.5
 21
267
  0
CIRCLE
  8
_0-2_寸法
  6
CONTINUOUS
 62
    7
 10
481.5
 20
267
 40
0.25
  0
LINE
  8
_0-2_寸法
  6
CONTINUOUS
 62
    7
 10
481.25
 20
267
 11
481.75
 21
267
  0
LINE
  8
_0-2_寸法
  6
CONTINUOUS
 62
    7
 10
482
 20
267
 11
482.5
 21
267
  0
CIRCLE
  8
_0-2_寸法
  6
CONTINUOUS
 62
    7
 10
532.5
 20
267
 40
0.25
  0
LINE
  8
_0-2_寸法
  6
CONTINUOUS
 62
    7
 10
532.75
 20
267
 11
532.25
 21
267
  0
LINE
  8
_0-2_寸法
  6
CONTINUOUS
 62
    7
 10
532
 20
267
 11
531.5
 21
267
  0
LINE
  8
_0-2_寸法
  6
CONTINUOUS
 62
    7
 10
306.5
 20
370
 11
306.5
 21
267
  0
LINE
  8
_0-2_寸法
  6
CONTINUOUS
 62
    7
 10
307.5
 20
267
 11
330.5
 21
267
  0
CIRCLE
  8
_0-2_寸法
  6
CONTINUOUS
 62
    7
 10
306.5
 20
370
 40
1.3999999999999999
  0
TEXT
  8
_0-2_寸法
 62
    7
 10
504.5
 20
267
 40
5
 41
1
 50
0
  1
50
  0
TEXT
  8
_0-0_0
 62
    7
 10
244
 20
139.5
 40
5
 41
1
 50
0
  1
ＦＳ５００～７００
  0
TEXT
  8
_0-0_0
 62
    7
 10
144
 20
112.5
 40
5
 41
1
 50
0
  1
ステン小ねじ
  0
TEXT
  8
_0-0_0
 62
    7
 10
144
 20
103.5
 40
5
 41
1
 50
0
  1
ステン小ねじ
  0
TEXT
  8
_0-0_0
 62
    7
 10
244
 20
112.5
 40
5
 41
1
 50
0
  1
なべＭ６×３５
  0
TEXT
  8
_0-0_0
 62
    7
 10
244
 20
103.5
 40
5
 41
1
 50
0
  1
なべＭ４×１０
  0
TEXT
  8
_0-0_0
 62
    7
 10
244
 20
94.5
 40
5
 41
1
 50
0
  1
Ｍ６×４０
  0
TEXT
  8
_0-0_0
 62
    7
 10
244
 20
85.5
 40
5
 41
1
 50
0
  1
ＡＧ－６６０
  0
TEXT
  8
_0-0_0
 62
    7
 10
244
 20
76.5
 40
5
 41
1
 50
0
  1
φ８×４０
  0
TEXT
  8
_0-0_0
 62
    7
 10
244
 20
67.5
 40
5
 41
1
 50
0
  1
なべ５×５０
  0
TEXT
  8
_0-0_0
 62
    7
 10
244
 20
58.5
 40
5
 41
1
 50
0
  1
１.５×１８×６.５穴
  0
TEXT
  8
_0-0_0
 62
    7
 10
244
 20
49.5
 40
5
 41
1
 50
0
  1
１.５×１８×５.５穴
  0
TEXT
  8
_0-0_0
 62
    7
 10
244
 20
40.5
 40
5
 41
1
 50
0
  1
ｔ１．０×ｗ３０
  0
INSERT
  2
-000-BK2
  8
_0-2_寸法
 10
-25.5
 20
-18
 41
1
 42
1
 50
0
  0
INSERT
  2
-001-BK3
  8
_0-2_寸法
 10
-25.5
 20
-18
 41
1
 42
1
 50
0
  0
INSERT
  2
-002-BK4
  8
_0-2_寸法
 10
-25.5
 20
-18
 41
1
 42
1
 50
0
  0
INSERT
  2
-003-BK5
  8
_0-2_寸法
 10
-25.5
 20
-18
 41
1
 42
1
 50
0
  0
INSERT
  2
-004-BK6
  8
_0-2_寸法
 10
-25.5
 20
-18
 41
1
 42
1
 50
0
  0
INSERT
  2
-005-BK7
  8
_0-2_寸法
 10
-25.5
 20
-18
 41
1
 42
1
 50
0
  0
INSERT
  2
-006-BK8
  8
_0-2_寸法
 10
-25.5
 20
-18
 41
1
 42
1
 50
0
  0
INSERT
  2
-007-BK9
  8
_0-2_寸法
 10
-25.5
 20
-18
 41
1
 42
1
 50
0
  0
INSERT
  2
-008-BK10
  8
_0-2_寸法
 10
-25.5
 20
-18
 41
1
 42
1
 50
0
  0
INSERT
  2
-009-BK11
  8
_0-2_寸法
 10
-25.5
 20
-18
 41
1
 42
1
 50
0
  0
INSERT
  2
-010-BK12
  8
_0-2_寸法
 10
-25.5
 20
-18
 41
1
 42
1
 50
0
  0
INSERT
  2
-011-BK13
  8
_0-2_寸法
 10
-25.5
 20
-18
 41
1
 42
1
 50
0
  0
INSERT
  2
-012-BK14
  8
_0-2_寸法
 10
-25.5
 20
-18
 41
1
 42
1
 50
0
  0
INSERT
  2
-013-BK15
  8
_0-2_寸法
 10
-25.5
 20
-18
 41
1
 42
1
 50
0
  0
INSERT
  2
-014-BK16
  8
_0-2_寸法
 10
-25.5
 20
-18
 41
1
 42
1
 50
0
  0
INSERT
  2
-015-BK17
  8
_0-2_寸法
 10
-25.5
 20
-18
 41
1
 42
1
 50
0
  0
INSERT
  2
-016-BK18
  8
_0-2_寸法
 10
-25.5
 20
-18
 41
1
 42
1
 50
0
  0
INSERT
  2
-017-BK19
  8
_0-2_寸法
 10
-25.5
 20
-18
 41
1
 42
1
 50
0
  0
INSERT
  2
-018-BK20
  8
_0-2_寸法
 10
-25.5
 20
-18
 41
1
 42
1
 50
0
  0
INSERT
  2
-019-BK21
  8
_0-2_寸法
 10
-25.5
 20
-18
 41
1
 42
1
 50
0
  0
INSERT
  2
-020-BK22
  8
_0-2_寸法
 10
-25.5
 20
-18
 41
1
 42
1
 50
0
  0
INSERT
  2
-021-BK23
  8
_0-2_寸法
 10
-25.5
 20
-18
 41
1
 42
1
 50
0
  0
INSERT
  2
-022-BK24
  8
_0-2_寸法
 10
-25.5
 20
-18
 41
1
 42
1
 50
0
  0
INSERT
  2
-023-BK25
  8
_0-2_寸法
 10
-25.5
 20
-18
 41
1
 42
1
 50
0
  0
INSERT
  2
-024-BK26
  8
_0-2_寸法
 10
-25.5
 20
-18
 41
1
 42
1
 50
0
  0
INSERT
  2
-025-BK27
  8
_0-2_寸法
 10
-25.5
 20
-18
 41
1
 42
1
 50
0
  0
INSERT
  2
-026-BK28
  8
_0-2_寸法
 10
-25.5
 20
-18
 41
1
 42
1
 50
0
  0
INSERT
  2
-027-BK29
  8
_0-2_寸法
 10
-25.5
 20
-18
 41
1
 42
1
 50
0
  0
INSERT
  2
-028-BK30
  8
_0-2_寸法
 10
-25.5
 20
-18
 41
1
 42
1
 50
0
  0
INSERT
  2
-029-BK31
  8
_0-2_寸法
 10
-25.5
 20
-18
 41
1
 42
1
 50
0
  0
INSERT
  2
-030-BK32
  8
_0-2_寸法
 10
-25.5
 20
-18
 41
1
 42
1
 50
0
  0
INSERT
  2
-031-BK33
  8
_0-2_寸法
 10
-25.5
 20
-18
 41
1
 42
1
 50
0
  0
INSERT
  2
-032-BK34
  8
_0-2_寸法
 10
-25.5
 20
-18
 41
1
 42
1
 50
0
  0
ARC
  8
_0-0_0
  6
CONTINUOUS
 62
    7
 10
332.5291372899535
 20
327.36485361339527
 40
17.97641636797
 50
185
 51
355.00000000000102
  0
ARC
  8
_0-0_0
  6
CONTINUOUS
 62
    7
 10
332.5291372899535
 20
327.36485361339527
 40
18.97641636797
 50
185
 51
355.00000000000102
  0
LINE
  8
_0-0_0
  6
CONTINUOUS
 62
    7
 10
308.4923893961535
 20
395.84989263659531
 11
314.6211266134535
 21
325.79810569289532
  0
LINE
  8
_0-0_0
  6
CONTINUOUS
 62
    7
 10
307.4999999999535
 20
395.71924209399532
 11
313.6249319153535
 21
325.71094995009531
  0
TEXT
  8
_0-2_寸法
 62
    7
 10
329
 20
267
 40
5
 41
1
 50
0
  1
50
  0
CIRCLE
  8
_0-2_寸法
  6
CONTINUOUS
 62
    7
 10
306.5
 20
267
 40
1.3999999999999999
  0
CIRCLE
  8
_0-2_寸法
  6
CONTINUOUS
 62
    7
 10
306.5
 20
267
 40
1.3999999999999999
  0
LINE
  8
_0-2_寸法
  6
CONTINUOUS
 62
    7
 10
357
 20
267
 11
357.5
 21
267
  0
LINE
  8
_0-2_寸法
  6
CONTINUOUS
 62
    7
 10
356.25
 20
267
 11
356.75
 21
267
  0
CIRCLE
  8
_0-2_寸法
  6
CONTINUOUS
 62
    7
 10
356.5
 20
267
 40
0.25
  0
LINE
  8
_0-2_寸法
  6
CONTINUOUS
 62
    7
 10
356
 20
267
 11
355.5
 21
267
  0
LINE
  8
_0-2_寸法
  6
CONTINUOUS
 62
    7
 10
356.75
 20
267
 11
356.25
 21
267
  0
CIRCLE
  8
_0-2_寸法
  6
CONTINUOUS
 62
    7
 10
356.5
 20
267
 40
0.25
  0
LINE
  8
_0-2_寸法
  6
CONTINUOUS
 62
    7
 10
307
 20
267
 11
307.5
 21
267
  0
LINE
  8
_0-2_寸法
  6
CONTINUOUS
 62
    7
 10
306.25
 20
267
 11
306.75
 21
267
  0
CIRCLE
  8
_0-2_寸法
  6
CONTINUOUS
 62
    7
 10
306.5
 20
267
 40
0.25
  0
CIRCLE
  8
_0-2_寸法
  6
CONTINUOUS
 62
    7
 10
356.5
 20
267
 40
1.3999999999999999
  0
CIRCLE
  8
_0-2_寸法
  6
CONTINUOUS
 62
    7
 10
356.5
 20
267
 40
1.3999999999999999
  0
CIRCLE
  8
_0-2_寸法
  6
CONTINUOUS
 62
    7
 10
306.5
 20
266.75
 40
1.3999999999999999
  0
LINE
  8
_0-2_寸法
  6
CONTINUOUS
 62
    7
 10
307.5
 20
267
 11
355.5
 21
267
  0
LINE
  8
_0-2_寸法
  6
CONTINUOUS
 62
    7
 10
306.5
 20
266.75
 11
306.5
 21
267
  0
LINE
  8
_0-2_寸法
  6
CONTINUOUS
 62
    7
 10
306
 20
267
 11
305.5
 21
267
  0
LINE
  8
_0-2_寸法
  6
CONTINUOUS
 62
    7
 10
306.75
 20
267
 11
306.25
 21
267
  0
CIRCLE
  8
_0-2_寸法
  6
CONTINUOUS
 62
    7
 10
306.5
 20
267
 40
0.25
  0
CIRCLE
  8
_0-2_寸法
  6
CONTINUOUS
 62
    7
 10
356.5
 20
266.75
 40
1.3999999999999999
  0
LINE
  8
_0-2_寸法
  6
CONTINUOUS
 62
    7
 10
356.5
 20
266.75
 11
356.5
 21
267
  0
LINE
  8
_0-3_躯体と製品
  6
CONTINUOUS
 62
    7
 10
356.5
 20
372
 11
356.5
 21
252
  0
LINE
  8
_0-3_躯体と製品
  6
CONTINUOUS
 62
    7
 10
355.53236507579999
 20
371.08756365630001
 11
352.38609300889999
 21
335.12550937280002
  0
LINE
  8
_0-3_躯体と製品
  6
CONTINUOUS
 62
    7
 10
354.53617037769999
 20
371.17471939900003
 11
351.38989831079999
 21
335.21266511559998
  0
ARC
  8
_0-3_躯体と製品
  6
CONTINUOUS
 62
    7
 10
356.52855977389999
 20
371.0004079135
 40
2
 50
91.157215053249985
 51
175
  0
ARC
  8
_0-3_躯体と製品
  6
CONTINUOUS
 62
    7
 10
356.52855977389999
 20
371.0004079135
 40
1
 50
91.636577041619987
 51
174.99999999999997
  0
CIRCLE
  8
_0-4_図枠
  6
CONTINUOUS
 62
    7
 10
361.23727511696461
 20
340.96278573439997
 40
6
  0
LINE
  8
_0-4_図枠
  6
CONTINUOUS
 62
    7
 10
350.36025760576462
 20
322.12323877009999
 11
358.23727511696461
 21
335.76663331169999
  0
CIRCLE
  8
_0-4_図枠
  6
CONTINUOUS
 62
    7
 10
350.36025760576462
 20
322.12323877009999
 40
0.9
  0
TEXT
  8
_0-4_図枠
 62
    7
 10
357.98727511696461
 20
337.96278573439997
 40
5
 41
1
 50
0
  1
10
  0
LINE
  8
_0-3_躯体と製品
  6
CONTINUOUS
 62
    7
 10
356.5
 20
373
 11
410.5
 21
373
  0
LINE
  8
_0-3_躯体と製品
  6
CONTINUOUS
 62
    7
 10
356.5
 20
372
 11
481.5
 21
372
  0
LINE
  8
_0-0_0
  6
CONTINUOUS
 62
    7
 10
351.38989831079999
 20
335.21266511559998
 11
350.4371479664149
 21
325.79810569290402
  0
LINE
  8
_0-0_0
  6
CONTINUOUS
 62
    7
 10
352.38609300889999
 20
335.12550937280002
 11
351.43334266450665
 21
325.71094995015636
  0
LINE
  8
_0-2_寸法
  6
CONTINUOUS
 62
    7
 10
356.5
 20
267
 11
480.5
 21
267
  0
TEXT
  8
_0-2_寸法
 62
    7
 10
419.17554256448784
 20
267.16749255698159
 40
5
 41
1
 50
0
  1
Ｃ
  0
TEXT
  8
_0-4_図枠
 62
    7
 10
26.920503057790029
 20
549.91378197840004
 40
10
 41
1
 50
0
  1
　　屋根－壁（ストレート壁）
  0
TEXT
  8
_0-0_0
 62
    7
 10
244
 20
220.5
 40
5
 41
1
 50
0
  1
５０ＦＹＫ－Ａ２００～４７５
  0
TEXT
  8
_0-0_0
 62
    7
 10
244
 20
184.5
 40
5
 41
1
 50
0
  1
５０ＦＹＫＨ－２００～４７５
  0
TEXT
  8
_0-0_0
 62
    7
 10
244
 20
157.5
 40
5
 41
1
 50
0
  1
５０ＦＹＫＪ－２００～４７５
  0
TEXT
  8
_0-0_0
 62
    7
 10
695
 20
121.5
 40
5
 41
1
 50
0
  1
128
  0
TEXT
  8
_0-0_0
 62
    7
 10
666.75
 20
121.5
 40
5
 41
1
 50
0
  1
70
  0
TEXT
  8
_0-0_0
 62
    7
 10
695
 20
130.5
 40
5
 41
1
 50
0
  1
127
  0
TEXT
  8
_0-0_0
 62
    7
 10
666.75
 20
130.5
 40
5
 41
1
 50
0
  1
68
  0
TEXT
  8
_0-0_0
 62
    7
 10
695
 20
139.5
 40
5
 41
1
 50
0
  1
126
  0
TEXT
  8
_0-0_0
 62
    7
 10
666.75
 20
139.5
 40
5
 41
1
 50
0
  1
67
  0
TEXT
  8
_0-0_0
 62
    7
 10
695
 20
148.5
 40
5
 41
1
 50
0
  1
124
  0
TEXT
  8
_0-0_0
 62
    7
 10
666.75
 20
148.5
 40
5
 41
1
 50
0
  1
66
  0
TEXT
  8
_0-0_0
 62
    7
 10
695
 20
157.5
 40
5
 41
1
 50
0
  1
123
  0
TEXT
  8
_0-0_0
 62
    7
 10
666.75
 20
157.5
 40
5
 41
1
 50
0
  1
64
  0
TEXT
  8
_0-0_0
 62
    7
 10
695
 20
166.5
 40
5
 41
1
 50
0
  1
122
  0
TEXT
  8
_0-0_0
 62
    7
 10
666.75
 20
166.5
 40
5
 41
1
 50
0
  1
63
  0
TEXT
  8
_0-0_0
 62
    7
 10
695
 20
175.5
 40
5
 41
1
 50
0
  1
121
  0
TEXT
  8
_0-0_0
 62
    7
 10
666.75
 20
175.5
 40
5
 41
1
 50
0
  1
62
  0
TEXT
  8
_0-0_0
 62
    7
 10
695
 20
184.5
 40
5
 41
1
 50
0
  1
119
  0
TEXT
  8
_0-0_0
 62
    7
 10
666.75
 20
184.5
 40
5
 41
1
 50
0
  1
61
  0
TEXT
  8
_0-0_0
 62
    7
 10
695
 20
193.5
 40
5
 41
1
 50
0
  1
118
  0
TEXT
  8
_0-0_0
 62
    7
 10
666.75
 20
193.5
 40
5
 41
1
 50
0
  1
59
  0
TEXT
  8
_0-0_0
 62
    7
 10
695
 20
202.5
 40
5
 41
1
 50
0
  1
117
  0
TEXT
  8
_0-0_0
 62
    7
 10
666.75
 20
202.5
 40
5
 41
1
 50
0
  1
58
  0
TEXT
  8
_0-0_0
 62
    7
 10
695
 20
211.5
 40
5
 41
1
 50
0
  1
115
  0
TEXT
  8
_0-0_0
 62
    7
 10
666.75
 20
211.5
 40
5
 41
1
 50
0
  1
57
  0
TEXT
  8
_0-0_0
 62
    7
 10
695
 20
220.5
 40
5
 41
1
 50
0
  1
114
  0
TEXT
  8
_0-0_0
 62
    7
 10
666.75
 20
220.5
 40
5
 41
1
 50
0
  1
55
  0
TEXT
  8
_0-0_0
 62
    7
 10
605
 20
121.5
 40
5
 41
1
 50
0
  1
485
  0
TEXT
  8
_0-0_0
 62
    7
 10
575
 20
121.5
 40
5
 41
1
 50
0
  1
500
  0
TEXT
  8
_0-0_0
 62
    7
 10
605
 20
130.5
 40
5
 41
1
 50
0
  1
460
  0
TEXT
  8
_0-0_0
 62
    7
 10
575
 20
130.5
 40
5
 41
1
 50
0
  1
475
  0
TEXT
  8
_0-0_0
 62
    7
 10
605
 20
139.5
 40
5
 41
1
 50
0
  1
435
  0
TEXT
  8
_0-0_0
 62
    7
 10
575
 20
139.5
 40
5
 41
1
 50
0
  1
450
  0
TEXT
  8
_0-0_0
 62
    7
 10
605
 20
148.5
 40
5
 41
1
 50
0
  1
410
  0
TEXT
  8
_0-0_0
 62
    7
 10
575
 20
148.5
 40
5
 41
1
 50
0
  1
425
  0
TEXT
  8
_0-0_0
 62
    7
 10
605
 20
157.5
 40
5
 41
1
 50
0
  1
385
  0
TEXT
  8
_0-0_0
 62
    7
 10
575
 20
157.5
 40
5
 41
1
 50
0
  1
400
  0
TEXT
  8
_0-0_0
 62
    7
 10
605
 20
166.5
 40
5
 41
1
 50
0
  1
360
  0
TEXT
  8
_0-0_0
 62
    7
 10
575
 20
166.5
 40
5
 41
1
 50
0
  1
375
  0
TEXT
  8
_0-0_0
 62
    7
 10
605
 20
175.5
 40
5
 41
1
 50
0
  1
335
  0
TEXT
  8
_0-0_0
 62
    7
 10
575
 20
175.5
 40
5
 41
1
 50
0
  1
350
  0
TEXT
  8
_0-0_0
 62
    7
 10
605
 20
184.5
 40
5
 41
1
 50
0
  1
310
  0
TEXT
  8
_0-0_0
 62
    7
 10
575
 20
184.5
 40
5
 41
1
 50
0
  1
325
  0
TEXT
  8
_0-0_0
 62
    7
 10
605
 20
193.5
 40
5
 41
1
 50
0
  1
285
  0
TEXT
  8
_0-0_0
 62
    7
 10
575
 20
193.5
 40
5
 41
1
 50
0
  1
300
  0
TEXT
  8
_0-0_0
 62
    7
 10
605
 20
202.5
 40
5
 41
1
 50
0
  1
260
  0
TEXT
  8
_0-0_0
 62
    7
 10
575
 20
202.5
 40
5
 41
1
 50
0
  1
275
  0
TEXT
  8
_0-0_0
 62
    7
 10
605
 20
211.5
 40
5
 41
1
 50
0
  1
235
  0
TEXT
  8
_0-0_0
 62
    7
 10
575
 20
211.5
 40
5
 41
1
 50
0
  1
250
  0
TEXT
  8
_0-0_0
 62
    7
 10
605
 20
220.5
 40
5
 41
1
 50
0
  1
210
  0
TEXT
  8
_0-0_0
 62
    7
 10
575
 20
220.5
 40
5
 41
1
 50
0
  1
225
  0
TEXT
  8
_0-0_0
 62
    7
 10
501.5
 20
211.5
 40
5
 41
1
 50
0
  1
　　 〃　 　２５０
  0
TEXT
  8
_0-0_0
 62
    7
 10
501.5
 20
202.5
 40
5
 41
1
 50
0
  1
　　 〃　 　２７５
  0
TEXT
  8
_0-0_0
 62
    7
 10
501.5
 20
193.5
 40
5
 41
1
 50
0
  1
　　 〃　 　３００
  0
TEXT
  8
_0-0_0
 62
    7
 10
501.5
 20
184.5
 40
5
 41
1
 50
0
  1
　　 〃　 　３２５
  0
TEXT
  8
_0-0_0
 62
    7
 10
501.5
 20
175.5
 40
5
 41
1
 50
0
  1
　　 〃　 　３５０
  0
TEXT
  8
_0-0_0
 62
    7
 10
501.5
 20
166.5
 40
5
 41
1
 50
0
  1
　　 〃　 　３７５
  0
TEXT
  8
_0-0_0
 62
    7
 10
501.5
 20
157.5
 40
5
 41
1
 50
0
  1
　　 〃　 　４００
  0
TEXT
  8
_0-0_0
 62
    7
 10
501.5
 20
148.5
 40
5
 41
1
 50
0
  1
　　 〃　 　４２５
  0
TEXT
  8
_0-0_0
 62
    7
 10
501.5
 20
139.5
 40
5
 41
1
 50
0
  1
　　 〃　 　４５０
  0
TEXT
  8
_0-0_0
 62
    7
 10
501.5
 20
130.5
 40
5
 41
1
 50
0
  1
　　 〃　 　４７５
  0
TEXT
  8
_0-0_0
 62
    7
 10
501.5
 20
121.5
 40
5
 41
1
 50
0
  1
　　 〃　 　５００
  0
TEXT
  8
_0-0_0
 62
    7
 10
635
 20
130.5
 40
5
 41
1
 50
0
  1
375
  0
TEXT
  8
_0-0_0
 62
    7
 10
635
 20
139.5
 40
5
 41
1
 50
0
  1
350
  0
TEXT
  8
_0-0_0
 62
    7
 10
635
 20
148.5
 40
5
 41
1
 50
0
  1
325
  0
TEXT
  8
_0-0_0
 62
    7
 10
635
 20
157.5
 40
5
 41
1
 50
0
  1
300
  0
TEXT
  8
_0-0_0
 62
    7
 10
635
 20
166.5
 40
5
 41
1
 50
0
  1
275
  0
TEXT
  8
_0-0_0
 62
    7
 10
635
 20
175.5
 40
5
 41
1
 50
0
  1
250
  0
TEXT
  8
_0-0_0
 62
    7
 10
635
 20
184.5
 40
5
 41
1
 50
0
  1
225
  0
TEXT
  8
_0-0_0
 62
    7
 10
635
 20
193.5
 40
5
 41
1
 50
0
  1
200
  0
TEXT
  8
_0-0_0
 62
    7
 10
635
 20
202.5
 40
5
 41
1
 50
0
  1
175
  0
TEXT
  8
_0-0_0
 62
    7
 10
635
 20
211.5
 40
5
 41
1
 50
0
  1
150
  0
TEXT
  8
_0-0_0
 62
    7
 10
635
 20
220.5
 40
5
 41
1
 50
0
  1
125
  0
TEXT
  8
_0-0_0
 62
    7
 10
635
 20
121.5
 40
5
 41
1
 50
0
  1
400
  0
TEXT
  8
_0-0_0
 62
    7
 10
501.5
 20
220.5
 40
5
 41
1
 50
0
  1
５０ＦＹＫＧ－Ａ２２５
  0
ENDSEC
  0
EOF
