  0
SECTION
  2
HEADER
  9
$ACADVER
  1
AC1015
  9
$DWGCODEPAGE
  3
ANSI_932
  9
$EXTMIN
 10
33.5
 20
27
  9
$EXTMAX
 10
857.5
 20
603
  9
$LIMMIN
 10
0
 20
0
  9
$LIMMAX
 10
891
 20
630
  9
$LTSCALE
 40
3
  9
$DIMSCALE
 40
3
  9
$DIMSTYLE
  2
M7DIMSTL
  9
$HANDSEED
  5
7FFFFFFF
  9
$MEASUREMENT
 70
     1
  0
ENDSEC
  0
SECTION
  2
CLASSES
  0
CLASS
  1
CSOFTARXCLASS
  2
CSoftArxClass
  3
CSRasterApi
 90
     0
280
     0
281
     0
  0
CLASS
  1
IMAGEDEF
  2
AcDbRasterImageDef
  3
ISM
 90
     0
280
     0
281
     0
  0
CLASS
  1
RASTERVARIABLES
  2
AcDbRasterVariables
  3
ISM
 90
     0
280
     0
281
     0
  0
CLASS
  1
IMAGE
  2
AcDbRasterImage
  3
ISM
 90
   127
280
     0
281
     0
  0
CLASS
  1
IMAGEDEF_REACTOR
  2
AcDbRasterImageDefReactor
  3
ISM
 90
     1
280
     0
281
     0
  0
CLASS
  1
HATCH
  2
AcDbHatch
  3
M7
 90
     0
280
     0
281
     1
  0
ENDSEC
  0
SECTION
  2
TABLES
  0
TABLE
  2
VPORT
  5
FF
100
AcDbSymbolTable
 70
     5
  0
VPORT
  5
100
100
AcDbSymbolTableRecord
100
AcDbViewportTableRecord
  2
*ACTIVE
 70
     0
 10
0
 20
0
 11
1
 21
1
 12
445.5
 22
315
 13
0
 23
0
 14
0
 24
0
 15
0
 25
0
 16
0
 26
0
 36
1
 17
0
 27
0
 37
0
 40
315
 41
1.414285714286
 42
50
 43
0
 44
0
 50
0
 51
0
 71
     0
 72
   100
 73
     1
 74
     3
 75
     0
 76
     0
 77
     0
 78
     0
  0
ENDTAB
  0
TABLE
  2
LTYPE
  5
101
100
AcDbSymbolTable
 70
     1
  0
LTYPE
  5
102
100
AcDbSymbolTableRecord
100
AcDbLinetypeTableRecord
  2
BYBLOCK
 70
     0
  3

 72
    65
 73
     0
 40
0
  0
LTYPE
  5
103
100
AcDbSymbolTableRecord
100
AcDbLinetypeTableRecord
  2
BYLAYER
 70
     0
  3

 72
    65
 73
     0
 40
0
  0
LTYPE
  5
104
100
AcDbSymbolTableRecord
100
AcDbLinetypeTableRecord
  2
CONTINUOUS
 70
     0
  3
Solid line
 72
    65
 73
     0
 40
0
  0
LTYPE
  5
105
100
AcDbSymbolTableRecord
100
AcDbLinetypeTableRecord
  2
DOT
 70
     0
  3
...............................
 72
    65
 73
     2
 40
2
 49
1
 74
     0
 49
-1
 74
     0
  0
LTYPE
  5
106
100
AcDbSymbolTableRecord
100
AcDbLinetypeTableRecord
  2
DASHED
 70
     0
  3
- - - - - - - - - - - - - - - -
 72
    65
 73
     2
 40
4
 49
2
 74
     0
 49
-2
 74
     0
  0
LTYPE
  5
107
100
AcDbSymbolTableRecord
100
AcDbLinetypeTableRecord
  2
DASHED2
 70
     0
  3
-- -- -- -- -- -- -- -- -- -- -
 72
    65
 73
     2
 40
8
 49
5
 74
     0
 49
-3
 74
     0
  0
LTYPE
  5
108
100
AcDbSymbolTableRecord
100
AcDbLinetypeTableRecord
  2
CENTER
 70
     0
  3
--------- - --------- - -------
 72
    65
 73
     4
 40
23
 49
20
 74
     0
 49
-1
 74
     0
 49
1
 74
     0
 49
-1
 74
     0
  0
LTYPE
  5
109
100
AcDbSymbolTableRecord
100
AcDbLinetypeTableRecord
  2
CENTERX2
 70
     0
  3
-------------- - --------------
 72
    65
 73
     4
 40
43
 49
40
 74
     0
 49
-1
 74
     0
 49
1
 74
     0
 49
-1
 74
     0
  0
LTYPE
  5
10A
100
AcDbSymbolTableRecord
100
AcDbLinetypeTableRecord
  2
CENTER2
 70
     0
  3
------ - ----- - ------ - -----
 72
    65
 73
     4
 40
13
 49
10
 74
     0
 49
-1
 74
     0
 49
1
 74
     0
 49
-1
 74
     0
  0
LTYPE
  5
10B
100
AcDbSymbolTableRecord
100
AcDbLinetypeTableRecord
  2
PHANTOM
 70
     0
  3
-------- - - ------- - - ------
 72
    65
 73
     6
 40
25
 49
20
 74
     0
 49
-1
 74
     0
 49
1
 74
     0
 49
-1
 74
     0
 49
1
 74
     0
 49
-1
 74
     0
  0
LTYPE
  5
10C
100
AcDbSymbolTableRecord
100
AcDbLinetypeTableRecord
  2
PHANTOMX2
 70
     0
  3
------------- - - -------------
 72
    65
 73
     6
 40
45
 49
40
 74
     0
 49
-1
 74
     0
 49
1
 74
     0
 49
-1
 74
     0
 49
1
 74
     0
 49
-1
 74
     0
  0
LTYPE
  5
10D
100
AcDbSymbolTableRecord
100
AcDbLinetypeTableRecord
  2
PHANTOM2
 70
     0
  3
---- - - ---- - - ---- - - ----
 72
    65
 73
     6
 40
15
 49
10
 74
     0
 49
-1
 74
     0
 49
1
 74
     0
 49
-1
 74
     0
 49
1
 74
     0
 49
-1
 74
     0
  0
LTYPE
  5
10E
100
AcDbSymbolTableRecord
100
AcDbLinetypeTableRecord
  2
ACAD_ISO06W100
 70
     0
  3
------------ - - - ------------
 72
    65
 73
     8
 40
47
 49
40
 74
     0
 49
-1
 74
     0
 49
1
 74
     0
 49
-1
 74
     0
 49
1
 74
     0
 49
-1
 74
     0
 49
1
 74
     0
 49
-1
 74
     0
  0
LTYPE
  5
10F
100
AcDbSymbolTableRecord
100
AcDbLinetypeTableRecord
  2
ACAD_ISO14W100
 70
     0
  3
---- - - - -------- - - - -----
 72
    65
 73
     8
 40
27
 49
20
 74
     0
 49
-1
 74
     0
 49
1
 74
     0
 49
-1
 74
     0
 49
1
 74
     0
 49
-1
 74
     0
 49
1
 74
     0
 49
-1
 74
     0
  0
LTYPE
  5
110
100
AcDbSymbolTableRecord
100
AcDbLinetypeTableRecord
  2
ACAD_ISO11W100
 70
     0
  3
------- ------ - ------- ------
 72
    65
 73
     6
 40
44
 49
20
 74
     0
 49
-1
 74
     0
 49
20
 74
     0
 49
-1
 74
     0
 49
1
 74
     0
 49
-1
 74
     0
  0
LTYPE
  5
111
100
AcDbSymbolTableRecord
100
AcDbLinetypeTableRecord
  2
ACAD_ISO13W100
 70
     0
  3
------ ------ - - ------ ------
 72
    65
 73
     8
 40
46
 49
20
 74
     0
 49
-1
 74
     0
 49
20
 74
     0
 49
-1
 74
     0
 49
1
 74
     0
 49
-1
 74
     0
 49
1
 74
     0
 49
-1
 74
     0
  0
LTYPE
  5
112
100
AcDbSymbolTableRecord
100
AcDbLinetypeTableRecord
  2
ACAD_ISO15W100
 70
     0
  3
------ ----- - - - ------ -----
 72
    65
 73
    10
 40
48
 49
20
 74
     0
 49
-1
 74
     0
 49
20
 74
     0
 49
-1
 74
     0
 49
1
 74
     0
 49
-1
 74
     0
 49
1
 74
     0
 49
-1
 74
     0
 49
1
 74
     0
 49
-1
 74
     0
  0
LTYPE
  5
113
100
AcDbSymbolTableRecord
100
AcDbLinetypeTableRecord
  2
HIDDEN
 70
     0
  3
. . . . . . . . . . . . . . . .
 72
    65
 73
     2
 40
1.5
 49
1
 74
     0
 49
-0.5
 74
     0
  0
ENDTAB
  0
TABLE
  2
LAYER
  5
114
100
AcDbSymbolTable
 70
     1
  0
LAYER
  5
115
100
AcDbSymbolTableRecord
100
AcDbLayerTableRecord
  2
0
 70
     0
 62
     7
  6
CONTINUOUS
390
116
  0
LAYER
  5
117
100
AcDbSymbolTableRecord
100
AcDbLayerTableRecord
  2
_0-0_0
 70
     0
 62
     7
  6
CONTINUOUS
390
   278
  0
LAYER
  5
118
100
AcDbSymbolTableRecord
100
AcDbLayerTableRecord
  2
_0-2_寸法
 70
     0
 62
     7
  6
CONTINUOUS
390
   278
  0
LAYER
  5
119
100
AcDbSymbolTableRecord
100
AcDbLayerTableRecord
  2
_0-3_躯体と製品
 70
     0
 62
     7
  6
CONTINUOUS
390
   278
  0
LAYER
  5
11A
100
AcDbSymbolTableRecord
100
AcDbLayerTableRecord
  2
_0-4_図枠
 70
     0
 62
     7
  6
CONTINUOUS
390
   278
  0
ENDTAB
  0
TABLE
  2
STYLE
  5
11B
100
AcDbSymbolTable
 70
     1
  0
STYLE
  5
11C
100
AcDbSymbolTableRecord
100
AcDbTextStyleTableRecord
  2
STANDARD
 70
     0
 40
0
 41
0
 50
0
 71
     0
 42
1
  3
txt
  4
bigfont
  0
STYLE
  5
11D
100
AcDbSymbolTableRecord
100
AcDbTextStyleTableRecord
  2
VSTANDARD
 70
     4
 40
0
 41
0
 50
0
 71
     0
 42
1
  3
txt
  4
bigfont
  0
ENDTAB
  0
TABLE
  2
VIEW
  5
11E
100
AcDbSymbolTable
 70
     0
  0
ENDTAB
  0
TABLE
  2
UCS
  5
11F
100
AcDbSymbolTable
 70
     0
  0
ENDTAB
  0
TABLE
  2
APPID
  5
120
100
AcDbSymbolTable
 70
     1
  0
APPID
  5
121
100
AcDbSymbolTableRecord
100
AcDbRegAppTableRecord
  2
ACAD
 70
     0
  0
ENDTAB
  0
TABLE
  2
DIMSTYLE
  5
122
100
AcDbSymbolTable
 70
     1
100
AcDbDimStyleTable
 71
     0
  0
DIMSTYLE
105
123
100
AcDbSymbolTableRecord
100
AcDbDimStyleTableRecord
  2
M7DIMSTL
 70
     0
  3

  4

  5

  6

  7

 40
3
 41
2.5
 42
0.625
 43
3.75
 44
1.25
 45
0
 46
0
 47
0
 48
0
140
2.5
141
2.5
142
0
143
0.03937007874016
144
1
145
0
146
1
147
0.625
 71
     0
 72
     0
 73
     0
 74
     0
 75
     0
 76
     0
 77
     1
 78
     8
170
     0
171
     3
172
     1
173
     0
174
     0
175
     0
176
     0
177
     0
178
     0
270
     2
271
     2
272
     2
273
     2
274
     3
340
11C
275
     0
280
     0
281
     0
282
     0
283
     0
284
     8
285
     0
286
     0
287
     3
288
     0
  0
ENDTAB
  0
TABLE
  2
BLOCK_RECORD
  5
124
100
AcDbSymbolTable
 70
     2
  0
BLOCK_RECORD
  5
125
100
AcDbSymbolTableRecord
100
AcDbBlockTableRecord
  2
*MODEL_SPACE
  0
BLOCK_RECORD
  5
126
100
AcDbSymbolTableRecord
100
AcDbBlockTableRecord
  2
*PAPER_SPACE
  0
BLOCK_RECORD
  5
127
100
AcDbSymbolTableRecord
100
AcDbBlockTableRecord
  2
_DOT
  0
BLOCK_RECORD
  5
128
100
AcDbSymbolTableRecord
100
AcDbBlockTableRecord
  2
_OPEN30
  0
BLOCK_RECORD
  5
129
100
AcDbSymbolTableRecord
100
AcDbBlockTableRecord
  2
_ClosedBlank
  0
BLOCK_RECORD
  5
12A
100
AcDbSymbolTableRecord
100
AcDbBlockTableRecord
  2
_Origin
  0
BLOCK_RECORD
  5
12B
100
AcDbSymbolTableRecord
100
AcDbBlockTableRecord
  2
_Oblique
  0
BLOCK_RECORD
  5
12C
100
AcDbSymbolTableRecord
100
AcDbBlockTableRecord
  2
_Origin2
  0
BLOCK_RECORD
  5
12D
100
AcDbSymbolTableRecord
100
AcDbBlockTableRecord
  2
_BoxBlank
  0
BLOCK_RECORD
  5
12E
100
AcDbSymbolTableRecord
100
AcDbBlockTableRecord
  2
_BoxFilled
  0
BLOCK_RECORD
  5
12F
100
AcDbSymbolTableRecord
100
AcDbBlockTableRecord
  2
_Integral
  0
BLOCK_RECORD
  5
130
100
AcDbSymbolTableRecord
100
AcDbBlockTableRecord
  2
BK2
  0
BLOCK_RECORD
  5
131
100
AcDbSymbolTableRecord
100
AcDbBlockTableRecord
  2
BK3
  0
BLOCK_RECORD
  5
132
100
AcDbSymbolTableRecord
100
AcDbBlockTableRecord
  2
BK4
  0
BLOCK_RECORD
  5
133
100
AcDbSymbolTableRecord
100
AcDbBlockTableRecord
  2
BK5
  0
BLOCK_RECORD
  5
134
100
AcDbSymbolTableRecord
100
AcDbBlockTableRecord
  2
BK6
  0
BLOCK_RECORD
  5
135
100
AcDbSymbolTableRecord
100
AcDbBlockTableRecord
  2
BK7
  0
BLOCK_RECORD
  5
136
100
AcDbSymbolTableRecord
100
AcDbBlockTableRecord
  2
BK8
  0
BLOCK_RECORD
  5
137
100
AcDbSymbolTableRecord
100
AcDbBlockTableRecord
  2
BK9
  0
BLOCK_RECORD
  5
138
100
AcDbSymbolTableRecord
100
AcDbBlockTableRecord
  2
BK10
  0
BLOCK_RECORD
  5
139
100
AcDbSymbolTableRecord
100
AcDbBlockTableRecord
  2
BK11
  0
BLOCK_RECORD
  5
13A
100
AcDbSymbolTableRecord
100
AcDbBlockTableRecord
  2
BK12
  0
BLOCK_RECORD
  5
13B
100
AcDbSymbolTableRecord
100
AcDbBlockTableRecord
  2
BK13
  0
BLOCK_RECORD
  5
13C
100
AcDbSymbolTableRecord
100
AcDbBlockTableRecord
  2
BK14
  0
BLOCK_RECORD
  5
13D
100
AcDbSymbolTableRecord
100
AcDbBlockTableRecord
  2
BK15
  0
BLOCK_RECORD
  5
13E
100
AcDbSymbolTableRecord
100
AcDbBlockTableRecord
  2
BK16
  0
BLOCK_RECORD
  5
13F
100
AcDbSymbolTableRecord
100
AcDbBlockTableRecord
  2
BK17
  0
BLOCK_RECORD
  5
140
100
AcDbSymbolTableRecord
100
AcDbBlockTableRecord
  2
BK18
  0
BLOCK_RECORD
  5
141
100
AcDbSymbolTableRecord
100
AcDbBlockTableRecord
  2
BK19
  0
BLOCK_RECORD
  5
142
100
AcDbSymbolTableRecord
100
AcDbBlockTableRecord
  2
BK20
  0
BLOCK_RECORD
  5
143
100
AcDbSymbolTableRecord
100
AcDbBlockTableRecord
  2
BK21
  0
BLOCK_RECORD
  5
144
100
AcDbSymbolTableRecord
100
AcDbBlockTableRecord
  2
BK22
  0
BLOCK_RECORD
  5
145
100
AcDbSymbolTableRecord
100
AcDbBlockTableRecord
  2
BK23
  0
BLOCK_RECORD
  5
146
100
AcDbSymbolTableRecord
100
AcDbBlockTableRecord
  2
BK24
  0
BLOCK_RECORD
  5
147
100
AcDbSymbolTableRecord
100
AcDbBlockTableRecord
  2
BK25
  0
BLOCK_RECORD
  5
148
100
AcDbSymbolTableRecord
100
AcDbBlockTableRecord
  2
BK26
  0
BLOCK_RECORD
  5
149
100
AcDbSymbolTableRecord
100
AcDbBlockTableRecord
  2
BK27
  0
BLOCK_RECORD
  5
14A
100
AcDbSymbolTableRecord
100
AcDbBlockTableRecord
  2
BK28
  0
BLOCK_RECORD
  5
14B
100
AcDbSymbolTableRecord
100
AcDbBlockTableRecord
  2
BK29
  0
BLOCK_RECORD
  5
14C
100
AcDbSymbolTableRecord
100
AcDbBlockTableRecord
  2
BK30
  0
BLOCK_RECORD
  5
14D
100
AcDbSymbolTableRecord
100
AcDbBlockTableRecord
  2
BK31
  0
BLOCK_RECORD
  5
14E
100
AcDbSymbolTableRecord
100
AcDbBlockTableRecord
  2
BK32
  0
BLOCK_RECORD
  5
14F
100
AcDbSymbolTableRecord
100
AcDbBlockTableRecord
  2
BK33
  0
BLOCK_RECORD
  5
150
100
AcDbSymbolTableRecord
100
AcDbBlockTableRecord
  2
BK34
  0
ENDTAB
  0
ENDSEC
  0
SECTION
  2
BLOCKS
  0
BLOCK
  5
151
100
AcDbEntity
  8
0
100
AcDbBlockBegin
  2
*MODEL_SPACE
 70
     0
 10
0
 20
0
  3
*MODEL_SPACE
  1

  0
ENDBLK
  5
152
100
AcDbEntity
  8
0
100
AcDbBlockEnd
  0
BLOCK
  5
153
100
AcDbEntity
 67
     1
  8
0
100
AcDbBlockBegin
  2
*PAPER_SPACE
 70
     0
 10
0
 20
0
  3
*PAPER_SPACE
  1

  0
ENDBLK
  5
154
100
AcDbEntity
 67
     1
  8
0
100
AcDbBlockEnd
  0
BLOCK
  5
155
100
AcDbEntity
 67
     1
  8
0
100
AcDbBlockBegin
  2
_DOT
 70
     0
 10
0
 20
0
  3
_DOT
  1

  0
LWPOLYLINE
  5
156
100
AcDbEntity
  8
0
  6
BYBLOCK
 62
     0
100
AcDbPolyline
 90
     2
 70
     1
 43
0.5
 10
-0.25
 20
0
 42
1
 10
0.25
 20
0
 42
1
  0
LINE
  5
157
100
AcDbEntity
  8
0
  6
BYBLOCK
 62
     0
100
AcDbLine
 10
-0.5
 20
0
 11
-1
 21
0
  0
ENDBLK
  5
158
100
AcDbEntity
  8
0
100
AcDbBlockEnd
  0
BLOCK
  5
159
100
AcDbEntity
 67
     1
  8
0
100
AcDbBlockBegin
  2
_OPEN30
 70
     0
 10
0
 20
0
  3
_OPEN30
  1

  0
LINE
  5
15A
100
AcDbEntity
  8
0
  6
BYBLOCK
 62
     0
100
AcDbLine
 10
-1
 20
0.26794919
 11
0
 21
0
  0
LINE
  5
15B
100
AcDbEntity
  8
0
  6
BYBLOCK
 62
     0
100
AcDbLine
 10
-1
 20
-0.26794919
 11
0
 21
0
  0
LINE
  5
15C
100
AcDbEntity
  8
0
  6
BYBLOCK
 62
     0
100
AcDbLine
 10
0
 20
0
 11
-1
 21
0
  0
ENDBLK
  5
15D
100
AcDbEntity
  8
0
100
AcDbBlockEnd
  0
BLOCK
  5
15E
100
AcDbEntity
 67
     1
  8
0
100
AcDbBlockBegin
  2
_ClosedBlank
 70
     0
 10
0
 20
0
  3
_ClosedBlank
  1

  0
LINE
  5
15F
100
AcDbEntity
  8
0
  6
BYBLOCK
 62
     0
100
AcDbLine
 10
-1
 20
0.1666666666667
 11
0
 21
0
  0
LINE
  5
160
100
AcDbEntity
  8
0
  6
BYBLOCK
 62
     0
100
AcDbLine
 10
0
 20
0
 11
-1
 21
-0.1666666666667
  0
LINE
  5
161
100
AcDbEntity
  8
0
  6
BYBLOCK
 62
     0
100
AcDbLine
 10
-1
 20
0.1666666666667
 11
-1
 21
-0.1666666666667
  0
ENDBLK
  5
162
100
AcDbEntity
  8
0
100
AcDbBlockEnd
  0
BLOCK
  5
163
100
AcDbEntity
 67
     1
  8
0
100
AcDbBlockBegin
  2
_Origin
 70
     0
 10
0
 20
0
  3
_Origin
  1

  0
CIRCLE
  5
164
100
AcDbEntity
  8
0
  6
BYBLOCK
 62
     0
100
AcDbCircle
 10
0
 20
0
 40
0.5
  0
LINE
  5
165
100
AcDbEntity
  8
0
  6
BYBLOCK
 62
     0
100
AcDbLine
 10
0
 20
0
 11
-1
 21
0
  0
ENDBLK
  5
166
100
AcDbEntity
  8
0
100
AcDbBlockEnd
  0
BLOCK
  5
167
100
AcDbEntity
 67
     1
  8
0
100
AcDbBlockBegin
  2
_Oblique
 70
     0
 10
0
 20
0
  3
_Oblique
  1

  0
LINE
  5
168
100
AcDbEntity
  8
0
  6
BYBLOCK
 62
     0
100
AcDbLine
 10
-0.5
 20
-0.5
 11
0.5
 21
0.5
  0
ENDBLK
  5
169
100
AcDbEntity
  8
0
100
AcDbBlockEnd
  0
BLOCK
  5
16A
100
AcDbEntity
 67
     1
  8
0
100
AcDbBlockBegin
  2
_Origin2
 70
     0
 10
0
 20
0
  3
_Origin2
  1

  0
CIRCLE
  5
16B
100
AcDbEntity
  8
0
  6
BYBLOCK
 62
     0
100
AcDbCircle
 10
0
 20
0
 40
0.5
  0
CIRCLE
  5
16C
100
AcDbEntity
  8
0
  6
BYBLOCK
 62
     0
100
AcDbCircle
 10
0
 20
0
 40
0.25
  0
LINE
  5
16D
100
AcDbEntity
  8
0
  6
BYBLOCK
 62
     0
100
AcDbLine
 10
-0.5
 20
0
 11
-1
 21
0
  0
ENDBLK
  5
16E
100
AcDbEntity
  8
0
100
AcDbBlockEnd
  0
BLOCK
  5
16F
100
AcDbEntity
 67
     1
  8
0
100
AcDbBlockBegin
  2
_BoxBlank
 70
     0
 10
0
 20
0
  3
_BoxBlank
  1

  0
LINE
  5
170
100
AcDbEntity
  8
0
  6
BYBLOCK
 62
     0
100
AcDbLine
 10
-0.5
 20
-0.5
 11
0.5
 21
-0.5
  0
LINE
  5
171
100
AcDbEntity
  8
0
  6
BYBLOCK
 62
     0
100
AcDbLine
 10
0.5
 20
-0.5
 11
0.5
 21
0.5
  0
LINE
  5
172
100
AcDbEntity
  8
0
  6
BYBLOCK
 62
     0
100
AcDbLine
 10
0.5
 20
0.5
 11
-0.5
 21
0.5
  0
LINE
  5
173
100
AcDbEntity
  8
0
  6
BYBLOCK
 62
     0
100
AcDbLine
 10
-0.5
 20
0.5
 11
-0.5
 21
-0.5
  0
LINE
  5
174
100
AcDbEntity
  8
0
  6
BYBLOCK
 62
     0
100
AcDbLine
 10
-0.5
 20
0
 11
-1
 21
0
  0
ENDBLK
  5
175
100
AcDbEntity
  8
0
100
AcDbBlockEnd
  0
BLOCK
  5
176
100
AcDbEntity
 67
     1
  8
0
100
AcDbBlockBegin
  2
_BoxFilled
 70
     0
 10
0
 20
0
  3
_BoxFilled
  1

  0
SOLID
  5
177
100
AcDbEntity
  8
0
  6
BYBLOCK
 62
     0
100
AcDbTrace
 10
-0.5
 20
0.5
 11
0.5
 21
0.5
 12
-0.5
 22
-0.5
 13
0.5
 23
-0.5
  0
LINE
  5
178
100
AcDbEntity
  8
0
  6
BYBLOCK
 62
     0
100
AcDbLine
 10
-0.5
 20
0
 11
-1
 21
0
  0
ENDBLK
  5
179
100
AcDbEntity
  8
0
100
AcDbBlockEnd
  0
BLOCK
  5
17A
100
AcDbEntity
 67
     1
  8
0
100
AcDbBlockBegin
  2
_Integral
 70
     0
 10
0
 20
0
  3
_Integral
  1

  0
ARC
  5
17B
100
AcDbEntity
  8
0
  6
BYBLOCK
 62
     0
100
AcDbCircle
 10
0.44488802
 20
-0.09133463
 40
0.45416667
100
AcDbArc
 50
101.999999998
 51
167.9999999799
  0
ARC
  5
17C
100
AcDbEntity
  8
0
  6
BYBLOCK
 62
     0
100
AcDbCircle
 10
-0.44488802
 20
0.09133463
 40
0.45416667
100
AcDbArc
 50
282.0000000215
 51
348.0000000034
  0
ENDBLK
  5
17D
100
AcDbEntity
  8
0
100
AcDbBlockEnd
  0
BLOCK
  5
17E
100
AcDbEntity
  8
_0-2_寸法
100
AcDbBlockBegin
  2
BK2
 70
    64
 10
0
 20
0
  3
BK2
  1

  0
CIRCLE
  5
17F
100
AcDbEntity
  8
_0-2_寸法
  6
CONTINUOUS
 62
     0
100
AcDbCircle
 10
257
 20
390
 40
0.25
  0
LINE
  5
180
100
AcDbEntity
  8
_0-2_寸法
  6
CONTINUOUS
 62
     0
100
AcDbLine
 10
257
 20
389.75
 11
257
 21
390.25
  0
LINE
  5
181
100
AcDbEntity
  8
_0-2_寸法
  6
CONTINUOUS
 62
     0
100
AcDbLine
 10
257
 20
390.5
 11
257
 21
391
  0
ENDBLK
  5
182
100
AcDbEntity
 67
     1
  8
_0-2_寸法
100
AcDbBlockEnd
  0
BLOCK
  5
183
100
AcDbEntity
  8
_0-2_寸法
100
AcDbBlockBegin
  2
BK3
 70
    64
 10
0
 20
0
  3
BK3
  1

  0
CIRCLE
  5
184
100
AcDbEntity
  8
_0-2_寸法
  6
CONTINUOUS
 62
     0
100
AcDbCircle
 10
257
 20
505.2716498733
 40
0.25
  0
LINE
  5
185
100
AcDbEntity
  8
_0-2_寸法
  6
CONTINUOUS
 62
     0
100
AcDbLine
 10
257
 20
505.5216498733
 11
257
 21
505.0216498733
  0
LINE
  5
186
100
AcDbEntity
  8
_0-2_寸法
  6
CONTINUOUS
 62
     0
100
AcDbLine
 10
257
 20
504.7716498733
 11
257
 21
504.2716498733
  0
ENDBLK
  5
187
100
AcDbEntity
 67
     1
  8
_0-2_寸法
100
AcDbBlockEnd
  0
BLOCK
  5
188
100
AcDbEntity
  8
_0-2_寸法
100
AcDbBlockBegin
  2
BK4
 70
    64
 10
0
 20
0
  3
BK4
  1

  0
CIRCLE
  5
189
100
AcDbEntity
  8
_0-2_寸法
  6
CONTINUOUS
 62
     0
100
AcDbCircle
 10
346.5
 20
540.2716498733
 40
0.25
  0
LINE
  5
18A
100
AcDbEntity
  8
_0-2_寸法
  6
CONTINUOUS
 62
     0
100
AcDbLine
 10
346.25
 20
540.2716498733
 11
346.75
 21
540.2716498733
  0
LINE
  5
18B
100
AcDbEntity
  8
_0-2_寸法
  6
CONTINUOUS
 62
     0
100
AcDbLine
 10
347
 20
540.2716498733
 11
347.5
 21
540.2716498733
  0
ENDBLK
  5
18C
100
AcDbEntity
 67
     1
  8
_0-2_寸法
100
AcDbBlockEnd
  0
BLOCK
  5
18D
100
AcDbEntity
  8
_0-2_寸法
100
AcDbBlockBegin
  2
BK5
 70
    64
 10
0
 20
0
  3
BK5
  1

  0
CIRCLE
  5
18E
100
AcDbEntity
  8
_0-2_寸法
  6
CONTINUOUS
 62
     0
100
AcDbCircle
 10
366.5
 20
540.2716498733
 40
0.25
  0
LINE
  5
18F
100
AcDbEntity
  8
_0-2_寸法
  6
CONTINUOUS
 62
     0
100
AcDbLine
 10
366.75
 20
540.2716498733
 11
366.25
 21
540.2716498733
  0
LINE
  5
190
100
AcDbEntity
  8
_0-2_寸法
  6
CONTINUOUS
 62
     0
100
AcDbLine
 10
366
 20
540.2716498733
 11
365.5
 21
540.2716498733
  0
ENDBLK
  5
191
100
AcDbEntity
 67
     1
  8
_0-2_寸法
100
AcDbBlockEnd
  0
BLOCK
  5
192
100
AcDbEntity
  8
_0-2_寸法
100
AcDbBlockBegin
  2
BK6
 70
    64
 10
0
 20
0
  3
BK6
  1

  0
CIRCLE
  5
193
100
AcDbEntity
  8
_0-2_寸法
  6
CONTINUOUS
 62
     0
100
AcDbCircle
 10
333
 20
555.2716498733
 40
0.25
  0
LINE
  5
194
100
AcDbEntity
  8
_0-2_寸法
  6
CONTINUOUS
 62
     0
100
AcDbLine
 10
332.75
 20
555.2716498733
 11
333.25
 21
555.2716498733
  0
LINE
  5
195
100
AcDbEntity
  8
_0-2_寸法
  6
CONTINUOUS
 62
     0
100
AcDbLine
 10
333.5
 20
555.2716498733
 11
334
 21
555.2716498733
  0
ENDBLK
  5
196
100
AcDbEntity
 67
     1
  8
_0-2_寸法
100
AcDbBlockEnd
  0
BLOCK
  5
197
100
AcDbEntity
  8
_0-2_寸法
100
AcDbBlockBegin
  2
BK7
 70
    64
 10
0
 20
0
  3
BK7
  1

  0
CIRCLE
  5
198
100
AcDbEntity
  8
_0-2_寸法
  6
CONTINUOUS
 62
     0
100
AcDbCircle
 10
366.5
 20
555.2716498733
 40
0.25
  0
LINE
  5
199
100
AcDbEntity
  8
_0-2_寸法
  6
CONTINUOUS
 62
     0
100
AcDbLine
 10
366.75
 20
555.2716498733
 11
366.25
 21
555.2716498733
  0
LINE
  5
19A
100
AcDbEntity
  8
_0-2_寸法
  6
CONTINUOUS
 62
     0
100
AcDbLine
 10
366
 20
555.2716498733
 11
365.5
 21
555.2716498733
  0
ENDBLK
  5
19B
100
AcDbEntity
 67
     1
  8
_0-2_寸法
100
AcDbBlockEnd
  0
BLOCK
  5
19C
100
AcDbEntity
  8
_0-2_寸法
100
AcDbBlockBegin
  2
BK8
 70
    64
 10
0
 20
0
  3
BK8
  1

  0
CIRCLE
  5
19D
100
AcDbEntity
  8
_0-2_寸法
  6
CONTINUOUS
 62
     0
100
AcDbCircle
 10
333
 20
570.2716498733
 40
0.25
  0
LINE
  5
19E
100
AcDbEntity
  8
_0-2_寸法
  6
CONTINUOUS
 62
     0
100
AcDbLine
 10
332.75
 20
570.2716498733
 11
333.25
 21
570.2716498733
  0
LINE
  5
19F
100
AcDbEntity
  8
_0-2_寸法
  6
CONTINUOUS
 62
     0
100
AcDbLine
 10
333.5
 20
570.2716498733
 11
334
 21
570.2716498733
  0
ENDBLK
  5
1A0
100
AcDbEntity
 67
     1
  8
_0-2_寸法
100
AcDbBlockEnd
  0
BLOCK
  5
1A1
100
AcDbEntity
  8
_0-2_寸法
100
AcDbBlockBegin
  2
BK9
 70
    64
 10
0
 20
0
  3
BK9
  1

  0
CIRCLE
  5
1A2
100
AcDbEntity
  8
_0-2_寸法
  6
CONTINUOUS
 62
     0
100
AcDbCircle
 10
558
 20
570.2716498733
 40
0.25
  0
LINE
  5
1A3
100
AcDbEntity
  8
_0-2_寸法
  6
CONTINUOUS
 62
     0
100
AcDbLine
 10
558.25
 20
570.2716498733
 11
557.75
 21
570.2716498733
  0
LINE
  5
1A4
100
AcDbEntity
  8
_0-2_寸法
  6
CONTINUOUS
 62
     0
100
AcDbLine
 10
557.5
 20
570.2716498733
 11
557
 21
570.2716498733
  0
ENDBLK
  5
1A5
100
AcDbEntity
 67
     1
  8
_0-2_寸法
100
AcDbBlockEnd
  0
BLOCK
  5
1A6
100
AcDbEntity
  8
_0-2_寸法
100
AcDbBlockBegin
  2
BK10
 70
    64
 10
0
 20
0
  3
BK10
  1

  0
LINE
  5
1A7
100
AcDbEntity
  8
_0-2_寸法
  6
CONTINUOUS
 62
     0
100
AcDbLine
 10
458
 20
330
 11
506
 21
330
  0
TEXT
  5
1A8
100
AcDbEntity
  8
_0-2_寸法
  6
CONTINUOUS
 62
     0
100
AcDbText
 10
479.5
 20
331
 40
5
  1
50
  7
STANDARD
100
AcDbText
  0
CIRCLE
  5
1A9
100
AcDbEntity
  8
_0-2_寸法
  6
CONTINUOUS
 62
     0
100
AcDbCircle
 10
457
 20
330
 40
1.4
  0
CIRCLE
  5
1AA
100
AcDbEntity
  8
_0-2_寸法
  6
CONTINUOUS
 62
     0
100
AcDbCircle
 10
507
 20
330
 40
1.4
  0
CIRCLE
  5
1AB
100
AcDbEntity
  8
_0-2_寸法
  6
CONTINUOUS
 62
     0
100
AcDbCircle
 10
507
 20
330
 40
1.4
  0
ENDBLK
  5
1AC
100
AcDbEntity
 67
     1
  8
_0-2_寸法
100
AcDbBlockEnd
  0
BLOCK
  5
1AD
100
AcDbEntity
  8
_0-2_寸法
100
AcDbBlockBegin
  2
BK11
 70
    64
 10
0
 20
0
  3
BK11
  1

  0
CIRCLE
  5
1AE
100
AcDbEntity
  8
_0-2_寸法
  6
CONTINUOUS
 62
     0
100
AcDbCircle
 10
457
 20
330
 40
0.25
  0
LINE
  5
1AF
100
AcDbEntity
  8
_0-2_寸法
  6
CONTINUOUS
 62
     0
100
AcDbLine
 10
456.75
 20
330
 11
457.25
 21
330
  0
LINE
  5
1B0
100
AcDbEntity
  8
_0-2_寸法
  6
CONTINUOUS
 62
     0
100
AcDbLine
 10
457.5
 20
330
 11
458
 21
330
  0
ENDBLK
  5
1B1
100
AcDbEntity
 67
     1
  8
_0-2_寸法
100
AcDbBlockEnd
  0
BLOCK
  5
1B2
100
AcDbEntity
  8
_0-2_寸法
100
AcDbBlockBegin
  2
BK12
 70
    64
 10
0
 20
0
  3
BK12
  1

  0
CIRCLE
  5
1B3
100
AcDbEntity
  8
_0-2_寸法
  6
CONTINUOUS
 62
     0
100
AcDbCircle
 10
507
 20
330
 40
0.25
  0
LINE
  5
1B4
100
AcDbEntity
  8
_0-2_寸法
  6
CONTINUOUS
 62
     0
100
AcDbLine
 10
507.25
 20
330
 11
506.75
 21
330
  0
LINE
  5
1B5
100
AcDbEntity
  8
_0-2_寸法
  6
CONTINUOUS
 62
     0
100
AcDbLine
 10
506.5
 20
330
 11
506
 21
330
  0
ENDBLK
  5
1B6
100
AcDbEntity
 67
     1
  8
_0-2_寸法
100
AcDbBlockEnd
  0
BLOCK
  5
1B7
100
AcDbEntity
  8
_0-2_寸法
100
AcDbBlockBegin
  2
BK13
 70
    64
 10
0
 20
0
  3
BK13
  1

  0
LINE
  5
1B8
100
AcDbEntity
  8
_0-2_寸法
  6
CONTINUOUS
 62
     0
100
AcDbLine
 10
330
 20
390
 11
277
 21
390
  0
LINE
  5
1B9
100
AcDbEntity
  8
_0-2_寸法
  6
CONTINUOUS
 62
     0
100
AcDbLine
 10
277
 20
391
 11
277
 21
445.2716498733
  0
TEXT
  5
1BA
100
AcDbEntity
  8
_0-2_寸法
  6
CONTINUOUS
 62
     0
100
AcDbText
 10
276
 20
416.8858249367
 40
5
  1
D
 50
90
  7
STANDARD
100
AcDbText
  0
CIRCLE
  5
1BB
100
AcDbEntity
  8
_0-2_寸法
  6
CONTINUOUS
 62
     0
100
AcDbCircle
 10
330
 20
390
 40
1.4
  0
CIRCLE
  5
1BC
100
AcDbEntity
  8
_0-2_寸法
  6
CONTINUOUS
 62
     0
100
AcDbCircle
 10
277
 20
446.2716498733
 40
1.4
  0
CIRCLE
  5
1BD
100
AcDbEntity
  8
_0-2_寸法
  6
CONTINUOUS
 62
     0
100
AcDbCircle
 10
277
 20
446.2716498733
 40
1.4
  0
ENDBLK
  5
1BE
100
AcDbEntity
 67
     1
  8
_0-2_寸法
100
AcDbBlockEnd
  0
BLOCK
  5
1BF
100
AcDbEntity
  8
_0-2_寸法
100
AcDbBlockBegin
  2
BK14
 70
    64
 10
0
 20
0
  3
BK14
  1

  0
CIRCLE
  5
1C0
100
AcDbEntity
  8
_0-2_寸法
  6
CONTINUOUS
 62
     0
100
AcDbCircle
 10
277
 20
390
 40
0.25
  0
LINE
  5
1C1
100
AcDbEntity
  8
_0-2_寸法
  6
CONTINUOUS
 62
     0
100
AcDbLine
 10
277
 20
389.75
 11
277
 21
390.25
  0
LINE
  5
1C2
100
AcDbEntity
  8
_0-2_寸法
  6
CONTINUOUS
 62
     0
100
AcDbLine
 10
277
 20
390.5
 11
277
 21
391
  0
ENDBLK
  5
1C3
100
AcDbEntity
 67
     1
  8
_0-2_寸法
100
AcDbBlockEnd
  0
BLOCK
  5
1C4
100
AcDbEntity
  8
_0-2_寸法
100
AcDbBlockBegin
  2
BK15
 70
    64
 10
0
 20
0
  3
BK15
  1

  0
CIRCLE
  5
1C5
100
AcDbEntity
  8
_0-2_寸法
  6
CONTINUOUS
 62
     0
100
AcDbCircle
 10
277
 20
446.2716498733
 40
0.25
  0
LINE
  5
1C6
100
AcDbEntity
  8
_0-2_寸法
  6
CONTINUOUS
 62
     0
100
AcDbLine
 10
277
 20
446.5216498733
 11
277
 21
446.0216498733
  0
LINE
  5
1C7
100
AcDbEntity
  8
_0-2_寸法
  6
CONTINUOUS
 62
     0
100
AcDbLine
 10
277
 20
445.7716498733
 11
277
 21
445.2716498733
  0
ENDBLK
  5
1C8
100
AcDbEntity
 67
     1
  8
_0-2_寸法
100
AcDbBlockEnd
  0
BLOCK
  5
1C9
100
AcDbEntity
  8
_0-2_寸法
100
AcDbBlockBegin
  2
BK16
 70
    64
 10
0
 20
0
  3
BK16
  1

  0
LINE
  5
1CA
100
AcDbEntity
  8
_0-2_寸法
  6
CONTINUOUS
 62
     0
100
AcDbLine
 10
330
 20
390
 11
257
 21
390
  0
LINE
  5
1CB
100
AcDbEntity
  8
_0-2_寸法
  6
CONTINUOUS
 62
     0
100
AcDbLine
 10
330
 20
505.2716498733
 11
257
 21
505.2716498733
  0
LINE
  5
1CC
100
AcDbEntity
  8
_0-2_寸法
  6
CONTINUOUS
 62
     0
100
AcDbLine
 10
257
 20
391
 11
257
 21
504.2716498733
  0
TEXT
  5
1CD
100
AcDbEntity
  8
_0-2_寸法
  6
CONTINUOUS
 62
     0
100
AcDbText
 10
256
 20
446.3858249367
 40
5
  1
E
 50
90
  7
STANDARD
100
AcDbText
  0
CIRCLE
  5
1CE
100
AcDbEntity
  8
_0-2_寸法
  6
CONTINUOUS
 62
     0
100
AcDbCircle
 10
330
 20
390
 40
1.4
  0
CIRCLE
  5
1CF
100
AcDbEntity
  8
_0-2_寸法
  6
CONTINUOUS
 62
     0
100
AcDbCircle
 10
330
 20
505.2716498733
 40
1.4
  0
CIRCLE
  5
1D0
100
AcDbEntity
  8
_0-2_寸法
  6
CONTINUOUS
 62
     0
100
AcDbCircle
 10
257
 20
505.2716498733
 40
1.4
  0
ENDBLK
  5
1D1
100
AcDbEntity
 67
     1
  8
_0-2_寸法
100
AcDbBlockEnd
  0
BLOCK
  5
1D2
100
AcDbEntity
  8
_0-2_寸法
100
AcDbBlockBegin
  2
BK17
 70
    64
 10
0
 20
0
  3
BK17
  1

  0
LINE
  5
1D3
100
AcDbEntity
  8
_0-2_寸法
  6
CONTINUOUS
 62
     0
100
AcDbLine
 10
560
 20
348.3801541434
 11
598
 21
348.3801541434
  0
LINE
  5
1D4
100
AcDbEntity
  8
_0-2_寸法
  6
CONTINUOUS
 62
     0
100
AcDbLine
 10
511
 20
390
 11
598
 21
390
  0
LINE
  5
1D5
100
AcDbEntity
  8
_0-2_寸法
  6
CONTINUOUS
 62
     0
100
AcDbLine
 10
598
 20
349.3801541434
 11
598
 21
389
  0
TEXT
  5
1D6
100
AcDbEntity
  8
_0-2_寸法
  6
CONTINUOUS
 62
     0
100
AcDbText
 10
597
 20
366.6900770717
 40
5
  1
44
 50
90
  7
STANDARD
100
AcDbText
  0
CIRCLE
  5
1D7
100
AcDbEntity
  8
_0-2_寸法
  6
CONTINUOUS
 62
     0
100
AcDbCircle
 10
560
 20
348.3801541434
 40
1.4
  0
CIRCLE
  5
1D8
100
AcDbEntity
  8
_0-2_寸法
  6
CONTINUOUS
 62
     0
100
AcDbCircle
 10
511
 20
390
 40
1.4
  0
CIRCLE
  5
1D9
100
AcDbEntity
  8
_0-2_寸法
  6
CONTINUOUS
 62
     0
100
AcDbCircle
 10
598
 20
390
 40
1.4
  0
ENDBLK
  5
1DA
100
AcDbEntity
 67
     1
  8
_0-2_寸法
100
AcDbBlockEnd
  0
BLOCK
  5
1DB
100
AcDbEntity
  8
_0-2_寸法
100
AcDbBlockBegin
  2
BK18
 70
    64
 10
0
 20
0
  3
BK18
  1

  0
CIRCLE
  5
1DC
100
AcDbEntity
  8
_0-2_寸法
  6
CONTINUOUS
 62
     0
100
AcDbCircle
 10
598
 20
348.3801541434
 40
0.25
  0
LINE
  5
1DD
100
AcDbEntity
  8
_0-2_寸法
  6
CONTINUOUS
 62
     0
100
AcDbLine
 10
598
 20
348.1301541434
 11
598
 21
348.6301541434
  0
LINE
  5
1DE
100
AcDbEntity
  8
_0-2_寸法
  6
CONTINUOUS
 62
     0
100
AcDbLine
 10
598
 20
348.8801541434
 11
598
 21
349.3801541434
  0
ENDBLK
  5
1DF
100
AcDbEntity
 67
     1
  8
_0-2_寸法
100
AcDbBlockEnd
  0
BLOCK
  5
1E0
100
AcDbEntity
  8
_0-2_寸法
100
AcDbBlockBegin
  2
BK19
 70
    64
 10
0
 20
0
  3
BK19
  1

  0
CIRCLE
  5
1E1
100
AcDbEntity
  8
_0-2_寸法
  6
CONTINUOUS
 62
     0
100
AcDbCircle
 10
598
 20
390
 40
0.25
  0
LINE
  5
1E2
100
AcDbEntity
  8
_0-2_寸法
  6
CONTINUOUS
 62
     0
100
AcDbLine
 10
598
 20
390.25
 11
598
 21
389.75
  0
LINE
  5
1E3
100
AcDbEntity
  8
_0-2_寸法
  6
CONTINUOUS
 62
     0
100
AcDbLine
 10
598
 20
389.5
 11
598
 21
389
  0
ENDBLK
  5
1E4
100
AcDbEntity
 67
     1
  8
_0-2_寸法
100
AcDbBlockEnd
  0
BLOCK
  5
1E5
100
AcDbEntity
  8
_0-2_寸法
100
AcDbBlockBegin
  2
BK20
 70
    64
 10
0
 20
0
  3
BK20
  1

  0
LINE
  5
1E6
100
AcDbEntity
  8
_0-2_寸法
  6
CONTINUOUS
 62
     0
100
AcDbLine
 10
560
 20
348.3801541434
 11
618
 21
348.3801541434
  0
LINE
  5
1E7
100
AcDbEntity
  8
_0-2_寸法
  6
CONTINUOUS
 62
     0
100
AcDbLine
 10
560
 20
438.3801541434
 11
618
 21
438.3801541434
  0
LINE
  5
1E8
100
AcDbEntity
  8
_0-2_寸法
  6
CONTINUOUS
 62
     0
100
AcDbLine
 10
618
 20
349.3801541434
 11
618
 21
437.3801541434
  0
TEXT
  5
1E9
100
AcDbEntity
  8
_0-2_寸法
  6
CONTINUOUS
 62
     0
100
AcDbText
 10
617
 20
390.8801541434
 40
5
  1
90
 50
90
  7
STANDARD
100
AcDbText
  0
CIRCLE
  5
1EA
100
AcDbEntity
  8
_0-2_寸法
  6
CONTINUOUS
 62
     0
100
AcDbCircle
 10
560
 20
348.3801541434
 40
1.4
  0
CIRCLE
  5
1EB
100
AcDbEntity
  8
_0-2_寸法
  6
CONTINUOUS
 62
     0
100
AcDbCircle
 10
560
 20
438.3801541434
 40
1.4
  0
CIRCLE
  5
1EC
100
AcDbEntity
  8
_0-2_寸法
  6
CONTINUOUS
 62
     0
100
AcDbCircle
 10
618
 20
438.3801541434
 40
1.4
  0
ENDBLK
  5
1ED
100
AcDbEntity
 67
     1
  8
_0-2_寸法
100
AcDbBlockEnd
  0
BLOCK
  5
1EE
100
AcDbEntity
  8
_0-2_寸法
100
AcDbBlockBegin
  2
BK21
 70
    64
 10
0
 20
0
  3
BK21
  1

  0
CIRCLE
  5
1EF
100
AcDbEntity
  8
_0-2_寸法
  6
CONTINUOUS
 62
     0
100
AcDbCircle
 10
618
 20
348.3801541434
 40
0.25
  0
LINE
  5
1F0
100
AcDbEntity
  8
_0-2_寸法
  6
CONTINUOUS
 62
     0
100
AcDbLine
 10
618
 20
348.1301541434
 11
618
 21
348.6301541434
  0
LINE
  5
1F1
100
AcDbEntity
  8
_0-2_寸法
  6
CONTINUOUS
 62
     0
100
AcDbLine
 10
618
 20
348.8801541434
 11
618
 21
349.3801541434
  0
ENDBLK
  5
1F2
100
AcDbEntity
 67
     1
  8
_0-2_寸法
100
AcDbBlockEnd
  0
BLOCK
  5
1F3
100
AcDbEntity
  8
_0-2_寸法
100
AcDbBlockBegin
  2
BK22
 70
    64
 10
0
 20
0
  3
BK22
  1

  0
CIRCLE
  5
1F4
100
AcDbEntity
  8
_0-2_寸法
  6
CONTINUOUS
 62
     0
100
AcDbCircle
 10
618
 20
438.3801541434
 40
0.25
  0
LINE
  5
1F5
100
AcDbEntity
  8
_0-2_寸法
  6
CONTINUOUS
 62
     0
100
AcDbLine
 10
618
 20
438.6301541434
 11
618
 21
438.1301541434
  0
LINE
  5
1F6
100
AcDbEntity
  8
_0-2_寸法
  6
CONTINUOUS
 62
     0
100
AcDbLine
 10
618
 20
437.8801541434
 11
618
 21
437.3801541434
  0
ENDBLK
  5
1F7
100
AcDbEntity
 67
     1
  8
_0-2_寸法
100
AcDbBlockEnd
  0
BLOCK
  5
1F8
100
AcDbEntity
  8
_0-2_寸法
100
AcDbBlockBegin
  2
BK23
 70
    64
 10
0
 20
0
  3
BK23
  1

  0
LINE
  5
1F9
100
AcDbEntity
  8
_0-2_寸法
  6
CONTINUOUS
 62
     0
100
AcDbLine
 10
368.5
 20
454.2716498733
 11
401.5
 21
454.2716498733
  0
LINE
  5
1FA
100
AcDbEntity
  8
_0-2_寸法
  6
CONTINUOUS
 62
     0
100
AcDbLine
 10
368.5
 20
490.2716498733
 11
401.5
 21
490.2716498733
  0
LINE
  5
1FB
100
AcDbEntity
  8
_0-2_寸法
  6
CONTINUOUS
 62
     0
100
AcDbLine
 10
401.5
 20
455.2716498733
 11
401.5
 21
489.2716498733
  0
TEXT
  5
1FC
100
AcDbEntity
  8
_0-2_寸法
  6
CONTINUOUS
 62
     0
100
AcDbText
 10
400.5
 20
469.7716498733
 40
5
  1
36
 50
90
  7
STANDARD
100
AcDbText
  0
CIRCLE
  5
1FD
100
AcDbEntity
  8
_0-2_寸法
  6
CONTINUOUS
 62
     0
100
AcDbCircle
 10
368.5
 20
454.2716498733
 40
1.4
  0
CIRCLE
  5
1FE
100
AcDbEntity
  8
_0-2_寸法
  6
CONTINUOUS
 62
     0
100
AcDbCircle
 10
368.5
 20
490.2716498733
 40
1.4
  0
CIRCLE
  5
1FF
100
AcDbEntity
  8
_0-2_寸法
  6
CONTINUOUS
 62
     0
100
AcDbCircle
 10
401.5
 20
490.2716498733
 40
1.4
  0
ENDBLK
  5
200
100
AcDbEntity
 67
     1
  8
_0-2_寸法
100
AcDbBlockEnd
  0
BLOCK
  5
201
100
AcDbEntity
  8
_0-2_寸法
100
AcDbBlockBegin
  2
BK24
 70
    64
 10
0
 20
0
  3
BK24
  1

  0
CIRCLE
  5
202
100
AcDbEntity
  8
_0-2_寸法
  6
CONTINUOUS
 62
     0
100
AcDbCircle
 10
401.5
 20
454.2716498733
 40
0.25
  0
LINE
  5
203
100
AcDbEntity
  8
_0-2_寸法
  6
CONTINUOUS
 62
     0
100
AcDbLine
 10
401.5
 20
454.0216498733
 11
401.5
 21
454.5216498733
  0
LINE
  5
204
100
AcDbEntity
  8
_0-2_寸法
  6
CONTINUOUS
 62
     0
100
AcDbLine
 10
401.5
 20
454.7716498733
 11
401.5
 21
455.2716498733
  0
ENDBLK
  5
205
100
AcDbEntity
 67
     1
  8
_0-2_寸法
100
AcDbBlockEnd
  0
BLOCK
  5
206
100
AcDbEntity
  8
_0-2_寸法
100
AcDbBlockBegin
  2
BK25
 70
    64
 10
0
 20
0
  3
BK25
  1

  0
CIRCLE
  5
207
100
AcDbEntity
  8
_0-2_寸法
  6
CONTINUOUS
 62
     0
100
AcDbCircle
 10
401.5
 20
490.2716498733
 40
0.25
  0
LINE
  5
208
100
AcDbEntity
  8
_0-2_寸法
  6
CONTINUOUS
 62
     0
100
AcDbLine
 10
401.5
 20
490.5216498733
 11
401.5
 21
490.0216498733
  0
LINE
  5
209
100
AcDbEntity
  8
_0-2_寸法
  6
CONTINUOUS
 62
     0
100
AcDbLine
 10
401.5
 20
489.7716498733
 11
401.5
 21
489.2716498733
  0
ENDBLK
  5
20A
100
AcDbEntity
 67
     1
  8
_0-2_寸法
100
AcDbBlockEnd
  0
BLOCK
  5
20B
100
AcDbEntity
  8
_0-2_寸法
100
AcDbBlockBegin
  2
BK26
 70
    64
 10
0
 20
0
  3
BK26
  1

  0
LINE
  5
20C
100
AcDbEntity
  8
_0-2_寸法
  6
CONTINUOUS
 62
     0
100
AcDbLine
 10
368.5
 20
490.2716498733
 11
401.5
 21
490.2716498733
  0
LINE
  5
20D
100
AcDbEntity
  8
_0-2_寸法
  6
CONTINUOUS
 62
     0
100
AcDbLine
 10
359
 20
505.2716498733
 11
401.5
 21
505.2716498733
  0
LINE
  5
20E
100
AcDbEntity
  8
_0-2_寸法
  6
CONTINUOUS
 62
     0
100
AcDbLine
 10
401.5
 20
491.2716498733
 11
401.5
 21
504.2716498733
  0
TEXT
  5
20F
100
AcDbEntity
  8
_0-2_寸法
  6
CONTINUOUS
 62
     0
100
AcDbText
 10
400.5
 20
495.2716498733
 40
5
  1
15
 50
90
  7
STANDARD
100
AcDbText
  0
CIRCLE
  5
210
100
AcDbEntity
  8
_0-2_寸法
  6
CONTINUOUS
 62
     0
100
AcDbCircle
 10
368.5
 20
490.2716498733
 40
1.4
  0
CIRCLE
  5
211
100
AcDbEntity
  8
_0-2_寸法
  6
CONTINUOUS
 62
     0
100
AcDbCircle
 10
359
 20
505.2716498733
 40
1.4
  0
CIRCLE
  5
212
100
AcDbEntity
  8
_0-2_寸法
  6
CONTINUOUS
 62
     0
100
AcDbCircle
 10
401.5
 20
505.2716498733
 40
1.4
  0
ENDBLK
  5
213
100
AcDbEntity
 67
     1
  8
_0-2_寸法
100
AcDbBlockEnd
  0
BLOCK
  5
214
100
AcDbEntity
  8
_0-2_寸法
100
AcDbBlockBegin
  2
BK27
 70
    64
 10
0
 20
0
  3
BK27
  1

  0
CIRCLE
  5
215
100
AcDbEntity
  8
_0-2_寸法
  6
CONTINUOUS
 62
     0
100
AcDbCircle
 10
401.5
 20
490.2716498733
 40
0.25
  0
LINE
  5
216
100
AcDbEntity
  8
_0-2_寸法
  6
CONTINUOUS
 62
     0
100
AcDbLine
 10
401.5
 20
490.0216498733
 11
401.5
 21
490.5216498733
  0
LINE
  5
217
100
AcDbEntity
  8
_0-2_寸法
  6
CONTINUOUS
 62
     0
100
AcDbLine
 10
401.5
 20
490.7716498733
 11
401.5
 21
491.2716498733
  0
ENDBLK
  5
218
100
AcDbEntity
 67
     1
  8
_0-2_寸法
100
AcDbBlockEnd
  0
BLOCK
  5
219
100
AcDbEntity
  8
_0-2_寸法
100
AcDbBlockBegin
  2
BK28
 70
    64
 10
0
 20
0
  3
BK28
  1

  0
CIRCLE
  5
21A
100
AcDbEntity
  8
_0-2_寸法
  6
CONTINUOUS
 62
     0
100
AcDbCircle
 10
401.5
 20
505.2716498733
 40
0.25
  0
LINE
  5
21B
100
AcDbEntity
  8
_0-2_寸法
  6
CONTINUOUS
 62
     0
100
AcDbLine
 10
401.5
 20
505.5216498733
 11
401.5
 21
505.0216498733
  0
LINE
  5
21C
100
AcDbEntity
  8
_0-2_寸法
  6
CONTINUOUS
 62
     0
100
AcDbLine
 10
401.5
 20
504.7716498733
 11
401.5
 21
504.2716498733
  0
ENDBLK
  5
21D
100
AcDbEntity
 67
     1
  8
_0-2_寸法
100
AcDbBlockEnd
  0
BLOCK
  5
21E
100
AcDbEntity
  8
_0-2_寸法
100
AcDbBlockBegin
  2
BK29
 70
    64
 10
0
 20
0
  3
BK29
  1

  0
LINE
  5
21F
100
AcDbEntity
  8
_0-2_寸法
  6
CONTINUOUS
 62
     0
100
AcDbLine
 10
346.5
 20
507.2716498733
 11
346.5
 21
540.2716498733
  0
LINE
  5
220
100
AcDbEntity
  8
_0-2_寸法
  6
CONTINUOUS
 62
     0
100
AcDbLine
 10
366.5
 20
493.5432997466
 11
366.5
 21
540.2716498733
  0
LINE
  5
221
100
AcDbEntity
  8
_0-2_寸法
  6
CONTINUOUS
 62
     0
100
AcDbLine
 10
347.5
 20
540.2716498733
 11
365.5
 21
540.2716498733
  0
TEXT
  5
222
100
AcDbEntity
  8
_0-2_寸法
  6
CONTINUOUS
 62
     0
100
AcDbText
 10
354
 20
541.2716498733
 40
5
  1
20
  7
STANDARD
100
AcDbText
  0
CIRCLE
  5
223
100
AcDbEntity
  8
_0-2_寸法
  6
CONTINUOUS
 62
     0
100
AcDbCircle
 10
346.5
 20
507.2716498733
 40
1.4
  0
CIRCLE
  5
224
100
AcDbEntity
  8
_0-2_寸法
  6
CONTINUOUS
 62
     0
100
AcDbCircle
 10
366.5
 20
493.5432997466
 40
1.4
  0
CIRCLE
  5
225
100
AcDbEntity
  8
_0-2_寸法
  6
CONTINUOUS
 62
     0
100
AcDbCircle
 10
366.5
 20
540.2716498733
 40
1.4
  0
ENDBLK
  5
226
100
AcDbEntity
 67
     1
  8
_0-2_寸法
100
AcDbBlockEnd
  0
BLOCK
  5
227
100
AcDbEntity
  8
_0-2_寸法
100
AcDbBlockBegin
  2
BK30
 70
    64
 10
0
 20
0
  3
BK30
  1

  0
LINE
  5
228
100
AcDbEntity
  8
_0-2_寸法
  6
CONTINUOUS
 62
     0
100
AcDbLine
 10
333
 20
492.2716498733
 11
333
 21
555.2716498733
  0
LINE
  5
229
100
AcDbEntity
  8
_0-2_寸法
  6
CONTINUOUS
 62
     0
100
AcDbLine
 10
366.5
 20
493.5432997466
 11
366.5
 21
555.2716498733
  0
LINE
  5
22A
100
AcDbEntity
  8
_0-2_寸法
  6
CONTINUOUS
 62
     0
100
AcDbLine
 10
334
 20
555.2716498733
 11
365.5
 21
555.2716498733
  0
TEXT
  5
22B
100
AcDbEntity
  8
_0-2_寸法
  6
CONTINUOUS
 62
     0
100
AcDbText
 10
344.75
 20
556.2716498733
 40
5
  1
33.5
  7
STANDARD
100
AcDbText
  0
CIRCLE
  5
22C
100
AcDbEntity
  8
_0-2_寸法
  6
CONTINUOUS
 62
     0
100
AcDbCircle
 10
333
 20
492.2716498733
 40
1.4
  0
CIRCLE
  5
22D
100
AcDbEntity
  8
_0-2_寸法
  6
CONTINUOUS
 62
     0
100
AcDbCircle
 10
366.5
 20
493.5432997466
 40
1.4
  0
CIRCLE
  5
22E
100
AcDbEntity
  8
_0-2_寸法
  6
CONTINUOUS
 62
     0
100
AcDbCircle
 10
366.5
 20
555.2716498733
 40
1.4
  0
ENDBLK
  5
22F
100
AcDbEntity
 67
     1
  8
_0-2_寸法
100
AcDbBlockEnd
  0
BLOCK
  5
230
100
AcDbEntity
  8
_0-2_寸法
100
AcDbBlockBegin
  2
BK31
 70
    64
 10
0
 20
0
  3
BK31
  1

  0
LINE
  5
231
100
AcDbEntity
  8
_0-2_寸法
  6
CONTINUOUS
 62
     0
100
AcDbLine
 10
333
 20
492.2716498733
 11
333
 21
570.2716498733
  0
LINE
  5
232
100
AcDbEntity
  8
_0-2_寸法
  6
CONTINUOUS
 62
     0
100
AcDbLine
 10
558
 20
440.3801541434
 11
558
 21
570.2716498733
  0
LINE
  5
233
100
AcDbEntity
  8
_0-2_寸法
  6
CONTINUOUS
 62
     0
100
AcDbLine
 10
334
 20
570.2716498733
 11
557
 21
570.2716498733
  0
TEXT
  5
234
100
AcDbEntity
  8
_0-2_寸法
  6
CONTINUOUS
 62
     0
100
AcDbText
 10
444.25
 20
571.2716498733
 40
5
  1
W
  7
STANDARD
100
AcDbText
  0
CIRCLE
  5
235
100
AcDbEntity
  8
_0-2_寸法
  6
CONTINUOUS
 62
     0
100
AcDbCircle
 10
333
 20
492.2716498733
 40
1.4
  0
CIRCLE
  5
236
100
AcDbEntity
  8
_0-2_寸法
  6
CONTINUOUS
 62
     0
100
AcDbCircle
 10
558
 20
440.3801541434
 40
1.4
  0
CIRCLE
  5
237
100
AcDbEntity
  8
_0-2_寸法
  6
CONTINUOUS
 62
     0
100
AcDbCircle
 10
558
 20
570.2716498733
 40
1.4
  0
ENDBLK
  5
238
100
AcDbEntity
 67
     1
  8
_0-2_寸法
100
AcDbBlockEnd
  0
BLOCK
  5
239
100
AcDbEntity
  8
_0-2_寸法
100
AcDbBlockBegin
  2
BK32
 70
    64
 10
0
 20
0
  3
BK32
  1

  0
LINE
  5
23A
100
AcDbEntity
  8
_0-2_寸法
  6
CONTINUOUS
 62
     0
100
AcDbLine
 10
348
 20
463.3857877928
 11
348
 21
483.2716498733
  0
LINE
  5
23B
100
AcDbEntity
  8
_0-2_寸法
  6
CONTINUOUS
 62
     0
100
AcDbLine
 10
558
 20
440.3801541434
 11
558
 21
483.2716498733
  0
LINE
  5
23C
100
AcDbEntity
  8
_0-2_寸法
  6
CONTINUOUS
 62
     0
100
AcDbLine
 10
349
 20
483.2716498733
 11
557
 21
483.2716498733
  0
TEXT
  5
23D
100
AcDbEntity
  8
_0-2_寸法
  6
CONTINUOUS
 62
     0
100
AcDbText
 10
451.75
 20
484.2716498733
 40
5
  1
A
  7
STANDARD
100
AcDbText
  0
CIRCLE
  5
23E
100
AcDbEntity
  8
_0-2_寸法
  6
CONTINUOUS
 62
     0
100
AcDbCircle
 10
348
 20
463.3857877928
 40
1.4
  0
CIRCLE
  5
23F
100
AcDbEntity
  8
_0-2_寸法
  6
CONTINUOUS
 62
     0
100
AcDbCircle
 10
558
 20
440.3801541434
 40
1.4
  0
CIRCLE
  5
240
100
AcDbEntity
  8
_0-2_寸法
  6
CONTINUOUS
 62
     0
100
AcDbCircle
 10
558
 20
483.2716498733
 40
1.4
  0
ENDBLK
  5
241
100
AcDbEntity
 67
     1
  8
_0-2_寸法
100
AcDbBlockEnd
  0
BLOCK
  5
242
100
AcDbEntity
  8
_0-2_寸法
100
AcDbBlockBegin
  2
BK33
 70
    64
 10
0
 20
0
  3
BK33
  1

  0
CIRCLE
  5
243
100
AcDbEntity
  8
_0-2_寸法
  6
CONTINUOUS
 62
     0
100
AcDbCircle
 10
348
 20
483.2716498733
 40
0.25
  0
LINE
  5
244
100
AcDbEntity
  8
_0-2_寸法
  6
CONTINUOUS
 62
     0
100
AcDbLine
 10
347.75
 20
483.2716498733
 11
348.25
 21
483.2716498733
  0
LINE
  5
245
100
AcDbEntity
  8
_0-2_寸法
  6
CONTINUOUS
 62
     0
100
AcDbLine
 10
348.5
 20
483.2716498733
 11
349
 21
483.2716498733
  0
ENDBLK
  5
246
100
AcDbEntity
 67
     1
  8
_0-2_寸法
100
AcDbBlockEnd
  0
BLOCK
  5
247
100
AcDbEntity
  8
_0-2_寸法
100
AcDbBlockBegin
  2
BK34
 70
    64
 10
0
 20
0
  3
BK34
  1

  0
CIRCLE
  5
248
100
AcDbEntity
  8
_0-2_寸法
  6
CONTINUOUS
 62
     0
100
AcDbCircle
 10
558
 20
483.2716498733
 40
0.25
  0
LINE
  5
249
100
AcDbEntity
  8
_0-2_寸法
  6
CONTINUOUS
 62
     0
100
AcDbLine
 10
558.25
 20
483.2716498733
 11
557.75
 21
483.2716498733
  0
LINE
  5
24A
100
AcDbEntity
  8
_0-2_寸法
  6
CONTINUOUS
 62
     0
100
AcDbLine
 10
557.5
 20
483.2716498733
 11
557
 21
483.2716498733
  0
ENDBLK
  5
24B
100
AcDbEntity
 67
     1
  8
_0-2_寸法
100
AcDbBlockEnd
  0
ENDSEC
  0
SECTION
  2
ENTITIES
  0
LINE
  5
24C
100
AcDbEntity
  8
_0-4_図枠
  6
CONTINUOUS
 62
     0
100
AcDbLine
 10
33.5
 20
27
 11
857.5
 21
27
  0
LINE
  5
24D
100
AcDbEntity
  8
_0-4_図枠
  6
CONTINUOUS
 62
     0
100
AcDbLine
 10
857.5
 20
603
 11
33.5
 21
603
  0
LINE
  5
24E
100
AcDbEntity
  8
_0-4_図枠
  6
CONTINUOUS
 62
     0
100
AcDbLine
 10
33.5
 20
603
 11
33.5
 21
27
  0
TEXT
  5
24F
100
AcDbEntity
  8
_0-4_図枠
  6
CONTINUOUS
 62
     0
100
AcDbText
 10
52.42050305779
 20
567.9137819784
 40
10
  1
　　屋根－壁（切欠き壁）
  7
STANDARD
100
AcDbText
  0
TEXT
  5
250
100
AcDbEntity
  8
_0-4_図枠
  6
CONTINUOUS
 62
     0
100
AcDbText
 10
51.40480257469
 20
550.6468737659
 40
10
  1
　　Ｓ＝１／２
  7
STANDARD
100
AcDbText
  0
CIRCLE
  5
251
100
AcDbEntity
  8
_0-4_図枠
  6
CONTINUOUS
 62
     0
100
AcDbCircle
 10
320.3318935557
 20
537.035986274
 40
6
  0
LINE
  5
252
100
AcDbEntity
  8
_0-4_図枠
  6
CONTINUOUS
 62
     0
100
AcDbLine
 10
857.5
 20
27
 11
857.5
 21
603
  0
TEXT
  5
253
100
AcDbEntity
  8
_0-4_図枠
  6
CONTINUOUS
 62
     0
100
AcDbText
 10
699.5
 20
255.6699003989
 40
5
  1
（単位：mm）
  7
STANDARD
100
AcDbText
  0
LINE
  5
254
100
AcDbEntity
  8
_0-4_図枠
  6
CONTINUOUS
 62
     0
100
AcDbLine
 10
740.5
 20
138
 11
515.5
 21
138
  0
LINE
  5
255
100
AcDbEntity
  8
_0-4_図枠
  6
CONTINUOUS
 62
     0
100
AcDbLine
 10
740.5
 20
147
 11
515.5
 21
147
  0
LINE
  5
256
100
AcDbEntity
  8
_0-4_図枠
  6
CONTINUOUS
 62
     0
100
AcDbLine
 10
740.5
 20
156
 11
515.5
 21
156
  0
LINE
  5
257
100
AcDbEntity
  8
_0-4_図枠
  6
CONTINUOUS
 62
     0
100
AcDbLine
 10
740.5
 20
165
 11
515.5
 21
165
  0
LINE
  5
258
100
AcDbEntity
  8
_0-4_図枠
  6
CONTINUOUS
 62
     0
100
AcDbLine
 10
740.5
 20
174
 11
515.5
 21
174
  0
LINE
  5
259
100
AcDbEntity
  8
_0-4_図枠
  6
CONTINUOUS
 62
     0
100
AcDbLine
 10
740.5
 20
183
 11
515.5
 21
183
  0
LINE
  5
25A
100
AcDbEntity
  8
_0-4_図枠
  6
CONTINUOUS
 62
     0
100
AcDbLine
 10
740.5
 20
192
 11
515.5
 21
192
  0
LINE
  5
25B
100
AcDbEntity
  8
_0-4_図枠
  6
CONTINUOUS
 62
     0
100
AcDbLine
 10
740.5
 20
201
 11
515.5
 21
201
  0
LINE
  5
25C
100
AcDbEntity
  8
_0-4_図枠
  6
CONTINUOUS
 62
     0
100
AcDbLine
 10
740.5
 20
210
 11
515.5
 21
210
  0
LINE
  5
25D
100
AcDbEntity
  8
_0-4_図枠
  6
CONTINUOUS
 62
     0
100
AcDbLine
 10
740.5
 20
219
 11
515.5
 21
219
  0
LINE
  5
25E
100
AcDbEntity
  8
_0-4_図枠
  6
CONTINUOUS
 62
     0
100
AcDbLine
 10
740.5
 20
228
 11
515.5
 21
228
  0
LINE
  5
25F
100
AcDbEntity
  8
_0-4_図枠
  6
CONTINUOUS
 62
     0
100
AcDbLine
 10
740.5
 20
237
 11
515.5
 21
237
  0
LINE
  5
260
100
AcDbEntity
  8
_0-4_図枠
  6
CONTINUOUS
 62
     0
100
AcDbLine
 10
740.5
 20
246
 11
515.5
 21
246
  0
LINE
  5
261
100
AcDbEntity
  8
_0-4_図枠
  6
CONTINUOUS
 62
     0
100
AcDbLine
 10
740.5
 20
255
 11
515.5
 21
255
  0
LINE
  5
262
100
AcDbEntity
  8
_0-4_図枠
  6
CONTINUOUS
 62
     0
100
AcDbLine
 10
515.5
 20
255
 11
515.5
 21
138
  0
TEXT
  5
263
100
AcDbEntity
  8
_0-4_図枠
  6
CONTINUOUS
 62
     0
100
AcDbText
 10
536
 20
247.5
 40
5
  1
タ　イ　プ
  7
STANDARD
100
AcDbText
  0
LINE
  5
264
100
AcDbEntity
  8
_0-4_図枠
  6
CONTINUOUS
 62
     0
100
AcDbLine
 10
680.5
 20
255
 11
680.5
 21
138
  0
LINE
  5
265
100
AcDbEntity
  8
_0-4_図枠
  6
CONTINUOUS
 62
     0
100
AcDbLine
 10
650.5
 20
255
 11
650.5
 21
138
  0
TEXT
  5
266
100
AcDbEntity
  8
_0-4_図枠
  6
CONTINUOUS
 62
     0
100
AcDbText
 10
692.25
 20
220.5
 40
5
  1
58
  7
STANDARD
100
AcDbText
  0
TEXT
  5
267
100
AcDbEntity
  8
_0-4_図枠
  6
CONTINUOUS
 62
     0
100
AcDbText
 10
660.5
 20
220.5
 40
5
  1
150
  7
STANDARD
100
AcDbText
  0
LINE
  5
268
100
AcDbEntity
  8
_0-4_図枠
  6
CONTINUOUS
 62
     0
100
AcDbLine
 10
590.5
 20
255
 11
590.5
 21
138
  0
LINE
  5
269
100
AcDbEntity
  8
_0-4_図枠
  6
CONTINUOUS
 62
     0
100
AcDbLine
 10
620.5
 20
255
 11
620.5
 21
138
  0
TEXT
  5
26A
100
AcDbEntity
  8
_0-4_図枠
  6
CONTINUOUS
 62
     0
100
AcDbText
 10
630.5
 20
220.5
 40
5
  1
260
  7
STANDARD
100
AcDbText
  0
TEXT
  5
26B
100
AcDbEntity
  8
_0-4_図枠
  6
CONTINUOUS
 62
     0
100
AcDbText
 10
600.5
 20
220.5
 40
5
  1
275
  7
STANDARD
100
AcDbText
  0
TEXT
  5
26C
100
AcDbEntity
  8
_0-4_図枠
  6
CONTINUOUS
 62
     0
100
AcDbText
 10
630.5
 20
139.5
 40
5
  1
485
  7
STANDARD
100
AcDbText
  0
TEXT
  5
26D
100
AcDbEntity
  8
_0-4_図枠
  6
CONTINUOUS
 62
     0
100
AcDbText
 10
630.5
 20
148.5
 40
5
  1
460
  7
STANDARD
100
AcDbText
  0
TEXT
  5
26E
100
AcDbEntity
  8
_0-4_図枠
  6
CONTINUOUS
 62
     0
100
AcDbText
 10
630.5
 20
157.5
 40
5
  1
435
  7
STANDARD
100
AcDbText
  0
TEXT
  5
26F
100
AcDbEntity
  8
_0-4_図枠
  6
CONTINUOUS
 62
     0
100
AcDbText
 10
630.5
 20
175.5
 40
5
  1
385
  7
STANDARD
100
AcDbText
  0
TEXT
  5
270
100
AcDbEntity
  8
_0-4_図枠
  6
CONTINUOUS
 62
     0
100
AcDbText
 10
630.5
 20
184.5
 40
5
  1
360
  7
STANDARD
100
AcDbText
  0
TEXT
  5
271
100
AcDbEntity
  8
_0-4_図枠
  6
CONTINUOUS
 62
     0
100
AcDbText
 10
630.5
 20
193.5
 40
5
  1
335
  7
STANDARD
100
AcDbText
  0
TEXT
  5
272
100
AcDbEntity
  8
_0-4_図枠
  6
CONTINUOUS
 62
     0
100
AcDbText
 10
630.5
 20
211.5
 40
5
  1
285
  7
STANDARD
100
AcDbText
  0
TEXT
  5
273
100
AcDbEntity
  8
_0-4_図枠
  6
CONTINUOUS
 62
     0
100
AcDbText
 10
600.5
 20
175.5
 40
5
  1
400
  7
STANDARD
100
AcDbText
  0
TEXT
  5
274
100
AcDbEntity
  8
_0-4_図枠
  6
CONTINUOUS
 62
     0
100
AcDbText
 10
600.5
 20
139.5
 40
5
  1
500
  7
STANDARD
100
AcDbText
  0
TEXT
  5
275
100
AcDbEntity
  8
_0-4_図枠
  6
CONTINUOUS
 62
     0
100
AcDbText
 10
600.5
 20
148.5
 40
5
  1
475
  7
STANDARD
100
AcDbText
  0
TEXT
  5
276
100
AcDbEntity
  8
_0-4_図枠
  6
CONTINUOUS
 62
     0
100
AcDbText
 10
600.5
 20
157.5
 40
5
  1
450
  7
STANDARD
100
AcDbText
  0
TEXT
  5
277
100
AcDbEntity
  8
_0-4_図枠
  6
CONTINUOUS
 62
     0
100
AcDbText
 10
600.5
 20
166.5
 40
5
  1
425
  7
STANDARD
100
AcDbText
  0
TEXT
  5
278
100
AcDbEntity
  8
_0-4_図枠
  6
CONTINUOUS
 62
     0
100
AcDbText
 10
630.5
 20
166.5
 40
5
  1
410
  7
STANDARD
100
AcDbText
  0
TEXT
  5
279
100
AcDbEntity
  8
_0-4_図枠
  6
CONTINUOUS
 62
     0
100
AcDbText
 10
600.5
 20
184.5
 40
5
  1
375
  7
STANDARD
100
AcDbText
  0
TEXT
  5
27A
100
AcDbEntity
  8
_0-4_図枠
  6
CONTINUOUS
 62
     0
100
AcDbText
 10
600.5
 20
193.5
 40
5
  1
350
  7
STANDARD
100
AcDbText
  0
TEXT
  5
27B
100
AcDbEntity
  8
_0-4_図枠
  6
CONTINUOUS
 62
     0
100
AcDbText
 10
600.5
 20
202.5
 40
5
  1
325
  7
STANDARD
100
AcDbText
  0
TEXT
  5
27C
100
AcDbEntity
  8
_0-4_図枠
  6
CONTINUOUS
 62
     0
100
AcDbText
 10
600.5
 20
211.5
 40
5
  1
300
  7
STANDARD
100
AcDbText
  0
TEXT
  5
27D
100
AcDbEntity
  8
_0-4_図枠
  6
CONTINUOUS
 62
     0
100
AcDbText
 10
630.5
 20
202.5
 40
5
  1
310
  7
STANDARD
100
AcDbText
  0
TEXT
  5
27E
100
AcDbEntity
  8
_0-4_図枠
  6
CONTINUOUS
 62
     0
100
AcDbText
 10
692.25
 20
175.5
 40
5
  1
64
  7
STANDARD
100
AcDbText
  0
TEXT
  5
27F
100
AcDbEntity
  8
_0-4_図枠
  6
CONTINUOUS
 62
     0
100
AcDbText
 10
660.5
 20
175.5
 40
5
  1
275
  7
STANDARD
100
AcDbText
  0
TEXT
  5
280
100
AcDbEntity
  8
_0-4_図枠
  6
CONTINUOUS
 62
     0
100
AcDbText
 10
660.5
 20
148.5
 40
5
  1
350
  7
STANDARD
100
AcDbText
  0
TEXT
  5
281
100
AcDbEntity
  8
_0-4_図枠
  6
CONTINUOUS
 62
     0
100
AcDbText
 10
660.5
 20
139.5
 40
5
  1
375
  7
STANDARD
100
AcDbText
  0
TEXT
  5
282
100
AcDbEntity
  8
_0-4_図枠
  6
CONTINUOUS
 62
     0
100
AcDbText
 10
660.5
 20
157.5
 40
5
  1
325
  7
STANDARD
100
AcDbText
  0
TEXT
  5
283
100
AcDbEntity
  8
_0-4_図枠
  6
CONTINUOUS
 62
     0
100
AcDbText
 10
660.5
 20
166.5
 40
5
  1
300
  7
STANDARD
100
AcDbText
  0
TEXT
  5
284
100
AcDbEntity
  8
_0-4_図枠
  6
CONTINUOUS
 62
     0
100
AcDbText
 10
692.25
 20
148.5
 40
5
  1
68
  7
STANDARD
100
AcDbText
  0
TEXT
  5
285
100
AcDbEntity
  8
_0-4_図枠
  6
CONTINUOUS
 62
     0
100
AcDbText
 10
692.25
 20
139.5
 40
5
  1
70
  7
STANDARD
100
AcDbText
  0
TEXT
  5
286
100
AcDbEntity
  8
_0-4_図枠
  6
CONTINUOUS
 62
     0
100
AcDbText
 10
692.25
 20
157.5
 40
5
  1
67
  7
STANDARD
100
AcDbText
  0
TEXT
  5
287
100
AcDbEntity
  8
_0-4_図枠
  6
CONTINUOUS
 62
     0
100
AcDbText
 10
692.25
 20
166.5
 40
5
  1
66
  7
STANDARD
100
AcDbText
  0
TEXT
  5
288
100
AcDbEntity
  8
_0-4_図枠
  6
CONTINUOUS
 62
     0
100
AcDbText
 10
660.5
 20
184.5
 40
5
  1
250
  7
STANDARD
100
AcDbText
  0
TEXT
  5
289
100
AcDbEntity
  8
_0-4_図枠
  6
CONTINUOUS
 62
     0
100
AcDbText
 10
660.5
 20
193.5
 40
5
  1
225
  7
STANDARD
100
AcDbText
  0
TEXT
  5
28A
100
AcDbEntity
  8
_0-4_図枠
  6
CONTINUOUS
 62
     0
100
AcDbText
 10
660.5
 20
202.5
 40
5
  1
200
  7
STANDARD
100
AcDbText
  0
TEXT
  5
28B
100
AcDbEntity
  8
_0-4_図枠
  6
CONTINUOUS
 62
     0
100
AcDbText
 10
660.5
 20
211.5
 40
5
  1
175
  7
STANDARD
100
AcDbText
  0
TEXT
  5
28C
100
AcDbEntity
  8
_0-4_図枠
  6
CONTINUOUS
 62
     0
100
AcDbText
 10
692.25
 20
184.5
 40
5
  1
63
  7
STANDARD
100
AcDbText
  0
TEXT
  5
28D
100
AcDbEntity
  8
_0-4_図枠
  6
CONTINUOUS
 62
     0
100
AcDbText
 10
692.25
 20
193.5
 40
5
  1
62
  7
STANDARD
100
AcDbText
  0
TEXT
  5
28E
100
AcDbEntity
  8
_0-4_図枠
  6
CONTINUOUS
 62
     0
100
AcDbText
 10
692.25
 20
202.5
 40
5
  1
61
  7
STANDARD
100
AcDbText
  0
TEXT
  5
28F
100
AcDbEntity
  8
_0-4_図枠
  6
CONTINUOUS
 62
     0
100
AcDbText
 10
692.25
 20
211.5
 40
5
  1
59
  7
STANDARD
100
AcDbText
  0
TEXT
  5
290
100
AcDbEntity
  8
_0-4_図枠
  6
CONTINUOUS
 62
     0
100
AcDbText
 10
630.5
 20
229.5
 40
5
  1
235
  7
STANDARD
100
AcDbText
  0
TEXT
  5
291
100
AcDbEntity
  8
_0-4_図枠
  6
CONTINUOUS
 62
     0
100
AcDbText
 10
600.5
 20
229.5
 40
5
  1
250
  7
STANDARD
100
AcDbText
  0
TEXT
  5
292
100
AcDbEntity
  8
_0-4_図枠
  6
CONTINUOUS
 62
     0
100
AcDbText
 10
600.5
 20
238.5
 40
5
  1
225
  7
STANDARD
100
AcDbText
  0
TEXT
  5
293
100
AcDbEntity
  8
_0-4_図枠
  6
CONTINUOUS
 62
     0
100
AcDbText
 10
602.5
 20
247.5
 40
5
  1
Ｗ
  7
STANDARD
100
AcDbText
  0
TEXT
  5
294
100
AcDbEntity
  8
_0-4_図枠
  6
CONTINUOUS
 62
     0
100
AcDbText
 10
630.5
 20
238.5
 40
5
  1
210
  7
STANDARD
100
AcDbText
  0
TEXT
  5
295
100
AcDbEntity
  8
_0-4_図枠
  6
CONTINUOUS
 62
     0
100
AcDbText
 10
632.5
 20
247.5
 40
5
  1
Ａ
  7
STANDARD
100
AcDbText
  0
TEXT
  5
296
100
AcDbEntity
  8
_0-4_図枠
  6
CONTINUOUS
 62
     0
100
AcDbText
 10
660.5
 20
229.5
 40
5
  1
125
  7
STANDARD
100
AcDbText
  0
TEXT
  5
297
100
AcDbEntity
  8
_0-4_図枠
  6
CONTINUOUS
 62
     0
100
AcDbText
 10
660.5
 20
238.5
 40
5
  1
100
  7
STANDARD
100
AcDbText
  0
TEXT
  5
298
100
AcDbEntity
  8
_0-4_図枠
  6
CONTINUOUS
 62
     0
100
AcDbText
 10
662.5
 20
247.5
 40
5
  1
Ｃ
  7
STANDARD
100
AcDbText
  0
TEXT
  5
299
100
AcDbEntity
  8
_0-4_図枠
  6
CONTINUOUS
 62
     0
100
AcDbText
 10
692.25
 20
229.5
 40
5
  1
57
  7
STANDARD
100
AcDbText
  0
TEXT
  5
29A
100
AcDbEntity
  8
_0-4_図枠
  6
CONTINUOUS
 62
     0
100
AcDbText
 10
692.25
 20
238.5
 40
5
  1
55
  7
STANDARD
100
AcDbText
  0
TEXT
  5
29B
100
AcDbEntity
  8
_0-4_図枠
  6
CONTINUOUS
 62
     0
100
AcDbText
 10
692.5
 20
247.5
 40
5
  1
Ｄ
  7
STANDARD
100
AcDbText
  0
LINE
  5
29C
100
AcDbEntity
  8
_0-4_図枠
  6
CONTINUOUS
 62
     0
100
AcDbLine
 10
710.5
 20
255
 11
710.5
 21
138
  0
LINE
  5
29D
100
AcDbEntity
  8
_0-4_図枠
  6
CONTINUOUS
 62
     0
100
AcDbLine
 10
740.5
 20
255
 11
740.5
 21
138
  0
TEXT
  5
29E
100
AcDbEntity
  8
_0-4_図枠
  6
CONTINUOUS
 62
     0
100
AcDbText
 10
720.5
 20
220.5
 40
5
  1
117
  7
STANDARD
100
AcDbText
  0
TEXT
  5
29F
100
AcDbEntity
  8
_0-4_図枠
  6
CONTINUOUS
 62
     0
100
AcDbText
 10
720.5
 20
175.5
 40
5
  1
123
  7
STANDARD
100
AcDbText
  0
TEXT
  5
2A0
100
AcDbEntity
  8
_0-4_図枠
  6
CONTINUOUS
 62
     0
100
AcDbText
 10
720.5
 20
148.5
 40
5
  1
127
  7
STANDARD
100
AcDbText
  0
TEXT
  5
2A1
100
AcDbEntity
  8
_0-4_図枠
  6
CONTINUOUS
 62
     0
100
AcDbText
 10
720.5
 20
139.5
 40
5
  1
128
  7
STANDARD
100
AcDbText
  0
TEXT
  5
2A2
100
AcDbEntity
  8
_0-4_図枠
  6
CONTINUOUS
 62
     0
100
AcDbText
 10
720.5
 20
157.5
 40
5
  1
126
  7
STANDARD
100
AcDbText
  0
TEXT
  5
2A3
100
AcDbEntity
  8
_0-4_図枠
  6
CONTINUOUS
 62
     0
100
AcDbText
 10
720.5
 20
166.5
 40
5
  1
124
  7
STANDARD
100
AcDbText
  0
TEXT
  5
2A4
100
AcDbEntity
  8
_0-4_図枠
  6
CONTINUOUS
 62
     0
100
AcDbText
 10
720.5
 20
184.5
 40
5
  1
122
  7
STANDARD
100
AcDbText
  0
TEXT
  5
2A5
100
AcDbEntity
  8
_0-4_図枠
  6
CONTINUOUS
 62
     0
100
AcDbText
 10
720.5
 20
193.5
 40
5
  1
121
  7
STANDARD
100
AcDbText
  0
TEXT
  5
2A6
100
AcDbEntity
  8
_0-4_図枠
  6
CONTINUOUS
 62
     0
100
AcDbText
 10
720.5
 20
202.5
 40
5
  1
119
  7
STANDARD
100
AcDbText
  0
TEXT
  5
2A7
100
AcDbEntity
  8
_0-4_図枠
  6
CONTINUOUS
 62
     0
100
AcDbText
 10
720.5
 20
211.5
 40
5
  1
118
  7
STANDARD
100
AcDbText
  0
TEXT
  5
2A8
100
AcDbEntity
  8
_0-4_図枠
  6
CONTINUOUS
 62
     0
100
AcDbText
 10
720.5
 20
229.5
 40
5
  1
115
  7
STANDARD
100
AcDbText
  0
TEXT
  5
2A9
100
AcDbEntity
  8
_0-4_図枠
  6
CONTINUOUS
 62
     0
100
AcDbText
 10
720.5
 20
238.5
 40
5
  1
114
  7
STANDARD
100
AcDbText
  0
TEXT
  5
2AA
100
AcDbEntity
  8
_0-4_図枠
  6
CONTINUOUS
 62
     0
100
AcDbText
 10
722.5
 20
247.5
 40
5
  1
Ｅ
  7
STANDARD
100
AcDbText
  0
TEXT
  5
2AB
100
AcDbEntity
  8
_0-4_図枠
  6
CONTINUOUS
 62
     0
100
AcDbText
 10
317.0818935557
 20
534.035986274
 40
5
  1
14
  7
STANDARD
100
AcDbText
  0
LINE
  5
2AC
100
AcDbEntity
  8
_0-0_0
  6
CONTINUOUS
 62
     0
100
AcDbLine
 10
359.5
 20
66
 11
150.5
 21
66
  0
LINE
  5
2AD
100
AcDbEntity
  8
_0-0_0
  6
CONTINUOUS
 62
     0
100
AcDbLine
 10
359.5
 20
57
 11
150.5
 21
57
  0
LINE
  5
2AE
100
AcDbEntity
  8
_0-0_0
  6
CONTINUOUS
 62
     0
100
AcDbLine
 10
359.5
 20
147
 11
150.5
 21
147
  0
LINE
  5
2AF
100
AcDbEntity
  8
_0-0_0
  6
CONTINUOUS
 62
     0
100
AcDbLine
 10
359.5
 20
156
 11
150.5
 21
156
  0
TEXT
  5
2B0
100
AcDbEntity
  8
_0-0_0
  6
CONTINUOUS
 62
     0
100
AcDbText
 10
434.5
 20
255.6433670109
 40
5
  1
（2000mmセット）
  7
STANDARD
100
AcDbText
  0
TEXT
  5
2B1
100
AcDbEntity
  8
_0-0_0
  6
CONTINUOUS
 62
     0
100
AcDbText
 10
439.25
 20
211.5
 40
5
  1
2000
  7
STANDARD
100
AcDbText
  0
TEXT
  5
2B2
100
AcDbEntity
  8
_0-0_0
  6
CONTINUOUS
 62
     0
100
AcDbText
 10
439.25
 20
220.5
 40
5
  1
2000
  7
STANDARD
100
AcDbText
  0
TEXT
  5
2B3
100
AcDbEntity
  8
_0-0_0
  6
CONTINUOUS
 62
     0
100
AcDbText
 10
439.25
 20
229.5
 40
5
  1
2000
  7
STANDARD
100
AcDbText
  0
TEXT
  5
2B4
100
AcDbEntity
  8
_0-0_0
  6
CONTINUOUS
 62
     0
100
AcDbText
 10
439.25
 20
238.5
 40
5
  1
2000
  7
STANDARD
100
AcDbText
  0
TEXT
  5
2B5
100
AcDbEntity
  8
_0-0_0
  6
CONTINUOUS
 62
     0
100
AcDbText
 10
432.25
 20
247.5
 40
5
  1
定尺(mm)
  7
STANDARD
100
AcDbText
  0
LINE
  5
2B6
100
AcDbEntity
  8
_0-0_0
  6
CONTINUOUS
 62
     0
100
AcDbLine
 10
428.5
 20
210
 11
495.5
 21
210
  0
LINE
  5
2B7
100
AcDbEntity
  8
_0-0_0
  6
CONTINUOUS
 62
     0
100
AcDbLine
 10
428.5
 20
219
 11
495.5
 21
219
  0
LINE
  5
2B8
100
AcDbEntity
  8
_0-0_0
  6
CONTINUOUS
 62
     0
100
AcDbLine
 10
428.5
 20
228
 11
495.5
 21
228
  0
LINE
  5
2B9
100
AcDbEntity
  8
_0-0_0
  6
CONTINUOUS
 62
     0
100
AcDbLine
 10
428.5
 20
237
 11
495.5
 21
237
  0
LINE
  5
2BA
100
AcDbEntity
  8
_0-0_0
  6
CONTINUOUS
 62
     0
100
AcDbLine
 10
428.5
 20
246
 11
495.5
 21
246
  0
LINE
  5
2BB
100
AcDbEntity
  8
_0-0_0
  6
CONTINUOUS
 62
     0
100
AcDbLine
 10
428.5
 20
255
 11
495.5
 21
255
  0
LINE
  5
2BC
100
AcDbEntity
  8
_0-0_0
  6
CONTINUOUS
 62
     0
100
AcDbLine
 10
359.5
 20
75
 11
150.5
 21
75
  0
LINE
  5
2BD
100
AcDbEntity
  8
_0-0_0
  6
CONTINUOUS
 62
     0
100
AcDbLine
 10
359.5
 20
84
 11
150.5
 21
84
  0
LINE
  5
2BE
100
AcDbEntity
  8
_0-0_0
  6
CONTINUOUS
 62
     0
100
AcDbLine
 10
359.5
 20
93
 11
150.5
 21
93
  0
LINE
  5
2BF
100
AcDbEntity
  8
_0-0_0
  6
CONTINUOUS
 62
     0
100
AcDbLine
 10
359.5
 20
102
 11
150.5
 21
102
  0
LINE
  5
2C0
100
AcDbEntity
  8
_0-0_0
  6
CONTINUOUS
 62
     0
100
AcDbLine
 10
359.5
 20
111
 11
150.5
 21
111
  0
LINE
  5
2C1
100
AcDbEntity
  8
_0-0_0
  6
CONTINUOUS
 62
     0
100
AcDbLine
 10
359.5
 20
120
 11
150.5
 21
120
  0
LINE
  5
2C2
100
AcDbEntity
  8
_0-0_0
  6
CONTINUOUS
 62
     0
100
AcDbLine
 10
359.5
 20
129
 11
150.5
 21
129
  0
LINE
  5
2C3
100
AcDbEntity
  8
_0-0_0
  6
CONTINUOUS
 62
     0
100
AcDbLine
 10
359.5
 20
138
 11
150.5
 21
138
  0
LINE
  5
2C4
100
AcDbEntity
  8
_0-0_0
  6
CONTINUOUS
 62
     0
100
AcDbLine
 10
359.5
 20
165
 11
150.5
 21
165
  0
LINE
  5
2C5
100
AcDbEntity
  8
_0-0_0
  6
CONTINUOUS
 62
     0
100
AcDbLine
 10
359.5
 20
174
 11
150.5
 21
174
  0
LINE
  5
2C6
100
AcDbEntity
  8
_0-0_0
  6
CONTINUOUS
 62
     0
100
AcDbLine
 10
359.5
 20
183
 11
150.5
 21
183
  0
LINE
  5
2C7
100
AcDbEntity
  8
_0-0_0
  6
CONTINUOUS
 62
     0
100
AcDbLine
 10
359.5
 20
192
 11
150.5
 21
192
  0
LINE
  5
2C8
100
AcDbEntity
  8
_0-0_0
  6
CONTINUOUS
 62
     0
100
AcDbLine
 10
359.5
 20
201
 11
150.5
 21
201
  0
LINE
  5
2C9
100
AcDbEntity
  8
_0-0_0
  6
CONTINUOUS
 62
     0
100
AcDbLine
 10
359.5
 20
210
 11
150.5
 21
210
  0
LINE
  5
2CA
100
AcDbEntity
  8
_0-0_0
  6
CONTINUOUS
 62
     0
100
AcDbLine
 10
359.5
 20
219
 11
150.5
 21
219
  0
LINE
  5
2CB
100
AcDbEntity
  8
_0-0_0
  6
CONTINUOUS
 62
     0
100
AcDbLine
 10
359.5
 20
228
 11
150.5
 21
228
  0
LINE
  5
2CC
100
AcDbEntity
  8
_0-0_0
  6
CONTINUOUS
 62
     0
100
AcDbLine
 10
359.5
 20
237
 11
150.5
 21
237
  0
LINE
  5
2CD
100
AcDbEntity
  8
_0-0_0
  6
CONTINUOUS
 62
     0
100
AcDbLine
 10
359.5
 20
246
 11
150.5
 21
246
  0
LINE
  5
2CE
100
AcDbEntity
  8
_0-0_0
  6
CONTINUOUS
 62
     0
100
AcDbLine
 10
359.5
 20
255
 11
150.5
 21
255
  0
TEXT
  5
2CF
100
AcDbEntity
  8
_0-0_0
  6
CONTINUOUS
 62
     0
100
AcDbText
 10
169.5
 20
211.5
 40
5
  1
ＦＹＫ壁フレーム
  7
STANDARD
100
AcDbText
  0
TEXT
  5
2D0
100
AcDbEntity
  8
_0-0_0
  6
CONTINUOUS
 62
     0
100
AcDbText
 10
169.5
 20
220.5
 40
5
  1
ＦＹＹフレーム
  7
STANDARD
100
AcDbText
  0
TEXT
  5
2D1
100
AcDbEntity
  8
_0-0_0
  6
CONTINUOUS
 62
     0
100
AcDbText
 10
169.5
 20
229.5
 40
5
  1
ＦＹＫサイドキャップＡ
  7
STANDARD
100
AcDbText
  0
TEXT
  5
2D2
100
AcDbEntity
  8
_0-0_0
  6
CONTINUOUS
 62
     0
100
AcDbText
 10
169.5
 20
238.5
 40
5
  1
ＦＹＫキャップＡ
  7
STANDARD
100
AcDbText
  0
TEXT
  5
2D3
100
AcDbEntity
  8
_0-0_0
  6
CONTINUOUS
 62
     0
100
AcDbText
 10
154.25
 20
67.5
 40
5
  1
20
  7
STANDARD
100
AcDbText
  0
TEXT
  5
2D4
100
AcDbEntity
  8
_0-0_0
  6
CONTINUOUS
 62
     0
100
AcDbText
 10
154.25
 20
76.5
 40
5
  1
19
  7
STANDARD
100
AcDbText
  0
TEXT
  5
2D5
100
AcDbEntity
  8
_0-0_0
  6
CONTINUOUS
 62
     0
100
AcDbText
 10
154.25
 20
103.5
 40
5
  1
16
  7
STANDARD
100
AcDbText
  0
TEXT
  5
2D6
100
AcDbEntity
  8
_0-0_0
  6
CONTINUOUS
 62
     0
100
AcDbText
 10
154.25
 20
94.5
 40
5
  1
17
  7
STANDARD
100
AcDbText
  0
TEXT
  5
2D7
100
AcDbEntity
  8
_0-0_0
  6
CONTINUOUS
 62
     0
100
AcDbText
 10
154.25
 20
85.5
 40
5
  1
18
  7
STANDARD
100
AcDbText
  0
TEXT
  5
2D8
100
AcDbEntity
  8
_0-0_0
  6
CONTINUOUS
 62
     0
100
AcDbText
 10
154.25
 20
112.5
 40
5
  1
15
  7
STANDARD
100
AcDbText
  0
TEXT
  5
2D9
100
AcDbEntity
  8
_0-0_0
  6
CONTINUOUS
 62
     0
100
AcDbText
 10
154.25
 20
121.5
 40
5
  1
14
  7
STANDARD
100
AcDbText
  0
TEXT
  5
2DA
100
AcDbEntity
  8
_0-0_0
  6
CONTINUOUS
 62
     0
100
AcDbText
 10
154.25
 20
220.5
 40
5
  1
 3
  7
STANDARD
100
AcDbText
  0
TEXT
  5
2DB
100
AcDbEntity
  8
_0-0_0
  6
CONTINUOUS
 62
     0
100
AcDbText
 10
154.25
 20
175.5
 40
5
  1
 8
  7
STANDARD
100
AcDbText
  0
TEXT
  5
2DC
100
AcDbEntity
  8
_0-0_0
  6
CONTINUOUS
 62
     0
100
AcDbText
 10
154.25
 20
148.5
 40
5
  1
11
  7
STANDARD
100
AcDbText
  0
TEXT
  5
2DD
100
AcDbEntity
  8
_0-0_0
  6
CONTINUOUS
 62
     0
100
AcDbText
 10
154.25
 20
139.5
 40
5
  1
12
  7
STANDARD
100
AcDbText
  0
TEXT
  5
2DE
100
AcDbEntity
  8
_0-0_0
  6
CONTINUOUS
 62
     0
100
AcDbText
 10
154.25
 20
130.5
 40
5
  1
13
  7
STANDARD
100
AcDbText
  0
TEXT
  5
2DF
100
AcDbEntity
  8
_0-0_0
  6
CONTINUOUS
 62
     0
100
AcDbText
 10
154.25
 20
157.5
 40
5
  1
10
  7
STANDARD
100
AcDbText
  0
TEXT
  5
2E0
100
AcDbEntity
  8
_0-0_0
  6
CONTINUOUS
 62
     0
100
AcDbText
 10
154.25
 20
166.5
 40
5
  1
 9
  7
STANDARD
100
AcDbText
  0
TEXT
  5
2E1
100
AcDbEntity
  8
_0-0_0
  6
CONTINUOUS
 62
     0
100
AcDbText
 10
154.25
 20
184.5
 40
5
  1
 7
  7
STANDARD
100
AcDbText
  0
TEXT
  5
2E2
100
AcDbEntity
  8
_0-0_0
  6
CONTINUOUS
 62
     0
100
AcDbText
 10
154.25
 20
193.5
 40
5
  1
 6
  7
STANDARD
100
AcDbText
  0
TEXT
  5
2E3
100
AcDbEntity
  8
_0-0_0
  6
CONTINUOUS
 62
     0
100
AcDbText
 10
154.25
 20
202.5
 40
5
  1
 5
  7
STANDARD
100
AcDbText
  0
TEXT
  5
2E4
100
AcDbEntity
  8
_0-0_0
  6
CONTINUOUS
 62
     0
100
AcDbText
 10
154.25
 20
211.5
 40
5
  1
 4
  7
STANDARD
100
AcDbText
  0
TEXT
  5
2E5
100
AcDbEntity
  8
_0-0_0
  6
CONTINUOUS
 62
     0
100
AcDbText
 10
154.25
 20
229.5
 40
5
  1
 2
  7
STANDARD
100
AcDbText
  0
TEXT
  5
2E6
100
AcDbEntity
  8
_0-0_0
  6
CONTINUOUS
 62
     0
100
AcDbText
 10
154.25
 20
238.5
 40
5
  1
 1
  7
STANDARD
100
AcDbText
  0
TEXT
  5
2E7
100
AcDbEntity
  8
_0-0_0
  6
CONTINUOUS
 62
     0
100
AcDbText
 10
152.5
 20
247.5
 40
5
  1
No.
  7
STANDARD
100
AcDbText
  0
TEXT
  5
2E8
100
AcDbEntity
  8
_0-0_0
  6
CONTINUOUS
 62
     0
100
AcDbText
 10
302
 20
247.5
 40
5
  1
規　格
  7
STANDARD
100
AcDbText
  0
TEXT
  5
2E9
100
AcDbEntity
  8
_0-0_0
  6
CONTINUOUS
 62
     0
100
AcDbText
 10
201
 20
247.5
 40
5
  1
部材名称
  7
STANDARD
100
AcDbText
  0
TEXT
  5
2EA
100
AcDbEntity
  8
_0-0_0
  6
CONTINUOUS
 62
     0
100
AcDbText
 10
417.5
 20
220.5
 40
5
  1
〃
  7
STANDARD
100
AcDbText
  0
TEXT
  5
2EB
100
AcDbEntity
  8
_0-0_0
  6
CONTINUOUS
 62
     0
100
AcDbText
 10
401.25
 20
220.5
 40
5
  1
 1
  7
STANDARD
100
AcDbText
  0
TEXT
  5
2EC
100
AcDbEntity
  8
_0-0_0
  6
CONTINUOUS
 62
     0
100
AcDbText
 10
371.25
 20
220.5
 40
5
  1
3000
  7
STANDARD
100
AcDbText
  0
TEXT
  5
2ED
100
AcDbEntity
  8
_0-0_0
  6
CONTINUOUS
 62
     0
100
AcDbText
 10
371.25
 20
211.5
 40
5
  1
3000
  7
STANDARD
100
AcDbText
  0
LINE
  5
2EE
100
AcDbEntity
  8
_0-0_0
  6
CONTINUOUS
 62
     0
100
AcDbLine
 10
427.5
 20
210
 11
360.5
 21
210
  0
LINE
  5
2EF
100
AcDbEntity
  8
_0-0_0
  6
CONTINUOUS
 62
     0
100
AcDbLine
 10
427.5
 20
219
 11
360.5
 21
219
  0
TEXT
  5
2F0
100
AcDbEntity
  8
_0-0_0
  6
CONTINUOUS
 62
     0
100
AcDbText
 10
401.25
 20
211.5
 40
5
  1
 1
  7
STANDARD
100
AcDbText
  0
TEXT
  5
2F1
100
AcDbEntity
  8
_0-0_0
  6
CONTINUOUS
 62
     0
100
AcDbText
 10
417.5
 20
211.5
 40
5
  1
〃
  7
STANDARD
100
AcDbText
  0
TEXT
  5
2F2
100
AcDbEntity
  8
_0-0_0
  6
CONTINUOUS
 62
     0
100
AcDbText
 10
366.5
 20
255.6433670109
 40
5
  1
（3000mmセット）
  7
STANDARD
100
AcDbText
  0
TEXT
  5
2F3
100
AcDbEntity
  8
_0-0_0
  6
CONTINUOUS
 62
     0
100
AcDbText
 10
371.25
 20
229.5
 40
5
  1
3000
  7
STANDARD
100
AcDbText
  0
TEXT
  5
2F4
100
AcDbEntity
  8
_0-0_0
  6
CONTINUOUS
 62
     0
100
AcDbText
 10
371.25
 20
238.5
 40
5
  1
3000
  7
STANDARD
100
AcDbText
  0
TEXT
  5
2F5
100
AcDbEntity
  8
_0-0_0
  6
CONTINUOUS
 62
     0
100
AcDbText
 10
364.25
 20
247.5
 40
5
  1
定尺(mm)
  7
STANDARD
100
AcDbText
  0
LINE
  5
2F6
100
AcDbEntity
  8
_0-0_0
  6
CONTINUOUS
 62
     0
100
AcDbLine
 10
427.5
 20
228
 11
360.5
 21
228
  0
LINE
  5
2F7
100
AcDbEntity
  8
_0-0_0
  6
CONTINUOUS
 62
     0
100
AcDbLine
 10
427.5
 20
237
 11
360.5
 21
237
  0
LINE
  5
2F8
100
AcDbEntity
  8
_0-0_0
  6
CONTINUOUS
 62
     0
100
AcDbLine
 10
427.5
 20
246
 11
360.5
 21
246
  0
LINE
  5
2F9
100
AcDbEntity
  8
_0-0_0
  6
CONTINUOUS
 62
     0
100
AcDbLine
 10
427.5
 20
255
 11
360.5
 21
255
  0
TEXT
  5
2FA
100
AcDbEntity
  8
_0-0_0
  6
CONTINUOUS
 62
     0
100
AcDbText
 10
401.25
 20
229.5
 40
5
  1
 1
  7
STANDARD
100
AcDbText
  0
TEXT
  5
2FB
100
AcDbEntity
  8
_0-0_0
  6
CONTINUOUS
 62
     0
100
AcDbText
 10
401.25
 20
238.5
 40
5
  1
 1
  7
STANDARD
100
AcDbText
  0
TEXT
  5
2FC
100
AcDbEntity
  8
_0-0_0
  6
CONTINUOUS
 62
     0
100
AcDbText
 10
398
 20
247.5
 40
5
  1
入数
  7
STANDARD
100
AcDbText
  0
TEXT
  5
2FD
100
AcDbEntity
  8
_0-0_0
  6
CONTINUOUS
 62
     0
100
AcDbText
 10
417.5
 20
229.5
 40
5
  1
〃
  7
STANDARD
100
AcDbText
  0
TEXT
  5
2FE
100
AcDbEntity
  8
_0-0_0
  6
CONTINUOUS
 62
     0
100
AcDbText
 10
417.5
 20
238.5
 40
5
  1
本
  7
STANDARD
100
AcDbText
  0
TEXT
  5
2FF
100
AcDbEntity
  8
_0-0_0
  6
CONTINUOUS
 62
     0
100
AcDbText
 10
414
 20
247.5
 40
5
  1
単位
  7
STANDARD
100
AcDbText
  0
TEXT
  5
300
100
AcDbEntity
  8
_0-0_0
  6
CONTINUOUS
 62
     0
100
AcDbText
 10
485.5
 20
220.5
 40
5
  1
〃
  7
STANDARD
100
AcDbText
  0
TEXT
  5
301
100
AcDbEntity
  8
_0-0_0
  6
CONTINUOUS
 62
     0
100
AcDbText
 10
469.25
 20
220.5
 40
5
  1
 1
  7
STANDARD
100
AcDbText
  0
TEXT
  5
302
100
AcDbEntity
  8
_0-0_0
  6
CONTINUOUS
 62
     0
100
AcDbText
 10
469.25
 20
211.5
 40
5
  1
 1
  7
STANDARD
100
AcDbText
  0
TEXT
  5
303
100
AcDbEntity
  8
_0-0_0
  6
CONTINUOUS
 62
     0
100
AcDbText
 10
485.5
 20
211.5
 40
5
  1
〃
  7
STANDARD
100
AcDbText
  0
TEXT
  5
304
100
AcDbEntity
  8
_0-0_0
  6
CONTINUOUS
 62
     0
100
AcDbText
 10
469.25
 20
229.5
 40
5
  1
 1
  7
STANDARD
100
AcDbText
  0
TEXT
  5
305
100
AcDbEntity
  8
_0-0_0
  6
CONTINUOUS
 62
     0
100
AcDbText
 10
469.25
 20
238.5
 40
5
  1
 1
  7
STANDARD
100
AcDbText
  0
TEXT
  5
306
100
AcDbEntity
  8
_0-0_0
  6
CONTINUOUS
 62
     0
100
AcDbText
 10
466
 20
247.5
 40
5
  1
入数
  7
STANDARD
100
AcDbText
  0
TEXT
  5
307
100
AcDbEntity
  8
_0-0_0
  6
CONTINUOUS
 62
     0
100
AcDbText
 10
485.5
 20
229.5
 40
5
  1
〃
  7
STANDARD
100
AcDbText
  0
TEXT
  5
308
100
AcDbEntity
  8
_0-0_0
  6
CONTINUOUS
 62
     0
100
AcDbText
 10
485.5
 20
238.5
 40
5
  1
本
  7
STANDARD
100
AcDbText
  0
TEXT
  5
309
100
AcDbEntity
  8
_0-0_0
  6
CONTINUOUS
 62
     0
100
AcDbText
 10
482
 20
247.5
 40
5
  1
単位
  7
STANDARD
100
AcDbText
  0
LINE
  5
30A
100
AcDbEntity
  8
_0-0_0
  6
CONTINUOUS
 62
     0
100
AcDbLine
 10
428.5
 20
165
 11
495.5
 21
165
  0
LINE
  5
30B
100
AcDbEntity
  8
_0-0_0
  6
CONTINUOUS
 62
     0
100
AcDbLine
 10
428.5
 20
174
 11
495.5
 21
174
  0
LINE
  5
30C
100
AcDbEntity
  8
_0-0_0
  6
CONTINUOUS
 62
     0
100
AcDbLine
 10
428.5
 20
183
 11
495.5
 21
183
  0
LINE
  5
30D
100
AcDbEntity
  8
_0-0_0
  6
CONTINUOUS
 62
     0
100
AcDbLine
 10
428.5
 20
192
 11
495.5
 21
192
  0
LINE
  5
30E
100
AcDbEntity
  8
_0-0_0
  6
CONTINUOUS
 62
     0
100
AcDbLine
 10
428.5
 20
201
 11
495.5
 21
201
  0
LINE
  5
30F
100
AcDbEntity
  8
_0-0_0
  6
CONTINUOUS
 62
     0
100
AcDbLine
 10
428.5
 20
210
 11
495.5
 21
210
  0
TEXT
  5
310
100
AcDbEntity
  8
_0-0_0
  6
CONTINUOUS
 62
     0
100
AcDbText
 10
169.5
 20
166.5
 40
5
  1
ＦＹＫｻｲﾄﾞｷｬｯﾌﾟ ｼﾞｮｲﾝﾄ
  7
STANDARD
100
AcDbText
  0
TEXT
  5
311
100
AcDbEntity
  8
_0-0_0
  6
CONTINUOUS
 62
     0
100
AcDbText
 10
169.5
 20
175.5
 40
5
  1
ＦＹＫ水切ジョイント
  7
STANDARD
100
AcDbText
  0
TEXT
  5
312
100
AcDbEntity
  8
_0-0_0
  6
CONTINUOUS
 62
     0
100
AcDbText
 10
169.5
 20
184.5
 40
5
  1
ＦＹＹフレームナット
  7
STANDARD
100
AcDbText
  0
TEXT
  5
313
100
AcDbEntity
  8
_0-0_0
  6
CONTINUOUS
 62
     0
100
AcDbText
 10
169.5
 20
193.5
 40
5
  1
ＦＹＹホルダースプリング
  7
STANDARD
100
AcDbText
  0
TEXT
  5
314
100
AcDbEntity
  8
_0-0_0
  6
CONTINUOUS
 62
     0
100
AcDbText
 10
169.5
 20
202.5
 40
5
  1
ＦＹＫホルダー
  7
STANDARD
100
AcDbText
  0
LINE
  5
315
100
AcDbEntity
  8
_0-0_0
  6
CONTINUOUS
 62
     0
100
AcDbLine
 10
427.5
 20
165
 11
360.5
 21
165
  0
LINE
  5
316
100
AcDbEntity
  8
_0-0_0
  6
CONTINUOUS
 62
     0
100
AcDbLine
 10
427.5
 20
174
 11
360.5
 21
174
  0
LINE
  5
317
100
AcDbEntity
  8
_0-0_0
  6
CONTINUOUS
 62
     0
100
AcDbLine
 10
427.5
 20
183
 11
360.5
 21
183
  0
LINE
  5
318
100
AcDbEntity
  8
_0-0_0
  6
CONTINUOUS
 62
     0
100
AcDbLine
 10
427.5
 20
192
 11
360.5
 21
192
  0
LINE
  5
319
100
AcDbEntity
  8
_0-0_0
  6
CONTINUOUS
 62
     0
100
AcDbLine
 10
427.5
 20
201
 11
360.5
 21
201
  0
LINE
  5
31A
100
AcDbEntity
  8
_0-0_0
  6
CONTINUOUS
 62
     0
100
AcDbLine
 10
427.5
 20
210
 11
360.5
 21
210
  0
TEXT
  5
31B
100
AcDbEntity
  8
_0-0_0
  6
CONTINUOUS
 62
     0
100
AcDbText
 10
401.25
 20
184.5
 40
5
  1
 6
  7
STANDARD
100
AcDbText
  0
TEXT
  5
31C
100
AcDbEntity
  8
_0-0_0
  6
CONTINUOUS
 62
     0
100
AcDbText
 10
401.25
 20
166.5
 40
5
  1
 1
  7
STANDARD
100
AcDbText
  0
TEXT
  5
31D
100
AcDbEntity
  8
_0-0_0
  6
CONTINUOUS
 62
     0
100
AcDbText
 10
401.25
 20
175.5
 40
5
  1
 1
  7
STANDARD
100
AcDbText
  0
TEXT
  5
31E
100
AcDbEntity
  8
_0-0_0
  6
CONTINUOUS
 62
     0
100
AcDbText
 10
417.5
 20
166.5
 40
5
  1
〃
  7
STANDARD
100
AcDbText
  0
TEXT
  5
31F
100
AcDbEntity
  8
_0-0_0
  6
CONTINUOUS
 62
     0
100
AcDbText
 10
417.5
 20
175.5
 40
5
  1
〃
  7
STANDARD
100
AcDbText
  0
TEXT
  5
320
100
AcDbEntity
  8
_0-0_0
  6
CONTINUOUS
 62
     0
100
AcDbText
 10
401.25
 20
193.5
 40
5
  1
 6
  7
STANDARD
100
AcDbText
  0
TEXT
  5
321
100
AcDbEntity
  8
_0-0_0
  6
CONTINUOUS
 62
     0
100
AcDbText
 10
401.25
 20
202.5
 40
5
  1
 6
  7
STANDARD
100
AcDbText
  0
TEXT
  5
322
100
AcDbEntity
  8
_0-0_0
  6
CONTINUOUS
 62
     0
100
AcDbText
 10
417.5
 20
193.5
 40
5
  1
〃
  7
STANDARD
100
AcDbText
  0
TEXT
  5
323
100
AcDbEntity
  8
_0-0_0
  6
CONTINUOUS
 62
     0
100
AcDbText
 10
417.5
 20
184.5
 40
5
  1
〃
  7
STANDARD
100
AcDbText
  0
TEXT
  5
324
100
AcDbEntity
  8
_0-0_0
  6
CONTINUOUS
 62
     0
100
AcDbText
 10
417.5
 20
202.5
 40
5
  1
〃
  7
STANDARD
100
AcDbText
  0
TEXT
  5
325
100
AcDbEntity
  8
_0-0_0
  6
CONTINUOUS
 62
     0
100
AcDbText
 10
469.25
 20
184.5
 40
5
  1
 4
  7
STANDARD
100
AcDbText
  0
TEXT
  5
326
100
AcDbEntity
  8
_0-0_0
  6
CONTINUOUS
 62
     0
100
AcDbText
 10
469.25
 20
166.5
 40
5
  1
 1
  7
STANDARD
100
AcDbText
  0
TEXT
  5
327
100
AcDbEntity
  8
_0-0_0
  6
CONTINUOUS
 62
     0
100
AcDbText
 10
469.25
 20
175.5
 40
5
  1
 1
  7
STANDARD
100
AcDbText
  0
TEXT
  5
328
100
AcDbEntity
  8
_0-0_0
  6
CONTINUOUS
 62
     0
100
AcDbText
 10
485.5
 20
166.5
 40
5
  1
〃
  7
STANDARD
100
AcDbText
  0
TEXT
  5
329
100
AcDbEntity
  8
_0-0_0
  6
CONTINUOUS
 62
     0
100
AcDbText
 10
485.5
 20
175.5
 40
5
  1
〃
  7
STANDARD
100
AcDbText
  0
TEXT
  5
32A
100
AcDbEntity
  8
_0-0_0
  6
CONTINUOUS
 62
     0
100
AcDbText
 10
469.25
 20
193.5
 40
5
  1
 4
  7
STANDARD
100
AcDbText
  0
TEXT
  5
32B
100
AcDbEntity
  8
_0-0_0
  6
CONTINUOUS
 62
     0
100
AcDbText
 10
469.25
 20
202.5
 40
5
  1
 4
  7
STANDARD
100
AcDbText
  0
TEXT
  5
32C
100
AcDbEntity
  8
_0-0_0
  6
CONTINUOUS
 62
     0
100
AcDbText
 10
485.5
 20
193.5
 40
5
  1
〃
  7
STANDARD
100
AcDbText
  0
TEXT
  5
32D
100
AcDbEntity
  8
_0-0_0
  6
CONTINUOUS
 62
     0
100
AcDbText
 10
485.5
 20
184.5
 40
5
  1
〃
  7
STANDARD
100
AcDbText
  0
TEXT
  5
32E
100
AcDbEntity
  8
_0-0_0
  6
CONTINUOUS
 62
     0
100
AcDbText
 10
485.5
 20
202.5
 40
5
  1
〃
  7
STANDARD
100
AcDbText
  0
TEXT
  5
32F
100
AcDbEntity
  8
_0-0_0
  6
CONTINUOUS
 62
     0
100
AcDbText
 10
169.5
 20
157.5
 40
5
  1
止水補助板
  7
STANDARD
100
AcDbText
  0
TEXT
  5
330
100
AcDbEntity
  8
_0-0_0
  6
CONTINUOUS
 62
     0
100
AcDbText
 10
439.25
 20
157.5
 40
5
  1
2100
  7
STANDARD
100
AcDbText
  0
TEXT
  5
331
100
AcDbEntity
  8
_0-0_0
  6
CONTINUOUS
 62
     0
100
AcDbText
 10
371.25
 20
157.5
 40
5
  1
3100
  7
STANDARD
100
AcDbText
  0
TEXT
  5
332
100
AcDbEntity
  8
_0-0_0
  6
CONTINUOUS
 62
     0
100
AcDbText
 10
401.25
 20
157.5
 40
5
  1
 1
  7
STANDARD
100
AcDbText
  0
TEXT
  5
333
100
AcDbEntity
  8
_0-0_0
  6
CONTINUOUS
 62
     0
100
AcDbText
 10
417.5
 20
157.5
 40
5
  1
〃
  7
STANDARD
100
AcDbText
  0
TEXT
  5
334
100
AcDbEntity
  8
_0-0_0
  6
CONTINUOUS
 62
     0
100
AcDbText
 10
469.25
 20
157.5
 40
5
  1
 1
  7
STANDARD
100
AcDbText
  0
TEXT
  5
335
100
AcDbEntity
  8
_0-0_0
  6
CONTINUOUS
 62
     0
100
AcDbText
 10
485.5
 20
157.5
 40
5
  1
〃
  7
STANDARD
100
AcDbText
  0
LINE
  5
336
100
AcDbEntity
  8
_0-0_0
  6
CONTINUOUS
 62
     0
100
AcDbLine
 10
428.5
 20
147
 11
495.5
 21
147
  0
LINE
  5
337
100
AcDbEntity
  8
_0-0_0
  6
CONTINUOUS
 62
     0
100
AcDbLine
 10
428.5
 20
156
 11
495.5
 21
156
  0
LINE
  5
338
100
AcDbEntity
  8
_0-0_0
  6
CONTINUOUS
 62
     0
100
AcDbLine
 10
427.5
 20
147
 11
360.5
 21
147
  0
LINE
  5
339
100
AcDbEntity
  8
_0-0_0
  6
CONTINUOUS
 62
     0
100
AcDbLine
 10
427.5
 20
156
 11
360.5
 21
156
  0
TEXT
  5
33A
100
AcDbEntity
  8
_0-0_0
  6
CONTINUOUS
 62
     0
100
AcDbText
 10
439.25
 20
58.5
 40
5
  1
6000
  7
STANDARD
100
AcDbText
  0
TEXT
  5
33B
100
AcDbEntity
  8
_0-0_0
  6
CONTINUOUS
 62
     0
100
AcDbText
 10
439.25
 20
139.5
 40
5
  1
2000
  7
STANDARD
100
AcDbText
  0
TEXT
  5
33C
100
AcDbEntity
  8
_0-0_0
  6
CONTINUOUS
 62
     0
100
AcDbText
 10
439.25
 20
148.5
 40
5
  1
2100
  7
STANDARD
100
AcDbText
  0
LINE
  5
33D
100
AcDbEntity
  8
_0-0_0
  6
CONTINUOUS
 62
     0
100
AcDbLine
 10
428.5
 20
57
 11
495.5
 21
57
  0
LINE
  5
33E
100
AcDbEntity
  8
_0-0_0
  6
CONTINUOUS
 62
     0
100
AcDbLine
 10
428.5
 20
66
 11
495.5
 21
66
  0
LINE
  5
33F
100
AcDbEntity
  8
_0-0_0
  6
CONTINUOUS
 62
     0
100
AcDbLine
 10
428.5
 20
75
 11
495.5
 21
75
  0
LINE
  5
340
100
AcDbEntity
  8
_0-0_0
  6
CONTINUOUS
 62
     0
100
AcDbLine
 10
428.5
 20
84
 11
495.5
 21
84
  0
LINE
  5
341
100
AcDbEntity
  8
_0-0_0
  6
CONTINUOUS
 62
     0
100
AcDbLine
 10
428.5
 20
93
 11
495.5
 21
93
  0
LINE
  5
342
100
AcDbEntity
  8
_0-0_0
  6
CONTINUOUS
 62
     0
100
AcDbLine
 10
428.5
 20
102
 11
495.5
 21
102
  0
LINE
  5
343
100
AcDbEntity
  8
_0-0_0
  6
CONTINUOUS
 62
     0
100
AcDbLine
 10
428.5
 20
111
 11
495.5
 21
111
  0
LINE
  5
344
100
AcDbEntity
  8
_0-0_0
  6
CONTINUOUS
 62
     0
100
AcDbLine
 10
428.5
 20
120
 11
495.5
 21
120
  0
LINE
  5
345
100
AcDbEntity
  8
_0-0_0
  6
CONTINUOUS
 62
     0
100
AcDbLine
 10
428.5
 20
129
 11
495.5
 21
129
  0
LINE
  5
346
100
AcDbEntity
  8
_0-0_0
  6
CONTINUOUS
 62
     0
100
AcDbLine
 10
428.5
 20
138
 11
495.5
 21
138
  0
TEXT
  5
347
100
AcDbEntity
  8
_0-0_0
  6
CONTINUOUS
 62
     0
100
AcDbText
 10
169.5
 20
58.5
 40
5
  1
ブチルテープ
  7
STANDARD
100
AcDbText
  0
TEXT
  5
348
100
AcDbEntity
  8
_0-0_0
  6
CONTINUOUS
 62
     0
100
AcDbText
 10
169.5
 20
67.5
 40
5
  1
ステンワッシャー
  7
STANDARD
100
AcDbText
  0
TEXT
  5
349
100
AcDbEntity
  8
_0-0_0
  6
CONTINUOUS
 62
     0
100
AcDbText
 10
169.5
 20
76.5
 40
5
  1
ステスワッシャー
  7
STANDARD
100
AcDbText
  0
TEXT
  5
34A
100
AcDbEntity
  8
_0-0_0
  6
CONTINUOUS
 62
     0
100
AcDbText
 10
169.5
 20
85.5
 40
5
  1
ステンタッピンねじ
  7
STANDARD
100
AcDbText
  0
TEXT
  5
34B
100
AcDbEntity
  8
_0-0_0
  6
CONTINUOUS
 62
     0
100
AcDbText
 10
169.5
 20
94.5
 40
5
  1
アンカープラグ
  7
STANDARD
100
AcDbText
  0
TEXT
  5
34C
100
AcDbEntity
  8
_0-0_0
  6
CONTINUOUS
 62
     0
100
AcDbText
 10
169.5
 20
103.5
 40
5
  1
アジャストアンカー
  7
STANDARD
100
AcDbText
  0
TEXT
  5
34D
100
AcDbEntity
  8
_0-0_0
  6
CONTINUOUS
 62
     0
100
AcDbText
 10
169.5
 20
112.5
 40
5
  1
ステン六角ボルト
  7
STANDARD
100
AcDbText
  0
TEXT
  5
34E
100
AcDbEntity
  8
_0-0_0
  6
CONTINUOUS
 62
     0
100
AcDbText
 10
169.5
 20
139.5
 40
5
  1
ガスケットＮ
  7
STANDARD
100
AcDbText
  0
TEXT
  5
34F
100
AcDbEntity
  8
_0-0_0
  6
CONTINUOUS
 62
     0
100
AcDbText
 10
371.25
 20
58.5
 40
5
  1
6000
  7
STANDARD
100
AcDbText
  0
LINE
  5
350
100
AcDbEntity
  8
_0-0_0
  6
CONTINUOUS
 62
     0
100
AcDbLine
 10
427.5
 20
57
 11
360.5
 21
57
  0
LINE
  5
351
100
AcDbEntity
  8
_0-0_0
  6
CONTINUOUS
 62
     0
100
AcDbLine
 10
427.5
 20
66
 11
360.5
 21
66
  0
LINE
  5
352
100
AcDbEntity
  8
_0-0_0
  6
CONTINUOUS
 62
     0
100
AcDbLine
 10
427.5
 20
75
 11
360.5
 21
75
  0
LINE
  5
353
100
AcDbEntity
  8
_0-0_0
  6
CONTINUOUS
 62
     0
100
AcDbLine
 10
427.5
 20
84
 11
360.5
 21
84
  0
LINE
  5
354
100
AcDbEntity
  8
_0-0_0
  6
CONTINUOUS
 62
     0
100
AcDbLine
 10
427.5
 20
93
 11
360.5
 21
93
  0
LINE
  5
355
100
AcDbEntity
  8
_0-0_0
  6
CONTINUOUS
 62
     0
100
AcDbLine
 10
427.5
 20
102
 11
360.5
 21
102
  0
LINE
  5
356
100
AcDbEntity
  8
_0-0_0
  6
CONTINUOUS
 62
     0
100
AcDbLine
 10
427.5
 20
111
 11
360.5
 21
111
  0
LINE
  5
357
100
AcDbEntity
  8
_0-0_0
  6
CONTINUOUS
 62
     0
100
AcDbLine
 10
427.5
 20
120
 11
360.5
 21
120
  0
LINE
  5
358
100
AcDbEntity
  8
_0-0_0
  6
CONTINUOUS
 62
     0
100
AcDbLine
 10
427.5
 20
129
 11
360.5
 21
129
  0
LINE
  5
359
100
AcDbEntity
  8
_0-0_0
  6
CONTINUOUS
 62
     0
100
AcDbLine
 10
427.5
 20
138
 11
360.5
 21
138
  0
TEXT
  5
35A
100
AcDbEntity
  8
_0-0_0
  6
CONTINUOUS
 62
     0
100
AcDbText
 10
401.25
 20
67.5
 40
5
  1
 6
  7
STANDARD
100
AcDbText
  0
TEXT
  5
35B
100
AcDbEntity
  8
_0-0_0
  6
CONTINUOUS
 62
     0
100
AcDbText
 10
401.25
 20
58.5
 40
5
  1
 1
  7
STANDARD
100
AcDbText
  0
TEXT
  5
35C
100
AcDbEntity
  8
_0-0_0
  6
CONTINUOUS
 62
     0
100
AcDbText
 10
401.25
 20
76.5
 40
5
  1
 6
  7
STANDARD
100
AcDbText
  0
TEXT
  5
35D
100
AcDbEntity
  8
_0-0_0
  6
CONTINUOUS
 62
     0
100
AcDbText
 10
401.25
 20
85.5
 40
5
  1
 6
  7
STANDARD
100
AcDbText
  0
TEXT
  5
35E
100
AcDbEntity
  8
_0-0_0
  6
CONTINUOUS
 62
     0
100
AcDbText
 10
417.5
 20
58.5
 40
5
  1
巻
  7
STANDARD
100
AcDbText
  0
TEXT
  5
35F
100
AcDbEntity
  8
_0-0_0
  6
CONTINUOUS
 62
     0
100
AcDbText
 10
417.5
 20
76.5
 40
5
  1
枚
  7
STANDARD
100
AcDbText
  0
TEXT
  5
360
100
AcDbEntity
  8
_0-0_0
  6
CONTINUOUS
 62
     0
100
AcDbText
 10
417.5
 20
67.5
 40
5
  1
〃
  7
STANDARD
100
AcDbText
  0
TEXT
  5
361
100
AcDbEntity
  8
_0-0_0
  6
CONTINUOUS
 62
     0
100
AcDbText
 10
417.5
 20
85.5
 40
5
  1
〃
  7
STANDARD
100
AcDbText
  0
TEXT
  5
362
100
AcDbEntity
  8
_0-0_0
  6
CONTINUOUS
 62
     0
100
AcDbText
 10
401.25
 20
112.5
 40
5
  1
 6
  7
STANDARD
100
AcDbText
  0
TEXT
  5
363
100
AcDbEntity
  8
_0-0_0
  6
CONTINUOUS
 62
     0
100
AcDbText
 10
401.25
 20
103.5
 40
5
  1
 6
  7
STANDARD
100
AcDbText
  0
TEXT
  5
364
100
AcDbEntity
  8
_0-0_0
  6
CONTINUOUS
 62
     0
100
AcDbText
 10
401.25
 20
94.5
 40
5
  1
 6
  7
STANDARD
100
AcDbText
  0
TEXT
  5
365
100
AcDbEntity
  8
_0-0_0
  6
CONTINUOUS
 62
     0
100
AcDbText
 10
401.25
 20
121.5
 40
5
  1
 6
  7
STANDARD
100
AcDbText
  0
TEXT
  5
366
100
AcDbEntity
  8
_0-0_0
  6
CONTINUOUS
 62
     0
100
AcDbText
 10
401.25
 20
130.5
 40
5
  1
 6
  7
STANDARD
100
AcDbText
  0
TEXT
  5
367
100
AcDbEntity
  8
_0-0_0
  6
CONTINUOUS
 62
     0
100
AcDbText
 10
417.5
 20
112.5
 40
5
  1
〃
  7
STANDARD
100
AcDbText
  0
TEXT
  5
368
100
AcDbEntity
  8
_0-0_0
  6
CONTINUOUS
 62
     0
100
AcDbText
 10
417.5
 20
94.5
 40
5
  1
〃
  7
STANDARD
100
AcDbText
  0
TEXT
  5
369
100
AcDbEntity
  8
_0-0_0
  6
CONTINUOUS
 62
     0
100
AcDbText
 10
417.5
 20
103.5
 40
5
  1
〃
  7
STANDARD
100
AcDbText
  0
TEXT
  5
36A
100
AcDbEntity
  8
_0-0_0
  6
CONTINUOUS
 62
     0
100
AcDbText
 10
417.5
 20
121.5
 40
5
  1
〃
  7
STANDARD
100
AcDbText
  0
TEXT
  5
36B
100
AcDbEntity
  8
_0-0_0
  6
CONTINUOUS
 62
     0
100
AcDbText
 10
417.5
 20
130.5
 40
5
  1
〃
  7
STANDARD
100
AcDbText
  0
TEXT
  5
36C
100
AcDbEntity
  8
_0-0_0
  6
CONTINUOUS
 62
     0
100
AcDbText
 10
371.25
 20
139.5
 40
5
  1
3000
  7
STANDARD
100
AcDbText
  0
TEXT
  5
36D
100
AcDbEntity
  8
_0-0_0
  6
CONTINUOUS
 62
     0
100
AcDbText
 10
371.25
 20
148.5
 40
5
  1
3100
  7
STANDARD
100
AcDbText
  0
TEXT
  5
36E
100
AcDbEntity
  8
_0-0_0
  6
CONTINUOUS
 62
     0
100
AcDbText
 10
401.25
 20
148.5
 40
5
  1
 1
  7
STANDARD
100
AcDbText
  0
TEXT
  5
36F
100
AcDbEntity
  8
_0-0_0
  6
CONTINUOUS
 62
     0
100
AcDbText
 10
401.25
 20
139.5
 40
5
  1
 1
  7
STANDARD
100
AcDbText
  0
TEXT
  5
370
100
AcDbEntity
  8
_0-0_0
  6
CONTINUOUS
 62
     0
100
AcDbText
 10
417.5
 20
148.5
 40
5
  1
〃
  7
STANDARD
100
AcDbText
  0
TEXT
  5
371
100
AcDbEntity
  8
_0-0_0
  6
CONTINUOUS
 62
     0
100
AcDbText
 10
417.5
 20
139.5
 40
5
  1
本
  7
STANDARD
100
AcDbText
  0
TEXT
  5
372
100
AcDbEntity
  8
_0-0_0
  6
CONTINUOUS
 62
     0
100
AcDbText
 10
469.25
 20
67.5
 40
5
  1
 5
  7
STANDARD
100
AcDbText
  0
TEXT
  5
373
100
AcDbEntity
  8
_0-0_0
  6
CONTINUOUS
 62
     0
100
AcDbText
 10
469.25
 20
58.5
 40
5
  1
 1
  7
STANDARD
100
AcDbText
  0
TEXT
  5
374
100
AcDbEntity
  8
_0-0_0
  6
CONTINUOUS
 62
     0
100
AcDbText
 10
469.25
 20
76.5
 40
5
  1
 5
  7
STANDARD
100
AcDbText
  0
TEXT
  5
375
100
AcDbEntity
  8
_0-0_0
  6
CONTINUOUS
 62
     0
100
AcDbText
 10
469.25
 20
85.5
 40
5
  1
 5
  7
STANDARD
100
AcDbText
  0
TEXT
  5
376
100
AcDbEntity
  8
_0-0_0
  6
CONTINUOUS
 62
     0
100
AcDbText
 10
485.5
 20
58.5
 40
5
  1
巻
  7
STANDARD
100
AcDbText
  0
TEXT
  5
377
100
AcDbEntity
  8
_0-0_0
  6
CONTINUOUS
 62
     0
100
AcDbText
 10
485.5
 20
76.5
 40
5
  1
枚
  7
STANDARD
100
AcDbText
  0
TEXT
  5
378
100
AcDbEntity
  8
_0-0_0
  6
CONTINUOUS
 62
     0
100
AcDbText
 10
485.5
 20
67.5
 40
5
  1
〃
  7
STANDARD
100
AcDbText
  0
TEXT
  5
379
100
AcDbEntity
  8
_0-0_0
  6
CONTINUOUS
 62
     0
100
AcDbText
 10
485.5
 20
85.5
 40
5
  1
〃
  7
STANDARD
100
AcDbText
  0
TEXT
  5
37A
100
AcDbEntity
  8
_0-0_0
  6
CONTINUOUS
 62
     0
100
AcDbText
 10
469.25
 20
112.5
 40
5
  1
 5
  7
STANDARD
100
AcDbText
  0
TEXT
  5
37B
100
AcDbEntity
  8
_0-0_0
  6
CONTINUOUS
 62
     0
100
AcDbText
 10
469.25
 20
103.5
 40
5
  1
 5
  7
STANDARD
100
AcDbText
  0
TEXT
  5
37C
100
AcDbEntity
  8
_0-0_0
  6
CONTINUOUS
 62
     0
100
AcDbText
 10
469.25
 20
94.5
 40
5
  1
 5
  7
STANDARD
100
AcDbText
  0
TEXT
  5
37D
100
AcDbEntity
  8
_0-0_0
  6
CONTINUOUS
 62
     0
100
AcDbText
 10
469.25
 20
121.5
 40
5
  1
 5
  7
STANDARD
100
AcDbText
  0
TEXT
  5
37E
100
AcDbEntity
  8
_0-0_0
  6
CONTINUOUS
 62
     0
100
AcDbText
 10
469.25
 20
130.5
 40
5
  1
 4
  7
STANDARD
100
AcDbText
  0
TEXT
  5
37F
100
AcDbEntity
  8
_0-0_0
  6
CONTINUOUS
 62
     0
100
AcDbText
 10
485.5
 20
112.5
 40
5
  1
〃
  7
STANDARD
100
AcDbText
  0
TEXT
  5
380
100
AcDbEntity
  8
_0-0_0
  6
CONTINUOUS
 62
     0
100
AcDbText
 10
485.5
 20
94.5
 40
5
  1
〃
  7
STANDARD
100
AcDbText
  0
TEXT
  5
381
100
AcDbEntity
  8
_0-0_0
  6
CONTINUOUS
 62
     0
100
AcDbText
 10
485.5
 20
103.5
 40
5
  1
〃
  7
STANDARD
100
AcDbText
  0
TEXT
  5
382
100
AcDbEntity
  8
_0-0_0
  6
CONTINUOUS
 62
     0
100
AcDbText
 10
485.5
 20
121.5
 40
5
  1
〃
  7
STANDARD
100
AcDbText
  0
TEXT
  5
383
100
AcDbEntity
  8
_0-0_0
  6
CONTINUOUS
 62
     0
100
AcDbText
 10
485.5
 20
130.5
 40
5
  1
〃
  7
STANDARD
100
AcDbText
  0
TEXT
  5
384
100
AcDbEntity
  8
_0-0_0
  6
CONTINUOUS
 62
     0
100
AcDbText
 10
469.25
 20
148.5
 40
5
  1
 1
  7
STANDARD
100
AcDbText
  0
TEXT
  5
385
100
AcDbEntity
  8
_0-0_0
  6
CONTINUOUS
 62
     0
100
AcDbText
 10
469.25
 20
139.5
 40
5
  1
 1
  7
STANDARD
100
AcDbText
  0
TEXT
  5
386
100
AcDbEntity
  8
_0-0_0
  6
CONTINUOUS
 62
     0
100
AcDbText
 10
485.5
 20
148.5
 40
5
  1
〃
  7
STANDARD
100
AcDbText
  0
TEXT
  5
387
100
AcDbEntity
  8
_0-0_0
  6
CONTINUOUS
 62
     0
100
AcDbText
 10
485.5
 20
139.5
 40
5
  1
本
  7
STANDARD
100
AcDbText
  0
TEXT
  5
388
100
AcDbEntity
  8
_0-0_0
  6
CONTINUOUS
 62
     0
100
AcDbText
 10
169.5
 20
148.5
 40
5
  1
ウォーターガード
  7
STANDARD
100
AcDbText
  0
TEXT
  5
389
100
AcDbEntity
  8
_0-0_0
  6
CONTINUOUS
 62
     0
100
AcDbText
 10
154.5
 20
58.5
 40
5
  1
※
  7
STANDARD
100
AcDbText
  0
LINE
  5
38A
100
AcDbEntity
  8
_0-0_0
  6
CONTINUOUS
 62
     0
100
AcDbLine
 10
150.5
 20
57
 11
150.5
 21
255
  0
LINE
  5
38B
100
AcDbEntity
  8
_0-0_0
  6
CONTINUOUS
 62
     0
100
AcDbLine
 10
495.5
 20
57
 11
495.5
 21
255
  0
LINE
  5
38C
100
AcDbEntity
  8
_0-0_0
  6
CONTINUOUS
 62
     0
100
AcDbLine
 10
164.5
 20
57
 11
164.5
 21
255
  0
LINE
  5
38D
100
AcDbEntity
  8
_0-0_0
  6
CONTINUOUS
 62
     0
100
AcDbLine
 10
428.5
 20
57
 11
428.5
 21
255
  0
LINE
  5
38E
100
AcDbEntity
  8
_0-0_0
  6
CONTINUOUS
 62
     0
100
AcDbLine
 10
427.5
 20
57
 11
427.5
 21
255
  0
LINE
  5
38F
100
AcDbEntity
  8
_0-0_0
  6
CONTINUOUS
 62
     0
100
AcDbLine
 10
413.5
 20
57
 11
413.5
 21
255
  0
LINE
  5
390
100
AcDbEntity
  8
_0-0_0
  6
CONTINUOUS
 62
     0
100
AcDbLine
 10
395.5
 20
57
 11
395.5
 21
255
  0
LINE
  5
391
100
AcDbEntity
  8
_0-0_0
  6
CONTINUOUS
 62
     0
100
AcDbLine
 10
360.5
 20
57
 11
360.5
 21
255
  0
LINE
  5
392
100
AcDbEntity
  8
_0-0_0
  6
CONTINUOUS
 62
     0
100
AcDbLine
 10
359.5
 20
57
 11
359.5
 21
255
  0
LINE
  5
393
100
AcDbEntity
  8
_0-0_0
  6
CONTINUOUS
 62
     0
100
AcDbLine
 10
264.5
 20
57
 11
264.5
 21
255
  0
LINE
  5
394
100
AcDbEntity
  8
_0-0_0
  6
CONTINUOUS
 62
     0
100
AcDbLine
 10
481.5
 20
57
 11
481.5
 21
255
  0
LINE
  5
395
100
AcDbEntity
  8
_0-0_0
  6
CONTINUOUS
 62
     0
100
AcDbLine
 10
463.5
 20
57
 11
463.5
 21
255
  0
TEXT
  5
396
100
AcDbEntity
  8
_0-4_図枠
  6
CONTINUOUS
 62
     0
100
AcDbText
 10
53.04650870914
 20
584.4696321568
 40
10
  1
◇アルミ５０タイプ（５０ＦＹＫＧ－Ａ）
  7
STANDARD
100
AcDbText
  0
LINE
  5
397
100
AcDbEntity
  8
_0-4_図枠
  6
CONTINUOUS
 62
     0
100
AcDbLine
 10
449.878248247
 20
395.2361569326
 11
440.1809946151
 21
378.4400209483
  0
LINE
  5
398
100
AcDbEntity
  8
_0-4_図枠
  6
CONTINUOUS
 62
     0
100
AcDbLine
 10
454.873989024
 20
364.9173386019
 11
444.8323748293
 21
347.5247526265
  0
CIRCLE
  5
399
100
AcDbEntity
  8
_0-4_図枠
  6
CONTINUOUS
 62
     0
100
AcDbCircle
 10
441.8323748293
 20
342.3286002038
 40
6
  0
TEXT
  5
39A
100
AcDbEntity
  8
_0-2_寸法
  6
CONTINUOUS
 62
     0
100
AcDbText
 10
429
 20
476.4726675796
 40
5
  1
（キャップ幅）
  7
STANDARD
100
AcDbText
  0
TEXT
  5
39B
100
AcDbEntity
  8
_0-4_図枠
  6
CONTINUOUS
 62
     0
100
AcDbText
 10
423
 20
451.0490325737
 40
5
  1
勾配３度
  7
STANDARD
100
AcDbText
  0
LINE
  5
39C
100
AcDbEntity
  8
_0-4_図枠
  6
CONTINUOUS
 62
     0
100
AcDbLine
 10
411.5
 20
451.0647555383
 11
461.5
 21
448.4443665742
  0
LINE
  5
39D
100
AcDbEntity
  8
_0-4_図枠
  6
CONTINUOUS
 62
     0
100
AcDbLine
 10
411.5
 20
451.0647555383
 11
461.5
 21
451.0647555383
  0
LINE
  5
39E
100
AcDbEntity
  8
_0-3_躯体と製品
  6
CONTINUOUS
 62
     0
100
AcDbLine
 10
472
 20
392
 11
441.9857172
 21
392
  0
LINE
  5
39F
100
AcDbEntity
  8
_0-3_躯体と製品
  6
CONTINUOUS
 62
     0
100
AcDbLine
 10
442
 20
390
 11
472
 21
390
  0
LINE
  5
3A0
100
AcDbEntity
  8
_0-3_躯体と製品
  6
CONTINUOUS
 62
     0
100
AcDbLine
 10
472
 20
391
 11
442
 21
391
  0
LINE
  5
3A1
100
AcDbEntity
  8
_0-3_躯体と製品
  6
CONTINUOUS
 62
     0
100
AcDbLine
 10
528.940468528
 20
436.1866939753
 11
364.1665952935
 21
444.8221267553
  0
LINE
  5
3A2
100
AcDbEntity
  8
_0-3_躯体と製品
  6
CONTINUOUS
 62
     0
100
AcDbLine
 10
527.8832822119
 20
416.0143773732
 11
363.1094089774
 21
424.6498101533
  0
LINE
  5
3A3
100
AcDbEntity
  8
_0-3_躯体と製品
  6
CONTINUOUS
 62
     0
100
AcDbLine
 10
527.7890774907
 20
414.2168442107
 11
363.0152042562
 21
422.8522769907
  0
LINE
  5
3A4
100
AcDbEntity
  8
_0-3_躯体と製品
  6
CONTINUOUS
 62
     0
100
AcDbLine
 10
527.6059016438
 20
410.721640839
 11
362.8320284093
 21
419.3570736191
  0
LINE
  5
3A5
100
AcDbEntity
  8
_0-3_躯体と製品
  6
CONTINUOUS
 62
     0
100
AcDbLine
 10
527.5273977094
 20
409.2236965369
 11
362.7535244749
 21
417.859129317
  0
LINE
  5
3A6
100
AcDbEntity
  8
_0-3_躯体と製品
  6
CONTINUOUS
 62
     0
100
AcDbLine
 10
528.7049567249
 20
431.6928610689
 11
363.9310834904
 21
440.3282938489
  0
LINE
  5
3A7
100
AcDbEntity
  8
_0-3_躯体と製品
  6
CONTINUOUS
 62
     0
100
AcDbLine
 10
528.6264527906
 20
430.1949167667
 11
363.852579556
 21
438.8303495468
  0
LINE
  5
3A8
100
AcDbEntity
  8
_0-3_躯体と製品
  6
CONTINUOUS
 62
     0
100
AcDbLine
 10
527.4750617532
 20
408.2250670021
 11
362.7011885187
 21
416.8604997822
  0
LINE
  5
3A9
100
AcDbEntity
  8
_0-3_躯体と製品
  6
CONTINUOUS
 62
     0
100
AcDbLine
 10
348.8429921313
 20
447.3388637553
 11
555.0523359562
 21
436.531889978
  0
LINE
  5
3AA
100
AcDbEntity
  8
_0-3_躯体と製品
  6
CONTINUOUS
 62
     0
100
AcDbLine
 10
513.8825215723
 20
435.4737890168
 11
379.0675343805
 21
442.5391431096
  0
LINE
  5
3AB
100
AcDbEntity
  8
_0-3_躯体と製品
  6
CONTINUOUS
 62
     0
100
AcDbLine
 10
446.2947533633
 20
435.6833805926
 11
433.3648022861
 21
422.1183277333
  0
LINE
  5
3AC
100
AcDbEntity
  8
_0-3_躯体と製品
  6
CONTINUOUS
 62
     0
100
AcDbLine
 10
446.8738322782
 20
435.1314135552
 11
433.9438811844
 21
421.5663606786
  0
LINE
  5
3AD
100
AcDbEntity
  8
_0-3_躯体と製品
  6
CONTINUOUS
 62
     0
100
AcDbLine
 10
440.5
 20
392.5
 11
452
 21
392.5
  0
LINE
  5
3AE
100
AcDbEntity
  8
_0-3_躯体と製品
  6
CONTINUOUS
 62
     0
100
AcDbLine
 10
440.8
 20
394.5
 11
456.5
 21
394.5
  0
LINE
  5
3AF
100
AcDbEntity
  8
_0-3_躯体と製品
  6
CONTINUOUS
 62
     0
100
AcDbLine
 10
444.9736272138
 20
390
 11
445.9736272138
 21
391
  0
LINE
  5
3B0
100
AcDbEntity
  8
_0-3_躯体と製品
  6
CONTINUOUS
 62
     0
100
AcDbLine
 10
441
 20
398.9
 11
445.5
 21
398.9
  0
LINE
  5
3B1
100
AcDbEntity
  8
_0-3_躯体と製品
  6
CONTINUOUS
 62
     0
100
AcDbLine
 10
441
 20
400.5
 11
445.5
 21
400.5
  0
LINE
  5
3B2
100
AcDbEntity
  8
_0-3_躯体と製品
  6
CONTINUOUS
 62
     0
100
AcDbLine
 10
407
 20
390
 11
507
 21
390
  0
LINE
  5
3B3
100
AcDbEntity
  8
_0-3_躯体と製品
  6
CONTINUOUS
 62
     0
100
AcDbLine
 10
348.9476640438
 20
449.3361228248
 11
555.1570078687
 21
438.5291490475
  0
LINE
  5
3B4
100
AcDbEntity
  8
_0-3_躯体と製品
  6
CONTINUOUS
 62
     0
100
AcDbLine
 10
407
 20
390
 11
407
 21
270
  0
LINE
  5
3B5
100
AcDbEntity
  8
_0-3_躯体と製品
  6
CONTINUOUS
 62
     0
100
AcDbLine
 10
357
 20
390
 11
357
 21
270
  0
ARC
  5
3B6
100
AcDbEntity
  8
_0-3_躯体と製品
  6
CONTINUOUS
 62
     0
100
AcDbCircle
 10
384.625
 20
497.7716498733
 40
28.625
100
AcDbArc
 50
164.8107132628
 51
195.1892867372
  0
LINE
  5
3B7
100
AcDbEntity
  8
_0-4_図枠
  6
CONTINUOUS
 62
     0
100
AcDbLine
 10
338.970412466
 20
479.0090368455
 11
320.8512972233
 21
510.392265034
  0
LINE
  5
3B8
100
AcDbEntity
  8
_0-4_図枠
  6
CONTINUOUS
 62
     0
100
AcDbLine
 10
343.1419097734
 20
497.5278792634
 11
323.3318935557
 21
531.8398338513
  0
LINE
  5
3B9
100
AcDbEntity
  8
_0-4_図枠
  6
CONTINUOUS
 62
     0
100
AcDbLine
 10
359.5211428793
 20
489.5284544653
 11
377.7579643841
 21
521.1155558803
  0
LINE
  5
3BA
100
AcDbEntity
  8
_0-4_図枠
  6
CONTINUOUS
 62
     0
100
AcDbLine
 10
364.2176991381
 20
470.7313426095
 11
385.6865555244
 21
507.9164926509
  0
LINE
  5
3BB
100
AcDbEntity
  8
_0-3_躯体と製品
  6
CONTINUOUS
 62
     0
100
AcDbLine
 10
346.6316125721
 20
504.7675362263
 11
348.0067731001
 21
499.5979479653
  0
LINE
  5
3BC
100
AcDbEntity
  8
_0-3_躯体と製品
  6
CONTINUOUS
 62
     0
100
AcDbLine
 10
350.5
 20
495.395322202
 11
356.1927673621
 21
501.088089564
  0
LINE
  5
3BD
100
AcDbEntity
  8
_0-3_躯体と製品
  6
CONTINUOUS
 62
     0
100
AcDbLine
 10
350.5
 20
498.2237493267
 11
356.8102277387
 21
504.5339770655
  0
LINE
  5
3BE
100
AcDbEntity
  8
_0-3_躯体と製品
  6
CONTINUOUS
 62
     0
100
AcDbLine
 10
350.5
 20
491.2716498733
 11
350.5
 21
504.2716498733
  0
LINE
  5
3BF
100
AcDbEntity
  8
_0-3_躯体と製品
  6
CONTINUOUS
 62
     0
100
AcDbLine
 10
332
 20
505.2716498733
 11
332
 21
390
  0
LINE
  5
3C0
100
AcDbEntity
  8
_0-3_躯体と製品
  6
CONTINUOUS
 62
     0
100
AcDbLine
 10
346.5
 20
501.2716498733
 11
346.5
 21
497.0716498733
  0
ARC
  5
3C1
100
AcDbEntity
  8
_0-3_躯体と製品
  6
CONTINUOUS
 62
     0
100
AcDbCircle
 10
344.5
 20
500.2716498733
 40
0.5
100
AcDbArc
 50
0
 51
90
  0
ARC
  5
3C2
100
AcDbEntity
  8
_0-3_躯体と製品
  6
CONTINUOUS
 62
     0
100
AcDbCircle
 10
334.5
 20
500.2716498733
 40
0.5
100
AcDbArc
 50
90
 51
180
  0
LINE
  5
3C3
100
AcDbEntity
  8
_0-3_躯体と製品
  6
CONTINUOUS
 62
     0
100
AcDbLine
 10
343
 20
500.7716498733
 11
343
 21
499.9716498733
  0
CIRCLE
  5
3C4
100
AcDbEntity
  8
_0-4_図枠
  6
CONTINUOUS
 62
     0
100
AcDbCircle
 10
317.3757359325
 20
419.7472546898
 40
6
  0
CIRCLE
  5
3C5
100
AcDbEntity
  8
_0-4_図枠
  6
CONTINUOUS
 62
     0
100
AcDbCircle
 10
315.6345402624
 20
471.9193478597
 40
6
  0
LINE
  5
3C6
100
AcDbEntity
  8
_0-3_躯体と製品
  6
CONTINUOUS
 62
     0
100
AcDbLine
 10
347.7569283006
 20
446.2716498733
 11
273
 21
446.2716498733
  0
LINE
  5
3C7
100
AcDbEntity
  8
_0-3_躯体と製品
  6
CONTINUOUS
 62
     0
100
AcDbLine
 10
312.199619
 20
441.6484128733
 11
316.857599
 21
439.9530468733
  0
LINE
  5
3C8
100
AcDbEntity
  8
_0-3_躯体と製品
  6
CONTINUOUS
 62
     0
100
AcDbLine
 10
314.092208
 20
443.7503448733
 11
312.094949
 21
443.6456718733
  0
LINE
  5
3C9
100
AcDbEntity
  8
_0-3_躯体と製品
  6
CONTINUOUS
 62
     0
100
AcDbLine
 10
293.042483
 20
444.1492338733
 11
323.999999
 21
445.7716488733
  0
LINE
  5
3CA
100
AcDbEntity
  8
_0-3_躯体と製品
  6
CONTINUOUS
 62
     0
100
AcDbLine
 10
314.092208
 20
448.7929518733
 11
312.094949
 21
448.8976248733
  0
LINE
  5
3CB
100
AcDbEntity
  8
_0-3_躯体と製品
  6
CONTINUOUS
 62
     0
100
AcDbLine
 10
293.042483
 20
448.3940628733
 11
323.999999
 21
446.7716478733
  0
LINE
  5
3CC
100
AcDbEntity
  8
_0-3_躯体と製品
  6
CONTINUOUS
 62
     0
100
AcDbLine
 10
312.199619
 20
442.7125908733
 11
317.19962
 21
440.8927398733
  0
LINE
  5
3CD
100
AcDbEntity
  8
_0-3_躯体と製品
  6
CONTINUOUS
 62
     0
100
AcDbLine
 10
312.199619
 20
450.8948838733
 11
316.857599
 21
452.5902498733
  0
LINE
  5
3CE
100
AcDbEntity
  8
_0-3_躯体と製品
  6
CONTINUOUS
 62
     0
100
AcDbLine
 10
312.199619
 20
449.8307058733
 11
317.19962
 21
451.6505568733
  0
LINE
  5
3CF
100
AcDbEntity
  8
_0-4_図枠
  6
CONTINUOUS
 62
     0
100
AcDbLine
 10
300.0663603572
 20
449.1732216941
 11
290.5682362501
 21
465.6244552242
  0
LINE
  5
3D0
100
AcDbEntity
  8
_0-3_躯体と製品
  6
CONTINUOUS
 62
     0
100
AcDbLine
 10
297.869444
 20
444.4022028733
 11
296
 21
446.2716498733
  0
LINE
  5
3D1
100
AcDbEntity
  8
_0-3_躯体と製品
  6
CONTINUOUS
 62
     0
100
AcDbLine
 10
299.112764
 20
442.9653048733
 11
297.115505
 21
442.8606318733
  0
LINE
  5
3D2
100
AcDbEntity
  8
_0-3_躯体と製品
  6
CONTINUOUS
 62
     0
100
AcDbLine
 10
299.112764
 20
449.5779918733
 11
297.115505
 21
449.6826648733
  0
LINE
  5
3D3
100
AcDbEntity
  8
_0-3_躯体と製品
  6
CONTINUOUS
 62
     0
100
AcDbLine
 10
297.869444
 20
448.1410938733
 11
296
 21
446.2716498733
  0
LINE
  5
3D4
100
AcDbEntity
  8
_0-3_躯体と製品
  6
CONTINUOUS
 62
     0
100
AcDbLine
 10
297.115505
 20
442.8606318733
 11
297.220178
 21
440.8633728733
  0
LINE
  5
3D5
100
AcDbEntity
  8
_0-3_躯体と製品
  6
CONTINUOUS
 62
     0
100
AcDbLine
 10
295.222919
 20
440.7587028733
 11
293.120987
 21
442.6512888733
  0
LINE
  5
3D6
100
AcDbEntity
  8
_0-3_躯体と製品
  6
CONTINUOUS
 62
     0
100
AcDbLine
 10
295.039742
 20
444.2539068733
 11
295.222919
 21
440.7587028733
  0
LINE
  5
3D7
100
AcDbEntity
  8
_0-3_躯体と製品
  6
CONTINUOUS
 62
     0
100
AcDbLine
 10
297.220178
 20
440.8633728733
 11
295.222919
 21
440.7587028733
  0
LINE
  5
3D8
100
AcDbEntity
  8
_0-3_躯体と製品
  6
CONTINUOUS
 62
     0
100
AcDbLine
 10
293.120987
 20
442.6512888733
 11
293.042483
 21
444.1492338733
  0
LINE
  5
3D9
100
AcDbEntity
  8
_0-3_躯体と製品
  6
CONTINUOUS
 62
     0
100
AcDbLine
 10
297.220178
 20
451.6799238733
 11
295.222919
 21
451.7845938733
  0
LINE
  5
3DA
100
AcDbEntity
  8
_0-3_躯体と製品
  6
CONTINUOUS
 62
     0
100
AcDbLine
 10
297.115505
 20
449.6826648733
 11
297.220178
 21
451.6799238733
  0
LINE
  5
3DB
100
AcDbEntity
  8
_0-3_躯体と製品
  6
CONTINUOUS
 62
     0
100
AcDbLine
 10
293.120987
 20
449.8920078733
 11
293.042483
 21
448.3940628733
  0
LINE
  5
3DC
100
AcDbEntity
  8
_0-3_躯体と製品
  6
CONTINUOUS
 62
     0
100
AcDbLine
 10
295.222919
 20
451.7845938733
 11
293.120987
 21
449.8920078733
  0
LINE
  5
3DD
100
AcDbEntity
  8
_0-3_躯体と製品
  6
CONTINUOUS
 62
     0
100
AcDbLine
 10
295.039742
 20
448.2893898733
 11
295.222919
 21
451.7845938733
  0
LINE
  5
3DE
100
AcDbEntity
  8
_0-3_躯体と製品
  6
CONTINUOUS
 62
     0
100
AcDbLine
 10
300.216065
 20
441.0203808733
 11
299.112764
 21
442.9653048733
  0
LINE
  5
3DF
100
AcDbEntity
  8
_0-3_躯体と製品
  6
CONTINUOUS
 62
     0
100
AcDbLine
 10
302.108654
 20
443.1223128733
 11
302.213324
 21
441.1250538733
  0
LINE
  5
3E0
100
AcDbEntity
  8
_0-3_躯体と製品
  6
CONTINUOUS
 62
     0
100
AcDbLine
 10
305.209214
 20
441.2820618733
 11
304.105913
 21
443.2269858733
  0
LINE
  5
3E1
100
AcDbEntity
  8
_0-3_躯体と製品
  6
CONTINUOUS
 62
     0
100
AcDbLine
 10
307.1018
 20
443.3839938733
 11
307.206473
 21
441.3867348733
  0
LINE
  5
3E2
100
AcDbEntity
  8
_0-3_躯体と製品
  6
CONTINUOUS
 62
     0
100
AcDbLine
 10
310.20236
 20
441.5437428733
 11
309.099059
 21
443.4886638733
  0
LINE
  5
3E3
100
AcDbEntity
  8
_0-3_躯体と製品
  6
CONTINUOUS
 62
     0
100
AcDbLine
 10
312.094949
 20
443.6456718733
 11
312.199619
 21
441.6484128733
  0
LINE
  5
3E4
100
AcDbEntity
  8
_0-3_躯体と製品
  6
CONTINUOUS
 62
     0
100
AcDbLine
 10
307.206473
 20
441.3867348733
 11
305.209214
 21
441.2820618733
  0
LINE
  5
3E5
100
AcDbEntity
  8
_0-3_躯体と製品
  6
CONTINUOUS
 62
     0
100
AcDbLine
 10
302.213324
 20
441.1250538733
 11
300.216065
 21
441.0203808733
  0
LINE
  5
3E6
100
AcDbEntity
  8
_0-3_躯体と製品
  6
CONTINUOUS
 62
     0
100
AcDbLine
 10
312.199619
 20
441.6484128733
 11
310.20236
 21
441.5437428733
  0
LINE
  5
3E7
100
AcDbEntity
  8
_0-3_躯体と製品
  6
CONTINUOUS
 62
     0
100
AcDbLine
 10
307.206473
 20
451.1565618733
 11
305.209214
 21
451.2612348733
  0
CIRCLE
  5
3E8
100
AcDbEntity
  8
_0-4_図枠
  6
CONTINUOUS
 62
     0
100
AcDbCircle
 10
300.0663603572
 20
449.1732216941
 40
0.9
  0
LINE
  5
3E9
100
AcDbEntity
  8
_0-3_躯体と製品
  6
CONTINUOUS
 62
     0
100
AcDbLine
 10
304.105913
 20
443.2269858733
 11
302.108654
 21
443.1223128733
  0
LINE
  5
3EA
100
AcDbEntity
  8
_0-3_躯体と製品
  6
CONTINUOUS
 62
     0
100
AcDbLine
 10
300.216065
 20
451.5229158733
 11
299.112764
 21
449.5779918733
  0
LINE
  5
3EB
100
AcDbEntity
  8
_0-3_躯体と製品
  6
CONTINUOUS
 62
     0
100
AcDbLine
 10
302.213324
 20
451.4182428733
 11
300.216065
 21
451.5229158733
  0
LINE
  5
3EC
100
AcDbEntity
  8
_0-3_躯体と製品
  6
CONTINUOUS
 62
     0
100
AcDbLine
 10
302.108654
 20
449.4209838733
 11
302.213324
 21
451.4182428733
  0
LINE
  5
3ED
100
AcDbEntity
  8
_0-3_躯体と製品
  6
CONTINUOUS
 62
     0
100
AcDbLine
 10
304.105913
 20
449.3163108733
 11
302.108654
 21
449.4209838733
  0
LINE
  5
3EE
100
AcDbEntity
  8
_0-3_躯体と製品
  6
CONTINUOUS
 62
     0
100
AcDbLine
 10
305.209214
 20
451.2612348733
 11
304.105913
 21
449.3163108733
  0
LINE
  5
3EF
100
AcDbEntity
  8
_0-3_躯体と製品
  6
CONTINUOUS
 62
     0
100
AcDbLine
 10
309.099059
 20
443.4886638733
 11
307.1018
 21
443.3839938733
  0
LINE
  5
3F0
100
AcDbEntity
  8
_0-3_躯体と製品
  6
CONTINUOUS
 62
     0
100
AcDbLine
 10
307.1018
 20
449.1593028733
 11
307.206473
 21
451.1565618733
  0
LINE
  5
3F1
100
AcDbEntity
  8
_0-3_躯体と製品
  6
CONTINUOUS
 62
     0
100
AcDbLine
 10
309.099059
 20
449.0546328733
 11
307.1018
 21
449.1593028733
  0
LINE
  5
3F2
100
AcDbEntity
  8
_0-3_躯体と製品
  6
CONTINUOUS
 62
     0
100
AcDbLine
 10
310.20236
 20
450.9995538733
 11
309.099059
 21
449.0546328733
  0
LINE
  5
3F3
100
AcDbEntity
  8
_0-3_躯体と製品
  6
CONTINUOUS
 62
     0
100
AcDbLine
 10
312.199619
 20
450.8948838733
 11
310.20236
 21
450.9995538733
  0
LINE
  5
3F4
100
AcDbEntity
  8
_0-3_躯体と製品
  6
CONTINUOUS
 62
     0
100
AcDbLine
 10
312.094949
 20
448.8976248733
 11
312.199619
 21
450.8948838733
  0
CIRCLE
  5
3F5
100
AcDbEntity
  8
_0-4_図枠
  6
CONTINUOUS
 62
     0
100
AcDbCircle
 10
287.5682362501
 20
470.8206076469
 40
6
  0
CIRCLE
  5
3F6
100
AcDbEntity
  8
_0-4_図枠
  6
CONTINUOUS
 62
     0
100
AcDbCircle
 10
390.6125019454
 20
405.0954855723
 40
6
  0
ARC
  5
3F7
100
AcDbEntity
  8
_0-3_躯体と製品
  6
CONTINUOUS
 62
     0
100
AcDbCircle
 10
356.719242094
 20
413.719242094
 40
22.71924209403
100
AcDbArc
 50
180
 51
270
  0
ARC
  5
3F8
100
AcDbEntity
  8
_0-3_躯体と製品
  6
CONTINUOUS
 62
     0
100
AcDbCircle
 10
356.719242094
 20
413.719242094
 40
23.71924209403
100
AcDbArc
 50
180
 51
270
  0
CIRCLE
  5
3F9
100
AcDbEntity
  8
_0-4_図枠
  6
CONTINUOUS
 62
     0
100
AcDbCircle
 10
378.7900884372
 20
358.9627857344
 40
6
  0
ARC
  5
3FA
100
AcDbEntity
  8
_0-3_躯体と製品
  6
CONTINUOUS
 62
     0
100
AcDbCircle
 10
382.014262043
 20
354.9515579694
 40
20.95155796938
100
AcDbArc
 50
-175
 51
-4.999999999999
  0
ARC
  5
3FB
100
AcDbEntity
  8
_0-3_躯体と製品
  6
CONTINUOUS
 62
     0
100
AcDbCircle
 10
382.014262043
 20
354.9515579694
 40
19.95155796938
100
AcDbArc
 50
-175
 51
-4.999999999999
  0
LINE
  5
3FC
100
AcDbEntity
  8
_0-3_躯体と製品
  6
CONTINUOUS
 62
     0
100
AcDbLine
 10
358.9923893962
 20
389.1743114855
 11
362.1386257753
 21
353.2126651156
  0
LINE
  5
3FD
100
AcDbEntity
  8
_0-3_躯体と製品
  6
CONTINUOUS
 62
     0
100
AcDbLine
 10
357.9961946981
 20
389.0871557427
 11
361.1424310772
 21
353.1255093728
  0
LINE
  5
3FE
100
AcDbEntity
  8
_0-4_図枠
  6
CONTINUOUS
 62
     0
100
AcDbLine
 10
367.913070926
 20
340.1232387701
 11
375.7900884372
 21
353.7666333117
  0
CIRCLE
  5
3FF
100
AcDbEntity
  8
_0-4_図枠
  6
CONTINUOUS
 62
     0
100
AcDbCircle
 10
367.913070926
 20
340.1232387701
 40
0.9
  0
LINE
  5
400
100
AcDbEntity
  8
_0-3_躯体と製品
  6
CONTINUOUS
 62
     0
100
AcDbLine
 10
332
 20
390
 11
357
 21
390
  0
LINE
  5
401
100
AcDbEntity
  8
_0-3_躯体と製品
  6
CONTINUOUS
 62
     0
100
AcDbLine
 10
356.719242094
 20
391
 11
357
 21
391
  0
ARC
  5
402
100
AcDbEntity
  8
_0-3_躯体と製品
  6
CONTINUOUS
 62
     0
100
AcDbCircle
 10
357
 20
389
 40
2
100
AcDbArc
 50
5
 51
90
  0
ARC
  5
403
100
AcDbEntity
  8
_0-3_躯体と製品
  6
CONTINUOUS
 62
     0
100
AcDbCircle
 10
357
 20
389
 40
1
100
AcDbArc
 50
5
 51
90
  0
LINE
  5
404
100
AcDbEntity
  8
_0-3_躯体と製品
  6
CONTINUOUS
 62
     0
100
AcDbLine
 10
406.0323650758
 20
389.0875636563
 11
402.8860930089
 21
353.1255093728
  0
LINE
  5
405
100
AcDbEntity
  8
_0-3_躯体と製品
  6
CONTINUOUS
 62
     0
100
AcDbLine
 10
405.0361703777
 20
389.174719399
 11
401.8898983108
 21
353.2126651156
  0
LINE
  5
406
100
AcDbEntity
  8
_0-3_躯体と製品
  6
CONTINUOUS
 62
     0
100
AcDbLine
 10
406.9881680945
 20
391
 11
436
 21
391
  0
ARC
  5
407
100
AcDbEntity
  8
_0-3_躯体と製品
  6
CONTINUOUS
 62
     0
100
AcDbCircle
 10
407.0285597739
 20
389.0004079135
 40
2
100
AcDbArc
 50
91.15721505325
 51
175
  0
ARC
  5
408
100
AcDbEntity
  8
_0-3_躯体と製品
  6
CONTINUOUS
 62
     0
100
AcDbCircle
 10
407.0285597739
 20
389.0004079135
 40
1
100
AcDbArc
 50
91.63657704162
 51
175
  0
CIRCLE
  5
409
100
AcDbEntity
  8
_0-4_図枠
  6
CONTINUOUS
 62
     0
100
AcDbCircle
 10
437.1809946151
 20
373.2438685256
 40
6
  0
ARC
  5
40A
100
AcDbEntity
  8
_0-3_躯体と製品
  6
CONTINUOUS
 62
     0
100
AcDbCircle
 10
440.8
 20
396.2
 40
0.3
100
AcDbArc
 50
90
 51
180
  0
LINE
  5
40B
100
AcDbEntity
  8
_0-3_躯体と製品
  6
CONTINUOUS
 62
     0
100
AcDbLine
 10
439
 20
401.5
 11
439
 21
392
  0
ARC
  5
40C
100
AcDbEntity
  8
_0-3_躯体と製品
  6
CONTINUOUS
 62
     0
100
AcDbCircle
 10
436
 20
400.25
 40
10.25
100
AcDbArc
 50
-90
 51
-71.07535558395
  0
ARC
  5
40D
100
AcDbEntity
  8
_0-3_躯体と製品
  6
CONTINUOUS
 62
     0
100
AcDbCircle
 10
436
 20
400.25
 40
9.25
100
AcDbArc
 50
-90
 51
-71.07535558395
  0
ARC
  5
40E
100
AcDbEntity
  8
_0-3_躯体と製品
  6
CONTINUOUS
 62
     0
100
AcDbCircle
 10
442
 20
382.75
 40
8.25
100
AcDbArc
 50
90
 51
108.9246444161
  0
LINE
  5
40F
100
AcDbEntity
  8
_0-3_躯体と製品
  6
CONTINUOUS
 62
     0
100
AcDbLine
 10
442
 20
391
 11
442
 21
390
  0
LINE
  5
410
100
AcDbEntity
  8
_0-3_躯体と製品
  6
CONTINUOUS
 62
     0
100
AcDbLine
 10
439
 20
392
 11
440.5
 21
392
  0
LINE
  5
411
100
AcDbEntity
  8
_0-3_躯体と製品
  6
CONTINUOUS
 62
     0
100
AcDbLine
 10
440.5
 20
392
 11
440.5
 21
392.5
  0
ARC
  5
412
100
AcDbEntity
  8
_0-3_躯体と製品
  6
CONTINUOUS
 62
     0
100
AcDbCircle
 10
440.8
 20
394.8
 40
0.3
100
AcDbArc
 50
180
 51
270
  0
LINE
  5
413
100
AcDbEntity
  8
_0-3_躯体と製品
  6
CONTINUOUS
 62
     0
100
AcDbLine
 10
440.5
 20
394.8
 11
440.5
 21
396.2
  0
LINE
  5
414
100
AcDbEntity
  8
_0-3_躯体と製品
  6
CONTINUOUS
 62
     0
100
AcDbLine
 10
442.145200089
 20
390
 11
443.145200089
 21
391
  0
LINE
  5
415
100
AcDbEntity
  8
_0-3_躯体と製品
  6
CONTINUOUS
 62
     0
100
AcDbLine
 10
443.5594136514
 20
390
 11
444.5594136514
 21
391
  0
ARC
  5
416
100
AcDbEntity
  8
_0-3_躯体と製品
  6
CONTINUOUS
 62
     0
100
AcDbCircle
 10
442
 20
382.75
 40
9.25
100
AcDbArc
 50
90
 51
108.9246444161
  0
ARC
  5
417
100
AcDbEntity
  8
_0-3_躯体と製品
  6
CONTINUOUS
 62
     0
100
AcDbCircle
 10
443.75
 20
401.25
 40
0.75
100
AcDbArc
 50
-90
 51
90
  0
ARC
  5
418
100
AcDbEntity
  8
_0-3_躯体と製品
  6
CONTINUOUS
 62
     0
100
AcDbCircle
 10
442.75
 20
397.25
 40
0.75
100
AcDbArc
 50
-90
 51
90
  0
ARC
  5
419
100
AcDbEntity
  8
_0-3_躯体と製品
  6
CONTINUOUS
 62
     0
100
AcDbCircle
 10
440.8
 20
400.2
 40
0.3
100
AcDbArc
 50
90
 51
180
  0
LINE
  5
41A
100
AcDbEntity
  8
_0-3_躯体と製品
  6
CONTINUOUS
 62
     0
100
AcDbLine
 10
440.8
 20
400.5
 11
443.75
 21
400.5
  0
LINE
  5
41B
100
AcDbEntity
  8
_0-3_躯体と製品
  6
CONTINUOUS
 62
     0
100
AcDbLine
 10
440.8
 20
398
 11
442.75
 21
398
  0
ARC
  5
41C
100
AcDbEntity
  8
_0-3_躯体と製品
  6
CONTINUOUS
 62
     0
100
AcDbCircle
 10
440.8
 20
398.3
 40
0.3
100
AcDbArc
 50
180
 51
270
  0
LINE
  5
41D
100
AcDbEntity
  8
_0-3_躯体と製品
  6
CONTINUOUS
 62
     0
100
AcDbLine
 10
440.5
 20
398.3
 11
440.5
 21
400.2
  0
LINE
  5
41E
100
AcDbEntity
  8
_0-3_躯体と製品
  6
CONTINUOUS
 62
     0
100
AcDbLine
 10
440.8
 20
396.5
 11
442.75
 21
396.5
  0
LINE
  5
41F
100
AcDbEntity
  8
_0-3_躯体と製品
  6
CONTINUOUS
 62
     0
100
AcDbLine
 10
439.5
 20
402
 11
443.75
 21
402
  0
ARC
  5
420
100
AcDbEntity
  8
_0-3_躯体と製品
  6
CONTINUOUS
 62
     0
100
AcDbCircle
 10
439.5
 20
401.5
 40
0.5
100
AcDbArc
 50
90
 51
180
  0
LINE
  5
421
100
AcDbEntity
  8
_0-3_躯体と製品
  6
CONTINUOUS
 62
     0
100
AcDbLine
 10
441
 20
398.9
 11
441
 21
400.5
  0
LINE
  5
422
100
AcDbEntity
  8
_0-3_躯体と製品
  6
CONTINUOUS
 62
     0
100
AcDbLine
 10
443
 20
400.5
 11
443
 21
398.9
  0
LINE
  5
423
100
AcDbEntity
  8
_0-4_図枠
  6
CONTINUOUS
 62
     0
100
AcDbLine
 10
363.7208942486
 20
451.6731164004
 11
387.6125019454
 21
410.291637995
  0
LINE
  5
424
100
AcDbEntity
  8
_0-3_躯体と製品
  6
CONTINUOUS
 62
     0
100
AcDbLine
 10
362.989036278
 20
422.3529622234
 11
391.4499780185
 21
420.8613874704
  0
LINE
  5
425
100
AcDbEntity
  8
_0-3_躯体と製品
  6
CONTINUOUS
 62
     0
100
AcDbLine
 10
367.8775120393
 20
420.0940233726
 11
387.8501027344
 21
419.0473042478
  0
LINE
  5
426
100
AcDbEntity
  8
_0-4_図枠
  6
CONTINUOUS
 62
     0
100
AcDbLine
 10
339.3630038442
 20
448.1908842778
 11
319.8771809495
 21
467.6767071725
  0
LINE
  5
427
100
AcDbEntity
  8
_0-3_躯体と製品
  6
CONTINUOUS
 62
     0
100
AcDbLine
 10
333
 20
413.719242094
 11
333
 21
460.2716498733
  0
LINE
  5
428
100
AcDbEntity
  8
_0-3_躯体と製品
  6
CONTINUOUS
 62
     0
100
AcDbLine
 10
334
 20
413.719242094
 11
334
 21
490.2716498733
  0
LINE
  5
429
100
AcDbEntity
  8
_0-3_躯体と製品
  6
CONTINUOUS
 62
     0
100
AcDbLine
 10
338
 20
455.2716498733
 11
338
 21
437.2716498733
  0
ARC
  5
42A
100
AcDbEntity
  8
_0-3_躯体と製品
  6
CONTINUOUS
 62
     0
100
AcDbCircle
 10
356.5
 20
454.7716498733
 40
0.5
100
AcDbArc
 50
180
 51
270
  0
ARC
  5
42B
100
AcDbEntity
  8
_0-3_躯体と製品
  6
CONTINUOUS
 62
     0
100
AcDbCircle
 10
365.5
 20
455.2716498733
 40
1
100
AcDbArc
 50
-90
 51
0
  0
LINE
  5
42C
100
AcDbEntity
  8
_0-3_躯体と製品
  6
CONTINUOUS
 62
     0
100
AcDbLine
 10
334.5
 20
465.2716498733
 11
334.5
 21
451.2716498733
  0
LINE
  5
42D
100
AcDbEntity
  8
_0-3_躯体と製品
  6
CONTINUOUS
 62
     0
100
AcDbLine
 10
336.5
 20
446.7716498733
 11
336.5
 21
464.7716498733
  0
ARC
  5
42E
100
AcDbEntity
  8
_0-3_躯体と製品
  6
CONTINUOUS
 62
     0
100
AcDbCircle
 10
356.3
 20
454.5716498733
 40
0.3
100
AcDbArc
 50
180
 51
270
  0
ARC
  5
42F
100
AcDbEntity
  8
_0-3_躯体と製品
  6
CONTINUOUS
 62
     0
100
AcDbCircle
 10
356
 20
454.2716498733
 40
1
100
AcDbArc
 50
180
 51
270
  0
ARC
  5
430
100
AcDbEntity
  8
_0-3_躯体と製品
  6
CONTINUOUS
 62
     0
100
AcDbCircle
 10
364.5
 20
453.7716498733
 40
0.5
100
AcDbArc
 50
0
 51
90
  0
LINE
  5
431
100
AcDbEntity
  8
_0-3_躯体と製品
  6
CONTINUOUS
 62
     0
100
AcDbLine
 10
342
 20
432.2716498733
 11
342
 21
462.2716498733
  0
LINE
  5
432
100
AcDbEntity
  8
_0-3_躯体と製品
  6
CONTINUOUS
 62
     0
100
AcDbLine
 10
344
 20
433.7716498733
 11
344
 21
461.7716498733
  0
LINE
  5
433
100
AcDbEntity
  8
_0-3_躯体と製品
  6
CONTINUOUS
 62
     0
100
AcDbLine
 10
346
 20
450.3347523595
 11
346
 21
461.3857877928
  0
LINE
  5
434
100
AcDbEntity
  8
_0-3_躯体と製品
  6
CONTINUOUS
 62
     0
100
AcDbLine
 10
348
 20
450.3347523595
 11
348
 21
461.3857877928
  0
LINE
  5
435
100
AcDbEntity
  8
_0-3_躯体と製品
  6
CONTINUOUS
 62
     0
100
AcDbLine
 10
341
 20
450.596791256
 11
341
 21
462.7498975558
  0
LINE
  5
436
100
AcDbEntity
  8
_0-3_躯体と製品
  6
CONTINUOUS
 62
     0
100
AcDbLine
 10
336.5
 20
450.596791256
 11
336.5
 21
462.7498975558
  0
LINE
  5
437
100
AcDbEntity
  8
_0-3_躯体と製品
  6
CONTINUOUS
 62
     0
100
AcDbLine
 10
343.6074803282
 20
443.1070697453
 11
364.0206466652
 21
442.0372610294
  0
LINE
  5
438
100
AcDbEntity
  8
_0-3_躯体と製品
  6
CONTINUOUS
 62
     0
100
AcDbLine
 10
343.8429921313
 20
447.6009026517
 11
364.2561584683
 21
446.5310939358
  0
LINE
  5
439
100
AcDbEntity
  8
_0-3_躯体と製品
  6
CONTINUOUS
 62
     0
100
AcDbLine
 10
337
 20
425.7716498733
 11
347.75
 21
425.7716498733
  0
LINE
  5
43A
100
AcDbEntity
  8
_0-3_躯体と製品
  6
CONTINUOUS
 62
     0
100
AcDbLine
 10
337
 20
427.2716498733
 11
347.75
 21
427.2716498733
  0
LINE
  5
43B
100
AcDbEntity
  8
_0-3_躯体と製品
  6
CONTINUOUS
 62
     0
100
AcDbLine
 10
353
 20
432.7716498733
 11
345
 21
432.7716498733
  0
LINE
  5
43C
100
AcDbEntity
  8
_0-3_躯体と製品
  6
CONTINUOUS
 62
     0
100
AcDbLine
 10
351.5
 20
430.2716498733
 11
341
 21
430.2716498733
  0
ARC
  5
43D
100
AcDbEntity
  8
_0-3_躯体と製品
  6
CONTINUOUS
 62
     0
100
AcDbCircle
 10
349
 20
450.3347523595
 40
3
100
AcDbArc
 50
180
 51
267
  0
LINE
  5
43E
100
AcDbEntity
  8
_0-4_図枠
  6
CONTINUOUS
 62
     0
100
AcDbLine
 10
337.2838028879
 20
439.6553216451
 11
321.6183766197
 21
423.9898953769
  0
LINE
  5
43F
100
AcDbEntity
  8
_0-3_躯体と製品
  6
CONTINUOUS
 62
     0
100
AcDbLine
 10
334.5
 20
441.2716498733
 11
334.5
 21
427.2716498733
  0
LINE
  5
440
100
AcDbEntity
  8
_0-3_躯体と製品
  6
CONTINUOUS
 62
     0
100
AcDbLine
 10
336.5
 20
427.7716498733
 11
336.5
 21
445.7716498733
  0
ARC
  5
441
100
AcDbEntity
  8
_0-3_躯体と製品
  6
CONTINUOUS
 62
     0
100
AcDbCircle
 10
340
 20
430.7716498733
 40
1
100
AcDbArc
 50
90
 51
180
  0
LINE
  5
442
100
AcDbEntity
  8
_0-3_躯体と製品
  6
CONTINUOUS
 62
     0
100
AcDbLine
 10
339.5
 20
419.2716498733
 11
340.5
 21
419.7716498733
  0
LINE
  5
443
100
AcDbEntity
  8
_0-3_躯体と製品
  6
CONTINUOUS
 62
     0
100
AcDbLine
 10
340.5
 20
419.7716498733
 11
340.5
 21
419.2716498733
  0
LINE
  5
444
100
AcDbEntity
  8
_0-3_躯体と製品
  6
CONTINUOUS
 62
     0
100
AcDbLine
 10
340.5
 20
419.2716498733
 11
341.5
 21
419.7716498733
  0
LINE
  5
445
100
AcDbEntity
  8
_0-3_躯体と製品
  6
CONTINUOUS
 62
     0
100
AcDbLine
 10
341.5
 20
419.7716498733
 11
341.5
 21
419.2716498733
  0
ARC
  5
446
100
AcDbEntity
  8
_0-3_躯体と製品
  6
CONTINUOUS
 62
     0
100
AcDbCircle
 10
342.75
 20
420.0216498733
 40
0.75
100
AcDbArc
 50
-90
 51
90
  0
LINE
  5
447
100
AcDbEntity
  8
_0-3_躯体と製品
  6
CONTINUOUS
 62
     0
100
AcDbLine
 10
335
 20
415.7716498733
 11
335
 21
425.2716498733
  0
LINE
  5
448
100
AcDbEntity
  8
_0-3_躯体と製品
  6
CONTINUOUS
 62
     0
100
AcDbLine
 10
337
 20
419.2716498733
 11
339.5
 21
419.2716498733
  0
LINE
  5
449
100
AcDbEntity
  8
_0-3_躯体と製品
  6
CONTINUOUS
 62
     0
100
AcDbLine
 10
337
 20
415.2716498733
 11
339.5
 21
415.2716498733
  0
LINE
  5
44A
100
AcDbEntity
  8
_0-3_躯体と製品
  6
CONTINUOUS
 62
     0
100
AcDbLine
 10
342.75
 20
413.7716498733
 11
334
 21
413.7716498733
  0
ARC
  5
44B
100
AcDbEntity
  8
_0-3_躯体と製品
  6
CONTINUOUS
 62
     0
100
AcDbCircle
 10
337
 20
418.7716498733
 40
0.5
100
AcDbArc
 50
90
 51
180
  0
ARC
  5
44C
100
AcDbEntity
  8
_0-3_躯体と製品
  6
CONTINUOUS
 62
     0
100
AcDbCircle
 10
337
 20
415.7716498733
 40
0.5
100
AcDbArc
 50
180
 51
270
  0
LINE
  5
44D
100
AcDbEntity
  8
_0-3_躯体と製品
  6
CONTINUOUS
 62
     0
100
AcDbLine
 10
336.5
 20
415.7716498733
 11
336.5
 21
418.7716498733
  0
ARC
  5
44E
100
AcDbEntity
  8
_0-3_躯体と製品
  6
CONTINUOUS
 62
     0
100
AcDbCircle
 10
334.5
 20
415.7716498733
 40
0.5
100
AcDbArc
 50
-90
 51
0
  0
LINE
  5
44F
100
AcDbEntity
  8
_0-3_躯体と製品
  6
CONTINUOUS
 62
     0
100
AcDbLine
 10
334.5
 20
415.2716498733
 11
334
 21
415.2716498733
  0
LINE
  5
450
100
AcDbEntity
  8
_0-3_躯体と製品
  6
CONTINUOUS
 62
     0
100
AcDbLine
 10
334
 20
413.7716498733
 11
334
 21
415.2716498733
  0
ARC
  5
451
100
AcDbEntity
  8
_0-3_躯体と製品
  6
CONTINUOUS
 62
     0
100
AcDbCircle
 10
342.75
 20
414.5216498733
 40
0.75
100
AcDbArc
 50
-90
 51
90
  0
LINE
  5
452
100
AcDbEntity
  8
_0-3_躯体と製品
  6
CONTINUOUS
 62
     0
100
AcDbLine
 10
339.5
 20
415.2716498733
 11
340.5
 21
414.7716498733
  0
LINE
  5
453
100
AcDbEntity
  8
_0-3_躯体と製品
  6
CONTINUOUS
 62
     0
100
AcDbLine
 10
340.5
 20
415.2716498733
 11
340.5
 21
414.7716498733
  0
LINE
  5
454
100
AcDbEntity
  8
_0-3_躯体と製品
  6
CONTINUOUS
 62
     0
100
AcDbLine
 10
340.5
 20
415.2716498733
 11
341.5
 21
414.7716498733
  0
LINE
  5
455
100
AcDbEntity
  8
_0-3_躯体と製品
  6
CONTINUOUS
 62
     0
100
AcDbLine
 10
341.5
 20
415.2716498733
 11
341.5
 21
414.7716498733
  0
LINE
  5
456
100
AcDbEntity
  8
_0-3_躯体と製品
  6
CONTINUOUS
 62
     0
100
AcDbLine
 10
342.75
 20
415.2716498733
 11
341.5
 21
415.2716498733
  0
LINE
  5
457
100
AcDbEntity
  8
_0-3_躯体と製品
  6
CONTINUOUS
 62
     0
100
AcDbLine
 10
342.75
 20
419.2716498733
 11
341.5
 21
419.2716498733
  0
LINE
  5
458
100
AcDbEntity
  8
_0-3_躯体と製品
  6
CONTINUOUS
 62
     0
100
AcDbLine
 10
337
 20
420.7716498733
 11
342.75
 21
420.7716498733
  0
LINE
  5
459
100
AcDbEntity
  8
_0-3_躯体と製品
  6
CONTINUOUS
 62
     0
100
AcDbLine
 10
334.5
 20
427.2716498733
 11
334
 21
427.2716498733
  0
ARC
  5
45A
100
AcDbEntity
  8
_0-3_躯体と製品
  6
CONTINUOUS
 62
     0
100
AcDbCircle
 10
337
 20
421.2716498733
 40
0.5
100
AcDbArc
 50
180
 51
270
  0
LINE
  5
45B
100
AcDbEntity
  8
_0-3_躯体と製品
  6
CONTINUOUS
 62
     0
100
AcDbLine
 10
336.5
 20
425.2716498733
 11
336.5
 21
421.2716498733
  0
ARC
  5
45C
100
AcDbEntity
  8
_0-3_躯体と製品
  6
CONTINUOUS
 62
     0
100
AcDbCircle
 10
337
 20
425.2716498733
 40
0.5
100
AcDbArc
 50
90
 51
180
  0
ARC
  5
45D
100
AcDbEntity
  8
_0-3_躯体と製品
  6
CONTINUOUS
 62
     0
100
AcDbCircle
 10
337
 20
427.7716498733
 40
0.5
100
AcDbArc
 50
180
 51
270
  0
LINE
  5
45E
100
AcDbEntity
  8
_0-3_躯体と製品
  6
CONTINUOUS
 62
     0
100
AcDbLine
 10
334.5
 20
425.7716498733
 11
334
 21
425.7716498733
  0
ARC
  5
45F
100
AcDbEntity
  8
_0-3_躯体と製品
  6
CONTINUOUS
 62
     0
100
AcDbCircle
 10
334.5
 20
425.2716498733
 40
0.5
100
AcDbArc
 50
0
 51
90
  0
LINE
  5
460
100
AcDbEntity
  8
_0-3_躯体と製品
  6
CONTINUOUS
 62
     0
100
AcDbLine
 10
334
 20
427.2716498733
 11
334
 21
425.7716498733
  0
LINE
  5
461
100
AcDbEntity
  8
_0-3_躯体と製品
  6
CONTINUOUS
 62
     0
100
AcDbLine
 10
339
 20
430.7716498733
 11
339
 21
428.5216498733
  0
ARC
  5
462
100
AcDbEntity
  8
_0-3_躯体と製品
  6
CONTINUOUS
 62
     0
100
AcDbCircle
 10
339.75
 20
428.5216498733
 40
0.75
100
AcDbArc
 50
180
 51
360
  0
LINE
  5
463
100
AcDbEntity
  8
_0-3_躯体と製品
  6
CONTINUOUS
 62
     0
100
AcDbLine
 10
340.5
 20
429.7716498733
 11
340.5
 21
428.5216498733
  0
ARC
  5
464
100
AcDbEntity
  8
_0-3_躯体と製品
  6
CONTINUOUS
 62
     0
100
AcDbCircle
 10
341
 20
429.7716498733
 40
0.5
100
AcDbArc
 50
90
 51
180
  0
LINE
  5
465
100
AcDbEntity
  8
_0-3_躯体と製品
  6
CONTINUOUS
 62
     0
100
AcDbLine
 10
320
 20
450.2716488733
 11
332
 21
450.2716488733
  0
LINE
  5
466
100
AcDbEntity
  8
_0-3_躯体と製品
  6
CONTINUOUS
 62
     0
100
AcDbLine
 10
332
 20
441.2716488733
 11
326.999999
 21
442.2716478733
  0
LINE
  5
467
100
AcDbEntity
  8
_0-3_躯体と製品
  6
CONTINUOUS
 62
     0
100
AcDbLine
 10
326.999999
 20
446.2716498733
 11
332
 21
446.2716498733
  0
LINE
  5
468
100
AcDbEntity
  8
_0-3_躯体と製品
  6
CONTINUOUS
 62
     0
100
AcDbLine
 10
332
 20
445.2716478733
 11
326.999999
 21
446.2716498733
  0
LINE
  5
469
100
AcDbEntity
  8
_0-3_躯体と製品
  6
CONTINUOUS
 62
     0
100
AcDbLine
 10
332
 20
447.2716488733
 11
326.999999
 21
446.2716498733
  0
LINE
  5
46A
100
AcDbEntity
  8
_0-3_躯体と製品
  6
CONTINUOUS
 62
     0
100
AcDbLine
 10
332
 20
451.2716478733
 11
326.999999
 21
450.2716488733
  0
LINE
  5
46B
100
AcDbEntity
  8
_0-3_躯体と製品
  6
CONTINUOUS
 62
     0
100
AcDbLine
 10
320
 20
442.2716478733
 11
332
 21
442.2716478733
  0
LINE
  5
46C
100
AcDbEntity
  8
_0-3_躯体と製品
  6
CONTINUOUS
 62
     0
100
AcDbLine
 10
315.195509
 20
441.8054208733
 11
314.092208
 21
443.7503448733
  0
LINE
  5
46D
100
AcDbEntity
  8
_0-3_躯体と製品
  6
CONTINUOUS
 62
     0
100
AcDbLine
 10
317.088095
 20
443.9073528733
 11
317.192768
 21
441.9100938733
  0
LINE
  5
46E
100
AcDbEntity
  8
_0-3_躯体と製品
  6
CONTINUOUS
 62
     0
100
AcDbLine
 10
319.085354
 20
444.0120228733
 11
320
 21
442.2716478733
  0
LINE
  5
46F
100
AcDbEntity
  8
_0-3_躯体と製品
  6
CONTINUOUS
 62
     0
100
AcDbLine
 10
323.80364
 20
439.9493088733
 11
317.19962
 21
440.8927398733
  0
LINE
  5
470
100
AcDbEntity
  8
_0-3_躯体と製品
  6
CONTINUOUS
 62
     0
100
AcDbLine
 10
316.857599
 20
439.9530468733
 11
323.661221
 21
438.9606918733
  0
LINE
  5
471
100
AcDbEntity
  8
_0-3_躯体と製品
  6
CONTINUOUS
 62
     0
100
AcDbLine
 10
317.192768
 20
441.9100938733
 11
315.195509
 21
441.8054208733
  0
ARC
  5
472
100
AcDbEntity
  8
_0-3_躯体と製品
  6
CONTINUOUS
 62
     0
100
AcDbCircle
 10
323.747072
 20
439.5533298733
 40
0.399999
100
AcDbArc
 50
-8.130102000005
 51
81.869898
  0
LINE
  5
473
100
AcDbEntity
  8
_0-3_躯体と製品
  6
CONTINUOUS
 62
     0
100
AcDbLine
 10
324.114935
 20
439.2999348733
 11
324.143051
 21
439.4967618733
  0
ARC
  5
474
100
AcDbEntity
  8
_0-3_躯体と製品
  6
CONTINUOUS
 62
     0
100
AcDbCircle
 10
323.718953
 20
439.3565028733
 40
0.399999
100
AcDbArc
 50
-98.298466
 51
-8.130102000005
  0
LINE
  5
475
100
AcDbEntity
  8
_0-3_躯体と製品
  6
CONTINUOUS
 62
     0
100
AcDbLine
 10
323.80364
 20
452.5939878733
 11
317.19962
 21
451.6505568733
  0
LINE
  5
476
100
AcDbEntity
  8
_0-3_躯体と製品
  6
CONTINUOUS
 62
     0
100
AcDbLine
 10
316.857599
 20
452.5902498733
 11
323.661221
 21
453.5826048733
  0
LINE
  5
477
100
AcDbEntity
  8
_0-3_躯体と製品
  6
CONTINUOUS
 62
     0
100
AcDbLine
 10
319.085354
 20
444.0120228733
 11
317.088095
 21
443.9073528733
  0
LINE
  5
478
100
AcDbEntity
  8
_0-3_躯体と製品
  6
CONTINUOUS
 62
     0
100
AcDbLine
 10
315.195509
 20
450.7378758733
 11
314.092208
 21
448.7929518733
  0
LINE
  5
479
100
AcDbEntity
  8
_0-3_躯体と製品
  6
CONTINUOUS
 62
     0
100
AcDbLine
 10
317.192768
 20
450.6332028733
 11
315.195509
 21
450.7378758733
  0
LINE
  5
47A
100
AcDbEntity
  8
_0-3_躯体と製品
  6
CONTINUOUS
 62
     0
100
AcDbLine
 10
317.088095
 20
448.6359438733
 11
317.192768
 21
450.6332028733
  0
LINE
  5
47B
100
AcDbEntity
  8
_0-3_躯体と製品
  6
CONTINUOUS
 62
     0
100
AcDbLine
 10
319.085354
 20
448.5312738733
 11
317.088095
 21
448.6359438733
  0
LINE
  5
47C
100
AcDbEntity
  8
_0-3_躯体と製品
  6
CONTINUOUS
 62
     0
100
AcDbLine
 10
320
 20
450.2716488733
 11
319.085354
 21
448.5312738733
  0
LINE
  5
47D
100
AcDbEntity
  8
_0-3_躯体と製品
  6
CONTINUOUS
 62
     0
100
AcDbLine
 10
323.999999
 20
446.7716478733
 11
323.999999
 21
445.7716488733
  0
ARC
  5
47E
100
AcDbEntity
  8
_0-3_躯体と製品
  6
CONTINUOUS
 62
     0
100
AcDbCircle
 10
323.747072
 20
452.9899668733
 40
0.399999
100
AcDbArc
 50
-81.869898
 51
8.130102000005
  0
LINE
  5
47F
100
AcDbEntity
  8
_0-3_躯体と製品
  6
CONTINUOUS
 62
     0
100
AcDbLine
 10
324.114935
 20
453.2433618733
 11
324.143051
 21
453.0465378733
  0
ARC
  5
480
100
AcDbEntity
  8
_0-3_躯体と製品
  6
CONTINUOUS
 62
     0
100
AcDbCircle
 10
323.718953
 20
453.1867938733
 40
0.399999
100
AcDbArc
 50
8.130102000005
 51
98.298466
  0
ARC
  5
481
100
AcDbEntity
  8
_0-3_躯体と製品
  6
CONTINUOUS
 62
     0
100
AcDbCircle
 10
337.871291
 20
444.7688868733
 40
3
100
AcDbArc
 50
-87.541074
 51
-38.614638
  0
LINE
  5
482
100
AcDbEntity
  8
_0-3_躯体と製品
  6
CONTINUOUS
 62
     0
100
AcDbLine
 10
334
 20
451.2716498733
 11
334
 21
441.2716498733
  0
ARC
  5
483
100
AcDbEntity
  8
_0-3_躯体と製品
  6
CONTINUOUS
 62
     0
100
AcDbCircle
 10
344
 20
450.596791256
 40
7.5
100
AcDbArc
 50
180
 51
267
  0
CIRCLE
  5
484
100
AcDbEntity
  8
_0-4_図枠
  6
CONTINUOUS
 62
     0
100
AcDbCircle
 10
337.2838028879
 20
439.6553216451
 40
0.9
  0
LINE
  5
485
100
AcDbEntity
  8
_0-3_躯体と製品
  6
CONTINUOUS
 62
     0
100
AcDbLine
 10
336.5
 20
437.2716498733
 11
338
 21
437.2716498733
  0
LINE
  5
486
100
AcDbEntity
  8
_0-3_躯体と製品
  6
CONTINUOUS
 62
     0
100
AcDbLine
 10
334
 20
441.2716498733
 11
334.5
 21
441.2716498733
  0
ARC
  5
487
100
AcDbEntity
  8
_0-3_躯体と製品
  6
CONTINUOUS
 62
     0
100
AcDbCircle
 10
341.5
 20
432.2716498733
 40
0.5
100
AcDbArc
 50
-90
 51
0
  0
LINE
  5
488
100
AcDbEntity
  8
_0-3_躯体と製品
  6
CONTINUOUS
 62
     0
100
AcDbLine
 10
341.5
 20
431.7716498733
 11
340
 21
431.7716498733
  0
ARC
  5
489
100
AcDbEntity
  8
_0-3_躯体と製品
  6
CONTINUOUS
 62
     0
100
AcDbCircle
 10
345
 20
433.7716498733
 40
1
100
AcDbArc
 50
180
 51
270
  0
CIRCLE
  5
48A
100
AcDbEntity
  8
_0-4_図枠
  6
CONTINUOUS
 62
     0
100
AcDbCircle
 10
339.3630038442
 20
448.1908842778
 40
0.9
  0
ARC
  5
48B
100
AcDbEntity
  8
_0-3_躯体と製品
  6
CONTINUOUS
 62
     0
100
AcDbCircle
 10
337.871291
 20
447.7744098733
 40
3
100
AcDbArc
 50
38.614638
 51
87.541074
  0
LINE
  5
48C
100
AcDbEntity
  8
_0-3_躯体と製品
  6
CONTINUOUS
 62
     0
100
AcDbLine
 10
333
 20
443.7716498733
 11
332
 21
443.7716498733
  0
LINE
  5
48D
100
AcDbEntity
  8
_0-3_躯体と製品
  6
CONTINUOUS
 62
     0
100
AcDbLine
 10
333
 20
448.7716498733
 11
332
 21
448.7716498733
  0
LINE
  5
48E
100
AcDbEntity
  8
_0-3_躯体と製品
  6
CONTINUOUS
 62
     0
100
AcDbLine
 10
334
 20
451.2716498733
 11
334.5
 21
451.2716498733
  0
LINE
  5
48F
100
AcDbEntity
  8
_0-3_躯体と製品
  6
CONTINUOUS
 62
     0
100
AcDbLine
 10
336.5
 20
446.7716498733
 11
336
 21
446.2716498733
  0
LINE
  5
490
100
AcDbEntity
  8
_0-3_躯体と製品
  6
CONTINUOUS
 62
     0
100
AcDbLine
 10
336.5
 20
445.7716498733
 11
336
 21
446.2716498733
  0
ARC
  5
491
100
AcDbEntity
  8
_0-3_躯体と製品
  6
CONTINUOUS
 62
     0
100
AcDbCircle
 10
336.000002
 20
446.2716498733
 40
5.4
100
AcDbArc
 50
-38.682187
 51
0
  0
ARC
  5
492
100
AcDbEntity
  8
_0-3_躯体と製品
  6
CONTINUOUS
 62
     0
100
AcDbCircle
 10
336.000002
 20
446.2716498733
 40
5.4
100
AcDbArc
 50
0
 51
38.851062
  0
ARC
  5
493
100
AcDbEntity
  8
_0-3_躯体と製品
  6
CONTINUOUS
 62
     0
100
AcDbCircle
 10
344
 20
450.596791256
 40
3
100
AcDbArc
 50
180
 51
267
  0
ARC
  5
494
100
AcDbEntity
  8
_0-3_躯体と製品
  6
CONTINUOUS
 62
     0
100
AcDbCircle
 10
353
 20
430.7716498733
 40
2
100
AcDbArc
 50
0
 51
90
  0
LINE
  5
495
100
AcDbEntity
  8
_0-3_躯体と製品
  6
CONTINUOUS
 62
     0
100
AcDbLine
 10
362.7011885187
 20
416.8604997822
 11
364.1665952935
 21
444.8221267553
  0
LINE
  5
496
100
AcDbEntity
  8
_0-3_躯体と製品
  6
CONTINUOUS
 62
     0
100
AcDbLine
 10
362.8320284093
 20
419.3570736191
 11
367.8251760831
 21
419.0953938379
  0
ARC
  5
497
100
AcDbEntity
  8
_0-3_躯体と製品
  6
CONTINUOUS
 62
     0
100
AcDbCircle
 10
360.8086013617
 20
418.9624307642
 40
0.5
100
AcDbArc
 50
-2.999999999999
 51
86.99999999999
  0
ARC
  5
498
100
AcDbEntity
  8
_0-3_躯体と製品
  6
CONTINUOUS
 62
     0
100
AcDbCircle
 10
362.2542097076
 20
417.8852972951
 40
0.5
100
AcDbArc
 50
-93.00000000001
 51
-2.999999999999
  0
LINE
  5
499
100
AcDbEntity
  8
_0-3_躯体と製品
  6
CONTINUOUS
 62
     0
100
AcDbLine
 10
361.7287269621
 20
417.4121505058
 11
362.2280417294
 21
417.3859825277
  0
ARC
  5
49A
100
AcDbEntity
  8
_0-3_躯体と製品
  6
CONTINUOUS
 62
     0
100
AcDbCircle
 10
361.7548949402
 20
417.9114652732
 40
0.5
100
AcDbArc
 50
177
 51
267
  0
LINE
  5
49B
100
AcDbEntity
  8
_0-3_躯体と製品
  6
CONTINUOUS
 62
     0
100
AcDbLine
 10
361.3079161291
 20
418.9362627861
 11
361.2555801728
 21
417.9376332513
  0
ARC
  5
49C
100
AcDbEntity
  8
_0-3_躯体と製品
  6
CONTINUOUS
 62
     0
100
AcDbCircle
 10
356
 20
423.72061444
 40
1
100
AcDbArc
 50
180
 51
267
  0
LINE
  5
49D
100
AcDbEntity
  8
_0-3_躯体と製品
  6
CONTINUOUS
 62
     0
100
AcDbLine
 10
354.3953280875
 20
419.7992223474
 11
360.8347693398
 21
419.4617455316
  0
ARC
  5
49E
100
AcDbEntity
  8
_0-3_躯体と製品
  6
CONTINUOUS
 62
     0
100
AcDbCircle
 10
347.75
 20
426.5216498733
 40
0.75
100
AcDbArc
 50
-90
 51
90
  0
ARC
  5
49F
100
AcDbEntity
  8
_0-3_躯体と製品
  6
CONTINUOUS
 62
     0
100
AcDbCircle
 10
351.5
 20
429.2716498733
 40
1
100
AcDbArc
 50
0
 51
90
  0
LINE
  5
4A0
100
AcDbEntity
  8
_0-3_躯体と製品
  6
CONTINUOUS
 62
     0
100
AcDbLine
 10
355
 20
423.72061444
 11
355
 21
430.7716498733
  0
LINE
  5
4A1
100
AcDbEntity
  8
_0-3_躯体と製品
  6
CONTINUOUS
 62
     0
100
AcDbLine
 10
352.5
 20
421.796481417
 11
352.5
 21
429.2716498733
  0
ARC
  5
4A2
100
AcDbEntity
  8
_0-3_躯体と製品
  6
CONTINUOUS
 62
     0
100
AcDbCircle
 10
354.5
 20
421.796481417
 40
2
100
AcDbArc
 50
180
 51
267
  0
ARC
  5
4A3
100
AcDbEntity
  8
_0-3_躯体と製品
  6
CONTINUOUS
 62
     0
100
AcDbCircle
 10
362.6205614013
 20
424.8757040384
 40
0.5
100
AcDbArc
 50
-2.999999999999
 51
86.99999999999
  0
LINE
  5
4A4
100
AcDbEntity
  8
_0-3_躯体と製品
  6
CONTINUOUS
 62
     0
100
AcDbLine
 10
362.147414612
 20
425.4011867839
 11
362.6467293794
 21
425.3750188058
  0
ARC
  5
4A5
100
AcDbEntity
  8
_0-3_躯体と製品
  6
CONTINUOUS
 62
     0
100
AcDbCircle
 10
362.1212466339
 20
424.9018720165
 40
0.5
100
AcDbArc
 50
86.99999999999
 51
177
  0
LINE
  5
4A6
100
AcDbEntity
  8
_0-3_躯体と製品
  6
CONTINUOUS
 62
     0
100
AcDbLine
 10
361.517259954
 20
422.9307809251
 11
361.6219318665
 21
424.9280399946
  0
ARC
  5
4A7
100
AcDbEntity
  8
_0-3_躯体と製品
  6
CONTINUOUS
 62
     0
100
AcDbCircle
 10
361.0179451866
 20
422.9569489032
 40
0.5
100
AcDbArc
 50
-93.00000000001
 51
-2.999999999999
  0
LINE
  5
4A8
100
AcDbEntity
  8
_0-3_躯体と製品
  6
CONTINUOUS
 62
     0
100
AcDbLine
 10
355.9476640438
 20
422.7219849053
 11
360.9917772085
 21
422.4576341359
  0
LINE
  5
4A9
100
AcDbEntity
  8
_0-3_躯体と製品
  6
CONTINUOUS
 62
     0
100
AcDbLine
 10
367.8251760831
 20
419.0953938379
 11
367.8775120393
 21
420.0940233726
  0
CIRCLE
  5
4AA
100
AcDbEntity
  8
_0-4_図枠
  6
CONTINUOUS
 62
     0
100
AcDbCircle
 10
363.7208942486
 20
451.6731164004
 40
0.9
  0
LINE
  5
4AB
100
AcDbEntity
  8
_0-3_躯体と製品
  6
CONTINUOUS
 62
     0
100
AcDbLine
 10
364.11286286
 20
453.2716498733
 11
363.1980749978
 21
451.3629680542
  0
ARC
  5
4AC
100
AcDbEntity
  8
_0-3_躯体と製品
  6
CONTINUOUS
 62
     0
100
AcDbCircle
 10
360.3123881243
 20
452.7460122576
 40
4
100
AcDbArc
 50
-141.5965759391
 51
-25.60734235523
  0
LINE
  5
4AD
100
AcDbEntity
  8
_0-3_躯体と製品
  6
CONTINUOUS
 62
     0
100
AcDbLine
 10
356
 20
453.2716498733
 11
365
 21
453.2716498733
  0
ARC
  5
4AE
100
AcDbEntity
  8
_0-3_躯体と製品
  6
CONTINUOUS
 62
     0
100
AcDbCircle
 10
349
 20
450.3347523595
 40
1
100
AcDbArc
 50
180
 51
267
  0
ARC
  5
4AF
100
AcDbEntity
  8
_0-3_躯体と製品
  6
CONTINUOUS
 62
     0
100
AcDbCircle
 10
360.3123881243
 20
452.7460122576
 40
3.2
100
AcDbArc
 50
-141.5965759391
 51
-25.60734235523
  0
LINE
  5
4B0
100
AcDbEntity
  8
_0-3_躯体と製品
  6
CONTINUOUS
 62
     0
100
AcDbLine
 10
356.1838514009
 20
451.5150839399
 11
357.1777627826
 21
450.2612338032
  0
LINE
  5
4B1
100
AcDbEntity
  8
_0-3_躯体と製品
  6
CONTINUOUS
 62
     0
100
AcDbLine
 10
356.8107764692
 20
452.0120396308
 11
357.804687851
 21
450.7581894941
  0
ARC
  5
4B2
100
AcDbEntity
  8
_0-3_躯体と製品
  6
CONTINUOUS
 62
     0
100
AcDbCircle
 10
356.4973139351
 20
451.7635617854
 40
0.4
100
AcDbArc
 50
38.40342406093
 51
218.4034240609
  0
LINE
  5
4B3
100
AcDbEntity
  8
_0-3_躯体と製品
  6
CONTINUOUS
 62
     0
100
AcDbLine
 10
378.9105265117
 20
439.5432545053
 11
379.1198703367
 21
443.5377726443
  0
LINE
  5
4B4
100
AcDbEntity
  8
_0-3_躯体と製品
  6
CONTINUOUS
 62
     0
100
AcDbLine
 10
367.4559089544
 20
440.143565574
 11
364.0974135763
 21
443.5020609522
  0
LINE
  5
4B5
100
AcDbEntity
  8
_0-3_躯体と製品
  6
CONTINUOUS
 62
     0
100
AcDbLine
 10
368.9483373761
 20
440.0653507147
 11
364.7213193652
 21
444.2923687256
  0
LINE
  5
4B6
100
AcDbEntity
  8
_0-3_躯体と製品
  6
CONTINUOUS
 62
     0
100
AcDbLine
 10
370.4407657978
 20
439.9871358554
 11
366.2137477868
 21
444.2141538663
  0
LINE
  5
4B7
100
AcDbEntity
  8
_0-3_躯体と製品
  6
CONTINUOUS
 62
     0
100
AcDbLine
 10
371.9331942195
 20
439.9089209961
 11
367.7061762085
 21
444.135939007
  0
LINE
  5
4B8
100
AcDbEntity
  8
_0-3_躯体と製品
  6
CONTINUOUS
 62
     0
100
AcDbLine
 10
373.4256226412
 20
439.8307061367
 11
369.1986046302
 21
444.0577241477
  0
LINE
  5
4B9
100
AcDbEntity
  8
_0-3_躯体と製品
  6
CONTINUOUS
 62
     0
100
AcDbLine
 10
374.9180510629
 20
439.7524912774
 11
370.6910330519
 21
443.9795092884
  0
LINE
  5
4BA
100
AcDbEntity
  8
_0-3_躯体と製品
  6
CONTINUOUS
 62
     0
100
AcDbLine
 10
376.4104794846
 20
439.6742764181
 11
372.1834614736
 21
443.901294429
  0
LINE
  5
4BB
100
AcDbEntity
  8
_0-3_躯体と製品
  6
CONTINUOUS
 62
     0
100
AcDbLine
 10
377.9029079062
 20
439.5960615588
 11
373.6758898953
 21
443.8230795697
  0
LINE
  5
4BC
100
AcDbEntity
  8
_0-3_躯体と製品
  6
CONTINUOUS
 62
     0
100
AcDbLine
 10
378.9334038029
 20
439.9797792245
 11
375.168318317
 21
443.7448647104
  0
LINE
  5
4BD
100
AcDbEntity
  8
_0-3_躯体と製品
  6
CONTINUOUS
 62
     0
100
AcDbLine
 10
379.0038287785
 20
441.3235678113
 11
376.6607467387
 21
443.6666498511
  0
LINE
  5
4BE
100
AcDbEntity
  8
_0-3_躯体と製品
  6
CONTINUOUS
 62
     0
100
AcDbLine
 10
364.471052111
 20
440.2999952927
 11
363.9565636249
 21
440.8144837787
  0
LINE
  5
4BF
100
AcDbEntity
  8
_0-3_躯体と製品
  6
CONTINUOUS
 62
     0
100
AcDbLine
 10
365.9634805327
 20
440.2217804333
 11
364.0269886006
 21
442.1582723654
  0
LINE
  5
4C0
100
AcDbEntity
  8
_0-3_躯体と製品
  6
CONTINUOUS
 62
     0
100
AcDbLine
 10
364.1404273154
 20
444.322811988
 11
379.1198703367
 21
443.5377726443
  0
LINE
  5
4C1
100
AcDbEntity
  8
_0-3_躯体と製品
  6
CONTINUOUS
 62
     0
100
AcDbLine
 10
372.1687060226
 20
444.4027539025
 11
370.3602688593
 21
446.2111910657
  0
LINE
  5
4C2
100
AcDbEntity
  8
_0-3_躯体と製品
  6
CONTINUOUS
 62
     0
100
AcDbLine
 10
365
 20
453.2716498733
 11
363.9194967162
 21
451.0172070034
  0
LINE
  5
4C3
100
AcDbEntity
  8
_0-3_躯体と製品
  6
CONTINUOUS
 62
     0
100
AcDbLine
 10
365
 20
453.7716498733
 11
365
 21
453.2716498733
  0
LINE
  5
4C4
100
AcDbEntity
  8
_0-3_躯体と製品
  6
CONTINUOUS
 62
     0
100
AcDbLine
 10
364.1665952935
 20
444.8221267553
 11
364.2561584683
 21
446.5310939358
  0
LINE
  5
4C5
100
AcDbEntity
  8
_0-3_躯体と製品
  6
CONTINUOUS
 62
     0
100
AcDbLine
 10
364.7065639141
 20
444.7938281991
 11
364.192075428
 21
445.3083166851
  0
LINE
  5
4C6
100
AcDbEntity
  8
_0-3_躯体と製品
  6
CONTINUOUS
 62
     0
100
AcDbLine
 10
366.1989923358
 20
444.7156133397
 11
364.3905551725
 21
446.524050503
  0
LINE
  5
4C7
100
AcDbEntity
  8
_0-3_躯体と製品
  6
CONTINUOUS
 62
     0
100
AcDbLine
 10
367.6914207575
 20
444.6373984804
 11
365.8829835942
 21
446.4458356437
  0
LINE
  5
4C8
100
AcDbEntity
  8
_0-3_躯体と製品
  6
CONTINUOUS
 62
     0
100
AcDbLine
 10
369.1838491792
 20
444.5591836211
 11
367.3754120159
 21
446.3676207844
  0
LINE
  5
4C9
100
AcDbEntity
  8
_0-3_躯体と製品
  6
CONTINUOUS
 62
     0
100
AcDbLine
 10
370.6762776009
 20
444.4809687618
 11
368.8678404376
 21
446.2894059251
  0
LINE
  5
4CA
100
AcDbEntity
  8
_0-3_躯体と製品
  6
CONTINUOUS
 62
     0
100
AcDbLine
 10
379.1460383148
 20
444.0370874117
 11
379.2356014896
 21
445.7460545922
  0
LINE
  5
4CB
100
AcDbEntity
  8
_0-3_躯体と製品
  6
CONTINUOUS
 62
     0
100
AcDbLine
 10
379.0742537542
 20
442.667356398
 11
378.1531751604
 21
443.5884349918
  0
LINE
  5
4CC
100
AcDbEntity
  8
_0-3_躯体と製品
  6
CONTINUOUS
 62
     0
100
AcDbLine
 10
373.6611344443
 20
444.3245390431
 11
371.852697281
 21
446.1329762064
  0
LINE
  5
4CD
100
AcDbEntity
  8
_0-3_躯体と製品
  6
CONTINUOUS
 62
     0
100
AcDbLine
 10
375.153562866
 20
444.2463241838
 11
373.3451257027
 21
446.0547613471
  0
LINE
  5
4CE
100
AcDbEntity
  8
_0-3_躯体と製品
  6
CONTINUOUS
 62
     0
100
AcDbLine
 10
376.6459912876
 20
444.1681093245
 11
374.8375541244
 21
445.9765464878
  0
LINE
  5
4CF
100
AcDbEntity
  8
_0-3_躯体と製品
  6
CONTINUOUS
 62
     0
100
AcDbLine
 10
378.1384197093
 20
444.0898944652
 11
376.329982546
 21
445.8983316285
  0
LINE
  5
4D0
100
AcDbEntity
  8
_0-3_躯体と製品
  6
CONTINUOUS
 62
     0
100
AcDbLine
 10
379.168915606
 20
444.4736121309
 11
377.8224109677
 21
445.8201167692
  0
LINE
  5
4D1
100
AcDbEntity
  8
_0-3_躯体と製品
  6
CONTINUOUS
 62
     0
100
AcDbLine
 10
334.8772773174
 20
496.7716498733
 11
351.745311
 21
496.7716498733
  0
ARC
  5
4D2
100
AcDbEntity
  8
_0-3_躯体と製品
  6
CONTINUOUS
 62
     0
100
AcDbCircle
 10
346.5
 20
495.2930784447
 40
2.021428571429
100
AcDbArc
 50
-90
 51
-42.74124453868
  0
ARC
  5
4D3
100
AcDbEntity
  8
_0-3_躯体と製品
  6
CONTINUOUS
 62
     0
100
AcDbCircle
 10
346.5
 20
498.2502213019
 40
2.021428571429
100
AcDbArc
 50
42.74124453868
 51
90
  0
ARC
  5
4D4
100
AcDbEntity
  8
_0-3_躯体と製品
  6
CONTINUOUS
 62
     0
100
AcDbCircle
 10
347.5
 20
491.2716498733
 40
1
100
AcDbArc
 50
180
 51
270
  0
LINE
  5
4D5
100
AcDbEntity
  8
_0-3_躯体と製品
  6
CONTINUOUS
 62
     0
100
AcDbLine
 10
346.1814102797
 20
487.7716498733
 11
346.9814112797
 21
488.5716508733
  0
LINE
  5
4D6
100
AcDbEntity
  8
_0-3_躯体と製品
  6
CONTINUOUS
 62
     0
100
AcDbLine
 10
363.400001
 20
487.7716498733
 11
345.000002
 21
487.7716498733
  0
LINE
  5
4D7
100
AcDbEntity
  8
_0-3_躯体と製品
  6
CONTINUOUS
 62
     0
100
AcDbLine
 10
363.400001
 20
488.5716508733
 11
345.000002
 21
488.5716508733
  0
ARC
  5
4D8
100
AcDbEntity
  8
_0-3_躯体と製品
  6
CONTINUOUS
 62
     0
100
AcDbCircle
 10
347
 20
490.7716498733
 40
0.5
100
AcDbArc
 50
180
 51
270
  0
LINE
  5
4D9
100
AcDbEntity
  8
_0-3_躯体と製品
  6
CONTINUOUS
 62
     0
100
AcDbLine
 10
346
 20
488.7716498733
 11
364.5
 21
488.7716498733
  0
LINE
  5
4DA
100
AcDbEntity
  8
_0-3_躯体と製品
  6
CONTINUOUS
 62
     0
100
AcDbLine
 10
344
 20
487.7716498733
 11
348.6
 21
487.7716498733
  0
LINE
  5
4DB
100
AcDbEntity
  8
_0-3_躯体と製品
  6
CONTINUOUS
 62
     0
100
AcDbLine
 10
343.5
 20
486.5716498733
 11
348.6
 21
486.5716498733
  0
LINE
  5
4DC
100
AcDbEntity
  8
_0-3_躯体と製品
  6
CONTINUOUS
 62
     0
100
AcDbLine
 10
344.5
 20
462.2716498733
 11
348.5
 21
462.2716498733
  0
LINE
  5
4DD
100
AcDbEntity
  8
_0-3_躯体と製品
  6
CONTINUOUS
 62
     0
100
AcDbLine
 10
348
 20
463.7716498733
 11
343.5
 21
463.7716498733
  0
LINE
  5
4DE
100
AcDbEntity
  8
_0-3_躯体と製品
  6
CONTINUOUS
 62
     0
100
AcDbLine
 10
349.5
 20
470.2716498733
 11
341.9
 21
470.2716498733
  0
LINE
  5
4DF
100
AcDbEntity
  8
_0-3_躯体と製品
  6
CONTINUOUS
 62
     0
100
AcDbLine
 10
343
 20
468.7716498733
 11
348.5
 21
468.7716498733
  0
LINE
  5
4E0
100
AcDbEntity
  8
_0-3_躯体と製品
  6
CONTINUOUS
 62
     0
100
AcDbLine
 10
346
 20
461.3857877928
 11
348
 21
461.3857877928
  0
LINE
  5
4E1
100
AcDbEntity
  8
_0-3_躯体と製品
  6
CONTINUOUS
 62
     0
100
AcDbLine
 10
332
 20
490.2716498733
 11
332
 21
460.2716498733
  0
LINE
  5
4E2
100
AcDbEntity
  8
_0-3_躯体と製品
  6
CONTINUOUS
 62
     0
100
AcDbLine
 10
333
 20
460.2716498733
 11
333
 21
490.2716498733
  0
LINE
  5
4E3
100
AcDbEntity
  8
_0-3_躯体と製品
  6
CONTINUOUS
 62
     0
100
AcDbLine
 10
343
 20
473.2716498733
 11
343
 21
479.2716498733
  0
LINE
  5
4E4
100
AcDbEntity
  8
_0-3_躯体と製品
  6
CONTINUOUS
 62
     0
100
AcDbLine
 10
341.5
 20
477.7716498733
 11
341.5
 21
473.9716498733
  0
LINE
  5
4E5
100
AcDbEntity
  8
_0-3_躯体と製品
  6
CONTINUOUS
 62
     0
100
AcDbLine
 10
334.5
 20
478.2716498733
 11
334.5
 21
466.7716498733
  0
LINE
  5
4E6
100
AcDbEntity
  8
_0-3_躯体と製品
  6
CONTINUOUS
 62
     0
100
AcDbLine
 10
336.5
 20
467.2716498733
 11
336.5
 21
477.7716498733
  0
LINE
  5
4E7
100
AcDbEntity
  8
_0-3_躯体と製品
  6
CONTINUOUS
 62
     0
100
AcDbLine
 10
332
 20
465.8537533592
 11
333
 21
464.8537533592
  0
LINE
  5
4E8
100
AcDbEntity
  8
_0-3_躯体と製品
  6
CONTINUOUS
 62
     0
100
AcDbLine
 10
346.5
 20
465.7716498733
 11
346.5
 21
466.2716498733
  0
LINE
  5
4E9
100
AcDbEntity
  8
_0-3_躯体と製品
  6
CONTINUOUS
 62
     0
100
AcDbLine
 10
334
 20
466.7716498733
 11
334
 21
465.2716498733
  0
LINE
  5
4EA
100
AcDbEntity
  8
_0-3_躯体と製品
  6
CONTINUOUS
 62
     0
100
AcDbLine
 10
346
 20
465.2716498733
 11
337
 21
465.2716498733
  0
LINE
  5
4EB
100
AcDbEntity
  8
_0-3_躯体と製品
  6
CONTINUOUS
 62
     0
100
AcDbLine
 10
341
 20
462.7498975558
 11
336.5
 21
462.7498975558
  0
LINE
  5
4EC
100
AcDbEntity
  8
_0-3_躯体と製品
  6
CONTINUOUS
 62
     0
100
AcDbLine
 10
332
 20
464.4395397968
 11
333
 21
463.4395397968
  0
LINE
  5
4ED
100
AcDbEntity
  8
_0-3_躯体と製品
  6
CONTINUOUS
 62
     0
100
AcDbLine
 10
332
 20
463.0253262345
 11
333
 21
462.0253262345
  0
LINE
  5
4EE
100
AcDbEntity
  8
_0-3_躯体と製品
  6
CONTINUOUS
 62
     0
100
AcDbLine
 10
332
 20
461.6111126721
 11
333
 21
460.6111126721
  0
LINE
  5
4EF
100
AcDbEntity
  8
_0-3_躯体と製品
  6
CONTINUOUS
 62
     0
100
AcDbLine
 10
332
 20
460.2716498733
 11
333
 21
460.2716498733
  0
LINE
  5
4F0
100
AcDbEntity
  8
_0-3_躯体と製品
  6
CONTINUOUS
 62
     0
100
AcDbLine
 10
336.5
 20
455.2716498733
 11
338
 21
455.2716498733
  0
LINE
  5
4F1
100
AcDbEntity
  8
_0-3_躯体と製品
  6
CONTINUOUS
 62
     0
100
AcDbLine
 10
334
 20
465.2716498733
 11
334.5
 21
465.2716498733
  0
ARC
  5
4F2
100
AcDbEntity
  8
_0-3_躯体と製品
  6
CONTINUOUS
 62
     0
100
AcDbCircle
 10
337
 20
464.7716498733
 40
0.5
100
AcDbArc
 50
90
 51
180
  0
ARC
  5
4F3
100
AcDbEntity
  8
_0-3_躯体と製品
  6
CONTINUOUS
 62
     0
100
AcDbCircle
 10
346
 20
465.7716498733
 40
0.5
100
AcDbArc
 50
-90
 51
0
  0
ARC
  5
4F4
100
AcDbEntity
  8
_0-3_躯体と製品
  6
CONTINUOUS
 62
     0
100
AcDbCircle
 10
343.5
 20
462.2716498733
 40
1.5
100
AcDbArc
 50
90
 51
180
  0
ARC
  5
4F5
100
AcDbEntity
  8
_0-3_躯体と製品
  6
CONTINUOUS
 62
     0
100
AcDbCircle
 10
344.5
 20
461.7716498733
 40
0.5
100
AcDbArc
 50
90
 51
180
  0
LINE
  5
4F6
100
AcDbEntity
  8
_0-3_躯体と製品
  6
CONTINUOUS
 62
     0
100
AcDbLine
 10
337
 20
466.7716498733
 11
346
 21
466.7716498733
  0
LINE
  5
4F7
100
AcDbEntity
  8
_0-3_躯体と製品
  6
CONTINUOUS
 62
     0
100
AcDbLine
 10
338.4
 20
472.2716498733
 11
341.9
 21
470.2716498733
  0
LINE
  5
4F8
100
AcDbEntity
  8
_0-3_躯体と製品
  6
CONTINUOUS
 62
     0
100
AcDbLine
 10
337.6557915925
 20
470.9692851601
 11
341.3
 21
468.8868803558
  0
LINE
  5
4F9
100
AcDbEntity
  8
_0-3_躯体と製品
  6
CONTINUOUS
 62
     0
100
AcDbLine
 10
332
 20
477.1674618582
 11
333
 21
476.1674618582
  0
LINE
  5
4FA
100
AcDbEntity
  8
_0-3_躯体と製品
  6
CONTINUOUS
 62
     0
100
AcDbLine
 10
332
 20
475.7532482958
 11
333
 21
474.7532482958
  0
LINE
  5
4FB
100
AcDbEntity
  8
_0-3_躯体と製品
  6
CONTINUOUS
 62
     0
100
AcDbLine
 10
332
 20
474.3390347335
 11
333
 21
473.3390347335
  0
LINE
  5
4FC
100
AcDbEntity
  8
_0-3_躯体と製品
  6
CONTINUOUS
 62
     0
100
AcDbLine
 10
332
 20
472.9248211711
 11
333
 21
471.9248211711
  0
LINE
  5
4FD
100
AcDbEntity
  8
_0-3_躯体と製品
  6
CONTINUOUS
 62
     0
100
AcDbLine
 10
332
 20
471.5106076087
 11
333
 21
470.5106076087
  0
LINE
  5
4FE
100
AcDbEntity
  8
_0-3_躯体と製品
  6
CONTINUOUS
 62
     0
100
AcDbLine
 10
332
 20
470.0963940463
 11
333
 21
469.0963940463
  0
LINE
  5
4FF
100
AcDbEntity
  8
_0-3_躯体と製品
  6
CONTINUOUS
 62
     0
100
AcDbLine
 10
332
 20
468.682180484
 11
333
 21
467.682180484
  0
LINE
  5
500
100
AcDbEntity
  8
_0-3_躯体と製品
  6
CONTINUOUS
 62
     0
100
AcDbLine
 10
332
 20
467.2679669216
 11
333
 21
466.2679669216
  0
LINE
  5
501
100
AcDbEntity
  8
_0-3_躯体と製品
  6
CONTINUOUS
 62
     0
100
AcDbLine
 10
334.5
 20
466.7716498733
 11
334
 21
466.7716498733
  0
ARC
  5
502
100
AcDbEntity
  8
_0-3_躯体と製品
  6
CONTINUOUS
 62
     0
100
AcDbCircle
 10
337
 20
467.2716498733
 40
0.5
100
AcDbArc
 50
180
 51
270
  0
ARC
  5
503
100
AcDbEntity
  8
_0-3_躯体と製品
  6
CONTINUOUS
 62
     0
100
AcDbCircle
 10
337.65
 20
475.5216498733
 40
0.75
100
AcDbArc
 50
0
 51
180
  0
LINE
  5
504
100
AcDbEntity
  8
_0-3_躯体と製品
  6
CONTINUOUS
 62
     0
100
AcDbLine
 10
338.4
 20
475.5216498733
 11
338.4
 21
472.2716498733
  0
LINE
  5
505
100
AcDbEntity
  8
_0-3_躯体と製品
  6
CONTINUOUS
 62
     0
100
AcDbLine
 10
336.9
 20
472.2716498733
 11
336.9
 21
475.5216498733
  0
ARC
  5
506
100
AcDbEntity
  8
_0-3_躯体と製品
  6
CONTINUOUS
 62
     0
100
AcDbCircle
 10
338.4
 20
472.2716498733
 40
1.5
100
AcDbArc
 50
180
 51
240.2551187031
  0
ARC
  5
507
100
AcDbEntity
  8
_0-3_躯体と製品
  6
CONTINUOUS
 62
     0
100
AcDbCircle
 10
342
 20
473.2716498733
 40
1
100
AcDbArc
 50
-90
 51
0
  0
LINE
  5
508
100
AcDbEntity
  8
_0-3_躯体と製品
  6
CONTINUOUS
 62
     0
100
AcDbLine
 10
342
 20
472.2716498733
 11
340.1
 21
472.2716498733
  0
LINE
  5
509
100
AcDbEntity
  8
_0-3_躯体と製品
  6
CONTINUOUS
 62
     0
100
AcDbLine
 10
341
 20
473.4716498733
 11
340.1
 21
473.4716498733
  0
ARC
  5
50A
100
AcDbEntity
  8
_0-3_躯体と製品
  6
CONTINUOUS
 62
     0
100
AcDbCircle
 10
341
 20
473.9716498733
 40
0.5
100
AcDbArc
 50
-90
 51
0
  0
ARC
  5
50B
100
AcDbEntity
  8
_0-3_躯体と製品
  6
CONTINUOUS
 62
     0
100
AcDbCircle
 10
340.1
 20
472.8716498733
 40
0.6
100
AcDbArc
 50
90
 51
270
  0
ARC
  5
50C
100
AcDbEntity
  8
_0-3_躯体と製品
  6
CONTINUOUS
 62
     0
100
AcDbCircle
 10
346
 20
466.2716498733
 40
0.5
100
AcDbArc
 50
0
 51
90
  0
ARC
  5
50D
100
AcDbEntity
  8
_0-3_躯体と製品
  6
CONTINUOUS
 62
     0
100
AcDbCircle
 10
341.9
 20
467.3716498733
 40
0.6
100
AcDbArc
 50
180
 51
360
  0
LINE
  5
50E
100
AcDbEntity
  8
_0-3_躯体と製品
  6
CONTINUOUS
 62
     0
100
AcDbLine
 10
342.5
 20
468.2716498733
 11
342.5
 21
467.3716498733
  0
ARC
  5
50F
100
AcDbEntity
  8
_0-3_躯体と製品
  6
CONTINUOUS
 62
     0
100
AcDbCircle
 10
343
 20
468.2716498733
 40
0.5
100
AcDbArc
 50
90
 51
180
  0
LINE
  5
510
100
AcDbEntity
  8
_0-3_躯体と製品
  6
CONTINUOUS
 62
     0
100
AcDbLine
 10
341.3
 20
468.8868803558
 11
341.3
 21
467.3716498733
  0
LINE
  5
511
100
AcDbEntity
  8
_0-3_躯体と製品
  6
CONTINUOUS
 62
     0
100
AcDbLine
 10
332
 20
489.8953839196
 11
333
 21
488.8953839196
  0
ARC
  5
512
100
AcDbEntity
  8
_0-3_躯体と製品
  6
CONTINUOUS
 62
     0
100
AcDbCircle
 10
345.000002
 20
489.0716518733
 40
1.299999
100
AcDbArc
 50
180
 51
270
  0
ARC
  5
513
100
AcDbEntity
  8
_0-3_躯体と製品
  6
CONTINUOUS
 62
     0
100
AcDbCircle
 10
345.000002
 20
489.0716518733
 40
0.500001
100
AcDbArc
 50
180
 51
270
  0
ARC
  5
514
100
AcDbEntity
  8
_0-3_躯体と製品
  6
CONTINUOUS
 62
     0
100
AcDbCircle
 10
346
 20
489.7716498733
 40
1
100
AcDbArc
 50
180
 51
270
  0
LINE
  5
515
100
AcDbEntity
  8
_0-3_躯体と製品
  6
CONTINUOUS
 62
     0
100
AcDbLine
 10
334.5
 20
492.7716498733
 11
334.5
 21
479.7716498733
  0
LINE
  5
516
100
AcDbEntity
  8
_0-3_躯体と製品
  6
CONTINUOUS
 62
     0
100
AcDbLine
 10
342.5
 20
487.5716498733
 11
342.5
 21
492.2716498733
  0
LINE
  5
517
100
AcDbEntity
  8
_0-3_躯体と製品
  6
CONTINUOUS
 62
     0
100
AcDbLine
 10
336.5
 20
492.2716498733
 11
336.5
 21
480.2716498733
  0
LINE
  5
518
100
AcDbEntity
  8
_0-3_躯体と製品
  6
CONTINUOUS
 62
     0
100
AcDbLine
 10
343.7
 20
488.0716498733
 11
343.7
 21
493.5716498733
  0
CIRCLE
  5
519
100
AcDbEntity
  8
_0-4_図枠
  6
CONTINUOUS
 62
     0
100
AcDbCircle
 10
338.970412466
 20
479.0090368455
 40
0.9
  0
LINE
  5
51A
100
AcDbEntity
  8
_0-3_躯体と製品
  6
CONTINUOUS
 62
     0
100
AcDbLine
 10
342.5
 20
479.7716498733
 11
337
 21
479.7716498733
  0
LINE
  5
51B
100
AcDbEntity
  8
_0-3_躯体と製品
  6
CONTINUOUS
 62
     0
100
AcDbLine
 10
341
 20
478.2716498733
 11
337
 21
478.2716498733
  0
LINE
  5
51C
100
AcDbEntity
  8
_0-3_躯体と製品
  6
CONTINUOUS
 62
     0
100
AcDbLine
 10
332
 20
488.4811703572
 11
333
 21
487.4811703572
  0
LINE
  5
51D
100
AcDbEntity
  8
_0-3_躯体と製品
  6
CONTINUOUS
 62
     0
100
AcDbLine
 10
332
 20
487.0669567948
 11
333
 21
486.0669567948
  0
LINE
  5
51E
100
AcDbEntity
  8
_0-3_躯体と製品
  6
CONTINUOUS
 62
     0
100
AcDbLine
 10
332
 20
485.6527432324
 11
333
 21
484.6527432324
  0
LINE
  5
51F
100
AcDbEntity
  8
_0-3_躯体と製品
  6
CONTINUOUS
 62
     0
100
AcDbLine
 10
332
 20
484.2385296701
 11
333
 21
483.2385296701
  0
LINE
  5
520
100
AcDbEntity
  8
_0-3_躯体と製品
  6
CONTINUOUS
 62
     0
100
AcDbLine
 10
332
 20
482.8243161077
 11
333
 21
481.8243161077
  0
LINE
  5
521
100
AcDbEntity
  8
_0-3_躯体と製品
  6
CONTINUOUS
 62
     0
100
AcDbLine
 10
332
 20
481.4101025453
 11
333
 21
480.4101025453
  0
LINE
  5
522
100
AcDbEntity
  8
_0-3_躯体と製品
  6
CONTINUOUS
 62
     0
100
AcDbLine
 10
332
 20
479.9958889829
 11
333
 21
478.9958889829
  0
LINE
  5
523
100
AcDbEntity
  8
_0-3_躯体と製品
  6
CONTINUOUS
 62
     0
100
AcDbLine
 10
332
 20
478.5816754206
 11
333
 21
477.5816754206
  0
LINE
  5
524
100
AcDbEntity
  8
_0-3_躯体と製品
  6
CONTINUOUS
 62
     0
100
AcDbLine
 10
334.5
 20
479.7716498733
 11
334
 21
479.7716498733
  0
LINE
  5
525
100
AcDbEntity
  8
_0-3_躯体と製品
  6
CONTINUOUS
 62
     0
100
AcDbLine
 10
334
 20
478.2716498733
 11
334.5
 21
478.2716498733
  0
ARC
  5
526
100
AcDbEntity
  8
_0-3_躯体と製品
  6
CONTINUOUS
 62
     0
100
AcDbCircle
 10
337
 20
477.7716498733
 40
0.5
100
AcDbArc
 50
90
 51
180
  0
ARC
  5
527
100
AcDbEntity
  8
_0-3_躯体と製品
  6
CONTINUOUS
 62
     0
100
AcDbCircle
 10
337
 20
480.2716498733
 40
0.5
100
AcDbArc
 50
180
 51
270
  0
LINE
  5
528
100
AcDbEntity
  8
_0-3_躯体と製品
  6
CONTINUOUS
 62
     0
100
AcDbLine
 10
334
 20
479.7716498733
 11
334
 21
478.2716498733
  0
LINE
  5
529
100
AcDbEntity
  8
_0-3_躯体と製品
  6
CONTINUOUS
 62
     0
100
AcDbLine
 10
343.9237790449
 20
488.3424457633
 11
344.5184427256
 21
488.937109444
  0
LINE
  5
52A
100
AcDbEntity
  8
_0-3_躯体と製品
  6
CONTINUOUS
 62
     0
100
AcDbLine
 10
344.7850875053
 20
487.7895406613
 11
345.5671977173
 21
488.5716508733
  0
ARC
  5
52B
100
AcDbEntity
  8
_0-3_躯体と製品
  6
CONTINUOUS
 62
     0
100
AcDbCircle
 10
344
 20
488.0716498733
 40
0.3
100
AcDbArc
 50
180
 51
270
  0
ARC
  5
52C
100
AcDbEntity
  8
_0-3_躯体と製品
  6
CONTINUOUS
 62
     0
100
AcDbCircle
 10
343.5
 20
487.5716498733
 40
1
100
AcDbArc
 50
180
 51
270
  0
ARC
  5
52D
100
AcDbEntity
  8
_0-3_躯体と製品
  6
CONTINUOUS
 62
     0
100
AcDbCircle
 10
342.5
 20
479.2716498733
 40
0.5
100
AcDbArc
 50
0
 51
90
  0
ARC
  5
52E
100
AcDbEntity
  8
_0-3_躯体と製品
  6
CONTINUOUS
 62
     0
100
AcDbCircle
 10
341
 20
477.7716498733
 40
0.5
100
AcDbArc
 50
0
 51
90
  0
LINE
  5
52F
100
AcDbEntity
  8
_0-3_躯体と製品
  6
CONTINUOUS
 62
     0
100
AcDbLine
 10
345
 20
495.2716498733
 11
336.5
 21
495.2716498733
  0
LINE
  5
530
100
AcDbEntity
  8
_0-3_躯体と製品
  6
CONTINUOUS
 62
     0
100
AcDbLine
 10
345
 20
498.2716498733
 11
336.5
 21
498.2716498733
  0
LINE
  5
531
100
AcDbEntity
  8
_0-3_躯体と製品
  6
CONTINUOUS
 62
     0
100
AcDbLine
 10
342
 20
492.7716498733
 11
337
 21
492.7716498733
  0
LINE
  5
532
100
AcDbEntity
  8
_0-3_躯体と製品
  6
CONTINUOUS
 62
     0
100
AcDbLine
 10
339
 20
498.7716498733
 11
338.5
 21
498.2716498733
  0
LINE
  5
533
100
AcDbEntity
  8
_0-3_躯体と製品
  6
CONTINUOUS
 62
     0
100
AcDbLine
 10
339
 20
494.7716498733
 11
338.5
 21
495.2716498733
  0
LINE
  5
534
100
AcDbEntity
  8
_0-3_躯体と製品
  6
CONTINUOUS
 62
     0
100
AcDbLine
 10
333
 20
490.2716498733
 11
334
 21
490.2716498733
  0
LINE
  5
535
100
AcDbEntity
  8
_0-3_躯体と製品
  6
CONTINUOUS
 62
     0
100
AcDbLine
 10
333
 20
490.2716498733
 11
332
 21
490.2716498733
  0
LINE
  5
536
100
AcDbEntity
  8
_0-3_躯体と製品
  6
CONTINUOUS
 62
     0
100
AcDbLine
 10
337
 20
498.7716498733
 11
337
 21
494.7716498733
  0
LINE
  5
537
100
AcDbEntity
  8
_0-3_躯体と製品
  6
CONTINUOUS
 62
     0
100
AcDbLine
 10
336.5
 20
498.2716498733
 11
336.5
 21
495.2716498733
  0
LINE
  5
538
100
AcDbEntity
  8
_0-3_躯体と製品
  6
CONTINUOUS
 62
     0
100
AcDbLine
 10
336.5
 20
498.2716498733
 11
337
 21
498.7716498733
  0
LINE
  5
539
100
AcDbEntity
  8
_0-3_躯体と製品
  6
CONTINUOUS
 62
     0
100
AcDbLine
 10
336.5
 20
495.2716498733
 11
337
 21
494.7716498733
  0
LINE
  5
53A
100
AcDbEntity
  8
_0-3_躯体と製品
  6
CONTINUOUS
 62
     0
100
AcDbLine
 10
334
 20
492.7716498733
 11
334.5
 21
492.7716498733
  0
ARC
  5
53B
100
AcDbEntity
  8
_0-3_躯体と製品
  6
CONTINUOUS
 62
     0
100
AcDbCircle
 10
337
 20
492.2716498733
 40
0.5
100
AcDbArc
 50
90
 51
180
  0
LINE
  5
53C
100
AcDbEntity
  8
_0-3_躯体と製品
  6
CONTINUOUS
 62
     0
100
AcDbLine
 10
335.5
 20
495.0716498733
 11
335.5
 21
498.4716498733
  0
ARC
  5
53D
100
AcDbEntity
  8
_0-3_躯体と製品
  6
CONTINUOUS
 62
     0
100
AcDbCircle
 10
335.8
 20
495.0716498733
 40
0.3
100
AcDbArc
 50
180
 51
270
  0
LINE
  5
53E
100
AcDbEntity
  8
_0-3_躯体と製品
  6
CONTINUOUS
 62
     0
100
AcDbLine
 10
335.8
 20
494.7716498733
 11
337
 21
494.7716498733
  0
LINE
  5
53F
100
AcDbEntity
  8
_0-3_躯体と製品
  6
CONTINUOUS
 62
     0
100
AcDbLine
 10
335.8
 20
498.7716498733
 11
337
 21
498.7716498733
  0
ARC
  5
540
100
AcDbEntity
  8
_0-3_躯体と製品
  6
CONTINUOUS
 62
     0
100
AcDbCircle
 10
335.8
 20
498.4716498733
 40
0.3
100
AcDbArc
 50
90
 51
180
  0
LINE
  5
541
100
AcDbEntity
  8
_0-3_躯体と製品
  6
CONTINUOUS
 62
     0
100
AcDbLine
 10
338.5
 20
498.2716498733
 11
338
 21
498.7716498733
  0
LINE
  5
542
100
AcDbEntity
  8
_0-3_躯体と製品
  6
CONTINUOUS
 62
     0
100
AcDbLine
 10
338
 20
498.7716498733
 11
337.5
 21
498.2716498733
  0
LINE
  5
543
100
AcDbEntity
  8
_0-3_躯体と製品
  6
CONTINUOUS
 62
     0
100
AcDbLine
 10
337.5
 20
498.2716498733
 11
337
 21
498.7716498733
  0
LINE
  5
544
100
AcDbEntity
  8
_0-3_躯体と製品
  6
CONTINUOUS
 62
     0
100
AcDbLine
 10
338.5
 20
495.2716498733
 11
338
 21
494.7716498733
  0
LINE
  5
545
100
AcDbEntity
  8
_0-3_躯体と製品
  6
CONTINUOUS
 62
     0
100
AcDbLine
 10
338
 20
494.7716498733
 11
337.5
 21
495.2716498733
  0
LINE
  5
546
100
AcDbEntity
  8
_0-3_躯体と製品
  6
CONTINUOUS
 62
     0
100
AcDbLine
 10
337.5
 20
495.2716498733
 11
337
 21
494.7716498733
  0
LINE
  5
547
100
AcDbEntity
  8
_0-3_躯体と製品
  6
CONTINUOUS
 62
     0
100
AcDbLine
 10
334
 20
500.2716498733
 11
334
 21
492.7716498733
  0
CIRCLE
  5
548
100
AcDbEntity
  8
_0-4_図枠
  6
CONTINUOUS
 62
     0
100
AcDbCircle
 10
343.1419097734
 20
497.5278792634
 40
0.9
  0
LINE
  5
549
100
AcDbEntity
  8
_0-3_躯体と製品
  6
CONTINUOUS
 62
     0
100
AcDbLine
 10
345
 20
494.7716498733
 11
342
 21
494.7716498733
  0
LINE
  5
54A
100
AcDbEntity
  8
_0-3_躯体と製品
  6
CONTINUOUS
 62
     0
100
AcDbLine
 10
345
 20
498.7716498733
 11
342
 21
498.7716498733
  0
LINE
  5
54B
100
AcDbEntity
  8
_0-3_躯体と製品
  6
CONTINUOUS
 62
     0
100
AcDbLine
 10
343.7000001803
 20
492.3613075858
 11
343.9103424678
 21
492.5716498733
  0
LINE
  5
54C
100
AcDbEntity
  8
_0-3_躯体と製品
  6
CONTINUOUS
 62
     0
100
AcDbLine
 10
343.7000013925
 20
490.9470952356
 11
344.500001
 21
491.7470948431
  0
LINE
  5
54D
100
AcDbEntity
  8
_0-3_躯体と製品
  6
CONTINUOUS
 62
     0
100
AcDbLine
 10
343.7000026047
 20
489.5328828854
 11
344.500001
 21
490.3328812808
  0
LINE
  5
54E
100
AcDbEntity
  8
_0-3_躯体と製品
  6
CONTINUOUS
 62
     0
100
AcDbLine
 10
343.7
 20
492.5716498733
 11
343.700003
 21
489.0716518733
  0
LINE
  5
54F
100
AcDbEntity
  8
_0-3_躯体と製品
  6
CONTINUOUS
 62
     0
100
AcDbLine
 10
343.7
 20
492.5716498733
 11
344.500001
 21
492.5716498733
  0
LINE
  5
550
100
AcDbEntity
  8
_0-3_躯体と製品
  6
CONTINUOUS
 62
     0
100
AcDbLine
 10
344.500001
 20
489.0716518733
 11
344.500001
 21
492.5716498733
  0
LINE
  5
551
100
AcDbEntity
  8
_0-3_躯体と製品
  6
CONTINUOUS
 62
     0
100
AcDbLine
 10
345
 20
489.7716498733
 11
345
 21
500.2716498733
  0
LINE
  5
552
100
AcDbEntity
  8
_0-3_躯体と製品
  6
CONTINUOUS
 62
     0
100
AcDbLine
 10
346.5
 20
496.4716498733
 11
346.5
 21
490.7716498733
  0
LINE
  5
553
100
AcDbEntity
  8
_0-3_躯体と製品
  6
CONTINUOUS
 62
     0
100
AcDbLine
 10
346.2
 20
496.7716498733
 11
346.5
 21
496.4716498733
  0
LINE
  5
554
100
AcDbEntity
  8
_0-3_躯体と製品
  6
CONTINUOUS
 62
     0
100
AcDbLine
 10
346.2
 20
496.7716498733
 11
346.5
 21
497.0716498733
  0
ARC
  5
555
100
AcDbEntity
  8
_0-3_躯体と製品
  6
CONTINUOUS
 62
     0
100
AcDbCircle
 10
342
 20
492.2716498733
 40
0.5
100
AcDbArc
 50
0
 51
90
  0
LINE
  5
556
100
AcDbEntity
  8
_0-3_躯体と製品
  6
CONTINUOUS
 62
     0
100
AcDbLine
 10
342
 20
498.7716498733
 11
344.5
 21
498.7716498733
  0
LINE
  5
557
100
AcDbEntity
  8
_0-3_躯体と製品
  6
CONTINUOUS
 62
     0
100
AcDbLine
 10
342
 20
494.7716498733
 11
344.5
 21
494.7716498733
  0
LINE
  5
558
100
AcDbEntity
  8
_0-3_躯体と製品
  6
CONTINUOUS
 62
     0
100
AcDbLine
 10
342
 20
498.7716498733
 11
341.5
 21
498.2716498733
  0
LINE
  5
559
100
AcDbEntity
  8
_0-3_躯体と製品
  6
CONTINUOUS
 62
     0
100
AcDbLine
 10
341.5
 20
498.2716498733
 11
341
 21
498.7716498733
  0
LINE
  5
55A
100
AcDbEntity
  8
_0-3_躯体と製品
  6
CONTINUOUS
 62
     0
100
AcDbLine
 10
341
 20
498.7716498733
 11
340.5
 21
498.2716498733
  0
LINE
  5
55B
100
AcDbEntity
  8
_0-3_躯体と製品
  6
CONTINUOUS
 62
     0
100
AcDbLine
 10
340.5
 20
498.2716498733
 11
340
 21
498.7716498733
  0
LINE
  5
55C
100
AcDbEntity
  8
_0-3_躯体と製品
  6
CONTINUOUS
 62
     0
100
AcDbLine
 10
340
 20
498.7716498733
 11
339.5
 21
498.2716498733
  0
LINE
  5
55D
100
AcDbEntity
  8
_0-3_躯体と製品
  6
CONTINUOUS
 62
     0
100
AcDbLine
 10
339.5
 20
498.2716498733
 11
339
 21
498.7716498733
  0
LINE
  5
55E
100
AcDbEntity
  8
_0-3_躯体と製品
  6
CONTINUOUS
 62
     0
100
AcDbLine
 10
342
 20
494.7716498733
 11
341.5
 21
495.2716498733
  0
LINE
  5
55F
100
AcDbEntity
  8
_0-3_躯体と製品
  6
CONTINUOUS
 62
     0
100
AcDbLine
 10
341.5
 20
495.2716498733
 11
341
 21
494.7716498733
  0
LINE
  5
560
100
AcDbEntity
  8
_0-3_躯体と製品
  6
CONTINUOUS
 62
     0
100
AcDbLine
 10
341
 20
494.7716498733
 11
340.5
 21
495.2716498733
  0
LINE
  5
561
100
AcDbEntity
  8
_0-3_躯体と製品
  6
CONTINUOUS
 62
     0
100
AcDbLine
 10
340.5
 20
495.2716498733
 11
340
 21
494.7716498733
  0
LINE
  5
562
100
AcDbEntity
  8
_0-3_躯体と製品
  6
CONTINUOUS
 62
     0
100
AcDbLine
 10
340
 20
494.7716498733
 11
339.5
 21
495.2716498733
  0
LINE
  5
563
100
AcDbEntity
  8
_0-3_躯体と製品
  6
CONTINUOUS
 62
     0
100
AcDbLine
 10
339.5
 20
495.2716498733
 11
339
 21
494.7716498733
  0
LINE
  5
564
100
AcDbEntity
  8
_0-3_躯体と製品
  6
CONTINUOUS
 62
     0
100
AcDbLine
 10
343.7
 20
493.5716498733
 11
344.4
 21
493.5716498733
  0
LINE
  5
565
100
AcDbEntity
  8
_0-3_躯体と製品
  6
CONTINUOUS
 62
     0
100
AcDbLine
 10
343
 20
499.9716498733
 11
344.4
 21
499.9716498733
  0
ARC
  5
566
100
AcDbEntity
  8
_0-3_躯体と製品
  6
CONTINUOUS
 62
     0
100
AcDbCircle
 10
344.4
 20
494.1716498733
 40
0.6
100
AcDbArc
 50
-90
 51
90
  0
ARC
  5
567
100
AcDbEntity
  8
_0-3_躯体と製品
  6
CONTINUOUS
 62
     0
100
AcDbCircle
 10
344.4
 20
499.3716498733
 40
0.6
100
AcDbArc
 50
-90
 51
90
  0
LINE
  5
568
100
AcDbEntity
  8
_0-3_躯体と製品
  6
CONTINUOUS
 62
     0
100
AcDbLine
 10
363.900002
 20
477.2059703462
 11
364.7
 21
478.0059683462
  0
LINE
  5
569
100
AcDbEntity
  8
_0-3_躯体と製品
  6
CONTINUOUS
 62
     0
100
AcDbLine
 10
364.7
 20
487.2716518733
 11
364.7
 21
458.5716508733
  0
LINE
  5
56A
100
AcDbEntity
  8
_0-3_躯体と製品
  6
CONTINUOUS
 62
     0
100
AcDbLine
 10
363.900002
 20
487.2716518733
 11
363.900002
 21
458.5716508733
  0
LINE
  5
56B
100
AcDbEntity
  8
_0-3_躯体と製品
  6
CONTINUOUS
 62
     0
100
AcDbLine
 10
366.5
 20
489.2716498733
 11
366.5
 21
455.2716498733
  0
LINE
  5
56C
100
AcDbEntity
  8
_0-3_躯体と製品
  6
CONTINUOUS
 62
     0
100
AcDbLine
 10
365
 20
488.2716498733
 11
365
 21
456.2716498733
  0
CIRCLE
  5
56D
100
AcDbEntity
  8
_0-4_図枠
  6
CONTINUOUS
 62
     0
100
AcDbCircle
 10
364.2176991381
 20
470.7313426095
 40
0.9
  0
LINE
  5
56E
100
AcDbEntity
  8
_0-3_躯体と製品
  6
CONTINUOUS
 62
     0
100
AcDbLine
 10
365.5
 20
454.2716498733
 11
356.5
 21
454.2716498733
  0
LINE
  5
56F
100
AcDbEntity
  8
_0-3_躯体と製品
  6
CONTINUOUS
 62
     0
100
AcDbLine
 10
364.5
 20
455.7716498733
 11
356.5
 21
455.7716498733
  0
LINE
  5
570
100
AcDbEntity
  8
_0-3_躯体と製品
  6
CONTINUOUS
 62
     0
100
AcDbLine
 10
356.3
 20
454.2716498733
 11
364.5
 21
454.2716498733
  0
LINE
  5
571
100
AcDbEntity
  8
_0-3_躯体と製品
  6
CONTINUOUS
 62
     0
100
AcDbLine
 10
349
 20
464.7716498733
 11
349
 21
468.2716498733
  0
LINE
  5
572
100
AcDbEntity
  8
_0-3_躯体と製品
  6
CONTINUOUS
 62
     0
100
AcDbLine
 10
350.5
 20
455.7716498733
 11
350.5
 21
469.2716498733
  0
ARC
  5
573
100
AcDbEntity
  8
_0-3_躯体と製品
  6
CONTINUOUS
 62
     0
100
AcDbCircle
 10
356
 20
455.9716498733
 40
1
100
AcDbArc
 50
88.09506709944
 51
180
  0
LINE
  5
574
100
AcDbEntity
  8
_0-3_躯体と製品
  6
CONTINUOUS
 62
     0
100
AcDbLine
 10
355
 20
455.9716498733
 11
355
 21
454.2716498733
  0
ARC
  5
575
100
AcDbEntity
  8
_0-3_躯体と製品
  6
CONTINUOUS
 62
     0
100
AcDbCircle
 10
349
 20
456.2716498733
 40
1
100
AcDbArc
 50
90
 51
270
  0
ARC
  5
576
100
AcDbEntity
  8
_0-3_躯体と製品
  6
CONTINUOUS
 62
     0
100
AcDbCircle
 10
348.5
 20
461.7716498733
 40
0.5
100
AcDbArc
 50
0
 51
90
  0
LINE
  5
577
100
AcDbEntity
  8
_0-3_躯体と製品
  6
CONTINUOUS
 62
     0
100
AcDbLine
 10
349
 20
461.7716498733
 11
349
 21
457.2716498733
  0
ARC
  5
578
100
AcDbEntity
  8
_0-3_躯体と製品
  6
CONTINUOUS
 62
     0
100
AcDbCircle
 10
350
 20
455.7716498733
 40
0.5
100
AcDbArc
 50
-90
 51
0
  0
LINE
  5
579
100
AcDbEntity
  8
_0-3_躯体と製品
  6
CONTINUOUS
 62
     0
100
AcDbLine
 10
350
 20
455.2716498733
 11
349
 21
455.2716498733
  0
ARC
  5
57A
100
AcDbEntity
  8
_0-3_躯体と製品
  6
CONTINUOUS
 62
     0
100
AcDbCircle
 10
348
 20
464.7716498733
 40
1
100
AcDbArc
 50
-90
 51
0
  0
LINE
  5
57B
100
AcDbEntity
  8
_0-3_躯体と製品
  6
CONTINUOUS
 62
     0
100
AcDbLine
 10
356
 20
455.6615061069
 11
356
 21
454.5716498733
  0
ARC
  5
57C
100
AcDbEntity
  8
_0-3_躯体と製品
  6
CONTINUOUS
 62
     0
100
AcDbCircle
 10
356.3
 20
455.6615061069
 40
0.3
100
AcDbArc
 50
88.09506709945
 51
180
  0
LINE
  5
57D
100
AcDbEntity
  8
_0-3_躯体と製品
  6
CONTINUOUS
 62
     0
100
AcDbLine
 10
356.3099723679
 20
455.9613403142
 11
361.9966841464
 21
455.7722025156
  0
LINE
  5
57E
100
AcDbEntity
  8
_0-3_躯体と製品
  6
CONTINUOUS
 62
     0
100
AcDbLine
 10
356.0332412263
 20
456.971097231
 11
361.5302016939
 21
456.7882704865
  0
LINE
  5
57F
100
AcDbEntity
  8
_0-3_躯体と製品
  6
CONTINUOUS
 62
     0
100
AcDbLine
 10
362.0465459859
 20
457.2713735521
 11
362.0631665991
 21
457.771097231
  0
ARC
  5
580
100
AcDbEntity
  8
_0-3_躯体と製品
  6
CONTINUOUS
 62
     0
100
AcDbCircle
 10
362.0299253727
 20
456.7716498733
 40
1
100
AcDbArc
 50
-91.90493290056
 51
-1.904932904257
  0
LINE
  5
581
100
AcDbEntity
  8
_0-3_躯体と製品
  6
CONTINUOUS
 62
     0
100
AcDbLine
 10
363.0293727305
 20
456.738408647
 11
363.0626139568
 21
457.7378560048
  0
ARC
  5
582
100
AcDbEntity
  8
_0-3_躯体と製品
  6
CONTINUOUS
 62
     0
100
AcDbCircle
 10
362.5628902779
 20
457.7544766179
 40
0.4999999999355
100
AcDbArc
 50
-1.90493290056
 51
178.0950670994
  0
ARC
  5
583
100
AcDbEntity
  8
_0-3_躯体と製品
  6
CONTINUOUS
 62
     0
100
AcDbCircle
 10
361.546822307
 20
457.2879941653
 40
0.5
100
AcDbArc
 50
-91.90493290056
 51
-1.904932904258
  0
ARC
  5
584
100
AcDbEntity
  8
_0-3_躯体と製品
  6
CONTINUOUS
 62
     0
100
AcDbCircle
 10
356.5
 20
455.2716498733
 40
0.5
100
AcDbArc
 50
90
 51
180
  0
LINE
  5
585
100
AcDbEntity
  8
_0-3_躯体と製品
  6
CONTINUOUS
 62
     0
100
AcDbLine
 10
356
 20
454.7716498733
 11
356
 21
455.2716498733
  0
ARC
  5
586
100
AcDbEntity
  8
_0-3_躯体と製品
  6
CONTINUOUS
 62
     0
100
AcDbCircle
 10
348.5
 20
468.2716498733
 40
0.5
100
AcDbArc
 50
0
 51
90
  0
ARC
  5
587
100
AcDbEntity
  8
_0-3_躯体と製品
  6
CONTINUOUS
 62
     0
100
AcDbCircle
 10
349.5
 20
469.2716498733
 40
1
100
AcDbArc
 50
0
 51
90
  0
CIRCLE
  5
588
100
AcDbEntity
  8
_0-3_躯体と製品
  6
CONTINUOUS
 62
     0
100
AcDbCircle
 10
366.5
 20
454.2716498733
 40
1.4
  0
LINE
  5
589
100
AcDbEntity
  8
_0-3_躯体と製品
  6
CONTINUOUS
 62
     0
100
AcDbLine
 10
363.900002
 20
464.4780482848
 11
364.7
 21
465.2780462848
  0
LINE
  5
58A
100
AcDbEntity
  8
_0-3_躯体と製品
  6
CONTINUOUS
 62
     0
100
AcDbLine
 10
363.900002
 20
463.0638347224
 11
364.7
 21
463.8638327224
  0
LINE
  5
58B
100
AcDbEntity
  8
_0-3_躯体と製品
  6
CONTINUOUS
 62
     0
100
AcDbLine
 10
363.900002
 20
461.6496211601
 11
364.7
 21
462.4496191601
  0
LINE
  5
58C
100
AcDbEntity
  8
_0-3_躯体と製品
  6
CONTINUOUS
 62
     0
100
AcDbLine
 10
363.900002
 20
460.2354075977
 11
364.7
 21
461.0354055977
  0
LINE
  5
58D
100
AcDbEntity
  8
_0-3_躯体と製品
  6
CONTINUOUS
 62
     0
100
AcDbLine
 10
363.900002
 20
458.8211940353
 11
364.7
 21
459.6211920353
  0
LINE
  5
58E
100
AcDbEntity
  8
_0-3_躯体と製品
  6
CONTINUOUS
 62
     0
100
AcDbLine
 10
363.900002
 20
458.5716508733
 11
364.7
 21
458.5716508733
  0
ARC
  5
58F
100
AcDbEntity
  8
_0-3_躯体と製品
  6
CONTINUOUS
 62
     0
100
AcDbCircle
 10
364.5
 20
456.2716498733
 40
0.5
100
AcDbArc
 50
-90
 51
0
  0
LINE
  5
590
100
AcDbEntity
  8
_0-3_躯体と製品
  6
CONTINUOUS
 62
     0
100
AcDbLine
 10
363.900002
 20
475.7917567838
 11
364.7
 21
476.5917547838
  0
LINE
  5
591
100
AcDbEntity
  8
_0-3_躯体と製品
  6
CONTINUOUS
 62
     0
100
AcDbLine
 10
363.900002
 20
474.3775432214
 11
364.7
 21
475.1775412214
  0
LINE
  5
592
100
AcDbEntity
  8
_0-3_躯体と製品
  6
CONTINUOUS
 62
     0
100
AcDbLine
 10
363.900002
 20
472.9633296591
 11
364.7
 21
473.7633276591
  0
LINE
  5
593
100
AcDbEntity
  8
_0-3_躯体と製品
  6
CONTINUOUS
 62
     0
100
AcDbLine
 10
363.900002
 20
471.5491160967
 11
364.7
 21
472.3491140967
  0
LINE
  5
594
100
AcDbEntity
  8
_0-3_躯体と製品
  6
CONTINUOUS
 62
     0
100
AcDbLine
 10
363.900002
 20
470.1349025343
 11
364.7
 21
470.9349005343
  0
LINE
  5
595
100
AcDbEntity
  8
_0-3_躯体と製品
  6
CONTINUOUS
 62
     0
100
AcDbLine
 10
363.900002
 20
468.7206889719
 11
364.7
 21
469.5206869719
  0
LINE
  5
596
100
AcDbEntity
  8
_0-3_躯体と製品
  6
CONTINUOUS
 62
     0
100
AcDbLine
 10
363.900002
 20
467.3064754096
 11
364.7
 21
468.1064734096
  0
LINE
  5
597
100
AcDbEntity
  8
_0-3_躯体と製品
  6
CONTINUOUS
 62
     0
100
AcDbLine
 10
363.900002
 20
465.8922618472
 11
364.7
 21
466.6922598472
  0
LINE
  5
598
100
AcDbEntity
  8
_0-3_躯体と製品
  6
CONTINUOUS
 62
     0
100
AcDbLine
 10
363.1519730282
 20
487.7716498733
 11
363.865698075
 21
488.4853749201
  0
LINE
  5
599
100
AcDbEntity
  8
_0-3_躯体と製品
  6
CONTINUOUS
 62
     0
100
AcDbLine
 10
347
 20
490.2716498733
 11
365.5
 21
490.2716498733
  0
CIRCLE
  5
59A
100
AcDbEntity
  8
_0-4_図枠
  6
CONTINUOUS
 62
     0
100
AcDbCircle
 10
359.5211428793
 20
489.5284544653
 40
0.9
  0
LINE
  5
59B
100
AcDbEntity
  8
_0-3_躯体と製品
  6
CONTINUOUS
 62
     0
100
AcDbLine
 10
354.6666916539
 20
487.7716498733
 11
355.4666926539
 21
488.5716508733
  0
LINE
  5
59C
100
AcDbEntity
  8
_0-3_躯体と製品
  6
CONTINUOUS
 62
     0
100
AcDbLine
 10
347.595623842
 20
487.7716498733
 11
348.395624842
 21
488.5716508733
  0
LINE
  5
59D
100
AcDbEntity
  8
_0-3_躯体と製品
  6
CONTINUOUS
 62
     0
100
AcDbLine
 10
349.0098374044
 20
487.7716498733
 11
349.8098384044
 21
488.5716508733
  0
LINE
  5
59E
100
AcDbEntity
  8
_0-3_躯体と製品
  6
CONTINUOUS
 62
     0
100
AcDbLine
 10
350.4240509668
 20
487.7716498733
 11
351.2240519668
 21
488.5716508733
  0
LINE
  5
59F
100
AcDbEntity
  8
_0-3_躯体と製品
  6
CONTINUOUS
 62
     0
100
AcDbLine
 10
351.8382645292
 20
487.7716498733
 11
352.6382655292
 21
488.5716508733
  0
LINE
  5
5A0
100
AcDbEntity
  8
_0-3_躯体と製品
  6
CONTINUOUS
 62
     0
100
AcDbLine
 10
353.2524780915
 20
487.7716498733
 11
354.0524790915
 21
488.5716508733
  0
ARC
  5
5A1
100
AcDbEntity
  8
_0-3_躯体と製品
  6
CONTINUOUS
 62
     0
100
AcDbCircle
 10
348.6
 20
487.1716498733
 40
0.6
100
AcDbArc
 50
-90
 51
90
  0
LINE
  5
5A2
100
AcDbEntity
  8
_0-3_躯体と製品
  6
CONTINUOUS
 62
     0
100
AcDbLine
 10
356.0809052163
 20
487.7716498733
 11
356.8809062163
 21
488.5716508733
  0
LINE
  5
5A3
100
AcDbEntity
  8
_0-3_躯体と製品
  6
CONTINUOUS
 62
     0
100
AcDbLine
 10
357.4951187787
 20
487.7716498733
 11
358.2951197787
 21
488.5716508733
  0
LINE
  5
5A4
100
AcDbEntity
  8
_0-3_躯体と製品
  6
CONTINUOUS
 62
     0
100
AcDbLine
 10
358.909332341
 20
487.7716498733
 11
359.709333341
 21
488.5716508733
  0
LINE
  5
5A5
100
AcDbEntity
  8
_0-3_躯体と製品
  6
CONTINUOUS
 62
     0
100
AcDbLine
 10
360.3235459034
 20
487.7716498733
 11
361.1235469034
 21
488.5716508733
  0
LINE
  5
5A6
100
AcDbEntity
  8
_0-3_躯体と製品
  6
CONTINUOUS
 62
     0
100
AcDbLine
 10
361.7377594658
 20
487.7716498733
 11
362.5377604658
 21
488.5716508733
  0
LINE
  5
5A7
100
AcDbEntity
  8
_0-3_躯体と製品
  6
CONTINUOUS
 62
     0
100
AcDbLine
 10
353.8616090456
 20
490.2716498733
 11
356.4283121345
 21
492.8383529622
  0
LINE
  5
5A8
100
AcDbEntity
  8
_0-3_躯体と製品
  6
CONTINUOUS
 62
     0
100
AcDbLine
 10
351.0331819208
 20
490.2716498733
 11
356.103317318
 21
495.3417852705
  0
LINE
  5
5A9
100
AcDbEntity
  8
_0-3_躯体と製品
  6
CONTINUOUS
 62
     0
100
AcDbLine
 10
350.5
 20
492.5668950772
 11
356.0015385672
 21
498.0684336445
  0
LINE
  5
5AA
100
AcDbEntity
  8
_0-3_躯体と製品
  6
CONTINUOUS
 62
     0
100
AcDbLine
 10
348.6244928693
 20
497.275777715
 11
350.3581971533
 21
490.7583296554
  0
ARC
  5
5AB
100
AcDbEntity
  8
_0-3_躯体と製品
  6
CONTINUOUS
 62
     0
100
AcDbCircle
 10
344.9
 20
496.7716498733
 40
4.2
100
AcDbArc
 50
14.09578924417
 51
42.74124453868
  0
ARC
  5
5AC
100
AcDbEntity
  8
_0-3_躯体と製品
  6
CONTINUOUS
 62
     0
100
AcDbCircle
 10
344.9
 20
496.7716498733
 40
4.2
100
AcDbArc
 50
-42.74124453868
 51
-14.09578924417
  0
LINE
  5
5AD
100
AcDbEntity
  8
_0-3_躯体と製品
  6
CONTINUOUS
 62
     0
100
AcDbLine
 10
348.5657195747
 20
497.2716498733
 11
348.5657195747
 21
496.2716498733
  0
ARC
  5
5AE
100
AcDbEntity
  8
_0-3_躯体と製品
  6
CONTINUOUS
 62
     0
100
AcDbCircle
 10
348.5657195747
 20
497.6921285967
 40
0.4204787234043
100
AcDbArc
 50
-90
 51
14.09578924417
  0
ARC
  5
5AF
100
AcDbEntity
  8
_0-3_躯体と製品
  6
CONTINUOUS
 62
     0
100
AcDbCircle
 10
348.5657195747
 20
495.8511711499
 40
0.4204787234043
100
AcDbArc
 50
-14.09578924417
 51
90
  0
LINE
  5
5B0
100
AcDbEntity
  8
_0-3_躯体と製品
  6
CONTINUOUS
 62
     0
100
AcDbLine
 10
347.5
 20
490.2716498733
 11
349.5
 21
490.2716498733
  0
ARC
  5
5B1
100
AcDbEntity
  8
_0-3_躯体と製品
  6
CONTINUOUS
 62
     0
100
AcDbCircle
 10
349.5
 20
491.2716498733
 40
1
100
AcDbArc
 50
-90
 51
0
  0
LINE
  5
5B2
100
AcDbEntity
  8
_0-3_躯体と製品
  6
CONTINUOUS
 62
     0
100
AcDbLine
 10
363.900002
 20
487.1054652828
 11
364.5898603545
 21
487.7953236373
  0
LINE
  5
5B3
100
AcDbEntity
  8
_0-3_躯体と製品
  6
CONTINUOUS
 62
     0
100
AcDbLine
 10
363.900002
 20
485.6912517204
 11
364.7
 21
486.4912497204
  0
LINE
  5
5B4
100
AcDbEntity
  8
_0-3_躯体と製品
  6
CONTINUOUS
 62
     0
100
AcDbLine
 10
363.900002
 20
484.277038158
 11
364.7
 21
485.077036158
  0
LINE
  5
5B5
100
AcDbEntity
  8
_0-3_躯体と製品
  6
CONTINUOUS
 62
     0
100
AcDbLine
 10
363.900002
 20
482.8628245957
 11
364.7
 21
483.6628225957
  0
LINE
  5
5B6
100
AcDbEntity
  8
_0-3_躯体と製品
  6
CONTINUOUS
 62
     0
100
AcDbLine
 10
363.900002
 20
481.4486110333
 11
364.7
 21
482.2486090333
  0
LINE
  5
5B7
100
AcDbEntity
  8
_0-3_躯体と製品
  6
CONTINUOUS
 62
     0
100
AcDbLine
 10
363.900002
 20
480.0343974709
 11
364.7
 21
480.8343954709
  0
LINE
  5
5B8
100
AcDbEntity
  8
_0-3_躯体と製品
  6
CONTINUOUS
 62
     0
100
AcDbLine
 10
363.900002
 20
478.6201839086
 11
364.7
 21
479.4201819086
  0
ARC
  5
5B9
100
AcDbEntity
  8
_0-3_躯体と製品
  6
CONTINUOUS
 62
     0
100
AcDbCircle
 10
363.400001
 20
487.2716518733
 40
0.500001
100
AcDbArc
 50
0
 51
90
  0
ARC
  5
5BA
100
AcDbEntity
  8
_0-3_躯体と製品
  6
CONTINUOUS
 62
     0
100
AcDbCircle
 10
363.400001
 20
487.2716518733
 40
1.299999
100
AcDbArc
 50
0
 51
90
  0
ARC
  5
5BB
100
AcDbEntity
  8
_0-3_躯体と製品
  6
CONTINUOUS
 62
     0
100
AcDbCircle
 10
364.5
 20
488.2716498733
 40
0.5
100
AcDbArc
 50
0
 51
90
  0
CIRCLE
  5
5BC
100
AcDbEntity
  8
_0-3_躯体と製品
  6
CONTINUOUS
 62
     0
100
AcDbCircle
 10
366.5
 20
490.2716498733
 40
1.4
  0
ARC
  5
5BD
100
AcDbEntity
  8
_0-3_躯体と製品
  6
CONTINUOUS
 62
     0
100
AcDbCircle
 10
365.5
 20
489.2716498733
 40
1
100
AcDbArc
 50
0
 51
90
  0
ARC
  5
5BE
100
AcDbEntity
  8
_0-3_躯体と製品
  6
CONTINUOUS
 62
     0
100
AcDbCircle
 10
391.3714740842
 20
419.3634431683
 40
1.5
100
AcDbArc
 50
-93.00000000001
 51
86.99999999999
  0
LINE
  5
5BF
100
AcDbEntity
  8
_0-3_躯体と製品
  6
CONTINUOUS
 62
     0
100
AcDbLine
 10
387.7977667782
 20
418.048674713
 11
391.2929701498
 21
417.8654988662
  0
LINE
  5
5C0
100
AcDbEntity
  8
_0-3_躯体と製品
  6
CONTINUOUS
 62
     0
100
AcDbLine
 10
387.7977667782
 20
418.048674713
 11
387.8501027344
 21
419.0473042478
  0
LINE
  5
5C1
100
AcDbEntity
  8
_0-3_躯体と製品
  6
CONTINUOUS
 62
     0
100
AcDbLine
 10
422.9329763414
 20
419.7121196162
 11
423.0271810627
 21
421.5096527787
  0
LINE
  5
5C2
100
AcDbEntity
  8
_0-3_躯体と製品
  6
CONTINUOUS
 62
     0
100
AcDbLine
 10
430.017400953
 20
424.5737811593
 11
431.8489499994
 21
422.1977701672
  0
ARC
  5
5C3
100
AcDbEntity
  8
_0-3_躯体と製品
  6
CONTINUOUS
 62
     0
100
AcDbCircle
 10
432.6409536425
 20
422.8082865301
 40
1.8
100
AcDbArc
 50
-142.3731518763
 51
-43.62684736228
  0
ARC
  5
5C4
100
AcDbEntity
  8
_0-3_躯体と製品
  6
CONTINUOUS
 62
     0
100
AcDbCircle
 10
432.6409536425
 20
422.8082865301
 40
1
100
AcDbArc
 50
-142.3731512671
 51
-43.62684736228
  0
LINE
  5
5C5
100
AcDbEntity
  8
_0-3_躯体と製品
  6
CONTINUOUS
 62
     0
100
AcDbLine
 10
429.3837980268
 20
424.0853680842
 11
431.2153470732
 21
421.7093570921
  0
LINE
  5
5C6
100
AcDbEntity
  8
_0-3_躯体と製品
  6
CONTINUOUS
 62
     0
100
AcDbLine
 10
429.3837980268
 20
424.0853680842
 11
430.017400953
 21
424.5737811593
  0
CIRCLE
  5
5C7
100
AcDbEntity
  8
_0-4_図枠
  6
CONTINUOUS
 62
     0
100
AcDbCircle
 10
317.8512972233
 20
515.5884174567
 40
6
  0
TEXT
  5
5C8
100
AcDbEntity
  8
_0-4_図枠
  6
CONTINUOUS
 62
     0
100
AcDbText
 10
377.7579643841
 20
523.311708303
 40
5
  1
２
  7
STANDARD
100
AcDbText
  0
CIRCLE
  5
5C9
100
AcDbEntity
  8
_0-4_図枠
  6
CONTINUOUS
 62
     0
100
AcDbCircle
 10
380.7579643841
 20
526.311708303
 40
6
  0
LINE
  5
5CA
100
AcDbEntity
  8
_0-3_躯体と製品
  6
CONTINUOUS
 62
     0
100
AcDbLine
 10
357
 20
585.2716498733
 11
357
 21
505.2716498733
  0
ARC
  5
5CB
100
AcDbEntity
  8
_0-3_躯体と製品
  6
CONTINUOUS
 62
     0
100
AcDbCircle
 10
347.5
 20
504.2716498733
 40
1
100
AcDbArc
 50
90
 51
180
  0
LINE
  5
5CC
100
AcDbEntity
  8
_0-3_躯体と製品
  6
CONTINUOUS
 62
     0
100
AcDbLine
 10
332
 20
505.2716498733
 11
357
 21
505.2716498733
  0
TEXT
  5
5CD
100
AcDbEntity
  8
_0-4_図枠
  6
CONTINUOUS
 62
     0
100
AcDbText
 10
314.8512972233
 20
512.5884174567
 40
5
  1
４
  7
STANDARD
100
AcDbText
  0
LINE
  5
5CE
100
AcDbEntity
  8
_0-3_躯体と製品
  6
CONTINUOUS
 62
     0
100
AcDbLine
 10
337.5
 20
500.7716498733
 11
344.5
 21
500.7716498733
  0
LINE
  5
5CF
100
AcDbEntity
  8
_0-3_躯体と製品
  6
CONTINUOUS
 62
     0
100
AcDbLine
 10
345.5
 20
502.2716498733
 11
337.5
 21
502.2716498733
  0
LINE
  5
5D0
100
AcDbEntity
  8
_0-3_躯体と製品
  6
CONTINUOUS
 62
     0
100
AcDbLine
 10
334.5
 20
500.7716498733
 11
343
 21
500.7716498733
  0
ARC
  5
5D1
100
AcDbEntity
  8
_0-3_躯体と製品
  6
CONTINUOUS
 62
     0
100
AcDbCircle
 10
337.5
 20
501.2716498733
 40
0.5
100
AcDbArc
 50
180
 51
270
  0
LINE
  5
5D2
100
AcDbEntity
  8
_0-3_躯体と製品
  6
CONTINUOUS
 62
     0
100
AcDbLine
 10
337
 20
501.7716498733
 11
337
 21
501.2716498733
  0
ARC
  5
5D3
100
AcDbEntity
  8
_0-3_躯体と製品
  6
CONTINUOUS
 62
     0
100
AcDbCircle
 10
337.5
 20
501.7716498733
 40
0.5
100
AcDbArc
 50
90
 51
180
  0
LINE
  5
5D4
100
AcDbEntity
  8
_0-3_躯体と製品
  6
CONTINUOUS
 62
     0
100
AcDbLine
 10
346.5
 20
501.2716498733
 11
346.5
 21
504.2716498733
  0
ARC
  5
5D5
100
AcDbEntity
  8
_0-3_躯体と製品
  6
CONTINUOUS
 62
     0
100
AcDbCircle
 10
345.5
 20
501.2716498733
 40
1
100
AcDbArc
 50
0
 51
90
  0
LINE
  5
5D6
100
AcDbEntity
  8
_0-3_躯体と製品
  6
CONTINUOUS
 62
     0
100
AcDbLine
 10
350.5
 20
501.0521764515
 11
354.7194734218
 21
505.2716498733
  0
LINE
  5
5D7
100
AcDbEntity
  8
_0-3_躯体と製品
  6
CONTINUOUS
 62
     0
100
AcDbLine
 10
350.5
 20
503.8806035762
 11
351.8910462971
 21
505.2716498733
  0
ARC
  5
5D8
100
AcDbEntity
  8
_0-3_躯体と製品
  6
CONTINUOUS
 62
     0
100
AcDbCircle
 10
349.5
 20
504.2716498733
 40
1
100
AcDbArc
 50
0
 51
90
  0
LINE
  5
5D9
100
AcDbEntity
  8
_0-3_躯体と製品
  6
CONTINUOUS
 62
     0
100
AcDbLine
 10
349.5
 20
505.2716498733
 11
347.5
 21
505.2716498733
  0
CIRCLE
  5
5DA
100
AcDbEntity
  8
_0-4_図枠
  6
CONTINUOUS
 62
     0
100
AcDbCircle
 10
388.6865555244
 20
513.1126450736
 40
6
  0
LINE
  5
5DB
100
AcDbEntity
  8
_0-3_躯体と製品
  6
CONTINUOUS
 62
     0
100
AcDbLine
 10
507
 20
390
 11
507
 21
270
  0
LINE
  5
5DC
100
AcDbEntity
  8
_0-4_図枠
  6
CONTINUOUS
 62
     0
100
AcDbLine
 10
474.5216915842
 20
403.751336986
 11
499.3347458396
 21
446.7288076474
  0
LINE
  5
5DD
100
AcDbEntity
  8
_0-3_躯体と製品
  6
CONTINUOUS
 62
     0
100
AcDbLine
 10
457
 20
414.9235144279
 11
457
 21
326
  0
LINE
  5
5DE
100
AcDbEntity
  8
_0-3_躯体と製品
  6
CONTINUOUS
 62
     0
100
AcDbLine
 10
458.7246398617
 20
442.8316033668
 11
456.3719685251
 21
397.9399600108
  0
LINE
  5
5DF
100
AcDbEntity
  8
_0-3_躯体と製品
  6
CONTINUOUS
 62
     0
100
AcDbLine
 10
537.7392561739
 20
409.6029448169
 11
537.156063631
 21
407.0768603872
  0
LINE
  5
5E0
100
AcDbEntity
  8
_0-3_躯体と製品
  6
CONTINUOUS
 62
     0
100
AcDbLine
 10
539.0335143895
 20
409.8744992736
 11
538.3253077087
 21
406.806919122
  0
LINE
  5
5E1
100
AcDbEntity
  8
_0-3_躯体と製品
  6
CONTINUOUS
 62
     0
100
AcDbLine
 10
541.4446842723
 20
409.2541828619
 11
551.2796918705
 21
362.9841099888
  0
LINE
  5
5E2
100
AcDbEntity
  8
_0-3_躯体と製品
  6
CONTINUOUS
 62
     0
100
AcDbLine
 10
544.2195908231
 20
410.6284769866
 11
556.1755409263
 21
354.3801541434
  0
LINE
  5
5E3
100
AcDbEntity
  8
_0-3_躯体と製品
  6
CONTINUOUS
 62
     0
100
AcDbLine
 10
556
 20
351.3801541434
 11
556
 21
435.5332604432
  0
LINE
  5
5E4
100
AcDbEntity
  8
_0-3_躯体と製品
  6
CONTINUOUS
 62
     0
100
AcDbLine
 10
558
 20
435.5332604432
 11
558
 21
351.3801541434
  0
LINE
  5
5E5
100
AcDbEntity
  8
_0-3_躯体と製品
  6
CONTINUOUS
 62
     0
100
AcDbLine
 10
537.6164623608
 20
430.6175197028
 11
551.5700759102
 21
352.477283826
  0
LINE
  5
5E6
100
AcDbEntity
  8
_0-3_躯体と製品
  6
CONTINUOUS
 62
     0
100
AcDbLine
 10
542.0463864506
 20
431.4085775759
 11
556
 21
353.2683416992
  0
LINE
  5
5E7
100
AcDbEntity
  8
_0-3_躯体と製品
  6
CONTINUOUS
 62
     0
100
AcDbLine
 10
473.5
 20
402.5
 11
473.5
 21
410
  0
LINE
  5
5E8
100
AcDbEntity
  8
_0-3_躯体と製品
  6
CONTINUOUS
 62
     0
100
AcDbLine
 10
446
 20
408.2870617369
 11
446
 21
401
  0
LINE
  5
5E9
100
AcDbEntity
  8
_0-3_躯体と製品
  6
CONTINUOUS
 62
     0
100
AcDbLine
 10
447.6
 20
408.2870617369
 11
447.6
 21
401
  0
ARC
  5
5EA
100
AcDbEntity
  8
_0-3_躯体と製品
  6
CONTINUOUS
 62
     0
100
AcDbCircle
 10
465.9
 20
407.3542032657
 40
0.5
100
AcDbArc
 50
0
 51
86.99999999999
  0
ARC
  5
5EB
100
AcDbEntity
  8
_0-3_躯体と製品
  6
CONTINUOUS
 62
     0
100
AcDbCircle
 10
465.9
 20
407.3542032657
 40
2.1
100
AcDbArc
 50
0
 51
86.99999999999
  0
ARC
  5
5EC
100
AcDbEntity
  8
_0-3_躯体と製品
  6
CONTINUOUS
 62
     0
100
AcDbCircle
 10
451.2716011191
 20
407.6201589925
 40
1
100
AcDbArc
 50
-2.999999999999
 51
86.99999999999
  0
ARC
  5
5ED
100
AcDbEntity
  8
_0-3_躯体と製品
  6
CONTINUOUS
 62
     0
100
AcDbCircle
 10
462.4562519084
 20
407.0339962826
 40
1
100
AcDbArc
 50
86.99999999999
 51
177
  0
LINE
  5
5EE
100
AcDbEntity
  8
_0-3_躯体と製品
  6
CONTINUOUS
 62
     0
100
AcDbLine
 10
459.9958886043
 20
409.7665065592
 11
459.8074791618
 21
406.171440234
  0
LINE
  5
5EF
100
AcDbEntity
  8
_0-3_躯体と製品
  6
CONTINUOUS
 62
     0
100
AcDbLine
 10
454.0041113957
 20
410.0805222966
 11
453.8157019533
 21
406.4854559715
  0
CIRCLE
  5
5F0
100
AcDbEntity
  8
_0-4_図枠
  6
CONTINUOUS
 62
     0
100
AcDbCircle
 10
480.7597964936
 20
364.4600133715
 40
6
  0
LINE
  5
5F1
100
AcDbEntity
  8
_0-3_躯体と製品
  6
CONTINUOUS
 62
     0
100
AcDbLine
 10
463.62503
 20
352.738004
 11
461.75
 21
363.371826
  0
LINE
  5
5F2
100
AcDbEntity
  8
_0-3_躯体と製品
  6
CONTINUOUS
 62
     0
100
AcDbLine
 10
457.5
 20
363
 11
459.439597
 21
352
  0
LINE
  5
5F3
100
AcDbEntity
  8
_0-3_躯体と製品
  6
CONTINUOUS
 62
     0
100
AcDbLine
 10
456.5
 20
363
 11
454.560403
 21
352
  0
LINE
  5
5F4
100
AcDbEntity
  8
_0-3_躯体と製品
  6
CONTINUOUS
 62
     0
100
AcDbLine
 10
450.37497
 20
352.738004
 11
452.25
 21
363.371826
  0
LINE
  5
5F5
100
AcDbEntity
  8
_0-3_躯体と製品
  6
CONTINUOUS
 62
     0
100
AcDbLine
 10
463.62503
 20
352.738004
 11
459.439597
 21
352
  0
LINE
  5
5F6
100
AcDbEntity
  8
_0-3_躯体と製品
  6
CONTINUOUS
 62
     0
100
AcDbLine
 10
450.37497
 20
352.738004
 11
454.560403
 21
352
  0
LINE
  5
5F7
100
AcDbEntity
  8
_0-3_躯体と製品
  6
CONTINUOUS
 62
     0
100
AcDbLine
 10
460.5
 20
350.5
 11
453.5
 21
350.5
  0
ARC
  5
5F8
100
AcDbEntity
  8
_0-3_躯体と製品
  6
CONTINUOUS
 62
     0
100
AcDbCircle
 10
453.5
 20
351.5
 40
1
100
AcDbArc
 50
180
 51
270
  0
LINE
  5
5F9
100
AcDbEntity
  8
_0-3_躯体と製品
  6
CONTINUOUS
 62
     0
100
AcDbLine
 10
452.5
 20
351.5
 11
452.5
 21
352.363304
  0
LINE
  5
5FA
100
AcDbEntity
  8
_0-3_躯体と製品
  6
CONTINUOUS
 62
     0
100
AcDbLine
 10
461.5
 20
351.5
 11
461.5
 21
352.363304
  0
ARC
  5
5FB
100
AcDbEntity
  8
_0-3_躯体と製品
  6
CONTINUOUS
 62
     0
100
AcDbCircle
 10
460.5
 20
351.5
 40
1
100
AcDbArc
 50
-90
 51
0
  0
LINE
  5
5FC
100
AcDbEntity
  8
_0-4_図枠
  6
CONTINUOUS
 62
     0
100
AcDbLine
 10
467.1774827281
 20
405.4886149116
 11
478.9591688599
 21
385.0821359326
  0
CIRCLE
  5
5FD
100
AcDbEntity
  8
_0-4_図枠
  6
CONTINUOUS
 62
     0
100
AcDbCircle
 10
481.9591688599
 20
379.8859835099
 40
6
  0
LINE
  5
5FE
100
AcDbEntity
  8
_0-4_図枠
  6
CONTINUOUS
 62
     0
100
AcDbLine
 10
461.3374108287
 20
398.1005721473
 11
477.7597964936
 21
369.6561657942
  0
LINE
  5
5FF
100
AcDbEntity
  8
_0-3_躯体と製品
  6
CONTINUOUS
 62
     0
100
AcDbLine
 10
461.05
 20
392
 11
461.05
 21
382.7
  0
LINE
  5
600
100
AcDbEntity
  8
_0-3_躯体と製品
  6
CONTINUOUS
 62
     0
100
AcDbLine
 10
452.95
 20
392
 11
452.95
 21
382.7
  0
LINE
  5
601
100
AcDbEntity
  8
_0-3_躯体と製品
  6
CONTINUOUS
 62
     0
100
AcDbLine
 10
461.75
 20
363.371826
 11
461.75
 21
382
  0
LINE
  5
602
100
AcDbEntity
  8
_0-3_躯体と製品
  6
CONTINUOUS
 62
     0
100
AcDbLine
 10
452.25
 20
363.371826
 11
452.25
 21
382
  0
CIRCLE
  5
603
100
AcDbEntity
  8
_0-4_図枠
  6
CONTINUOUS
 62
     0
100
AcDbCircle
 10
454.873989024
 20
364.9173386019
 40
0.9
  0
LINE
  5
604
100
AcDbEntity
  8
_0-3_躯体と製品
  6
CONTINUOUS
 62
     0
100
AcDbLine
 10
456.5
 20
363
 11
457.5
 21
363
  0
LINE
  5
605
100
AcDbEntity
  8
_0-3_躯体と製品
  6
CONTINUOUS
 62
     0
100
AcDbLine
 10
452.95
 20
382.7
 11
461.05
 21
382.7
  0
LINE
  5
606
100
AcDbEntity
  8
_0-3_躯体と製品
  6
CONTINUOUS
 62
     0
100
AcDbLine
 10
452.25
 20
382
 11
461.75
 21
382
  0
LINE
  5
607
100
AcDbEntity
  8
_0-3_躯体と製品
  6
CONTINUOUS
 62
     0
100
AcDbLine
 10
452.25
 20
382
 11
452.95
 21
382.7
  0
LINE
  5
608
100
AcDbEntity
  8
_0-3_躯体と製品
  6
CONTINUOUS
 62
     0
100
AcDbLine
 10
461.75
 20
382
 11
461.05
 21
382.7
  0
CIRCLE
  5
609
100
AcDbEntity
  8
_0-4_図枠
  6
CONTINUOUS
 62
     0
100
AcDbCircle
 10
461.3374108287
 20
398.1005721473
 40
0.9
  0
LINE
  5
60A
100
AcDbEntity
  8
_0-3_躯体と製品
  6
CONTINUOUS
 62
     0
100
AcDbLine
 10
461.9
 20
401
 11
462.7735026919
 21
400.4956829857
  0
ARC
  5
60B
100
AcDbEntity
  8
_0-3_躯体と製品
  6
CONTINUOUS
 62
     0
100
AcDbCircle
 10
461.3301270189
 20
398.3864422247
 40
2.555822748428
100
AcDbArc
 50
55.61575253204
 51
124.384247468
  0
LINE
  5
60C
100
AcDbEntity
  8
_0-3_躯体と製品
  6
CONTINUOUS
 62
     0
100
AcDbLine
 10
448
 20
396
 11
466
 21
396
  0
LINE
  5
60D
100
AcDbEntity
  8
_0-3_躯体と製品
  6
CONTINUOUS
 62
     0
100
AcDbLine
 10
452
 20
392
 11
462
 21
392
  0
LINE
  5
60E
100
AcDbEntity
  8
_0-3_躯体と製品
  6
CONTINUOUS
 62
     0
100
AcDbLine
 10
457.5
 20
394.5
 11
473.2
 21
394.5
  0
LINE
  5
60F
100
AcDbEntity
  8
_0-3_躯体と製品
  6
CONTINUOUS
 62
     0
100
AcDbLine
 10
459.8867513459
 20
400.4956829857
 11
459.8867513459
 21
396
  0
LINE
  5
610
100
AcDbEntity
  8
_0-3_躯体と製品
  6
CONTINUOUS
 62
     0
100
AcDbLine
 10
454.1132486541
 20
400.4956829857
 11
454.1132486541
 21
396
  0
LINE
  5
611
100
AcDbEntity
  8
_0-3_躯体と製品
  6
CONTINUOUS
 62
     0
100
AcDbLine
 10
451.2264973081
 20
400.4956829857
 11
451.2264973081
 21
396
  0
LINE
  5
612
100
AcDbEntity
  8
_0-3_躯体と製品
  6
CONTINUOUS
 62
     0
100
AcDbLine
 10
453.458908588
 20
390
 11
454.458908588
 21
391
  0
CIRCLE
  5
613
100
AcDbEntity
  8
_0-4_図枠
  6
CONTINUOUS
 62
     0
100
AcDbCircle
 10
449.878248247
 20
395.2361569326
 40
0.9
  0
LINE
  5
614
100
AcDbEntity
  8
_0-3_躯体と製品
  6
CONTINUOUS
 62
     0
100
AcDbLine
 10
448
 20
396
 11
448
 21
394.5
  0
LINE
  5
615
100
AcDbEntity
  8
_0-3_躯体と製品
  6
CONTINUOUS
 62
     0
100
AcDbLine
 10
452
 20
392.5
 11
452
 21
392
  0
LINE
  5
616
100
AcDbEntity
  8
_0-3_躯体と製品
  6
CONTINUOUS
 62
     0
100
AcDbLine
 10
446.3878407762
 20
390
 11
447.3878407762
 21
391
  0
LINE
  5
617
100
AcDbEntity
  8
_0-3_躯体と製品
  6
CONTINUOUS
 62
     0
100
AcDbLine
 10
447.8020543385
 20
390
 11
448.8020543385
 21
391
  0
LINE
  5
618
100
AcDbEntity
  8
_0-3_躯体と製品
  6
CONTINUOUS
 62
     0
100
AcDbLine
 10
449.2162679009
 20
390
 11
450.2162679009
 21
391
  0
LINE
  5
619
100
AcDbEntity
  8
_0-3_躯体と製品
  6
CONTINUOUS
 62
     0
100
AcDbLine
 10
450.6304814633
 20
390
 11
451.6304814633
 21
391
  0
LINE
  5
61A
100
AcDbEntity
  8
_0-3_躯体と製品
  6
CONTINUOUS
 62
     0
100
AcDbLine
 10
452.0446950257
 20
390
 11
453.0446950257
 21
391
  0
LINE
  5
61B
100
AcDbEntity
  8
_0-3_躯体と製品
  6
CONTINUOUS
 62
     0
100
AcDbLine
 10
457
 20
394
 11
457.5
 21
394.5
  0
LINE
  5
61C
100
AcDbEntity
  8
_0-3_躯体と製品
  6
CONTINUOUS
 62
     0
100
AcDbLine
 10
457
 20
394
 11
456.5
 21
394.5
  0
LINE
  5
61D
100
AcDbEntity
  8
_0-3_躯体と製品
  6
CONTINUOUS
 62
     0
100
AcDbLine
 10
457
 20
392
 11
457
 21
391
  0
LINE
  5
61E
100
AcDbEntity
  8
_0-3_躯体と製品
  6
CONTINUOUS
 62
     0
100
AcDbLine
 10
454.8731221504
 20
390
 11
455.8731221504
 21
391
  0
LINE
  5
61F
100
AcDbEntity
  8
_0-3_躯体と製品
  6
CONTINUOUS
 62
     0
100
AcDbLine
 10
456.2873357128
 20
390
 11
457.2873357128
 21
391
  0
LINE
  5
620
100
AcDbEntity
  8
_0-3_躯体と製品
  6
CONTINUOUS
 62
     0
100
AcDbLine
 10
457.7015492751
 20
390
 11
458.7015492751
 21
391
  0
LINE
  5
621
100
AcDbEntity
  8
_0-3_躯体と製品
  6
CONTINUOUS
 62
     0
100
AcDbLine
 10
459.1157628375
 20
390
 11
460.1157628375
 21
391
  0
LINE
  5
622
100
AcDbEntity
  8
_0-3_躯体と製品
  6
CONTINUOUS
 62
     0
100
AcDbLine
 10
460.5299763999
 20
390
 11
461.5299763999
 21
391
  0
LINE
  5
623
100
AcDbEntity
  8
_0-3_躯体と製品
  6
CONTINUOUS
 62
     0
100
AcDbLine
 10
453.9599614441
 20
401
 11
453.5519685084
 21
401.4531220603
  0
LINE
  5
624
100
AcDbEntity
  8
_0-3_躯体と製品
  6
CONTINUOUS
 62
     0
100
AcDbLine
 10
452.1
 20
401
 11
461.9
 21
401
  0
ARC
  5
625
100
AcDbEntity
  8
_0-3_躯体と製品
  6
CONTINUOUS
 62
     0
100
AcDbCircle
 10
452.6698729811
 20
398.3864422247
 40
2.555822748428
100
AcDbArc
 50
55.61575253204
 51
124.384247468
  0
LINE
  5
626
100
AcDbEntity
  8
_0-3_躯体と製品
  6
CONTINUOUS
 62
     0
100
AcDbLine
 10
453.8157019533
 20
406.4854559715
 11
453.5519685084
 21
401.4531220603
  0
LINE
  5
627
100
AcDbEntity
  8
_0-3_躯体と製品
  6
CONTINUOUS
 62
     0
100
AcDbLine
 10
459.5437457169
 20
401.1391063229
 11
453.5519685084
 21
401.4531220603
  0
LINE
  5
628
100
AcDbEntity
  8
_0-3_躯体と製品
  6
CONTINUOUS
 62
     0
100
AcDbLine
 10
461.4052864174
 20
406.0877027041
 11
452.2178946977
 21
406.5691935015
  0
LINE
  5
629
100
AcDbEntity
  8
_0-3_躯体と製品
  6
CONTINUOUS
 62
     0
100
AcDbLine
 10
452.1
 20
401
 11
451.2264973081
 21
400.4956829857
  0
ARC
  5
62A
100
AcDbEntity
  8
_0-3_躯体と製品
  6
CONTINUOUS
 62
     0
100
AcDbCircle
 10
445.5
 20
401
 40
2.1
100
AcDbArc
 50
-90
 51
0
  0
ARC
  5
62B
100
AcDbEntity
  8
_0-3_躯体と製品
  6
CONTINUOUS
 62
     0
100
AcDbCircle
 10
445.5
 20
401
 40
0.5
100
AcDbArc
 50
-90
 51
0
  0
LINE
  5
62C
100
AcDbEntity
  8
_0-3_躯体と製品
  6
CONTINUOUS
 62
     0
100
AcDbLine
 10
452.2702306539
 20
407.5678230362
 11
452.2178946977
 21
406.5691935015
  0
LINE
  5
62D
100
AcDbEntity
  8
_0-3_躯体と製品
  6
CONTINUOUS
 62
     0
100
AcDbLine
 10
459.5437457169
 20
401.1391063229
 11
459.3892524938
 21
401
  0
LINE
  5
62E
100
AcDbEntity
  8
_0-3_躯体と製品
  6
CONTINUOUS
 62
     0
100
AcDbLine
 10
459.2397582713
 20
406.2011932252
 11
458.9671752847
 21
401
  0
LINE
  5
62F
100
AcDbEntity
  8
_0-3_躯体と製品
  6
CONTINUOUS
 62
     0
100
AcDbLine
 10
454.3834228438
 20
406.4557029804
 11
454.0975015661
 21
401
  0
ARC
  5
630
100
AcDbEntity
  8
_0-3_躯体と製品
  6
CONTINUOUS
 62
     0
100
AcDbCircle
 10
457
 20
391.3888469604
 40
9.553418012636
100
AcDbArc
 50
72.41204622605
 51
107.587953774
  0
LINE
  5
631
100
AcDbEntity
  8
_0-3_躯体と製品
  6
CONTINUOUS
 62
     0
100
AcDbLine
 10
459.8074791618
 20
406.171440234
 11
459.5437457169
 21
401.1391063229
  0
LINE
  5
632
100
AcDbEntity
  8
_0-3_躯体と製品
  6
CONTINUOUS
 62
     0
100
AcDbLine
 10
461.4576223736
 20
407.0863322388
 11
461.4052864174
 21
406.0877027041
  0
LINE
  5
633
100
AcDbEntity
  8
_0-3_躯体と製品
  6
CONTINUOUS
 62
     0
100
AcDbLine
 10
462.7735026919
 20
400.4956829857
 11
462.7735026919
 21
396
  0
ARC
  5
634
100
AcDbEntity
  8
_0-3_躯体と製品
  6
CONTINUOUS
 62
     0
100
AcDbCircle
 10
473.2
 20
396.2
 40
0.3
100
AcDbArc
 50
0
 51
90
  0
LINE
  5
635
100
AcDbEntity
  8
_0-3_躯体と製品
  6
CONTINUOUS
 62
     0
100
AcDbLine
 10
462
 20
392.5
 11
473.5
 21
392.5
  0
LINE
  5
636
100
AcDbEntity
  8
_0-3_躯体と製品
  6
CONTINUOUS
 62
     0
100
AcDbLine
 10
466
 20
396
 11
466
 21
394.5
  0
LINE
  5
637
100
AcDbEntity
  8
_0-3_躯体と製品
  6
CONTINUOUS
 62
     0
100
AcDbLine
 10
462
 20
392
 11
462
 21
392.5
  0
LINE
  5
638
100
AcDbEntity
  8
_0-3_躯体と製品
  6
CONTINUOUS
 62
     0
100
AcDbLine
 10
461.9441899623
 20
390
 11
462.9441899623
 21
391
  0
LINE
  5
639
100
AcDbEntity
  8
_0-3_躯体と製品
  6
CONTINUOUS
 62
     0
100
AcDbLine
 10
463.3584035246
 20
390
 11
464.3584035246
 21
391
  0
LINE
  5
63A
100
AcDbEntity
  8
_0-3_躯体と製品
  6
CONTINUOUS
 62
     0
100
AcDbLine
 10
464.772617087
 20
390
 11
465.772617087
 21
391
  0
LINE
  5
63B
100
AcDbEntity
  8
_0-3_躯体と製品
  6
CONTINUOUS
 62
     0
100
AcDbLine
 10
466.1868306494
 20
390
 11
467.1868306494
 21
391
  0
LINE
  5
63C
100
AcDbEntity
  8
_0-3_躯体と製品
  6
CONTINUOUS
 62
     0
100
AcDbLine
 10
467.6010442118
 20
390
 11
468.6010442118
 21
391
  0
LINE
  5
63D
100
AcDbEntity
  8
_0-3_躯体と製品
  6
CONTINUOUS
 62
     0
100
AcDbLine
 10
469.0152577741
 20
390
 11
470.0152577741
 21
391
  0
ARC
  5
63E
100
AcDbEntity
  8
_0-3_躯体と製品
  6
CONTINUOUS
 62
     0
100
AcDbCircle
 10
472
 20
382.75
 40
9.25
100
AcDbArc
 50
71.07535558395
 51
90
  0
ARC
  5
63F
100
AcDbEntity
  8
_0-3_躯体と製品
  6
CONTINUOUS
 62
     0
100
AcDbCircle
 10
478
 20
400.25
 40
10.25
100
AcDbArc
 50
-108.9246444161
 51
-90
  0
ARC
  5
640
100
AcDbEntity
  8
_0-3_躯体と製品
  6
CONTINUOUS
 62
     0
100
AcDbCircle
 10
472
 20
382.75
 40
8.25
100
AcDbArc
 50
71.07535558395
 51
90
  0
ARC
  5
641
100
AcDbEntity
  8
_0-3_躯体と製品
  6
CONTINUOUS
 62
     0
100
AcDbCircle
 10
478
 20
400.25
 40
9.25
100
AcDbArc
 50
-108.9246444161
 51
-90
  0
LINE
  5
642
100
AcDbEntity
  8
_0-3_躯体と製品
  6
CONTINUOUS
 62
     0
100
AcDbLine
 10
472
 20
390
 11
472
 21
391
  0
LINE
  5
643
100
AcDbEntity
  8
_0-3_躯体と製品
  6
CONTINUOUS
 62
     0
100
AcDbLine
 10
473.5
 20
392.5
 11
473.5
 21
392
  0
LINE
  5
644
100
AcDbEntity
  8
_0-3_躯体と製品
  6
CONTINUOUS
 62
     0
100
AcDbLine
 10
473.5
 20
392
 11
475.5
 21
392
  0
ARC
  5
645
100
AcDbEntity
  8
_0-3_躯体と製品
  6
CONTINUOUS
 62
     0
100
AcDbCircle
 10
473.2
 20
394.8
 40
0.3
100
AcDbArc
 50
-90
 51
0
  0
LINE
  5
646
100
AcDbEntity
  8
_0-3_躯体と製品
  6
CONTINUOUS
 62
     0
100
AcDbLine
 10
473.5
 20
396.2
 11
473.5
 21
394.8
  0
LINE
  5
647
100
AcDbEntity
  8
_0-3_躯体と製品
  6
CONTINUOUS
 62
     0
100
AcDbLine
 10
470.4294713365
 20
390
 11
471.4294713365
 21
391
  0
LINE
  5
648
100
AcDbEntity
  8
_0-3_躯体と製品
  6
CONTINUOUS
 62
     0
100
AcDbLine
 10
471.8436848989
 20
390
 11
472
 21
390.1563151011
  0
ARC
  5
649
100
AcDbEntity
  8
_0-3_躯体と製品
  6
CONTINUOUS
 62
     0
100
AcDbCircle
 10
470.25
 20
401.25
 40
0.75
100
AcDbArc
 50
90
 51
270
  0
LINE
  5
64A
100
AcDbEntity
  8
_0-3_躯体と製品
  6
CONTINUOUS
 62
     0
100
AcDbLine
 10
473
 20
398.9
 11
468.5
 21
398.9
  0
LINE
  5
64B
100
AcDbEntity
  8
_0-3_躯体と製品
  6
CONTINUOUS
 62
     0
100
AcDbLine
 10
468.5
 20
400.5
 11
473
 21
400.5
  0
CIRCLE
  5
64C
100
AcDbEntity
  8
_0-4_図枠
  6
CONTINUOUS
 62
     0
100
AcDbCircle
 10
467.1774827281
 20
405.4886149116
 40
0.9
  0
ARC
  5
64D
100
AcDbEntity
  8
_0-3_躯体と製品
  6
CONTINUOUS
 62
     0
100
AcDbCircle
 10
468.5
 20
401
 40
2.1
100
AcDbArc
 50
180
 51
270
  0
ARC
  5
64E
100
AcDbEntity
  8
_0-3_躯体と製品
  6
CONTINUOUS
 62
     0
100
AcDbCircle
 10
468.5
 20
401
 40
0.5
100
AcDbArc
 50
180
 51
270
  0
LINE
  5
64F
100
AcDbEntity
  8
_0-3_躯体と製品
  6
CONTINUOUS
 62
     0
100
AcDbLine
 10
466.4
 20
407.3542032657
 11
466.4
 21
401
  0
LINE
  5
650
100
AcDbEntity
  8
_0-3_躯体と製品
  6
CONTINUOUS
 62
     0
100
AcDbLine
 10
468
 20
407.3542032657
 11
468
 21
401
  0
CIRCLE
  5
651
100
AcDbEntity
  8
_0-4_図枠
  6
CONTINUOUS
 62
     0
100
AcDbCircle
 10
474.5216915842
 20
403.751336986
 40
0.9
  0
LINE
  5
652
100
AcDbEntity
  8
_0-3_躯体と製品
  6
CONTINUOUS
 62
     0
100
AcDbLine
 10
473
 20
402
 11
470.25
 21
402
  0
ARC
  5
653
100
AcDbEntity
  8
_0-3_躯体と製品
  6
CONTINUOUS
 62
     0
100
AcDbCircle
 10
473
 20
402.5
 40
0.5
100
AcDbArc
 50
-90
 51
0
  0
ARC
  5
654
100
AcDbEntity
  8
_0-3_躯体と製品
  6
CONTINUOUS
 62
     0
100
AcDbCircle
 10
471.25
 20
397.25
 40
0.75
100
AcDbArc
 50
90
 51
270
  0
LINE
  5
655
100
AcDbEntity
  8
_0-3_躯体と製品
  6
CONTINUOUS
 62
     0
100
AcDbLine
 10
473.2
 20
396.5
 11
471.25
 21
396.5
  0
LINE
  5
656
100
AcDbEntity
  8
_0-3_躯体と製品
  6
CONTINUOUS
 62
     0
100
AcDbLine
 10
473.2
 20
398
 11
471.25
 21
398
  0
ARC
  5
657
100
AcDbEntity
  8
_0-3_躯体と製品
  6
CONTINUOUS
 62
     0
100
AcDbCircle
 10
473.2
 20
398.3
 40
0.3
100
AcDbArc
 50
-90
 51
0
  0
LINE
  5
658
100
AcDbEntity
  8
_0-3_躯体と製品
  6
CONTINUOUS
 62
     0
100
AcDbLine
 10
473.5
 20
400.2
 11
473.5
 21
398.3
  0
ARC
  5
659
100
AcDbEntity
  8
_0-3_躯体と製品
  6
CONTINUOUS
 62
     0
100
AcDbCircle
 10
473.2
 20
400.2
 40
0.3
100
AcDbArc
 50
0
 51
90
  0
LINE
  5
65A
100
AcDbEntity
  8
_0-3_躯体と製品
  6
CONTINUOUS
 62
     0
100
AcDbLine
 10
473.2
 20
400.5
 11
470.25
 21
400.5
  0
LINE
  5
65B
100
AcDbEntity
  8
_0-3_躯体と製品
  6
CONTINUOUS
 62
     0
100
AcDbLine
 10
473
 20
400.5
 11
473
 21
398.9
  0
LINE
  5
65C
100
AcDbEntity
  8
_0-3_躯体と製品
  6
CONTINUOUS
 62
     0
100
AcDbLine
 10
471
 20
400.5
 11
471
 21
398.9
  0
ARC
  5
65D
100
AcDbEntity
  8
_0-3_躯体と製品
  6
CONTINUOUS
 62
     0
100
AcDbCircle
 10
542.0080666484
 20
361.7801541434
 40
0.6
100
AcDbArc
 50
90
 51
270
  0
LINE
  5
65E
100
AcDbEntity
  8
_0-3_躯体と製品
  6
CONTINUOUS
 62
     0
100
AcDbLine
 10
551.2582425058
 20
361.1801541434
 11
542.0080666484
 21
361.1801541434
  0
ARC
  5
65F
100
AcDbEntity
  8
_0-3_躯体と製品
  6
CONTINUOUS
 62
     0
100
AcDbCircle
 10
555
 20
351.3801541434
 40
3
100
AcDbArc
 50
-90
 51
0
  0
LINE
  5
660
100
AcDbEntity
  8
_0-3_躯体と製品
  6
CONTINUOUS
 62
     0
100
AcDbLine
 10
548
 20
348.3801541434
 11
548
 21
350.3801541434
  0
LINE
  5
661
100
AcDbEntity
  8
_0-3_躯体と製品
  6
CONTINUOUS
 62
     0
100
AcDbLine
 10
555
 20
348.3801541434
 11
548
 21
348.3801541434
  0
CIRCLE
  5
662
100
AcDbEntity
  8
_0-3_躯体と製品
  6
CONTINUOUS
 62
     0
100
AcDbCircle
 10
558
 20
348.3801541434
 40
1.4
  0
LINE
  5
663
100
AcDbEntity
  8
_0-3_躯体と製品
  6
CONTINUOUS
 62
     0
100
AcDbLine
 10
551.7473163061
 20
360.7841099888
 11
553.1755409263
 21
354.0648414376
  0
LINE
  5
664
100
AcDbEntity
  8
_0-3_躯体と製品
  6
CONTINUOUS
 62
     0
100
AcDbLine
 10
555
 20
350.3801541434
 11
548
 21
350.3801541434
  0
LINE
  5
665
100
AcDbEntity
  8
_0-3_躯体と製品
  6
CONTINUOUS
 62
     0
100
AcDbLine
 10
556
 20
353.2683416992
 11
551.5700759103
 21
352.4772838257
  0
ARC
  5
666
100
AcDbEntity
  8
_0-3_躯体と製品
  6
CONTINUOUS
 62
     0
100
AcDbCircle
 10
551.2582425058
 20
360.6801541434
 40
0.5
100
AcDbArc
 50
12
 51
90
  0
ARC
  5
667
100
AcDbEntity
  8
_0-3_躯体と製品
  6
CONTINUOUS
 62
     0
100
AcDbCircle
 10
553.6755409263
 20
352.8801541434
 40
2.5
100
AcDbArc
 50
-90
 51
0
  0
LINE
  5
668
100
AcDbEntity
  8
_0-3_躯体と製品
  6
CONTINUOUS
 62
     0
100
AcDbLine
 10
553.6755409263
 20
350.3801541434
 11
553.1755409263
 21
350.3801541434
  0
LINE
  5
669
100
AcDbEntity
  8
_0-3_躯体と製品
  6
CONTINUOUS
 62
     0
100
AcDbLine
 10
556.1755409263
 20
352.8801541434
 11
556.1755409263
 21
354.3801541434
  0
LINE
  5
66A
100
AcDbEntity
  8
_0-3_躯体と製品
  6
CONTINUOUS
 62
     0
100
AcDbLine
 10
553.1755409263
 20
354.0648414376
 11
553.1755409263
 21
350.3801541434
  0
ARC
  5
66B
100
AcDbEntity
  8
_0-3_躯体と製品
  6
CONTINUOUS
 62
     0
100
AcDbCircle
 10
555
 20
351.3801541434
 40
1
100
AcDbArc
 50
-90
 51
0
  0
LINE
  5
66C
100
AcDbEntity
  8
_0-3_躯体と製品
  6
CONTINUOUS
 62
     0
100
AcDbLine
 10
542.0080666484
 20
362.3801541434
 11
544.4080666484
 21
362.3801541434
  0
ARC
  5
66D
100
AcDbEntity
  8
_0-3_躯体と製品
  6
CONTINUOUS
 62
     0
100
AcDbCircle
 10
537.7406856699
 20
406.9418897546
 40
0.6
100
AcDbArc
 50
167
 51
347
  0
LINE
  5
66E
100
AcDbEntity
  8
_0-3_躯体と製品
  6
CONTINUOUS
 62
     0
100
AcDbLine
 10
546.4080666484
 20
363.3801541434
 11
546.4080666484
 21
362.8801541434
  0
LINE
  5
66F
100
AcDbEntity
  8
_0-3_躯体と製品
  6
CONTINUOUS
 62
     0
100
AcDbLine
 10
550.7906180701
 20
362.3801541434
 11
546.4080666484
 21
362.3801541434
  0
ARC
  5
670
100
AcDbEntity
  8
_0-3_躯体と製品
  6
CONTINUOUS
 62
     0
100
AcDbCircle
 10
550.7906180701
 20
362.8801541434
 40
0.5
100
AcDbArc
 50
-90
 51
12
  0
LINE
  5
671
100
AcDbEntity
  8
_0-3_躯体と製品
  6
CONTINUOUS
 62
     0
100
AcDbLine
 10
546.4080666484
 20
363.3801541434
 11
544.4080666484
 21
362.3801541434
  0
LINE
  5
672
100
AcDbEntity
  8
_0-3_躯体と製品
  6
CONTINUOUS
 62
     0
100
AcDbLine
 10
546.4080666484
 20
362.3801541434
 11
546.4080666484
 21
363.3801541434
  0
LINE
  5
673
100
AcDbEntity
  8
_0-4_図枠
  6
CONTINUOUS
 62
     0
100
AcDbLine
 10
506.9733407388
 20
423.5981941001
 11
520.8986558504
 21
447.7175473848
  0
LINE
  5
674
100
AcDbEntity
  8
_0-3_躯体と製品
  6
CONTINUOUS
 62
     0
100
AcDbLine
 10
502.6924992312
 20
413.0286692798
 11
522.6650899263
 21
411.981950155
  0
LINE
  5
675
100
AcDbEntity
  8
_0-3_躯体と製品
  6
CONTINUOUS
 62
     0
100
AcDbLine
 10
499.301967772
 20
415.2091041962
 11
527.7629095125
 21
413.7175294433
  0
LINE
  5
676
100
AcDbEntity
  8
_0-4_図枠
  6
CONTINUOUS
 62
     0
100
AcDbLine
 10
459.0544450374
 20
425.4631696873
 11
476.8799775765
 21
456.3378977168
  0
LINE
  5
677
100
AcDbEntity
  8
_0-4_図枠
  6
CONTINUOUS
 62
     0
100
AcDbLine
 10
474.6038290284
 20
428.1854223307
 11
492.8909188008
 21
459.859590939
  0
CIRCLE
  5
678
100
AcDbEntity
  8
_0-4_図枠
  6
CONTINUOUS
 62
     0
100
AcDbCircle
 10
502.3347458396
 20
451.9249600701
 40
6
  0
LINE
  5
679
100
AcDbEntity
  8
_0-3_躯体と製品
  6
CONTINUOUS
 62
     0
100
AcDbLine
 10
469.7056384735
 20
433.9348492954
 11
481.146823811
 21
419.0925592799
  0
LINE
  5
67A
100
AcDbEntity
  8
_0-3_躯体と製品
  6
CONTINUOUS
 62
     0
100
AcDbLine
 10
470.3392413997
 20
434.4232623706
 11
481.7804267371
 21
419.5809723551
  0
LINE
  5
67B
100
AcDbEntity
  8
_0-3_躯体と製品
  6
CONTINUOUS
 62
     0
100
AcDbLine
 10
455.9216948763
 20
435.8076818951
 11
454.6760991177
 21
412.040298968
  0
LINE
  5
67C
100
AcDbEntity
  8
_0-3_躯体と製品
  6
CONTINUOUS
 62
     0
100
AcDbLine
 10
455.3539739857
 20
435.8374348863
 11
454.1083782272
 21
412.0700519591
  0
LINE
  5
67D
100
AcDbEntity
  8
_0-3_躯体と製品
  6
CONTINUOUS
 62
     0
100
AcDbLine
 10
461.3457511943
 20
435.5234191488
 11
460.1001554357
 21
411.7560362216
  0
LINE
  5
67E
100
AcDbEntity
  8
_0-3_躯体と製品
  6
CONTINUOUS
 62
     0
100
AcDbLine
 10
460.7780303038
 20
435.5531721399
 11
459.5324345452
 21
411.7857892128
  0
LINE
  5
67F
100
AcDbEntity
  8
_0-3_躯体と製品
  6
CONTINUOUS
 62
     0
100
AcDbLine
 10
465.9261679781
 20
407.853518033
 11
448.1261679781
 21
408.7863765043
  0
LINE
  5
680
100
AcDbEntity
  8
_0-3_躯体と製品
  6
CONTINUOUS
 62
     0
100
AcDbLine
 10
466.0099055081
 20
409.4513252887
 11
448.2099055081
 21
410.3841837599
  0
ARC
  5
681
100
AcDbEntity
  8
_0-3_躯体と製品
  6
CONTINUOUS
 62
     0
100
AcDbCircle
 10
448.1
 20
408.2870617369
 40
0.5
100
AcDbArc
 50
86.99999999999
 51
180
  0
ARC
  5
682
100
AcDbEntity
  8
_0-3_躯体と製品
  6
CONTINUOUS
 62
     0
100
AcDbCircle
 10
448.1
 20
408.2870617369
 40
2.1
100
AcDbArc
 50
86.99999999999
 51
180
  0
CIRCLE
  5
683
100
AcDbEntity
  8
_0-3_躯体と製品
  6
CONTINUOUS
 62
     0
100
AcDbCircle
 10
457
 20
409.9235144279
 40
1.4
  0
LINE
  5
684
100
AcDbEntity
  8
_0-3_躯体と製品
  6
CONTINUOUS
 62
     0
100
AcDbLine
 10
454.1083782272
 20
412.0700519591
 11
454.0041113957
 21
410.0805222966
  0
LINE
  5
685
100
AcDbEntity
  8
_0-3_躯体と製品
  6
CONTINUOUS
 62
     0
100
AcDbLine
 10
454.6760991177
 20
412.040298968
 11
454.5718322862
 21
410.0507693055
  0
LINE
  5
686
100
AcDbEntity
  8
_0-3_躯体と製品
  6
CONTINUOUS
 62
     0
100
AcDbLine
 10
459.5324345452
 20
411.7857892128
 11
459.4281677138
 21
409.7962595503
  0
LINE
  5
687
100
AcDbEntity
  8
_0-3_躯体と製品
  6
CONTINUOUS
 62
     0
100
AcDbLine
 10
460.1001554357
 20
411.7560362216
 11
459.9958886043
 21
409.7665065592
  0
CIRCLE
  5
688
100
AcDbEntity
  8
_0-4_図枠
  6
CONTINUOUS
 62
     0
100
AcDbCircle
 10
459.0544450374
 20
425.4631696873
 40
0.9
  0
CIRCLE
  5
689
100
AcDbEntity
  8
_0-3_躯体と製品
  6
CONTINUOUS
 62
     0
100
AcDbCircle
 10
474.5523359562
 20
410.9986295348
 40
1.4
  0
ARC
  5
68A
100
AcDbEntity
  8
_0-3_躯体と製品
  6
CONTINUOUS
 62
     0
100
AcDbCircle
 10
474.5
 20
410
 40
1
100
AcDbArc
 50
0
 51
180
  0
CIRCLE
  5
68B
100
AcDbEntity
  8
_0-4_図枠
  6
CONTINUOUS
 62
     0
100
AcDbCircle
 10
474.6038290284
 20
428.1854223307
 40
0.9
  0
ARC
  5
68C
100
AcDbEntity
  8
_0-3_躯体と製品
  6
CONTINUOUS
 62
     0
100
AcDbCircle
 10
458.2242563474
 20
433.2837171327
 40
6.3
100
AcDbArc
 50
47.696869
 51
126.309371
  0
LINE
  5
68D
100
AcDbEntity
  8
_0-3_躯体と製品
  6
CONTINUOUS
 62
     0
100
AcDbLine
 10
447.650016878
 20
435.4400842932
 11
468.9659707721
 21
434.3229624863
  0
LINE
  5
68E
100
AcDbEntity
  8
_0-3_躯体と製品
  6
CONTINUOUS
 62
     0
100
AcDbLine
 10
447.691885643
 20
436.238987921
 11
469.0078395371
 21
435.1218661141
  0
ARC
  5
68F
100
AcDbEntity
  8
_0-3_躯体と製品
  6
CONTINUOUS
 62
     0
100
AcDbCircle
 10
456.5366318948
 20
435.580328999
 40
3.45
100
AcDbArc
 50
126.309124
 51
173.762163
  0
ARC
  5
690
100
AcDbEntity
  8
_0-3_躯体と製品
  6
CONTINUOUS
 62
     0
100
AcDbCircle
 10
447.5976809217
 20
434.4414547584
 40
1
100
AcDbArc
 50
86.99999999999
 51
136.3731526377
  0
ARC
  5
691
100
AcDbEntity
  8
_0-3_躯体と製品
  6
CONTINUOUS
 62
     0
100
AcDbCircle
 10
447.5976809217
 20
434.4414547584
 40
1.8
100
AcDbArc
 50
86.99999999999
 51
136.3731526377
  0
LINE
  5
692
100
AcDbEntity
  8
_0-3_躯体と製品
  6
CONTINUOUS
 62
     0
100
AcDbLine
 10
459.2610019407
 20
438.7355095528
 11
457.7630576386
 21
438.8140134871
  0
ARC
  5
693
100
AcDbEntity
  8
_0-3_躯体と製品
  6
CONTINUOUS
 62
     0
100
AcDbCircle
 10
459.8622335862
 20
438.7432991951
 40
0.6
100
AcDbArc
 50
73.299767
 51
177
  0
ARC
  5
694
100
AcDbEntity
  8
_0-3_躯体と製品
  6
CONTINUOUS
 62
     0
100
AcDbCircle
 10
457.1659338423
 20
438.884606277
 40
0.6
100
AcDbArc
 50
-3
 51
100.700233
  0
LINE
  5
695
100
AcDbEntity
  8
_0-4_図枠
  6
CONTINUOUS
 62
     0
100
AcDbLine
 10
461.5
 20
448.4443665742
 11
461.5
 21
451.0647555383
  0
ARC
  5
696
100
AcDbEntity
  8
_0-3_躯体と製品
  6
CONTINUOUS
 62
     0
100
AcDbCircle
 10
468.9136348158
 20
433.3243329515
 40
1.8
100
AcDbArc
 50
37.62684736228
 51
86.99999999999
  0
ARC
  5
697
100
AcDbEntity
  8
_0-3_躯体と製品
  6
CONTINUOUS
 62
     0
100
AcDbCircle
 10
460.1479679001
 20
435.386557719
 40
3.45
100
AcDbArc
 50
0.3127429999989
 51
47.820489
  0
ARC
  5
698
100
AcDbEntity
  8
_0-3_躯体と製品
  6
CONTINUOUS
 62
     0
100
AcDbCircle
 10
468.9136348158
 20
433.3243329515
 40
1
100
AcDbArc
 50
37.62684736228
 51
86.99999999999
  0
ARC
  5
699
100
AcDbEntity
  8
_0-3_躯体と製品
  6
CONTINUOUS
 62
     0
100
AcDbCircle
 10
482.5724303802
 20
420.1914887179
 40
1
100
AcDbArc
 50
-142.3731526377
 51
-43.62684873287
  0
LINE
  5
69A
100
AcDbEntity
  8
_0-3_躯体と製品
  6
CONTINUOUS
 62
     0
100
AcDbLine
 10
485.9452343289
 20
421.1211088145
 11
483.8753579221
 21
418.9495628665
  0
ARC
  5
69B
100
AcDbEntity
  8
_0-3_躯体と製品
  6
CONTINUOUS
 62
     0
100
AcDbCircle
 10
482.5724303802
 20
420.1914887179
 40
1.8
100
AcDbArc
 50
-142.3731526377
 51
-43.62684812372
  0
LINE
  5
69C
100
AcDbEntity
  8
_0-3_躯体と製品
  6
CONTINUOUS
 62
     0
100
AcDbLine
 10
492.8370437743
 20
416.0486026792
 11
492.9312484955
 21
417.8461358417
  0
LINE
  5
69D
100
AcDbEntity
  8
_0-3_躯体と製品
  6
CONTINUOUS
 62
     0
100
AcDbLine
 10
485.9452343289
 20
421.1211088145
 11
485.3661554141
 21
421.6730758519
  0
LINE
  5
69E
100
AcDbEntity
  8
_0-3_躯体と製品
  6
CONTINUOUS
 62
     0
100
AcDbLine
 10
485.3661554141
 20
421.6730758519
 11
483.2962790073
 21
419.5015299039
  0
LINE
  5
69F
100
AcDbEntity
  8
_0-3_躯体と製品
  6
CONTINUOUS
 62
     0
100
AcDbLine
 10
502.6924992312
 20
413.0286692798
 11
502.6401632749
 21
412.0300397451
  0
LINE
  5
6A0
100
AcDbEntity
  8
_0-3_躯体と製品
  6
CONTINUOUS
 62
     0
100
AcDbLine
 10
499.1449599033
 20
412.2132155919
 11
502.6401632749
 21
412.0300397451
  0
ARC
  5
6A1
100
AcDbEntity
  8
_0-3_躯体と製品
  6
CONTINUOUS
 62
     0
100
AcDbCircle
 10
499.2234638377
 20
413.7111598941
 40
1.5
100
AcDbArc
 50
86.99999999999
 51
267
  0
CIRCLE
  5
6A2
100
AcDbEntity
  8
_0-4_図枠
  6
CONTINUOUS
 62
     0
100
AcDbCircle
 10
506.9733407388
 20
423.5981941001
 40
0.9
  0
TEXT
  5
6A3
100
AcDbEntity
  8
_0-4_図枠
  6
CONTINUOUS
 62
     0
100
AcDbText
 10
499.3347458396
 20
448.9249600701
 40
5
  1
３
  7
STANDARD
100
AcDbText
  0
CIRCLE
  5
6A4
100
AcDbEntity
  8
_0-4_図枠
  6
CONTINUOUS
 62
     0
100
AcDbCircle
 10
479.8799775765
 20
461.5340501396
 40
6
  0
CIRCLE
  5
6A5
100
AcDbEntity
  8
_0-4_図枠
  6
CONTINUOUS
 62
     0
100
AcDbCircle
 10
495.8909188008
 20
465.0557433617
 40
6
  0
LINE
  5
6A6
100
AcDbEntity
  8
_0-4_図枠
  6
CONTINUOUS
 62
     0
100
AcDbLine
 10
541.7535827102
 20
420.8329544058
 11
565.3900638536
 21
461.7725406584
  0
LINE
  5
6A7
100
AcDbEntity
  8
_0-4_図枠
  6
CONTINUOUS
 62
     0
100
AcDbLine
 10
541.2093559719
 20
438.2679439592
 11
566.3458371153
 21
481.8056064231
  0
CIRCLE
  5
6A8
100
AcDbEntity
  8
_0-4_図枠
  6
CONTINUOUS
 62
     0
100
AcDbCircle
 10
523.8986558504
 20
452.9136998075
 40
6
  0
ARC
  5
6A9
100
AcDbEntity
  8
_0-3_躯体と製品
  6
CONTINUOUS
 62
     0
100
AcDbCircle
 10
541.2851480209
 20
410.0047419141
 40
3
100
AcDbArc
 50
12
 51
86.99999999999
  0
LINE
  5
6AA
100
AcDbEntity
  8
_0-3_躯体と製品
  6
CONTINUOUS
 62
     0
100
AcDbLine
 10
527.4750617532
 20
408.2250670021
 11
528.940468528
 21
436.1866939753
  0
ARC
  5
6AB
100
AcDbEntity
  8
_0-3_躯体と製品
  6
CONTINUOUS
 62
     0
100
AcDbCircle
 10
534.6631796343
 20
430.0901477873
 40
3
100
AcDbArc
 50
10.1246716554
 51
86.99999999999
  0
ARC
  5
6AC
100
AcDbEntity
  8
_0-3_躯体と製品
  6
CONTINUOUS
 62
     0
100
AcDbCircle
 10
528.0267124768
 20
409.1975285588
 40
0.5
100
AcDbArc
 50
177
 51
267
  0
LINE
  5
6AD
100
AcDbEntity
  8
_0-3_躯体と製品
  6
CONTINUOUS
 62
     0
100
AcDbLine
 10
522.61275397
 20
410.9833206202
 11
527.6059016438
 21
410.721640839
  0
LINE
  5
6AE
100
AcDbEntity
  8
_0-3_躯体と製品
  6
CONTINUOUS
 62
     0
100
AcDbLine
 10
522.6650899263
 20
411.981950155
 11
522.61275397
 21
410.9833206202
  0
LINE
  5
6AF
100
AcDbEntity
  8
_0-3_躯体と製品
  6
CONTINUOUS
 62
     0
100
AcDbLine
 10
529.6031607133
 20
410.6169689265
 11
537.2782391196
 21
410.2147351114
  0
LINE
  5
6B0
100
AcDbEntity
  8
_0-3_躯体と製品
  6
CONTINUOUS
 62
     0
100
AcDbLine
 10
529.7601685821
 20
413.6128575308
 11
541.4421558896
 21
413.0006305184
  0
ARC
  5
6B1
100
AcDbEntity
  8
_0-3_躯体と製品
  6
CONTINUOUS
 62
     0
100
AcDbCircle
 10
529.5769927352
 20
410.1176541592
 40
0.5
100
AcDbArc
 50
86.99999999999
 51
177
  0
LINE
  5
6B2
100
AcDbEntity
  8
_0-3_躯体と製品
  6
CONTINUOUS
 62
     0
100
AcDbLine
 10
529.0776779678
 20
410.1438221373
 11
529.0253420116
 21
409.1451926025
  0
ARC
  5
6B3
100
AcDbEntity
  8
_0-3_躯体と製品
  6
CONTINUOUS
 62
     0
100
AcDbCircle
 10
529.7863365602
 20
414.1121722982
 40
0.5
100
AcDbArc
 50
177
 51
267
  0
LINE
  5
6B4
100
AcDbEntity
  8
_0-3_躯体と製品
  6
CONTINUOUS
 62
     0
100
AcDbLine
 10
529.2870217928
 20
414.1383402763
 11
529.3916937053
 21
416.1355993458
  0
ARC
  5
6B5
100
AcDbEntity
  8
_0-3_躯体と製品
  6
CONTINUOUS
 62
     0
100
AcDbCircle
 10
528.8923789379
 20
416.1617673239
 40
0.5
100
AcDbArc
 50
-2.999999999999
 51
86.99999999999
  0
LINE
  5
6B6
100
AcDbEntity
  8
_0-3_躯体と製品
  6
CONTINUOUS
 62
     0
100
AcDbLine
 10
528.918546916
 20
416.6610820913
 11
528.4192321486
 21
416.6872500694
  0
ARC
  5
6B7
100
AcDbEntity
  8
_0-3_躯体と製品
  6
CONTINUOUS
 62
     0
100
AcDbCircle
 10
528.3930641705
 20
416.187935302
 40
0.5
100
AcDbArc
 50
86.99999999999
 51
177
  0
ARC
  5
6B8
100
AcDbEntity
  8
_0-3_躯体と製品
  6
CONTINUOUS
 62
     0
100
AcDbCircle
 10
528.5260272442
 20
409.1713605806
 40
0.5
100
AcDbArc
 50
-93.00000000001
 51
-2.999999999999
  0
LINE
  5
6B9
100
AcDbEntity
  8
_0-3_躯体と製品
  6
CONTINUOUS
 62
     0
100
AcDbLine
 10
528.4998592661
 20
408.6720458133
 11
528.0005444987
 21
408.6982137914
  0
LINE
  5
6BA
100
AcDbEntity
  8
_0-3_躯体と製品
  6
CONTINUOUS
 62
     0
100
AcDbLine
 10
540.5188726278
 20
410.0449007058
 11
539.3415261958
 21
410.1066028177
  0
ARC
  5
6BB
100
AcDbEntity
  8
_0-3_躯体と製品
  6
CONTINUOUS
 62
     0
100
AcDbCircle
 10
540.4665366716
 20
409.046271171
 40
1
100
AcDbArc
 50
12
 51
86.99999999999
  0
ARC
  5
6BC
100
AcDbEntity
  8
_0-3_躯体と製品
  6
CONTINUOUS
 62
     0
100
AcDbCircle
 10
539.3258254089
 20
409.8070139573
 40
0.3
100
AcDbArc
 50
86.99999999999
 51
167
  0
ARC
  5
6BD
100
AcDbEntity
  8
_0-3_躯体と製品
  6
CONTINUOUS
 62
     0
100
AcDbCircle
 10
537.2520711415
 20
409.7154203441
 40
0.5
100
AcDbArc
 50
-13
 51
86.99999999999
  0
CIRCLE
  5
6BE
100
AcDbEntity
  8
_0-4_図枠
  6
CONTINUOUS
 62
     0
100
AcDbCircle
 10
541.7535827102
 20
420.8329544058
 40
0.9
  0
LINE
  5
6BF
100
AcDbEntity
  8
_0-3_躯体と製品
  6
CONTINUOUS
 62
     0
100
AcDbLine
 10
528.9143005499
 20
435.6873792079
 11
513.9348575286
 21
436.4724185515
  0
LINE
  5
6C0
100
AcDbEntity
  8
_0-3_躯体と製品
  6
CONTINUOUS
 62
     0
100
AcDbLine
 10
527.6973381194
 20
431.7456681223
 11
523.4703201085
 21
435.9726861333
  0
LINE
  5
6C1
100
AcDbEntity
  8
_0-3_躯体と製品
  6
CONTINUOUS
 62
     0
100
AcDbLine
 10
528.7278340161
 20
432.1293857881
 11
524.9627485302
 21
435.894471274
  0
LINE
  5
6C2
100
AcDbEntity
  8
_0-3_躯体と製品
  6
CONTINUOUS
 62
     0
100
AcDbLine
 10
528.7982589917
 20
433.4731743748
 11
526.4551769519
 21
435.8162564146
  0
LINE
  5
6C3
100
AcDbEntity
  8
_0-3_躯体と製品
  6
CONTINUOUS
 62
     0
100
AcDbLine
 10
527.9328499225
 20
436.2395010287
 11
526.1244127592
 21
438.047938192
  0
LINE
  5
6C4
100
AcDbEntity
  8
_0-3_躯体と製品
  6
CONTINUOUS
 62
     0
100
AcDbLine
 10
528.9633458191
 20
436.6232186945
 11
527.6168411809
 21
437.9697233327
  0
LINE
  5
6C5
100
AcDbEntity
  8
_0-3_躯体と製品
  6
CONTINUOUS
 62
     0
100
AcDbLine
 10
520.235196011
 20
432.1367424189
 11
516.008178
 21
436.3637604299
  0
LINE
  5
6C6
100
AcDbEntity
  8
_0-3_躯体と製品
  6
CONTINUOUS
 62
     0
100
AcDbLine
 10
521.7276244327
 20
432.0585275596
 11
517.5006064217
 21
436.2855455706
  0
LINE
  5
6C7
100
AcDbEntity
  8
_0-3_躯体と製品
  6
CONTINUOUS
 62
     0
100
AcDbLine
 10
523.2200528544
 20
431.9803127003
 11
518.9930348434
 21
436.2073307112
  0
LINE
  5
6C8
100
AcDbEntity
  8
_0-3_躯体と製品
  6
CONTINUOUS
 62
     0
100
AcDbLine
 10
520.4707078141
 20
436.6305753253
 11
518.6622706508
 21
438.4390124886
  0
LINE
  5
6C9
100
AcDbEntity
  8
_0-3_躯体と製品
  6
CONTINUOUS
 62
     0
100
AcDbLine
 10
514.5009941273
 20
436.9434347626
 11
513.9865056412
 21
437.4579232487
  0
LINE
  5
6CA
100
AcDbEntity
  8
_0-3_躯体と製品
  6
CONTINUOUS
 62
     0
100
AcDbLine
 10
514.2654823242
 20
432.4496018562
 11
513.7509938381
 21
432.9640903423
  0
LINE
  5
6CB
100
AcDbEntity
  8
_0-3_躯体と製品
  6
CONTINUOUS
 62
     0
100
AcDbLine
 10
513.7255137036
 20
432.4779004125
 11
513.9348575286
 21
436.4724185515
  0
LINE
  5
6CC
100
AcDbEntity
  8
_0-3_躯体と製品
  6
CONTINUOUS
 62
     0
100
AcDbLine
 10
515.7579107459
 20
432.3713869969
 11
513.8214188138
 21
434.307878929
  0
LINE
  5
6CD
100
AcDbEntity
  8
_0-3_躯体と製品
  6
CONTINUOUS
 62
     0
100
AcDbLine
 10
517.2503391676
 20
432.2931721376
 11
513.8918437894
 21
435.6516675157
  0
LINE
  5
6CE
100
AcDbEntity
  8
_0-3_躯体と製品
  6
CONTINUOUS
 62
     0
100
AcDbLine
 10
518.7427675893
 20
432.2149572783
 11
514.5157495783
 21
436.4419752892
  0
LINE
  5
6CF
100
AcDbEntity
  8
_0-3_躯体と製品
  6
CONTINUOUS
 62
     0
100
AcDbLine
 10
513.9610255067
 20
436.9717333189
 11
514.0505886815
 21
438.6807004994
  0
LINE
  5
6D0
100
AcDbEntity
  8
_0-3_躯体と製品
  6
CONTINUOUS
 62
     0
100
AcDbLine
 10
515.993422549
 20
436.8652199033
 11
514.1849853857
 21
438.6736570666
  0
LINE
  5
6D1
100
AcDbEntity
  8
_0-3_躯体と製品
  6
CONTINUOUS
 62
     0
100
AcDbLine
 10
517.4858509707
 20
436.787005044
 11
515.6774138074
 21
438.5954422073
  0
LINE
  5
6D2
100
AcDbEntity
  8
_0-3_躯体と製品
  6
CONTINUOUS
 62
     0
100
AcDbLine
 10
518.9782793924
 20
436.7087901847
 11
517.1698422291
 21
438.5172273479
  0
LINE
  5
6D3
100
AcDbEntity
  8
_0-3_躯体と製品
  6
CONTINUOUS
 62
     0
100
AcDbLine
 10
524.712481276
 20
431.902097841
 11
520.4854632651
 21
436.1291158519
  0
LINE
  5
6D4
100
AcDbEntity
  8
_0-3_躯体と製品
  6
CONTINUOUS
 62
     0
100
AcDbLine
 10
526.2049096977
 20
431.8238829817
 11
521.9778916868
 21
436.0509009926
  0
LINE
  5
6D5
100
AcDbEntity
  8
_0-3_躯体と製品
  6
CONTINUOUS
 62
     0
100
AcDbLine
 10
521.9631362358
 20
436.552360466
 11
520.1546990725
 21
438.3607976293
  0
LINE
  5
6D6
100
AcDbEntity
  8
_0-3_躯体と製品
  6
CONTINUOUS
 62
     0
100
AcDbLine
 10
523.4555646575
 20
436.4741456067
 11
521.6471274942
 21
438.28258277
  0
LINE
  5
6D7
100
AcDbEntity
  8
_0-3_躯体と製品
  6
CONTINUOUS
 62
     0
100
AcDbLine
 10
524.9479930791
 20
436.3959307474
 11
523.1395559159
 21
438.2043679107
  0
LINE
  5
6D8
100
AcDbEntity
  8
_0-3_躯体と製品
  6
CONTINUOUS
 62
     0
100
AcDbLine
 10
526.4404215008
 20
436.3177158881
 11
524.6319843375
 21
438.1261530513
  0
ARC
  5
6D9
100
AcDbEntity
  8
_0-3_躯体と製品
  6
CONTINUOUS
 62
     0
100
AcDbCircle
 10
534.6631796343
 20
430.0901477873
 40
7.5
100
AcDbArc
 50
10.1246716554
 51
86.99999999999
  0
LINE
  5
6DA
100
AcDbEntity
  8
_0-3_躯体と製品
  6
CONTINUOUS
 62
     0
100
AcDbLine
 10
528.7945198997
 20
433.4018282494
 11
534.820187503
 21
433.0860363916
  0
LINE
  5
6DB
100
AcDbEntity
  8
_0-3_躯体と製品
  6
CONTINUOUS
 62
     0
100
AcDbLine
 10
529.0300317028
 20
437.8956611558
 11
535.0556993061
 21
437.579869298
  0
LINE
  5
6DC
100
AcDbEntity
  8
_0-3_躯体と製品
  6
CONTINUOUS
 62
     0
100
AcDbLine
 10
528.8686839674
 20
434.8169629615
 11
527.9476053736
 21
435.7380415553
  0
LINE
  5
6DD
100
AcDbEntity
  8
_0-3_躯体と製品
  6
CONTINUOUS
 62
     0
100
AcDbLine
 10
528.940468528
 20
436.1866939753
 11
529.0300317028
 21
437.8956611558
  0
CIRCLE
  5
6DE
100
AcDbEntity
  8
_0-4_図枠
  6
CONTINUOUS
 62
     0
100
AcDbCircle
 10
541.2093559719
 20
438.2679439592
 40
0.9
  0
ARC
  5
6DF
100
AcDbEntity
  8
_0-3_躯体と製品
  6
CONTINUOUS
 62
     0
100
AcDbCircle
 10
555
 20
435.5332604432
 40
3
100
AcDbArc
 50
0
 51
86.99999999999
  0
ARC
  5
6E0
100
AcDbEntity
  8
_0-3_躯体と製品
  6
CONTINUOUS
 62
     0
100
AcDbCircle
 10
555
 20
435.5332604432
 40
1
100
AcDbArc
 50
0
 51
86.99999999999
  0
CIRCLE
  5
6E1
100
AcDbEntity
  8
_0-3_躯体と製品
  6
CONTINUOUS
 62
     0
100
AcDbCircle
 10
558
 20
438.3801541434
 40
1.4
  0
CIRCLE
  5
6E2
100
AcDbEntity
  8
_0-4_図枠
  6
CONTINUOUS
 62
     0
100
AcDbCircle
 10
568.3900638536
 20
466.9686930811
 40
6
  0
CIRCLE
  5
6E3
100
AcDbEntity
  8
_0-4_図枠
  6
CONTINUOUS
 62
     0
100
AcDbCircle
 10
569.3458371153
 20
487.0017588458
 40
6
  0
TEXT
  5
6E4
100
AcDbEntity
  8
_0-4_図枠
  6
CONTINUOUS
 62
     0
100
AcDbText
 10
566.3458371153
 20
484.0017588458
 40
5
  1
１
  7
STANDARD
100
AcDbText
  0
ARC
  5
6E5
100
AcDbEntity
  8
_0-0_0
  6
CONTINUOUS
 62
     0
100
AcDbCircle
 10
475.999998
 20
395
 40
0.500001
100
AcDbArc
 50
180
 51
270
  0
LINE
  5
6E6
100
AcDbEntity
  8
_0-0_0
  6
CONTINUOUS
 62
     0
100
AcDbLine
 10
475.5
 20
393.000002
 11
475.5
 21
392
  0
LINE
  5
6E7
100
AcDbEntity
  8
_0-0_0
  6
CONTINUOUS
 62
     0
100
AcDbLine
 10
486
 20
393.000002
 11
486
 21
392
  0
LINE
  5
6E8
100
AcDbEntity
  8
_0-0_0
  6
CONTINUOUS
 62
     0
100
AcDbLine
 10
487.5
 20
392
 11
486
 21
392
  0
LINE
  5
6E9
100
AcDbEntity
  8
_0-0_0
  6
CONTINUOUS
 62
     0
100
AcDbLine
 10
487.5
 20
394.000002
 11
487.5
 21
392
  0
ARC
  5
6EA
100
AcDbEntity
  8
_0-0_0
  6
CONTINUOUS
 62
     0
100
AcDbCircle
 10
487
 20
394.000002
 40
0.5
100
AcDbArc
 50
0
 51
90
  0
LINE
  5
6EB
100
AcDbEntity
  8
_0-0_0
  6
CONTINUOUS
 62
     0
100
AcDbLine
 10
475.75
 20
397.750002
 11
477.0000000001
 21
397.750002
  0
LINE
  5
6EC
100
AcDbEntity
  8
_0-0_0
  6
CONTINUOUS
 62
     0
100
AcDbLine
 10
480.0000000001
 20
397.750002
 11
481.25
 21
397.750002
  0
LINE
  5
6ED
100
AcDbEntity
  8
_0-0_0
  6
CONTINUOUS
 62
     0
100
AcDbLine
 10
475.5
 20
393.000002
 11
483.0059488738
 21
393.000002
  0
LINE
  5
6EE
100
AcDbEntity
  8
_0-0_0
  6
CONTINUOUS
 62
     0
100
AcDbLine
 10
483.0059488738
 20
393.000002
 11
486
 21
393.000002
  0
LINE
  5
6EF
100
AcDbEntity
  8
_0-0_0
  6
CONTINUOUS
 62
     0
100
AcDbLine
 10
481
 20
394.500002
 11
475.999998
 21
394.500002
  0
LINE
  5
6F0
100
AcDbEntity
  8
_0-0_0
  6
CONTINUOUS
 62
     0
100
AcDbLine
 10
487
 20
394.500002
 11
483
 21
394.500002
  0
ARC
  5
6F1
100
AcDbEntity
  8
_0-0_0
  6
CONTINUOUS
 62
     0
100
AcDbCircle
 10
481
 20
395.000002
 40
0.25
100
AcDbArc
 50
-90
 51
0
  0
ARC
  5
6F2
100
AcDbEntity
  8
_0-0_0
  6
CONTINUOUS
 62
     0
100
AcDbCircle
 10
475.999998
 20
395
 40
0.250001
100
AcDbArc
 50
180
 51
270
  0
LINE
  5
6F3
100
AcDbEntity
  8
_0-0_0
  6
CONTINUOUS
 62
     0
100
AcDbLine
 10
481.25
 20
395.000002
 11
481.25
 21
397.750002
  0
LINE
  5
6F4
100
AcDbEntity
  8
_0-0_0
  6
CONTINUOUS
 62
     0
100
AcDbLine
 10
475.75
 20
395
 11
475.75
 21
397.750002
  0
LINE
  5
6F5
100
AcDbEntity
  8
_0-0_0
  6
CONTINUOUS
 62
     0
100
AcDbLine
 10
481
 20
394.750002
 11
475.999998
 21
394.750002
  0
LINE
  5
6F6
100
AcDbEntity
  8
_0-0_0
  6
CONTINUOUS
 62
     0
100
AcDbLine
 10
475.5
 20
410
 11
475.5
 21
399.500002
  0
LINE
  5
6F7
100
AcDbEntity
  8
_0-0_0
  6
CONTINUOUS
 62
     0
100
AcDbLine
 10
475.5
 20
398.000002
 11
475.5
 21
395
  0
LINE
  5
6F8
100
AcDbEntity
  8
_0-0_0
  6
CONTINUOUS
 62
     0
100
AcDbLine
 10
481.5
 20
395.000002
 11
481.5
 21
398.000002
  0
LINE
  5
6F9
100
AcDbEntity
  8
_0-0_0
  6
CONTINUOUS
 62
     0
100
AcDbLine
 10
483
 20
399.000002
 11
483
 21
394.500002
  0
ARC
  5
6FA
100
AcDbEntity
  8
_0-0_0
  6
CONTINUOUS
 62
     0
100
AcDbCircle
 10
482.5
 20
399.000002
 40
0.5
100
AcDbArc
 50
0
 51
90
  0
ARC
  5
6FB
100
AcDbEntity
  8
_0-0_0
  6
CONTINUOUS
 62
     0
100
AcDbCircle
 10
481
 20
395.000002
 40
0.5
100
AcDbArc
 50
-90
 51
0
  0
LINE
  5
6FC
100
AcDbEntity
  8
_0-0_0
  6
CONTINUOUS
 62
     0
100
AcDbLine
 10
482.5
 20
399.500002
 11
481.25
 21
399.500002
  0
ARC
  5
6FD
100
AcDbEntity
  8
_0-0_0
  6
CONTINUOUS
 62
     0
100
AcDbCircle
 10
481.25
 20
398.500002
 40
1
100
AcDbArc
 50
90
 51
180
  0
LINE
  5
6FE
100
AcDbEntity
  8
_0-0_0
  6
CONTINUOUS
 62
     0
100
AcDbLine
 10
480.25
 20
398.500002
 11
480.25
 21
398.000002
  0
LINE
  5
6FF
100
AcDbEntity
  8
_0-0_0
  6
CONTINUOUS
 62
     0
100
AcDbLine
 10
480.25
 20
398.000002
 11
481.5
 21
398.000002
  0
LINE
  5
700
100
AcDbEntity
  8
_0-0_0
  6
CONTINUOUS
 62
     0
100
AcDbLine
 10
475.5
 20
398.000002
 11
476.75
 21
398.000002
  0
LINE
  5
701
100
AcDbEntity
  8
_0-0_0
  6
CONTINUOUS
 62
     0
100
AcDbLine
 10
476.75
 20
398.500002
 11
476.75
 21
398.000002
  0
ARC
  5
702
100
AcDbEntity
  8
_0-0_0
  6
CONTINUOUS
 62
     0
100
AcDbCircle
 10
475.75
 20
398.500002
 40
1
100
AcDbArc
 50
0
 51
90
  0
LINE
  5
703
100
AcDbEntity
  8
_0-0_0
  6
CONTINUOUS
 62
     0
100
AcDbLine
 10
475.75
 20
399.500002
 11
475.5
 21
399.500002
  0
LINE
  5
704
100
AcDbEntity
  8
_0-0_0
  6
CONTINUOUS
 62
     0
100
AcDbLine
 10
477.0000000001
 20
397.750002
 11
477.0000000001
 21
416.6695578599
  0
LINE
  5
705
100
AcDbEntity
  8
_0-0_0
  6
CONTINUOUS
 62
     0
100
AcDbLine
 10
480.0000000001
 20
397.750002
 11
480.0000000001
 21
418.1328208559
  0
ARC
  5
706
100
AcDbEntity
  8
_0-0_0
  6
CONTINUOUS
 62
     0
100
AcDbCircle
 10
503.0230375338
 20
415.126568641
 40
23.08754100601
100
AcDbArc
 50
75.80133910481
 51
176.8159758207
  0
ARC
  5
707
100
AcDbEntity
  8
_0-0_0
  6
CONTINUOUS
 62
     0
100
AcDbCircle
 10
501.8874203511
 20
414.4914960592
 40
25
100
AcDbArc
 50
73.59045565079
 51
175
  0
ARC
  5
708
100
AcDbEntity
  8
_0-0_0
  6
CONTINUOUS
 62
     0
100
AcDbCircle
 10
508.808701117
 20
437.9935358123
 40
0.5
100
AcDbArc
 50
-104.1986608952
 51
73.59045565079
  0
LINE
  5
709
100
AcDbEntity
  8
_0-3_躯体と製品
  6
CONTINUOUS
 62
     0
100
AcDbLine
 10
475.5
 20
399.500002
 11
475.5
 21
410
  0
LINE
  5
70A
100
AcDbEntity
  8
_0-4_図枠
  6
CONTINUOUS
 62
     0
100
AcDbLine
 10
479.846003974
 20
405.8499770839
 11
490.3034515106
 21
387.737146633
  0
TEXT
  5
70B
100
AcDbEntity
  8
_0-4_図枠
  6
CONTINUOUS
 62
     0
100
AcDbText
 10
490.0534515106
 20
379.5409942103
 40
5
  1
11
  7
STANDARD
100
AcDbText
  0
CIRCLE
  5
70C
100
AcDbEntity
  8
_0-4_図枠
  6
CONTINUOUS
 62
     0
100
AcDbCircle
 10
493.3034515106
 20
382.5409942103
 40
6
  0
CIRCLE
  5
70D
100
AcDbEntity
  8
_0-4_図枠
  6
CONTINUOUS
 62
     0
100
AcDbCircle
 10
479.846003974
 20
405.8499770839
 40
0.9
  0
TEXT
  5
70E
100
AcDbEntity
  8
_0-4_図枠
  6
CONTINUOUS
 62
     0
100
AcDbText
 10
375.5400884372
 20
355.9627857344
 40
5
  1
10
  7
STANDARD
100
AcDbText
  0
TEXT
  5
70F
100
AcDbEntity
  8
_0-4_図枠
  6
CONTINUOUS
 62
     0
100
AcDbText
 10
520.8986558504
 20
449.9136998075
 40
5
  1
５
  7
STANDARD
100
AcDbText
  0
TEXT
  5
710
100
AcDbEntity
  8
_0-4_図枠
  6
CONTINUOUS
 62
     0
100
AcDbText
 10
492.8909188008
 20
462.0557433617
 40
5
  1
６
  7
STANDARD
100
AcDbText
  0
TEXT
  5
711
100
AcDbEntity
  8
_0-4_図枠
  6
CONTINUOUS
 62
     0
100
AcDbText
 10
478.9591688599
 20
376.8859835099
 40
5
  1
７
  7
STANDARD
100
AcDbText
  0
TEXT
  5
712
100
AcDbEntity
  8
_0-4_図枠
  6
CONTINUOUS
 62
     0
100
AcDbText
 10
565.3900638536
 20
463.9686930811
 40
5
  1
８
  7
STANDARD
100
AcDbText
  0
TEXT
  5
713
100
AcDbEntity
  8
_0-4_図枠
  6
CONTINUOUS
 62
     0
100
AcDbText
 10
385.4365555244
 20
510.1126450736
 40
5
  1
９
  7
STANDARD
100
AcDbText
  0
TEXT
  5
714
100
AcDbEntity
  8
_0-4_図枠
  6
CONTINUOUS
 62
     0
100
AcDbText
 10
387.3625019454
 20
402.0954855723
 40
5
  1
12
  7
STANDARD
100
AcDbText
  0
TEXT
  5
715
100
AcDbEntity
  8
_0-4_図枠
  6
CONTINUOUS
 62
     0
100
AcDbText
 10
476.6299775765
 20
458.5340501395
 40
5
  1
13
  7
STANDARD
100
AcDbText
  0
TEXT
  5
716
100
AcDbEntity
  8
_0-4_図枠
  6
CONTINUOUS
 62
     0
100
AcDbText
 10
477.5097964936
 20
361.4600133715
 40
5
  1
15
  7
STANDARD
100
AcDbText
  0
TEXT
  5
717
100
AcDbEntity
  8
_0-4_図枠
  6
CONTINUOUS
 62
     0
100
AcDbText
 10
438.5823748293
 20
339.3286002038
 40
5
  1
16
  7
STANDARD
100
AcDbText
  0
TEXT
  5
718
100
AcDbEntity
  8
_0-4_図枠
  6
CONTINUOUS
 62
     0
100
AcDbText
 10
284.3182362501
 20
467.8206076469
 40
5
  1
17
  7
STANDARD
100
AcDbText
  0
TEXT
  5
719
100
AcDbEntity
  8
_0-4_図枠
  6
CONTINUOUS
 62
     0
100
AcDbText
 10
312.3845402624
 20
468.9193478597
 40
5
  1
18
  7
STANDARD
100
AcDbText
  0
TEXT
  5
71A
100
AcDbEntity
  8
_0-4_図枠
  6
CONTINUOUS
 62
     0
100
AcDbText
 10
314.1257359325
 20
416.7472546898
 40
5
  1
20
  7
STANDARD
100
AcDbText
  0
TEXT
  5
71B
100
AcDbEntity
  8
_0-4_図枠
  6
CONTINUOUS
 62
     0
100
AcDbText
 10
433.9309946151
 20
370.2438685256
 40
5
  1
19
  7
STANDARD
100
AcDbText
  0
TEXT
  5
71C
100
AcDbEntity
  8
_0-4_図枠
  6
CONTINUOUS
 62
     0
100
AcDbText
 10
527
 20
229.5
 40
5
  1
　　 〃　 　２５０
  7
STANDARD
100
AcDbText
  0
TEXT
  5
71D
100
AcDbEntity
  8
_0-4_図枠
  6
CONTINUOUS
 62
     0
100
AcDbText
 10
527
 20
220.5
 40
5
  1
　　 〃　 　２７５
  7
STANDARD
100
AcDbText
  0
TEXT
  5
71E
100
AcDbEntity
  8
_0-4_図枠
  6
CONTINUOUS
 62
     0
100
AcDbText
 10
527
 20
211.5
 40
5
  1
　　 〃　 　３００
  7
STANDARD
100
AcDbText
  0
TEXT
  5
71F
100
AcDbEntity
  8
_0-4_図枠
  6
CONTINUOUS
 62
     0
100
AcDbText
 10
527
 20
202.5
 40
5
  1
　　 〃　 　３２５
  7
STANDARD
100
AcDbText
  0
TEXT
  5
720
100
AcDbEntity
  8
_0-4_図枠
  6
CONTINUOUS
 62
     0
100
AcDbText
 10
527
 20
193.5
 40
5
  1
　　 〃　 　３５０
  7
STANDARD
100
AcDbText
  0
TEXT
  5
721
100
AcDbEntity
  8
_0-4_図枠
  6
CONTINUOUS
 62
     0
100
AcDbText
 10
527
 20
184.5
 40
5
  1
　　 〃　 　３７５
  7
STANDARD
100
AcDbText
  0
TEXT
  5
722
100
AcDbEntity
  8
_0-4_図枠
  6
CONTINUOUS
 62
     0
100
AcDbText
 10
527
 20
175.5
 40
5
  1
　　 〃　 　４００
  7
STANDARD
100
AcDbText
  0
TEXT
  5
723
100
AcDbEntity
  8
_0-4_図枠
  6
CONTINUOUS
 62
     0
100
AcDbText
 10
527
 20
166.5
 40
5
  1
　　 〃　 　４２５
  7
STANDARD
100
AcDbText
  0
TEXT
  5
724
100
AcDbEntity
  8
_0-4_図枠
  6
CONTINUOUS
 62
     0
100
AcDbText
 10
527
 20
157.5
 40
5
  1
　　 〃　 　４５０
  7
STANDARD
100
AcDbText
  0
TEXT
  5
725
100
AcDbEntity
  8
_0-4_図枠
  6
CONTINUOUS
 62
     0
100
AcDbText
 10
527
 20
148.5
 40
5
  1
　　 〃　 　４７５
  7
STANDARD
100
AcDbText
  0
TEXT
  5
726
100
AcDbEntity
  8
_0-4_図枠
  6
CONTINUOUS
 62
     0
100
AcDbText
 10
527
 20
139.5
 40
5
  1
　　 〃　 　５００
  7
STANDARD
100
AcDbText
  0
LINE
  5
727
100
AcDbEntity
  8
_0-2_寸法
  6
CONTINUOUS
 62
     0
100
AcDbLine
 10
407
 20
284.75
 11
407
 21
285
  0
LINE
  5
728
100
AcDbEntity
  8
_0-2_寸法
  6
CONTINUOUS
 62
     0
100
AcDbLine
 10
408
 20
285
 11
506
 21
285
  0
CIRCLE
  5
729
100
AcDbEntity
  8
_0-2_寸法
  6
CONTINUOUS
 62
     0
100
AcDbCircle
 10
407
 20
284.75
 40
1.4
  0
CIRCLE
  5
72A
100
AcDbEntity
  8
_0-2_寸法
  6
CONTINUOUS
 62
     0
100
AcDbCircle
 10
507
 20
285
 40
1.4
  0
CIRCLE
  5
72B
100
AcDbEntity
  8
_0-2_寸法
  6
CONTINUOUS
 62
     0
100
AcDbCircle
 10
507
 20
285
 40
1.4
  0
LINE
  5
72C
100
AcDbEntity
  8
_0-2_寸法
  6
CONTINUOUS
 62
     0
100
AcDbLine
 10
507
 20
284.75
 11
507
 21
285
  0
LINE
  5
72D
100
AcDbEntity
  8
_0-2_寸法
  6
CONTINUOUS
 62
     0
100
AcDbLine
 10
558
 20
348.3801541434
 11
558
 21
285
  0
LINE
  5
72E
100
AcDbEntity
  8
_0-2_寸法
  6
CONTINUOUS
 62
     0
100
AcDbLine
 10
508
 20
285
 11
557
 21
285
  0
CIRCLE
  5
72F
100
AcDbEntity
  8
_0-2_寸法
  6
CONTINUOUS
 62
     0
100
AcDbCircle
 10
507
 20
284.75
 40
1.4
  0
CIRCLE
  5
730
100
AcDbEntity
  8
_0-2_寸法
  6
CONTINUOUS
 62
     0
100
AcDbCircle
 10
558
 20
348.3801541434
 40
1.4
  0
CIRCLE
  5
731
100
AcDbEntity
  8
_0-2_寸法
  6
CONTINUOUS
 62
     0
100
AcDbCircle
 10
558
 20
285
 40
1.4
  0
CIRCLE
  5
732
100
AcDbEntity
  8
_0-2_寸法
  6
CONTINUOUS
 62
     0
100
AcDbCircle
 10
332
 20
285
 40
0.25
  0
LINE
  5
733
100
AcDbEntity
  8
_0-2_寸法
  6
CONTINUOUS
 62
     0
100
AcDbLine
 10
331.75
 20
285
 11
332.25
 21
285
  0
LINE
  5
734
100
AcDbEntity
  8
_0-2_寸法
  6
CONTINUOUS
 62
     0
100
AcDbLine
 10
332.5
 20
285
 11
333
 21
285
  0
CIRCLE
  5
735
100
AcDbEntity
  8
_0-2_寸法
  6
CONTINUOUS
 62
     0
100
AcDbCircle
 10
357
 20
285
 40
0.25
  0
LINE
  5
736
100
AcDbEntity
  8
_0-2_寸法
  6
CONTINUOUS
 62
     0
100
AcDbLine
 10
357.25
 20
285
 11
356.75
 21
285
  0
LINE
  5
737
100
AcDbEntity
  8
_0-2_寸法
  6
CONTINUOUS
 62
     0
100
AcDbLine
 10
356.5
 20
285
 11
356
 21
285
  0
LINE
  5
738
100
AcDbEntity
  8
_0-2_寸法
  6
CONTINUOUS
 62
     0
100
AcDbLine
 10
357
 20
284.75
 11
357
 21
285
  0
LINE
  5
739
100
AcDbEntity
  8
_0-2_寸法
  6
CONTINUOUS
 62
     0
100
AcDbLine
 10
358
 20
285
 11
406
 21
285
  0
CIRCLE
  5
73A
100
AcDbEntity
  8
_0-2_寸法
  6
CONTINUOUS
 62
     0
100
AcDbCircle
 10
357
 20
284.75
 40
1.4
  0
CIRCLE
  5
73B
100
AcDbEntity
  8
_0-2_寸法
  6
CONTINUOUS
 62
     0
100
AcDbCircle
 10
407
 20
285
 40
1.4
  0
CIRCLE
  5
73C
100
AcDbEntity
  8
_0-2_寸法
  6
CONTINUOUS
 62
     0
100
AcDbCircle
 10
407
 20
285
 40
1.4
  0
CIRCLE
  5
73D
100
AcDbEntity
  8
_0-2_寸法
  6
CONTINUOUS
 62
     0
100
AcDbCircle
 10
357
 20
285
 40
0.25
  0
LINE
  5
73E
100
AcDbEntity
  8
_0-2_寸法
  6
CONTINUOUS
 62
     0
100
AcDbLine
 10
356.75
 20
285
 11
357.25
 21
285
  0
LINE
  5
73F
100
AcDbEntity
  8
_0-2_寸法
  6
CONTINUOUS
 62
     0
100
AcDbLine
 10
357.5
 20
285
 11
358
 21
285
  0
CIRCLE
  5
740
100
AcDbEntity
  8
_0-2_寸法
  6
CONTINUOUS
 62
     0
100
AcDbCircle
 10
407
 20
285
 40
0.25
  0
LINE
  5
741
100
AcDbEntity
  8
_0-2_寸法
  6
CONTINUOUS
 62
     0
100
AcDbLine
 10
407.25
 20
285
 11
406.75
 21
285
  0
LINE
  5
742
100
AcDbEntity
  8
_0-2_寸法
  6
CONTINUOUS
 62
     0
100
AcDbLine
 10
406.5
 20
285
 11
406
 21
285
  0
CIRCLE
  5
743
100
AcDbEntity
  8
_0-2_寸法
  6
CONTINUOUS
 62
     0
100
AcDbCircle
 10
407
 20
285
 40
0.25
  0
LINE
  5
744
100
AcDbEntity
  8
_0-2_寸法
  6
CONTINUOUS
 62
     0
100
AcDbLine
 10
406.75
 20
285
 11
407.25
 21
285
  0
LINE
  5
745
100
AcDbEntity
  8
_0-2_寸法
  6
CONTINUOUS
 62
     0
100
AcDbLine
 10
407.5
 20
285
 11
408
 21
285
  0
CIRCLE
  5
746
100
AcDbEntity
  8
_0-2_寸法
  6
CONTINUOUS
 62
     0
100
AcDbCircle
 10
507
 20
285
 40
0.25
  0
LINE
  5
747
100
AcDbEntity
  8
_0-2_寸法
  6
CONTINUOUS
 62
     0
100
AcDbLine
 10
507.25
 20
285
 11
506.75
 21
285
  0
LINE
  5
748
100
AcDbEntity
  8
_0-2_寸法
  6
CONTINUOUS
 62
     0
100
AcDbLine
 10
506.5
 20
285
 11
506
 21
285
  0
CIRCLE
  5
749
100
AcDbEntity
  8
_0-2_寸法
  6
CONTINUOUS
 62
     0
100
AcDbCircle
 10
507
 20
285
 40
0.25
  0
LINE
  5
74A
100
AcDbEntity
  8
_0-2_寸法
  6
CONTINUOUS
 62
     0
100
AcDbLine
 10
506.75
 20
285
 11
507.25
 21
285
  0
LINE
  5
74B
100
AcDbEntity
  8
_0-2_寸法
  6
CONTINUOUS
 62
     0
100
AcDbLine
 10
507.5
 20
285
 11
508
 21
285
  0
CIRCLE
  5
74C
100
AcDbEntity
  8
_0-2_寸法
  6
CONTINUOUS
 62
     0
100
AcDbCircle
 10
558
 20
285
 40
0.25
  0
LINE
  5
74D
100
AcDbEntity
  8
_0-2_寸法
  6
CONTINUOUS
 62
     0
100
AcDbLine
 10
558.25
 20
285
 11
557.75
 21
285
  0
LINE
  5
74E
100
AcDbEntity
  8
_0-2_寸法
  6
CONTINUOUS
 62
     0
100
AcDbLine
 10
557.5
 20
285
 11
557
 21
285
  0
LINE
  5
74F
100
AcDbEntity
  8
_0-2_寸法
  6
CONTINUOUS
 62
     0
100
AcDbLine
 10
332
 20
388
 11
332
 21
285
  0
LINE
  5
750
100
AcDbEntity
  8
_0-2_寸法
  6
CONTINUOUS
 62
     0
100
AcDbLine
 10
333
 20
285
 11
356
 21
285
  0
CIRCLE
  5
751
100
AcDbEntity
  8
_0-2_寸法
  6
CONTINUOUS
 62
     0
100
AcDbCircle
 10
332
 20
388
 40
1.4
  0
CIRCLE
  5
752
100
AcDbEntity
  8
_0-2_寸法
  6
CONTINUOUS
 62
     0
100
AcDbCircle
 10
357
 20
285
 40
1.4
  0
CIRCLE
  5
753
100
AcDbEntity
  8
_0-2_寸法
  6
CONTINUOUS
 62
     0
100
AcDbCircle
 10
357
 20
285
 40
1.4
  0
TEXT
  5
754
100
AcDbEntity
  8
_0-2_寸法
  6
CONTINUOUS
 62
     0
100
AcDbText
 10
342
 20
285
 40
5
  1
25
  7
STANDARD
100
AcDbText
  0
TEXT
  5
755
100
AcDbEntity
  8
_0-2_寸法
  6
CONTINUOUS
 62
     0
100
AcDbText
 10
379.5
 20
285
 40
5
  1
50
  7
STANDARD
100
AcDbText
  0
TEXT
  5
756
100
AcDbEntity
  8
_0-2_寸法
  6
CONTINUOUS
 62
     0
100
AcDbText
 10
454.5
 20
285
 40
5
  1
Ｃ
  7
STANDARD
100
AcDbText
  0
TEXT
  5
757
100
AcDbEntity
  8
_0-2_寸法
  6
CONTINUOUS
 62
     0
100
AcDbText
 10
530
 20
285
 40
5
  1
50
  7
STANDARD
100
AcDbText
  0
TEXT
  5
758
100
AcDbEntity
  8
_0-0_0
  6
CONTINUOUS
 62
     0
100
AcDbText
 10
269.5
 20
238.5
 40
5
  1
５０ＦＹＫ－Ａ２２５～５００
  7
STANDARD
100
AcDbText
  0
TEXT
  5
759
100
AcDbEntity
  8
_0-0_0
  6
CONTINUOUS
 62
     0
100
AcDbText
 10
269.5
 20
202.5
 40
5
  1
５０ＦＹＫＨ－２２５～５００
  7
STANDARD
100
AcDbText
  0
TEXT
  5
75A
100
AcDbEntity
  8
_0-0_0
  6
CONTINUOUS
 62
     0
100
AcDbText
 10
269.5
 20
175.5
 40
5
  1
５０ＦＹＫＪ－２２５～５００
  7
STANDARD
100
AcDbText
  0
TEXT
  5
75B
100
AcDbEntity
  8
_0-0_0
  6
CONTINUOUS
 62
     0
100
AcDbText
 10
269.5
 20
157.5
 40
5
  1
ＦＳ５００～７００
  7
STANDARD
100
AcDbText
  0
TEXT
  5
75C
100
AcDbEntity
  8
_0-0_0
  6
CONTINUOUS
 62
     0
100
AcDbText
 10
169.5
 20
130.5
 40
5
  1
ステン小ねじ
  7
STANDARD
100
AcDbText
  0
TEXT
  5
75D
100
AcDbEntity
  8
_0-0_0
  6
CONTINUOUS
 62
     0
100
AcDbText
 10
169.5
 20
121.5
 40
5
  1
ステン小ねじ
  7
STANDARD
100
AcDbText
  0
TEXT
  5
75E
100
AcDbEntity
  8
_0-0_0
  6
CONTINUOUS
 62
     0
100
AcDbText
 10
269.5
 20
130.5
 40
5
  1
なべＭ６×３５
  7
STANDARD
100
AcDbText
  0
TEXT
  5
75F
100
AcDbEntity
  8
_0-0_0
  6
CONTINUOUS
 62
     0
100
AcDbText
 10
269.5
 20
121.5
 40
5
  1
なべＭ４×１０
  7
STANDARD
100
AcDbText
  0
TEXT
  5
760
100
AcDbEntity
  8
_0-0_0
  6
CONTINUOUS
 62
     0
100
AcDbText
 10
269.5
 20
112.5
 40
5
  1
Ｍ６×４０
  7
STANDARD
100
AcDbText
  0
TEXT
  5
761
100
AcDbEntity
  8
_0-0_0
  6
CONTINUOUS
 62
     0
100
AcDbText
 10
269.5
 20
103.5
 40
5
  1
ＡＧ－６６０
  7
STANDARD
100
AcDbText
  0
TEXT
  5
762
100
AcDbEntity
  8
_0-0_0
  6
CONTINUOUS
 62
     0
100
AcDbText
 10
269.5
 20
94.5
 40
5
  1
φ８×４０
  7
STANDARD
100
AcDbText
  0
TEXT
  5
763
100
AcDbEntity
  8
_0-0_0
  6
CONTINUOUS
 62
     0
100
AcDbText
 10
269.5
 20
85.5
 40
5
  1
なべ５×５０
  7
STANDARD
100
AcDbText
  0
TEXT
  5
764
100
AcDbEntity
  8
_0-0_0
  6
CONTINUOUS
 62
     0
100
AcDbText
 10
269.5
 20
76.5
 40
5
  1
１.５×１８×６.５穴
  7
STANDARD
100
AcDbText
  0
TEXT
  5
765
100
AcDbEntity
  8
_0-0_0
  6
CONTINUOUS
 62
     0
100
AcDbText
 10
269.5
 20
67.5
 40
5
  1
１.５×１８×５.５穴
  7
STANDARD
100
AcDbText
  0
TEXT
  5
766
100
AcDbEntity
  8
_0-0_0
  6
CONTINUOUS
 62
     0
100
AcDbText
 10
269.5
 20
58.5
 40
5
  1
ｔ１．０×ｗ３０
  7
STANDARD
100
AcDbText
  0
INSERT
  5
767
100
AcDbEntity
  8
_0-2_寸法
100
AcDbBlockReference
  2
BK2
 10
0
 20
0
  0
INSERT
  5
768
100
AcDbEntity
  8
_0-2_寸法
100
AcDbBlockReference
  2
BK3
 10
0
 20
0
  0
INSERT
  5
769
100
AcDbEntity
  8
_0-2_寸法
100
AcDbBlockReference
  2
BK4
 10
0
 20
0
  0
INSERT
  5
76A
100
AcDbEntity
  8
_0-2_寸法
100
AcDbBlockReference
  2
BK5
 10
0
 20
0
  0
INSERT
  5
76B
100
AcDbEntity
  8
_0-2_寸法
100
AcDbBlockReference
  2
BK6
 10
0
 20
0
  0
INSERT
  5
76C
100
AcDbEntity
  8
_0-2_寸法
100
AcDbBlockReference
  2
BK7
 10
0
 20
0
  0
INSERT
  5
76D
100
AcDbEntity
  8
_0-2_寸法
100
AcDbBlockReference
  2
BK8
 10
0
 20
0
  0
INSERT
  5
76E
100
AcDbEntity
  8
_0-2_寸法
100
AcDbBlockReference
  2
BK9
 10
0
 20
0
  0
INSERT
  5
76F
100
AcDbEntity
  8
_0-2_寸法
100
AcDbBlockReference
  2
BK10
 10
0
 20
0
  0
INSERT
  5
770
100
AcDbEntity
  8
_0-2_寸法
100
AcDbBlockReference
  2
BK11
 10
0
 20
0
  0
INSERT
  5
771
100
AcDbEntity
  8
_0-2_寸法
100
AcDbBlockReference
  2
BK12
 10
0
 20
0
  0
INSERT
  5
772
100
AcDbEntity
  8
_0-2_寸法
100
AcDbBlockReference
  2
BK13
 10
0
 20
0
  0
INSERT
  5
773
100
AcDbEntity
  8
_0-2_寸法
100
AcDbBlockReference
  2
BK14
 10
0
 20
0
  0
INSERT
  5
774
100
AcDbEntity
  8
_0-2_寸法
100
AcDbBlockReference
  2
BK15
 10
0
 20
0
  0
INSERT
  5
775
100
AcDbEntity
  8
_0-2_寸法
100
AcDbBlockReference
  2
BK16
 10
0
 20
0
  0
INSERT
  5
776
100
AcDbEntity
  8
_0-2_寸法
100
AcDbBlockReference
  2
BK17
 10
0
 20
0
  0
INSERT
  5
777
100
AcDbEntity
  8
_0-2_寸法
100
AcDbBlockReference
  2
BK18
 10
0
 20
0
  0
INSERT
  5
778
100
AcDbEntity
  8
_0-2_寸法
100
AcDbBlockReference
  2
BK19
 10
0
 20
0
  0
INSERT
  5
779
100
AcDbEntity
  8
_0-2_寸法
100
AcDbBlockReference
  2
BK20
 10
0
 20
0
  0
INSERT
  5
77A
100
AcDbEntity
  8
_0-2_寸法
100
AcDbBlockReference
  2
BK21
 10
0
 20
0
  0
INSERT
  5
77B
100
AcDbEntity
  8
_0-2_寸法
100
AcDbBlockReference
  2
BK22
 10
0
 20
0
  0
INSERT
  5
77C
100
AcDbEntity
  8
_0-2_寸法
100
AcDbBlockReference
  2
BK23
 10
0
 20
0
  0
INSERT
  5
77D
100
AcDbEntity
  8
_0-2_寸法
100
AcDbBlockReference
  2
BK24
 10
0
 20
0
  0
INSERT
  5
77E
100
AcDbEntity
  8
_0-2_寸法
100
AcDbBlockReference
  2
BK25
 10
0
 20
0
  0
INSERT
  5
77F
100
AcDbEntity
  8
_0-2_寸法
100
AcDbBlockReference
  2
BK26
 10
0
 20
0
  0
INSERT
  5
780
100
AcDbEntity
  8
_0-2_寸法
100
AcDbBlockReference
  2
BK27
 10
0
 20
0
  0
INSERT
  5
781
100
AcDbEntity
  8
_0-2_寸法
100
AcDbBlockReference
  2
BK28
 10
0
 20
0
  0
INSERT
  5
782
100
AcDbEntity
  8
_0-2_寸法
100
AcDbBlockReference
  2
BK29
 10
0
 20
0
  0
INSERT
  5
783
100
AcDbEntity
  8
_0-2_寸法
100
AcDbBlockReference
  2
BK30
 10
0
 20
0
  0
INSERT
  5
784
100
AcDbEntity
  8
_0-2_寸法
100
AcDbBlockReference
  2
BK31
 10
0
 20
0
  0
INSERT
  5
785
100
AcDbEntity
  8
_0-2_寸法
100
AcDbBlockReference
  2
BK32
 10
0
 20
0
  0
INSERT
  5
786
100
AcDbEntity
  8
_0-2_寸法
100
AcDbBlockReference
  2
BK33
 10
0
 20
0
  0
INSERT
  5
787
100
AcDbEntity
  8
_0-2_寸法
100
AcDbBlockReference
  2
BK34
 10
0
 20
0
  0
TEXT
  5
788
100
AcDbEntity
  8
_0-4_図枠
  6
CONTINUOUS
 62
     0
100
AcDbText
 10
527
 20
238.5
 40
5
  1
５０ＦＹＫＧ－Ａ２２５
  7
STANDARD
100
AcDbText
  0
ENDSEC
  0
SECTION
  2
OBJECTS
  0
DICTIONARY
  5
789
100
AcDbDictionary
  3
ACAD_GROUP
350
78A
  3
ACAD_IMAGE_DICT
350
78B
  3
ACAD_MLINESTYLE
350
78C
  0
DICTIONARY
  5
78A
330
789
100
AcDbDictionary
  0
DICTIONARY
  5
78B
100
AcDbDictionary
  0
DICTIONARY
  5
78C
100
AcDbDictionary
  3
STANDARD
350
78D
  0
RASTERVARIABLES
  5
78E
100
AcDbRasterVariables
 90
     0
 70
     1
 71
     1
 72
     0
  0
MLINESTYLE
  5
78D
100
AcDbMlineStyle
  2
STANDARD
 70
     0
  3

 62
   256
 51
90
 52
90
 71
     0
  0
ENDSEC
  0
EOF
