  0
SECTION
  2
HEADER
  9
$ACADVER
  1
AC1015
  9
$DWGCODEPAGE
  3
ANSI_932
  9
$EXTMIN
 10
52.5
 20
36
  9
$EXTMAX
 10
1207.5
 20
1778.923263001
  9
$LIMMIN
 10
0
 20
0
  9
$LIMMAX
 10
1260
 20
882
  9
$LTSCALE
 40
3
  9
$DIMSCALE
 40
3
  9
$DIMSTYLE
  2
M7DIMSTL
  9
$HANDSEED
  5
7FFFFFFF
  9
$PSLTSCALE
 70
     0
  9
$MEASUREMENT
 70
     1
  0
ENDSEC
  0
SECTION
  2
CLASSES
  0
CLASS
  1
CSOFTARXCLASS
  2
CSoftArxClass
  3
CSRasterApi
 90
     0
280
     0
281
     0
  0
CLASS
  1
IMAGEDEF
  2
AcDbRasterImageDef
  3
ISM
 90
     0
280
     0
281
     0
  0
CLASS
  1
RASTERVARIABLES
  2
AcDbRasterVariables
  3
ISM
 90
     0
280
     0
281
     0
  0
CLASS
  1
IMAGE
  2
AcDbRasterImage
  3
ISM
 90
   127
280
     0
281
     0
  0
CLASS
  1
IMAGEDEF_REACTOR
  2
AcDbRasterImageDefReactor
  3
ISM
 90
     1
280
     0
281
     0
  0
CLASS
  1
HATCH
  2
AcDbHatch
  3
M7
 90
     0
280
     0
281
     1
  0
ENDSEC
  0
SECTION
  2
TABLES
  0
TABLE
  2
VPORT
  5
FF
100
AcDbSymbolTable
 70
     5
  0
VPORT
  5
100
100
AcDbSymbolTableRecord
100
AcDbViewportTableRecord
  2
*ACTIVE
 70
     0
 10
0
 20
0
 11
1
 21
1
 12
630
 22
441
 13
0
 23
0
 14
0
 24
0
 15
0
 25
0
 16
0
 26
0
 36
1
 17
0
 27
0
 37
0
 40
441
 41
1.428571428571
 42
50
 43
0
 44
0
 50
0
 51
0
 71
     0
 72
   100
 73
     1
 74
     3
 75
     0
 76
     0
 77
     0
 78
     0
  0
ENDTAB
  0
TABLE
  2
LTYPE
  5
101
100
AcDbSymbolTable
 70
     1
  0
LTYPE
  5
102
100
AcDbSymbolTableRecord
100
AcDbLinetypeTableRecord
  2
BYBLOCK
 70
     0
  3

 72
    65
 73
     0
 40
0
  0
LTYPE
  5
103
100
AcDbSymbolTableRecord
100
AcDbLinetypeTableRecord
  2
BYLAYER
 70
     0
  3

 72
    65
 73
     0
 40
0
  0
LTYPE
  5
104
100
AcDbSymbolTableRecord
100
AcDbLinetypeTableRecord
  2
CONTINUOUS
 70
     0
  3
Solid line
 72
    65
 73
     0
 40
0
  0
LTYPE
  5
105
100
AcDbSymbolTableRecord
100
AcDbLinetypeTableRecord
  2
DOT
 70
     0
  3
...............................
 72
    65
 73
     2
 40
2
 49
1
 74
     0
 49
-1
 74
     0
  0
LTYPE
  5
106
100
AcDbSymbolTableRecord
100
AcDbLinetypeTableRecord
  2
DASHED
 70
     0
  3
- - - - - - - - - - - - - - - -
 72
    65
 73
     2
 40
4
 49
2
 74
     0
 49
-2
 74
     0
  0
LTYPE
  5
107
100
AcDbSymbolTableRecord
100
AcDbLinetypeTableRecord
  2
DASHED2
 70
     0
  3
-- -- -- -- -- -- -- -- -- -- -
 72
    65
 73
     2
 40
8
 49
5
 74
     0
 49
-3
 74
     0
  0
LTYPE
  5
108
100
AcDbSymbolTableRecord
100
AcDbLinetypeTableRecord
  2
CENTER
 70
     0
  3
--------- - --------- - -------
 72
    65
 73
     4
 40
23
 49
20
 74
     0
 49
-1
 74
     0
 49
1
 74
     0
 49
-1
 74
     0
  0
LTYPE
  5
109
100
AcDbSymbolTableRecord
100
AcDbLinetypeTableRecord
  2
CENTERX2
 70
     0
  3
-------------- - --------------
 72
    65
 73
     4
 40
43
 49
40
 74
     0
 49
-1
 74
     0
 49
1
 74
     0
 49
-1
 74
     0
  0
LTYPE
  5
10A
100
AcDbSymbolTableRecord
100
AcDbLinetypeTableRecord
  2
CENTER2
 70
     0
  3
------ - ----- - ------ - -----
 72
    65
 73
     4
 40
13
 49
10
 74
     0
 49
-1
 74
     0
 49
1
 74
     0
 49
-1
 74
     0
  0
LTYPE
  5
10B
100
AcDbSymbolTableRecord
100
AcDbLinetypeTableRecord
  2
PHANTOM
 70
     0
  3
-------- - - ------- - - ------
 72
    65
 73
     6
 40
25
 49
20
 74
     0
 49
-1
 74
     0
 49
1
 74
     0
 49
-1
 74
     0
 49
1
 74
     0
 49
-1
 74
     0
  0
LTYPE
  5
10C
100
AcDbSymbolTableRecord
100
AcDbLinetypeTableRecord
  2
PHANTOMX2
 70
     0
  3
------------- - - -------------
 72
    65
 73
     6
 40
45
 49
40
 74
     0
 49
-1
 74
     0
 49
1
 74
     0
 49
-1
 74
     0
 49
1
 74
     0
 49
-1
 74
     0
  0
LTYPE
  5
10D
100
AcDbSymbolTableRecord
100
AcDbLinetypeTableRecord
  2
PHANTOM2
 70
     0
  3
---- - - ---- - - ---- - - ----
 72
    65
 73
     6
 40
15
 49
10
 74
     0
 49
-1
 74
     0
 49
1
 74
     0
 49
-1
 74
     0
 49
1
 74
     0
 49
-1
 74
     0
  0
LTYPE
  5
10E
100
AcDbSymbolTableRecord
100
AcDbLinetypeTableRecord
  2
ACAD_ISO06W100
 70
     0
  3
------------ - - - ------------
 72
    65
 73
     8
 40
47
 49
40
 74
     0
 49
-1
 74
     0
 49
1
 74
     0
 49
-1
 74
     0
 49
1
 74
     0
 49
-1
 74
     0
 49
1
 74
     0
 49
-1
 74
     0
  0
LTYPE
  5
10F
100
AcDbSymbolTableRecord
100
AcDbLinetypeTableRecord
  2
ACAD_ISO14W100
 70
     0
  3
---- - - - -------- - - - -----
 72
    65
 73
     8
 40
27
 49
20
 74
     0
 49
-1
 74
     0
 49
1
 74
     0
 49
-1
 74
     0
 49
1
 74
     0
 49
-1
 74
     0
 49
1
 74
     0
 49
-1
 74
     0
  0
LTYPE
  5
110
100
AcDbSymbolTableRecord
100
AcDbLinetypeTableRecord
  2
ACAD_ISO11W100
 70
     0
  3
------- ------ - ------- ------
 72
    65
 73
     6
 40
44
 49
20
 74
     0
 49
-1
 74
     0
 49
20
 74
     0
 49
-1
 74
     0
 49
1
 74
     0
 49
-1
 74
     0
  0
LTYPE
  5
111
100
AcDbSymbolTableRecord
100
AcDbLinetypeTableRecord
  2
ACAD_ISO13W100
 70
     0
  3
------ ------ - - ------ ------
 72
    65
 73
     8
 40
46
 49
20
 74
     0
 49
-1
 74
     0
 49
20
 74
     0
 49
-1
 74
     0
 49
1
 74
     0
 49
-1
 74
     0
 49
1
 74
     0
 49
-1
 74
     0
  0
LTYPE
  5
112
100
AcDbSymbolTableRecord
100
AcDbLinetypeTableRecord
  2
ACAD_ISO15W100
 70
     0
  3
------ ----- - - - ------ -----
 72
    65
 73
    10
 40
48
 49
20
 74
     0
 49
-1
 74
     0
 49
20
 74
     0
 49
-1
 74
     0
 49
1
 74
     0
 49
-1
 74
     0
 49
1
 74
     0
 49
-1
 74
     0
 49
1
 74
     0
 49
-1
 74
     0
  0
LTYPE
  5
113
100
AcDbSymbolTableRecord
100
AcDbLinetypeTableRecord
  2
HIDDEN
 70
     0
  3
. . . . . . . . . . . . . . . .
 72
    65
 73
     2
 40
1.5
 49
1
 74
     0
 49
-0.5
 74
     0
  0
ENDTAB
  0
TABLE
  2
LAYER
  5
114
100
AcDbSymbolTable
 70
     1
  0
LAYER
  5
115
100
AcDbSymbolTableRecord
100
AcDbLayerTableRecord
  2
0
 70
     0
 62
     7
  6
CONTINUOUS
390
116
  0
LAYER
  5
117
100
AcDbSymbolTableRecord
100
AcDbLayerTableRecord
  2
_0-0_
 70
     0
 62
     7
  6
CONTINUOUS
390
   278
  0
LAYER
  5
118
100
AcDbSymbolTableRecord
100
AcDbLayerTableRecord
  2
_0-1_PRO0
 70
     0
 62
     7
  6
CONTINUOUS
390
   278
  0
LAYER
  5
119
100
AcDbSymbolTableRecord
100
AcDbLayerTableRecord
  2
_0-2_
 70
     0
 62
     7
  6
CONTINUOUS
390
   278
  0
LAYER
  5
11A
100
AcDbSymbolTableRecord
100
AcDbLayerTableRecord
  2
_0-3_
 70
     0
 62
     7
  6
CONTINUOUS
390
   278
  0
LAYER
  5
11B
100
AcDbSymbolTableRecord
100
AcDbLayerTableRecord
  2
ADD_LINE
 70
     0
 62
     7
  6
CONTINUOUS
390
   278
  0
ENDTAB
  0
TABLE
  2
STYLE
  5
11C
100
AcDbSymbolTable
 70
     1
  0
STYLE
  5
11D
100
AcDbSymbolTableRecord
100
AcDbTextStyleTableRecord
  2
STANDARD
 70
     0
 40
0
 41
0
 50
0
 71
     0
 42
1
  3
txt
  4
bigfont
  0
STYLE
  5
11E
100
AcDbSymbolTableRecord
100
AcDbTextStyleTableRecord
  2
VSTANDARD
 70
     4
 40
0
 41
0
 50
0
 71
     0
 42
1
  3
txt
  4
bigfont
  0
ENDTAB
  0
TABLE
  2
VIEW
  5
11F
100
AcDbSymbolTable
 70
     0
  0
ENDTAB
  0
TABLE
  2
UCS
  5
120
100
AcDbSymbolTable
 70
     0
  0
ENDTAB
  0
TABLE
  2
APPID
  5
121
100
AcDbSymbolTable
 70
     1
  0
APPID
  5
122
100
AcDbSymbolTableRecord
100
AcDbRegAppTableRecord
  2
ACAD
 70
     0
  0
ENDTAB
  0
TABLE
  2
DIMSTYLE
  5
123
100
AcDbSymbolTable
 70
     1
100
AcDbDimStyleTable
 71
     0
  0
DIMSTYLE
105
124
100
AcDbSymbolTableRecord
100
AcDbDimStyleTableRecord
  2
M7DIMSTL
 70
     0
  3

  4

  5

  6

  7

 40
3
 41
2.5
 42
0.625
 43
3.75
 44
1.25
 45
0
 46
0
 47
0
 48
0
140
2.5
141
2.5
142
0
143
0.03937007874016
144
1
145
0
146
1
147
0.625
 71
     0
 72
     0
 73
     0
 74
     0
 75
     0
 76
     0
 77
     1
 78
     8
170
     0
171
     3
172
     1
173
     0
174
     0
175
     0
176
     0
177
     0
178
     0
270
     2
271
     2
272
     2
273
     2
274
     3
340
11D
275
     0
280
     0
281
     0
282
     0
283
     0
284
     8
285
     0
286
     0
287
     3
288
     0
  0
ENDTAB
  0
TABLE
  2
BLOCK_RECORD
  5
125
100
AcDbSymbolTable
 70
     2
  0
BLOCK_RECORD
  5
126
100
AcDbSymbolTableRecord
100
AcDbBlockTableRecord
  2
*MODEL_SPACE
  0
BLOCK_RECORD
  5
127
100
AcDbSymbolTableRecord
100
AcDbBlockTableRecord
  2
*PAPER_SPACE
  0
BLOCK_RECORD
  5
128
100
AcDbSymbolTableRecord
100
AcDbBlockTableRecord
  2
_DOT
  0
BLOCK_RECORD
  5
129
100
AcDbSymbolTableRecord
100
AcDbBlockTableRecord
  2
_OPEN30
  0
BLOCK_RECORD
  5
12A
100
AcDbSymbolTableRecord
100
AcDbBlockTableRecord
  2
_ClosedBlank
  0
BLOCK_RECORD
  5
12B
100
AcDbSymbolTableRecord
100
AcDbBlockTableRecord
  2
_Origin
  0
BLOCK_RECORD
  5
12C
100
AcDbSymbolTableRecord
100
AcDbBlockTableRecord
  2
_Oblique
  0
BLOCK_RECORD
  5
12D
100
AcDbSymbolTableRecord
100
AcDbBlockTableRecord
  2
_Origin2
  0
BLOCK_RECORD
  5
12E
100
AcDbSymbolTableRecord
100
AcDbBlockTableRecord
  2
_BoxBlank
  0
BLOCK_RECORD
  5
12F
100
AcDbSymbolTableRecord
100
AcDbBlockTableRecord
  2
_BoxFilled
  0
BLOCK_RECORD
  5
130
100
AcDbSymbolTableRecord
100
AcDbBlockTableRecord
  2
_Integral
  0
ENDTAB
  0
ENDSEC
  0
SECTION
  2
BLOCKS
  0
BLOCK
  5
131
100
AcDbEntity
  8
0
100
AcDbBlockBegin
  2
*MODEL_SPACE
 70
     0
 10
0
 20
0
  3
*MODEL_SPACE
  1

  0
ENDBLK
  5
132
100
AcDbEntity
  8
0
100
AcDbBlockEnd
  0
BLOCK
  5
133
100
AcDbEntity
 67
     1
  8
0
100
AcDbBlockBegin
  2
*PAPER_SPACE
 70
     0
 10
0
 20
0
  3
*PAPER_SPACE
  1

  0
ENDBLK
  5
134
100
AcDbEntity
 67
     1
  8
0
100
AcDbBlockEnd
  0
BLOCK
  5
135
100
AcDbEntity
 67
     1
  8
0
100
AcDbBlockBegin
  2
_DOT
 70
     0
 10
0
 20
0
  3
_DOT
  1

  0
LWPOLYLINE
  5
136
100
AcDbEntity
  8
0
  6
BYBLOCK
 62
     0
100
AcDbPolyline
 90
     2
 70
     1
 43
0.5
 10
-0.25
 20
0
 42
1
 10
0.25
 20
0
 42
1
  0
LINE
  5
137
100
AcDbEntity
  8
0
  6
BYBLOCK
 62
     0
100
AcDbLine
 10
-0.5
 20
0
 11
-1
 21
0
  0
ENDBLK
  5
138
100
AcDbEntity
  8
0
100
AcDbBlockEnd
  0
BLOCK
  5
139
100
AcDbEntity
 67
     1
  8
0
100
AcDbBlockBegin
  2
_OPEN30
 70
     0
 10
0
 20
0
  3
_OPEN30
  1

  0
LINE
  5
13A
100
AcDbEntity
  8
0
  6
BYBLOCK
 62
     0
100
AcDbLine
 10
-1
 20
0.26794919
 11
0
 21
0
  0
LINE
  5
13B
100
AcDbEntity
  8
0
  6
BYBLOCK
 62
     0
100
AcDbLine
 10
-1
 20
-0.26794919
 11
0
 21
0
  0
LINE
  5
13C
100
AcDbEntity
  8
0
  6
BYBLOCK
 62
     0
100
AcDbLine
 10
0
 20
0
 11
-1
 21
0
  0
ENDBLK
  5
13D
100
AcDbEntity
  8
0
100
AcDbBlockEnd
  0
BLOCK
  5
13E
100
AcDbEntity
 67
     1
  8
0
100
AcDbBlockBegin
  2
_ClosedBlank
 70
     0
 10
0
 20
0
  3
_ClosedBlank
  1

  0
LINE
  5
13F
100
AcDbEntity
  8
0
  6
BYBLOCK
 62
     0
100
AcDbLine
 10
-1
 20
0.1666666666667
 11
0
 21
0
  0
LINE
  5
140
100
AcDbEntity
  8
0
  6
BYBLOCK
 62
     0
100
AcDbLine
 10
0
 20
0
 11
-1
 21
-0.1666666666667
  0
LINE
  5
141
100
AcDbEntity
  8
0
  6
BYBLOCK
 62
     0
100
AcDbLine
 10
-1
 20
0.1666666666667
 11
-1
 21
-0.1666666666667
  0
ENDBLK
  5
142
100
AcDbEntity
  8
0
100
AcDbBlockEnd
  0
BLOCK
  5
143
100
AcDbEntity
 67
     1
  8
0
100
AcDbBlockBegin
  2
_Origin
 70
     0
 10
0
 20
0
  3
_Origin
  1

  0
CIRCLE
  5
144
100
AcDbEntity
  8
0
  6
BYBLOCK
 62
     0
100
AcDbCircle
 10
0
 20
0
 40
0.5
  0
LINE
  5
145
100
AcDbEntity
  8
0
  6
BYBLOCK
 62
     0
100
AcDbLine
 10
0
 20
0
 11
-1
 21
0
  0
ENDBLK
  5
146
100
AcDbEntity
  8
0
100
AcDbBlockEnd
  0
BLOCK
  5
147
100
AcDbEntity
 67
     1
  8
0
100
AcDbBlockBegin
  2
_Oblique
 70
     0
 10
0
 20
0
  3
_Oblique
  1

  0
LINE
  5
148
100
AcDbEntity
  8
0
  6
BYBLOCK
 62
     0
100
AcDbLine
 10
-0.5
 20
-0.5
 11
0.5
 21
0.5
  0
ENDBLK
  5
149
100
AcDbEntity
  8
0
100
AcDbBlockEnd
  0
BLOCK
  5
14A
100
AcDbEntity
 67
     1
  8
0
100
AcDbBlockBegin
  2
_Origin2
 70
     0
 10
0
 20
0
  3
_Origin2
  1

  0
CIRCLE
  5
14B
100
AcDbEntity
  8
0
  6
BYBLOCK
 62
     0
100
AcDbCircle
 10
0
 20
0
 40
0.5
  0
CIRCLE
  5
14C
100
AcDbEntity
  8
0
  6
BYBLOCK
 62
     0
100
AcDbCircle
 10
0
 20
0
 40
0.25
  0
LINE
  5
14D
100
AcDbEntity
  8
0
  6
BYBLOCK
 62
     0
100
AcDbLine
 10
-0.5
 20
0
 11
-1
 21
0
  0
ENDBLK
  5
14E
100
AcDbEntity
  8
0
100
AcDbBlockEnd
  0
BLOCK
  5
14F
100
AcDbEntity
 67
     1
  8
0
100
AcDbBlockBegin
  2
_BoxBlank
 70
     0
 10
0
 20
0
  3
_BoxBlank
  1

  0
LINE
  5
150
100
AcDbEntity
  8
0
  6
BYBLOCK
 62
     0
100
AcDbLine
 10
-0.5
 20
-0.5
 11
0.5
 21
-0.5
  0
LINE
  5
151
100
AcDbEntity
  8
0
  6
BYBLOCK
 62
     0
100
AcDbLine
 10
0.5
 20
-0.5
 11
0.5
 21
0.5
  0
LINE
  5
152
100
AcDbEntity
  8
0
  6
BYBLOCK
 62
     0
100
AcDbLine
 10
0.5
 20
0.5
 11
-0.5
 21
0.5
  0
LINE
  5
153
100
AcDbEntity
  8
0
  6
BYBLOCK
 62
     0
100
AcDbLine
 10
-0.5
 20
0.5
 11
-0.5
 21
-0.5
  0
LINE
  5
154
100
AcDbEntity
  8
0
  6
BYBLOCK
 62
     0
100
AcDbLine
 10
-0.5
 20
0
 11
-1
 21
0
  0
ENDBLK
  5
155
100
AcDbEntity
  8
0
100
AcDbBlockEnd
  0
BLOCK
  5
156
100
AcDbEntity
 67
     1
  8
0
100
AcDbBlockBegin
  2
_BoxFilled
 70
     0
 10
0
 20
0
  3
_BoxFilled
  1

  0
SOLID
  5
157
100
AcDbEntity
  8
0
  6
BYBLOCK
 62
     0
100
AcDbTrace
 10
-0.5
 20
0.5
 11
0.5
 21
0.5
 12
-0.5
 22
-0.5
 13
0.5
 23
-0.5
  0
LINE
  5
158
100
AcDbEntity
  8
0
  6
BYBLOCK
 62
     0
100
AcDbLine
 10
-0.5
 20
0
 11
-1
 21
0
  0
ENDBLK
  5
159
100
AcDbEntity
  8
0
100
AcDbBlockEnd
  0
BLOCK
  5
15A
100
AcDbEntity
 67
     1
  8
0
100
AcDbBlockBegin
  2
_Integral
 70
     0
 10
0
 20
0
  3
_Integral
  1

  0
ARC
  5
15B
100
AcDbEntity
  8
0
  6
BYBLOCK
 62
     0
100
AcDbCircle
 10
0.44488802
 20
-0.09133463
 40
0.45416667
100
AcDbArc
 50
101.999999998
 51
167.9999999799
  0
ARC
  5
15C
100
AcDbEntity
  8
0
  6
BYBLOCK
 62
     0
100
AcDbCircle
 10
-0.44488802
 20
0.09133463
 40
0.45416667
100
AcDbArc
 50
282.0000000215
 51
348.0000000034
  0
ENDBLK
  5
15D
100
AcDbEntity
  8
0
100
AcDbBlockEnd
  0
ENDSEC
  0
SECTION
  2
ENTITIES
  0
CIRCLE
  5
15E
100
AcDbEntity
  8
_0-3_
  6
CONTINUOUS
 62
     0
100
AcDbCircle
 10
946.6674598504
 20
1593.325087832
 40
6
  0
TEXT
  5
15F
100
AcDbEntity
  8
_0-3_
  6
CONTINUOUS
 62
     0
100
AcDbText
 10
941.8335099858
 20
1587.788522436
 40
9
  1
４
  7
STANDARD
100
AcDbText
  0
LINE
  5
160
100
AcDbEntity
  8
_0-3_
  6
CONTINUOUS
 62
     0
100
AcDbLine
 10
929.7421447388
 20
1564.009582124
 11
943.6674598504
 21
1588.128935409
  0
CIRCLE
  5
161
100
AcDbEntity
  8
_0-3_
  6
CONTINUOUS
 62
     0
100
AcDbCircle
 10
929.7421447388
 20
1564.009582124
 40
0.9
  0
LINE
  5
162
100
AcDbEntity
  8
_0-0_
  6
CONTINUOUS
 62
     0
100
AcDbLine
 10
556.4984660336
 20
1160.38794693
 11
656.9984660336
 21
1160.38794693
  0
LINE
  5
163
100
AcDbEntity
  8
_0-1_PRO0
  6
CONTINUOUS
 62
     0
100
AcDbLine
 10
1207.5
 20
968.9232630015
 11
1207.5
 21
1778.923263001
  0
LINE
  5
164
100
AcDbEntity
  8
_0-1_PRO0
  6
CONTINUOUS
 62
     0
100
AcDbLine
 10
52.5
 20
1778.923263001
 11
52.5
 21
968.9232630015
  0
LINE
  5
165
100
AcDbEntity
  8
_0-1_PRO0
  6
CONTINUOUS
 62
     0
100
AcDbLine
 10
52.5
 20
1778.923263001
 11
1207.5
 21
1778.923263001
  0
LINE
  5
166
100
AcDbEntity
  8
_0-1_PRO0
  6
CONTINUOUS
 62
     0
100
AcDbLine
 10
52.5
 20
968.9232630015
 11
1207.5
 21
968.9232630015
  0
LINE
  5
167
100
AcDbEntity
  8
_0-1_PRO0
  6
CONTINUOUS
 62
     0
100
AcDbLine
 10
623.026694
 20
1598.769357024
 11
623.1415
 21
1597.052513024
  0
LINE
  5
168
100
AcDbEntity
  8
_0-1_PRO0
  6
CONTINUOUS
 62
     0
100
AcDbLine
 10
613.040398
 20
1598.245997024
 11
613.155205
 21
1596.529153024
  0
LINE
  5
169
100
AcDbEntity
  8
_0-1_PRO0
  6
CONTINUOUS
 62
     0
100
AcDbLine
 10
616.469197
 20
1598.425693024
 11
614.651051
 21
1596.607547024
  0
LINE
  5
16A
100
AcDbEntity
  8
_0-1_PRO0
  6
CONTINUOUS
 62
     0
100
AcDbLine
 10
617.961625
 20
1598.503908024
 11
616.143479
 21
1596.685762024
  0
LINE
  5
16B
100
AcDbEntity
  8
_0-1_PRO0
  6
CONTINUOUS
 62
     0
100
AcDbLine
 10
619.454054
 20
1598.582123024
 11
617.635908
 21
1596.763977024
  0
LINE
  5
16C
100
AcDbEntity
  8
_0-1_PRO0
  6
CONTINUOUS
 62
     0
100
AcDbLine
 10
620.946482
 20
1598.660338024
 11
619.128336
 21
1596.842192024
  0
LINE
  5
16D
100
AcDbEntity
  8
_0-1_PRO0
  6
CONTINUOUS
 62
     0
100
AcDbLine
 10
622.43891
 20
1598.738553024
 11
620.620765
 21
1596.920407024
  0
LINE
  5
16E
100
AcDbEntity
  8
_0-1_PRO0
  6
CONTINUOUS
 62
     0
100
AcDbLine
 10
622.113193
 20
1596.998622024
 11
623.080425
 21
1597.965853024
  0
LINE
  5
16F
100
AcDbEntity
  8
_0-1_PRO0
  6
CONTINUOUS
 62
     0
100
AcDbLine
 10
614.976768
 20
1598.347478024
 11
613.158623
 21
1596.529333024
  0
LINE
  5
170
100
AcDbEntity
  8
_0-1_PRO0
  6
CONTINUOUS
 62
     0
100
AcDbLine
 10
613.48434
 20
1598.269263024
 11
613.066766
 21
1597.851690024
  0
TEXT
  5
171
100
AcDbEntity
  8
_0-0_
  6
CONTINUOUS
 62
     0
100
AcDbText
 10
243.5609660336
 20
1290.26294693
 40
7.49
  1
No.
 41
1.001335113485
  7
STANDARD
100
AcDbText
  0
TEXT
  5
172
100
AcDbEntity
  8
_0-0_
  6
CONTINUOUS
 62
     0
100
AcDbText
 10
314.7484660336
 20
1290.26294693
 40
7.49
  1
部材名称
  7
STANDARD
100
AcDbText
  0
LINE
  5
173
100
AcDbEntity
  8
_0-0_
  6
CONTINUOUS
 62
     0
100
AcDbLine
 10
556.4984660336
 20
1052.38794693
 11
656.9984660336
 21
1052.38794693
  0
LINE
  5
174
100
AcDbEntity
  8
_0-0_
  6
CONTINUOUS
 62
     0
100
AcDbLine
 10
556.4984660336
 20
1070.38794693
 11
656.9984660336
 21
1070.38794693
  0
LINE
  5
175
100
AcDbEntity
  8
_0-0_
  6
CONTINUOUS
 62
     0
100
AcDbLine
 10
556.4984660336
 20
1106.38794693
 11
656.9984660336
 21
1106.38794693
  0
LINE
  5
176
100
AcDbEntity
  8
_0-0_
  6
CONTINUOUS
 62
     0
100
AcDbLine
 10
556.4984660336
 20
1124.38794693
 11
656.9984660336
 21
1124.38794693
  0
LINE
  5
177
100
AcDbEntity
  8
_0-0_
  6
CONTINUOUS
 62
     0
100
AcDbLine
 10
556.4984660336
 20
1178.38794693
 11
656.9984660336
 21
1178.38794693
  0
LINE
  5
178
100
AcDbEntity
  8
_0-0_
  6
CONTINUOUS
 62
     0
100
AcDbLine
 10
556.4984660336
 20
1196.38794693
 11
656.9984660336
 21
1196.38794693
  0
LINE
  5
179
100
AcDbEntity
  8
_0-0_
  6
CONTINUOUS
 62
     0
100
AcDbLine
 10
556.4984660336
 20
1142.38794693
 11
656.9984660336
 21
1142.38794693
  0
LINE
  5
17A
100
AcDbEntity
  8
_0-0_
  6
CONTINUOUS
 62
     0
100
AcDbLine
 10
556.4984660336
 20
1088.38794693
 11
656.9984660336
 21
1088.38794693
  0
LINE
  5
17B
100
AcDbEntity
  8
_0-0_
  6
CONTINUOUS
 62
     0
100
AcDbLine
 10
556.4984660336
 20
1214.38794693
 11
656.9984660336
 21
1214.38794693
  0
LINE
  5
17C
100
AcDbEntity
  8
_0-0_
  6
CONTINUOUS
 62
     0
100
AcDbLine
 10
556.4984660336
 20
1232.38794693
 11
656.9984660336
 21
1232.38794693
  0
LINE
  5
17D
100
AcDbEntity
  8
_0-0_
  6
CONTINUOUS
 62
     0
100
AcDbLine
 10
556.4984660336
 20
1250.38794693
 11
656.9984660336
 21
1250.38794693
  0
LINE
  5
17E
100
AcDbEntity
  8
_0-0_
  6
CONTINUOUS
 62
     0
100
AcDbLine
 10
556.4984660336
 20
1268.38794693
 11
656.9984660336
 21
1268.38794693
  0
LINE
  5
17F
100
AcDbEntity
  8
_0-0_
  6
CONTINUOUS
 62
     0
100
AcDbLine
 10
556.4984660336
 20
1286.38794693
 11
656.9984660336
 21
1286.38794693
  0
LINE
  5
180
100
AcDbEntity
  8
_0-0_
  6
CONTINUOUS
 62
     0
100
AcDbLine
 10
556.4984660336
 20
1304.38794693
 11
656.9984660336
 21
1304.38794693
  0
TEXT
  5
181
100
AcDbEntity
  8
_0-0_
  6
CONTINUOUS
 62
     0
100
AcDbText
 10
466.8734660336
 20
1290.26294693
 40
7.49
  1
規　格
  7
STANDARD
100
AcDbText
  0
TEXT
  5
182
100
AcDbEntity
  8
_0-0_
  6
CONTINUOUS
 62
     0
100
AcDbText
 10
246.4984660336
 20
1272.26294693
 40
7.49
  1
 1
  7
STANDARD
100
AcDbText
  0
TEXT
  5
183
100
AcDbEntity
  8
_0-0_
  6
CONTINUOUS
 62
     0
100
AcDbText
 10
264.9984660336
 20
1272.26294693
 40
7.49
  1
ＦＹＹキヤップＳ
 41
1.001335113485
  7
STANDARD
100
AcDbText
  0
TEXT
  5
184
100
AcDbEntity
  8
_0-0_
  6
CONTINUOUS
 62
     0
100
AcDbText
 10
641.3734660336
 20
1272.26294693
 40
7.49
  1
本
  7
STANDARD
100
AcDbText
  0
LINE
  5
185
100
AcDbEntity
  8
_0-0_
  6
CONTINUOUS
 62
     0
100
AcDbLine
 10
554.9984660336
 20
1232.38794693
 11
241.4984660336
 21
1232.38794693
  0
LINE
  5
186
100
AcDbEntity
  8
_0-0_
  6
CONTINUOUS
 62
     0
100
AcDbLine
 10
554.9984660336
 20
1250.38794693
 11
241.4984660336
 21
1250.38794693
  0
LINE
  5
187
100
AcDbEntity
  8
_0-0_
  6
CONTINUOUS
 62
     0
100
AcDbLine
 10
554.9984660336
 20
1268.38794693
 11
241.4984660336
 21
1268.38794693
  0
LINE
  5
188
100
AcDbEntity
  8
_0-0_
  6
CONTINUOUS
 62
     0
100
AcDbLine
 10
554.9984660336
 20
1286.38794693
 11
241.4984660336
 21
1286.38794693
  0
LINE
  5
189
100
AcDbEntity
  8
_0-0_
  6
CONTINUOUS
 62
     0
100
AcDbLine
 10
554.9984660336
 20
1106.38794693
 11
241.4984660336
 21
1106.38794693
  0
LINE
  5
18A
100
AcDbEntity
  8
_0-0_
  6
CONTINUOUS
 62
     0
100
AcDbLine
 10
554.9984660336
 20
1124.38794693
 11
241.4984660336
 21
1124.38794693
  0
LINE
  5
18B
100
AcDbEntity
  8
_0-0_
  6
CONTINUOUS
 62
     0
100
AcDbLine
 10
554.9984660336
 20
1160.38794693
 11
241.4984660336
 21
1160.38794693
  0
LINE
  5
18C
100
AcDbEntity
  8
_0-0_
  6
CONTINUOUS
 62
     0
100
AcDbLine
 10
554.9984660336
 20
1178.38794693
 11
241.4984660336
 21
1178.38794693
  0
LINE
  5
18D
100
AcDbEntity
  8
_0-0_
  6
CONTINUOUS
 62
     0
100
AcDbLine
 10
554.9984660336
 20
1196.38794693
 11
241.4984660336
 21
1196.38794693
  0
LINE
  5
18E
100
AcDbEntity
  8
_0-0_
  6
CONTINUOUS
 62
     0
100
AcDbLine
 10
554.9984660336
 20
1214.38794693
 11
241.4984660336
 21
1214.38794693
  0
LINE
  5
18F
100
AcDbEntity
  8
_0-0_
  6
CONTINUOUS
 62
     0
100
AcDbLine
 10
554.9984660336
 20
1142.38794693
 11
241.4984660336
 21
1142.38794693
  0
LINE
  5
190
100
AcDbEntity
  8
_0-0_
  6
CONTINUOUS
 62
     0
100
AcDbLine
 10
554.9984660336
 20
1052.38794693
 11
241.4984660336
 21
1052.38794693
  0
LINE
  5
191
100
AcDbEntity
  8
_0-0_
  6
CONTINUOUS
 62
     0
100
AcDbLine
 10
554.9984660336
 20
1070.38794693
 11
241.4984660336
 21
1070.38794693
  0
LINE
  5
192
100
AcDbEntity
  8
_0-0_
  6
CONTINUOUS
 62
     0
100
AcDbLine
 10
554.9984660336
 20
1088.38794693
 11
241.4984660336
 21
1088.38794693
  0
LINE
  5
193
100
AcDbEntity
  8
_0-0_
  6
CONTINUOUS
 62
     0
100
AcDbLine
 10
554.9984660336
 20
1304.38794693
 11
241.4984660336
 21
1304.38794693
  0
TEXT
  5
194
100
AcDbEntity
  8
_0-0_
  6
CONTINUOUS
 62
     0
100
AcDbText
 10
246.4984660336
 20
1254.26294693
 40
7.49
  1
 2
  7
STANDARD
100
AcDbText
  0
TEXT
  5
195
100
AcDbEntity
  8
_0-0_
  6
CONTINUOUS
 62
     0
100
AcDbText
 10
265.6234660336
 20
1254.26294693
 40
7.49
  1
ＦＹＹフレーム
  7
STANDARD
100
AcDbText
  0
TEXT
  5
196
100
AcDbEntity
  8
_0-0_
  6
CONTINUOUS
 62
     0
100
AcDbText
 10
641.3734660336
 20
1254.26294693
 40
7.49
  1
〃
  7
STANDARD
100
AcDbText
  0
TEXT
  5
197
100
AcDbEntity
  8
_0-0_
  6
CONTINUOUS
 62
     0
100
AcDbText
 10
246.4984660336
 20
1236.26294693
 40
7.49
  1
 3
  7
STANDARD
100
AcDbText
  0
TEXT
  5
198
100
AcDbEntity
  8
_0-0_
  6
CONTINUOUS
 62
     0
100
AcDbText
 10
641.3734660336
 20
1236.26294693
 40
7.49
  1
〃
  7
STANDARD
100
AcDbText
  0
TEXT
  5
199
100
AcDbEntity
  8
_0-0_
  6
CONTINUOUS
 62
     0
100
AcDbText
 10
246.4984660336
 20
1218.26294693
 40
7.5
  1
 4
  7
STANDARD
100
AcDbText
  0
TEXT
  5
19A
100
AcDbEntity
  8
_0-0_
  6
CONTINUOUS
 62
     0
100
AcDbText
 10
265.6234660336
 20
1218.26294693
 40
7.5
  1
ＦＹＹホルダー
 41
0.9986666666667
  7
STANDARD
100
AcDbText
  0
TEXT
  5
19B
100
AcDbEntity
  8
_0-0_
  6
CONTINUOUS
 62
     0
100
AcDbText
 10
641.3734660336
 20
1218.26294693
 40
7.5
  1
個
 41
0.9986666666667
  7
STANDARD
100
AcDbText
  0
TEXT
  5
19C
100
AcDbEntity
  8
_0-0_
  6
CONTINUOUS
 62
     0
100
AcDbText
 10
246.4984660336
 20
1200.26294693
 40
7.5
  1
 5
  7
STANDARD
100
AcDbText
  0
TEXT
  5
19D
100
AcDbEntity
  8
_0-0_
  6
CONTINUOUS
 62
     0
100
AcDbText
 10
262.4984660336
 20
1200.26294693
 40
7.5
  1
ＦＹＹホルダースプリング
 41
0.9986666666667
  7
STANDARD
100
AcDbText
  0
TEXT
  5
19E
100
AcDbEntity
  8
_0-0_
  6
CONTINUOUS
 62
     0
100
AcDbText
 10
641.3734660336
 20
1200.26294693
 40
7.5
  1
〃
 41
0.9986666666667
  7
STANDARD
100
AcDbText
  0
TEXT
  5
19F
100
AcDbEntity
  8
_0-0_
  6
CONTINUOUS
 62
     0
100
AcDbText
 10
246.4984660336
 20
1182.26294693
 40
7.5
  1
 6
  7
STANDARD
100
AcDbText
  0
TEXT
  5
1A0
100
AcDbEntity
  8
_0-0_
  6
CONTINUOUS
 62
     0
100
AcDbText
 10
263.7484660336
 20
1182.26294693
 40
7.5
  1
ＦＹＹフレームナット
 41
0.9986666666667
  7
STANDARD
100
AcDbText
  0
TEXT
  5
1A1
100
AcDbEntity
  8
_0-0_
  6
CONTINUOUS
 62
     0
100
AcDbText
 10
641.3734660336
 20
1182.26294693
 40
7.5
  1
〃
 41
0.9986666666667
  7
STANDARD
100
AcDbText
  0
TEXT
  5
1A2
100
AcDbEntity
  8
_0-0_
  6
CONTINUOUS
 62
     0
100
AcDbText
 10
246.4984660336
 20
1164.26294693
 40
7.5
  1
 7
  7
STANDARD
100
AcDbText
  0
TEXT
  5
1A3
100
AcDbEntity
  8
_0-0_
  6
CONTINUOUS
 62
     0
100
AcDbText
 10
263.7484660336
 20
1164.26294693
 40
7.5
  1
ＦＹＹ水切ジョイント
 41
0.9986666666667
  7
STANDARD
100
AcDbText
  0
TEXT
  5
1A4
100
AcDbEntity
  8
_0-0_
  6
CONTINUOUS
 62
     0
100
AcDbText
 10
641.3734660336
 20
1164.26294693
 40
7.5
  1
〃
 41
0.9986666666667
  7
STANDARD
100
AcDbText
  0
TEXT
  5
1A5
100
AcDbEntity
  8
_0-0_
  6
CONTINUOUS
 62
     0
100
AcDbText
 10
246.4984660336
 20
1146.26294693
 40
7.5
  1
 8
  7
STANDARD
100
AcDbText
  0
TEXT
  5
1A6
100
AcDbEntity
  8
_0-0_
  6
CONTINUOUS
 62
     0
100
AcDbText
 10
246.4984660336
 20
1128.26294693
 40
7.5
  1
 9
  7
STANDARD
100
AcDbText
  0
TEXT
  5
1A7
100
AcDbEntity
  8
_0-0_
  6
CONTINUOUS
 62
     0
100
AcDbText
 10
266.8734660336
 20
1128.26294693
 40
7.5
  1
止水補助板
  7
STANDARD
100
AcDbText
  0
TEXT
  5
1A8
100
AcDbEntity
  8
_0-0_
  6
CONTINUOUS
 62
     0
100
AcDbText
 10
641.3734660336
 20
1128.26294693
 40
7.5
  1
〃
 41
0.9986666666667
  7
STANDARD
100
AcDbText
  0
TEXT
  5
1A9
100
AcDbEntity
  8
_0-0_
  6
CONTINUOUS
 62
     0
100
AcDbText
 10
246.4984660336
 20
1110.26294693
 40
7.5
  1
10
  7
STANDARD
100
AcDbText
  0
TEXT
  5
1AA
100
AcDbEntity
  8
_0-0_
  6
CONTINUOUS
 62
     0
100
AcDbText
 10
641.3734660336
 20
1110.26294693
 40
7.5
  1
本
 41
0.9986666666667
  7
STANDARD
100
AcDbText
  0
TEXT
  5
1AB
100
AcDbEntity
  8
_0-0_
  6
CONTINUOUS
 62
     0
100
AcDbText
 10
246.4984660336
 20
1092.26294693
 40
7.5
  1
11
  7
STANDARD
100
AcDbText
  0
TEXT
  5
1AC
100
AcDbEntity
  8
_0-0_
  6
CONTINUOUS
 62
     0
100
AcDbText
 10
264.9984660336
 20
1092.26294693
 40
7.5
  1
ステン六角ボルト
  7
STANDARD
100
AcDbText
  0
TEXT
  5
1AD
100
AcDbEntity
  8
_0-0_
  6
CONTINUOUS
 62
     0
100
AcDbText
 10
641.3734660336
 20
1092.26294693
 40
7.5
  1
〃
 41
0.9986666666667
  7
STANDARD
100
AcDbText
  0
TEXT
  5
1AE
100
AcDbEntity
  8
_0-0_
  6
CONTINUOUS
 62
     0
100
AcDbText
 10
246.4984660336
 20
1074.26294693
 40
7.5
  1
12
  7
STANDARD
100
AcDbText
  0
TEXT
  5
1AF
100
AcDbEntity
  8
_0-0_
  6
CONTINUOUS
 62
     0
100
AcDbText
 10
264.3734660336
 20
1074.26294693
 40
7.5
  1
アジャストアンカー
  7
STANDARD
100
AcDbText
  0
TEXT
  5
1B0
100
AcDbEntity
  8
_0-0_
  6
CONTINUOUS
 62
     0
100
AcDbText
 10
641.3734660336
 20
1074.26294693
 40
7.5
  1
〃
 41
0.9986666666667
  7
STANDARD
100
AcDbText
  0
TEXT
  5
1B1
100
AcDbEntity
  8
_0-0_
  6
CONTINUOUS
 62
     0
100
AcDbText
 10
246.4984660336
 20
1056.26294693
 40
7.5
  1
13
  7
STANDARD
100
AcDbText
  0
TEXT
  5
1B2
100
AcDbEntity
  8
_0-0_
  6
CONTINUOUS
 62
     0
100
AcDbText
 10
264.9984660336
 20
1056.26294693
 40
7.5
  1
ステンワッシャー
  7
STANDARD
100
AcDbText
  0
TEXT
  5
1B3
100
AcDbEntity
  8
_0-0_
  6
CONTINUOUS
 62
     0
100
AcDbText
 10
641.3734660336
 20
1056.26294693
 40
7.5
  1
枚
 41
0.9986666666667
  7
STANDARD
100
AcDbText
  0
TEXT
  5
1B4
100
AcDbEntity
  8
_0-0_
  6
CONTINUOUS
 62
     0
100
AcDbText
 10
66.6122057406
 20
1741.982574456
 40
10
  1
　　屋根－屋根
 41
0.999
  7
STANDARD
100
AcDbText
  0
TEXT
  5
1B5
100
AcDbEntity
  8
_0-0_
  6
CONTINUOUS
 62
     0
100
AcDbText
 10
66.6122057406
 20
1726.74706721
 40
10
  1
　　Ｓ＝１／３
 41
0.999
  7
STANDARD
100
AcDbText
  0
LINE
  5
1B6
100
AcDbEntity
  8
_0-1_PRO0
  6
CONTINUOUS
 62
     0
100
AcDbLine
 10
636.510914
 20
1598.769357024
 11
636.396108
 21
1597.052513024
  0
LINE
  5
1B7
100
AcDbEntity
  8
_0-1_PRO0
  6
CONTINUOUS
 62
     0
100
AcDbLine
 10
646.49721
 20
1598.245997024
 11
646.382403
 21
1596.529153024
  0
LINE
  5
1B8
100
AcDbEntity
  8
_0-1_PRO0
  6
CONTINUOUS
 62
     0
100
AcDbLine
 10
643.068411
 20
1598.425693024
 11
644.886557
 21
1596.607547024
  0
LINE
  5
1B9
100
AcDbEntity
  8
_0-1_PRO0
  6
CONTINUOUS
 62
     0
100
AcDbLine
 10
641.575983
 20
1598.503908024
 11
643.394129
 21
1596.685762024
  0
LINE
  5
1BA
100
AcDbEntity
  8
_0-1_PRO0
  6
CONTINUOUS
 62
     0
100
AcDbLine
 10
640.083554
 20
1598.582123024
 11
641.9017
 21
1596.763977024
  0
LINE
  5
1BB
100
AcDbEntity
  8
_0-1_PRO0
  6
CONTINUOUS
 62
     0
100
AcDbLine
 10
638.591126
 20
1598.660338024
 11
640.409272
 21
1596.842192024
  0
LINE
  5
1BC
100
AcDbEntity
  8
_0-1_PRO0
  6
CONTINUOUS
 62
     0
100
AcDbLine
 10
637.098698
 20
1598.738553024
 11
638.916843
 21
1596.920407024
  0
LINE
  5
1BD
100
AcDbEntity
  8
_0-1_PRO0
  6
CONTINUOUS
 62
     0
100
AcDbLine
 10
637.424415
 20
1596.998622024
 11
636.457183
 21
1597.965853024
  0
LINE
  5
1BE
100
AcDbEntity
  8
_0-1_PRO0
  6
CONTINUOUS
 62
     0
100
AcDbLine
 10
644.56084
 20
1598.347478024
 11
646.378985
 21
1596.529333024
  0
LINE
  5
1BF
100
AcDbEntity
  8
_0-1_PRO0
  6
CONTINUOUS
 62
     0
100
AcDbLine
 10
646.053268
 20
1598.269263024
 11
646.470842
 21
1597.851690024
  0
LINE
  5
1C0
100
AcDbEntity
  8
_0-1_PRO0
  6
CONTINUOUS
 62
     0
100
AcDbLine
 10
629.768804
 20
1346.609832812
 11
629.768804
 21
1613.394294024
  0
LINE
  5
1C1
100
AcDbEntity
  8
_0-0_
  6
CONTINUOUS
 62
     0
100
AcDbLine
 10
889.4984660336
 20
1304.38794693
 11
686.9984660336
 21
1304.38794693
  0
LINE
  5
1C2
100
AcDbEntity
  8
_0-0_
  6
CONTINUOUS
 62
     0
100
AcDbLine
 10
889.4984660336
 20
1286.38794693
 11
686.9984660336
 21
1286.38794693
  0
LINE
  5
1C3
100
AcDbEntity
  8
_0-0_
  6
CONTINUOUS
 62
     0
100
AcDbLine
 10
889.4984660336
 20
1268.38794693
 11
686.9984660336
 21
1268.38794693
  0
LINE
  5
1C4
100
AcDbEntity
  8
_0-0_
  6
CONTINUOUS
 62
     0
100
AcDbLine
 10
889.4984660336
 20
1250.38794693
 11
686.9984660336
 21
1250.38794693
  0
TEXT
  5
1C5
100
AcDbEntity
  8
_0-0_
  6
CONTINUOUS
 62
     0
100
AcDbText
 10
824.2484660336
 20
1304.651864897
 40
7.5
  1
（単位：mm）
  7
STANDARD
100
AcDbText
  0
TEXT
  5
1C6
100
AcDbEntity
  8
_0-0_
  6
CONTINUOUS
 62
     0
100
AcDbText
 10
718.3734652836
 20
1290.26294693
 40
7.49
  1
タ　イ　プ
  7
STANDARD
100
AcDbText
  0
TEXT
  5
1C7
100
AcDbEntity
  8
_0-0_
  6
CONTINUOUS
 62
     0
100
AcDbText
 10
816.8734660336
 20
1290.26294693
 40
7.49
  1
Ｗ
  7
STANDARD
100
AcDbText
  0
TEXT
  5
1C8
100
AcDbEntity
  8
_0-0_
  6
CONTINUOUS
 62
     0
100
AcDbText
 10
861.8734660336
 20
1290.26294693
 40
7.49
  1
Ｃ
  7
STANDARD
100
AcDbText
  0
LINE
  5
1C9
100
AcDbEntity
  8
_0-1_PRO0
  6
CONTINUOUS
 62
     0
100
AcDbLine
 10
329.768804
 20
1322.683408812
 11
335.768804
 21
1324.183408812
  0
LINE
  5
1CA
100
AcDbEntity
  8
_0-1_PRO0
  6
CONTINUOUS
 62
     0
100
AcDbLine
 10
329.768804
 20
1322.683408812
 11
335.768804
 21
1321.183408812
  0
LINE
  5
1CB
100
AcDbEntity
  8
_0-1_PRO0
  6
CONTINUOUS
 62
     0
100
AcDbLine
 10
329.768804
 20
1341.179248812
 11
329.768804
 21
1316.683408812
  0
LINE
  5
1CC
100
AcDbEntity
  8
_0-1_PRO0
  6
CONTINUOUS
 62
     0
100
AcDbLine
 10
329.768804
 20
1322.683408812
 11
323.768804
 21
1321.183408812
  0
LINE
  5
1CD
100
AcDbEntity
  8
_0-1_PRO0
  6
CONTINUOUS
 62
     0
100
AcDbLine
 10
329.768804
 20
1322.683408812
 11
323.768804
 21
1324.183408812
  0
LINE
  5
1CE
100
AcDbEntity
  8
_0-2_
  6
CONTINUOUS
 62
     0
100
AcDbLine
 10
379.768805
 20
1376.78875421
 11
376.768805
 21
1377.53875421
  0
LINE
  5
1CF
100
AcDbEntity
  8
_0-2_
  6
CONTINUOUS
 62
     0
100
AcDbLine
 10
379.768805
 20
1376.78875421
 11
376.768805
 21
1376.03875421
  0
LINE
  5
1D0
100
AcDbEntity
  8
_0-2_
  6
CONTINUOUS
 62
     0
100
AcDbLine
 10
329.768804
 20
1376.78875421
 11
332.768804
 21
1376.03875421
  0
LINE
  5
1D1
100
AcDbEntity
  8
_0-2_
  6
CONTINUOUS
 62
     0
100
AcDbLine
 10
329.768804
 20
1376.78875421
 11
332.768804
 21
1377.53875421
  0
LINE
  5
1D2
100
AcDbEntity
  8
_0-2_
  6
CONTINUOUS
 62
     0
100
AcDbLine
 10
329.768804
 20
1376.78875421
 11
379.768805
 21
1376.78875421
  0
TEXT
  5
1D3
100
AcDbEntity
  8
_0-2_
  6
CONTINUOUS
 62
     0
100
AcDbText
 10
351.3485167772
 20
1376.558252671
 40
9
  1
50
  7
STANDARD
100
AcDbText
  0
LINE
  5
1D4
100
AcDbEntity
  8
_0-2_
  6
CONTINUOUS
 62
     0
100
AcDbLine
 10
351.494822
 20
1588.838621586
 11
411.494822
 21
1591.983086586
  0
LINE
  5
1D5
100
AcDbEntity
  8
_0-2_
  6
CONTINUOUS
 62
     0
100
AcDbLine
 10
351.494822
 20
1591.983086586
 11
411.494822
 21
1591.983086586
  0
TEXT
  5
1D6
100
AcDbEntity
  8
_0-2_
  6
CONTINUOUS
 62
     0
100
AcDbText
 10
347.1118750704
 20
1592.416013863
 40
9
  1
（勾配３度）
  7
STANDARD
100
AcDbText
  0
LINE
  5
1D7
100
AcDbEntity
  8
_0-2_
  6
CONTINUOUS
 62
     0
100
AcDbLine
 10
351.494822
 20
1591.983086586
 11
351.494822
 21
1588.838621586
  0
LINE
  5
1D8
100
AcDbEntity
  8
_0-1_PRO0
  6
CONTINUOUS
 62
     0
100
AcDbLine
 10
929.768804
 20
1341.179248812
 11
929.768804
 21
1316.683408812
  0
LINE
  5
1D9
100
AcDbEntity
  8
_0-1_PRO0
  6
CONTINUOUS
 62
     0
100
AcDbLine
 10
929.768804
 20
1322.683408812
 11
923.768804
 21
1321.183408812
  0
LINE
  5
1DA
100
AcDbEntity
  8
_0-1_PRO0
  6
CONTINUOUS
 62
     0
100
AcDbLine
 10
929.768804
 20
1322.683408812
 11
923.768804
 21
1324.183408812
  0
LINE
  5
1DB
100
AcDbEntity
  8
_0-1_PRO0
  6
CONTINUOUS
 62
     0
100
AcDbLine
 10
929.768804
 20
1322.683408812
 11
935.768804
 21
1324.183408812
  0
LINE
  5
1DC
100
AcDbEntity
  8
_0-1_PRO0
  6
CONTINUOUS
 62
     0
100
AcDbLine
 10
929.768804
 20
1322.683408812
 11
935.768804
 21
1321.183408812
  0
TEXT
  5
1DD
100
AcDbEntity
  8
_0-0_
  6
CONTINUOUS
 62
     0
100
AcDbText
 10
265.4999885839
 20
1146.967170196
 40
7.49
  1
ウォーターガード
  7
STANDARD
100
AcDbText
  0
TEXT
  5
1DE
100
AcDbEntity
  8
_0-0_
  6
CONTINUOUS
 62
     0
100
AcDbText
 10
642.2034823477
 20
1147.608142091
 40
7.5
  1
枚
 41
0.9986666666667
  7
STANDARD
100
AcDbText
  0
LINE
  5
1DF
100
AcDbEntity
  8
_0-0_
  6
CONTINUOUS
 62
     0
100
AcDbLine
 10
556.4984660336
 20
1232.38794693
 11
656.9984660336
 21
1232.38794693
  0
TEXT
  5
1E0
100
AcDbEntity
  8
_0-0_
  6
CONTINUOUS
 62
     0
100
AcDbText
 10
266.2484660336
 20
1236.26294693
 40
7.5
  1
ブチルテープ
 41
0.9986666666667
  7
STANDARD
100
AcDbText
  0
TEXT
  5
1E1
100
AcDbEntity
  8
_0-0_
  6
CONTINUOUS
 62
     0
100
AcDbText
 10
641.3734660336
 20
1236.26294693
 40
7.5
  1
巻
 41
0.9986666666667
  7
STANDARD
100
AcDbText
  0
LINE
  5
1E2
100
AcDbEntity
  8
_0-0_
  6
CONTINUOUS
 62
     0
100
AcDbLine
 10
241.4984660336
 20
1052.38794693
 11
241.4984660336
 21
1304.38794693
  0
LINE
  5
1E3
100
AcDbEntity
  8
_0-0_
  6
CONTINUOUS
 62
     0
100
AcDbLine
 10
262.4984660336
 20
1052.38794693
 11
262.4984660336
 21
1304.38794693
  0
LINE
  5
1E4
100
AcDbEntity
  8
_0-0_
  6
CONTINUOUS
 62
     0
100
AcDbLine
 10
412.4984660336
 20
1052.38794693
 11
412.4984660336
 21
1304.38794693
  0
LINE
  5
1E5
100
AcDbEntity
  8
_0-0_
  6
CONTINUOUS
 62
     0
100
AcDbLine
 10
554.9984660336
 20
1052.38794693
 11
554.9984660336
 21
1304.38794693
  0
LINE
  5
1E6
100
AcDbEntity
  8
_0-0_
  6
CONTINUOUS
 62
     0
100
AcDbLine
 10
556.4984660336
 20
1052.38794693
 11
556.4984660336
 21
1304.38794693
  0
LINE
  5
1E7
100
AcDbEntity
  8
_0-0_
  6
CONTINUOUS
 62
     0
100
AcDbLine
 10
608.9984660336
 20
1052.38794693
 11
608.9984660336
 21
1304.38794693
  0
LINE
  5
1E8
100
AcDbEntity
  8
_0-0_
  6
CONTINUOUS
 62
     0
100
AcDbLine
 10
635.9984660336
 20
1052.38794693
 11
635.9984660336
 21
1304.38794693
  0
LINE
  5
1E9
100
AcDbEntity
  8
_0-0_
  6
CONTINUOUS
 62
     0
100
AcDbLine
 10
656.9984660336
 20
1052.38794693
 11
656.9984660336
 21
1304.38794693
  0
TEXT
  5
1EA
100
AcDbEntity
  8
_0-1_PRO0
  6
CONTINUOUS
 62
     0
100
AcDbText
 10
625.7584084277
 20
1674.661091709
 40
9
  1
Ｗ
 41
0.7377777777778
  7
STANDARD
100
AcDbText
  0
LINE
  5
1EB
100
AcDbEntity
  8
_0-0_
  6
CONTINUOUS
 62
     0
100
AcDbLine
 10
556.4984660336
 20
227.464683929
 11
656.9984660336
 21
227.464683929
  0
LINE
  5
1EC
100
AcDbEntity
  8
_0-1_PRO0
  6
CONTINUOUS
 62
     0
100
AcDbLine
 10
1207.5
 20
36
 11
1207.5
 21
846
  0
LINE
  5
1ED
100
AcDbEntity
  8
_0-1_PRO0
  6
CONTINUOUS
 62
     0
100
AcDbLine
 10
52.5
 20
846
 11
52.5
 21
36
  0
LINE
  5
1EE
100
AcDbEntity
  8
_0-1_PRO0
  6
CONTINUOUS
 62
     0
100
AcDbLine
 10
52.5
 20
846
 11
1207.5
 21
846
  0
LINE
  5
1EF
100
AcDbEntity
  8
_0-1_PRO0
  6
CONTINUOUS
 62
     0
100
AcDbLine
 10
52.5
 20
36
 11
1207.5
 21
36
  0
TEXT
  5
1F0
100
AcDbEntity
  8
_0-0_
  6
CONTINUOUS
 62
     0
100
AcDbText
 10
243.5609660336
 20
357.339683929
 40
7.49
  1
No.
 41
1.001335113485
  7
STANDARD
100
AcDbText
  0
TEXT
  5
1F1
100
AcDbEntity
  8
_0-0_
  6
CONTINUOUS
 62
     0
100
AcDbText
 10
314.7484660336
 20
357.339683929
 40
7.49
  1
部材名称
  7
STANDARD
100
AcDbText
  0
LINE
  5
1F2
100
AcDbEntity
  8
_0-0_
  6
CONTINUOUS
 62
     0
100
AcDbLine
 10
556.4984660336
 20
119.464683929
 11
656.9984660336
 21
119.464683929
  0
LINE
  5
1F3
100
AcDbEntity
  8
_0-0_
  6
CONTINUOUS
 62
     0
100
AcDbLine
 10
556.4984660336
 20
137.464683929
 11
656.9984660336
 21
137.464683929
  0
LINE
  5
1F4
100
AcDbEntity
  8
_0-0_
  6
CONTINUOUS
 62
     0
100
AcDbLine
 10
556.4984660336
 20
173.464683929
 11
656.9984660336
 21
173.464683929
  0
LINE
  5
1F5
100
AcDbEntity
  8
_0-0_
  6
CONTINUOUS
 62
     0
100
AcDbLine
 10
556.4984660336
 20
191.464683929
 11
656.9984660336
 21
191.464683929
  0
LINE
  5
1F6
100
AcDbEntity
  8
_0-0_
  6
CONTINUOUS
 62
     0
100
AcDbLine
 10
556.4984660336
 20
245.464683929
 11
656.9984660336
 21
245.464683929
  0
LINE
  5
1F7
100
AcDbEntity
  8
_0-0_
  6
CONTINUOUS
 62
     0
100
AcDbLine
 10
556.4984660336
 20
263.464683929
 11
656.9984660336
 21
263.464683929
  0
LINE
  5
1F8
100
AcDbEntity
  8
_0-0_
  6
CONTINUOUS
 62
     0
100
AcDbLine
 10
556.4984660336
 20
209.464683929
 11
656.9984660336
 21
209.464683929
  0
LINE
  5
1F9
100
AcDbEntity
  8
_0-0_
  6
CONTINUOUS
 62
     0
100
AcDbLine
 10
556.4984660336
 20
155.464683929
 11
656.9984660336
 21
155.464683929
  0
LINE
  5
1FA
100
AcDbEntity
  8
_0-0_
  6
CONTINUOUS
 62
     0
100
AcDbLine
 10
556.4984660336
 20
281.464683929
 11
656.9984660336
 21
281.464683929
  0
LINE
  5
1FB
100
AcDbEntity
  8
_0-0_
  6
CONTINUOUS
 62
     0
100
AcDbLine
 10
556.4984660336
 20
299.464683929
 11
656.9984660336
 21
299.464683929
  0
LINE
  5
1FC
100
AcDbEntity
  8
_0-0_
  6
CONTINUOUS
 62
     0
100
AcDbLine
 10
556.4984660336
 20
317.464683929
 11
656.9984660336
 21
317.464683929
  0
LINE
  5
1FD
100
AcDbEntity
  8
_0-0_
  6
CONTINUOUS
 62
     0
100
AcDbLine
 10
556.4984660336
 20
335.464683929
 11
656.9984660336
 21
335.464683929
  0
LINE
  5
1FE
100
AcDbEntity
  8
_0-0_
  6
CONTINUOUS
 62
     0
100
AcDbLine
 10
556.4984660336
 20
353.464683929
 11
656.9984660336
 21
353.464683929
  0
LINE
  5
1FF
100
AcDbEntity
  8
_0-0_
  6
CONTINUOUS
 62
     0
100
AcDbLine
 10
556.4984660336
 20
371.464683929
 11
656.9984660336
 21
371.464683929
  0
TEXT
  5
200
100
AcDbEntity
  8
_0-0_
  6
CONTINUOUS
 62
     0
100
AcDbText
 10
466.8734660336
 20
357.339683929
 40
7.49
  1
規　格
  7
STANDARD
100
AcDbText
  0
TEXT
  5
201
100
AcDbEntity
  8
_0-0_
  6
CONTINUOUS
 62
     0
100
AcDbText
 10
611.4984660336
 20
357.339683929
 40
7.49
  1
入数
  7
STANDARD
100
AcDbText
  0
TEXT
  5
202
100
AcDbEntity
  8
_0-0_
  6
CONTINUOUS
 62
     0
100
AcDbText
 10
635.4984660336
 20
357.339683929
 40
7.49
  1
単位
  7
STANDARD
100
AcDbText
  0
TEXT
  5
203
100
AcDbEntity
  8
_0-0_
  6
CONTINUOUS
 62
     0
100
AcDbText
 10
246.4984660336
 20
339.339683929
 40
7.49
  1
 1
  7
STANDARD
100
AcDbText
  0
TEXT
  5
204
100
AcDbEntity
  8
_0-0_
  6
CONTINUOUS
 62
     0
100
AcDbText
 10
264.9984660336
 20
339.339683929
 40
7.49
  1
ＦＹＹキヤップＳ
 41
1.001335113485
  7
STANDARD
100
AcDbText
  0
TEXT
  5
205
100
AcDbEntity
  8
_0-0_
  6
CONTINUOUS
 62
     0
100
AcDbText
 10
641.3734660336
 20
339.339683929
 40
7.49
  1
本
  7
STANDARD
100
AcDbText
  0
LINE
  5
206
100
AcDbEntity
  8
_0-0_
  6
CONTINUOUS
 62
     0
100
AcDbLine
 10
554.9984660336
 20
299.464683929
 11
241.4984660336
 21
299.464683929
  0
LINE
  5
207
100
AcDbEntity
  8
_0-0_
  6
CONTINUOUS
 62
     0
100
AcDbLine
 10
554.9984660336
 20
317.464683929
 11
241.4984660336
 21
317.464683929
  0
LINE
  5
208
100
AcDbEntity
  8
_0-0_
  6
CONTINUOUS
 62
     0
100
AcDbLine
 10
554.9984660336
 20
335.464683929
 11
241.4984660336
 21
335.464683929
  0
LINE
  5
209
100
AcDbEntity
  8
_0-0_
  6
CONTINUOUS
 62
     0
100
AcDbLine
 10
554.9984660336
 20
353.464683929
 11
241.4984660336
 21
353.464683929
  0
LINE
  5
20A
100
AcDbEntity
  8
_0-0_
  6
CONTINUOUS
 62
     0
100
AcDbLine
 10
554.9984660336
 20
173.464683929
 11
241.4984660336
 21
173.464683929
  0
LINE
  5
20B
100
AcDbEntity
  8
_0-0_
  6
CONTINUOUS
 62
     0
100
AcDbLine
 10
554.9984660336
 20
191.464683929
 11
241.4984660336
 21
191.464683929
  0
LINE
  5
20C
100
AcDbEntity
  8
_0-0_
  6
CONTINUOUS
 62
     0
100
AcDbLine
 10
554.9984660336
 20
227.464683929
 11
241.4984660336
 21
227.464683929
  0
LINE
  5
20D
100
AcDbEntity
  8
_0-0_
  6
CONTINUOUS
 62
     0
100
AcDbLine
 10
554.9984660336
 20
245.464683929
 11
241.4984660336
 21
245.464683929
  0
LINE
  5
20E
100
AcDbEntity
  8
_0-0_
  6
CONTINUOUS
 62
     0
100
AcDbLine
 10
554.9984660336
 20
263.464683929
 11
241.4984660336
 21
263.464683929
  0
LINE
  5
20F
100
AcDbEntity
  8
_0-0_
  6
CONTINUOUS
 62
     0
100
AcDbLine
 10
554.9984660336
 20
281.464683929
 11
241.4984660336
 21
281.464683929
  0
LINE
  5
210
100
AcDbEntity
  8
_0-0_
  6
CONTINUOUS
 62
     0
100
AcDbLine
 10
554.9984660336
 20
209.464683929
 11
241.4984660336
 21
209.464683929
  0
LINE
  5
211
100
AcDbEntity
  8
_0-0_
  6
CONTINUOUS
 62
     0
100
AcDbLine
 10
554.9984660336
 20
119.464683929
 11
241.4984660336
 21
119.464683929
  0
LINE
  5
212
100
AcDbEntity
  8
_0-0_
  6
CONTINUOUS
 62
     0
100
AcDbLine
 10
554.9984660336
 20
137.464683929
 11
241.4984660336
 21
137.464683929
  0
LINE
  5
213
100
AcDbEntity
  8
_0-0_
  6
CONTINUOUS
 62
     0
100
AcDbLine
 10
554.9984660336
 20
155.464683929
 11
241.4984660336
 21
155.464683929
  0
LINE
  5
214
100
AcDbEntity
  8
_0-0_
  6
CONTINUOUS
 62
     0
100
AcDbLine
 10
554.9984660336
 20
371.464683929
 11
241.4984660336
 21
371.464683929
  0
TEXT
  5
215
100
AcDbEntity
  8
_0-0_
  6
CONTINUOUS
 62
     0
100
AcDbText
 10
246.4984660336
 20
321.339683929
 40
7.49
  1
 2
  7
STANDARD
100
AcDbText
  0
TEXT
  5
216
100
AcDbEntity
  8
_0-0_
  6
CONTINUOUS
 62
     0
100
AcDbText
 10
265.6234660336
 20
321.339683929
 40
7.49
  1
ＦＹＹフレーム
  7
STANDARD
100
AcDbText
  0
TEXT
  5
217
100
AcDbEntity
  8
_0-0_
  6
CONTINUOUS
 62
     0
100
AcDbText
 10
641.3734660336
 20
321.339683929
 40
7.49
  1
〃
  7
STANDARD
100
AcDbText
  0
TEXT
  5
218
100
AcDbEntity
  8
_0-0_
  6
CONTINUOUS
 62
     0
100
AcDbText
 10
246.4984660336
 20
303.339683929
 40
7.49
  1
 3
  7
STANDARD
100
AcDbText
  0
TEXT
  5
219
100
AcDbEntity
  8
_0-0_
  6
CONTINUOUS
 62
     0
100
AcDbText
 10
641.3734660336
 20
303.339683929
 40
7.49
  1
〃
  7
STANDARD
100
AcDbText
  0
TEXT
  5
21A
100
AcDbEntity
  8
_0-0_
  6
CONTINUOUS
 62
     0
100
AcDbText
 10
246.4984660336
 20
285.339683929
 40
7.5
  1
 4
  7
STANDARD
100
AcDbText
  0
TEXT
  5
21B
100
AcDbEntity
  8
_0-0_
  6
CONTINUOUS
 62
     0
100
AcDbText
 10
265.6234660336
 20
285.339683929
 40
7.5
  1
ＦＹＹホルダー
 41
0.9986666666667
  7
STANDARD
100
AcDbText
  0
TEXT
  5
21C
100
AcDbEntity
  8
_0-0_
  6
CONTINUOUS
 62
     0
100
AcDbText
 10
641.3734660336
 20
285.339683929
 40
7.5
  1
個
 41
0.9986666666667
  7
STANDARD
100
AcDbText
  0
TEXT
  5
21D
100
AcDbEntity
  8
_0-0_
  6
CONTINUOUS
 62
     0
100
AcDbText
 10
246.4984660336
 20
267.339683929
 40
7.5
  1
 5
  7
STANDARD
100
AcDbText
  0
TEXT
  5
21E
100
AcDbEntity
  8
_0-0_
  6
CONTINUOUS
 62
     0
100
AcDbText
 10
262.4984660336
 20
267.339683929
 40
7.5
  1
ＦＹＹホルダースプリング
 41
0.9986666666667
  7
STANDARD
100
AcDbText
  0
TEXT
  5
21F
100
AcDbEntity
  8
_0-0_
  6
CONTINUOUS
 62
     0
100
AcDbText
 10
641.3734660336
 20
267.339683929
 40
7.5
  1
〃
 41
0.9986666666667
  7
STANDARD
100
AcDbText
  0
TEXT
  5
220
100
AcDbEntity
  8
_0-0_
  6
CONTINUOUS
 62
     0
100
AcDbText
 10
246.4984660336
 20
249.339683929
 40
7.5
  1
 6
  7
STANDARD
100
AcDbText
  0
TEXT
  5
221
100
AcDbEntity
  8
_0-0_
  6
CONTINUOUS
 62
     0
100
AcDbText
 10
263.7484660336
 20
249.339683929
 40
7.5
  1
ＦＹＹフレームナット
 41
0.9986666666667
  7
STANDARD
100
AcDbText
  0
TEXT
  5
222
100
AcDbEntity
  8
_0-0_
  6
CONTINUOUS
 62
     0
100
AcDbText
 10
641.3734660336
 20
249.339683929
 40
7.5
  1
〃
 41
0.9986666666667
  7
STANDARD
100
AcDbText
  0
TEXT
  5
223
100
AcDbEntity
  8
_0-0_
  6
CONTINUOUS
 62
     0
100
AcDbText
 10
246.4984660336
 20
231.339683929
 40
7.5
  1
 7
  7
STANDARD
100
AcDbText
  0
TEXT
  5
224
100
AcDbEntity
  8
_0-0_
  6
CONTINUOUS
 62
     0
100
AcDbText
 10
263.7484660336
 20
231.339683929
 40
7.5
  1
ＦＹＹ水切ジョイント
 41
0.9986666666667
  7
STANDARD
100
AcDbText
  0
TEXT
  5
225
100
AcDbEntity
  8
_0-0_
  6
CONTINUOUS
 62
     0
100
AcDbText
 10
641.3734660336
 20
231.339683929
 40
7.5
  1
〃
 41
0.9986666666667
  7
STANDARD
100
AcDbText
  0
TEXT
  5
226
100
AcDbEntity
  8
_0-0_
  6
CONTINUOUS
 62
     0
100
AcDbText
 10
246.4984660336
 20
213.339683929
 40
7.5
  1
 8
  7
STANDARD
100
AcDbText
  0
TEXT
  5
227
100
AcDbEntity
  8
_0-0_
  6
CONTINUOUS
 62
     0
100
AcDbText
 10
246.4984660336
 20
195.339683929
 40
7.5
  1
 9
  7
STANDARD
100
AcDbText
  0
TEXT
  5
228
100
AcDbEntity
  8
_0-0_
  6
CONTINUOUS
 62
     0
100
AcDbText
 10
266.8734660336
 20
195.339683929
 40
7.5
  1
止水補助板
  7
STANDARD
100
AcDbText
  0
TEXT
  5
229
100
AcDbEntity
  8
_0-0_
  6
CONTINUOUS
 62
     0
100
AcDbText
 10
641.3734660336
 20
195.339683929
 40
7.5
  1
〃
 41
0.9986666666667
  7
STANDARD
100
AcDbText
  0
TEXT
  5
22A
100
AcDbEntity
  8
_0-0_
  6
CONTINUOUS
 62
     0
100
AcDbText
 10
246.4984660336
 20
177.339683929
 40
7.5
  1
10
  7
STANDARD
100
AcDbText
  0
TEXT
  5
22B
100
AcDbEntity
  8
_0-0_
  6
CONTINUOUS
 62
     0
100
AcDbText
 10
641.3734660336
 20
177.339683929
 40
7.5
  1
本
 41
0.9986666666667
  7
STANDARD
100
AcDbText
  0
TEXT
  5
22C
100
AcDbEntity
  8
_0-0_
  6
CONTINUOUS
 62
     0
100
AcDbText
 10
246.4984660336
 20
159.339683929
 40
7.5
  1
11
  7
STANDARD
100
AcDbText
  0
TEXT
  5
22D
100
AcDbEntity
  8
_0-0_
  6
CONTINUOUS
 62
     0
100
AcDbText
 10
264.9984660336
 20
159.339683929
 40
7.5
  1
ステン六角ボルト
  7
STANDARD
100
AcDbText
  0
TEXT
  5
22E
100
AcDbEntity
  8
_0-0_
  6
CONTINUOUS
 62
     0
100
AcDbText
 10
641.3734660336
 20
159.339683929
 40
7.5
  1
〃
 41
0.9986666666667
  7
STANDARD
100
AcDbText
  0
TEXT
  5
22F
100
AcDbEntity
  8
_0-0_
  6
CONTINUOUS
 62
     0
100
AcDbText
 10
246.4984660336
 20
141.339683929
 40
7.5
  1
12
  7
STANDARD
100
AcDbText
  0
TEXT
  5
230
100
AcDbEntity
  8
_0-0_
  6
CONTINUOUS
 62
     0
100
AcDbText
 10
264.3734660336
 20
141.339683929
 40
7.5
  1
アジャストアンカー
  7
STANDARD
100
AcDbText
  0
TEXT
  5
231
100
AcDbEntity
  8
_0-0_
  6
CONTINUOUS
 62
     0
100
AcDbText
 10
641.3734660336
 20
141.339683929
 40
7.5
  1
〃
 41
0.9986666666667
  7
STANDARD
100
AcDbText
  0
TEXT
  5
232
100
AcDbEntity
  8
_0-0_
  6
CONTINUOUS
 62
     0
100
AcDbText
 10
246.4984660336
 20
123.339683929
 40
7.5
  1
13
  7
STANDARD
100
AcDbText
  0
TEXT
  5
233
100
AcDbEntity
  8
_0-0_
  6
CONTINUOUS
 62
     0
100
AcDbText
 10
264.9984660336
 20
123.339683929
 40
7.5
  1
ステンワッシャー
  7
STANDARD
100
AcDbText
  0
TEXT
  5
234
100
AcDbEntity
  8
_0-0_
  6
CONTINUOUS
 62
     0
100
AcDbText
 10
641.3734660336
 20
123.339683929
 40
7.5
  1
枚
 41
0.9986666666667
  7
STANDARD
100
AcDbText
  0
TEXT
  5
235
100
AcDbEntity
  8
_0-0_
  6
CONTINUOUS
 62
     0
100
AcDbText
 10
66.6122057406
 20
809.0593114545
 40
10
  1
　　屋根－屋根
 41
0.999
  7
STANDARD
100
AcDbText
  0
TEXT
  5
236
100
AcDbEntity
  8
_0-0_
  6
CONTINUOUS
 62
     0
100
AcDbText
 10
66.6122057406
 20
793.8238042081
 40
10
  1
　　Ｓ＝１／３
 41
0.999
  7
STANDARD
100
AcDbText
  0
LINE
  5
237
100
AcDbEntity
  8
_0-0_
  6
CONTINUOUS
 62
     0
100
AcDbLine
 10
889.4984660336
 20
371.464683929
 11
686.9984660336
 21
371.464683929
  0
LINE
  5
238
100
AcDbEntity
  8
_0-0_
  6
CONTINUOUS
 62
     0
100
AcDbLine
 10
889.4984660336
 20
353.464683929
 11
686.9984660336
 21
353.464683929
  0
LINE
  5
239
100
AcDbEntity
  8
_0-0_
  6
CONTINUOUS
 62
     0
100
AcDbLine
 10
889.4984660336
 20
335.464683929
 11
686.9984660336
 21
335.464683929
  0
TEXT
  5
23A
100
AcDbEntity
  8
_0-0_
  6
CONTINUOUS
 62
     0
100
AcDbText
 10
824.2484660336
 20
371.7286018957
 40
7.5
  1
（単位：mm）
  7
STANDARD
100
AcDbText
  0
TEXT
  5
23B
100
AcDbEntity
  8
_0-0_
  6
CONTINUOUS
 62
     0
100
AcDbText
 10
718.3734652836
 20
357.339683929
 40
7.49
  1
タ　イ　プ
  7
STANDARD
100
AcDbText
  0
TEXT
  5
23C
100
AcDbEntity
  8
_0-0_
  6
CONTINUOUS
 62
     0
100
AcDbText
 10
816.8734660336
 20
357.339683929
 40
7.49
  1
Ｗ
  7
STANDARD
100
AcDbText
  0
TEXT
  5
23D
100
AcDbEntity
  8
_0-0_
  6
CONTINUOUS
 62
     0
100
AcDbText
 10
861.8734660336
 20
357.339683929
 40
7.49
  1
Ｃ
  7
STANDARD
100
AcDbText
  0
TEXT
  5
23E
100
AcDbEntity
  8
_0-0_
  6
CONTINUOUS
 62
     0
100
AcDbText
 10
265.4999885839
 20
214.0439071947
 40
7.49
  1
ウォーターガード
  7
STANDARD
100
AcDbText
  0
TEXT
  5
23F
100
AcDbEntity
  8
_0-0_
  6
CONTINUOUS
 62
     0
100
AcDbText
 10
642.2034823477
 20
214.6848790899
 40
7.5
  1
枚
 41
0.9986666666667
  7
STANDARD
100
AcDbText
  0
LINE
  5
240
100
AcDbEntity
  8
_0-0_
  6
CONTINUOUS
 62
     0
100
AcDbLine
 10
556.4984660336
 20
299.464683929
 11
656.9984660336
 21
299.464683929
  0
TEXT
  5
241
100
AcDbEntity
  8
_0-0_
  6
CONTINUOUS
 62
     0
100
AcDbText
 10
266.2484660336
 20
303.339683929
 40
7.5
  1
ブチルテープ
 41
0.9986666666667
  7
STANDARD
100
AcDbText
  0
TEXT
  5
242
100
AcDbEntity
  8
_0-0_
  6
CONTINUOUS
 62
     0
100
AcDbText
 10
641.3734660336
 20
303.339683929
 40
7.5
  1
巻
 41
0.9986666666667
  7
STANDARD
100
AcDbText
  0
LINE
  5
243
100
AcDbEntity
  8
_0-0_
  6
CONTINUOUS
 62
     0
100
AcDbLine
 10
241.4984660336
 20
119.464683929
 11
241.4984660336
 21
371.464683929
  0
LINE
  5
244
100
AcDbEntity
  8
_0-0_
  6
CONTINUOUS
 62
     0
100
AcDbLine
 10
262.4984660336
 20
119.464683929
 11
262.4984660336
 21
371.464683929
  0
LINE
  5
245
100
AcDbEntity
  8
_0-0_
  6
CONTINUOUS
 62
     0
100
AcDbLine
 10
412.4984660336
 20
119.464683929
 11
412.4984660336
 21
371.464683929
  0
LINE
  5
246
100
AcDbEntity
  8
_0-0_
  6
CONTINUOUS
 62
     0
100
AcDbLine
 10
554.9984660336
 20
119.464683929
 11
554.9984660336
 21
371.464683929
  0
LINE
  5
247
100
AcDbEntity
  8
_0-0_
  6
CONTINUOUS
 62
     0
100
AcDbLine
 10
556.4984660336
 20
119.464683929
 11
556.4984660336
 21
371.464683929
  0
LINE
  5
248
100
AcDbEntity
  8
_0-0_
  6
CONTINUOUS
 62
     0
100
AcDbLine
 10
608.9984660336
 20
119.464683929
 11
608.9984660336
 21
371.464683929
  0
LINE
  5
249
100
AcDbEntity
  8
_0-0_
  6
CONTINUOUS
 62
     0
100
AcDbLine
 10
635.9984660336
 20
119.464683929
 11
635.9984660336
 21
371.464683929
  0
LINE
  5
24A
100
AcDbEntity
  8
_0-0_
  6
CONTINUOUS
 62
     0
100
AcDbLine
 10
656.9984660336
 20
119.464683929
 11
656.9984660336
 21
371.464683929
  0
LINE
  5
24B
100
AcDbEntity
  8
_0-0_
  6
CONTINUOUS
 62
     0
100
AcDbLine
 10
686.9984660336
 20
371.464683929
 11
686.9984660336
 21
335.464683929
  0
LINE
  5
24C
100
AcDbEntity
  8
_0-0_
  6
CONTINUOUS
 62
     0
100
AcDbLine
 10
799.4984660336
 20
371.464683929
 11
799.4984660336
 21
335.464683929
  0
LINE
  5
24D
100
AcDbEntity
  8
_0-0_
  6
CONTINUOUS
 62
     0
100
AcDbLine
 10
844.4984660336
 20
371.464683929
 11
844.4984660336
 21
335.464683929
  0
LINE
  5
24E
100
AcDbEntity
  8
_0-0_
  6
CONTINUOUS
 62
     0
100
AcDbLine
 10
889.4984660336
 20
371.464683929
 11
889.4984660336
 21
335.464683929
  0
TEXT
  5
24F
100
AcDbEntity
  8
_0-0_
  6
CONTINUOUS
 62
     0
100
AcDbText
 10
414.0492333924
 20
1147.426929172
 40
7.49
  1
ＳＰＶＣ
 41
1.001335113485
  7
STANDARD
100
AcDbText
  0
TEXT
  5
250
100
AcDbEntity
  8
_0-0_
  6
CONTINUOUS
 62
     0
100
AcDbText
 10
266.2484660336
 20
1110.26294693
 40
7.5
  1
ステン小ねじ
 41
0.9986666666667
  7
STANDARD
100
AcDbText
  0
TEXT
  5
251
100
AcDbEntity
  8
_0-0_
  6
CONTINUOUS
 62
     0
100
AcDbText
 10
266.2484660336
 20
177.339683929
 40
7.5
  1
ステン小ねじ
 41
0.9986666666667
  7
STANDARD
100
AcDbText
  0
LINE
  5
252
100
AcDbEntity
  8
_0-1_PRO0
  6
CONTINUOUS
 62
     0
100
AcDbLine
 10
1185.396589
 20
1574.921551036
 11
1185.396589
 21
1484.921551036
  0
LINE
  5
253
100
AcDbEntity
  8
_0-1_PRO0
  6
CONTINUOUS
 62
     0
100
AcDbLine
 10
1130.768804
 20
1574.921551036
 11
1191.396589
 21
1574.921551036
  0
LINE
  5
254
100
AcDbEntity
  8
_0-1_PRO0
  6
CONTINUOUS
 62
     0
100
AcDbLine
 10
1127.768804
 20
1484.921551036
 11
1191.396589
 21
1484.921551036
  0
LINE
  5
255
100
AcDbEntity
  8
_0-1_PRO0
  6
CONTINUOUS
 62
     0
100
AcDbLine
 10
1185.396589
 20
1574.921551036
 11
1186.896589
 21
1568.921551036
  0
LINE
  5
256
100
AcDbEntity
  8
_0-1_PRO0
  6
CONTINUOUS
 62
     0
100
AcDbLine
 10
1185.396589
 20
1574.921551036
 11
1183.896589
 21
1568.921551036
  0
LINE
  5
257
100
AcDbEntity
  8
_0-1_PRO0
  6
CONTINUOUS
 62
     0
100
AcDbLine
 10
1185.396589
 20
1484.921551036
 11
1183.896589
 21
1490.921551036
  0
LINE
  5
258
100
AcDbEntity
  8
_0-1_PRO0
  6
CONTINUOUS
 62
     0
100
AcDbLine
 10
1185.396589
 20
1484.921551036
 11
1186.896589
 21
1490.921551036
  0
TEXT
  5
259
100
AcDbEntity
  8
_0-1_PRO0
  6
CONTINUOUS
 62
     0
100
AcDbText
 10
1182.396522
 20
1522.197160036
 40
9
  1
９０
 41
0.7377777777778
 50
90.000003
  7
STANDARD
100
AcDbText
  0
LINE
  5
25A
100
AcDbEntity
  8
_0-1_PRO0
  6
CONTINUOUS
 62
     0
100
AcDbLine
 10
1106.562824
 20
1569.628805036
 11
629.742636
 21
1594.617892024
  0
LINE
  5
25B
100
AcDbEntity
  8
_0-1_PRO0
  6
CONTINUOUS
 62
     0
100
AcDbLine
 10
1100.533732
 20
1572.728091036
 11
629.768804
 21
1597.399835024
  0
LINE
  5
25C
100
AcDbEntity
  8
_0-1_PRO0
  6
CONTINUOUS
 62
     0
100
AcDbLine
 10
1100.29822
 20
1568.234258036
 11
629.768804
 21
1592.893660024
  0
LINE
  5
25D
100
AcDbEntity
  8
_0-1_PRO0
  6
CONTINUOUS
 62
     0
100
AcDbLine
 10
1100.219716
 20
1566.736314036
 11
629.768804
 21
1591.391601024
  0
LINE
  5
25E
100
AcDbEntity
  8
_0-1_PRO0
  6
CONTINUOUS
 62
     0
100
AcDbLine
 10
1099.450378
 20
1552.056459036
 11
629.768804
 21
1576.671428024
  0
LINE
  5
25F
100
AcDbEntity
  8
_0-1_PRO0
  6
CONTINUOUS
 62
     0
100
AcDbLine
 10
1099.356173
 20
1550.258926036
 11
629.768804
 21
1574.868957024
  0
LINE
  5
260
100
AcDbEntity
  8
_0-1_PRO0
  6
CONTINUOUS
 62
     0
100
AcDbLine
 10
1099.199165
 20
1547.263038036
 11
629.768804
 21
1571.864840024
  0
LINE
  5
261
100
AcDbEntity
  8
_0-1_PRO0
  6
CONTINUOUS
 62
     0
100
AcDbLine
 10
1099.120661
 20
1545.765093036
 11
629.768804
 21
1570.362782024
  0
LINE
  5
262
100
AcDbEntity
  8
_0-1_PRO0
  6
CONTINUOUS
 62
     0
100
AcDbLine
 10
1099.068325
 20
1544.766464036
 11
629.768804
 21
1569.361410024
  0
LINE
  5
263
100
AcDbEntity
  8
_0-1_PRO0
  6
CONTINUOUS
 62
     0
100
AcDbLine
 10
1126.925812
 20
1575.070546036
 11
629.768804
 21
1601.125441024
  0
ARC
  5
264
100
AcDbEntity
  8
_0-1_PRO0
  6
CONTINUOUS
 62
     0
100
AcDbCircle
 10
1106.607643
 20
1566.622339036
 40
7.5
100
AcDbArc
 50
10.124672
 51
87
  0
LINE
  5
265
100
AcDbEntity
  8
_0-1_PRO0
  6
CONTINUOUS
 62
     0
100
AcDbLine
 10
1093.528291
 20
1574.818091036
 11
1091.891225
 21
1573.181025036
  0
LINE
  5
266
100
AcDbEntity
  8
_0-1_PRO0
  6
CONTINUOUS
 62
     0
100
AcDbLine
 10
1094.872079
 20
1574.747666036
 11
1093.235014
 21
1573.110600036
  0
LINE
  5
267
100
AcDbEntity
  8
_0-1_PRO0
  6
CONTINUOUS
 62
     0
100
AcDbLine
 10
1096.215868
 20
1574.677241036
 11
1094.578802
 21
1573.040175036
  0
LINE
  5
268
100
AcDbEntity
  8
_0-1_PRO0
  6
CONTINUOUS
 62
     0
100
AcDbLine
 10
1097.559657
 20
1574.606816036
 11
1095.922591
 21
1572.969750036
  0
LINE
  5
269
100
AcDbEntity
  8
_0-1_PRO0
  6
CONTINUOUS
 62
     0
100
AcDbLine
 10
1098.903445
 20
1574.536391036
 11
1097.26638
 21
1572.899326036
  0
LINE
  5
26A
100
AcDbEntity
  8
_0-1_PRO0
  6
CONTINUOUS
 62
     0
100
AcDbLine
 10
1100.247234
 20
1574.465966036
 11
1098.610168
 21
1572.828901036
  0
LINE
  5
26B
100
AcDbEntity
  8
_0-1_PRO0
  6
CONTINUOUS
 62
     0
100
AcDbLine
 10
1099.953957
 20
1572.758476036
 11
1100.567478
 21
1573.371996036
  0
LINE
  5
26C
100
AcDbEntity
  8
_0-1_PRO0
  6
CONTINUOUS
 62
     0
100
AcDbLine
 10
1092.195253
 20
1574.887953036
 11
1090.558187
 21
1573.250887036
  0
LINE
  5
26D
100
AcDbEntity
  8
_0-1_PRO0
  6
CONTINUOUS
 62
     0
100
AcDbLine
 10
1090.840714
 20
1574.958941036
 11
1090.625651
 21
1574.743879036
  0
ARC
  5
26E
100
AcDbEntity
  8
_0-1_PRO0
  6
CONTINUOUS
 62
     0
100
AcDbCircle
 10
1126.768804
 20
1487.921551036
 40
3
100
AcDbArc
 50
-90
 51
0
  0
LINE
  5
26F
100
AcDbEntity
  8
_0-1_PRO0
  6
CONTINUOUS
 62
     0
100
AcDbLine
 10
1126.768804
 20
1484.921551036
 11
1119.768804
 21
1484.921551036
  0
ARC
  5
270
100
AcDbEntity
  8
_0-1_PRO0
  6
CONTINUOUS
 62
     0
100
AcDbCircle
 10
1126.768804
 20
1572.074657036
 40
3
100
AcDbArc
 50
0
 51
87
  0
LINE
  5
271
100
AcDbEntity
  8
_0-1_PRO0
  6
CONTINUOUS
 62
     0
100
AcDbLine
 10
1129.768804
 20
1572.074657036
 11
1129.768804
 21
1487.921551036
  0
LINE
  5
272
100
AcDbEntity
  8
_0-1_PRO0
  6
CONTINUOUS
 62
     0
100
AcDbLine
 10
1113.990849
 20
1567.940769036
 11
1127.768804
 21
1490.784221036
  0
LINE
  5
273
100
AcDbEntity
  8
_0-1_PRO0
  6
CONTINUOUS
 62
     0
100
AcDbLine
 10
1109.560925
 20
1567.149711036
 11
1123.337611
 21
1490.000273036
  0
ARC
  5
274
100
AcDbEntity
  8
_0-1_PRO0
  6
CONTINUOUS
 62
     0
100
AcDbCircle
 10
1106.607643
 20
1566.622339036
 40
3
100
AcDbArc
 50
10.124672
 51
87
  0
LINE
  5
275
100
AcDbEntity
  8
_0-1_PRO0
  6
CONTINUOUS
 62
     0
100
AcDbLine
 10
1122.851506
 20
1497.721551036
 11
1113.60133
 21
1497.721551036
  0
ARC
  5
276
100
AcDbEntity
  8
_0-1_PRO0
  6
CONTINUOUS
 62
     0
100
AcDbCircle
 10
1122.851506
 20
1497.221551036
 40
0.5
100
AcDbArc
 50
12.00000000002
 51
90
  0
LINE
  5
277
100
AcDbEntity
  8
_0-1_PRO0
  6
CONTINUOUS
 62
     0
100
AcDbLine
 10
1123.34058
 20
1497.325507036
 11
1124.768804
 21
1490.606238036
  0
LINE
  5
278
100
AcDbEntity
  8
_0-1_PRO0
  6
CONTINUOUS
 62
     0
100
AcDbLine
 10
1124.768804
 20
1490.606238036
 11
1124.768804
 21
1486.921551036
  0
LINE
  5
279
100
AcDbEntity
  8
_0-1_PRO0
  6
CONTINUOUS
 62
     0
100
AcDbLine
 10
1125.268804
 20
1486.921551036
 11
1124.768804
 21
1486.921551036
  0
ARC
  5
27A
100
AcDbEntity
  8
_0-1_PRO0
  6
CONTINUOUS
 62
     0
100
AcDbCircle
 10
1125.268804
 20
1489.421551036
 40
2.5
100
AcDbArc
 50
-90
 51
0
  0
LINE
  5
27B
100
AcDbEntity
  8
_0-1_PRO0
  6
CONTINUOUS
 62
     0
100
AcDbLine
 10
1113.60133
 20
1498.921551036
 11
1116.00133
 21
1498.921551036
  0
LINE
  5
27C
100
AcDbEntity
  8
_0-1_PRO0
  6
CONTINUOUS
 62
     0
100
AcDbLine
 10
1118.00133
 20
1499.921551036
 11
1118.00133
 21
1498.921551036
  0
LINE
  5
27D
100
AcDbEntity
  8
_0-1_PRO0
  6
CONTINUOUS
 62
     0
100
AcDbLine
 10
1116.00133
 20
1498.921551036
 11
1118.00133
 21
1499.921551036
  0
ARC
  5
27E
100
AcDbEntity
  8
_0-1_PRO0
  6
CONTINUOUS
 62
     0
100
AcDbCircle
 10
1113.60133
 20
1498.321551036
 40
0.6
100
AcDbArc
 50
90
 51
270
  0
LINE
  5
27F
100
AcDbEntity
  8
_0-1_PRO0
  6
CONTINUOUS
 62
     0
100
AcDbLine
 10
1122.383881
 20
1498.921551036
 11
1118.00133
 21
1498.921551036
  0
ARC
  5
280
100
AcDbEntity
  8
_0-1_PRO0
  6
CONTINUOUS
 62
     0
100
AcDbCircle
 10
1122.383881
 20
1499.421551036
 40
0.5
100
AcDbArc
 50
-90
 51
11.99999999999
  0
ARC
  5
281
100
AcDbEntity
  8
_0-1_PRO0
  6
CONTINUOUS
 62
     0
100
AcDbCircle
 10
1101.170256
 20
1546.659051036
 40
0.5
100
AcDbArc
 50
86.99999999999
 51
177
  0
LINE
  5
282
100
AcDbEntity
  8
_0-1_PRO0
  6
CONTINUOUS
 62
     0
100
AcDbLine
 10
1100.670941
 20
1546.685219036
 11
1100.618605
 21
1545.686589036
  0
LINE
  5
283
100
AcDbEntity
  8
_0-1_PRO0
  6
CONTINUOUS
 62
     0
100
AcDbLine
 10
1100.093123
 20
1545.213443036
 11
1099.593808
 21
1545.239611036
  0
ARC
  5
284
100
AcDbEntity
  8
_0-1_PRO0
  6
CONTINUOUS
 62
     0
100
AcDbCircle
 10
1099.619976
 20
1545.738925036
 40
0.5
100
AcDbArc
 50
177
 51
267
  0
ARC
  5
285
100
AcDbEntity
  8
_0-1_PRO0
  6
CONTINUOUS
 62
     0
100
AcDbCircle
 10
1100.119291
 20
1545.712757036
 40
0.5
100
AcDbArc
 50
-93
 51
-3.000000000006
  0
LINE
  5
286
100
AcDbEntity
  8
_0-1_PRO0
  6
CONTINUOUS
 62
     0
100
AcDbLine
 10
1108.871503
 20
1546.756132036
 11
1101.196424
 21
1547.158366036
  0
ARC
  5
287
100
AcDbEntity
  8
_0-1_PRO0
  6
CONTINUOUS
 62
     0
100
AcDbCircle
 10
1108.845335
 20
1546.256817036
 40
0.5
100
AcDbArc
 50
-13
 51
86.99999999999
  0
LINE
  5
288
100
AcDbEntity
  8
_0-1_PRO0
  6
CONTINUOUS
 62
     0
100
AcDbLine
 10
1109.33252
 20
1546.144342036
 11
1108.749327
 21
1543.618257036
  0
LINE
  5
289
100
AcDbEntity
  8
_0-1_PRO0
  6
CONTINUOUS
 62
     0
100
AcDbLine
 10
1110.93479
 20
1546.648000036
 11
1112.112136
 21
1546.586298036
  0
ARC
  5
28A
100
AcDbEntity
  8
_0-1_PRO0
  6
CONTINUOUS
 62
     0
100
AcDbCircle
 10
1110.919089
 20
1546.348411036
 40
0.3
100
AcDbArc
 50
86.99999999999
 51
167
  0
LINE
  5
28B
100
AcDbEntity
  8
_0-1_PRO0
  6
CONTINUOUS
 62
     0
100
AcDbLine
 10
1110.626778
 20
1546.415896036
 11
1109.918571
 21
1543.348316036
  0
ARC
  5
28C
100
AcDbEntity
  8
_0-1_PRO0
  6
CONTINUOUS
 62
     0
100
AcDbCircle
 10
1112.0598
 20
1545.587668036
 40
1
100
AcDbArc
 50
12
 51
86.99999999999
  0
ARC
  5
28D
100
AcDbEntity
  8
_0-1_PRO0
  6
CONTINUOUS
 62
     0
100
AcDbCircle
 10
1109.333949
 20
1543.483287036
 40
0.6
100
AcDbArc
 50
167
 51
347
  0
LINE
  5
28E
100
AcDbEntity
  8
_0-1_PRO0
  6
CONTINUOUS
 62
     0
100
AcDbLine
 10
1115.812854
 20
1547.169874036
 11
1127.768804
 21
1490.921551036
  0
LINE
  5
28F
100
AcDbEntity
  8
_0-1_PRO0
  6
CONTINUOUS
 62
     0
100
AcDbLine
 10
1113.037948
 20
1545.795580036
 11
1122.872955
 21
1499.525507036
  0
LINE
  5
290
100
AcDbEntity
  8
_0-1_PRO0
  6
CONTINUOUS
 62
     0
100
AcDbLine
 10
1123.337611
 20
1490.000273036
 11
1127.768804
 21
1490.784221036
  0
LINE
  5
291
100
AcDbEntity
  8
_0-1_PRO0
  6
CONTINUOUS
 62
     0
100
AcDbLine
 10
1100.623776
 20
1574.446233036
 11
1100.533732
 21
1572.728091036
  0
LINE
  5
292
100
AcDbEntity
  8
_0-1_PRO0
  6
CONTINUOUS
 62
     0
100
AcDbLine
 10
1090.637481
 20
1574.969592036
 11
1090.547437
 21
1573.251450036
  0
ARC
  5
293
100
AcDbEntity
  8
_0-1_PRO0
  6
CONTINUOUS
 62
     0
100
AcDbCircle
 10
1099.986328
 20
1552.729332036
 40
0.5
100
AcDbArc
 50
87
 51
177
  0
LINE
  5
294
100
AcDbEntity
  8
_0-1_PRO0
  6
CONTINUOUS
 62
     0
100
AcDbLine
 10
1101.353432
 20
1550.154254036
 11
1113.035419
 21
1549.542027036
  0
ARC
  5
295
100
AcDbEntity
  8
_0-1_PRO0
  6
CONTINUOUS
 62
     0
100
AcDbCircle
 10
1101.3796
 20
1550.653569036
 40
0.5
100
AcDbArc
 50
177
 51
267
  0
LINE
  5
296
100
AcDbEntity
  8
_0-1_PRO0
  6
CONTINUOUS
 62
     0
100
AcDbLine
 10
1100.880285
 20
1550.679737036
 11
1100.984957
 21
1552.676996036
  0
ARC
  5
297
100
AcDbEntity
  8
_0-1_PRO0
  6
CONTINUOUS
 62
     0
100
AcDbCircle
 10
1100.485642
 20
1552.703164036
 40
0.5
100
AcDbArc
 50
-3.000000000006
 51
87
  0
LINE
  5
298
100
AcDbEntity
  8
_0-1_PRO0
  6
CONTINUOUS
 62
     0
100
AcDbLine
 10
1100.51181
 20
1553.202479036
 11
1100.012496
 21
1553.228647036
  0
LINE
  5
299
100
AcDbEntity
  8
_0-1_PRO0
  6
CONTINUOUS
 62
     0
100
AcDbLine
 10
1100.533732
 20
1572.728091036
 11
1099.068325
 21
1544.766464036
  0
ARC
  5
29A
100
AcDbEntity
  8
_0-1_PRO0
  6
CONTINUOUS
 62
     0
100
AcDbCircle
 10
1112.878411
 20
1546.546139036
 40
3
100
AcDbArc
 50
12
 51
87
  0
ARC
  5
29B
100
AcDbEntity
  8
_0-1_PRO0
  6
CONTINUOUS
 62
     0
100
AcDbCircle
 10
1070.816727
 20
1550.252557036
 40
1.5
100
AcDbArc
 50
87
 51
267
  0
ARC
  5
29C
100
AcDbEntity
  8
_0-0_
  6
CONTINUOUS
 62
     0
100
AcDbCircle
 10
1126.768804
 20
1487.921551036
 40
1.5
100
AcDbArc
 50
-90
 51
0
  0
LINE
  5
29D
100
AcDbEntity
  8
_0-0_
  6
CONTINUOUS
 62
     0
100
AcDbLine
 10
1128.268804
 20
1572.074657036
 11
1128.268804
 21
1487.921551036
  0
ARC
  5
29E
100
AcDbEntity
  8
_0-0_
  6
CONTINUOUS
 62
     0
100
AcDbCircle
 10
1126.768804
 20
1572.074657036
 40
1.5
100
AcDbArc
 50
0
 51
87
  0
LINE
  5
29F
100
AcDbEntity
  8
_0-0_
  6
CONTINUOUS
 62
     0
100
AcDbLine
 10
1126.847308065
 20
1573.572601733
 11
629.768804
 21
1599.623382505
  0
LINE
  5
2A0
100
AcDbEntity
  8
_0-0_
  6
CONTINUOUS
 62
     0
100
AcDbLine
 10
1126.768804
 20
1486.421551036
 11
1119.768804
 21
1486.421551036
  0
LINE
  5
2A1
100
AcDbEntity
  8
_0-1_PRO0
  6
CONTINUOUS
 62
     0
100
AcDbLine
 10
1119.768804
 20
1486.421551036
 11
1119.768804
 21
1484.921551036
  0
LINE
  5
2A2
100
AcDbEntity
  8
_0-1_PRO0
  6
CONTINUOUS
 62
     0
100
AcDbLine
 10
1127.768804
 20
1490.921551036
 11
1127.768804
 21
1489.421551036
  0
LINE
  5
2A3
100
AcDbEntity
  8
_0-1_PRO0
  6
CONTINUOUS
 62
     0
100
AcDbLine
 10
1106.798335803
 20
1574.122637942
 11
629.9781478031
 21
1599.111724931
  0
CIRCLE
  5
2A4
100
AcDbEntity
  8
_0-0_
  6
CONTINUOUS
 62
     0
100
AcDbCircle
 10
1112.848620116
 20
1576.27301221
 40
0.9
  0
CIRCLE
  5
2A5
100
AcDbEntity
  8
_0-0_
  6
CONTINUOUS
 62
     0
100
AcDbCircle
 10
1113.061974326
 20
1558.134097281
 40
0.9
  0
LINE
  5
2A6
100
AcDbEntity
  8
_0-0_
  6
CONTINUOUS
 62
     0
100
AcDbLine
 10
1112.848620116
 20
1576.27301221
 11
1137.98510126
 21
1619.810674674
  0
CIRCLE
  5
2A7
100
AcDbEntity
  8
_0-0_
  6
CONTINUOUS
 62
     0
100
AcDbCircle
 10
1139.69845547
 20
1604.269835957
 40
6
  0
LINE
  5
2A8
100
AcDbEntity
  8
_0-0_
  6
CONTINUOUS
 62
     0
100
AcDbLine
 10
1113.061974326
 20
1558.134097281
 11
1136.69845547
 21
1599.073683534
  0
CIRCLE
  5
2A9
100
AcDbEntity
  8
_0-0_
  6
CONTINUOUS
 62
     0
100
AcDbCircle
 10
1140.98510126
 20
1625.006827096
 40
6
  0
TEXT
  5
2AA
100
AcDbEntity
  8
_0-0_
  6
CONTINUOUS
 62
     0
100
AcDbText
 10
1135.852456132
 20
1619.867020241
 40
9
  1
１
  7
STANDARD
100
AcDbText
  0
TEXT
  5
2AB
100
AcDbEntity
  8
_0-0_
  6
CONTINUOUS
 62
     0
100
AcDbText
 10
1134.898407845
 20
1599.450386879
 40
9
  1
７
  7
STANDARD
100
AcDbText
  0
LINE
  5
2AC
100
AcDbEntity
  8
_0-1_PRO0
  6
CONTINUOUS
 62
     0
100
AcDbLine
 10
1157.821664417
 20
1528.790999036
 11
1157.821664417
 21
1484.921551036
  0
LINE
  5
2AD
100
AcDbEntity
  8
_0-1_PRO0
  6
CONTINUOUS
 62
     0
100
AcDbLine
 10
1157.821664417
 20
1528.790999036
 11
1159.321664417
 21
1522.790999036
  0
LINE
  5
2AE
100
AcDbEntity
  8
_0-1_PRO0
  6
CONTINUOUS
 62
     0
100
AcDbLine
 10
1157.821664417
 20
1528.790999036
 11
1156.321664417
 21
1522.790999036
  0
LINE
  5
2AF
100
AcDbEntity
  8
_0-1_PRO0
  6
CONTINUOUS
 62
     0
100
AcDbLine
 10
1157.821664417
 20
1484.921551036
 11
1156.321664417
 21
1490.921551036
  0
LINE
  5
2B0
100
AcDbEntity
  8
_0-1_PRO0
  6
CONTINUOUS
 62
     0
100
AcDbLine
 10
1157.821664417
 20
1484.921551036
 11
1159.321664417
 21
1490.921551036
  0
TEXT
  5
2B1
100
AcDbEntity
  8
_0-1_PRO0
  6
CONTINUOUS
 62
     0
100
AcDbText
 10
1154.821615417
 20
1499.131867036
 40
9
  1
４４
 41
0.7377777777778
 50
90.000003
  7
STANDARD
100
AcDbText
  0
LINE
  5
2B2
100
AcDbEntity
  8
_0-1_PRO0
  6
CONTINUOUS
 62
     0
100
AcDbLine
 10
1152.538712417
 20
1484.921551036
 11
1163.821664417
 21
1484.921551036
  0
LINE
  5
2B3
100
AcDbEntity
  8
_0-1_PRO0
  6
CONTINUOUS
 62
     0
100
AcDbLine
 10
986.2677617576
 20
1528.790999036
 11
1163.821664417
 21
1528.790999036
  0
LINE
  5
2B4
100
AcDbEntity
  8
_0-1_PRO0
  6
CONTINUOUS
 62
     0
100
AcDbLine
 10
1129.768804
 20
1489.041940024
 11
1129.768804
 21
1316.683408812
  0
LINE
  5
2B5
100
AcDbEntity
  8
_0-1_PRO0
  6
CONTINUOUS
 62
     0
100
AcDbLine
 10
1129.768804
 20
1322.683408812
 11
1123.768804
 21
1321.183408812
  0
LINE
  5
2B6
100
AcDbEntity
  8
_0-1_PRO0
  6
CONTINUOUS
 62
     0
100
AcDbLine
 10
1129.768804
 20
1322.683408812
 11
1123.768804
 21
1324.183408812
  0
LINE
  5
2B7
100
AcDbEntity
  8
_0-1_PRO0
  6
CONTINUOUS
 62
     0
100
AcDbLine
 10
929.768804
 20
1322.683408812
 11
1129.768804
 21
1322.683408812
  0
LINE
  5
2B8
100
AcDbEntity
  8
_0-1_PRO0
  6
CONTINUOUS
 62
     0
100
AcDbLine
 10
1129.768804
 20
1575.695046024
 11
1129.768804
 21
1676.284509996
  0
LINE
  5
2B9
100
AcDbEntity
  8
_0-1_PRO0
  6
CONTINUOUS
 62
     0
100
AcDbLine
 10
1129.768804
 20
1672.284509996
 11
1123.768804
 21
1670.784509996
  0
LINE
  5
2BA
100
AcDbEntity
  8
_0-1_PRO0
  6
CONTINUOUS
 62
     0
100
AcDbLine
 10
1129.768804
 20
1672.284509996
 11
1123.768804
 21
1673.784509996
  0
LINE
  5
2BB
100
AcDbEntity
  8
_0-1_PRO0
  6
CONTINUOUS
 62
     0
100
AcDbLine
 10
929.768804
 20
1342.679248812
 11
929.768804
 21
1528.790999036
  0
CIRCLE
  5
2BC
100
AcDbEntity
  8
_0-3_
  6
CONTINUOUS
 62
     0
100
AcDbCircle
 10
925.1322813982
 20
1590.6400591
 40
6
  0
TEXT
  5
2BD
100
AcDbEntity
  8
_0-3_
  6
CONTINUOUS
 62
     0
100
AcDbText
 10
920.5066353519
 20
1585.601299966
 40
9
  1
２
  7
STANDARD
100
AcDbText
  0
LINE
  5
2BE
100
AcDbEntity
  8
_0-3_
  6
CONTINUOUS
 62
     0
100
AcDbLine
 10
897.3192271427
 20
1542.466436016
 11
922.1322813982
 21
1585.443906677
  0
CIRCLE
  5
2BF
100
AcDbEntity
  8
_0-3_
  6
CONTINUOUS
 62
     0
100
AcDbCircle
 10
897.2728222986
 20
1542.542336022
 40
0.9
  0
CIRCLE
  5
2C0
100
AcDbEntity
  8
_0-3_
  6
CONTINUOUS
 62
     0
100
AcDbCircle
 10
889.9286134426
 20
1544.279613947
 40
0.9
  0
LINE
  5
2C1
100
AcDbEntity
  8
_0-3_
  6
CONTINUOUS
 62
     0
100
AcDbLine
 10
889.9487199767
 20
1544.208394797
 11
901.7304061084
 21
1523.801915818
  0
CIRCLE
  5
2C2
100
AcDbEntity
  8
_0-3_
  6
CONTINUOUS
 62
     0
100
AcDbCircle
 10
904.7304061084
 20
1518.605763396
 40
6
  0
TEXT
  5
2C3
100
AcDbEntity
  8
_0-3_
  6
CONTINUOUS
 62
     0
100
AcDbText
 10
900.5350621966
 20
1513.957620725
 40
9
  1
６
  7
STANDARD
100
AcDbText
  0
LINE
  5
2C4
100
AcDbEntity
  8
_0-3_
  6
CONTINUOUS
 62
     0
100
AcDbLine
 10
884.0660626933
 20
1537.011239916
 11
900.4884483582
 21
1508.566833563
  0
CIRCLE
  5
2C5
100
AcDbEntity
  8
_0-3_
  6
CONTINUOUS
 62
     0
100
AcDbCircle
 10
884.0885415431
 20
1536.891571183
 40
0.9
  0
CIRCLE
  5
2C6
100
AcDbEntity
  8
_0-3_
  6
CONTINUOUS
 62
     0
100
AcDbCircle
 10
872.6293789614
 20
1534.027155968
 40
0.9
  0
LINE
  5
2C7
100
AcDbEntity
  8
_0-3_
  6
CONTINUOUS
 62
     0
100
AcDbLine
 10
872.6806509193
 20
1533.974907532
 11
862.9833972874
 21
1517.178771547
  0
CIRCLE
  5
2C8
100
AcDbEntity
  8
_0-3_
  6
CONTINUOUS
 62
     0
100
AcDbCircle
 10
859.9833972874
 20
1511.982619125
 40
6
  0
TEXT
  5
2C9
100
AcDbEntity
  8
_0-3_
  6
CONTINUOUS
 62
     0
100
AcDbText
 10
854.9538776678
 20
1507.085516985
 40
9
  1
13
  7
STANDARD
100
AcDbText
  0
TEXT
  5
2CA
100
AcDbEntity
  8
_0-3_
  6
CONTINUOUS
 62
     0
100
AcDbText
 10
899.5080376051
 20
1498.397481286
 40
9
  1
11
  7
STANDARD
100
AcDbText
  0
CIRCLE
  5
2CB
100
AcDbEntity
  8
_0-3_
  6
CONTINUOUS
 62
     0
100
AcDbCircle
 10
903.4884483582
 20
1503.370681141
 40
6
  0
CIRCLE
  5
2CC
100
AcDbEntity
  8
_0-3_
  6
CONTINUOUS
 62
     0
100
AcDbCircle
 10
877.642793024
 20
1502.708337637
 40
0.9
  0
LINE
  5
2CD
100
AcDbEntity
  8
_0-3_
  6
CONTINUOUS
 62
     0
100
AcDbLine
 10
877.642793024
 20
1502.708337637
 11
867.6011788293
 21
1485.315751662
  0
TEXT
  5
2CE
100
AcDbEntity
  8
_0-3_
  6
CONTINUOUS
 62
     0
100
AcDbText
 10
859.8424750336
 20
1475.292003583
 40
9
  1
12
  7
STANDARD
100
AcDbText
  0
CIRCLE
  5
2CF
100
AcDbEntity
  8
_0-3_
  6
CONTINUOUS
 62
     0
100
AcDbCircle
 10
864.6011788293
 20
1480.119599239
 40
6
  0
LINE
  5
2D0
100
AcDbEntity
  8
_0-2_
  6
CONTINUOUS
 62
     0
100
AcDbLine
 10
875.0043712856
 20
1545.368962036
 11
884.1917632856
 21
1544.887471036
  0
LINE
  5
2D1
100
AcDbEntity
  8
_0-2_
  6
CONTINUOUS
 62
     0
100
AcDbLine
 10
864.7864762856
 20
1529.365021507
 11
865.2124538139
 21
1529.790999036
  0
ARC
  5
2D2
100
AcDbEntity
  8
_0-2_
  6
CONTINUOUS
 62
     0
100
AcDbCircle
 10
864.7864762856
 20
1521.540999036
 40
8.25
100
AcDbArc
 50
90
 51
108.9246444161
  0
ARC
  5
2D3
100
AcDbEntity
  8
_0-2_
  6
CONTINUOUS
 62
     0
100
AcDbCircle
 10
864.7864762856
 20
1521.540999036
 40
9.25
100
AcDbArc
 50
90
 51
108.9246444161
  0
ARC
  5
2D4
100
AcDbEntity
  8
_0-2_
  6
CONTINUOUS
 62
     0
100
AcDbCircle
 10
858.7864762856
 20
1539.040999036
 40
9.25
100
AcDbArc
 50
-90
 51
-71.07535558395
  0
LINE
  5
2D5
100
AcDbEntity
  8
_0-2_
  6
CONTINUOUS
 62
     0
100
AcDbLine
 10
879.768803
 20
1483.357598036
 11
879.768803
 21
1528.790999036
  0
LINE
  5
2D6
100
AcDbEntity
  8
_0-2_
  6
CONTINUOUS
 62
     0
100
AcDbLine
 10
884.518805
 20
1519.790999036
 11
883.818803
 21
1520.490998036
  0
LINE
  5
2D7
100
AcDbEntity
  8
_0-2_
  6
CONTINUOUS
 62
     0
100
AcDbLine
 10
883.818803
 20
1529.790998036
 11
883.818803
 21
1520.490998036
  0
LINE
  5
2D8
100
AcDbEntity
  8
_0-2_
  6
CONTINUOUS
 62
     0
100
AcDbLine
 10
884.518805
 20
1501.162826036
 11
884.518805
 21
1519.790999036
  0
LINE
  5
2D9
100
AcDbEntity
  8
_0-2_
  6
CONTINUOUS
 62
     0
100
AcDbLine
 10
884.268803
 20
1489.290998036
 11
884.268803
 21
1490.154302036
  0
LINE
  5
2DA
100
AcDbEntity
  8
_0-2_
  6
CONTINUOUS
 62
     0
100
AcDbLine
 10
886.393835
 20
1490.529002036
 11
884.518805
 21
1501.162826036
  0
LINE
  5
2DB
100
AcDbEntity
  8
_0-2_
  6
CONTINUOUS
 62
     0
100
AcDbLine
 10
880.268804
 20
1500.790997036
 11
879.268805
 21
1500.790997036
  0
LINE
  5
2DC
100
AcDbEntity
  8
_0-2_
  6
CONTINUOUS
 62
     0
100
AcDbLine
 10
875.018804
 20
1519.790999036
 11
875.718803
 21
1520.490998036
  0
LINE
  5
2DD
100
AcDbEntity
  8
_0-2_
  6
CONTINUOUS
 62
     0
100
AcDbLine
 10
875.718803
 20
1529.790998036
 11
875.718803
 21
1520.490998036
  0
LINE
  5
2DE
100
AcDbEntity
  8
_0-2_
  6
CONTINUOUS
 62
     0
100
AcDbLine
 10
875.018804
 20
1501.162826036
 11
875.018804
 21
1519.790999036
  0
LINE
  5
2DF
100
AcDbEntity
  8
_0-2_
  6
CONTINUOUS
 62
     0
100
AcDbLine
 10
876.268805
 20
1488.290999036
 11
883.268804
 21
1488.290999036
  0
ARC
  5
2E0
100
AcDbEntity
  8
_0-2_
  6
CONTINUOUS
 62
     0
100
AcDbCircle
 10
876.268805
 20
1489.290998036
 40
0.999999
100
AcDbArc
 50
180
 51
270
  0
LINE
  5
2E1
100
AcDbEntity
  8
_0-2_
  6
CONTINUOUS
 62
     0
100
AcDbLine
 10
875.268803
 20
1489.290998036
 11
875.268803
 21
1490.154302036
  0
LINE
  5
2E2
100
AcDbEntity
  8
_0-2_
  6
CONTINUOUS
 62
     0
100
AcDbLine
 10
873.143774
 20
1490.529002036
 11
877.329206
 21
1489.790999036
  0
LINE
  5
2E3
100
AcDbEntity
  8
_0-2_
  6
CONTINUOUS
 62
     0
100
AcDbLine
 10
880.268804
 20
1500.790997036
 11
882.2084
 21
1489.790999036
  0
LINE
  5
2E4
100
AcDbEntity
  8
_0-2_
  6
CONTINUOUS
 62
     0
100
AcDbLine
 10
879.268805
 20
1500.790997036
 11
877.329206
 21
1489.790999036
  0
LINE
  5
2E5
100
AcDbEntity
  8
_0-2_
  6
CONTINUOUS
 62
     0
100
AcDbLine
 10
873.143774
 20
1490.529002036
 11
875.018804
 21
1501.162826036
  0
LINE
  5
2E6
100
AcDbEntity
  8
_0-2_
  6
CONTINUOUS
 62
     0
100
AcDbLine
 10
884.518805
 20
1519.790999036
 11
875.018804
 21
1519.790999036
  0
LINE
  5
2E7
100
AcDbEntity
  8
_0-2_
  6
CONTINUOUS
 62
     0
100
AcDbLine
 10
883.818803
 20
1520.490998036
 11
875.718803
 21
1520.490998036
  0
LINE
  5
2E8
100
AcDbEntity
  8
_0-2_
  6
CONTINUOUS
 62
     0
100
AcDbLine
 10
886.393835
 20
1490.529002036
 11
882.2084
 21
1489.790999036
  0
ARC
  5
2E9
100
AcDbEntity
  8
_0-2_
  6
CONTINUOUS
 62
     0
100
AcDbCircle
 10
883.268804
 20
1489.290998036
 40
0.999999
100
AcDbArc
 50
-90
 51
0
  0
LINE
  5
2EA
100
AcDbEntity
  8
_0-2_
  6
CONTINUOUS
 62
     0
100
AcDbLine
 10
865.6266673763
 20
1528.790999036
 11
866.6266673763
 21
1529.790999036
  0
LINE
  5
2EB
100
AcDbEntity
  8
_0-2_
  6
CONTINUOUS
 62
     0
100
AcDbLine
 10
867.0408809386
 20
1528.790999036
 11
868.0408809386
 21
1529.790999036
  0
LINE
  5
2EC
100
AcDbEntity
  8
_0-2_
  6
CONTINUOUS
 62
     0
100
AcDbLine
 10
868.455094501
 20
1528.790999036
 11
869.455094501
 21
1529.790999036
  0
LINE
  5
2ED
100
AcDbEntity
  8
_0-2_
  6
CONTINUOUS
 62
     0
100
AcDbLine
 10
869.8693080634
 20
1528.790999036
 11
870.8693080634
 21
1529.790999036
  0
LINE
  5
2EE
100
AcDbEntity
  8
_0-2_
  6
CONTINUOUS
 62
     0
100
AcDbLine
 10
871.2835216258
 20
1528.790999036
 11
872.2835216258
 21
1529.790999036
  0
LINE
  5
2EF
100
AcDbEntity
  8
_0-2_
  6
CONTINUOUS
 62
     0
100
AcDbLine
 10
872.6977351881
 20
1528.790999036
 11
873.6977351881
 21
1529.790999036
  0
LINE
  5
2F0
100
AcDbEntity
  8
_0-2_
  6
CONTINUOUS
 62
     0
100
AcDbLine
 10
874.1119487505
 20
1528.790999036
 11
875.1119487505
 21
1529.790999036
  0
LINE
  5
2F1
100
AcDbEntity
  8
_0-2_
  6
CONTINUOUS
 62
     0
100
AcDbLine
 10
875.5261623129
 20
1528.790999036
 11
876.5261623129
 21
1529.790999036
  0
LINE
  5
2F2
100
AcDbEntity
  8
_0-2_
  6
CONTINUOUS
 62
     0
100
AcDbLine
 10
876.9403758753
 20
1528.790999036
 11
877.9403758753
 21
1529.790999036
  0
LINE
  5
2F3
100
AcDbEntity
  8
_0-2_
  6
CONTINUOUS
 62
     0
100
AcDbLine
 10
878.3545894376
 20
1528.790999036
 11
879.3545894376
 21
1529.790999036
  0
LINE
  5
2F4
100
AcDbEntity
  8
_0-2_
  6
CONTINUOUS
 62
     0
100
AcDbLine
 10
879.768803
 20
1528.790999036
 11
880.768803
 21
1529.790999036
  0
LINE
  5
2F5
100
AcDbEntity
  8
_0-2_
  6
CONTINUOUS
 62
     0
100
AcDbLine
 10
881.1830165624
 20
1528.790999036
 11
882.1830165624
 21
1529.790999036
  0
LINE
  5
2F6
100
AcDbEntity
  8
_0-2_
  6
CONTINUOUS
 62
     0
100
AcDbLine
 10
882.5972301247
 20
1528.790999036
 11
883.5972301247
 21
1529.790999036
  0
LINE
  5
2F7
100
AcDbEntity
  8
_0-2_
  6
CONTINUOUS
 62
     0
100
AcDbLine
 10
884.0114436871
 20
1528.790999036
 11
885.0114436871
 21
1529.790999036
  0
LINE
  5
2F8
100
AcDbEntity
  8
_0-2_
  6
CONTINUOUS
 62
     0
100
AcDbLine
 10
885.4256572495
 20
1528.790999036
 11
886.4256572495
 21
1529.790999036
  0
LINE
  5
2F9
100
AcDbEntity
  8
_0-2_
  6
CONTINUOUS
 62
     0
100
AcDbLine
 10
886.8398708119
 20
1528.790999036
 11
887.8398708119
 21
1529.790999036
  0
LINE
  5
2FA
100
AcDbEntity
  8
_0-2_
  6
CONTINUOUS
 62
     0
100
AcDbLine
 10
888.2540843742
 20
1528.790999036
 11
889.2540843742
 21
1529.790999036
  0
LINE
  5
2FB
100
AcDbEntity
  8
_0-2_
  6
CONTINUOUS
 62
     0
100
AcDbLine
 10
889.6682979366
 20
1528.790999036
 11
890.6682979366
 21
1529.790999036
  0
LINE
  5
2FC
100
AcDbEntity
  8
_0-2_
  6
CONTINUOUS
 62
     0
100
AcDbLine
 10
891.082511499
 20
1528.790999036
 11
892.082511499
 21
1529.790999036
  0
LINE
  5
2FD
100
AcDbEntity
  8
_0-2_
  6
CONTINUOUS
 62
     0
100
AcDbLine
 10
892.4967250614
 20
1528.790999036
 11
893.4967250614
 21
1529.790999036
  0
LINE
  5
2FE
100
AcDbEntity
  8
_0-2_
  6
CONTINUOUS
 62
     0
100
AcDbLine
 10
893.9109386237
 20
1528.790999036
 11
894.7864762856
 21
1529.666536697
  0
LINE
  5
2FF
100
AcDbEntity
  8
_0-2_
  6
CONTINUOUS
 62
     0
100
AcDbLine
 10
894.7864762856
 20
1528.790999036
 11
864.7864762856
 21
1528.790999036
  0
LINE
  5
300
100
AcDbEntity
  8
_0-2_
  6
CONTINUOUS
 62
     0
100
AcDbLine
 10
864.7864762856
 20
1528.790999036
 11
864.7864762856
 21
1529.790999036
  0
LINE
  5
301
100
AcDbEntity
  8
_0-2_
  6
CONTINUOUS
 62
     0
100
AcDbLine
 10
864.7864762856
 20
1529.790999036
 11
894.7864762856
 21
1529.790999036
  0
LINE
  5
302
100
AcDbEntity
  8
_0-2_
  6
CONTINUOUS
 62
     0
100
AcDbLine
 10
894.7864762856
 20
1529.790999036
 11
894.7864762856
 21
1528.790999036
  0
ARC
  5
303
100
AcDbEntity
  8
_0-2_
  6
CONTINUOUS
 62
     0
100
AcDbCircle
 10
858.7864762856
 20
1539.040999036
 40
10.25
100
AcDbArc
 50
-90
 51
-71.07535558395
  0
LINE
  5
304
100
AcDbEntity
  8
_0-2_
  6
CONTINUOUS
 62
     0
100
AcDbLine
 10
888.7864762856
 20
1534.899769036
 11
888.7864762856
 21
1533.299770036
  0
LINE
  5
305
100
AcDbEntity
  8
_0-2_
  6
CONTINUOUS
 62
     0
100
AcDbLine
 10
888.7864762856
 20
1534.899769036
 11
870.7864762856
 21
1534.899769036
  0
LINE
  5
306
100
AcDbEntity
  8
_0-2_
  6
CONTINUOUS
 62
     0
100
AcDbLine
 10
870.7864762856
 20
1534.899769036
 11
870.7864762856
 21
1533.299770036
  0
LINE
  5
307
100
AcDbEntity
  8
_0-2_
  6
CONTINUOUS
 62
     0
100
AcDbLine
 10
873.9064762856
 20
1539.162832036
 11
873.9064762856
 21
1534.899769036
  0
LINE
  5
308
100
AcDbEntity
  8
_0-2_
  6
CONTINUOUS
 62
     0
100
AcDbLine
 10
874.8364762856
 20
1539.699769036
 11
873.9064762856
 21
1539.162832036
  0
ARC
  5
309
100
AcDbEntity
  8
_0-2_
  6
CONTINUOUS
 62
     0
100
AcDbCircle
 10
874.8364762856
 20
1535.890375036
 40
3.809394
100
AcDbArc
 50
59.210036
 51
90
  0
ARC
  5
30A
100
AcDbEntity
  8
_0-2_
  6
CONTINUOUS
 62
     0
100
AcDbCircle
 10
879.7864762856
 20
1531.050409036
 40
8.64936
100
AcDbArc
 50
69.705445
 51
110.294555
  0
LINE
  5
30B
100
AcDbEntity
  8
_0-2_
  6
CONTINUOUS
 62
     0
100
AcDbLine
 10
876.7864762856
 20
1539.162832036
 11
876.7864762856
 21
1534.899769036
  0
LINE
  5
30C
100
AcDbEntity
  8
_0-2_
  6
CONTINUOUS
 62
     0
100
AcDbLine
 10
882.7864762856
 20
1539.162832036
 11
882.7864762856
 21
1534.899769036
  0
LINE
  5
30D
100
AcDbEntity
  8
_0-2_
  6
CONTINUOUS
 62
     0
100
AcDbLine
 10
885.6664762856
 20
1539.162832036
 11
885.6664762856
 21
1534.899769036
  0
LINE
  5
30E
100
AcDbEntity
  8
_0-2_
  6
CONTINUOUS
 62
     0
100
AcDbLine
 10
884.7364762856
 20
1539.699769036
 11
885.6664762856
 21
1539.162832036
  0
LINE
  5
30F
100
AcDbEntity
  8
_0-2_
  6
CONTINUOUS
 62
     0
100
AcDbLine
 10
874.8364762856
 20
1539.699769036
 11
884.7364762856
 21
1539.699769036
  0
ARC
  5
310
100
AcDbEntity
  8
_0-2_
  6
CONTINUOUS
 62
     0
100
AcDbCircle
 10
884.7364762856
 20
1535.890375036
 40
3.809394
100
AcDbArc
 50
90
 51
120.789964
  0
LINE
  5
311
100
AcDbEntity
  8
_0-2_
  6
CONTINUOUS
 62
     0
100
AcDbLine
 10
875.0567062856
 20
1546.367593036
 11
875.0043712856
 21
1545.368962036
  0
LINE
  5
312
100
AcDbEntity
  8
_0-2_
  6
CONTINUOUS
 62
     0
100
AcDbLine
 10
884.2440982856
 20
1545.886102036
 11
884.1917632856
 21
1544.887471036
  0
ARC
  5
313
100
AcDbEntity
  8
_0-2_
  6
CONTINUOUS
 62
     0
100
AcDbCircle
 10
874.0580782856
 20
1546.419928036
 40
0.999999
100
AcDbArc
 50
-3.000000000005
 51
87
  0
ARC
  5
314
100
AcDbEntity
  8
_0-2_
  6
CONTINUOUS
 62
     0
100
AcDbCircle
 10
885.2427292856
 20
1545.833764036
 40
0.999999
100
AcDbArc
 50
87
 51
177
  0
ARC
  5
315
100
AcDbEntity
  8
_0-2_
  6
CONTINUOUS
 62
     0
100
AcDbCircle
 10
867.7864762856
 20
1540.299769036
 40
0.999999
100
AcDbArc
 50
-90
 51
0
  0
LINE
  5
316
100
AcDbEntity
  8
_0-2_
  6
CONTINUOUS
 62
     0
100
AcDbLine
 10
867.7864762856
 20
1539.299770036
 11
863.5864762856
 21
1539.299770036
  0
ARC
  5
317
100
AcDbEntity
  8
_0-2_
  6
CONTINUOUS
 62
     0
100
AcDbCircle
 10
871.3864762856
 20
1546.559941036
 40
0.999999
100
AcDbArc
 50
87
 51
180
  0
LINE
  5
318
100
AcDbEntity
  8
_0-2_
  6
CONTINUOUS
 62
     0
100
AcDbLine
 10
888.2388112856
 20
1546.678120036
 11
871.4388112856
 21
1547.558569036
  0
ARC
  5
319
100
AcDbEntity
  8
_0-2_
  6
CONTINUOUS
 62
     0
100
AcDbCircle
 10
888.1864762856
 20
1545.679489036
 40
0.999999
100
AcDbArc
 50
0
 51
87
  0
LINE
  5
31A
100
AcDbEntity
  8
_0-2_
  6
CONTINUOUS
 62
     0
100
AcDbLine
 10
891.7864762856
 20
1539.299770036
 11
895.9864762856
 21
1539.299770036
  0
ARC
  5
31B
100
AcDbEntity
  8
_0-2_
  6
CONTINUOUS
 62
     0
100
AcDbCircle
 10
891.7864762856
 20
1540.299769036
 40
0.999999
100
AcDbArc
 50
180
 51
270
  0
LINE
  5
31C
100
AcDbEntity
  8
_0-2_
  6
CONTINUOUS
 62
     0
100
AcDbLine
 10
870.3864772856
 20
1540.299769036
 11
870.3864772856
 21
1546.559941036
  0
ARC
  5
31D
100
AcDbEntity
  8
_0-2_
  6
CONTINUOUS
 62
     0
100
AcDbCircle
 10
867.7864762856
 20
1540.299769036
 40
2.600001
100
AcDbArc
 50
-90
 51
0
  0
LINE
  5
31E
100
AcDbEntity
  8
_0-2_
  6
CONTINUOUS
 62
     0
100
AcDbLine
 10
867.7864762856
 20
1537.699768036
 11
863.2864762856
 21
1537.699768036
  0
LINE
  5
31F
100
AcDbEntity
  8
_0-2_
  6
CONTINUOUS
 62
     0
100
AcDbLine
 10
868.7864752856
 20
1546.559941036
 11
868.7864752856
 21
1540.299769036
  0
ARC
  5
320
100
AcDbEntity
  8
_0-2_
  6
CONTINUOUS
 62
     0
100
AcDbCircle
 10
871.3864762856
 20
1546.559941036
 40
2.600001
100
AcDbArc
 50
87
 51
180
  0
LINE
  5
321
100
AcDbEntity
  8
_0-2_
  6
CONTINUOUS
 62
     0
100
AcDbLine
 10
890.7864772856
 20
1545.679489036
 11
890.7864772856
 21
1540.299769036
  0
ARC
  5
322
100
AcDbEntity
  8
_0-2_
  6
CONTINUOUS
 62
     0
100
AcDbCircle
 10
888.1864762856
 20
1545.679489036
 40
2.600001
100
AcDbArc
 50
0
 51
87
  0
LINE
  5
323
100
AcDbEntity
  8
_0-2_
  6
CONTINUOUS
 62
     0
100
AcDbLine
 10
888.3225502856
 20
1548.275926036
 11
871.5225502856
 21
1549.156378036
  0
LINE
  5
324
100
AcDbEntity
  8
_0-2_
  6
CONTINUOUS
 62
     0
100
AcDbLine
 10
889.1864752856
 20
1540.299769036
 11
889.1864752856
 21
1545.679489036
  0
ARC
  5
325
100
AcDbEntity
  8
_0-2_
  6
CONTINUOUS
 62
     0
100
AcDbCircle
 10
891.7864762856
 20
1540.299769036
 40
2.600001
100
AcDbArc
 50
180
 51
270
  0
LINE
  5
326
100
AcDbEntity
  8
_0-2_
  6
CONTINUOUS
 62
     0
100
AcDbLine
 10
891.7864762856
 20
1537.699768036
 11
896.2864762856
 21
1537.699768036
  0
LINE
  5
327
100
AcDbEntity
  8
_0-2_
  6
CONTINUOUS
 62
     0
100
AcDbLine
 10
895.9864762856
 20
1536.799768036
 11
894.0364762856
 21
1536.799768036
  0
ARC
  5
328
100
AcDbEntity
  8
_0-2_
  6
CONTINUOUS
 62
     0
100
AcDbCircle
 10
895.9864762856
 20
1537.099768036
 40
0.3
100
AcDbArc
 50
-90
 51
0
  0
ARC
  5
329
100
AcDbEntity
  8
_0-2_
  6
CONTINUOUS
 62
     0
100
AcDbCircle
 10
895.9864762856
 20
1538.999770036
 40
0.3
100
AcDbArc
 50
0
 51
90
  0
LINE
  5
32A
100
AcDbEntity
  8
_0-2_
  6
CONTINUOUS
 62
     0
100
AcDbLine
 10
879.2864752856
 20
1533.299770036
 11
879.7864762856
 21
1532.799769036
  0
LINE
  5
32B
100
AcDbEntity
  8
_0-2_
  6
CONTINUOUS
 62
     0
100
AcDbLine
 10
880.2864772856
 20
1533.299770036
 11
879.7864762856
 21
1532.799769036
  0
LINE
  5
32C
100
AcDbEntity
  8
_0-2_
  6
CONTINUOUS
 62
     0
100
AcDbLine
 10
874.7864752856
 20
1531.299769036
 11
874.7864752856
 21
1530.799768036
  0
LINE
  5
32D
100
AcDbEntity
  8
_0-2_
  6
CONTINUOUS
 62
     0
100
AcDbLine
 10
895.7864752856
 20
1540.799770036
 11
893.0364772856
 21
1540.799770036
  0
ARC
  5
32E
100
AcDbEntity
  8
_0-2_
  6
CONTINUOUS
 62
     0
100
AcDbCircle
 10
895.7864752856
 20
1541.299768036
 40
0.500001
100
AcDbArc
 50
-90
 51
0
  0
ARC
  5
32F
100
AcDbEntity
  8
_0-2_
  6
CONTINUOUS
 62
     0
100
AcDbCircle
 10
893.0364772856
 20
1540.049770036
 40
0.75
100
AcDbArc
 50
90
 51
270
  0
LINE
  5
330
100
AcDbEntity
  8
_0-2_
  6
CONTINUOUS
 62
     0
100
AcDbLine
 10
884.7864772856
 20
1531.299769036
 11
896.2864762856
 21
1531.299769036
  0
LINE
  5
331
100
AcDbEntity
  8
_0-2_
  6
CONTINUOUS
 62
     0
100
AcDbLine
 10
884.7864772856
 20
1531.299769036
 11
884.7864772856
 21
1530.799768036
  0
ARC
  5
332
100
AcDbEntity
  8
_0-2_
  6
CONTINUOUS
 62
     0
100
AcDbCircle
 10
894.0364762856
 20
1536.049768036
 40
0.75
100
AcDbArc
 50
90
 51
270
  0
LINE
  5
333
100
AcDbEntity
  8
_0-2_
  6
CONTINUOUS
 62
     0
100
AcDbLine
 10
895.9864762856
 20
1535.299768036
 11
894.0364762856
 21
1535.299768036
  0
ARC
  5
334
100
AcDbEntity
  8
_0-2_
  6
CONTINUOUS
 62
     0
100
AcDbCircle
 10
895.9864762856
 20
1534.999768036
 40
0.3
100
AcDbArc
 50
0
 51
90
  0
LINE
  5
335
100
AcDbEntity
  8
_0-2_
  6
CONTINUOUS
 62
     0
100
AcDbLine
 10
863.2864762856
 20
1531.299769036
 11
874.7864752856
 21
1531.299769036
  0
LINE
  5
336
100
AcDbEntity
  8
_0-2_
  6
CONTINUOUS
 62
     0
100
AcDbLine
 10
863.5864762856
 20
1536.799768036
 11
865.5364762856
 21
1536.799768036
  0
ARC
  5
337
100
AcDbEntity
  8
_0-2_
  6
CONTINUOUS
 62
     0
100
AcDbCircle
 10
863.5864762856
 20
1537.099768036
 40
0.3
100
AcDbArc
 50
180
 51
270
  0
LINE
  5
338
100
AcDbEntity
  8
_0-2_
  6
CONTINUOUS
 62
     0
100
AcDbLine
 10
863.2864762856
 20
1537.099768036
 11
863.2864762856
 21
1538.999770036
  0
ARC
  5
339
100
AcDbEntity
  8
_0-2_
  6
CONTINUOUS
 62
     0
100
AcDbCircle
 10
863.5864762856
 20
1538.999770036
 40
0.3
100
AcDbArc
 50
90
 51
180
  0
LINE
  5
33A
100
AcDbEntity
  8
_0-2_
  6
CONTINUOUS
 62
     0
100
AcDbLine
 10
862.2864772856
 20
1540.799770036
 11
866.5364752856
 21
1540.799770036
  0
ARC
  5
33B
100
AcDbEntity
  8
_0-2_
  6
CONTINUOUS
 62
     0
100
AcDbCircle
 10
862.2864772856
 20
1540.299769036
 40
0.500001
100
AcDbArc
 50
90
 51
180
  0
ARC
  5
33C
100
AcDbEntity
  8
_0-2_
  6
CONTINUOUS
 62
     0
100
AcDbCircle
 10
866.5364752856
 20
1540.049770036
 40
0.75
100
AcDbArc
 50
-90
 51
90
  0
LINE
  5
33D
100
AcDbEntity
  8
_0-2_
  6
CONTINUOUS
 62
     0
100
AcDbLine
 10
861.7864762856
 20
1540.299769036
 11
861.7864762856
 21
1530.799768036
  0
LINE
  5
33E
100
AcDbEntity
  8
_0-2_
  6
CONTINUOUS
 62
     0
100
AcDbLine
 10
863.2864762856
 20
1531.299769036
 11
863.2864762856
 21
1530.799768036
  0
ARC
  5
33F
100
AcDbEntity
  8
_0-2_
  6
CONTINUOUS
 62
     0
100
AcDbCircle
 10
865.5364762856
 20
1536.049768036
 40
0.75
100
AcDbArc
 50
-90
 51
90
  0
ARC
  5
340
100
AcDbEntity
  8
_0-2_
  6
CONTINUOUS
 62
     0
100
AcDbCircle
 10
863.5864762856
 20
1533.599770036
 40
0.3
100
AcDbArc
 50
180
 51
270
  0
LINE
  5
341
100
AcDbEntity
  8
_0-2_
  6
CONTINUOUS
 62
     0
100
AcDbLine
 10
863.2864762856
 20
1533.599770036
 11
863.2864762856
 21
1534.999768036
  0
ARC
  5
342
100
AcDbEntity
  8
_0-2_
  6
CONTINUOUS
 62
     0
100
AcDbCircle
 10
863.5864762856
 20
1534.999768036
 40
0.3
100
AcDbArc
 50
90
 51
180
  0
LINE
  5
343
100
AcDbEntity
  8
_0-2_
  6
CONTINUOUS
 62
     0
100
AcDbLine
 10
863.5864762856
 20
1535.299768036
 11
865.5364762856
 21
1535.299768036
  0
ARC
  5
344
100
AcDbEntity
  8
_0-2_
  6
CONTINUOUS
 62
     0
100
AcDbCircle
 10
895.7864752856
 20
1533.799768036
 40
0.500001
100
AcDbArc
 50
-90
 51
0
  0
LINE
  5
345
100
AcDbEntity
  8
_0-2_
  6
CONTINUOUS
 62
     0
100
AcDbLine
 10
895.7864752856
 20
1533.299770036
 11
863.5864762856
 21
1533.299770036
  0
LINE
  5
346
100
AcDbEntity
  8
_0-2_
  6
CONTINUOUS
 62
     0
100
AcDbLine
 10
863.2864762856
 20
1530.799768036
 11
861.7864762856
 21
1530.799768036
  0
ARC
  5
347
100
AcDbEntity
  8
_0-2_
  6
CONTINUOUS
 62
     0
100
AcDbCircle
 10
897.2864752856
 20
1548.799768036
 40
0.999999
100
AcDbArc
 50
0
 51
180
  0
LINE
  5
348
100
AcDbEntity
  8
_0-2_
  6
CONTINUOUS
 62
     0
100
AcDbLine
 10
896.2864762856
 20
1541.299768036
 11
896.2864762856
 21
1548.799768036
  0
LINE
  5
349
100
AcDbEntity
  8
_0-2_
  6
CONTINUOUS
 62
     0
100
AcDbLine
 10
896.2864762856
 20
1537.099768036
 11
896.2864762856
 21
1538.999770036
  0
ARC
  5
34A
100
AcDbEntity
  8
_0-2_
  6
CONTINUOUS
 62
     0
100
AcDbCircle
 10
898.7864752856
 20
1533.799768036
 40
0.500001
100
AcDbArc
 50
180
 51
270
  0
LINE
  5
34B
100
AcDbEntity
  8
_0-2_
  6
CONTINUOUS
 62
     0
100
AcDbLine
 10
898.2864772856
 20
1531.799770036
 11
898.2864772856
 21
1530.799768036
  0
LINE
  5
34C
100
AcDbEntity
  8
_0-2_
  6
CONTINUOUS
 62
     0
100
AcDbLine
 10
896.2864762856
 20
1531.299769036
 11
896.2864762856
 21
1530.799768036
  0
LINE
  5
34D
100
AcDbEntity
  8
_0-2_
  6
CONTINUOUS
 62
     0
100
AcDbLine
 10
896.2864762856
 20
1533.799768036
 11
896.2864762856
 21
1534.999768036
  0
LINE
  5
34E
100
AcDbEntity
  8
_0-2_
  6
CONTINUOUS
 62
     0
100
AcDbLine
 10
908.7864772856
 20
1531.799770036
 11
908.7864772856
 21
1530.799768036
  0
LINE
  5
34F
100
AcDbEntity
  8
_0-2_
  6
CONTINUOUS
 62
     0
100
AcDbLine
 10
910.2864772856
 20
1530.799768036
 11
908.7864772856
 21
1530.799768036
  0
LINE
  5
350
100
AcDbEntity
  8
_0-2_
  6
CONTINUOUS
 62
     0
100
AcDbLine
 10
898.2864772856
 20
1530.799768036
 11
896.2864762856
 21
1530.799768036
  0
LINE
  5
351
100
AcDbEntity
  8
_0-2_
  6
CONTINUOUS
 62
     0
100
AcDbLine
 10
910.2864772856
 20
1532.799770036
 11
910.2864772856
 21
1530.799768036
  0
ARC
  5
352
100
AcDbEntity
  8
_0-2_
  6
CONTINUOUS
 62
     0
100
AcDbCircle
 10
909.7864772856
 20
1532.799770036
 40
0.5
100
AcDbArc
 50
0
 51
90
  0
LINE
  5
353
100
AcDbEntity
  8
_0-2_
  6
CONTINUOUS
 62
     0
100
AcDbLine
 10
898.5364772856
 20
1536.549770036
 11
899.7864772857
 21
1536.549770036
  0
LINE
  5
354
100
AcDbEntity
  8
_0-2_
  6
CONTINUOUS
 62
     0
100
AcDbLine
 10
902.7864772857
 20
1536.549770036
 11
904.0364772856
 21
1536.549770036
  0
ARC
  5
355
100
AcDbEntity
  8
_0-2_
  6
CONTINUOUS
 62
     0
100
AcDbCircle
 10
929.6330827579
 20
1579.485162658
 40
0.5
100
AcDbArc
 50
-99.19866089521
 51
78.59045565079
  0
ARC
  5
356
100
AcDbEntity
  8
_0-2_
  6
CONTINUOUS
 62
     0
100
AcDbCircle
 10
924.7864772857
 20
1555.469325895
 40
25
100
AcDbArc
 50
78.59045565079
 51
180
  0
ARC
  5
357
100
AcDbEntity
  8
_0-2_
  6
CONTINUOUS
 62
     0
100
AcDbCircle
 10
925.8624228796
 20
1556.200957394
 40
23.08754100601
100
AcDbArc
 50
80.80133910481
 51
181.8159758207
  0
LINE
  5
358
100
AcDbEntity
  8
_0-2_
  6
CONTINUOUS
 62
     0
100
AcDbLine
 10
898.2864772856
 20
1531.799770036
 11
905.7924261594
 21
1531.799770036
  0
LINE
  5
359
100
AcDbEntity
  8
_0-2_
  6
CONTINUOUS
 62
     0
100
AcDbLine
 10
905.7924261594
 20
1531.799770036
 11
908.7864772856
 21
1531.799770036
  0
LINE
  5
35A
100
AcDbEntity
  8
_0-2_
  6
CONTINUOUS
 62
     0
100
AcDbLine
 10
903.7864772856
 20
1533.299770036
 11
898.7864752856
 21
1533.299770036
  0
LINE
  5
35B
100
AcDbEntity
  8
_0-2_
  6
CONTINUOUS
 62
     0
100
AcDbLine
 10
909.7864772856
 20
1533.299770036
 11
905.7864772856
 21
1533.299770036
  0
ARC
  5
35C
100
AcDbEntity
  8
_0-2_
  6
CONTINUOUS
 62
     0
100
AcDbCircle
 10
903.7864772856
 20
1533.799770036
 40
0.25
100
AcDbArc
 50
-90
 51
0
  0
ARC
  5
35D
100
AcDbEntity
  8
_0-2_
  6
CONTINUOUS
 62
     0
100
AcDbCircle
 10
898.7864752856
 20
1533.799768036
 40
0.250001
100
AcDbArc
 50
180
 51
270
  0
LINE
  5
35E
100
AcDbEntity
  8
_0-2_
  6
CONTINUOUS
 62
     0
100
AcDbLine
 10
904.0364772856
 20
1533.799770036
 11
904.0364772856
 21
1536.549770036
  0
LINE
  5
35F
100
AcDbEntity
  8
_0-2_
  6
CONTINUOUS
 62
     0
100
AcDbLine
 10
898.5364772856
 20
1533.799768036
 11
898.5364772856
 21
1536.549770036
  0
LINE
  5
360
100
AcDbEntity
  8
_0-2_
  6
CONTINUOUS
 62
     0
100
AcDbLine
 10
903.7864772856
 20
1533.549770036
 11
898.7864752856
 21
1533.549770036
  0
LINE
  5
361
100
AcDbEntity
  8
_0-2_
  6
CONTINUOUS
 62
     0
100
AcDbLine
 10
898.2864772856
 20
1548.799768036
 11
898.2864772856
 21
1538.299770036
  0
LINE
  5
362
100
AcDbEntity
  8
_0-2_
  6
CONTINUOUS
 62
     0
100
AcDbLine
 10
898.2864772856
 20
1536.799770036
 11
898.2864772856
 21
1533.799768036
  0
LINE
  5
363
100
AcDbEntity
  8
_0-2_
  6
CONTINUOUS
 62
     0
100
AcDbLine
 10
904.2864772856
 20
1533.799770036
 11
904.2864772856
 21
1536.799770036
  0
LINE
  5
364
100
AcDbEntity
  8
_0-2_
  6
CONTINUOUS
 62
     0
100
AcDbLine
 10
905.7864772856
 20
1537.799770036
 11
905.7864772856
 21
1533.299770036
  0
ARC
  5
365
100
AcDbEntity
  8
_0-2_
  6
CONTINUOUS
 62
     0
100
AcDbCircle
 10
905.2864772856
 20
1537.799770036
 40
0.5
100
AcDbArc
 50
0
 51
90
  0
ARC
  5
366
100
AcDbEntity
  8
_0-2_
  6
CONTINUOUS
 62
     0
100
AcDbCircle
 10
903.7864772856
 20
1533.799770036
 40
0.5
100
AcDbArc
 50
-90
 51
0
  0
LINE
  5
367
100
AcDbEntity
  8
_0-2_
  6
CONTINUOUS
 62
     0
100
AcDbLine
 10
905.2864772856
 20
1538.299770036
 11
904.0364772856
 21
1538.299770036
  0
ARC
  5
368
100
AcDbEntity
  8
_0-2_
  6
CONTINUOUS
 62
     0
100
AcDbCircle
 10
904.0364772856
 20
1537.299770036
 40
1
100
AcDbArc
 50
90
 51
180
  0
LINE
  5
369
100
AcDbEntity
  8
_0-2_
  6
CONTINUOUS
 62
     0
100
AcDbLine
 10
903.0364772856
 20
1537.299770036
 11
903.0364772856
 21
1536.799770036
  0
LINE
  5
36A
100
AcDbEntity
  8
_0-2_
  6
CONTINUOUS
 62
     0
100
AcDbLine
 10
903.0364772856
 20
1536.799770036
 11
904.2864772856
 21
1536.799770036
  0
LINE
  5
36B
100
AcDbEntity
  8
_0-2_
  6
CONTINUOUS
 62
     0
100
AcDbLine
 10
898.2864772856
 20
1536.799770036
 11
899.5364772856
 21
1536.799770036
  0
LINE
  5
36C
100
AcDbEntity
  8
_0-2_
  6
CONTINUOUS
 62
     0
100
AcDbLine
 10
899.5364772856
 20
1537.299770036
 11
899.5364772856
 21
1536.799770036
  0
ARC
  5
36D
100
AcDbEntity
  8
_0-2_
  6
CONTINUOUS
 62
     0
100
AcDbCircle
 10
898.5364772856
 20
1537.299770036
 40
1
100
AcDbArc
 50
0
 51
90
  0
LINE
  5
36E
100
AcDbEntity
  8
_0-2_
  6
CONTINUOUS
 62
     0
100
AcDbLine
 10
898.5364772856
 20
1538.299770036
 11
898.2864772856
 21
1538.299770036
  0
LINE
  5
36F
100
AcDbEntity
  8
_0-2_
  6
CONTINUOUS
 62
     0
100
AcDbLine
 10
894.7864762856
 20
1529.666536697
 11
894.7864762856
 21
1530.790999036
  0
LINE
  5
370
100
AcDbEntity
  8
_0-2_
  6
CONTINUOUS
 62
     0
100
AcDbLine
 10
864.7864762856
 20
1530.790999036
 11
894.7864762856
 21
1530.790999036
  0
LINE
  5
371
100
AcDbEntity
  8
_0-2_
  6
CONTINUOUS
 62
     0
100
AcDbLine
 10
879.768803
 20
1374.168365222
 11
882.768803
 21
1374.918365222
  0
LINE
  5
372
100
AcDbEntity
  8
_0-2_
  6
CONTINUOUS
 62
     0
100
AcDbLine
 10
879.768803
 20
1374.168365222
 11
882.768803
 21
1373.418365222
  0
LINE
  5
373
100
AcDbEntity
  8
_0-2_
  6
CONTINUOUS
 62
     0
100
AcDbLine
 10
929.768804
 20
1374.168365222
 11
926.768804
 21
1373.418365222
  0
LINE
  5
374
100
AcDbEntity
  8
_0-2_
  6
CONTINUOUS
 62
     0
100
AcDbLine
 10
929.768804
 20
1374.168365222
 11
926.768804
 21
1374.918365222
  0
LINE
  5
375
100
AcDbEntity
  8
_0-2_
  6
CONTINUOUS
 62
     0
100
AcDbLine
 10
879.768803
 20
1482.357596036
 11
879.768803
 21
1370.168363222
  0
LINE
  5
376
100
AcDbEntity
  8
_0-2_
  6
CONTINUOUS
 62
     0
100
AcDbLine
 10
929.768804
 20
1374.168365222
 11
879.768803
 21
1374.168365222
  0
LINE
  5
377
100
AcDbEntity
  8
_0-2_
  6
CONTINUOUS
 62
     0
100
AcDbLine
 10
929.768804
 20
1528.790999036
 11
929.768804
 21
1363.548977222
  0
TEXT
  5
378
100
AcDbEntity
  8
_0-2_
  6
CONTINUOUS
 62
     0
100
AcDbText
 10
899.1890912228
 20
1373.937863682
 40
9
  1
50
  7
STANDARD
100
AcDbText
  0
LINE
  5
379
100
AcDbEntity
  8
_0-2_
  6
CONTINUOUS
 62
     0
100
AcDbLine
 10
899.7864772857
 20
1536.549770036
 11
899.7728320724
 21
1556.518196589
  0
LINE
  5
37A
100
AcDbEntity
  8
_0-2_
  6
CONTINUOUS
 62
     0
100
AcDbLine
 10
902.7864772857
 20
1536.549770036
 11
902.7728320724
 21
1557.981459585
  0
LINE
  5
37B
100
AcDbEntity
  8
_0-3_
  6
CONTINUOUS
 62
     0
100
AcDbLine
 10
882.1313093428
 20
1565.858770893
 11
899.9568418818
 21
1596.733498923
  0
CIRCLE
  5
37C
100
AcDbEntity
  8
_0-3_
  6
CONTINUOUS
 62
     0
100
AcDbCircle
 10
882.1313093428
 20
1565.858770893
 40
0.9
  0
LINE
  5
37D
100
AcDbEntity
  8
_0-2_
  6
CONTINUOUS
 62
     0
100
AcDbLine
 10
870.1362964559
 20
1578.089662556
 11
893.1047764559
 21
1576.885936556
  0
LINE
  5
37E
100
AcDbEntity
  8
_0-2_
  6
CONTINUOUS
 62
     0
100
AcDbLine
 10
856.6887274559
 20
1565.872753556
 11
870.1362964559
 21
1578.089662556
  0
LINE
  5
37F
100
AcDbEntity
  8
_0-2_
  6
CONTINUOUS
 62
     0
100
AcDbLine
 10
852.8399044559
 20
1568.079379556
 11
853.5011404559
 21
1568.529679556
  0
LINE
  5
380
100
AcDbEntity
  8
_0-2_
  6
CONTINUOUS
 62
     0
100
AcDbLine
 10
853.5011404559
 20
1568.529679556
 11
855.1897564559
 21
1566.050047556
  0
LINE
  5
381
100
AcDbEntity
  8
_0-2_
  6
CONTINUOUS
 62
     0
100
AcDbLine
 10
852.8399044559
 20
1568.079379556
 11
854.5285204559
 21
1565.599747556
  0
ARC
  5
382
100
AcDbEntity
  8
_0-2_
  6
CONTINUOUS
 62
     0
100
AcDbCircle
 10
856.0162984559
 20
1566.612919556
 40
0.999999
100
AcDbArc
 50
-145.745342
 51
-47.74534800001
  0
ARC
  5
383
100
AcDbEntity
  8
_0-2_
  6
CONTINUOUS
 62
     0
100
AcDbCircle
 10
856.0162984559
 20
1566.612919556
 40
1.8
100
AcDbArc
 50
-145.745342
 51
-47.745349
  0
ARC
  5
384
100
AcDbEntity
  8
_0-2_
  6
CONTINUOUS
 62
     0
100
AcDbCircle
 10
881.5420324559
 20
1575.989854556
 40
6.3
100
AcDbArc
 50
37.903458
 51
136.096542
  0
LINE
  5
385
100
AcDbEntity
  8
_0-2_
  6
CONTINUOUS
 62
     0
100
AcDbLine
 10
876.4465834559
 20
1579.076341556
 11
876.3777304559
 21
1577.762563556
  0
LINE
  5
386
100
AcDbEntity
  8
_0-2_
  6
CONTINUOUS
 62
     0
100
AcDbLine
 10
886.9321924559
 20
1578.526813556
 11
886.8633424559
 21
1577.213035556
  0
ARC
  5
387
100
AcDbEntity
  8
_0-2_
  6
CONTINUOUS
 62
     0
100
AcDbCircle
 10
878.4438424559
 20
1578.971671556
 40
2.000001
100
AcDbArc
 50
136.096542
 51
177
  0
LINE
  5
388
100
AcDbEntity
  8
_0-2_
  6
CONTINUOUS
 62
     0
100
AcDbLine
 10
857.2266664559
 20
1565.280622556
 11
870.4274254559
 21
1577.273308556
  0
LINE
  5
389
100
AcDbEntity
  8
_0-2_
  6
CONTINUOUS
 62
     0
100
AcDbLine
 10
870.4274254559
 20
1577.273308556
 11
892.7707534559
 21
1576.102342556
  0
LINE
  5
38A
100
AcDbEntity
  8
_0-2_
  6
CONTINUOUS
 62
     0
100
AcDbLine
 10
904.6047754559
 20
1562.797642556
 11
892.7299084559
 21
1576.104484556
  0
ARC
  5
38B
100
AcDbEntity
  8
_0-2_
  6
CONTINUOUS
 62
     0
100
AcDbCircle
 10
884.9349334559
 20
1578.631486556
 40
2.000001
100
AcDbArc
 50
-2.999999999999
 51
37.903458
  0
LINE
  5
38C
100
AcDbEntity
  8
_0-2_
  6
CONTINUOUS
 62
     0
100
AcDbLine
 10
909.2600584559
 20
1565.122525556
 11
908.6495134559
 21
1565.639473556
  0
LINE
  5
38D
100
AcDbEntity
  8
_0-2_
  6
CONTINUOUS
 62
     0
100
AcDbLine
 10
908.6495134559
 20
1565.639473556
 11
906.7109554559
 21
1563.349933556
  0
LINE
  5
38E
100
AcDbEntity
  8
_0-2_
  6
CONTINUOUS
 62
     0
100
AcDbLine
 10
909.2600584559
 20
1565.122525556
 11
907.3215004559
 21
1562.832985556
  0
ARC
  5
38F
100
AcDbEntity
  8
_0-2_
  6
CONTINUOUS
 62
     0
100
AcDbCircle
 10
905.9477764559
 20
1563.996121556
 40
0.999999
100
AcDbArc
 50
-138.254652
 51
-40.254658
  0
LINE
  5
390
100
AcDbEntity
  8
_0-2_
  6
CONTINUOUS
 62
     0
100
AcDbLine
 10
905.2016644559
 20
1563.330298556
 11
893.1047764559
 21
1576.885936556
  0
ARC
  5
391
100
AcDbEntity
  8
_0-2_
  6
CONTINUOUS
 62
     0
100
AcDbCircle
 10
905.9477764559
 20
1563.996121556
 40
1.8
100
AcDbArc
 50
-138.254651
 51
-40.254658
  0
LINE
  5
392
100
AcDbEntity
  8
_0-2_
  6
CONTINUOUS
 62
     0
100
AcDbLine
 10
881.9270344559
 20
1583.336149556
 11
879.7807668091
 21
1544.669252621
  0
LINE
  5
393
100
AcDbEntity
  8
_0-2_
  6
CONTINUOUS
 62
     0
100
AcDbLine
 10
884.6164264559
 20
1577.330791556
 11
882.9148048206
 21
1547.879485746
  0
LINE
  5
394
100
AcDbEntity
  8
_0-2_
  6
CONTINUOUS
 62
     0
100
AcDbLine
 10
878.6246464559
 20
1577.644807556
 11
876.9230287459
 21
1548.193501155
  0
LINE
  5
395
100
AcDbEntity
  8
_0-2_
  6
CONTINUOUS
 62
     0
100
AcDbLine
 10
876.9230287459
 20
1548.193501155
 11
882.9148048206
 21
1547.879485746
  0
LINE
  5
396
100
AcDbEntity
  8
_0-2_
  6
CONTINUOUS
 62
     0
100
AcDbLine
 10
884.1171094559
 20
1577.356960556
 11
882.3866507367
 21
1547.406478933
  0
LINE
  5
397
100
AcDbEntity
  8
_0-2_
  6
CONTINUOUS
 62
     0
100
AcDbLine
 10
879.1239634559
 20
1577.618638556
 11
877.3935005751
 21
1547.66815862
  0
LINE
  5
398
100
AcDbEntity
  8
_0-2_
  6
CONTINUOUS
 62
     0
100
AcDbLine
 10
877.3935005751
 20
1547.66815862
 11
882.3866507367
 21
1547.406478933
  0
LINE
  5
399
100
AcDbEntity
  8
_0-2_
  6
CONTINUOUS
 62
     0
100
AcDbLine
 10
882.5937631084
 20
1547.591965642
 11
882.3866507367
 21
1547.406478933
  0
LINE
  5
39A
100
AcDbEntity
  8
_0-2_
  6
CONTINUOUS
 62
     0
100
AcDbLine
 10
877.3935005751
 20
1547.66815862
 11
877.209007614
 21
1547.874168829
  0
LINE
  5
39B
100
AcDbEntity
  8
_0-2_
  6
CONTINUOUS
 62
     0
100
AcDbLine
 10
882.9148048206
 20
1547.879485746
 11
882.5937631084
 21
1547.591965642
  0
LINE
  5
39C
100
AcDbEntity
  8
_0-2_
  6
CONTINUOUS
 62
     0
100
AcDbLine
 10
877.209007614
 20
1547.874168829
 11
876.9230287459
 21
1548.193501155
  0
CIRCLE
  5
39D
100
AcDbEntity
  8
_0-3_
  6
CONTINUOUS
 62
     0
100
AcDbCircle
 10
898.3588061399
 20
1570.124885669
 40
0.9
  0
LINE
  5
39E
100
AcDbEntity
  8
_0-3_
  6
CONTINUOUS
 62
     0
100
AcDbLine
 10
898.3588061399
 20
1570.124885669
 11
916.6458959122
 21
1601.799054277
  0
CIRCLE
  5
39F
100
AcDbEntity
  8
_0-3_
  6
CONTINUOUS
 62
     0
100
AcDbCircle
 10
919.381045209
 20
1607.044333045
 40
6
  0
TEXT
  5
3A0
100
AcDbEntity
  8
_0-3_
  6
CONTINUOUS
 62
     0
100
AcDbText
 10
915.0625577555
 20
1602.866394677
 40
9
  1
５
  7
STANDARD
100
AcDbText
  0
CIRCLE
  5
3A1
100
AcDbEntity
  8
_0-3_
  6
CONTINUOUS
 62
     0
100
AcDbCircle
 10
902.8873464956
 20
1602.307110664
 40
6
  0
TEXT
  5
3A2
100
AcDbEntity
  8
_0-3_
  6
CONTINUOUS
 62
     0
100
AcDbText
 10
898.6244623066
 20
1597.477930974
 40
9
  1
10
  7
STANDARD
100
AcDbText
  0
TEXT
  5
3A3
100
AcDbEntity
  8
_0-0_
  6
CONTINUOUS
 62
     0
100
AcDbText
 10
53.7131753758
 20
1759.559561825
 40
9.99
  1
◇ステンレス３５０タイプ（３５０ＦＹＹＧ－Ｓ）
 41
1.001001001001
  7
STANDARD
100
AcDbText
  0
LINE
  5
3A4
100
AcDbEntity
  8
_0-1_PRO0
  6
CONTINUOUS
 62
     0
100
AcDbLine
 10
141.536278
 20
1499.921551036
 11
141.536278
 21
1498.921551036
  0
LINE
  5
3A5
100
AcDbEntity
  8
_0-1_PRO0
  6
CONTINUOUS
 62
     0
100
AcDbLine
 10
152.974784
 20
1569.628805036
 11
629.794972
 21
1594.617892024
  0
LINE
  5
3A6
100
AcDbEntity
  8
_0-1_PRO0
  6
CONTINUOUS
 62
     0
100
AcDbLine
 10
159.003876
 20
1572.728091036
 11
629.768804
 21
1597.399835024
  0
LINE
  5
3A7
100
AcDbEntity
  8
_0-1_PRO0
  6
CONTINUOUS
 62
     0
100
AcDbLine
 10
159.239388
 20
1568.234258036
 11
629.768804
 21
1592.893660024
  0
LINE
  5
3A8
100
AcDbEntity
  8
_0-1_PRO0
  6
CONTINUOUS
 62
     0
100
AcDbLine
 10
159.317892
 20
1566.736314036
 11
629.768804
 21
1591.391601024
  0
LINE
  5
3A9
100
AcDbEntity
  8
_0-1_PRO0
  6
CONTINUOUS
 62
     0
100
AcDbLine
 10
160.08723
 20
1552.056459036
 11
629.768804
 21
1576.671428024
  0
LINE
  5
3AA
100
AcDbEntity
  8
_0-1_PRO0
  6
CONTINUOUS
 62
     0
100
AcDbLine
 10
160.181435
 20
1550.258926036
 11
629.768804
 21
1574.868957024
  0
LINE
  5
3AB
100
AcDbEntity
  8
_0-1_PRO0
  6
CONTINUOUS
 62
     0
100
AcDbLine
 10
160.338443
 20
1547.263038036
 11
629.768804
 21
1571.864840024
  0
LINE
  5
3AC
100
AcDbEntity
  8
_0-1_PRO0
  6
CONTINUOUS
 62
     0
100
AcDbLine
 10
160.416947
 20
1545.765093036
 11
629.768804
 21
1570.362782024
  0
LINE
  5
3AD
100
AcDbEntity
  8
_0-1_PRO0
  6
CONTINUOUS
 62
     0
100
AcDbLine
 10
160.469283
 20
1544.766464036
 11
629.768804
 21
1569.361410024
  0
LINE
  5
3AE
100
AcDbEntity
  8
_0-1_PRO0
  6
CONTINUOUS
 62
     0
100
AcDbLine
 10
132.611796
 20
1575.070546036
 11
629.768804
 21
1601.125441024
  0
ARC
  5
3AF
100
AcDbEntity
  8
_0-1_PRO0
  6
CONTINUOUS
 62
     0
100
AcDbCircle
 10
152.929965
 20
1566.622339036
 40
7.5
100
AcDbArc
 50
93
 51
169.875328
  0
LINE
  5
3B0
100
AcDbEntity
  8
_0-1_PRO0
  6
CONTINUOUS
 62
     0
100
AcDbLine
 10
166.009317
 20
1574.818091036
 11
167.646383
 21
1573.181025036
  0
LINE
  5
3B1
100
AcDbEntity
  8
_0-1_PRO0
  6
CONTINUOUS
 62
     0
100
AcDbLine
 10
164.665529
 20
1574.747666036
 11
166.302594
 21
1573.110600036
  0
LINE
  5
3B2
100
AcDbEntity
  8
_0-1_PRO0
  6
CONTINUOUS
 62
     0
100
AcDbLine
 10
163.32174
 20
1574.677241036
 11
164.958806
 21
1573.040175036
  0
LINE
  5
3B3
100
AcDbEntity
  8
_0-1_PRO0
  6
CONTINUOUS
 62
     0
100
AcDbLine
 10
161.977951
 20
1574.606816036
 11
163.615017
 21
1572.969750036
  0
LINE
  5
3B4
100
AcDbEntity
  8
_0-1_PRO0
  6
CONTINUOUS
 62
     0
100
AcDbLine
 10
160.634163
 20
1574.536391036
 11
162.271228
 21
1572.899326036
  0
LINE
  5
3B5
100
AcDbEntity
  8
_0-1_PRO0
  6
CONTINUOUS
 62
     0
100
AcDbLine
 10
159.290374
 20
1574.465966036
 11
160.92744
 21
1572.828901036
  0
LINE
  5
3B6
100
AcDbEntity
  8
_0-1_PRO0
  6
CONTINUOUS
 62
     0
100
AcDbLine
 10
159.583651
 20
1572.758476036
 11
158.97013
 21
1573.371996036
  0
LINE
  5
3B7
100
AcDbEntity
  8
_0-1_PRO0
  6
CONTINUOUS
 62
     0
100
AcDbLine
 10
167.342355
 20
1574.887953036
 11
168.979421
 21
1573.250887036
  0
LINE
  5
3B8
100
AcDbEntity
  8
_0-1_PRO0
  6
CONTINUOUS
 62
     0
100
AcDbLine
 10
168.696894
 20
1574.958941036
 11
168.911957
 21
1574.743879036
  0
ARC
  5
3B9
100
AcDbEntity
  8
_0-1_PRO0
  6
CONTINUOUS
 62
     0
100
AcDbCircle
 10
132.768804
 20
1487.921551036
 40
3
100
AcDbArc
 50
180
 51
270
  0
LINE
  5
3BA
100
AcDbEntity
  8
_0-1_PRO0
  6
CONTINUOUS
 62
     0
100
AcDbLine
 10
132.768804
 20
1484.921551036
 11
139.768804
 21
1484.921551036
  0
ARC
  5
3BB
100
AcDbEntity
  8
_0-1_PRO0
  6
CONTINUOUS
 62
     0
100
AcDbCircle
 10
132.768804
 20
1572.074657036
 40
3
100
AcDbArc
 50
93
 51
180
  0
LINE
  5
3BC
100
AcDbEntity
  8
_0-1_PRO0
  6
CONTINUOUS
 62
     0
100
AcDbLine
 10
129.768804
 20
1572.074657036
 11
129.768804
 21
1487.921551036
  0
LINE
  5
3BD
100
AcDbEntity
  8
_0-1_PRO0
  6
CONTINUOUS
 62
     0
100
AcDbLine
 10
145.546759
 20
1567.940769036
 11
131.768804
 21
1490.784221036
  0
LINE
  5
3BE
100
AcDbEntity
  8
_0-1_PRO0
  6
CONTINUOUS
 62
     0
100
AcDbLine
 10
149.976683
 20
1567.149711036
 11
136.199997
 21
1490.000273036
  0
ARC
  5
3BF
100
AcDbEntity
  8
_0-1_PRO0
  6
CONTINUOUS
 62
     0
100
AcDbCircle
 10
152.929965
 20
1566.622339036
 40
3
100
AcDbArc
 50
93
 51
169.875328
  0
LINE
  5
3C0
100
AcDbEntity
  8
_0-1_PRO0
  6
CONTINUOUS
 62
     0
100
AcDbLine
 10
136.686102
 20
1497.721551036
 11
145.936278
 21
1497.721551036
  0
ARC
  5
3C1
100
AcDbEntity
  8
_0-1_PRO0
  6
CONTINUOUS
 62
     0
100
AcDbCircle
 10
136.686102
 20
1497.221551036
 40
0.5
100
AcDbArc
 50
90
 51
168
  0
LINE
  5
3C2
100
AcDbEntity
  8
_0-1_PRO0
  6
CONTINUOUS
 62
     0
100
AcDbLine
 10
136.197028
 20
1497.325507036
 11
134.768804
 21
1490.606238036
  0
LINE
  5
3C3
100
AcDbEntity
  8
_0-1_PRO0
  6
CONTINUOUS
 62
     0
100
AcDbLine
 10
134.768804
 20
1490.606238036
 11
134.768804
 21
1486.921551036
  0
LINE
  5
3C4
100
AcDbEntity
  8
_0-1_PRO0
  6
CONTINUOUS
 62
     0
100
AcDbLine
 10
134.268804
 20
1486.921551036
 11
134.768804
 21
1486.921551036
  0
ARC
  5
3C5
100
AcDbEntity
  8
_0-1_PRO0
  6
CONTINUOUS
 62
     0
100
AcDbCircle
 10
134.268804
 20
1489.421551036
 40
2.5
100
AcDbArc
 50
180
 51
270
  0
LINE
  5
3C6
100
AcDbEntity
  8
_0-1_PRO0
  6
CONTINUOUS
 62
     0
100
AcDbLine
 10
145.936278
 20
1498.921551036
 11
143.536278
 21
1498.921551036
  0
LINE
  5
3C7
100
AcDbEntity
  8
_0-1_PRO0
  6
CONTINUOUS
 62
     0
100
AcDbLine
 10
143.536278
 20
1498.921551036
 11
141.536278
 21
1499.921551036
  0
ARC
  5
3C8
100
AcDbEntity
  8
_0-1_PRO0
  6
CONTINUOUS
 62
     0
100
AcDbCircle
 10
145.936278
 20
1498.321551036
 40
0.6
100
AcDbArc
 50
-90
 51
90
  0
LINE
  5
3C9
100
AcDbEntity
  8
_0-1_PRO0
  6
CONTINUOUS
 62
     0
100
AcDbLine
 10
137.153727
 20
1498.921551036
 11
141.536278
 21
1498.921551036
  0
ARC
  5
3CA
100
AcDbEntity
  8
_0-1_PRO0
  6
CONTINUOUS
 62
     0
100
AcDbCircle
 10
137.153727
 20
1499.421551036
 40
0.5
100
AcDbArc
 50
168
 51
270
  0
ARC
  5
3CB
100
AcDbEntity
  8
_0-1_PRO0
  6
CONTINUOUS
 62
     0
100
AcDbCircle
 10
158.367352
 20
1546.659051036
 40
0.5
100
AcDbArc
 50
3.000000000005
 51
93.00000000001
  0
LINE
  5
3CC
100
AcDbEntity
  8
_0-1_PRO0
  6
CONTINUOUS
 62
     0
100
AcDbLine
 10
158.866667
 20
1546.685219036
 11
158.919003
 21
1545.686589036
  0
LINE
  5
3CD
100
AcDbEntity
  8
_0-1_PRO0
  6
CONTINUOUS
 62
     0
100
AcDbLine
 10
159.444485
 20
1545.213443036
 11
159.9438
 21
1545.239611036
  0
ARC
  5
3CE
100
AcDbEntity
  8
_0-1_PRO0
  6
CONTINUOUS
 62
     0
100
AcDbCircle
 10
159.917632
 20
1545.738925036
 40
0.5
100
AcDbArc
 50
-86.99999999999
 51
3.000000000005
  0
ARC
  5
3CF
100
AcDbEntity
  8
_0-1_PRO0
  6
CONTINUOUS
 62
     0
100
AcDbCircle
 10
159.418317
 20
1545.712757036
 40
0.5
100
AcDbArc
 50
-177
 51
-87
  0
LINE
  5
3D0
100
AcDbEntity
  8
_0-1_PRO0
  6
CONTINUOUS
 62
     0
100
AcDbLine
 10
150.666105
 20
1546.756132036
 11
158.341184
 21
1547.158366036
  0
ARC
  5
3D1
100
AcDbEntity
  8
_0-1_PRO0
  6
CONTINUOUS
 62
     0
100
AcDbCircle
 10
150.692273
 20
1546.256817036
 40
0.5
100
AcDbArc
 50
93.00000000001
 51
193
  0
LINE
  5
3D2
100
AcDbEntity
  8
_0-1_PRO0
  6
CONTINUOUS
 62
     0
100
AcDbLine
 10
150.205088
 20
1546.144342036
 11
150.788281
 21
1543.618257036
  0
LINE
  5
3D3
100
AcDbEntity
  8
_0-1_PRO0
  6
CONTINUOUS
 62
     0
100
AcDbLine
 10
148.602818
 20
1546.648000036
 11
147.425472
 21
1546.586298036
  0
ARC
  5
3D4
100
AcDbEntity
  8
_0-1_PRO0
  6
CONTINUOUS
 62
     0
100
AcDbCircle
 10
148.618519
 20
1546.348411036
 40
0.3
100
AcDbArc
 50
13
 51
93.00000000001
  0
LINE
  5
3D5
100
AcDbEntity
  8
_0-1_PRO0
  6
CONTINUOUS
 62
     0
100
AcDbLine
 10
148.91083
 20
1546.415896036
 11
149.619037
 21
1543.348316036
  0
ARC
  5
3D6
100
AcDbEntity
  8
_0-1_PRO0
  6
CONTINUOUS
 62
     0
100
AcDbCircle
 10
147.477808
 20
1545.587668036
 40
1
100
AcDbArc
 50
93
 51
168
  0
ARC
  5
3D7
100
AcDbEntity
  8
_0-1_PRO0
  6
CONTINUOUS
 62
     0
100
AcDbCircle
 10
150.203659
 20
1543.483287036
 40
0.6
100
AcDbArc
 50
-167
 51
13.00000000001
  0
LINE
  5
3D8
100
AcDbEntity
  8
_0-1_PRO0
  6
CONTINUOUS
 62
     0
100
AcDbLine
 10
143.724754
 20
1547.169874036
 11
131.768804
 21
1490.921551036
  0
LINE
  5
3D9
100
AcDbEntity
  8
_0-1_PRO0
  6
CONTINUOUS
 62
     0
100
AcDbLine
 10
146.49966
 20
1545.795580036
 11
136.664653
 21
1499.525507036
  0
LINE
  5
3DA
100
AcDbEntity
  8
_0-1_PRO0
  6
CONTINUOUS
 62
     0
100
AcDbLine
 10
136.199997
 20
1490.000273036
 11
131.768804
 21
1490.784221036
  0
LINE
  5
3DB
100
AcDbEntity
  8
_0-1_PRO0
  6
CONTINUOUS
 62
     0
100
AcDbLine
 10
158.913832
 20
1574.446233036
 11
159.003876
 21
1572.728091036
  0
LINE
  5
3DC
100
AcDbEntity
  8
_0-1_PRO0
  6
CONTINUOUS
 62
     0
100
AcDbLine
 10
168.900127
 20
1574.969592036
 11
168.990171
 21
1573.251450036
  0
ARC
  5
3DD
100
AcDbEntity
  8
_0-1_PRO0
  6
CONTINUOUS
 62
     0
100
AcDbCircle
 10
159.55128
 20
1552.729332036
 40
0.5
100
AcDbArc
 50
3.000000000005
 51
93
  0
LINE
  5
3DE
100
AcDbEntity
  8
_0-1_PRO0
  6
CONTINUOUS
 62
     0
100
AcDbLine
 10
158.184176
 20
1550.154254036
 11
146.502189
 21
1549.542027036
  0
ARC
  5
3DF
100
AcDbEntity
  8
_0-1_PRO0
  6
CONTINUOUS
 62
     0
100
AcDbCircle
 10
158.158008
 20
1550.653569036
 40
0.5
100
AcDbArc
 50
-86.99999999999
 51
3.000000000005
  0
LINE
  5
3E0
100
AcDbEntity
  8
_0-1_PRO0
  6
CONTINUOUS
 62
     0
100
AcDbLine
 10
158.657323
 20
1550.679737036
 11
158.552651
 21
1552.676996036
  0
ARC
  5
3E1
100
AcDbEntity
  8
_0-1_PRO0
  6
CONTINUOUS
 62
     0
100
AcDbCircle
 10
159.051966
 20
1552.703164036
 40
0.5
100
AcDbArc
 50
93.00000000001
 51
183
  0
LINE
  5
3E2
100
AcDbEntity
  8
_0-1_PRO0
  6
CONTINUOUS
 62
     0
100
AcDbLine
 10
159.025798
 20
1553.202479036
 11
159.525112
 21
1553.228647036
  0
LINE
  5
3E3
100
AcDbEntity
  8
_0-1_PRO0
  6
CONTINUOUS
 62
     0
100
AcDbLine
 10
159.003876
 20
1572.728091036
 11
160.469283
 21
1544.766464036
  0
ARC
  5
3E4
100
AcDbEntity
  8
_0-1_PRO0
  6
CONTINUOUS
 62
     0
100
AcDbCircle
 10
146.659197
 20
1546.546139036
 40
3
100
AcDbArc
 50
93
 51
168
  0
ARC
  5
3E5
100
AcDbEntity
  8
_0-1_PRO0
  6
CONTINUOUS
 62
     0
100
AcDbCircle
 10
188.720881
 20
1550.252557036
 40
1.5
100
AcDbArc
 50
-87
 51
93
  0
ARC
  5
3E6
100
AcDbEntity
  8
_0-0_
  6
CONTINUOUS
 62
     0
100
AcDbCircle
 10
132.768804
 20
1487.921551036
 40
1.5
100
AcDbArc
 50
180
 51
270
  0
LINE
  5
3E7
100
AcDbEntity
  8
_0-0_
  6
CONTINUOUS
 62
     0
100
AcDbLine
 10
131.268804
 20
1572.074657036
 11
131.268804
 21
1487.921551036
  0
ARC
  5
3E8
100
AcDbEntity
  8
_0-0_
  6
CONTINUOUS
 62
     0
100
AcDbCircle
 10
132.768804
 20
1572.074657036
 40
1.5
100
AcDbArc
 50
93
 51
180
  0
LINE
  5
3E9
100
AcDbEntity
  8
_0-0_
  6
CONTINUOUS
 62
     0
100
AcDbLine
 10
132.6902999351
 20
1573.572601733
 11
629.768804
 21
1599.623382505
  0
LINE
  5
3EA
100
AcDbEntity
  8
_0-0_
  6
CONTINUOUS
 62
     0
100
AcDbLine
 10
132.768804
 20
1486.421551036
 11
139.768804
 21
1486.421551036
  0
LINE
  5
3EB
100
AcDbEntity
  8
_0-1_PRO0
  6
CONTINUOUS
 62
     0
100
AcDbLine
 10
139.768804
 20
1486.421551036
 11
139.768804
 21
1484.921551036
  0
LINE
  5
3EC
100
AcDbEntity
  8
_0-1_PRO0
  6
CONTINUOUS
 62
     0
100
AcDbLine
 10
131.768804
 20
1490.921551036
 11
131.768804
 21
1489.421551036
  0
LINE
  5
3ED
100
AcDbEntity
  8
_0-1_PRO0
  6
CONTINUOUS
 62
     0
100
AcDbLine
 10
152.7392721969
 20
1574.122637942
 11
629.5594601969
 21
1599.111724931
  0
LINE
  5
3EE
100
AcDbEntity
  8
ADD_LINE
  6
DOT
 62
     0
100
AcDbLine
 10
132.6117961313
 20
1575.07054564
 11
129.768804
 21
1574.921550734
  0
LINE
  5
3EF
100
AcDbEntity
  8
_0-1_PRO0
  6
CONTINUOUS
 62
     0
100
AcDbLine
 10
129.768804
 20
1672.284509996
 11
135.768804
 21
1673.784509996
  0
LINE
  5
3F0
100
AcDbEntity
  8
_0-1_PRO0
  6
CONTINUOUS
 62
     0
100
AcDbLine
 10
129.768804
 20
1672.284509996
 11
135.768804
 21
1670.784509996
  0
LINE
  5
3F1
100
AcDbEntity
  8
_0-1_PRO0
  6
CONTINUOUS
 62
     0
100
AcDbLine
 10
129.768804
 20
1672.284509996
 11
1129.768804
 21
1672.284509996
  0
LINE
  5
3F2
100
AcDbEntity
  8
_0-1_PRO0
  6
CONTINUOUS
 62
     0
100
AcDbLine
 10
129.768804
 20
1575.695046024
 11
129.768804
 21
1676.284509996
  0
LINE
  5
3F3
100
AcDbEntity
  8
_0-1_PRO0
  6
CONTINUOUS
 62
     0
100
AcDbLine
 10
129.768804
 20
1489.041940024
 11
129.768804
 21
1316.683408812
  0
LINE
  5
3F4
100
AcDbEntity
  8
_0-1_PRO0
  6
CONTINUOUS
 62
     0
100
AcDbLine
 10
129.768804
 20
1322.683408812
 11
135.768804
 21
1324.183408812
  0
LINE
  5
3F5
100
AcDbEntity
  8
_0-1_PRO0
  6
CONTINUOUS
 62
     0
100
AcDbLine
 10
129.768804
 20
1322.683408812
 11
135.768804
 21
1321.183408812
  0
LINE
  5
3F6
100
AcDbEntity
  8
_0-1_PRO0
  6
CONTINUOUS
 62
     0
100
AcDbLine
 10
129.768804
 20
1322.683408812
 11
329.768804
 21
1322.683408812
  0
TEXT
  5
3F7
100
AcDbEntity
  8
_0-1_PRO0
  6
CONTINUOUS
 62
     0
100
AcDbText
 10
217.5885238297
 20
1324.222772207
 40
8.99
  1
２００
 41
0.7385984427141
  7
STANDARD
100
AcDbText
  0
LINE
  5
3F8
100
AcDbEntity
  8
_0-1_PRO0
  6
CONTINUOUS
 62
     0
100
AcDbLine
 10
454.768804
 20
1322.683408812
 11
460.768804
 21
1324.183408812
  0
LINE
  5
3F9
100
AcDbEntity
  8
_0-1_PRO0
  6
CONTINUOUS
 62
     0
100
AcDbLine
 10
454.768804
 20
1322.683408812
 11
460.768804
 21
1321.183408812
  0
LINE
  5
3FA
100
AcDbEntity
  8
_0-1_PRO0
  6
CONTINUOUS
 62
     0
100
AcDbLine
 10
454.768804
 20
1341.179248812
 11
454.768804
 21
1316.683408812
  0
LINE
  5
3FB
100
AcDbEntity
  8
_0-1_PRO0
  6
CONTINUOUS
 62
     0
100
AcDbLine
 10
454.768804
 20
1322.683408812
 11
448.768804
 21
1321.183408812
  0
LINE
  5
3FC
100
AcDbEntity
  8
_0-1_PRO0
  6
CONTINUOUS
 62
     0
100
AcDbLine
 10
454.768804
 20
1322.683408812
 11
448.768804
 21
1324.183408812
  0
LINE
  5
3FD
100
AcDbEntity
  8
_0-1_PRO0
  6
CONTINUOUS
 62
     0
100
AcDbLine
 10
329.768804
 20
1322.683408812
 11
454.768804
 21
1322.683408812
  0
LINE
  5
3FE
100
AcDbEntity
  8
_0-1_PRO0
  6
CONTINUOUS
 62
     0
100
AcDbLine
 10
804.768804
 20
1322.683408812
 11
810.768804
 21
1324.183408812
  0
LINE
  5
3FF
100
AcDbEntity
  8
_0-1_PRO0
  6
CONTINUOUS
 62
     0
100
AcDbLine
 10
804.768804
 20
1322.683408812
 11
810.768804
 21
1321.183408812
  0
LINE
  5
400
100
AcDbEntity
  8
_0-1_PRO0
  6
CONTINUOUS
 62
     0
100
AcDbLine
 10
804.768804
 20
1341.179248812
 11
804.768804
 21
1316.683408812
  0
LINE
  5
401
100
AcDbEntity
  8
_0-1_PRO0
  6
CONTINUOUS
 62
     0
100
AcDbLine
 10
804.768804
 20
1322.683408812
 11
798.768804
 21
1321.183408812
  0
LINE
  5
402
100
AcDbEntity
  8
_0-1_PRO0
  6
CONTINUOUS
 62
     0
100
AcDbLine
 10
804.768804
 20
1322.683408812
 11
798.768804
 21
1324.183408812
  0
LINE
  5
403
100
AcDbEntity
  8
_0-1_PRO0
  6
CONTINUOUS
 62
     0
100
AcDbLine
 10
804.768804
 20
1322.683408812
 11
929.768804
 21
1322.683408812
  0
LINE
  5
404
100
AcDbEntity
  8
_0-0_
  6
CONTINUOUS
 62
     0
100
AcDbLine
 10
772.3836118402
 20
1407.927816482
 11
804.768804
 21
1528.790999036
  0
LINE
  5
405
100
AcDbEntity
  8
_0-0_
  6
CONTINUOUS
 62
     0
100
AcDbLine
 10
771.4176860139
 20
1408.186635528
 11
804.0015378831
 21
1529.791226209
  0
LINE
  5
406
100
AcDbEntity
  8
_0-1_PRO0
  6
CONTINUOUS
 62
     0
100
AcDbLine
 10
804.768804
 20
1342.679248812
 11
804.768804
 21
1528.790999036
  0
LINE
  5
407
100
AcDbEntity
  8
_0-1_PRO0
  6
CONTINUOUS
 62
     0
100
AcDbLine
 10
804.768804
 20
1528.790999036
 11
929.768804
 21
1528.790999036
  0
LINE
  5
408
100
AcDbEntity
  8
_0-1_PRO0
  6
CONTINUOUS
 62
     0
100
AcDbLine
 10
858.7511303108
 20
1529.783337266
 11
804.0015378831
 21
1529.791226209
  0
LINE
  5
409
100
AcDbEntity
  8
_0-1_PRO0
  6
CONTINUOUS
 62
     0
100
AcDbLine
 10
454.768804
 20
1322.683408812
 11
804.768804
 21
1322.683408812
  0
TEXT
  5
40A
100
AcDbEntity
  8
_0-1_PRO0
  6
CONTINUOUS
 62
     0
100
AcDbText
 10
619.3496677448
 20
1325.801113521
 40
9
  1
３５０
 41
0.7377777777778
  7
STANDARD
100
AcDbText
  0
TEXT
  5
40B
100
AcDbEntity
  8
_0-1_PRO0
  6
CONTINUOUS
 62
     0
100
AcDbText
 10
865.0527303283
 20
1323.847342305
 40
9
  1
≦Ｃ
 41
0.7377777777778
  7
STANDARD
100
AcDbText
  0
TEXT
  5
40C
100
AcDbEntity
  8
_0-1_PRO0
  6
CONTINUOUS
 62
     0
100
AcDbText
 10
390.0834182325
 20
1323.847342305
 40
8.99
  1
≦Ｃ
 41
0.7385984427141
  7
STANDARD
100
AcDbText
  0
LINE
  5
40D
100
AcDbEntity
  8
_0-2_
  6
CONTINUOUS
 62
     0
100
AcDbLine
 10
370.7511317144
 20
1534.899769036
 11
388.7511317144
 21
1534.899769036
  0
LINE
  5
40E
100
AcDbEntity
  8
_0-1_PRO0
  6
CONTINUOUS
 62
     0
100
AcDbLine
 10
329.768804
 20
1342.679248812
 11
329.768804
 21
1528.790999036
  0
LINE
  5
40F
100
AcDbEntity
  8
_0-2_
  6
CONTINUOUS
 62
     0
100
AcDbLine
 10
384.5332367144
 20
1545.368962036
 11
375.3458447144
 21
1544.887471036
  0
LINE
  5
410
100
AcDbEntity
  8
_0-2_
  6
CONTINUOUS
 62
     0
100
AcDbLine
 10
394.7511317144
 20
1529.365021507
 11
394.3251541861
 21
1529.790999036
  0
ARC
  5
411
100
AcDbEntity
  8
_0-2_
  6
CONTINUOUS
 62
     0
100
AcDbCircle
 10
394.7511317144
 20
1521.540999036
 40
8.25
100
AcDbArc
 50
71.07535558395
 51
90
  0
ARC
  5
412
100
AcDbEntity
  8
_0-2_
  6
CONTINUOUS
 62
     0
100
AcDbCircle
 10
394.7511317144
 20
1521.540999036
 40
9.25
100
AcDbArc
 50
71.07535558395
 51
90
  0
ARC
  5
413
100
AcDbEntity
  8
_0-2_
  6
CONTINUOUS
 62
     0
100
AcDbCircle
 10
400.7511317144
 20
1539.040999036
 40
9.25
100
AcDbArc
 50
-108.9246444161
 51
-90
  0
LINE
  5
414
100
AcDbEntity
  8
_0-2_
  6
CONTINUOUS
 62
     0
100
AcDbLine
 10
379.768805
 20
1483.357598036
 11
379.768805
 21
1528.790999036
  0
LINE
  5
415
100
AcDbEntity
  8
_0-2_
  6
CONTINUOUS
 62
     0
100
AcDbLine
 10
375.018803
 20
1519.790999036
 11
375.718805
 21
1520.490998036
  0
LINE
  5
416
100
AcDbEntity
  8
_0-2_
  6
CONTINUOUS
 62
     0
100
AcDbLine
 10
375.718805
 20
1529.790998036
 11
375.718805
 21
1520.490998036
  0
LINE
  5
417
100
AcDbEntity
  8
_0-2_
  6
CONTINUOUS
 62
     0
100
AcDbLine
 10
375.018803
 20
1501.162826036
 11
375.018803
 21
1519.790999036
  0
LINE
  5
418
100
AcDbEntity
  8
_0-2_
  6
CONTINUOUS
 62
     0
100
AcDbLine
 10
375.268805
 20
1489.290998036
 11
375.268805
 21
1490.154302036
  0
LINE
  5
419
100
AcDbEntity
  8
_0-2_
  6
CONTINUOUS
 62
     0
100
AcDbLine
 10
373.143773
 20
1490.529002036
 11
375.018803
 21
1501.162826036
  0
LINE
  5
41A
100
AcDbEntity
  8
_0-2_
  6
CONTINUOUS
 62
     0
100
AcDbLine
 10
379.268804
 20
1500.790997036
 11
380.268803
 21
1500.790997036
  0
LINE
  5
41B
100
AcDbEntity
  8
_0-2_
  6
CONTINUOUS
 62
     0
100
AcDbLine
 10
384.518804
 20
1519.790999036
 11
383.818805
 21
1520.490998036
  0
LINE
  5
41C
100
AcDbEntity
  8
_0-2_
  6
CONTINUOUS
 62
     0
100
AcDbLine
 10
383.818805
 20
1529.790998036
 11
383.818805
 21
1520.490998036
  0
LINE
  5
41D
100
AcDbEntity
  8
_0-2_
  6
CONTINUOUS
 62
     0
100
AcDbLine
 10
384.518804
 20
1501.162826036
 11
384.518804
 21
1519.790999036
  0
LINE
  5
41E
100
AcDbEntity
  8
_0-2_
  6
CONTINUOUS
 62
     0
100
AcDbLine
 10
383.268803
 20
1488.290999036
 11
376.268804
 21
1488.290999036
  0
ARC
  5
41F
100
AcDbEntity
  8
_0-2_
  6
CONTINUOUS
 62
     0
100
AcDbCircle
 10
383.268803
 20
1489.290998036
 40
0.999999
100
AcDbArc
 50
-90
 51
0
  0
LINE
  5
420
100
AcDbEntity
  8
_0-2_
  6
CONTINUOUS
 62
     0
100
AcDbLine
 10
384.268805
 20
1489.290998036
 11
384.268805
 21
1490.154302036
  0
LINE
  5
421
100
AcDbEntity
  8
_0-2_
  6
CONTINUOUS
 62
     0
100
AcDbLine
 10
386.393834
 20
1490.529002036
 11
382.208402
 21
1489.790999036
  0
LINE
  5
422
100
AcDbEntity
  8
_0-2_
  6
CONTINUOUS
 62
     0
100
AcDbLine
 10
379.268804
 20
1500.790997036
 11
377.329208
 21
1489.790999036
  0
LINE
  5
423
100
AcDbEntity
  8
_0-2_
  6
CONTINUOUS
 62
     0
100
AcDbLine
 10
380.268803
 20
1500.790997036
 11
382.208402
 21
1489.790999036
  0
LINE
  5
424
100
AcDbEntity
  8
_0-2_
  6
CONTINUOUS
 62
     0
100
AcDbLine
 10
386.393834
 20
1490.529002036
 11
384.518804
 21
1501.162826036
  0
LINE
  5
425
100
AcDbEntity
  8
_0-2_
  6
CONTINUOUS
 62
     0
100
AcDbLine
 10
375.018803
 20
1519.790999036
 11
384.518804
 21
1519.790999036
  0
LINE
  5
426
100
AcDbEntity
  8
_0-2_
  6
CONTINUOUS
 62
     0
100
AcDbLine
 10
375.718805
 20
1520.490998036
 11
383.818805
 21
1520.490998036
  0
LINE
  5
427
100
AcDbEntity
  8
_0-2_
  6
CONTINUOUS
 62
     0
100
AcDbLine
 10
373.143773
 20
1490.529002036
 11
377.329208
 21
1489.790999036
  0
ARC
  5
428
100
AcDbEntity
  8
_0-2_
  6
CONTINUOUS
 62
     0
100
AcDbCircle
 10
376.268804
 20
1489.290998036
 40
0.999999
100
AcDbArc
 50
180
 51
270
  0
LINE
  5
429
100
AcDbEntity
  8
_0-2_
  6
CONTINUOUS
 62
     0
100
AcDbLine
 10
393.9109406237
 20
1528.790999036
 11
392.9109406237
 21
1529.790999036
  0
LINE
  5
42A
100
AcDbEntity
  8
_0-2_
  6
CONTINUOUS
 62
     0
100
AcDbLine
 10
392.4967270614
 20
1528.790999036
 11
391.4967270614
 21
1529.790999036
  0
LINE
  5
42B
100
AcDbEntity
  8
_0-2_
  6
CONTINUOUS
 62
     0
100
AcDbLine
 10
391.082513499
 20
1528.790999036
 11
390.082513499
 21
1529.790999036
  0
LINE
  5
42C
100
AcDbEntity
  8
_0-2_
  6
CONTINUOUS
 62
     0
100
AcDbLine
 10
389.6682999366
 20
1528.790999036
 11
388.6682999366
 21
1529.790999036
  0
LINE
  5
42D
100
AcDbEntity
  8
_0-2_
  6
CONTINUOUS
 62
     0
100
AcDbLine
 10
388.2540863742
 20
1528.790999036
 11
387.2540863742
 21
1529.790999036
  0
LINE
  5
42E
100
AcDbEntity
  8
_0-2_
  6
CONTINUOUS
 62
     0
100
AcDbLine
 10
386.8398728119
 20
1528.790999036
 11
385.8398728119
 21
1529.790999036
  0
LINE
  5
42F
100
AcDbEntity
  8
_0-2_
  6
CONTINUOUS
 62
     0
100
AcDbLine
 10
385.4256592495
 20
1528.790999036
 11
384.4256592495
 21
1529.790999036
  0
LINE
  5
430
100
AcDbEntity
  8
_0-2_
  6
CONTINUOUS
 62
     0
100
AcDbLine
 10
384.0114456871
 20
1528.790999036
 11
383.0114456871
 21
1529.790999036
  0
LINE
  5
431
100
AcDbEntity
  8
_0-2_
  6
CONTINUOUS
 62
     0
100
AcDbLine
 10
382.5972321247
 20
1528.790999036
 11
381.5972321247
 21
1529.790999036
  0
LINE
  5
432
100
AcDbEntity
  8
_0-2_
  6
CONTINUOUS
 62
     0
100
AcDbLine
 10
381.1830185624
 20
1528.790999036
 11
380.1830185624
 21
1529.790999036
  0
LINE
  5
433
100
AcDbEntity
  8
_0-2_
  6
CONTINUOUS
 62
     0
100
AcDbLine
 10
379.768805
 20
1528.790999036
 11
378.768805
 21
1529.790999036
  0
LINE
  5
434
100
AcDbEntity
  8
_0-2_
  6
CONTINUOUS
 62
     0
100
AcDbLine
 10
378.3545914376
 20
1528.790999036
 11
377.3545914376
 21
1529.790999036
  0
LINE
  5
435
100
AcDbEntity
  8
_0-2_
  6
CONTINUOUS
 62
     0
100
AcDbLine
 10
376.9403778753
 20
1528.790999036
 11
375.9403778753
 21
1529.790999036
  0
LINE
  5
436
100
AcDbEntity
  8
_0-2_
  6
CONTINUOUS
 62
     0
100
AcDbLine
 10
375.5261643129
 20
1528.790999036
 11
374.5261643129
 21
1529.790999036
  0
LINE
  5
437
100
AcDbEntity
  8
_0-2_
  6
CONTINUOUS
 62
     0
100
AcDbLine
 10
374.1119507505
 20
1528.790999036
 11
373.1119507505
 21
1529.790999036
  0
LINE
  5
438
100
AcDbEntity
  8
_0-2_
  6
CONTINUOUS
 62
     0
100
AcDbLine
 10
372.6977371881
 20
1528.790999036
 11
371.6977371881
 21
1529.790999036
  0
LINE
  5
439
100
AcDbEntity
  8
_0-2_
  6
CONTINUOUS
 62
     0
100
AcDbLine
 10
371.2835236258
 20
1528.790999036
 11
370.2835236258
 21
1529.790999036
  0
LINE
  5
43A
100
AcDbEntity
  8
_0-2_
  6
CONTINUOUS
 62
     0
100
AcDbLine
 10
369.8693100634
 20
1528.790999036
 11
368.8693100634
 21
1529.790999036
  0
LINE
  5
43B
100
AcDbEntity
  8
_0-2_
  6
CONTINUOUS
 62
     0
100
AcDbLine
 10
368.455096501
 20
1528.790999036
 11
367.455096501
 21
1529.790999036
  0
LINE
  5
43C
100
AcDbEntity
  8
_0-2_
  6
CONTINUOUS
 62
     0
100
AcDbLine
 10
367.0408829386
 20
1528.790999036
 11
366.0408829386
 21
1529.790999036
  0
LINE
  5
43D
100
AcDbEntity
  8
_0-2_
  6
CONTINUOUS
 62
     0
100
AcDbLine
 10
365.6266693763
 20
1528.790999036
 11
364.7511317144
 21
1529.666536697
  0
LINE
  5
43E
100
AcDbEntity
  8
_0-2_
  6
CONTINUOUS
 62
     0
100
AcDbLine
 10
364.7511317144
 20
1528.790999036
 11
394.7511317144
 21
1528.790999036
  0
LINE
  5
43F
100
AcDbEntity
  8
_0-2_
  6
CONTINUOUS
 62
     0
100
AcDbLine
 10
394.7511317144
 20
1528.790999036
 11
394.7511317144
 21
1529.790999036
  0
LINE
  5
440
100
AcDbEntity
  8
_0-2_
  6
CONTINUOUS
 62
     0
100
AcDbLine
 10
394.7511317144
 20
1529.790999036
 11
364.7511317144
 21
1529.790999036
  0
LINE
  5
441
100
AcDbEntity
  8
_0-2_
  6
CONTINUOUS
 62
     0
100
AcDbLine
 10
364.7511317144
 20
1529.790999036
 11
364.7511317144
 21
1528.790999036
  0
ARC
  5
442
100
AcDbEntity
  8
_0-2_
  6
CONTINUOUS
 62
     0
100
AcDbCircle
 10
400.7511317144
 20
1539.040999036
 40
10.25
100
AcDbArc
 50
-108.9246444161
 51
-90
  0
LINE
  5
443
100
AcDbEntity
  8
_0-2_
  6
CONTINUOUS
 62
     0
100
AcDbLine
 10
370.7511317144
 20
1534.899769036
 11
370.7511317144
 21
1533.299770036
  0
LINE
  5
444
100
AcDbEntity
  8
_0-2_
  6
CONTINUOUS
 62
     0
100
AcDbLine
 10
388.7511317144
 20
1534.899769036
 11
388.7511317144
 21
1533.299770036
  0
LINE
  5
445
100
AcDbEntity
  8
_0-2_
  6
CONTINUOUS
 62
     0
100
AcDbLine
 10
385.6311317144
 20
1539.162832036
 11
385.6311317144
 21
1534.899769036
  0
LINE
  5
446
100
AcDbEntity
  8
_0-2_
  6
CONTINUOUS
 62
     0
100
AcDbLine
 10
384.7011317144
 20
1539.699769036
 11
385.6311317144
 21
1539.162832036
  0
ARC
  5
447
100
AcDbEntity
  8
_0-2_
  6
CONTINUOUS
 62
     0
100
AcDbCircle
 10
384.7011317144
 20
1535.890375036
 40
3.809394
100
AcDbArc
 50
90
 51
120.789964
  0
ARC
  5
448
100
AcDbEntity
  8
_0-2_
  6
CONTINUOUS
 62
     0
100
AcDbCircle
 10
379.7511317144
 20
1531.050409036
 40
8.64936
100
AcDbArc
 50
69.705445
 51
110.294555
  0
LINE
  5
449
100
AcDbEntity
  8
_0-2_
  6
CONTINUOUS
 62
     0
100
AcDbLine
 10
382.7511317144
 20
1539.162832036
 11
382.7511317144
 21
1534.899769036
  0
LINE
  5
44A
100
AcDbEntity
  8
_0-2_
  6
CONTINUOUS
 62
     0
100
AcDbLine
 10
376.7511317144
 20
1539.162832036
 11
376.7511317144
 21
1534.899769036
  0
LINE
  5
44B
100
AcDbEntity
  8
_0-2_
  6
CONTINUOUS
 62
     0
100
AcDbLine
 10
373.8711317144
 20
1539.162832036
 11
373.8711317144
 21
1534.899769036
  0
LINE
  5
44C
100
AcDbEntity
  8
_0-2_
  6
CONTINUOUS
 62
     0
100
AcDbLine
 10
374.8011317144
 20
1539.699769036
 11
373.8711317144
 21
1539.162832036
  0
LINE
  5
44D
100
AcDbEntity
  8
_0-2_
  6
CONTINUOUS
 62
     0
100
AcDbLine
 10
384.7011317144
 20
1539.699769036
 11
374.8011317144
 21
1539.699769036
  0
ARC
  5
44E
100
AcDbEntity
  8
_0-2_
  6
CONTINUOUS
 62
     0
100
AcDbCircle
 10
374.8011317144
 20
1535.890375036
 40
3.809394
100
AcDbArc
 50
59.210036
 51
90
  0
LINE
  5
44F
100
AcDbEntity
  8
_0-2_
  6
CONTINUOUS
 62
     0
100
AcDbLine
 10
384.4809017144
 20
1546.367593036
 11
384.5332367144
 21
1545.368962036
  0
LINE
  5
450
100
AcDbEntity
  8
_0-2_
  6
CONTINUOUS
 62
     0
100
AcDbLine
 10
375.2935097144
 20
1545.886102036
 11
375.3458447144
 21
1544.887471036
  0
ARC
  5
451
100
AcDbEntity
  8
_0-2_
  6
CONTINUOUS
 62
     0
100
AcDbCircle
 10
385.4795297144
 20
1546.419928036
 40
0.999999
100
AcDbArc
 50
93
 51
183
  0
ARC
  5
452
100
AcDbEntity
  8
_0-2_
  6
CONTINUOUS
 62
     0
100
AcDbCircle
 10
374.2948787144
 20
1545.833764036
 40
0.999999
100
AcDbArc
 50
3.000000000005
 51
93
  0
ARC
  5
453
100
AcDbEntity
  8
_0-2_
  6
CONTINUOUS
 62
     0
100
AcDbCircle
 10
391.7511317144
 20
1540.299769036
 40
0.999999
100
AcDbArc
 50
180
 51
270
  0
LINE
  5
454
100
AcDbEntity
  8
_0-2_
  6
CONTINUOUS
 62
     0
100
AcDbLine
 10
391.7511317144
 20
1539.299770036
 11
395.9511317144
 21
1539.299770036
  0
ARC
  5
455
100
AcDbEntity
  8
_0-2_
  6
CONTINUOUS
 62
     0
100
AcDbCircle
 10
388.1511317144
 20
1546.559941036
 40
0.999999
100
AcDbArc
 50
0
 51
93
  0
LINE
  5
456
100
AcDbEntity
  8
_0-2_
  6
CONTINUOUS
 62
     0
100
AcDbLine
 10
371.2987967144
 20
1546.678120036
 11
388.0987967144
 21
1547.558569036
  0
ARC
  5
457
100
AcDbEntity
  8
_0-2_
  6
CONTINUOUS
 62
     0
100
AcDbCircle
 10
371.3511317144
 20
1545.679489036
 40
0.999999
100
AcDbArc
 50
93
 51
180
  0
LINE
  5
458
100
AcDbEntity
  8
_0-2_
  6
CONTINUOUS
 62
     0
100
AcDbLine
 10
367.7511317144
 20
1539.299770036
 11
363.5511317144
 21
1539.299770036
  0
ARC
  5
459
100
AcDbEntity
  8
_0-2_
  6
CONTINUOUS
 62
     0
100
AcDbCircle
 10
367.7511317144
 20
1540.299769036
 40
0.999999
100
AcDbArc
 50
-90
 51
0
  0
LINE
  5
45A
100
AcDbEntity
  8
_0-2_
  6
CONTINUOUS
 62
     0
100
AcDbLine
 10
389.1511307144
 20
1540.299769036
 11
389.1511307144
 21
1546.559941036
  0
ARC
  5
45B
100
AcDbEntity
  8
_0-2_
  6
CONTINUOUS
 62
     0
100
AcDbCircle
 10
391.7511317144
 20
1540.299769036
 40
2.600001
100
AcDbArc
 50
180
 51
270
  0
LINE
  5
45C
100
AcDbEntity
  8
_0-2_
  6
CONTINUOUS
 62
     0
100
AcDbLine
 10
391.7511317144
 20
1537.699768036
 11
396.2511317144
 21
1537.699768036
  0
LINE
  5
45D
100
AcDbEntity
  8
_0-2_
  6
CONTINUOUS
 62
     0
100
AcDbLine
 10
390.7511327144
 20
1546.559941036
 11
390.7511327144
 21
1540.299769036
  0
ARC
  5
45E
100
AcDbEntity
  8
_0-2_
  6
CONTINUOUS
 62
     0
100
AcDbCircle
 10
388.1511317144
 20
1546.559941036
 40
2.600001
100
AcDbArc
 50
0
 51
93
  0
LINE
  5
45F
100
AcDbEntity
  8
_0-2_
  6
CONTINUOUS
 62
     0
100
AcDbLine
 10
368.7511307144
 20
1545.679489036
 11
368.7511307144
 21
1540.299769036
  0
ARC
  5
460
100
AcDbEntity
  8
_0-2_
  6
CONTINUOUS
 62
     0
100
AcDbCircle
 10
371.3511317144
 20
1545.679489036
 40
2.600001
100
AcDbArc
 50
93
 51
180
  0
LINE
  5
461
100
AcDbEntity
  8
_0-2_
  6
CONTINUOUS
 62
     0
100
AcDbLine
 10
371.2150577144
 20
1548.275926036
 11
388.0150577144
 21
1549.156378036
  0
LINE
  5
462
100
AcDbEntity
  8
_0-2_
  6
CONTINUOUS
 62
     0
100
AcDbLine
 10
370.3511327144
 20
1540.299769036
 11
370.3511327144
 21
1545.679489036
  0
ARC
  5
463
100
AcDbEntity
  8
_0-2_
  6
CONTINUOUS
 62
     0
100
AcDbCircle
 10
367.7511317144
 20
1540.299769036
 40
2.600001
100
AcDbArc
 50
-90
 51
0
  0
LINE
  5
464
100
AcDbEntity
  8
_0-2_
  6
CONTINUOUS
 62
     0
100
AcDbLine
 10
367.7511317144
 20
1537.699768036
 11
363.2511317144
 21
1537.699768036
  0
LINE
  5
465
100
AcDbEntity
  8
_0-2_
  6
CONTINUOUS
 62
     0
100
AcDbLine
 10
363.5511317144
 20
1536.799768036
 11
365.5011317144
 21
1536.799768036
  0
ARC
  5
466
100
AcDbEntity
  8
_0-2_
  6
CONTINUOUS
 62
     0
100
AcDbCircle
 10
363.5511317144
 20
1537.099768036
 40
0.3
100
AcDbArc
 50
180
 51
270
  0
ARC
  5
467
100
AcDbEntity
  8
_0-2_
  6
CONTINUOUS
 62
     0
100
AcDbCircle
 10
363.5511317144
 20
1538.999770036
 40
0.3
100
AcDbArc
 50
90
 51
180
  0
LINE
  5
468
100
AcDbEntity
  8
_0-2_
  6
CONTINUOUS
 62
     0
100
AcDbLine
 10
380.2511327144
 20
1533.299770036
 11
379.7511317144
 21
1532.799769036
  0
LINE
  5
469
100
AcDbEntity
  8
_0-2_
  6
CONTINUOUS
 62
     0
100
AcDbLine
 10
379.2511307144
 20
1533.299770036
 11
379.7511317144
 21
1532.799769036
  0
LINE
  5
46A
100
AcDbEntity
  8
_0-2_
  6
CONTINUOUS
 62
     0
100
AcDbLine
 10
384.7511327144
 20
1531.299769036
 11
384.7511327144
 21
1530.799768036
  0
LINE
  5
46B
100
AcDbEntity
  8
_0-2_
  6
CONTINUOUS
 62
     0
100
AcDbLine
 10
363.7511327144
 20
1540.799770036
 11
366.5011307144
 21
1540.799770036
  0
ARC
  5
46C
100
AcDbEntity
  8
_0-2_
  6
CONTINUOUS
 62
     0
100
AcDbCircle
 10
363.7511327144
 20
1541.299768036
 40
0.500001
100
AcDbArc
 50
180
 51
270
  0
ARC
  5
46D
100
AcDbEntity
  8
_0-2_
  6
CONTINUOUS
 62
     0
100
AcDbCircle
 10
366.5011307144
 20
1540.049770036
 40
0.75
100
AcDbArc
 50
-90
 51
90
  0
LINE
  5
46E
100
AcDbEntity
  8
_0-2_
  6
CONTINUOUS
 62
     0
100
AcDbLine
 10
374.7511307144
 20
1531.299769036
 11
363.2511317144
 21
1531.299769036
  0
LINE
  5
46F
100
AcDbEntity
  8
_0-2_
  6
CONTINUOUS
 62
     0
100
AcDbLine
 10
374.7511307144
 20
1531.299769036
 11
374.7511307144
 21
1530.799768036
  0
ARC
  5
470
100
AcDbEntity
  8
_0-2_
  6
CONTINUOUS
 62
     0
100
AcDbCircle
 10
365.5011317144
 20
1536.049768036
 40
0.75
100
AcDbArc
 50
-90
 51
90
  0
LINE
  5
471
100
AcDbEntity
  8
_0-2_
  6
CONTINUOUS
 62
     0
100
AcDbLine
 10
363.5511317144
 20
1535.299768036
 11
365.5011317144
 21
1535.299768036
  0
ARC
  5
472
100
AcDbEntity
  8
_0-2_
  6
CONTINUOUS
 62
     0
100
AcDbCircle
 10
363.5511317144
 20
1534.999768036
 40
0.3
100
AcDbArc
 50
90
 51
180
  0
LINE
  5
473
100
AcDbEntity
  8
_0-2_
  6
CONTINUOUS
 62
     0
100
AcDbLine
 10
396.2511317144
 20
1531.299769036
 11
384.7511327144
 21
1531.299769036
  0
LINE
  5
474
100
AcDbEntity
  8
_0-2_
  6
CONTINUOUS
 62
     0
100
AcDbLine
 10
395.9511317144
 20
1536.799768036
 11
394.0011317144
 21
1536.799768036
  0
ARC
  5
475
100
AcDbEntity
  8
_0-2_
  6
CONTINUOUS
 62
     0
100
AcDbCircle
 10
395.9511317144
 20
1537.099768036
 40
0.3
100
AcDbArc
 50
-90
 51
0
  0
LINE
  5
476
100
AcDbEntity
  8
_0-2_
  6
CONTINUOUS
 62
     0
100
AcDbLine
 10
396.2511317144
 20
1537.099768036
 11
396.2511317144
 21
1538.999770036
  0
ARC
  5
477
100
AcDbEntity
  8
_0-2_
  6
CONTINUOUS
 62
     0
100
AcDbCircle
 10
395.9511317144
 20
1538.999770036
 40
0.3
100
AcDbArc
 50
0
 51
90
  0
LINE
  5
478
100
AcDbEntity
  8
_0-2_
  6
CONTINUOUS
 62
     0
100
AcDbLine
 10
397.2511307144
 20
1540.799770036
 11
393.0011327144
 21
1540.799770036
  0
ARC
  5
479
100
AcDbEntity
  8
_0-2_
  6
CONTINUOUS
 62
     0
100
AcDbCircle
 10
397.2511307144
 20
1540.299769036
 40
0.500001
100
AcDbArc
 50
0
 51
90
  0
ARC
  5
47A
100
AcDbEntity
  8
_0-2_
  6
CONTINUOUS
 62
     0
100
AcDbCircle
 10
393.0011327144
 20
1540.049770036
 40
0.75
100
AcDbArc
 50
90
 51
270
  0
LINE
  5
47B
100
AcDbEntity
  8
_0-2_
  6
CONTINUOUS
 62
     0
100
AcDbLine
 10
397.7511317144
 20
1540.299769036
 11
397.7511317144
 21
1530.799768036
  0
LINE
  5
47C
100
AcDbEntity
  8
_0-2_
  6
CONTINUOUS
 62
     0
100
AcDbLine
 10
396.2511317144
 20
1531.299769036
 11
396.2511317144
 21
1530.799768036
  0
ARC
  5
47D
100
AcDbEntity
  8
_0-2_
  6
CONTINUOUS
 62
     0
100
AcDbCircle
 10
394.0011317144
 20
1536.049768036
 40
0.75
100
AcDbArc
 50
90
 51
270
  0
ARC
  5
47E
100
AcDbEntity
  8
_0-2_
  6
CONTINUOUS
 62
     0
100
AcDbCircle
 10
395.9511317144
 20
1533.599770036
 40
0.3
100
AcDbArc
 50
-90
 51
0
  0
LINE
  5
47F
100
AcDbEntity
  8
_0-2_
  6
CONTINUOUS
 62
     0
100
AcDbLine
 10
396.2511317144
 20
1533.599770036
 11
396.2511317144
 21
1534.999768036
  0
ARC
  5
480
100
AcDbEntity
  8
_0-2_
  6
CONTINUOUS
 62
     0
100
AcDbCircle
 10
395.9511317144
 20
1534.999768036
 40
0.3
100
AcDbArc
 50
0
 51
90
  0
LINE
  5
481
100
AcDbEntity
  8
_0-2_
  6
CONTINUOUS
 62
     0
100
AcDbLine
 10
395.9511317144
 20
1535.299768036
 11
394.0011317144
 21
1535.299768036
  0
ARC
  5
482
100
AcDbEntity
  8
_0-2_
  6
CONTINUOUS
 62
     0
100
AcDbCircle
 10
363.7511327144
 20
1533.799768036
 40
0.500001
100
AcDbArc
 50
180
 51
270
  0
LINE
  5
483
100
AcDbEntity
  8
_0-2_
  6
CONTINUOUS
 62
     0
100
AcDbLine
 10
363.7511327144
 20
1533.299770036
 11
395.9511317144
 21
1533.299770036
  0
LINE
  5
484
100
AcDbEntity
  8
_0-2_
  6
CONTINUOUS
 62
     0
100
AcDbLine
 10
396.2511317144
 20
1530.799768036
 11
397.7511317144
 21
1530.799768036
  0
ARC
  5
485
100
AcDbEntity
  8
_0-2_
  6
CONTINUOUS
 62
     0
100
AcDbCircle
 10
362.2511327144
 20
1548.799768036
 40
0.999999
100
AcDbArc
 50
0
 51
180
  0
LINE
  5
486
100
AcDbEntity
  8
_0-2_
  6
CONTINUOUS
 62
     0
100
AcDbLine
 10
363.2511317144
 20
1541.299768036
 11
363.2511317144
 21
1548.799768036
  0
LINE
  5
487
100
AcDbEntity
  8
_0-2_
  6
CONTINUOUS
 62
     0
100
AcDbLine
 10
363.2511317144
 20
1537.099768036
 11
363.2511317144
 21
1538.999770036
  0
ARC
  5
488
100
AcDbEntity
  8
_0-2_
  6
CONTINUOUS
 62
     0
100
AcDbCircle
 10
360.7511327144
 20
1533.799768036
 40
0.500001
100
AcDbArc
 50
-90
 51
0
  0
LINE
  5
489
100
AcDbEntity
  8
_0-2_
  6
CONTINUOUS
 62
     0
100
AcDbLine
 10
361.2511307144
 20
1531.799770036
 11
361.2511307144
 21
1530.799768036
  0
LINE
  5
48A
100
AcDbEntity
  8
_0-2_
  6
CONTINUOUS
 62
     0
100
AcDbLine
 10
363.2511317144
 20
1531.299769036
 11
363.2511317144
 21
1530.799768036
  0
LINE
  5
48B
100
AcDbEntity
  8
_0-2_
  6
CONTINUOUS
 62
     0
100
AcDbLine
 10
363.2511317144
 20
1533.799768036
 11
363.2511317144
 21
1534.999768036
  0
LINE
  5
48C
100
AcDbEntity
  8
_0-2_
  6
CONTINUOUS
 62
     0
100
AcDbLine
 10
350.7511307144
 20
1531.799770036
 11
350.7511307144
 21
1530.799768036
  0
LINE
  5
48D
100
AcDbEntity
  8
_0-2_
  6
CONTINUOUS
 62
     0
100
AcDbLine
 10
349.2511307144
 20
1530.799768036
 11
350.7511307144
 21
1530.799768036
  0
LINE
  5
48E
100
AcDbEntity
  8
_0-2_
  6
CONTINUOUS
 62
     0
100
AcDbLine
 10
361.2511307144
 20
1530.799768036
 11
363.2511317144
 21
1530.799768036
  0
LINE
  5
48F
100
AcDbEntity
  8
_0-2_
  6
CONTINUOUS
 62
     0
100
AcDbLine
 10
349.2511307144
 20
1532.799770036
 11
349.2511307144
 21
1530.799768036
  0
ARC
  5
490
100
AcDbEntity
  8
_0-2_
  6
CONTINUOUS
 62
     0
100
AcDbCircle
 10
349.7511307144
 20
1532.799770036
 40
0.5
100
AcDbArc
 50
90
 51
180
  0
LINE
  5
491
100
AcDbEntity
  8
_0-2_
  6
CONTINUOUS
 62
     0
100
AcDbLine
 10
361.0011307144
 20
1536.549770036
 11
359.7511307143
 21
1536.549770036
  0
LINE
  5
492
100
AcDbEntity
  8
_0-2_
  6
CONTINUOUS
 62
     0
100
AcDbLine
 10
356.7511307143
 20
1536.549770036
 11
355.5011307144
 21
1536.549770036
  0
ARC
  5
493
100
AcDbEntity
  8
_0-2_
  6
CONTINUOUS
 62
     0
100
AcDbCircle
 10
329.9045252421
 20
1579.485162658
 40
0.5
100
AcDbArc
 50
101.4095443492
 51
279.1986608952
  0
ARC
  5
494
100
AcDbEntity
  8
_0-2_
  6
CONTINUOUS
 62
     0
100
AcDbCircle
 10
334.7511307143
 20
1555.469325895
 40
25
100
AcDbArc
 50
0
 51
101.4095443492
  0
ARC
  5
495
100
AcDbEntity
  8
_0-2_
  6
CONTINUOUS
 62
     0
100
AcDbCircle
 10
333.6751851204
 20
1556.200957394
 40
23.08754100601
100
AcDbArc
 50
-1.815975820674
 51
99.19866089519
  0
LINE
  5
496
100
AcDbEntity
  8
_0-2_
  6
CONTINUOUS
 62
     0
100
AcDbLine
 10
361.2511307144
 20
1531.799770036
 11
353.7451818406
 21
1531.799770036
  0
LINE
  5
497
100
AcDbEntity
  8
_0-2_
  6
CONTINUOUS
 62
     0
100
AcDbLine
 10
353.7451818406
 20
1531.799770036
 11
350.7511307144
 21
1531.799770036
  0
LINE
  5
498
100
AcDbEntity
  8
_0-2_
  6
CONTINUOUS
 62
     0
100
AcDbLine
 10
355.7511307144
 20
1533.299770036
 11
360.7511327144
 21
1533.299770036
  0
LINE
  5
499
100
AcDbEntity
  8
_0-2_
  6
CONTINUOUS
 62
     0
100
AcDbLine
 10
349.7511307144
 20
1533.299770036
 11
353.7511307144
 21
1533.299770036
  0
ARC
  5
49A
100
AcDbEntity
  8
_0-2_
  6
CONTINUOUS
 62
     0
100
AcDbCircle
 10
355.7511307144
 20
1533.799770036
 40
0.25
100
AcDbArc
 50
180
 51
270
  0
ARC
  5
49B
100
AcDbEntity
  8
_0-2_
  6
CONTINUOUS
 62
     0
100
AcDbCircle
 10
360.7511327144
 20
1533.799768036
 40
0.250001
100
AcDbArc
 50
-90
 51
0
  0
LINE
  5
49C
100
AcDbEntity
  8
_0-2_
  6
CONTINUOUS
 62
     0
100
AcDbLine
 10
355.5011307144
 20
1533.799770036
 11
355.5011307144
 21
1536.549770036
  0
LINE
  5
49D
100
AcDbEntity
  8
_0-2_
  6
CONTINUOUS
 62
     0
100
AcDbLine
 10
361.0011307144
 20
1533.799768036
 11
361.0011307144
 21
1536.549770036
  0
LINE
  5
49E
100
AcDbEntity
  8
_0-2_
  6
CONTINUOUS
 62
     0
100
AcDbLine
 10
355.7511307144
 20
1533.549770036
 11
360.7511327144
 21
1533.549770036
  0
LINE
  5
49F
100
AcDbEntity
  8
_0-2_
  6
CONTINUOUS
 62
     0
100
AcDbLine
 10
361.2511307144
 20
1548.799768036
 11
361.2511307144
 21
1538.299770036
  0
LINE
  5
4A0
100
AcDbEntity
  8
_0-2_
  6
CONTINUOUS
 62
     0
100
AcDbLine
 10
361.2511307144
 20
1536.799770036
 11
361.2511307144
 21
1533.799768036
  0
LINE
  5
4A1
100
AcDbEntity
  8
_0-2_
  6
CONTINUOUS
 62
     0
100
AcDbLine
 10
355.2511307144
 20
1533.799770036
 11
355.2511307144
 21
1536.799770036
  0
LINE
  5
4A2
100
AcDbEntity
  8
_0-2_
  6
CONTINUOUS
 62
     0
100
AcDbLine
 10
353.7511307144
 20
1537.799770036
 11
353.7511307144
 21
1533.299770036
  0
ARC
  5
4A3
100
AcDbEntity
  8
_0-2_
  6
CONTINUOUS
 62
     0
100
AcDbCircle
 10
354.2511307144
 20
1537.799770036
 40
0.5
100
AcDbArc
 50
90
 51
180
  0
ARC
  5
4A4
100
AcDbEntity
  8
_0-2_
  6
CONTINUOUS
 62
     0
100
AcDbCircle
 10
355.7511307144
 20
1533.799770036
 40
0.5
100
AcDbArc
 50
180
 51
270
  0
LINE
  5
4A5
100
AcDbEntity
  8
_0-2_
  6
CONTINUOUS
 62
     0
100
AcDbLine
 10
354.2511307144
 20
1538.299770036
 11
355.5011307144
 21
1538.299770036
  0
ARC
  5
4A6
100
AcDbEntity
  8
_0-2_
  6
CONTINUOUS
 62
     0
100
AcDbCircle
 10
355.5011307144
 20
1537.299770036
 40
1
100
AcDbArc
 50
0
 51
90
  0
LINE
  5
4A7
100
AcDbEntity
  8
_0-2_
  6
CONTINUOUS
 62
     0
100
AcDbLine
 10
356.5011307144
 20
1537.299770036
 11
356.5011307144
 21
1536.799770036
  0
LINE
  5
4A8
100
AcDbEntity
  8
_0-2_
  6
CONTINUOUS
 62
     0
100
AcDbLine
 10
356.5011307144
 20
1536.799770036
 11
355.2511307144
 21
1536.799770036
  0
LINE
  5
4A9
100
AcDbEntity
  8
_0-2_
  6
CONTINUOUS
 62
     0
100
AcDbLine
 10
361.2511307144
 20
1536.799770036
 11
360.0011307144
 21
1536.799770036
  0
LINE
  5
4AA
100
AcDbEntity
  8
_0-2_
  6
CONTINUOUS
 62
     0
100
AcDbLine
 10
360.0011307144
 20
1537.299770036
 11
360.0011307144
 21
1536.799770036
  0
ARC
  5
4AB
100
AcDbEntity
  8
_0-2_
  6
CONTINUOUS
 62
     0
100
AcDbCircle
 10
361.0011307144
 20
1537.299770036
 40
1
100
AcDbArc
 50
90
 51
180
  0
LINE
  5
4AC
100
AcDbEntity
  8
_0-2_
  6
CONTINUOUS
 62
     0
100
AcDbLine
 10
361.0011307144
 20
1538.299770036
 11
361.2511307144
 21
1538.299770036
  0
CIRCLE
  5
4AD
100
AcDbEntity
  8
_0-2_
  6
CONTINUOUS
 62
     0
100
AcDbCircle
 10
354.7766386424
 20
1568.236273312
 40
0.9
  0
LINE
  5
4AE
100
AcDbEntity
  8
_0-2_
  6
CONTINUOUS
 62
     0
100
AcDbLine
 10
354.7766386424
 20
1568.236273312
 11
340.6880694129
 21
1606.944295404
  0
LINE
  5
4AF
100
AcDbEntity
  8
_0-2_
  6
CONTINUOUS
 62
     0
100
AcDbLine
 10
364.7511317144
 20
1529.666536697
 11
364.7511317144
 21
1530.790999036
  0
LINE
  5
4B0
100
AcDbEntity
  8
_0-2_
  6
CONTINUOUS
 62
     0
100
AcDbLine
 10
394.7511317144
 20
1530.790999036
 11
364.7511317144
 21
1530.790999036
  0
CIRCLE
  5
4B1
100
AcDbEntity
  8
_0-2_
  6
CONTINUOUS
 62
     0
100
AcDbCircle
 10
339.3115362712
 20
1612.435295777
 40
6
  0
TEXT
  5
4B2
100
AcDbEntity
  8
_0-2_
  6
CONTINUOUS
 62
     0
100
AcDbText
 10
334.0012690052
 20
1607.733733048
 40
9
  1
８
  7
STANDARD
100
AcDbText
  0
LINE
  5
4B3
100
AcDbEntity
  8
_0-2_
  6
CONTINUOUS
 62
     0
100
AcDbLine
 10
379.768805
 20
1482.357596036
 11
379.768805
 21
1372.78875221
  0
LINE
  5
4B4
100
AcDbEntity
  8
_0-2_
  6
CONTINUOUS
 62
     0
100
AcDbLine
 10
329.768804
 20
1528.790999036
 11
329.768804
 21
1366.16936621
  0
CIRCLE
  5
4B5
100
AcDbEntity
  8
_0-2_
  6
CONTINUOUS
 62
     0
100
AcDbCircle
 10
354.4319521343
 20
1499.932761437
 40
6
  0
LINE
  5
4B6
100
AcDbEntity
  8
_0-2_
  6
CONTINUOUS
 62
     0
100
AcDbLine
 10
371.1123991343
 20
1528.824141437
 11
357.4319521343
 21
1505.128914437
  0
CIRCLE
  5
4B7
100
AcDbEntity
  8
_0-2_
  6
CONTINUOUS
 62
     0
100
AcDbCircle
 10
371.1123991343
 20
1528.824141437
 40
0.9
  0
TEXT
  5
4B8
100
AcDbEntity
  8
_0-2_
  6
CONTINUOUS
 62
     0
100
AcDbText
 10
352.0966938834
 20
1494.314908675
 40
9
  1
3
  7
STANDARD
100
AcDbText
  0
LINE
  5
4B9
100
AcDbEntity
  8
_0-2_
  6
CONTINUOUS
 62
     0
100
AcDbLine
 10
359.7511307143
 20
1536.549770036
 11
359.7647759276
 21
1556.518196589
  0
LINE
  5
4BA
100
AcDbEntity
  8
_0-2_
  6
CONTINUOUS
 62
     0
100
AcDbLine
 10
356.7511307143
 20
1536.549770036
 11
356.7647759276
 21
1557.981459585
  0
LINE
  5
4BB
100
AcDbEntity
  8
_0-0_
  6
CONTINUOUS
 62
     0
100
AcDbLine
 10
487.1539961598
 20
1407.927816482
 11
454.768804
 21
1528.790999036
  0
LINE
  5
4BC
100
AcDbEntity
  8
_0-0_
  6
CONTINUOUS
 62
     0
100
AcDbLine
 10
488.1199219861
 20
1408.186635528
 11
455.5360701169
 21
1529.791226209
  0
LINE
  5
4BD
100
AcDbEntity
  8
_0-1_PRO0
  6
CONTINUOUS
 62
     0
100
AcDbLine
 10
454.768804
 20
1342.679248812
 11
454.768804
 21
1528.790999036
  0
LINE
  5
4BE
100
AcDbEntity
  8
_0-1_PRO0
  6
CONTINUOUS
 62
     0
100
AcDbLine
 10
454.768804
 20
1528.790999036
 11
329.768804
 21
1528.790999036
  0
LINE
  5
4BF
100
AcDbEntity
  8
_0-1_PRO0
  6
CONTINUOUS
 62
     0
100
AcDbLine
 10
400.7511311181
 20
1529.783335404
 11
455.5360701169
 21
1529.791226209
  0
CIRCLE
  5
4C0
100
AcDbEntity
  8
_0-0_
  6
CONTINUOUS
 62
     0
100
AcDbCircle
 10
504.7187050662
 20
1499.864157659
 40
6
  0
LINE
  5
4C1
100
AcDbEntity
  8
_0-0_
  6
CONTINUOUS
 62
     0
100
AcDbLine
 10
476.7506912499
 20
1451.422136743
 11
501.7187050662
 21
1494.668005237
  0
CIRCLE
  5
4C2
100
AcDbEntity
  8
_0-0_
  6
CONTINUOUS
 62
     0
100
AcDbCircle
 10
476.7506912499
 20
1451.422136743
 40
0.9
  0
TEXT
  5
4C3
100
AcDbEntity
  8
_0-0_
  6
CONTINUOUS
 62
     0
100
AcDbText
 10
500.1886673271
 20
1495.768963123
 40
9
  1
９
  7
STANDARD
100
AcDbText
  0
LINE
  5
4C4
100
AcDbEntity
  8
_0-2_
  6
CONTINUOUS
 62
     0
100
AcDbLine
 10
389.4013115441
 20
1578.089662556
 11
366.4328315441
 21
1576.885936556
  0
LINE
  5
4C5
100
AcDbEntity
  8
_0-2_
  6
CONTINUOUS
 62
     0
100
AcDbLine
 10
402.8488805441
 20
1565.872753556
 11
389.4013115441
 21
1578.089662556
  0
LINE
  5
4C6
100
AcDbEntity
  8
_0-2_
  6
CONTINUOUS
 62
     0
100
AcDbLine
 10
406.6977035441
 20
1568.079379556
 11
406.0364675441
 21
1568.529679556
  0
LINE
  5
4C7
100
AcDbEntity
  8
_0-2_
  6
CONTINUOUS
 62
     0
100
AcDbLine
 10
406.0364675441
 20
1568.529679556
 11
404.3478515441
 21
1566.050047556
  0
LINE
  5
4C8
100
AcDbEntity
  8
_0-2_
  6
CONTINUOUS
 62
     0
100
AcDbLine
 10
406.6977035441
 20
1568.079379556
 11
405.0090875441
 21
1565.599747556
  0
ARC
  5
4C9
100
AcDbEntity
  8
_0-2_
  6
CONTINUOUS
 62
     0
100
AcDbCircle
 10
403.5213095441
 20
1566.612919556
 40
0.999999
100
AcDbArc
 50
-132.254652
 51
-34.25465800001
  0
ARC
  5
4CA
100
AcDbEntity
  8
_0-2_
  6
CONTINUOUS
 62
     0
100
AcDbCircle
 10
403.5213095441
 20
1566.612919556
 40
1.8
100
AcDbArc
 50
-132.254651
 51
-34.254658
  0
ARC
  5
4CB
100
AcDbEntity
  8
_0-2_
  6
CONTINUOUS
 62
     0
100
AcDbCircle
 10
377.9955755441
 20
1575.989854556
 40
6.3
100
AcDbArc
 50
43.903458
 51
142.096542
  0
LINE
  5
4CC
100
AcDbEntity
  8
_0-2_
  6
CONTINUOUS
 62
     0
100
AcDbLine
 10
383.0910245441
 20
1579.076341556
 11
383.1598775441
 21
1577.762563556
  0
LINE
  5
4CD
100
AcDbEntity
  8
_0-2_
  6
CONTINUOUS
 62
     0
100
AcDbLine
 10
372.6054155441
 20
1578.526813556
 11
372.6742655441
 21
1577.213035556
  0
ARC
  5
4CE
100
AcDbEntity
  8
_0-2_
  6
CONTINUOUS
 62
     0
100
AcDbCircle
 10
381.0937655441
 20
1578.971671556
 40
2.000001
100
AcDbArc
 50
2.999999999999
 51
43.903458
  0
LINE
  5
4CF
100
AcDbEntity
  8
_0-2_
  6
CONTINUOUS
 62
     0
100
AcDbLine
 10
402.3109415441
 20
1565.280622556
 11
389.1101825441
 21
1577.273308556
  0
LINE
  5
4D0
100
AcDbEntity
  8
_0-2_
  6
CONTINUOUS
 62
     0
100
AcDbLine
 10
389.1101825441
 20
1577.273308556
 11
366.7668545441
 21
1576.102342556
  0
LINE
  5
4D1
100
AcDbEntity
  8
_0-2_
  6
CONTINUOUS
 62
     0
100
AcDbLine
 10
354.9328325441
 20
1562.797642556
 11
366.8076995441
 21
1576.104484556
  0
ARC
  5
4D2
100
AcDbEntity
  8
_0-2_
  6
CONTINUOUS
 62
     0
100
AcDbCircle
 10
374.6026745441
 20
1578.631486556
 40
2.000001
100
AcDbArc
 50
142.096542
 51
183
  0
LINE
  5
4D3
100
AcDbEntity
  8
_0-2_
  6
CONTINUOUS
 62
     0
100
AcDbLine
 10
350.2775495441
 20
1565.122525556
 11
350.8880945441
 21
1565.639473556
  0
LINE
  5
4D4
100
AcDbEntity
  8
_0-2_
  6
CONTINUOUS
 62
     0
100
AcDbLine
 10
350.8880945441
 20
1565.639473556
 11
352.8266525441
 21
1563.349933556
  0
LINE
  5
4D5
100
AcDbEntity
  8
_0-2_
  6
CONTINUOUS
 62
     0
100
AcDbLine
 10
350.2775495441
 20
1565.122525556
 11
352.2161075441
 21
1562.832985556
  0
ARC
  5
4D6
100
AcDbEntity
  8
_0-2_
  6
CONTINUOUS
 62
     0
100
AcDbCircle
 10
353.5898315441
 20
1563.996121556
 40
0.999999
100
AcDbArc
 50
-139.745342
 51
-41.745348
  0
LINE
  5
4D7
100
AcDbEntity
  8
_0-2_
  6
CONTINUOUS
 62
     0
100
AcDbLine
 10
354.3359435441
 20
1563.330298556
 11
366.4328315441
 21
1576.885936556
  0
ARC
  5
4D8
100
AcDbEntity
  8
_0-2_
  6
CONTINUOUS
 62
     0
100
AcDbCircle
 10
353.5898315441
 20
1563.996121556
 40
1.8
100
AcDbArc
 50
-139.745342
 51
-41.745349
  0
LINE
  5
4D9
100
AcDbEntity
  8
_0-2_
  6
CONTINUOUS
 62
     0
100
AcDbLine
 10
377.6105735441
 20
1583.336149556
 11
379.7568411909
 21
1544.669252621
  0
LINE
  5
4DA
100
AcDbEntity
  8
_0-2_
  6
CONTINUOUS
 62
     0
100
AcDbLine
 10
374.9211815441
 20
1577.330791556
 11
376.6228031794
 21
1547.879485746
  0
LINE
  5
4DB
100
AcDbEntity
  8
_0-2_
  6
CONTINUOUS
 62
     0
100
AcDbLine
 10
380.9129615441
 20
1577.644807556
 11
382.6145792541
 21
1548.193501155
  0
LINE
  5
4DC
100
AcDbEntity
  8
_0-2_
  6
CONTINUOUS
 62
     0
100
AcDbLine
 10
382.6145792541
 20
1548.193501155
 11
376.6228031794
 21
1547.879485746
  0
LINE
  5
4DD
100
AcDbEntity
  8
_0-2_
  6
CONTINUOUS
 62
     0
100
AcDbLine
 10
375.4204985441
 20
1577.356960556
 11
377.1509572633
 21
1547.406478933
  0
LINE
  5
4DE
100
AcDbEntity
  8
_0-2_
  6
CONTINUOUS
 62
     0
100
AcDbLine
 10
380.4136445441
 20
1577.618638556
 11
382.1441074249
 21
1547.66815862
  0
LINE
  5
4DF
100
AcDbEntity
  8
_0-2_
  6
CONTINUOUS
 62
     0
100
AcDbLine
 10
382.1441074249
 20
1547.66815862
 11
377.1509572633
 21
1547.406478933
  0
LINE
  5
4E0
100
AcDbEntity
  8
_0-2_
  6
CONTINUOUS
 62
     0
100
AcDbLine
 10
376.9438448916
 20
1547.591965642
 11
377.1509572633
 21
1547.406478933
  0
LINE
  5
4E1
100
AcDbEntity
  8
_0-2_
  6
CONTINUOUS
 62
     0
100
AcDbLine
 10
382.1441074249
 20
1547.66815862
 11
382.328600386
 21
1547.874168829
  0
LINE
  5
4E2
100
AcDbEntity
  8
_0-2_
  6
CONTINUOUS
 62
     0
100
AcDbLine
 10
376.6228031794
 20
1547.879485746
 11
376.9438448916
 21
1547.591965642
  0
LINE
  5
4E3
100
AcDbEntity
  8
_0-2_
  6
CONTINUOUS
 62
     0
100
AcDbLine
 10
382.328600386
 20
1547.874168829
 11
382.6145792541
 21
1548.193501155
  0
TEXT
  5
4E4
100
AcDbEntity
  8
_0-0_
  6
CONTINUOUS
 62
     0
100
AcDbText
 10
416.5609660336
 20
1236.26294693
 40
7.5
  1
ｔ１．０×ｗ３０
 41
0.9986666666667
  7
STANDARD
100
AcDbText
  0
TEXT
  5
4E5
100
AcDbEntity
  8
_0-0_
  6
CONTINUOUS
 62
     0
100
AcDbText
 10
413.4359660336
 20
1272.26294693
 40
7.49
  1
３５０ＦＹＹＧ－Ｓ１０００～１０５０
 41
1.001335113485
  7
STANDARD
100
AcDbText
  0
TEXT
  5
4E6
100
AcDbEntity
  8
_0-0_
  6
CONTINUOUS
 62
     0
100
AcDbText
 10
413.4359660336
 20
1218.26294693
 40
7.5
  1
３５０ＦＹＹＨ－１０００～１０５０
  7
STANDARD
100
AcDbText
  0
TEXT
  5
4E7
100
AcDbEntity
  8
_0-0_
  6
CONTINUOUS
 62
     0
100
AcDbText
 10
413.4359660336
 20
1164.26294693
 40
7.5
  1
３５０ＦＹＹＪ－１０００～１０５０
  7
STANDARD
100
AcDbText
  0
TEXT
  5
4E8
100
AcDbEntity
  8
_0-0_
  6
CONTINUOUS
 62
     0
100
AcDbText
 10
416.2484660336
 20
1128.26294693
 40
7.5
  1
ＦＳ１２００
  7
STANDARD
100
AcDbText
  0
TEXT
  5
4E9
100
AcDbEntity
  8
_0-0_
  6
CONTINUOUS
 62
     0
100
AcDbText
 10
416.5609660336
 20
1110.26294693
 40
7.5
  1
なべＭ６×３５
 41
0.9986666666667
  7
STANDARD
100
AcDbText
  0
TEXT
  5
4EA
100
AcDbEntity
  8
_0-0_
  6
CONTINUOUS
 62
     0
100
AcDbText
 10
417.8109660336
 20
1092.26294693
 40
7.5
  1
Ｍ６×４０
 41
0.9986666666667
  7
STANDARD
100
AcDbText
  0
TEXT
  5
4EB
100
AcDbEntity
  8
_0-0_
  6
CONTINUOUS
 62
     0
100
AcDbText
 10
417.1859660336
 20
1074.26294693
 40
7.5
  1
ＡＧ－６６０
  7
STANDARD
100
AcDbText
  0
TEXT
  5
4EC
100
AcDbEntity
  8
_0-0_
  6
CONTINUOUS
 62
     0
100
AcDbText
 10
415.6234660336
 20
1056.26294693
 40
7.5
  1
１．５×１８×６．５穴
 41
0.9986666666667
  7
STANDARD
100
AcDbText
  0
TEXT
  5
4ED
100
AcDbEntity
  8
_0-1_PRO0
  6
CONTINUOUS
 62
     0
100
AcDbText
 10
1018.919035741
 20
1324.85854663
 40
9
  1
２００
 41
0.7377777777778
  7
STANDARD
100
AcDbText
  0
TEXT
  5
4EE
100
AcDbEntity
  8
_0-0_
  6
CONTINUOUS
 62
     0
100
AcDbText
 10
569.0500139768
 20
1290.472879335
 40
7.49
  1
定尺(mm)
  7
STANDARD
100
AcDbText
  0
TEXT
  5
4EF
100
AcDbEntity
  8
_0-0_
  6
CONTINUOUS
 62
     0
100
AcDbText
 10
567.8900444441
 20
1272.26294693
 40
7.49
  1
２０００
  7
STANDARD
100
AcDbText
  0
TEXT
  5
4F0
100
AcDbEntity
  8
_0-0_
  6
CONTINUOUS
 62
     0
100
AcDbText
 10
567.8900444441
 20
1254.26294693
 40
7.49
  1
２０００
  7
STANDARD
100
AcDbText
  0
TEXT
  5
4F1
100
AcDbEntity
  8
_0-0_
  6
CONTINUOUS
 62
     0
100
AcDbText
 10
567.8900444441
 20
1236.26294693
 40
7.5
  1
６０００
 41
0.9986666666667
  7
STANDARD
100
AcDbText
  0
TEXT
  5
4F2
100
AcDbEntity
  8
_0-0_
  6
CONTINUOUS
 62
     0
100
AcDbText
 10
567.7536666322
 20
1220.486503499
 40
7.49
  1
２０１０
  7
STANDARD
100
AcDbText
  0
TEXT
  5
4F3
100
AcDbEntity
  8
_0-0_
  6
CONTINUOUS
 62
     0
100
AcDbText
 10
568.0950607582
 20
1147.608142091
 40
7.5
  1
２０６０
 41
0.9986666666667
  7
STANDARD
100
AcDbText
  0
TEXT
  5
4F4
100
AcDbEntity
  8
_0-0_
  6
CONTINUOUS
 62
     0
100
AcDbText
 10
567.8900444441
 20
1128.26294693
 40
7.5
  1
２１００
 41
0.9986666666667
  7
STANDARD
100
AcDbText
  0
TEXT
  5
4F5
100
AcDbEntity
  8
_0-0_
  6
CONTINUOUS
 62
     0
100
AcDbText
 10
614.4043082286
 20
1110.26294693
 40
7.5
  1
１０
  7
STANDARD
100
AcDbText
  0
TEXT
  5
4F6
100
AcDbEntity
  8
_0-0_
  6
CONTINUOUS
 62
     0
100
AcDbText
 10
614.4043082286
 20
1092.26294693
 40
7.5
  1
１０
  7
STANDARD
100
AcDbText
  0
TEXT
  5
4F7
100
AcDbEntity
  8
_0-0_
  6
CONTINUOUS
 62
     0
100
AcDbText
 10
614.4043082286
 20
1074.26294693
 40
7.5
  1
１０
  7
STANDARD
100
AcDbText
  0
TEXT
  5
4F8
100
AcDbEntity
  8
_0-0_
  6
CONTINUOUS
 62
     0
100
AcDbText
 10
614.4043082286
 20
1056.26294693
 40
7.5
  1
１０
  7
STANDARD
100
AcDbText
  0
TEXT
  5
4F9
100
AcDbEntity
  8
_0-0_
  6
CONTINUOUS
 62
     0
100
AcDbText
 10
618.4265965679
 20
1272.26294693
 40
7.49
  1
１
 41
1.001335113485
  7
STANDARD
100
AcDbText
  0
TEXT
  5
4FA
100
AcDbEntity
  8
_0-0_
  6
CONTINUOUS
 62
     0
100
AcDbText
 10
618.4265965679
 20
1254.26294693
 40
7.49
  1
２
 41
1.001335113485
  7
STANDARD
100
AcDbText
  0
TEXT
  5
4FB
100
AcDbEntity
  8
_0-0_
  6
CONTINUOUS
 62
     0
100
AcDbText
 10
618.4265965679
 20
1236.26294693
 40
7.49
  1
２
 41
1.001335113485
  7
STANDARD
100
AcDbText
  0
TEXT
  5
4FC
100
AcDbEntity
  8
_0-0_
  6
CONTINUOUS
 62
     0
100
AcDbText
 10
618.4265965679
 20
1218.26294693
 40
7.5
  1
４
  7
STANDARD
100
AcDbText
  0
TEXT
  5
4FD
100
AcDbEntity
  8
_0-0_
  6
CONTINUOUS
 62
     0
100
AcDbText
 10
618.4265965679
 20
1200.26294693
 40
7.5
  1
８
  7
STANDARD
100
AcDbText
  0
TEXT
  5
4FE
100
AcDbEntity
  8
_0-0_
  6
CONTINUOUS
 62
     0
100
AcDbText
 10
618.4265965679
 20
1182.26294693
 40
7.5
  1
８
  7
STANDARD
100
AcDbText
  0
TEXT
  5
4FF
100
AcDbEntity
  8
_0-0_
  6
CONTINUOUS
 62
     0
100
AcDbText
 10
618.4265965679
 20
1164.26294693
 40
7.5
  1
１
  7
STANDARD
100
AcDbText
  0
TEXT
  5
500
100
AcDbEntity
  8
_0-0_
  6
CONTINUOUS
 62
     0
100
AcDbText
 10
619.256612882
 20
1147.608142091
 40
7.5
  1
２
 41
0.9986666666667
  7
STANDARD
100
AcDbText
  0
TEXT
  5
501
100
AcDbEntity
  8
_0-0_
  6
CONTINUOUS
 62
     0
100
AcDbText
 10
618.4265965679
 20
1128.26294693
 40
7.5
  1
１
  7
STANDARD
100
AcDbText
  0
TEXT
  5
502
100
AcDbEntity
  8
_0-0_
  6
CONTINUOUS
 62
     0
100
AcDbText
 10
615.7075978681
 20
1290.108366961
 40
7.49
  1
入数
  7
STANDARD
100
AcDbText
  0
TEXT
  5
503
100
AcDbEntity
  8
_0-0_
  6
CONTINUOUS
 62
     0
100
AcDbText
 10
639.0363898137
 20
1290.472879335
 40
7.49
  1
単位
  7
STANDARD
100
AcDbText
  0
TEXT
  5
504
100
AcDbEntity
  8
_0-0_
  6
CONTINUOUS
 62
     0
100
AcDbText
 10
696.6234660336
 20
1274.278440916
 40
7.49
  1
３５０ＦＹＹＧ－Ｓ１０００
  7
STANDARD
100
AcDbText
  0
TEXT
  5
505
100
AcDbEntity
  8
_0-0_
  6
CONTINUOUS
 62
     0
100
AcDbText
 10
715.5087811734
 20
1254.186612579
 40
7.5
  1
 　　〃　　　１０５０
  7
STANDARD
100
AcDbText
  0
TEXT
  5
506
100
AcDbEntity
  8
_0-0_
  6
CONTINUOUS
 62
     0
100
AcDbText
 10
807.0432362596
 20
1273.567632406
 40
7.5
  1
１０００
  7
STANDARD
100
AcDbText
  0
TEXT
  5
507
100
AcDbEntity
  8
_0-0_
  6
CONTINUOUS
 62
     0
100
AcDbText
 10
807.0432362596
 20
1254.420118842
 40
7.5
  1
１０５０
  7
STANDARD
100
AcDbText
  0
LINE
  5
508
100
AcDbEntity
  8
_0-0_
  6
CONTINUOUS
 62
     0
100
AcDbLine
 10
686.9984660336
 20
1304.38794693
 11
686.9984660336
 21
1250.38794693
  0
LINE
  5
509
100
AcDbEntity
  8
_0-0_
  6
CONTINUOUS
 62
     0
100
AcDbLine
 10
799.4984660336
 20
1304.38794693
 11
799.4984660336
 21
1250.38794693
  0
LINE
  5
50A
100
AcDbEntity
  8
_0-0_
  6
CONTINUOUS
 62
     0
100
AcDbLine
 10
844.4984660336
 20
1304.38794693
 11
844.4984660336
 21
1250.38794693
  0
LINE
  5
50B
100
AcDbEntity
  8
_0-0_
  6
CONTINUOUS
 62
     0
100
AcDbLine
 10
889.4984660336
 20
1304.38794693
 11
889.4984660336
 21
1250.38794693
  0
LINE
  5
50C
100
AcDbEntity
  8
_0-1_PRO0
  6
CONTINUOUS
 62
     0
100
AcDbLine
 10
606.2833036628
 20
665.8460940227
 11
606.3981096628
 21
664.1292500227
  0
LINE
  5
50D
100
AcDbEntity
  8
_0-1_PRO0
  6
CONTINUOUS
 62
     0
100
AcDbLine
 10
596.2970076628
 20
665.3227340227
 11
596.4118146628
 21
663.6058900227
  0
LINE
  5
50E
100
AcDbEntity
  8
_0-1_PRO0
  6
CONTINUOUS
 62
     0
100
AcDbLine
 10
599.7258066628
 20
665.5024300227
 11
597.9076606628
 21
663.6842840227
  0
LINE
  5
50F
100
AcDbEntity
  8
_0-1_PRO0
  6
CONTINUOUS
 62
     0
100
AcDbLine
 10
601.2182346628
 20
665.5806450227
 11
599.4000886628
 21
663.7624990227
  0
LINE
  5
510
100
AcDbEntity
  8
_0-1_PRO0
  6
CONTINUOUS
 62
     0
100
AcDbLine
 10
602.7106636628
 20
665.6588600227
 11
600.8925176628
 21
663.8407140227
  0
LINE
  5
511
100
AcDbEntity
  8
_0-1_PRO0
  6
CONTINUOUS
 62
     0
100
AcDbLine
 10
604.2030916628
 20
665.7370750227
 11
602.3849456628
 21
663.9189290227
  0
LINE
  5
512
100
AcDbEntity
  8
_0-1_PRO0
  6
CONTINUOUS
 62
     0
100
AcDbLine
 10
605.6955196628
 20
665.8152900227
 11
603.8773746628
 21
663.9971440227
  0
LINE
  5
513
100
AcDbEntity
  8
_0-1_PRO0
  6
CONTINUOUS
 62
     0
100
AcDbLine
 10
605.3698026628
 20
664.0753590227
 11
606.3370346628
 21
665.0425900227
  0
LINE
  5
514
100
AcDbEntity
  8
_0-1_PRO0
  6
CONTINUOUS
 62
     0
100
AcDbLine
 10
598.2333776628
 20
665.4242150227
 11
596.4152326628
 21
663.6060700227
  0
LINE
  5
515
100
AcDbEntity
  8
_0-1_PRO0
  6
CONTINUOUS
 62
     0
100
AcDbLine
 10
596.7409496628
 20
665.3460000227
 11
596.3233756628
 21
664.9284270227
  0
LINE
  5
516
100
AcDbEntity
  8
_0-1_PRO0
  6
CONTINUOUS
 62
     0
100
AcDbLine
 10
619.7675236628
 20
665.8460940227
 11
619.6527176628
 21
664.1292500227
  0
LINE
  5
517
100
AcDbEntity
  8
_0-1_PRO0
  6
CONTINUOUS
 62
     0
100
AcDbLine
 10
629.7538196628
 20
665.3227340227
 11
629.6390126628
 21
663.6058900227
  0
LINE
  5
518
100
AcDbEntity
  8
_0-1_PRO0
  6
CONTINUOUS
 62
     0
100
AcDbLine
 10
626.3250206628
 20
665.5024300227
 11
628.1431666628
 21
663.6842840227
  0
LINE
  5
519
100
AcDbEntity
  8
_0-1_PRO0
  6
CONTINUOUS
 62
     0
100
AcDbLine
 10
624.8325926628
 20
665.5806450227
 11
626.6507386628
 21
663.7624990227
  0
LINE
  5
51A
100
AcDbEntity
  8
_0-1_PRO0
  6
CONTINUOUS
 62
     0
100
AcDbLine
 10
623.3401636628
 20
665.6588600227
 11
625.1583096628
 21
663.8407140227
  0
LINE
  5
51B
100
AcDbEntity
  8
_0-1_PRO0
  6
CONTINUOUS
 62
     0
100
AcDbLine
 10
621.8477356628
 20
665.7370750227
 11
623.6658816628
 21
663.9189290227
  0
LINE
  5
51C
100
AcDbEntity
  8
_0-1_PRO0
  6
CONTINUOUS
 62
     0
100
AcDbLine
 10
620.3553076628
 20
665.8152900227
 11
622.1734526628
 21
663.9971440227
  0
LINE
  5
51D
100
AcDbEntity
  8
_0-1_PRO0
  6
CONTINUOUS
 62
     0
100
AcDbLine
 10
620.6810246628
 20
664.0753590227
 11
619.7137926628
 21
665.0425900227
  0
LINE
  5
51E
100
AcDbEntity
  8
_0-1_PRO0
  6
CONTINUOUS
 62
     0
100
AcDbLine
 10
627.8174496628
 20
665.4242150227
 11
629.6355946628
 21
663.6060700227
  0
LINE
  5
51F
100
AcDbEntity
  8
_0-1_PRO0
  6
CONTINUOUS
 62
     0
100
AcDbLine
 10
629.3098776628
 20
665.3460000227
 11
629.7274516628
 21
664.9284270227
  0
LINE
  5
520
100
AcDbEntity
  8
_0-1_PRO0
  6
CONTINUOUS
 62
     0
100
AcDbLine
 10
613.0254136628
 20
413.6865698101
 11
613.0254136628
 21
680.4710310227
  0
TEXT
  5
521
100
AcDbEntity
  8
_0-1_PRO0
  6
CONTINUOUS
 62
     0
100
AcDbText
 10
609.0150180905
 20
741.7378287071
 40
9
  1
Ｗ
 41
0.7377777777778
  7
STANDARD
100
AcDbText
  0
LINE
  5
522
100
AcDbEntity
  8
_0-2_
  6
CONTINUOUS
 62
     0
100
AcDbLine
 10
354.7514316628
 20
655.9153585844
 11
414.7514316628
 21
659.0598235844
  0
LINE
  5
523
100
AcDbEntity
  8
_0-2_
  6
CONTINUOUS
 62
     0
100
AcDbLine
 10
354.7514316628
 20
659.0598235844
 11
414.7514316628
 21
659.0598235844
  0
TEXT
  5
524
100
AcDbEntity
  8
_0-2_
  6
CONTINUOUS
 62
     0
100
AcDbText
 10
350.3684847332
 20
659.4927508617
 40
9
  1
（勾配３度）
  7
STANDARD
100
AcDbText
  0
LINE
  5
525
100
AcDbEntity
  8
_0-2_
  6
CONTINUOUS
 62
     0
100
AcDbLine
 10
354.7514316628
 20
659.0598235844
 11
354.7514316628
 21
655.9153585844
  0
LINE
  5
526
100
AcDbEntity
  8
_0-1_PRO0
  6
CONTINUOUS
 62
     0
100
AcDbLine
 10
813.0254136628
 20
389.7601458101
 11
819.0254136628
 21
391.2601458101
  0
LINE
  5
527
100
AcDbEntity
  8
_0-1_PRO0
  6
CONTINUOUS
 62
     0
100
AcDbLine
 10
813.0254136628
 20
389.7601458101
 11
819.0254136628
 21
388.2601458101
  0
LINE
  5
528
100
AcDbEntity
  8
_0-1_PRO0
  6
CONTINUOUS
 62
     0
100
AcDbLine
 10
813.0254136628
 20
408.2559858101
 11
813.0254136628
 21
383.7601458101
  0
LINE
  5
529
100
AcDbEntity
  8
_0-1_PRO0
  6
CONTINUOUS
 62
     0
100
AcDbLine
 10
813.0254136628
 20
389.7601458101
 11
807.0254136628
 21
388.2601458101
  0
LINE
  5
52A
100
AcDbEntity
  8
_0-1_PRO0
  6
CONTINUOUS
 62
     0
100
AcDbLine
 10
813.0254136628
 20
389.7601458101
 11
807.0254136628
 21
391.2601458101
  0
LINE
  5
52B
100
AcDbEntity
  8
_0-1_PRO0
  6
CONTINUOUS
 62
     0
100
AcDbLine
 10
1139.819433663
 20
634.0851530454
 11
612.9992456628
 21
661.6946290227
  0
LINE
  5
52C
100
AcDbEntity
  8
_0-1_PRO0
  6
CONTINUOUS
 62
     0
100
AcDbLine
 10
1133.790341663
 20
637.1844390454
 11
613.0254136628
 21
664.4765720227
  0
LINE
  5
52D
100
AcDbEntity
  8
_0-1_PRO0
  6
CONTINUOUS
 62
     0
100
AcDbLine
 10
1133.554829663
 20
632.6906060454
 11
613.0254136628
 21
659.9703970227
  0
LINE
  5
52E
100
AcDbEntity
  8
_0-1_PRO0
  6
CONTINUOUS
 62
     0
100
AcDbLine
 10
1133.476325663
 20
631.1926620454
 11
613.0254136628
 21
658.4683380227
  0
LINE
  5
52F
100
AcDbEntity
  8
_0-1_PRO0
  6
CONTINUOUS
 62
     0
100
AcDbLine
 10
1132.706987663
 20
616.5128070454
 11
613.0254136628
 21
643.7481650227
  0
LINE
  5
530
100
AcDbEntity
  8
_0-1_PRO0
  6
CONTINUOUS
 62
     0
100
AcDbLine
 10
1132.612782663
 20
614.7152740454
 11
613.0254136628
 21
641.9456940227
  0
LINE
  5
531
100
AcDbEntity
  8
_0-1_PRO0
  6
CONTINUOUS
 62
     0
100
AcDbLine
 10
1132.455774663
 20
611.7193860454
 11
613.0254136628
 21
638.9415770227
  0
LINE
  5
532
100
AcDbEntity
  8
_0-1_PRO0
  6
CONTINUOUS
 62
     0
100
AcDbLine
 10
1132.377270663
 20
610.2214410454
 11
613.0254136628
 21
637.4395190227
  0
LINE
  5
533
100
AcDbEntity
  8
_0-1_PRO0
  6
CONTINUOUS
 62
     0
100
AcDbLine
 10
1132.324934663
 20
609.2228120454
 11
613.0254136628
 21
636.4381470227
  0
LINE
  5
534
100
AcDbEntity
  8
_0-1_PRO0
  6
CONTINUOUS
 62
     0
100
AcDbLine
 10
1160.182421663
 20
639.5268940454
 11
613.0254136628
 21
668.2021780227
  0
ARC
  5
535
100
AcDbEntity
  8
_0-1_PRO0
  6
CONTINUOUS
 62
     0
100
AcDbCircle
 10
1139.864252663
 20
631.0786870454
 40
7.5
100
AcDbArc
 50
10.124672
 51
87
  0
LINE
  5
536
100
AcDbEntity
  8
_0-1_PRO0
  6
CONTINUOUS
 62
     0
100
AcDbLine
 10
1126.784900663
 20
639.2744390454
 11
1125.147834663
 21
637.6373730454
  0
LINE
  5
537
100
AcDbEntity
  8
_0-1_PRO0
  6
CONTINUOUS
 62
     0
100
AcDbLine
 10
1128.128688663
 20
639.2040140454
 11
1126.491623663
 21
637.5669480454
  0
LINE
  5
538
100
AcDbEntity
  8
_0-1_PRO0
  6
CONTINUOUS
 62
     0
100
AcDbLine
 10
1129.472477663
 20
639.1335890454
 11
1127.835411663
 21
637.4965230454
  0
LINE
  5
539
100
AcDbEntity
  8
_0-1_PRO0
  6
CONTINUOUS
 62
     0
100
AcDbLine
 10
1130.816266663
 20
639.0631640454
 11
1129.179200663
 21
637.4260980454
  0
LINE
  5
53A
100
AcDbEntity
  8
_0-1_PRO0
  6
CONTINUOUS
 62
     0
100
AcDbLine
 10
1132.160054663
 20
638.9927390454
 11
1130.522989663
 21
637.3556740454
  0
LINE
  5
53B
100
AcDbEntity
  8
_0-1_PRO0
  6
CONTINUOUS
 62
     0
100
AcDbLine
 10
1133.503843663
 20
638.9223140454
 11
1131.866777663
 21
637.2852490454
  0
LINE
  5
53C
100
AcDbEntity
  8
_0-1_PRO0
  6
CONTINUOUS
 62
     0
100
AcDbLine
 10
1133.210566663
 20
637.2148240454
 11
1133.824087663
 21
637.8283440454
  0
LINE
  5
53D
100
AcDbEntity
  8
_0-1_PRO0
  6
CONTINUOUS
 62
     0
100
AcDbLine
 10
1125.451862663
 20
639.3443010454
 11
1123.814796663
 21
637.7072350454
  0
LINE
  5
53E
100
AcDbEntity
  8
_0-1_PRO0
  6
CONTINUOUS
 62
     0
100
AcDbLine
 10
1124.097323663
 20
639.4152890454
 11
1123.882260663
 21
639.2002270454
  0
ARC
  5
53F
100
AcDbEntity
  8
_0-1_PRO0
  6
CONTINUOUS
 62
     0
100
AcDbCircle
 10
1160.025413663
 20
552.3778990454
 40
3
100
AcDbArc
 50
-90
 51
0
  0
LINE
  5
540
100
AcDbEntity
  8
_0-1_PRO0
  6
CONTINUOUS
 62
     0
100
AcDbLine
 10
1160.025413663
 20
549.3778990454
 11
1153.025413663
 21
549.3778990454
  0
ARC
  5
541
100
AcDbEntity
  8
_0-1_PRO0
  6
CONTINUOUS
 62
     0
100
AcDbCircle
 10
1160.025413663
 20
636.5310050454
 40
3
100
AcDbArc
 50
0
 51
87
  0
LINE
  5
542
100
AcDbEntity
  8
_0-1_PRO0
  6
CONTINUOUS
 62
     0
100
AcDbLine
 10
1163.025413663
 20
636.5310050454
 11
1163.025413663
 21
552.3778990454
  0
LINE
  5
543
100
AcDbEntity
  8
_0-1_PRO0
  6
CONTINUOUS
 62
     0
100
AcDbLine
 10
1147.247458663
 20
632.3971170454
 11
1161.025413663
 21
555.2405690454
  0
LINE
  5
544
100
AcDbEntity
  8
_0-1_PRO0
  6
CONTINUOUS
 62
     0
100
AcDbLine
 10
1142.817534663
 20
631.6060590454
 11
1156.594220663
 21
554.4566210454
  0
ARC
  5
545
100
AcDbEntity
  8
_0-1_PRO0
  6
CONTINUOUS
 62
     0
100
AcDbCircle
 10
1139.864252663
 20
631.0786870454
 40
3
100
AcDbArc
 50
10.124672
 51
87
  0
LINE
  5
546
100
AcDbEntity
  8
_0-1_PRO0
  6
CONTINUOUS
 62
     0
100
AcDbLine
 10
1156.108115663
 20
562.1778990454
 11
1146.857939663
 21
562.1778990454
  0
ARC
  5
547
100
AcDbEntity
  8
_0-1_PRO0
  6
CONTINUOUS
 62
     0
100
AcDbCircle
 10
1156.108115663
 20
561.6778990454
 40
0.5
100
AcDbArc
 50
12
 51
90
  0
LINE
  5
548
100
AcDbEntity
  8
_0-1_PRO0
  6
CONTINUOUS
 62
     0
100
AcDbLine
 10
1156.597189663
 20
561.7818550454
 11
1158.025413663
 21
555.0625860454
  0
LINE
  5
549
100
AcDbEntity
  8
_0-1_PRO0
  6
CONTINUOUS
 62
     0
100
AcDbLine
 10
1158.025413663
 20
555.0625860454
 11
1158.025413663
 21
551.3778990454
  0
LINE
  5
54A
100
AcDbEntity
  8
_0-1_PRO0
  6
CONTINUOUS
 62
     0
100
AcDbLine
 10
1158.525413663
 20
551.3778990454
 11
1158.025413663
 21
551.3778990454
  0
ARC
  5
54B
100
AcDbEntity
  8
_0-1_PRO0
  6
CONTINUOUS
 62
     0
100
AcDbCircle
 10
1158.525413663
 20
553.8778990454
 40
2.5
100
AcDbArc
 50
-90
 51
0
  0
LINE
  5
54C
100
AcDbEntity
  8
_0-1_PRO0
  6
CONTINUOUS
 62
     0
100
AcDbLine
 10
1146.857939663
 20
563.3778990454
 11
1149.257939663
 21
563.3778990454
  0
LINE
  5
54D
100
AcDbEntity
  8
_0-1_PRO0
  6
CONTINUOUS
 62
     0
100
AcDbLine
 10
1151.257939663
 20
564.3778990454
 11
1151.257939663
 21
563.3778990454
  0
LINE
  5
54E
100
AcDbEntity
  8
_0-1_PRO0
  6
CONTINUOUS
 62
     0
100
AcDbLine
 10
1149.257939663
 20
563.3778990454
 11
1151.257939663
 21
564.3778990454
  0
ARC
  5
54F
100
AcDbEntity
  8
_0-1_PRO0
  6
CONTINUOUS
 62
     0
100
AcDbCircle
 10
1146.857939663
 20
562.7778990454
 40
0.6
100
AcDbArc
 50
90
 51
270
  0
LINE
  5
550
100
AcDbEntity
  8
_0-1_PRO0
  6
CONTINUOUS
 62
     0
100
AcDbLine
 10
1155.640490663
 20
563.3778990454
 11
1151.257939663
 21
563.3778990454
  0
ARC
  5
551
100
AcDbEntity
  8
_0-1_PRO0
  6
CONTINUOUS
 62
     0
100
AcDbCircle
 10
1155.640490663
 20
563.8778990454
 40
0.5
100
AcDbArc
 50
-90
 51
12
  0
ARC
  5
552
100
AcDbEntity
  8
_0-1_PRO0
  6
CONTINUOUS
 62
     0
100
AcDbCircle
 10
1134.426865663
 20
611.1153990454
 40
0.5
100
AcDbArc
 50
86.99999999999
 51
177
  0
LINE
  5
553
100
AcDbEntity
  8
_0-1_PRO0
  6
CONTINUOUS
 62
     0
100
AcDbLine
 10
1133.927550663
 20
611.1415670454
 11
1133.875214663
 21
610.1429370454
  0
LINE
  5
554
100
AcDbEntity
  8
_0-1_PRO0
  6
CONTINUOUS
 62
     0
100
AcDbLine
 10
1133.349732663
 20
609.6697910454
 11
1132.850417663
 21
609.6959590454
  0
ARC
  5
555
100
AcDbEntity
  8
_0-1_PRO0
  6
CONTINUOUS
 62
     0
100
AcDbCircle
 10
1132.876585663
 20
610.1952730454
 40
0.5
100
AcDbArc
 50
177
 51
267
  0
ARC
  5
556
100
AcDbEntity
  8
_0-1_PRO0
  6
CONTINUOUS
 62
     0
100
AcDbCircle
 10
1133.375900663
 20
610.1691050454
 40
0.5
100
AcDbArc
 50
-93.00000000001
 51
-2.999999999993
  0
LINE
  5
557
100
AcDbEntity
  8
_0-1_PRO0
  6
CONTINUOUS
 62
     0
100
AcDbLine
 10
1142.128112663
 20
611.2124800454
 11
1134.453033663
 21
611.6147140454
  0
ARC
  5
558
100
AcDbEntity
  8
_0-1_PRO0
  6
CONTINUOUS
 62
     0
100
AcDbCircle
 10
1142.101944663
 20
610.7131650454
 40
0.5
100
AcDbArc
 50
-13
 51
86.99999999999
  0
LINE
  5
559
100
AcDbEntity
  8
_0-1_PRO0
  6
CONTINUOUS
 62
     0
100
AcDbLine
 10
1142.589129663
 20
610.6006900454
 11
1142.005936663
 21
608.0746050454
  0
LINE
  5
55A
100
AcDbEntity
  8
_0-1_PRO0
  6
CONTINUOUS
 62
     0
100
AcDbLine
 10
1144.191399663
 20
611.1043480454
 11
1145.368745663
 21
611.0426460454
  0
ARC
  5
55B
100
AcDbEntity
  8
_0-1_PRO0
  6
CONTINUOUS
 62
     0
100
AcDbCircle
 10
1144.175698663
 20
610.8047590454
 40
0.3
100
AcDbArc
 50
86.99999999999
 51
167
  0
LINE
  5
55C
100
AcDbEntity
  8
_0-1_PRO0
  6
CONTINUOUS
 62
     0
100
AcDbLine
 10
1143.883387663
 20
610.8722440454
 11
1143.175180663
 21
607.8046640454
  0
ARC
  5
55D
100
AcDbEntity
  8
_0-1_PRO0
  6
CONTINUOUS
 62
     0
100
AcDbCircle
 10
1145.316409663
 20
610.0440160454
 40
1
100
AcDbArc
 50
12
 51
86.99999999999
  0
ARC
  5
55E
100
AcDbEntity
  8
_0-1_PRO0
  6
CONTINUOUS
 62
     0
100
AcDbCircle
 10
1142.590558663
 20
607.9396350454
 40
0.6
100
AcDbArc
 50
167
 51
347
  0
LINE
  5
55F
100
AcDbEntity
  8
_0-1_PRO0
  6
CONTINUOUS
 62
     0
100
AcDbLine
 10
1149.069463663
 20
611.6262220454
 11
1161.025413663
 21
555.3778990454
  0
LINE
  5
560
100
AcDbEntity
  8
_0-1_PRO0
  6
CONTINUOUS
 62
     0
100
AcDbLine
 10
1146.294557663
 20
610.2519280454
 11
1156.129564663
 21
563.9818550454
  0
LINE
  5
561
100
AcDbEntity
  8
_0-1_PRO0
  6
CONTINUOUS
 62
     0
100
AcDbLine
 10
1156.594220663
 20
554.4566210454
 11
1161.025413663
 21
555.2405690454
  0
LINE
  5
562
100
AcDbEntity
  8
_0-1_PRO0
  6
CONTINUOUS
 62
     0
100
AcDbLine
 10
1133.880385663
 20
638.9025810454
 11
1133.790341663
 21
637.1844390454
  0
LINE
  5
563
100
AcDbEntity
  8
_0-1_PRO0
  6
CONTINUOUS
 62
     0
100
AcDbLine
 10
1123.894090663
 20
639.4259400454
 11
1123.804046663
 21
637.7077980454
  0
ARC
  5
564
100
AcDbEntity
  8
_0-1_PRO0
  6
CONTINUOUS
 62
     0
100
AcDbCircle
 10
1133.242937663
 20
617.1856800454
 40
0.5
100
AcDbArc
 50
86.99999999999
 51
177
  0
LINE
  5
565
100
AcDbEntity
  8
_0-1_PRO0
  6
CONTINUOUS
 62
     0
100
AcDbLine
 10
1134.610041663
 20
614.6106020454
 11
1146.292028663
 21
613.9983750454
  0
ARC
  5
566
100
AcDbEntity
  8
_0-1_PRO0
  6
CONTINUOUS
 62
     0
100
AcDbCircle
 10
1134.636209663
 20
615.1099170454
 40
0.5
100
AcDbArc
 50
177
 51
267
  0
LINE
  5
567
100
AcDbEntity
  8
_0-1_PRO0
  6
CONTINUOUS
 62
     0
100
AcDbLine
 10
1134.136894663
 20
615.1360850454
 11
1134.241566663
 21
617.1333440454
  0
ARC
  5
568
100
AcDbEntity
  8
_0-1_PRO0
  6
CONTINUOUS
 62
     0
100
AcDbCircle
 10
1133.742251663
 20
617.1595120454
 40
0.5
100
AcDbArc
 50
-3.000000000006
 51
86.99999999999
  0
LINE
  5
569
100
AcDbEntity
  8
_0-1_PRO0
  6
CONTINUOUS
 62
     0
100
AcDbLine
 10
1133.768419663
 20
617.6588270454
 11
1133.269105663
 21
617.6849950454
  0
LINE
  5
56A
100
AcDbEntity
  8
_0-1_PRO0
  6
CONTINUOUS
 62
     0
100
AcDbLine
 10
1133.790341663
 20
637.1844390454
 11
1132.324934663
 21
609.2228120454
  0
ARC
  5
56B
100
AcDbEntity
  8
_0-1_PRO0
  6
CONTINUOUS
 62
     0
100
AcDbCircle
 10
1146.135020663
 20
611.0024870454
 40
3
100
AcDbArc
 50
12
 51
87
  0
ARC
  5
56C
100
AcDbEntity
  8
_0-1_PRO0
  6
CONTINUOUS
 62
     0
100
AcDbCircle
 10
1104.073336663
 20
614.7089050454
 40
1.5
100
AcDbArc
 50
87
 51
267
  0
ARC
  5
56D
100
AcDbEntity
  8
_0-0_
  6
CONTINUOUS
 62
     0
100
AcDbCircle
 10
1160.025413663
 20
552.3778990454
 40
1.5
100
AcDbArc
 50
-90
 51
0
  0
LINE
  5
56E
100
AcDbEntity
  8
_0-0_
  6
CONTINUOUS
 62
     0
100
AcDbLine
 10
1161.525413663
 20
636.5310050454
 11
1161.525413663
 21
552.3778990454
  0
ARC
  5
56F
100
AcDbEntity
  8
_0-0_
  6
CONTINUOUS
 62
     0
100
AcDbCircle
 10
1160.025413663
 20
636.5310050454
 40
1.5
100
AcDbArc
 50
0
 51
87
  0
LINE
  5
570
100
AcDbEntity
  8
_0-0_
  6
CONTINUOUS
 62
     0
100
AcDbLine
 10
1160.103917728
 20
638.0289497433
 11
613.0254136628
 21
666.7001195037
  0
LINE
  5
571
100
AcDbEntity
  8
_0-0_
  6
CONTINUOUS
 62
     0
100
AcDbLine
 10
1160.025413663
 20
550.8778990454
 11
1153.025413663
 21
550.8778990454
  0
LINE
  5
572
100
AcDbEntity
  8
_0-1_PRO0
  6
CONTINUOUS
 62
     0
100
AcDbLine
 10
1153.025413663
 20
550.8778990454
 11
1153.025413663
 21
549.3778990454
  0
LINE
  5
573
100
AcDbEntity
  8
_0-1_PRO0
  6
CONTINUOUS
 62
     0
100
AcDbLine
 10
1161.025413663
 20
555.3778990454
 11
1161.025413663
 21
553.8778990454
  0
LINE
  5
574
100
AcDbEntity
  8
_0-1_PRO0
  6
CONTINUOUS
 62
     0
100
AcDbLine
 10
1140.054945466
 20
638.5789859518
 11
613.2347574659
 21
666.1884619291
  0
CIRCLE
  5
575
100
AcDbEntity
  8
_0-0_
  6
CONTINUOUS
 62
     0
100
AcDbCircle
 10
1146.105229779
 20
640.7293602197
 40
0.9
  0
CIRCLE
  5
576
100
AcDbEntity
  8
_0-0_
  6
CONTINUOUS
 62
     0
100
AcDbCircle
 10
1146.318583989
 20
622.5904452912
 40
0.9
  0
LINE
  5
577
100
AcDbEntity
  8
_0-0_
  6
CONTINUOUS
 62
     0
100
AcDbLine
 10
1146.105229779
 20
640.7293602197
 11
1171.241710923
 21
684.2670226836
  0
CIRCLE
  5
578
100
AcDbEntity
  8
_0-0_
  6
CONTINUOUS
 62
     0
100
AcDbCircle
 10
1172.955065133
 20
668.7261839664
 40
6
  0
LINE
  5
579
100
AcDbEntity
  8
_0-0_
  6
CONTINUOUS
 62
     0
100
AcDbLine
 10
1146.318583989
 20
622.5904452912
 11
1169.955065133
 21
663.5300315437
  0
CIRCLE
  5
57A
100
AcDbEntity
  8
_0-0_
  6
CONTINUOUS
 62
     0
100
AcDbCircle
 10
1174.241710923
 20
689.4631751063
 40
6
  0
TEXT
  5
57B
100
AcDbEntity
  8
_0-0_
  6
CONTINUOUS
 62
     0
100
AcDbText
 10
1169.109065795
 20
684.323368251
 40
9
  1
１
  7
STANDARD
100
AcDbText
  0
TEXT
  5
57C
100
AcDbEntity
  8
_0-0_
  6
CONTINUOUS
 62
     0
100
AcDbText
 10
1168.155017507
 20
663.9067348886
 40
9
  1
７
  7
STANDARD
100
AcDbText
  0
LINE
  5
57D
100
AcDbEntity
  8
ADD_LINE
  6
DOT
 62
     0
100
AcDbLine
 10
1163.025413663
 20
641.4615885284
 11
1163.025413663
 21
636.5310050454
  0
LINE
  5
57E
100
AcDbEntity
  8
_0-1_PRO0
  6
CONTINUOUS
 62
     0
100
AcDbLine
 10
1163.025413663
 20
556.1186770227
 11
1163.025413663
 21
383.7601458101
  0
LINE
  5
57F
100
AcDbEntity
  8
_0-1_PRO0
  6
CONTINUOUS
 62
     0
100
AcDbLine
 10
1163.025413663
 20
389.7601458101
 11
1157.025413663
 21
388.2601458101
  0
LINE
  5
580
100
AcDbEntity
  8
_0-1_PRO0
  6
CONTINUOUS
 62
     0
100
AcDbLine
 10
1163.025413663
 20
389.7601458101
 11
1157.025413663
 21
391.2601458101
  0
LINE
  5
581
100
AcDbEntity
  8
_0-1_PRO0
  6
CONTINUOUS
 62
     0
100
AcDbLine
 10
943.0254136628
 20
408.2559858101
 11
943.0254136628
 21
383.7601458101
  0
LINE
  5
582
100
AcDbEntity
  8
_0-1_PRO0
  6
CONTINUOUS
 62
     0
100
AcDbLine
 10
943.0254136628
 20
389.7601458101
 11
937.0254136628
 21
388.2601458101
  0
LINE
  5
583
100
AcDbEntity
  8
_0-1_PRO0
  6
CONTINUOUS
 62
     0
100
AcDbLine
 10
943.0254136628
 20
389.7601458101
 11
937.0254136628
 21
391.2601458101
  0
LINE
  5
584
100
AcDbEntity
  8
_0-1_PRO0
  6
CONTINUOUS
 62
     0
100
AcDbLine
 10
943.0254136628
 20
389.7601458101
 11
949.0254136628
 21
391.2601458101
  0
LINE
  5
585
100
AcDbEntity
  8
_0-1_PRO0
  6
CONTINUOUS
 62
     0
100
AcDbLine
 10
943.0254136628
 20
389.7601458101
 11
949.0254136628
 21
388.2601458101
  0
LINE
  5
586
100
AcDbEntity
  8
_0-2_
  6
CONTINUOUS
 62
     0
100
AcDbLine
 10
893.0254126628
 20
443.8654912089
 11
896.0254126628
 21
444.6154912089
  0
LINE
  5
587
100
AcDbEntity
  8
_0-2_
  6
CONTINUOUS
 62
     0
100
AcDbLine
 10
893.0254126628
 20
443.8654912089
 11
896.0254126628
 21
443.1154912089
  0
LINE
  5
588
100
AcDbEntity
  8
_0-2_
  6
CONTINUOUS
 62
     0
100
AcDbLine
 10
943.0254136628
 20
443.8654912089
 11
940.0254136628
 21
443.1154912089
  0
LINE
  5
589
100
AcDbEntity
  8
_0-2_
  6
CONTINUOUS
 62
     0
100
AcDbLine
 10
943.0254136628
 20
443.8654912089
 11
940.0254136628
 21
444.6154912089
  0
LINE
  5
58A
100
AcDbEntity
  8
_0-2_
  6
CONTINUOUS
 62
     0
100
AcDbLine
 10
943.0254136628
 20
443.8654912089
 11
893.0254126628
 21
443.8654912089
  0
TEXT
  5
58B
100
AcDbEntity
  8
_0-2_
  6
CONTINUOUS
 62
     0
100
AcDbText
 10
912.4457008856
 20
443.6349896691
 40
9
  1
50
  7
STANDARD
100
AcDbText
  0
LINE
  5
58C
100
AcDbEntity
  8
_0-1_PRO0
  6
CONTINUOUS
 62
     0
100
AcDbLine
 10
813.0254136628
 20
389.7601458101
 11
943.0254136628
 21
389.7601458101
  0
LINE
  5
58D
100
AcDbEntity
  8
_0-1_PRO0
  6
CONTINUOUS
 62
     0
100
AcDbLine
 10
943.0254136628
 20
389.7601458101
 11
1163.025413663
 21
389.7601458101
  0
TEXT
  5
58E
100
AcDbEntity
  8
_0-1_PRO0
  6
CONTINUOUS
 62
     0
100
AcDbText
 10
1041.952860474
 20
390.0737585967
 40
9
  1
２２０
 41
0.7377777777778
  7
STANDARD
100
AcDbText
  0
LINE
  5
58F
100
AcDbEntity
  8
_0-0_
  6
CONTINUOUS
 62
     0
100
AcDbLine
 10
780.6402215031
 20
472.3841644923
 11
813.0254136628
 21
593.2473470454
  0
LINE
  5
590
100
AcDbEntity
  8
_0-0_
  6
CONTINUOUS
 62
     0
100
AcDbLine
 10
779.6742956768
 20
472.6429835374
 11
812.2581475459
 21
594.2475742192
  0
LINE
  5
591
100
AcDbEntity
  8
_0-1_PRO0
  6
CONTINUOUS
 62
     0
100
AcDbLine
 10
813.0254136628
 20
409.7559858101
 11
813.0254136628
 21
593.2473470454
  0
LINE
  5
592
100
AcDbEntity
  8
ADD_LINE
  6
DOT
 62
     0
100
AcDbLine
 10
943.0254136628
 20
589.3167635624
 11
943.0254136628
 21
383.7601458101
  0
LINE
  5
593
100
AcDbEntity
  8
_0-1_PRO0
  6
CONTINUOUS
 62
     0
100
AcDbLine
 10
943.0254136628
 20
409.7559858101
 11
943.0254136628
 21
593.2473470454
  0
CIRCLE
  5
594
100
AcDbEntity
  8
_0-3_
  6
CONTINUOUS
 62
     0
100
AcDbCircle
 10
910.5294319614
 20
606.9986840314
 40
0.9
  0
CIRCLE
  5
595
100
AcDbEntity
  8
_0-3_
  6
CONTINUOUS
 62
     0
100
AcDbCircle
 10
903.1852231054
 20
608.7359619571
 40
0.9
  0
LINE
  5
596
100
AcDbEntity
  8
_0-3_
  6
CONTINUOUS
 62
     0
100
AcDbLine
 10
903.2053296395
 20
608.6647428071
 11
914.9870157713
 21
588.2582638281
  0
CIRCLE
  5
597
100
AcDbEntity
  8
_0-3_
  6
CONTINUOUS
 62
     0
100
AcDbCircle
 10
917.9870157713
 20
583.0621114054
 40
6
  0
TEXT
  5
598
100
AcDbEntity
  8
_0-3_
  6
CONTINUOUS
 62
     0
100
AcDbText
 10
913.7916718594
 20
578.4139687346
 40
9
  1
６
  7
STANDARD
100
AcDbText
  0
LINE
  5
599
100
AcDbEntity
  8
_0-3_
  6
CONTINUOUS
 62
     0
100
AcDbLine
 10
897.3226723561
 20
601.4675879261
 11
913.745058021
 21
573.0231815731
  0
CIRCLE
  5
59A
100
AcDbEntity
  8
_0-3_
  6
CONTINUOUS
 62
     0
100
AcDbCircle
 10
897.3451512059
 20
601.3479191927
 40
0.9
  0
CIRCLE
  5
59B
100
AcDbEntity
  8
_0-3_
  6
CONTINUOUS
 62
     0
100
AcDbCircle
 10
885.8859886242
 20
598.483503978
 40
0.9
  0
LINE
  5
59C
100
AcDbEntity
  8
_0-3_
  6
CONTINUOUS
 62
     0
100
AcDbLine
 10
885.9372605821
 20
598.4312555417
 11
876.2400069502
 21
581.6351195574
  0
CIRCLE
  5
59D
100
AcDbEntity
  8
_0-3_
  6
CONTINUOUS
 62
     0
100
AcDbCircle
 10
873.2400069502
 20
576.4389671347
 40
6
  0
TEXT
  5
59E
100
AcDbEntity
  8
_0-3_
  6
CONTINUOUS
 62
     0
100
AcDbText
 10
868.2104873307
 20
571.5418649949
 40
9
  1
13
  7
STANDARD
100
AcDbText
  0
TEXT
  5
59F
100
AcDbEntity
  8
_0-3_
  6
CONTINUOUS
 62
     0
100
AcDbText
 10
912.7646472679
 20
562.8538292962
 40
9
  1
11
  7
STANDARD
100
AcDbText
  0
CIRCLE
  5
5A0
100
AcDbEntity
  8
_0-3_
  6
CONTINUOUS
 62
     0
100
AcDbCircle
 10
916.745058021
 20
567.8270291504
 40
6
  0
CIRCLE
  5
5A1
100
AcDbEntity
  8
_0-3_
  6
CONTINUOUS
 62
     0
100
AcDbCircle
 10
890.8994026868
 20
567.1646856473
 40
0.9
  0
LINE
  5
5A2
100
AcDbEntity
  8
_0-3_
  6
CONTINUOUS
 62
     0
100
AcDbLine
 10
890.8994026868
 20
567.1646856473
 11
880.8577884921
 21
549.772099672
  0
TEXT
  5
5A3
100
AcDbEntity
  8
_0-3_
  6
CONTINUOUS
 62
     0
100
AcDbText
 10
873.0990846964
 20
539.7483515929
 40
9
  1
12
  7
STANDARD
100
AcDbText
  0
CIRCLE
  5
5A4
100
AcDbEntity
  8
_0-3_
  6
CONTINUOUS
 62
     0
100
AcDbCircle
 10
877.8577884921
 20
544.5759472493
 40
6
  0
LINE
  5
5A5
100
AcDbEntity
  8
_0-2_
  6
CONTINUOUS
 62
     0
100
AcDbLine
 10
888.2609809484
 20
609.8253100454
 11
897.4483729484
 21
609.3438190454
  0
LINE
  5
5A6
100
AcDbEntity
  8
_0-2_
  6
CONTINUOUS
 62
     0
100
AcDbLine
 10
878.0430859484
 20
593.8213695171
 11
878.4690634767
 21
594.2473470454
  0
ARC
  5
5A7
100
AcDbEntity
  8
_0-2_
  6
CONTINUOUS
 62
     0
100
AcDbCircle
 10
878.0430859484
 20
585.9973470454
 40
8.25
100
AcDbArc
 50
90
 51
108.9246444161
  0
ARC
  5
5A8
100
AcDbEntity
  8
_0-2_
  6
CONTINUOUS
 62
     0
100
AcDbCircle
 10
878.0430859484
 20
585.9973470454
 40
9.25
100
AcDbArc
 50
90
 51
108.9246444161
  0
ARC
  5
5A9
100
AcDbEntity
  8
_0-2_
  6
CONTINUOUS
 62
     0
100
AcDbCircle
 10
872.0430859484
 20
603.4973470454
 40
9.25
100
AcDbArc
 50
-90
 51
-71.07535558395
  0
LINE
  5
5AA
100
AcDbEntity
  8
_0-2_
  6
CONTINUOUS
 62
     0
100
AcDbLine
 10
893.0254126628
 20
547.8139460454
 11
893.0254126628
 21
593.2473470454
  0
LINE
  5
5AB
100
AcDbEntity
  8
_0-2_
  6
CONTINUOUS
 62
     0
100
AcDbLine
 10
897.7754146628
 20
584.2473470454
 11
897.0754126628
 21
584.9473460454
  0
LINE
  5
5AC
100
AcDbEntity
  8
_0-2_
  6
CONTINUOUS
 62
     0
100
AcDbLine
 10
897.0754126628
 20
594.2473460454
 11
897.0754126628
 21
584.9473460454
  0
LINE
  5
5AD
100
AcDbEntity
  8
_0-2_
  6
CONTINUOUS
 62
     0
100
AcDbLine
 10
897.7754146628
 20
565.6191740454
 11
897.7754146628
 21
584.2473470454
  0
LINE
  5
5AE
100
AcDbEntity
  8
_0-2_
  6
CONTINUOUS
 62
     0
100
AcDbLine
 10
897.5254126628
 20
553.7473460454
 11
897.5254126628
 21
554.6106500454
  0
LINE
  5
5AF
100
AcDbEntity
  8
_0-2_
  6
CONTINUOUS
 62
     0
100
AcDbLine
 10
899.6504446628
 20
554.9853500454
 11
897.7754146628
 21
565.6191740454
  0
LINE
  5
5B0
100
AcDbEntity
  8
_0-2_
  6
CONTINUOUS
 62
     0
100
AcDbLine
 10
893.5254136628
 20
565.2473450454
 11
892.5254146628
 21
565.2473450454
  0
LINE
  5
5B1
100
AcDbEntity
  8
_0-2_
  6
CONTINUOUS
 62
     0
100
AcDbLine
 10
888.2754136628
 20
584.2473470454
 11
888.9754126628
 21
584.9473460454
  0
LINE
  5
5B2
100
AcDbEntity
  8
_0-2_
  6
CONTINUOUS
 62
     0
100
AcDbLine
 10
888.9754126628
 20
594.2473460454
 11
888.9754126628
 21
584.9473460454
  0
LINE
  5
5B3
100
AcDbEntity
  8
_0-2_
  6
CONTINUOUS
 62
     0
100
AcDbLine
 10
888.2754136628
 20
565.6191740454
 11
888.2754136628
 21
584.2473470454
  0
LINE
  5
5B4
100
AcDbEntity
  8
_0-2_
  6
CONTINUOUS
 62
     0
100
AcDbLine
 10
889.5254146628
 20
552.7473470454
 11
896.5254136628
 21
552.7473470454
  0
ARC
  5
5B5
100
AcDbEntity
  8
_0-2_
  6
CONTINUOUS
 62
     0
100
AcDbCircle
 10
889.5254146628
 20
553.7473460454
 40
0.999999
100
AcDbArc
 50
180
 51
270
  0
LINE
  5
5B6
100
AcDbEntity
  8
_0-2_
  6
CONTINUOUS
 62
     0
100
AcDbLine
 10
888.5254126628
 20
553.7473460454
 11
888.5254126628
 21
554.6106500454
  0
LINE
  5
5B7
100
AcDbEntity
  8
_0-2_
  6
CONTINUOUS
 62
     0
100
AcDbLine
 10
886.4003836628
 20
554.9853500454
 11
890.5858156628
 21
554.2473470454
  0
LINE
  5
5B8
100
AcDbEntity
  8
_0-2_
  6
CONTINUOUS
 62
     0
100
AcDbLine
 10
893.5254136628
 20
565.2473450454
 11
895.4650096628
 21
554.2473470454
  0
LINE
  5
5B9
100
AcDbEntity
  8
_0-2_
  6
CONTINUOUS
 62
     0
100
AcDbLine
 10
892.5254146628
 20
565.2473450454
 11
890.5858156628
 21
554.2473470454
  0
LINE
  5
5BA
100
AcDbEntity
  8
_0-2_
  6
CONTINUOUS
 62
     0
100
AcDbLine
 10
886.4003836628
 20
554.9853500454
 11
888.2754136628
 21
565.6191740454
  0
LINE
  5
5BB
100
AcDbEntity
  8
_0-2_
  6
CONTINUOUS
 62
     0
100
AcDbLine
 10
897.7754146628
 20
584.2473470454
 11
888.2754136628
 21
584.2473470454
  0
LINE
  5
5BC
100
AcDbEntity
  8
_0-2_
  6
CONTINUOUS
 62
     0
100
AcDbLine
 10
897.0754126628
 20
584.9473460454
 11
888.9754126628
 21
584.9473460454
  0
LINE
  5
5BD
100
AcDbEntity
  8
_0-2_
  6
CONTINUOUS
 62
     0
100
AcDbLine
 10
899.6504446628
 20
554.9853500454
 11
895.4650096628
 21
554.2473470454
  0
ARC
  5
5BE
100
AcDbEntity
  8
_0-2_
  6
CONTINUOUS
 62
     0
100
AcDbCircle
 10
896.5254136628
 20
553.7473460454
 40
0.999999
100
AcDbArc
 50
-90
 51
0
  0
LINE
  5
5BF
100
AcDbEntity
  8
_0-2_
  6
CONTINUOUS
 62
     0
100
AcDbLine
 10
878.8832770391
 20
593.2473470454
 11
879.8832770391
 21
594.2473470454
  0
LINE
  5
5C0
100
AcDbEntity
  8
_0-2_
  6
CONTINUOUS
 62
     0
100
AcDbLine
 10
880.2974906015
 20
593.2473470454
 11
881.2974906015
 21
594.2473470454
  0
LINE
  5
5C1
100
AcDbEntity
  8
_0-2_
  6
CONTINUOUS
 62
     0
100
AcDbLine
 10
881.7117041638
 20
593.2473470454
 11
882.7117041638
 21
594.2473470454
  0
LINE
  5
5C2
100
AcDbEntity
  8
_0-2_
  6
CONTINUOUS
 62
     0
100
AcDbLine
 10
883.1259177262
 20
593.2473470454
 11
884.1259177262
 21
594.2473470454
  0
LINE
  5
5C3
100
AcDbEntity
  8
_0-2_
  6
CONTINUOUS
 62
     0
100
AcDbLine
 10
884.5401312886
 20
593.2473470454
 11
885.5401312886
 21
594.2473470454
  0
LINE
  5
5C4
100
AcDbEntity
  8
_0-2_
  6
CONTINUOUS
 62
     0
100
AcDbLine
 10
885.954344851
 20
593.2473470454
 11
886.954344851
 21
594.2473470454
  0
LINE
  5
5C5
100
AcDbEntity
  8
_0-2_
  6
CONTINUOUS
 62
     0
100
AcDbLine
 10
887.3685584133
 20
593.2473470454
 11
888.3685584133
 21
594.2473470454
  0
LINE
  5
5C6
100
AcDbEntity
  8
_0-2_
  6
CONTINUOUS
 62
     0
100
AcDbLine
 10
888.7827719757
 20
593.2473470454
 11
889.7827719757
 21
594.2473470454
  0
LINE
  5
5C7
100
AcDbEntity
  8
_0-2_
  6
CONTINUOUS
 62
     0
100
AcDbLine
 10
890.1969855381
 20
593.2473470454
 11
891.1969855381
 21
594.2473470454
  0
LINE
  5
5C8
100
AcDbEntity
  8
_0-2_
  6
CONTINUOUS
 62
     0
100
AcDbLine
 10
891.6111991005
 20
593.2473470454
 11
892.6111991005
 21
594.2473470454
  0
LINE
  5
5C9
100
AcDbEntity
  8
_0-2_
  6
CONTINUOUS
 62
     0
100
AcDbLine
 10
893.0254126628
 20
593.2473470454
 11
894.0254126628
 21
594.2473470454
  0
LINE
  5
5CA
100
AcDbEntity
  8
_0-2_
  6
CONTINUOUS
 62
     0
100
AcDbLine
 10
894.4396262252
 20
593.2473470454
 11
895.4396262252
 21
594.2473470454
  0
LINE
  5
5CB
100
AcDbEntity
  8
_0-2_
  6
CONTINUOUS
 62
     0
100
AcDbLine
 10
895.8538397876
 20
593.2473470454
 11
896.8538397876
 21
594.2473470454
  0
LINE
  5
5CC
100
AcDbEntity
  8
_0-2_
  6
CONTINUOUS
 62
     0
100
AcDbLine
 10
897.26805335
 20
593.2473470454
 11
898.26805335
 21
594.2473470454
  0
LINE
  5
5CD
100
AcDbEntity
  8
_0-2_
  6
CONTINUOUS
 62
     0
100
AcDbLine
 10
898.6822669123
 20
593.2473470454
 11
899.6822669123
 21
594.2473470454
  0
LINE
  5
5CE
100
AcDbEntity
  8
_0-2_
  6
CONTINUOUS
 62
     0
100
AcDbLine
 10
900.0964804747
 20
593.2473470454
 11
901.0964804747
 21
594.2473470454
  0
LINE
  5
5CF
100
AcDbEntity
  8
_0-2_
  6
CONTINUOUS
 62
     0
100
AcDbLine
 10
901.5106940371
 20
593.2473470454
 11
902.5106940371
 21
594.2473470454
  0
LINE
  5
5D0
100
AcDbEntity
  8
_0-2_
  6
CONTINUOUS
 62
     0
100
AcDbLine
 10
902.9249075994
 20
593.2473470454
 11
903.9249075994
 21
594.2473470454
  0
LINE
  5
5D1
100
AcDbEntity
  8
_0-2_
  6
CONTINUOUS
 62
     0
100
AcDbLine
 10
904.3391211618
 20
593.2473470454
 11
905.3391211618
 21
594.2473470454
  0
LINE
  5
5D2
100
AcDbEntity
  8
_0-2_
  6
CONTINUOUS
 62
     0
100
AcDbLine
 10
905.7533347242
 20
593.2473470454
 11
906.7533347242
 21
594.2473470454
  0
LINE
  5
5D3
100
AcDbEntity
  8
_0-2_
  6
CONTINUOUS
 62
     0
100
AcDbLine
 10
907.1675482866
 20
593.2473470454
 11
908.0430859484
 21
594.1228847073
  0
LINE
  5
5D4
100
AcDbEntity
  8
_0-2_
  6
CONTINUOUS
 62
     0
100
AcDbLine
 10
908.0430859484
 20
593.2473470454
 11
878.0430859484
 21
593.2473470454
  0
LINE
  5
5D5
100
AcDbEntity
  8
_0-2_
  6
CONTINUOUS
 62
     0
100
AcDbLine
 10
878.0430859484
 20
593.2473470454
 11
878.0430859484
 21
594.2473470454
  0
LINE
  5
5D6
100
AcDbEntity
  8
_0-2_
  6
CONTINUOUS
 62
     0
100
AcDbLine
 10
878.0430859484
 20
594.2473470454
 11
908.0430859484
 21
594.2473470454
  0
LINE
  5
5D7
100
AcDbEntity
  8
_0-2_
  6
CONTINUOUS
 62
     0
100
AcDbLine
 10
908.0430859484
 20
594.2473470454
 11
908.0430859484
 21
593.2473470454
  0
ARC
  5
5D8
100
AcDbEntity
  8
_0-2_
  6
CONTINUOUS
 62
     0
100
AcDbCircle
 10
872.0430859484
 20
603.4973470454
 40
10.25
100
AcDbArc
 50
-90
 51
-71.07535558395
  0
LINE
  5
5D9
100
AcDbEntity
  8
_0-2_
  6
CONTINUOUS
 62
     0
100
AcDbLine
 10
902.0430859484
 20
599.3561170454
 11
902.0430859484
 21
597.7561180454
  0
LINE
  5
5DA
100
AcDbEntity
  8
_0-2_
  6
CONTINUOUS
 62
     0
100
AcDbLine
 10
902.0430859484
 20
599.3561170454
 11
884.0430859484
 21
599.3561170454
  0
LINE
  5
5DB
100
AcDbEntity
  8
_0-2_
  6
CONTINUOUS
 62
     0
100
AcDbLine
 10
884.0430859484
 20
599.3561170454
 11
884.0430859484
 21
597.7561180454
  0
LINE
  5
5DC
100
AcDbEntity
  8
_0-2_
  6
CONTINUOUS
 62
     0
100
AcDbLine
 10
887.1630859484
 20
603.6191800454
 11
887.1630859484
 21
599.3561170454
  0
LINE
  5
5DD
100
AcDbEntity
  8
_0-2_
  6
CONTINUOUS
 62
     0
100
AcDbLine
 10
888.0930859484
 20
604.1561170454
 11
887.1630859484
 21
603.6191800454
  0
ARC
  5
5DE
100
AcDbEntity
  8
_0-2_
  6
CONTINUOUS
 62
     0
100
AcDbCircle
 10
888.0930859484
 20
600.3467230454
 40
3.809394
100
AcDbArc
 50
59.210036
 51
90
  0
ARC
  5
5DF
100
AcDbEntity
  8
_0-2_
  6
CONTINUOUS
 62
     0
100
AcDbCircle
 10
893.0430859484
 20
595.5067570454
 40
8.64936
100
AcDbArc
 50
69.705445
 51
110.294555
  0
LINE
  5
5E0
100
AcDbEntity
  8
_0-2_
  6
CONTINUOUS
 62
     0
100
AcDbLine
 10
890.0430859484
 20
603.6191800454
 11
890.0430859484
 21
599.3561170454
  0
LINE
  5
5E1
100
AcDbEntity
  8
_0-2_
  6
CONTINUOUS
 62
     0
100
AcDbLine
 10
896.0430859484
 20
603.6191800454
 11
896.0430859484
 21
599.3561170454
  0
LINE
  5
5E2
100
AcDbEntity
  8
_0-2_
  6
CONTINUOUS
 62
     0
100
AcDbLine
 10
898.9230859484
 20
603.6191800454
 11
898.9230859484
 21
599.3561170454
  0
LINE
  5
5E3
100
AcDbEntity
  8
_0-2_
  6
CONTINUOUS
 62
     0
100
AcDbLine
 10
897.9930859484
 20
604.1561170454
 11
898.9230859484
 21
603.6191800454
  0
LINE
  5
5E4
100
AcDbEntity
  8
_0-2_
  6
CONTINUOUS
 62
     0
100
AcDbLine
 10
888.0930859484
 20
604.1561170454
 11
897.9930859484
 21
604.1561170454
  0
ARC
  5
5E5
100
AcDbEntity
  8
_0-2_
  6
CONTINUOUS
 62
     0
100
AcDbCircle
 10
897.9930859484
 20
600.3467230454
 40
3.809394
100
AcDbArc
 50
90
 51
120.789964
  0
LINE
  5
5E6
100
AcDbEntity
  8
_0-2_
  6
CONTINUOUS
 62
     0
100
AcDbLine
 10
888.3133159484
 20
610.8239410454
 11
888.2609809484
 21
609.8253100454
  0
LINE
  5
5E7
100
AcDbEntity
  8
_0-2_
  6
CONTINUOUS
 62
     0
100
AcDbLine
 10
897.5007079484
 20
610.3424500454
 11
897.4483729484
 21
609.3438190454
  0
ARC
  5
5E8
100
AcDbEntity
  8
_0-2_
  6
CONTINUOUS
 62
     0
100
AcDbCircle
 10
887.3146879484
 20
610.8762760454
 40
0.999999
100
AcDbArc
 50
-3.000000000005
 51
86.99999999999
  0
ARC
  5
5E9
100
AcDbEntity
  8
_0-2_
  6
CONTINUOUS
 62
     0
100
AcDbCircle
 10
898.4993389484
 20
610.2901120454
 40
0.999999
100
AcDbArc
 50
86.99999999999
 51
177
  0
ARC
  5
5EA
100
AcDbEntity
  8
_0-2_
  6
CONTINUOUS
 62
     0
100
AcDbCircle
 10
881.0430859484
 20
604.7561170454
 40
0.999999
100
AcDbArc
 50
-90
 51
0
  0
LINE
  5
5EB
100
AcDbEntity
  8
_0-2_
  6
CONTINUOUS
 62
     0
100
AcDbLine
 10
881.0430859484
 20
603.7561180454
 11
876.8430859484
 21
603.7561180454
  0
ARC
  5
5EC
100
AcDbEntity
  8
_0-2_
  6
CONTINUOUS
 62
     0
100
AcDbCircle
 10
884.6430859484
 20
611.0162890454
 40
0.999999
100
AcDbArc
 50
86.99999999999
 51
180
  0
LINE
  5
5ED
100
AcDbEntity
  8
_0-2_
  6
CONTINUOUS
 62
     0
100
AcDbLine
 10
901.4954209484
 20
611.1344680454
 11
884.6954209484
 21
612.0149170454
  0
ARC
  5
5EE
100
AcDbEntity
  8
_0-2_
  6
CONTINUOUS
 62
     0
100
AcDbCircle
 10
901.4430859484
 20
610.1358370454
 40
0.999999
100
AcDbArc
 50
0
 51
86.99999999999
  0
LINE
  5
5EF
100
AcDbEntity
  8
_0-2_
  6
CONTINUOUS
 62
     0
100
AcDbLine
 10
905.0430859484
 20
603.7561180454
 11
909.2430859484
 21
603.7561180454
  0
ARC
  5
5F0
100
AcDbEntity
  8
_0-2_
  6
CONTINUOUS
 62
     0
100
AcDbCircle
 10
905.0430859484
 20
604.7561170454
 40
0.999999
100
AcDbArc
 50
180
 51
270
  0
LINE
  5
5F1
100
AcDbEntity
  8
_0-2_
  6
CONTINUOUS
 62
     0
100
AcDbLine
 10
883.6430869484
 20
604.7561170454
 11
883.6430869484
 21
611.0162890454
  0
ARC
  5
5F2
100
AcDbEntity
  8
_0-2_
  6
CONTINUOUS
 62
     0
100
AcDbCircle
 10
881.0430859484
 20
604.7561170454
 40
2.600001
100
AcDbArc
 50
-90
 51
0
  0
LINE
  5
5F3
100
AcDbEntity
  8
_0-2_
  6
CONTINUOUS
 62
     0
100
AcDbLine
 10
881.0430859484
 20
602.1561160454
 11
876.5430859484
 21
602.1561160454
  0
LINE
  5
5F4
100
AcDbEntity
  8
_0-2_
  6
CONTINUOUS
 62
     0
100
AcDbLine
 10
882.0430849484
 20
611.0162890454
 11
882.0430849484
 21
604.7561170454
  0
ARC
  5
5F5
100
AcDbEntity
  8
_0-2_
  6
CONTINUOUS
 62
     0
100
AcDbCircle
 10
884.6430859484
 20
611.0162890454
 40
2.600001
100
AcDbArc
 50
87
 51
180
  0
LINE
  5
5F6
100
AcDbEntity
  8
_0-2_
  6
CONTINUOUS
 62
     0
100
AcDbLine
 10
904.0430869484
 20
610.1358370454
 11
904.0430869484
 21
604.7561170454
  0
ARC
  5
5F7
100
AcDbEntity
  8
_0-2_
  6
CONTINUOUS
 62
     0
100
AcDbCircle
 10
901.4430859484
 20
610.1358370454
 40
2.600001
100
AcDbArc
 50
0
 51
87
  0
LINE
  5
5F8
100
AcDbEntity
  8
_0-2_
  6
CONTINUOUS
 62
     0
100
AcDbLine
 10
901.5791599484
 20
612.7322740454
 11
884.7791599484
 21
613.6127260454
  0
LINE
  5
5F9
100
AcDbEntity
  8
_0-2_
  6
CONTINUOUS
 62
     0
100
AcDbLine
 10
902.4430849484
 20
604.7561170454
 11
902.4430849484
 21
610.1358370454
  0
ARC
  5
5FA
100
AcDbEntity
  8
_0-2_
  6
CONTINUOUS
 62
     0
100
AcDbCircle
 10
905.0430859484
 20
604.7561170454
 40
2.600001
100
AcDbArc
 50
180
 51
270
  0
LINE
  5
5FB
100
AcDbEntity
  8
_0-2_
  6
CONTINUOUS
 62
     0
100
AcDbLine
 10
905.0430859484
 20
602.1561160454
 11
909.5430859484
 21
602.1561160454
  0
LINE
  5
5FC
100
AcDbEntity
  8
_0-2_
  6
CONTINUOUS
 62
     0
100
AcDbLine
 10
909.2430859484
 20
601.2561160454
 11
907.2930859484
 21
601.2561160454
  0
ARC
  5
5FD
100
AcDbEntity
  8
_0-2_
  6
CONTINUOUS
 62
     0
100
AcDbCircle
 10
909.2430859484
 20
601.5561160454
 40
0.3
100
AcDbArc
 50
-90
 51
0
  0
ARC
  5
5FE
100
AcDbEntity
  8
_0-2_
  6
CONTINUOUS
 62
     0
100
AcDbCircle
 10
909.2430859484
 20
603.4561180454
 40
0.3
100
AcDbArc
 50
0
 51
90
  0
LINE
  5
5FF
100
AcDbEntity
  8
_0-2_
  6
CONTINUOUS
 62
     0
100
AcDbLine
 10
892.5430849484
 20
597.7561180454
 11
893.0430859484
 21
597.2561170454
  0
LINE
  5
600
100
AcDbEntity
  8
_0-2_
  6
CONTINUOUS
 62
     0
100
AcDbLine
 10
893.5430869484
 20
597.7561180454
 11
893.0430859484
 21
597.2561170454
  0
LINE
  5
601
100
AcDbEntity
  8
_0-2_
  6
CONTINUOUS
 62
     0
100
AcDbLine
 10
888.0430849484
 20
595.7561170454
 11
888.0430849484
 21
595.2561160454
  0
LINE
  5
602
100
AcDbEntity
  8
_0-2_
  6
CONTINUOUS
 62
     0
100
AcDbLine
 10
909.0430849484
 20
605.2561180454
 11
906.2930869484
 21
605.2561180454
  0
ARC
  5
603
100
AcDbEntity
  8
_0-2_
  6
CONTINUOUS
 62
     0
100
AcDbCircle
 10
909.0430849484
 20
605.7561160454
 40
0.500001
100
AcDbArc
 50
-90
 51
0
  0
ARC
  5
604
100
AcDbEntity
  8
_0-2_
  6
CONTINUOUS
 62
     0
100
AcDbCircle
 10
906.2930869484
 20
604.5061180454
 40
0.75
100
AcDbArc
 50
90
 51
270
  0
LINE
  5
605
100
AcDbEntity
  8
_0-2_
  6
CONTINUOUS
 62
     0
100
AcDbLine
 10
898.0430869484
 20
595.7561170454
 11
909.5430859484
 21
595.7561170454
  0
LINE
  5
606
100
AcDbEntity
  8
_0-2_
  6
CONTINUOUS
 62
     0
100
AcDbLine
 10
898.0430869484
 20
595.7561170454
 11
898.0430869484
 21
595.2561160454
  0
ARC
  5
607
100
AcDbEntity
  8
_0-2_
  6
CONTINUOUS
 62
     0
100
AcDbCircle
 10
907.2930859484
 20
600.5061160454
 40
0.75
100
AcDbArc
 50
90
 51
270
  0
LINE
  5
608
100
AcDbEntity
  8
_0-2_
  6
CONTINUOUS
 62
     0
100
AcDbLine
 10
909.2430859484
 20
599.7561160454
 11
907.2930859484
 21
599.7561160454
  0
ARC
  5
609
100
AcDbEntity
  8
_0-2_
  6
CONTINUOUS
 62
     0
100
AcDbCircle
 10
909.2430859484
 20
599.4561160454
 40
0.3
100
AcDbArc
 50
0
 51
90
  0
LINE
  5
60A
100
AcDbEntity
  8
_0-2_
  6
CONTINUOUS
 62
     0
100
AcDbLine
 10
876.5430859484
 20
595.7561170454
 11
888.0430849484
 21
595.7561170454
  0
LINE
  5
60B
100
AcDbEntity
  8
_0-2_
  6
CONTINUOUS
 62
     0
100
AcDbLine
 10
876.8430859484
 20
601.2561160454
 11
878.7930859484
 21
601.2561160454
  0
ARC
  5
60C
100
AcDbEntity
  8
_0-2_
  6
CONTINUOUS
 62
     0
100
AcDbCircle
 10
876.8430859484
 20
601.5561160454
 40
0.3
100
AcDbArc
 50
180
 51
270
  0
LINE
  5
60D
100
AcDbEntity
  8
_0-2_
  6
CONTINUOUS
 62
     0
100
AcDbLine
 10
876.5430859484
 20
601.5561160454
 11
876.5430859484
 21
603.4561180454
  0
ARC
  5
60E
100
AcDbEntity
  8
_0-2_
  6
CONTINUOUS
 62
     0
100
AcDbCircle
 10
876.8430859484
 20
603.4561180454
 40
0.3
100
AcDbArc
 50
90
 51
180
  0
LINE
  5
60F
100
AcDbEntity
  8
_0-2_
  6
CONTINUOUS
 62
     0
100
AcDbLine
 10
875.5430869484
 20
605.2561180454
 11
879.7930849484
 21
605.2561180454
  0
ARC
  5
610
100
AcDbEntity
  8
_0-2_
  6
CONTINUOUS
 62
     0
100
AcDbCircle
 10
875.5430869484
 20
604.7561170454
 40
0.500001
100
AcDbArc
 50
90
 51
180
  0
ARC
  5
611
100
AcDbEntity
  8
_0-2_
  6
CONTINUOUS
 62
     0
100
AcDbCircle
 10
879.7930849484
 20
604.5061180454
 40
0.75
100
AcDbArc
 50
-90
 51
90
  0
LINE
  5
612
100
AcDbEntity
  8
_0-2_
  6
CONTINUOUS
 62
     0
100
AcDbLine
 10
875.0430859484
 20
604.7561170454
 11
875.0430859484
 21
595.2561160454
  0
LINE
  5
613
100
AcDbEntity
  8
_0-2_
  6
CONTINUOUS
 62
     0
100
AcDbLine
 10
876.5430859484
 20
595.7561170454
 11
876.5430859484
 21
595.2561160454
  0
ARC
  5
614
100
AcDbEntity
  8
_0-2_
  6
CONTINUOUS
 62
     0
100
AcDbCircle
 10
878.7930859484
 20
600.5061160454
 40
0.75
100
AcDbArc
 50
-90
 51
90
  0
ARC
  5
615
100
AcDbEntity
  8
_0-2_
  6
CONTINUOUS
 62
     0
100
AcDbCircle
 10
876.8430859484
 20
598.0561180454
 40
0.3
100
AcDbArc
 50
180
 51
270
  0
LINE
  5
616
100
AcDbEntity
  8
_0-2_
  6
CONTINUOUS
 62
     0
100
AcDbLine
 10
876.5430859484
 20
598.0561180454
 11
876.5430859484
 21
599.4561160454
  0
ARC
  5
617
100
AcDbEntity
  8
_0-2_
  6
CONTINUOUS
 62
     0
100
AcDbCircle
 10
876.8430859484
 20
599.4561160454
 40
0.3
100
AcDbArc
 50
90
 51
180
  0
LINE
  5
618
100
AcDbEntity
  8
_0-2_
  6
CONTINUOUS
 62
     0
100
AcDbLine
 10
876.8430859484
 20
599.7561160454
 11
878.7930859484
 21
599.7561160454
  0
ARC
  5
619
100
AcDbEntity
  8
_0-2_
  6
CONTINUOUS
 62
     0
100
AcDbCircle
 10
909.0430849484
 20
598.2561160454
 40
0.500001
100
AcDbArc
 50
-90
 51
0
  0
LINE
  5
61A
100
AcDbEntity
  8
_0-2_
  6
CONTINUOUS
 62
     0
100
AcDbLine
 10
909.0430849484
 20
597.7561180454
 11
876.8430859484
 21
597.7561180454
  0
LINE
  5
61B
100
AcDbEntity
  8
_0-2_
  6
CONTINUOUS
 62
     0
100
AcDbLine
 10
876.5430859484
 20
595.2561160454
 11
875.0430859484
 21
595.2561160454
  0
ARC
  5
61C
100
AcDbEntity
  8
_0-2_
  6
CONTINUOUS
 62
     0
100
AcDbCircle
 10
910.5430849484
 20
613.2561160454
 40
0.999999
100
AcDbArc
 50
0
 51
180
  0
LINE
  5
61D
100
AcDbEntity
  8
_0-2_
  6
CONTINUOUS
 62
     0
100
AcDbLine
 10
909.5430859484
 20
605.7561160454
 11
909.5430859484
 21
613.2561160454
  0
LINE
  5
61E
100
AcDbEntity
  8
_0-2_
  6
CONTINUOUS
 62
     0
100
AcDbLine
 10
909.5430859484
 20
601.5561160454
 11
909.5430859484
 21
603.4561180454
  0
ARC
  5
61F
100
AcDbEntity
  8
_0-2_
  6
CONTINUOUS
 62
     0
100
AcDbCircle
 10
912.0430849484
 20
598.2561160454
 40
0.500001
100
AcDbArc
 50
180
 51
270
  0
LINE
  5
620
100
AcDbEntity
  8
_0-2_
  6
CONTINUOUS
 62
     0
100
AcDbLine
 10
911.5430869484
 20
596.2561180454
 11
911.5430869484
 21
595.2561160454
  0
LINE
  5
621
100
AcDbEntity
  8
_0-2_
  6
CONTINUOUS
 62
     0
100
AcDbLine
 10
909.5430859484
 20
595.7561170454
 11
909.5430859484
 21
595.2561160454
  0
LINE
  5
622
100
AcDbEntity
  8
_0-2_
  6
CONTINUOUS
 62
     0
100
AcDbLine
 10
909.5430859484
 20
598.2561160454
 11
909.5430859484
 21
599.4561160454
  0
LINE
  5
623
100
AcDbEntity
  8
_0-2_
  6
CONTINUOUS
 62
     0
100
AcDbLine
 10
922.0430869484
 20
596.2561180454
 11
922.0430869484
 21
595.2561160454
  0
LINE
  5
624
100
AcDbEntity
  8
_0-2_
  6
CONTINUOUS
 62
     0
100
AcDbLine
 10
923.5430869484
 20
595.2561160454
 11
922.0430869484
 21
595.2561160454
  0
LINE
  5
625
100
AcDbEntity
  8
_0-2_
  6
CONTINUOUS
 62
     0
100
AcDbLine
 10
911.5430869484
 20
595.2561160454
 11
909.5430859484
 21
595.2561160454
  0
LINE
  5
626
100
AcDbEntity
  8
_0-2_
  6
CONTINUOUS
 62
     0
100
AcDbLine
 10
923.5430869484
 20
597.2561180454
 11
923.5430869484
 21
595.2561160454
  0
ARC
  5
627
100
AcDbEntity
  8
_0-2_
  6
CONTINUOUS
 62
     0
100
AcDbCircle
 10
923.0430869484
 20
597.2561180454
 40
0.5
100
AcDbArc
 50
0
 51
90
  0
LINE
  5
628
100
AcDbEntity
  8
_0-2_
  6
CONTINUOUS
 62
     0
100
AcDbLine
 10
911.7930869484
 20
601.0061180454
 11
913.0430869485
 21
601.0061180454
  0
LINE
  5
629
100
AcDbEntity
  8
_0-2_
  6
CONTINUOUS
 62
     0
100
AcDbLine
 10
916.0430869485
 20
601.0061180454
 11
917.2930869484
 21
601.0061180454
  0
ARC
  5
62A
100
AcDbEntity
  8
_0-2_
  6
CONTINUOUS
 62
     0
100
AcDbCircle
 10
942.8896924208
 20
643.9415106677
 40
0.5
100
AcDbArc
 50
-99.19866089521
 51
78.59045565079
  0
ARC
  5
62B
100
AcDbEntity
  8
_0-2_
  6
CONTINUOUS
 62
     0
100
AcDbCircle
 10
938.0430869485
 20
619.9256739054
 40
25
100
AcDbArc
 50
78.59045565079
 51
180
  0
ARC
  5
62C
100
AcDbEntity
  8
_0-2_
  6
CONTINUOUS
 62
     0
100
AcDbCircle
 10
939.1190325425
 20
620.6573054034
 40
23.08754100601
100
AcDbArc
 50
80.80133910481
 51
181.8159758207
  0
LINE
  5
62D
100
AcDbEntity
  8
_0-2_
  6
CONTINUOUS
 62
     0
100
AcDbLine
 10
911.5430869484
 20
596.2561180454
 11
919.0490358223
 21
596.2561180454
  0
LINE
  5
62E
100
AcDbEntity
  8
_0-2_
  6
CONTINUOUS
 62
     0
100
AcDbLine
 10
919.0490358223
 20
596.2561180454
 11
922.0430869484
 21
596.2561180454
  0
LINE
  5
62F
100
AcDbEntity
  8
_0-2_
  6
CONTINUOUS
 62
     0
100
AcDbLine
 10
917.0430869484
 20
597.7561180454
 11
912.0430849484
 21
597.7561180454
  0
LINE
  5
630
100
AcDbEntity
  8
_0-2_
  6
CONTINUOUS
 62
     0
100
AcDbLine
 10
923.0430869484
 20
597.7561180454
 11
919.0430869484
 21
597.7561180454
  0
ARC
  5
631
100
AcDbEntity
  8
_0-2_
  6
CONTINUOUS
 62
     0
100
AcDbCircle
 10
917.0430869484
 20
598.2561180454
 40
0.25
100
AcDbArc
 50
-90
 51
0
  0
ARC
  5
632
100
AcDbEntity
  8
_0-2_
  6
CONTINUOUS
 62
     0
100
AcDbCircle
 10
912.0430849484
 20
598.2561160454
 40
0.250001
100
AcDbArc
 50
180
 51
270
  0
LINE
  5
633
100
AcDbEntity
  8
_0-2_
  6
CONTINUOUS
 62
     0
100
AcDbLine
 10
917.2930869484
 20
598.2561180454
 11
917.2930869484
 21
601.0061180454
  0
LINE
  5
634
100
AcDbEntity
  8
_0-2_
  6
CONTINUOUS
 62
     0
100
AcDbLine
 10
911.7930869484
 20
598.2561160454
 11
911.7930869484
 21
601.0061180454
  0
LINE
  5
635
100
AcDbEntity
  8
_0-2_
  6
CONTINUOUS
 62
     0
100
AcDbLine
 10
917.0430869484
 20
598.0061180454
 11
912.0430849484
 21
598.0061180454
  0
LINE
  5
636
100
AcDbEntity
  8
_0-2_
  6
CONTINUOUS
 62
     0
100
AcDbLine
 10
911.5430869484
 20
613.2561160454
 11
911.5430869484
 21
602.7561180454
  0
LINE
  5
637
100
AcDbEntity
  8
_0-2_
  6
CONTINUOUS
 62
     0
100
AcDbLine
 10
911.5430869484
 20
601.2561180454
 11
911.5430869484
 21
598.2561160454
  0
LINE
  5
638
100
AcDbEntity
  8
_0-2_
  6
CONTINUOUS
 62
     0
100
AcDbLine
 10
917.5430869484
 20
598.2561180454
 11
917.5430869484
 21
601.2561180454
  0
LINE
  5
639
100
AcDbEntity
  8
_0-2_
  6
CONTINUOUS
 62
     0
100
AcDbLine
 10
919.0430869484
 20
602.2561180454
 11
919.0430869484
 21
597.7561180454
  0
ARC
  5
63A
100
AcDbEntity
  8
_0-2_
  6
CONTINUOUS
 62
     0
100
AcDbCircle
 10
918.5430869484
 20
602.2561180454
 40
0.5
100
AcDbArc
 50
0
 51
90
  0
ARC
  5
63B
100
AcDbEntity
  8
_0-2_
  6
CONTINUOUS
 62
     0
100
AcDbCircle
 10
917.0430869484
 20
598.2561180454
 40
0.5
100
AcDbArc
 50
-90
 51
0
  0
LINE
  5
63C
100
AcDbEntity
  8
_0-2_
  6
CONTINUOUS
 62
     0
100
AcDbLine
 10
918.5430869484
 20
602.7561180454
 11
917.2930869484
 21
602.7561180454
  0
ARC
  5
63D
100
AcDbEntity
  8
_0-2_
  6
CONTINUOUS
 62
     0
100
AcDbCircle
 10
917.2930869484
 20
601.7561180454
 40
1
100
AcDbArc
 50
90
 51
180
  0
LINE
  5
63E
100
AcDbEntity
  8
_0-2_
  6
CONTINUOUS
 62
     0
100
AcDbLine
 10
916.2930869484
 20
601.7561180454
 11
916.2930869484
 21
601.2561180454
  0
LINE
  5
63F
100
AcDbEntity
  8
_0-2_
  6
CONTINUOUS
 62
     0
100
AcDbLine
 10
916.2930869484
 20
601.2561180454
 11
917.5430869484
 21
601.2561180454
  0
LINE
  5
640
100
AcDbEntity
  8
_0-2_
  6
CONTINUOUS
 62
     0
100
AcDbLine
 10
911.5430869484
 20
601.2561180454
 11
912.7930869484
 21
601.2561180454
  0
LINE
  5
641
100
AcDbEntity
  8
_0-2_
  6
CONTINUOUS
 62
     0
100
AcDbLine
 10
912.7930869484
 20
601.7561180454
 11
912.7930869484
 21
601.2561180454
  0
ARC
  5
642
100
AcDbEntity
  8
_0-2_
  6
CONTINUOUS
 62
     0
100
AcDbCircle
 10
911.7930869484
 20
601.7561180454
 40
1
100
AcDbArc
 50
0
 51
90
  0
LINE
  5
643
100
AcDbEntity
  8
_0-2_
  6
CONTINUOUS
 62
     0
100
AcDbLine
 10
911.7930869484
 20
602.7561180454
 11
911.5430869484
 21
602.7561180454
  0
LINE
  5
644
100
AcDbEntity
  8
_0-2_
  6
CONTINUOUS
 62
     0
100
AcDbLine
 10
908.0430859484
 20
594.1228847073
 11
908.0430859484
 21
595.2473470454
  0
LINE
  5
645
100
AcDbEntity
  8
_0-2_
  6
CONTINUOUS
 62
     0
100
AcDbLine
 10
878.0430859484
 20
595.2473470454
 11
908.0430859484
 21
595.2473470454
  0
LINE
  5
646
100
AcDbEntity
  8
_0-2_
  6
CONTINUOUS
 62
     0
100
AcDbLine
 10
893.0254126628
 20
546.8139440454
 11
893.0254126628
 21
439.8654892089
  0
LINE
  5
647
100
AcDbEntity
  8
_0-2_
  6
CONTINUOUS
 62
     0
100
AcDbLine
 10
943.0254136628
 20
593.2473470454
 11
943.0254136628
 21
433.2461032089
  0
LINE
  5
648
100
AcDbEntity
  8
_0-2_
  6
CONTINUOUS
 62
     0
100
AcDbLine
 10
913.0430869485
 20
601.0061180454
 11
913.0294417353
 21
620.9745445993
  0
LINE
  5
649
100
AcDbEntity
  8
_0-2_
  6
CONTINUOUS
 62
     0
100
AcDbLine
 10
916.0430869485
 20
601.0061180454
 11
916.0294417353
 21
622.4378075954
  0
LINE
  5
64A
100
AcDbEntity
  8
_0-1_PRO0
  6
CONTINUOUS
 62
     0
100
AcDbLine
 10
813.0254136628
 20
593.2473470454
 11
943.0254136628
 21
593.2473470454
  0
LINE
  5
64B
100
AcDbEntity
  8
_0-1_PRO0
  6
CONTINUOUS
 62
     0
100
AcDbLine
 10
872.0077399736
 20
594.2396852755
 11
812.2581475459
 21
594.2475742192
  0
CIRCLE
  5
64C
100
AcDbEntity
  8
_0-3_
  6
CONTINUOUS
 62
     0
100
AcDbCircle
 10
946.923353945
 20
632.3301421685
 40
0.9
  0
LINE
  5
64D
100
AcDbEntity
  8
_0-3_
  6
CONTINUOUS
 62
     0
100
AcDbLine
 10
946.923353945
 20
632.3301421685
 11
960.8486690566
 21
656.4494954533
  0
TEXT
  5
64E
100
AcDbEntity
  8
_0-3_
  6
CONTINUOUS
 62
     0
100
AcDbText
 10
959.014719192
 20
656.1090824801
 40
9
  1
４
  7
STANDARD
100
AcDbText
  0
CIRCLE
  5
64F
100
AcDbEntity
  8
_0-3_
  6
CONTINUOUS
 62
     0
100
AcDbCircle
 10
963.8486690566
 20
661.645647876
 40
6
  0
CIRCLE
  5
650
100
AcDbEntity
  8
_0-3_
  6
CONTINUOUS
 62
     0
100
AcDbCircle
 10
942.2264099772
 20
662.0725179459
 40
6
  0
TEXT
  5
651
100
AcDbEntity
  8
_0-3_
  6
CONTINUOUS
 62
     0
100
AcDbText
 10
937.6007639309
 20
657.0337588118
 40
9
  1
２
  7
STANDARD
100
AcDbText
  0
LINE
  5
652
100
AcDbEntity
  8
_0-3_
  6
CONTINUOUS
 62
     0
100
AcDbLine
 10
910.5758368056
 20
606.9227840254
 11
939.2264099772
 21
656.8763655232
  0
TEXT
  5
653
100
AcDbEntity
  8
_0-1_PRO0
  6
CONTINUOUS
 62
     0
100
AcDbText
 10
874.7963054688
 20
390.5896738899
 40
9
  1
≦Ｃ
 41
0.7377777777778
  7
STANDARD
100
AcDbText
  0
LINE
  5
654
100
AcDbEntity
  8
ADD_LINE
  6
DOT
 62
     0
100
AcDbLine
 10
1135.182421532
 20
640.837088144
 11
1189.316691211
 21
637.5561951601
  0
LINE
  5
655
100
AcDbEntity
  8
_0-1_PRO0
  6
CONTINUOUS
 62
     0
100
AcDbLine
 10
1176.660608444
 20
549.3778990454
 11
1187.943560444
 21
549.3778990454
  0
LINE
  5
656
100
AcDbEntity
  8
_0-1_PRO0
  6
CONTINUOUS
 62
     0
100
AcDbLine
 10
1197.288746484
 20
639.3778990454
 11
1197.288746484
 21
549.3778990454
  0
LINE
  5
657
100
AcDbEntity
  8
_0-1_PRO0
  6
CONTINUOUS
 62
     0
100
AcDbLine
 10
1164.025413663
 20
639.3778990454
 11
1203.288746484
 21
639.3778990454
  0
LINE
  5
658
100
AcDbEntity
  8
_0-1_PRO0
  6
CONTINUOUS
 62
     0
100
AcDbLine
 10
1161.025413663
 20
549.3778990454
 11
1203.288746484
 21
549.3778990454
  0
LINE
  5
659
100
AcDbEntity
  8
_0-1_PRO0
  6
CONTINUOUS
 62
     0
100
AcDbLine
 10
1197.288746484
 20
639.3778990454
 11
1198.788746484
 21
633.3778990454
  0
LINE
  5
65A
100
AcDbEntity
  8
_0-1_PRO0
  6
CONTINUOUS
 62
     0
100
AcDbLine
 10
1197.288746484
 20
639.3778990454
 11
1195.788746484
 21
633.3778990454
  0
LINE
  5
65B
100
AcDbEntity
  8
_0-1_PRO0
  6
CONTINUOUS
 62
     0
100
AcDbLine
 10
1197.288746484
 20
549.3778990454
 11
1195.788746484
 21
555.3778990454
  0
LINE
  5
65C
100
AcDbEntity
  8
_0-1_PRO0
  6
CONTINUOUS
 62
     0
100
AcDbLine
 10
1197.288746484
 20
549.3778990454
 11
1198.788746484
 21
555.3778990454
  0
TEXT
  5
65D
100
AcDbEntity
  8
_0-1_PRO0
  6
CONTINUOUS
 62
     0
100
AcDbText
 10
1194.288679484
 20
586.6535080454
 40
9
  1
９０
 41
0.7377777777778
 50
90.000003
  7
STANDARD
100
AcDbText
  0
LINE
  5
65E
100
AcDbEntity
  8
_0-1_PRO0
  6
CONTINUOUS
 62
     0
100
AcDbLine
 10
996.5494214781
 20
593.2473470454
 11
1185.634426919
 21
593.2473470454
  0
LINE
  5
65F
100
AcDbEntity
  8
_0-1_PRO0
  6
CONTINUOUS
 62
     0
100
AcDbLine
 10
1179.634426919
 20
593.2473470454
 11
1178.134426919
 21
587.2473470454
  0
LINE
  5
660
100
AcDbEntity
  8
_0-1_PRO0
  6
CONTINUOUS
 62
     0
100
AcDbLine
 10
1179.634426919
 20
593.2473470454
 11
1181.134426919
 21
587.2473470454
  0
LINE
  5
661
100
AcDbEntity
  8
_0-1_PRO0
  6
CONTINUOUS
 62
     0
100
AcDbLine
 10
1179.634426919
 20
593.2473470454
 11
1179.634426919
 21
549.3778990454
  0
LINE
  5
662
100
AcDbEntity
  8
_0-1_PRO0
  6
CONTINUOUS
 62
     0
100
AcDbLine
 10
1179.634426919
 20
549.3778990454
 11
1181.134426919
 21
555.3778990454
  0
LINE
  5
663
100
AcDbEntity
  8
_0-1_PRO0
  6
CONTINUOUS
 62
     0
100
AcDbLine
 10
1179.634426919
 20
549.3778990454
 11
1178.134426919
 21
555.3778990454
  0
TEXT
  5
664
100
AcDbEntity
  8
_0-1_PRO0
  6
CONTINUOUS
 62
     0
100
AcDbText
 10
1179.071985678
 20
564.973317867
 40
9
  1
４４
 41
0.7377777777778
 50
90.000003
  7
STANDARD
100
AcDbText
  0
LINE
  5
665
100
AcDbEntity
  8
_0-1_PRO0
  6
CONTINUOUS
 62
     0
100
AcDbLine
 10
74.79288766283
 20
564.3778990454
 11
74.79288766283
 21
563.3778990454
  0
LINE
  5
666
100
AcDbEntity
  8
_0-1_PRO0
  6
CONTINUOUS
 62
     0
100
AcDbLine
 10
86.23139366283
 20
634.0851530454
 11
613.0515816628
 21
661.6946290227
  0
LINE
  5
667
100
AcDbEntity
  8
_0-1_PRO0
  6
CONTINUOUS
 62
     0
100
AcDbLine
 10
92.26048566283
 20
637.1844390454
 11
613.0254136628
 21
664.4765720227
  0
LINE
  5
668
100
AcDbEntity
  8
_0-1_PRO0
  6
CONTINUOUS
 62
     0
100
AcDbLine
 10
92.49599766283
 20
632.6906060454
 11
613.0254136628
 21
659.9703970227
  0
LINE
  5
669
100
AcDbEntity
  8
_0-1_PRO0
  6
CONTINUOUS
 62
     0
100
AcDbLine
 10
92.57450166283
 20
631.1926620454
 11
613.0254136628
 21
658.4683380227
  0
LINE
  5
66A
100
AcDbEntity
  8
_0-1_PRO0
  6
CONTINUOUS
 62
     0
100
AcDbLine
 10
93.34383966283
 20
616.5128070454
 11
613.0254136628
 21
643.7481650227
  0
LINE
  5
66B
100
AcDbEntity
  8
_0-1_PRO0
  6
CONTINUOUS
 62
     0
100
AcDbLine
 10
93.43804466283
 20
614.7152740454
 11
613.0254136628
 21
641.9456940227
  0
LINE
  5
66C
100
AcDbEntity
  8
_0-1_PRO0
  6
CONTINUOUS
 62
     0
100
AcDbLine
 10
93.59505266283
 20
611.7193860454
 11
613.0254136628
 21
638.9415770227
  0
LINE
  5
66D
100
AcDbEntity
  8
_0-1_PRO0
  6
CONTINUOUS
 62
     0
100
AcDbLine
 10
93.67355666283
 20
610.2214410454
 11
613.0254136628
 21
637.4395190227
  0
LINE
  5
66E
100
AcDbEntity
  8
_0-1_PRO0
  6
CONTINUOUS
 62
     0
100
AcDbLine
 10
93.72589266283
 20
609.2228120454
 11
613.0254136628
 21
636.4381470227
  0
LINE
  5
66F
100
AcDbEntity
  8
_0-1_PRO0
  6
CONTINUOUS
 62
     0
100
AcDbLine
 10
65.86840566283
 20
639.5268940454
 11
613.0254136628
 21
668.2021780227
  0
ARC
  5
670
100
AcDbEntity
  8
_0-1_PRO0
  6
CONTINUOUS
 62
     0
100
AcDbCircle
 10
86.18657466283
 20
631.0786870454
 40
7.5
100
AcDbArc
 50
93
 51
169.875328
  0
LINE
  5
671
100
AcDbEntity
  8
_0-1_PRO0
  6
CONTINUOUS
 62
     0
100
AcDbLine
 10
99.26592666283
 20
639.2744390454
 11
100.9029926628
 21
637.6373730454
  0
LINE
  5
672
100
AcDbEntity
  8
_0-1_PRO0
  6
CONTINUOUS
 62
     0
100
AcDbLine
 10
97.92213866283
 20
639.2040140454
 11
99.55920366283
 21
637.5669480454
  0
LINE
  5
673
100
AcDbEntity
  8
_0-1_PRO0
  6
CONTINUOUS
 62
     0
100
AcDbLine
 10
96.57834966283
 20
639.1335890454
 11
98.21541566283
 21
637.4965230454
  0
LINE
  5
674
100
AcDbEntity
  8
_0-1_PRO0
  6
CONTINUOUS
 62
     0
100
AcDbLine
 10
95.23456066283
 20
639.0631640454
 11
96.87162666283
 21
637.4260980454
  0
LINE
  5
675
100
AcDbEntity
  8
_0-1_PRO0
  6
CONTINUOUS
 62
     0
100
AcDbLine
 10
93.89077266283
 20
638.9927390454
 11
95.52783766283
 21
637.3556740454
  0
LINE
  5
676
100
AcDbEntity
  8
_0-1_PRO0
  6
CONTINUOUS
 62
     0
100
AcDbLine
 10
92.54698366283
 20
638.9223140454
 11
94.18404966283
 21
637.2852490454
  0
LINE
  5
677
100
AcDbEntity
  8
_0-1_PRO0
  6
CONTINUOUS
 62
     0
100
AcDbLine
 10
92.84026066283
 20
637.2148240454
 11
92.22673966283
 21
637.8283440454
  0
LINE
  5
678
100
AcDbEntity
  8
_0-1_PRO0
  6
CONTINUOUS
 62
     0
100
AcDbLine
 10
100.5989646628
 20
639.3443010454
 11
102.2360306628
 21
637.7072350454
  0
LINE
  5
679
100
AcDbEntity
  8
_0-1_PRO0
  6
CONTINUOUS
 62
     0
100
AcDbLine
 10
101.9535036628
 20
639.4152890454
 11
102.1685666628
 21
639.2002270454
  0
ARC
  5
67A
100
AcDbEntity
  8
_0-1_PRO0
  6
CONTINUOUS
 62
     0
100
AcDbCircle
 10
66.02541366283
 20
552.3778990454
 40
3
100
AcDbArc
 50
180
 51
270
  0
LINE
  5
67B
100
AcDbEntity
  8
_0-1_PRO0
  6
CONTINUOUS
 62
     0
100
AcDbLine
 10
66.02541366283
 20
549.3778990454
 11
73.02541366283
 21
549.3778990454
  0
ARC
  5
67C
100
AcDbEntity
  8
_0-1_PRO0
  6
CONTINUOUS
 62
     0
100
AcDbCircle
 10
66.02541366283
 20
636.5310050454
 40
3
100
AcDbArc
 50
93
 51
180
  0
LINE
  5
67D
100
AcDbEntity
  8
_0-1_PRO0
  6
CONTINUOUS
 62
     0
100
AcDbLine
 10
63.02541366283
 20
636.5310050454
 11
63.02541366283
 21
552.3778990454
  0
LINE
  5
67E
100
AcDbEntity
  8
_0-1_PRO0
  6
CONTINUOUS
 62
     0
100
AcDbLine
 10
78.80336866283
 20
632.3971170454
 11
65.02541366283
 21
555.2405690454
  0
LINE
  5
67F
100
AcDbEntity
  8
_0-1_PRO0
  6
CONTINUOUS
 62
     0
100
AcDbLine
 10
83.23329266283
 20
631.6060590454
 11
69.45660666283
 21
554.4566210454
  0
ARC
  5
680
100
AcDbEntity
  8
_0-1_PRO0
  6
CONTINUOUS
 62
     0
100
AcDbCircle
 10
86.18657466283
 20
631.0786870454
 40
3
100
AcDbArc
 50
93
 51
169.875328
  0
LINE
  5
681
100
AcDbEntity
  8
_0-1_PRO0
  6
CONTINUOUS
 62
     0
100
AcDbLine
 10
69.94271166283
 20
562.1778990454
 11
79.19288766283
 21
562.1778990454
  0
ARC
  5
682
100
AcDbEntity
  8
_0-1_PRO0
  6
CONTINUOUS
 62
     0
100
AcDbCircle
 10
69.94271166283
 20
561.6778990454
 40
0.5
100
AcDbArc
 50
90
 51
168
  0
LINE
  5
683
100
AcDbEntity
  8
_0-1_PRO0
  6
CONTINUOUS
 62
     0
100
AcDbLine
 10
69.45363766283
 20
561.7818550454
 11
68.02541366283
 21
555.0625860454
  0
LINE
  5
684
100
AcDbEntity
  8
_0-1_PRO0
  6
CONTINUOUS
 62
     0
100
AcDbLine
 10
68.02541366283
 20
555.0625860454
 11
68.02541366283
 21
551.3778990454
  0
LINE
  5
685
100
AcDbEntity
  8
_0-1_PRO0
  6
CONTINUOUS
 62
     0
100
AcDbLine
 10
67.52541366283
 20
551.3778990454
 11
68.02541366283
 21
551.3778990454
  0
ARC
  5
686
100
AcDbEntity
  8
_0-1_PRO0
  6
CONTINUOUS
 62
     0
100
AcDbCircle
 10
67.52541366283
 20
553.8778990454
 40
2.5
100
AcDbArc
 50
180
 51
270
  0
LINE
  5
687
100
AcDbEntity
  8
_0-1_PRO0
  6
CONTINUOUS
 62
     0
100
AcDbLine
 10
79.19288766283
 20
563.3778990454
 11
76.79288766283
 21
563.3778990454
  0
LINE
  5
688
100
AcDbEntity
  8
_0-1_PRO0
  6
CONTINUOUS
 62
     0
100
AcDbLine
 10
76.79288766283
 20
563.3778990454
 11
74.79288766283
 21
564.3778990454
  0
ARC
  5
689
100
AcDbEntity
  8
_0-1_PRO0
  6
CONTINUOUS
 62
     0
100
AcDbCircle
 10
79.19288766283
 20
562.7778990454
 40
0.6
100
AcDbArc
 50
-90
 51
90
  0
LINE
  5
68A
100
AcDbEntity
  8
_0-1_PRO0
  6
CONTINUOUS
 62
     0
100
AcDbLine
 10
70.41033666283
 20
563.3778990454
 11
74.79288766283
 21
563.3778990454
  0
ARC
  5
68B
100
AcDbEntity
  8
_0-1_PRO0
  6
CONTINUOUS
 62
     0
100
AcDbCircle
 10
70.41033666283
 20
563.8778990454
 40
0.5
100
AcDbArc
 50
168
 51
270
  0
ARC
  5
68C
100
AcDbEntity
  8
_0-1_PRO0
  6
CONTINUOUS
 62
     0
100
AcDbCircle
 10
91.62396166283
 20
611.1153990454
 40
0.5
100
AcDbArc
 50
3.000000000005
 51
93.00000000001
  0
LINE
  5
68D
100
AcDbEntity
  8
_0-1_PRO0
  6
CONTINUOUS
 62
     0
100
AcDbLine
 10
92.12327666283
 20
611.1415670454
 11
92.17561266283
 21
610.1429370454
  0
LINE
  5
68E
100
AcDbEntity
  8
_0-1_PRO0
  6
CONTINUOUS
 62
     0
100
AcDbLine
 10
92.70109466283
 20
609.6697910454
 11
93.20040966283
 21
609.6959590454
  0
ARC
  5
68F
100
AcDbEntity
  8
_0-1_PRO0
  6
CONTINUOUS
 62
     0
100
AcDbCircle
 10
93.17424166283
 20
610.1952730454
 40
0.5
100
AcDbArc
 50
-86.99999999999
 51
2.999999999992
  0
ARC
  5
690
100
AcDbEntity
  8
_0-1_PRO0
  6
CONTINUOUS
 62
     0
100
AcDbCircle
 10
92.67492666283
 20
610.1691050454
 40
0.5
100
AcDbArc
 50
-177
 51
-86.99999999999
  0
LINE
  5
691
100
AcDbEntity
  8
_0-1_PRO0
  6
CONTINUOUS
 62
     0
100
AcDbLine
 10
83.92271466283
 20
611.2124800454
 11
91.59779366283
 21
611.6147140454
  0
ARC
  5
692
100
AcDbEntity
  8
_0-1_PRO0
  6
CONTINUOUS
 62
     0
100
AcDbCircle
 10
83.94888266283
 20
610.7131650454
 40
0.5
100
AcDbArc
 50
93.00000000001
 51
193
  0
LINE
  5
693
100
AcDbEntity
  8
_0-1_PRO0
  6
CONTINUOUS
 62
     0
100
AcDbLine
 10
83.46169766283
 20
610.6006900454
 11
84.04489066283
 21
608.0746050454
  0
LINE
  5
694
100
AcDbEntity
  8
_0-1_PRO0
  6
CONTINUOUS
 62
     0
100
AcDbLine
 10
81.85942766283
 20
611.1043480454
 11
80.68208166283
 21
611.0426460454
  0
ARC
  5
695
100
AcDbEntity
  8
_0-1_PRO0
  6
CONTINUOUS
 62
     0
100
AcDbCircle
 10
81.87512866283
 20
610.8047590454
 40
0.3
100
AcDbArc
 50
13
 51
93.00000000001
  0
LINE
  5
696
100
AcDbEntity
  8
_0-1_PRO0
  6
CONTINUOUS
 62
     0
100
AcDbLine
 10
82.16743966283
 20
610.8722440454
 11
82.87564666283
 21
607.8046640454
  0
ARC
  5
697
100
AcDbEntity
  8
_0-1_PRO0
  6
CONTINUOUS
 62
     0
100
AcDbCircle
 10
80.73441766283
 20
610.0440160454
 40
1
100
AcDbArc
 50
93
 51
168
  0
ARC
  5
698
100
AcDbEntity
  8
_0-1_PRO0
  6
CONTINUOUS
 62
     0
100
AcDbCircle
 10
83.46026866283
 20
607.9396350454
 40
0.6
100
AcDbArc
 50
-167
 51
13
  0
LINE
  5
699
100
AcDbEntity
  8
_0-1_PRO0
  6
CONTINUOUS
 62
     0
100
AcDbLine
 10
76.98136366283
 20
611.6262220454
 11
65.02541366283
 21
555.3778990454
  0
LINE
  5
69A
100
AcDbEntity
  8
_0-1_PRO0
  6
CONTINUOUS
 62
     0
100
AcDbLine
 10
79.75626966283
 20
610.2519280454
 11
69.92126266283
 21
563.9818550454
  0
LINE
  5
69B
100
AcDbEntity
  8
_0-1_PRO0
  6
CONTINUOUS
 62
     0
100
AcDbLine
 10
69.45660666283
 20
554.4566210454
 11
65.02541366283
 21
555.2405690454
  0
LINE
  5
69C
100
AcDbEntity
  8
_0-1_PRO0
  6
CONTINUOUS
 62
     0
100
AcDbLine
 10
92.17044166283
 20
638.9025810454
 11
92.26048566283
 21
637.1844390454
  0
LINE
  5
69D
100
AcDbEntity
  8
_0-1_PRO0
  6
CONTINUOUS
 62
     0
100
AcDbLine
 10
102.1567366628
 20
639.4259400454
 11
102.2467806628
 21
637.7077980454
  0
ARC
  5
69E
100
AcDbEntity
  8
_0-1_PRO0
  6
CONTINUOUS
 62
     0
100
AcDbCircle
 10
92.80788966283
 20
617.1856800454
 40
0.5
100
AcDbArc
 50
3.000000000005
 51
93.00000000001
  0
LINE
  5
69F
100
AcDbEntity
  8
_0-1_PRO0
  6
CONTINUOUS
 62
     0
100
AcDbLine
 10
91.44078566283
 20
614.6106020454
 11
79.75879866283
 21
613.9983750454
  0
ARC
  5
6A0
100
AcDbEntity
  8
_0-1_PRO0
  6
CONTINUOUS
 62
     0
100
AcDbCircle
 10
91.41461766283
 20
615.1099170454
 40
0.5
100
AcDbArc
 50
-86.99999999999
 51
3.000000000005
  0
LINE
  5
6A1
100
AcDbEntity
  8
_0-1_PRO0
  6
CONTINUOUS
 62
     0
100
AcDbLine
 10
91.91393266283
 20
615.1360850454
 11
91.80926066283
 21
617.1333440454
  0
ARC
  5
6A2
100
AcDbEntity
  8
_0-1_PRO0
  6
CONTINUOUS
 62
     0
100
AcDbCircle
 10
92.30857566283
 20
617.1595120454
 40
0.5
100
AcDbArc
 50
93.00000000001
 51
183
  0
LINE
  5
6A3
100
AcDbEntity
  8
_0-1_PRO0
  6
CONTINUOUS
 62
     0
100
AcDbLine
 10
92.28240766283
 20
617.6588270454
 11
92.78172166283
 21
617.6849950454
  0
LINE
  5
6A4
100
AcDbEntity
  8
_0-1_PRO0
  6
CONTINUOUS
 62
     0
100
AcDbLine
 10
92.26048566283
 20
637.1844390454
 11
93.72589266283
 21
609.2228120454
  0
ARC
  5
6A5
100
AcDbEntity
  8
_0-1_PRO0
  6
CONTINUOUS
 62
     0
100
AcDbCircle
 10
79.91580666283
 20
611.0024870454
 40
3
100
AcDbArc
 50
93
 51
168
  0
ARC
  5
6A6
100
AcDbEntity
  8
_0-1_PRO0
  6
CONTINUOUS
 62
     0
100
AcDbCircle
 10
121.9774906628
 20
614.7089050454
 40
1.5
100
AcDbArc
 50
-87
 51
93
  0
ARC
  5
6A7
100
AcDbEntity
  8
_0-0_
  6
CONTINUOUS
 62
     0
100
AcDbCircle
 10
66.02541366283
 20
552.3778990454
 40
1.5
100
AcDbArc
 50
180
 51
270
  0
LINE
  5
6A8
100
AcDbEntity
  8
_0-0_
  6
CONTINUOUS
 62
     0
100
AcDbLine
 10
64.52541366283
 20
636.5310050454
 11
64.52541366283
 21
552.3778990454
  0
ARC
  5
6A9
100
AcDbEntity
  8
_0-0_
  6
CONTINUOUS
 62
     0
100
AcDbCircle
 10
66.02541366283
 20
636.5310050454
 40
1.5
100
AcDbArc
 50
93
 51
180
  0
LINE
  5
6AA
100
AcDbEntity
  8
_0-0_
  6
CONTINUOUS
 62
     0
100
AcDbLine
 10
65.94690959793
 20
638.0289497433
 11
613.0254136628
 21
666.7001195037
  0
LINE
  5
6AB
100
AcDbEntity
  8
_0-0_
  6
CONTINUOUS
 62
     0
100
AcDbLine
 10
66.02541366283
 20
550.8778990454
 11
73.02541366283
 21
550.8778990454
  0
LINE
  5
6AC
100
AcDbEntity
  8
_0-1_PRO0
  6
CONTINUOUS
 62
     0
100
AcDbLine
 10
73.02541366283
 20
550.8778990454
 11
73.02541366283
 21
549.3778990454
  0
LINE
  5
6AD
100
AcDbEntity
  8
_0-1_PRO0
  6
CONTINUOUS
 62
     0
100
AcDbLine
 10
65.02541366283
 20
555.3778990454
 11
65.02541366283
 21
553.8778990454
  0
LINE
  5
6AE
100
AcDbEntity
  8
_0-1_PRO0
  6
CONTINUOUS
 62
     0
100
AcDbLine
 10
85.99588185974
 20
638.5789859518
 11
612.8160698597
 21
666.1884619291
  0
LINE
  5
6AF
100
AcDbEntity
  8
_0-1_PRO0
  6
CONTINUOUS
 62
     0
100
AcDbLine
 10
63.02541366283
 20
556.1186770227
 11
63.02541366283
 21
383.7601458101
  0
LINE
  5
6B0
100
AcDbEntity
  8
_0-1_PRO0
  6
CONTINUOUS
 62
     0
100
AcDbLine
 10
63.02541366283
 20
389.7601458101
 11
69.02541366283
 21
391.2601458101
  0
LINE
  5
6B1
100
AcDbEntity
  8
_0-1_PRO0
  6
CONTINUOUS
 62
     0
100
AcDbLine
 10
63.02541366283
 20
389.7601458101
 11
69.02541366283
 21
388.2601458101
  0
LINE
  5
6B2
100
AcDbEntity
  8
_0-1_PRO0
  6
CONTINUOUS
 62
     0
100
AcDbLine
 10
63.02541366283
 20
642.7717830227
 11
63.02541366283
 21
743.3612469943
  0
LINE
  5
6B3
100
AcDbEntity
  8
_0-1_PRO0
  6
CONTINUOUS
 62
     0
100
AcDbLine
 10
63.02541366283
 20
739.3612469943
 11
69.02541366283
 21
740.8612469943
  0
LINE
  5
6B4
100
AcDbEntity
  8
_0-1_PRO0
  6
CONTINUOUS
 62
     0
100
AcDbLine
 10
63.02541366283
 20
739.3612469943
 11
69.02541366283
 21
737.8612469943
  0
LINE
  5
6B5
100
AcDbEntity
  8
_0-1_PRO0
  6
CONTINUOUS
 62
     0
100
AcDbLine
 10
1163.025413663
 20
642.7717830227
 11
1163.025413663
 21
743.3612469943
  0
LINE
  5
6B6
100
AcDbEntity
  8
_0-1_PRO0
  6
CONTINUOUS
 62
     0
100
AcDbLine
 10
1163.025413663
 20
739.3612469943
 11
1157.025413663
 21
737.8612469943
  0
LINE
  5
6B7
100
AcDbEntity
  8
_0-1_PRO0
  6
CONTINUOUS
 62
     0
100
AcDbLine
 10
1163.025413663
 20
739.3612469943
 11
1157.025413663
 21
740.8612469943
  0
LINE
  5
6B8
100
AcDbEntity
  8
_0-1_PRO0
  6
CONTINUOUS
 62
     0
100
AcDbLine
 10
63.02541366283
 20
739.3612469943
 11
1163.025413663
 21
739.3612469943
  0
LINE
  5
6B9
100
AcDbEntity
  8
ADD_LINE
  6
DOT
 62
     0
100
AcDbLine
 10
996.5494214781
 20
593.2473470454
 11
63.02541366283
 21
593.2473470454
  0
LINE
  5
6BA
100
AcDbEntity
  8
_0-1_PRO0
  6
CONTINUOUS
 62
     0
100
AcDbLine
 10
283.0254136628
 20
389.7601458101
 11
289.0254136628
 21
391.2601458101
  0
LINE
  5
6BB
100
AcDbEntity
  8
_0-1_PRO0
  6
CONTINUOUS
 62
     0
100
AcDbLine
 10
283.0254136628
 20
389.7601458101
 11
289.0254136628
 21
388.2601458101
  0
LINE
  5
6BC
100
AcDbEntity
  8
_0-1_PRO0
  6
CONTINUOUS
 62
     0
100
AcDbLine
 10
283.0254136628
 20
408.2559858101
 11
283.0254136628
 21
383.7601458101
  0
LINE
  5
6BD
100
AcDbEntity
  8
_0-1_PRO0
  6
CONTINUOUS
 62
     0
100
AcDbLine
 10
283.0254136628
 20
389.7601458101
 11
277.0254136628
 21
388.2601458101
  0
LINE
  5
6BE
100
AcDbEntity
  8
_0-1_PRO0
  6
CONTINUOUS
 62
     0
100
AcDbLine
 10
283.0254136628
 20
389.7601458101
 11
277.0254136628
 21
391.2601458101
  0
LINE
  5
6BF
100
AcDbEntity
  8
_0-1_PRO0
  6
CONTINUOUS
 62
     0
100
AcDbLine
 10
63.02541366283
 20
389.7601458101
 11
283.0254136628
 21
389.7601458101
  0
TEXT
  5
6C0
100
AcDbEntity
  8
_0-1_PRO0
  6
CONTINUOUS
 62
     0
100
AcDbText
 10
160.0955399481
 20
391.4230562637
 40
8.99
  1
２２０
 41
0.7385984427141
  7
STANDARD
100
AcDbText
  0
LINE
  5
6C1
100
AcDbEntity
  8
_0-1_PRO0
  6
CONTINUOUS
 62
     0
100
AcDbLine
 10
413.0254136628
 20
389.7601458101
 11
419.0254136628
 21
391.2601458101
  0
LINE
  5
6C2
100
AcDbEntity
  8
_0-1_PRO0
  6
CONTINUOUS
 62
     0
100
AcDbLine
 10
413.0254136628
 20
389.7601458101
 11
419.0254136628
 21
388.2601458101
  0
LINE
  5
6C3
100
AcDbEntity
  8
_0-1_PRO0
  6
CONTINUOUS
 62
     0
100
AcDbLine
 10
413.0254136628
 20
408.2559858101
 11
413.0254136628
 21
383.7601458101
  0
LINE
  5
6C4
100
AcDbEntity
  8
_0-1_PRO0
  6
CONTINUOUS
 62
     0
100
AcDbLine
 10
413.0254136628
 20
389.7601458101
 11
407.0254136628
 21
388.2601458101
  0
LINE
  5
6C5
100
AcDbEntity
  8
_0-1_PRO0
  6
CONTINUOUS
 62
     0
100
AcDbLine
 10
413.0254136628
 20
389.7601458101
 11
407.0254136628
 21
391.2601458101
  0
LINE
  5
6C6
100
AcDbEntity
  8
_0-1_PRO0
  6
CONTINUOUS
 62
     0
100
AcDbLine
 10
413.0254136628
 20
389.7601458101
 11
813.0254136628
 21
389.7601458101
  0
LINE
  5
6C7
100
AcDbEntity
  8
_0-1_PRO0
  6
CONTINUOUS
 62
     0
100
AcDbLine
 10
283.0254136628
 20
389.7601458101
 11
413.0254136628
 21
389.7601458101
  0
TEXT
  5
6C8
100
AcDbEntity
  8
_0-1_PRO0
  6
CONTINUOUS
 62
     0
100
AcDbText
 10
602.6062774076
 20
392.8778505194
 40
9
  1
４００
 41
0.7377777777778
  7
STANDARD
100
AcDbText
  0
TEXT
  5
6C9
100
AcDbEntity
  8
_0-1_PRO0
  6
CONTINUOUS
 62
     0
100
AcDbText
 10
341.5853781668
 20
389.7932012738
 40
8.99
  1
≦Ｃ
 41
0.7385984427141
  7
STANDARD
100
AcDbText
  0
LINE
  5
6CA
100
AcDbEntity
  8
ADD_LINE
  6
DOT
 62
     0
100
AcDbLine
 10
283.0254136628
 20
588.0065690681
 11
283.0254136628
 21
383.7601458101
  0
LINE
  5
6CB
100
AcDbEntity
  8
_0-2_
  6
CONTINUOUS
 62
     0
100
AcDbLine
 10
324.0077413772
 20
599.3561170454
 11
342.0077413772
 21
599.3561170454
  0
LINE
  5
6CC
100
AcDbEntity
  8
_0-1_PRO0
  6
CONTINUOUS
 62
     0
100
AcDbLine
 10
283.0254136628
 20
409.7559858101
 11
283.0254136628
 21
593.2473470454
  0
LINE
  5
6CD
100
AcDbEntity
  8
_0-2_
  6
CONTINUOUS
 62
     0
100
AcDbLine
 10
337.7898463772
 20
609.8253100454
 11
328.6024543772
 21
609.3438190454
  0
LINE
  5
6CE
100
AcDbEntity
  8
_0-2_
  6
CONTINUOUS
 62
     0
100
AcDbLine
 10
348.0077413772
 20
593.8213695171
 11
347.5817638489
 21
594.2473470454
  0
ARC
  5
6CF
100
AcDbEntity
  8
_0-2_
  6
CONTINUOUS
 62
     0
100
AcDbCircle
 10
348.0077413772
 20
585.9973470454
 40
8.25
100
AcDbArc
 50
71.07535558395
 51
90
  0
ARC
  5
6D0
100
AcDbEntity
  8
_0-2_
  6
CONTINUOUS
 62
     0
100
AcDbCircle
 10
348.0077413772
 20
585.9973470454
 40
9.25
100
AcDbArc
 50
71.07535558395
 51
90
  0
ARC
  5
6D1
100
AcDbEntity
  8
_0-2_
  6
CONTINUOUS
 62
     0
100
AcDbCircle
 10
354.0077413772
 20
603.4973470454
 40
9.25
100
AcDbArc
 50
-108.9246444161
 51
-90
  0
LINE
  5
6D2
100
AcDbEntity
  8
_0-2_
  6
CONTINUOUS
 62
     0
100
AcDbLine
 10
333.0254146628
 20
547.8139460454
 11
333.0254146628
 21
593.2473470454
  0
LINE
  5
6D3
100
AcDbEntity
  8
_0-2_
  6
CONTINUOUS
 62
     0
100
AcDbLine
 10
328.2754126628
 20
584.2473470454
 11
328.9754146628
 21
584.9473460454
  0
LINE
  5
6D4
100
AcDbEntity
  8
_0-2_
  6
CONTINUOUS
 62
     0
100
AcDbLine
 10
328.9754146628
 20
594.2473460454
 11
328.9754146628
 21
584.9473460454
  0
LINE
  5
6D5
100
AcDbEntity
  8
_0-2_
  6
CONTINUOUS
 62
     0
100
AcDbLine
 10
328.2754126628
 20
565.6191740454
 11
328.2754126628
 21
584.2473470454
  0
LINE
  5
6D6
100
AcDbEntity
  8
_0-2_
  6
CONTINUOUS
 62
     0
100
AcDbLine
 10
328.5254146628
 20
553.7473460454
 11
328.5254146628
 21
554.6106500454
  0
LINE
  5
6D7
100
AcDbEntity
  8
_0-2_
  6
CONTINUOUS
 62
     0
100
AcDbLine
 10
326.4003826628
 20
554.9853500454
 11
328.2754126628
 21
565.6191740454
  0
LINE
  5
6D8
100
AcDbEntity
  8
_0-2_
  6
CONTINUOUS
 62
     0
100
AcDbLine
 10
332.5254136628
 20
565.2473450454
 11
333.5254126628
 21
565.2473450454
  0
LINE
  5
6D9
100
AcDbEntity
  8
_0-2_
  6
CONTINUOUS
 62
     0
100
AcDbLine
 10
337.7754136628
 20
584.2473470454
 11
337.0754146628
 21
584.9473460454
  0
LINE
  5
6DA
100
AcDbEntity
  8
_0-2_
  6
CONTINUOUS
 62
     0
100
AcDbLine
 10
337.0754146628
 20
594.2473460454
 11
337.0754146628
 21
584.9473460454
  0
LINE
  5
6DB
100
AcDbEntity
  8
_0-2_
  6
CONTINUOUS
 62
     0
100
AcDbLine
 10
337.7754136628
 20
565.6191740454
 11
337.7754136628
 21
584.2473470454
  0
LINE
  5
6DC
100
AcDbEntity
  8
_0-2_
  6
CONTINUOUS
 62
     0
100
AcDbLine
 10
336.5254126628
 20
552.7473470454
 11
329.5254136628
 21
552.7473470454
  0
ARC
  5
6DD
100
AcDbEntity
  8
_0-2_
  6
CONTINUOUS
 62
     0
100
AcDbCircle
 10
336.5254126628
 20
553.7473460454
 40
0.999999
100
AcDbArc
 50
-90
 51
0
  0
LINE
  5
6DE
100
AcDbEntity
  8
_0-2_
  6
CONTINUOUS
 62
     0
100
AcDbLine
 10
337.5254146628
 20
553.7473460454
 11
337.5254146628
 21
554.6106500454
  0
LINE
  5
6DF
100
AcDbEntity
  8
_0-2_
  6
CONTINUOUS
 62
     0
100
AcDbLine
 10
339.6504436628
 20
554.9853500454
 11
335.4650116628
 21
554.2473470454
  0
LINE
  5
6E0
100
AcDbEntity
  8
_0-2_
  6
CONTINUOUS
 62
     0
100
AcDbLine
 10
332.5254136628
 20
565.2473450454
 11
330.5858176628
 21
554.2473470454
  0
LINE
  5
6E1
100
AcDbEntity
  8
_0-2_
  6
CONTINUOUS
 62
     0
100
AcDbLine
 10
333.5254126628
 20
565.2473450454
 11
335.4650116628
 21
554.2473470454
  0
LINE
  5
6E2
100
AcDbEntity
  8
_0-2_
  6
CONTINUOUS
 62
     0
100
AcDbLine
 10
339.6504436628
 20
554.9853500454
 11
337.7754136628
 21
565.6191740454
  0
LINE
  5
6E3
100
AcDbEntity
  8
_0-2_
  6
CONTINUOUS
 62
     0
100
AcDbLine
 10
328.2754126628
 20
584.2473470454
 11
337.7754136628
 21
584.2473470454
  0
LINE
  5
6E4
100
AcDbEntity
  8
_0-2_
  6
CONTINUOUS
 62
     0
100
AcDbLine
 10
328.9754146628
 20
584.9473460454
 11
337.0754146628
 21
584.9473460454
  0
LINE
  5
6E5
100
AcDbEntity
  8
_0-2_
  6
CONTINUOUS
 62
     0
100
AcDbLine
 10
326.4003826628
 20
554.9853500454
 11
330.5858176628
 21
554.2473470454
  0
ARC
  5
6E6
100
AcDbEntity
  8
_0-2_
  6
CONTINUOUS
 62
     0
100
AcDbCircle
 10
329.5254136628
 20
553.7473460454
 40
0.999999
100
AcDbArc
 50
180
 51
270
  0
LINE
  5
6E7
100
AcDbEntity
  8
_0-2_
  6
CONTINUOUS
 62
     0
100
AcDbLine
 10
347.1675502866
 20
593.2473470454
 11
346.1675502866
 21
594.2473470454
  0
LINE
  5
6E8
100
AcDbEntity
  8
_0-2_
  6
CONTINUOUS
 62
     0
100
AcDbLine
 10
345.7533367242
 20
593.2473470454
 11
344.7533367242
 21
594.2473470454
  0
LINE
  5
6E9
100
AcDbEntity
  8
_0-2_
  6
CONTINUOUS
 62
     0
100
AcDbLine
 10
344.3391231618
 20
593.2473470454
 11
343.3391231618
 21
594.2473470454
  0
LINE
  5
6EA
100
AcDbEntity
  8
_0-2_
  6
CONTINUOUS
 62
     0
100
AcDbLine
 10
342.9249095994
 20
593.2473470454
 11
341.9249095994
 21
594.2473470454
  0
LINE
  5
6EB
100
AcDbEntity
  8
_0-2_
  6
CONTINUOUS
 62
     0
100
AcDbLine
 10
341.5106960371
 20
593.2473470454
 11
340.5106960371
 21
594.2473470454
  0
LINE
  5
6EC
100
AcDbEntity
  8
_0-2_
  6
CONTINUOUS
 62
     0
100
AcDbLine
 10
340.0964824747
 20
593.2473470454
 11
339.0964824747
 21
594.2473470454
  0
LINE
  5
6ED
100
AcDbEntity
  8
_0-2_
  6
CONTINUOUS
 62
     0
100
AcDbLine
 10
338.6822689123
 20
593.2473470454
 11
337.6822689123
 21
594.2473470454
  0
LINE
  5
6EE
100
AcDbEntity
  8
_0-2_
  6
CONTINUOUS
 62
     0
100
AcDbLine
 10
337.26805535
 20
593.2473470454
 11
336.26805535
 21
594.2473470454
  0
LINE
  5
6EF
100
AcDbEntity
  8
_0-2_
  6
CONTINUOUS
 62
     0
100
AcDbLine
 10
335.8538417876
 20
593.2473470454
 11
334.8538417876
 21
594.2473470454
  0
LINE
  5
6F0
100
AcDbEntity
  8
_0-2_
  6
CONTINUOUS
 62
     0
100
AcDbLine
 10
334.4396282252
 20
593.2473470454
 11
333.4396282252
 21
594.2473470454
  0
LINE
  5
6F1
100
AcDbEntity
  8
_0-2_
  6
CONTINUOUS
 62
     0
100
AcDbLine
 10
333.0254146628
 20
593.2473470454
 11
332.0254146628
 21
594.2473470454
  0
LINE
  5
6F2
100
AcDbEntity
  8
_0-2_
  6
CONTINUOUS
 62
     0
100
AcDbLine
 10
331.6112011005
 20
593.2473470454
 11
330.6112011005
 21
594.2473470454
  0
LINE
  5
6F3
100
AcDbEntity
  8
_0-2_
  6
CONTINUOUS
 62
     0
100
AcDbLine
 10
330.1969875381
 20
593.2473470454
 11
329.1969875381
 21
594.2473470454
  0
LINE
  5
6F4
100
AcDbEntity
  8
_0-2_
  6
CONTINUOUS
 62
     0
100
AcDbLine
 10
328.7827739757
 20
593.2473470454
 11
327.7827739757
 21
594.2473470454
  0
LINE
  5
6F5
100
AcDbEntity
  8
_0-2_
  6
CONTINUOUS
 62
     0
100
AcDbLine
 10
327.3685604133
 20
593.2473470454
 11
326.3685604133
 21
594.2473470454
  0
LINE
  5
6F6
100
AcDbEntity
  8
_0-2_
  6
CONTINUOUS
 62
     0
100
AcDbLine
 10
325.954346851
 20
593.2473470454
 11
324.954346851
 21
594.2473470454
  0
LINE
  5
6F7
100
AcDbEntity
  8
_0-2_
  6
CONTINUOUS
 62
     0
100
AcDbLine
 10
324.5401332886
 20
593.2473470454
 11
323.5401332886
 21
594.2473470454
  0
LINE
  5
6F8
100
AcDbEntity
  8
_0-2_
  6
CONTINUOUS
 62
     0
100
AcDbLine
 10
323.1259197262
 20
593.2473470454
 11
322.1259197262
 21
594.2473470454
  0
LINE
  5
6F9
100
AcDbEntity
  8
_0-2_
  6
CONTINUOUS
 62
     0
100
AcDbLine
 10
321.7117061638
 20
593.2473470454
 11
320.7117061638
 21
594.2473470454
  0
LINE
  5
6FA
100
AcDbEntity
  8
_0-2_
  6
CONTINUOUS
 62
     0
100
AcDbLine
 10
320.2974926015
 20
593.2473470454
 11
319.2974926015
 21
594.2473470454
  0
LINE
  5
6FB
100
AcDbEntity
  8
_0-2_
  6
CONTINUOUS
 62
     0
100
AcDbLine
 10
318.8832790391
 20
593.2473470454
 11
318.0077413772
 21
594.1228847073
  0
LINE
  5
6FC
100
AcDbEntity
  8
_0-2_
  6
CONTINUOUS
 62
     0
100
AcDbLine
 10
318.0077413772
 20
593.2473470454
 11
348.0077413772
 21
593.2473470454
  0
LINE
  5
6FD
100
AcDbEntity
  8
_0-2_
  6
CONTINUOUS
 62
     0
100
AcDbLine
 10
348.0077413772
 20
593.2473470454
 11
348.0077413772
 21
594.2473470454
  0
LINE
  5
6FE
100
AcDbEntity
  8
_0-2_
  6
CONTINUOUS
 62
     0
100
AcDbLine
 10
348.0077413772
 20
594.2473470454
 11
318.0077413772
 21
594.2473470454
  0
LINE
  5
6FF
100
AcDbEntity
  8
_0-2_
  6
CONTINUOUS
 62
     0
100
AcDbLine
 10
318.0077413772
 20
594.2473470454
 11
318.0077413772
 21
593.2473470454
  0
ARC
  5
700
100
AcDbEntity
  8
_0-2_
  6
CONTINUOUS
 62
     0
100
AcDbCircle
 10
354.0077413772
 20
603.4973470454
 40
10.25
100
AcDbArc
 50
-108.9246444161
 51
-90
  0
LINE
  5
701
100
AcDbEntity
  8
_0-2_
  6
CONTINUOUS
 62
     0
100
AcDbLine
 10
324.0077413772
 20
599.3561170454
 11
324.0077413772
 21
597.7561180454
  0
LINE
  5
702
100
AcDbEntity
  8
_0-2_
  6
CONTINUOUS
 62
     0
100
AcDbLine
 10
342.0077413772
 20
599.3561170454
 11
342.0077413772
 21
597.7561180454
  0
LINE
  5
703
100
AcDbEntity
  8
_0-2_
  6
CONTINUOUS
 62
     0
100
AcDbLine
 10
338.8877413772
 20
603.6191800454
 11
338.8877413772
 21
599.3561170454
  0
LINE
  5
704
100
AcDbEntity
  8
_0-2_
  6
CONTINUOUS
 62
     0
100
AcDbLine
 10
337.9577413772
 20
604.1561170454
 11
338.8877413772
 21
603.6191800454
  0
ARC
  5
705
100
AcDbEntity
  8
_0-2_
  6
CONTINUOUS
 62
     0
100
AcDbCircle
 10
337.9577413772
 20
600.3467230454
 40
3.809394
100
AcDbArc
 50
90
 51
120.789964
  0
ARC
  5
706
100
AcDbEntity
  8
_0-2_
  6
CONTINUOUS
 62
     0
100
AcDbCircle
 10
333.0077413772
 20
595.5067570454
 40
8.64936
100
AcDbArc
 50
69.705445
 51
110.294555
  0
LINE
  5
707
100
AcDbEntity
  8
_0-2_
  6
CONTINUOUS
 62
     0
100
AcDbLine
 10
336.0077413772
 20
603.6191800454
 11
336.0077413772
 21
599.3561170454
  0
LINE
  5
708
100
AcDbEntity
  8
_0-2_
  6
CONTINUOUS
 62
     0
100
AcDbLine
 10
330.0077413772
 20
603.6191800454
 11
330.0077413772
 21
599.3561170454
  0
LINE
  5
709
100
AcDbEntity
  8
_0-2_
  6
CONTINUOUS
 62
     0
100
AcDbLine
 10
327.1277413772
 20
603.6191800454
 11
327.1277413772
 21
599.3561170454
  0
LINE
  5
70A
100
AcDbEntity
  8
_0-2_
  6
CONTINUOUS
 62
     0
100
AcDbLine
 10
328.0577413772
 20
604.1561170454
 11
327.1277413772
 21
603.6191800454
  0
LINE
  5
70B
100
AcDbEntity
  8
_0-2_
  6
CONTINUOUS
 62
     0
100
AcDbLine
 10
337.9577413772
 20
604.1561170454
 11
328.0577413772
 21
604.1561170454
  0
ARC
  5
70C
100
AcDbEntity
  8
_0-2_
  6
CONTINUOUS
 62
     0
100
AcDbCircle
 10
328.0577413772
 20
600.3467230454
 40
3.809394
100
AcDbArc
 50
59.210036
 51
90
  0
LINE
  5
70D
100
AcDbEntity
  8
_0-2_
  6
CONTINUOUS
 62
     0
100
AcDbLine
 10
337.7375113772
 20
610.8239410454
 11
337.7898463772
 21
609.8253100454
  0
LINE
  5
70E
100
AcDbEntity
  8
_0-2_
  6
CONTINUOUS
 62
     0
100
AcDbLine
 10
328.5501193772
 20
610.3424500454
 11
328.6024543772
 21
609.3438190454
  0
ARC
  5
70F
100
AcDbEntity
  8
_0-2_
  6
CONTINUOUS
 62
     0
100
AcDbCircle
 10
338.7361393772
 20
610.8762760454
 40
0.999999
100
AcDbArc
 50
93
 51
183
  0
ARC
  5
710
100
AcDbEntity
  8
_0-2_
  6
CONTINUOUS
 62
     0
100
AcDbCircle
 10
327.5514883772
 20
610.2901120454
 40
0.999999
100
AcDbArc
 50
2.999999999999
 51
93
  0
ARC
  5
711
100
AcDbEntity
  8
_0-2_
  6
CONTINUOUS
 62
     0
100
AcDbCircle
 10
345.0077413772
 20
604.7561170454
 40
0.999999
100
AcDbArc
 50
180
 51
270
  0
LINE
  5
712
100
AcDbEntity
  8
_0-2_
  6
CONTINUOUS
 62
     0
100
AcDbLine
 10
345.0077413772
 20
603.7561180454
 11
349.2077413772
 21
603.7561180454
  0
ARC
  5
713
100
AcDbEntity
  8
_0-2_
  6
CONTINUOUS
 62
     0
100
AcDbCircle
 10
341.4077413772
 20
611.0162890454
 40
0.999999
100
AcDbArc
 50
0
 51
93
  0
LINE
  5
714
100
AcDbEntity
  8
_0-2_
  6
CONTINUOUS
 62
     0
100
AcDbLine
 10
324.5554063772
 20
611.1344680454
 11
341.3554063772
 21
612.0149170454
  0
ARC
  5
715
100
AcDbEntity
  8
_0-2_
  6
CONTINUOUS
 62
     0
100
AcDbCircle
 10
324.6077413772
 20
610.1358370454
 40
0.999999
100
AcDbArc
 50
93
 51
180
  0
LINE
  5
716
100
AcDbEntity
  8
_0-2_
  6
CONTINUOUS
 62
     0
100
AcDbLine
 10
321.0077413772
 20
603.7561180454
 11
316.8077413772
 21
603.7561180454
  0
ARC
  5
717
100
AcDbEntity
  8
_0-2_
  6
CONTINUOUS
 62
     0
100
AcDbCircle
 10
321.0077413772
 20
604.7561170454
 40
0.999999
100
AcDbArc
 50
-90
 51
0
  0
LINE
  5
718
100
AcDbEntity
  8
_0-2_
  6
CONTINUOUS
 62
     0
100
AcDbLine
 10
342.4077403772
 20
604.7561170454
 11
342.4077403772
 21
611.0162890454
  0
ARC
  5
719
100
AcDbEntity
  8
_0-2_
  6
CONTINUOUS
 62
     0
100
AcDbCircle
 10
345.0077413772
 20
604.7561170454
 40
2.600001
100
AcDbArc
 50
180
 51
270
  0
LINE
  5
71A
100
AcDbEntity
  8
_0-2_
  6
CONTINUOUS
 62
     0
100
AcDbLine
 10
345.0077413772
 20
602.1561160454
 11
349.5077413772
 21
602.1561160454
  0
LINE
  5
71B
100
AcDbEntity
  8
_0-2_
  6
CONTINUOUS
 62
     0
100
AcDbLine
 10
344.0077423772
 20
611.0162890454
 11
344.0077423772
 21
604.7561170454
  0
ARC
  5
71C
100
AcDbEntity
  8
_0-2_
  6
CONTINUOUS
 62
     0
100
AcDbCircle
 10
341.4077413772
 20
611.0162890454
 40
2.600001
100
AcDbArc
 50
0
 51
93
  0
LINE
  5
71D
100
AcDbEntity
  8
_0-2_
  6
CONTINUOUS
 62
     0
100
AcDbLine
 10
322.0077403772
 20
610.1358370454
 11
322.0077403772
 21
604.7561170454
  0
ARC
  5
71E
100
AcDbEntity
  8
_0-2_
  6
CONTINUOUS
 62
     0
100
AcDbCircle
 10
324.6077413772
 20
610.1358370454
 40
2.600001
100
AcDbArc
 50
93
 51
180
  0
LINE
  5
71F
100
AcDbEntity
  8
_0-2_
  6
CONTINUOUS
 62
     0
100
AcDbLine
 10
324.4716673772
 20
612.7322740454
 11
341.2716673772
 21
613.6127260454
  0
LINE
  5
720
100
AcDbEntity
  8
_0-2_
  6
CONTINUOUS
 62
     0
100
AcDbLine
 10
323.6077423772
 20
604.7561170454
 11
323.6077423772
 21
610.1358370454
  0
ARC
  5
721
100
AcDbEntity
  8
_0-2_
  6
CONTINUOUS
 62
     0
100
AcDbCircle
 10
321.0077413772
 20
604.7561170454
 40
2.600001
100
AcDbArc
 50
-90
 51
0
  0
LINE
  5
722
100
AcDbEntity
  8
_0-2_
  6
CONTINUOUS
 62
     0
100
AcDbLine
 10
321.0077413772
 20
602.1561160454
 11
316.5077413772
 21
602.1561160454
  0
LINE
  5
723
100
AcDbEntity
  8
_0-2_
  6
CONTINUOUS
 62
     0
100
AcDbLine
 10
316.8077413772
 20
601.2561160454
 11
318.7577413772
 21
601.2561160454
  0
ARC
  5
724
100
AcDbEntity
  8
_0-2_
  6
CONTINUOUS
 62
     0
100
AcDbCircle
 10
316.8077413772
 20
601.5561160454
 40
0.3
100
AcDbArc
 50
180
 51
270
  0
ARC
  5
725
100
AcDbEntity
  8
_0-2_
  6
CONTINUOUS
 62
     0
100
AcDbCircle
 10
316.8077413772
 20
603.4561180454
 40
0.3
100
AcDbArc
 50
90
 51
180
  0
LINE
  5
726
100
AcDbEntity
  8
_0-2_
  6
CONTINUOUS
 62
     0
100
AcDbLine
 10
333.5077423772
 20
597.7561180454
 11
333.0077413772
 21
597.2561170454
  0
LINE
  5
727
100
AcDbEntity
  8
_0-2_
  6
CONTINUOUS
 62
     0
100
AcDbLine
 10
332.5077403772
 20
597.7561180454
 11
333.0077413772
 21
597.2561170454
  0
LINE
  5
728
100
AcDbEntity
  8
_0-2_
  6
CONTINUOUS
 62
     0
100
AcDbLine
 10
338.0077423772
 20
595.7561170454
 11
338.0077423772
 21
595.2561160454
  0
LINE
  5
729
100
AcDbEntity
  8
_0-2_
  6
CONTINUOUS
 62
     0
100
AcDbLine
 10
317.0077423772
 20
605.2561180454
 11
319.7577403772
 21
605.2561180454
  0
ARC
  5
72A
100
AcDbEntity
  8
_0-2_
  6
CONTINUOUS
 62
     0
100
AcDbCircle
 10
317.0077423772
 20
605.7561160454
 40
0.500001
100
AcDbArc
 50
180
 51
270
  0
ARC
  5
72B
100
AcDbEntity
  8
_0-2_
  6
CONTINUOUS
 62
     0
100
AcDbCircle
 10
319.7577403772
 20
604.5061180454
 40
0.75
100
AcDbArc
 50
-90
 51
90
  0
LINE
  5
72C
100
AcDbEntity
  8
_0-2_
  6
CONTINUOUS
 62
     0
100
AcDbLine
 10
328.0077403772
 20
595.7561170454
 11
316.5077413772
 21
595.7561170454
  0
LINE
  5
72D
100
AcDbEntity
  8
_0-2_
  6
CONTINUOUS
 62
     0
100
AcDbLine
 10
328.0077403772
 20
595.7561170454
 11
328.0077403772
 21
595.2561160454
  0
ARC
  5
72E
100
AcDbEntity
  8
_0-2_
  6
CONTINUOUS
 62
     0
100
AcDbCircle
 10
318.7577413772
 20
600.5061160454
 40
0.75
100
AcDbArc
 50
-90
 51
90
  0
LINE
  5
72F
100
AcDbEntity
  8
_0-2_
  6
CONTINUOUS
 62
     0
100
AcDbLine
 10
316.8077413772
 20
599.7561160454
 11
318.7577413772
 21
599.7561160454
  0
ARC
  5
730
100
AcDbEntity
  8
_0-2_
  6
CONTINUOUS
 62
     0
100
AcDbCircle
 10
316.8077413772
 20
599.4561160454
 40
0.3
100
AcDbArc
 50
90
 51
180
  0
LINE
  5
731
100
AcDbEntity
  8
_0-2_
  6
CONTINUOUS
 62
     0
100
AcDbLine
 10
349.5077413772
 20
595.7561170454
 11
338.0077423772
 21
595.7561170454
  0
LINE
  5
732
100
AcDbEntity
  8
_0-2_
  6
CONTINUOUS
 62
     0
100
AcDbLine
 10
349.2077413772
 20
601.2561160454
 11
347.2577413772
 21
601.2561160454
  0
ARC
  5
733
100
AcDbEntity
  8
_0-2_
  6
CONTINUOUS
 62
     0
100
AcDbCircle
 10
349.2077413772
 20
601.5561160454
 40
0.3
100
AcDbArc
 50
-90
 51
0
  0
LINE
  5
734
100
AcDbEntity
  8
_0-2_
  6
CONTINUOUS
 62
     0
100
AcDbLine
 10
349.5077413772
 20
601.5561160454
 11
349.5077413772
 21
603.4561180454
  0
ARC
  5
735
100
AcDbEntity
  8
_0-2_
  6
CONTINUOUS
 62
     0
100
AcDbCircle
 10
349.2077413772
 20
603.4561180454
 40
0.3
100
AcDbArc
 50
0
 51
90
  0
LINE
  5
736
100
AcDbEntity
  8
_0-2_
  6
CONTINUOUS
 62
     0
100
AcDbLine
 10
350.5077403772
 20
605.2561180454
 11
346.2577423772
 21
605.2561180454
  0
ARC
  5
737
100
AcDbEntity
  8
_0-2_
  6
CONTINUOUS
 62
     0
100
AcDbCircle
 10
350.5077403772
 20
604.7561170454
 40
0.500001
100
AcDbArc
 50
0
 51
90
  0
ARC
  5
738
100
AcDbEntity
  8
_0-2_
  6
CONTINUOUS
 62
     0
100
AcDbCircle
 10
346.2577423772
 20
604.5061180454
 40
0.75
100
AcDbArc
 50
90
 51
270
  0
LINE
  5
739
100
AcDbEntity
  8
_0-2_
  6
CONTINUOUS
 62
     0
100
AcDbLine
 10
351.0077413772
 20
604.7561170454
 11
351.0077413772
 21
595.2561160454
  0
LINE
  5
73A
100
AcDbEntity
  8
_0-2_
  6
CONTINUOUS
 62
     0
100
AcDbLine
 10
349.5077413772
 20
595.7561170454
 11
349.5077413772
 21
595.2561160454
  0
ARC
  5
73B
100
AcDbEntity
  8
_0-2_
  6
CONTINUOUS
 62
     0
100
AcDbCircle
 10
347.2577413772
 20
600.5061160454
 40
0.75
100
AcDbArc
 50
90
 51
270
  0
ARC
  5
73C
100
AcDbEntity
  8
_0-2_
  6
CONTINUOUS
 62
     0
100
AcDbCircle
 10
349.2077413772
 20
598.0561180454
 40
0.3
100
AcDbArc
 50
-90
 51
0
  0
LINE
  5
73D
100
AcDbEntity
  8
_0-2_
  6
CONTINUOUS
 62
     0
100
AcDbLine
 10
349.5077413772
 20
598.0561180454
 11
349.5077413772
 21
599.4561160454
  0
ARC
  5
73E
100
AcDbEntity
  8
_0-2_
  6
CONTINUOUS
 62
     0
100
AcDbCircle
 10
349.2077413772
 20
599.4561160454
 40
0.3
100
AcDbArc
 50
0
 51
90
  0
LINE
  5
73F
100
AcDbEntity
  8
_0-2_
  6
CONTINUOUS
 62
     0
100
AcDbLine
 10
349.2077413772
 20
599.7561160454
 11
347.2577413772
 21
599.7561160454
  0
ARC
  5
740
100
AcDbEntity
  8
_0-2_
  6
CONTINUOUS
 62
     0
100
AcDbCircle
 10
317.0077423772
 20
598.2561160454
 40
0.500001
100
AcDbArc
 50
180
 51
270
  0
LINE
  5
741
100
AcDbEntity
  8
_0-2_
  6
CONTINUOUS
 62
     0
100
AcDbLine
 10
317.0077423772
 20
597.7561180454
 11
349.2077413772
 21
597.7561180454
  0
LINE
  5
742
100
AcDbEntity
  8
_0-2_
  6
CONTINUOUS
 62
     0
100
AcDbLine
 10
349.5077413772
 20
595.2561160454
 11
351.0077413772
 21
595.2561160454
  0
ARC
  5
743
100
AcDbEntity
  8
_0-2_
  6
CONTINUOUS
 62
     0
100
AcDbCircle
 10
315.5077423772
 20
613.2561160454
 40
0.999999
100
AcDbArc
 50
0
 51
180
  0
LINE
  5
744
100
AcDbEntity
  8
_0-2_
  6
CONTINUOUS
 62
     0
100
AcDbLine
 10
316.5077413772
 20
605.7561160454
 11
316.5077413772
 21
613.2561160454
  0
LINE
  5
745
100
AcDbEntity
  8
_0-2_
  6
CONTINUOUS
 62
     0
100
AcDbLine
 10
316.5077413772
 20
601.5561160454
 11
316.5077413772
 21
603.4561180454
  0
ARC
  5
746
100
AcDbEntity
  8
_0-2_
  6
CONTINUOUS
 62
     0
100
AcDbCircle
 10
314.0077423772
 20
598.2561160454
 40
0.500001
100
AcDbArc
 50
-90
 51
0
  0
LINE
  5
747
100
AcDbEntity
  8
_0-2_
  6
CONTINUOUS
 62
     0
100
AcDbLine
 10
314.5077403772
 20
596.2561180454
 11
314.5077403772
 21
595.2561160454
  0
LINE
  5
748
100
AcDbEntity
  8
_0-2_
  6
CONTINUOUS
 62
     0
100
AcDbLine
 10
316.5077413772
 20
595.7561170454
 11
316.5077413772
 21
595.2561160454
  0
LINE
  5
749
100
AcDbEntity
  8
_0-2_
  6
CONTINUOUS
 62
     0
100
AcDbLine
 10
316.5077413772
 20
598.2561160454
 11
316.5077413772
 21
599.4561160454
  0
LINE
  5
74A
100
AcDbEntity
  8
_0-2_
  6
CONTINUOUS
 62
     0
100
AcDbLine
 10
304.0077403772
 20
596.2561180454
 11
304.0077403772
 21
595.2561160454
  0
LINE
  5
74B
100
AcDbEntity
  8
_0-2_
  6
CONTINUOUS
 62
     0
100
AcDbLine
 10
302.5077403772
 20
595.2561160454
 11
304.0077403772
 21
595.2561160454
  0
LINE
  5
74C
100
AcDbEntity
  8
_0-2_
  6
CONTINUOUS
 62
     0
100
AcDbLine
 10
314.5077403772
 20
595.2561160454
 11
316.5077413772
 21
595.2561160454
  0
LINE
  5
74D
100
AcDbEntity
  8
_0-2_
  6
CONTINUOUS
 62
     0
100
AcDbLine
 10
302.5077403772
 20
597.2561180454
 11
302.5077403772
 21
595.2561160454
  0
ARC
  5
74E
100
AcDbEntity
  8
_0-2_
  6
CONTINUOUS
 62
     0
100
AcDbCircle
 10
303.0077403772
 20
597.2561180454
 40
0.5
100
AcDbArc
 50
90
 51
180
  0
LINE
  5
74F
100
AcDbEntity
  8
_0-2_
  6
CONTINUOUS
 62
     0
100
AcDbLine
 10
314.2577403772
 20
601.0061180454
 11
313.0077403772
 21
601.0061180454
  0
LINE
  5
750
100
AcDbEntity
  8
_0-2_
  6
CONTINUOUS
 62
     0
100
AcDbLine
 10
310.0077403772
 20
601.0061180454
 11
308.7577403772
 21
601.0061180454
  0
ARC
  5
751
100
AcDbEntity
  8
_0-2_
  6
CONTINUOUS
 62
     0
100
AcDbCircle
 10
283.1611349049
 20
643.9415106677
 40
0.5
100
AcDbArc
 50
101.4095443492
 51
279.1986608952
  0
ARC
  5
752
100
AcDbEntity
  8
_0-2_
  6
CONTINUOUS
 62
     0
100
AcDbCircle
 10
288.0077403772
 20
619.9256739054
 40
25
100
AcDbArc
 50
0
 51
101.4095443492
  0
ARC
  5
753
100
AcDbEntity
  8
_0-2_
  6
CONTINUOUS
 62
     0
100
AcDbCircle
 10
286.9317947832
 20
620.6573054034
 40
23.08754100601
100
AcDbArc
 50
-1.815975820674
 51
99.19866089519
  0
LINE
  5
754
100
AcDbEntity
  8
_0-2_
  6
CONTINUOUS
 62
     0
100
AcDbLine
 10
314.5077403772
 20
596.2561180454
 11
307.0017915034
 21
596.2561180454
  0
LINE
  5
755
100
AcDbEntity
  8
_0-2_
  6
CONTINUOUS
 62
     0
100
AcDbLine
 10
307.0017915034
 20
596.2561180454
 11
304.0077403772
 21
596.2561180454
  0
LINE
  5
756
100
AcDbEntity
  8
_0-2_
  6
CONTINUOUS
 62
     0
100
AcDbLine
 10
309.0077403772
 20
597.7561180454
 11
314.0077423772
 21
597.7561180454
  0
LINE
  5
757
100
AcDbEntity
  8
_0-2_
  6
CONTINUOUS
 62
     0
100
AcDbLine
 10
303.0077403772
 20
597.7561180454
 11
307.0077403772
 21
597.7561180454
  0
ARC
  5
758
100
AcDbEntity
  8
_0-2_
  6
CONTINUOUS
 62
     0
100
AcDbCircle
 10
309.0077403772
 20
598.2561180454
 40
0.25
100
AcDbArc
 50
180
 51
270
  0
ARC
  5
759
100
AcDbEntity
  8
_0-2_
  6
CONTINUOUS
 62
     0
100
AcDbCircle
 10
314.0077423772
 20
598.2561160454
 40
0.250001
100
AcDbArc
 50
-90
 51
0
  0
LINE
  5
75A
100
AcDbEntity
  8
_0-2_
  6
CONTINUOUS
 62
     0
100
AcDbLine
 10
308.7577403772
 20
598.2561180454
 11
308.7577403772
 21
601.0061180454
  0
LINE
  5
75B
100
AcDbEntity
  8
_0-2_
  6
CONTINUOUS
 62
     0
100
AcDbLine
 10
314.2577403772
 20
598.2561160454
 11
314.2577403772
 21
601.0061180454
  0
LINE
  5
75C
100
AcDbEntity
  8
_0-2_
  6
CONTINUOUS
 62
     0
100
AcDbLine
 10
309.0077403772
 20
598.0061180454
 11
314.0077423772
 21
598.0061180454
  0
LINE
  5
75D
100
AcDbEntity
  8
_0-2_
  6
CONTINUOUS
 62
     0
100
AcDbLine
 10
314.5077403772
 20
613.2561160454
 11
314.5077403772
 21
602.7561180454
  0
LINE
  5
75E
100
AcDbEntity
  8
_0-2_
  6
CONTINUOUS
 62
     0
100
AcDbLine
 10
314.5077403772
 20
601.2561180454
 11
314.5077403772
 21
598.2561160454
  0
LINE
  5
75F
100
AcDbEntity
  8
_0-2_
  6
CONTINUOUS
 62
     0
100
AcDbLine
 10
308.5077403772
 20
598.2561180454
 11
308.5077403772
 21
601.2561180454
  0
LINE
  5
760
100
AcDbEntity
  8
_0-2_
  6
CONTINUOUS
 62
     0
100
AcDbLine
 10
307.0077403772
 20
602.2561180454
 11
307.0077403772
 21
597.7561180454
  0
ARC
  5
761
100
AcDbEntity
  8
_0-2_
  6
CONTINUOUS
 62
     0
100
AcDbCircle
 10
307.5077403772
 20
602.2561180454
 40
0.5
100
AcDbArc
 50
90
 51
180
  0
ARC
  5
762
100
AcDbEntity
  8
_0-2_
  6
CONTINUOUS
 62
     0
100
AcDbCircle
 10
309.0077403772
 20
598.2561180454
 40
0.5
100
AcDbArc
 50
180
 51
270
  0
LINE
  5
763
100
AcDbEntity
  8
_0-2_
  6
CONTINUOUS
 62
     0
100
AcDbLine
 10
307.5077403772
 20
602.7561180454
 11
308.7577403772
 21
602.7561180454
  0
ARC
  5
764
100
AcDbEntity
  8
_0-2_
  6
CONTINUOUS
 62
     0
100
AcDbCircle
 10
308.7577403772
 20
601.7561180454
 40
1
100
AcDbArc
 50
0
 51
90
  0
LINE
  5
765
100
AcDbEntity
  8
_0-2_
  6
CONTINUOUS
 62
     0
100
AcDbLine
 10
309.7577403772
 20
601.7561180454
 11
309.7577403772
 21
601.2561180454
  0
LINE
  5
766
100
AcDbEntity
  8
_0-2_
  6
CONTINUOUS
 62
     0
100
AcDbLine
 10
309.7577403772
 20
601.2561180454
 11
308.5077403772
 21
601.2561180454
  0
LINE
  5
767
100
AcDbEntity
  8
_0-2_
  6
CONTINUOUS
 62
     0
100
AcDbLine
 10
314.5077403772
 20
601.2561180454
 11
313.2577403772
 21
601.2561180454
  0
LINE
  5
768
100
AcDbEntity
  8
_0-2_
  6
CONTINUOUS
 62
     0
100
AcDbLine
 10
313.2577403772
 20
601.7561180454
 11
313.2577403772
 21
601.2561180454
  0
ARC
  5
769
100
AcDbEntity
  8
_0-2_
  6
CONTINUOUS
 62
     0
100
AcDbCircle
 10
314.2577403772
 20
601.7561180454
 40
1
100
AcDbArc
 50
90
 51
180
  0
LINE
  5
76A
100
AcDbEntity
  8
_0-2_
  6
CONTINUOUS
 62
     0
100
AcDbLine
 10
314.2577403772
 20
602.7561180454
 11
314.5077403772
 21
602.7561180454
  0
CIRCLE
  5
76B
100
AcDbEntity
  8
_0-2_
  6
CONTINUOUS
 62
     0
100
AcDbCircle
 10
308.0332483052
 20
632.6926213222
 40
0.9
  0
LINE
  5
76C
100
AcDbEntity
  8
_0-2_
  6
CONTINUOUS
 62
     0
100
AcDbLine
 10
308.0332483052
 20
632.6926213222
 11
293.9446790757
 21
671.4006434136
  0
LINE
  5
76D
100
AcDbEntity
  8
_0-2_
  6
CONTINUOUS
 62
     0
100
AcDbLine
 10
318.0077413772
 20
594.1228847073
 11
318.0077413772
 21
595.2473470454
  0
LINE
  5
76E
100
AcDbEntity
  8
_0-2_
  6
CONTINUOUS
 62
     0
100
AcDbLine
 10
348.0077413772
 20
595.2473470454
 11
318.0077413772
 21
595.2473470454
  0
CIRCLE
  5
76F
100
AcDbEntity
  8
_0-2_
  6
CONTINUOUS
 62
     0
100
AcDbCircle
 10
292.568145934
 20
676.8916437868
 40
6
  0
TEXT
  5
770
100
AcDbEntity
  8
_0-2_
  6
CONTINUOUS
 62
     0
100
AcDbText
 10
287.257878668
 20
672.1900810579
 40
9
  1
８
  7
STANDARD
100
AcDbText
  0
LINE
  5
771
100
AcDbEntity
  8
_0-2_
  6
CONTINUOUS
 62
     0
100
AcDbLine
 10
333.0254146628
 20
438.6247132316
 11
330.0254146628
 21
439.3747132316
  0
LINE
  5
772
100
AcDbEntity
  8
_0-2_
  6
CONTINUOUS
 62
     0
100
AcDbLine
 10
333.0254146628
 20
438.6247132316
 11
330.0254146628
 21
437.8747132316
  0
LINE
  5
773
100
AcDbEntity
  8
_0-2_
  6
CONTINUOUS
 62
     0
100
AcDbLine
 10
283.0254136628
 20
438.6247132316
 11
286.0254136628
 21
437.8747132316
  0
LINE
  5
774
100
AcDbEntity
  8
_0-2_
  6
CONTINUOUS
 62
     0
100
AcDbLine
 10
283.0254136628
 20
438.6247132316
 11
286.0254136628
 21
439.3747132316
  0
LINE
  5
775
100
AcDbEntity
  8
_0-2_
  6
CONTINUOUS
 62
     0
100
AcDbLine
 10
333.0254146628
 20
546.8139440454
 11
333.0254146628
 21
434.6247112316
  0
LINE
  5
776
100
AcDbEntity
  8
_0-2_
  6
CONTINUOUS
 62
     0
100
AcDbLine
 10
283.0254136628
 20
438.6247132316
 11
333.0254146628
 21
438.6247132316
  0
LINE
  5
777
100
AcDbEntity
  8
_0-2_
  6
CONTINUOUS
 62
     0
100
AcDbLine
 10
283.0254136628
 20
593.2473470454
 11
283.0254136628
 21
433.2461032089
  0
TEXT
  5
778
100
AcDbEntity
  8
_0-2_
  6
CONTINUOUS
 62
     0
100
AcDbText
 10
304.60512644
 20
438.3942116918
 40
9
  1
50
  7
STANDARD
100
AcDbText
  0
CIRCLE
  5
779
100
AcDbEntity
  8
_0-2_
  6
CONTINUOUS
 62
     0
100
AcDbCircle
 10
307.6885617972
 20
564.3891094472
 40
6
  0
LINE
  5
77A
100
AcDbEntity
  8
_0-2_
  6
CONTINUOUS
 62
     0
100
AcDbLine
 10
324.3690087972
 20
593.2804894472
 11
310.6885617972
 21
569.5852624472
  0
CIRCLE
  5
77B
100
AcDbEntity
  8
_0-2_
  6
CONTINUOUS
 62
     0
100
AcDbCircle
 10
324.3690087972
 20
593.2804894472
 40
0.9
  0
TEXT
  5
77C
100
AcDbEntity
  8
_0-2_
  6
CONTINUOUS
 62
     0
100
AcDbText
 10
305.3533035463
 20
558.7712566853
 40
9
  1
3
  7
STANDARD
100
AcDbText
  0
LINE
  5
77D
100
AcDbEntity
  8
_0-2_
  6
CONTINUOUS
 62
     0
100
AcDbLine
 10
313.0077403772
 20
601.0061180454
 11
313.0213855904
 21
620.9745445993
  0
LINE
  5
77E
100
AcDbEntity
  8
_0-2_
  6
CONTINUOUS
 62
     0
100
AcDbLine
 10
310.0077403772
 20
601.0061180454
 11
310.0213855904
 21
622.4378075954
  0
LINE
  5
77F
100
AcDbEntity
  8
_0-0_
  6
CONTINUOUS
 62
     0
100
AcDbLine
 10
445.4106058226
 20
472.3841644923
 11
413.0254136628
 21
593.2473470454
  0
LINE
  5
780
100
AcDbEntity
  8
_0-0_
  6
CONTINUOUS
 62
     0
100
AcDbLine
 10
446.3765316489
 20
472.6429835374
 11
413.7926797798
 21
594.2475742192
  0
LINE
  5
781
100
AcDbEntity
  8
_0-1_PRO0
  6
CONTINUOUS
 62
     0
100
AcDbLine
 10
413.0254136628
 20
409.7559858101
 11
413.0254136628
 21
593.2473470454
  0
CIRCLE
  5
782
100
AcDbEntity
  8
_0-0_
  6
CONTINUOUS
 62
     0
100
AcDbCircle
 10
462.975314729
 20
564.3205056691
 40
6
  0
LINE
  5
783
100
AcDbEntity
  8
_0-0_
  6
CONTINUOUS
 62
     0
100
AcDbLine
 10
435.0073009127
 20
515.8784847524
 11
459.975314729
 21
559.1243532464
  0
CIRCLE
  5
784
100
AcDbEntity
  8
_0-0_
  6
CONTINUOUS
 62
     0
100
AcDbCircle
 10
435.0073009127
 20
515.8784847524
 40
0.9
  0
TEXT
  5
785
100
AcDbEntity
  8
_0-0_
  6
CONTINUOUS
 62
     0
100
AcDbText
 10
458.4452769899
 20
560.2253111324
 40
9
  1
９
  7
STANDARD
100
AcDbText
  0
LINE
  5
786
100
AcDbEntity
  8
_0-1_PRO0
  6
CONTINUOUS
 62
     0
100
AcDbLine
 10
413.0254136628
 20
593.2473470454
 11
283.0254136628
 21
593.2473470454
  0
LINE
  5
787
100
AcDbEntity
  8
_0-1_PRO0
  6
CONTINUOUS
 62
     0
100
AcDbLine
 10
354.007740781
 20
594.2396834134
 11
413.7926797798
 21
594.2475742192
  0
LINE
  5
788
100
AcDbEntity
  8
ADD_LINE
  6
DOT
 62
     0
100
AcDbLine
 10
357.620635159
 20
625.1088631296
 11
356.2369838109
 21
636.807420983
  0
LINE
  5
789
100
AcDbEntity
  8
_0-2_
  6
CONTINUOUS
 62
     0
100
AcDbLine
 10
342.6716131523
 20
643.5948837202
 11
319.7031331523
 21
642.3911577202
  0
LINE
  5
78A
100
AcDbEntity
  8
_0-2_
  6
CONTINUOUS
 62
     0
100
AcDbLine
 10
356.1191821523
 20
631.3779747202
 11
342.6716131523
 21
643.5948837202
  0
LINE
  5
78B
100
AcDbEntity
  8
_0-2_
  6
CONTINUOUS
 62
     0
100
AcDbLine
 10
359.9680051523
 20
633.5846007202
 11
359.3067691523
 21
634.0349007202
  0
LINE
  5
78C
100
AcDbEntity
  8
_0-2_
  6
CONTINUOUS
 62
     0
100
AcDbLine
 10
359.3067691523
 20
634.0349007202
 11
357.6181531523
 21
631.5552687202
  0
LINE
  5
78D
100
AcDbEntity
  8
_0-2_
  6
CONTINUOUS
 62
     0
100
AcDbLine
 10
359.9680051523
 20
633.5846007202
 11
358.2793891523
 21
631.1049687202
  0
ARC
  5
78E
100
AcDbEntity
  8
_0-2_
  6
CONTINUOUS
 62
     0
100
AcDbCircle
 10
356.7916111523
 20
632.1181407202
 40
0.999999
100
AcDbArc
 50
-132.254652
 51
-34.254658
  0
ARC
  5
78F
100
AcDbEntity
  8
_0-2_
  6
CONTINUOUS
 62
     0
100
AcDbCircle
 10
356.7916111523
 20
632.1181407202
 40
1.8
100
AcDbArc
 50
-132.254651
 51
-34.254658
  0
ARC
  5
790
100
AcDbEntity
  8
_0-2_
  6
CONTINUOUS
 62
     0
100
AcDbCircle
 10
331.2658771523
 20
641.4950757202
 40
6.3
100
AcDbArc
 50
43.903458
 51
142.096542
  0
LINE
  5
791
100
AcDbEntity
  8
_0-2_
  6
CONTINUOUS
 62
     0
100
AcDbLine
 10
336.3613261523
 20
644.5815627202
 11
336.4301791523
 21
643.2677847202
  0
LINE
  5
792
100
AcDbEntity
  8
_0-2_
  6
CONTINUOUS
 62
     0
100
AcDbLine
 10
325.8757171523
 20
644.0320347202
 11
325.9445671523
 21
642.7182567202
  0
ARC
  5
793
100
AcDbEntity
  8
_0-2_
  6
CONTINUOUS
 62
     0
100
AcDbCircle
 10
334.3640671523
 20
644.4768927202
 40
2.000001
100
AcDbArc
 50
2.999999999999
 51
43.903458
  0
LINE
  5
794
100
AcDbEntity
  8
_0-2_
  6
CONTINUOUS
 62
     0
100
AcDbLine
 10
355.5812431523
 20
630.7858437202
 11
342.3804841523
 21
642.7785297202
  0
LINE
  5
795
100
AcDbEntity
  8
_0-2_
  6
CONTINUOUS
 62
     0
100
AcDbLine
 10
342.3804841523
 20
642.7785297202
 11
320.0371561523
 21
641.6075637202
  0
LINE
  5
796
100
AcDbEntity
  8
_0-2_
  6
CONTINUOUS
 62
     0
100
AcDbLine
 10
308.2031341523
 20
628.3028637202
 11
320.0780011523
 21
641.6097057202
  0
ARC
  5
797
100
AcDbEntity
  8
_0-2_
  6
CONTINUOUS
 62
     0
100
AcDbCircle
 10
327.8729761523
 20
644.1367077202
 40
2.000001
100
AcDbArc
 50
142.096542
 51
183
  0
LINE
  5
798
100
AcDbEntity
  8
_0-2_
  6
CONTINUOUS
 62
     0
100
AcDbLine
 10
303.5478511523
 20
630.6277467202
 11
304.1583961523
 21
631.1446947202
  0
LINE
  5
799
100
AcDbEntity
  8
_0-2_
  6
CONTINUOUS
 62
     0
100
AcDbLine
 10
304.1583961523
 20
631.1446947202
 11
306.0969541523
 21
628.8551547202
  0
LINE
  5
79A
100
AcDbEntity
  8
_0-2_
  6
CONTINUOUS
 62
     0
100
AcDbLine
 10
303.5478511523
 20
630.6277467202
 11
305.4864091523
 21
628.3382067202
  0
ARC
  5
79B
100
AcDbEntity
  8
_0-2_
  6
CONTINUOUS
 62
     0
100
AcDbCircle
 10
306.8601331523
 20
629.5013427202
 40
0.999999
100
AcDbArc
 50
-139.745342
 51
-41.745348
  0
LINE
  5
79C
100
AcDbEntity
  8
_0-2_
  6
CONTINUOUS
 62
     0
100
AcDbLine
 10
307.6062451523
 20
628.8355197202
 11
319.7031331523
 21
642.3911577202
  0
ARC
  5
79D
100
AcDbEntity
  8
_0-2_
  6
CONTINUOUS
 62
     0
100
AcDbCircle
 10
306.8601331523
 20
629.5013427202
 40
1.8
100
AcDbArc
 50
-139.745342
 51
-41.745349
  0
LINE
  5
79E
100
AcDbEntity
  8
_0-2_
  6
CONTINUOUS
 62
     0
100
AcDbLine
 10
334.1832631523
 20
643.1500287202
 11
335.8848808624
 21
613.6987223191
  0
LINE
  5
79F
100
AcDbEntity
  8
_0-2_
  6
CONTINUOUS
 62
     0
100
AcDbLine
 10
333.6839461523
 20
643.1238597202
 11
335.4144090332
 21
613.1733797846
  0
LINE
  5
7A0
100
AcDbEntity
  8
_0-2_
  6
CONTINUOUS
 62
     0
100
AcDbLine
 10
330.8808751523
 20
648.8413707202
 11
333.0271427992
 21
610.1744737847
  0
LINE
  5
7A1
100
AcDbEntity
  8
_0-2_
  6
CONTINUOUS
 62
     0
100
AcDbLine
 10
328.6908001523
 20
642.8621817202
 11
330.4212588716
 21
612.911700097
  0
LINE
  5
7A2
100
AcDbEntity
  8
_0-2_
  6
CONTINUOUS
 62
     0
100
AcDbLine
 10
328.1914831523
 20
642.8360127202
 11
329.8931047876
 21
613.3847069098
  0
LINE
  5
7A3
100
AcDbEntity
  8
_0-2_
  6
CONTINUOUS
 62
     0
100
AcDbLine
 10
335.8848808624
 20
613.6987223191
 11
329.8931047876
 21
613.3847069098
  0
LINE
  5
7A4
100
AcDbEntity
  8
_0-2_
  6
CONTINUOUS
 62
     0
100
AcDbLine
 10
335.4144090332
 20
613.1733797846
 11
330.4212588716
 21
612.911700097
  0
LINE
  5
7A5
100
AcDbEntity
  8
_0-2_
  6
CONTINUOUS
 62
     0
100
AcDbLine
 10
330.2141464999
 20
613.0971868059
 11
330.4212588716
 21
612.911700097
  0
LINE
  5
7A6
100
AcDbEntity
  8
_0-2_
  6
CONTINUOUS
 62
     0
100
AcDbLine
 10
329.8931047876
 20
613.3847069098
 11
330.2141464999
 21
613.0971868059
  0
LINE
  5
7A7
100
AcDbEntity
  8
_0-2_
  6
CONTINUOUS
 62
     0
100
AcDbLine
 10
335.5989019943
 20
613.3793899934
 11
335.8848808624
 21
613.6987223191
  0
LINE
  5
7A8
100
AcDbEntity
  8
_0-2_
  6
CONTINUOUS
 62
     0
100
AcDbLine
 10
335.4144090332
 20
613.1733797846
 11
335.5989019943
 21
613.3793899934
  0
TEXT
  5
7A9
100
AcDbEntity
  8
_0-3_
  6
CONTINUOUS
 62
     0
100
AcDbText
 10
911.950525281
 20
661.556463931
 40
9
  1
10
  7
STANDARD
100
AcDbText
  0
LINE
  5
7AA
100
AcDbEntity
  8
_0-3_
  6
CONTINUOUS
 62
     0
100
AcDbLine
 10
895.387876931
 20
630.3147631686
 11
913.21340947
 21
661.1894911981
  0
CIRCLE
  5
7AB
100
AcDbEntity
  8
_0-3_
  6
CONTINUOUS
 62
     0
100
AcDbCircle
 10
895.387876931
 20
630.3147631686
 40
0.9
  0
LINE
  5
7AC
100
AcDbEntity
  8
_0-2_
  6
CONTINUOUS
 62
     0
100
AcDbLine
 10
883.5161134104
 20
643.587709135
 11
906.4845934104
 21
642.383983135
  0
LINE
  5
7AD
100
AcDbEntity
  8
_0-2_
  6
CONTINUOUS
 62
     0
100
AcDbLine
 10
870.0685444104
 20
631.370800135
 11
883.5161134104
 21
643.587709135
  0
LINE
  5
7AE
100
AcDbEntity
  8
_0-2_
  6
CONTINUOUS
 62
     0
100
AcDbLine
 10
866.2197214104
 20
633.577426135
 11
866.8809574104
 21
634.027726135
  0
LINE
  5
7AF
100
AcDbEntity
  8
_0-2_
  6
CONTINUOUS
 62
     0
100
AcDbLine
 10
866.8809574104
 20
634.027726135
 11
868.5695734104
 21
631.548094135
  0
LINE
  5
7B0
100
AcDbEntity
  8
_0-2_
  6
CONTINUOUS
 62
     0
100
AcDbLine
 10
866.2197214104
 20
633.577426135
 11
867.9083374104
 21
631.097794135
  0
ARC
  5
7B1
100
AcDbEntity
  8
_0-2_
  6
CONTINUOUS
 62
     0
100
AcDbCircle
 10
869.3961154104
 20
632.110966135
 40
0.999999
100
AcDbArc
 50
-145.745342
 51
-47.74534800001
  0
ARC
  5
7B2
100
AcDbEntity
  8
_0-2_
  6
CONTINUOUS
 62
     0
100
AcDbCircle
 10
869.3961154104
 20
632.110966135
 40
1.8
100
AcDbArc
 50
-145.745342
 51
-47.745349
  0
ARC
  5
7B3
100
AcDbEntity
  8
_0-2_
  6
CONTINUOUS
 62
     0
100
AcDbCircle
 10
894.9218494104
 20
641.487901135
 40
6.3
100
AcDbArc
 50
37.903458
 51
136.096542
  0
LINE
  5
7B4
100
AcDbEntity
  8
_0-2_
  6
CONTINUOUS
 62
     0
100
AcDbLine
 10
889.8264004104
 20
644.574388135
 11
889.7575474104
 21
643.260610135
  0
LINE
  5
7B5
100
AcDbEntity
  8
_0-2_
  6
CONTINUOUS
 62
     0
100
AcDbLine
 10
900.3120094104
 20
644.024860135
 11
900.2431594104
 21
642.711082135
  0
ARC
  5
7B6
100
AcDbEntity
  8
_0-2_
  6
CONTINUOUS
 62
     0
100
AcDbCircle
 10
891.8236594104
 20
644.469718135
 40
2.000001
100
AcDbArc
 50
136.096542
 51
177
  0
LINE
  5
7B7
100
AcDbEntity
  8
_0-2_
  6
CONTINUOUS
 62
     0
100
AcDbLine
 10
870.6064834104
 20
630.778669135
 11
883.8072424104
 21
642.771355135
  0
LINE
  5
7B8
100
AcDbEntity
  8
_0-2_
  6
CONTINUOUS
 62
     0
100
AcDbLine
 10
883.8072424104
 20
642.771355135
 11
906.1505704104
 21
641.600389135
  0
LINE
  5
7B9
100
AcDbEntity
  8
_0-2_
  6
CONTINUOUS
 62
     0
100
AcDbLine
 10
917.9845924104
 20
628.295689135
 11
906.1097254104
 21
641.602531135
  0
ARC
  5
7BA
100
AcDbEntity
  8
_0-2_
  6
CONTINUOUS
 62
     0
100
AcDbCircle
 10
898.3147504104
 20
644.129533135
 40
2.000001
100
AcDbArc
 50
-2.999999999999
 51
37.903458
  0
LINE
  5
7BB
100
AcDbEntity
  8
_0-2_
  6
CONTINUOUS
 62
     0
100
AcDbLine
 10
922.6398754104
 20
630.620572135
 11
922.0293304104
 21
631.137520135
  0
LINE
  5
7BC
100
AcDbEntity
  8
_0-2_
  6
CONTINUOUS
 62
     0
100
AcDbLine
 10
922.0293304104
 20
631.137520135
 11
920.0907724104
 21
628.847980135
  0
LINE
  5
7BD
100
AcDbEntity
  8
_0-2_
  6
CONTINUOUS
 62
     0
100
AcDbLine
 10
922.6398754104
 20
630.620572135
 11
920.7013174104
 21
628.331032135
  0
ARC
  5
7BE
100
AcDbEntity
  8
_0-2_
  6
CONTINUOUS
 62
     0
100
AcDbCircle
 10
919.3275934104
 20
629.494168135
 40
0.999999
100
AcDbArc
 50
-138.254652
 51
-40.254658
  0
LINE
  5
7BF
100
AcDbEntity
  8
_0-2_
  6
CONTINUOUS
 62
     0
100
AcDbLine
 10
918.5814814104
 20
628.828345135
 11
906.4845934104
 21
642.383983135
  0
ARC
  5
7C0
100
AcDbEntity
  8
_0-2_
  6
CONTINUOUS
 62
     0
100
AcDbCircle
 10
919.3275934104
 20
629.494168135
 40
1.8
100
AcDbArc
 50
-138.254651
 51
-40.254658
  0
LINE
  5
7C1
100
AcDbEntity
  8
_0-2_
  6
CONTINUOUS
 62
     0
100
AcDbLine
 10
892.0044634104
 20
643.142854135
 11
890.3028457004
 21
613.6915477339
  0
LINE
  5
7C2
100
AcDbEntity
  8
_0-2_
  6
CONTINUOUS
 62
     0
100
AcDbLine
 10
895.3068514104
 20
648.834196135
 11
893.1605837636
 21
610.1672991995
  0
LINE
  5
7C3
100
AcDbEntity
  8
_0-2_
  6
CONTINUOUS
 62
     0
100
AcDbLine
 10
897.4969264104
 20
642.855007135
 11
895.7664676912
 21
612.9045255118
  0
LINE
  5
7C4
100
AcDbEntity
  8
_0-2_
  6
CONTINUOUS
 62
     0
100
AcDbLine
 10
897.9962434104
 20
642.828838135
 11
896.2946217751
 21
613.3775323246
  0
LINE
  5
7C5
100
AcDbEntity
  8
_0-2_
  6
CONTINUOUS
 62
     0
100
AcDbLine
 10
892.5037804104
 20
643.116685135
 11
890.7733175296
 21
613.1662051994
  0
LINE
  5
7C6
100
AcDbEntity
  8
_0-2_
  6
CONTINUOUS
 62
     0
100
AcDbLine
 10
890.7733175296
 20
613.1662051994
 11
895.7664676912
 21
612.9045255118
  0
LINE
  5
7C7
100
AcDbEntity
  8
_0-2_
  6
CONTINUOUS
 62
     0
100
AcDbLine
 10
890.3028457004
 20
613.6915477339
 11
896.2946217751
 21
613.3775323246
  0
LINE
  5
7C8
100
AcDbEntity
  8
_0-2_
  6
CONTINUOUS
 62
     0
100
AcDbLine
 10
890.5888245685
 20
613.3722154082
 11
890.3028457004
 21
613.6915477339
  0
LINE
  5
7C9
100
AcDbEntity
  8
_0-2_
  6
CONTINUOUS
 62
     0
100
AcDbLine
 10
890.7733175296
 20
613.1662051994
 11
890.5888245685
 21
613.3722154082
  0
LINE
  5
7CA
100
AcDbEntity
  8
_0-2_
  6
CONTINUOUS
 62
     0
100
AcDbLine
 10
895.9735800629
 20
613.0900122207
 11
895.7664676912
 21
612.9045255118
  0
LINE
  5
7CB
100
AcDbEntity
  8
_0-2_
  6
CONTINUOUS
 62
     0
100
AcDbLine
 10
896.2946217751
 20
613.3775323246
 11
895.9735800629
 21
613.0900122207
  0
CIRCLE
  5
7CC
100
AcDbEntity
  8
_0-3_
  6
CONTINUOUS
 62
     0
100
AcDbCircle
 10
916.21340947
 20
666.3856436208
 40
6
  0
TEXT
  5
7CD
100
AcDbEntity
  8
_0-3_
  6
CONTINUOUS
 62
     0
100
AcDbText
 10
929.4627340023
 20
668.470471278
 40
9
  1
５
  7
STANDARD
100
AcDbText
  0
CIRCLE
  5
7CE
100
AcDbEntity
  8
_0-3_
  6
CONTINUOUS
 62
     0
100
AcDbCircle
 10
933.7812214557
 20
672.6484096467
 40
6
  0
LINE
  5
7CF
100
AcDbEntity
  8
_0-3_
  6
CONTINUOUS
 62
     0
100
AcDbLine
 10
912.4941316833
 20
635.7780886157
 11
930.7812214557
 21
667.452257224
  0
CIRCLE
  5
7D0
100
AcDbEntity
  8
_0-3_
  6
CONTINUOUS
 62
     0
100
AcDbCircle
 10
912.4941316833
 20
635.7780886157
 40
0.9
  0
TEXT
  5
7D1
100
AcDbEntity
  8
_0-0_
  6
CONTINUOUS
 62
     0
100
AcDbText
 10
696.6954317631
 20
339.3137073225
 40
7.49
  1
４００ＦＹＹＧ－Ｓ１１００
  7
STANDARD
100
AcDbText
  0
TEXT
  5
7D2
100
AcDbEntity
  8
_0-0_
  6
CONTINUOUS
 62
     0
100
AcDbText
 10
807.7272260444
 20
339.3137073225
 40
7.5
  1
１１００
  7
STANDARD
100
AcDbText
  0
TEXT
  5
7D3
100
AcDbEntity
  8
_0-0_
  6
CONTINUOUS
 62
     0
100
AcDbText
 10
854.2548350765
 20
339.5780687374
 40
7.5
  1
１３０
  7
STANDARD
100
AcDbText
  0
TEXT
  5
7D4
100
AcDbEntity
  8
_0-0_
  6
CONTINUOUS
 62
     0
100
AcDbText
 10
416.5609660336
 20
303.339683929
 40
7.5
  1
ｔ１．０×ｗ３０
 41
0.9986666666667
  7
STANDARD
100
AcDbText
  0
TEXT
  5
7D5
100
AcDbEntity
  8
_0-0_
  6
CONTINUOUS
 62
     0
100
AcDbText
 10
416.8396227282
 20
285.9236982325
 40
7.5
  1
４００ＦＹＹＨ－１１００
  7
STANDARD
100
AcDbText
  0
TEXT
  5
7D6
100
AcDbEntity
  8
_0-0_
  6
CONTINUOUS
 62
     0
100
AcDbText
 10
416.4287848554
 20
339.3326216999
 40
7.49
  1
４００ＦＹＹＧ－Ｓ１１００
 41
1.001335113485
  7
STANDARD
100
AcDbText
  0
TEXT
  5
7D7
100
AcDbEntity
  8
_0-0_
  6
CONTINUOUS
 62
     0
100
AcDbText
 10
416.8396227282
 20
231.2822611467
 40
7.5
  1
４００ＦＹＹＪ－１１００
  7
STANDARD
100
AcDbText
  0
TEXT
  5
7D8
100
AcDbEntity
  8
_0-0_
  6
CONTINUOUS
 62
     0
100
AcDbText
 10
417.250460601
 20
214.4379083609
 40
7.49
  1
ＳＰＶＣ
 41
1.001335113485
  7
STANDARD
100
AcDbText
  0
TEXT
  5
7D9
100
AcDbEntity
  8
_0-0_
  6
CONTINUOUS
 62
     0
100
AcDbText
 10
418.4829742195
 20
195.5393662109
 40
7.5
  1
ＦＳ１２００
  7
STANDARD
100
AcDbText
  0
TEXT
  5
7DA
100
AcDbEntity
  8
_0-0_
  6
CONTINUOUS
 62
     0
100
AcDbText
 10
417.6612984739
 20
177.4624998065
 40
7.5
  1
なべＭ６×３５
 41
0.9986666666667
  7
STANDARD
100
AcDbText
  0
TEXT
  5
7DB
100
AcDbEntity
  8
_0-0_
  6
CONTINUOUS
 62
     0
100
AcDbText
 10
417.8109660336
 20
159.339683929
 40
7.5
  1
Ｍ６×４０
 41
0.9986666666667
  7
STANDARD
100
AcDbText
  0
TEXT
  5
7DC
100
AcDbEntity
  8
_0-0_
  6
CONTINUOUS
 62
     0
100
AcDbText
 10
418.0721363467
 20
141.7196048707
 40
7.5
  1
ＡＧ－６６０
  7
STANDARD
100
AcDbText
  0
TEXT
  5
7DD
100
AcDbEntity
  8
_0-0_
  6
CONTINUOUS
 62
     0
100
AcDbText
 10
418.8938120923
 20
123.6427384664
 40
7.5
  1
１．５×１８×６．５穴
 41
0.9986666666667
  7
STANDARD
100
AcDbText
  0
TEXT
  5
7DE
100
AcDbEntity
  8
_0-0_
  6
CONTINUOUS
 62
     0
100
AcDbText
 10
566.9964476042
 20
357.339683929
 40
7.49
  1
定尺(mm)
  7
STANDARD
100
AcDbText
  0
TEXT
  5
7DF
100
AcDbEntity
  8
_0-0_
  6
CONTINUOUS
 62
     0
100
AcDbText
 10
566.5612408662
 20
339.339683929
 40
7.49
  1
２０００
  7
STANDARD
100
AcDbText
  0
TEXT
  5
7E0
100
AcDbEntity
  8
_0-0_
  6
CONTINUOUS
 62
     0
100
AcDbText
 10
566.5612408662
 20
321.339683929
 40
7.49
  1
２０００
  7
STANDARD
100
AcDbText
  0
TEXT
  5
7E1
100
AcDbEntity
  8
_0-0_
  6
CONTINUOUS
 62
     0
100
AcDbText
 10
566.5612408662
 20
303.339683929
 40
7.5
  1
６０００
 41
0.9986666666667
  7
STANDARD
100
AcDbText
  0
TEXT
  5
7E2
100
AcDbEntity
  8
_0-0_
  6
CONTINUOUS
 62
     0
100
AcDbText
 10
566.5024377433
 20
286.7453739782
 40
7.49
  1
２０１０
  7
STANDARD
100
AcDbText
  0
TEXT
  5
7E3
100
AcDbEntity
  8
_0-0_
  6
CONTINUOUS
 62
     0
100
AcDbText
 10
566.7662571803
 20
214.6848790899
 40
7.5
  1
２０６０
 41
0.9986666666667
  7
STANDARD
100
AcDbText
  0
TEXT
  5
7E4
100
AcDbEntity
  8
_0-0_
  6
CONTINUOUS
 62
     0
100
AcDbText
 10
566.5612408662
 20
195.339683929
 40
7.5
  1
２１００
 41
0.9986666666667
  7
STANDARD
100
AcDbText
  0
TEXT
  5
7E5
100
AcDbEntity
  8
_0-0_
  6
CONTINUOUS
 62
     0
100
AcDbText
 10
616.9984660336
 20
339.339683929
 40
7.49
  1
１
 41
1.001335113485
  7
STANDARD
100
AcDbText
  0
TEXT
  5
7E6
100
AcDbEntity
  8
_0-0_
  6
CONTINUOUS
 62
     0
100
AcDbText
 10
616.9984660336
 20
321.339683929
 40
7.49
  1
２
 41
1.001335113485
  7
STANDARD
100
AcDbText
  0
TEXT
  5
7E7
100
AcDbEntity
  8
_0-0_
  6
CONTINUOUS
 62
     0
100
AcDbText
 10
616.9984660336
 20
303.339683929
 40
7.49
  1
２
 41
1.001335113485
  7
STANDARD
100
AcDbText
  0
TEXT
  5
7E8
100
AcDbEntity
  8
_0-0_
  6
CONTINUOUS
 62
     0
100
AcDbText
 10
616.9984660336
 20
285.339683929
 40
7.5
  1
４
  7
STANDARD
100
AcDbText
  0
TEXT
  5
7E9
100
AcDbEntity
  8
_0-0_
  6
CONTINUOUS
 62
     0
100
AcDbText
 10
616.9984660336
 20
267.339683929
 40
7.5
  1
８
  7
STANDARD
100
AcDbText
  0
TEXT
  5
7EA
100
AcDbEntity
  8
_0-0_
  6
CONTINUOUS
 62
     0
100
AcDbText
 10
616.9984660336
 20
249.339683929
 40
7.5
  1
８
  7
STANDARD
100
AcDbText
  0
TEXT
  5
7EB
100
AcDbEntity
  8
_0-0_
  6
CONTINUOUS
 62
     0
100
AcDbText
 10
616.9984660336
 20
231.339683929
 40
7.5
  1
１
  7
STANDARD
100
AcDbText
  0
TEXT
  5
7EC
100
AcDbEntity
  8
_0-0_
  6
CONTINUOUS
 62
     0
100
AcDbText
 10
617.8284823477
 20
214.6848790899
 40
7.5
  1
２
 41
0.9986666666667
  7
STANDARD
100
AcDbText
  0
TEXT
  5
7ED
100
AcDbEntity
  8
_0-0_
  6
CONTINUOUS
 62
     0
100
AcDbText
 10
616.9984660336
 20
195.339683929
 40
7.5
  1
１
  7
STANDARD
100
AcDbText
  0
TEXT
  5
7EE
100
AcDbEntity
  8
_0-0_
  6
CONTINUOUS
 62
     0
100
AcDbText
 10
615.1693970139
 20
177.339683929
 40
7.5
  1
１０
  7
STANDARD
100
AcDbText
  0
TEXT
  5
7EF
100
AcDbEntity
  8
_0-0_
  6
CONTINUOUS
 62
     0
100
AcDbText
 10
615.1693970139
 20
159.339683929
 40
7.5
  1
１０
  7
STANDARD
100
AcDbText
  0
TEXT
  5
7F0
100
AcDbEntity
  8
_0-0_
  6
CONTINUOUS
 62
     0
100
AcDbText
 10
615.1693970139
 20
141.339683929
 40
7.5
  1
１０
  7
STANDARD
100
AcDbText
  0
TEXT
  5
7F1
100
AcDbEntity
  8
_0-0_
  6
CONTINUOUS
 62
     0
100
AcDbText
 10
615.1693970139
 20
123.339683929
 40
7.5
  1
１０
  7
STANDARD
100
AcDbText
  0
TEXT
  5
7F2
100
AcDbEntity
  8
_0-0_
  6
CONTINUOUS
 62
     0
100
AcDbText
 10
853.7494844769
 20
1272.26294693
 40
7.5
  1
１２５
  7
STANDARD
100
AcDbText
  0
TEXT
  5
7F3
100
AcDbEntity
  8
_0-0_
  6
CONTINUOUS
 62
     0
100
AcDbText
 10
853.7494844769
 20
1254.26294693
 40
7.5
  1
１５０
  7
STANDARD
100
AcDbText
  0
TEXT
  5
7F4
100
AcDbEntity
  8
_0-0_
  6
CONTINUOUS
 62
     0
100
AcDbText
 10
53.7131753758
 20
826.6362988234
 40
9.99
  1
◇ステンレス４００タイプ（４００ＦＹＹＧ－Ｓ）
 41
1.001001001001
  7
STANDARD
100
AcDbText
  0
ENDSEC
  0
SECTION
  2
OBJECTS
  0
DICTIONARY
  5
7F5
100
AcDbDictionary
  3
ACAD_GROUP
350
7F6
  3
ACAD_IMAGE_DICT
350
7F7
  3
ACAD_MLINESTYLE
350
7F8
  0
DICTIONARY
  5
7F6
330
7F5
100
AcDbDictionary
  0
DICTIONARY
  5
7F7
100
AcDbDictionary
  0
DICTIONARY
  5
7F8
100
AcDbDictionary
  3
STANDARD
350
7F9
  0
RASTERVARIABLES
  5
7FA
100
AcDbRasterVariables
 90
     0
 70
     1
 71
     1
 72
     0
  0
MLINESTYLE
  5
7F9
100
AcDbMlineStyle
  2
STANDARD
 70
     0
  3

 62
   256
 51
90
 52
90
 71
     0
  0
ENDSEC
  0
EOF
