  0
SECTION
  2
HEADER
  9
$ACADVER
  1
AC1015
  9
$ACADMAINTVER
 70
    20
  9
$DWGCODEPAGE
  3
ANSI_932
  9
$INSBASE
 10
0.0
 20
0.0
 30
0.0
  9
$EXTMIN
 10
29.95422660134955
 20
26.25661094462567
 30
-0.0015258207003583
  9
$EXTMAX
 10
1230.045779265982
 20
855.7398228105611
 30
0.0000000349246037
  9
$LIMMIN
 10
0.0
 20
0.0
  9
$LIMMAX
 10
1260.0
 20
882.0
  9
$ORTHOMODE
 70
     0
  9
$REGENMODE
 70
     1
  9
$FILLMODE
 70
     1
  9
$QTEXTMODE
 70
     0
  9
$MIRRTEXT
 70
     0
  9
$LTSCALE
 40
3.0
  9
$ATTMODE
 70
     1
  9
$TEXTSIZE
 40
1.0
  9
$TRACEWID
 40
0.05
  9
$TEXTSTYLE
  7
STANDARD
  9
$CLAYER
  8
0
  9
$CELTYPE
  6
CONTINUOUS
  9
$CECOLOR
 62
   256
  9
$CELTSCALE
 40
1.0
  9
$DISPSILH
 70
     0
  9
$DIMSCALE
 40
3.0
  9
$DIMASZ
 40
0.18
  9
$DIMEXO
 40
0.0625
  9
$DIMDLI
 40
0.38
  9
$DIMRND
 40
0.0
  9
$DIMDLE
 40
0.0
  9
$DIMEXE
 40
0.18
  9
$DIMTP
 40
0.0
  9
$DIMTM
 40
0.0
  9
$DIMTXT
 40
0.18
  9
$DIMCEN
 40
0.09
  9
$DIMTSZ
 40
0.0
  9
$DIMTOL
 70
     0
  9
$DIMLIM
 70
     0
  9
$DIMTIH
 70
     1
  9
$DIMTOH
 70
     1
  9
$DIMSE1
 70
     0
  9
$DIMSE2
 70
     0
  9
$DIMTAD
 70
     0
  9
$DIMZIN
 70
     0
  9
$DIMBLK
  1

  9
$DIMASO
 70
     1
  9
$DIMSHO
 70
     1
  9
$DIMPOST
  1

  9
$DIMAPOST
  1

  9
$DIMALT
 70
     0
  9
$DIMALTD
 70
     2
  9
$DIMALTF
 40
25.4
  9
$DIMLFAC
 40
1.0
  9
$DIMTOFL
 70
     0
  9
$DIMTVP
 40
0.0
  9
$DIMTIX
 70
     0
  9
$DIMSOXD
 70
     0
  9
$DIMSAH
 70
     0
  9
$DIMBLK1
  1

  9
$DIMBLK2
  1

  9
$DIMSTYLE
  2
M7DIMSTL
  9
$DIMCLRD
 70
     0
  9
$DIMCLRE
 70
     0
  9
$DIMCLRT
 70
     0
  9
$DIMTFAC
 40
1.0
  9
$DIMGAP
 40
0.09
  9
$DIMJUST
 70
     0
  9
$DIMSD1
 70
     0
  9
$DIMSD2
 70
     0
  9
$DIMTOLJ
 70
     1
  9
$DIMTZIN
 70
     0
  9
$DIMALTZ
 70
     0
  9
$DIMALTTZ
 70
     0
  9
$DIMUPT
 70
     0
  9
$DIMDEC
 70
     4
  9
$DIMTDEC
 70
     4
  9
$DIMALTU
 70
     2
  9
$DIMALTTD
 70
     2
  9
$DIMTXSTY
  7
STANDARD
  9
$DIMAUNIT
 70
     0
  9
$DIMADEC
 70
     0
  9
$DIMALTRND
 40
0.0
  9
$DIMAZIN
 70
     0
  9
$DIMDSEP
 70
    46
  9
$DIMATFIT
 70
     3
  9
$DIMFRAC
 70
     0
  9
$DIMLDRBLK
  1

  9
$DIMLUNIT
 70
     2
  9
$DIMLWD
 70
    -2
  9
$DIMLWE
 70
    -2
  9
$DIMTMOVE
 70
     0
  9
$LUNITS
 70
     2
  9
$LUPREC
 70
     4
  9
$SKETCHINC
 40
0.1
  9
$FILLETRAD
 40
0.0
  9
$AUNITS
 70
     0
  9
$AUPREC
 70
     0
  9
$MENU
  1
.
  9
$ELEVATION
 40
0.0
  9
$PELEVATION
 40
0.0
  9
$THICKNESS
 40
0.0
  9
$LIMCHECK
 70
     0
  9
$CHAMFERA
 40
0.0
  9
$CHAMFERB
 40
0.0
  9
$CHAMFERC
 40
0.0
  9
$CHAMFERD
 40
0.0
  9
$SKPOLY
 70
     0
  9
$TDCREATE
 40
2457807.641192130
  9
$TDUCREATE
 40
2457807.266192130
  9
$TDUPDATE
 40
2457807.641504630
  9
$TDUUPDATE
 40
2457807.266504630
  9
$TDINDWG
 40
0.0003125000
  9
$TDUSRTIMER
 40
0.0003125000
  9
$USRTIMER
 70
     1
  9
$ANGBASE
 50
0.0
  9
$ANGDIR
 70
     0
  9
$PDMODE
 70
     0
  9
$PDSIZE
 40
0.0
  9
$PLINEWID
 40
0.0
  9
$SPLFRAME
 70
     0
  9
$SPLINETYPE
 70
     6
  9
$SPLINESEGS
 70
     8
  9
$HANDSEED
  5
1000000C3
  9
$SURFTAB1
 70
     6
  9
$SURFTAB2
 70
     6
  9
$SURFTYPE
 70
     6
  9
$SURFU
 70
     6
  9
$SURFV
 70
     6
  9
$UCSBASE
  2

  9
$UCSNAME
  2

  9
$UCSORG
 10
0.0
 20
0.0
 30
0.0
  9
$UCSXDIR
 10
1.0
 20
0.0
 30
0.0
  9
$UCSYDIR
 10
0.0
 20
1.0
 30
0.0
  9
$UCSORTHOREF
  2

  9
$UCSORTHOVIEW
 70
     0
  9
$UCSORGTOP
 10
0.0
 20
0.0
 30
0.0
  9
$UCSORGBOTTOM
 10
0.0
 20
0.0
 30
0.0
  9
$UCSORGLEFT
 10
0.0
 20
0.0
 30
0.0
  9
$UCSORGRIGHT
 10
0.0
 20
0.0
 30
0.0
  9
$UCSORGFRONT
 10
0.0
 20
0.0
 30
0.0
  9
$UCSORGBACK
 10
0.0
 20
0.0
 30
0.0
  9
$PUCSBASE
  2

  9
$PUCSNAME
  2

  9
$PUCSORG
 10
0.0
 20
0.0
 30
0.0
  9
$PUCSXDIR
 10
1.0
 20
0.0
 30
0.0
  9
$PUCSYDIR
 10
0.0
 20
1.0
 30
0.0
  9
$PUCSORTHOREF
  2

  9
$PUCSORTHOVIEW
 70
     0
  9
$PUCSORGTOP
 10
0.0
 20
0.0
 30
0.0
  9
$PUCSORGBOTTOM
 10
0.0
 20
0.0
 30
0.0
  9
$PUCSORGLEFT
 10
0.0
 20
0.0
 30
0.0
  9
$PUCSORGRIGHT
 10
0.0
 20
0.0
 30
0.0
  9
$PUCSORGFRONT
 10
0.0
 20
0.0
 30
0.0
  9
$PUCSORGBACK
 10
0.0
 20
0.0
 30
0.0
  9
$USERI1
 70
     0
  9
$USERI2
 70
     0
  9
$USERI3
 70
     0
  9
$USERI4
 70
     0
  9
$USERI5
 70
     0
  9
$USERR1
 40
0.0
  9
$USERR2
 40
0.0
  9
$USERR3
 40
0.0
  9
$USERR4
 40
0.0
  9
$USERR5
 40
0.0
  9
$WORLDVIEW
 70
     1
  9
$SHADEDGE
 70
     3
  9
$SHADEDIF
 70
    70
  9
$TILEMODE
 70
     1
  9
$MAXACTVP
 70
    64
  9
$PINSBASE
 10
0.0
 20
0.0
 30
0.0
  9
$PLIMCHECK
 70
     0
  9
$PEXTMIN
 10
1.000000000000000E+20
 20
1.000000000000000E+20
 30
1.000000000000000E+20
  9
$PEXTMAX
 10
-1.000000000000000E+20
 20
-1.000000000000000E+20
 30
-1.000000000000000E+20
  9
$PLIMMIN
 10
0.0
 20
0.0
  9
$PLIMMAX
 10
12.0
 20
9.0
  9
$UNITMODE
 70
     0
  9
$VISRETAIN
 70
     1
  9
$PLINEGEN
 70
     0
  9
$PSLTSCALE
 70
     0
  9
$TREEDEPTH
 70
  3020
  9
$CMLSTYLE
  2
STANDARD
  9
$CMLJUST
 70
     0
  9
$CMLSCALE
 40
1.0
  9
$PROXYGRAPHICS
 70
     1
  9
$MEASUREMENT
 70
     1
  9
$CELWEIGHT
370
    -1
  9
$ENDCAPS
280
     0
  9
$JOINSTYLE
280
     0
  9
$LWDISPLAY
290
     0
  9
$INSUNITS
 70
     0
  9
$HYPERLINKBASE
  1

  9
$STYLESHEET
  1

  9
$XEDIT
290
     1
  9
$CEPSNTYPE
380
     0
  9
$PSTYLEMODE
290
     1
  9
$FINGERPRINTGUID
  2
{566727F0-F391-844D-9B61-D867829D68DE}
  9
$VERSIONGUID
  2
{22D94518-BFD1-4C4C-83C3-DB5EE0283E6D}
  9
$EXTNAMES
290
     1
  9
$PSVPSCALE
 40
0.0
  9
$OLESTARTUP
290
     0
  0
ENDSEC
  0
SECTION
  2
CLASSES
  0
CLASS
  1
CSOFTARXCLASS
  2
CSoftArxClass
  3
CSRasterApi
 90
    32768
280
     0
281
     0
  0
CLASS
  1
IMAGEDEF
  2
AcDbRasterImageDef
  3
ISM
 90
    32768
280
     0
281
     0
  0
CLASS
  1
RASTERVARIABLES
  2
AcDbRasterVariables
  3
ISM
 90
        0
280
     0
281
     0
  0
CLASS
  1
IMAGE
  2
AcDbRasterImage
  3
ISM
 90
    34943
280
     0
281
     0
  0
CLASS
  1
IMAGEDEF_REACTOR
  2
AcDbRasterImageDefReactor
  3
ISM
 90
    32769
280
     0
281
     0
  0
CLASS
  1
ACDBDICTIONARYWDFLT
  2
AcDbDictionaryWithDefault
  3
ObjectDBX Classes
 90
        0
280
     0
281
     0
  0
CLASS
  1
MATERIAL
  2
AcDbMaterial
  3
ObjectDBX Classes
 90
     1153
280
     0
281
     0
  0
CLASS
  1
VISUALSTYLE
  2
AcDbVisualStyle
  3
ObjectDBX Classes
 90
     4095
280
     0
281
     0
  0
CLASS
  1
TABLESTYLE
  2
AcDbTableStyle
  3
ObjectDBX Classes
 90
     4095
280
     0
281
     0
  0
CLASS
  1
SCALE
  2
AcDbScale
  3
ObjectDBX Classes
 90
     1153
280
     0
281
     0
  0
CLASS
  1
MLEADERSTYLE
  2
AcDbMLeaderStyle
  3
ACDB_MLEADERSTYLE_CLASS
 90
     4095
280
     0
281
     0
  0
CLASS
  1
ACDBSECTIONVIEWSTYLE
  2
AcDbSectionViewStyle
  3
ObjectDBX Classes
 90
     1025
280
     0
281
     0
  0
CLASS
  1
ACDBDETAILVIEWSTYLE
  2
AcDbDetailViewStyle
  3
ObjectDBX Classes
 90
     1025
280
     0
281
     0
  0
CLASS
  1
DICTIONARYVAR
  2
AcDbDictionaryVar
  3
ObjectDBX Classes
 90
        0
280
     0
281
     0
  0
CLASS
  1
CELLSTYLEMAP
  2
AcDbCellStyleMap
  3
ObjectDBX Classes
 90
     1152
280
     0
281
     0
  0
CLASS
  1
ACDBPLACEHOLDER
  2
AcDbPlaceHolder
  3
ObjectDBX Classes
 90
        0
280
     0
281
     0
  0
CLASS
  1
LAYOUT
  2
AcDbLayout
  3
ObjectDBX Classes
 90
        0
280
     0
281
     0
  0
ENDSEC
  0
SECTION
  2
TABLES
  0
TABLE
  2
VPORT
  5
FF
330
0
100
AcDbSymbolTable
 70
     1
  0
VPORT
  5
100
330
FF
100
AcDbSymbolTableRecord
100
AcDbViewportTableRecord
  2
*ACTIVE
 70
     0
 10
0.0
 20
0.0
 11
1.0
 21
1.0
 12
630.000002933666
 22
440.9982168775934
 13
0.0
 23
0.0
 14
0.0
 24
0.0
 15
0.0
 25
0.0
 16
0.0
 26
0.0
 36
1.0
 17
0.0
 27
0.0
 37
0.0
 40
838.9992716578966
 41
2.318007662835249
 42
50.0
 43
0.0
 44
0.0
 50
0.0
 51
0.0
 71
     0
 72
   100
 73
     1
 74
     3
 75
     0
 76
     0
 77
     0
 78
     0
281
     0
 65
     1
110
0.0
120
0.0
130
0.0
111
1.0
121
0.0
131
0.0
112
0.0
122
1.0
132
0.0
 79
     0
146
0.0
1001
ACAD_NAV_VCDISPLAY
1070
     3
  0
ENDTAB
  0
TABLE
  2
LTYPE
  5
101
330
0
100
AcDbSymbolTable
 70
    16
  0
LTYPE
  5
102
330
101
100
AcDbSymbolTableRecord
100
AcDbLinetypeTableRecord
  2
BYBLOCK
 70
     0
  3

 72
    65
 73
     0
 40
0.0
  0
LTYPE
  5
103
330
101
100
AcDbSymbolTableRecord
100
AcDbLinetypeTableRecord
  2
BYLAYER
 70
     0
  3

 72
    65
 73
     0
 40
0.0
  0
LTYPE
  5
104
330
101
100
AcDbSymbolTableRecord
100
AcDbLinetypeTableRecord
  2
CONTINUOUS
 70
     0
  3
Solid line
 72
    65
 73
     0
 40
0.0
  0
LTYPE
  5
105
330
101
100
AcDbSymbolTableRecord
100
AcDbLinetypeTableRecord
  2
DOT
 70
     0
  3
...............................
 72
    65
 73
     2
 40
2.0
 49
1.0
 74
     0
 49
-1.0
 74
     0
  0
LTYPE
  5
106
330
101
100
AcDbSymbolTableRecord
100
AcDbLinetypeTableRecord
  2
DASHED
 70
     0
  3
- - - - - - - - - - - - - - - -
 72
    65
 73
     2
 40
4.0
 49
2.0
 74
     0
 49
-2.0
 74
     0
  0
LTYPE
  5
107
330
101
100
AcDbSymbolTableRecord
100
AcDbLinetypeTableRecord
  2
DASHED2
 70
     0
  3
-- -- -- -- -- -- -- -- -- -- -
 72
    65
 73
     2
 40
8.0
 49
5.0
 74
     0
 49
-3.0
 74
     0
  0
LTYPE
  5
108
330
101
100
AcDbSymbolTableRecord
100
AcDbLinetypeTableRecord
  2
CENTER
 70
     0
  3
--------- - --------- - -------
 72
    65
 73
     4
 40
23.0
 49
20.0
 74
     0
 49
-1.0
 74
     0
 49
1.0
 74
     0
 49
-1.0
 74
     0
  0
LTYPE
  5
109
330
101
100
AcDbSymbolTableRecord
100
AcDbLinetypeTableRecord
  2
CENTERX2
 70
     0
  3
-------------- - --------------
 72
    65
 73
     4
 40
43.0
 49
40.0
 74
     0
 49
-1.0
 74
     0
 49
1.0
 74
     0
 49
-1.0
 74
     0
  0
LTYPE
  5
10A
330
101
100
AcDbSymbolTableRecord
100
AcDbLinetypeTableRecord
  2
CENTER2
 70
     0
  3
------ - ----- - ------ - -----
 72
    65
 73
     4
 40
13.0
 49
10.0
 74
     0
 49
-1.0
 74
     0
 49
1.0
 74
     0
 49
-1.0
 74
     0
  0
LTYPE
  5
10B
330
101
100
AcDbSymbolTableRecord
100
AcDbLinetypeTableRecord
  2
PHANTOM
 70
     0
  3
-------- - - ------- - - ------
 72
    65
 73
     6
 40
25.0
 49
20.0
 74
     0
 49
-1.0
 74
     0
 49
1.0
 74
     0
 49
-1.0
 74
     0
 49
1.0
 74
     0
 49
-1.0
 74
     0
  0
LTYPE
  5
10C
330
101
100
AcDbSymbolTableRecord
100
AcDbLinetypeTableRecord
  2
PHANTOMX2
 70
     0
  3
------------- - - -------------
 72
    65
 73
     6
 40
45.0
 49
40.0
 74
     0
 49
-1.0
 74
     0
 49
1.0
 74
     0
 49
-1.0
 74
     0
 49
1.0
 74
     0
 49
-1.0
 74
     0
  0
LTYPE
  5
10D
330
101
100
AcDbSymbolTableRecord
100
AcDbLinetypeTableRecord
  2
PHANTOM2
 70
     0
  3
---- - - ---- - - ---- - - ----
 72
    65
 73
     6
 40
15.0
 49
10.0
 74
     0
 49
-1.0
 74
     0
 49
1.0
 74
     0
 49
-1.0
 74
     0
 49
1.0
 74
     0
 49
-1.0
 74
     0
  0
LTYPE
  5
10E
330
101
100
AcDbSymbolTableRecord
100
AcDbLinetypeTableRecord
  2
ACAD_ISO06W100
 70
     0
  3
------------ - - - ------------
 72
    65
 73
     8
 40
47.0
 49
40.0
 74
     0
 49
-1.0
 74
     0
 49
1.0
 74
     0
 49
-1.0
 74
     0
 49
1.0
 74
     0
 49
-1.0
 74
     0
 49
1.0
 74
     0
 49
-1.0
 74
     0
  0
LTYPE
  5
10F
330
101
100
AcDbSymbolTableRecord
100
AcDbLinetypeTableRecord
  2
ACAD_ISO14W100
 70
     0
  3
---- - - - -------- - - - -----
 72
    65
 73
     8
 40
27.0
 49
20.0
 74
     0
 49
-1.0
 74
     0
 49
1.0
 74
     0
 49
-1.0
 74
     0
 49
1.0
 74
     0
 49
-1.0
 74
     0
 49
1.0
 74
     0
 49
-1.0
 74
     0
  0
LTYPE
  5
110
330
101
100
AcDbSymbolTableRecord
100
AcDbLinetypeTableRecord
  2
ACAD_ISO11W100
 70
     0
  3
------- ------ - ------- ------
 72
    65
 73
     6
 40
44.0
 49
20.0
 74
     0
 49
-1.0
 74
     0
 49
20.0
 74
     0
 49
-1.0
 74
     0
 49
1.0
 74
     0
 49
-1.0
 74
     0
  0
LTYPE
  5
111
330
101
100
AcDbSymbolTableRecord
100
AcDbLinetypeTableRecord
  2
ACAD_ISO13W100
 70
     0
  3
------ ------ - - ------ ------
 72
    65
 73
     8
 40
46.0
 49
20.0
 74
     0
 49
-1.0
 74
     0
 49
20.0
 74
     0
 49
-1.0
 74
     0
 49
1.0
 74
     0
 49
-1.0
 74
     0
 49
1.0
 74
     0
 49
-1.0
 74
     0
  0
LTYPE
  5
112
330
101
100
AcDbSymbolTableRecord
100
AcDbLinetypeTableRecord
  2
ACAD_ISO15W100
 70
     0
  3
------ ----- - - - ------ -----
 72
    65
 73
    10
 40
48.0
 49
20.0
 74
     0
 49
-1.0
 74
     0
 49
20.0
 74
     0
 49
-1.0
 74
     0
 49
1.0
 74
     0
 49
-1.0
 74
     0
 49
1.0
 74
     0
 49
-1.0
 74
     0
 49
1.0
 74
     0
 49
-1.0
 74
     0
  0
LTYPE
  5
113
330
101
100
AcDbSymbolTableRecord
100
AcDbLinetypeTableRecord
  2
HIDDEN
 70
     0
  3
. . . . . . . . . . . . . . . .
 72
    65
 73
     2
 40
1.5
 49
1.0
 74
     0
 49
-0.5
 74
     0
  0
ENDTAB
  0
TABLE
  2
LAYER
  5
114
330
0
100
AcDbSymbolTable
 70
     8
  0
LAYER
  5
115
102
{ACAD_XDICTIONARY
360
100000058
102
}
330
114
100
AcDbSymbolTableRecord
100
AcDbLayerTableRecord
  2
0
 70
     0
 62
     7
  6
CONTINUOUS
370
    -3
390
116
  0
LAYER
  5
117
102
{ACAD_XDICTIONARY
360
10000005A
102
}
330
114
100
AcDbSymbolTableRecord
100
AcDbLayerTableRecord
  2
_0-0_
 70
     0
 62
     7
  6
CONTINUOUS
370
    -3
390
278
  0
LAYER
  5
118
102
{ACAD_XDICTIONARY
360
10000005C
102
}
330
114
100
AcDbSymbolTableRecord
100
AcDbLayerTableRecord
  2
_0-1_PRO0
 70
     0
 62
     7
  6
CONTINUOUS
370
    -3
390
278
  0
LAYER
  5
119
102
{ACAD_XDICTIONARY
360
10000005E
102
}
330
114
100
AcDbSymbolTableRecord
100
AcDbLayerTableRecord
  2
_0-3_
 70
     0
 62
     7
  6
CONTINUOUS
370
    -3
390
278
  0
LAYER
  5
11A
102
{ACAD_XDICTIONARY
360
100000060
102
}
330
114
100
AcDbSymbolTableRecord
100
AcDbLayerTableRecord
  2
_1-0_
 70
     0
 62
     7
  6
CONTINUOUS
370
    -3
390
278
  0
LAYER
  5
11B
102
{ACAD_XDICTIONARY
360
100000062
102
}
330
114
100
AcDbSymbolTableRecord
100
AcDbLayerTableRecord
  2
_2-0_
 70
     0
 62
     7
  6
CONTINUOUS
370
    -3
390
278
  0
LAYER
  5
11C
102
{ACAD_XDICTIONARY
360
100000064
102
}
330
114
100
AcDbSymbolTableRecord
100
AcDbLayerTableRecord
  2
_a-0_
 70
     0
 62
     7
  6
CONTINUOUS
370
    -3
390
278
  0
LAYER
  5
11D
102
{ACAD_XDICTIONARY
360
100000066
102
}
330
114
100
AcDbSymbolTableRecord
100
AcDbLayerTableRecord
  2
ADD_LINE
 70
     0
 62
     7
  6
CONTINUOUS
370
    -3
390
278
  0
ENDTAB
  0
TABLE
  2
STYLE
  5
11E
330
0
100
AcDbSymbolTable
 70
     2
  0
STYLE
  5
11F
330
11E
100
AcDbSymbolTableRecord
100
AcDbTextStyleTableRecord
  2
STANDARD
 70
     0
 40
0.0
 41
0.0
 50
0.0
 71
     0
 42
1.0
  3
txt
  4
bigfont
  0
STYLE
  5
120
330
11E
100
AcDbSymbolTableRecord
100
AcDbTextStyleTableRecord
  2
VSTANDARD
 70
     4
 40
0.0
 41
0.0
 50
0.0
 71
     0
 42
1.0
  3
txt
  4
bigfont
  0
ENDTAB
  0
TABLE
  2
VIEW
  5
121
330
0
100
AcDbSymbolTable
 70
     0
  0
ENDTAB
  0
TABLE
  2
UCS
  5
122
330
0
100
AcDbSymbolTable
 70
     0
  0
ENDTAB
  0
TABLE
  2
APPID
  5
123
330
0
100
AcDbSymbolTable
 70
     3
  0
APPID
  5
124
330
123
100
AcDbSymbolTableRecord
100
AcDbRegAppTableRecord
  2
ACAD
 70
     0
  0
APPID
  5
100000068
330
123
100
AcDbSymbolTableRecord
100
AcDbRegAppTableRecord
  2
ACAD_NAV_VCDISPLAY
 70
     0
  0
APPID
  5
1000000BA
330
123
100
AcDbSymbolTableRecord
100
AcDbRegAppTableRecord
  2
ACAD_MLEADERVER
 70
     0
  0
ENDTAB
  0
TABLE
  2
DIMSTYLE
  5
125
330
0
100
AcDbSymbolTable
 70
     1
100
AcDbDimStyleTable
 71
     0
  0
DIMSTYLE
105
126
330
125
100
AcDbSymbolTableRecord
100
AcDbDimStyleTableRecord
  2
M7DIMSTL
 70
     0
 40
3.0
 41
2.5
 42
0.625
 43
3.75
 44
1.25
 73
     0
 74
     0
 77
     1
 78
     8
140
2.5
141
2.5
143
0.03937007874016
147
0.625
171
     3
172
     1
271
     2
272
     2
274
     3
283
     0
284
     8
340
11F
  0
ENDTAB
  0
TABLE
  2
BLOCK_RECORD
  5
127
330
0
100
AcDbSymbolTable
 70
     9
  0
BLOCK_RECORD
  5
128
330
127
100
AcDbSymbolTableRecord
100
AcDbBlockTableRecord
  2
*MODEL_SPACE
340
100000054
  0
BLOCK_RECORD
  5
129
330
127
100
AcDbSymbolTableRecord
100
AcDbBlockTableRecord
  2
*PAPER_SPACE
340
100000055
  0
BLOCK_RECORD
  5
12A
330
127
100
AcDbSymbolTableRecord
100
AcDbBlockTableRecord
  2
_DOT
340
0
  0
BLOCK_RECORD
  5
12B
330
127
100
AcDbSymbolTableRecord
100
AcDbBlockTableRecord
  2
_OPEN30
340
0
  0
BLOCK_RECORD
  5
12C
330
127
100
AcDbSymbolTableRecord
100
AcDbBlockTableRecord
  2
_ClosedBlank
340
0
  0
BLOCK_RECORD
  5
12D
330
127
100
AcDbSymbolTableRecord
100
AcDbBlockTableRecord
  2
_Origin
340
0
  0
BLOCK_RECORD
  5
12E
330
127
100
AcDbSymbolTableRecord
100
AcDbBlockTableRecord
  2
_Oblique
340
0
  0
BLOCK_RECORD
  5
12F
330
127
100
AcDbSymbolTableRecord
100
AcDbBlockTableRecord
  2
_Origin2
340
0
  0
BLOCK_RECORD
  5
130
330
127
100
AcDbSymbolTableRecord
100
AcDbBlockTableRecord
  2
_BoxBlank
340
0
  0
BLOCK_RECORD
  5
131
330
127
100
AcDbSymbolTableRecord
100
AcDbBlockTableRecord
  2
_BoxFilled
340
0
  0
BLOCK_RECORD
  5
132
330
127
100
AcDbSymbolTableRecord
100
AcDbBlockTableRecord
  2
_Integral
340
0
  0
ENDTAB
  0
ENDSEC
  0
SECTION
  2
BLOCKS
  0
BLOCK
  5
133
330
128
100
AcDbEntity
  8
0
100
AcDbBlockBegin
  2
*MODEL_SPACE
 70
     0
 10
0.0
 20
0.0
 30
0.0
  3
*MODEL_SPACE
  1

  0
ENDBLK
  5
134
330
128
100
AcDbEntity
  8
0
100
AcDbBlockEnd
  0
BLOCK
  5
135
330
129
100
AcDbEntity
 67
     1
  8
0
100
AcDbBlockBegin
  2
*PAPER_SPACE
 70
     0
 10
0.0
 20
0.0
 30
0.0
  3
*PAPER_SPACE
  1

  0
ENDBLK
  5
136
330
129
100
AcDbEntity
 67
     1
  8
0
100
AcDbBlockEnd
  0
BLOCK
  5
137
330
12A
100
AcDbEntity
  8
0
100
AcDbBlockBegin
  2
_DOT
 70
     0
 10
0.0
 20
0.0
 30
0.0
  3
_DOT
  1

  0
LWPOLYLINE
  5
138
330
12A
100
AcDbEntity
  8
0
  6
ByBlock
 62
     0
100
AcDbPolyline
 90
        2
 70
     1
 43
0.5
 10
-0.25
 20
0.0
 42
1.0
 10
0.25
 20
0.0
 42
1.0
  0
LINE
  5
139
330
12A
100
AcDbEntity
  8
0
  6
ByBlock
 62
     0
100
AcDbLine
 10
-0.5
 20
0.0
 30
0.0
 11
-1.0
 21
0.0
 31
0.0
  0
ENDBLK
  5
13A
330
12A
100
AcDbEntity
  8
0
100
AcDbBlockEnd
  0
BLOCK
  5
13B
330
12B
100
AcDbEntity
  8
0
100
AcDbBlockBegin
  2
_OPEN30
 70
     0
 10
0.0
 20
0.0
 30
0.0
  3
_OPEN30
  1

  0
LINE
  5
13C
330
12B
100
AcDbEntity
  8
0
  6
ByBlock
 62
     0
100
AcDbLine
 10
-1.0
 20
0.26794919
 30
0.0
 11
0.0
 21
0.0
 31
0.0
  0
LINE
  5
13D
330
12B
100
AcDbEntity
  8
0
  6
ByBlock
 62
     0
100
AcDbLine
 10
-1.0
 20
-0.26794919
 30
0.0
 11
0.0
 21
0.0
 31
0.0
  0
LINE
  5
13E
330
12B
100
AcDbEntity
  8
0
  6
ByBlock
 62
     0
100
AcDbLine
 10
0.0
 20
0.0
 30
0.0
 11
-1.0
 21
0.0
 31
0.0
  0
ENDBLK
  5
13F
330
12B
100
AcDbEntity
  8
0
100
AcDbBlockEnd
  0
BLOCK
  5
140
330
12C
100
AcDbEntity
  8
0
100
AcDbBlockBegin
  2
_ClosedBlank
 70
     0
 10
0.0
 20
0.0
 30
0.0
  3
_ClosedBlank
  1

  0
LINE
  5
141
330
12C
100
AcDbEntity
  8
0
  6
ByBlock
 62
     0
100
AcDbLine
 10
-1.0
 20
0.1666666666667
 30
0.0
 11
0.0
 21
0.0
 31
0.0
  0
LINE
  5
142
330
12C
100
AcDbEntity
  8
0
  6
ByBlock
 62
     0
100
AcDbLine
 10
0.0
 20
0.0
 30
0.0
 11
-1.0
 21
-0.1666666666667
 31
0.0
  0
LINE
  5
143
330
12C
100
AcDbEntity
  8
0
  6
ByBlock
 62
     0
100
AcDbLine
 10
-1.0
 20
0.1666666666667
 30
0.0
 11
-1.0
 21
-0.1666666666667
 31
0.0
  0
ENDBLK
  5
144
330
12C
100
AcDbEntity
  8
0
100
AcDbBlockEnd
  0
BLOCK
  5
145
330
12D
100
AcDbEntity
  8
0
100
AcDbBlockBegin
  2
_Origin
 70
     0
 10
0.0
 20
0.0
 30
0.0
  3
_Origin
  1

  0
CIRCLE
  5
146
330
12D
100
AcDbEntity
  8
0
  6
ByBlock
 62
     0
100
AcDbCircle
 10
0.0
 20
0.0
 30
0.0
 40
0.5
  0
LINE
  5
147
330
12D
100
AcDbEntity
  8
0
  6
ByBlock
 62
     0
100
AcDbLine
 10
0.0
 20
0.0
 30
0.0
 11
-1.0
 21
0.0
 31
0.0
  0
ENDBLK
  5
148
330
12D
100
AcDbEntity
  8
0
100
AcDbBlockEnd
  0
BLOCK
  5
149
330
12E
100
AcDbEntity
  8
0
100
AcDbBlockBegin
  2
_Oblique
 70
     0
 10
0.0
 20
0.0
 30
0.0
  3
_Oblique
  1

  0
LINE
  5
14A
330
12E
100
AcDbEntity
  8
0
  6
ByBlock
 62
     0
100
AcDbLine
 10
-0.5
 20
-0.5
 30
0.0
 11
0.5
 21
0.5
 31
0.0
  0
ENDBLK
  5
14B
330
12E
100
AcDbEntity
  8
0
100
AcDbBlockEnd
  0
BLOCK
  5
14C
330
12F
100
AcDbEntity
  8
0
100
AcDbBlockBegin
  2
_Origin2
 70
     0
 10
0.0
 20
0.0
 30
0.0
  3
_Origin2
  1

  0
CIRCLE
  5
14D
330
12F
100
AcDbEntity
  8
0
  6
ByBlock
 62
     0
100
AcDbCircle
 10
0.0
 20
0.0
 30
0.0
 40
0.5
  0
CIRCLE
  5
14E
330
12F
100
AcDbEntity
  8
0
  6
ByBlock
 62
     0
100
AcDbCircle
 10
0.0
 20
0.0
 30
0.0
 40
0.25
  0
LINE
  5
14F
330
12F
100
AcDbEntity
  8
0
  6
ByBlock
 62
     0
100
AcDbLine
 10
-0.5
 20
0.0
 30
0.0
 11
-1.0
 21
0.0
 31
0.0
  0
ENDBLK
  5
150
330
12F
100
AcDbEntity
  8
0
100
AcDbBlockEnd
  0
BLOCK
  5
151
330
130
100
AcDbEntity
  8
0
100
AcDbBlockBegin
  2
_BoxBlank
 70
     0
 10
0.0
 20
0.0
 30
0.0
  3
_BoxBlank
  1

  0
LINE
  5
152
330
130
100
AcDbEntity
  8
0
  6
ByBlock
 62
     0
100
AcDbLine
 10
-0.5
 20
-0.5
 30
0.0
 11
0.5
 21
-0.5
 31
0.0
  0
LINE
  5
153
330
130
100
AcDbEntity
  8
0
  6
ByBlock
 62
     0
100
AcDbLine
 10
0.5
 20
-0.5
 30
0.0
 11
0.5
 21
0.5
 31
0.0
  0
LINE
  5
154
330
130
100
AcDbEntity
  8
0
  6
ByBlock
 62
     0
100
AcDbLine
 10
0.5
 20
0.5
 30
0.0
 11
-0.5
 21
0.5
 31
0.0
  0
LINE
  5
155
330
130
100
AcDbEntity
  8
0
  6
ByBlock
 62
     0
100
AcDbLine
 10
-0.5
 20
0.5
 30
0.0
 11
-0.5
 21
-0.5
 31
0.0
  0
LINE
  5
156
330
130
100
AcDbEntity
  8
0
  6
ByBlock
 62
     0
100
AcDbLine
 10
-0.5
 20
0.0
 30
0.0
 11
-1.0
 21
0.0
 31
0.0
  0
ENDBLK
  5
157
330
130
100
AcDbEntity
  8
0
100
AcDbBlockEnd
  0
BLOCK
  5
158
330
131
100
AcDbEntity
  8
0
100
AcDbBlockBegin
  2
_BoxFilled
 70
     0
 10
0.0
 20
0.0
 30
0.0
  3
_BoxFilled
  1

  0
SOLID
  5
159
330
131
100
AcDbEntity
  8
0
  6
ByBlock
 62
     0
100
AcDbTrace
 10
-0.5
 20
0.5
 30
0.0
 11
0.5
 21
0.5
 31
0.0
 12
-0.5
 22
-0.5
 32
0.0
 13
0.5
 23
-0.5
 33
0.0
  0
LINE
  5
15A
330
131
100
AcDbEntity
  8
0
  6
ByBlock
 62
     0
100
AcDbLine
 10
-0.5
 20
0.0
 30
0.0
 11
-1.0
 21
0.0
 31
0.0
  0
ENDBLK
  5
15B
330
131
100
AcDbEntity
  8
0
100
AcDbBlockEnd
  0
BLOCK
  5
15C
330
132
100
AcDbEntity
  8
0
100
AcDbBlockBegin
  2
_Integral
 70
     0
 10
0.0
 20
0.0
 30
0.0
  3
_Integral
  1

  0
ARC
  5
15D
330
132
100
AcDbEntity
  8
0
  6
ByBlock
 62
     0
100
AcDbCircle
 10
0.44488802
 20
-0.09133463
 30
0.0
 40
0.4541666700000001
100
AcDbArc
 50
101.999999998
 51
167.9999999799
  0
ARC
  5
15E
330
132
100
AcDbEntity
  8
0
  6
ByBlock
 62
     0
100
AcDbCircle
 10
-0.44488802
 20
0.09133463
 30
0.0
 40
0.4541666700000001
100
AcDbArc
 50
282.0000000215
 51
348.0000000034
  0
ENDBLK
  5
15F
330
132
100
AcDbEntity
  8
0
100
AcDbBlockEnd
  0
ENDSEC
  0
SECTION
  2
ENTITIES
  0
TEXT
  5
160
330
128
100
AcDbEntity
  8
_0-1_PRO0
  6
Continuous
 62
     0
100
AcDbText
 10
865.3985852716001
 20
592.0294083858
 30
0.0
 40
9.0
  1
12
100
AcDbText
  0
CIRCLE
  5
161
330
128
100
AcDbEntity
  8
_0-1_PRO0
  6
Continuous
 62
     0
100
AcDbCircle
 10
870.1509462636
 20
597.1799195224999
 30
0.0
 40
6.0
  0
LINE
  5
162
330
128
100
AcDbEntity
  8
_2-0_
  6
Continuous
 62
     0
100
AcDbLine
 10
1002.333965626
 20
280.1417879415
 30
0.0
 11
799.8339656255
 21
280.1417879415
 31
0.0
  0
TEXT
  5
21F
330
128
100
AcDbEntity
  8
_2-0_
  6
Continuous
 62
     0
100
AcDbText
 10
118.412991829
 20
789.9028322750999
 30
0.0
 40
12.0
  1
　　屋根－屋根
100
AcDbText
  0
TEXT
  5
220
330
128
100
AcDbEntity
  8
_2-0_
  6
Continuous
 62
     0
100
AcDbText
 10
118.412991829
 20
773.3570142421999
 30
0.0
 40
12.0
  1
　　Ｓ＝１／３
100
AcDbText
  0
TEXT
  5
221
330
128
100
AcDbEntity
  8
_2-0_
  6
Continuous
 62
     0
100
AcDbText
 10
477.7089656254999
 20
302.0167879415
 30
0.0
 40
7.5
  1
規　格
100
AcDbText
  0
TEXT
  5
222
330
128
100
AcDbEntity
  8
_2-0_
  6
Continuous
 62
     0
100
AcDbText
 10
325.5839656255
 20
302.0167879415
 30
0.0
 40
7.5
  1
部材名称
 41
0.9986666666666998
100
AcDbText
  0
TEXT
  5
223
330
128
100
AcDbEntity
  8
_2-0_
  6
Continuous
 62
     0
100
AcDbText
 10
275.8339656255
 20
68.01678794147
 30
0.0
 40
7.5
  1
ステンワッシャー
100
AcDbText
  0
TEXT
  5
224
330
128
100
AcDbEntity
  8
_2-0_
  6
Continuous
 62
     0
100
AcDbText
 10
275.2089656255
 20
86.01678794147
 30
0.0
 40
7.5
  1
アジャストアンカー
100
AcDbText
  0
TEXT
  5
225
330
128
100
AcDbEntity
  8
_2-0_
  6
Continuous
 62
     0
100
AcDbText
 10
275.8339656255
 20
104.0167879415
 30
0.0
 40
7.49
  1
ステン六角ボルト
 41
1.001335113484999
100
AcDbText
  0
TEXT
  5
226
330
128
100
AcDbEntity
  8
_2-0_
  6
Continuous
 62
     0
100
AcDbText
 10
277.7089656255
 20
140.0167879415
 30
0.0
 40
7.5
  1
止水補助板
100
AcDbText
  0
TEXT
  5
227
330
128
100
AcDbEntity
  8
_2-0_
  6
Continuous
 62
     0
100
AcDbText
 10
274.5839656255
 20
176.0167879415
 30
0.0
 40
7.5
  1
ＦＹＹ水切ジョイント
 41
0.9986666666666998
100
AcDbText
  0
TEXT
  5
228
330
128
100
AcDbEntity
  8
_2-0_
  6
Continuous
 62
     0
100
AcDbText
 10
274.5839656255
 20
194.0167879415
 30
0.0
 40
7.5
  1
ＦＹＹフレームナット
 41
0.9986666666666998
100
AcDbText
  0
TEXT
  5
229
330
128
100
AcDbEntity
  8
_2-0_
  6
Continuous
 62
     0
100
AcDbText
 10
276.4589656255
 20
230.0167879415
 30
0.0
 40
7.5
  1
ＦＹＹホルダー
 41
0.9986666666666998
100
AcDbText
  0
TEXT
  5
22A
330
128
100
AcDbEntity
  8
_2-0_
  6
Continuous
 62
     0
100
AcDbText
 10
276.4589656255
 20
266.0167879415
 30
0.0
 40
7.49
  1
ＦＹＹフレーム
100
AcDbText
  0
TEXT
  5
22B
330
128
100
AcDbEntity
  8
_2-0_
  6
Continuous
 62
     0
100
AcDbText
 10
275.8339656255
 20
284.0167879415
 30
0.0
 40
7.5
  1
ＦＹＹキヤップＡ
100
AcDbText
  0
TEXT
  5
22C
330
128
100
AcDbEntity
  8
_2-0_
  6
Continuous
 62
     0
100
AcDbText
 10
273.3339656255
 20
212.0167879415
 30
0.0
 40
7.5
  1
ＦＹＹホルダースプリング
100
AcDbText
  0
LINE
  5
22D
330
128
100
AcDbEntity
  8
_2-0_
  6
Continuous
 62
     0
100
AcDbLine
 10
667.8339656254999
 20
244.1417879415
 30
0.0
 11
567.3339656255
 21
244.1417879415
 31
0.0
  0
LINE
  5
22E
330
128
100
AcDbEntity
  8
_2-0_
  6
Continuous
 62
     0
100
AcDbLine
 10
667.8339656254999
 20
262.1417879415
 30
0.0
 11
567.3339656255
 21
262.1417879415
 31
0.0
  0
LINE
  5
22F
330
128
100
AcDbEntity
  8
_2-0_
  6
Continuous
 62
     0
100
AcDbLine
 10
667.8339656254999
 20
280.1417879415
 30
0.0
 11
567.3339656255
 21
280.1417879415
 31
0.0
  0
LINE
  5
230
330
128
100
AcDbEntity
  8
_2-0_
  6
Continuous
 62
     0
100
AcDbLine
 10
667.8339656254999
 20
298.1417879415
 30
0.0
 11
567.3339656255
 21
298.1417879415
 31
0.0
  0
LINE
  5
231
330
128
100
AcDbEntity
  8
_2-0_
  6
Continuous
 62
     0
100
AcDbLine
 10
667.8339656254999
 20
118.1417879415
 30
0.0
 11
567.3339656255
 21
118.1417879415
 31
0.0
  0
LINE
  5
232
330
128
100
AcDbEntity
  8
_2-0_
  6
Continuous
 62
     0
100
AcDbLine
 10
667.8339656254999
 20
136.1417879415
 30
0.0
 11
567.3339656255
 21
136.1417879415
 31
0.0
  0
LINE
  5
233
330
128
100
AcDbEntity
  8
_2-0_
  6
Continuous
 62
     0
100
AcDbLine
 10
667.8339656254999
 20
172.1417879415
 30
0.0
 11
567.3339656255
 21
172.1417879415
 31
0.0
  0
LINE
  5
234
330
128
100
AcDbEntity
  8
_2-0_
  6
Continuous
 62
     0
100
AcDbLine
 10
667.8339656254999
 20
190.1417879415
 30
0.0
 11
567.3339656255
 21
190.1417879415
 31
0.0
  0
LINE
  5
235
330
128
100
AcDbEntity
  8
_2-0_
  6
Continuous
 62
     0
100
AcDbLine
 10
667.8339656254999
 20
208.1417879415
 30
0.0
 11
567.3339656255
 21
208.1417879415
 31
0.0
  0
LINE
  5
236
330
128
100
AcDbEntity
  8
_2-0_
  6
Continuous
 62
     0
100
AcDbLine
 10
667.8339656254999
 20
226.1417879415
 30
0.0
 11
567.3339656255
 21
226.1417879415
 31
0.0
  0
LINE
  5
237
330
128
100
AcDbEntity
  8
_2-0_
  6
Continuous
 62
     0
100
AcDbLine
 10
667.8339656254999
 20
154.1417879415
 30
0.0
 11
567.3339656255
 21
154.1417879415
 31
0.0
  0
LINE
  5
238
330
128
100
AcDbEntity
  8
_2-0_
  6
Continuous
 62
     0
100
AcDbLine
 10
667.8339656254999
 20
64.14178794147
 30
0.0
 11
567.3339656255
 21
64.14178794147
 31
0.0
  0
LINE
  5
239
330
128
100
AcDbEntity
  8
_2-0_
  6
Continuous
 62
     0
100
AcDbLine
 10
667.8339656254999
 20
82.14178794147001
 30
0.0
 11
567.3339656255
 21
82.14178794147001
 31
0.0
  0
LINE
  5
23A
330
128
100
AcDbEntity
  8
_2-0_
  6
Continuous
 62
     0
100
AcDbLine
 10
667.8339656254999
 20
100.1417879415
 30
0.0
 11
567.3339656255
 21
100.1417879415
 31
0.0
  0
LINE
  5
23B
330
128
100
AcDbEntity
  8
_2-0_
  6
Continuous
 62
     0
100
AcDbLine
 10
667.8339656254999
 20
316.1417879415
 30
0.0
 11
567.3339656255
 21
316.1417879415
 31
0.0
  0
LINE
  5
23C
330
128
100
AcDbEntity
  8
_2-0_
  6
Continuous
 62
     0
100
AcDbLine
 10
669.3339656255
 20
64.14178794147
 30
0.0
 11
769.8339656255
 21
64.14178794147
 31
0.0
  0
LINE
  5
23D
330
128
100
AcDbEntity
  8
_2-0_
  6
Continuous
 62
     0
100
AcDbLine
 10
669.3339656255
 20
82.14178794147001
 30
0.0
 11
769.8339656255
 21
82.14178794147001
 31
0.0
  0
LINE
  5
23E
330
128
100
AcDbEntity
  8
_2-0_
  6
Continuous
 62
     0
100
AcDbLine
 10
669.3339656255
 20
118.1417879415
 30
0.0
 11
769.8339656255
 21
118.1417879415
 31
0.0
  0
LINE
  5
23F
330
128
100
AcDbEntity
  8
_2-0_
  6
Continuous
 62
     0
100
AcDbLine
 10
669.3339656255
 20
136.1417879415
 30
0.0
 11
769.8339656255
 21
136.1417879415
 31
0.0
  0
LINE
  5
240
330
128
100
AcDbEntity
  8
_2-0_
  6
Continuous
 62
     0
100
AcDbLine
 10
669.3339656255
 20
190.1417879415
 30
0.0
 11
769.8339656255
 21
190.1417879415
 31
0.0
  0
LINE
  5
241
330
128
100
AcDbEntity
  8
_2-0_
  6
Continuous
 62
     0
100
AcDbLine
 10
669.3339656255
 20
208.1417879415
 30
0.0
 11
769.8339656255
 21
208.1417879415
 31
0.0
  0
LINE
  5
242
330
128
100
AcDbEntity
  8
_2-0_
  6
Continuous
 62
     0
100
AcDbLine
 10
669.3339656255
 20
154.1417879415
 30
0.0
 11
769.8339656255
 21
154.1417879415
 31
0.0
  0
LINE
  5
243
330
128
100
AcDbEntity
  8
_2-0_
  6
Continuous
 62
     0
100
AcDbLine
 10
669.3339656255
 20
100.1417879415
 30
0.0
 11
769.8339656255
 21
100.1417879415
 31
0.0
  0
LINE
  5
244
330
128
100
AcDbEntity
  8
_2-0_
  6
Continuous
 62
     0
100
AcDbLine
 10
669.3339656255
 20
226.1417879415
 30
0.0
 11
769.8339656255
 21
226.1417879415
 31
0.0
  0
LINE
  5
245
330
128
100
AcDbEntity
  8
_2-0_
  6
Continuous
 62
     0
100
AcDbLine
 10
669.3339656255
 20
244.1417879415
 30
0.0
 11
769.8339656255
 21
244.1417879415
 31
0.0
  0
LINE
  5
246
330
128
100
AcDbEntity
  8
_2-0_
  6
Continuous
 62
     0
100
AcDbLine
 10
669.3339656255
 20
262.1417879415
 30
0.0
 11
769.8339656255
 21
262.1417879415
 31
0.0
  0
LINE
  5
247
330
128
100
AcDbEntity
  8
_2-0_
  6
Continuous
 62
     0
100
AcDbLine
 10
669.3339656255
 20
280.1417879415
 30
0.0
 11
769.8339656255
 21
280.1417879415
 31
0.0
  0
LINE
  5
248
330
128
100
AcDbEntity
  8
_2-0_
  6
Continuous
 62
     0
100
AcDbLine
 10
669.3339656255
 20
298.1417879415
 30
0.0
 11
769.8339656255
 21
298.1417879415
 31
0.0
  0
LINE
  5
249
330
128
100
AcDbEntity
  8
_2-0_
  6
Continuous
 62
     0
100
AcDbLine
 10
669.3339656255
 20
172.1417879415
 30
0.0
 11
769.8339656255
 21
172.1417879415
 31
0.0
  0
LINE
  5
24A
330
128
100
AcDbEntity
  8
_2-0_
  6
Continuous
 62
     0
100
AcDbLine
 10
669.3339656255
 20
316.1417879415
 30
0.0
 11
769.8339656255
 21
316.1417879415
 31
0.0
  0
TEXT
  5
24B
330
128
100
AcDbEntity
  8
_2-0_
  6
Continuous
 62
     0
100
AcDbText
 10
652.2089656254999
 20
68.01678794147
 30
0.0
 40
7.5
  1
枚
 41
0.9986666666666998
100
AcDbText
  0
TEXT
  5
24C
330
128
100
AcDbEntity
  8
_2-0_
  6
Continuous
 62
     0
100
AcDbText
 10
652.2089656254999
 20
86.01678794147
 30
0.0
 40
7.5
  1
〃
 41
0.9986666666666998
100
AcDbText
  0
TEXT
  5
24D
330
128
100
AcDbEntity
  8
_2-0_
  6
Continuous
 62
     0
100
AcDbText
 10
652.2089656254999
 20
104.0167879415
 30
0.0
 40
7.49
  1
〃
100
AcDbText
  0
TEXT
  5
24E
330
128
100
AcDbEntity
  8
_2-0_
  6
Continuous
 62
     0
100
AcDbText
 10
652.2089656254999
 20
122.0167879415
 30
0.0
 40
7.49
  1
本
100
AcDbText
  0
TEXT
  5
24F
330
128
100
AcDbEntity
  8
_2-0_
  6
Continuous
 62
     0
100
AcDbText
 10
652.2089656254999
 20
140.0167879415
 30
0.0
 40
7.5
  1
〃
 41
0.9986666666666998
100
AcDbText
  0
TEXT
  5
250
330
128
100
AcDbEntity
  8
_2-0_
  6
Continuous
 62
     0
100
AcDbText
 10
652.2089656254999
 20
158.0167879414999
 30
0.0
 40
7.5
  1
枚
 41
0.9986666666666998
100
AcDbText
  0
TEXT
  5
251
330
128
100
AcDbEntity
  8
_2-0_
  6
Continuous
 62
     0
100
AcDbText
 10
652.2089656254999
 20
176.0167879415
 30
0.0
 40
7.5
  1
〃
 41
0.9986666666666998
100
AcDbText
  0
TEXT
  5
252
330
128
100
AcDbEntity
  8
_2-0_
  6
Continuous
 62
     0
100
AcDbText
 10
652.2089656254999
 20
194.0167879415
 30
0.0
 40
7.5
  1
〃
 41
0.9986666666666998
100
AcDbText
  0
TEXT
  5
253
330
128
100
AcDbEntity
  8
_2-0_
  6
Continuous
 62
     0
100
AcDbText
 10
652.2089656254999
 20
212.0167879415
 30
0.0
 40
7.5
  1
〃
 41
0.9986666666666998
100
AcDbText
  0
TEXT
  5
254
330
128
100
AcDbEntity
  8
_2-0_
  6
Continuous
 62
     0
100
AcDbText
 10
652.2089656254999
 20
230.0167879415
 30
0.0
 40
7.5
  1
個
 41
0.9986666666666998
100
AcDbText
  0
TEXT
  5
255
330
128
100
AcDbEntity
  8
_2-0_
  6
Continuous
 62
     0
100
AcDbText
 10
652.2089656254999
 20
266.0167879415
 30
0.0
 40
7.49
  1
〃
100
AcDbText
  0
TEXT
  5
256
330
128
100
AcDbEntity
  8
_2-0_
  6
Continuous
 62
     0
100
AcDbText
 10
652.2089656254999
 20
284.0167879415
 30
0.0
 40
7.5
  1
本
 41
0.9986666666666998
100
AcDbText
  0
TEXT
  5
257
330
128
100
AcDbEntity
  8
_2-0_
  6
Continuous
 62
     0
100
AcDbText
 10
754.2089656255
 20
68.01678794147
 30
0.0
 40
7.5
  1
枚
100
AcDbText
  0
TEXT
  5
258
330
128
100
AcDbEntity
  8
_2-0_
  6
Continuous
 62
     0
100
AcDbText
 10
754.2089656255
 20
86.01678794147
 30
0.0
 40
7.5
  1
〃
100
AcDbText
  0
TEXT
  5
259
330
128
100
AcDbEntity
  8
_2-0_
  6
Continuous
 62
     0
100
AcDbText
 10
754.2089656255
 20
104.0167879415
 30
0.0
 40
7.49
  1
〃
 41
1.001335113484999
100
AcDbText
  0
TEXT
  5
25A
330
128
100
AcDbEntity
  8
_2-0_
  6
Continuous
 62
     0
100
AcDbText
 10
754.2089656255
 20
122.0167879415
 30
0.0
 40
7.49
  1
本
 41
1.001335113484999
100
AcDbText
  0
TEXT
  5
25B
330
128
100
AcDbEntity
  8
_2-0_
  6
Continuous
 62
     0
100
AcDbText
 10
754.2089656255
 20
140.0167879415
 30
0.0
 40
7.5
  1
〃
100
AcDbText
  0
TEXT
  5
25C
330
128
100
AcDbEntity
  8
_2-0_
  6
Continuous
 62
     0
100
AcDbText
 10
754.2089656255
 20
158.0167879414999
 30
0.0
 40
7.5
  1
枚
100
AcDbText
  0
TEXT
  5
25D
330
128
100
AcDbEntity
  8
_2-0_
  6
Continuous
 62
     0
100
AcDbText
 10
754.2089656255
 20
176.0167879415
 30
0.0
 40
7.5
  1
〃
100
AcDbText
  0
TEXT
  5
25E
330
128
100
AcDbEntity
  8
_2-0_
  6
Continuous
 62
     0
100
AcDbText
 10
754.2089656255
 20
194.0167879415
 30
0.0
 40
7.5
  1
〃
100
AcDbText
  0
TEXT
  5
25F
330
128
100
AcDbEntity
  8
_2-0_
  6
Continuous
 62
     0
100
AcDbText
 10
754.2089656255
 20
212.0167879415
 30
0.0
 40
7.5
  1
〃
100
AcDbText
  0
TEXT
  5
260
330
128
100
AcDbEntity
  8
_2-0_
  6
Continuous
 62
     0
100
AcDbText
 10
754.2089656255
 20
230.0167879415
 30
0.0
 40
7.5
  1
個
100
AcDbText
  0
TEXT
  5
261
330
128
100
AcDbEntity
  8
_2-0_
  6
Continuous
 62
     0
100
AcDbText
 10
754.2089656255
 20
266.0167879415
 30
0.0
 40
7.49
  1
〃
 41
1.001335113484999
100
AcDbText
  0
TEXT
  5
262
330
128
100
AcDbEntity
  8
_2-0_
  6
Continuous
 62
     0
100
AcDbText
 10
754.2089656255
 20
284.0167879415
 30
0.0
 40
7.5
  1
本
100
AcDbText
  0
LINE
  5
263
330
128
100
AcDbEntity
  8
_2-0_
  6
Continuous
 62
     0
100
AcDbLine
 10
565.8339656255
 20
244.1417879415
 30
0.0
 11
252.3339656255
 21
244.1417879415
 31
0.0
  0
LINE
  5
264
330
128
100
AcDbEntity
  8
_2-0_
  6
Continuous
 62
     0
100
AcDbLine
 10
565.8339656255
 20
262.1417879415
 30
0.0
 11
252.3339656255
 21
262.1417879415
 31
0.0
  0
LINE
  5
265
330
128
100
AcDbEntity
  8
_2-0_
  6
Continuous
 62
     0
100
AcDbLine
 10
565.8339656255
 20
280.1417879415
 30
0.0
 11
252.3339656255
 21
280.1417879415
 31
0.0
  0
LINE
  5
266
330
128
100
AcDbEntity
  8
_2-0_
  6
Continuous
 62
     0
100
AcDbLine
 10
565.8339656255
 20
298.1417879415
 30
0.0
 11
252.3339656255
 21
298.1417879415
 31
0.0
  0
LINE
  5
267
330
128
100
AcDbEntity
  8
_2-0_
  6
Continuous
 62
     0
100
AcDbLine
 10
565.8339656255
 20
118.1417879415
 30
0.0
 11
252.3339656255
 21
118.1417879415
 31
0.0
  0
LINE
  5
268
330
128
100
AcDbEntity
  8
_2-0_
  6
Continuous
 62
     0
100
AcDbLine
 10
565.8339656255
 20
136.1417879415
 30
0.0
 11
252.3339656255
 21
136.1417879415
 31
0.0
  0
LINE
  5
269
330
128
100
AcDbEntity
  8
_2-0_
  6
Continuous
 62
     0
100
AcDbLine
 10
565.8339656255
 20
172.1417879415
 30
0.0
 11
252.3339656255
 21
172.1417879415
 31
0.0
  0
LINE
  5
26A
330
128
100
AcDbEntity
  8
_2-0_
  6
Continuous
 62
     0
100
AcDbLine
 10
565.8339656255
 20
190.1417879415
 30
0.0
 11
252.3339656255
 21
190.1417879415
 31
0.0
  0
LINE
  5
26B
330
128
100
AcDbEntity
  8
_2-0_
  6
Continuous
 62
     0
100
AcDbLine
 10
565.8339656255
 20
208.1417879415
 30
0.0
 11
252.3339656255
 21
208.1417879415
 31
0.0
  0
LINE
  5
26C
330
128
100
AcDbEntity
  8
_2-0_
  6
Continuous
 62
     0
100
AcDbLine
 10
565.8339656255
 20
226.1417879415
 30
0.0
 11
252.3339656255
 21
226.1417879415
 31
0.0
  0
LINE
  5
26D
330
128
100
AcDbEntity
  8
_2-0_
  6
Continuous
 62
     0
100
AcDbLine
 10
565.8339656255
 20
154.1417879415
 30
0.0
 11
252.3339656255
 21
154.1417879415
 31
0.0
  0
LINE
  5
26E
330
128
100
AcDbEntity
  8
_2-0_
  6
Continuous
 62
     0
100
AcDbLine
 10
565.8339656255
 20
64.14178794147
 30
0.0
 11
252.3339656255
 21
64.14178794147
 31
0.0
  0
LINE
  5
26F
330
128
100
AcDbEntity
  8
_2-0_
  6
Continuous
 62
     0
100
AcDbLine
 10
565.8339656255
 20
82.14178794147001
 30
0.0
 11
252.3339656255
 21
82.14178794147001
 31
0.0
  0
LINE
  5
270
330
128
100
AcDbEntity
  8
_2-0_
  6
Continuous
 62
     0
100
AcDbLine
 10
565.8339656255
 20
100.1417879415
 30
0.0
 11
252.3339656255
 21
100.1417879415
 31
0.0
  0
LINE
  5
271
330
128
100
AcDbEntity
  8
_2-0_
  6
Continuous
 62
     0
100
AcDbLine
 10
565.8339656255
 20
316.1417879415
 30
0.0
 11
252.3339656255
 21
316.1417879415
 31
0.0
  0
TEXT
  5
272
330
128
100
AcDbEntity
  8
_2-0_
  6
Continuous
 62
     0
100
AcDbText
 10
257.3339656255
 20
68.01678794147
 30
0.0
 40
7.5
  1
13
 41
0.9986666666666998
100
AcDbText
  0
TEXT
  5
273
330
128
100
AcDbEntity
  8
_2-0_
  6
Continuous
 62
     0
100
AcDbText
 10
257.3339656255
 20
86.01678794147
 30
0.0
 40
7.5
  1
12
 41
0.9986666666666998
100
AcDbText
  0
TEXT
  5
274
330
128
100
AcDbEntity
  8
_2-0_
  6
Continuous
 62
     0
100
AcDbText
 10
257.3339656255
 20
104.0167879415
 30
0.0
 40
7.49
  1
11
100
AcDbText
  0
TEXT
  5
275
330
128
100
AcDbEntity
  8
_2-0_
  6
Continuous
 62
     0
100
AcDbText
 10
257.3339656255
 20
122.0167879415
 30
0.0
 40
7.49
  1
10
100
AcDbText
  0
TEXT
  5
276
330
128
100
AcDbEntity
  8
_2-0_
  6
Continuous
 62
     0
100
AcDbText
 10
257.3339656255
 20
140.0167879415
 30
0.0
 40
7.5
  1
 9
 41
0.9986666666666998
100
AcDbText
  0
TEXT
  5
277
330
128
100
AcDbEntity
  8
_2-0_
  6
Continuous
 62
     0
100
AcDbText
 10
257.3339656255
 20
158.0167879414999
 30
0.0
 40
7.5
  1
 8
 41
0.9986666666666998
100
AcDbText
  0
TEXT
  5
278
330
128
100
AcDbEntity
  8
_2-0_
  6
Continuous
 62
     0
100
AcDbText
 10
257.3339656255
 20
176.0167879415
 30
0.0
 40
7.5
  1
 7
 41
0.9986666666666998
100
AcDbText
  0
TEXT
  5
279
330
128
100
AcDbEntity
  8
_2-0_
  6
Continuous
 62
     0
100
AcDbText
 10
257.3339656255
 20
194.0167879415
 30
0.0
 40
7.5
  1
 6
 41
0.9986666666666998
100
AcDbText
  0
TEXT
  5
27A
330
128
100
AcDbEntity
  8
_2-0_
  6
Continuous
 62
     0
100
AcDbText
 10
257.3339656255
 20
212.0167879415
 30
0.0
 40
7.5
  1
 5
 41
0.9986666666666998
100
AcDbText
  0
TEXT
  5
27B
330
128
100
AcDbEntity
  8
_2-0_
  6
Continuous
 62
     0
100
AcDbText
 10
257.3339656255
 20
230.0167879415
 30
0.0
 40
7.5
  1
 4
 41
0.9986666666666998
100
AcDbText
  0
TEXT
  5
27C
330
128
100
AcDbEntity
  8
_2-0_
  6
Continuous
 62
     0
100
AcDbText
 10
257.3339656255
 20
248.0167879415
 30
0.0
 40
7.49
  1
 3
100
AcDbText
  0
TEXT
  5
27D
330
128
100
AcDbEntity
  8
_2-0_
  6
Continuous
 62
     0
100
AcDbText
 10
257.3339656255
 20
266.0167879415
 30
0.0
 40
7.49
  1
 2
100
AcDbText
  0
TEXT
  5
27E
330
128
100
AcDbEntity
  8
_2-0_
  6
Continuous
 62
     0
100
AcDbText
 10
254.3964656255
 20
302.0167879415
 30
0.0
 40
7.5
  1
No.
100
AcDbText
  0
TEXT
  5
27F
330
128
100
AcDbEntity
  8
_2-0_
  6
Continuous
 62
     0
100
AcDbText
 10
257.3339656255
 20
284.0167879415
 30
0.0
 40
7.5
  1
 1
 41
0.9986666666666998
100
AcDbText
  0
LINE
  5
280
330
128
100
AcDbEntity
  8
_0-1_PRO0
  6
Continuous
 62
     0
100
AcDbLine
 10
606.8142582635999
 20
715.5061438369
 30
0.0
 11
618.0562962635999
 21
734.9779228368999
 31
0.0
  0
CIRCLE
  5
281
330
128
100
AcDbEntity
  8
_0-1_PRO0
  6
Continuous
 62
     0
100
AcDbCircle
 10
621.0562962635999
 20
740.1740758368999
 30
0.0
 40
6.0
  0
CIRCLE
  5
282
330
128
100
AcDbEntity
  8
_0-1_PRO0
  6
Continuous
 62
     0
100
AcDbCircle
 10
606.8142582635999
 20
715.5061438369
 30
0.0
 40
0.9
  0
LINE
  5
283
330
128
100
AcDbEntity
  8
_0-1_PRO0
  6
Continuous
 62
     0
100
AcDbLine
 10
600.1142052635999
 20
713.7950878369
 30
0.0
 11
600.2290122636
 21
712.0782448368999
 31
0.0
  0
LINE
  5
284
330
128
100
AcDbEntity
  8
_0-1_PRO0
  6
Continuous
 62
     0
100
AcDbLine
 10
590.1279102636
 20
713.2717288369
 30
0.0
 11
590.2427172636
 21
711.5548858369
 31
0.0
  0
LINE
  5
285
330
128
100
AcDbEntity
  8
_0-1_PRO0
  6
Continuous
 62
     0
100
AcDbLine
 10
593.5567092636
 20
713.4514258369001
 30
0.0
 11
591.7385622635999
 21
711.6332788369
 31
0.0
  0
LINE
  5
286
330
128
100
AcDbEntity
  8
_0-1_PRO0
  6
Continuous
 62
     0
100
AcDbLine
 10
595.0491372635999
 20
713.5296388369
 30
0.0
 11
593.2309902635999
 21
711.7114948369
 31
0.0
  0
LINE
  5
287
330
128
100
AcDbEntity
  8
_0-1_PRO0
  6
Continuous
 62
     0
100
AcDbLine
 10
596.5415652635999
 20
713.6078548369
 30
0.0
 11
594.7234182636
 21
711.7897078369
 31
0.0
  0
LINE
  5
288
330
128
100
AcDbEntity
  8
_0-1_PRO0
  6
Continuous
 62
     0
100
AcDbLine
 10
598.0339932636
 20
713.6860708369
 30
0.0
 11
596.2158462636
 21
711.8679238369
 31
0.0
  0
LINE
  5
289
330
128
100
AcDbEntity
  8
_0-1_PRO0
  6
Continuous
 62
     0
100
AcDbLine
 10
599.5264212636
 20
713.7642838369
 30
0.0
 11
597.7082772636
 21
711.9461398369
 31
0.0
  0
LINE
  5
28A
330
128
100
AcDbEntity
  8
_0-1_PRO0
  6
Continuous
 62
     0
100
AcDbLine
 10
599.2007052635999
 20
712.0243528369
 30
0.0
 11
600.1679352636
 21
712.9915858369001
 31
0.0
  0
LINE
  5
28B
330
128
100
AcDbEntity
  8
_0-1_PRO0
  6
Continuous
 62
     0
100
AcDbLine
 10
592.0642782636
 20
713.3732098369001
 30
0.0
 11
590.2461342636
 21
711.5550658369
 31
0.0
  0
LINE
  5
28C
330
128
100
AcDbEntity
  8
_0-1_PRO0
  6
Continuous
 62
     0
100
AcDbLine
 10
590.5718502636
 20
713.2949968369
 30
0.0
 11
590.1542772635999
 21
712.8774208369
 31
0.0
  0
LINE
  5
28D
330
128
100
AcDbEntity
  8
_0-1_PRO0
  6
Continuous
 62
     0
100
AcDbLine
 10
613.5984252635999
 20
713.7950878369
 30
0.0
 11
613.4836182635999
 21
712.0782448368999
 31
0.0
  0
LINE
  5
28E
330
128
100
AcDbEntity
  8
_0-1_PRO0
  6
Continuous
 62
     0
100
AcDbLine
 10
623.5847202636001
 20
713.2717288369
 30
0.0
 11
623.4699132635999
 21
711.5548858369
 31
0.0
  0
LINE
  5
28F
330
128
100
AcDbEntity
  8
_0-1_PRO0
  6
Continuous
 62
     0
100
AcDbLine
 10
620.1559212635999
 20
713.4514258369001
 30
0.0
 11
621.9740682635999
 21
711.6332788369
 31
0.0
  0
LINE
  5
290
330
128
100
AcDbEntity
  8
_0-1_PRO0
  6
Continuous
 62
     0
100
AcDbLine
 10
618.6634932636
 20
713.5296388369
 30
0.0
 11
620.4816402635999
 21
711.7114948369
 31
0.0
  0
LINE
  5
291
330
128
100
AcDbEntity
  8
_0-1_PRO0
  6
Continuous
 62
     0
100
AcDbLine
 10
617.1710652636
 20
713.6078548369
 30
0.0
 11
618.9892122636
 21
711.7897078369
 31
0.0
  0
LINE
  5
292
330
128
100
AcDbEntity
  8
_0-1_PRO0
  6
Continuous
 62
     0
100
AcDbLine
 10
615.6786372635999
 20
713.6860708369
 30
0.0
 11
617.4967812636
 21
711.8679238369
 31
0.0
  0
LINE
  5
293
330
128
100
AcDbEntity
  8
_0-1_PRO0
  6
Continuous
 62
     0
100
AcDbLine
 10
614.1862092636
 20
713.7642838369
 30
0.0
 11
616.0043532636
 21
711.9461398369
 31
0.0
  0
LINE
  5
294
330
128
100
AcDbEntity
  8
_0-1_PRO0
  6
Continuous
 62
     0
100
AcDbLine
 10
614.5119252636
 20
712.0243528369
 30
0.0
 11
613.5446952636
 21
712.9915858369001
 31
0.0
  0
LINE
  5
295
330
128
100
AcDbEntity
  8
_0-1_PRO0
  6
Continuous
 62
     0
100
AcDbLine
 10
621.6483492636
 20
713.3732098369001
 30
0.0
 11
623.4664962635999
 21
711.5550658369
 31
0.0
  0
LINE
  5
296
330
128
100
AcDbEntity
  8
_0-1_PRO0
  6
Continuous
 62
     0
100
AcDbLine
 10
623.1407802636
 20
713.2949968369
 30
0.0
 11
623.5583532636
 21
712.8774208369
 31
0.0
  0
TEXT
  5
297
330
128
100
AcDbEntity
  8
_0-1_PRO0
  6
Continuous
 62
     0
100
AcDbText
 10
604.5680569745
 20
765.2900953289998
 30
0.0
 40
9.0
  1
Ｗ
100
AcDbText
  0
TEXT
  5
298
330
128
100
AcDbEntity
  8
_0-1_PRO0
  6
Continuous
 62
     0
100
AcDbText
 10
574.8829128565001
 20
755.0706194851
 30
0.0
 40
9.0
  1
（キャップ幅）
100
AcDbText
  0
TEXT
  5
299
330
128
100
AcDbEntity
  8
_0-1_PRO0
  6
Continuous
 62
     0
100
AcDbText
 10
616.247457939
 20
736.5782346247
 30
0.0
 40
9.0
  1
１
100
AcDbText
  0
LINE
  5
29A
330
128
100
AcDbEntity
  8
_2-0_
  6
Continuous
 62
     0
100
AcDbLine
 10
1002.333965626
 20
316.1417879415
 30
0.0
 11
799.8339656255
 21
316.1417879415
 31
0.0
  0
LINE
  5
29B
330
128
100
AcDbEntity
  8
_2-0_
  6
Continuous
 62
     0
100
AcDbLine
 10
1002.333965626
 20
298.1417879415
 30
0.0
 11
799.8339656255
 21
298.1417879415
 31
0.0
  0
TEXT
  5
29C
330
128
100
AcDbEntity
  8
_2-0_
  6
Continuous
 62
     0
100
AcDbText
 10
831.2089648755
 20
302.0167879415
 30
0.0
 40
7.5
  1
タ　イ　プ
100
AcDbText
  0
TEXT
  5
29D
330
128
100
AcDbEntity
  8
_2-0_
  6
Continuous
 62
     0
100
AcDbText
 10
929.7089656255
 20
302.0167879415
 30
0.0
 40
7.5
  1
Ｗ
 41
0.9986666666666998
100
AcDbText
  0
TEXT
  5
29E
330
128
100
AcDbEntity
  8
_2-0_
  6
Continuous
 62
     0
100
AcDbText
 10
974.7089656254999
 20
302.0167879415
 30
0.0
 40
7.5
  1
Ｃ
 41
0.9986666666666998
100
AcDbText
  0
TEXT
  5
29F
330
128
100
AcDbEntity
  8
_2-0_
  6
Continuous
 62
     0
100
AcDbText
 10
937.0839656255
 20
316.5034689731001
 30
0.0
 40
7.5
  1
（単位：mm）
100
AcDbText
  0
TEXT
  5
2A0
330
128
100
AcDbEntity
  8
_2-0_
  6
Continuous
 62
     0
100
AcDbText
 10
275.605361227
 20
158.3515522565
 30
0.0
 40
7.5
  1
ウフォーターガード
 41
0.9986666666666998
100
AcDbText
  0
LINE
  5
2A1
330
128
100
AcDbEntity
  8
_2-0_
  6
Continuous
 62
     0
100
AcDbLine
 10
667.8339656254999
 20
244.1417879415
 30
0.0
 11
567.3339656255
 21
244.1417879415
 31
0.0
  0
LINE
  5
2A2
330
128
100
AcDbEntity
  8
_2-0_
  6
Continuous
 62
     0
100
AcDbLine
 10
669.3339656255
 20
244.1417879415
 30
0.0
 11
769.8339656255
 21
244.1417879415
 31
0.0
  0
TEXT
  5
2A3
330
128
100
AcDbEntity
  8
_2-0_
  6
Continuous
 62
     0
100
AcDbText
 10
277.0839656255
 20
248.0167879415
 30
0.0
 40
7.5
  1
ブチルテープ
100
AcDbText
  0
TEXT
  5
2A4
330
128
100
AcDbEntity
  8
_2-0_
  6
Continuous
 62
     0
100
AcDbText
 10
652.2089656254999
 20
248.0167879415
 30
0.0
 40
7.5
  1
巻
 41
0.9986666666666998
100
AcDbText
  0
TEXT
  5
2A5
330
128
100
AcDbEntity
  8
_2-0_
  6
Continuous
 62
     0
100
AcDbText
 10
754.2089656255
 20
248.0167879415
 30
0.0
 40
7.5
  1
巻
100
AcDbText
  0
LINE
  5
2A6
330
128
100
AcDbEntity
  8
_2-0_
  6
Continuous
 62
     0
100
AcDbLine
 10
252.3339656255
 20
64.14178794147
 30
0.0
 11
252.3339656255
 21
316.1417879415
 31
0.0
  0
LINE
  5
2A7
330
128
100
AcDbEntity
  8
_2-0_
  6
Continuous
 62
     0
100
AcDbLine
 10
273.3339656255
 20
64.14178794147
 30
0.0
 11
273.3339656255
 21
316.1417879415
 31
0.0
  0
LINE
  5
2A8
330
128
100
AcDbEntity
  8
_2-0_
  6
Continuous
 62
     0
100
AcDbLine
 10
423.3339656255
 20
64.14178794147
 30
0.0
 11
423.3339656255
 21
316.1417879415
 31
0.0
  0
LINE
  5
2A9
330
128
100
AcDbEntity
  8
_2-0_
  6
Continuous
 62
     0
100
AcDbLine
 10
567.3339656255
 20
64.14178794147
 30
0.0
 11
567.3339656255
 21
316.1417879415
 31
0.0
  0
LINE
  5
2AA
330
128
100
AcDbEntity
  8
_2-0_
  6
Continuous
 62
     0
100
AcDbLine
 10
565.8339656255
 20
64.14178794147
 30
0.0
 11
565.8339656255
 21
316.1417879415
 31
0.0
  0
LINE
  5
2AB
330
128
100
AcDbEntity
  8
_2-0_
  6
Continuous
 62
     0
100
AcDbLine
 10
619.8339656255
 20
64.14178794147
 30
0.0
 11
619.8339656255
 21
316.1417879415
 31
0.0
  0
LINE
  5
2AC
330
128
100
AcDbEntity
  8
_2-0_
  6
Continuous
 62
     0
100
AcDbLine
 10
646.8339656254999
 20
64.14178794147
 30
0.0
 11
646.8339656254999
 21
316.1417879415
 31
0.0
  0
LINE
  5
2AD
330
128
100
AcDbEntity
  8
_2-0_
  6
Continuous
 62
     0
100
AcDbLine
 10
669.3339656255
 20
64.14178794147
 30
0.0
 11
669.3339656255
 21
316.1417879415
 31
0.0
  0
LINE
  5
2AE
330
128
100
AcDbEntity
  8
_2-0_
  6
Continuous
 62
     0
100
AcDbLine
 10
667.8339656254999
 20
64.14178794147
 30
0.0
 11
667.8339656254999
 21
316.1417879415
 31
0.0
  0
LINE
  5
2AF
330
128
100
AcDbEntity
  8
_2-0_
  6
Continuous
 62
     0
100
AcDbLine
 10
721.8339656254999
 20
64.14178794147
 30
0.0
 11
721.8339656254999
 21
316.1417879415
 31
0.0
  0
LINE
  5
2B0
330
128
100
AcDbEntity
  8
_2-0_
  6
Continuous
 62
     0
100
AcDbLine
 10
748.8339656255
 20
64.14178794147
 30
0.0
 11
748.8339656255
 21
316.1417879415
 31
0.0
  0
LINE
  5
2B1
330
128
100
AcDbEntity
  8
_2-0_
  6
Continuous
 62
     0
100
AcDbLine
 10
769.8339656255
 20
64.14178794147
 30
0.0
 11
769.8339656255
 21
316.1417879415
 31
0.0
  0
LINE
  5
2B4
330
128
100
AcDbEntity
  8
_2-0_
  6
Continuous
 62
     0
100
AcDbLine
 10
799.8339656255
 20
316.1417879415
 30
0.0
 11
799.8339656255
 21
280.1417879415
 31
0.0
  0
LINE
  5
2B5
330
128
100
AcDbEntity
  8
_2-0_
  6
Continuous
 62
     0
100
AcDbLine
 10
912.3339656255
 20
316.1417879415
 30
0.0
 11
912.3339656255
 21
280.1417879415
 31
0.0
  0
LINE
  5
2B6
330
128
100
AcDbEntity
  8
_2-0_
  6
Continuous
 62
     0
100
AcDbLine
 10
957.3339656254999
 20
316.1417879415
 30
0.0
 11
957.3339656254999
 21
280.1417879415
 31
0.0
  0
LINE
  5
2B7
330
128
100
AcDbEntity
  8
_2-0_
  6
Continuous
 62
     0
100
AcDbLine
 10
1002.333965626
 20
316.1417879415
 30
0.0
 11
1002.333965626
 21
280.1417879415
 31
0.0
  0
TEXT
  5
2BA
330
128
100
AcDbEntity
  8
_0-0_
  6
Continuous
 62
     0
100
AcDbText
 10
426.6546060355
 20
158.8113112325
 30
0.0
 40
7.5
  1
ＳＰＶＣ
100
AcDbText
  0
TEXT
  5
2BB
330
128
100
AcDbEntity
  8
_2-0_
  6
Continuous
 62
     0
100
AcDbText
 10
277.0839656255
 20
122.0167879415
 30
0.0
 40
7.49
  1
ステン小ねじ
 41
1.001335113484999
100
AcDbText
  0
ARC
  5
579
330
128
100
AcDbEntity
  8
_0-1_PRO0
  6
Continuous
 62
     0
100
AcDbCircle
 10
115.8083942636
 20
662.6578980271999
 30
0.0
 40
1.5
100
AcDbArc
 50
-87.0
 51
93.0
  0
ARC
  5
57A
330
128
100
AcDbEntity
  8
_0-1_PRO0
  6
Continuous
 62
     0
100
AcDbCircle
 10
73.74670826363001
 20
658.9514790272
 30
0.0
 40
3.0
100
AcDbArc
 50
93.0
 51
168.0
  0
LINE
  5
57B
330
128
100
AcDbEntity
  8
_0-1_PRO0
  6
Continuous
 62
     0
100
AcDbLine
 10
86.09138726363001
 20
685.1334330272
 30
0.0
 11
87.55679426363
 21
657.1718070271999
 31
0.0
  0
LINE
  5
57C
330
128
100
AcDbEntity
  8
_0-1_PRO0
  6
Continuous
 62
     0
100
AcDbLine
 10
86.11331126363001
 20
665.6078220271999
 30
0.0
 11
86.61262526363001
 21
665.6339880272
 31
0.0
  0
ARC
  5
57D
330
128
100
AcDbEntity
  8
_0-1_PRO0
  6
Continuous
 62
     0
100
AcDbCircle
 10
86.13947726363001
 20
665.1085050272
 30
0.0
 40
0.5000010000000001
100
AcDbArc
 50
93.00000000000999
 51
183.0
  0
LINE
  5
57E
330
128
100
AcDbEntity
  8
_0-1_PRO0
  6
Continuous
 62
     0
100
AcDbLine
 10
85.74483626363001
 20
663.0850800272
 30
0.0
 11
85.64016326363001
 21
665.0823390271999
 31
0.0
  0
ARC
  5
57F
330
128
100
AcDbEntity
  8
_0-1_PRO0
  6
Continuous
 62
     0
100
AcDbCircle
 10
85.24551926363001
 20
663.0589110272
 30
0.0
 40
0.5000010000000001
100
AcDbArc
 50
-86.99999999999
 51
3.000000000005999
  0
LINE
  5
580
330
128
100
AcDbEntity
  8
_0-1_PRO0
  6
Continuous
 62
     0
100
AcDbLine
 10
85.27168826363
 20
662.5595970272
 30
0.0
 11
73.58970026363
 21
661.9473690272
 31
0.0
  0
ARC
  5
581
330
128
100
AcDbEntity
  8
_0-1_PRO0
  6
Continuous
 62
     0
100
AcDbCircle
 10
86.63879126363001
 20
665.1346740272
 30
0.0
 40
0.5000010000000001
100
AcDbArc
 50
3.000000000005999
 51
93.00000000000999
  0
LINE
  5
582
330
128
100
AcDbEntity
  8
_0-1_PRO0
  6
Continuous
 62
     0
100
AcDbLine
 10
95.98764026363001
 20
687.3749340272
 30
0.0
 11
96.07768226363001
 21
685.6567920272
 31
0.0
  0
LINE
  5
583
330
128
100
AcDbEntity
  8
_0-1_PRO0
  6
Continuous
 62
     0
100
AcDbLine
 10
86.00134526363001
 20
686.8515750272
 30
0.0
 11
86.09138726363001
 21
685.1334330272
 31
0.0
  0
LINE
  5
584
330
128
100
AcDbEntity
  8
_0-1_PRO0
  6
Continuous
 62
     0
100
AcDbLine
 10
63.28750826363001
 20
602.4056160272
 30
0.0
 11
58.85631626363
 21
603.1895640272
 31
0.0
  0
LINE
  5
585
330
128
100
AcDbEntity
  8
_0-1_PRO0
  6
Continuous
 62
     0
100
AcDbLine
 10
73.58717126363001
 20
658.2009210272
 30
0.0
 11
63.75216626363001
 21
611.9308500272
 31
0.0
  0
LINE
  5
586
330
128
100
AcDbEntity
  8
_0-1_PRO0
  6
Continuous
 62
     0
100
AcDbLine
 10
70.81226726363
 20
659.5752150272
 30
0.0
 11
58.85631626363
 21
603.3268920271999
 31
0.0
  0
ARC
  5
587
330
128
100
AcDbEntity
  8
_0-1_PRO0
  6
Continuous
 62
     0
100
AcDbCircle
 10
77.29117226363
 20
655.8886290272
 30
0.0
 40
0.6
100
AcDbArc
 50
-167.0
 51
13.00000000001
  0
ARC
  5
588
330
128
100
AcDbEntity
  8
_0-1_PRO0
  6
Continuous
 62
     0
100
AcDbCircle
 10
74.56532126363001
 20
657.9930090272
 30
0.0
 40
0.999999
100
AcDbArc
 50
93.0
 51
168.0
  0
LINE
  5
589
330
128
100
AcDbEntity
  8
_0-1_PRO0
  6
Continuous
 62
     0
100
AcDbLine
 10
75.99834326363001
 20
658.8212370272
 30
0.0
 11
76.70655026363
 21
655.7536590271999
 31
0.0
  0
ARC
  5
58A
330
128
100
AcDbEntity
  8
_0-1_PRO0
  6
Continuous
 62
     0
100
AcDbCircle
 10
75.70603226363001
 20
658.7537520271999
 30
0.0
 40
0.3
100
AcDbArc
 50
13.0
 51
93.00000000000999
  0
LINE
  5
58B
330
128
100
AcDbEntity
  8
_0-1_PRO0
  6
Continuous
 62
     0
100
AcDbLine
 10
75.69033026363
 20
659.0533410272
 30
0.0
 11
74.51298326363001
 21
658.9916400272
 31
0.0
  0
LINE
  5
58C
330
128
100
AcDbEntity
  8
_0-1_PRO0
  6
Continuous
 62
     0
100
AcDbLine
 10
77.29260026363
 20
658.5496830271999
 30
0.0
 11
77.87579426363001
 21
656.0235990271999
 31
0.0
  0
ARC
  5
58D
330
128
100
AcDbEntity
  8
_0-1_PRO0
  6
Continuous
 62
     0
100
AcDbCircle
 10
77.77978526363
 20
658.6621590272
 30
0.0
 40
0.5000010000000001
100
AcDbArc
 50
93.00000000000999
 51
193.0
  0
LINE
  5
58E
330
128
100
AcDbEntity
  8
_0-1_PRO0
  6
Continuous
 62
     0
100
AcDbLine
 10
77.75361926363001
 20
659.1614730272
 30
0.0
 11
85.42869626363
 21
659.5637070272
 31
0.0
  0
ARC
  5
58F
330
128
100
AcDbEntity
  8
_0-1_PRO0
  6
Continuous
 62
     0
100
AcDbCircle
 10
86.50582826363001
 20
658.1181000272001
 30
0.0
 40
0.5000010000000001
100
AcDbArc
 50
-177.0
 51
-86.99999999999
  0
ARC
  5
590
330
128
100
AcDbEntity
  8
_0-1_PRO0
  6
Continuous
 62
     0
100
AcDbCircle
 10
87.00514526363001
 20
658.1442660272
 30
0.0
 40
0.5000010000000001
100
AcDbArc
 50
-86.99999999999
 51
3.000000000005999
  0
LINE
  5
591
330
128
100
AcDbEntity
  8
_0-1_PRO0
  6
Continuous
 62
     0
100
AcDbLine
 10
86.53199726363
 20
657.6187830272
 30
0.0
 11
87.03131126363
 21
657.6449520271999
 31
0.0
  0
LINE
  5
592
330
128
100
AcDbEntity
  8
_0-1_PRO0
  6
Continuous
 62
     0
100
AcDbLine
 10
85.95417926363001
 20
659.0905620272
 30
0.0
 11
86.00651426363
 21
658.0919310271999
 31
0.0
  0
ARC
  5
593
330
128
100
AcDbEntity
  8
_0-1_PRO0
  6
Continuous
 62
     0
100
AcDbCircle
 10
85.45486526363001
 20
659.0643930272
 30
0.0
 40
0.5000010000000001
100
AcDbArc
 50
3.000000000005999
 51
93.00000000000999
  0
ARC
  5
594
330
128
100
AcDbEntity
  8
_0-1_PRO0
  6
Continuous
 62
     0
100
AcDbCircle
 10
64.24123826363
 20
611.8268940271999
 30
0.0
 40
0.5000010000000001
100
AcDbArc
 50
168.0
 51
270.0
  0
LINE
  5
595
330
128
100
AcDbEntity
  8
_0-1_PRO0
  6
Continuous
 62
     0
100
AcDbLine
 10
64.24123826363
 20
611.3268930271999
 30
0.0
 11
68.62379126363001
 21
611.3268930271999
 31
0.0
  0
ARC
  5
596
330
128
100
AcDbEntity
  8
_0-1_PRO0
  6
Continuous
 62
     0
100
AcDbCircle
 10
73.02378926363001
 20
610.7268930272
 30
0.0
 40
0.6
100
AcDbArc
 50
-90.0
 51
90.0
  0
LINE
  5
597
330
128
100
AcDbEntity
  8
_0-1_PRO0
  6
Continuous
 62
     0
100
AcDbLine
 10
70.62378926363
 20
611.3268930271999
 30
0.0
 11
68.62379126363001
 21
612.3268920271999
 31
0.0
  0
LINE
  5
598
330
128
100
AcDbEntity
  8
_0-1_PRO0
  6
Continuous
 62
     0
100
AcDbLine
 10
68.62379126363001
 20
612.3268920271999
 30
0.0
 11
68.62379126363001
 21
611.3268930271999
 31
0.0
  0
LINE
  5
599
330
128
100
AcDbEntity
  8
_0-1_PRO0
  6
Continuous
 62
     0
100
AcDbLine
 10
73.02378926363001
 20
611.3268930271999
 30
0.0
 11
70.62378926363
 21
611.3268930271999
 31
0.0
  0
ARC
  5
59A
330
128
100
AcDbEntity
  8
_0-1_PRO0
  6
Continuous
 62
     0
100
AcDbCircle
 10
61.35631526363001
 20
601.8268920271999
 30
0.0
 40
2.499999
100
AcDbArc
 50
180.0
 51
270.0
  0
LINE
  5
59B
330
128
100
AcDbEntity
  8
_0-1_PRO0
  6
Continuous
 62
     0
100
AcDbLine
 10
61.35631526363001
 20
599.3268930271999
 30
0.0
 11
61.85631626363001
 21
599.3268930271999
 31
0.0
  0
LINE
  5
59C
330
128
100
AcDbEntity
  8
_0-1_PRO0
  6
Continuous
 62
     0
100
AcDbLine
 10
61.85631626363001
 20
603.0115800272
 30
0.0
 11
61.85631626363001
 21
599.3268930271999
 31
0.0
  0
LINE
  5
59D
330
128
100
AcDbEntity
  8
_0-1_PRO0
  6
Continuous
 62
     0
100
AcDbLine
 10
63.28454126363001
 20
609.7308480272
 30
0.0
 11
61.85631626363001
 21
603.0115800272
 31
0.0
  0
ARC
  5
59E
330
128
100
AcDbEntity
  8
_0-1_PRO0
  6
Continuous
 62
     0
100
AcDbCircle
 10
63.77361326363001
 20
609.6268920272
 30
0.0
 40
0.5000010000000001
100
AcDbArc
 50
90.0
 51
168.0
  0
LINE
  5
59F
330
128
100
AcDbEntity
  8
_0-1_PRO0
  6
Continuous
 62
     0
100
AcDbLine
 10
63.77361326363001
 20
610.1268930272
 30
0.0
 11
73.02378926363001
 21
610.1268930272
 31
0.0
  0
ARC
  5
5A0
330
128
100
AcDbEntity
  8
_0-1_PRO0
  6
Continuous
 62
     0
100
AcDbCircle
 10
80.01747626363
 20
679.0276800272001
 30
0.0
 40
3.0
100
AcDbArc
 50
93.0
 51
169.875328
  0
LINE
  5
5A1
330
128
100
AcDbEntity
  8
_0-1_PRO0
  6
Continuous
 62
     0
100
AcDbLine
 10
77.06419526363001
 20
679.5550530272
 30
0.0
 11
63.28750826363001
 21
602.4056160272
 31
0.0
  0
ARC
  5
5A2
330
128
100
AcDbEntity
  8
_0-1_PRO0
  6
Continuous
 62
     0
100
AcDbCircle
 10
59.85631526363
 20
684.4800000272
 30
0.0
 40
0.999999
100
AcDbArc
 50
93.0
 51
180.0
  0
LINE
  5
5A3
330
128
100
AcDbEntity
  8
_0-1_PRO0
  6
Continuous
 62
     0
100
AcDbLine
 10
58.85631626363
 20
684.4800000272
 30
0.0
 11
58.85631626363
 21
600.3268920271999
 31
0.0
  0
LINE
  5
5A4
330
128
100
AcDbEntity
  8
_0-1_PRO0
  6
Continuous
 62
     0
100
AcDbLine
 10
72.63427226363001
 20
680.3461110271999
 30
0.0
 11
58.85631626363
 21
603.1895640272
 31
0.0
  0
LINE
  5
5A5
330
128
100
AcDbEntity
  8
_0-1_PRO0
  6
Continuous
 62
     0
100
AcDbLine
 10
56.85631526363001
 20
684.4800000272
 30
0.0
 11
56.85631526363001
 21
600.3268920271999
 31
0.0
  0
ARC
  5
5A6
330
128
100
AcDbEntity
  8
_0-1_PRO0
  6
Continuous
 62
     0
100
AcDbCircle
 10
59.85631526363
 20
684.4800000272
 30
0.0
 40
3.0
100
AcDbArc
 50
93.0
 51
180.0
  0
LINE
  5
5A7
330
128
100
AcDbEntity
  8
_0-1_PRO0
  6
Continuous
 62
     0
100
AcDbLine
 10
59.85631526363
 20
597.3268920271999
 30
0.0
 11
66.85631726363
 21
597.3268920271999
 31
0.0
  0
ARC
  5
5A8
330
128
100
AcDbEntity
  8
_0-1_PRO0
  6
Continuous
 62
     0
100
AcDbCircle
 10
59.85631526363
 20
600.3268920271999
 30
0.0
 40
3.0
100
AcDbArc
 50
180.0
 51
270.0
  0
LINE
  5
5A9
330
128
100
AcDbEntity
  8
_0-1_PRO0
  6
Continuous
 62
     0
100
AcDbLine
 10
59.85631526363
 20
599.3268930271999
 30
0.0
 11
66.85631726363
 21
599.3268930271999
 31
0.0
  0
ARC
  5
5AA
330
128
100
AcDbEntity
  8
_0-1_PRO0
  6
Continuous
 62
     0
100
AcDbCircle
 10
59.85631526363
 20
600.3268920271999
 30
0.0
 40
0.999999
100
AcDbArc
 50
180.0
 51
270.0
  0
LINE
  5
5AB
330
128
100
AcDbEntity
  8
_0-1_PRO0
  6
Continuous
 62
     0
100
AcDbLine
 10
95.78440526363001
 20
687.3642840272
 30
0.0
 11
95.99946926363001
 21
687.1492200272
 31
0.0
  0
LINE
  5
5AC
330
128
100
AcDbEntity
  8
_0-1_PRO0
  6
Continuous
 62
     0
100
AcDbLine
 10
94.42986626363
 20
687.2932950272
 30
0.0
 11
96.06693326363
 21
685.6562280271999
 31
0.0
  0
LINE
  5
5AD
330
128
100
AcDbEntity
  8
_0-1_PRO0
  6
Continuous
 62
     0
100
AcDbLine
 10
86.67116426363
 20
685.1638170272
 30
0.0
 11
86.05764326363001
 21
685.7773380272
 31
0.0
  0
LINE
  5
5AE
330
128
100
AcDbEntity
  8
_0-1_PRO0
  6
Continuous
 62
     0
100
AcDbLine
 10
86.37788726363002
 20
686.8713090272
 30
0.0
 11
88.01495126363001
 21
685.2342420272
 31
0.0
  0
LINE
  5
5AF
330
128
100
AcDbEntity
  8
_0-1_PRO0
  6
Continuous
 62
     0
100
AcDbLine
 10
87.72167426363001
 20
686.9417340272
 30
0.0
 11
89.35874126363001
 21
685.3046670272
 31
0.0
  0
LINE
  5
5B0
330
128
100
AcDbEntity
  8
_0-1_PRO0
  6
Continuous
 62
     0
100
AcDbLine
 10
89.06546426363
 20
687.0121590272
 30
0.0
 11
90.70252826363001
 21
685.3750920272
 31
0.0
  0
LINE
  5
5B1
330
128
100
AcDbEntity
  8
_0-1_PRO0
  6
Continuous
 62
     0
100
AcDbLine
 10
90.40925126363001
 20
687.0825840272
 30
0.0
 11
92.04631826363002
 21
685.4455170272
 31
0.0
  0
LINE
  5
5B2
330
128
100
AcDbEntity
  8
_0-1_PRO0
  6
Continuous
 62
     0
100
AcDbLine
 10
91.75304126363
 20
687.1530090272
 30
0.0
 11
93.39010526363001
 21
685.5159420272
 31
0.0
  0
LINE
  5
5B3
330
128
100
AcDbEntity
  8
_0-1_PRO0
  6
Continuous
 62
     0
100
AcDbLine
 10
93.09682826362999
 20
687.2234340272
 30
0.0
 11
94.73389526363
 21
685.5863670272
 31
0.0
  0
ARC
  5
5B4
330
128
100
AcDbEntity
  8
_0-1_PRO0
  6
Continuous
 62
     0
100
AcDbCircle
 10
80.01747626363
 20
679.0276800272001
 30
0.0
 40
7.5
100
AcDbArc
 50
93.0
 51
169.875328
  0
LINE
  5
5B5
330
128
100
AcDbEntity
  8
_0-1_PRO0
  6
Continuous
 62
     0
100
AcDbLine
 10
66.85631726363
 20
599.3268930271999
 30
0.0
 11
66.85631726363
 21
597.3268920271999
 31
0.0
  0
LINE
  5
5B6
330
128
100
AcDbEntity
  8
_0-1_PRO0
  6
Continuous
 62
     0
100
AcDbLine
 10
59.69930726363001
 20
687.4758870272
 30
0.0
 11
606.8563152635999
 21
716.1511738369
 31
0.0
  0
LINE
  5
5B7
330
128
100
AcDbEntity
  8
_0-1_PRO0
  6
Continuous
 62
     0
100
AcDbLine
 10
87.55679426363
 20
657.1718070271999
 30
0.0
 11
606.8563152635999
 21
684.3871408368999
 31
0.0
  0
LINE
  5
5B8
330
128
100
AcDbEntity
  8
_0-1_PRO0
  6
Continuous
 62
     0
100
AcDbLine
 10
87.50445926363001
 20
658.1704350272
 30
0.0
 11
606.8563152635999
 21
685.3885138369
 31
0.0
  0
LINE
  5
5B9
330
128
100
AcDbEntity
  8
_0-1_PRO0
  6
Continuous
 62
     0
100
AcDbLine
 10
87.42595526363002
 20
659.6683800272
 30
0.0
 11
606.8563152635999
 21
686.8905718368999
 31
0.0
  0
LINE
  5
5BA
330
128
100
AcDbEntity
  8
_0-1_PRO0
  6
Continuous
 62
     0
100
AcDbLine
 10
87.26894726363001
 20
662.6642670272
 30
0.0
 11
606.8563152635999
 21
689.8946908369
 31
0.0
  0
LINE
  5
5BB
330
128
100
AcDbEntity
  8
_0-1_PRO0
  6
Continuous
 62
     0
100
AcDbLine
 10
87.17474126363001
 20
664.4618010272
 30
0.0
 11
606.8563152635999
 21
691.6971598369
 31
0.0
  0
LINE
  5
5BC
330
128
100
AcDbEntity
  8
_0-1_PRO0
  6
Continuous
 62
     0
100
AcDbLine
 10
86.40540326363
 20
679.1416560272
 30
0.0
 11
606.8563152635999
 21
706.4173348369
 31
0.0
  0
LINE
  5
5BD
330
128
100
AcDbEntity
  8
_0-1_PRO0
  6
Continuous
 62
     0
100
AcDbLine
 10
86.32689926363001
 20
680.6396010272
 30
0.0
 11
606.8563152635999
 21
707.9193928369
 31
0.0
  0
LINE
  5
5BE
330
128
100
AcDbEntity
  8
_0-1_PRO0
  6
Continuous
 62
     0
100
AcDbLine
 10
86.09138726363001
 20
685.1334330272
 30
0.0
 11
606.8563152635999
 21
712.4255668368999
 31
0.0
  0
LINE
  5
5BF
330
128
100
AcDbEntity
  8
_0-1_PRO0
  6
Continuous
 62
     0
100
AcDbLine
 10
80.06229626362999
 20
682.0341450272
 30
0.0
 11
606.8824842635999
 21
709.6436248369
 31
0.0
  0
LINE
  5
5C0
330
128
100
AcDbEntity
  8
_0-1_PRO0
  6
Continuous
 62
     0
100
AcDbLine
 10
606.8563152635999
 20
714.1484273777
 30
0.0
 11
59.80398026363001
 21
685.4786280272
 31
0.0
  0
LINE
  5
5C1
330
128
100
AcDbEntity
  8
ADD_LINE
  6
DOT
 62
     0
100
AcDbLine
 10
59.69930739489999
 20
687.4758886314
 30
0.0
 11
56.85631526363001
 21
687.3268937111999
 31
0.0
  0
LINE
  5
5C2
330
128
100
AcDbEntity
  8
_0-1_PRO0
  6
Continuous
 62
     0
100
AcDbLine
 10
56.85631526363001
 20
753.4557065225
 30
0.0
 11
59.85631526363
 21
752.7057065225
 31
0.0
  0
LINE
  5
5C3
330
128
100
AcDbEntity
  8
_0-1_PRO0
  6
Continuous
 62
     0
100
AcDbLine
 10
56.85631526363001
 20
753.4557065225
 30
0.0
 11
59.85631526363
 21
754.2057065225
 31
0.0
  0
LINE
  5
5C4
330
128
100
AcDbEntity
  8
_0-1_PRO0
  6
Continuous
 62
     0
100
AcDbLine
 10
56.85631526363001
 20
690.7207775225
 30
0.0
 11
56.85631526363001
 21
757.4557055225
 31
0.0
  0
LINE
  5
5C5
330
128
100
AcDbEntity
  8
_0-1_PRO0
  6
Continuous
 62
     0
100
AcDbLine
 10
1127.385731264
 20
680.6396010272
 30
0.0
 11
606.8563152635999
 21
707.9193928369
 31
0.0
  0
LINE
  5
5C6
330
128
100
AcDbEntity
  8
ADD_LINE
  6
DOT
 62
     0
100
AcDbLine
 10
1156.856315264
 20
687.3268937111999
 30
0.0
 11
1156.856315264
 21
580.4246813416
 31
0.0
  0
LINE
  5
5C7
330
128
100
AcDbEntity
  8
_0-1_PRO0
  6
Continuous
 62
     0
100
AcDbLine
 10
1107.694733264
 20
673.3515480272
 30
0.0
 11
1123.472108264
 21
700.6787610272
 31
0.0
  0
CIRCLE
  5
5C8
330
128
100
AcDbEntity
  8
_0-1_PRO0
  6
Continuous
 62
     0
100
AcDbCircle
 10
1126.472108264
 20
705.8749110272
 30
0.0
 40
6.0
  0
CIRCLE
  5
5C9
330
128
100
AcDbEntity
  8
_0-1_PRO0
  6
Continuous
 62
     0
100
AcDbCircle
 10
1107.694733264
 20
673.3515480272
 30
0.0
 40
0.9
  0
LINE
  5
5CA
330
128
100
AcDbEntity
  8
_0-1_PRO0
  6
Continuous
 62
     0
100
AcDbLine
 10
1140.640655264
 20
672.4904550272
 30
0.0
 11
1162.905899264
 21
711.0549870272
 31
0.0
  0
CIRCLE
  5
5CB
330
128
100
AcDbEntity
  8
_0-1_PRO0
  6
Continuous
 62
     0
100
AcDbCircle
 10
1165.905899264
 20
716.2511400271999
 30
0.0
 40
6.0
  0
CIRCLE
  5
5CC
330
128
100
AcDbEntity
  8
_0-1_PRO0
  6
Continuous
 62
     0
100
AcDbCircle
 10
1140.640655264
 20
672.4904550272
 30
0.0
 40
0.9
  0
LINE
  5
5CD
330
128
100
AcDbEntity
  8
_0-1_PRO0
  6
Continuous
 62
     0
100
AcDbLine
 10
1203.617273264
 20
687.3268920271999
 30
0.0
 11
1203.617273264
 21
597.3268920271999
 31
0.0
  0
LINE
  5
5CE
330
128
100
AcDbEntity
  8
_0-1_PRO0
  6
Continuous
 62
     0
100
AcDbLine
 10
1157.856314264
 20
687.3268920271999
 30
0.0
 11
1207.617272264
 21
687.3268920271999
 31
0.0
  0
LINE
  5
5CF
330
128
100
AcDbEntity
  8
_0-1_PRO0
  6
Continuous
 62
     0
100
AcDbLine
 10
1154.856314264
 20
597.3268920271999
 30
0.0
 11
1207.617272264
 21
597.3268920271999
 31
0.0
  0
LINE
  5
5D0
330
128
100
AcDbEntity
  8
_0-1_PRO0
  6
Continuous
 62
     0
100
AcDbLine
 10
1203.617273264
 20
687.3268920271999
 30
0.0
 11
1204.367273264
 21
684.3268920272
 31
0.0
  0
LINE
  5
5D1
330
128
100
AcDbEntity
  8
_0-1_PRO0
  6
Continuous
 62
     0
100
AcDbLine
 10
1203.617273264
 20
687.3268920271999
 30
0.0
 11
1202.867273264
 21
684.3268920272
 31
0.0
  0
LINE
  5
5D2
330
128
100
AcDbEntity
  8
_0-1_PRO0
  6
Continuous
 62
     0
100
AcDbLine
 10
1203.617273264
 20
597.3268920271999
 30
0.0
 11
1202.867273264
 21
600.3268920271999
 31
0.0
  0
LINE
  5
5D3
330
128
100
AcDbEntity
  8
_0-1_PRO0
  6
Continuous
 62
     0
100
AcDbLine
 10
1203.617273264
 20
597.3268920271999
 30
0.0
 11
1204.367273264
 21
600.3268920271999
 31
0.0
  0
LINE
  5
5D4
330
128
100
AcDbEntity
  8
_0-1_PRO0
  6
Continuous
 62
     0
100
AcDbLine
 10
1178.960405264
 20
641.1966990272
 30
0.0
 11
1178.960405264
 21
597.3268920271999
 31
0.0
  0
LINE
  5
5D5
330
128
100
AcDbEntity
  8
_0-1_PRO0
  6
Continuous
 62
     0
100
AcDbLine
 10
1178.960405264
 20
641.1966990272
 30
0.0
 11
1179.710405264
 21
638.1966990271999
 31
0.0
  0
LINE
  5
5D6
330
128
100
AcDbEntity
  8
_0-1_PRO0
  6
Continuous
 62
     0
100
AcDbLine
 10
1178.960405264
 20
641.1966990272
 30
0.0
 11
1178.210405264
 21
638.1966990271999
 31
0.0
  0
LINE
  5
5D7
330
128
100
AcDbEntity
  8
_0-1_PRO0
  6
Continuous
 62
     0
100
AcDbLine
 10
1178.960405264
 20
597.3268920271999
 30
0.0
 11
1178.210405264
 21
600.3268920271999
 31
0.0
  0
LINE
  5
5D8
330
128
100
AcDbEntity
  8
_0-1_PRO0
  6
Continuous
 62
     0
100
AcDbLine
 10
1178.960405264
 20
597.3268920271999
 30
0.0
 11
1179.710405264
 21
600.3268920271999
 31
0.0
  0
LINE
  5
5D9
330
128
100
AcDbEntity
  8
_0-1_PRO0
  6
Continuous
 62
     0
100
AcDbLine
 10
1133.650334264
 20
682.0341450272
 30
0.0
 11
606.8301462636
 21
709.6436248369
 31
0.0
  0
LINE
  5
5DA
330
128
100
AcDbEntity
  8
_0-1_PRO0
  6
Continuous
 62
     0
100
AcDbLine
 10
1127.621240264
 20
685.1334330272
 30
0.0
 11
606.8563152635999
 21
712.4255668368999
 31
0.0
  0
LINE
  5
5DB
330
128
100
AcDbEntity
  8
_0-1_PRO0
  6
Continuous
 62
     0
100
AcDbLine
 10
1127.307227264
 20
679.1416560272
 30
0.0
 11
606.8563152635999
 21
706.4173348369
 31
0.0
  0
LINE
  5
5DC
330
128
100
AcDbEntity
  8
_0-1_PRO0
  6
Continuous
 62
     0
100
AcDbLine
 10
1126.537886264
 20
664.4618010272
 30
0.0
 11
606.8563152635999
 21
691.6971598369
 31
0.0
  0
LINE
  5
5DD
330
128
100
AcDbEntity
  8
_0-1_PRO0
  6
Continuous
 62
     0
100
AcDbLine
 10
1126.443683264
 20
662.6642670272
 30
0.0
 11
606.8563152635999
 21
689.8946908369
 31
0.0
  0
LINE
  5
5DE
330
128
100
AcDbEntity
  8
_0-1_PRO0
  6
Continuous
 62
     0
100
AcDbLine
 10
1126.286675264
 20
659.6683800272
 30
0.0
 11
606.8563152635999
 21
686.8905718368999
 31
0.0
  0
LINE
  5
5DF
330
128
100
AcDbEntity
  8
_0-1_PRO0
  6
Continuous
 62
     0
100
AcDbLine
 10
1126.208171264
 20
658.1704350272
 30
0.0
 11
606.8563152635999
 21
685.3885138369
 31
0.0
  0
LINE
  5
5E0
330
128
100
AcDbEntity
  8
_0-1_PRO0
  6
Continuous
 62
     0
100
AcDbLine
 10
1126.155836264
 20
657.1718070271999
 30
0.0
 11
606.8563152635999
 21
684.3871408368999
 31
0.0
  0
LINE
  5
5E1
330
128
100
AcDbEntity
  8
_0-1_PRO0
  6
Continuous
 62
     0
100
AcDbLine
 10
1154.013323264
 20
687.4758870272
 30
0.0
 11
606.8563152635999
 21
716.1511738369
 31
0.0
  0
LINE
  5
5E2
330
128
100
AcDbEntity
  8
_0-1_PRO0
  6
Continuous
 62
     0
100
AcDbLine
 10
1146.856313264
 20
599.3268930271999
 30
0.0
 11
1146.856313264
 21
597.3268920271999
 31
0.0
  0
ARC
  5
5E3
330
128
100
AcDbEntity
  8
_0-1_PRO0
  6
Continuous
 62
     0
100
AcDbCircle
 10
1133.695151264
 20
679.0276800272001
 30
0.0
 40
7.5
100
AcDbArc
 50
10.124672
 51
87.0
  0
LINE
  5
5E4
330
128
100
AcDbEntity
  8
_0-1_PRO0
  6
Continuous
 62
     0
100
AcDbLine
 10
1120.615799264
 20
687.2234340272
 30
0.0
 11
1118.978735264
 21
685.5863670272
 31
0.0
  0
LINE
  5
5E5
330
128
100
AcDbEntity
  8
_0-1_PRO0
  6
Continuous
 62
     0
100
AcDbLine
 10
1121.959589264
 20
687.1530090272
 30
0.0
 11
1120.322522264
 21
685.5159420272
 31
0.0
  0
LINE
  5
5E6
330
128
100
AcDbEntity
  8
_0-1_PRO0
  6
Continuous
 62
     0
100
AcDbLine
 10
1123.303376264
 20
687.0825840272
 30
0.0
 11
1121.666312264
 21
685.4455170272
 31
0.0
  0
LINE
  5
5E7
330
128
100
AcDbEntity
  8
_0-1_PRO0
  6
Continuous
 62
     0
100
AcDbLine
 10
1124.647166264
 20
687.0121590272
 30
0.0
 11
1123.010099264
 21
685.3750920272
 31
0.0
  0
LINE
  5
5E8
330
128
100
AcDbEntity
  8
_0-1_PRO0
  6
Continuous
 62
     0
100
AcDbLine
 10
1125.990956264
 20
686.9417340272
 30
0.0
 11
1124.353889264
 21
685.3046670272
 31
0.0
  0
LINE
  5
5E9
330
128
100
AcDbEntity
  8
_0-1_PRO0
  6
Continuous
 62
     0
100
AcDbLine
 10
1127.334743263999
 20
686.8713090272
 30
0.0
 11
1125.697679264
 21
685.2342420272
 31
0.0
  0
LINE
  5
5EA
330
128
100
AcDbEntity
  8
_0-1_PRO0
  6
Continuous
 62
     0
100
AcDbLine
 10
1127.041466264
 20
685.1638170272
 30
0.0
 11
1127.654987264
 21
685.7773380272
 31
0.0
  0
LINE
  5
5EB
330
128
100
AcDbEntity
  8
_0-1_PRO0
  6
Continuous
 62
     0
100
AcDbLine
 10
1119.282761264
 20
687.2932950272
 30
0.0
 11
1117.645697264
 21
685.6562280271999
 31
0.0
  0
LINE
  5
5EC
330
128
100
AcDbEntity
  8
_0-1_PRO0
  6
Continuous
 62
     0
100
AcDbLine
 10
1117.928222264
 20
687.3642840272
 30
0.0
 11
1117.713161264
 21
687.1492200272
 31
0.0
  0
ARC
  5
5ED
330
128
100
AcDbEntity
  8
_0-1_PRO0
  6
Continuous
 62
     0
100
AcDbCircle
 10
1153.856315264
 20
600.3268920271999
 30
0.0
 40
0.999999
100
AcDbArc
 50
-90.0
 51
0.0
  0
LINE
  5
5EE
330
128
100
AcDbEntity
  8
_0-1_PRO0
  6
Continuous
 62
     0
100
AcDbLine
 10
1153.856315264
 20
599.3268930271999
 30
0.0
 11
1146.856313264
 21
599.3268930271999
 31
0.0
  0
ARC
  5
5EF
330
128
100
AcDbEntity
  8
_0-1_PRO0
  6
Continuous
 62
     0
100
AcDbCircle
 10
1153.856315264
 20
600.3268920271999
 30
0.0
 40
3.0
100
AcDbArc
 50
-90.0
 51
0.0
  0
LINE
  5
5F0
330
128
100
AcDbEntity
  8
_0-1_PRO0
  6
Continuous
 62
     0
100
AcDbLine
 10
1153.856315264
 20
597.3268920271999
 30
0.0
 11
1146.856313264
 21
597.3268920271999
 31
0.0
  0
ARC
  5
5F1
330
128
100
AcDbEntity
  8
_0-1_PRO0
  6
Continuous
 62
     0
100
AcDbCircle
 10
1153.856315264
 20
684.4800000272
 30
0.0
 40
3.0
100
AcDbArc
 50
0.0
 51
86.99999999999
  0
LINE
  5
5F2
330
128
100
AcDbEntity
  8
_0-1_PRO0
  6
Continuous
 62
     0
100
AcDbLine
 10
1156.856315264
 20
684.4800000272
 30
0.0
 11
1156.856315264
 21
600.3268920271999
 31
0.0
  0
LINE
  5
5F3
330
128
100
AcDbEntity
  8
_0-1_PRO0
  6
Continuous
 62
     0
100
AcDbLine
 10
1141.078358264
 20
680.3461110271999
 30
0.0
 11
1154.856314264
 21
603.1895640272
 31
0.0
  0
LINE
  5
5F4
330
128
100
AcDbEntity
  8
_0-1_PRO0
  6
Continuous
 62
     0
100
AcDbLine
 10
1154.856314264
 20
684.4800000272
 30
0.0
 11
1154.856314264
 21
600.3268920271999
 31
0.0
  0
ARC
  5
5F5
330
128
100
AcDbEntity
  8
_0-1_PRO0
  6
Continuous
 62
     0
100
AcDbCircle
 10
1153.856315264
 20
684.4800000272
 30
0.0
 40
0.999999
100
AcDbArc
 50
0.0
 51
86.99999999999
  0
LINE
  5
5F6
330
128
100
AcDbEntity
  8
_0-1_PRO0
  6
Continuous
 62
     0
100
AcDbLine
 10
1136.648435264
 20
679.5550530272
 30
0.0
 11
1150.425119264
 21
602.4056160272
 31
0.0
  0
ARC
  5
5F7
330
128
100
AcDbEntity
  8
_0-1_PRO0
  6
Continuous
 62
     0
100
AcDbCircle
 10
1133.695151264
 20
679.0276800272001
 30
0.0
 40
3.0
100
AcDbArc
 50
10.124672
 51
87.0
  0
LINE
  5
5F8
330
128
100
AcDbEntity
  8
_0-1_PRO0
  6
Continuous
 62
     0
100
AcDbLine
 10
1149.939014264
 20
610.1268930272
 30
0.0
 11
1140.688838264
 21
610.1268930272
 31
0.0
  0
ARC
  5
5F9
330
128
100
AcDbEntity
  8
_0-1_PRO0
  6
Continuous
 62
     0
100
AcDbCircle
 10
1149.939014264
 20
609.6268920272
 30
0.0
 40
0.5000010000000001
100
AcDbArc
 50
12.0
 51
90.0
  0
LINE
  5
5FA
330
128
100
AcDbEntity
  8
_0-1_PRO0
  6
Continuous
 62
     0
100
AcDbLine
 10
1150.428089264
 20
609.7308480272
 30
0.0
 11
1151.856314264
 21
603.0115800272
 31
0.0
  0
LINE
  5
5FB
330
128
100
AcDbEntity
  8
_0-1_PRO0
  6
Continuous
 62
     0
100
AcDbLine
 10
1151.856314264
 20
603.0115800272
 30
0.0
 11
1151.856314264
 21
599.3268930271999
 31
0.0
  0
LINE
  5
5FC
330
128
100
AcDbEntity
  8
_0-1_PRO0
  6
Continuous
 62
     0
100
AcDbLine
 10
1152.356315264
 20
599.3268930271999
 30
0.0
 11
1151.856314264
 21
599.3268930271999
 31
0.0
  0
ARC
  5
5FD
330
128
100
AcDbEntity
  8
_0-1_PRO0
  6
Continuous
 62
     0
100
AcDbCircle
 10
1152.356315264
 20
601.8268920271999
 30
0.0
 40
2.499999
100
AcDbArc
 50
-90.0
 51
0.0
  0
LINE
  5
5FE
330
128
100
AcDbEntity
  8
_0-1_PRO0
  6
Continuous
 62
     0
100
AcDbLine
 10
1140.688838264
 20
611.3268930271999
 30
0.0
 11
1143.088838264
 21
611.3268930271999
 31
0.0
  0
LINE
  5
5FF
330
128
100
AcDbEntity
  8
_0-1_PRO0
  6
Continuous
 62
     0
100
AcDbLine
 10
1145.088839264
 20
612.3268920271999
 30
0.0
 11
1145.088839264
 21
611.3268930271999
 31
0.0
  0
LINE
  5
600
330
128
100
AcDbEntity
  8
_0-1_PRO0
  6
Continuous
 62
     0
100
AcDbLine
 10
1143.088838264
 20
611.3268930271999
 30
0.0
 11
1145.088839264
 21
612.3268920271999
 31
0.0
  0
ARC
  5
601
330
128
100
AcDbEntity
  8
_0-1_PRO0
  6
Continuous
 62
     0
100
AcDbCircle
 10
1140.688838264
 20
610.7268930272
 30
0.0
 40
0.6
100
AcDbArc
 50
90.0
 51
270.0
  0
LINE
  5
602
330
128
100
AcDbEntity
  8
_0-1_PRO0
  6
Continuous
 62
     0
100
AcDbLine
 10
1149.471392264
 20
611.3268930271999
 30
0.0
 11
1145.088839264
 21
611.3268930271999
 31
0.0
  0
ARC
  5
603
330
128
100
AcDbEntity
  8
_0-1_PRO0
  6
Continuous
 62
     0
100
AcDbCircle
 10
1149.471392264
 20
611.8268940271999
 30
0.0
 40
0.5000010000000001
100
AcDbArc
 50
-90.0
 51
11.99999999999
  0
ARC
  5
604
330
128
100
AcDbEntity
  8
_0-1_PRO0
  6
Continuous
 62
     0
100
AcDbCircle
 10
1128.257765264
 20
659.0643930272
 30
0.0
 40
0.5000010000000001
100
AcDbArc
 50
86.99999999999
 51
177.0
  0
LINE
  5
605
330
128
100
AcDbEntity
  8
_0-1_PRO0
  6
Continuous
 62
     0
100
AcDbLine
 10
1127.758451264
 20
659.0905620272
 30
0.0
 11
1127.706116264
 21
658.0919310271999
 31
0.0
  0
LINE
  5
606
330
128
100
AcDbEntity
  8
_0-1_PRO0
  6
Continuous
 62
     0
100
AcDbLine
 10
1127.180633264
 20
657.6187830272
 30
0.0
 11
1126.681316264
 21
657.6449520271999
 31
0.0
  0
ARC
  5
607
330
128
100
AcDbEntity
  8
_0-1_PRO0
  6
Continuous
 62
     0
100
AcDbCircle
 10
1126.707485264
 20
658.1442660272
 30
0.0
 40
0.5000010000000001
100
AcDbArc
 50
177.0
 51
267.0
  0
ARC
  5
608
330
128
100
AcDbEntity
  8
_0-1_PRO0
  6
Continuous
 62
     0
100
AcDbCircle
 10
1127.206799264
 20
658.1181000272001
 30
0.0
 40
0.5000010000000001
100
AcDbArc
 50
-93.00000000000999
 51
-3.000000000005999
  0
LINE
  5
609
330
128
100
AcDbEntity
  8
_0-1_PRO0
  6
Continuous
 62
     0
100
AcDbLine
 10
1135.959011264
 20
659.1614730272
 30
0.0
 11
1128.283934264
 21
659.5637070272
 31
0.0
  0
ARC
  5
60A
330
128
100
AcDbEntity
  8
_0-1_PRO0
  6
Continuous
 62
     0
100
AcDbCircle
 10
1135.932845264
 20
658.6621590272
 30
0.0
 40
0.5000010000000001
100
AcDbArc
 50
-13.0
 51
86.99999999999
  0
LINE
  5
60B
330
128
100
AcDbEntity
  8
_0-1_PRO0
  6
Continuous
 62
     0
100
AcDbLine
 10
1136.420030264
 20
658.5496830271999
 30
0.0
 11
1135.836836264
 21
656.0235990271999
 31
0.0
  0
LINE
  5
60C
330
128
100
AcDbEntity
  8
_0-1_PRO0
  6
Continuous
 62
     0
100
AcDbLine
 10
1138.022300264
 20
659.0533410272
 30
0.0
 11
1139.199644264
 21
658.9916400272
 31
0.0
  0
ARC
  5
60D
330
128
100
AcDbEntity
  8
_0-1_PRO0
  6
Continuous
 62
     0
100
AcDbCircle
 10
1138.006598264
 20
658.7537520271999
 30
0.0
 40
0.3
100
AcDbArc
 50
86.99999999999
 51
167.0
  0
LINE
  5
60E
330
128
100
AcDbEntity
  8
_0-1_PRO0
  6
Continuous
 62
     0
100
AcDbLine
 10
1137.714287264
 20
658.8212370272
 30
0.0
 11
1137.006080264
 21
655.7536590271999
 31
0.0
  0
ARC
  5
60F
330
128
100
AcDbEntity
  8
_0-1_PRO0
  6
Continuous
 62
     0
100
AcDbCircle
 10
1139.147309264
 20
657.9930090272
 30
0.0
 40
0.999999
100
AcDbArc
 50
12.0
 51
86.99999999999
  0
ARC
  5
610
330
128
100
AcDbEntity
  8
_0-1_PRO0
  6
Continuous
 62
     0
100
AcDbCircle
 10
1136.421458264
 20
655.8886290272
 30
0.0
 40
0.6
100
AcDbArc
 50
167.0
 51
347.0
  0
LINE
  5
611
330
128
100
AcDbEntity
  8
_0-1_PRO0
  6
Continuous
 62
     0
100
AcDbLine
 10
1142.900363264
 20
659.5752150272
 30
0.0
 11
1154.856314264
 21
603.3268920271999
 31
0.0
  0
LINE
  5
612
330
128
100
AcDbEntity
  8
_0-1_PRO0
  6
Continuous
 62
     0
100
AcDbLine
 10
1140.125456264
 20
658.2009210272
 30
0.0
 11
1149.960464264
 21
611.9308500272
 31
0.0
  0
LINE
  5
613
330
128
100
AcDbEntity
  8
_0-1_PRO0
  6
Continuous
 62
     0
100
AcDbLine
 10
1150.425119264
 20
602.4056160272
 30
0.0
 11
1154.856314264
 21
603.1895640272
 31
0.0
  0
LINE
  5
614
330
128
100
AcDbEntity
  8
_0-1_PRO0
  6
Continuous
 62
     0
100
AcDbLine
 10
1127.711285264
 20
686.8515750272
 30
0.0
 11
1127.621240264
 21
685.1334330272
 31
0.0
  0
LINE
  5
615
330
128
100
AcDbEntity
  8
_0-1_PRO0
  6
Continuous
 62
     0
100
AcDbLine
 10
1117.724990264
 20
687.3749340272
 30
0.0
 11
1117.634945264
 21
685.6567920272
 31
0.0
  0
ARC
  5
616
330
128
100
AcDbEntity
  8
_0-1_PRO0
  6
Continuous
 62
     0
100
AcDbCircle
 10
1127.073836264
 20
665.1346740272
 30
0.0
 40
0.5000010000000001
100
AcDbArc
 50
86.99999999999
 51
177.0
  0
LINE
  5
617
330
128
100
AcDbEntity
  8
_0-1_PRO0
  6
Continuous
 62
     0
100
AcDbLine
 10
1128.440942264
 20
662.5595970272
 30
0.0
 11
1140.122930264
 21
661.9473690272
 31
0.0
  0
ARC
  5
618
330
128
100
AcDbEntity
  8
_0-1_PRO0
  6
Continuous
 62
     0
100
AcDbCircle
 10
1128.467108264
 20
663.0589110272
 30
0.0
 40
0.5000010000000001
100
AcDbArc
 50
177.0
 51
267.0
  0
LINE
  5
619
330
128
100
AcDbEntity
  8
_0-1_PRO0
  6
Continuous
 62
     0
100
AcDbLine
 10
1127.967794264
 20
663.0850800272
 30
0.0
 11
1128.072467264
 21
665.0823390271999
 31
0.0
  0
ARC
  5
61A
330
128
100
AcDbEntity
  8
_0-1_PRO0
  6
Continuous
 62
     0
100
AcDbCircle
 10
1127.573153264
 20
665.1085050272
 30
0.0
 40
0.5000010000000001
100
AcDbArc
 50
-3.000000000005999
 51
86.99999999999
  0
LINE
  5
61B
330
128
100
AcDbEntity
  8
_0-1_PRO0
  6
Continuous
 62
     0
100
AcDbLine
 10
1127.599319264
 20
665.6078220271999
 30
0.0
 11
1127.100005264
 21
665.6339880272
 31
0.0
  0
LINE
  5
61C
330
128
100
AcDbEntity
  8
_0-1_PRO0
  6
Continuous
 62
     0
100
AcDbLine
 10
1127.621240264
 20
685.1334330272
 30
0.0
 11
1126.155836264
 21
657.1718070271999
 31
0.0
  0
ARC
  5
61D
330
128
100
AcDbEntity
  8
_0-1_PRO0
  6
Continuous
 62
     0
100
AcDbCircle
 10
1139.965922264
 20
658.9514790272
 30
0.0
 40
3.0
100
AcDbArc
 50
12.0
 51
86.99999999999
  0
ARC
  5
61E
330
128
100
AcDbEntity
  8
_0-1_PRO0
  6
Continuous
 62
     0
100
AcDbCircle
 10
1097.904236264
 20
662.6578980271999
 30
0.0
 40
1.5
100
AcDbArc
 50
86.99999999999
 51
267.0
  0
TEXT
  5
61F
330
128
100
AcDbEntity
  8
_0-1_PRO0
  6
Continuous
 62
     0
100
AcDbText
 10
1121.619999747
 20
702.1389537182001
 30
0.0
 40
9.0
  1
４
100
AcDbText
  0
TEXT
  5
620
330
128
100
AcDbEntity
  8
_0-1_PRO0
  6
Continuous
 62
     0
100
AcDbText
 10
1161.767940562
 20
712.1151087087
 30
0.0
 40
9.0
  1
７
100
AcDbText
  0
TEXT
  5
621
330
128
100
AcDbEntity
  8
_0-1_PRO0
  6
Continuous
 62
     0
100
AcDbText
 10
1179.049051937
 20
614.1149743802999
 30
0.0
 40
9.0
  1
44
 50
90.00000300000001
100
AcDbText
  0
TEXT
  5
622
330
128
100
AcDbEntity
  8
_0-1_PRO0
  6
Continuous
 62
     0
100
AcDbText
 10
1203.780650723
 20
629.2420687835
 30
0.0
 40
9.0
  1
90
 50
90.00000300000001
100
AcDbText
  0
LINE
  5
623
330
128
100
AcDbEntity
  8
_0-1_PRO0
  6
Continuous
 62
     0
100
AcDbLine
 10
1153.908650264
 20
685.4786280272
 30
0.0
 11
606.8563152635999
 21
714.1484273777
 31
0.0
  0
LINE
  5
624
330
128
100
AcDbEntity
  8
_0-1_PRO0
  6
Continuous
 62
     0
100
AcDbLine
 10
1156.856315264
 20
690.7207775225
 30
0.0
 11
1156.856315264
 21
757.4557055225
 31
0.0
  0
LINE
  5
625
330
128
100
AcDbEntity
  8
_0-1_PRO0
  6
Continuous
 62
     0
100
AcDbLine
 10
1156.856315264
 20
753.4557065225
 30
0.0
 11
1153.856315264
 21
752.7057065225
 31
0.0
  0
LINE
  5
626
330
128
100
AcDbEntity
  8
_0-1_PRO0
  6
Continuous
 62
     0
100
AcDbLine
 10
1156.856315264
 20
753.4557065225
 30
0.0
 11
1153.856315264
 21
754.2057065225
 31
0.0
  0
LINE
  5
627
330
128
100
AcDbEntity
  8
_0-1_PRO0
  6
Continuous
 62
     0
100
AcDbLine
 10
56.85631526363001
 20
753.4557065225
 30
0.0
 11
1156.856315264
 21
753.4557065225
 31
0.0
  0
LINE
  5
628
330
128
100
AcDbEntity
  8
_0-0_
  6
Continuous
 62
     0
100
AcDbLine
 10
1182.960407264
 20
641.1966990272
 30
0.0
 11
937.8563142636
 21
641.1966990272
 31
0.0
  0
ARC
  5
629
330
128
100
AcDbEntity
  8
_2-0_
  6
Continuous
 62
     0
100
AcDbCircle
 10
606.8563152635999
 20
560.7205849225
 30
0.0
 40
170.0
100
AcDbArc
 50
-165.0
 51
-15.0
  0
ARC
  5
62A
330
128
100
AcDbEntity
  8
_0-0_
  6
Continuous
 62
     0
100
AcDbCircle
 10
606.8563152635999
 20
560.7205849225
 30
0.0
 40
171.0
100
AcDbArc
 50
-165.0
 51
-15.0
  0
LINE
  5
62B
330
128
100
AcDbEntity
  8
_0-1_PRO0
  6
Continuous
 62
     0
100
AcDbLine
 10
606.8563152635999
 20
728.4200248369
 30
0.0
 11
606.8563152635999
 21
342.2965372363
 31
0.0
  0
LINE
  5
62C
330
128
100
AcDbEntity
  8
_0-1_PRO0
  6
Continuous
 62
     0
100
AcDbLine
 10
406.8563162635999
 20
352.273717004
 30
0.0
 11
409.8563162636
 21
351.523717004
 31
0.0
  0
LINE
  5
62D
330
128
100
AcDbEntity
  8
_0-1_PRO0
  6
Continuous
 62
     0
100
AcDbLine
 10
406.8563162635999
 20
352.273717004
 30
0.0
 11
409.8563162636
 21
353.023717004
 31
0.0
  0
LINE
  5
62E
330
128
100
AcDbEntity
  8
_0-1_PRO0
  6
Continuous
 62
     0
100
AcDbLine
 10
406.8563162635999
 20
352.273717004
 30
0.0
 11
403.8563162635999
 21
353.023717004
 31
0.0
  0
LINE
  5
62F
330
128
100
AcDbEntity
  8
_0-1_PRO0
  6
Continuous
 62
     0
100
AcDbLine
 10
406.8563162635999
 20
352.273717004
 30
0.0
 11
403.8563162635999
 21
351.523717004
 31
0.0
  0
LINE
  5
630
330
128
100
AcDbEntity
  8
_0-1_PRO0
  6
Continuous
 62
     0
100
AcDbLine
 10
56.85631526363001
 20
604.5676715224999
 30
0.0
 11
56.85631526363001
 21
348.273718004
 31
0.0
  0
LINE
  5
631
330
128
100
AcDbEntity
  8
_0-1_PRO0
  6
Continuous
 62
     0
100
AcDbLine
 10
56.85631526363001
 20
352.273717004
 30
0.0
 11
59.85631526363
 21
351.523717004
 31
0.0
  0
LINE
  5
632
330
128
100
AcDbEntity
  8
_0-1_PRO0
  6
Continuous
 62
     0
100
AcDbLine
 10
56.85631526363001
 20
352.273717004
 30
0.0
 11
59.85631526363
 21
353.023717004
 31
0.0
  0
LINE
  5
633
330
128
100
AcDbEntity
  8
_0-1_PRO0
  6
Continuous
 62
     0
100
AcDbLine
 10
276.8563152636
 20
352.273717004
 30
0.0
 11
279.8563152636
 21
351.523717004
 31
0.0
  0
LINE
  5
634
330
128
100
AcDbEntity
  8
_0-1_PRO0
  6
Continuous
 62
     0
100
AcDbLine
 10
276.8563152636
 20
352.273717004
 30
0.0
 11
279.8563152636
 21
353.023717004
 31
0.0
  0
LINE
  5
635
330
128
100
AcDbEntity
  8
_0-1_PRO0
  6
Continuous
 62
     0
100
AcDbLine
 10
276.8563152636
 20
352.273717004
 30
0.0
 11
273.8563152636
 21
353.023717004
 31
0.0
  0
LINE
  5
636
330
128
100
AcDbEntity
  8
_0-1_PRO0
  6
Continuous
 62
     0
100
AcDbLine
 10
276.8563152636
 20
352.273717004
 30
0.0
 11
273.8563152636
 21
351.523717004
 31
0.0
  0
LINE
  5
637
330
128
100
AcDbEntity
  8
_0-1_PRO0
  6
Continuous
 62
     0
100
AcDbLine
 10
276.8563152636
 20
352.273717004
 30
0.0
 11
406.8563162635999
 21
352.273717004
 31
0.0
  0
LINE
  5
638
330
128
100
AcDbEntity
  8
_0-1_PRO0
  6
Continuous
 62
     0
100
AcDbLine
 10
56.85631526363001
 20
352.273717004
 30
0.0
 11
276.8563152636
 21
352.273717004
 31
0.0
  0
TEXT
  5
639
330
128
100
AcDbEntity
  8
_0-1_PRO0
  6
Continuous
 62
     0
100
AcDbText
 10
338.7847092495
 20
353.3438415623
 30
0.0
 40
9.0
  1
Ｃ
100
AcDbText
  0
LINE
  5
63A
330
128
100
AcDbEntity
  8
_0-1_PRO0
  6
Continuous
 62
     0
100
AcDbLine
 10
1156.856315264
 20
604.5676715224999
 30
0.0
 11
1156.856315264
 21
348.273718004
 31
0.0
  0
LINE
  5
63B
330
128
100
AcDbEntity
  8
_0-1_PRO0
  6
Continuous
 62
     0
100
AcDbLine
 10
1156.856315264
 20
352.273717004
 30
0.0
 11
1153.856315264
 21
351.523717004
 31
0.0
  0
LINE
  5
63C
330
128
100
AcDbEntity
  8
_0-1_PRO0
  6
Continuous
 62
     0
100
AcDbLine
 10
1156.856315264
 20
352.273717004
 30
0.0
 11
1153.856315264
 21
353.023717004
 31
0.0
  0
LINE
  5
63D
330
128
100
AcDbEntity
  8
_0-1_PRO0
  6
Continuous
 62
     0
100
AcDbLine
 10
806.8563142636
 20
352.273717004
 30
0.0
 11
803.8563142636
 21
351.523717004
 31
0.0
  0
LINE
  5
63E
330
128
100
AcDbEntity
  8
_0-1_PRO0
  6
Continuous
 62
     0
100
AcDbLine
 10
806.8563142636
 20
352.273717004
 30
0.0
 11
803.8563142636
 21
353.023717004
 31
0.0
  0
LINE
  5
63F
330
128
100
AcDbEntity
  8
_0-1_PRO0
  6
Continuous
 62
     0
100
AcDbLine
 10
806.8563142636
 20
352.273717004
 30
0.0
 11
809.8563142635999
 21
353.023717004
 31
0.0
  0
LINE
  5
640
330
128
100
AcDbEntity
  8
_0-1_PRO0
  6
Continuous
 62
     0
100
AcDbLine
 10
806.8563142636
 20
352.273717004
 30
0.0
 11
809.8563142635999
 21
351.523717004
 31
0.0
  0
LINE
  5
641
330
128
100
AcDbEntity
  8
_0-1_PRO0
  6
Continuous
 62
     0
100
AcDbLine
 10
806.8563142636
 20
352.273717004
 30
0.0
 11
936.8563152635999
 21
352.273717004
 31
0.0
  0
LINE
  5
642
330
128
100
AcDbEntity
  8
_0-1_PRO0
  6
Continuous
 62
     0
100
AcDbLine
 10
936.8563152635999
 20
352.273717004
 30
0.0
 11
939.8563152635999
 21
351.523717004
 31
0.0
  0
LINE
  5
643
330
128
100
AcDbEntity
  8
_0-1_PRO0
  6
Continuous
 62
     0
100
AcDbLine
 10
936.8563152635999
 20
352.273717004
 30
0.0
 11
939.8563152635999
 21
353.023717004
 31
0.0
  0
LINE
  5
644
330
128
100
AcDbEntity
  8
_0-1_PRO0
  6
Continuous
 62
     0
100
AcDbLine
 10
936.8563152635999
 20
352.273717004
 30
0.0
 11
933.8563152636
 21
353.023717004
 31
0.0
  0
LINE
  5
645
330
128
100
AcDbEntity
  8
_0-1_PRO0
  6
Continuous
 62
     0
100
AcDbLine
 10
936.8563152635999
 20
352.273717004
 30
0.0
 11
933.8563152636
 21
351.523717004
 31
0.0
  0
TEXT
  5
646
330
128
100
AcDbEntity
  8
_0-1_PRO0
  6
Continuous
 62
     0
100
AcDbText
 10
868.7057360978998
 20
353.0874013387
 30
0.0
 40
9.0
  1
Ｃ
100
AcDbText
  0
LINE
  5
647
330
128
100
AcDbEntity
  8
_0-1_PRO0
  6
Continuous
 62
     0
100
AcDbLine
 10
406.8563162635999
 20
352.273717004
 30
0.0
 11
806.8563142636
 21
352.273717004
 31
0.0
  0
LINE
  5
648
330
128
100
AcDbEntity
  8
_0-1_PRO0
  6
Continuous
 62
     0
100
AcDbLine
 10
936.8563152635999
 20
352.273717004
 30
0.0
 11
1156.856315264
 21
352.273717004
 31
0.0
  0
CIRCLE
  5
649
330
128
100
AcDbEntity
  8
_0-1_PRO0
  6
Continuous
 62
     0
100
AcDbCircle
 10
606.8563152635999
 20
390.7205849225
 30
0.0
 40
0.9
  0
CIRCLE
  5
64A
330
128
100
AcDbEntity
  8
_0-1_PRO0
  6
Continuous
 62
     0
100
AcDbCircle
 10
633.4868661155999
 20
438.9298309283999
 30
0.0
 40
6.0
  0
LINE
  5
64B
330
128
100
AcDbEntity
  8
_0-1_PRO0
  6
Continuous
 62
     0
100
AcDbLine
 10
606.8563152635999
 20
390.7205849225
 30
0.0
 11
631.4347461156
 21
433.2916759284
 31
0.0
  0
TEXT
  5
64C
330
128
100
AcDbEntity
  8
_0-1_PRO0
  6
Continuous
 62
     0
100
AcDbText
 10
629.8059986703999
 20
434.9325857299
 30
0.0
 40
9.0
  1
９
100
AcDbText
  0
LINE
  5
64D
330
128
100
AcDbEntity
  8
_0-1_PRO0
  6
Continuous
 62
     0
100
AcDbLine
 10
326.8563162636
 20
449.5443085844
 30
0.0
 11
323.8563162636
 21
450.2943085844
 31
0.0
  0
LINE
  5
64E
330
128
100
AcDbEntity
  8
_0-1_PRO0
  6
Continuous
 62
     0
100
AcDbLine
 10
326.8563162636
 20
449.5443085844
 30
0.0
 11
323.8563162636
 21
448.7943085844
 31
0.0
  0
LINE
  5
64F
330
128
100
AcDbEntity
  8
_0-1_PRO0
  6
Continuous
 62
     0
100
AcDbLine
 10
276.8563152636
 20
449.5443085844
 30
0.0
 11
279.8563152636
 21
448.7943085844
 31
0.0
  0
LINE
  5
650
330
128
100
AcDbEntity
  8
_0-1_PRO0
  6
Continuous
 62
     0
100
AcDbLine
 10
276.8563152636
 20
449.5443085844
 30
0.0
 11
279.8563152636
 21
450.2943085844
 31
0.0
  0
LINE
  5
651
330
128
100
AcDbEntity
  8
_0-1_PRO0
  6
Continuous
 62
     0
100
AcDbLine
 10
276.8563152636
 20
449.5443085844
 30
0.0
 11
326.8563162636
 21
449.5443085844
 31
0.0
  0
TEXT
  5
652
330
128
100
AcDbEntity
  8
_0-1_PRO0
  6
Continuous
 62
     0
100
AcDbText
 10
299.1860280408
 20
450.0638070445999
 30
0.0
 40
9.0
  1
50
100
AcDbText
  0
TEXT
  5
653
330
128
100
AcDbEntity
  8
_2-0_
  6
Continuous
 62
     0
100
AcDbText
 10
906.5435939602
 20
449.8204861911
 30
0.0
 40
9.0
  1
50
100
AcDbText
  0
LINE
  5
654
330
128
100
AcDbEntity
  8
_0-1_PRO0
  6
Continuous
 62
     0
100
AcDbLine
 10
936.8563152635999
 20
449.5443085844
 30
0.0
 11
933.8563152636
 21
448.7943085844
 31
0.0
  0
LINE
  5
655
330
128
100
AcDbEntity
  8
_0-1_PRO0
  6
Continuous
 62
     0
100
AcDbLine
 10
936.8563152635999
 20
449.5443085844
 30
0.0
 11
933.8563152636
 21
450.2943085844
 31
0.0
  0
LINE
  5
656
330
128
100
AcDbEntity
  8
_0-1_PRO0
  6
Continuous
 62
     0
100
AcDbLine
 10
886.8563142636
 20
449.5443085844
 30
0.0
 11
889.8563142636
 21
450.2943085844
 31
0.0
  0
LINE
  5
657
330
128
100
AcDbEntity
  8
_0-1_PRO0
  6
Continuous
 62
     0
100
AcDbLine
 10
886.8563142636
 20
449.5443085844
 30
0.0
 11
889.8563142636
 21
448.7943085844
 31
0.0
  0
LINE
  5
658
330
128
100
AcDbEntity
  8
_0-1_PRO0
  6
Continuous
 62
     0
100
AcDbLine
 10
886.8563142636
 20
449.5443085844
 30
0.0
 11
936.8563152635999
 21
449.5443085844
 31
0.0
  0
LINE
  5
659
330
128
100
AcDbEntity
  8
_0-1_PRO0
  6
Continuous
 62
     0
100
AcDbLine
 10
406.8563162635999
 20
437.9249215844
 30
0.0
 11
406.8563162635999
 21
348.273718004
 31
0.0
  0
LINE
  5
65A
330
128
100
AcDbEntity
  8
_0-1_PRO0
  6
Continuous
 62
     0
100
AcDbLine
 10
276.8563152636
 20
437.9249215844
 30
0.0
 11
276.8563152636
 21
348.273718004
 31
0.0
  0
LINE
  5
65B
330
128
100
AcDbEntity
  8
_0-1_PRO0
  6
Continuous
 62
     0
100
AcDbLine
 10
806.8563142636
 20
437.9249215844
 30
0.0
 11
806.8563142636
 21
348.273718004
 31
0.0
  0
LINE
  5
65C
330
128
100
AcDbEntity
  8
_0-1_PRO0
  6
Continuous
 62
     0
100
AcDbLine
 10
936.8563152635999
 20
437.9249215844
 30
0.0
 11
936.8563152635999
 21
348.273718004
 31
0.0
  0
LINE
  5
65D
330
128
100
AcDbEntity
  8
_1-0_
  6
Continuous
 62
     0
100
AcDbLine
 10
331.620747978
 20
657.9048550272
 30
0.0
 11
322.433355978
 21
657.4233640272
 31
0.0
  0
LINE
  5
65E
330
128
100
AcDbEntity
  8
_2-0_
  6
Continuous
 62
     0
100
AcDbLine
 10
341.838642978
 20
641.9009144988999
 30
0.0
 11
341.4126654497
 21
642.3268920272
 31
0.0
  0
ARC
  5
65F
330
128
100
AcDbEntity
  8
_2-0_
  6
Continuous
 62
     0
100
AcDbCircle
 10
341.838642978
 20
634.0768920271999
 30
0.0
 40
8.25
100
AcDbArc
 50
71.07535558394999
 51
90.0
  0
ARC
  5
660
330
128
100
AcDbEntity
  8
_2-0_
  6
Continuous
 62
     0
100
AcDbCircle
 10
341.838642978
 20
634.0768920271999
 30
0.0
 40
9.25
100
AcDbArc
 50
71.07535558394999
 51
90.0
  0
ARC
  5
661
330
128
100
AcDbEntity
  8
_2-0_
  6
Continuous
 62
     0
100
AcDbCircle
 10
347.838642978
 20
651.5768920271999
 30
0.0
 40
9.25
100
AcDbArc
 50
-108.9246444161
 51
-90.0
  0
LINE
  5
662
330
128
100
AcDbEntity
  8
_1-0_
  6
Continuous
 62
     0
100
AcDbLine
 10
326.8563162636
 20
595.8934910271999
 30
0.0
 11
326.8563162636
 21
641.3268920271999
 31
0.0
  0
LINE
  5
663
330
128
100
AcDbEntity
  8
_1-0_
  6
Continuous
 62
     0
100
AcDbLine
 10
322.1063142636
 20
632.3268920271999
 30
0.0
 11
322.8063162636
 21
633.0268910272
 31
0.0
  0
LINE
  5
664
330
128
100
AcDbEntity
  8
_1-0_
  6
Continuous
 62
     0
100
AcDbLine
 10
322.8063162636
 20
642.3268910272
 30
0.0
 11
322.8063162636
 21
633.0268910272
 31
0.0
  0
LINE
  5
665
330
128
100
AcDbEntity
  8
_1-0_
  6
Continuous
 62
     0
100
AcDbLine
 10
322.1063142636
 20
613.6987190272
 30
0.0
 11
322.1063142636
 21
632.3268920271999
 31
0.0
  0
LINE
  5
666
330
128
100
AcDbEntity
  8
_1-0_
  6
Continuous
 62
     0
100
AcDbLine
 10
322.3563162636
 20
601.8268910271999
 30
0.0
 11
322.3563162636
 21
602.6901950272
 31
0.0
  0
LINE
  5
667
330
128
100
AcDbEntity
  8
_1-0_
  6
Continuous
 62
     0
100
AcDbLine
 10
320.2312842636
 20
603.0648950271999
 30
0.0
 11
322.1063142636
 21
613.6987190272
 31
0.0
  0
LINE
  5
668
330
128
100
AcDbEntity
  8
_1-0_
  6
Continuous
 62
     0
100
AcDbLine
 10
326.3563152636
 20
613.3268900272
 30
0.0
 11
327.3563142636
 21
613.3268900272
 31
0.0
  0
LINE
  5
669
330
128
100
AcDbEntity
  8
_1-0_
  6
Continuous
 62
     0
100
AcDbLine
 10
331.6063152636
 20
632.3268920271999
 30
0.0
 11
330.9063162636
 21
633.0268910272
 31
0.0
  0
LINE
  5
66A
330
128
100
AcDbEntity
  8
_1-0_
  6
Continuous
 62
     0
100
AcDbLine
 10
330.9063162636
 20
642.3268910272
 30
0.0
 11
330.9063162636
 21
633.0268910272
 31
0.0
  0
LINE
  5
66B
330
128
100
AcDbEntity
  8
_1-0_
  6
Continuous
 62
     0
100
AcDbLine
 10
331.6063152636
 20
613.6987190272
 30
0.0
 11
331.6063152636
 21
632.3268920271999
 31
0.0
  0
LINE
  5
66C
330
128
100
AcDbEntity
  8
_1-0_
  6
Continuous
 62
     0
100
AcDbLine
 10
330.3563142636
 20
600.8268920272
 30
0.0
 11
323.3563152636
 21
600.8268920272
 31
0.0
  0
ARC
  5
66D
330
128
100
AcDbEntity
  8
_1-0_
  6
Continuous
 62
     0
100
AcDbCircle
 10
330.3563142636
 20
601.8268910271999
 30
0.0
 40
0.999999
100
AcDbArc
 50
-90.0
 51
0.0
  0
LINE
  5
66E
330
128
100
AcDbEntity
  8
_1-0_
  6
Continuous
 62
     0
100
AcDbLine
 10
331.3563162636
 20
601.8268910271999
 30
0.0
 11
331.3563162636
 21
602.6901950272
 31
0.0
  0
LINE
  5
66F
330
128
100
AcDbEntity
  8
_1-0_
  6
Continuous
 62
     0
100
AcDbLine
 10
333.4813452636
 20
603.0648950271999
 30
0.0
 11
329.2959132636
 21
602.3268920271999
 31
0.0
  0
LINE
  5
670
330
128
100
AcDbEntity
  8
_1-0_
  6
Continuous
 62
     0
100
AcDbLine
 10
326.3563152636
 20
613.3268900272
 30
0.0
 11
324.4167192636
 21
602.3268920271999
 31
0.0
  0
LINE
  5
671
330
128
100
AcDbEntity
  8
_1-0_
  6
Continuous
 62
     0
100
AcDbLine
 10
327.3563142636
 20
613.3268900272
 30
0.0
 11
329.2959132636
 21
602.3268920271999
 31
0.0
  0
LINE
  5
672
330
128
100
AcDbEntity
  8
_1-0_
  6
Continuous
 62
     0
100
AcDbLine
 10
333.4813452636
 20
603.0648950271999
 30
0.0
 11
331.6063152636
 21
613.6987190272
 31
0.0
  0
LINE
  5
673
330
128
100
AcDbEntity
  8
_1-0_
  6
Continuous
 62
     0
100
AcDbLine
 10
322.1063142636
 20
632.3268920271999
 30
0.0
 11
331.6063152636
 21
632.3268920271999
 31
0.0
  0
LINE
  5
674
330
128
100
AcDbEntity
  8
_1-0_
  6
Continuous
 62
     0
100
AcDbLine
 10
322.8063162636
 20
633.0268910272
 30
0.0
 11
330.9063162636
 21
633.0268910272
 31
0.0
  0
LINE
  5
675
330
128
100
AcDbEntity
  8
_1-0_
  6
Continuous
 62
     0
100
AcDbLine
 10
320.2312842636
 20
603.0648950271999
 30
0.0
 11
324.4167192636
 21
602.3268920271999
 31
0.0
  0
ARC
  5
676
330
128
100
AcDbEntity
  8
_1-0_
  6
Continuous
 62
     0
100
AcDbCircle
 10
323.3563152636
 20
601.8268910271999
 30
0.0
 40
0.999999
100
AcDbArc
 50
180.0
 51
270.0
  0
LINE
  5
677
330
128
100
AcDbEntity
  8
_2-0_
  6
Continuous
 62
     0
100
AcDbLine
 10
340.9984518874
 20
641.3268920271999
 30
0.0
 11
339.9984518874
 21
642.3268920272
 31
0.0
  0
LINE
  5
678
330
128
100
AcDbEntity
  8
_2-0_
  6
Continuous
 62
     0
100
AcDbLine
 10
339.584238325
 20
641.3268920271999
 30
0.0
 11
338.584238325
 21
642.3268920272
 31
0.0
  0
LINE
  5
679
330
128
100
AcDbEntity
  8
_2-0_
  6
Continuous
 62
     0
100
AcDbLine
 10
338.1700247626
 20
641.3268920271999
 30
0.0
 11
337.1700247626
 21
642.3268920272
 31
0.0
  0
LINE
  5
67A
330
128
100
AcDbEntity
  8
_2-0_
  6
Continuous
 62
     0
100
AcDbLine
 10
336.7558112002
 20
641.3268920271999
 30
0.0
 11
335.7558112002
 21
642.3268920272
 31
0.0
  0
LINE
  5
67B
330
128
100
AcDbEntity
  8
_2-0_
  6
Continuous
 62
     0
100
AcDbLine
 10
335.3415976379
 20
641.3268920271999
 30
0.0
 11
334.3415976379
 21
642.3268920272
 31
0.0
  0
LINE
  5
67C
330
128
100
AcDbEntity
  8
_2-0_
  6
Continuous
 62
     0
100
AcDbLine
 10
333.9273840755
 20
641.3268920271999
 30
0.0
 11
332.9273840755
 21
642.3268920272
 31
0.0
  0
LINE
  5
67D
330
128
100
AcDbEntity
  8
_2-0_
  6
Continuous
 62
     0
100
AcDbLine
 10
332.5131705131
 20
641.3268920271999
 30
0.0
 11
331.5131705131
 21
642.3268920272
 31
0.0
  0
LINE
  5
67E
330
128
100
AcDbEntity
  8
_2-0_
  6
Continuous
 62
     0
100
AcDbLine
 10
331.0989569508
 20
641.3268920271999
 30
0.0
 11
330.0989569508
 21
642.3268920272
 31
0.0
  0
LINE
  5
67F
330
128
100
AcDbEntity
  8
_2-0_
  6
Continuous
 62
     0
100
AcDbLine
 10
329.6847433884
 20
641.3268920271999
 30
0.0
 11
328.6847433884
 21
642.3268920272
 31
0.0
  0
LINE
  5
680
330
128
100
AcDbEntity
  8
_2-0_
  6
Continuous
 62
     0
100
AcDbLine
 10
328.270529826
 20
641.3268920271999
 30
0.0
 11
327.270529826
 21
642.3268920272
 31
0.0
  0
LINE
  5
681
330
128
100
AcDbEntity
  8
_2-0_
  6
Continuous
 62
     0
100
AcDbLine
 10
326.8563162636
 20
641.3268920271999
 30
0.0
 11
325.8563162636
 21
642.3268920272
 31
0.0
  0
LINE
  5
682
330
128
100
AcDbEntity
  8
_2-0_
  6
Continuous
 62
     0
100
AcDbLine
 10
325.4421027013
 20
641.3268920271999
 30
0.0
 11
324.4421027013
 21
642.3268920272
 31
0.0
  0
LINE
  5
683
330
128
100
AcDbEntity
  8
_2-0_
  6
Continuous
 62
     0
100
AcDbLine
 10
324.0278891389
 20
641.3268920271999
 30
0.0
 11
323.0278891389
 21
642.3268920272
 31
0.0
  0
LINE
  5
684
330
128
100
AcDbEntity
  8
_2-0_
  6
Continuous
 62
     0
100
AcDbLine
 10
322.6136755765001
 20
641.3268920271999
 30
0.0
 11
321.6136755765
 21
642.3268920272
 31
0.0
  0
LINE
  5
685
330
128
100
AcDbEntity
  8
_2-0_
  6
Continuous
 62
     0
100
AcDbLine
 10
321.1994620141
 20
641.3268920271999
 30
0.0
 11
320.1994620141
 21
642.3268920272
 31
0.0
  0
LINE
  5
686
330
128
100
AcDbEntity
  8
_2-0_
  6
Continuous
 62
     0
100
AcDbLine
 10
319.7852484518
 20
641.3268920271999
 30
0.0
 11
318.7852484518
 21
642.3268920272
 31
0.0
  0
LINE
  5
687
330
128
100
AcDbEntity
  8
_2-0_
  6
Continuous
 62
     0
100
AcDbLine
 10
318.3710348894
 20
641.3268920271999
 30
0.0
 11
317.3710348894
 21
642.3268920272
 31
0.0
  0
LINE
  5
688
330
128
100
AcDbEntity
  8
_2-0_
  6
Continuous
 62
     0
100
AcDbLine
 10
316.956821327
 20
641.3268920271999
 30
0.0
 11
315.956821327
 21
642.3268920272
 31
0.0
  0
LINE
  5
689
330
128
100
AcDbEntity
  8
_2-0_
  6
Continuous
 62
     0
100
AcDbLine
 10
315.5426077646
 20
641.3268920271999
 30
0.0
 11
314.5426077646
 21
642.3268920272
 31
0.0
  0
LINE
  5
68A
330
128
100
AcDbEntity
  8
_2-0_
  6
Continuous
 62
     0
100
AcDbLine
 10
314.1283942023
 20
641.3268920271999
 30
0.0
 11
313.1283942023
 21
642.3268920272
 31
0.0
  0
LINE
  5
68B
330
128
100
AcDbEntity
  8
_2-0_
  6
Continuous
 62
     0
100
AcDbLine
 10
312.7141806399
 20
641.3268920271999
 30
0.0
 11
311.838642978
 21
642.202429689
 31
0.0
  0
LINE
  5
68C
330
128
100
AcDbEntity
  8
_2-0_
  6
Continuous
 62
     0
100
AcDbLine
 10
311.838642978
 20
641.3268920271999
 30
0.0
 11
341.838642978
 21
641.3268920271999
 31
0.0
  0
LINE
  5
68D
330
128
100
AcDbEntity
  8
_2-0_
  6
Continuous
 62
     0
100
AcDbLine
 10
341.838642978
 20
641.3268920271999
 30
0.0
 11
341.838642978
 21
642.3268920272
 31
0.0
  0
LINE
  5
68E
330
128
100
AcDbEntity
  8
_2-0_
  6
Continuous
 62
     0
100
AcDbLine
 10
341.838642978
 20
642.3268920272
 30
0.0
 11
311.838642978
 21
642.3268920272
 31
0.0
  0
LINE
  5
68F
330
128
100
AcDbEntity
  8
_2-0_
  6
Continuous
 62
     0
100
AcDbLine
 10
311.838642978
 20
642.3268920272
 30
0.0
 11
311.838642978
 21
641.3268920271999
 31
0.0
  0
ARC
  5
690
330
128
100
AcDbEntity
  8
_2-0_
  6
Continuous
 62
     0
100
AcDbCircle
 10
347.838642978
 20
651.5768920271999
 30
0.0
 40
10.25
100
AcDbArc
 50
-108.9246444161
 51
-90.0
  0
LINE
  5
691
330
128
100
AcDbEntity
  8
_1-0_
  6
Continuous
 62
     0
100
AcDbLine
 10
317.838642978
 20
647.4356620272
 30
0.0
 11
317.838642978
 21
645.8356630272
 31
0.0
  0
LINE
  5
692
330
128
100
AcDbEntity
  8
_1-0_
  6
Continuous
 62
     0
100
AcDbLine
 10
317.838642978
 20
647.4356620272
 30
0.0
 11
335.838642978
 21
647.4356620272
 31
0.0
  0
LINE
  5
693
330
128
100
AcDbEntity
  8
_1-0_
  6
Continuous
 62
     0
100
AcDbLine
 10
335.838642978
 20
647.4356620272
 30
0.0
 11
335.838642978
 21
645.8356630272
 31
0.0
  0
LINE
  5
694
330
128
100
AcDbEntity
  8
_1-0_
  6
Continuous
 62
     0
100
AcDbLine
 10
332.718642978
 20
651.6987250271999
 30
0.0
 11
332.718642978
 21
647.4356620272
 31
0.0
  0
LINE
  5
695
330
128
100
AcDbEntity
  8
_1-0_
  6
Continuous
 62
     0
100
AcDbLine
 10
331.788642978
 20
652.2356620271999
 30
0.0
 11
332.718642978
 21
651.6987250271999
 31
0.0
  0
ARC
  5
696
330
128
100
AcDbEntity
  8
_1-0_
  6
Continuous
 62
     0
100
AcDbCircle
 10
331.788642978
 20
648.4262680271999
 30
0.0
 40
3.809394
100
AcDbArc
 50
90.0
 51
120.789964
  0
ARC
  5
697
330
128
100
AcDbEntity
  8
_1-0_
  6
Continuous
 62
     0
100
AcDbCircle
 10
326.838642978
 20
643.5863020271999
 30
0.0
 40
8.649359999999999
100
AcDbArc
 50
69.70544499999999
 51
110.294555
  0
LINE
  5
698
330
128
100
AcDbEntity
  8
_1-0_
  6
Continuous
 62
     0
100
AcDbLine
 10
329.838642978
 20
651.6987250271999
 30
0.0
 11
329.838642978
 21
647.4356620272
 31
0.0
  0
LINE
  5
699
330
128
100
AcDbEntity
  8
_1-0_
  6
Continuous
 62
     0
100
AcDbLine
 10
323.838642978
 20
651.6987250271999
 30
0.0
 11
323.838642978
 21
647.4356620272
 31
0.0
  0
LINE
  5
69A
330
128
100
AcDbEntity
  8
_1-0_
  6
Continuous
 62
     0
100
AcDbLine
 10
320.958642978
 20
651.6987250271999
 30
0.0
 11
320.958642978
 21
647.4356620272
 31
0.0
  0
LINE
  5
69B
330
128
100
AcDbEntity
  8
_1-0_
  6
Continuous
 62
     0
100
AcDbLine
 10
321.888642978
 20
652.2356620271999
 30
0.0
 11
320.958642978
 21
651.6987250271999
 31
0.0
  0
LINE
  5
69C
330
128
100
AcDbEntity
  8
_1-0_
  6
Continuous
 62
     0
100
AcDbLine
 10
331.788642978
 20
652.2356620271999
 30
0.0
 11
321.888642978
 21
652.2356620271999
 31
0.0
  0
ARC
  5
69D
330
128
100
AcDbEntity
  8
_1-0_
  6
Continuous
 62
     0
100
AcDbCircle
 10
321.888642978
 20
648.4262680271999
 30
0.0
 40
3.809394
100
AcDbArc
 50
59.21003599999999
 51
90.0
  0
LINE
  5
69E
330
128
100
AcDbEntity
  8
_1-0_
  6
Continuous
 62
     0
100
AcDbLine
 10
331.568412978
 20
658.9034860272
 30
0.0
 11
331.620747978
 21
657.9048550272
 31
0.0
  0
LINE
  5
69F
330
128
100
AcDbEntity
  8
_1-0_
  6
Continuous
 62
     0
100
AcDbLine
 10
322.381020978
 20
658.4219950272
 30
0.0
 11
322.433355978
 21
657.4233640272
 31
0.0
  0
ARC
  5
6A0
330
128
100
AcDbEntity
  8
_1-0_
  6
Continuous
 62
     0
100
AcDbCircle
 10
332.567040978
 20
658.9558210272
 30
0.0
 40
0.999999
100
AcDbArc
 50
93.0
 51
183.0
  0
ARC
  5
6A1
330
128
100
AcDbEntity
  8
_1-0_
  6
Continuous
 62
     0
100
AcDbCircle
 10
321.382389978
 20
658.3696570272
 30
0.0
 40
0.999999
100
AcDbArc
 50
3.000000000005
 51
93.0
  0
ARC
  5
6A2
330
128
100
AcDbEntity
  8
_1-0_
  6
Continuous
 62
     0
100
AcDbCircle
 10
338.838642978
 20
652.8356620271999
 30
0.0
 40
0.999999
100
AcDbArc
 50
180.0
 51
270.0
  0
LINE
  5
6A3
330
128
100
AcDbEntity
  8
_1-0_
  6
Continuous
 62
     0
100
AcDbLine
 10
338.838642978
 20
651.8356630271999
 30
0.0
 11
343.038642978
 21
651.8356630271999
 31
0.0
  0
ARC
  5
6A4
330
128
100
AcDbEntity
  8
_1-0_
  6
Continuous
 62
     0
100
AcDbCircle
 10
335.238642978
 20
659.0958340272
 30
0.0
 40
0.999999
100
AcDbArc
 50
0.0
 51
93.0
  0
LINE
  5
6A5
330
128
100
AcDbEntity
  8
_1-0_
  6
Continuous
 62
     0
100
AcDbLine
 10
318.386307978
 20
659.2140130272
 30
0.0
 11
335.186307978
 21
660.0944620272001
 31
0.0
  0
ARC
  5
6A6
330
128
100
AcDbEntity
  8
_1-0_
  6
Continuous
 62
     0
100
AcDbCircle
 10
318.438642978
 20
658.2153820272
 30
0.0
 40
0.999999
100
AcDbArc
 50
93.0
 51
180.0
  0
LINE
  5
6A7
330
128
100
AcDbEntity
  8
_1-0_
  6
Continuous
 62
     0
100
AcDbLine
 10
314.838642978
 20
651.8356630271999
 30
0.0
 11
310.638642978
 21
651.8356630271999
 31
0.0
  0
ARC
  5
6A8
330
128
100
AcDbEntity
  8
_1-0_
  6
Continuous
 62
     0
100
AcDbCircle
 10
314.838642978
 20
652.8356620271999
 30
0.0
 40
0.999999
100
AcDbArc
 50
-90.0
 51
0.0
  0
LINE
  5
6A9
330
128
100
AcDbEntity
  8
_1-0_
  6
Continuous
 62
     0
100
AcDbLine
 10
336.238641978
 20
652.8356620271999
 30
0.0
 11
336.238641978
 21
659.0958340272
 31
0.0
  0
ARC
  5
6AA
330
128
100
AcDbEntity
  8
_1-0_
  6
Continuous
 62
     0
100
AcDbCircle
 10
338.838642978
 20
652.8356620271999
 30
0.0
 40
2.600000999999999
100
AcDbArc
 50
180.0
 51
270.0
  0
LINE
  5
6AB
330
128
100
AcDbEntity
  8
_1-0_
  6
Continuous
 62
     0
100
AcDbLine
 10
338.838642978
 20
650.2356610271999
 30
0.0
 11
343.338642978
 21
650.2356610271999
 31
0.0
  0
LINE
  5
6AC
330
128
100
AcDbEntity
  8
_1-0_
  6
Continuous
 62
     0
100
AcDbLine
 10
337.838643978
 20
659.0958340272
 30
0.0
 11
337.838643978
 21
652.8356620271999
 31
0.0
  0
ARC
  5
6AD
330
128
100
AcDbEntity
  8
_1-0_
  6
Continuous
 62
     0
100
AcDbCircle
 10
335.238642978
 20
659.0958340272
 30
0.0
 40
2.600000999999999
100
AcDbArc
 50
0.0
 51
93.0
  0
LINE
  5
6AE
330
128
100
AcDbEntity
  8
_1-0_
  6
Continuous
 62
     0
100
AcDbLine
 10
315.838641978
 20
658.2153820272
 30
0.0
 11
315.838641978
 21
652.8356620271999
 31
0.0
  0
ARC
  5
6AF
330
128
100
AcDbEntity
  8
_1-0_
  6
Continuous
 62
     0
100
AcDbCircle
 10
318.438642978
 20
658.2153820272
 30
0.0
 40
2.600000999999999
100
AcDbArc
 50
93.0
 51
180.0
  0
LINE
  5
6B0
330
128
100
AcDbEntity
  8
_1-0_
  6
Continuous
 62
     0
100
AcDbLine
 10
318.302568978
 20
660.8118190272
 30
0.0
 11
335.102568978
 21
661.6922710272
 31
0.0
  0
LINE
  5
6B1
330
128
100
AcDbEntity
  8
_1-0_
  6
Continuous
 62
     0
100
AcDbLine
 10
317.438643978
 20
652.8356620271999
 30
0.0
 11
317.438643978
 21
658.2153820272
 31
0.0
  0
ARC
  5
6B2
330
128
100
AcDbEntity
  8
_1-0_
  6
Continuous
 62
     0
100
AcDbCircle
 10
314.838642978
 20
652.8356620271999
 30
0.0
 40
2.600000999999999
100
AcDbArc
 50
-90.0
 51
0.0
  0
LINE
  5
6B3
330
128
100
AcDbEntity
  8
_1-0_
  6
Continuous
 62
     0
100
AcDbLine
 10
314.838642978
 20
650.2356610271999
 30
0.0
 11
310.338642978
 21
650.2356610271999
 31
0.0
  0
LINE
  5
6B4
330
128
100
AcDbEntity
  8
_1-0_
  6
Continuous
 62
     0
100
AcDbLine
 10
310.638642978
 20
649.3356610272
 30
0.0
 11
312.588642978
 21
649.3356610272
 31
0.0
  0
ARC
  5
6B5
330
128
100
AcDbEntity
  8
_1-0_
  6
Continuous
 62
     0
100
AcDbCircle
 10
310.638642978
 20
649.6356610272
 30
0.0
 40
0.3
100
AcDbArc
 50
180.0
 51
270.0
  0
ARC
  5
6B6
330
128
100
AcDbEntity
  8
_1-0_
  6
Continuous
 62
     0
100
AcDbCircle
 10
310.638642978
 20
651.5356630272
 30
0.0
 40
0.3
100
AcDbArc
 50
90.0
 51
180.0
  0
LINE
  5
6B7
330
128
100
AcDbEntity
  8
_1-0_
  6
Continuous
 62
     0
100
AcDbLine
 10
327.338643978
 20
645.8356630272
 30
0.0
 11
326.838642978
 21
645.3356620272
 31
0.0
  0
LINE
  5
6B8
330
128
100
AcDbEntity
  8
_1-0_
  6
Continuous
 62
     0
100
AcDbLine
 10
326.338641978
 20
645.8356630272
 30
0.0
 11
326.838642978
 21
645.3356620272
 31
0.0
  0
LINE
  5
6B9
330
128
100
AcDbEntity
  8
_1-0_
  6
Continuous
 62
     0
100
AcDbLine
 10
331.838643978
 20
643.8356620271999
 30
0.0
 11
331.838643978
 21
643.3356610271999
 31
0.0
  0
LINE
  5
6BA
330
128
100
AcDbEntity
  8
_1-0_
  6
Continuous
 62
     0
100
AcDbLine
 10
310.838643978
 20
653.3356630272
 30
0.0
 11
313.588641978
 21
653.3356630272
 31
0.0
  0
ARC
  5
6BB
330
128
100
AcDbEntity
  8
_1-0_
  6
Continuous
 62
     0
100
AcDbCircle
 10
310.838643978
 20
653.8356610272
 30
0.0
 40
0.5000010000000001
100
AcDbArc
 50
180.0
 51
270.0
  0
ARC
  5
6BC
330
128
100
AcDbEntity
  8
_1-0_
  6
Continuous
 62
     0
100
AcDbCircle
 10
313.588641978
 20
652.5856630272
 30
0.0
 40
0.75
100
AcDbArc
 50
-90.0
 51
90.0
  0
LINE
  5
6BD
330
128
100
AcDbEntity
  8
_1-0_
  6
Continuous
 62
     0
100
AcDbLine
 10
321.838641978
 20
643.8356620271999
 30
0.0
 11
310.338642978
 21
643.8356620271999
 31
0.0
  0
LINE
  5
6BE
330
128
100
AcDbEntity
  8
_1-0_
  6
Continuous
 62
     0
100
AcDbLine
 10
321.838641978
 20
643.8356620271999
 30
0.0
 11
321.838641978
 21
643.3356610271999
 31
0.0
  0
ARC
  5
6BF
330
128
100
AcDbEntity
  8
_1-0_
  6
Continuous
 62
     0
100
AcDbCircle
 10
312.588642978
 20
648.5856610272
 30
0.0
 40
0.75
100
AcDbArc
 50
-90.0
 51
90.0
  0
LINE
  5
6C0
330
128
100
AcDbEntity
  8
_1-0_
  6
Continuous
 62
     0
100
AcDbLine
 10
310.638642978
 20
647.8356610271999
 30
0.0
 11
312.588642978
 21
647.8356610271999
 31
0.0
  0
ARC
  5
6C1
330
128
100
AcDbEntity
  8
_1-0_
  6
Continuous
 62
     0
100
AcDbCircle
 10
310.638642978
 20
647.5356610272
 30
0.0
 40
0.3
100
AcDbArc
 50
90.0
 51
180.0
  0
LINE
  5
6C2
330
128
100
AcDbEntity
  8
_1-0_
  6
Continuous
 62
     0
100
AcDbLine
 10
343.338642978
 20
643.8356620271999
 30
0.0
 11
331.838643978
 21
643.8356620271999
 31
0.0
  0
LINE
  5
6C3
330
128
100
AcDbEntity
  8
_1-0_
  6
Continuous
 62
     0
100
AcDbLine
 10
343.038642978
 20
649.3356610272
 30
0.0
 11
341.088642978
 21
649.3356610272
 31
0.0
  0
ARC
  5
6C4
330
128
100
AcDbEntity
  8
_1-0_
  6
Continuous
 62
     0
100
AcDbCircle
 10
343.038642978
 20
649.6356610272
 30
0.0
 40
0.3
100
AcDbArc
 50
-90.0
 51
0.0
  0
LINE
  5
6C5
330
128
100
AcDbEntity
  8
_1-0_
  6
Continuous
 62
     0
100
AcDbLine
 10
343.338642978
 20
649.6356610272
 30
0.0
 11
343.338642978
 21
651.5356630272
 31
0.0
  0
ARC
  5
6C6
330
128
100
AcDbEntity
  8
_1-0_
  6
Continuous
 62
     0
100
AcDbCircle
 10
343.038642978
 20
651.5356630272
 30
0.0
 40
0.3
100
AcDbArc
 50
0.0
 51
90.0
  0
LINE
  5
6C7
330
128
100
AcDbEntity
  8
_1-0_
  6
Continuous
 62
     0
100
AcDbLine
 10
344.3386419780001
 20
653.3356630272
 30
0.0
 11
340.088643978
 21
653.3356630272
 31
0.0
  0
ARC
  5
6C8
330
128
100
AcDbEntity
  8
_1-0_
  6
Continuous
 62
     0
100
AcDbCircle
 10
344.3386419780001
 20
652.8356620271999
 30
0.0
 40
0.5000010000000001
100
AcDbArc
 50
0.0
 51
90.0
  0
ARC
  5
6C9
330
128
100
AcDbEntity
  8
_1-0_
  6
Continuous
 62
     0
100
AcDbCircle
 10
340.088643978
 20
652.5856630272
 30
0.0
 40
0.75
100
AcDbArc
 50
90.0
 51
270.0
  0
LINE
  5
6CA
330
128
100
AcDbEntity
  8
_1-0_
  6
Continuous
 62
     0
100
AcDbLine
 10
344.8386429780001
 20
652.8356620271999
 30
0.0
 11
344.8386429780001
 21
643.3356610271999
 31
0.0
  0
LINE
  5
6CB
330
128
100
AcDbEntity
  8
_1-0_
  6
Continuous
 62
     0
100
AcDbLine
 10
343.338642978
 20
643.8356620271999
 30
0.0
 11
343.338642978
 21
643.3356610271999
 31
0.0
  0
ARC
  5
6CC
330
128
100
AcDbEntity
  8
_1-0_
  6
Continuous
 62
     0
100
AcDbCircle
 10
341.088642978
 20
648.5856610272
 30
0.0
 40
0.75
100
AcDbArc
 50
90.0
 51
270.0
  0
ARC
  5
6CD
330
128
100
AcDbEntity
  8
_1-0_
  6
Continuous
 62
     0
100
AcDbCircle
 10
343.038642978
 20
646.1356630272
 30
0.0
 40
0.3
100
AcDbArc
 50
-90.0
 51
0.0
  0
LINE
  5
6CE
330
128
100
AcDbEntity
  8
_1-0_
  6
Continuous
 62
     0
100
AcDbLine
 10
343.338642978
 20
646.1356630272
 30
0.0
 11
343.338642978
 21
647.5356610272
 31
0.0
  0
ARC
  5
6CF
330
128
100
AcDbEntity
  8
_1-0_
  6
Continuous
 62
     0
100
AcDbCircle
 10
343.038642978
 20
647.5356610272
 30
0.0
 40
0.3
100
AcDbArc
 50
0.0
 51
90.0
  0
LINE
  5
6D0
330
128
100
AcDbEntity
  8
_1-0_
  6
Continuous
 62
     0
100
AcDbLine
 10
343.038642978
 20
647.8356610271999
 30
0.0
 11
341.088642978
 21
647.8356610271999
 31
0.0
  0
ARC
  5
6D1
330
128
100
AcDbEntity
  8
_1-0_
  6
Continuous
 62
     0
100
AcDbCircle
 10
310.838643978
 20
646.3356610272
 30
0.0
 40
0.5000010000000001
100
AcDbArc
 50
180.0
 51
270.0
  0
LINE
  5
6D2
330
128
100
AcDbEntity
  8
_1-0_
  6
Continuous
 62
     0
100
AcDbLine
 10
310.838643978
 20
645.8356630272
 30
0.0
 11
343.038642978
 21
645.8356630272
 31
0.0
  0
LINE
  5
6D3
330
128
100
AcDbEntity
  8
_2-0_
  6
Continuous
 62
     0
100
AcDbLine
 10
343.338642978
 20
643.3356610271999
 30
0.0
 11
344.8386429780001
 21
643.3356610271999
 31
0.0
  0
ARC
  5
6D4
330
128
100
AcDbEntity
  8
_0-0_
  6
Continuous
 62
     0
100
AcDbCircle
 10
309.338643978
 20
661.3356610271999
 30
0.0
 40
0.999999
100
AcDbArc
 50
0.0
 51
180.0
  0
LINE
  5
6D5
330
128
100
AcDbEntity
  8
_0-0_
  6
Continuous
 62
     0
100
AcDbLine
 10
310.338642978
 20
653.8356610272
 30
0.0
 11
310.338642978
 21
661.3356610271999
 31
0.0
  0
LINE
  5
6D6
330
128
100
AcDbEntity
  8
_0-0_
  6
Continuous
 62
     0
100
AcDbLine
 10
310.338642978
 20
649.6356610272
 30
0.0
 11
310.338642978
 21
651.5356630272
 31
0.0
  0
ARC
  5
6D7
330
128
100
AcDbEntity
  8
_0-0_
  6
Continuous
 62
     0
100
AcDbCircle
 10
307.838643978
 20
646.3356610272
 30
0.0
 40
0.5000010000000001
100
AcDbArc
 50
-90.0
 51
0.0
  0
LINE
  5
6D8
330
128
100
AcDbEntity
  8
_0-0_
  6
Continuous
 62
     0
100
AcDbLine
 10
308.338641978
 20
644.3356630271999
 30
0.0
 11
308.338641978
 21
643.3356610271999
 31
0.0
  0
LINE
  5
6D9
330
128
100
AcDbEntity
  8
_0-0_
  6
Continuous
 62
     0
100
AcDbLine
 10
310.338642978
 20
643.8356620271999
 30
0.0
 11
310.338642978
 21
643.3356610271999
 31
0.0
  0
LINE
  5
6DA
330
128
100
AcDbEntity
  8
_0-0_
  6
Continuous
 62
     0
100
AcDbLine
 10
310.338642978
 20
646.3356610272
 30
0.0
 11
310.338642978
 21
647.5356610272
 31
0.0
  0
LINE
  5
6DB
330
128
100
AcDbEntity
  8
_0-0_
  6
Continuous
 62
     0
100
AcDbLine
 10
297.838641978
 20
644.3356630271999
 30
0.0
 11
297.838641978
 21
643.3356610271999
 31
0.0
  0
LINE
  5
6DC
330
128
100
AcDbEntity
  8
_0-0_
  6
Continuous
 62
     0
100
AcDbLine
 10
296.338641978
 20
643.3356610271999
 30
0.0
 11
297.838641978
 21
643.3356610271999
 31
0.0
  0
LINE
  5
6DD
330
128
100
AcDbEntity
  8
_0-0_
  6
Continuous
 62
     0
100
AcDbLine
 10
308.338641978
 20
643.3356610271999
 30
0.0
 11
310.338642978
 21
643.3356610271999
 31
0.0
  0
LINE
  5
6DE
330
128
100
AcDbEntity
  8
_0-0_
  6
Continuous
 62
     0
100
AcDbLine
 10
296.338641978
 20
645.3356630272
 30
0.0
 11
296.338641978
 21
643.3356610271999
 31
0.0
  0
ARC
  5
6DF
330
128
100
AcDbEntity
  8
_0-0_
  6
Continuous
 62
     0
100
AcDbCircle
 10
296.838641978
 20
645.3356630272
 30
0.0
 40
0.5
100
AcDbArc
 50
90.0
 51
180.0
  0
LINE
  5
6E0
330
128
100
AcDbEntity
  8
_0-0_
  6
Continuous
 62
     0
100
AcDbLine
 10
308.088641978
 20
649.0856630271999
 30
0.0
 11
306.838641978
 21
649.0856630271999
 31
0.0
  0
LINE
  5
6E1
330
128
100
AcDbEntity
  8
_0-0_
  6
Continuous
 62
     0
100
AcDbLine
 10
303.838641978
 20
649.0856630271999
 30
0.0
 11
302.588641978
 21
649.0856630271999
 31
0.0
  0
ARC
  5
6E2
330
128
100
AcDbEntity
  8
_0-0_
  6
Continuous
 62
     0
100
AcDbCircle
 10
276.9920365057
 20
692.0210556494001
 30
0.0
 40
0.5
100
AcDbArc
 50
101.4095443492
 51
279.1986608952
  0
ARC
  5
6E3
330
128
100
AcDbEntity
  8
_0-0_
  6
Continuous
 62
     0
100
AcDbCircle
 10
281.838641978
 20
668.0052188871
 30
0.0
 40
25.0
100
AcDbArc
 50
0.0
 51
101.4095443492
  0
ARC
  5
6E4
330
128
100
AcDbEntity
  8
_0-0_
  6
Continuous
 62
     0
100
AcDbCircle
 10
280.762696384
 20
668.7368503851001
 30
0.0
 40
23.08754100601
100
AcDbArc
 50
-1.815975820673999
 51
99.19866089519002
  0
LINE
  5
6E5
330
128
100
AcDbEntity
  8
_0-0_
  6
Continuous
 62
     0
100
AcDbLine
 10
308.338641978
 20
644.3356630271999
 30
0.0
 11
300.8326931042
 21
644.3356630271999
 31
0.0
  0
LINE
  5
6E6
330
128
100
AcDbEntity
  8
_0-0_
  6
Continuous
 62
     0
100
AcDbLine
 10
300.8326931042
 20
644.3356630271999
 30
0.0
 11
297.838641978
 21
644.3356630271999
 31
0.0
  0
LINE
  5
6E7
330
128
100
AcDbEntity
  8
_0-0_
  6
Continuous
 62
     0
100
AcDbLine
 10
302.838641978
 20
645.8356630272
 30
0.0
 11
307.838643978
 21
645.8356630272
 31
0.0
  0
LINE
  5
6E8
330
128
100
AcDbEntity
  8
_0-0_
  6
Continuous
 62
     0
100
AcDbLine
 10
296.838641978
 20
645.8356630272
 30
0.0
 11
300.838641978
 21
645.8356630272
 31
0.0
  0
ARC
  5
6E9
330
128
100
AcDbEntity
  8
_0-0_
  6
Continuous
 62
     0
100
AcDbCircle
 10
302.838641978
 20
646.3356630272
 30
0.0
 40
0.25
100
AcDbArc
 50
180.0
 51
270.0
  0
ARC
  5
6EA
330
128
100
AcDbEntity
  8
_0-0_
  6
Continuous
 62
     0
100
AcDbCircle
 10
307.838643978
 20
646.3356610272
 30
0.0
 40
0.250001
100
AcDbArc
 50
-90.0
 51
0.0
  0
LINE
  5
6EB
330
128
100
AcDbEntity
  8
_0-0_
  6
Continuous
 62
     0
100
AcDbLine
 10
302.588641978
 20
646.3356630272
 30
0.0
 11
302.588641978
 21
649.0856630271999
 31
0.0
  0
LINE
  5
6EC
330
128
100
AcDbEntity
  8
_0-0_
  6
Continuous
 62
     0
100
AcDbLine
 10
308.088641978
 20
646.3356610272
 30
0.0
 11
308.088641978
 21
649.0856630271999
 31
0.0
  0
LINE
  5
6ED
330
128
100
AcDbEntity
  8
_0-0_
  6
Continuous
 62
     0
100
AcDbLine
 10
302.838641978
 20
646.0856630271999
 30
0.0
 11
307.838643978
 21
646.0856630271999
 31
0.0
  0
LINE
  5
6EE
330
128
100
AcDbEntity
  8
_0-0_
  6
Continuous
 62
     0
100
AcDbLine
 10
308.338641978
 20
661.3356610271999
 30
0.0
 11
308.338641978
 21
650.8356630271999
 31
0.0
  0
LINE
  5
6EF
330
128
100
AcDbEntity
  8
_0-0_
  6
Continuous
 62
     0
100
AcDbLine
 10
308.338641978
 20
649.3356630272
 30
0.0
 11
308.338641978
 21
646.3356610272
 31
0.0
  0
LINE
  5
6F0
330
128
100
AcDbEntity
  8
_0-0_
  6
Continuous
 62
     0
100
AcDbLine
 10
302.338641978
 20
646.3356630272
 30
0.0
 11
302.338641978
 21
649.3356630272
 31
0.0
  0
LINE
  5
6F1
330
128
100
AcDbEntity
  8
_0-0_
  6
Continuous
 62
     0
100
AcDbLine
 10
300.838641978
 20
650.3356630272
 30
0.0
 11
300.838641978
 21
645.8356630272
 31
0.0
  0
ARC
  5
6F2
330
128
100
AcDbEntity
  8
_0-0_
  6
Continuous
 62
     0
100
AcDbCircle
 10
301.338641978
 20
650.3356630272
 30
0.0
 40
0.5
100
AcDbArc
 50
90.0
 51
180.0
  0
ARC
  5
6F3
330
128
100
AcDbEntity
  8
_0-0_
  6
Continuous
 62
     0
100
AcDbCircle
 10
302.838641978
 20
646.3356630272
 30
0.0
 40
0.5
100
AcDbArc
 50
180.0
 51
270.0
  0
LINE
  5
6F4
330
128
100
AcDbEntity
  8
_0-0_
  6
Continuous
 62
     0
100
AcDbLine
 10
301.338641978
 20
650.8356630271999
 30
0.0
 11
302.588641978
 21
650.8356630271999
 31
0.0
  0
ARC
  5
6F5
330
128
100
AcDbEntity
  8
_0-0_
  6
Continuous
 62
     0
100
AcDbCircle
 10
302.588641978
 20
649.8356630272
 30
0.0
 40
1.0
100
AcDbArc
 50
0.0
 51
90.0
  0
LINE
  5
6F6
330
128
100
AcDbEntity
  8
_0-0_
  6
Continuous
 62
     0
100
AcDbLine
 10
303.588641978
 20
649.8356630272
 30
0.0
 11
303.588641978
 21
649.3356630272
 31
0.0
  0
LINE
  5
6F7
330
128
100
AcDbEntity
  8
_0-0_
  6
Continuous
 62
     0
100
AcDbLine
 10
303.588641978
 20
649.3356630272
 30
0.0
 11
302.338641978
 21
649.3356630272
 31
0.0
  0
LINE
  5
6F8
330
128
100
AcDbEntity
  8
_0-0_
  6
Continuous
 62
     0
100
AcDbLine
 10
308.338641978
 20
649.3356630272
 30
0.0
 11
307.088641978
 21
649.3356630272
 31
0.0
  0
LINE
  5
6F9
330
128
100
AcDbEntity
  8
_0-0_
  6
Continuous
 62
     0
100
AcDbLine
 10
307.088641978
 20
649.8356630272
 30
0.0
 11
307.088641978
 21
649.3356630272
 31
0.0
  0
ARC
  5
6FA
330
128
100
AcDbEntity
  8
_0-0_
  6
Continuous
 62
     0
100
AcDbCircle
 10
308.088641978
 20
649.8356630272
 30
0.0
 40
1.0
100
AcDbArc
 50
90.0
 51
180.0
  0
LINE
  5
6FB
330
128
100
AcDbEntity
  8
_0-0_
  6
Continuous
 62
     0
100
AcDbLine
 10
308.088641978
 20
650.8356630271999
 30
0.0
 11
308.338641978
 21
650.8356630271999
 31
0.0
  0
LINE
  5
6FC
330
128
100
AcDbEntity
  8
_0-1_PRO0
  6
Continuous
 62
     0
100
AcDbLine
 10
301.864149906
 20
680.7721663039
 30
0.0
 11
287.7755806765
 21
719.4801883952999
 31
0.0
  0
LINE
  5
6FD
330
128
100
AcDbEntity
  8
_0-0_
  6
Continuous
 62
     0
100
AcDbLine
 10
311.838642978
 20
642.202429689
 30
0.0
 11
311.838642978
 21
643.3268920271999
 31
0.0
  0
LINE
  5
6FE
330
128
100
AcDbEntity
  8
_2-0_
  6
Continuous
 62
     0
100
AcDbLine
 10
341.838642978
 20
643.3268920271999
 30
0.0
 11
311.838642978
 21
643.3268920271999
 31
0.0
  0
CIRCLE
  5
6FF
330
128
100
AcDbEntity
  8
_0-1_PRO0
  6
Continuous
 62
     0
100
AcDbCircle
 10
286.3990475348
 20
724.9711887685
 30
0.0
 40
6.0
  0
TEXT
  5
700
330
128
100
AcDbEntity
  8
_0-1_PRO0
  6
Continuous
 62
     0
100
AcDbText
 10
281.8387802688
 20
721.0196260396001
 30
0.0
 40
9.0
  1
８
100
AcDbText
  0
CIRCLE
  5
701
330
128
100
AcDbEntity
  8
_0-1_PRO0
  6
Continuous
 62
     0
100
AcDbCircle
 10
301.519463398
 20
612.468654429
 30
0.0
 40
6.0
  0
LINE
  5
702
330
128
100
AcDbEntity
  8
_0-1_PRO0
  6
Continuous
 62
     0
100
AcDbLine
 10
318.199910398
 20
641.360034429
 30
0.0
 11
304.519463398
 21
617.664807429
 31
0.0
  0
CIRCLE
  5
703
330
128
100
AcDbEntity
  8
_0-1_PRO0
  6
Continuous
 62
     0
100
AcDbCircle
 10
318.199910398
 20
641.360034429
 30
0.0
 40
0.9
  0
TEXT
  5
704
330
128
100
AcDbEntity
  8
_0-1_PRO0
  6
Continuous
 62
     0
100
AcDbText
 10
299.5592051471
 20
607.6008016669999
 30
0.0
 40
9.0
  1
3
100
AcDbText
  0
LINE
  5
705
330
128
100
AcDbEntity
  8
_0-0_
  6
Continuous
 62
     0
100
AcDbLine
 10
306.838641978
 20
649.0856630271999
 30
0.0
 11
306.8522871912
 21
669.0540895810999
 31
0.0
  0
LINE
  5
706
330
128
100
AcDbEntity
  8
_0-0_
  6
Continuous
 62
     0
100
AcDbLine
 10
303.838641978
 20
649.0856630271999
 30
0.0
 11
303.8522871912
 21
670.5173525771
 31
0.0
  0
CIRCLE
  5
707
330
128
100
AcDbEntity
  8
_a-0_
  6
Continuous
 62
     0
100
AcDbCircle
 10
327.5193984751
 20
647.9889734219999
 30
0.0
 40
2.1
  0
LINE
  5
708
330
128
100
AcDbEntity
  8
_0-1_PRO0
  6
Continuous
 62
     0
100
AcDbLine
 10
406.8563162635999
 20
641.3268920271999
 30
0.0
 11
276.8563152636
 21
641.3268920271999
 31
0.0
  0
LINE
  5
709
330
128
100
AcDbEntity
  8
_0-1_PRO0
  6
Continuous
 62
     0
100
AcDbLine
 10
347.83864388
 20
642.3219571178
 30
0.0
 11
407.6176301312
 21
642.3493332980999
 31
0.0
  0
LINE
  5
70A
330
128
100
AcDbEntity
  8
_2-0_
  6
Continuous
 62
     0
100
AcDbLine
 10
442.6489247944999
 20
516.7213472551
 30
0.0
 11
407.6176301312
 21
642.3493332980999
 31
0.0
  0
LINE
  5
70B
330
128
100
AcDbEntity
  8
_0-0_
  6
Continuous
 62
     0
100
AcDbLine
 10
441.6829989682
 20
516.4625282099999
 30
0.0
 11
406.8563162635999
 21
641.3268920271999
 31
0.0
  0
LINE
  5
70C
330
128
100
AcDbEntity
  8
_0-1_PRO0
  6
Continuous
 62
     0
100
AcDbLine
 10
406.8563162635999
 20
641.3268920271999
 30
0.0
 11
406.8563162635999
 21
445.4758936511
 31
0.0
  0
LINE
  5
70D
330
128
100
AcDbEntity
  8
_0-1_PRO0
  6
Continuous
 62
     0
100
AcDbLine
 10
326.8563162636
 20
594.8934890271999
 30
0.0
 11
326.8563162636
 21
445.5443065844
 31
0.0
  0
LINE
  5
70E
330
128
100
AcDbEntity
  8
_0-1_PRO0
  6
Continuous
 62
     0
100
AcDbLine
 10
276.8563152636
 20
641.3268920271999
 30
0.0
 11
276.8563152636
 21
438.9249205844
 31
0.0
  0
TEXT
  5
70F
330
128
100
AcDbEntity
  8
_2-0_
  6
Continuous
 62
     0
100
AcDbText
 10
1041.778202786
 20
353.1839043176999
 30
0.0
 40
9.0
  1
220
100
AcDbText
  0
LINE
  5
710
330
128
100
AcDbEntity
  8
_0-1_PRO0
  6
Continuous
 62
     0
100
AcDbLine
 10
865.8386400772
 20
642.1917705783
 30
0.0
 11
806.0950003961
 21
642.2191402981
 31
0.0
  0
LINE
  5
711
330
128
100
AcDbEntity
  8
_0-1_PRO0
  6
Continuous
 62
     0
100
AcDbLine
 10
806.8563142636
 20
641.1966990272
 30
0.0
 11
936.8563152635999
 21
641.1966990272
 31
0.0
  0
LINE
  5
712
330
128
100
AcDbEntity
  8
_a-0_
  6
Continuous
 62
     0
100
AcDbLine
 10
901.8739875492
 20
642.1966990271999
 30
0.0
 11
901.8739875492
 21
643.1966990272
 31
0.0
  0
LINE
  5
713
330
128
100
AcDbEntity
  8
_2-0_
  6
Continuous
 62
     0
100
AcDbLine
 10
871.8739875492
 20
643.1966990272
 30
0.0
 11
901.8739875492
 21
643.1966990272
 31
0.0
  0
LINE
  5
714
330
128
100
AcDbEntity
  8
_0-0_
  6
Continuous
 62
     0
100
AcDbLine
 10
905.6239885492001
 20
650.7054700272
 30
0.0
 11
905.3739885491999
 21
650.7054700272
 31
0.0
  0
ARC
  5
715
330
128
100
AcDbEntity
  8
_0-0_
  6
Continuous
 62
     0
100
AcDbCircle
 10
905.6239885492001
 20
649.7054700272
 30
0.0
 40
1.0
100
AcDbArc
 50
0.0
 51
90.0
  0
LINE
  5
716
330
128
100
AcDbEntity
  8
_0-0_
  6
Continuous
 62
     0
100
AcDbLine
 10
906.6239885492
 20
649.7054700272
 30
0.0
 11
906.6239885492
 21
649.2054700271999
 31
0.0
  0
LINE
  5
717
330
128
100
AcDbEntity
  8
_0-0_
  6
Continuous
 62
     0
100
AcDbLine
 10
905.3739885491999
 20
649.2054700271999
 30
0.0
 11
906.6239885492
 21
649.2054700271999
 31
0.0
  0
LINE
  5
718
330
128
100
AcDbEntity
  8
_0-0_
  6
Continuous
 62
     0
100
AcDbLine
 10
910.1239885492001
 20
649.2054700271999
 30
0.0
 11
911.3739885492
 21
649.2054700271999
 31
0.0
  0
LINE
  5
719
330
128
100
AcDbEntity
  8
_0-0_
  6
Continuous
 62
     0
100
AcDbLine
 10
910.1239885492001
 20
649.7054700272
 30
0.0
 11
910.1239885492001
 21
649.2054700271999
 31
0.0
  0
ARC
  5
71A
330
128
100
AcDbEntity
  8
_0-0_
  6
Continuous
 62
     0
100
AcDbCircle
 10
911.1239885492
 20
649.7054700272
 30
0.0
 40
1.0
100
AcDbArc
 50
90.0
 51
180.0
  0
LINE
  5
71B
330
128
100
AcDbEntity
  8
_0-0_
  6
Continuous
 62
     0
100
AcDbLine
 10
912.3739885492
 20
650.7054700272
 30
0.0
 11
911.1239885492
 21
650.7054700272
 31
0.0
  0
ARC
  5
71C
330
128
100
AcDbEntity
  8
_0-0_
  6
Continuous
 62
     0
100
AcDbCircle
 10
910.8739885491999
 20
646.2054700272
 30
0.0
 40
0.5
100
AcDbArc
 50
-90.0
 51
0.0
  0
ARC
  5
71D
330
128
100
AcDbEntity
  8
_0-0_
  6
Continuous
 62
     0
100
AcDbCircle
 10
912.3739885492
 20
650.2054700272
 30
0.0
 40
0.5
100
AcDbArc
 50
0.0
 51
90.0
  0
LINE
  5
71E
330
128
100
AcDbEntity
  8
_0-0_
  6
Continuous
 62
     0
100
AcDbLine
 10
912.8739885492
 20
650.2054700272
 30
0.0
 11
912.8739885492
 21
645.7054700272
 31
0.0
  0
LINE
  5
71F
330
128
100
AcDbEntity
  8
_0-0_
  6
Continuous
 62
     0
100
AcDbLine
 10
911.3739885492
 20
646.2054700272
 30
0.0
 11
911.3739885492
 21
649.2054700271999
 31
0.0
  0
LINE
  5
720
330
128
100
AcDbEntity
  8
_0-0_
  6
Continuous
 62
     0
100
AcDbLine
 10
905.3739885491999
 20
649.2054700271999
 30
0.0
 11
905.3739885491999
 21
646.2054680272
 31
0.0
  0
LINE
  5
721
330
128
100
AcDbEntity
  8
_0-0_
  6
Continuous
 62
     0
100
AcDbLine
 10
905.3739885491999
 20
661.2054680272
 30
0.0
 11
905.3739885491999
 21
650.7054700272
 31
0.0
  0
LINE
  5
722
330
128
100
AcDbEntity
  8
_0-0_
  6
Continuous
 62
     0
100
AcDbLine
 10
910.8739885491999
 20
645.9554700272
 30
0.0
 11
905.8739865492
 21
645.9554700272
 31
0.0
  0
LINE
  5
723
330
128
100
AcDbEntity
  8
_0-0_
  6
Continuous
 62
     0
100
AcDbLine
 10
905.6239885492001
 20
646.2054680272
 30
0.0
 11
905.6239885492001
 21
648.9554700272
 31
0.0
  0
LINE
  5
724
330
128
100
AcDbEntity
  8
_0-0_
  6
Continuous
 62
     0
100
AcDbLine
 10
911.1239885492
 20
646.2054700272
 30
0.0
 11
911.1239885492
 21
648.9554700272
 31
0.0
  0
ARC
  5
725
330
128
100
AcDbEntity
  8
_0-0_
  6
Continuous
 62
     0
100
AcDbCircle
 10
905.8739865492
 20
646.2054680272
 30
0.0
 40
0.250001
100
AcDbArc
 50
180.0
 51
270.0
  0
ARC
  5
726
330
128
100
AcDbEntity
  8
_0-0_
  6
Continuous
 62
     0
100
AcDbCircle
 10
910.8739885491999
 20
646.2054700272
 30
0.0
 40
0.25
100
AcDbArc
 50
-90.0
 51
0.0
  0
LINE
  5
727
330
128
100
AcDbEntity
  8
_0-0_
  6
Continuous
 62
     0
100
AcDbLine
 10
916.8739885492
 20
645.7054700272
 30
0.0
 11
912.8739885492
 21
645.7054700272
 31
0.0
  0
LINE
  5
728
330
128
100
AcDbEntity
  8
_0-0_
  6
Continuous
 62
     0
100
AcDbLine
 10
910.8739885491999
 20
645.7054700272
 30
0.0
 11
905.8739865492
 21
645.7054700272
 31
0.0
  0
LINE
  5
729
330
128
100
AcDbEntity
  8
_0-0_
  6
Continuous
 62
     0
100
AcDbLine
 10
912.8799374230998
 20
644.2054700272
 30
0.0
 11
915.8739885492
 21
644.2054700272
 31
0.0
  0
LINE
  5
72A
330
128
100
AcDbEntity
  8
_0-0_
  6
Continuous
 62
     0
100
AcDbLine
 10
905.3739885491999
 20
644.2054700272
 30
0.0
 11
912.8799374230998
 21
644.2054700272
 31
0.0
  0
LINE
  5
72B
330
128
100
AcDbEntity
  8
_0-0_
  6
Continuous
 62
     0
100
AcDbLine
 10
909.8739885492999
 20
648.9554700272
 30
0.0
 11
909.8739885492999
 21
669.3382888830999
 31
0.0
  0
LINE
  5
72C
330
128
100
AcDbEntity
  8
_0-0_
  6
Continuous
 62
     0
100
AcDbLine
 10
906.8739885493
 20
648.9554700272
 30
0.0
 11
906.8739885493
 21
667.8750258871
 31
0.0
  0
ARC
  5
72D
330
128
100
AcDbEntity
  8
_0-0_
  6
Continuous
 62
     0
100
AcDbCircle
 10
932.9499341432999
 20
668.6066573850999
 30
0.0
 40
23.08754100601
100
AcDbArc
 50
80.80133910481
 51
181.8159758207
  0
ARC
  5
72E
330
128
100
AcDbEntity
  8
_0-0_
  6
Continuous
 62
     0
100
AcDbCircle
 10
931.8739885493
 20
667.8750258871
 30
0.0
 40
25.0
100
AcDbArc
 50
78.59045565079
 51
180.0
  0
ARC
  5
72F
330
128
100
AcDbEntity
  8
_0-0_
  6
Continuous
 62
     0
100
AcDbCircle
 10
936.7205940216001
 20
691.8908626493999
 30
0.0
 40
0.5
100
AcDbArc
 50
-99.19866089521001
 51
78.59045565079
  0
LINE
  5
730
330
128
100
AcDbEntity
  8
_0-0_
  6
Continuous
 62
     0
100
AcDbLine
 10
909.8739885492999
 20
648.9554700272
 30
0.0
 11
911.1239885492
 21
648.9554700272
 31
0.0
  0
LINE
  5
731
330
128
100
AcDbEntity
  8
_0-0_
  6
Continuous
 62
     0
100
AcDbLine
 10
905.6239885492001
 20
648.9554700272
 30
0.0
 11
906.8739885493
 21
648.9554700272
 31
0.0
  0
ARC
  5
732
330
128
100
AcDbEntity
  8
_0-0_
  6
Continuous
 62
     0
100
AcDbCircle
 10
916.8739885492
 20
645.2054700272
 30
0.0
 40
0.5
100
AcDbArc
 50
0.0
 51
90.0
  0
LINE
  5
733
330
128
100
AcDbEntity
  8
_0-0_
  6
Continuous
 62
     0
100
AcDbLine
 10
917.3739885492
 20
645.2054700272
 30
0.0
 11
917.3739885492
 21
643.2054680272
 31
0.0
  0
LINE
  5
734
330
128
100
AcDbEntity
  8
_0-0_
  6
Continuous
 62
     0
100
AcDbLine
 10
905.3739885491999
 20
643.2054680272
 30
0.0
 11
903.3739875492001
 21
643.2054680272
 31
0.0
  0
LINE
  5
735
330
128
100
AcDbEntity
  8
_0-0_
  6
Continuous
 62
     0
100
AcDbLine
 10
917.3739885492
 20
643.2054680272
 30
0.0
 11
915.8739885492
 21
643.2054680272
 31
0.0
  0
LINE
  5
736
330
128
100
AcDbEntity
  8
_0-0_
  6
Continuous
 62
     0
100
AcDbLine
 10
915.8739885492
 20
644.2054700272
 30
0.0
 11
915.8739885492
 21
643.2054680272
 31
0.0
  0
LINE
  5
737
330
128
100
AcDbEntity
  8
_0-0_
  6
Continuous
 62
     0
100
AcDbLine
 10
903.3739875492001
 20
646.2054680272
 30
0.0
 11
903.3739875492001
 21
647.4054680271999
 31
0.0
  0
LINE
  5
738
330
128
100
AcDbEntity
  8
_0-0_
  6
Continuous
 62
     0
100
AcDbLine
 10
903.3739875492001
 20
643.7054690272
 30
0.0
 11
903.3739875492001
 21
643.2054680272
 31
0.0
  0
LINE
  5
739
330
128
100
AcDbEntity
  8
_0-0_
  6
Continuous
 62
     0
100
AcDbLine
 10
905.3739885491999
 20
644.2054700272
 30
0.0
 11
905.3739885491999
 21
643.2054680272
 31
0.0
  0
ARC
  5
73A
330
128
100
AcDbEntity
  8
_0-0_
  6
Continuous
 62
     0
100
AcDbCircle
 10
905.8739865492
 20
646.2054680272
 30
0.0
 40
0.5000010000000001
100
AcDbArc
 50
180.0
 51
270.0
  0
LINE
  5
73B
330
128
100
AcDbEntity
  8
_0-0_
  6
Continuous
 62
     0
100
AcDbLine
 10
903.3739875492001
 20
649.5054680272
 30
0.0
 11
903.3739875492001
 21
651.4054700272001
 31
0.0
  0
LINE
  5
73C
330
128
100
AcDbEntity
  8
_0-0_
  6
Continuous
 62
     0
100
AcDbLine
 10
903.3739875492001
 20
653.7054680271999
 30
0.0
 11
903.3739875492001
 21
661.2054680272
 31
0.0
  0
ARC
  5
73D
330
128
100
AcDbEntity
  8
_0-0_
  6
Continuous
 62
     0
100
AcDbCircle
 10
904.3739865492
 20
661.2054680272
 30
0.0
 40
0.999999
100
AcDbArc
 50
0.0
 51
180.0
  0
LINE
  5
73E
330
128
100
AcDbEntity
  8
_2-0_
  6
Continuous
 62
     0
100
AcDbLine
 10
870.3739875492001
 20
643.2054680272
 30
0.0
 11
868.8739875492
 21
643.2054680272
 31
0.0
  0
LINE
  5
73F
330
128
100
AcDbEntity
  8
_1-0_
  6
Continuous
 62
     0
100
AcDbLine
 10
902.8739865491999
 20
645.7054700272
 30
0.0
 11
870.6739875491999
 21
645.7054700272
 31
0.0
  0
ARC
  5
740
330
128
100
AcDbEntity
  8
_1-0_
  6
Continuous
 62
     0
100
AcDbCircle
 10
902.8739865491999
 20
646.2054680272
 30
0.0
 40
0.5000010000000001
100
AcDbArc
 50
-90.0
 51
0.0
  0
LINE
  5
741
330
128
100
AcDbEntity
  8
_1-0_
  6
Continuous
 62
     0
100
AcDbLine
 10
870.6739875491999
 20
647.7054680272
 30
0.0
 11
872.6239875492
 21
647.7054680272
 31
0.0
  0
ARC
  5
742
330
128
100
AcDbEntity
  8
_1-0_
  6
Continuous
 62
     0
100
AcDbCircle
 10
870.6739875491999
 20
647.4054680271999
 30
0.0
 40
0.3
100
AcDbArc
 50
90.0
 51
180.0
  0
LINE
  5
743
330
128
100
AcDbEntity
  8
_1-0_
  6
Continuous
 62
     0
100
AcDbLine
 10
870.3739875492001
 20
646.0054700271999
 30
0.0
 11
870.3739875492001
 21
647.4054680271999
 31
0.0
  0
ARC
  5
744
330
128
100
AcDbEntity
  8
_1-0_
  6
Continuous
 62
     0
100
AcDbCircle
 10
870.6739875491999
 20
646.0054700271999
 30
0.0
 40
0.3
100
AcDbArc
 50
180.0
 51
270.0
  0
ARC
  5
745
330
128
100
AcDbEntity
  8
_1-0_
  6
Continuous
 62
     0
100
AcDbCircle
 10
872.6239875492
 20
648.4554680272
 30
0.0
 40
0.75
100
AcDbArc
 50
-90.0
 51
90.0
  0
LINE
  5
746
330
128
100
AcDbEntity
  8
_1-0_
  6
Continuous
 62
     0
100
AcDbLine
 10
870.3739875492001
 20
643.7054690272
 30
0.0
 11
870.3739875492001
 21
643.2054680272
 31
0.0
  0
LINE
  5
747
330
128
100
AcDbEntity
  8
_1-0_
  6
Continuous
 62
     0
100
AcDbLine
 10
868.8739875492
 20
652.7054690272
 30
0.0
 11
868.8739875492
 21
643.2054680272
 31
0.0
  0
ARC
  5
748
330
128
100
AcDbEntity
  8
_1-0_
  6
Continuous
 62
     0
100
AcDbCircle
 10
873.6239865492001
 20
652.4554700272
 30
0.0
 40
0.75
100
AcDbArc
 50
-90.0
 51
90.0
  0
ARC
  5
749
330
128
100
AcDbEntity
  8
_1-0_
  6
Continuous
 62
     0
100
AcDbCircle
 10
869.3739885492
 20
652.7054690272
 30
0.0
 40
0.5000010000000001
100
AcDbArc
 50
90.0
 51
180.0
  0
LINE
  5
74A
330
128
100
AcDbEntity
  8
_1-0_
  6
Continuous
 62
     0
100
AcDbLine
 10
869.3739885492
 20
653.2054700271999
 30
0.0
 11
873.6239865492001
 21
653.2054700271999
 31
0.0
  0
ARC
  5
74B
330
128
100
AcDbEntity
  8
_1-0_
  6
Continuous
 62
     0
100
AcDbCircle
 10
870.6739875491999
 20
651.4054700272001
 30
0.0
 40
0.3
100
AcDbArc
 50
90.0
 51
180.0
  0
LINE
  5
74C
330
128
100
AcDbEntity
  8
_1-0_
  6
Continuous
 62
     0
100
AcDbLine
 10
870.3739875492001
 20
649.5054680272
 30
0.0
 11
870.3739875492001
 21
651.4054700272001
 31
0.0
  0
ARC
  5
74D
330
128
100
AcDbEntity
  8
_1-0_
  6
Continuous
 62
     0
100
AcDbCircle
 10
870.6739875491999
 20
649.5054680272
 30
0.0
 40
0.3
100
AcDbArc
 50
180.0
 51
270.0
  0
LINE
  5
74E
330
128
100
AcDbEntity
  8
_1-0_
  6
Continuous
 62
     0
100
AcDbLine
 10
870.6739875491999
 20
649.2054680272
 30
0.0
 11
872.6239875492
 21
649.2054680272
 31
0.0
  0
LINE
  5
74F
330
128
100
AcDbEntity
  8
_1-0_
  6
Continuous
 62
     0
100
AcDbLine
 10
870.3739875492001
 20
643.7054690272
 30
0.0
 11
881.8739865492
 21
643.7054690272
 31
0.0
  0
ARC
  5
750
330
128
100
AcDbEntity
  8
_1-0_
  6
Continuous
 62
     0
100
AcDbCircle
 10
903.0739875491999
 20
647.4054680271999
 30
0.0
 40
0.3
100
AcDbArc
 50
0.0
 51
90.0
  0
LINE
  5
751
330
128
100
AcDbEntity
  8
_1-0_
  6
Continuous
 62
     0
100
AcDbLine
 10
903.0739875491999
 20
647.7054680272
 30
0.0
 11
901.1239875492
 21
647.7054680272
 31
0.0
  0
ARC
  5
752
330
128
100
AcDbEntity
  8
_1-0_
  6
Continuous
 62
     0
100
AcDbCircle
 10
901.1239875492
 20
648.4554680272
 30
0.0
 40
0.75
100
AcDbArc
 50
90.0
 51
270.0
  0
LINE
  5
753
330
128
100
AcDbEntity
  8
_1-0_
  6
Continuous
 62
     0
100
AcDbLine
 10
891.8739885492
 20
643.7054690272
 30
0.0
 11
891.8739885492
 21
643.2054680272
 31
0.0
  0
LINE
  5
754
330
128
100
AcDbEntity
  8
_1-0_
  6
Continuous
 62
     0
100
AcDbLine
 10
891.8739885492
 20
643.7054690272
 30
0.0
 11
903.3739875492001
 21
643.7054690272
 31
0.0
  0
ARC
  5
755
330
128
100
AcDbEntity
  8
_1-0_
  6
Continuous
 62
     0
100
AcDbCircle
 10
900.1239885491999
 20
652.4554700272
 30
0.0
 40
0.75
100
AcDbArc
 50
90.0
 51
270.0
  0
ARC
  5
756
330
128
100
AcDbEntity
  8
_1-0_
  6
Continuous
 62
     0
100
AcDbCircle
 10
902.8739865491999
 20
653.7054680271999
 30
0.0
 40
0.5000010000000001
100
AcDbArc
 50
-90.0
 51
0.0
  0
LINE
  5
757
330
128
100
AcDbEntity
  8
_1-0_
  6
Continuous
 62
     0
100
AcDbLine
 10
902.8739865491999
 20
653.2054700271999
 30
0.0
 11
900.1239885491999
 21
653.2054700271999
 31
0.0
  0
LINE
  5
758
330
128
100
AcDbEntity
  8
_1-0_
  6
Continuous
 62
     0
100
AcDbLine
 10
881.8739865492
 20
643.7054690272
 30
0.0
 11
881.8739865492
 21
643.2054680272
 31
0.0
  0
LINE
  5
759
330
128
100
AcDbEntity
  8
_1-0_
  6
Continuous
 62
     0
100
AcDbLine
 10
887.3739885492
 20
645.7054700272
 30
0.0
 11
886.8739875492
 21
645.2054690271999
 31
0.0
  0
LINE
  5
75A
330
128
100
AcDbEntity
  8
_1-0_
  6
Continuous
 62
     0
100
AcDbLine
 10
886.3739865492
 20
645.7054700272
 30
0.0
 11
886.8739875492
 21
645.2054690271999
 31
0.0
  0
ARC
  5
75B
330
128
100
AcDbEntity
  8
_1-0_
  6
Continuous
 62
     0
100
AcDbCircle
 10
903.0739875491999
 20
651.4054700272001
 30
0.0
 40
0.3
100
AcDbArc
 50
0.0
 51
90.0
  0
ARC
  5
75C
330
128
100
AcDbEntity
  8
_1-0_
  6
Continuous
 62
     0
100
AcDbCircle
 10
903.0739875491999
 20
649.5054680272
 30
0.0
 40
0.3
100
AcDbArc
 50
-90.0
 51
0.0
  0
LINE
  5
75D
330
128
100
AcDbEntity
  8
_1-0_
  6
Continuous
 62
     0
100
AcDbLine
 10
903.0739875491999
 20
649.2054680272
 30
0.0
 11
901.1239875492
 21
649.2054680272
 31
0.0
  0
LINE
  5
75E
330
128
100
AcDbEntity
  8
_1-0_
  6
Continuous
 62
     0
100
AcDbLine
 10
898.8739875491999
 20
650.1054680272
 30
0.0
 11
903.3739875492001
 21
650.1054680272
 31
0.0
  0
ARC
  5
75F
330
128
100
AcDbEntity
  8
_1-0_
  6
Continuous
 62
     0
100
AcDbCircle
 10
898.8739875491999
 20
652.7054690272
 30
0.0
 40
2.600000999999999
100
AcDbArc
 50
180.0
 51
270.0
  0
LINE
  5
760
330
128
100
AcDbEntity
  8
_1-0_
  6
Continuous
 62
     0
100
AcDbLine
 10
896.2739865492
 20
652.7054690272
 30
0.0
 11
896.2739865492
 21
658.0851890272001
 31
0.0
  0
LINE
  5
761
330
128
100
AcDbEntity
  8
_1-0_
  6
Continuous
 62
     0
100
AcDbLine
 10
895.4100615492
 20
660.6816260271999
 30
0.0
 11
878.6100615491999
 21
661.5620780271999
 31
0.0
  0
ARC
  5
762
330
128
100
AcDbEntity
  8
_1-0_
  6
Continuous
 62
     0
100
AcDbCircle
 10
895.2739875492
 20
658.0851890272001
 30
0.0
 40
2.600000999999999
100
AcDbArc
 50
0.0
 51
87.0
  0
LINE
  5
763
330
128
100
AcDbEntity
  8
_1-0_
  6
Continuous
 62
     0
100
AcDbLine
 10
897.8739885492
 20
658.0851890272001
 30
0.0
 11
897.8739885492
 21
652.7054690272
 31
0.0
  0
ARC
  5
764
330
128
100
AcDbEntity
  8
_1-0_
  6
Continuous
 62
     0
100
AcDbCircle
 10
878.4739875491998
 20
658.9656410272
 30
0.0
 40
2.600000999999999
100
AcDbArc
 50
87.0
 51
180.0
  0
LINE
  5
765
330
128
100
AcDbEntity
  8
_1-0_
  6
Continuous
 62
     0
100
AcDbLine
 10
875.8739865492
 20
658.9656410272
 30
0.0
 11
875.8739865492
 21
652.7054690272
 31
0.0
  0
LINE
  5
766
330
128
100
AcDbEntity
  8
_1-0_
  6
Continuous
 62
     0
100
AcDbLine
 10
874.8739875492001
 20
650.1054680272
 30
0.0
 11
870.3739875492001
 21
650.1054680272
 31
0.0
  0
ARC
  5
767
330
128
100
AcDbEntity
  8
_1-0_
  6
Continuous
 62
     0
100
AcDbCircle
 10
874.8739875492001
 20
652.7054690272
 30
0.0
 40
2.600000999999999
100
AcDbArc
 50
-90.0
 51
0.0
  0
LINE
  5
768
330
128
100
AcDbEntity
  8
_1-0_
  6
Continuous
 62
     0
100
AcDbLine
 10
877.4739885492
 20
652.7054690272
 30
0.0
 11
877.4739885492
 21
658.9656410272
 31
0.0
  0
ARC
  5
769
330
128
100
AcDbEntity
  8
_1-0_
  6
Continuous
 62
     0
100
AcDbCircle
 10
898.8739875491999
 20
652.7054690272
 30
0.0
 40
0.999999
100
AcDbArc
 50
180.0
 51
270.0
  0
LINE
  5
76A
330
128
100
AcDbEntity
  8
_1-0_
  6
Continuous
 62
     0
100
AcDbLine
 10
898.8739875491999
 20
651.7054700272
 30
0.0
 11
903.0739875491999
 21
651.7054700272
 31
0.0
  0
ARC
  5
76B
330
128
100
AcDbEntity
  8
_1-0_
  6
Continuous
 62
     0
100
AcDbCircle
 10
895.2739875492
 20
658.0851890272001
 30
0.0
 40
0.999999
100
AcDbArc
 50
0.0
 51
86.99999999999
  0
LINE
  5
76C
330
128
100
AcDbEntity
  8
_1-0_
  6
Continuous
 62
     0
100
AcDbLine
 10
895.3263225491999
 20
659.0838200271999
 30
0.0
 11
878.5263225492
 21
659.9642690271999
 31
0.0
  0
ARC
  5
76D
330
128
100
AcDbEntity
  8
_1-0_
  6
Continuous
 62
     0
100
AcDbCircle
 10
878.4739875491998
 20
658.9656410272
 30
0.0
 40
0.999999
100
AcDbArc
 50
86.99999999999
 51
180.0
  0
LINE
  5
76E
330
128
100
AcDbEntity
  8
_1-0_
  6
Continuous
 62
     0
100
AcDbLine
 10
874.8739875492001
 20
651.7054700272
 30
0.0
 11
870.6739875491999
 21
651.7054700272
 31
0.0
  0
ARC
  5
76F
330
128
100
AcDbEntity
  8
_1-0_
  6
Continuous
 62
     0
100
AcDbCircle
 10
874.8739875492001
 20
652.7054690272
 30
0.0
 40
0.999999
100
AcDbArc
 50
-90.0
 51
0.0
  0
ARC
  5
770
330
128
100
AcDbEntity
  8
_1-0_
  6
Continuous
 62
     0
100
AcDbCircle
 10
892.3302405492
 20
658.2394640272
 30
0.0
 40
0.999999
100
AcDbArc
 50
86.99999999999
 51
177.0
  0
ARC
  5
771
330
128
100
AcDbEntity
  8
_1-0_
  6
Continuous
 62
     0
100
AcDbCircle
 10
881.1455895491999
 20
658.8256280271999
 30
0.0
 40
0.999999
100
AcDbArc
 50
-2.999999999998999
 51
86.99999999999
  0
LINE
  5
772
330
128
100
AcDbEntity
  8
_1-0_
  6
Continuous
 62
     0
100
AcDbLine
 10
891.3316095492
 20
658.2918020272
 30
0.0
 11
891.2792745492
 21
657.2931710272
 31
0.0
  0
LINE
  5
773
330
128
100
AcDbEntity
  8
_1-0_
  6
Continuous
 62
     0
100
AcDbLine
 10
882.1442175492
 20
658.7732930271999
 30
0.0
 11
882.0918825492
 21
657.7746620272001
 31
0.0
  0
ARC
  5
774
330
128
100
AcDbEntity
  8
_1-0_
  6
Continuous
 62
     0
100
AcDbCircle
 10
891.8239875492
 20
648.2960750272
 30
0.0
 40
3.809394
100
AcDbArc
 50
90.0
 51
120.789964
  0
LINE
  5
775
330
128
100
AcDbEntity
  8
_1-0_
  6
Continuous
 62
     0
100
AcDbLine
 10
881.9239875492
 20
652.1054690271999
 30
0.0
 11
891.8239875492
 21
652.1054690271999
 31
0.0
  0
LINE
  5
776
330
128
100
AcDbEntity
  8
_1-0_
  6
Continuous
 62
     0
100
AcDbLine
 10
891.8239875492
 20
652.1054690271999
 30
0.0
 11
892.7539875492
 21
651.5685320272
 31
0.0
  0
LINE
  5
777
330
128
100
AcDbEntity
  8
_1-0_
  6
Continuous
 62
     0
100
AcDbLine
 10
892.7539875492
 20
651.5685320272
 30
0.0
 11
892.7539875492
 21
647.3054690272
 31
0.0
  0
LINE
  5
778
330
128
100
AcDbEntity
  8
_1-0_
  6
Continuous
 62
     0
100
AcDbLine
 10
889.8739875491999
 20
651.5685320272
 30
0.0
 11
889.8739875491999
 21
647.3054690272
 31
0.0
  0
LINE
  5
779
330
128
100
AcDbEntity
  8
_1-0_
  6
Continuous
 62
     0
100
AcDbLine
 10
883.8739875492001
 20
651.5685320272
 30
0.0
 11
883.8739875492001
 21
647.3054690272
 31
0.0
  0
ARC
  5
77A
330
128
100
AcDbEntity
  8
_1-0_
  6
Continuous
 62
     0
100
AcDbCircle
 10
886.8739875492
 20
643.4561090272
 30
0.0
 40
8.649359999999999
100
AcDbArc
 50
69.70544499999999
 51
110.294555
  0
ARC
  5
77B
330
128
100
AcDbEntity
  8
_1-0_
  6
Continuous
 62
     0
100
AcDbCircle
 10
881.9239875492
 20
648.2960750272
 30
0.0
 40
3.809394
100
AcDbArc
 50
59.21003599999999
 51
90.0
  0
LINE
  5
77C
330
128
100
AcDbEntity
  8
_1-0_
  6
Continuous
 62
     0
100
AcDbLine
 10
881.9239875492
 20
652.1054690271999
 30
0.0
 11
880.9939875492
 21
651.5685320272
 31
0.0
  0
LINE
  5
77D
330
128
100
AcDbEntity
  8
_1-0_
  6
Continuous
 62
     0
100
AcDbLine
 10
880.9939875492
 20
651.5685320272
 30
0.0
 11
880.9939875492
 21
647.3054690272
 31
0.0
  0
LINE
  5
77E
330
128
100
AcDbEntity
  8
_1-0_
  6
Continuous
 62
     0
100
AcDbLine
 10
877.8739875492
 20
647.3054690272
 30
0.0
 11
877.8739875492
 21
645.7054700272
 31
0.0
  0
LINE
  5
77F
330
128
100
AcDbEntity
  8
_1-0_
  6
Continuous
 62
     0
100
AcDbLine
 10
895.8739875492
 20
647.3054690272
 30
0.0
 11
877.8739875492
 21
647.3054690272
 31
0.0
  0
LINE
  5
780
330
128
100
AcDbEntity
  8
_1-0_
  6
Continuous
 62
     0
100
AcDbLine
 10
895.8739875492
 20
647.3054690272
 30
0.0
 11
895.8739875492
 21
645.7054700272
 31
0.0
  0
ARC
  5
781
330
128
100
AcDbEntity
  8
_2-0_
  6
Continuous
 62
     0
100
AcDbCircle
 10
865.8739875492001
 20
651.4466990272
 30
0.0
 40
10.25
100
AcDbArc
 50
-90.0
 51
-71.07535558394999
  0
LINE
  5
782
330
128
100
AcDbEntity
  8
_2-0_
  6
Continuous
 62
     0
100
AcDbLine
 10
901.8739875492
 20
642.1966990271999
 30
0.0
 11
901.8739875492
 21
641.1966990272
 31
0.0
  0
LINE
  5
783
330
128
100
AcDbEntity
  8
_2-0_
  6
Continuous
 62
     0
100
AcDbLine
 10
871.8739875492
 20
642.1966990271999
 30
0.0
 11
901.8739875492
 21
642.1966990271999
 31
0.0
  0
LINE
  5
784
330
128
100
AcDbEntity
  8
_2-0_
  6
Continuous
 62
     0
100
AcDbLine
 10
871.8739875492
 20
641.1966990272
 30
0.0
 11
871.8739875492
 21
642.1966990271999
 31
0.0
  0
LINE
  5
785
330
128
100
AcDbEntity
  8
_2-0_
  6
Continuous
 62
     0
100
AcDbLine
 10
901.8739875492
 20
641.1966990272
 30
0.0
 11
871.8739875492
 21
641.1966990272
 31
0.0
  0
LINE
  5
786
330
128
100
AcDbEntity
  8
_2-0_
  6
Continuous
 62
     0
100
AcDbLine
 10
900.9984498874
 20
641.1966990272
 30
0.0
 11
901.8739875492
 21
642.0722366889999
 31
0.0
  0
LINE
  5
787
330
128
100
AcDbEntity
  8
_2-0_
  6
Continuous
 62
     0
100
AcDbLine
 10
899.584236325
 20
641.1966990272
 30
0.0
 11
900.584236325
 21
642.1966990271999
 31
0.0
  0
LINE
  5
788
330
128
100
AcDbEntity
  8
_2-0_
  6
Continuous
 62
     0
100
AcDbLine
 10
898.1700227625999
 20
641.1966990272
 30
0.0
 11
899.1700227625999
 21
642.1966990271999
 31
0.0
  0
LINE
  5
789
330
128
100
AcDbEntity
  8
_2-0_
  6
Continuous
 62
     0
100
AcDbLine
 10
896.7558092002001
 20
641.1966990272
 30
0.0
 11
897.7558092002
 21
642.1966990271999
 31
0.0
  0
LINE
  5
78A
330
128
100
AcDbEntity
  8
_2-0_
  6
Continuous
 62
     0
100
AcDbLine
 10
895.3415956378998
 20
641.1966990272
 30
0.0
 11
896.3415956378998
 21
642.1966990271999
 31
0.0
  0
LINE
  5
78B
330
128
100
AcDbEntity
  8
_2-0_
  6
Continuous
 62
     0
100
AcDbLine
 10
893.9273820755001
 20
641.1966990272
 30
0.0
 11
894.9273820755001
 21
642.1966990271999
 31
0.0
  0
LINE
  5
78C
330
128
100
AcDbEntity
  8
_2-0_
  6
Continuous
 62
     0
100
AcDbLine
 10
892.5131685131001
 20
641.1966990272
 30
0.0
 11
893.5131685131
 21
642.1966990271999
 31
0.0
  0
LINE
  5
78D
330
128
100
AcDbEntity
  8
_2-0_
  6
Continuous
 62
     0
100
AcDbLine
 10
891.0989549508
 20
641.1966990272
 30
0.0
 11
892.0989549508
 21
642.1966990271999
 31
0.0
  0
LINE
  5
78E
330
128
100
AcDbEntity
  8
_2-0_
  6
Continuous
 62
     0
100
AcDbLine
 10
889.6847413884
 20
641.1966990272
 30
0.0
 11
890.6847413883999
 21
642.1966990271999
 31
0.0
  0
LINE
  5
78F
330
128
100
AcDbEntity
  8
_2-0_
  6
Continuous
 62
     0
100
AcDbLine
 10
888.2705278260001
 20
641.1966990272
 30
0.0
 11
889.2705278260001
 21
642.1966990271999
 31
0.0
  0
LINE
  5
790
330
128
100
AcDbEntity
  8
_2-0_
  6
Continuous
 62
     0
100
AcDbLine
 10
886.8563142636
 20
641.1966990272
 30
0.0
 11
887.8563142636
 21
642.1966990271999
 31
0.0
  0
LINE
  5
791
330
128
100
AcDbEntity
  8
_2-0_
  6
Continuous
 62
     0
100
AcDbLine
 10
885.4421007013
 20
641.1966990272
 30
0.0
 11
886.4421007013001
 21
642.1966990271999
 31
0.0
  0
LINE
  5
792
330
128
100
AcDbEntity
  8
_2-0_
  6
Continuous
 62
     0
100
AcDbLine
 10
884.0278871389001
 20
641.1966990272
 30
0.0
 11
885.0278871389001
 21
642.1966990271999
 31
0.0
  0
LINE
  5
793
330
128
100
AcDbEntity
  8
_2-0_
  6
Continuous
 62
     0
100
AcDbLine
 10
882.6136735765
 20
641.1966990272
 30
0.0
 11
883.6136735765
 21
642.1966990271999
 31
0.0
  0
LINE
  5
794
330
128
100
AcDbEntity
  8
_2-0_
  6
Continuous
 62
     0
100
AcDbLine
 10
881.1994600141
 20
641.1966990272
 30
0.0
 11
882.1994600141
 21
642.1966990271999
 31
0.0
  0
LINE
  5
795
330
128
100
AcDbEntity
  8
_2-0_
  6
Continuous
 62
     0
100
AcDbLine
 10
879.7852464517999
 20
641.1966990272
 30
0.0
 11
880.7852464517999
 21
642.1966990271999
 31
0.0
  0
LINE
  5
796
330
128
100
AcDbEntity
  8
_2-0_
  6
Continuous
 62
     0
100
AcDbLine
 10
878.3710328894001
 20
641.1966990272
 30
0.0
 11
879.3710328894
 21
642.1966990271999
 31
0.0
  0
LINE
  5
797
330
128
100
AcDbEntity
  8
_2-0_
  6
Continuous
 62
     0
100
AcDbLine
 10
876.956819327
 20
641.1966990272
 30
0.0
 11
877.956819327
 21
642.1966990271999
 31
0.0
  0
LINE
  5
798
330
128
100
AcDbEntity
  8
_2-0_
  6
Continuous
 62
     0
100
AcDbLine
 10
875.5426057645999
 20
641.1966990272
 30
0.0
 11
876.5426057645999
 21
642.1966990271999
 31
0.0
  0
LINE
  5
799
330
128
100
AcDbEntity
  8
_2-0_
  6
Continuous
 62
     0
100
AcDbLine
 10
874.1283922022999
 20
641.1966990272
 30
0.0
 11
875.1283922023
 21
642.1966990271999
 31
0.0
  0
LINE
  5
79A
330
128
100
AcDbEntity
  8
_2-0_
  6
Continuous
 62
     0
100
AcDbLine
 10
872.7141786399
 20
641.1966990272
 30
0.0
 11
873.7141786399
 21
642.1966990271999
 31
0.0
  0
ARC
  5
79B
330
128
100
AcDbEntity
  8
_2-0_
  6
Continuous
 62
     0
100
AcDbCircle
 10
865.8739875492001
 20
651.4466990272
 30
0.0
 40
9.25
100
AcDbArc
 50
-90.0
 51
-71.07535558394999
  0
ARC
  5
79C
330
128
100
AcDbEntity
  8
_2-0_
  6
Continuous
 62
     0
100
AcDbCircle
 10
871.8739875492
 20
633.9466990272
 30
0.0
 40
9.25
100
AcDbArc
 50
90.0
 51
108.9246444161
  0
ARC
  5
79D
330
128
100
AcDbEntity
  8
_2-0_
  6
Continuous
 62
     0
100
AcDbCircle
 10
871.8739875492
 20
633.9466990272
 30
0.0
 40
8.25
100
AcDbArc
 50
90.0
 51
108.9246444161
  0
LINE
  5
79E
330
128
100
AcDbEntity
  8
_2-0_
  6
Continuous
 62
     0
100
AcDbLine
 10
871.8739875492
 20
641.7707214988999
 30
0.0
 11
872.2999650774999
 21
642.1966990271999
 31
0.0
  0
LINE
  5
79F
330
128
100
AcDbEntity
  8
_1-0_
  6
Continuous
 62
     0
100
AcDbLine
 10
882.0918825492
 20
657.7746620272001
 30
0.0
 11
891.2792745492
 21
657.2931710272
 31
0.0
  0
TEXT
  5
7A0
330
128
100
AcDbEntity
  8
_0-1_PRO0
  6
Continuous
 62
     0
100
AcDbText
 10
901.4161827527001
 20
618.4720667258999
 30
0.0
 40
9.0
  1
11
100
AcDbText
  0
TEXT
  5
7A1
330
128
100
AcDbEntity
  8
_0-1_PRO0
  6
Continuous
 62
     0
100
AcDbText
 10
861.2682419373999
 20
615.0655747779
 30
0.0
 40
9.0
  1
13
100
AcDbText
  0
TEXT
  5
7A2
330
128
100
AcDbEntity
  8
_0-1_PRO0
  6
Continuous
 62
     0
100
AcDbText
 10
933.0478936981
 20
698.5246275030999
 30
0.0
 40
9.0
  1
２
100
AcDbText
  0
TEXT
  5
7A3
330
128
100
AcDbEntity
  8
_0-1_PRO0
  6
Continuous
 62
     0
100
AcDbText
 10
851.0487660935
 20
705.8242531059
 30
0.0
 40
9.0
  1
６
100
AcDbText
  0
LINE
  5
7A4
330
128
100
AcDbEntity
  8
_0-1_PRO0
  6
Continuous
 62
     0
100
AcDbLine
 10
876.2443817248
 20
651.7104755208
 30
0.0
 11
857.0419607248
 21
704.4686885208
 31
0.0
  0
CIRCLE
  5
7A5
330
128
100
AcDbEntity
  8
_0-1_PRO0
  6
Continuous
 62
     0
100
AcDbCircle
 10
854.9898407247999
 20
710.1068435208
 30
0.0
 40
6.0
  0
CIRCLE
  5
7A6
330
128
100
AcDbEntity
  8
_0-1_PRO0
  6
Continuous
 62
     0
100
AcDbCircle
 10
876.2443817248
 20
651.7104755208
 30
0.0
 40
0.9
  0
CIRCLE
  5
7A7
330
128
100
AcDbEntity
  8
_0-1_PRO0
  6
Continuous
 62
     0
100
AcDbCircle
 10
882.3344349779999
 20
646.4753480271999
 30
0.0
 40
0.9
  0
CIRCLE
  5
7A8
330
128
100
AcDbEntity
  8
_0-1_PRO0
  6
Continuous
 62
     0
100
AcDbCircle
 10
866.688435978
 20
619.3756850271999
 30
0.0
 40
6.0
  0
LINE
  5
7A9
330
128
100
AcDbEntity
  8
_0-1_PRO0
  6
Continuous
 62
     0
100
AcDbLine
 10
882.3344349779999
 20
646.4753480271999
 30
0.0
 11
869.688435978
 21
624.5718350271999
 31
0.0
  0
CIRCLE
  5
7AA
330
128
100
AcDbEntity
  8
_0-1_PRO0
  6
Continuous
 62
     0
100
AcDbCircle
 10
891.516966978
 20
648.9389540272
 30
0.0
 40
0.9
  0
CIRCLE
  5
7AB
330
128
100
AcDbEntity
  8
_0-1_PRO0
  6
Continuous
 62
     0
100
AcDbCircle
 10
906.128517978
 20
623.6310020272
 30
0.0
 40
6.0
  0
LINE
  5
7AC
330
128
100
AcDbEntity
  8
_0-1_PRO0
  6
Continuous
 62
     0
100
AcDbLine
 10
891.516966978
 20
648.9389540272
 30
0.0
 11
903.1285179779999
 21
628.8271550272
 31
0.0
  0
CIRCLE
  5
7AD
330
128
100
AcDbEntity
  8
_0-1_PRO0
  6
Continuous
 62
     0
100
AcDbCircle
 10
904.3702059780001
 20
645.9280910272
 30
0.0
 40
0.9
  0
CIRCLE
  5
7AE
330
128
100
AcDbEntity
  8
_0-1_PRO0
  6
Continuous
 62
     0
100
AcDbCircle
 10
937.368732978
 20
703.0832150272
 30
0.0
 40
6.0
  0
LINE
  5
7AF
330
128
100
AcDbEntity
  8
_0-1_PRO0
  6
Continuous
 62
     0
100
AcDbLine
 10
904.3702059780001
 20
645.9280910272
 30
0.0
 11
934.3687329779999
 21
697.8870650272
 31
0.0
  0
TEXT
  5
7B0
330
128
100
AcDbEntity
  8
_0-1_PRO0
  6
Continuous
 62
     0
100
AcDbText
 10
912.1024993896
 20
713.2924032475999
 30
0.0
 40
9.0
  1
10
100
AcDbText
  0
CIRCLE
  5
7B1
330
128
100
AcDbEntity
  8
_0-1_PRO0
  6
Continuous
 62
     0
100
AcDbCircle
 10
916.9163850642
 20
718.3521905401
 30
0.0
 40
6.0
  0
LINE
  5
7B2
330
128
100
AcDbEntity
  8
_0-1_PRO0
  6
Continuous
 62
     0
100
AcDbLine
 10
887.1867942635999
 20
663.9135750272
 30
0.0
 11
913.9163850641999
 21
713.1560375401
 31
0.0
  0
LINE
  5
7B3
330
128
100
AcDbEntity
  8
_1-0_
  6
Continuous
 62
     0
100
AcDbLine
 10
886.8563142636
 20
595.7632980271999
 30
0.0
 11
886.8563142636
 21
641.1966990272
 31
0.0
  0
LINE
  5
7B4
330
128
100
AcDbEntity
  8
_1-0_
  6
Continuous
 62
     0
100
AcDbLine
 10
891.6063162636
 20
632.1966990272
 30
0.0
 11
890.9063142636
 21
632.8966980272
 31
0.0
  0
LINE
  5
7B5
330
128
100
AcDbEntity
  8
_1-0_
  6
Continuous
 62
     0
100
AcDbLine
 10
890.9063142636
 20
642.1966980271999
 30
0.0
 11
890.9063142636
 21
632.8966980272
 31
0.0
  0
LINE
  5
7B6
330
128
100
AcDbEntity
  8
_1-0_
  6
Continuous
 62
     0
100
AcDbLine
 10
891.6063162636
 20
613.5685260272
 30
0.0
 11
891.6063162636
 21
632.1966990272
 31
0.0
  0
LINE
  5
7B7
330
128
100
AcDbEntity
  8
_1-0_
  6
Continuous
 62
     0
100
AcDbLine
 10
891.3563142636
 20
601.6966980272
 30
0.0
 11
891.3563142636
 21
602.5600020271999
 31
0.0
  0
LINE
  5
7B8
330
128
100
AcDbEntity
  8
_1-0_
  6
Continuous
 62
     0
100
AcDbLine
 10
893.4813462636
 20
602.9347020272
 30
0.0
 11
891.6063162636
 21
613.5685260272
 31
0.0
  0
LINE
  5
7B9
330
128
100
AcDbEntity
  8
_1-0_
  6
Continuous
 62
     0
100
AcDbLine
 10
887.3563152636
 20
613.1966970271999
 30
0.0
 11
886.3563162635999
 21
613.1966970271999
 31
0.0
  0
LINE
  5
7BA
330
128
100
AcDbEntity
  8
_1-0_
  6
Continuous
 62
     0
100
AcDbLine
 10
882.1063152636
 20
632.1966990272
 30
0.0
 11
882.8063142636001
 21
632.8966980272
 31
0.0
  0
LINE
  5
7BB
330
128
100
AcDbEntity
  8
_1-0_
  6
Continuous
 62
     0
100
AcDbLine
 10
882.8063142636001
 20
642.1966980271999
 30
0.0
 11
882.8063142636001
 21
632.8966980272
 31
0.0
  0
LINE
  5
7BC
330
128
100
AcDbEntity
  8
_1-0_
  6
Continuous
 62
     0
100
AcDbLine
 10
882.1063152636
 20
613.5685260272
 30
0.0
 11
882.1063152636
 21
632.1966990272
 31
0.0
  0
LINE
  5
7BD
330
128
100
AcDbEntity
  8
_1-0_
  6
Continuous
 62
     0
100
AcDbLine
 10
883.3563162636
 20
600.6966990271999
 30
0.0
 11
890.3563152635999
 21
600.6966990271999
 31
0.0
  0
ARC
  5
7BE
330
128
100
AcDbEntity
  8
_1-0_
  6
Continuous
 62
     0
100
AcDbCircle
 10
883.3563162636
 20
601.6966980272
 30
0.0
 40
0.999999
100
AcDbArc
 50
180.0
 51
270.0
  0
LINE
  5
7BF
330
128
100
AcDbEntity
  8
_1-0_
  6
Continuous
 62
     0
100
AcDbLine
 10
882.3563142636
 20
601.6966980272
 30
0.0
 11
882.3563142636
 21
602.5600020271999
 31
0.0
  0
LINE
  5
7C0
330
128
100
AcDbEntity
  8
_1-0_
  6
Continuous
 62
     0
100
AcDbLine
 10
880.2312852636001
 20
602.9347020272
 30
0.0
 11
884.4167172636
 21
602.1966990272
 31
0.0
  0
LINE
  5
7C1
330
128
100
AcDbEntity
  8
_1-0_
  6
Continuous
 62
     0
100
AcDbLine
 10
887.3563152636
 20
613.1966970271999
 30
0.0
 11
889.2959112636001
 21
602.1966990272
 31
0.0
  0
LINE
  5
7C2
330
128
100
AcDbEntity
  8
_1-0_
  6
Continuous
 62
     0
100
AcDbLine
 10
886.3563162635999
 20
613.1966970271999
 30
0.0
 11
884.4167172636
 21
602.1966990272
 31
0.0
  0
LINE
  5
7C3
330
128
100
AcDbEntity
  8
_1-0_
  6
Continuous
 62
     0
100
AcDbLine
 10
880.2312852636001
 20
602.9347020272
 30
0.0
 11
882.1063152636
 21
613.5685260272
 31
0.0
  0
LINE
  5
7C4
330
128
100
AcDbEntity
  8
_1-0_
  6
Continuous
 62
     0
100
AcDbLine
 10
891.6063162636
 20
632.1966990272
 30
0.0
 11
882.1063152636
 21
632.1966990272
 31
0.0
  0
LINE
  5
7C5
330
128
100
AcDbEntity
  8
_1-0_
  6
Continuous
 62
     0
100
AcDbLine
 10
890.9063142636
 20
632.8966980272
 30
0.0
 11
882.8063142636001
 21
632.8966980272
 31
0.0
  0
LINE
  5
7C6
330
128
100
AcDbEntity
  8
_1-0_
  6
Continuous
 62
     0
100
AcDbLine
 10
893.4813462636
 20
602.9347020272
 30
0.0
 11
889.2959112636001
 21
602.1966990272
 31
0.0
  0
ARC
  5
7C7
330
128
100
AcDbEntity
  8
_1-0_
  6
Continuous
 62
     0
100
AcDbCircle
 10
890.3563152635999
 20
601.6966980272
 30
0.0
 40
0.999999
100
AcDbArc
 50
-90.0
 51
0.0
  0
LINE
  5
7C8
330
128
100
AcDbEntity
  8
_0-1_PRO0
  6
Continuous
 62
     0
100
AcDbLine
 10
886.8563142636
 20
595.7632980271999
 30
0.0
 11
886.8563142636
 21
641.1966990272
 31
0.0
  0
LINE
  5
7C9
330
128
100
AcDbEntity
  8
_0-1_PRO0
  6
Continuous
 62
     0
100
AcDbLine
 10
880.2312852636001
 20
602.9347020272
 30
0.0
 11
884.4167172636
 21
602.1966990272
 31
0.0
  0
CIRCLE
  5
7CA
330
128
100
AcDbEntity
  8
_0-1_PRO0
  6
Continuous
 62
     0
100
AcDbCircle
 10
886.8313932636
 20
620.8305210271999
 30
0.0
 40
0.9
  0
LINE
  5
7CB
330
128
100
AcDbEntity
  8
_0-1_PRO0
  6
Continuous
 62
     0
100
AcDbLine
 10
886.8313932636
 20
620.8305210271999
 30
0.0
 11
873.1509462635999
 21
597.1352940271999
 31
0.0
  0
CIRCLE
  5
7CC
330
128
100
AcDbEntity
  8
_0-1_PRO0
  6
Continuous
 62
     0
100
AcDbCircle
 10
887.1867942635999
 20
663.9135750272
 30
0.0
 40
0.9
  0
LINE
  5
7CD
330
128
100
AcDbEntity
  8
_1-0_
  6
Continuous
 62
     0
100
AcDbLine
 10
888.8296927085999
 20
694.1789459688999
 30
0.0
 11
886.6834250616999
 21
655.5120490333
 31
0.0
  0
LINE
  5
7CE
330
128
100
AcDbEntity
  8
ADD_LINE
  6
DOT
 62
     0
100
AcDbLine
 10
883.9758499328999
 20
696.9074022111
 30
0.0
 11
1156.856315264
 21
687.3268937111999
 31
0.0
  0
LINE
  5
7CF
330
128
100
AcDbEntity
  8
_2-0_
  6
Continuous
 62
     0
100
AcDbLine
 10
771.0637057328
 20
516.7213472551
 30
0.0
 11
806.0950003961
 21
642.2191402981
 31
0.0
  0
LINE
  5
7D0
330
128
100
AcDbEntity
  8
_0-0_
  6
Continuous
 62
     0
100
AcDbLine
 10
772.0296315591
 20
516.4625282099999
 30
0.0
 11
806.8563142636
 21
641.1966990272
 31
0.0
  0
LINE
  5
7D1
330
128
100
AcDbEntity
  8
_0-1_PRO0
  6
Continuous
 62
     0
100
AcDbLine
 10
806.8563142636
 20
641.1966990272
 30
0.0
 11
806.8563142636
 21
445.4758936511
 31
0.0
  0
LINE
  5
7D2
330
128
100
AcDbEntity
  8
_0-1_PRO0
  6
Continuous
 62
     0
100
AcDbLine
 10
936.8563152635999
 20
641.1966990272
 30
0.0
 11
936.8563152635999
 21
438.9249205844
 31
0.0
  0
LINE
  5
7D3
330
128
100
AcDbEntity
  8
_0-1_PRO0
  6
Continuous
 62
     0
100
AcDbLine
 10
886.8563142636
 20
594.7632960272
 30
0.0
 11
886.8563142636
 21
445.5443065844
 31
0.0
  0
ARC
  5
7D4
330
128
100
AcDbEntity
  8
_1-0_
  6
Continuous
 62
     0
100
AcDbCircle
 10
891.8375917086001
 20
692.0785296646999
 30
0.0
 40
2.000000999999999
100
AcDbArc
 50
-3.000000000002999
 51
37.903458
  0
LINE
  5
7D5
330
128
100
AcDbEntity
  8
_1-0_
  6
Continuous
 62
     0
100
AcDbLine
 10
877.3300837085999
 20
690.7203516647
 30
0.0
 11
899.6734117086001
 21
689.5493856647
 31
0.0
  0
LINE
  5
7D6
330
128
100
AcDbEntity
  8
_1-0_
  6
Continuous
 62
     0
100
AcDbLine
 10
864.1293247086
 20
678.7276656647
 30
0.0
 11
877.3300837085999
 21
690.7203516647
 31
0.0
  0
ARC
  5
7D7
330
128
100
AcDbEntity
  8
_1-0_
  6
Continuous
 62
     0
100
AcDbCircle
 10
885.3465007086001
 20
692.4187146647
 30
0.0
 40
2.000000999999999
100
AcDbArc
 50
136.096542
 51
177.0
  0
LINE
  5
7D8
330
128
100
AcDbEntity
  8
_1-0_
  6
Continuous
 62
     0
100
AcDbLine
 10
893.8348507086001
 20
691.9738566647001
 30
0.0
 11
893.7660007086
 21
690.6600786647
 31
0.0
  0
LINE
  5
7D9
330
128
100
AcDbEntity
  8
_1-0_
  6
Continuous
 62
     0
100
AcDbLine
 10
883.3492417086
 20
692.5233846647
 30
0.0
 11
883.2803887085999
 21
691.2096066646999
 31
0.0
  0
ARC
  5
7DA
330
128
100
AcDbEntity
  8
_1-0_
  6
Continuous
 62
     0
100
AcDbCircle
 10
888.4446907085999
 20
689.4368976647
 30
0.0
 40
6.299999999999999
100
AcDbArc
 50
37.903458
 51
136.096542
  0
ARC
  5
7DB
330
128
100
AcDbEntity
  8
_1-0_
  6
Continuous
 62
     0
100
AcDbCircle
 10
862.9189567085999
 20
680.0599626647
 30
0.0
 40
1.8
100
AcDbArc
 50
-145.745342
 51
-47.74534899999999
  0
ARC
  5
7DC
330
128
100
AcDbEntity
  8
_1-0_
  6
Continuous
 62
     0
100
AcDbCircle
 10
862.9189567085999
 20
680.0599626647
 30
0.0
 40
0.999999
100
AcDbArc
 50
-145.745342
 51
-47.74534800000999
  0
LINE
  5
7DD
330
128
100
AcDbEntity
  8
_1-0_
  6
Continuous
 62
     0
100
AcDbLine
 10
859.7425627086
 20
681.5264226647
 30
0.0
 11
861.4311787086
 21
679.0467906646999
 31
0.0
  0
LINE
  5
7DE
330
128
100
AcDbEntity
  8
_1-0_
  6
Continuous
 62
     0
100
AcDbLine
 10
860.4037987086
 20
681.9767226647
 30
0.0
 11
862.0924147086
 21
679.4970906647001
 31
0.0
  0
LINE
  5
7DF
330
128
100
AcDbEntity
  8
_1-0_
  6
Continuous
 62
     0
100
AcDbLine
 10
859.7425627086
 20
681.5264226647
 30
0.0
 11
860.4037987086
 21
681.9767226647
 31
0.0
  0
LINE
  5
7E0
330
128
100
AcDbEntity
  8
_1-0_
  6
Continuous
 62
     0
100
AcDbLine
 10
863.5913857086
 20
679.3197966646999
 30
0.0
 11
877.0389547086001
 21
691.5367056646999
 31
0.0
  0
LINE
  5
7E1
330
128
100
AcDbEntity
  8
_1-0_
  6
Continuous
 62
     0
100
AcDbLine
 10
877.0389547086001
 20
691.5367056646999
 30
0.0
 11
900.0074347086
 21
690.3329796647
 31
0.0
  0
LINE
  5
7E2
330
128
100
AcDbEntity
  8
_1-0_
  6
Continuous
 62
     0
100
AcDbLine
 10
911.5074337085999
 20
676.2446856647
 30
0.0
 11
899.6325667086001
 21
689.5515276647
 31
0.0
  0
LINE
  5
7E3
330
128
100
AcDbEntity
  8
_1-0_
  6
Continuous
 62
     0
100
AcDbLine
 10
912.1043227086
 20
676.7773416646999
 30
0.0
 11
900.0074347086
 21
690.3329796647
 31
0.0
  0
LINE
  5
7E4
330
128
100
AcDbEntity
  8
_1-0_
  6
Continuous
 62
     0
100
AcDbLine
 10
915.5521717085999
 20
679.0865166646999
 30
0.0
 11
913.6136137085999
 21
676.7969766647
 31
0.0
  0
ARC
  5
7E5
330
128
100
AcDbEntity
  8
_1-0_
  6
Continuous
 62
     0
100
AcDbCircle
 10
912.8504347086
 20
677.4431646647
 30
0.0
 40
0.999999
100
AcDbArc
 50
-138.254652
 51
-40.254658
  0
ARC
  5
7E6
330
128
100
AcDbEntity
  8
_1-0_
  6
Continuous
 62
     0
100
AcDbCircle
 10
912.8504347086
 20
677.4431646647
 30
0.0
 40
1.8
100
AcDbArc
 50
-138.254651
 51
-40.254658
  0
LINE
  5
7E7
330
128
100
AcDbEntity
  8
_1-0_
  6
Continuous
 62
     0
100
AcDbLine
 10
916.1627167085999
 20
678.5695686647
 30
0.0
 11
914.2241587086001
 21
676.2800286646999
 31
0.0
  0
LINE
  5
7E8
330
128
100
AcDbEntity
  8
_1-0_
  6
Continuous
 62
     0
100
AcDbLine
 10
916.1627167085999
 20
678.5695686647
 30
0.0
 11
915.5521717085999
 21
679.0865166646999
 31
0.0
  0
LINE
  5
7E9
330
128
100
AcDbEntity
  8
_0-1_PRO0
  6
Continuous
 62
     0
100
AcDbLine
 10
906.3610221238
 20
680.5984100032
 30
0.0
 11
930.2714721238
 21
722.0125220032
 31
0.0
  0
CIRCLE
  5
7EA
330
128
100
AcDbEntity
  8
_0-1_PRO0
  6
Continuous
 62
     0
100
AcDbCircle
 10
933.2714721238001
 20
727.2086750032
 30
0.0
 40
6.0
  0
TEXT
  5
7EB
330
128
100
AcDbEntity
  8
_0-1_PRO0
  6
Continuous
 62
     0
100
AcDbText
 10
928.6483174225999
 20
722.2229921325
 30
0.0
 40
9.0
  1
５
100
AcDbText
  0
CIRCLE
  5
7EC
330
128
100
AcDbEntity
  8
_0-1_PRO0
  6
Continuous
 62
     0
100
AcDbCircle
 10
906.3610221238
 20
680.5984100032
 30
0.0
 40
0.9
  0
LINE
  5
7ED
330
128
100
AcDbEntity
  8
_1-0_
  6
Continuous
 62
     0
100
AcDbLine
 10
885.5273047085999
 20
691.0918506647
 30
0.0
 11
883.8256869985
 21
661.6405442635
 31
0.0
  0
LINE
  5
7EE
330
128
100
AcDbEntity
  8
_1-0_
  6
Continuous
 62
     0
100
AcDbLine
 10
886.0266217086
 20
691.0656816647
 30
0.0
 11
884.2961588277001
 21
661.115201729
 31
0.0
  0
LINE
  5
7EF
330
128
100
AcDbEntity
  8
_1-0_
  6
Continuous
 62
     0
100
AcDbLine
 10
891.0197677086001
 20
690.8040036646999
 30
0.0
 11
889.2893089892998
 21
660.8535220413999
 31
0.0
  0
LINE
  5
7F0
330
128
100
AcDbEntity
  8
_1-0_
  6
Continuous
 62
     0
100
AcDbLine
 10
891.5190847086
 20
690.7778346646999
 30
0.0
 11
889.8174630733
 21
661.3265288543
 31
0.0
  0
LINE
  5
7F1
330
128
100
AcDbEntity
  8
_a-0_
  6
Continuous
 62
     0
100
AcDbLine
 10
889.8174630733
 20
661.3265288543
 30
0.0
 11
889.496421361
 21
661.0390087503
 31
0.0
  0
LINE
  5
7F2
330
128
100
AcDbEntity
  8
_a-0_
  6
Continuous
 62
     0
100
AcDbLine
 10
889.496421361
 20
661.0390087503
 30
0.0
 11
889.2893089892998
 21
660.8535220413999
 31
0.0
  0
LINE
  5
7F3
330
128
100
AcDbEntity
  8
_a-0_
  6
Continuous
 62
     0
100
AcDbLine
 10
883.8256869985
 20
661.6405442635
 30
0.0
 11
889.8174630733
 21
661.3265288543
 31
0.0
  0
LINE
  5
7F4
330
128
100
AcDbEntity
  8
_a-0_
  6
Continuous
 62
     0
100
AcDbLine
 10
884.2961588277001
 20
661.115201729
 30
0.0
 11
889.2893089892998
 21
660.8535220413999
 31
0.0
  0
LINE
  5
7F5
330
128
100
AcDbEntity
  8
_a-0_
  6
Continuous
 62
     0
100
AcDbLine
 10
884.1116658665999
 20
661.3212119378999
 30
0.0
 11
883.8256869985
 21
661.6405442635
 31
0.0
  0
LINE
  5
7F6
330
128
100
AcDbEntity
  8
_a-0_
  6
Continuous
 62
     0
100
AcDbLine
 10
884.2961588277001
 20
661.115201729
 30
0.0
 11
884.1116658665999
 21
661.3212119378999
 31
0.0
  0
CIRCLE
  5
7F7
330
128
100
AcDbEntity
  8
_0-1_PRO0
  6
Continuous
 62
     0
100
AcDbCircle
 10
301.864149906
 20
683.2470220916999
 30
0.0
 40
0.9
  0
LINE
  5
7F8
330
128
100
AcDbEntity
  8
_1-0_
  6
Continuous
 62
     0
100
AcDbLine
 10
336.810528327
 20
691.5446799147
 30
0.0
 11
313.842048327
 21
690.3409539146999
 31
0.0
  0
LINE
  5
7F9
330
128
100
AcDbEntity
  8
_1-0_
  6
Continuous
 62
     0
100
AcDbLine
 10
350.258097327
 20
679.3277709147
 30
0.0
 11
336.810528327
 21
691.5446799147
 31
0.0
  0
LINE
  5
7FA
330
128
100
AcDbEntity
  8
_1-0_
  6
Continuous
 62
     0
100
AcDbLine
 10
354.106920327
 20
681.5343969147
 30
0.0
 11
353.445684327
 21
681.9846969147
 31
0.0
  0
LINE
  5
7FB
330
128
100
AcDbEntity
  8
_1-0_
  6
Continuous
 62
     0
100
AcDbLine
 10
353.445684327
 20
681.9846969147
 30
0.0
 11
351.757068327
 21
679.5050649147
 31
0.0
  0
LINE
  5
7FC
330
128
100
AcDbEntity
  8
_1-0_
  6
Continuous
 62
     0
100
AcDbLine
 10
354.106920327
 20
681.5343969147
 30
0.0
 11
352.418304327
 21
679.0547649147001
 31
0.0
  0
ARC
  5
7FD
330
128
100
AcDbEntity
  8
_1-0_
  6
Continuous
 62
     0
100
AcDbCircle
 10
350.930526327
 20
680.0679369146999
 30
0.0
 40
0.999999
100
AcDbArc
 50
-132.254652
 51
-34.25465800001
  0
ARC
  5
7FE
330
128
100
AcDbEntity
  8
_1-0_
  6
Continuous
 62
     0
100
AcDbCircle
 10
350.930526327
 20
680.0679369146999
 30
0.0
 40
1.8
100
AcDbArc
 50
-132.254651
 51
-34.254658
  0
ARC
  5
7FF
330
128
100
AcDbEntity
  8
_1-0_
  6
Continuous
 62
     0
100
AcDbCircle
 10
325.404792327
 20
689.4448719147
 30
0.0
 40
6.299999999999999
100
AcDbArc
 50
43.903458
 51
142.096542
  0
LINE
  5
800
330
128
100
AcDbEntity
  8
_1-0_
  6
Continuous
 62
     0
100
AcDbLine
 10
330.500241327
 20
692.5313589147
 30
0.0
 11
330.569094327
 21
691.2175809146999
 31
0.0
  0
LINE
  5
801
330
128
100
AcDbEntity
  8
_1-0_
  6
Continuous
 62
     0
100
AcDbLine
 10
320.014632327
 20
691.9818309147
 30
0.0
 11
320.083482327
 21
690.6680529146999
 31
0.0
  0
ARC
  5
802
330
128
100
AcDbEntity
  8
_1-0_
  6
Continuous
 62
     0
100
AcDbCircle
 10
328.502982327
 20
692.4266889146999
 30
0.0
 40
2.000000999999999
100
AcDbArc
 50
2.999999999998999
 51
43.903458
  0
LINE
  5
803
330
128
100
AcDbEntity
  8
_1-0_
  6
Continuous
 62
     0
100
AcDbLine
 10
349.720158327
 20
678.7356399146999
 30
0.0
 11
336.5193993270001
 21
690.7283259147
 31
0.0
  0
LINE
  5
804
330
128
100
AcDbEntity
  8
_1-0_
  6
Continuous
 62
     0
100
AcDbLine
 10
336.5193993270001
 20
690.7283259147
 30
0.0
 11
314.176071327
 21
689.5573599147
 31
0.0
  0
LINE
  5
805
330
128
100
AcDbEntity
  8
_1-0_
  6
Continuous
 62
     0
100
AcDbLine
 10
302.342049327
 20
676.2526599146999
 30
0.0
 11
314.2169163270001
 21
689.5595019147
 31
0.0
  0
ARC
  5
806
330
128
100
AcDbEntity
  8
_1-0_
  6
Continuous
 62
     0
100
AcDbCircle
 10
322.011891327
 20
692.0865039146999
 30
0.0
 40
2.000000999999999
100
AcDbArc
 50
142.096542
 51
183.0
  0
LINE
  5
807
330
128
100
AcDbEntity
  8
_1-0_
  6
Continuous
 62
     0
100
AcDbLine
 10
297.686766327
 20
678.5775429146999
 30
0.0
 11
298.297311327
 21
679.0944909147
 31
0.0
  0
LINE
  5
808
330
128
100
AcDbEntity
  8
_1-0_
  6
Continuous
 62
     0
100
AcDbLine
 10
298.297311327
 20
679.0944909147
 30
0.0
 11
300.235869327
 21
676.8049509147
 31
0.0
  0
LINE
  5
809
330
128
100
AcDbEntity
  8
_1-0_
  6
Continuous
 62
     0
100
AcDbLine
 10
297.686766327
 20
678.5775429146999
 30
0.0
 11
299.625324327
 21
676.2880029146999
 31
0.0
  0
ARC
  5
80A
330
128
100
AcDbEntity
  8
_1-0_
  6
Continuous
 62
     0
100
AcDbCircle
 10
300.999048327
 20
677.4511389147
 30
0.0
 40
0.999999
100
AcDbArc
 50
-139.745342
 51
-41.74534799999999
  0
LINE
  5
80B
330
128
100
AcDbEntity
  8
_1-0_
  6
Continuous
 62
     0
100
AcDbLine
 10
301.745160327
 20
676.7853159147001
 30
0.0
 11
313.842048327
 21
690.3409539146999
 31
0.0
  0
ARC
  5
80C
330
128
100
AcDbEntity
  8
_1-0_
  6
Continuous
 62
     0
100
AcDbCircle
 10
300.999048327
 20
677.4511389147
 30
0.0
 40
1.8
100
AcDbArc
 50
-139.745342
 51
-41.745349
  0
LINE
  5
80D
330
128
100
AcDbEntity
  8
_1-0_
  6
Continuous
 62
     0
100
AcDbLine
 10
328.322178327
 20
691.0998249147
 30
0.0
 11
330.023796037
 21
661.6485185136
 31
0.0
  0
LINE
  5
80E
330
128
100
AcDbEntity
  8
_1-0_
  6
Continuous
 62
     0
100
AcDbLine
 10
325.019790327
 20
696.7911669147
 30
0.0
 11
327.1660579738
 21
658.1242699791
 31
0.0
  0
LINE
  5
80F
330
128
100
AcDbEntity
  8
_1-0_
  6
Continuous
 62
     0
100
AcDbLine
 10
322.829715327
 20
690.8119779147
 30
0.0
 11
324.5601740462
 21
660.8614962914
 31
0.0
  0
LINE
  5
810
330
128
100
AcDbEntity
  8
_1-0_
  6
Continuous
 62
     0
100
AcDbLine
 10
322.330398327
 20
690.7858089147
 30
0.0
 11
324.0320199623
 21
661.3345031042999
 31
0.0
  0
LINE
  5
811
330
128
100
AcDbEntity
  8
_1-0_
  6
Continuous
 62
     0
100
AcDbLine
 10
327.822861327
 20
691.0736559146999
 30
0.0
 11
329.5533242078
 21
661.123175979
 31
0.0
  0
LINE
  5
812
330
128
100
AcDbEntity
  8
_a-0_
  6
Continuous
 62
     0
100
AcDbLine
 10
329.5533242078
 20
661.123175979
 30
0.0
 11
324.5601740462
 21
660.8614962914
 31
0.0
  0
LINE
  5
813
330
128
100
AcDbEntity
  8
_a-0_
  6
Continuous
 62
     0
100
AcDbLine
 10
329.5533242078
 20
661.123175979
 30
0.0
 11
329.7378171690001
 21
661.3291861879
 31
0.0
  0
LINE
  5
814
330
128
100
AcDbEntity
  8
_a-0_
  6
Continuous
 62
     0
100
AcDbLine
 10
329.7378171690001
 20
661.3291861879
 30
0.0
 11
330.023796037
 21
661.6485185136
 31
0.0
  0
LINE
  5
815
330
128
100
AcDbEntity
  8
_a-0_
  6
Continuous
 62
     0
100
AcDbLine
 10
330.023796037
 20
661.6485185136
 30
0.0
 11
324.0320199623
 21
661.3345031042999
 31
0.0
  0
LINE
  5
816
330
128
100
AcDbEntity
  8
_a-0_
  6
Continuous
 62
     0
100
AcDbLine
 10
324.3530616745
 20
661.0469830002999
 30
0.0
 11
324.5601740462
 21
660.8614962914
 31
0.0
  0
LINE
  5
817
330
128
100
AcDbEntity
  8
_a-0_
  6
Continuous
 62
     0
100
AcDbLine
 10
324.0320199623
 20
661.3345031042999
 30
0.0
 11
324.3530616745
 21
661.0469830002999
 31
0.0
  0
LINE
  5
818
330
128
100
AcDbEntity
  8
_0-1_PRO0
  6
Continuous
 62
     0
100
AcDbLine
 10
330.8361362242
 20
705.1882446247999
 30
0.0
 11
390.8361362242
 21
708.3327096247999
 31
0.0
  0
LINE
  5
819
330
128
100
AcDbEntity
  8
_0-1_PRO0
  6
Continuous
 62
     0
100
AcDbLine
 10
330.8361362242
 20
708.3327096247999
 30
0.0
 11
390.8361362242
 21
708.3327096247999
 31
0.0
  0
TEXT
  5
81A
330
128
100
AcDbEntity
  8
_0-1_PRO0
  6
Continuous
 62
     0
100
AcDbText
 10
330.9531892945
 20
709.5156369021999
 30
0.0
 40
9.0
  1
（勾配３度）
100
AcDbText
  0
LINE
  5
81B
330
128
100
AcDbEntity
  8
_0-3_
  6
Continuous
 62
     0
100
AcDbLine
 10
330.8361362242
 20
708.3327096247999
 30
0.0
 11
330.8361362242
 21
705.1882446247999
 31
0.0
  0
TEXT
  5
81C
330
128
100
AcDbEntity
  8
_2-0_
  6
Continuous
 62
     0
100
AcDbText
 10
967.1206585044998
 20
283.3193458671
 30
0.0
 40
7.5
  1
１３０
100
AcDbText
  0
TEXT
  5
81D
330
128
100
AcDbEntity
  8
_0-1_PRO0
  6
Continuous
 62
     0
100
AcDbText
 10
600.8590587454
 20
353.9308901313
 30
0.0
 40
9.0
  1
400
100
AcDbText
  0
TEXT
  5
81E
330
128
100
AcDbEntity
  8
_0-1_PRO0
  6
Continuous
 62
     0
100
AcDbText
 10
152.6144421744
 20
352.8833025344
 30
0.0
 40
9.0
  1
220
100
AcDbText
  0
TEXT
  5
822
330
128
100
AcDbEntity
  8
_2-0_
  6
Continuous
 62
     0
100
AcDbText
 10
427.3964656254999
 20
248.0167879415
 30
0.0
 40
7.5
  1
ｔ１．０×ｗ３０
100
AcDbText
  0
TEXT
  5
823
330
128
100
AcDbEntity
  8
_2-0_
  6
Continuous
 62
     0
100
AcDbText
 10
427.0839656255
 20
140.0167879415
 30
0.0
 40
7.5
  1
ＦＳ１２００
100
AcDbText
  0
TEXT
  5
824
330
128
100
AcDbEntity
  8
_2-0_
  6
Continuous
 62
     0
100
AcDbText
 10
427.3964656254999
 20
122.0167879415
 30
0.0
 40
7.49
  1
なべＭ６×３５
 41
1.001335113484999
100
AcDbText
  0
TEXT
  5
825
330
128
100
AcDbEntity
  8
_2-0_
  6
Continuous
 62
     0
100
AcDbText
 10
428.6464656255
 20
104.0167879415
 30
0.0
 40
7.49
  1
Ｍ６×４０
 41
1.001335113484999
100
AcDbText
  0
TEXT
  5
826
330
128
100
AcDbEntity
  8
_2-0_
  6
Continuous
 62
     0
100
AcDbText
 10
428.0214656255
 20
86.01678794147
 30
0.0
 40
7.5
  1
ＡＧ－６６０
100
AcDbText
  0
TEXT
  5
827
330
128
100
AcDbEntity
  8
_2-0_
  6
Continuous
 62
     0
100
AcDbText
 10
426.4589656255
 20
68.01678794147
 30
0.0
 40
7.5
  1
１．５×１８×６．５穴
100
AcDbText
  0
TEXT
  5
828
330
128
100
AcDbEntity
  8
_2-0_
  6
Continuous
 62
     0
100
AcDbText
 10
578.1399688591
 20
284.0167879415
 30
0.0
 40
7.5
  1
３０００
100
AcDbText
  0
TEXT
  5
829
330
128
100
AcDbEntity
  8
_2-0_
  6
Continuous
 62
     0
100
AcDbText
 10
578.1399688591
 20
266.0167879415
 30
0.0
 40
7.49
  1
３０００
 41
1.001335113484999
100
AcDbText
  0
TEXT
  5
82A
330
128
100
AcDbEntity
  8
_2-0_
  6
Continuous
 62
     0
100
AcDbText
 10
578.1399688591
 20
248.0167879415
 30
0.0
 40
7.5
  1
６０００
100
AcDbText
  0
TEXT
  5
82B
330
128
100
AcDbEntity
  8
_2-0_
  6
Continuous
 62
     0
100
AcDbText
 10
577.661514472
 20
158.944380685
 30
0.0
 40
7.49
  1
３０６０
 41
1.001335113484999
100
AcDbText
  0
TEXT
  5
82C
330
128
100
AcDbEntity
  8
_2-0_
  6
Continuous
 62
     0
100
AcDbText
 10
578.1399688591
 20
140.0167879415
 30
0.0
 40
7.5
  1
３１００
100
AcDbText
  0
TEXT
  5
82D
330
128
100
AcDbEntity
  8
_2-0_
  6
Continuous
 62
     0
100
AcDbText
 10
753.5292593979
 20
302.0167879415
 30
0.0
 40
7.5
  1
単位
 41
0.9986666666666998
100
AcDbText
  0
TEXT
  5
82E
330
128
100
AcDbEntity
  8
_2-0_
  6
Continuous
 62
     0
100
AcDbText
 10
651.5292593978999
 20
302.0167879415
 30
0.0
 40
7.5
  1
単位
 41
0.9986666666666998
100
AcDbText
  0
TEXT
  5
82F
330
128
100
AcDbEntity
  8
_2-0_
  6
Continuous
 62
     0
100
AcDbText
 10
627.5292593978999
 20
302.0167879415
 30
0.0
 40
7.5
  1
入数
100
AcDbText
  0
TEXT
  5
830
330
128
100
AcDbEntity
  8
_2-0_
  6
Continuous
 62
     0
100
AcDbText
 10
729.5292593979
 20
302.0167879415
 30
0.0
 40
7.5
  1
入数
100
AcDbText
  0
TEXT
  5
831
330
128
100
AcDbEntity
  8
_2-0_
  6
Continuous
 62
     0
100
AcDbText
 10
575.6542593978999
 20
302.0167879415
 30
0.0
 40
7.5
  1
定尺(mm)
100
AcDbText
  0
TEXT
  5
832
330
128
100
AcDbEntity
  8
_2-0_
  6
Continuous
 62
     0
100
AcDbText
 10
629.5178248647999
 20
284.0167879415
 30
0.0
 40
7.5
  1
１
 41
0.9986666666666998
100
AcDbText
  0
TEXT
  5
833
330
128
100
AcDbEntity
  8
_2-0_
  6
Continuous
 62
     0
100
AcDbText
 10
629.5178248647999
 20
266.0167879415
 30
0.0
 40
7.49
  1
２
100
AcDbText
  0
TEXT
  5
834
330
128
100
AcDbEntity
  8
_2-0_
  6
Continuous
 62
     0
100
AcDbText
 10
629.5178248647999
 20
248.0167879415
 30
0.0
 40
7.5
  1
１
 41
0.9986666666666998
100
AcDbText
  0
TEXT
  5
835
330
128
100
AcDbEntity
  8
_2-0_
  6
Continuous
 62
     0
100
AcDbText
 10
629.5178248647999
 20
230.0167879415
 30
0.0
 40
7.5
  1
６
 41
0.9986666666666998
100
AcDbText
  0
TEXT
  5
836
330
128
100
AcDbEntity
  8
_2-0_
  6
Continuous
 62
     0
100
AcDbText
 10
630.0402085905999
 20
176.0167879415
 30
0.0
 40
7.5
  1
１
 41
0.9986666666666998
100
AcDbText
  0
TEXT
  5
837
330
128
100
AcDbEntity
  8
_2-0_
  6
Continuous
 62
     0
100
AcDbText
 10
630.0402085905999
 20
158.0167879414999
 30
0.0
 40
7.5
  1
２
 41
0.9986666666666998
100
AcDbText
  0
TEXT
  5
838
330
128
100
AcDbEntity
  8
_2-0_
  6
Continuous
 62
     0
100
AcDbText
 10
630.0402085905999
 20
140.0167879415
 30
0.0
 40
7.5
  1
１
 41
0.9986666666666998
100
AcDbText
  0
TEXT
  5
839
330
128
100
AcDbEntity
  8
_2-0_
  6
Continuous
 62
     0
100
AcDbText
 10
626.8125923162999
 20
212.0167879415
 30
0.0
 40
7.5
  1
１２
 41
0.9986666666666998
100
AcDbText
  0
TEXT
  5
83A
330
128
100
AcDbEntity
  8
_2-0_
  6
Continuous
 62
     0
100
AcDbText
 10
626.8125923162999
 20
194.0167879415
 30
0.0
 40
7.5
  1
１２
 41
0.9986666666666998
100
AcDbText
  0
TEXT
  5
83B
330
128
100
AcDbEntity
  8
_2-0_
  6
Continuous
 62
     0
100
AcDbText
 10
626.8125923162999
 20
122.0167879415
 30
0.0
 40
7.49
  1
１２
100
AcDbText
  0
TEXT
  5
83C
330
128
100
AcDbEntity
  8
_2-0_
  6
Continuous
 62
     0
100
AcDbText
 10
626.8125923162999
 20
104.0167879415
 30
0.0
 40
7.49
  1
１２
100
AcDbText
  0
TEXT
  5
83D
330
128
100
AcDbEntity
  8
_2-0_
  6
Continuous
 62
     0
100
AcDbText
 10
626.8125923162999
 20
86.01678794147
 30
0.0
 40
7.5
  1
１２
 41
0.9986666666666998
100
AcDbText
  0
TEXT
  5
83E
330
128
100
AcDbEntity
  8
_2-0_
  6
Continuous
 62
     0
100
AcDbText
 10
626.8125923162999
 20
68.01678794147
 30
0.0
 40
7.5
  1
１２
 41
0.9986666666666998
100
AcDbText
  0
TEXT
  5
83F
330
128
100
AcDbEntity
  8
_2-0_
  6
Continuous
 62
     0
100
AcDbText
 10
571.3339656255
 20
316.5034689731001
 30
0.0
 40
7.5
  1
（３０００mmセット）
100
AcDbText
  0
TEXT
  5
840
330
128
100
AcDbEntity
  8
_2-0_
  6
Continuous
 62
     0
100
AcDbText
 10
673.3339656255
 20
316.5034689731001
 30
0.0
 40
7.5
  1
（２０００mmセット）
 41
0.9986666666666998
100
AcDbText
  0
TEXT
  5
841
330
128
100
AcDbEntity
  8
_2-0_
  6
Continuous
 62
     0
100
AcDbText
 10
680.4314882296999
 20
302.0167879415
 30
0.0
 40
7.5
  1
定尺(mm)
 41
0.9986666666666998
100
AcDbText
  0
TEXT
  5
842
330
128
100
AcDbEntity
  8
_2-0_
  6
Continuous
 62
     0
100
AcDbText
 10
679.3867207782
 20
284.0167879415
 30
0.0
 40
7.5
  1
２０００
100
AcDbText
  0
TEXT
  5
843
330
128
100
AcDbEntity
  8
_2-0_
  6
Continuous
 62
     0
100
AcDbText
 10
679.3867207782
 20
266.0167879415
 30
0.0
 40
7.49
  1
２０００
 41
1.001335113484999
100
AcDbText
  0
TEXT
  5
844
330
128
100
AcDbEntity
  8
_2-0_
  6
Continuous
 62
     0
100
AcDbText
 10
679.3867207782
 20
248.0167879415
 30
0.0
 40
7.5
  1
６０００
100
AcDbText
  0
TEXT
  5
845
330
128
100
AcDbEntity
  8
_2-0_
  6
Continuous
 62
     0
100
AcDbText
 10
679.3867207782
 20
158.0167879414999
 30
0.0
 40
7.5
  1
２０６０
100
AcDbText
  0
TEXT
  5
846
330
128
100
AcDbEntity
  8
_2-0_
  6
Continuous
 62
     0
100
AcDbText
 10
679.3867207782
 20
140.0167879415
 30
0.0
 40
7.5
  1
２１００
100
AcDbText
  0
TEXT
  5
847
330
128
100
AcDbEntity
  8
_2-0_
  6
Continuous
 62
     0
100
AcDbText
 10
729.1998025642999
 20
104.0167879415
 30
0.0
 40
7.49
  1
１０
100
AcDbText
  0
TEXT
  5
848
330
128
100
AcDbEntity
  8
_2-0_
  6
Continuous
 62
     0
100
AcDbText
 10
729.1998025642999
 20
86.01678794147
 30
0.0
 40
7.5
  1
１０
 41
0.9986666666666998
100
AcDbText
  0
TEXT
  5
849
330
128
100
AcDbEntity
  8
_2-0_
  6
Continuous
 62
     0
100
AcDbText
 10
729.1998025642999
 20
68.01678794147
 30
0.0
 40
7.5
  1
１０
 41
0.9986666666666998
100
AcDbText
  0
TEXT
  5
84A
330
128
100
AcDbEntity
  8
_2-0_
  6
Continuous
 62
     0
100
AcDbText
 10
732.9498025642999
 20
284.0167879415
 30
0.0
 40
7.5
  1
１
 41
0.9986666666666998
100
AcDbText
  0
TEXT
  5
84B
330
128
100
AcDbEntity
  8
_2-0_
  6
Continuous
 62
     0
100
AcDbText
 10
732.9498025642999
 20
266.0167879415
 30
0.0
 40
7.49
  1
２
100
AcDbText
  0
TEXT
  5
84C
330
128
100
AcDbEntity
  8
_2-0_
  6
Continuous
 62
     0
100
AcDbText
 10
732.9498025642999
 20
248.0167879415
 30
0.0
 40
7.5
  1
１
 41
0.9986666666666998
100
AcDbText
  0
TEXT
  5
84D
330
128
100
AcDbEntity
  8
_2-0_
  6
Continuous
 62
     0
100
AcDbText
 10
732.9498025642999
 20
230.0167879415
 30
0.0
 40
7.5
  1
４
 41
0.9986666666666998
100
AcDbText
  0
TEXT
  5
84E
330
128
100
AcDbEntity
  8
_2-0_
  6
Continuous
 62
     0
100
AcDbText
 10
732.9498025642999
 20
212.0167879415
 30
0.0
 40
7.5
  1
８
 41
0.9986666666666998
100
AcDbText
  0
TEXT
  5
84F
330
128
100
AcDbEntity
  8
_2-0_
  6
Continuous
 62
     0
100
AcDbText
 10
732.9498025642999
 20
194.0167879415
 30
0.0
 40
7.5
  1
８
 41
0.9986666666666998
100
AcDbText
  0
TEXT
  5
850
330
128
100
AcDbEntity
  8
_2-0_
  6
Continuous
 62
     0
100
AcDbText
 10
732.9498025642999
 20
176.0167879415
 30
0.0
 40
7.5
  1
１
 41
0.9986666666666998
100
AcDbText
  0
TEXT
  5
851
330
128
100
AcDbEntity
  8
_2-0_
  6
Continuous
 62
     0
100
AcDbText
 10
732.9498025642999
 20
158.0167879414999
 30
0.0
 40
7.5
  1
２
 41
0.9986666666666998
100
AcDbText
  0
TEXT
  5
852
330
128
100
AcDbEntity
  8
_2-0_
  6
Continuous
 62
     0
100
AcDbText
 10
732.9498025642999
 20
140.0167879415
 30
0.0
 40
7.5
  1
１
 41
0.9986666666666998
100
AcDbText
  0
TEXT
  5
853
330
128
100
AcDbEntity
  8
_2-0_
  6
Continuous
 62
     0
100
AcDbText
 10
732.9498025642999
 20
122.0167879415
 30
0.0
 40
7.49
  1
８
100
AcDbText
  0
TEXT
  5
854
330
128
100
AcDbEntity
  8
_2-0_
  6
Continuous
 62
     0
100
AcDbText
 10
919.060591124
 20
283.9090399454
 30
0.0
 40
7.5
  1
１１００
100
AcDbText
  0
TEXT
  5
855
330
128
100
AcDbEntity
  8
_2-0_
  6
Continuous
 62
     0
100
AcDbText
 10
101.8671737961
 20
813.2616342041
 30
0.0
 40
12.0
  1
◇アルミ４００タイプ（４００ＦＹＹＧ－Ａ）
100
AcDbText
  0
TEXT
  5
856
330
128
100
AcDbEntity
  8
_2-0_
  6
Continuous
 62
     0
100
AcDbText
 10
426.7616357511999
 20
283.8288454466
 30
0.0
 40
7.5
  1
４００ＦＹＹＧ－Ａ１１００
100
AcDbText
  0
TEXT
  5
857
330
128
100
AcDbEntity
  8
_2-0_
  6
Continuous
 62
     0
100
AcDbText
 10
426.7616357511999
 20
229.935975564
 30
0.0
 40
7.5
  1
４００ＦＹＹＨ－１１００
100
AcDbText
  0
TEXT
  5
858
330
128
100
AcDbEntity
  8
_2-0_
  6
Continuous
 62
     0
100
AcDbText
 10
428.092749526
 20
175.8890881427999
 30
0.0
 40
7.5
  1
４００ＦＹＹＪ－１１００
 41
0.9986666666666998
100
AcDbText
  0
LINE
  5
859
330
128
100
AcDbEntity
  8
_2-0_
  6
Continuous
 62
     0
100
AcDbLine
 10
1230.0
 20
855.6389425874
 30
0.0
 11
30.0
 21
855.6389425874
 31
0.0
  0
LINE
  5
85A
330
128
100
AcDbEntity
  8
_2-0_
  6
Continuous
 62
     0
100
AcDbLine
 10
1230.0
 20
26.36105741264
 30
0.0
 11
1230.0
 21
855.6389425874
 31
0.0
  0
LINE
  5
85B
330
128
100
AcDbEntity
  8
_2-0_
  6
Continuous
 62
     0
100
AcDbLine
 10
30.0
 20
26.36105741264
 30
0.0
 11
1230.0
 21
26.36105741264
 31
0.0
  0
LINE
  5
85C
330
128
100
AcDbEntity
  8
_2-0_
  6
Continuous
 62
     0
100
AcDbLine
 10
30.0
 20
855.6389425874
 30
0.0
 11
30.0
 21
26.36105741264
 31
0.0
  0
TEXT
  5
85D
330
128
100
AcDbEntity
  8
_2-0_
  6
Continuous
 62
     0
100
AcDbText
 10
810.2720516060999
 20
284.200099228
 30
0.0
 40
7.5
  1
400ＦＹＹＧ－Ａ１１００
100
AcDbText
  0
ENDSEC
  0
SECTION
  2
OBJECTS
  0
DICTIONARY
  5
85E
330
0
100
AcDbDictionary
281
     1
  3
ACAD_CIP_PREVIOUS_PRODUCT_INFO
350
100000057
  3
ACAD_COLOR
350
100000037
  3
ACAD_DETAILVIEWSTYLE
350
100000050
  3
ACAD_GROUP
350
85F
  3
ACAD_IMAGE_DICT
350
860
  3
ACAD_LAYOUT
350
100000052
  3
ACAD_MATERIAL
350
100000005
  3
ACAD_MLEADERSTYLE
350
10000004C
  3
ACAD_MLINESTYLE
350
861
  3
ACAD_PLOTSETTINGS
350
100000053
  3
ACAD_PLOTSTYLENAME
350
100000003
  3
ACAD_SCALELIST
350
10000003A
  3
ACAD_SECTIONVIEWSTYLE
350
10000004E
  3
ACAD_TABLESTYLE
350
100000038
  3
ACAD_VISUALSTYLE
350
10000001E
  3
ACDB_RECOMPOSE_DATA
350
100000084
  3
AcDbVariableDictionary
350
100000078
  3
DWGPROPS
350
100000085
  0
DICTIONARY
  5
100000058
330
115
100
AcDbDictionary
280
     1
281
     1
  3
ADSK_XREC_LAYER_RECONCILED
360
100000059
  0
DICTIONARY
  5
10000005A
330
117
100
AcDbDictionary
280
     1
281
     1
  3
ADSK_XREC_LAYER_RECONCILED
360
10000005B
  0
DICTIONARY
  5
10000005C
330
118
100
AcDbDictionary
280
     1
281
     1
  3
ADSK_XREC_LAYER_RECONCILED
360
10000005D
  0
DICTIONARY
  5
10000005E
330
119
100
AcDbDictionary
280
     1
281
     1
  3
ADSK_XREC_LAYER_RECONCILED
360
10000005F
  0
DICTIONARY
  5
100000060
330
11A
100
AcDbDictionary
280
     1
281
     1
  3
ADSK_XREC_LAYER_RECONCILED
360
100000061
  0
DICTIONARY
  5
100000062
330
11B
100
AcDbDictionary
280
     1
281
     1
  3
ADSK_XREC_LAYER_RECONCILED
360
100000063
  0
DICTIONARY
  5
100000064
330
11C
100
AcDbDictionary
280
     1
281
     1
  3
ADSK_XREC_LAYER_RECONCILED
360
100000065
  0
DICTIONARY
  5
100000066
330
11D
100
AcDbDictionary
280
     1
281
     1
  3
ADSK_XREC_LAYER_RECONCILED
360
100000067
  0
XRECORD
  5
100000057
102
{ACAD_REACTORS
330
85E
102
}
330
85E
100
AcDbXrecord
280
     1
300
ACDLT
300
2017
300
ACDLT_F_S
  0
DICTIONARY
  5
100000037
102
{ACAD_REACTORS
330
85E
102
}
330
85E
100
AcDbDictionary
281
     1
  0
DICTIONARY
  5
100000050
102
{ACAD_REACTORS
330
85E
102
}
330
85E
100
AcDbDictionary
281
     1
  3
Metric50
350
100000051
  0
DICTIONARY
  5
85F
330
85E
100
AcDbDictionary
281
     1
  0
DICTIONARY
  5
860
330
85E
100
AcDbDictionary
281
     1
  0
DICTIONARY
  5
100000052
102
{ACAD_REACTORS
330
85E
102
}
330
85E
100
AcDbDictionary
281
     1
  3
Model
350
100000054
  3
レイアウト1
350
100000055
  0
DICTIONARY
  5
100000005
102
{ACAD_REACTORS
330
85E
102
}
330
85E
100
AcDbDictionary
281
     1
  3
ByBlock
350
10000000E
  3
ByLayer
350
100000006
  3
Global
350
100000016
  0
DICTIONARY
  5
10000004C
102
{ACAD_REACTORS
330
85E
102
}
330
85E
100
AcDbDictionary
281
     1
  3
Standard
350
10000004D
  0
DICTIONARY
  5
861
330
85E
100
AcDbDictionary
281
     1
  3
STANDARD
350
862
  0
DICTIONARY
  5
100000053
102
{ACAD_REACTORS
330
85E
102
}
330
85E
100
AcDbDictionary
281
     1
  0
ACDBDICTIONARYWDFLT
  5
100000003
102
{ACAD_REACTORS
330
85E
102
}
330
85E
100
AcDbDictionary
281
     1
  3
Normal
350
100000004
100
AcDbDictionaryWithDefault
340
100000004
  0
DICTIONARY
  5
10000003A
102
{ACAD_REACTORS
330
85E
102
}
330
85E
100
AcDbDictionary
281
     1
  3
A0
350
10000003B
  3
A1
350
10000003C
  3
A2
350
10000003D
  3
A3
350
10000003E
  3
A4
350
10000003F
  3
A5
350
100000040
  3
A6
350
100000041
  3
A7
350
100000042
  3
A8
350
100000043
  3
A9
350
100000044
  3
B0
350
100000045
  3
B1
350
100000046
  3
B2
350
100000047
  3
B3
350
100000048
  3
B4
350
100000049
  3
B5
350
10000004A
  3
B6
350
10000004B
  0
DICTIONARY
  5
10000004E
102
{ACAD_REACTORS
330
85E
102
}
330
85E
100
AcDbDictionary
281
     1
  3
Metric50
350
10000004F
  0
DICTIONARY
  5
100000038
102
{ACAD_REACTORS
330
85E
102
}
330
85E
100
AcDbDictionary
281
     1
  3
Standard
350
100000039
  0
DICTIONARY
  5
10000001E
102
{ACAD_REACTORS
330
85E
102
}
330
85E
100
AcDbDictionary
281
     1
  3
2dWireframe
350
100000024
  3
Basic
350
100000023
  3
Brighten
350
10000002A
  3
ColorChange
350
10000002E
  3
Conceptual
350
100000027
  3
Dim
350
100000029
  3
EdgeColorOff
350
100000036
  3
Facepattern
350
10000002D
  3
Flat
350
10000001F
  3
FlatWithEdges
350
100000020
  3
Gouraud
350
100000021
  3
GouraudWithEdges
350
100000022
  3
Hidden
350
100000026
  3
JitterOff
350
100000034
  3
Linepattern
350
10000002C
  3
OverhangOff
350
100000035
  3
Realistic
350
100000028
  3
Shaded
350
100000033
  3
Shaded with edges
350
100000032
  3
Shades of Gray
350
10000002F
  3
Sketchy
350
100000030
  3
Thicken
350
10000002B
  3
Wireframe
350
100000025
  3
X-Ray
350
100000031
  0
XRECORD
  5
100000084
102
{ACAD_REACTORS
330
85E
102
}
330
85E
100
AcDbXrecord
280
     1
 90
        1
330
100000039
  0
DICTIONARY
  5
100000078
102
{ACAD_REACTORS
330
85E
102
}
330
85E
100
AcDbDictionary
281
     1
  3
CANNOSCALE
350
10000007D
  3
CMLEADERSTYLE
350
10000007A
  3
CTABLESTYLE
350
100000079
  3
CVIEWDETAILSTYLE
350
10000007B
  3
CVIEWSECTIONSTYLE
350
10000007C
  3
DIMASSOC
350
100000080
  3
INDEXCTL
350
10000007F
  3
SORTENTS
350
10000007E
  3
XCLIPFRAME
350
100000081
  0
XRECORD
  5
100000085
102
{ACAD_REACTORS
330
85E
102
}
330
85E
100
AcDbXrecord
280
     1
  1
DWGPROPS COOKIE
  2

  3

  4

  6

  7

  8
HON1000CG
  9

300
=
301
=
302
=
303
=
304
=
305
=
306
=
307
=
308
=
309
=
 40
0.0003125
 41
2457807.64119213
 42
2457807.64150463
  1

 90
        0
  0
XRECORD
  5
100000059
102
{ACAD_REACTORS
330
100000058
102
}
330
100000058
100
AcDbXrecord
280
     1
290
     1
  0
XRECORD
  5
10000005B
102
{ACAD_REACTORS
330
10000005A
102
}
330
10000005A
100
AcDbXrecord
280
     1
290
     1
  0
XRECORD
  5
10000005D
102
{ACAD_REACTORS
330
10000005C
102
}
330
10000005C
100
AcDbXrecord
280
     1
290
     1
  0
XRECORD
  5
10000005F
102
{ACAD_REACTORS
330
10000005E
102
}
330
10000005E
100
AcDbXrecord
280
     1
290
     1
  0
XRECORD
  5
100000061
102
{ACAD_REACTORS
330
100000060
102
}
330
100000060
100
AcDbXrecord
280
     1
290
     1
  0
XRECORD
  5
100000063
102
{ACAD_REACTORS
330
100000062
102
}
330
100000062
100
AcDbXrecord
280
     1
290
     1
  0
XRECORD
  5
100000065
102
{ACAD_REACTORS
330
100000064
102
}
330
100000064
100
AcDbXrecord
280
     1
290
     1
  0
XRECORD
  5
100000067
102
{ACAD_REACTORS
330
100000066
102
}
330
100000066
100
AcDbXrecord
280
     1
290
     1
  0
ACDBDETAILVIEWSTYLE
  5
100000051
102
{ACAD_XDICTIONARY
360
1000000BD
102
}
102
{ACAD_REACTORS
330
100000050
102
}
330
100000050
100
AcDbModelDocViewStyle
 70
     0
  3
Metric50
290
     0
100
AcDbDetailViewStyle
 70
     0
 71
     0
 90
        3
 71
     1
340
11F
 40
5.0
340
0
 40
5.0
300

 40
0.0
280
     1
 71
     2
340
104
 90
       25
 71
     3
340
11F
 40
5.0
 90
        0
 40
15.0
 90
        1
300
%<\AcVar ViewDetailId>% (%<\AcVar ViewScale \f "%sn">%)
 71
     4
340
104
 90
       25
340
104
 90
       25
280
     0
  0
LAYOUT
  5
100000054
102
{ACAD_XDICTIONARY
360
1000000BF
102
}
102
{ACAD_REACTORS
330
100000052
102
}
330
100000052
100
AcDbPlotSettings
  1

  2
RICOH imagio MP C4002　A 白黒
  4

  6

 40
0.0
 41
0.0
 42
0.0
 43
0.0
 44
0.0
 45
0.0
 46
0.0
 47
0.0
 48
0.0
 49
0.0
140
0.0
141
0.0
142
1.0
143
1.0
 70
  1712
 72
     0
 73
     0
 74
     0
  7

 75
     0
147
1.0
148
0.0
149
0.0
100
AcDbLayout
  1
Model
 70
     1
 71
     0
 10
0.0
 20
0.0
 11
12.0
 21
9.0
 12
0.0
 22
0.0
 32
0.0
 14
0.0
 24
0.0
 34
0.0
 15
0.0
 25
0.0
 35
0.0
146
0.0
 13
0.0
 23
0.0
 33
0.0
 16
1.0
 26
0.0
 36
0.0
 17
0.0
 27
1.0
 37
0.0
 76
     0
330
128
331
100
  0
LAYOUT
  5
100000055
102
{ACAD_XDICTIONARY
360
1000000C1
102
}
102
{ACAD_REACTORS
330
100000052
102
}
330
100000052
100
AcDbPlotSettings
  1

  2
RICOH imagio MP C4002　A 白黒
  4

  6

 40
0.0
 41
0.0
 42
0.0
 43
0.0
 44
0.0
 45
0.0
 46
0.0
 47
0.0
 48
0.0
 49
0.0
140
0.0
141
0.0
142
1.0
143
1.0
 70
   688
 72
     0
 73
     0
 74
     5
  7

 75
    16
147
1.0
148
0.0
149
0.0
100
AcDbLayout
  1
レイアウト1
 70
     0
 71
     1
 10
0.0
 20
0.0
 11
12.0
 21
9.0
 12
0.0
 22
0.0
 32
0.0
 14
1.000000000000000E+20
 24
1.000000000000000E+20
 34
1.000000000000000E+20
 15
-1.000000000000000E+20
 25
-1.000000000000000E+20
 35
-1.000000000000000E+20
146
0.0
 13
0.0
 23
0.0
 33
0.0
 16
1.0
 26
0.0
 36
0.0
 17
0.0
 27
1.0
 37
0.0
 76
     0
330
129
  0
MATERIAL
  5
10000000E
102
{ACAD_XDICTIONARY
360
10000000F
102
}
102
{ACAD_REACTORS
330
100000005
102
}
330
100000005
100
AcDbMaterial
  1
ByBlock
 72
     0
 43
0.0208333333333333
 43
0.0
 43
0.0
 43
0.0
 43
0.0
 43
0.0208333333333333
 43
0.0
 43
0.0
 43
0.0
 43
0.0
 43
1.0
 43
0.0
 43
0.0
 43
0.0
 43
0.0
 43
1.0
 77
     0
 47
0.0208333333333333
 47
0.0
 47
0.0
 47
0.0
 47
0.0
 47
0.0208333333333333
 47
0.0
 47
0.0
 47
0.0
 47
0.0
 47
1.0
 47
0.0
 47
0.0
 47
0.0
 47
0.0
 47
1.0
171
     0
 49
0.0208333333333333
 49
0.0
 49
0.0
 49
0.0
 49
0.0
 49
0.0208333333333333
 49
0.0
 49
0.0
 49
0.0
 49
0.0
 49
1.0
 49
0.0
 49
0.0
 49
0.0
 49
0.0
 49
1.0
175
     0
142
0.0208333333333333
142
0.0
142
0.0
142
0.0
142
0.0
142
0.0208333333333333
142
0.0
142
0.0
142
0.0
142
0.0
142
1.0
142
0.0
142
0.0
142
0.0
142
0.0
142
1.0
179
     0
144
0.0208333333333333
144
0.0
144
0.0
144
0.0
144
0.0
144
0.0208333333333333
144
0.0
144
0.0
144
0.0
144
0.0
144
1.0
144
0.0
144
0.0
144
0.0
144
0.0
144
1.0
147
0.0208333333333333
147
0.0
147
0.0
147
0.0
147
0.0
147
0.0208333333333333
147
0.0
147
0.0
147
0.0
147
0.0
147
1.0
147
0.0
147
0.0
147
0.0
147
0.0
147
1.0
  0
MATERIAL
  5
100000006
102
{ACAD_XDICTIONARY
360
100000007
102
}
102
{ACAD_REACTORS
330
100000005
102
}
330
100000005
100
AcDbMaterial
  1
ByLayer
 72
     0
 43
0.0208333333333333
 43
0.0
 43
0.0
 43
0.0
 43
0.0
 43
0.0208333333333333
 43
0.0
 43
0.0
 43
0.0
 43
0.0
 43
1.0
 43
0.0
 43
0.0
 43
0.0
 43
0.0
 43
1.0
 77
     0
 47
0.0208333333333333
 47
0.0
 47
0.0
 47
0.0
 47
0.0
 47
0.0208333333333333
 47
0.0
 47
0.0
 47
0.0
 47
0.0
 47
1.0
 47
0.0
 47
0.0
 47
0.0
 47
0.0
 47
1.0
171
     0
 49
0.0208333333333333
 49
0.0
 49
0.0
 49
0.0
 49
0.0
 49
0.0208333333333333
 49
0.0
 49
0.0
 49
0.0
 49
0.0
 49
1.0
 49
0.0
 49
0.0
 49
0.0
 49
0.0
 49
1.0
175
     0
142
0.0208333333333333
142
0.0
142
0.0
142
0.0
142
0.0
142
0.0208333333333333
142
0.0
142
0.0
142
0.0
142
0.0
142
1.0
142
0.0
142
0.0
142
0.0
142
0.0
142
1.0
179
     0
144
0.0208333333333333
144
0.0
144
0.0
144
0.0
144
0.0
144
0.0208333333333333
144
0.0
144
0.0
144
0.0
144
0.0
144
1.0
144
0.0
144
0.0
144
0.0
144
0.0
144
1.0
147
0.0208333333333333
147
0.0
147
0.0
147
0.0
147
0.0
147
0.0208333333333333
147
0.0
147
0.0
147
0.0
147
0.0
147
1.0
147
0.0
147
0.0
147
0.0
147
0.0
147
1.0
  0
MATERIAL
  5
100000016
102
{ACAD_XDICTIONARY
360
100000017
102
}
102
{ACAD_REACTORS
330
100000005
102
}
330
100000005
100
AcDbMaterial
  1
Global
 72
     0
 43
0.0208333333333333
 43
0.0
 43
0.0
 43
0.0
 43
0.0
 43
0.0208333333333333
 43
0.0
 43
0.0
 43
0.0
 43
0.0
 43
1.0
 43
0.0
 43
0.0
 43
0.0
 43
0.0
 43
1.0
 77
     0
 47
0.0208333333333333
 47
0.0
 47
0.0
 47
0.0
 47
0.0
 47
0.0208333333333333
 47
0.0
 47
0.0
 47
0.0
 47
0.0
 47
1.0
 47
0.0
 47
0.0
 47
0.0
 47
0.0
 47
1.0
171
     0
 49
0.0208333333333333
 49
0.0
 49
0.0
 49
0.0
 49
0.0
 49
0.0208333333333333
 49
0.0
 49
0.0
 49
0.0
 49
0.0
 49
1.0
 49
0.0
 49
0.0
 49
0.0
 49
0.0
 49
1.0
175
     0
142
0.0208333333333333
142
0.0
142
0.0
142
0.0
142
0.0
142
0.0208333333333333
142
0.0
142
0.0
142
0.0
142
0.0
142
1.0
142
0.0
142
0.0
142
0.0
142
0.0
142
1.0
179
     0
144
0.0208333333333333
144
0.0
144
0.0
144
0.0
144
0.0
144
0.0208333333333333
144
0.0
144
0.0
144
0.0
144
0.0
144
1.0
144
0.0
144
0.0
144
0.0
144
0.0
144
1.0
147
0.0208333333333333
147
0.0
147
0.0
147
0.0
147
0.0
147
0.0208333333333333
147
0.0
147
0.0
147
0.0
147
0.0
147
1.0
147
0.0
147
0.0
147
0.0
147
0.0
147
1.0
  0
MLEADERSTYLE
  5
10000004D
102
{ACAD_REACTORS
330
10000004C
102
}
330
10000004C
100
AcDbMLeaderStyle
170
     2
171
     1
172
     0
 90
        2
 40
0.0
 41
0.0
173
     1
 91
-1056964608
340
102
 92
       -2
290
     1
 42
2.0
291
     1
 43
0.36
  3
Standard
 44
4.0
300

342
11F
174
     1
178
     6
175
     1
176
     0
 93
-1056964608
 45
4.0
292
     0
297
     0
 46
4.0
 94
-1056964608
 47
1.0
 49
1.0
140
1.0
293
     1
141
0.0
294
     1
177
     0
142
1.0
295
     0
296
     0
143
0.125
1001
ACAD_MLEADERVER
1070
     2
  0
MLINESTYLE
  5
862
330
861
100
AcDbMlineStyle
  2
STANDARD
 70
     0
  3

 62
   256
 51
90.0
 52
90.0
 71
     0
  0
ACDBPLACEHOLDER
  5
100000004
102
{ACAD_REACTORS
330
100000003
102
}
330
100000003
  0
SCALE
  5
10000003B
102
{ACAD_REACTORS
330
10000003A
102
}
330
10000003A
100
AcDbScale
 70
     0
300
1:1
140
1.0
141
1.0
290
     1
  0
SCALE
  5
10000003C
102
{ACAD_REACTORS
330
10000003A
102
}
330
10000003A
100
AcDbScale
 70
     0
300
1:2
140
1.0
141
2.0
290
     0
  0
SCALE
  5
10000003D
102
{ACAD_REACTORS
330
10000003A
102
}
330
10000003A
100
AcDbScale
 70
     0
300
1:4
140
1.0
141
4.0
290
     0
  0
SCALE
  5
10000003E
102
{ACAD_REACTORS
330
10000003A
102
}
330
10000003A
100
AcDbScale
 70
     0
300
1:5
140
1.0
141
5.0
290
     0
  0
SCALE
  5
10000003F
102
{ACAD_REACTORS
330
10000003A
102
}
330
10000003A
100
AcDbScale
 70
     0
300
1:8
140
1.0
141
8.0
290
     0
  0
SCALE
  5
100000040
102
{ACAD_REACTORS
330
10000003A
102
}
330
10000003A
100
AcDbScale
 70
     0
300
1:10
140
1.0
141
10.0
290
     0
  0
SCALE
  5
100000041
102
{ACAD_REACTORS
330
10000003A
102
}
330
10000003A
100
AcDbScale
 70
     0
300
1:16
140
1.0
141
16.0
290
     0
  0
SCALE
  5
100000042
102
{ACAD_REACTORS
330
10000003A
102
}
330
10000003A
100
AcDbScale
 70
     0
300
1:20
140
1.0
141
20.0
290
     0
  0
SCALE
  5
100000043
102
{ACAD_REACTORS
330
10000003A
102
}
330
10000003A
100
AcDbScale
 70
     0
300
1:30
140
1.0
141
30.0
290
     0
  0
SCALE
  5
100000044
102
{ACAD_REACTORS
330
10000003A
102
}
330
10000003A
100
AcDbScale
 70
     0
300
1:40
140
1.0
141
40.0
290
     0
  0
SCALE
  5
100000045
102
{ACAD_REACTORS
330
10000003A
102
}
330
10000003A
100
AcDbScale
 70
     0
300
1:50
140
1.0
141
50.0
290
     0
  0
SCALE
  5
100000046
102
{ACAD_REACTORS
330
10000003A
102
}
330
10000003A
100
AcDbScale
 70
     0
300
1:100
140
1.0
141
100.0
290
     0
  0
SCALE
  5
100000047
102
{ACAD_REACTORS
330
10000003A
102
}
330
10000003A
100
AcDbScale
 70
     0
300
2:1
140
2.0
141
1.0
290
     0
  0
SCALE
  5
100000048
102
{ACAD_REACTORS
330
10000003A
102
}
330
10000003A
100
AcDbScale
 70
     0
300
4:1
140
4.0
141
1.0
290
     0
  0
SCALE
  5
100000049
102
{ACAD_REACTORS
330
10000003A
102
}
330
10000003A
100
AcDbScale
 70
     0
300
8:1
140
8.0
141
1.0
290
     0
  0
SCALE
  5
10000004A
102
{ACAD_REACTORS
330
10000003A
102
}
330
10000003A
100
AcDbScale
 70
     0
300
10:1
140
10.0
141
1.0
290
     0
  0
SCALE
  5
10000004B
102
{ACAD_REACTORS
330
10000003A
102
}
330
10000003A
100
AcDbScale
 70
     0
300
100:1
140
100.0
141
1.0
290
     0
  0
ACDBSECTIONVIEWSTYLE
  5
10000004F
102
{ACAD_XDICTIONARY
360
1000000BB
102
}
102
{ACAD_REACTORS
330
10000004E
102
}
330
10000004E
100
AcDbModelDocViewStyle
 70
     0
  3
Metric50
290
     0
100
AcDbSectionViewStyle
 70
     0
 71
     0
 90
      102
 71
     1
340
11F
 40
5.0
340
0
340
0
 40
5.0
300
I, O, Q, S, X, Z
 40
10.0
 90
        0
 40
2.5
 90
        0
 71
     2
340
104
 90
       25
340
104
 90
       50
 40
5.0
 40
2.5
 40
5.0
 71
     3
340
11F
 40
5.0
 90
        0
 40
15.0
 90
        1
300
%<\AcVar ViewSectionStartId>%-%<\AcVar ViewSectionEndId>% (%<\AcVar ViewScale \f "%sn">%)
 71
     4
300
ANSI31
 40
1.0
 90
        0
290
     0
290
     0
 90
        6
 40
0.0
 40
1.570796326794896
 40
0.2617993877991494
 40
1.308996938995747
 40
-0.2617993877991494
 40
1.832595714594046
  0
TABLESTYLE
  5
100000039
102
{ACAD_XDICTIONARY
360
100000082
102
}
102
{ACAD_REACTORS
330
100000038
102
}
330
100000038
100
AcDbTableStyle
  3
Standard
 70
     0
 71
     0
 40
1.5
 41
1.5
280
     0
281
     0
  7
STANDARD
140
4.5
170
     2
 62
     0
 63
     7
283
     0
274
    -2
284
     1
 64
     0
275
    -2
285
     1
 65
     0
276
    -2
286
     1
 66
     0
277
    -2
287
     1
 67
     0
278
    -2
288
     1
 68
     0
279
    -2
289
     1
 69
     0
  7
STANDARD
140
6.0
170
     5
 62
     0
 63
     7
283
     0
274
    -2
284
     1
 64
     0
275
    -2
285
     1
 65
     0
276
    -2
286
     1
 66
     0
277
    -2
287
     1
 67
     0
278
    -2
288
     1
 68
     0
279
    -2
289
     1
 69
     0
  7
STANDARD
140
4.5
170
     5
 62
     0
 63
     7
283
     0
274
    -2
284
     1
 64
     0
275
    -2
285
     1
 65
     0
276
    -2
286
     1
 66
     0
277
    -2
287
     1
 67
     0
278
    -2
288
     1
 68
     0
279
    -2
289
     1
 69
     0
  0
VISUALSTYLE
  5
100000024
102
{ACAD_XDICTIONARY
360
100000093
102
}
102
{ACAD_REACTORS
330
10000001E
102
}
330
10000001E
100
AcDbVisualStyle
  2
2dWireframe
 70
     4
 71
     0
 72
     2
 73
     0
 90
        0
 40
-0.6
 41
-30.0
 62
     5
 63
     7
 74
     1
 91
        4
 64
     7
 65
   257
 75
     1
175
     1
 42
1.0
 92
        0
 66
   257
 43
1.0
 76
     1
 77
     6
 78
     2
 67
     7
 79
     5
170
     0
171
     0
290
     0
174
     0
 93
        1
 44
0.0
173
     0
291
     0
 45
0.0
1001
ACAD
1000
AcDbSavedByObjectVersion
1070
     0
  0
VISUALSTYLE
  5
100000023
102
{ACAD_XDICTIONARY
360
100000091
102
}
102
{ACAD_REACTORS
330
10000001E
102
}
330
10000001E
100
AcDbVisualStyle
  2
Basic
 70
     7
 71
     1
 72
     0
 73
     1
 90
        0
 40
-0.6
 41
-30.0
 62
     5
 63
     7
 74
     0
 91
        4
 64
     7
 65
   257
 75
     1
175
     1
 42
1.0
 92
        8
 66
     7
 43
1.0
 76
     1
 77
     6
 78
     2
 67
     7
 79
     5
170
     0
171
     0
290
     0
174
     0
 93
        1
 44
0.0
173
     0
291
     1
 45
0.0
1001
ACAD
1000
AcDbSavedByObjectVersion
1070
     0
  0
VISUALSTYLE
  5
10000002A
102
{ACAD_XDICTIONARY
360
10000009F
102
}
102
{ACAD_REACTORS
330
10000001E
102
}
330
10000001E
100
AcDbVisualStyle
  2
Brighten
 70
    12
 71
     2
 72
     2
 73
     0
 90
        0
 40
-0.6
 41
-30.0
 62
     5
 63
     7
 74
     1
 91
        4
 64
     7
 65
   257
 75
     1
175
     1
 42
1.0
 92
        8
 66
     7
 43
1.0
 76
     1
 77
     6
 78
     2
 67
     7
 79
     5
170
     0
171
     0
290
     0
174
     0
 93
        1
 44
50.0
173
     0
291
     1
 45
0.0
1001
ACAD
1000
AcDbSavedByObjectVersion
1070
     0
  0
VISUALSTYLE
  5
10000002E
102
{ACAD_XDICTIONARY
360
1000000A7
102
}
102
{ACAD_REACTORS
330
10000001E
102
}
330
10000001E
100
AcDbVisualStyle
  2
ColorChange
 70
    16
 71
     2
 72
     2
 73
     3
 90
        0
 40
-0.6
 41
-30.0
 62
     5
 63
     8
 74
     1
 91
        4
 64
     7
 65
   257
 75
     1
175
     1
 42
1.0
 92
        8
 66
     8
 43
1.0
 76
     1
 77
     6
 78
     2
 67
     7
 79
     5
170
     0
171
     0
290
     0
174
     0
 93
        1
 44
0.0
173
     0
291
     1
 45
0.0
1001
ACAD
1000
AcDbSavedByObjectVersion
1070
     0
  0
VISUALSTYLE
  5
100000027
102
{ACAD_XDICTIONARY
360
100000099
102
}
102
{ACAD_REACTORS
330
10000001E
102
}
330
10000001E
100
AcDbVisualStyle
  2
Conceptual
 70
     9
 71
     3
 72
     2
 73
     0
 90
        0
 40
-0.6
 41
-30.0
 62
     5
 63
     7
 74
     2
 91
        2
 64
     7
 65
   257
 75
     1
175
     1
 42
179.0
 92
        8
 66
     7
 43
1.0
 76
     1
 77
     6
 78
     2
 67
     7
 79
     3
170
     0
171
     0
290
     0
174
     0
 93
        1
 44
0.0
173
     0
291
     0
 45
0.0
1001
ACAD
1000
AcDbSavedByObjectVersion
1070
     0
  0
VISUALSTYLE
  5
100000029
102
{ACAD_XDICTIONARY
360
10000009D
102
}
102
{ACAD_REACTORS
330
10000001E
102
}
330
10000001E
100
AcDbVisualStyle
  2
Dim
 70
    11
 71
     2
 72
     2
 73
     0
 90
        0
 40
-0.6
 41
-30.0
 62
     5
 63
     7
 74
     1
 91
        4
 64
     7
 65
   257
 75
     1
175
     1
 42
1.0
 92
        8
 66
     7
 43
1.0
 76
     1
 77
     6
 78
     2
 67
     7
 79
     5
170
     0
171
     0
290
     0
174
     0
 93
        1
 44
-50.0
173
     0
291
     1
 45
0.0
1001
ACAD
1000
AcDbSavedByObjectVersion
1070
     0
  0
VISUALSTYLE
  5
100000036
102
{ACAD_XDICTIONARY
360
1000000B7
102
}
102
{ACAD_REACTORS
330
10000001E
102
}
330
10000001E
100
AcDbVisualStyle
  2
EdgeColorOff
 70
    22
 71
     2
 72
     2
 73
     0
 90
        0
 40
-0.6
 41
-30.0
 62
     5
 63
     7
 74
     1
 91
        4
 64
     7
 65
   257
 75
     1
175
     1
 42
1.0
 92
        8
 66
     7
 43
1.0
 76
     1
 77
     6
 78
     2
 67
     7
 79
     5
170
     0
171
     0
290
     0
174
     0
 93
        1
 44
0.0
173
     0
291
     1
 45
0.0
1001
ACAD
1000
AcDbSavedByObjectVersion
1070
     0
  0
VISUALSTYLE
  5
10000002D
102
{ACAD_XDICTIONARY
360
1000000A5
102
}
102
{ACAD_REACTORS
330
10000001E
102
}
330
10000001E
100
AcDbVisualStyle
  2
Facepattern
 70
    15
 71
     2
 72
     2
 73
     0
 90
        0
 40
-0.6
 41
-30.0
 62
     5
 63
     7
 74
     1
 91
        4
 64
     7
 65
   257
 75
     1
175
     1
 42
1.0
 92
        8
 66
     7
 43
1.0
 76
     1
 77
     6
 78
     2
 67
     7
 79
     5
170
     0
171
     0
290
     0
174
     0
 93
        1
 44
0.0
173
     0
291
     1
 45
0.0
1001
ACAD
1000
AcDbSavedByObjectVersion
1070
     0
  0
VISUALSTYLE
  5
10000001F
102
{ACAD_XDICTIONARY
360
100000089
102
}
102
{ACAD_REACTORS
330
10000001E
102
}
330
10000001E
100
AcDbVisualStyle
  2
Flat
 70
     0
 71
     2
 72
     1
 73
     1
 90
        2
 40
-0.6
 41
30.0
 62
     5
 63
     7
 74
     0
 91
        0
 64
     7
 65
   257
 75
     1
175
     1
 42
1.0
 92
        8
 66
     7
 43
1.0
 76
     1
 77
     6
 78
     2
 67
     7
 79
     5
170
     0
171
     0
290
     0
174
     0
 93
       13
 44
0.0
173
     0
291
     1
 45
0.0
1001
ACAD
1000
AcDbSavedByObjectVersion
1070
     0
  0
VISUALSTYLE
  5
100000020
102
{ACAD_XDICTIONARY
360
10000008B
102
}
102
{ACAD_REACTORS
330
10000001E
102
}
330
10000001E
100
AcDbVisualStyle
  2
FlatWithEdges
 70
     1
 71
     2
 72
     1
 73
     1
 90
        2
 40
-0.6
 41
30.0
 62
     5
 63
     7
 74
     1
 91
        0
 64
     7
 65
   257
 75
     1
175
     1
 42
1.0
 92
        0
 66
   257
 43
1.0
 76
     1
 77
     6
 78
     2
 67
     7
 79
     5
170
     0
171
     0
290
     0
174
     0
 93
       13
 44
0.0
173
     0
291
     1
 45
0.0
1001
ACAD
1000
AcDbSavedByObjectVersion
1070
     0
  0
VISUALSTYLE
  5
100000021
102
{ACAD_XDICTIONARY
360
10000008D
102
}
102
{ACAD_REACTORS
330
10000001E
102
}
330
10000001E
100
AcDbVisualStyle
  2
Gouraud
 70
     2
 71
     2
 72
     2
 73
     1
 90
        2
 40
-0.6
 41
30.0
 62
     5
 63
     7
 74
     0
 91
        0
 64
     7
 65
   257
 75
     1
175
     1
 42
1.0
 92
        0
 66
     7
 43
1.0
 76
     1
 77
     6
 78
     2
 67
     7
 79
     5
170
     0
171
     0
290
     0
174
     0
 93
       13
 44
0.0
173
     0
291
     1
 45
0.0
1001
ACAD
1000
AcDbSavedByObjectVersion
1070
     0
  0
VISUALSTYLE
  5
100000022
102
{ACAD_XDICTIONARY
360
10000008F
102
}
102
{ACAD_REACTORS
330
10000001E
102
}
330
10000001E
100
AcDbVisualStyle
  2
GouraudWithEdges
 70
     3
 71
     2
 72
     2
 73
     1
 90
        2
 40
-0.6
 41
30.0
 62
     5
 63
     7
 74
     1
 91
        0
 64
     7
 65
   257
 75
     1
175
     1
 42
1.0
 92
        0
 66
   257
 43
1.0
 76
     1
 77
     6
 78
     2
 67
     7
 79
     5
170
     0
171
     0
290
     0
174
     0
 93
       13
 44
0.0
173
     0
291
     1
 45
0.0
1001
ACAD
1000
AcDbSavedByObjectVersion
1070
     0
  0
VISUALSTYLE
  5
100000026
102
{ACAD_XDICTIONARY
360
100000097
102
}
102
{ACAD_REACTORS
330
10000001E
102
}
330
10000001E
100
AcDbVisualStyle
  2
Hidden
 70
     6
 71
     1
 72
     2
 73
     2
 90
        0
 40
-0.6
 41
-30.0
 62
     5
 63
     7
 74
     2
 91
        2
 64
     7
 65
   257
 75
     2
175
     1
 42
40.0
 92
        0
 66
   257
 43
1.0
 76
     1
 77
     6
 78
     2
 67
     7
 79
     3
170
     0
171
     0
290
     0
174
     0
 93
        1
 44
0.0
173
     0
291
     0
 45
0.0
1001
ACAD
1000
AcDbSavedByObjectVersion
1070
     0
  0
VISUALSTYLE
  5
100000034
102
{ACAD_XDICTIONARY
360
1000000B3
102
}
102
{ACAD_REACTORS
330
10000001E
102
}
330
10000001E
100
AcDbVisualStyle
  2
JitterOff
 70
    20
 71
     2
 72
     2
 73
     0
 90
        0
 40
-0.6
 41
-30.0
 62
     5
 63
     7
 74
     1
 91
        4
 64
     7
 65
   257
 75
     1
175
     1
 42
1.0
 92
       10
 66
     7
 43
1.0
 76
     1
 77
     6
 78
     2
 67
     7
 79
     5
170
     0
171
     0
290
     0
174
     0
 93
        1
 44
0.0
173
     0
291
     1
 45
0.0
1001
ACAD
1000
AcDbSavedByObjectVersion
1070
     0
  0
VISUALSTYLE
  5
10000002C
102
{ACAD_XDICTIONARY
360
1000000A3
102
}
102
{ACAD_REACTORS
330
10000001E
102
}
330
10000001E
100
AcDbVisualStyle
  2
Linepattern
 70
    14
 71
     2
 72
     2
 73
     0
 90
        0
 40
-0.6
 41
-30.0
 62
     5
 63
     7
 74
     1
 91
        4
 64
     7
 65
   257
 75
     7
175
     7
 42
1.0
 92
        8
 66
     7
 43
1.0
 76
     1
 77
     6
 78
     2
 67
     7
 79
     5
170
     0
171
     0
290
     0
174
     0
 93
        1
 44
0.0
173
     0
291
     1
 45
0.0
1001
ACAD
1000
AcDbSavedByObjectVersion
1070
     0
  0
VISUALSTYLE
  5
100000035
102
{ACAD_XDICTIONARY
360
1000000B5
102
}
102
{ACAD_REACTORS
330
10000001E
102
}
330
10000001E
100
AcDbVisualStyle
  2
OverhangOff
 70
    21
 71
     2
 72
     2
 73
     0
 90
        0
 40
-0.6
 41
-30.0
 62
     5
 63
     7
 74
     1
 91
        4
 64
     7
 65
   257
 75
     1
175
     1
 42
1.0
 92
        9
 66
     7
 43
1.0
 76
     1
 77
     6
 78
     2
 67
     7
 79
     5
170
     0
171
     0
290
     0
174
     0
 93
        1
 44
0.0
173
     0
291
     1
 45
0.0
1001
ACAD
1000
AcDbSavedByObjectVersion
1070
     0
  0
VISUALSTYLE
  5
100000028
102
{ACAD_XDICTIONARY
360
10000009B
102
}
102
{ACAD_REACTORS
330
10000001E
102
}
330
10000001E
100
AcDbVisualStyle
  2
Realistic
 70
     8
 71
     2
 72
     3
 73
     0
 90
        2
 40
-0.6
 41
30.0
 62
     5
 63
     7
 74
     0
 91
        0
 64
     7
 65
   257
 75
     1
175
     1
 42
1.0
 92
        8
 66
   257
 43
1.0
 76
     1
 77
     6
 78
     2
 67
     7
 79
     3
170
     0
171
     0
290
     0
174
     0
 93
       13
 44
0.0
173
     0
291
     0
 45
0.0
1001
ACAD
1000
AcDbSavedByObjectVersion
1070
     0
  0
VISUALSTYLE
  5
100000033
102
{ACAD_XDICTIONARY
360
1000000B1
102
}
102
{ACAD_REACTORS
330
10000001E
102
}
330
10000001E
100
AcDbVisualStyle
  2
Shaded
 70
    27
 71
     2
 72
     2
 73
     1
 90
        2
 40
-0.6
 41
30.0
 62
     5
 63
     7
 74
     0
 91
        4
 64
     7
 65
   257
 75
     1
175
     1
 42
1.0
 92
        8
 66
   257
 43
1.0
 76
     1
 77
     6
 78
     2
 67
     8
 79
     3
170
     0
171
     0
290
     0
174
     0
 93
        5
 44
0.0
173
     0
291
     0
 45
0.0
1001
ACAD
1000
AcDbSavedByObjectVersion
1070
     0
  0
VISUALSTYLE
  5
100000032
102
{ACAD_XDICTIONARY
360
1000000AF
102
}
102
{ACAD_REACTORS
330
10000001E
102
}
330
10000001E
100
AcDbVisualStyle
  2
Shaded with edges
 70
    26
 71
     2
 72
     2
 73
     1
 90
        2
 40
-0.6
 41
30.0
 62
     5
 63
     7
 74
     1
 91
        2
 64
     7
 65
   257
 75
     2
175
     1
 42
1.0
 92
        8
 66
   257
 43
1.0
 76
     1
 77
     6
 78
     2
 67
     7
 79
     3
170
     0
171
     0
290
     0
174
     0
 93
        5
 44
0.0
173
     0
291
     0
 45
0.0
1001
ACAD
1000
AcDbSavedByObjectVersion
1070
     0
  0
VISUALSTYLE
  5
10000002F
102
{ACAD_XDICTIONARY
360
1000000A9
102
}
102
{ACAD_REACTORS
330
10000001E
102
}
330
10000001E
100
AcDbVisualStyle
  2
Shades of Gray
 70
    23
 71
     2
 72
     2
 73
     3
 90
        0
 40
-0.6
 41
-30.0
 62
     5
 63
     7
 74
     2
 91
        2
 64
     7
 65
     7
 75
     1
175
     1
 42
40.0
 92
        8
 66
     7
 43
1.0
 76
     1
 77
     6
 78
     2
 67
     7
 79
     3
170
     0
171
     0
290
     0
174
     0
 93
        1
 44
0.0
173
     0
291
     0
 45
0.0
1001
ACAD
1000
AcDbSavedByObjectVersion
1070
     0
  0
VISUALSTYLE
  5
100000030
102
{ACAD_XDICTIONARY
360
1000000AB
102
}
102
{ACAD_REACTORS
330
10000001E
102
}
330
10000001E
100
AcDbVisualStyle
  2
Sketchy
 70
    24
 71
     1
 72
     2
 73
     2
 90
        0
 40
-0.6
 41
-30.0
 62
     5
 63
     7
 74
     2
 91
        2
 64
     7
 65
     7
 75
     1
175
     1
 42
40.0
 92
       11
 66
     7
 43
1.0
 76
     1
 77
     6
 78
     2
 67
     7
 79
     6
170
     0
171
     0
290
     0
174
     0
 93
        1
 44
0.0
173
     0
291
     0
 45
0.0
1001
ACAD
1000
AcDbSavedByObjectVersion
1070
     0
  0
VISUALSTYLE
  5
10000002B
102
{ACAD_XDICTIONARY
360
1000000A1
102
}
102
{ACAD_REACTORS
330
10000001E
102
}
330
10000001E
100
AcDbVisualStyle
  2
Thicken
 70
    13
 71
     2
 72
     2
 73
     0
 90
        0
 40
-0.6
 41
-30.0
 62
     5
 63
     7
 74
     1
 91
        4
 64
     7
 65
   257
 75
     1
175
     1
 42
1.0
 92
       12
 66
     7
 43
1.0
 76
     1
 77
     6
 78
     2
 67
     7
 79
     5
170
     0
171
     0
290
     0
174
     0
 93
        1
 44
0.0
173
     0
291
     1
 45
0.0
1001
ACAD
1000
AcDbSavedByObjectVersion
1070
     0
  0
VISUALSTYLE
  5
100000025
102
{ACAD_XDICTIONARY
360
100000095
102
}
102
{ACAD_REACTORS
330
10000001E
102
}
330
10000001E
100
AcDbVisualStyle
  2
Wireframe
 70
     5
 71
     0
 72
     2
 73
     0
 90
        0
 40
-0.6
 41
-30.0
 62
     5
 63
     7
 74
     1
 91
        4
 64
     7
 65
   257
 75
     1
175
     1
 42
1.0
 92
        0
 66
   257
 43
1.0
 76
     1
 77
     6
 78
     2
 67
     7
 79
     3
170
     0
171
     0
290
     0
174
     0
 93
        1
 44
0.0
173
     0
291
     0
 45
0.0
1001
ACAD
1000
AcDbSavedByObjectVersion
1070
     0
  0
VISUALSTYLE
  5
100000031
102
{ACAD_XDICTIONARY
360
1000000AD
102
}
102
{ACAD_REACTORS
330
10000001E
102
}
330
10000001E
100
AcDbVisualStyle
  2
X-Ray
 70
    25
 71
     2
 72
     2
 73
     1
 90
        1
 40
0.5
 41
-30.0
 62
     5
 63
     7
 74
     1
 91
        0
 64
     7
 65
   257
 75
     1
175
     1
 42
1.0
 92
        8
 66
     7
 43
1.0
 76
     1
 77
     6
 78
     2
 67
     7
 79
     3
170
     0
171
     0
290
     0
174
     0
 93
       13
 44
0.0
173
     0
291
     0
 45
0.0
1001
ACAD
1000
AcDbSavedByObjectVersion
1070
     0
  0
DICTIONARYVAR
  5
10000007D
102
{ACAD_REACTORS
330
100000078
102
}
330
100000078
100
DictionaryVariables
280
     0
  1
1:1
  0
DICTIONARYVAR
  5
10000007A
102
{ACAD_REACTORS
330
100000078
102
}
330
100000078
100
DictionaryVariables
280
     0
  1
STANDARD
  0
DICTIONARYVAR
  5
100000079
102
{ACAD_REACTORS
330
100000078
102
}
330
100000078
100
DictionaryVariables
280
     0
  1
STANDARD
  0
DICTIONARYVAR
  5
10000007B
102
{ACAD_REACTORS
330
100000078
102
}
330
100000078
100
DictionaryVariables
280
     0
  1
Metric50
  0
DICTIONARYVAR
  5
10000007C
102
{ACAD_REACTORS
330
100000078
102
}
330
100000078
100
DictionaryVariables
280
     0
  1
Metric50
  0
DICTIONARYVAR
  5
100000080
102
{ACAD_REACTORS
330
100000078
102
}
330
100000078
100
DictionaryVariables
280
     0
  1
1
  0
DICTIONARYVAR
  5
10000007F
102
{ACAD_REACTORS
330
100000078
102
}
330
100000078
100
DictionaryVariables
280
     0
  1
0
  0
DICTIONARYVAR
  5
10000007E
102
{ACAD_REACTORS
330
100000078
102
}
330
100000078
100
DictionaryVariables
280
     0
  1
127
  0
DICTIONARYVAR
  5
100000081
102
{ACAD_REACTORS
330
100000078
102
}
330
100000078
100
DictionaryVariables
280
     0
  1
2
  0
DICTIONARY
  5
1000000BD
330
100000051
100
AcDbDictionary
280
     1
281
     1
  3
ACAD_XREC_ROUNDTRIP
360
1000000BE
  0
DICTIONARY
  5
1000000BF
330
100000054
100
AcDbDictionary
280
     1
281
     1
  3
ACAD_XREC_ROUNDTRIP
360
1000000C0
  0
DICTIONARY
  5
1000000C1
330
100000055
100
AcDbDictionary
280
     1
281
     1
  3
ACAD_XREC_ROUNDTRIP
360
1000000C2
  0
DICTIONARY
  5
10000000F
330
10000000E
100
AcDbDictionary
280
     1
281
     1
  3
ACAD_XREC_ROUNDTRIP
360
100000087
  3
BUMPTILE
360
100000011
  3
DIFFUSETILE
360
100000010
  3
OPACITYTILE
360
100000014
  3
REFLECTIONTILE
360
100000013
  3
REFRACTIONTILE
360
100000015
  3
SPECULARTILE
360
100000012
  0
DICTIONARY
  5
100000007
330
100000006
100
AcDbDictionary
280
     1
281
     1
  3
ACAD_XREC_ROUNDTRIP
360
100000086
  3
BUMPTILE
360
100000009
  3
DIFFUSETILE
360
100000008
  3
OPACITYTILE
360
10000000C
  3
REFLECTIONTILE
360
10000000B
  3
REFRACTIONTILE
360
10000000D
  3
SPECULARTILE
360
10000000A
  0
DICTIONARY
  5
100000017
330
100000016
100
AcDbDictionary
280
     1
281
     1
  3
ACAD_XREC_ROUNDTRIP
360
100000088
  3
BUMPTILE
360
100000019
  3
DIFFUSETILE
360
100000018
  3
OPACITYTILE
360
10000001C
  3
REFLECTIONTILE
360
10000001B
  3
REFRACTIONTILE
360
10000001D
  3
SPECULARTILE
360
10000001A
  0
DICTIONARY
  5
1000000BB
330
10000004F
100
AcDbDictionary
280
     1
281
     1
  3
ACAD_XREC_ROUNDTRIP
360
1000000BC
  0
DICTIONARY
  5
100000082
330
100000039
100
AcDbDictionary
280
     1
281
     1
  3
ACAD_ROUNDTRIP_2008_TABLESTYLE_CELLSTYLEMAP
360
100000083
  3
ACAD_XREC_ROUNDTRIP
360
1000000B9
  0
DICTIONARY
  5
100000093
330
100000024
100
AcDbDictionary
280
     1
281
     1
  3
ACAD_XREC_ROUNDTRIP
360
100000094
  0
DICTIONARY
  5
100000091
330
100000023
100
AcDbDictionary
280
     1
281
     1
  3
ACAD_XREC_ROUNDTRIP
360
100000092
  0
DICTIONARY
  5
10000009F
330
10000002A
100
AcDbDictionary
280
     1
281
     1
  3
ACAD_XREC_ROUNDTRIP
360
1000000A0
  0
DICTIONARY
  5
1000000A7
330
10000002E
100
AcDbDictionary
280
     1
281
     1
  3
ACAD_XREC_ROUNDTRIP
360
1000000A8
  0
DICTIONARY
  5
100000099
330
100000027
100
AcDbDictionary
280
     1
281
     1
  3
ACAD_XREC_ROUNDTRIP
360
10000009A
  0
DICTIONARY
  5
10000009D
330
100000029
100
AcDbDictionary
280
     1
281
     1
  3
ACAD_XREC_ROUNDTRIP
360
10000009E
  0
DICTIONARY
  5
1000000B7
330
100000036
100
AcDbDictionary
280
     1
281
     1
  3
ACAD_XREC_ROUNDTRIP
360
1000000B8
  0
DICTIONARY
  5
1000000A5
330
10000002D
100
AcDbDictionary
280
     1
281
     1
  3
ACAD_XREC_ROUNDTRIP
360
1000000A6
  0
DICTIONARY
  5
100000089
330
10000001F
100
AcDbDictionary
280
     1
281
     1
  3
ACAD_XREC_ROUNDTRIP
360
10000008A
  0
DICTIONARY
  5
10000008B
330
100000020
100
AcDbDictionary
280
     1
281
     1
  3
ACAD_XREC_ROUNDTRIP
360
10000008C
  0
DICTIONARY
  5
10000008D
330
100000021
100
AcDbDictionary
280
     1
281
     1
  3
ACAD_XREC_ROUNDTRIP
360
10000008E
  0
DICTIONARY
  5
10000008F
330
100000022
100
AcDbDictionary
280
     1
281
     1
  3
ACAD_XREC_ROUNDTRIP
360
100000090
  0
DICTIONARY
  5
100000097
330
100000026
100
AcDbDictionary
280
     1
281
     1
  3
ACAD_XREC_ROUNDTRIP
360
100000098
  0
DICTIONARY
  5
1000000B3
330
100000034
100
AcDbDictionary
280
     1
281
     1
  3
ACAD_XREC_ROUNDTRIP
360
1000000B4
  0
DICTIONARY
  5
1000000A3
330
10000002C
100
AcDbDictionary
280
     1
281
     1
  3
ACAD_XREC_ROUNDTRIP
360
1000000A4
  0
DICTIONARY
  5
1000000B5
330
100000035
100
AcDbDictionary
280
     1
281
     1
  3
ACAD_XREC_ROUNDTRIP
360
1000000B6
  0
DICTIONARY
  5
10000009B
330
100000028
100
AcDbDictionary
280
     1
281
     1
  3
ACAD_XREC_ROUNDTRIP
360
10000009C
  0
DICTIONARY
  5
1000000B1
330
100000033
100
AcDbDictionary
280
     1
281
     1
  3
ACAD_XREC_ROUNDTRIP
360
1000000B2
  0
DICTIONARY
  5
1000000AF
330
100000032
100
AcDbDictionary
280
     1
281
     1
  3
ACAD_XREC_ROUNDTRIP
360
1000000B0
  0
DICTIONARY
  5
1000000A9
330
10000002F
100
AcDbDictionary
280
     1
281
     1
  3
ACAD_XREC_ROUNDTRIP
360
1000000AA
  0
DICTIONARY
  5
1000000AB
330
100000030
100
AcDbDictionary
280
     1
281
     1
  3
ACAD_XREC_ROUNDTRIP
360
1000000AC
  0
DICTIONARY
  5
1000000A1
330
10000002B
100
AcDbDictionary
280
     1
281
     1
  3
ACAD_XREC_ROUNDTRIP
360
1000000A2
  0
DICTIONARY
  5
100000095
330
100000025
100
AcDbDictionary
280
     1
281
     1
  3
ACAD_XREC_ROUNDTRIP
360
100000096
  0
DICTIONARY
  5
1000000AD
330
100000031
100
AcDbDictionary
280
     1
281
     1
  3
ACAD_XREC_ROUNDTRIP
360
1000000AE
  0
XRECORD
  5
1000000BE
102
{ACAD_REACTORS
330
1000000BD
102
}
330
1000000BD
100
AcDbXrecord
280
     1
102
DISPLAYNAME
  1
Metric50
102
FLAGS
 90
        0
  0
XRECORD
  5
1000000C0
102
{ACAD_REACTORS
330
1000000BF
102
}
330
1000000BF
100
AcDbXrecord
280
     1
102
SHADEPLOT
 70
     0
102
SHADEPLOTRESLEVEL
 70
     2
102
SHADEPLOTCUSTOMDPI
 70
   300
  0
XRECORD
  5
1000000C2
102
{ACAD_REACTORS
330
1000000C1
102
}
330
1000000C1
100
AcDbXrecord
280
     1
102
SHADEPLOT
 70
     0
102
SHADEPLOTRESLEVEL
 70
     2
102
SHADEPLOTCUSTOMDPI
 70
   300
  0
XRECORD
  5
100000087
102
{ACAD_REACTORS
330
10000000F
102
}
330
10000000F
100
AcDbXrecord
280
     1
102
MATERIAL
148
0.0
149
0.0
149
0.0
 93
        0
 94
      127
282
     0
 72
     0
 77
     0
171
     0
175
     0
179
     0
273
     0
  0
XRECORD
  5
100000011
102
{ACAD_REACTORS
330
10000000F
102
}
330
10000000F
100
AcDbXrecord
280
     1
270
     1
271
     1
  0
XRECORD
  5
100000010
102
{ACAD_REACTORS
330
10000000F
102
}
330
10000000F
100
AcDbXrecord
280
     1
270
     1
271
     1
  0
XRECORD
  5
100000014
102
{ACAD_REACTORS
330
10000000F
102
}
330
10000000F
100
AcDbXrecord
280
     1
270
     1
271
     1
  0
XRECORD
  5
100000013
102
{ACAD_REACTORS
330
10000000F
102
}
330
10000000F
100
AcDbXrecord
280
     1
270
     1
271
     1
  0
XRECORD
  5
100000015
102
{ACAD_REACTORS
330
10000000F
102
}
330
10000000F
100
AcDbXrecord
280
     1
270
     1
271
     1
  0
XRECORD
  5
100000012
102
{ACAD_REACTORS
330
10000000F
102
}
330
10000000F
100
AcDbXrecord
280
     1
270
     1
271
     1
  0
XRECORD
  5
100000086
102
{ACAD_REACTORS
330
100000007
102
}
330
100000007
100
AcDbXrecord
280
     1
102
MATERIAL
148
0.0
149
0.0
149
0.0
 93
        0
 94
      127
282
     0
 72
     0
 77
     0
171
     0
175
     0
179
     0
273
     0
  0
XRECORD
  5
100000009
102
{ACAD_REACTORS
330
100000007
102
}
330
100000007
100
AcDbXrecord
280
     1
270
     1
271
     1
  0
XRECORD
  5
100000008
102
{ACAD_REACTORS
330
100000007
102
}
330
100000007
100
AcDbXrecord
280
     1
270
     1
271
     1
  0
XRECORD
  5
10000000C
102
{ACAD_REACTORS
330
100000007
102
}
330
100000007
100
AcDbXrecord
280
     1
270
     1
271
     1
  0
XRECORD
  5
10000000B
102
{ACAD_REACTORS
330
100000007
102
}
330
100000007
100
AcDbXrecord
280
     1
270
     1
271
     1
  0
XRECORD
  5
10000000D
102
{ACAD_REACTORS
330
100000007
102
}
330
100000007
100
AcDbXrecord
280
     1
270
     1
271
     1
  0
XRECORD
  5
10000000A
102
{ACAD_REACTORS
330
100000007
102
}
330
100000007
100
AcDbXrecord
280
     1
270
     1
271
     1
  0
XRECORD
  5
100000088
102
{ACAD_REACTORS
330
100000017
102
}
330
100000017
100
AcDbXrecord
280
     1
102
MATERIAL
148
0.0
149
0.0
149
0.0
 93
        0
 94
      127
282
     0
 72
     0
 77
     0
171
     0
175
     0
179
     0
273
     0
  0
XRECORD
  5
100000019
102
{ACAD_REACTORS
330
100000017
102
}
330
100000017
100
AcDbXrecord
280
     1
270
     1
271
     1
  0
XRECORD
  5
100000018
102
{ACAD_REACTORS
330
100000017
102
}
330
100000017
100
AcDbXrecord
280
     1
270
     1
271
     1
  0
XRECORD
  5
10000001C
102
{ACAD_REACTORS
330
100000017
102
}
330
100000017
100
AcDbXrecord
280
     1
270
     1
271
     1
  0
XRECORD
  5
10000001B
102
{ACAD_REACTORS
330
100000017
102
}
330
100000017
100
AcDbXrecord
280
     1
270
     1
271
     1
  0
XRECORD
  5
10000001D
102
{ACAD_REACTORS
330
100000017
102
}
330
100000017
100
AcDbXrecord
280
     1
270
     1
271
     1
  0
XRECORD
  5
10000001A
102
{ACAD_REACTORS
330
100000017
102
}
330
100000017
100
AcDbXrecord
280
     1
270
     1
271
     1
  0
XRECORD
  5
1000000BC
102
{ACAD_REACTORS
330
1000000BB
102
}
330
1000000BB
100
AcDbXrecord
280
     1
102
DISPLAYNAME
  1
Metric50
102
FLAGS
 90
        0
  0
CELLSTYLEMAP
  5
100000083
102
{ACAD_REACTORS
330
100000082
102
}
330
100000082
100
AcDbCellStyleMap
 90
        3
300
CELLSTYLE
  1
TABLEFORMAT_BEGIN
 90
        5
170
     1
 91
        0
 92
    32768
 62
   257
 93
        1
300
CONTENTFORMAT
  1
CONTENTFORMAT_BEGIN
 90
        0
 91
        0
 92
      512
 93
        0
300

 40
0.0
140
1.0
 94
        5
 62
     0
340
11F
144
6.0
309
CONTENTFORMAT_END
171
     1
301
MARGIN
  1
CELLMARGIN_BEGIN
 40
1.5
 40
1.5
 40
1.5
 40
1.5
 40
4.5
 40
4.5
309
CELLMARGIN_END
 94
        6
 95
        1
302
GRIDFORMAT
  1
GRIDFORMAT_BEGIN
 90
        0
 91
        1
 62
     0
 92
       -2
340
0
 93
        0
 40
1.125
309
GRIDFORMAT_END
 95
        2
302
GRIDFORMAT
  1
GRIDFORMAT_BEGIN
 90
        0
 91
        1
 62
     0
 92
       -2
340
0
 93
        0
 40
1.125
309
GRIDFORMAT_END
 95
        4
302
GRIDFORMAT
  1
GRIDFORMAT_BEGIN
 90
        0
 91
        1
 62
     0
 92
       -2
340
0
 93
        0
 40
1.125
309
GRIDFORMAT_END
 95
        8
302
GRIDFORMAT
  1
GRIDFORMAT_BEGIN
 90
        0
 91
        1
 62
     0
 92
       -2
340
0
 93
        0
 40
1.125
309
GRIDFORMAT_END
 95
       16
302
GRIDFORMAT
  1
GRIDFORMAT_BEGIN
 90
        0
 91
        1
 62
     0
 92
       -2
340
0
 93
        0
 40
1.125
309
GRIDFORMAT_END
 95
       32
302
GRIDFORMAT
  1
GRIDFORMAT_BEGIN
 90
        0
 91
        1
 62
     0
 92
       -2
340
0
 93
        0
 40
1.125
309
GRIDFORMAT_END
309
TABLEFORMAT_END
  1
CELLSTYLE_BEGIN
 90
        1
 91
        1
300
_TITLE
309
CELLSTYLE_END
300
CELLSTYLE
  1
TABLEFORMAT_BEGIN
 90
        5
170
     1
 91
        0
 92
        0
 62
   257
 93
        1
300
CONTENTFORMAT
  1
CONTENTFORMAT_BEGIN
 90
        0
 91
        0
 92
      512
 93
        0
300

 40
0.0
140
1.0
 94
        5
 62
     0
340
11F
144
4.5
309
CONTENTFORMAT_END
171
     1
301
MARGIN
  1
CELLMARGIN_BEGIN
 40
1.5
 40
1.5
 40
1.5
 40
1.5
 40
4.5
 40
4.5
309
CELLMARGIN_END
 94
        6
 95
        1
302
GRIDFORMAT
  1
GRIDFORMAT_BEGIN
 90
        0
 91
        1
 62
     0
 92
       -2
340
0
 93
        0
 40
1.125
309
GRIDFORMAT_END
 95
        2
302
GRIDFORMAT
  1
GRIDFORMAT_BEGIN
 90
        0
 91
        1
 62
     0
 92
       -2
340
0
 93
        0
 40
1.125
309
GRIDFORMAT_END
 95
        4
302
GRIDFORMAT
  1
GRIDFORMAT_BEGIN
 90
        0
 91
        1
 62
     0
 92
       -2
340
0
 93
        0
 40
1.125
309
GRIDFORMAT_END
 95
        8
302
GRIDFORMAT
  1
GRIDFORMAT_BEGIN
 90
        0
 91
        1
 62
     0
 92
       -2
340
0
 93
        0
 40
1.125
309
GRIDFORMAT_END
 95
       16
302
GRIDFORMAT
  1
GRIDFORMAT_BEGIN
 90
        0
 91
        1
 62
     0
 92
       -2
340
0
 93
        0
 40
1.125
309
GRIDFORMAT_END
 95
       32
302
GRIDFORMAT
  1
GRIDFORMAT_BEGIN
 90
        0
 91
        1
 62
     0
 92
       -2
340
0
 93
        0
 40
1.125
309
GRIDFORMAT_END
309
TABLEFORMAT_END
  1
CELLSTYLE_BEGIN
 90
        2
 91
        1
300
_HEADER
309
CELLSTYLE_END
300
CELLSTYLE
  1
TABLEFORMAT_BEGIN
 90
        5
170
     1
 91
        0
 92
        0
 62
   257
 93
        1
300
CONTENTFORMAT
  1
CONTENTFORMAT_BEGIN
 90
        0
 91
        0
 92
      512
 93
        0
300

 40
0.0
140
1.0
 94
        2
 62
     0
340
11F
144
4.5
309
CONTENTFORMAT_END
171
     1
301
MARGIN
  1
CELLMARGIN_BEGIN
 40
1.5
 40
1.5
 40
1.5
 40
1.5
 40
4.5
 40
4.5
309
CELLMARGIN_END
 94
        6
 95
        1
302
GRIDFORMAT
  1
GRIDFORMAT_BEGIN
 90
        0
 91
        1
 62
     0
 92
       -2
340
0
 93
        0
 40
1.125
309
GRIDFORMAT_END
 95
        2
302
GRIDFORMAT
  1
GRIDFORMAT_BEGIN
 90
        0
 91
        1
 62
     0
 92
       -2
340
0
 93
        0
 40
1.125
309
GRIDFORMAT_END
 95
        4
302
GRIDFORMAT
  1
GRIDFORMAT_BEGIN
 90
        0
 91
        1
 62
     0
 92
       -2
340
0
 93
        0
 40
1.125
309
GRIDFORMAT_END
 95
        8
302
GRIDFORMAT
  1
GRIDFORMAT_BEGIN
 90
        0
 91
        1
 62
     0
 92
       -2
340
0
 93
        0
 40
1.125
309
GRIDFORMAT_END
 95
       16
302
GRIDFORMAT
  1
GRIDFORMAT_BEGIN
 90
        0
 91
        1
 62
     0
 92
       -2
340
0
 93
        0
 40
1.125
309
GRIDFORMAT_END
 95
       32
302
GRIDFORMAT
  1
GRIDFORMAT_BEGIN
 90
        0
 91
        1
 62
     0
 92
       -2
340
0
 93
        0
 40
1.125
309
GRIDFORMAT_END
309
TABLEFORMAT_END
  1
CELLSTYLE_BEGIN
 90
        3
 91
        2
300
_DATA
309
CELLSTYLE_END
  0
XRECORD
  5
1000000B9
102
{ACAD_REACTORS
330
100000082
102
}
330
100000082
100
AcDbXrecord
280
     1
102
ACAD_ROUNDTRIP_PRE2007_TABLESTYLE
 90
      512
 91
        0
  1

 92
      512
 93
        0
  2

 94
      512
 95
        0
  3

  0
XRECORD
  5
100000094
102
{ACAD_REACTORS
330
100000093
102
}
330
100000093
100
AcDbXrecord
280
     1
102
RTVSPost2010Prop28
280
     1
102
RTVSPost2010PropOp28
 70
     1
102
RTVSPost2010Prop29
280
     1
102
RTVSPost2010PropOp29
 70
     1
102
RTVSPost2010Prop30
280
     0
102
RTVSPost2010PropOp30
 70
     1
102
RTVSPost2010Prop31
280
     0
102
RTVSPost2010PropOp31
 70
     1
102
RTVSPost2010Prop32
280
     0
102
RTVSPost2010PropOp32
 70
     1
102
RTVSPost2010Prop33
280
     0
102
RTVSPost2010PropOp33
 70
     1
102
RTVSPost2010Prop34
280
     0
102
RTVSPost2010PropOp34
 70
     1
102
RTVSPost2010Prop35
280
     0
102
RTVSPost2010PropOp35
 70
     1
102
RTVSPost2010Prop36
280
     0
102
RTVSPost2010PropOp36
 70
     1
102
RTVSPost2010Prop37
 90
       50
102
RTVSPost2010PropOp37
 70
     1
102
RTVSPost2010Prop38
140
0.0
102
RTVSPost2010PropOp38
 70
     1
102
RTVSPost2010Prop39
140
1.0
102
RTVSPost2010PropOp39
 70
     1
102
RTVSPost2010Prop40
 90
        0
102
RTVSPost2010PropOp40
 70
     1
102
RTVSPost2010Prop41ColorIndex
 90
       18
102
RTVSPost2010Prop41ColorRGB
 90
        0
102
RTVSPost2010PropOp41
 70
     1
102
RTVSPost2010Prop42
 90
       50
102
RTVSPost2010PropOp42
 70
     1
102
RTVSPost2010Prop43
 90
        3
102
RTVSPost2010PropOp43
 70
     1
102
RTVSPost2010Prop44ColorIndex
 90
        5
102
RTVSPost2010Prop44ColorRGB
 90
      255
102
RTVSPost2010PropOp44
 70
     1
102
RTVSPost2010Prop45
280
     0
102
RTVSPost2010PropOp45
 70
     1
102
RTVSPost2010Prop46
 90
       50
102
RTVSPost2010PropOp46
 70
     1
102
RTVSPost2010Prop47
 90
       50
102
RTVSPost2010PropOp47
 70
     1
102
RTVSPost2010Prop48
 90
       50
102
RTVSPost2010PropOp48
 70
     1
102
RTVSPost2010Prop49
280
     0
102
RTVSPost2010PropOp49
 70
     1
102
RTVSPost2010Prop50
 90
       50
102
RTVSPost2010PropOp50
 70
     1
102
RTVSPost2010Prop51ColorIndex
 90
      256
102
RTVSPost2010Prop51ColorRGB
 90
-16777216
102
RTVSPost2010PropOp51
 70
     0
102
RTVSPost2010Prop52
140
1.0
102
RTVSPost2010PropOp52
 70
     0
102
RTVSPost2010Prop53
 90
        2
102
RTVSPost2010PropOp53
 70
     1
102
RTVSPost2010Prop54
  1
strokes_ogs.tif
102
RTVSPost2010PropOp54
 70
     1
102
RTVSPost2010Prop55
280
     0
102
RTVSPost2010PropOp55
 70
     1
102
RTVSPost2010Prop56
140
1.0
102
RTVSPost2010PropOp56
 70
     1
102
RTVSPost2010Prop57
140
1.0
102
RTVSPost2010PropOp57
 70
     1
102
RTVSPropertyOp0
 70
     1
102
RTVSPropertyOp1
 70
     1
102
RTVSPropertyOp2
 70
     1
102
RTVSPropertyOp3
 70
     1
102
RTVSPropertyOp4
 70
     1
102
RTVSPropertyOp5
 70
     1
102
RTVSPropertyOp6
 70
     1
102
RTVSPropertyOp7
 70
     1
102
RTVSPropertyOp8
 70
     1
102
RTVSPropertyOp9
 70
     1
102
RTVSPropertyOp10
 70
     1
102
RTVSPropertyOp11
 70
     1
102
RTVSPropertyOp12
 70
     1
102
RTVSPropertyOp13
 70
     1
102
RTVSPropertyOp14
 70
     1
102
RTVSPropertyOp15
 70
     1
102
RTVSPropertyOp16
 70
     1
102
RTVSPropertyOp17
 70
     1
102
RTVSPropertyOp18
 70
     1
102
RTVSPropertyOp19
 70
     1
102
RTVSPropertyOp20
 70
     1
102
RTVSPropertyOp21
 70
     1
102
RTVSPropertyOp22
 70
     1
102
RTVSPropertyOp23
 70
     1
102
RTVSPropertyOp24
 70
     1
102
RTVSPropertyOp25
 70
     1
102
RTVSPropertyOp26
 70
     1
102
RTVSPropertyOp27
 70
     1
102
RTVSPropertyOp28
 70
     1
102
RTVSPropertyOp29
 70
     1
102
RTVSPropertyOp30
 70
     1
102
RTVSPropertyOp31
 70
     1
102
RTVSPropertyOp32
 70
     1
102
RTVSPropertyOp33
 70
     1
102
RTVSPropertyOp34
 70
     1
102
RTVSPropertyOp35
 70
     1
102
RTVSPropertyOp36
 70
     1
102
RTVSPropertyOp37
 70
     1
102
RTVSPropertyOp38
 70
     1
102
RTVSPropertyOp39
 70
     1
102
RTVSPropertyOp40
 70
     1
102
RTVSPropertyOp41
 70
     1
102
RTVSPropertyOp42
 70
     1
102
RTVSPropertyOp43
 70
     1
102
RTVSPropertyOp44
 70
     1
102
RTVSPropertyOp45
 70
     1
102
RTVSPropertyOp46
 70
     1
102
RTVSPropertyOp47
 70
     1
102
RTVSPropertyOp48
 70
     1
102
RTVSPropertyOp49
 70
     1
102
RTVSPropertyOp50
 70
     1
102
RTVSPropertyOp51
 70
     0
102
RTVSPropertyOp52
 70
     0
102
RTVSPropertyOp53
 70
     1
102
RTVSPropertyOp54
 70
     1
102
RTVSPropertyOp55
 70
     1
102
RTVSPropertyOp56
 70
     1
102
RTVSPropertyOp57
 70
     1
102
RTVSPropertyOp58
 70
     1
102
RTVSPropertyOp59
 70
     1
102
RTVSPropertyOp60
 70
     1
102
RTVSPropertyOp61
 70
     1
102
RTVSPropertyOp62
 70
     1
  0
XRECORD
  5
100000092
102
{ACAD_REACTORS
330
100000091
102
}
330
100000091
100
AcDbXrecord
280
     1
102
RTVSPost2010Prop28
280
     0
102
RTVSPost2010PropOp28
 70
     1
102
RTVSPost2010Prop29
280
     1
102
RTVSPost2010PropOp29
 70
     1
102
RTVSPost2010Prop30
280
     1
102
RTVSPost2010PropOp30
 70
     1
102
RTVSPost2010Prop31
280
     0
102
RTVSPost2010PropOp31
 70
     1
102
RTVSPost2010Prop32
280
     0
102
RTVSPost2010PropOp32
 70
     1
102
RTVSPost2010Prop33
280
     0
102
RTVSPost2010PropOp33
 70
     1
102
RTVSPost2010Prop34
280
     0
102
RTVSPost2010PropOp34
 70
     1
102
RTVSPost2010Prop35
280
     0
102
RTVSPost2010PropOp35
 70
     1
102
RTVSPost2010Prop36
280
     0
102
RTVSPost2010PropOp36
 70
     1
102
RTVSPost2010Prop37
 90
       50
102
RTVSPost2010PropOp37
 70
     1
102
RTVSPost2010Prop38
140
0.0
102
RTVSPost2010PropOp38
 70
     1
102
RTVSPost2010Prop39
140
1.0
102
RTVSPost2010PropOp39
 70
     1
102
RTVSPost2010Prop40
 90
        0
102
RTVSPost2010PropOp40
 70
     1
102
RTVSPost2010Prop41ColorIndex
 90
       18
102
RTVSPost2010Prop41ColorRGB
 90
        0
102
RTVSPost2010PropOp41
 70
     1
102
RTVSPost2010Prop42
 90
       50
102
RTVSPost2010PropOp42
 70
     1
102
RTVSPost2010Prop43
 90
        3
102
RTVSPost2010PropOp43
 70
     1
102
RTVSPost2010Prop44ColorIndex
 90
        5
102
RTVSPost2010Prop44ColorRGB
 90
      255
102
RTVSPost2010PropOp44
 70
     1
102
RTVSPost2010Prop45
280
     0
102
RTVSPost2010PropOp45
 70
     1
102
RTVSPost2010Prop46
 90
       50
102
RTVSPost2010PropOp46
 70
     1
102
RTVSPost2010Prop47
 90
       50
102
RTVSPost2010PropOp47
 70
     1
102
RTVSPost2010Prop48
 90
       50
102
RTVSPost2010PropOp48
 70
     1
102
RTVSPost2010Prop49
280
     0
102
RTVSPost2010PropOp49
 70
     1
102
RTVSPost2010Prop50
 90
       50
102
RTVSPost2010PropOp50
 70
     1
102
RTVSPost2010Prop51ColorIndex
 90
      256
102
RTVSPost2010Prop51ColorRGB
 90
-16777216
102
RTVSPost2010PropOp51
 70
     0
102
RTVSPost2010Prop52
140
1.0
102
RTVSPost2010PropOp52
 70
     0
102
RTVSPost2010Prop53
 90
        2
102
RTVSPost2010PropOp53
 70
     1
102
RTVSPost2010Prop54
  1
strokes_ogs.tif
102
RTVSPost2010PropOp54
 70
     1
102
RTVSPost2010Prop55
280
     0
102
RTVSPost2010PropOp55
 70
     1
102
RTVSPost2010Prop56
140
1.0
102
RTVSPost2010PropOp56
 70
     1
102
RTVSPost2010Prop57
140
1.0
102
RTVSPost2010PropOp57
 70
     1
102
RTVSPropertyOp0
 70
     1
102
RTVSPropertyOp1
 70
     1
102
RTVSPropertyOp2
 70
     1
102
RTVSPropertyOp3
 70
     1
102
RTVSPropertyOp4
 70
     1
102
RTVSPropertyOp5
 70
     1
102
RTVSPropertyOp6
 70
     1
102
RTVSPropertyOp7
 70
     1
102
RTVSPropertyOp8
 70
     1
102
RTVSPropertyOp9
 70
     1
102
RTVSPropertyOp10
 70
     1
102
RTVSPropertyOp11
 70
     1
102
RTVSPropertyOp12
 70
     1
102
RTVSPropertyOp13
 70
     1
102
RTVSPropertyOp14
 70
     1
102
RTVSPropertyOp15
 70
     1
102
RTVSPropertyOp16
 70
     1
102
RTVSPropertyOp17
 70
     1
102
RTVSPropertyOp18
 70
     1
102
RTVSPropertyOp19
 70
     1
102
RTVSPropertyOp20
 70
     1
102
RTVSPropertyOp21
 70
     1
102
RTVSPropertyOp22
 70
     1
102
RTVSPropertyOp23
 70
     1
102
RTVSPropertyOp24
 70
     1
102
RTVSPropertyOp25
 70
     1
102
RTVSPropertyOp26
 70
     1
102
RTVSPropertyOp27
 70
     1
102
RTVSPropertyOp28
 70
     1
102
RTVSPropertyOp29
 70
     1
102
RTVSPropertyOp30
 70
     1
102
RTVSPropertyOp31
 70
     1
102
RTVSPropertyOp32
 70
     1
102
RTVSPropertyOp33
 70
     1
102
RTVSPropertyOp34
 70
     1
102
RTVSPropertyOp35
 70
     1
102
RTVSPropertyOp36
 70
     1
102
RTVSPropertyOp37
 70
     1
102
RTVSPropertyOp38
 70
     1
102
RTVSPropertyOp39
 70
     1
102
RTVSPropertyOp40
 70
     1
102
RTVSPropertyOp41
 70
     1
102
RTVSPropertyOp42
 70
     1
102
RTVSPropertyOp43
 70
     1
102
RTVSPropertyOp44
 70
     1
102
RTVSPropertyOp45
 70
     1
102
RTVSPropertyOp46
 70
     1
102
RTVSPropertyOp47
 70
     1
102
RTVSPropertyOp48
 70
     1
102
RTVSPropertyOp49
 70
     1
102
RTVSPropertyOp50
 70
     1
102
RTVSPropertyOp51
 70
     0
102
RTVSPropertyOp52
 70
     0
102
RTVSPropertyOp53
 70
     1
102
RTVSPropertyOp54
 70
     1
102
RTVSPropertyOp55
 70
     1
102
RTVSPropertyOp56
 70
     1
102
RTVSPropertyOp57
 70
     1
102
RTVSPropertyOp58
 70
     1
102
RTVSPropertyOp59
 70
     1
102
RTVSPropertyOp60
 70
     1
102
RTVSPropertyOp61
 70
     1
102
RTVSPropertyOp62
 70
     1
  0
XRECORD
  5
1000000A0
102
{ACAD_REACTORS
330
10000009F
102
}
330
10000009F
100
AcDbXrecord
280
     1
102
RTVSPost2010Prop28
280
     0
102
RTVSPost2010PropOp28
 70
     1
102
RTVSPost2010Prop29
280
     1
102
RTVSPost2010PropOp29
 70
     1
102
RTVSPost2010Prop30
280
     1
102
RTVSPost2010PropOp30
 70
     1
102
RTVSPost2010Prop31
280
     0
102
RTVSPost2010PropOp31
 70
     1
102
RTVSPost2010Prop32
280
     0
102
RTVSPost2010PropOp32
 70
     1
102
RTVSPost2010Prop33
280
     0
102
RTVSPost2010PropOp33
 70
     1
102
RTVSPost2010Prop34
280
     0
102
RTVSPost2010PropOp34
 70
     1
102
RTVSPost2010Prop35
280
     0
102
RTVSPost2010PropOp35
 70
     1
102
RTVSPost2010Prop36
280
     0
102
RTVSPost2010PropOp36
 70
     1
102
RTVSPost2010Prop37
 90
       50
102
RTVSPost2010PropOp37
 70
     1
102
RTVSPost2010Prop38
140
0.0
102
RTVSPost2010PropOp38
 70
     1
102
RTVSPost2010Prop39
140
1.0
102
RTVSPost2010PropOp39
 70
     1
102
RTVSPost2010Prop40
 90
        0
102
RTVSPost2010PropOp40
 70
     1
102
RTVSPost2010Prop41ColorIndex
 90
       18
102
RTVSPost2010Prop41ColorRGB
 90
        0
102
RTVSPost2010PropOp41
 70
     1
102
RTVSPost2010Prop42
 90
       50
102
RTVSPost2010PropOp42
 70
     1
102
RTVSPost2010Prop43
 90
        3
102
RTVSPost2010PropOp43
 70
     1
102
RTVSPost2010Prop44ColorIndex
 90
        5
102
RTVSPost2010Prop44ColorRGB
 90
      255
102
RTVSPost2010PropOp44
 70
     1
102
RTVSPost2010Prop45
280
     0
102
RTVSPost2010PropOp45
 70
     1
102
RTVSPost2010Prop46
 90
       50
102
RTVSPost2010PropOp46
 70
     1
102
RTVSPost2010Prop47
 90
       50
102
RTVSPost2010PropOp47
 70
     1
102
RTVSPost2010Prop48
 90
       50
102
RTVSPost2010PropOp48
 70
     1
102
RTVSPost2010Prop49
280
     0
102
RTVSPost2010PropOp49
 70
     1
102
RTVSPost2010Prop50
 90
       50
102
RTVSPost2010PropOp50
 70
     1
102
RTVSPost2010Prop51ColorIndex
 90
      256
102
RTVSPost2010Prop51ColorRGB
 90
-16777216
102
RTVSPost2010PropOp51
 70
     0
102
RTVSPost2010Prop52
140
1.0
102
RTVSPost2010PropOp52
 70
     0
102
RTVSPost2010Prop53
 90
        2
102
RTVSPost2010PropOp53
 70
     1
102
RTVSPost2010Prop54
  1
strokes_ogs.tif
102
RTVSPost2010PropOp54
 70
     1
102
RTVSPost2010Prop55
280
     0
102
RTVSPost2010PropOp55
 70
     1
102
RTVSPost2010Prop56
140
1.0
102
RTVSPost2010PropOp56
 70
     1
102
RTVSPost2010Prop57
140
1.0
102
RTVSPost2010PropOp57
 70
     1
102
RTVSPropertyOp0
 70
     1
102
RTVSPropertyOp1
 70
     1
102
RTVSPropertyOp2
 70
     1
102
RTVSPropertyOp3
 70
     1
102
RTVSPropertyOp4
 70
     1
102
RTVSPropertyOp5
 70
     1
102
RTVSPropertyOp6
 70
     1
102
RTVSPropertyOp7
 70
     1
102
RTVSPropertyOp8
 70
     1
102
RTVSPropertyOp9
 70
     1
102
RTVSPropertyOp10
 70
     1
102
RTVSPropertyOp11
 70
     1
102
RTVSPropertyOp12
 70
     1
102
RTVSPropertyOp13
 70
     1
102
RTVSPropertyOp14
 70
     1
102
RTVSPropertyOp15
 70
     1
102
RTVSPropertyOp16
 70
     1
102
RTVSPropertyOp17
 70
     1
102
RTVSPropertyOp18
 70
     1
102
RTVSPropertyOp19
 70
     1
102
RTVSPropertyOp20
 70
     1
102
RTVSPropertyOp21
 70
     1
102
RTVSPropertyOp22
 70
     1
102
RTVSPropertyOp23
 70
     1
102
RTVSPropertyOp24
 70
     1
102
RTVSPropertyOp25
 70
     1
102
RTVSPropertyOp26
 70
     1
102
RTVSPropertyOp27
 70
     1
102
RTVSPropertyOp28
 70
     1
102
RTVSPropertyOp29
 70
     1
102
RTVSPropertyOp30
 70
     1
102
RTVSPropertyOp31
 70
     1
102
RTVSPropertyOp32
 70
     1
102
RTVSPropertyOp33
 70
     1
102
RTVSPropertyOp34
 70
     1
102
RTVSPropertyOp35
 70
     1
102
RTVSPropertyOp36
 70
     1
102
RTVSPropertyOp37
 70
     1
102
RTVSPropertyOp38
 70
     1
102
RTVSPropertyOp39
 70
     1
102
RTVSPropertyOp40
 70
     1
102
RTVSPropertyOp41
 70
     1
102
RTVSPropertyOp42
 70
     1
102
RTVSPropertyOp43
 70
     1
102
RTVSPropertyOp44
 70
     1
102
RTVSPropertyOp45
 70
     1
102
RTVSPropertyOp46
 70
     1
102
RTVSPropertyOp47
 70
     1
102
RTVSPropertyOp48
 70
     1
102
RTVSPropertyOp49
 70
     1
102
RTVSPropertyOp50
 70
     1
102
RTVSPropertyOp51
 70
     0
102
RTVSPropertyOp52
 70
     0
102
RTVSPropertyOp53
 70
     1
102
RTVSPropertyOp54
 70
     1
102
RTVSPropertyOp55
 70
     1
102
RTVSPropertyOp56
 70
     1
102
RTVSPropertyOp57
 70
     1
102
RTVSPropertyOp58
 70
     1
102
RTVSPropertyOp59
 70
     1
102
RTVSPropertyOp60
 70
     1
102
RTVSPropertyOp61
 70
     1
102
RTVSPropertyOp62
 70
     1
  0
XRECORD
  5
1000000A8
102
{ACAD_REACTORS
330
1000000A7
102
}
330
1000000A7
100
AcDbXrecord
280
     1
102
RTVSPost2010Prop28
280
     0
102
RTVSPost2010PropOp28
 70
     1
102
RTVSPost2010Prop29
280
     1
102
RTVSPost2010PropOp29
 70
     1
102
RTVSPost2010Prop30
280
     1
102
RTVSPost2010PropOp30
 70
     1
102
RTVSPost2010Prop31
280
     0
102
RTVSPost2010PropOp31
 70
     1
102
RTVSPost2010Prop32
280
     0
102
RTVSPost2010PropOp32
 70
     1
102
RTVSPost2010Prop33
280
     0
102
RTVSPost2010PropOp33
 70
     1
102
RTVSPost2010Prop34
280
     0
102
RTVSPost2010PropOp34
 70
     1
102
RTVSPost2010Prop35
280
     0
102
RTVSPost2010PropOp35
 70
     1
102
RTVSPost2010Prop36
280
     0
102
RTVSPost2010PropOp36
 70
     1
102
RTVSPost2010Prop37
 90
       50
102
RTVSPost2010PropOp37
 70
     1
102
RTVSPost2010Prop38
140
0.0
102
RTVSPost2010PropOp38
 70
     1
102
RTVSPost2010Prop39
140
1.0
102
RTVSPost2010PropOp39
 70
     1
102
RTVSPost2010Prop40
 90
        0
102
RTVSPost2010PropOp40
 70
     1
102
RTVSPost2010Prop41ColorIndex
 90
       18
102
RTVSPost2010Prop41ColorRGB
 90
        0
102
RTVSPost2010PropOp41
 70
     1
102
RTVSPost2010Prop42
 90
       50
102
RTVSPost2010PropOp42
 70
     1
102
RTVSPost2010Prop43
 90
        3
102
RTVSPost2010PropOp43
 70
     1
102
RTVSPost2010Prop44ColorIndex
 90
        5
102
RTVSPost2010Prop44ColorRGB
 90
      255
102
RTVSPost2010PropOp44
 70
     1
102
RTVSPost2010Prop45
280
     0
102
RTVSPost2010PropOp45
 70
     1
102
RTVSPost2010Prop46
 90
       50
102
RTVSPost2010PropOp46
 70
     1
102
RTVSPost2010Prop47
 90
       50
102
RTVSPost2010PropOp47
 70
     1
102
RTVSPost2010Prop48
 90
       50
102
RTVSPost2010PropOp48
 70
     1
102
RTVSPost2010Prop49
280
     0
102
RTVSPost2010PropOp49
 70
     1
102
RTVSPost2010Prop50
 90
       50
102
RTVSPost2010PropOp50
 70
     1
102
RTVSPost2010Prop51ColorIndex
 90
      256
102
RTVSPost2010Prop51ColorRGB
 90
-16777216
102
RTVSPost2010PropOp51
 70
     0
102
RTVSPost2010Prop52
140
1.0
102
RTVSPost2010PropOp52
 70
     0
102
RTVSPost2010Prop53
 90
        2
102
RTVSPost2010PropOp53
 70
     1
102
RTVSPost2010Prop54
  1
strokes_ogs.tif
102
RTVSPost2010PropOp54
 70
     1
102
RTVSPost2010Prop55
280
     0
102
RTVSPost2010PropOp55
 70
     1
102
RTVSPost2010Prop56
140
1.0
102
RTVSPost2010PropOp56
 70
     1
102
RTVSPost2010Prop57
140
1.0
102
RTVSPost2010PropOp57
 70
     1
102
RTVSPropertyOp0
 70
     1
102
RTVSPropertyOp1
 70
     1
102
RTVSPropertyOp2
 70
     1
102
RTVSPropertyOp3
 70
     1
102
RTVSPropertyOp4
 70
     1
102
RTVSPropertyOp5
 70
     1
102
RTVSPropertyOp6
 70
     1
102
RTVSPropertyOp7
 70
     1
102
RTVSPropertyOp8
 70
     1
102
RTVSPropertyOp9
 70
     1
102
RTVSPropertyOp10
 70
     1
102
RTVSPropertyOp11
 70
     1
102
RTVSPropertyOp12
 70
     1
102
RTVSPropertyOp13
 70
     1
102
RTVSPropertyOp14
 70
     1
102
RTVSPropertyOp15
 70
     1
102
RTVSPropertyOp16
 70
     1
102
RTVSPropertyOp17
 70
     1
102
RTVSPropertyOp18
 70
     1
102
RTVSPropertyOp19
 70
     1
102
RTVSPropertyOp20
 70
     1
102
RTVSPropertyOp21
 70
     1
102
RTVSPropertyOp22
 70
     1
102
RTVSPropertyOp23
 70
     1
102
RTVSPropertyOp24
 70
     1
102
RTVSPropertyOp25
 70
     1
102
RTVSPropertyOp26
 70
     1
102
RTVSPropertyOp27
 70
     1
102
RTVSPropertyOp28
 70
     1
102
RTVSPropertyOp29
 70
     1
102
RTVSPropertyOp30
 70
     1
102
RTVSPropertyOp31
 70
     1
102
RTVSPropertyOp32
 70
     1
102
RTVSPropertyOp33
 70
     1
102
RTVSPropertyOp34
 70
     1
102
RTVSPropertyOp35
 70
     1
102
RTVSPropertyOp36
 70
     1
102
RTVSPropertyOp37
 70
     1
102
RTVSPropertyOp38
 70
     1
102
RTVSPropertyOp39
 70
     1
102
RTVSPropertyOp40
 70
     1
102
RTVSPropertyOp41
 70
     1
102
RTVSPropertyOp42
 70
     1
102
RTVSPropertyOp43
 70
     1
102
RTVSPropertyOp44
 70
     1
102
RTVSPropertyOp45
 70
     1
102
RTVSPropertyOp46
 70
     1
102
RTVSPropertyOp47
 70
     1
102
RTVSPropertyOp48
 70
     1
102
RTVSPropertyOp49
 70
     1
102
RTVSPropertyOp50
 70
     1
102
RTVSPropertyOp51
 70
     0
102
RTVSPropertyOp52
 70
     0
102
RTVSPropertyOp53
 70
     1
102
RTVSPropertyOp54
 70
     1
102
RTVSPropertyOp55
 70
     1
102
RTVSPropertyOp56
 70
     1
102
RTVSPropertyOp57
 70
     1
102
RTVSPropertyOp58
 70
     1
102
RTVSPropertyOp59
 70
     1
102
RTVSPropertyOp60
 70
     1
102
RTVSPropertyOp61
 70
     1
102
RTVSPropertyOp62
 70
     1
  0
XRECORD
  5
10000009A
102
{ACAD_REACTORS
330
100000099
102
}
330
100000099
100
AcDbXrecord
280
     1
102
RTVSPost2010Prop28
280
     0
102
RTVSPost2010PropOp28
 70
     1
102
RTVSPost2010Prop29
280
     1
102
RTVSPost2010PropOp29
 70
     1
102
RTVSPost2010Prop30
280
     1
102
RTVSPost2010PropOp30
 70
     1
102
RTVSPost2010Prop31
280
     0
102
RTVSPost2010PropOp31
 70
     1
102
RTVSPost2010Prop32
280
     0
102
RTVSPost2010PropOp32
 70
     1
102
RTVSPost2010Prop33
280
     0
102
RTVSPost2010PropOp33
 70
     1
102
RTVSPost2010Prop34
280
     0
102
RTVSPost2010PropOp34
 70
     1
102
RTVSPost2010Prop35
280
     0
102
RTVSPost2010PropOp35
 70
     1
102
RTVSPost2010Prop36
280
     0
102
RTVSPost2010PropOp36
 70
     1
102
RTVSPost2010Prop37
 90
       50
102
RTVSPost2010PropOp37
 70
     1
102
RTVSPost2010Prop38
140
0.0
102
RTVSPost2010PropOp38
 70
     1
102
RTVSPost2010Prop39
140
1.0
102
RTVSPost2010PropOp39
 70
     1
102
RTVSPost2010Prop40
 90
        0
102
RTVSPost2010PropOp40
 70
     1
102
RTVSPost2010Prop41ColorIndex
 90
       18
102
RTVSPost2010Prop41ColorRGB
 90
        0
102
RTVSPost2010PropOp41
 70
     1
102
RTVSPost2010Prop42
 90
       50
102
RTVSPost2010PropOp42
 70
     1
102
RTVSPost2010Prop43
 90
        3
102
RTVSPost2010PropOp43
 70
     1
102
RTVSPost2010Prop44ColorIndex
 90
        5
102
RTVSPost2010Prop44ColorRGB
 90
      255
102
RTVSPost2010PropOp44
 70
     1
102
RTVSPost2010Prop45
280
     0
102
RTVSPost2010PropOp45
 70
     1
102
RTVSPost2010Prop46
 90
       50
102
RTVSPost2010PropOp46
 70
     1
102
RTVSPost2010Prop47
 90
       50
102
RTVSPost2010PropOp47
 70
     1
102
RTVSPost2010Prop48
 90
       50
102
RTVSPost2010PropOp48
 70
     1
102
RTVSPost2010Prop49
280
     0
102
RTVSPost2010PropOp49
 70
     1
102
RTVSPost2010Prop50
 90
       50
102
RTVSPost2010PropOp50
 70
     1
102
RTVSPost2010Prop51ColorIndex
 90
      256
102
RTVSPost2010Prop51ColorRGB
 90
-16777216
102
RTVSPost2010PropOp51
 70
     0
102
RTVSPost2010Prop52
140
1.0
102
RTVSPost2010PropOp52
 70
     0
102
RTVSPost2010Prop53
 90
        2
102
RTVSPost2010PropOp53
 70
     1
102
RTVSPost2010Prop54
  1
strokes_ogs.tif
102
RTVSPost2010PropOp54
 70
     1
102
RTVSPost2010Prop55
280
     0
102
RTVSPost2010PropOp55
 70
     1
102
RTVSPost2010Prop56
140
1.0
102
RTVSPost2010PropOp56
 70
     1
102
RTVSPost2010Prop57
140
1.0
102
RTVSPost2010PropOp57
 70
     1
102
RTVSPropertyOp0
 70
     1
102
RTVSPropertyOp1
 70
     1
102
RTVSPropertyOp2
 70
     1
102
RTVSPropertyOp3
 70
     1
102
RTVSPropertyOp4
 70
     1
102
RTVSPropertyOp5
 70
     1
102
RTVSPropertyOp6
 70
     1
102
RTVSPropertyOp7
 70
     1
102
RTVSPropertyOp8
 70
     1
102
RTVSPropertyOp9
 70
     1
102
RTVSPropertyOp10
 70
     1
102
RTVSPropertyOp11
 70
     1
102
RTVSPropertyOp12
 70
     1
102
RTVSPropertyOp13
 70
     1
102
RTVSPropertyOp14
 70
     1
102
RTVSPropertyOp15
 70
     1
102
RTVSPropertyOp16
 70
     1
102
RTVSPropertyOp17
 70
     1
102
RTVSPropertyOp18
 70
     1
102
RTVSPropertyOp19
 70
     1
102
RTVSPropertyOp20
 70
     1
102
RTVSPropertyOp21
 70
     1
102
RTVSPropertyOp22
 70
     1
102
RTVSPropertyOp23
 70
     1
102
RTVSPropertyOp24
 70
     1
102
RTVSPropertyOp25
 70
     1
102
RTVSPropertyOp26
 70
     1
102
RTVSPropertyOp27
 70
     1
102
RTVSPropertyOp28
 70
     1
102
RTVSPropertyOp29
 70
     1
102
RTVSPropertyOp30
 70
     1
102
RTVSPropertyOp31
 70
     1
102
RTVSPropertyOp32
 70
     1
102
RTVSPropertyOp33
 70
     1
102
RTVSPropertyOp34
 70
     1
102
RTVSPropertyOp35
 70
     1
102
RTVSPropertyOp36
 70
     1
102
RTVSPropertyOp37
 70
     1
102
RTVSPropertyOp38
 70
     1
102
RTVSPropertyOp39
 70
     1
102
RTVSPropertyOp40
 70
     1
102
RTVSPropertyOp41
 70
     1
102
RTVSPropertyOp42
 70
     1
102
RTVSPropertyOp43
 70
     1
102
RTVSPropertyOp44
 70
     1
102
RTVSPropertyOp45
 70
     1
102
RTVSPropertyOp46
 70
     1
102
RTVSPropertyOp47
 70
     1
102
RTVSPropertyOp48
 70
     1
102
RTVSPropertyOp49
 70
     1
102
RTVSPropertyOp50
 70
     1
102
RTVSPropertyOp51
 70
     0
102
RTVSPropertyOp52
 70
     0
102
RTVSPropertyOp53
 70
     1
102
RTVSPropertyOp54
 70
     1
102
RTVSPropertyOp55
 70
     1
102
RTVSPropertyOp56
 70
     1
102
RTVSPropertyOp57
 70
     1
102
RTVSPropertyOp58
 70
     1
102
RTVSPropertyOp59
 70
     1
102
RTVSPropertyOp60
 70
     1
102
RTVSPropertyOp61
 70
     1
102
RTVSPropertyOp62
 70
     1
  0
XRECORD
  5
10000009E
102
{ACAD_REACTORS
330
10000009D
102
}
330
10000009D
100
AcDbXrecord
280
     1
102
RTVSPost2010Prop28
280
     0
102
RTVSPost2010PropOp28
 70
     1
102
RTVSPost2010Prop29
280
     1
102
RTVSPost2010PropOp29
 70
     1
102
RTVSPost2010Prop30
280
     1
102
RTVSPost2010PropOp30
 70
     1
102
RTVSPost2010Prop31
280
     0
102
RTVSPost2010PropOp31
 70
     1
102
RTVSPost2010Prop32
280
     0
102
RTVSPost2010PropOp32
 70
     1
102
RTVSPost2010Prop33
280
     0
102
RTVSPost2010PropOp33
 70
     1
102
RTVSPost2010Prop34
280
     0
102
RTVSPost2010PropOp34
 70
     1
102
RTVSPost2010Prop35
280
     0
102
RTVSPost2010PropOp35
 70
     1
102
RTVSPost2010Prop36
280
     0
102
RTVSPost2010PropOp36
 70
     1
102
RTVSPost2010Prop37
 90
       50
102
RTVSPost2010PropOp37
 70
     1
102
RTVSPost2010Prop38
140
0.0
102
RTVSPost2010PropOp38
 70
     1
102
RTVSPost2010Prop39
140
1.0
102
RTVSPost2010PropOp39
 70
     1
102
RTVSPost2010Prop40
 90
        0
102
RTVSPost2010PropOp40
 70
     1
102
RTVSPost2010Prop41ColorIndex
 90
       18
102
RTVSPost2010Prop41ColorRGB
 90
        0
102
RTVSPost2010PropOp41
 70
     1
102
RTVSPost2010Prop42
 90
       50
102
RTVSPost2010PropOp42
 70
     1
102
RTVSPost2010Prop43
 90
        3
102
RTVSPost2010PropOp43
 70
     1
102
RTVSPost2010Prop44ColorIndex
 90
        5
102
RTVSPost2010Prop44ColorRGB
 90
      255
102
RTVSPost2010PropOp44
 70
     1
102
RTVSPost2010Prop45
280
     0
102
RTVSPost2010PropOp45
 70
     1
102
RTVSPost2010Prop46
 90
       50
102
RTVSPost2010PropOp46
 70
     1
102
RTVSPost2010Prop47
 90
       50
102
RTVSPost2010PropOp47
 70
     1
102
RTVSPost2010Prop48
 90
       50
102
RTVSPost2010PropOp48
 70
     1
102
RTVSPost2010Prop49
280
     0
102
RTVSPost2010PropOp49
 70
     1
102
RTVSPost2010Prop50
 90
       50
102
RTVSPost2010PropOp50
 70
     1
102
RTVSPost2010Prop51ColorIndex
 90
      256
102
RTVSPost2010Prop51ColorRGB
 90
-16777216
102
RTVSPost2010PropOp51
 70
     0
102
RTVSPost2010Prop52
140
1.0
102
RTVSPost2010PropOp52
 70
     0
102
RTVSPost2010Prop53
 90
        2
102
RTVSPost2010PropOp53
 70
     1
102
RTVSPost2010Prop54
  1
strokes_ogs.tif
102
RTVSPost2010PropOp54
 70
     1
102
RTVSPost2010Prop55
280
     0
102
RTVSPost2010PropOp55
 70
     1
102
RTVSPost2010Prop56
140
1.0
102
RTVSPost2010PropOp56
 70
     1
102
RTVSPost2010Prop57
140
1.0
102
RTVSPost2010PropOp57
 70
     1
102
RTVSPropertyOp0
 70
     1
102
RTVSPropertyOp1
 70
     1
102
RTVSPropertyOp2
 70
     1
102
RTVSPropertyOp3
 70
     1
102
RTVSPropertyOp4
 70
     1
102
RTVSPropertyOp5
 70
     1
102
RTVSPropertyOp6
 70
     1
102
RTVSPropertyOp7
 70
     1
102
RTVSPropertyOp8
 70
     1
102
RTVSPropertyOp9
 70
     1
102
RTVSPropertyOp10
 70
     1
102
RTVSPropertyOp11
 70
     1
102
RTVSPropertyOp12
 70
     1
102
RTVSPropertyOp13
 70
     1
102
RTVSPropertyOp14
 70
     1
102
RTVSPropertyOp15
 70
     1
102
RTVSPropertyOp16
 70
     1
102
RTVSPropertyOp17
 70
     1
102
RTVSPropertyOp18
 70
     1
102
RTVSPropertyOp19
 70
     1
102
RTVSPropertyOp20
 70
     1
102
RTVSPropertyOp21
 70
     1
102
RTVSPropertyOp22
 70
     1
102
RTVSPropertyOp23
 70
     1
102
RTVSPropertyOp24
 70
     1
102
RTVSPropertyOp25
 70
     1
102
RTVSPropertyOp26
 70
     1
102
RTVSPropertyOp27
 70
     1
102
RTVSPropertyOp28
 70
     1
102
RTVSPropertyOp29
 70
     1
102
RTVSPropertyOp30
 70
     1
102
RTVSPropertyOp31
 70
     1
102
RTVSPropertyOp32
 70
     1
102
RTVSPropertyOp33
 70
     1
102
RTVSPropertyOp34
 70
     1
102
RTVSPropertyOp35
 70
     1
102
RTVSPropertyOp36
 70
     1
102
RTVSPropertyOp37
 70
     1
102
RTVSPropertyOp38
 70
     1
102
RTVSPropertyOp39
 70
     1
102
RTVSPropertyOp40
 70
     1
102
RTVSPropertyOp41
 70
     1
102
RTVSPropertyOp42
 70
     1
102
RTVSPropertyOp43
 70
     1
102
RTVSPropertyOp44
 70
     1
102
RTVSPropertyOp45
 70
     1
102
RTVSPropertyOp46
 70
     1
102
RTVSPropertyOp47
 70
     1
102
RTVSPropertyOp48
 70
     1
102
RTVSPropertyOp49
 70
     1
102
RTVSPropertyOp50
 70
     1
102
RTVSPropertyOp51
 70
     0
102
RTVSPropertyOp52
 70
     0
102
RTVSPropertyOp53
 70
     1
102
RTVSPropertyOp54
 70
     1
102
RTVSPropertyOp55
 70
     1
102
RTVSPropertyOp56
 70
     1
102
RTVSPropertyOp57
 70
     1
102
RTVSPropertyOp58
 70
     1
102
RTVSPropertyOp59
 70
     1
102
RTVSPropertyOp60
 70
     1
102
RTVSPropertyOp61
 70
     1
102
RTVSPropertyOp62
 70
     1
  0
XRECORD
  5
1000000B8
102
{ACAD_REACTORS
330
1000000B7
102
}
330
1000000B7
100
AcDbXrecord
280
     1
102
RTVSPost2010Prop28
280
     0
102
RTVSPost2010PropOp28
 70
     1
102
RTVSPost2010Prop29
280
     1
102
RTVSPost2010PropOp29
 70
     1
102
RTVSPost2010Prop30
280
     1
102
RTVSPost2010PropOp30
 70
     1
102
RTVSPost2010Prop31
280
     0
102
RTVSPost2010PropOp31
 70
     1
102
RTVSPost2010Prop32
280
     0
102
RTVSPost2010PropOp32
 70
     1
102
RTVSPost2010Prop33
280
     0
102
RTVSPost2010PropOp33
 70
     1
102
RTVSPost2010Prop34
280
     0
102
RTVSPost2010PropOp34
 70
     1
102
RTVSPost2010Prop35
280
     0
102
RTVSPost2010PropOp35
 70
     1
102
RTVSPost2010Prop36
280
     0
102
RTVSPost2010PropOp36
 70
     1
102
RTVSPost2010Prop37
 90
       50
102
RTVSPost2010PropOp37
 70
     0
102
RTVSPost2010Prop38
140
0.0
102
RTVSPost2010PropOp38
 70
     0
102
RTVSPost2010Prop39
140
1.0
102
RTVSPost2010PropOp39
 70
     0
102
RTVSPost2010Prop40
 90
        0
102
RTVSPost2010PropOp40
 70
     0
102
RTVSPost2010Prop41ColorIndex
 90
       18
102
RTVSPost2010Prop41ColorRGB
 90
        0
102
RTVSPost2010PropOp41
 70
     0
102
RTVSPost2010Prop42
 90
       50
102
RTVSPost2010PropOp42
 70
     0
102
RTVSPost2010Prop43
 90
        3
102
RTVSPost2010PropOp43
 70
     0
102
RTVSPost2010Prop44ColorIndex
 90
        5
102
RTVSPost2010Prop44ColorRGB
 90
      255
102
RTVSPost2010PropOp44
 70
     0
102
RTVSPost2010Prop45
280
     0
102
RTVSPost2010PropOp45
 70
     1
102
RTVSPost2010Prop46
 90
       50
102
RTVSPost2010PropOp46
 70
     0
102
RTVSPost2010Prop47
 90
       50
102
RTVSPost2010PropOp47
 70
     0
102
RTVSPost2010Prop48
 90
       50
102
RTVSPost2010PropOp48
 70
     0
102
RTVSPost2010Prop49
280
     0
102
RTVSPost2010PropOp49
 70
     1
102
RTVSPost2010Prop50
 90
       50
102
RTVSPost2010PropOp50
 70
     0
102
RTVSPost2010Prop51ColorIndex
 90
      256
102
RTVSPost2010Prop51ColorRGB
 90
-16777216
102
RTVSPost2010PropOp51
 70
     0
102
RTVSPost2010Prop52
140
1.0
102
RTVSPost2010PropOp52
 70
     0
102
RTVSPost2010Prop53
 90
        2
102
RTVSPost2010PropOp53
 70
     0
102
RTVSPost2010Prop54
  1
strokes_ogs.tif
102
RTVSPost2010PropOp54
 70
     0
102
RTVSPost2010Prop55
280
     0
102
RTVSPost2010PropOp55
 70
     1
102
RTVSPost2010Prop56
140
1.0
102
RTVSPost2010PropOp56
 70
     0
102
RTVSPost2010Prop57
140
1.0
102
RTVSPost2010PropOp57
 70
     0
102
RTVSPropertyOp0
 70
     0
102
RTVSPropertyOp1
 70
     0
102
RTVSPropertyOp2
 70
     0
102
RTVSPropertyOp3
 70
     0
102
RTVSPropertyOp4
 70
     0
102
RTVSPropertyOp5
 70
     0
102
RTVSPropertyOp6
 70
     0
102
RTVSPropertyOp7
 70
     0
102
RTVSPropertyOp8
 70
     0
102
RTVSPropertyOp9
 70
     0
102
RTVSPropertyOp10
 70
     0
102
RTVSPropertyOp11
 70
     0
102
RTVSPropertyOp12
 70
     0
102
RTVSPropertyOp13
 70
     0
102
RTVSPropertyOp14
 70
     2
102
RTVSPropertyOp15
 70
     0
102
RTVSPropertyOp16
 70
     0
102
RTVSPropertyOp17
 70
     0
102
RTVSPropertyOp18
 70
     0
102
RTVSPropertyOp19
 70
     0
102
RTVSPropertyOp20
 70
     0
102
RTVSPropertyOp21
 70
     0
102
RTVSPropertyOp22
 70
     0
102
RTVSPropertyOp23
 70
     0
102
RTVSPropertyOp24
 70
     0
102
RTVSPropertyOp25
 70
     0
102
RTVSPropertyOp26
 70
     0
102
RTVSPropertyOp27
 70
     0
102
RTVSPropertyOp28
 70
     1
102
RTVSPropertyOp29
 70
     1
102
RTVSPropertyOp30
 70
     1
102
RTVSPropertyOp31
 70
     1
102
RTVSPropertyOp32
 70
     1
102
RTVSPropertyOp33
 70
     1
102
RTVSPropertyOp34
 70
     1
102
RTVSPropertyOp35
 70
     1
102
RTVSPropertyOp36
 70
     1
102
RTVSPropertyOp37
 70
     0
102
RTVSPropertyOp38
 70
     0
102
RTVSPropertyOp39
 70
     0
102
RTVSPropertyOp40
 70
     0
102
RTVSPropertyOp41
 70
     0
102
RTVSPropertyOp42
 70
     0
102
RTVSPropertyOp43
 70
     0
102
RTVSPropertyOp44
 70
     0
102
RTVSPropertyOp45
 70
     1
102
RTVSPropertyOp46
 70
     0
102
RTVSPropertyOp47
 70
     0
102
RTVSPropertyOp48
 70
     0
102
RTVSPropertyOp49
 70
     1
102
RTVSPropertyOp50
 70
     0
102
RTVSPropertyOp51
 70
     0
102
RTVSPropertyOp52
 70
     0
102
RTVSPropertyOp53
 70
     0
102
RTVSPropertyOp54
 70
     0
102
RTVSPropertyOp55
 70
     1
102
RTVSPropertyOp56
 70
     0
102
RTVSPropertyOp57
 70
     0
102
RTVSPropertyOp58
 70
     0
102
RTVSPropertyOp59
 70
     0
102
RTVSPropertyOp60
 70
     0
102
RTVSPropertyOp61
 70
     0
102
RTVSPropertyOp62
 70
     0
  0
XRECORD
  5
1000000A6
102
{ACAD_REACTORS
330
1000000A5
102
}
330
1000000A5
100
AcDbXrecord
280
     1
102
RTVSPost2010Prop28
280
     0
102
RTVSPost2010PropOp28
 70
     1
102
RTVSPost2010Prop29
280
     1
102
RTVSPost2010PropOp29
 70
     1
102
RTVSPost2010Prop30
280
     1
102
RTVSPost2010PropOp30
 70
     1
102
RTVSPost2010Prop31
280
     0
102
RTVSPost2010PropOp31
 70
     1
102
RTVSPost2010Prop32
280
     0
102
RTVSPost2010PropOp32
 70
     1
102
RTVSPost2010Prop33
280
     0
102
RTVSPost2010PropOp33
 70
     1
102
RTVSPost2010Prop34
280
     0
102
RTVSPost2010PropOp34
 70
     1
102
RTVSPost2010Prop35
280
     0
102
RTVSPost2010PropOp35
 70
     1
102
RTVSPost2010Prop36
280
     0
102
RTVSPost2010PropOp36
 70
     1
102
RTVSPost2010Prop37
 90
       50
102
RTVSPost2010PropOp37
 70
     1
102
RTVSPost2010Prop38
140
0.0
102
RTVSPost2010PropOp38
 70
     1
102
RTVSPost2010Prop39
140
1.0
102
RTVSPost2010PropOp39
 70
     1
102
RTVSPost2010Prop40
 90
        0
102
RTVSPost2010PropOp40
 70
     1
102
RTVSPost2010Prop41ColorIndex
 90
       18
102
RTVSPost2010Prop41ColorRGB
 90
        0
102
RTVSPost2010PropOp41
 70
     1
102
RTVSPost2010Prop42
 90
       50
102
RTVSPost2010PropOp42
 70
     1
102
RTVSPost2010Prop43
 90
        3
102
RTVSPost2010PropOp43
 70
     1
102
RTVSPost2010Prop44ColorIndex
 90
        5
102
RTVSPost2010Prop44ColorRGB
 90
      255
102
RTVSPost2010PropOp44
 70
     1
102
RTVSPost2010Prop45
280
     0
102
RTVSPost2010PropOp45
 70
     1
102
RTVSPost2010Prop46
 90
       50
102
RTVSPost2010PropOp46
 70
     1
102
RTVSPost2010Prop47
 90
       50
102
RTVSPost2010PropOp47
 70
     1
102
RTVSPost2010Prop48
 90
       50
102
RTVSPost2010PropOp48
 70
     1
102
RTVSPost2010Prop49
280
     0
102
RTVSPost2010PropOp49
 70
     1
102
RTVSPost2010Prop50
 90
       50
102
RTVSPost2010PropOp50
 70
     1
102
RTVSPost2010Prop51ColorIndex
 90
      256
102
RTVSPost2010Prop51ColorRGB
 90
-16777216
102
RTVSPost2010PropOp51
 70
     0
102
RTVSPost2010Prop52
140
1.0
102
RTVSPost2010PropOp52
 70
     0
102
RTVSPost2010Prop53
 90
        2
102
RTVSPost2010PropOp53
 70
     1
102
RTVSPost2010Prop54
  1
strokes_ogs.tif
102
RTVSPost2010PropOp54
 70
     1
102
RTVSPost2010Prop55
280
     0
102
RTVSPost2010PropOp55
 70
     1
102
RTVSPost2010Prop56
140
1.0
102
RTVSPost2010PropOp56
 70
     1
102
RTVSPost2010Prop57
140
1.0
102
RTVSPost2010PropOp57
 70
     1
102
RTVSPropertyOp0
 70
     1
102
RTVSPropertyOp1
 70
     1
102
RTVSPropertyOp2
 70
     1
102
RTVSPropertyOp3
 70
     1
102
RTVSPropertyOp4
 70
     1
102
RTVSPropertyOp5
 70
     1
102
RTVSPropertyOp6
 70
     1
102
RTVSPropertyOp7
 70
     1
102
RTVSPropertyOp8
 70
     1
102
RTVSPropertyOp9
 70
     1
102
RTVSPropertyOp10
 70
     1
102
RTVSPropertyOp11
 70
     1
102
RTVSPropertyOp12
 70
     1
102
RTVSPropertyOp13
 70
     1
102
RTVSPropertyOp14
 70
     1
102
RTVSPropertyOp15
 70
     1
102
RTVSPropertyOp16
 70
     1
102
RTVSPropertyOp17
 70
     1
102
RTVSPropertyOp18
 70
     1
102
RTVSPropertyOp19
 70
     1
102
RTVSPropertyOp20
 70
     1
102
RTVSPropertyOp21
 70
     1
102
RTVSPropertyOp22
 70
     1
102
RTVSPropertyOp23
 70
     1
102
RTVSPropertyOp24
 70
     1
102
RTVSPropertyOp25
 70
     1
102
RTVSPropertyOp26
 70
     1
102
RTVSPropertyOp27
 70
     1
102
RTVSPropertyOp28
 70
     1
102
RTVSPropertyOp29
 70
     1
102
RTVSPropertyOp30
 70
     1
102
RTVSPropertyOp31
 70
     1
102
RTVSPropertyOp32
 70
     1
102
RTVSPropertyOp33
 70
     1
102
RTVSPropertyOp34
 70
     1
102
RTVSPropertyOp35
 70
     1
102
RTVSPropertyOp36
 70
     1
102
RTVSPropertyOp37
 70
     1
102
RTVSPropertyOp38
 70
     1
102
RTVSPropertyOp39
 70
     1
102
RTVSPropertyOp40
 70
     1
102
RTVSPropertyOp41
 70
     1
102
RTVSPropertyOp42
 70
     1
102
RTVSPropertyOp43
 70
     1
102
RTVSPropertyOp44
 70
     1
102
RTVSPropertyOp45
 70
     1
102
RTVSPropertyOp46
 70
     1
102
RTVSPropertyOp47
 70
     1
102
RTVSPropertyOp48
 70
     1
102
RTVSPropertyOp49
 70
     1
102
RTVSPropertyOp50
 70
     1
102
RTVSPropertyOp51
 70
     0
102
RTVSPropertyOp52
 70
     0
102
RTVSPropertyOp53
 70
     1
102
RTVSPropertyOp54
 70
     1
102
RTVSPropertyOp55
 70
     1
102
RTVSPropertyOp56
 70
     1
102
RTVSPropertyOp57
 70
     1
102
RTVSPropertyOp58
 70
     1
102
RTVSPropertyOp59
 70
     1
102
RTVSPropertyOp60
 70
     1
102
RTVSPropertyOp61
 70
     1
102
RTVSPropertyOp62
 70
     1
  0
XRECORD
  5
10000008A
102
{ACAD_REACTORS
330
100000089
102
}
330
100000089
100
AcDbXrecord
280
     1
102
RTVSPost2010Prop28
280
     0
102
RTVSPost2010PropOp28
 70
     1
102
RTVSPost2010Prop29
280
     1
102
RTVSPost2010PropOp29
 70
     1
102
RTVSPost2010Prop30
280
     1
102
RTVSPost2010PropOp30
 70
     1
102
RTVSPost2010Prop31
280
     0
102
RTVSPost2010PropOp31
 70
     1
102
RTVSPost2010Prop32
280
     0
102
RTVSPost2010PropOp32
 70
     1
102
RTVSPost2010Prop33
280
     0
102
RTVSPost2010PropOp33
 70
     1
102
RTVSPost2010Prop34
280
     0
102
RTVSPost2010PropOp34
 70
     1
102
RTVSPost2010Prop35
280
     0
102
RTVSPost2010PropOp35
 70
     1
102
RTVSPost2010Prop36
280
     0
102
RTVSPost2010PropOp36
 70
     1
102
RTVSPost2010Prop37
 90
       50
102
RTVSPost2010PropOp37
 70
     1
102
RTVSPost2010Prop38
140
0.0
102
RTVSPost2010PropOp38
 70
     1
102
RTVSPost2010Prop39
140
1.0
102
RTVSPost2010PropOp39
 70
     1
102
RTVSPost2010Prop40
 90
        0
102
RTVSPost2010PropOp40
 70
     1
102
RTVSPost2010Prop41ColorIndex
 90
       18
102
RTVSPost2010Prop41ColorRGB
 90
        0
102
RTVSPost2010PropOp41
 70
     1
102
RTVSPost2010Prop42
 90
       50
102
RTVSPost2010PropOp42
 70
     1
102
RTVSPost2010Prop43
 90
        3
102
RTVSPost2010PropOp43
 70
     1
102
RTVSPost2010Prop44ColorIndex
 90
        5
102
RTVSPost2010Prop44ColorRGB
 90
      255
102
RTVSPost2010PropOp44
 70
     1
102
RTVSPost2010Prop45
280
     0
102
RTVSPost2010PropOp45
 70
     1
102
RTVSPost2010Prop46
 90
       50
102
RTVSPost2010PropOp46
 70
     1
102
RTVSPost2010Prop47
 90
       50
102
RTVSPost2010PropOp47
 70
     1
102
RTVSPost2010Prop48
 90
       50
102
RTVSPost2010PropOp48
 70
     1
102
RTVSPost2010Prop49
280
     0
102
RTVSPost2010PropOp49
 70
     1
102
RTVSPost2010Prop50
 90
       50
102
RTVSPost2010PropOp50
 70
     1
102
RTVSPost2010Prop51ColorIndex
 90
      256
102
RTVSPost2010Prop51ColorRGB
 90
-16777216
102
RTVSPost2010PropOp51
 70
     0
102
RTVSPost2010Prop52
140
1.0
102
RTVSPost2010PropOp52
 70
     0
102
RTVSPost2010Prop53
 90
        2
102
RTVSPost2010PropOp53
 70
     1
102
RTVSPost2010Prop54
  1
strokes_ogs.tif
102
RTVSPost2010PropOp54
 70
     1
102
RTVSPost2010Prop55
280
     0
102
RTVSPost2010PropOp55
 70
     1
102
RTVSPost2010Prop56
140
1.0
102
RTVSPost2010PropOp56
 70
     1
102
RTVSPost2010Prop57
140
1.0
102
RTVSPost2010PropOp57
 70
     1
102
RTVSPropertyOp0
 70
     1
102
RTVSPropertyOp1
 70
     1
102
RTVSPropertyOp2
 70
     1
102
RTVSPropertyOp3
 70
     1
102
RTVSPropertyOp4
 70
     1
102
RTVSPropertyOp5
 70
     1
102
RTVSPropertyOp6
 70
     1
102
RTVSPropertyOp7
 70
     1
102
RTVSPropertyOp8
 70
     1
102
RTVSPropertyOp9
 70
     1
102
RTVSPropertyOp10
 70
     1
102
RTVSPropertyOp11
 70
     1
102
RTVSPropertyOp12
 70
     1
102
RTVSPropertyOp13
 70
     1
102
RTVSPropertyOp14
 70
     1
102
RTVSPropertyOp15
 70
     1
102
RTVSPropertyOp16
 70
     1
102
RTVSPropertyOp17
 70
     1
102
RTVSPropertyOp18
 70
     1
102
RTVSPropertyOp19
 70
     1
102
RTVSPropertyOp20
 70
     1
102
RTVSPropertyOp21
 70
     1
102
RTVSPropertyOp22
 70
     1
102
RTVSPropertyOp23
 70
     1
102
RTVSPropertyOp24
 70
     1
102
RTVSPropertyOp25
 70
     1
102
RTVSPropertyOp26
 70
     1
102
RTVSPropertyOp27
 70
     1
102
RTVSPropertyOp28
 70
     1
102
RTVSPropertyOp29
 70
     1
102
RTVSPropertyOp30
 70
     1
102
RTVSPropertyOp31
 70
     1
102
RTVSPropertyOp32
 70
     1
102
RTVSPropertyOp33
 70
     1
102
RTVSPropertyOp34
 70
     1
102
RTVSPropertyOp35
 70
     1
102
RTVSPropertyOp36
 70
     1
102
RTVSPropertyOp37
 70
     1
102
RTVSPropertyOp38
 70
     1
102
RTVSPropertyOp39
 70
     1
102
RTVSPropertyOp40
 70
     1
102
RTVSPropertyOp41
 70
     1
102
RTVSPropertyOp42
 70
     1
102
RTVSPropertyOp43
 70
     1
102
RTVSPropertyOp44
 70
     1
102
RTVSPropertyOp45
 70
     1
102
RTVSPropertyOp46
 70
     1
102
RTVSPropertyOp47
 70
     1
102
RTVSPropertyOp48
 70
     1
102
RTVSPropertyOp49
 70
     1
102
RTVSPropertyOp50
 70
     1
102
RTVSPropertyOp51
 70
     0
102
RTVSPropertyOp52
 70
     0
102
RTVSPropertyOp53
 70
     1
102
RTVSPropertyOp54
 70
     1
102
RTVSPropertyOp55
 70
     1
102
RTVSPropertyOp56
 70
     1
102
RTVSPropertyOp57
 70
     1
102
RTVSPropertyOp58
 70
     1
102
RTVSPropertyOp59
 70
     1
102
RTVSPropertyOp60
 70
     1
102
RTVSPropertyOp61
 70
     1
102
RTVSPropertyOp62
 70
     1
  0
XRECORD
  5
10000008C
102
{ACAD_REACTORS
330
10000008B
102
}
330
10000008B
100
AcDbXrecord
280
     1
102
RTVSPost2010Prop28
280
     0
102
RTVSPost2010PropOp28
 70
     1
102
RTVSPost2010Prop29
280
     1
102
RTVSPost2010PropOp29
 70
     1
102
RTVSPost2010Prop30
280
     1
102
RTVSPost2010PropOp30
 70
     1
102
RTVSPost2010Prop31
280
     0
102
RTVSPost2010PropOp31
 70
     1
102
RTVSPost2010Prop32
280
     0
102
RTVSPost2010PropOp32
 70
     1
102
RTVSPost2010Prop33
280
     0
102
RTVSPost2010PropOp33
 70
     1
102
RTVSPost2010Prop34
280
     0
102
RTVSPost2010PropOp34
 70
     1
102
RTVSPost2010Prop35
280
     0
102
RTVSPost2010PropOp35
 70
     1
102
RTVSPost2010Prop36
280
     0
102
RTVSPost2010PropOp36
 70
     1
102
RTVSPost2010Prop37
 90
       50
102
RTVSPost2010PropOp37
 70
     1
102
RTVSPost2010Prop38
140
0.0
102
RTVSPost2010PropOp38
 70
     1
102
RTVSPost2010Prop39
140
1.0
102
RTVSPost2010PropOp39
 70
     1
102
RTVSPost2010Prop40
 90
        0
102
RTVSPost2010PropOp40
 70
     1
102
RTVSPost2010Prop41ColorIndex
 90
       18
102
RTVSPost2010Prop41ColorRGB
 90
        0
102
RTVSPost2010PropOp41
 70
     1
102
RTVSPost2010Prop42
 90
       50
102
RTVSPost2010PropOp42
 70
     1
102
RTVSPost2010Prop43
 90
        3
102
RTVSPost2010PropOp43
 70
     1
102
RTVSPost2010Prop44ColorIndex
 90
        5
102
RTVSPost2010Prop44ColorRGB
 90
      255
102
RTVSPost2010PropOp44
 70
     1
102
RTVSPost2010Prop45
280
     0
102
RTVSPost2010PropOp45
 70
     1
102
RTVSPost2010Prop46
 90
       50
102
RTVSPost2010PropOp46
 70
     1
102
RTVSPost2010Prop47
 90
       50
102
RTVSPost2010PropOp47
 70
     1
102
RTVSPost2010Prop48
 90
       50
102
RTVSPost2010PropOp48
 70
     1
102
RTVSPost2010Prop49
280
     0
102
RTVSPost2010PropOp49
 70
     1
102
RTVSPost2010Prop50
 90
       50
102
RTVSPost2010PropOp50
 70
     1
102
RTVSPost2010Prop51ColorIndex
 90
      256
102
RTVSPost2010Prop51ColorRGB
 90
-16777216
102
RTVSPost2010PropOp51
 70
     0
102
RTVSPost2010Prop52
140
1.0
102
RTVSPost2010PropOp52
 70
     0
102
RTVSPost2010Prop53
 90
        2
102
RTVSPost2010PropOp53
 70
     1
102
RTVSPost2010Prop54
  1
strokes_ogs.tif
102
RTVSPost2010PropOp54
 70
     1
102
RTVSPost2010Prop55
280
     0
102
RTVSPost2010PropOp55
 70
     1
102
RTVSPost2010Prop56
140
1.0
102
RTVSPost2010PropOp56
 70
     1
102
RTVSPost2010Prop57
140
1.0
102
RTVSPost2010PropOp57
 70
     1
102
RTVSPropertyOp0
 70
     1
102
RTVSPropertyOp1
 70
     1
102
RTVSPropertyOp2
 70
     1
102
RTVSPropertyOp3
 70
     1
102
RTVSPropertyOp4
 70
     1
102
RTVSPropertyOp5
 70
     1
102
RTVSPropertyOp6
 70
     1
102
RTVSPropertyOp7
 70
     1
102
RTVSPropertyOp8
 70
     1
102
RTVSPropertyOp9
 70
     1
102
RTVSPropertyOp10
 70
     1
102
RTVSPropertyOp11
 70
     1
102
RTVSPropertyOp12
 70
     1
102
RTVSPropertyOp13
 70
     1
102
RTVSPropertyOp14
 70
     1
102
RTVSPropertyOp15
 70
     1
102
RTVSPropertyOp16
 70
     1
102
RTVSPropertyOp17
 70
     1
102
RTVSPropertyOp18
 70
     1
102
RTVSPropertyOp19
 70
     1
102
RTVSPropertyOp20
 70
     1
102
RTVSPropertyOp21
 70
     1
102
RTVSPropertyOp22
 70
     1
102
RTVSPropertyOp23
 70
     1
102
RTVSPropertyOp24
 70
     1
102
RTVSPropertyOp25
 70
     1
102
RTVSPropertyOp26
 70
     1
102
RTVSPropertyOp27
 70
     1
102
RTVSPropertyOp28
 70
     1
102
RTVSPropertyOp29
 70
     1
102
RTVSPropertyOp30
 70
     1
102
RTVSPropertyOp31
 70
     1
102
RTVSPropertyOp32
 70
     1
102
RTVSPropertyOp33
 70
     1
102
RTVSPropertyOp34
 70
     1
102
RTVSPropertyOp35
 70
     1
102
RTVSPropertyOp36
 70
     1
102
RTVSPropertyOp37
 70
     1
102
RTVSPropertyOp38
 70
     1
102
RTVSPropertyOp39
 70
     1
102
RTVSPropertyOp40
 70
     1
102
RTVSPropertyOp41
 70
     1
102
RTVSPropertyOp42
 70
     1
102
RTVSPropertyOp43
 70
     1
102
RTVSPropertyOp44
 70
     1
102
RTVSPropertyOp45
 70
     1
102
RTVSPropertyOp46
 70
     1
102
RTVSPropertyOp47
 70
     1
102
RTVSPropertyOp48
 70
     1
102
RTVSPropertyOp49
 70
     1
102
RTVSPropertyOp50
 70
     1
102
RTVSPropertyOp51
 70
     0
102
RTVSPropertyOp52
 70
     0
102
RTVSPropertyOp53
 70
     1
102
RTVSPropertyOp54
 70
     1
102
RTVSPropertyOp55
 70
     1
102
RTVSPropertyOp56
 70
     1
102
RTVSPropertyOp57
 70
     1
102
RTVSPropertyOp58
 70
     1
102
RTVSPropertyOp59
 70
     1
102
RTVSPropertyOp60
 70
     1
102
RTVSPropertyOp61
 70
     1
102
RTVSPropertyOp62
 70
     1
  0
XRECORD
  5
10000008E
102
{ACAD_REACTORS
330
10000008D
102
}
330
10000008D
100
AcDbXrecord
280
     1
102
RTVSPost2010Prop28
280
     0
102
RTVSPost2010PropOp28
 70
     1
102
RTVSPost2010Prop29
280
     1
102
RTVSPost2010PropOp29
 70
     1
102
RTVSPost2010Prop30
280
     1
102
RTVSPost2010PropOp30
 70
     1
102
RTVSPost2010Prop31
280
     0
102
RTVSPost2010PropOp31
 70
     1
102
RTVSPost2010Prop32
280
     0
102
RTVSPost2010PropOp32
 70
     1
102
RTVSPost2010Prop33
280
     0
102
RTVSPost2010PropOp33
 70
     1
102
RTVSPost2010Prop34
280
     0
102
RTVSPost2010PropOp34
 70
     1
102
RTVSPost2010Prop35
280
     0
102
RTVSPost2010PropOp35
 70
     1
102
RTVSPost2010Prop36
280
     0
102
RTVSPost2010PropOp36
 70
     1
102
RTVSPost2010Prop37
 90
       50
102
RTVSPost2010PropOp37
 70
     1
102
RTVSPost2010Prop38
140
0.0
102
RTVSPost2010PropOp38
 70
     1
102
RTVSPost2010Prop39
140
1.0
102
RTVSPost2010PropOp39
 70
     1
102
RTVSPost2010Prop40
 90
        0
102
RTVSPost2010PropOp40
 70
     1
102
RTVSPost2010Prop41ColorIndex
 90
       18
102
RTVSPost2010Prop41ColorRGB
 90
        0
102
RTVSPost2010PropOp41
 70
     1
102
RTVSPost2010Prop42
 90
       50
102
RTVSPost2010PropOp42
 70
     1
102
RTVSPost2010Prop43
 90
        3
102
RTVSPost2010PropOp43
 70
     1
102
RTVSPost2010Prop44ColorIndex
 90
        5
102
RTVSPost2010Prop44ColorRGB
 90
      255
102
RTVSPost2010PropOp44
 70
     1
102
RTVSPost2010Prop45
280
     0
102
RTVSPost2010PropOp45
 70
     1
102
RTVSPost2010Prop46
 90
       50
102
RTVSPost2010PropOp46
 70
     1
102
RTVSPost2010Prop47
 90
       50
102
RTVSPost2010PropOp47
 70
     1
102
RTVSPost2010Prop48
 90
       50
102
RTVSPost2010PropOp48
 70
     1
102
RTVSPost2010Prop49
280
     0
102
RTVSPost2010PropOp49
 70
     1
102
RTVSPost2010Prop50
 90
       50
102
RTVSPost2010PropOp50
 70
     1
102
RTVSPost2010Prop51ColorIndex
 90
      256
102
RTVSPost2010Prop51ColorRGB
 90
-16777216
102
RTVSPost2010PropOp51
 70
     0
102
RTVSPost2010Prop52
140
1.0
102
RTVSPost2010PropOp52
 70
     0
102
RTVSPost2010Prop53
 90
        2
102
RTVSPost2010PropOp53
 70
     1
102
RTVSPost2010Prop54
  1
strokes_ogs.tif
102
RTVSPost2010PropOp54
 70
     1
102
RTVSPost2010Prop55
280
     0
102
RTVSPost2010PropOp55
 70
     1
102
RTVSPost2010Prop56
140
1.0
102
RTVSPost2010PropOp56
 70
     1
102
RTVSPost2010Prop57
140
1.0
102
RTVSPost2010PropOp57
 70
     1
102
RTVSPropertyOp0
 70
     1
102
RTVSPropertyOp1
 70
     1
102
RTVSPropertyOp2
 70
     1
102
RTVSPropertyOp3
 70
     1
102
RTVSPropertyOp4
 70
     1
102
RTVSPropertyOp5
 70
     1
102
RTVSPropertyOp6
 70
     1
102
RTVSPropertyOp7
 70
     1
102
RTVSPropertyOp8
 70
     1
102
RTVSPropertyOp9
 70
     1
102
RTVSPropertyOp10
 70
     1
102
RTVSPropertyOp11
 70
     1
102
RTVSPropertyOp12
 70
     1
102
RTVSPropertyOp13
 70
     1
102
RTVSPropertyOp14
 70
     1
102
RTVSPropertyOp15
 70
     1
102
RTVSPropertyOp16
 70
     1
102
RTVSPropertyOp17
 70
     1
102
RTVSPropertyOp18
 70
     1
102
RTVSPropertyOp19
 70
     1
102
RTVSPropertyOp20
 70
     1
102
RTVSPropertyOp21
 70
     1
102
RTVSPropertyOp22
 70
     1
102
RTVSPropertyOp23
 70
     1
102
RTVSPropertyOp24
 70
     1
102
RTVSPropertyOp25
 70
     1
102
RTVSPropertyOp26
 70
     1
102
RTVSPropertyOp27
 70
     1
102
RTVSPropertyOp28
 70
     1
102
RTVSPropertyOp29
 70
     1
102
RTVSPropertyOp30
 70
     1
102
RTVSPropertyOp31
 70
     1
102
RTVSPropertyOp32
 70
     1
102
RTVSPropertyOp33
 70
     1
102
RTVSPropertyOp34
 70
     1
102
RTVSPropertyOp35
 70
     1
102
RTVSPropertyOp36
 70
     1
102
RTVSPropertyOp37
 70
     1
102
RTVSPropertyOp38
 70
     1
102
RTVSPropertyOp39
 70
     1
102
RTVSPropertyOp40
 70
     1
102
RTVSPropertyOp41
 70
     1
102
RTVSPropertyOp42
 70
     1
102
RTVSPropertyOp43
 70
     1
102
RTVSPropertyOp44
 70
     1
102
RTVSPropertyOp45
 70
     1
102
RTVSPropertyOp46
 70
     1
102
RTVSPropertyOp47
 70
     1
102
RTVSPropertyOp48
 70
     1
102
RTVSPropertyOp49
 70
     1
102
RTVSPropertyOp50
 70
     1
102
RTVSPropertyOp51
 70
     0
102
RTVSPropertyOp52
 70
     0
102
RTVSPropertyOp53
 70
     1
102
RTVSPropertyOp54
 70
     1
102
RTVSPropertyOp55
 70
     1
102
RTVSPropertyOp56
 70
     1
102
RTVSPropertyOp57
 70
     1
102
RTVSPropertyOp58
 70
     1
102
RTVSPropertyOp59
 70
     1
102
RTVSPropertyOp60
 70
     1
102
RTVSPropertyOp61
 70
     1
102
RTVSPropertyOp62
 70
     1
  0
XRECORD
  5
100000090
102
{ACAD_REACTORS
330
10000008F
102
}
330
10000008F
100
AcDbXrecord
280
     1
102
RTVSPost2010Prop28
280
     0
102
RTVSPost2010PropOp28
 70
     1
102
RTVSPost2010Prop29
280
     1
102
RTVSPost2010PropOp29
 70
     1
102
RTVSPost2010Prop30
280
     1
102
RTVSPost2010PropOp30
 70
     1
102
RTVSPost2010Prop31
280
     0
102
RTVSPost2010PropOp31
 70
     1
102
RTVSPost2010Prop32
280
     0
102
RTVSPost2010PropOp32
 70
     1
102
RTVSPost2010Prop33
280
     0
102
RTVSPost2010PropOp33
 70
     1
102
RTVSPost2010Prop34
280
     0
102
RTVSPost2010PropOp34
 70
     1
102
RTVSPost2010Prop35
280
     0
102
RTVSPost2010PropOp35
 70
     1
102
RTVSPost2010Prop36
280
     0
102
RTVSPost2010PropOp36
 70
     1
102
RTVSPost2010Prop37
 90
       50
102
RTVSPost2010PropOp37
 70
     1
102
RTVSPost2010Prop38
140
0.0
102
RTVSPost2010PropOp38
 70
     1
102
RTVSPost2010Prop39
140
1.0
102
RTVSPost2010PropOp39
 70
     1
102
RTVSPost2010Prop40
 90
        0
102
RTVSPost2010PropOp40
 70
     1
102
RTVSPost2010Prop41ColorIndex
 90
       18
102
RTVSPost2010Prop41ColorRGB
 90
        0
102
RTVSPost2010PropOp41
 70
     1
102
RTVSPost2010Prop42
 90
       50
102
RTVSPost2010PropOp42
 70
     1
102
RTVSPost2010Prop43
 90
        3
102
RTVSPost2010PropOp43
 70
     1
102
RTVSPost2010Prop44ColorIndex
 90
        5
102
RTVSPost2010Prop44ColorRGB
 90
      255
102
RTVSPost2010PropOp44
 70
     1
102
RTVSPost2010Prop45
280
     0
102
RTVSPost2010PropOp45
 70
     1
102
RTVSPost2010Prop46
 90
       50
102
RTVSPost2010PropOp46
 70
     1
102
RTVSPost2010Prop47
 90
       50
102
RTVSPost2010PropOp47
 70
     1
102
RTVSPost2010Prop48
 90
       50
102
RTVSPost2010PropOp48
 70
     1
102
RTVSPost2010Prop49
280
     0
102
RTVSPost2010PropOp49
 70
     1
102
RTVSPost2010Prop50
 90
       50
102
RTVSPost2010PropOp50
 70
     1
102
RTVSPost2010Prop51ColorIndex
 90
      256
102
RTVSPost2010Prop51ColorRGB
 90
-16777216
102
RTVSPost2010PropOp51
 70
     0
102
RTVSPost2010Prop52
140
1.0
102
RTVSPost2010PropOp52
 70
     0
102
RTVSPost2010Prop53
 90
        2
102
RTVSPost2010PropOp53
 70
     1
102
RTVSPost2010Prop54
  1
strokes_ogs.tif
102
RTVSPost2010PropOp54
 70
     1
102
RTVSPost2010Prop55
280
     0
102
RTVSPost2010PropOp55
 70
     1
102
RTVSPost2010Prop56
140
1.0
102
RTVSPost2010PropOp56
 70
     1
102
RTVSPost2010Prop57
140
1.0
102
RTVSPost2010PropOp57
 70
     1
102
RTVSPropertyOp0
 70
     1
102
RTVSPropertyOp1
 70
     1
102
RTVSPropertyOp2
 70
     1
102
RTVSPropertyOp3
 70
     1
102
RTVSPropertyOp4
 70
     1
102
RTVSPropertyOp5
 70
     1
102
RTVSPropertyOp6
 70
     1
102
RTVSPropertyOp7
 70
     1
102
RTVSPropertyOp8
 70
     1
102
RTVSPropertyOp9
 70
     1
102
RTVSPropertyOp10
 70
     1
102
RTVSPropertyOp11
 70
     1
102
RTVSPropertyOp12
 70
     1
102
RTVSPropertyOp13
 70
     1
102
RTVSPropertyOp14
 70
     1
102
RTVSPropertyOp15
 70
     1
102
RTVSPropertyOp16
 70
     1
102
RTVSPropertyOp17
 70
     1
102
RTVSPropertyOp18
 70
     1
102
RTVSPropertyOp19
 70
     1
102
RTVSPropertyOp20
 70
     1
102
RTVSPropertyOp21
 70
     1
102
RTVSPropertyOp22
 70
     1
102
RTVSPropertyOp23
 70
     1
102
RTVSPropertyOp24
 70
     1
102
RTVSPropertyOp25
 70
     1
102
RTVSPropertyOp26
 70
     1
102
RTVSPropertyOp27
 70
     1
102
RTVSPropertyOp28
 70
     1
102
RTVSPropertyOp29
 70
     1
102
RTVSPropertyOp30
 70
     1
102
RTVSPropertyOp31
 70
     1
102
RTVSPropertyOp32
 70
     1
102
RTVSPropertyOp33
 70
     1
102
RTVSPropertyOp34
 70
     1
102
RTVSPropertyOp35
 70
     1
102
RTVSPropertyOp36
 70
     1
102
RTVSPropertyOp37
 70
     1
102
RTVSPropertyOp38
 70
     1
102
RTVSPropertyOp39
 70
     1
102
RTVSPropertyOp40
 70
     1
102
RTVSPropertyOp41
 70
     1
102
RTVSPropertyOp42
 70
     1
102
RTVSPropertyOp43
 70
     1
102
RTVSPropertyOp44
 70
     1
102
RTVSPropertyOp45
 70
     1
102
RTVSPropertyOp46
 70
     1
102
RTVSPropertyOp47
 70
     1
102
RTVSPropertyOp48
 70
     1
102
RTVSPropertyOp49
 70
     1
102
RTVSPropertyOp50
 70
     1
102
RTVSPropertyOp51
 70
     0
102
RTVSPropertyOp52
 70
     0
102
RTVSPropertyOp53
 70
     1
102
RTVSPropertyOp54
 70
     1
102
RTVSPropertyOp55
 70
     1
102
RTVSPropertyOp56
 70
     1
102
RTVSPropertyOp57
 70
     1
102
RTVSPropertyOp58
 70
     1
102
RTVSPropertyOp59
 70
     1
102
RTVSPropertyOp60
 70
     1
102
RTVSPropertyOp61
 70
     1
102
RTVSPropertyOp62
 70
     1
  0
XRECORD
  5
100000098
102
{ACAD_REACTORS
330
100000097
102
}
330
100000097
100
AcDbXrecord
280
     1
102
RTVSPost2010Prop28
280
     0
102
RTVSPost2010PropOp28
 70
     1
102
RTVSPost2010Prop29
280
     1
102
RTVSPost2010PropOp29
 70
     1
102
RTVSPost2010Prop30
280
     1
102
RTVSPost2010PropOp30
 70
     1
102
RTVSPost2010Prop31
280
     0
102
RTVSPost2010PropOp31
 70
     1
102
RTVSPost2010Prop32
280
     0
102
RTVSPost2010PropOp32
 70
     1
102
RTVSPost2010Prop33
280
     0
102
RTVSPost2010PropOp33
 70
     1
102
RTVSPost2010Prop34
280
     0
102
RTVSPost2010PropOp34
 70
     1
102
RTVSPost2010Prop35
280
     0
102
RTVSPost2010PropOp35
 70
     1
102
RTVSPost2010Prop36
280
     0
102
RTVSPost2010PropOp36
 70
     1
102
RTVSPost2010Prop37
 90
       50
102
RTVSPost2010PropOp37
 70
     1
102
RTVSPost2010Prop38
140
0.0
102
RTVSPost2010PropOp38
 70
     1
102
RTVSPost2010Prop39
140
1.0
102
RTVSPost2010PropOp39
 70
     1
102
RTVSPost2010Prop40
 90
        0
102
RTVSPost2010PropOp40
 70
     1
102
RTVSPost2010Prop41ColorIndex
 90
       18
102
RTVSPost2010Prop41ColorRGB
 90
        0
102
RTVSPost2010PropOp41
 70
     1
102
RTVSPost2010Prop42
 90
       50
102
RTVSPost2010PropOp42
 70
     1
102
RTVSPost2010Prop43
 90
        3
102
RTVSPost2010PropOp43
 70
     1
102
RTVSPost2010Prop44ColorIndex
 90
        5
102
RTVSPost2010Prop44ColorRGB
 90
      255
102
RTVSPost2010PropOp44
 70
     1
102
RTVSPost2010Prop45
280
     0
102
RTVSPost2010PropOp45
 70
     1
102
RTVSPost2010Prop46
 90
       50
102
RTVSPost2010PropOp46
 70
     1
102
RTVSPost2010Prop47
 90
       50
102
RTVSPost2010PropOp47
 70
     1
102
RTVSPost2010Prop48
 90
       50
102
RTVSPost2010PropOp48
 70
     1
102
RTVSPost2010Prop49
280
     0
102
RTVSPost2010PropOp49
 70
     1
102
RTVSPost2010Prop50
 90
       50
102
RTVSPost2010PropOp50
 70
     1
102
RTVSPost2010Prop51ColorIndex
 90
      256
102
RTVSPost2010Prop51ColorRGB
 90
-16777216
102
RTVSPost2010PropOp51
 70
     0
102
RTVSPost2010Prop52
140
1.0
102
RTVSPost2010PropOp52
 70
     0
102
RTVSPost2010Prop53
 90
        2
102
RTVSPost2010PropOp53
 70
     1
102
RTVSPost2010Prop54
  1
strokes_ogs.tif
102
RTVSPost2010PropOp54
 70
     1
102
RTVSPost2010Prop55
280
     0
102
RTVSPost2010PropOp55
 70
     1
102
RTVSPost2010Prop56
140
1.0
102
RTVSPost2010PropOp56
 70
     1
102
RTVSPost2010Prop57
140
1.0
102
RTVSPost2010PropOp57
 70
     1
102
RTVSPropertyOp0
 70
     1
102
RTVSPropertyOp1
 70
     1
102
RTVSPropertyOp2
 70
     1
102
RTVSPropertyOp3
 70
     1
102
RTVSPropertyOp4
 70
     1
102
RTVSPropertyOp5
 70
     1
102
RTVSPropertyOp6
 70
     1
102
RTVSPropertyOp7
 70
     1
102
RTVSPropertyOp8
 70
     1
102
RTVSPropertyOp9
 70
     1
102
RTVSPropertyOp10
 70
     1
102
RTVSPropertyOp11
 70
     1
102
RTVSPropertyOp12
 70
     1
102
RTVSPropertyOp13
 70
     1
102
RTVSPropertyOp14
 70
     1
102
RTVSPropertyOp15
 70
     1
102
RTVSPropertyOp16
 70
     1
102
RTVSPropertyOp17
 70
     1
102
RTVSPropertyOp18
 70
     1
102
RTVSPropertyOp19
 70
     1
102
RTVSPropertyOp20
 70
     1
102
RTVSPropertyOp21
 70
     1
102
RTVSPropertyOp22
 70
     1
102
RTVSPropertyOp23
 70
     1
102
RTVSPropertyOp24
 70
     1
102
RTVSPropertyOp25
 70
     1
102
RTVSPropertyOp26
 70
     1
102
RTVSPropertyOp27
 70
     1
102
RTVSPropertyOp28
 70
     1
102
RTVSPropertyOp29
 70
     1
102
RTVSPropertyOp30
 70
     1
102
RTVSPropertyOp31
 70
     1
102
RTVSPropertyOp32
 70
     1
102
RTVSPropertyOp33
 70
     1
102
RTVSPropertyOp34
 70
     1
102
RTVSPropertyOp35
 70
     1
102
RTVSPropertyOp36
 70
     1
102
RTVSPropertyOp37
 70
     1
102
RTVSPropertyOp38
 70
     1
102
RTVSPropertyOp39
 70
     1
102
RTVSPropertyOp40
 70
     1
102
RTVSPropertyOp41
 70
     1
102
RTVSPropertyOp42
 70
     1
102
RTVSPropertyOp43
 70
     1
102
RTVSPropertyOp44
 70
     1
102
RTVSPropertyOp45
 70
     1
102
RTVSPropertyOp46
 70
     1
102
RTVSPropertyOp47
 70
     1
102
RTVSPropertyOp48
 70
     1
102
RTVSPropertyOp49
 70
     1
102
RTVSPropertyOp50
 70
     1
102
RTVSPropertyOp51
 70
     0
102
RTVSPropertyOp52
 70
     0
102
RTVSPropertyOp53
 70
     1
102
RTVSPropertyOp54
 70
     1
102
RTVSPropertyOp55
 70
     1
102
RTVSPropertyOp56
 70
     1
102
RTVSPropertyOp57
 70
     1
102
RTVSPropertyOp58
 70
     1
102
RTVSPropertyOp59
 70
     1
102
RTVSPropertyOp60
 70
     1
102
RTVSPropertyOp61
 70
     1
102
RTVSPropertyOp62
 70
     1
  0
XRECORD
  5
1000000B4
102
{ACAD_REACTORS
330
1000000B3
102
}
330
1000000B3
100
AcDbXrecord
280
     1
102
RTVSPost2010Prop28
280
     0
102
RTVSPost2010PropOp28
 70
     1
102
RTVSPost2010Prop29
280
     1
102
RTVSPost2010PropOp29
 70
     1
102
RTVSPost2010Prop30
280
     1
102
RTVSPost2010PropOp30
 70
     1
102
RTVSPost2010Prop31
280
     0
102
RTVSPost2010PropOp31
 70
     1
102
RTVSPost2010Prop32
280
     0
102
RTVSPost2010PropOp32
 70
     1
102
RTVSPost2010Prop33
280
     0
102
RTVSPost2010PropOp33
 70
     1
102
RTVSPost2010Prop34
280
     0
102
RTVSPost2010PropOp34
 70
     1
102
RTVSPost2010Prop35
280
     0
102
RTVSPost2010PropOp35
 70
     1
102
RTVSPost2010Prop36
280
     0
102
RTVSPost2010PropOp36
 70
     1
102
RTVSPost2010Prop37
 90
       50
102
RTVSPost2010PropOp37
 70
     0
102
RTVSPost2010Prop38
140
0.0
102
RTVSPost2010PropOp38
 70
     0
102
RTVSPost2010Prop39
140
1.0
102
RTVSPost2010PropOp39
 70
     0
102
RTVSPost2010Prop40
 90
        0
102
RTVSPost2010PropOp40
 70
     0
102
RTVSPost2010Prop41ColorIndex
 90
       18
102
RTVSPost2010Prop41ColorRGB
 90
        0
102
RTVSPost2010PropOp41
 70
     0
102
RTVSPost2010Prop42
 90
       50
102
RTVSPost2010PropOp42
 70
     0
102
RTVSPost2010Prop43
 90
        3
102
RTVSPost2010PropOp43
 70
     0
102
RTVSPost2010Prop44ColorIndex
 90
        5
102
RTVSPost2010Prop44ColorRGB
 90
      255
102
RTVSPost2010PropOp44
 70
     0
102
RTVSPost2010Prop45
280
     0
102
RTVSPost2010PropOp45
 70
     1
102
RTVSPost2010Prop46
 90
       50
102
RTVSPost2010PropOp46
 70
     0
102
RTVSPost2010Prop47
 90
       50
102
RTVSPost2010PropOp47
 70
     0
102
RTVSPost2010Prop48
 90
       50
102
RTVSPost2010PropOp48
 70
     0
102
RTVSPost2010Prop49
280
     0
102
RTVSPost2010PropOp49
 70
     1
102
RTVSPost2010Prop50
 90
       50
102
RTVSPost2010PropOp50
 70
     0
102
RTVSPost2010Prop51ColorIndex
 90
      256
102
RTVSPost2010Prop51ColorRGB
 90
-16777216
102
RTVSPost2010PropOp51
 70
     0
102
RTVSPost2010Prop52
140
1.0
102
RTVSPost2010PropOp52
 70
     0
102
RTVSPost2010Prop53
 90
        2
102
RTVSPost2010PropOp53
 70
     0
102
RTVSPost2010Prop54
  1
strokes_ogs.tif
102
RTVSPost2010PropOp54
 70
     0
102
RTVSPost2010Prop55
280
     0
102
RTVSPost2010PropOp55
 70
     1
102
RTVSPost2010Prop56
140
1.0
102
RTVSPost2010PropOp56
 70
     0
102
RTVSPost2010Prop57
140
1.0
102
RTVSPost2010PropOp57
 70
     0
102
RTVSPropertyOp0
 70
     0
102
RTVSPropertyOp1
 70
     0
102
RTVSPropertyOp2
 70
     0
102
RTVSPropertyOp3
 70
     0
102
RTVSPropertyOp4
 70
     0
102
RTVSPropertyOp5
 70
     0
102
RTVSPropertyOp6
 70
     0
102
RTVSPropertyOp7
 70
     0
102
RTVSPropertyOp8
 70
     0
102
RTVSPropertyOp9
 70
     0
102
RTVSPropertyOp10
 70
     0
102
RTVSPropertyOp11
 70
     0
102
RTVSPropertyOp12
 70
     0
102
RTVSPropertyOp13
 70
     0
102
RTVSPropertyOp14
 70
     2
102
RTVSPropertyOp15
 70
     0
102
RTVSPropertyOp16
 70
     0
102
RTVSPropertyOp17
 70
     0
102
RTVSPropertyOp18
 70
     0
102
RTVSPropertyOp19
 70
     0
102
RTVSPropertyOp20
 70
     0
102
RTVSPropertyOp21
 70
     0
102
RTVSPropertyOp22
 70
     0
102
RTVSPropertyOp23
 70
     0
102
RTVSPropertyOp24
 70
     0
102
RTVSPropertyOp25
 70
     0
102
RTVSPropertyOp26
 70
     0
102
RTVSPropertyOp27
 70
     0
102
RTVSPropertyOp28
 70
     1
102
RTVSPropertyOp29
 70
     1
102
RTVSPropertyOp30
 70
     1
102
RTVSPropertyOp31
 70
     1
102
RTVSPropertyOp32
 70
     1
102
RTVSPropertyOp33
 70
     1
102
RTVSPropertyOp34
 70
     1
102
RTVSPropertyOp35
 70
     1
102
RTVSPropertyOp36
 70
     1
102
RTVSPropertyOp37
 70
     0
102
RTVSPropertyOp38
 70
     0
102
RTVSPropertyOp39
 70
     0
102
RTVSPropertyOp40
 70
     0
102
RTVSPropertyOp41
 70
     0
102
RTVSPropertyOp42
 70
     0
102
RTVSPropertyOp43
 70
     0
102
RTVSPropertyOp44
 70
     0
102
RTVSPropertyOp45
 70
     1
102
RTVSPropertyOp46
 70
     0
102
RTVSPropertyOp47
 70
     0
102
RTVSPropertyOp48
 70
     0
102
RTVSPropertyOp49
 70
     1
102
RTVSPropertyOp50
 70
     0
102
RTVSPropertyOp51
 70
     0
102
RTVSPropertyOp52
 70
     0
102
RTVSPropertyOp53
 70
     0
102
RTVSPropertyOp54
 70
     0
102
RTVSPropertyOp55
 70
     1
102
RTVSPropertyOp56
 70
     0
102
RTVSPropertyOp57
 70
     0
102
RTVSPropertyOp58
 70
     0
102
RTVSPropertyOp59
 70
     0
102
RTVSPropertyOp60
 70
     0
102
RTVSPropertyOp61
 70
     0
102
RTVSPropertyOp62
 70
     0
  0
XRECORD
  5
1000000A4
102
{ACAD_REACTORS
330
1000000A3
102
}
330
1000000A3
100
AcDbXrecord
280
     1
102
RTVSPost2010Prop28
280
     0
102
RTVSPost2010PropOp28
 70
     1
102
RTVSPost2010Prop29
280
     1
102
RTVSPost2010PropOp29
 70
     1
102
RTVSPost2010Prop30
280
     1
102
RTVSPost2010PropOp30
 70
     1
102
RTVSPost2010Prop31
280
     0
102
RTVSPost2010PropOp31
 70
     1
102
RTVSPost2010Prop32
280
     0
102
RTVSPost2010PropOp32
 70
     1
102
RTVSPost2010Prop33
280
     0
102
RTVSPost2010PropOp33
 70
     1
102
RTVSPost2010Prop34
280
     0
102
RTVSPost2010PropOp34
 70
     1
102
RTVSPost2010Prop35
280
     0
102
RTVSPost2010PropOp35
 70
     1
102
RTVSPost2010Prop36
280
     0
102
RTVSPost2010PropOp36
 70
     1
102
RTVSPost2010Prop37
 90
       50
102
RTVSPost2010PropOp37
 70
     1
102
RTVSPost2010Prop38
140
0.0
102
RTVSPost2010PropOp38
 70
     1
102
RTVSPost2010Prop39
140
1.0
102
RTVSPost2010PropOp39
 70
     1
102
RTVSPost2010Prop40
 90
        0
102
RTVSPost2010PropOp40
 70
     1
102
RTVSPost2010Prop41ColorIndex
 90
       18
102
RTVSPost2010Prop41ColorRGB
 90
        0
102
RTVSPost2010PropOp41
 70
     1
102
RTVSPost2010Prop42
 90
       50
102
RTVSPost2010PropOp42
 70
     1
102
RTVSPost2010Prop43
 90
        3
102
RTVSPost2010PropOp43
 70
     1
102
RTVSPost2010Prop44ColorIndex
 90
        5
102
RTVSPost2010Prop44ColorRGB
 90
      255
102
RTVSPost2010PropOp44
 70
     1
102
RTVSPost2010Prop45
280
     0
102
RTVSPost2010PropOp45
 70
     1
102
RTVSPost2010Prop46
 90
       50
102
RTVSPost2010PropOp46
 70
     1
102
RTVSPost2010Prop47
 90
       50
102
RTVSPost2010PropOp47
 70
     1
102
RTVSPost2010Prop48
 90
       50
102
RTVSPost2010PropOp48
 70
     1
102
RTVSPost2010Prop49
280
     0
102
RTVSPost2010PropOp49
 70
     1
102
RTVSPost2010Prop50
 90
       50
102
RTVSPost2010PropOp50
 70
     1
102
RTVSPost2010Prop51ColorIndex
 90
      256
102
RTVSPost2010Prop51ColorRGB
 90
-16777216
102
RTVSPost2010PropOp51
 70
     0
102
RTVSPost2010Prop52
140
1.0
102
RTVSPost2010PropOp52
 70
     0
102
RTVSPost2010Prop53
 90
        2
102
RTVSPost2010PropOp53
 70
     1
102
RTVSPost2010Prop54
  1
strokes_ogs.tif
102
RTVSPost2010PropOp54
 70
     1
102
RTVSPost2010Prop55
280
     0
102
RTVSPost2010PropOp55
 70
     1
102
RTVSPost2010Prop56
140
1.0
102
RTVSPost2010PropOp56
 70
     1
102
RTVSPost2010Prop57
140
1.0
102
RTVSPost2010PropOp57
 70
     1
102
RTVSPropertyOp0
 70
     1
102
RTVSPropertyOp1
 70
     1
102
RTVSPropertyOp2
 70
     1
102
RTVSPropertyOp3
 70
     1
102
RTVSPropertyOp4
 70
     1
102
RTVSPropertyOp5
 70
     1
102
RTVSPropertyOp6
 70
     1
102
RTVSPropertyOp7
 70
     1
102
RTVSPropertyOp8
 70
     1
102
RTVSPropertyOp9
 70
     1
102
RTVSPropertyOp10
 70
     1
102
RTVSPropertyOp11
 70
     1
102
RTVSPropertyOp12
 70
     1
102
RTVSPropertyOp13
 70
     1
102
RTVSPropertyOp14
 70
     1
102
RTVSPropertyOp15
 70
     1
102
RTVSPropertyOp16
 70
     1
102
RTVSPropertyOp17
 70
     1
102
RTVSPropertyOp18
 70
     1
102
RTVSPropertyOp19
 70
     1
102
RTVSPropertyOp20
 70
     1
102
RTVSPropertyOp21
 70
     1
102
RTVSPropertyOp22
 70
     1
102
RTVSPropertyOp23
 70
     1
102
RTVSPropertyOp24
 70
     1
102
RTVSPropertyOp25
 70
     1
102
RTVSPropertyOp26
 70
     1
102
RTVSPropertyOp27
 70
     1
102
RTVSPropertyOp28
 70
     1
102
RTVSPropertyOp29
 70
     1
102
RTVSPropertyOp30
 70
     1
102
RTVSPropertyOp31
 70
     1
102
RTVSPropertyOp32
 70
     1
102
RTVSPropertyOp33
 70
     1
102
RTVSPropertyOp34
 70
     1
102
RTVSPropertyOp35
 70
     1
102
RTVSPropertyOp36
 70
     1
102
RTVSPropertyOp37
 70
     1
102
RTVSPropertyOp38
 70
     1
102
RTVSPropertyOp39
 70
     1
102
RTVSPropertyOp40
 70
     1
102
RTVSPropertyOp41
 70
     1
102
RTVSPropertyOp42
 70
     1
102
RTVSPropertyOp43
 70
     1
102
RTVSPropertyOp44
 70
     1
102
RTVSPropertyOp45
 70
     1
102
RTVSPropertyOp46
 70
     1
102
RTVSPropertyOp47
 70
     1
102
RTVSPropertyOp48
 70
     1
102
RTVSPropertyOp49
 70
     1
102
RTVSPropertyOp50
 70
     1
102
RTVSPropertyOp51
 70
     0
102
RTVSPropertyOp52
 70
     0
102
RTVSPropertyOp53
 70
     1
102
RTVSPropertyOp54
 70
     1
102
RTVSPropertyOp55
 70
     1
102
RTVSPropertyOp56
 70
     1
102
RTVSPropertyOp57
 70
     1
102
RTVSPropertyOp58
 70
     1
102
RTVSPropertyOp59
 70
     1
102
RTVSPropertyOp60
 70
     1
102
RTVSPropertyOp61
 70
     1
102
RTVSPropertyOp62
 70
     1
  0
XRECORD
  5
1000000B6
102
{ACAD_REACTORS
330
1000000B5
102
}
330
1000000B5
100
AcDbXrecord
280
     1
102
RTVSPost2010Prop28
280
     0
102
RTVSPost2010PropOp28
 70
     1
102
RTVSPost2010Prop29
280
     1
102
RTVSPost2010PropOp29
 70
     1
102
RTVSPost2010Prop30
280
     1
102
RTVSPost2010PropOp30
 70
     1
102
RTVSPost2010Prop31
280
     0
102
RTVSPost2010PropOp31
 70
     1
102
RTVSPost2010Prop32
280
     0
102
RTVSPost2010PropOp32
 70
     1
102
RTVSPost2010Prop33
280
     0
102
RTVSPost2010PropOp33
 70
     1
102
RTVSPost2010Prop34
280
     0
102
RTVSPost2010PropOp34
 70
     1
102
RTVSPost2010Prop35
280
     0
102
RTVSPost2010PropOp35
 70
     1
102
RTVSPost2010Prop36
280
     0
102
RTVSPost2010PropOp36
 70
     1
102
RTVSPost2010Prop37
 90
       50
102
RTVSPost2010PropOp37
 70
     0
102
RTVSPost2010Prop38
140
0.0
102
RTVSPost2010PropOp38
 70
     0
102
RTVSPost2010Prop39
140
1.0
102
RTVSPost2010PropOp39
 70
     0
102
RTVSPost2010Prop40
 90
        0
102
RTVSPost2010PropOp40
 70
     0
102
RTVSPost2010Prop41ColorIndex
 90
       18
102
RTVSPost2010Prop41ColorRGB
 90
        0
102
RTVSPost2010PropOp41
 70
     0
102
RTVSPost2010Prop42
 90
       50
102
RTVSPost2010PropOp42
 70
     0
102
RTVSPost2010Prop43
 90
        3
102
RTVSPost2010PropOp43
 70
     0
102
RTVSPost2010Prop44ColorIndex
 90
        5
102
RTVSPost2010Prop44ColorRGB
 90
      255
102
RTVSPost2010PropOp44
 70
     0
102
RTVSPost2010Prop45
280
     0
102
RTVSPost2010PropOp45
 70
     1
102
RTVSPost2010Prop46
 90
       50
102
RTVSPost2010PropOp46
 70
     0
102
RTVSPost2010Prop47
 90
       50
102
RTVSPost2010PropOp47
 70
     0
102
RTVSPost2010Prop48
 90
       50
102
RTVSPost2010PropOp48
 70
     0
102
RTVSPost2010Prop49
280
     0
102
RTVSPost2010PropOp49
 70
     1
102
RTVSPost2010Prop50
 90
       50
102
RTVSPost2010PropOp50
 70
     0
102
RTVSPost2010Prop51ColorIndex
 90
      256
102
RTVSPost2010Prop51ColorRGB
 90
-16777216
102
RTVSPost2010PropOp51
 70
     0
102
RTVSPost2010Prop52
140
1.0
102
RTVSPost2010PropOp52
 70
     0
102
RTVSPost2010Prop53
 90
        2
102
RTVSPost2010PropOp53
 70
     0
102
RTVSPost2010Prop54
  1
strokes_ogs.tif
102
RTVSPost2010PropOp54
 70
     0
102
RTVSPost2010Prop55
280
     0
102
RTVSPost2010PropOp55
 70
     1
102
RTVSPost2010Prop56
140
1.0
102
RTVSPost2010PropOp56
 70
     0
102
RTVSPost2010Prop57
140
1.0
102
RTVSPost2010PropOp57
 70
     0
102
RTVSPropertyOp0
 70
     0
102
RTVSPropertyOp1
 70
     0
102
RTVSPropertyOp2
 70
     0
102
RTVSPropertyOp3
 70
     0
102
RTVSPropertyOp4
 70
     0
102
RTVSPropertyOp5
 70
     0
102
RTVSPropertyOp6
 70
     0
102
RTVSPropertyOp7
 70
     0
102
RTVSPropertyOp8
 70
     0
102
RTVSPropertyOp9
 70
     0
102
RTVSPropertyOp10
 70
     0
102
RTVSPropertyOp11
 70
     0
102
RTVSPropertyOp12
 70
     0
102
RTVSPropertyOp13
 70
     0
102
RTVSPropertyOp14
 70
     2
102
RTVSPropertyOp15
 70
     0
102
RTVSPropertyOp16
 70
     0
102
RTVSPropertyOp17
 70
     0
102
RTVSPropertyOp18
 70
     0
102
RTVSPropertyOp19
 70
     0
102
RTVSPropertyOp20
 70
     0
102
RTVSPropertyOp21
 70
     0
102
RTVSPropertyOp22
 70
     0
102
RTVSPropertyOp23
 70
     0
102
RTVSPropertyOp24
 70
     0
102
RTVSPropertyOp25
 70
     0
102
RTVSPropertyOp26
 70
     0
102
RTVSPropertyOp27
 70
     0
102
RTVSPropertyOp28
 70
     1
102
RTVSPropertyOp29
 70
     1
102
RTVSPropertyOp30
 70
     1
102
RTVSPropertyOp31
 70
     1
102
RTVSPropertyOp32
 70
     1
102
RTVSPropertyOp33
 70
     1
102
RTVSPropertyOp34
 70
     1
102
RTVSPropertyOp35
 70
     1
102
RTVSPropertyOp36
 70
     1
102
RTVSPropertyOp37
 70
     0
102
RTVSPropertyOp38
 70
     0
102
RTVSPropertyOp39
 70
     0
102
RTVSPropertyOp40
 70
     0
102
RTVSPropertyOp41
 70
     0
102
RTVSPropertyOp42
 70
     0
102
RTVSPropertyOp43
 70
     0
102
RTVSPropertyOp44
 70
     0
102
RTVSPropertyOp45
 70
     1
102
RTVSPropertyOp46
 70
     0
102
RTVSPropertyOp47
 70
     0
102
RTVSPropertyOp48
 70
     0
102
RTVSPropertyOp49
 70
     1
102
RTVSPropertyOp50
 70
     0
102
RTVSPropertyOp51
 70
     0
102
RTVSPropertyOp52
 70
     0
102
RTVSPropertyOp53
 70
     0
102
RTVSPropertyOp54
 70
     0
102
RTVSPropertyOp55
 70
     1
102
RTVSPropertyOp56
 70
     0
102
RTVSPropertyOp57
 70
     0
102
RTVSPropertyOp58
 70
     0
102
RTVSPropertyOp59
 70
     0
102
RTVSPropertyOp60
 70
     0
102
RTVSPropertyOp61
 70
     0
102
RTVSPropertyOp62
 70
     0
  0
XRECORD
  5
10000009C
102
{ACAD_REACTORS
330
10000009B
102
}
330
10000009B
100
AcDbXrecord
280
     1
102
RTVSPost2010Prop28
280
     0
102
RTVSPost2010PropOp28
 70
     1
102
RTVSPost2010Prop29
280
     1
102
RTVSPost2010PropOp29
 70
     1
102
RTVSPost2010Prop30
280
     1
102
RTVSPost2010PropOp30
 70
     1
102
RTVSPost2010Prop31
280
     0
102
RTVSPost2010PropOp31
 70
     1
102
RTVSPost2010Prop32
280
     0
102
RTVSPost2010PropOp32
 70
     1
102
RTVSPost2010Prop33
280
     0
102
RTVSPost2010PropOp33
 70
     1
102
RTVSPost2010Prop34
280
     0
102
RTVSPost2010PropOp34
 70
     1
102
RTVSPost2010Prop35
280
     0
102
RTVSPost2010PropOp35
 70
     1
102
RTVSPost2010Prop36
280
     0
102
RTVSPost2010PropOp36
 70
     1
102
RTVSPost2010Prop37
 90
       50
102
RTVSPost2010PropOp37
 70
     1
102
RTVSPost2010Prop38
140
0.0
102
RTVSPost2010PropOp38
 70
     1
102
RTVSPost2010Prop39
140
1.0
102
RTVSPost2010PropOp39
 70
     1
102
RTVSPost2010Prop40
 90
        0
102
RTVSPost2010PropOp40
 70
     1
102
RTVSPost2010Prop41ColorIndex
 90
       18
102
RTVSPost2010Prop41ColorRGB
 90
        0
102
RTVSPost2010PropOp41
 70
     1
102
RTVSPost2010Prop42
 90
       50
102
RTVSPost2010PropOp42
 70
     1
102
RTVSPost2010Prop43
 90
        3
102
RTVSPost2010PropOp43
 70
     1
102
RTVSPost2010Prop44ColorIndex
 90
        5
102
RTVSPost2010Prop44ColorRGB
 90
      255
102
RTVSPost2010PropOp44
 70
     1
102
RTVSPost2010Prop45
280
     0
102
RTVSPost2010PropOp45
 70
     1
102
RTVSPost2010Prop46
 90
       50
102
RTVSPost2010PropOp46
 70
     1
102
RTVSPost2010Prop47
 90
       50
102
RTVSPost2010PropOp47
 70
     1
102
RTVSPost2010Prop48
 90
       50
102
RTVSPost2010PropOp48
 70
     1
102
RTVSPost2010Prop49
280
     0
102
RTVSPost2010PropOp49
 70
     1
102
RTVSPost2010Prop50
 90
       50
102
RTVSPost2010PropOp50
 70
     1
102
RTVSPost2010Prop51ColorIndex
 90
      256
102
RTVSPost2010Prop51ColorRGB
 90
-16777216
102
RTVSPost2010PropOp51
 70
     0
102
RTVSPost2010Prop52
140
1.0
102
RTVSPost2010PropOp52
 70
     0
102
RTVSPost2010Prop53
 90
        2
102
RTVSPost2010PropOp53
 70
     1
102
RTVSPost2010Prop54
  1
strokes_ogs.tif
102
RTVSPost2010PropOp54
 70
     1
102
RTVSPost2010Prop55
280
     0
102
RTVSPost2010PropOp55
 70
     1
102
RTVSPost2010Prop56
140
1.0
102
RTVSPost2010PropOp56
 70
     1
102
RTVSPost2010Prop57
140
1.0
102
RTVSPost2010PropOp57
 70
     1
102
RTVSPropertyOp0
 70
     1
102
RTVSPropertyOp1
 70
     1
102
RTVSPropertyOp2
 70
     1
102
RTVSPropertyOp3
 70
     1
102
RTVSPropertyOp4
 70
     1
102
RTVSPropertyOp5
 70
     1
102
RTVSPropertyOp6
 70
     1
102
RTVSPropertyOp7
 70
     1
102
RTVSPropertyOp8
 70
     1
102
RTVSPropertyOp9
 70
     1
102
RTVSPropertyOp10
 70
     1
102
RTVSPropertyOp11
 70
     1
102
RTVSPropertyOp12
 70
     1
102
RTVSPropertyOp13
 70
     1
102
RTVSPropertyOp14
 70
     1
102
RTVSPropertyOp15
 70
     1
102
RTVSPropertyOp16
 70
     1
102
RTVSPropertyOp17
 70
     1
102
RTVSPropertyOp18
 70
     1
102
RTVSPropertyOp19
 70
     1
102
RTVSPropertyOp20
 70
     1
102
RTVSPropertyOp21
 70
     1
102
RTVSPropertyOp22
 70
     1
102
RTVSPropertyOp23
 70
     1
102
RTVSPropertyOp24
 70
     1
102
RTVSPropertyOp25
 70
     1
102
RTVSPropertyOp26
 70
     1
102
RTVSPropertyOp27
 70
     1
102
RTVSPropertyOp28
 70
     1
102
RTVSPropertyOp29
 70
     1
102
RTVSPropertyOp30
 70
     1
102
RTVSPropertyOp31
 70
     1
102
RTVSPropertyOp32
 70
     1
102
RTVSPropertyOp33
 70
     1
102
RTVSPropertyOp34
 70
     1
102
RTVSPropertyOp35
 70
     1
102
RTVSPropertyOp36
 70
     1
102
RTVSPropertyOp37
 70
     1
102
RTVSPropertyOp38
 70
     1
102
RTVSPropertyOp39
 70
     1
102
RTVSPropertyOp40
 70
     1
102
RTVSPropertyOp41
 70
     1
102
RTVSPropertyOp42
 70
     1
102
RTVSPropertyOp43
 70
     1
102
RTVSPropertyOp44
 70
     1
102
RTVSPropertyOp45
 70
     1
102
RTVSPropertyOp46
 70
     1
102
RTVSPropertyOp47
 70
     1
102
RTVSPropertyOp48
 70
     1
102
RTVSPropertyOp49
 70
     1
102
RTVSPropertyOp50
 70
     1
102
RTVSPropertyOp51
 70
     0
102
RTVSPropertyOp52
 70
     0
102
RTVSPropertyOp53
 70
     1
102
RTVSPropertyOp54
 70
     1
102
RTVSPropertyOp55
 70
     1
102
RTVSPropertyOp56
 70
     1
102
RTVSPropertyOp57
 70
     1
102
RTVSPropertyOp58
 70
     1
102
RTVSPropertyOp59
 70
     1
102
RTVSPropertyOp60
 70
     1
102
RTVSPropertyOp61
 70
     1
102
RTVSPropertyOp62
 70
     1
  0
XRECORD
  5
1000000B2
102
{ACAD_REACTORS
330
1000000B1
102
}
330
1000000B1
100
AcDbXrecord
280
     1
102
RTVSPost2010Prop28
280
     0
102
RTVSPost2010PropOp28
 70
     1
102
RTVSPost2010Prop29
280
     1
102
RTVSPost2010PropOp29
 70
     1
102
RTVSPost2010Prop30
280
     1
102
RTVSPost2010PropOp30
 70
     1
102
RTVSPost2010Prop31
280
     0
102
RTVSPost2010PropOp31
 70
     1
102
RTVSPost2010Prop32
280
     0
102
RTVSPost2010PropOp32
 70
     1
102
RTVSPost2010Prop33
280
     0
102
RTVSPost2010PropOp33
 70
     1
102
RTVSPost2010Prop34
280
     0
102
RTVSPost2010PropOp34
 70
     1
102
RTVSPost2010Prop35
280
     0
102
RTVSPost2010PropOp35
 70
     1
102
RTVSPost2010Prop36
280
     0
102
RTVSPost2010PropOp36
 70
     1
102
RTVSPost2010Prop37
 90
       50
102
RTVSPost2010PropOp37
 70
     1
102
RTVSPost2010Prop38
140
0.0
102
RTVSPost2010PropOp38
 70
     1
102
RTVSPost2010Prop39
140
1.0
102
RTVSPost2010PropOp39
 70
     1
102
RTVSPost2010Prop40
 90
        0
102
RTVSPost2010PropOp40
 70
     1
102
RTVSPost2010Prop41ColorIndex
 90
       18
102
RTVSPost2010Prop41ColorRGB
 90
        0
102
RTVSPost2010PropOp41
 70
     1
102
RTVSPost2010Prop42
 90
       50
102
RTVSPost2010PropOp42
 70
     1
102
RTVSPost2010Prop43
 90
        3
102
RTVSPost2010PropOp43
 70
     1
102
RTVSPost2010Prop44ColorIndex
 90
        5
102
RTVSPost2010Prop44ColorRGB
 90
      255
102
RTVSPost2010PropOp44
 70
     1
102
RTVSPost2010Prop45
280
     0
102
RTVSPost2010PropOp45
 70
     1
102
RTVSPost2010Prop46
 90
       50
102
RTVSPost2010PropOp46
 70
     1
102
RTVSPost2010Prop47
 90
       50
102
RTVSPost2010PropOp47
 70
     1
102
RTVSPost2010Prop48
 90
       50
102
RTVSPost2010PropOp48
 70
     1
102
RTVSPost2010Prop49
280
     0
102
RTVSPost2010PropOp49
 70
     1
102
RTVSPost2010Prop50
 90
       50
102
RTVSPost2010PropOp50
 70
     1
102
RTVSPost2010Prop51ColorIndex
 90
      256
102
RTVSPost2010Prop51ColorRGB
 90
-16777216
102
RTVSPost2010PropOp51
 70
     0
102
RTVSPost2010Prop52
140
1.0
102
RTVSPost2010PropOp52
 70
     0
102
RTVSPost2010Prop53
 90
        2
102
RTVSPost2010PropOp53
 70
     1
102
RTVSPost2010Prop54
  1
strokes_ogs.tif
102
RTVSPost2010PropOp54
 70
     1
102
RTVSPost2010Prop55
280
     0
102
RTVSPost2010PropOp55
 70
     1
102
RTVSPost2010Prop56
140
1.0
102
RTVSPost2010PropOp56
 70
     1
102
RTVSPost2010Prop57
140
1.0
102
RTVSPost2010PropOp57
 70
     1
102
RTVSPropertyOp0
 70
     1
102
RTVSPropertyOp1
 70
     1
102
RTVSPropertyOp2
 70
     1
102
RTVSPropertyOp3
 70
     1
102
RTVSPropertyOp4
 70
     1
102
RTVSPropertyOp5
 70
     1
102
RTVSPropertyOp6
 70
     1
102
RTVSPropertyOp7
 70
     1
102
RTVSPropertyOp8
 70
     1
102
RTVSPropertyOp9
 70
     1
102
RTVSPropertyOp10
 70
     1
102
RTVSPropertyOp11
 70
     1
102
RTVSPropertyOp12
 70
     1
102
RTVSPropertyOp13
 70
     1
102
RTVSPropertyOp14
 70
     1
102
RTVSPropertyOp15
 70
     1
102
RTVSPropertyOp16
 70
     1
102
RTVSPropertyOp17
 70
     1
102
RTVSPropertyOp18
 70
     1
102
RTVSPropertyOp19
 70
     1
102
RTVSPropertyOp20
 70
     1
102
RTVSPropertyOp21
 70
     1
102
RTVSPropertyOp22
 70
     1
102
RTVSPropertyOp23
 70
     1
102
RTVSPropertyOp24
 70
     1
102
RTVSPropertyOp25
 70
     1
102
RTVSPropertyOp26
 70
     1
102
RTVSPropertyOp27
 70
     1
102
RTVSPropertyOp28
 70
     1
102
RTVSPropertyOp29
 70
     1
102
RTVSPropertyOp30
 70
     1
102
RTVSPropertyOp31
 70
     1
102
RTVSPropertyOp32
 70
     1
102
RTVSPropertyOp33
 70
     1
102
RTVSPropertyOp34
 70
     1
102
RTVSPropertyOp35
 70
     1
102
RTVSPropertyOp36
 70
     1
102
RTVSPropertyOp37
 70
     1
102
RTVSPropertyOp38
 70
     1
102
RTVSPropertyOp39
 70
     1
102
RTVSPropertyOp40
 70
     1
102
RTVSPropertyOp41
 70
     1
102
RTVSPropertyOp42
 70
     1
102
RTVSPropertyOp43
 70
     1
102
RTVSPropertyOp44
 70
     1
102
RTVSPropertyOp45
 70
     1
102
RTVSPropertyOp46
 70
     1
102
RTVSPropertyOp47
 70
     1
102
RTVSPropertyOp48
 70
     1
102
RTVSPropertyOp49
 70
     1
102
RTVSPropertyOp50
 70
     1
102
RTVSPropertyOp51
 70
     0
102
RTVSPropertyOp52
 70
     0
102
RTVSPropertyOp53
 70
     1
102
RTVSPropertyOp54
 70
     1
102
RTVSPropertyOp55
 70
     1
102
RTVSPropertyOp56
 70
     1
102
RTVSPropertyOp57
 70
     1
102
RTVSPropertyOp58
 70
     1
102
RTVSPropertyOp59
 70
     1
102
RTVSPropertyOp60
 70
     1
102
RTVSPropertyOp61
 70
     1
102
RTVSPropertyOp62
 70
     1
  0
XRECORD
  5
1000000B0
102
{ACAD_REACTORS
330
1000000AF
102
}
330
1000000AF
100
AcDbXrecord
280
     1
102
RTVSPost2010Prop28
280
     0
102
RTVSPost2010PropOp28
 70
     1
102
RTVSPost2010Prop29
280
     1
102
RTVSPost2010PropOp29
 70
     1
102
RTVSPost2010Prop30
280
     1
102
RTVSPost2010PropOp30
 70
     1
102
RTVSPost2010Prop31
280
     0
102
RTVSPost2010PropOp31
 70
     1
102
RTVSPost2010Prop32
280
     0
102
RTVSPost2010PropOp32
 70
     1
102
RTVSPost2010Prop33
280
     0
102
RTVSPost2010PropOp33
 70
     1
102
RTVSPost2010Prop34
280
     0
102
RTVSPost2010PropOp34
 70
     1
102
RTVSPost2010Prop35
280
     0
102
RTVSPost2010PropOp35
 70
     1
102
RTVSPost2010Prop36
280
     0
102
RTVSPost2010PropOp36
 70
     1
102
RTVSPost2010Prop37
 90
       50
102
RTVSPost2010PropOp37
 70
     1
102
RTVSPost2010Prop38
140
0.0
102
RTVSPost2010PropOp38
 70
     1
102
RTVSPost2010Prop39
140
1.0
102
RTVSPost2010PropOp39
 70
     1
102
RTVSPost2010Prop40
 90
        0
102
RTVSPost2010PropOp40
 70
     1
102
RTVSPost2010Prop41ColorIndex
 90
       18
102
RTVSPost2010Prop41ColorRGB
 90
        0
102
RTVSPost2010PropOp41
 70
     1
102
RTVSPost2010Prop42
 90
       50
102
RTVSPost2010PropOp42
 70
     1
102
RTVSPost2010Prop43
 90
        3
102
RTVSPost2010PropOp43
 70
     1
102
RTVSPost2010Prop44ColorIndex
 90
        5
102
RTVSPost2010Prop44ColorRGB
 90
      255
102
RTVSPost2010PropOp44
 70
     1
102
RTVSPost2010Prop45
280
     0
102
RTVSPost2010PropOp45
 70
     1
102
RTVSPost2010Prop46
 90
       50
102
RTVSPost2010PropOp46
 70
     1
102
RTVSPost2010Prop47
 90
       50
102
RTVSPost2010PropOp47
 70
     1
102
RTVSPost2010Prop48
 90
       50
102
RTVSPost2010PropOp48
 70
     1
102
RTVSPost2010Prop49
280
     0
102
RTVSPost2010PropOp49
 70
     1
102
RTVSPost2010Prop50
 90
       50
102
RTVSPost2010PropOp50
 70
     1
102
RTVSPost2010Prop51ColorIndex
 90
      256
102
RTVSPost2010Prop51ColorRGB
 90
-16777216
102
RTVSPost2010PropOp51
 70
     0
102
RTVSPost2010Prop52
140
1.0
102
RTVSPost2010PropOp52
 70
     0
102
RTVSPost2010Prop53
 90
        2
102
RTVSPost2010PropOp53
 70
     1
102
RTVSPost2010Prop54
  1
strokes_ogs.tif
102
RTVSPost2010PropOp54
 70
     1
102
RTVSPost2010Prop55
280
     0
102
RTVSPost2010PropOp55
 70
     1
102
RTVSPost2010Prop56
140
1.0
102
RTVSPost2010PropOp56
 70
     1
102
RTVSPost2010Prop57
140
1.0
102
RTVSPost2010PropOp57
 70
     1
102
RTVSPropertyOp0
 70
     1
102
RTVSPropertyOp1
 70
     1
102
RTVSPropertyOp2
 70
     1
102
RTVSPropertyOp3
 70
     1
102
RTVSPropertyOp4
 70
     1
102
RTVSPropertyOp5
 70
     1
102
RTVSPropertyOp6
 70
     1
102
RTVSPropertyOp7
 70
     1
102
RTVSPropertyOp8
 70
     1
102
RTVSPropertyOp9
 70
     1
102
RTVSPropertyOp10
 70
     1
102
RTVSPropertyOp11
 70
     1
102
RTVSPropertyOp12
 70
     1
102
RTVSPropertyOp13
 70
     1
102
RTVSPropertyOp14
 70
     1
102
RTVSPropertyOp15
 70
     1
102
RTVSPropertyOp16
 70
     1
102
RTVSPropertyOp17
 70
     1
102
RTVSPropertyOp18
 70
     1
102
RTVSPropertyOp19
 70
     1
102
RTVSPropertyOp20
 70
     1
102
RTVSPropertyOp21
 70
     1
102
RTVSPropertyOp22
 70
     1
102
RTVSPropertyOp23
 70
     1
102
RTVSPropertyOp24
 70
     1
102
RTVSPropertyOp25
 70
     1
102
RTVSPropertyOp26
 70
     1
102
RTVSPropertyOp27
 70
     1
102
RTVSPropertyOp28
 70
     1
102
RTVSPropertyOp29
 70
     1
102
RTVSPropertyOp30
 70
     1
102
RTVSPropertyOp31
 70
     1
102
RTVSPropertyOp32
 70
     1
102
RTVSPropertyOp33
 70
     1
102
RTVSPropertyOp34
 70
     1
102
RTVSPropertyOp35
 70
     1
102
RTVSPropertyOp36
 70
     1
102
RTVSPropertyOp37
 70
     1
102
RTVSPropertyOp38
 70
     1
102
RTVSPropertyOp39
 70
     1
102
RTVSPropertyOp40
 70
     1
102
RTVSPropertyOp41
 70
     1
102
RTVSPropertyOp42
 70
     1
102
RTVSPropertyOp43
 70
     1
102
RTVSPropertyOp44
 70
     1
102
RTVSPropertyOp45
 70
     1
102
RTVSPropertyOp46
 70
     1
102
RTVSPropertyOp47
 70
     1
102
RTVSPropertyOp48
 70
     1
102
RTVSPropertyOp49
 70
     1
102
RTVSPropertyOp50
 70
     1
102
RTVSPropertyOp51
 70
     0
102
RTVSPropertyOp52
 70
     0
102
RTVSPropertyOp53
 70
     1
102
RTVSPropertyOp54
 70
     1
102
RTVSPropertyOp55
 70
     1
102
RTVSPropertyOp56
 70
     1
102
RTVSPropertyOp57
 70
     1
102
RTVSPropertyOp58
 70
     1
102
RTVSPropertyOp59
 70
     1
102
RTVSPropertyOp60
 70
     1
102
RTVSPropertyOp61
 70
     1
102
RTVSPropertyOp62
 70
     1
  0
XRECORD
  5
1000000AA
102
{ACAD_REACTORS
330
1000000A9
102
}
330
1000000A9
100
AcDbXrecord
280
     1
102
RTVSPost2010Prop28
280
     0
102
RTVSPost2010PropOp28
 70
     1
102
RTVSPost2010Prop29
280
     1
102
RTVSPost2010PropOp29
 70
     1
102
RTVSPost2010Prop30
280
     1
102
RTVSPost2010PropOp30
 70
     1
102
RTVSPost2010Prop31
280
     0
102
RTVSPost2010PropOp31
 70
     1
102
RTVSPost2010Prop32
280
     0
102
RTVSPost2010PropOp32
 70
     1
102
RTVSPost2010Prop33
280
     0
102
RTVSPost2010PropOp33
 70
     1
102
RTVSPost2010Prop34
280
     0
102
RTVSPost2010PropOp34
 70
     1
102
RTVSPost2010Prop35
280
     0
102
RTVSPost2010PropOp35
 70
     1
102
RTVSPost2010Prop36
280
     0
102
RTVSPost2010PropOp36
 70
     1
102
RTVSPost2010Prop37
 90
       50
102
RTVSPost2010PropOp37
 70
     1
102
RTVSPost2010Prop38
140
0.0
102
RTVSPost2010PropOp38
 70
     1
102
RTVSPost2010Prop39
140
1.0
102
RTVSPost2010PropOp39
 70
     1
102
RTVSPost2010Prop40
 90
        0
102
RTVSPost2010PropOp40
 70
     1
102
RTVSPost2010Prop41ColorIndex
 90
       18
102
RTVSPost2010Prop41ColorRGB
 90
        0
102
RTVSPost2010PropOp41
 70
     1
102
RTVSPost2010Prop42
 90
       50
102
RTVSPost2010PropOp42
 70
     1
102
RTVSPost2010Prop43
 90
        3
102
RTVSPost2010PropOp43
 70
     1
102
RTVSPost2010Prop44ColorIndex
 90
        5
102
RTVSPost2010Prop44ColorRGB
 90
      255
102
RTVSPost2010PropOp44
 70
     1
102
RTVSPost2010Prop45
280
     0
102
RTVSPost2010PropOp45
 70
     1
102
RTVSPost2010Prop46
 90
       50
102
RTVSPost2010PropOp46
 70
     1
102
RTVSPost2010Prop47
 90
       50
102
RTVSPost2010PropOp47
 70
     1
102
RTVSPost2010Prop48
 90
       50
102
RTVSPost2010PropOp48
 70
     1
102
RTVSPost2010Prop49
280
     0
102
RTVSPost2010PropOp49
 70
     1
102
RTVSPost2010Prop50
 90
       50
102
RTVSPost2010PropOp50
 70
     1
102
RTVSPost2010Prop51ColorIndex
 90
      256
102
RTVSPost2010Prop51ColorRGB
 90
-16777216
102
RTVSPost2010PropOp51
 70
     0
102
RTVSPost2010Prop52
140
1.0
102
RTVSPost2010PropOp52
 70
     0
102
RTVSPost2010Prop53
 90
        2
102
RTVSPost2010PropOp53
 70
     1
102
RTVSPost2010Prop54
  1
strokes_ogs.tif
102
RTVSPost2010PropOp54
 70
     1
102
RTVSPost2010Prop55
280
     0
102
RTVSPost2010PropOp55
 70
     1
102
RTVSPost2010Prop56
140
1.0
102
RTVSPost2010PropOp56
 70
     1
102
RTVSPost2010Prop57
140
1.0
102
RTVSPost2010PropOp57
 70
     1
102
RTVSPropertyOp0
 70
     1
102
RTVSPropertyOp1
 70
     1
102
RTVSPropertyOp2
 70
     1
102
RTVSPropertyOp3
 70
     1
102
RTVSPropertyOp4
 70
     1
102
RTVSPropertyOp5
 70
     1
102
RTVSPropertyOp6
 70
     1
102
RTVSPropertyOp7
 70
     1
102
RTVSPropertyOp8
 70
     1
102
RTVSPropertyOp9
 70
     1
102
RTVSPropertyOp10
 70
     1
102
RTVSPropertyOp11
 70
     1
102
RTVSPropertyOp12
 70
     1
102
RTVSPropertyOp13
 70
     1
102
RTVSPropertyOp14
 70
     1
102
RTVSPropertyOp15
 70
     1
102
RTVSPropertyOp16
 70
     1
102
RTVSPropertyOp17
 70
     1
102
RTVSPropertyOp18
 70
     1
102
RTVSPropertyOp19
 70
     1
102
RTVSPropertyOp20
 70
     1
102
RTVSPropertyOp21
 70
     1
102
RTVSPropertyOp22
 70
     1
102
RTVSPropertyOp23
 70
     1
102
RTVSPropertyOp24
 70
     1
102
RTVSPropertyOp25
 70
     1
102
RTVSPropertyOp26
 70
     1
102
RTVSPropertyOp27
 70
     1
102
RTVSPropertyOp28
 70
     1
102
RTVSPropertyOp29
 70
     1
102
RTVSPropertyOp30
 70
     1
102
RTVSPropertyOp31
 70
     1
102
RTVSPropertyOp32
 70
     1
102
RTVSPropertyOp33
 70
     1
102
RTVSPropertyOp34
 70
     1
102
RTVSPropertyOp35
 70
     1
102
RTVSPropertyOp36
 70
     1
102
RTVSPropertyOp37
 70
     1
102
RTVSPropertyOp38
 70
     1
102
RTVSPropertyOp39
 70
     1
102
RTVSPropertyOp40
 70
     1
102
RTVSPropertyOp41
 70
     1
102
RTVSPropertyOp42
 70
     1
102
RTVSPropertyOp43
 70
     1
102
RTVSPropertyOp44
 70
     1
102
RTVSPropertyOp45
 70
     1
102
RTVSPropertyOp46
 70
     1
102
RTVSPropertyOp47
 70
     1
102
RTVSPropertyOp48
 70
     1
102
RTVSPropertyOp49
 70
     1
102
RTVSPropertyOp50
 70
     1
102
RTVSPropertyOp51
 70
     0
102
RTVSPropertyOp52
 70
     0
102
RTVSPropertyOp53
 70
     1
102
RTVSPropertyOp54
 70
     1
102
RTVSPropertyOp55
 70
     1
102
RTVSPropertyOp56
 70
     1
102
RTVSPropertyOp57
 70
     1
102
RTVSPropertyOp58
 70
     1
102
RTVSPropertyOp59
 70
     1
102
RTVSPropertyOp60
 70
     1
102
RTVSPropertyOp61
 70
     1
102
RTVSPropertyOp62
 70
     1
  0
XRECORD
  5
1000000AC
102
{ACAD_REACTORS
330
1000000AB
102
}
330
1000000AB
100
AcDbXrecord
280
     1
102
RTVSPost2010Prop28
280
     0
102
RTVSPost2010PropOp28
 70
     1
102
RTVSPost2010Prop29
280
     1
102
RTVSPost2010PropOp29
 70
     1
102
RTVSPost2010Prop30
280
     1
102
RTVSPost2010PropOp30
 70
     1
102
RTVSPost2010Prop31
280
     0
102
RTVSPost2010PropOp31
 70
     1
102
RTVSPost2010Prop32
280
     0
102
RTVSPost2010PropOp32
 70
     1
102
RTVSPost2010Prop33
280
     0
102
RTVSPost2010PropOp33
 70
     1
102
RTVSPost2010Prop34
280
     0
102
RTVSPost2010PropOp34
 70
     1
102
RTVSPost2010Prop35
280
     0
102
RTVSPost2010PropOp35
 70
     1
102
RTVSPost2010Prop36
280
     0
102
RTVSPost2010PropOp36
 70
     1
102
RTVSPost2010Prop37
 90
       50
102
RTVSPost2010PropOp37
 70
     1
102
RTVSPost2010Prop38
140
0.0
102
RTVSPost2010PropOp38
 70
     1
102
RTVSPost2010Prop39
140
1.0
102
RTVSPost2010PropOp39
 70
     1
102
RTVSPost2010Prop40
 90
        0
102
RTVSPost2010PropOp40
 70
     1
102
RTVSPost2010Prop41ColorIndex
 90
       18
102
RTVSPost2010Prop41ColorRGB
 90
        0
102
RTVSPost2010PropOp41
 70
     1
102
RTVSPost2010Prop42
 90
       50
102
RTVSPost2010PropOp42
 70
     1
102
RTVSPost2010Prop43
 90
        3
102
RTVSPost2010PropOp43
 70
     1
102
RTVSPost2010Prop44ColorIndex
 90
        5
102
RTVSPost2010Prop44ColorRGB
 90
      255
102
RTVSPost2010PropOp44
 70
     1
102
RTVSPost2010Prop45
280
     0
102
RTVSPost2010PropOp45
 70
     1
102
RTVSPost2010Prop46
 90
       50
102
RTVSPost2010PropOp46
 70
     1
102
RTVSPost2010Prop47
 90
       50
102
RTVSPost2010PropOp47
 70
     1
102
RTVSPost2010Prop48
 90
       50
102
RTVSPost2010PropOp48
 70
     1
102
RTVSPost2010Prop49
280
     0
102
RTVSPost2010PropOp49
 70
     1
102
RTVSPost2010Prop50
 90
       50
102
RTVSPost2010PropOp50
 70
     1
102
RTVSPost2010Prop51ColorIndex
 90
      256
102
RTVSPost2010Prop51ColorRGB
 90
-16777216
102
RTVSPost2010PropOp51
 70
     0
102
RTVSPost2010Prop52
140
1.0
102
RTVSPost2010PropOp52
 70
     0
102
RTVSPost2010Prop53
 90
        2
102
RTVSPost2010PropOp53
 70
     1
102
RTVSPost2010Prop54
  1
strokes_ogs.tif
102
RTVSPost2010PropOp54
 70
     1
102
RTVSPost2010Prop55
280
     0
102
RTVSPost2010PropOp55
 70
     1
102
RTVSPost2010Prop56
140
1.0
102
RTVSPost2010PropOp56
 70
     1
102
RTVSPost2010Prop57
140
1.0
102
RTVSPost2010PropOp57
 70
     1
102
RTVSPropertyOp0
 70
     1
102
RTVSPropertyOp1
 70
     1
102
RTVSPropertyOp2
 70
     1
102
RTVSPropertyOp3
 70
     1
102
RTVSPropertyOp4
 70
     1
102
RTVSPropertyOp5
 70
     1
102
RTVSPropertyOp6
 70
     1
102
RTVSPropertyOp7
 70
     1
102
RTVSPropertyOp8
 70
     1
102
RTVSPropertyOp9
 70
     1
102
RTVSPropertyOp10
 70
     1
102
RTVSPropertyOp11
 70
     1
102
RTVSPropertyOp12
 70
     1
102
RTVSPropertyOp13
 70
     1
102
RTVSPropertyOp14
 70
     1
102
RTVSPropertyOp15
 70
     1
102
RTVSPropertyOp16
 70
     1
102
RTVSPropertyOp17
 70
     1
102
RTVSPropertyOp18
 70
     1
102
RTVSPropertyOp19
 70
     1
102
RTVSPropertyOp20
 70
     1
102
RTVSPropertyOp21
 70
     1
102
RTVSPropertyOp22
 70
     1
102
RTVSPropertyOp23
 70
     1
102
RTVSPropertyOp24
 70
     1
102
RTVSPropertyOp25
 70
     1
102
RTVSPropertyOp26
 70
     1
102
RTVSPropertyOp27
 70
     1
102
RTVSPropertyOp28
 70
     1
102
RTVSPropertyOp29
 70
     1
102
RTVSPropertyOp30
 70
     1
102
RTVSPropertyOp31
 70
     1
102
RTVSPropertyOp32
 70
     1
102
RTVSPropertyOp33
 70
     1
102
RTVSPropertyOp34
 70
     1
102
RTVSPropertyOp35
 70
     1
102
RTVSPropertyOp36
 70
     1
102
RTVSPropertyOp37
 70
     1
102
RTVSPropertyOp38
 70
     1
102
RTVSPropertyOp39
 70
     1
102
RTVSPropertyOp40
 70
     1
102
RTVSPropertyOp41
 70
     1
102
RTVSPropertyOp42
 70
     1
102
RTVSPropertyOp43
 70
     1
102
RTVSPropertyOp44
 70
     1
102
RTVSPropertyOp45
 70
     1
102
RTVSPropertyOp46
 70
     1
102
RTVSPropertyOp47
 70
     1
102
RTVSPropertyOp48
 70
     1
102
RTVSPropertyOp49
 70
     1
102
RTVSPropertyOp50
 70
     1
102
RTVSPropertyOp51
 70
     0
102
RTVSPropertyOp52
 70
     0
102
RTVSPropertyOp53
 70
     1
102
RTVSPropertyOp54
 70
     1
102
RTVSPropertyOp55
 70
     1
102
RTVSPropertyOp56
 70
     1
102
RTVSPropertyOp57
 70
     1
102
RTVSPropertyOp58
 70
     1
102
RTVSPropertyOp59
 70
     1
102
RTVSPropertyOp60
 70
     1
102
RTVSPropertyOp61
 70
     1
102
RTVSPropertyOp62
 70
     1
  0
XRECORD
  5
1000000A2
102
{ACAD_REACTORS
330
1000000A1
102
}
330
1000000A1
100
AcDbXrecord
280
     1
102
RTVSPost2010Prop28
280
     0
102
RTVSPost2010PropOp28
 70
     1
102
RTVSPost2010Prop29
280
     1
102
RTVSPost2010PropOp29
 70
     1
102
RTVSPost2010Prop30
280
     1
102
RTVSPost2010PropOp30
 70
     1
102
RTVSPost2010Prop31
280
     0
102
RTVSPost2010PropOp31
 70
     1
102
RTVSPost2010Prop32
280
     0
102
RTVSPost2010PropOp32
 70
     1
102
RTVSPost2010Prop33
280
     0
102
RTVSPost2010PropOp33
 70
     1
102
RTVSPost2010Prop34
280
     0
102
RTVSPost2010PropOp34
 70
     1
102
RTVSPost2010Prop35
280
     0
102
RTVSPost2010PropOp35
 70
     1
102
RTVSPost2010Prop36
280
     0
102
RTVSPost2010PropOp36
 70
     1
102
RTVSPost2010Prop37
 90
       50
102
RTVSPost2010PropOp37
 70
     1
102
RTVSPost2010Prop38
140
0.0
102
RTVSPost2010PropOp38
 70
     1
102
RTVSPost2010Prop39
140
1.0
102
RTVSPost2010PropOp39
 70
     1
102
RTVSPost2010Prop40
 90
        0
102
RTVSPost2010PropOp40
 70
     1
102
RTVSPost2010Prop41ColorIndex
 90
       18
102
RTVSPost2010Prop41ColorRGB
 90
        0
102
RTVSPost2010PropOp41
 70
     1
102
RTVSPost2010Prop42
 90
       50
102
RTVSPost2010PropOp42
 70
     1
102
RTVSPost2010Prop43
 90
        3
102
RTVSPost2010PropOp43
 70
     1
102
RTVSPost2010Prop44ColorIndex
 90
        5
102
RTVSPost2010Prop44ColorRGB
 90
      255
102
RTVSPost2010PropOp44
 70
     1
102
RTVSPost2010Prop45
280
     0
102
RTVSPost2010PropOp45
 70
     1
102
RTVSPost2010Prop46
 90
       50
102
RTVSPost2010PropOp46
 70
     1
102
RTVSPost2010Prop47
 90
       50
102
RTVSPost2010PropOp47
 70
     1
102
RTVSPost2010Prop48
 90
       50
102
RTVSPost2010PropOp48
 70
     1
102
RTVSPost2010Prop49
280
     0
102
RTVSPost2010PropOp49
 70
     1
102
RTVSPost2010Prop50
 90
       50
102
RTVSPost2010PropOp50
 70
     1
102
RTVSPost2010Prop51ColorIndex
 90
      256
102
RTVSPost2010Prop51ColorRGB
 90
-16777216
102
RTVSPost2010PropOp51
 70
     0
102
RTVSPost2010Prop52
140
1.0
102
RTVSPost2010PropOp52
 70
     0
102
RTVSPost2010Prop53
 90
        2
102
RTVSPost2010PropOp53
 70
     1
102
RTVSPost2010Prop54
  1
strokes_ogs.tif
102
RTVSPost2010PropOp54
 70
     1
102
RTVSPost2010Prop55
280
     0
102
RTVSPost2010PropOp55
 70
     1
102
RTVSPost2010Prop56
140
1.0
102
RTVSPost2010PropOp56
 70
     1
102
RTVSPost2010Prop57
140
1.0
102
RTVSPost2010PropOp57
 70
     1
102
RTVSPropertyOp0
 70
     1
102
RTVSPropertyOp1
 70
     1
102
RTVSPropertyOp2
 70
     1
102
RTVSPropertyOp3
 70
     1
102
RTVSPropertyOp4
 70
     1
102
RTVSPropertyOp5
 70
     1
102
RTVSPropertyOp6
 70
     1
102
RTVSPropertyOp7
 70
     1
102
RTVSPropertyOp8
 70
     1
102
RTVSPropertyOp9
 70
     1
102
RTVSPropertyOp10
 70
     1
102
RTVSPropertyOp11
 70
     1
102
RTVSPropertyOp12
 70
     1
102
RTVSPropertyOp13
 70
     1
102
RTVSPropertyOp14
 70
     1
102
RTVSPropertyOp15
 70
     1
102
RTVSPropertyOp16
 70
     1
102
RTVSPropertyOp17
 70
     1
102
RTVSPropertyOp18
 70
     1
102
RTVSPropertyOp19
 70
     1
102
RTVSPropertyOp20
 70
     1
102
RTVSPropertyOp21
 70
     1
102
RTVSPropertyOp22
 70
     1
102
RTVSPropertyOp23
 70
     1
102
RTVSPropertyOp24
 70
     1
102
RTVSPropertyOp25
 70
     1
102
RTVSPropertyOp26
 70
     1
102
RTVSPropertyOp27
 70
     1
102
RTVSPropertyOp28
 70
     1
102
RTVSPropertyOp29
 70
     1
102
RTVSPropertyOp30
 70
     1
102
RTVSPropertyOp31
 70
     1
102
RTVSPropertyOp32
 70
     1
102
RTVSPropertyOp33
 70
     1
102
RTVSPropertyOp34
 70
     1
102
RTVSPropertyOp35
 70
     1
102
RTVSPropertyOp36
 70
     1
102
RTVSPropertyOp37
 70
     1
102
RTVSPropertyOp38
 70
     1
102
RTVSPropertyOp39
 70
     1
102
RTVSPropertyOp40
 70
     1
102
RTVSPropertyOp41
 70
     1
102
RTVSPropertyOp42
 70
     1
102
RTVSPropertyOp43
 70
     1
102
RTVSPropertyOp44
 70
     1
102
RTVSPropertyOp45
 70
     1
102
RTVSPropertyOp46
 70
     1
102
RTVSPropertyOp47
 70
     1
102
RTVSPropertyOp48
 70
     1
102
RTVSPropertyOp49
 70
     1
102
RTVSPropertyOp50
 70
     1
102
RTVSPropertyOp51
 70
     0
102
RTVSPropertyOp52
 70
     0
102
RTVSPropertyOp53
 70
     1
102
RTVSPropertyOp54
 70
     1
102
RTVSPropertyOp55
 70
     1
102
RTVSPropertyOp56
 70
     1
102
RTVSPropertyOp57
 70
     1
102
RTVSPropertyOp58
 70
     1
102
RTVSPropertyOp59
 70
     1
102
RTVSPropertyOp60
 70
     1
102
RTVSPropertyOp61
 70
     1
102
RTVSPropertyOp62
 70
     1
  0
XRECORD
  5
100000096
102
{ACAD_REACTORS
330
100000095
102
}
330
100000095
100
AcDbXrecord
280
     1
102
RTVSPost2010Prop28
280
     0
102
RTVSPost2010PropOp28
 70
     1
102
RTVSPost2010Prop29
280
     1
102
RTVSPost2010PropOp29
 70
     1
102
RTVSPost2010Prop30
280
     1
102
RTVSPost2010PropOp30
 70
     1
102
RTVSPost2010Prop31
280
     0
102
RTVSPost2010PropOp31
 70
     1
102
RTVSPost2010Prop32
280
     0
102
RTVSPost2010PropOp32
 70
     1
102
RTVSPost2010Prop33
280
     0
102
RTVSPost2010PropOp33
 70
     1
102
RTVSPost2010Prop34
280
     0
102
RTVSPost2010PropOp34
 70
     1
102
RTVSPost2010Prop35
280
     0
102
RTVSPost2010PropOp35
 70
     1
102
RTVSPost2010Prop36
280
     0
102
RTVSPost2010PropOp36
 70
     1
102
RTVSPost2010Prop37
 90
       50
102
RTVSPost2010PropOp37
 70
     1
102
RTVSPost2010Prop38
140
0.0
102
RTVSPost2010PropOp38
 70
     1
102
RTVSPost2010Prop39
140
1.0
102
RTVSPost2010PropOp39
 70
     1
102
RTVSPost2010Prop40
 90
        0
102
RTVSPost2010PropOp40
 70
     1
102
RTVSPost2010Prop41ColorIndex
 90
       18
102
RTVSPost2010Prop41ColorRGB
 90
        0
102
RTVSPost2010PropOp41
 70
     1
102
RTVSPost2010Prop42
 90
       50
102
RTVSPost2010PropOp42
 70
     1
102
RTVSPost2010Prop43
 90
        3
102
RTVSPost2010PropOp43
 70
     1
102
RTVSPost2010Prop44ColorIndex
 90
        5
102
RTVSPost2010Prop44ColorRGB
 90
      255
102
RTVSPost2010PropOp44
 70
     1
102
RTVSPost2010Prop45
280
     0
102
RTVSPost2010PropOp45
 70
     1
102
RTVSPost2010Prop46
 90
       50
102
RTVSPost2010PropOp46
 70
     1
102
RTVSPost2010Prop47
 90
       50
102
RTVSPost2010PropOp47
 70
     1
102
RTVSPost2010Prop48
 90
       50
102
RTVSPost2010PropOp48
 70
     1
102
RTVSPost2010Prop49
280
     0
102
RTVSPost2010PropOp49
 70
     1
102
RTVSPost2010Prop50
 90
       50
102
RTVSPost2010PropOp50
 70
     1
102
RTVSPost2010Prop51ColorIndex
 90
      256
102
RTVSPost2010Prop51ColorRGB
 90
-16777216
102
RTVSPost2010PropOp51
 70
     0
102
RTVSPost2010Prop52
140
1.0
102
RTVSPost2010PropOp52
 70
     0
102
RTVSPost2010Prop53
 90
        2
102
RTVSPost2010PropOp53
 70
     1
102
RTVSPost2010Prop54
  1
strokes_ogs.tif
102
RTVSPost2010PropOp54
 70
     1
102
RTVSPost2010Prop55
280
     0
102
RTVSPost2010PropOp55
 70
     1
102
RTVSPost2010Prop56
140
1.0
102
RTVSPost2010PropOp56
 70
     1
102
RTVSPost2010Prop57
140
1.0
102
RTVSPost2010PropOp57
 70
     1
102
RTVSPropertyOp0
 70
     1
102
RTVSPropertyOp1
 70
     1
102
RTVSPropertyOp2
 70
     1
102
RTVSPropertyOp3
 70
     1
102
RTVSPropertyOp4
 70
     1
102
RTVSPropertyOp5
 70
     1
102
RTVSPropertyOp6
 70
     1
102
RTVSPropertyOp7
 70
     1
102
RTVSPropertyOp8
 70
     1
102
RTVSPropertyOp9
 70
     1
102
RTVSPropertyOp10
 70
     1
102
RTVSPropertyOp11
 70
     1
102
RTVSPropertyOp12
 70
     1
102
RTVSPropertyOp13
 70
     1
102
RTVSPropertyOp14
 70
     1
102
RTVSPropertyOp15
 70
     1
102
RTVSPropertyOp16
 70
     1
102
RTVSPropertyOp17
 70
     1
102
RTVSPropertyOp18
 70
     1
102
RTVSPropertyOp19
 70
     1
102
RTVSPropertyOp20
 70
     1
102
RTVSPropertyOp21
 70
     1
102
RTVSPropertyOp22
 70
     1
102
RTVSPropertyOp23
 70
     1
102
RTVSPropertyOp24
 70
     1
102
RTVSPropertyOp25
 70
     1
102
RTVSPropertyOp26
 70
     1
102
RTVSPropertyOp27
 70
     1
102
RTVSPropertyOp28
 70
     1
102
RTVSPropertyOp29
 70
     1
102
RTVSPropertyOp30
 70
     1
102
RTVSPropertyOp31
 70
     1
102
RTVSPropertyOp32
 70
     1
102
RTVSPropertyOp33
 70
     1
102
RTVSPropertyOp34
 70
     1
102
RTVSPropertyOp35
 70
     1
102
RTVSPropertyOp36
 70
     1
102
RTVSPropertyOp37
 70
     1
102
RTVSPropertyOp38
 70
     1
102
RTVSPropertyOp39
 70
     1
102
RTVSPropertyOp40
 70
     1
102
RTVSPropertyOp41
 70
     1
102
RTVSPropertyOp42
 70
     1
102
RTVSPropertyOp43
 70
     1
102
RTVSPropertyOp44
 70
     1
102
RTVSPropertyOp45
 70
     1
102
RTVSPropertyOp46
 70
     1
102
RTVSPropertyOp47
 70
     1
102
RTVSPropertyOp48
 70
     1
102
RTVSPropertyOp49
 70
     1
102
RTVSPropertyOp50
 70
     1
102
RTVSPropertyOp51
 70
     0
102
RTVSPropertyOp52
 70
     0
102
RTVSPropertyOp53
 70
     1
102
RTVSPropertyOp54
 70
     1
102
RTVSPropertyOp55
 70
     1
102
RTVSPropertyOp56
 70
     1
102
RTVSPropertyOp57
 70
     1
102
RTVSPropertyOp58
 70
     1
102
RTVSPropertyOp59
 70
     1
102
RTVSPropertyOp60
 70
     1
102
RTVSPropertyOp61
 70
     1
102
RTVSPropertyOp62
 70
     1
  0
XRECORD
  5
1000000AE
102
{ACAD_REACTORS
330
1000000AD
102
}
330
1000000AD
100
AcDbXrecord
280
     1
102
RTVSPost2010Prop28
280
     0
102
RTVSPost2010PropOp28
 70
     1
102
RTVSPost2010Prop29
280
     1
102
RTVSPost2010PropOp29
 70
     1
102
RTVSPost2010Prop30
280
     1
102
RTVSPost2010PropOp30
 70
     1
102
RTVSPost2010Prop31
280
     0
102
RTVSPost2010PropOp31
 70
     1
102
RTVSPost2010Prop32
280
     0
102
RTVSPost2010PropOp32
 70
     1
102
RTVSPost2010Prop33
280
     0
102
RTVSPost2010PropOp33
 70
     1
102
RTVSPost2010Prop34
280
     0
102
RTVSPost2010PropOp34
 70
     1
102
RTVSPost2010Prop35
280
     0
102
RTVSPost2010PropOp35
 70
     1
102
RTVSPost2010Prop36
280
     0
102
RTVSPost2010PropOp36
 70
     1
102
RTVSPost2010Prop37
 90
       50
102
RTVSPost2010PropOp37
 70
     1
102
RTVSPost2010Prop38
140
0.0
102
RTVSPost2010PropOp38
 70
     1
102
RTVSPost2010Prop39
140
1.0
102
RTVSPost2010PropOp39
 70
     1
102
RTVSPost2010Prop40
 90
        0
102
RTVSPost2010PropOp40
 70
     1
102
RTVSPost2010Prop41ColorIndex
 90
       18
102
RTVSPost2010Prop41ColorRGB
 90
        0
102
RTVSPost2010PropOp41
 70
     1
102
RTVSPost2010Prop42
 90
       50
102
RTVSPost2010PropOp42
 70
     1
102
RTVSPost2010Prop43
 90
        3
102
RTVSPost2010PropOp43
 70
     1
102
RTVSPost2010Prop44ColorIndex
 90
        5
102
RTVSPost2010Prop44ColorRGB
 90
      255
102
RTVSPost2010PropOp44
 70
     1
102
RTVSPost2010Prop45
280
     0
102
RTVSPost2010PropOp45
 70
     1
102
RTVSPost2010Prop46
 90
       50
102
RTVSPost2010PropOp46
 70
     1
102
RTVSPost2010Prop47
 90
       50
102
RTVSPost2010PropOp47
 70
     1
102
RTVSPost2010Prop48
 90
       50
102
RTVSPost2010PropOp48
 70
     1
102
RTVSPost2010Prop49
280
     0
102
RTVSPost2010PropOp49
 70
     1
102
RTVSPost2010Prop50
 90
       50
102
RTVSPost2010PropOp50
 70
     1
102
RTVSPost2010Prop51ColorIndex
 90
      256
102
RTVSPost2010Prop51ColorRGB
 90
-16777216
102
RTVSPost2010PropOp51
 70
     0
102
RTVSPost2010Prop52
140
1.0
102
RTVSPost2010PropOp52
 70
     0
102
RTVSPost2010Prop53
 90
        2
102
RTVSPost2010PropOp53
 70
     1
102
RTVSPost2010Prop54
  1
strokes_ogs.tif
102
RTVSPost2010PropOp54
 70
     1
102
RTVSPost2010Prop55
280
     0
102
RTVSPost2010PropOp55
 70
     1
102
RTVSPost2010Prop56
140
1.0
102
RTVSPost2010PropOp56
 70
     1
102
RTVSPost2010Prop57
140
1.0
102
RTVSPost2010PropOp57
 70
     1
102
RTVSPropertyOp0
 70
     1
102
RTVSPropertyOp1
 70
     1
102
RTVSPropertyOp2
 70
     1
102
RTVSPropertyOp3
 70
     1
102
RTVSPropertyOp4
 70
     1
102
RTVSPropertyOp5
 70
     1
102
RTVSPropertyOp6
 70
     1
102
RTVSPropertyOp7
 70
     1
102
RTVSPropertyOp8
 70
     1
102
RTVSPropertyOp9
 70
     1
102
RTVSPropertyOp10
 70
     1
102
RTVSPropertyOp11
 70
     1
102
RTVSPropertyOp12
 70
     1
102
RTVSPropertyOp13
 70
     1
102
RTVSPropertyOp14
 70
     1
102
RTVSPropertyOp15
 70
     1
102
RTVSPropertyOp16
 70
     1
102
RTVSPropertyOp17
 70
     1
102
RTVSPropertyOp18
 70
     1
102
RTVSPropertyOp19
 70
     1
102
RTVSPropertyOp20
 70
     1
102
RTVSPropertyOp21
 70
     1
102
RTVSPropertyOp22
 70
     1
102
RTVSPropertyOp23
 70
     1
102
RTVSPropertyOp24
 70
     1
102
RTVSPropertyOp25
 70
     1
102
RTVSPropertyOp26
 70
     1
102
RTVSPropertyOp27
 70
     1
102
RTVSPropertyOp28
 70
     1
102
RTVSPropertyOp29
 70
     1
102
RTVSPropertyOp30
 70
     1
102
RTVSPropertyOp31
 70
     1
102
RTVSPropertyOp32
 70
     1
102
RTVSPropertyOp33
 70
     1
102
RTVSPropertyOp34
 70
     1
102
RTVSPropertyOp35
 70
     1
102
RTVSPropertyOp36
 70
     1
102
RTVSPropertyOp37
 70
     1
102
RTVSPropertyOp38
 70
     1
102
RTVSPropertyOp39
 70
     1
102
RTVSPropertyOp40
 70
     1
102
RTVSPropertyOp41
 70
     1
102
RTVSPropertyOp42
 70
     1
102
RTVSPropertyOp43
 70
     1
102
RTVSPropertyOp44
 70
     1
102
RTVSPropertyOp45
 70
     1
102
RTVSPropertyOp46
 70
     1
102
RTVSPropertyOp47
 70
     1
102
RTVSPropertyOp48
 70
     1
102
RTVSPropertyOp49
 70
     1
102
RTVSPropertyOp50
 70
     1
102
RTVSPropertyOp51
 70
     0
102
RTVSPropertyOp52
 70
     0
102
RTVSPropertyOp53
 70
     1
102
RTVSPropertyOp54
 70
     1
102
RTVSPropertyOp55
 70
     1
102
RTVSPropertyOp56
 70
     1
102
RTVSPropertyOp57
 70
     1
102
RTVSPropertyOp58
 70
     1
102
RTVSPropertyOp59
 70
     1
102
RTVSPropertyOp60
 70
     1
102
RTVSPropertyOp61
 70
     1
102
RTVSPropertyOp62
 70
     1
  0
ENDSEC
  0
EOF
