  0
SECTION
  2
HEADER
  9
$ACADVER
  1
AC1009
  9
$INSBASE
 10
0
 20
0
 30
0
  9
$EXTMIN
 10
0
 20
0
  9
$EXTMAX
 10
1260
 20
891
  9
$LIMMIN
 10
0
 20
0
  9
$LIMMAX
 10
1260
 20
891
  9
$LTSCALE
 40
3
  0
ENDSEC
  0
SECTION
  2
TABLES
  0
TABLE
  2
LTYPE
 70
     9
  0
LTYPE
  2
CONTINUOUS
 70
    64
  3
実線
 72
    65
 73
     0
 40
0.0
  0
LTYPE
  2
DASHED1
 70
    64
  3
--  --  --  --  --  --  --  --  
 72
    65
 73
     2
 40
2.5
 49
1.25
 49
-1.25
  0
LTYPE
  2
DASHED2
 70
    64
  3
----    ----    ----    ----    
 72
    65
 73
     2
 40
5.0
 49
2.5
 49
-2.5
  0
LTYPE
  2
DASHED3
 70
    64
  3
------  ------  ------  ------  
 72
    65
 73
     2
 40
5.0
 49
3.75
 49
-1.25
  0
LTYPE
  2
CENTER1
 70
    64
  3
----- - ----- - ----- - ----- - 
 72
    65
 73
     4
 40
10.0
 49
6.25
 49
-1.25
 49
1.25
 49
-1.25
  0
LTYPE
  2
CENTER2
 70
    64
  3
----------  --  ----------  --  
 72
    65
 73
     4
 40
20.0
 49
12.5
 49
-2.5
 49
2.5
 49
-2.5
  0
LTYPE
  2
PHANTOM1
 70
    64
  3
--- - - --- - - --- - - --- - - 
 72
    65
 73
     6
 40
10.0
 49
3.25
 49
-1.25
 49
1.25
 49
-1.25
 49
1.25
 49
-1.25
  0
LTYPE
  2
PHANTOM2
 70
    64
  3
--------  -  -  --------  -  -  
 72
    65
 73
     6
 40
20.0
 49
10.0
 49
-2.5
 49
1.25
 49
-2.5
 49
1.25
 49
-2.5
  0
LTYPE
  2
DOT
 70
    64
  3
-   -   -   -   -   -   -   -   
 72
    65
 73
     2
 40
2.5
 49
0.625
 49
-1.875
  0
LTYPE
  2
DUMMY
 70
    64
  3
ダミー
 72
    65
 73
     0
 40
0.0
  0
LTYPE
  2
RAND1
 70
    64
  3
ランダム線1
 72
    65
 73
     4
 40
10.0
 49
1.0
 49
-2.0
 49
3.0
 49
-4.0
  0
LTYPE
  2
RAND2
 70
    64
  3
ランダム線2
 72
    65
 73
     4
 40
14.0
 49
2.0
 49
-3.0
 49
4.0
 49
-5.0
  0
LTYPE
  2
RAND3
 70
    64
  3
ランダム線3
 72
    65
 73
     4
 40
18.0
 49
3.0
 49
-4.0
 49
5.0
 49
-6.0
  0
LTYPE
  2
RAND4
 70
    64
  3
ランダム線4
 72
    65
 73
     4
 40
22.0
 49
4.0
 49
-5.0
 49
6.0
 49
-7.0
  0
LTYPE
  2
RAND5
 70
    64
  3
ランダム線5
 72
    65
 73
     4
 40
26.0
 49
5.0
 49
-6.0
 49
7.0
 49
-8.0
  0
LTYPE
  2
LONG1
 70
    64
  3
----------  --  ----------  --  
 72
    65
 73
     4
 40
40.0
 49
32.5
 49
-2.5
 49
2.5
 49
-2.5
  0
LTYPE
  2
LONG2
 70
    64
  3
--------  -  -  --------  -  -  
 72
    65
 73
     6
 40
40.0
 49
30.0
 49
-2.5
 49
1.25
 49
-2.5
 49
1.25
 49
-2.5
  0
LTYPE
  2
LONG3
 70
    64
  3
+++++++++++++++..+++++++++++++++
 72
    65
 73
     2
 40
40.0
 49
37.5
 49
-2.5
  0
LTYPE
  2
LONG4
 70
    64
  3
+++++++++++++++..+++++++++++++++
 72
    65
 73
     2
 40
80.0
 49
75.0
 49
-5.0
  0
LTYPE
  2
LONG5
 70
    64
  3
----------  --  ----------  --  
 72
    65
 73
     4
 40
60.0
 49
37.5
 49
-7.5
 49
7.5
 49
-7.5
  0
LTYPE
  2
dashed
 70
   64
  3
-------   -------------   ------
 72
   65
 73
    2
 40
7.5
 49
6
 49
-1.5
  0
LTYPE
  2
dashed_spaced
 70
   64
  3
----        --------        ----
 72
   65
 73
    2
 40
12
 49
6
 49
-6
  0
LTYPE
  2
long_dashed_dotted
 70
   64
  3
------------- --- --------------
 72
   65
 73
    4
 40
15.25
 49
12
 49
-1.5
 49
0.25
 49
-1.5
  0
LTYPE
  2
long_dashed_double-dotted
 70
   64
  3
----------- --- --- ------------
 72
   65
 73
    6
 40
17
 49
12
 49
-1.5
 49
0.25
 49
-1.5
 49
0.25
 49
-1.5
  0
LTYPE
  2
long_dashed_triplicate-dotted
 70
   64
  3
--------- --- --- --- ----------
 72
   65
 73
    8
 40
18.75
 49
12
 49
-1.5
 49
0.25
 49
-1.5
 49
0.25
 49
-1.5
 49
0.25
 49
-1.5
  0
LTYPE
  2
dotted
 70
   64
  3
   -       -       -       -    
 72
   65
 73
    2
 40
1.75
 49
0.25
 49
-1.5
  0
LTYPE
  2
chain
 70
   64
  3
-------------- -- --------------
 72
   65
 73
    4
 40
18.5
 49
12
 49
-1.5
 49
3.5
 49
-1.5
  0
LTYPE
  2
chain_double_dash
 70
   64
  3
------------ -- -- -------------
 72
   65
 73
    6
 40
23.5
 49
12
 49
-1.5
 49
3.5
 49
-1.5
 49
3.5
 49
-1.5
  0
LTYPE
  2
dashed_dotted
 70
   64
  3
-----------     -     ----------
 72
   65
 73
    4
 40
9.25
 49
6
 49
-1.5
 49
0.25
 49
-1.5
  0
LTYPE
  2
double-dashed_dotted
 70
   64
  3
------   -----------   -   -----
 72
   65
 73
    6
 40
16.75
 49
6
 49
-1.5
 49
6
 49
-1.5
 49
0.25
 49
-1.5
  0
LTYPE
  2
dashed_double-dotted
 70
   64
  3
---------    -    -    ---------
 72
   65
 73
    6
 40
11
 49
6
 49
-1.5
 49
0.25
 49
-1.5
 49
0.25
 49
-1.5
  0
LTYPE
  2
double-dashed_double-dotted
 70
   64
  3
-----   ---------   -   -   ----
 72
   65
 73
    8
 40
18.5
 49
6
 49
-1.5
 49
6
 49
-1.5
 49
0.25
 49
-1.5
 49
0.25
 49
-1.5
  0
LTYPE
  2
dashed_triplicate-dotted
 70
   64
  3
-------    -    -    -    ------
 72
   65
 73
    8
 40
12.75
 49
6
 49
-1.5
 49
0.25
 49
-1.5
 49
0.25
 49
-1.5
 49
0.25
 49
-1.5
  0
LTYPE
  2
double-dashed_triplicate-dotted
 70
   64
  3
-----  ---------  -  -  -  -----
 72
   65
 73
   10
 40
20.25
 49
6
 49
-1.5
 49
6
 49
-1.5
 49
0.25
 49
-1.5
 49
0.25
 49
-1.5
 49
0.25
 49
-1.5
  0
LTYPE
  2
undefined
 70
   64
  3
--------------------------------
 72
   65
 73
    0
 40
0
  0
LTYPE
  2
PLINE2
 70
   64
  3
------     -----------     -----
 72
   65
 73
    2
 40
3
 49
2.1000000000000001
 49
-0.9
  0
LTYPE
  2
PLINE3
 70
   64
  3
------------   ---   -----------
 72
   65
 73
    4
 40
10
 49
7
 49
-1
 49
1
 49
-1
  0
LTYPE
  2
PLINE4
 70
   64
  3
---------   ---   ---   --------
 72
   65
 73
    6
 40
10
 49
5
 49
-1
 49
1
 49
-1
 49
1
 49
-1
  0
LTYPE
  2
PLINE5
 70
   64
  3
------     -----------     -----
 72
   65
 73
    2
 40
5
 49
3.5
 49
-1.5
  0
LTYPE
  2
PLINE6
 70
   64
  3
------------   ---   -----------
 72
   65
 73
    4
 40
15
 49
10.5
 49
-1.5
 49
1.5
 49
-1.5
  0
LTYPE
  2
PLINE7
 70
   64
  3
---------   ---   ---   --------
 72
   65
 73
    6
 40
15
 49
7.5
 49
-1.5
 49
1.5
 49
-1.5
 49
1.5
 49
-1.5
  0
LTYPE
  2
PLINE8
 70
   64
  3
------     -----------     -----
 72
   65
 73
    2
 40
7
 49
4.9000000000000004
 49
-2.1000000000000001
  0
LTYPE
  2
PLINE9
 70
   64
  3
------------   ---   -----------
 72
   65
 73
    4
 40
20
 49
14
 49
-2
 49
2
 49
-2
  0
LTYPE
  2
PLINE10
 70
   64
  3
---------   ---   ---   --------
 72
   65
 73
    6
 40
20
 49
10
 49
-2
 49
2
 49
-2
 49
2
 49
-2
  0
LTYPE
  2
PLINE11
 70
   64
  3
------     -----------     -----
 72
   65
 73
    2
 40
9
 49
6.2999999999999989
 49
-2.7000000000000002
  0
LTYPE
  2
PLINE12
 70
   64
  3
------------   ---   -----------
 72
   65
 73
    4
 40
25
 49
17.5
 49
-2.5
 49
2.5
 49
-2.5
  0
LTYPE
  2
PLINE13
 70
   64
  3
---------   ---   ---   --------
 72
   65
 73
    6
 40
25
 49
12.5
 49
-2.5
 49
2.5
 49
-2.5
 49
2.5
 49
-2.5
  0
LTYPE
  2
PLINE14
 70
   64
  3
------     -----------     -----
 72
   65
 73
    2
 40
11
 49
7.7000000000000002
 49
-3.2999999999999989
  0
LTYPE
  2
PLINE15
 70
   64
  3
------------   ---   -----------
 72
   65
 73
    4
 40
30
 49
21
 49
-3
 49
3
 49
-3
  0
LTYPE
  2
PLINE16
 70
   64
  3
---------   ---   ---   --------
 72
   65
 73
    6
 40
30
 49
15
 49
-3
 49
3
 49
-3
 49
3
 49
-3
  0
ENDTAB
  0
TABLE
  2
STYLE
  5
3
100
AcDbSymbolTable
 70
     1
  0
STYLE
  5
10
100
AcDbSymbolTableRecord
100
AcDbTextStyleTableRecord
  2
STANDARD
 70
     0
 40
0.0
 41
1.0
 50
0.0
 71
     0
 42
0.2
  3
txt
  4
bigfont.shx
  0
STYLE
  5
26
100
AcDbSymbolTableRecord
100
AcDbTextStyleTableRecord
  2
TATEGAKI
 70
    68
 40
0.0
 41
1.0
 50
0.0
 71
     0
 42
1.0
  3
txt
  4
bigfont.shx
  0
ENDTAB
  0
TABLE
  2
LAYER
 70
    7
  0
LAYER
  2
_0-0_0
 70
   64
 62
    7
  6
CONTINUOUS
  0
LAYER
  2
_0-2_寸法
 70
   64
 62
    7
  6
CONTINUOUS
  0
LAYER
  2
_0-3_躯体と製品
 70
   64
 62
    7
  6
CONTINUOUS
  0
LAYER
  2
_0-4_図枠
 70
   64
 62
    7
  6
CONTINUOUS
  0
LAYER
  2
_0-5_ADD_LINE
 70
   64
 62
    7
  6
CONTINUOUS
  0
LAYER
  2
_0-6_
 70
   64
 62
    7
  6
CONTINUOUS
  0
LAYER
  2
ADD_LINE
 70
   64
 62
    7
  6
CONTINUOUS
  0
ENDTAB
  0
ENDSEC
  0
SECTION
  2
BLOCKS
  0
BLOCK
  2
-000-_Dot
 70
   64
 10
0
 20
0
 30
0
  0
CIRCLE
  8
_0-0_0
  6
CONTINUOUS
 62
    7
 10
0
 20
0
 40
0.75
  0
LINE
  8
_0-0_0
  6
CONTINUOUS
 62
    7
 10
0.75
 20
0
 11
-0.75
 21
0
  0
LINE
  8
_0-0_0
  6
CONTINUOUS
 62
    7
 10
-1.5
 20
0
 11
-3
 21
0
  0
ENDBLK
  0
BLOCK
  2
-001-_Dot_1_
 70
   64
 10
0
 20
0
 30
0
  0
CIRCLE
  8
_0-0_0
  6
CONTINUOUS
 62
    7
 10
0
 20
0
 40
0.75
  0
LINE
  8
_0-0_0
  6
CONTINUOUS
 62
    7
 10
0.75
 20
0
 11
-0.75
 21
0
  0
LINE
  8
_0-0_0
  6
CONTINUOUS
 62
    7
 10
-1.5
 20
0
 11
-3
 21
0
  0
ENDBLK
  0
ENDSEC
  0
SECTION
  2
ENTITIES
  0
LINE
  8
_0-0_0
  6
CONTINUOUS
 62
    7
 10
1222.0256249864738
 20
816.48995709873259
 11
38.025624986474043
 21
816.48995709873259
  0
LINE
  8
_0-0_0
  6
CONTINUOUS
 62
    7
 10
38.025624986474043
 20
816.48995709873259
 11
38.025624986474043
 21
0.4899570987331856
  0
LINE
  8
_0-0_0
  6
CONTINUOUS
 62
    7
 10
38.025624986474043
 20
0.4899570987331856
 11
1222.0256249864738
 21
0.4899570987331856
  0
LINE
  8
_0-0_0
  6
CONTINUOUS
 62
    7
 10
1222.0256249864738
 20
0.4899570987331856
 11
1222.0256249864738
 21
816.48995709873259
  0
LINE
  8
_0-4_図枠
  6
CONTINUOUS
 62
    7
 10
1023.5575894671313
 20
308.0670540753195
 11
686.05758946713138
 21
308.0670540753195
  0
TEXT
  8
_0-4_図枠
 62
    7
 10
316.30758946713138
 20
323.81705407531967
 40
7.4999999999999787
 41
1.0000000000000029
 50
0
  1
部材名称
  0
TEXT
  8
_0-4_図枠
 62
    7
 10
467.80758946712967
 20
323.81705407531967
 40
7.4999999999999787
 41
1.0000000000000029
 50
0
  1
規　格
  0
TEXT
  8
_0-4_図枠
 62
    7
 10
269.05758946713138
 20
283.31705407531945
 40
7.5000000000000213
 41
0.9999999999999971
 50
0
  1
ＦＹＹフレーム
  0
TEXT
  8
_0-4_図枠
 62
    7
 10
269.05758946713138
 20
269.81705407531945
 40
7.5
 41
1
 50
0
  1
ＦＹＫ壁フレーム
  0
TEXT
  8
_0-4_図枠
 62
    7
 10
269.05758946713138
 20
242.81705407531965
 40
7.5
 41
1
 50
0
  1
ＦＹＫホルダー
  0
TEXT
  8
_0-4_図枠
 62
    7
 10
269.05758946713138
 20
229.31705407531965
 40
7.5
 41
0.9999999999999994
 50
0
  1
ＦＹＹホルダースプリング
  0
TEXT
  8
_0-4_図枠
 62
    7
 10
269.05758946713138
 20
215.81705407531948
 40
7.5
 41
1
 50
0
  1
ＦＹＹフレームナット
  0
TEXT
  8
_0-4_図枠
 62
    7
 10
269.05758946713138
 20
202.31705407531948
 40
7.5
 41
1
 50
0
  1
ＦＹＫ水切ジョイント
  0
TEXT
  8
_0-4_図枠
 62
    7
 10
269.05758946713138
 20
188.81705407531948
 40
7.5
 41
1.0000000000000004
 50
0
  1
ＦＹＫｻｲﾄﾞｷｬｯﾌﾟ ｼﾞｮｲﾝﾄ
  0
TEXT
  8
_0-4_図枠
 62
    7
 10
269.05758946713138
 20
161.81705407531948
 40
7.5
 41
1
 50
0
  1
止水補助板
  0
TEXT
  8
_0-4_図枠
 62
    7
 10
269.05758946713138
 20
148.31705407531973
 40
7.5
 41
1
 50
0
  1
ガスケットＮ
  0
TEXT
  8
_0-4_図枠
 62
    7
 10
269.05758946713138
 20
107.81705407531948
 40
7.5
 41
1
 50
0
  1
ステン六角ボルト
  0
TEXT
  8
_0-4_図枠
 62
    7
 10
269.05758946713138
 20
94.317054075319732
 40
7.5000000000000426
 41
0.9999999999999935
 50
0
  1
アジャストアンカー
  0
TEXT
  8
_0-4_図枠
 62
    7
 10
269.05758946713138
 20
80.817054075319646
 40
7.5000000000000853
 41
0.9999999999999886
 50
0
  1
アンカープラグ
  0
TEXT
  8
_0-4_図枠
 62
    7
 10
269.05758946713138
 20
67.317054075319646
 40
7.5000000000000853
 41
0.9999999999999879
 50
0
  1
ステンタッピンねじ
  0
TEXT
  8
_0-4_図枠
 62
    7
 10
269.05758946713138
 20
53.817054075319646
 40
7.5000000000000853
 41
0.9999999999999886
 50
0
  1
ステスワッシャー
  0
TEXT
  8
_0-4_図枠
 62
    7
 10
269.05758946713138
 20
40.317054075319646
 40
7.5000000000000853
 41
0.9999999999999886
 50
0
  1
ステンワッシャー
  0
LINE
  8
_0-4_図枠
  6
CONTINUOUS
 62
    7
 10
554.05758946713138
 20
335.0670540753195
 11
240.55758946713144
 21
335.0670540753195
  0
LINE
  8
_0-4_図枠
  6
CONTINUOUS
 62
    7
 10
554.05758946713138
 20
321.5670540753195
 11
240.55758946713144
 21
321.5670540753195
  0
LINE
  8
_0-4_図枠
  6
CONTINUOUS
 62
    7
 10
554.05758946713138
 20
308.0670540753195
 11
240.55758946713144
 21
308.0670540753195
  0
LINE
  8
_0-4_図枠
  6
CONTINUOUS
 62
    7
 10
554.05758946713138
 20
294.5670540753195
 11
240.55758946713144
 21
294.5670540753195
  0
LINE
  8
_0-4_図枠
  6
CONTINUOUS
 62
    7
 10
554.05758946713138
 20
281.06705407531945
 11
240.55758946713144
 21
281.06705407531945
  0
LINE
  8
_0-4_図枠
  6
CONTINUOUS
 62
    7
 10
554.05758946713138
 20
267.56705407531967
 11
240.55758946713144
 21
267.56705407531967
  0
LINE
  8
_0-4_図枠
  6
CONTINUOUS
 62
    7
 10
554.05758946713138
 20
254.06705407531965
 11
240.55758946713144
 21
254.06705407531965
  0
LINE
  8
_0-4_図枠
  6
CONTINUOUS
 62
    7
 10
554.05758946713138
 20
240.56705407531948
 11
240.55758946713144
 21
240.56705407531948
  0
LINE
  8
_0-4_図枠
  6
CONTINUOUS
 62
    7
 10
554.05758946713138
 20
227.06705407531948
 11
240.55758946713144
 21
227.06705407531948
  0
LINE
  8
_0-4_図枠
  6
CONTINUOUS
 62
    7
 10
554.05758946713138
 20
213.56705407531948
 11
240.55758946713144
 21
213.56705407531948
  0
LINE
  8
_0-4_図枠
  6
CONTINUOUS
 62
    7
 10
554.05758946713138
 20
200.06705407531948
 11
240.55758946713144
 21
200.06705407531948
  0
LINE
  8
_0-4_図枠
  6
CONTINUOUS
 62
    7
 10
554.05758946713138
 20
186.56705407531973
 11
240.55758946713144
 21
186.56705407531973
  0
LINE
  8
_0-4_図枠
  6
CONTINUOUS
 62
    7
 10
554.05758946713138
 20
173.06705407531973
 11
240.55758946713144
 21
173.06705407531973
  0
LINE
  8
_0-4_図枠
  6
CONTINUOUS
 62
    7
 10
554.05758946713138
 20
159.56705407531948
 11
240.55758946713144
 21
159.56705407531948
  0
LINE
  8
_0-4_図枠
  6
CONTINUOUS
 62
    7
 10
554.05758946713138
 20
146.06705407531948
 11
240.55758946713144
 21
146.06705407531948
  0
LINE
  8
_0-4_図枠
  6
CONTINUOUS
 62
    7
 10
554.05758946713138
 20
132.56705407531948
 11
240.55758946713144
 21
132.56705407531948
  0
LINE
  8
_0-4_図枠
  6
CONTINUOUS
 62
    7
 10
554.05758946713138
 20
119.06705407531948
 11
240.55758946713144
 21
119.06705407531948
  0
LINE
  8
_0-4_図枠
  6
CONTINUOUS
 62
    7
 10
554.05758946713138
 20
105.56705407531973
 11
240.55758946713144
 21
105.56705407531973
  0
LINE
  8
_0-4_図枠
  6
CONTINUOUS
 62
    7
 10
554.05758946713138
 20
92.067054075319732
 11
240.55758946713144
 21
92.067054075319732
  0
LINE
  8
_0-4_図枠
  6
CONTINUOUS
 62
    7
 10
554.05758946713138
 20
78.567054075319732
 11
240.55758946713144
 21
78.567054075319732
  0
LINE
  8
_0-4_図枠
  6
CONTINUOUS
 62
    7
 10
554.05758946713138
 20
65.067054075319817
 11
240.55758946713144
 21
65.067054075319817
  0
LINE
  8
_0-4_図枠
  6
CONTINUOUS
 62
    7
 10
554.05758946713138
 20
51.567054075319732
 11
240.55758946713144
 21
51.567054075319732
  0
LINE
  8
_0-4_図枠
  6
CONTINUOUS
 62
    7
 10
554.05758946713138
 20
38.067054075319732
 11
240.55758946713144
 21
38.067054075319732
  0
TEXT
  8
_0-4_図枠
 62
    7
 10
243.55758946713144
 20
323.81705407531967
 40
7.4999999999999787
 41
0.9999999999999988
 50
0
  1
No.
  0
TEXT
  8
_0-4_図枠
 62
    7
 10
246.18258946713138
 20
310.31705407531967
 40
7.4999999999999787
 41
1.0000000000000029
 50
0
  1
 1
  0
TEXT
  8
_0-4_図枠
 62
    7
 10
246.18258946713138
 20
296.81705407531945
 40
7.5000000000000426
 41
0.9999999999999943
 50
0
  1
 2
  0
TEXT
  8
_0-4_図枠
 62
    7
 10
246.18258946713138
 20
283.31705407531945
 40
7.5000000000000213
 41
0.9999999999999971
 50
0
  1
 3
  0
TEXT
  8
_0-4_図枠
 62
    7
 10
246.18258946713138
 20
269.81705407531945
 40
7.5
 41
1
 50
0
  1
 4
  0
TEXT
  8
_0-4_図枠
 62
    7
 10
246.18258946713138
 20
256.31705407531945
 40
7.5
 41
1
 50
0
  1
 5
  0
TEXT
  8
_0-4_図枠
 62
    7
 10
246.18258946713138
 20
242.81705407531965
 40
7.5
 41
1
 50
0
  1
 6
  0
TEXT
  8
_0-4_図枠
 62
    7
 10
246.18258946713138
 20
229.31705407531965
 40
7.5
 41
1
 50
0
  1
 7
  0
TEXT
  8
_0-4_図枠
 62
    7
 10
246.18258946713138
 20
215.81705407531948
 40
7.5
 41
1
 50
0
  1
 8
  0
TEXT
  8
_0-4_図枠
 62
    7
 10
246.18258946713138
 20
202.31705407531948
 40
7.5
 41
1
 50
0
  1
 9
  0
TEXT
  8
_0-4_図枠
 62
    7
 10
246.18258946713138
 20
188.81705407531948
 40
7.5
 41
1
 50
0
  1
10
  0
TEXT
  8
_0-4_図枠
 62
    7
 10
246.18258946713138
 20
175.31705407531948
 40
7.5
 41
1
 50
0
  1
11
  0
TEXT
  8
_0-4_図枠
 62
    7
 10
246.18258946713138
 20
161.81705407531948
 40
7.5
 41
1
 50
0
  1
12
  0
TEXT
  8
_0-4_図枠
 62
    7
 10
246.18258946713138
 20
148.31705407531973
 40
7.5
 41
1
 50
0
  1
13
  0
TEXT
  8
_0-4_図枠
 62
    7
 10
246.18258946713138
 20
134.81705407531948
 40
7.5
 41
1
 50
0
  1
14
  0
TEXT
  8
_0-4_図枠
 62
    7
 10
246.18258946713138
 20
121.31705407531948
 40
7.5
 41
1
 50
0
  1
15
  0
TEXT
  8
_0-4_図枠
 62
    7
 10
246.18258946713138
 20
107.81705407531948
 40
7.5
 41
1
 50
0
  1
16
  0
TEXT
  8
_0-4_図枠
 62
    7
 10
246.18258946713138
 20
94.317054075319732
 40
7.5000000000000426
 41
0.9999999999999943
 50
0
  1
17
  0
TEXT
  8
_0-4_図枠
 62
    7
 10
246.18258946713138
 20
80.817054075319646
 40
7.5000000000000853
 41
0.9999999999999886
 50
0
  1
18
  0
TEXT
  8
_0-4_図枠
 62
    7
 10
246.18258946713138
 20
67.317054075319646
 40
7.5000000000000853
 41
0.9999999999999886
 50
0
  1
19
  0
TEXT
  8
_0-4_図枠
 62
    7
 10
246.18258946713138
 20
53.817054075319646
 40
7.5000000000000853
 41
0.9999999999999886
 50
0
  1
20
  0
TEXT
  8
_0-4_図枠
 62
    7
 10
246.18258946713138
 20
40.317054075319646
 40
7.5000000000000853
 41
0.9999999999999886
 50
0
  1
21
  0
TEXT
  8
_0-4_図枠
 62
    7
 10
269.05758946713138
 20
310.31705407531967
 40
7.4999999999999787
 41
1.0000000000000029
 50
0
  1
ＦＹＫキャップＳ
  0
TEXT
  8
_0-4_図枠
 62
    7
 10
269.05758946713138
 20
296.81705407531945
 40
7.5000000000000426
 41
0.9999999999999946
 50
0
  1
ＦＹＫサイドキャップＳ
  0
LINE
  8
_0-4_図枠
  6
CONTINUOUS
 62
    7
 10
555.55758946713138
 20
335.0670540753195
 11
656.05758946713138
 21
335.0670540753195
  0
LINE
  8
_0-4_図枠
  6
CONTINUOUS
 62
    7
 10
555.55758946713138
 20
321.5670540753195
 11
656.05758946713138
 21
321.5670540753195
  0
LINE
  8
_0-4_図枠
  6
CONTINUOUS
 62
    7
 10
555.55758946713138
 20
308.0670540753195
 11
656.05758946713138
 21
308.0670540753195
  0
LINE
  8
_0-4_図枠
  6
CONTINUOUS
 62
    7
 10
555.55758946713138
 20
294.5670540753195
 11
656.05758946713138
 21
294.5670540753195
  0
LINE
  8
_0-4_図枠
  6
CONTINUOUS
 62
    7
 10
555.55758946713138
 20
281.06705407531945
 11
656.05758946713138
 21
281.06705407531945
  0
LINE
  8
_0-4_図枠
  6
CONTINUOUS
 62
    7
 10
555.55758946713138
 20
267.56705407531967
 11
656.05758946713138
 21
267.56705407531967
  0
LINE
  8
_0-4_図枠
  6
CONTINUOUS
 62
    7
 10
555.55758946713138
 20
254.06705407531965
 11
656.05758946713138
 21
254.06705407531965
  0
LINE
  8
_0-4_図枠
  6
CONTINUOUS
 62
    7
 10
555.55758946713138
 20
240.56705407531948
 11
656.05758946713138
 21
240.56705407531948
  0
LINE
  8
_0-4_図枠
  6
CONTINUOUS
 62
    7
 10
555.55758946713138
 20
227.06705407531948
 11
656.05758946713138
 21
227.06705407531948
  0
LINE
  8
_0-4_図枠
  6
CONTINUOUS
 62
    7
 10
555.55758946713138
 20
213.56705407531948
 11
656.05758946713138
 21
213.56705407531948
  0
LINE
  8
_0-4_図枠
  6
CONTINUOUS
 62
    7
 10
555.55758946713138
 20
200.06705407531948
 11
656.05758946713138
 21
200.06705407531948
  0
LINE
  8
_0-4_図枠
  6
CONTINUOUS
 62
    7
 10
555.55758946713138
 20
186.56705407531973
 11
656.05758946713138
 21
186.56705407531973
  0
LINE
  8
_0-4_図枠
  6
CONTINUOUS
 62
    7
 10
555.55758946713138
 20
173.06705407531973
 11
656.05758946713138
 21
173.06705407531973
  0
LINE
  8
_0-4_図枠
  6
CONTINUOUS
 62
    7
 10
555.55758946713138
 20
159.56705407531948
 11
656.05758946713138
 21
159.56705407531948
  0
LINE
  8
_0-4_図枠
  6
CONTINUOUS
 62
    7
 10
555.55758946713138
 20
146.06705407531948
 11
656.05758946713138
 21
146.06705407531948
  0
LINE
  8
_0-4_図枠
  6
CONTINUOUS
 62
    7
 10
555.55758946713138
 20
132.56705407531948
 11
656.05758946713138
 21
132.56705407531948
  0
LINE
  8
_0-4_図枠
  6
CONTINUOUS
 62
    7
 10
555.55758946713138
 20
119.06705407531948
 11
656.05758946713138
 21
119.06705407531948
  0
LINE
  8
_0-4_図枠
  6
CONTINUOUS
 62
    7
 10
555.55758946713138
 20
105.56705407531973
 11
656.05758946713138
 21
105.56705407531973
  0
LINE
  8
_0-4_図枠
  6
CONTINUOUS
 62
    7
 10
555.55758946713138
 20
92.067054075319732
 11
656.05758946713138
 21
92.067054075319732
  0
LINE
  8
_0-4_図枠
  6
CONTINUOUS
 62
    7
 10
555.55758946713138
 20
78.567054075319732
 11
656.05758946713138
 21
78.567054075319732
  0
LINE
  8
_0-4_図枠
  6
CONTINUOUS
 62
    7
 10
555.55758946713138
 20
65.067054075319817
 11
656.05758946713138
 21
65.067054075319817
  0
LINE
  8
_0-4_図枠
  6
CONTINUOUS
 62
    7
 10
555.55758946713138
 20
51.567054075319732
 11
656.05758946713138
 21
51.567054075319732
  0
LINE
  8
_0-4_図枠
  6
CONTINUOUS
 62
    7
 10
555.55758946713138
 20
38.067054075319732
 11
656.05758946713138
 21
38.067054075319732
  0
TEXT
  8
_0-4_図枠
 62
    7
 10
561.18258946713138
 20
323.81705407531967
 40
7.4999999999999787
 41
1.0000000000000031
 50
0
  1
定尺(mm)
  0
TEXT
  8
_0-4_図枠
 62
    7
 10
611.80758946713138
 20
323.81705407531967
 40
7.4999999999999787
 41
1.0000000000000029
 50
0
  1
入数
  0
TEXT
  8
_0-4_図枠
 62
    7
 10
641.05758946713138
 20
310.31705407531967
 40
7.4999999999999787
 41
1.0000000000000058
 50
0
  1
本
  0
TEXT
  8
_0-4_図枠
 62
    7
 10
641.05758946713138
 20
296.81705407531945
 40
7.5000000000000426
 41
0.9999999999999971
 50
0
  1
〃
  0
TEXT
  8
_0-4_図枠
 62
    7
 10
641.05758946713138
 20
283.31705407531945
 40
7.5000000000000213
 41
1
 50
0
  1
〃
  0
TEXT
  8
_0-4_図枠
 62
    7
 10
641.05758946713138
 20
269.81705407531945
 40
7.5
 41
1.0000000000000029
 50
0
  1
〃
  0
TEXT
  8
_0-4_図枠
 62
    7
 10
641.05758946713138
 20
242.81705407531965
 40
7.5
 41
1.0000000000000029
 50
0
  1
〃
  0
TEXT
  8
_0-4_図枠
 62
    7
 10
641.05758946713138
 20
229.31705407531965
 40
7.5
 41
1.0000000000000029
 50
0
  1
〃
  0
TEXT
  8
_0-4_図枠
 62
    7
 10
641.05758946713138
 20
215.81705407531948
 40
7.5
 41
1.0000000000000029
 50
0
  1
〃
  0
TEXT
  8
_0-4_図枠
 62
    7
 10
641.05758946713138
 20
202.31705407531948
 40
7.5
 41
1.0000000000000029
 50
0
  1
〃
  0
TEXT
  8
_0-4_図枠
 62
    7
 10
641.05758946713138
 20
188.81705407531948
 40
7.5
 41
1.0000000000000029
 50
0
  1
〃
  0
TEXT
  8
_0-4_図枠
 62
    7
 10
641.05758946713138
 20
161.81705407531948
 40
7.5
 41
1.0000000000000029
 50
0
  1
〃
  0
TEXT
  8
_0-4_図枠
 62
    7
 10
641.05758946713138
 20
148.31705407531973
 40
7.5
 41
1.0000000000000029
 50
0
  1
本
  0
TEXT
  8
_0-4_図枠
 62
    7
 10
641.05758946713138
 20
134.81705407531948
 40
7.5
 41
1.0000000000000029
 50
0
  1
〃
  0
TEXT
  8
_0-4_図枠
 62
    7
 10
641.05758946713138
 20
121.31705407531948
 40
7.5
 41
1.0000000000000029
 50
0
  1
〃
  0
TEXT
  8
_0-4_図枠
 62
    7
 10
641.05758946713138
 20
107.81705407531948
 40
7.5
 41
1.0000000000000029
 50
0
  1
〃
  0
TEXT
  8
_0-4_図枠
 62
    7
 10
641.05758946713138
 20
94.317054075319732
 40
7.5000000000000426
 41
0.9999999999999971
 50
0
  1
〃
  0
TEXT
  8
_0-4_図枠
 62
    7
 10
641.05758946713138
 20
80.817054075319646
 40
7.5000000000000853
 41
0.9999999999999914
 50
0
  1
〃
  0
TEXT
  8
_0-4_図枠
 62
    7
 10
641.05758946713138
 20
67.317054075319646
 40
7.5000000000000853
 41
0.9999999999999914
 50
0
  1
〃
  0
TEXT
  8
_0-4_図枠
 62
    7
 10
641.05758946713138
 20
53.817054075319646
 40
7.5000000000000853
 41
0.9999999999999914
 50
0
  1
枚
  0
TEXT
  8
_0-4_図枠
 62
    7
 10
641.05758946713138
 20
40.317054075319646
 40
7.5000000000000853
 41
0.9999999999999914
 50
0
  1
〃
  0
TEXT
  8
_0-4_図枠
 62
    7
 10
635.80758946713138
 20
323.81705407531967
 40
7.4999999999999787
 41
1.0000000000000042
 50
0
  1
単位
  0
LINE
  8
_0-4_図枠
  6
CONTINUOUS
 62
    7
 10
1023.5575894671313
 20
335.0670540753195
 11
686.05758946713138
 21
335.0670540753195
  0
LINE
  8
_0-4_図枠
  6
CONTINUOUS
 62
    7
 10
1023.5575894671313
 20
321.5670540753195
 11
686.05758946713138
 21
321.5670540753195
  0
TEXT
  8
_0-4_図枠
 62
    7
 10
716.80758946713149
 20
323.81705407531967
 40
7.4999999999999787
 41
1.0000000000000016
 50
0
  1
タ　イ　プ
  0
TEXT
  8
_0-4_図枠
 62
    7
 10
861.55758946713149
 20
323.81705407531967
 40
7.4999999999999787
 41
0.9999999999999971
 50
0
  1
Ａ
  0
TEXT
  8
_0-4_図枠
 62
    7
 10
816.55758946713149
 20
323.81705407531967
 40
7.4999999999999787
 41
0.9999999999999971
 50
0
  1
Ｗ
  0
TEXT
  8
_0-4_図枠
 62
    7
 10
906.55758946713149
 20
323.81705407531967
 40
7.4999999999999787
 41
1.0000000000000029
 50
0
  1
Ｃ
  0
TEXT
  8
_0-4_図枠
 62
    7
 10
951.55758946713149
 20
323.81705407531967
 40
7.4999999999999787
 41
1.0000000000000029
 50
0
  1
Ｄ
  0
TEXT
  8
_0-4_図枠
 62
    7
 10
996.55758946713127
 20
323.81705407531967
 40
7.4999999999999787
 41
1.0000000000000142
 50
0
  1
Ｅ
  0
TEXT
  8
_0-4_図枠
 62
    7
 10
962.05758946713149
 20
335.06705407531945
 40
7.5
 41
1
 50
0
  1
（単位：mm）
  0
LINE
  8
_0-4_図枠
  6
CONTINUOUS
 62
    7
 10
1023.5575894671313
 20
308.0670540753195
 11
686.05758946713138
 21
308.0670540753195
  0
LINE
  8
_0-4_図枠
  6
CONTINUOUS
 62
    7
 10
686.05758946713138
 20
335.0670540753195
 11
686.05758946713138
 21
308.0670540753195
  0
LINE
  8
_0-4_図枠
  6
CONTINUOUS
 62
    7
 10
798.55758946713127
 20
335.0670540753195
 11
798.55758946713127
 21
308.0670540753195
  0
LINE
  8
_0-4_図枠
  6
CONTINUOUS
 62
    7
 10
843.55758946713149
 20
335.0670540753195
 11
843.55758946713149
 21
308.0670540753195
  0
LINE
  8
_0-4_図枠
  6
CONTINUOUS
 62
    7
 10
888.55758946712967
 20
335.0670540753195
 11
888.55758946712967
 21
308.0670540753195
  0
LINE
  8
_0-4_図枠
  6
CONTINUOUS
 62
    7
 10
933.55758946713149
 20
335.0670540753195
 11
933.55758946713149
 21
308.0670540753195
  0
LINE
  8
_0-4_図枠
  6
CONTINUOUS
 62
    7
 10
978.55758946713127
 20
335.0670540753195
 11
978.55758946713127
 21
308.0670540753195
  0
LINE
  8
_0-4_図枠
  6
CONTINUOUS
 62
    7
 10
1023.5575894671313
 20
335.0670540753195
 11
1023.5575894671313
 21
308.0670540753195
  0
TEXT
  8
_0-4_図枠
 62
    7
 10
269.05758946713138
 20
256.31705407531967
 40
7.5
 41
1
 50
0
  1
ブチルテープ
  0
TEXT
  8
_0-4_図枠
 62
    7
 10
641.05758946713138
 20
256.31705407531967
 40
7.5
 41
1.0000000000000029
 50
0
  1
巻
  0
TEXT
  8
_0-0_0
 62
    7
 10
269.41592463793035
 20
175.97025064963813
 40
7.5
 41
1
 50
0
  1
ウォーターガード
  0
TEXT
  8
_0-0_0
 62
    7
 10
641.19191159984041
 20
175.89733690170505
 40
7.5
 41
1
 50
0
  1
枚
  0
TEXT
  8
_0-4_図枠
 62
    7
 10
269.05758946713138
 20
134.81705407531948
 40
7.5
 41
1
 50
0
  1
ステン小ねじ
  0
TEXT
  8
_0-4_図枠
 62
    7
 10
269.05758946713138
 20
121.31705407531948
 40
7.5
 41
1
 50
0
  1
ステン小ねじ
  0
TEXT
  8
_0-4_図枠
 62
    7
 10
164.69542194895968
 20
761.31021279147035
 40
12
 41
1
 50
0
  1
◇ステンレス２５０タイプ（２５０ＦＹＫＧ－Ｓ）
  0
TEXT
  8
_0-4_図枠
 62
    7
 10
172.11907038280577
 20
743.16351661984663
 40
12
 41
1
 50
0
  1
　　屋根－壁（ストレート壁）
  0
TEXT
  8
_0-4_図枠
 62
    7
 10
172.11907038280577
 20
724.19197062223998
 40
12
 41
1
 50
0
  1
　　Ｓ＝１／３
  0
LINE
  8
_0-3_躯体と製品
  6
CONTINUOUS
 62
    7
 10
297.32875900114419
 20
567.77888974253733
 11
296.15542451547213
 21
568.62755341766501
  0
ARC
  8
_0-3_躯体と製品
  6
CONTINUOUS
 62
    7
 10
300.96417119657713
 20
569.60391507200984
 40
4
 50
210.59600537096031
 51
324.57765914528972
  0
LINE
  8
_0-3_躯体と製品
  6
CONTINUOUS
 62
    3
 10
303.17396456400303
 20
533.21162377340556
 11
304.63937133880609
 21
561.17325074653354
  0
LINE
  8
_0-3_躯体と製品
  6
CONTINUOUS
 62
    7
 10
304.61320336068417
 20
560.67393597915634
 11
319.59264638200221
 21
559.88889663551231
  0
LINE
  8
_0-3_躯体と製品
  6
CONTINUOUS
 62
    7
 10
319.38330255703113
 20
555.89437849649357
 11
319.59264638200221
 21
559.88889663551231
  0
LINE
  8
_0-3_躯体と製品
  6
CONTINUOUS
 62
    3
 10
279.47277604530319
 20
547.12277386449909
 11
279.47277604530319
 21
544.87277386449909
  0
ARC
  8
_0-3_躯体と製品
  6
CONTINUOUS
 62
    3
 10
280.47277604530314
 20
547.12277386449909
 40
1
 50
90
 51
180
  0
ARC
  8
_0-3_躯体と製品
  6
CONTINUOUS
 62
    3
 10
280.22277604530319
 20
544.87277386449909
 40
0.75
 50
180
 51
0
  0
LINE
  8
_0-3_躯体と製品
  6
CONTINUOUS
 62
    3
 10
280.97277604530319
 20
546.12277386449921
 11
280.97277604530319
 21
544.87277386449909
  0
ARC
  8
_0-3_躯体と製品
  6
CONTINUOUS
 62
    3
 10
281.47277604530319
 20
546.12277386449921
 40
0.5
 50
90
 51
180
  0
ARC
  8
_0-3_躯体と製品
  6
CONTINUOUS
 62
    3
 10
283.97277604530319
 20
578.62277386449909
 40
1.5
 50
90
 51
180
  0
LINE
  8
_0-3_躯体と製品
  6
CONTINUOUS
 62
    3
 10
282.47277604530319
 20
548.62277386449898
 11
282.47277604530319
 21
578.62277386449909
  0
ARC
  8
_0-3_躯体と製品
  6
CONTINUOUS
 62
    3
 10
281.97277604530314
 20
548.62277386449898
 40
0.5
 50
270
 51
0
  0
LINE
  8
_0-3_躯体と製品
  6
CONTINUOUS
 62
    3
 10
281.97277604530314
 20
548.12277386449909
 11
280.47277604530314
 21
548.12277386449909
  0
LINE
  8
_0-3_躯体と製品
  6
CONTINUOUS
 62
    3
 10
284.47277604530319
 20
550.12277386449909
 11
284.47277604530319
 21
578.12277386449898
  0
ARC
  8
_0-3_躯体と製品
  6
CONTINUOUS
 62
    3
 10
284.97277604530314
 20
578.12277386449898
 40
0.5
 50
90
 51
180
  0
ARC
  8
_0-3_躯体と製品
  6
CONTINUOUS
 62
    3
 10
285.47277604530319
 20
550.12277386449909
 40
1
 50
180
 51
270
  0
ARC
  8
_0-3_躯体と製品
  6
CONTINUOUS
 62
    3
 10
288.97277604530319
 20
584.62277386449909
 40
0.5
 50
0
 51
90
  0
LINE
  8
_0-3_躯体と製品
  6
CONTINUOUS
 62
    3
 10
289.47277604530314
 20
581.12277386449909
 11
289.47277604530314
 21
584.62277386449909
  0
ARC
  8
_0-3_躯体と製品
  6
CONTINUOUS
 62
    3
 10
289.97277604530319
 20
585.62277386449909
 40
1
 50
0
 51
90
  0
ARC
  8
_0-3_躯体と製品
  6
CONTINUOUS
 62
    3
 10
289.47277604530314
 20
572.62277386449898
 40
1
 50
90
 51
270
  0
ARC
  8
_0-3_躯体と製品
  6
CONTINUOUS
 62
    3
 10
288.97277604530319
 20
578.12277386449898
 40
0.5
 50
0
 51
90
  0
LINE
  8
_0-3_躯体と製品
  6
CONTINUOUS
 62
    3
 10
289.47277604530314
 20
578.12277386449898
 11
289.47277604530314
 21
573.62277386449898
  0
ARC
  8
_0-3_躯体と製品
  6
CONTINUOUS
 62
    3
 10
290.47277604530319
 20
572.12277386449909
 40
0.5
 50
270
 51
0
  0
LINE
  8
_0-3_躯体と製品
  6
CONTINUOUS
 62
    3
 10
290.47277604530319
 20
571.62277386449909
 11
289.47277604530314
 21
571.62277386449909
  0
ARC
  8
_0-3_躯体と製品
  6
CONTINUOUS
 62
    3
 10
291.97277604530319
 20
545.62277386449909
 40
1
 50
0
 51
90
  0
ARC
  8
_0-3_躯体と製品
  6
CONTINUOUS
 62
    3
 10
293.47277604530319
 20
547.12277386449909
 40
2
 50
0
 51
90
  0
LINE
  8
_0-3_躯体と製品
  6
CONTINUOUS
 62
    3
 10
284.97277604530314
 20
578.62277386449909
 11
288.97277604530319
 21
578.62277386449909
  0
LINE
  8
_0-3_躯体と製品
  6
CONTINUOUS
 62
    3
 10
293.47277604530319
 20
549.12277386449909
 11
285.47277604530319
 21
549.12277386449909
  0
LINE
  8
_0-3_躯体と製品
  6
CONTINUOUS
 62
    3
 10
288.47277604530319
 20
580.12277386449909
 11
283.97277604530319
 21
580.12277386449909
  0
LINE
  8
_0-3_躯体と製品
  6
CONTINUOUS
 62
    3
 10
291.97277604530319
 20
546.62277386449909
 11
281.47277604530319
 21
546.62277386449909
  0
ARC
  8
_0-3_躯体と製品
  6
CONTINUOUS
 62
    3
 10
288.47277604530319
 20
581.12277386449909
 40
1
 50
270
 51
0
  0
LINE
  8
_0-3_躯体と製品
  6
CONTINUOUS
 62
    3
 10
290.97277604530314
 20
572.12277386449909
 11
290.97277604530314
 21
585.62277386449909
  0
ARC
  8
_0-3_躯体と製品
  6
CONTINUOUS
 62
    3
 10
282.37277604530306
 20
583.72277386449912
 40
0.5999999999999996
 50
180
 51
0
  0
ARC
  8
_0-3_躯体と製品
  6
CONTINUOUS
 62
    3
 10
278.12277604530306
 20
591.87277386449909
 40
0.75
 50
0
 51
180
  0
LINE
  8
_0-3_躯体と製品
  6
CONTINUOUS
 62
    3
 10
278.87277604530306
 20
591.87277386449909
 11
278.87277604530306
 21
588.62277386449909
  0
LINE
  8
_0-3_躯体と製品
  6
CONTINUOUS
 62
    3
 10
278.87277604530306
 20
588.62277386449909
 11
282.37277604530306
 21
586.62277386449909
  0
LINE
  8
_0-3_躯体と製品
  6
CONTINUOUS
 62
    3
 10
282.97277604530319
 20
584.62277386449909
 11
282.97277604530319
 21
583.72277386449912
  0
ARC
  8
_0-3_躯体と製品
  6
CONTINUOUS
 62
    3
 10
283.47277604530314
 20
584.62277386449909
 40
0.5
 50
90
 51
180
  0
LINE
  8
_0-3_躯体と製品
  6
CONTINUOUS
 62
    3
 10
289.97277604530319
 20
586.62277386449909
 11
282.37277604530306
 21
586.62277386449909
  0
LINE
  8
_0-3_躯体と製品
  6
CONTINUOUS
 62
    3
 10
283.47277604530314
 20
585.12277386449887
 11
288.97277604530319
 21
585.12277386449887
  0
ARC
  8
_0-3_躯体と製品
  6
CONTINUOUS
 62
    3
 10
303.09333744657016
 20
541.22682802956331
 40
0.5
 50
357.00000000000108
 51
86.999999999994444
  0
LINE
  8
_0-3_躯体と製品
  6
CONTINUOUS
 62
    3
 10
302.62019065731403
 20
541.75231077506214
 11
303.11950542469094
 21
541.72614279694074
  0
ARC
  8
_0-3_躯体と製品
  6
CONTINUOUS
 62
    3
 10
302.59402267919199
 20
541.25299600768494
 40
0.5
 50
86.999999999994415
 51
177.00000000000111
  0
LINE
  8
_0-3_躯体と製品
  6
CONTINUOUS
 62
    3
 10
301.990035999329
 20
539.28190491629744
 11
302.09470791181508
 21
541.27916398580624
  0
ARC
  8
_0-3_躯体と製品
  6
CONTINUOUS
 62
    3
 10
301.49072123195197
 20
539.30807289441861
 40
0.5
 50
266.99999999999437
 51
357.00000000000108
  0
ARC
  8
_0-3_躯体と製品
  6
CONTINUOUS
 62
    3
 10
302.7269857528691
 20
534.23642128628148
 40
0.5
 50
266.99999999999437
 51
357.00000000000108
  0
LINE
  8
_0-3_躯体と製品
  6
CONTINUOUS
 62
    3
 10
302.20150300737015
 20
533.76327449702558
 11
302.70081777474707
 21
533.73710651890428
  0
ARC
  8
_0-3_躯体と製品
  6
CONTINUOUS
 62
    3
 10
302.22767098549213
 20
534.262589264403
 40
0.5
 50
177.00000000000111
 51
266.99999999999437
  0
LINE
  8
_0-3_躯体と製品
  6
CONTINUOUS
 62
    3
 10
301.78069217435706
 20
535.28738677727904
 11
301.72835621811402
 21
534.28875724252441
  0
ARC
  8
_0-3_躯体と製品
  6
CONTINUOUS
 62
    3
 10
301.28137740698003
 20
535.31355475540056
 40
0.5
 50
357.00000000000108
 51
86.999999999994444
  0
LINE
  8
_0-3_躯体と製品
  6
CONTINUOUS
 62
    3
 10
295.47277604530314
 20
540.07173843121404
 11
295.47277604530314
 21
547.12277386449909
  0
LINE
  8
_0-3_躯体と製品
  6
CONTINUOUS
 62
    3
 10
296.42044008906009
 20
539.07310889645953
 11
301.46455325383005
 21
538.80875812704164
  0
ARC
  8
_0-3_躯体と製品
  6
CONTINUOUS
 62
    3
 10
296.47277604530319
 20
540.07173843121404
 40
1
 50
180
 51
266.99999999999437
  0
LINE
  8
_0-3_躯体と製品
  6
CONTINUOUS
 62
    3
 10
292.97277604530319
 20
538.14760540814268
 11
292.97277604530319
 21
545.62277386449909
  0
LINE
  8
_0-3_躯体と製品
  6
CONTINUOUS
 62
    3
 10
294.86810413281711
 20
536.15034633863354
 11
301.30754538510109
 21
535.81286952277765
  0
ARC
  8
_0-3_躯体と製品
  6
CONTINUOUS
 62
    3
 10
294.97277604530319
 20
538.14760540814268
 40
2
 50
180
 51
266.99999999999437
  0
LINE
  8
_0-3_躯体と製品
  6
CONTINUOUS
 62
    3
 10
277.37277604530306
 20
588.62277386449909
 11
277.37277604530306
 21
591.87277386449909
  0
ARC
  8
_0-3_躯体と製品
  6
CONTINUOUS
 62
    3
 10
278.87277604530306
 20
588.62277386449909
 40
1.5
 50
180
 51
240.25511870305937
  0
LINE
  8
_0-3_躯体と製品
  6
CONTINUOUS
 62
    3
 10
278.12856763776699
 20
587.32040915131256
 11
281.77277604530315
 21
585.23800434700638
  0
LINE
  8
_0-3_躯体と製品
  6
CONTINUOUS
 62
    3
 10
281.77277604530315
 20
585.23800434700638
 11
281.77277604530315
 21
583.72277386449912
  0
LINE
  8
_0-3_躯体と製品
  6
DASHED1
 62
    7
 10
303.46181232333902
 20
538.70408621455556
 11
331.92275406384402
 21
537.21251146163172
  0
ARC
  8
_0-3_躯体と製品
  6
DASHED1
 62
    7
 10
331.84425012948014
 20
535.71456715949989
 40
1.5000000000000009
 50
266.99999999999437
 51
86.999999999994429
  0
LINE
  8
_0-3_躯体と製品
  6
DASHED1
 62
    7
 10
328.27054282347518
 20
534.39979870421814
 11
331.76574619511604
 21
534.21662285736795
  0
LINE
  8
_0-3_躯体と製品
  6
DASHED1
 62
    7
 10
328.27054282347518
 20
534.39979870421814
 11
328.322878779718
 21
535.39842823897254
  0
LINE
  8
_0-3_躯体と製品
  6
DASHED1
 62
    7
 10
308.35028808462607
 20
536.44514736383144
 11
328.322878779718
 21
535.39842823897254
  0
LINE
  8
_0-3_躯体と製品
  6
DASHED1
 62
    7
 10
308.29795212838309
 20
535.44651782907704
 11
308.35028808462607
 21
536.44514736383144
  0
LINE
  8
_0-3_躯体と製品
  6
DASHED1
 62
    7
 10
303.30480445461109
 20
535.70819761029168
 11
308.29795212838309
 21
535.44651782907704
  0
LINE
  8
_0-3_躯体と製品
  6
CONTINUOUS
 62
    4
 10
305.17933995940808
 20
561.14495219024559
 11
304.66485147333515
 21
561.65944067631858
  0
LINE
  8
_0-3_躯体と製品
  6
CONTINUOUS
 62
    4
 10
304.94382815631508
 20
556.65111928385022
 11
304.42933967024214
 21
557.16560776992287
  0
LINE
  8
_0-3_躯体と製品
  6
CONTINUOUS
 62
    4
 10
306.43625657800618
 20
556.57290442453052
 11
304.4997646458981
 21
558.50939635663894
  0
LINE
  8
_0-3_躯体と製品
  6
CONTINUOUS
 62
    4
 10
307.92868499969995
 20
556.49468956521048
 11
304.57018962155416
 21
559.85318494335661
  0
LINE
  8
_0-3_躯体と製品
  6
CONTINUOUS
 62
    4
 10
309.42111342139316
 20
556.41647470589044
 11
305.19409541045917
 21
560.64349271682454
  0
LINE
  8
_0-3_躯体と製品
  6
CONTINUOUS
 62
    4
 10
310.91354184308602
 20
556.33825984657039
 11
306.68652383215203
 21
560.56527785750461
  0
LINE
  8
_0-3_躯体と製品
  6
CONTINUOUS
 62
    4
 10
312.405970264779
 20
556.26004498725069
 11
308.17895225384501
 21
560.48706299818468
  0
LINE
  8
_0-3_躯体と製品
  6
CONTINUOUS
 62
    4
 10
313.89839868647209
 20
556.18183012793122
 11
309.6713806755381
 21
560.4088481388651
  0
LINE
  8
_0-3_躯体と製品
  6
CONTINUOUS
 62
    4
 10
315.39082710816507
 20
556.10361526861107
 11
311.16380909723108
 21
560.33063327954528
  0
LINE
  8
_0-3_躯体と製品
  6
CONTINUOUS
 62
    4
 10
316.88325552985816
 20
556.02540040929171
 11
312.65623751892514
 21
560.25241842022524
  0
LINE
  8
_0-3_躯体と製品
  6
CONTINUOUS
 62
    4
 10
318.37568395154909
 20
555.94718554997189
 11
314.14866594061601
 21
560.1742035609052
  0
LINE
  8
_0-3_躯体と製品
  6
CONTINUOUS
 62
    4
 10
319.40617984816805
 20
556.33090321572661
 11
315.64109436230916
 21
560.09598870158584
  0
LINE
  8
_0-3_躯体と製品
  6
CONTINUOUS
 62
    4
 10
319.54702979947911
 20
559.01848038916205
 11
318.62595120569495
 21
559.9395589829461
  0
LINE
  8
_0-3_躯体と製品
  6
CONTINUOUS
 62
    4
 10
319.47660482382304
 20
557.67469180244461
 11
317.13352278400208
 21
560.01777384226602
  0
LINE
  8
_0-3_躯体と製品
  6
DASHED1
 62
    7
 10
242.58143004530308
 20
565.77210786449905
 11
242.68610004530296
 21
567.76936686449903
  0
LINE
  8
_0-3_躯体と製品
  6
DASHED1
 62
    7
 10
260.47277604530319
 20
566.62277286449932
 11
272.47277604530319
 21
566.62277286449932
  0
LINE
  8
_0-3_躯体と製品
  6
DASHED1
 62
    7
 10
252.67239504530315
 20
557.99953686449896
 11
257.33037504530313
 21
556.30417086449916
  0
LINE
  8
_0-3_躯体と製品
  6
DASHED1
 62
    7
 10
264.27641604530305
 20
568.94511186449904
 11
257.672396045303
 21
568.00168086449912
  0
LINE
  8
_0-3_躯体と製品
  6
DASHED1
 62
    7
 10
238.34222004530307
 20
560.75332686449929
 11
236.47277604530319
 21
562.62277386449909
  0
LINE
  8
_0-3_躯体と製品
  6
DASHED1
 62
    7
 10
237.692954045303
 20
557.21449686449932
 11
235.69569504530301
 21
557.10982686449915
  0
LINE
  8
_0-3_躯体と製品
  6
DASHED1
 62
    7
 10
237.58828104530312
 20
559.21175586449942
 11
237.692954045303
 21
557.21449686449932
  0
LINE
  8
_0-3_躯体と製品
  6
DASHED1
 62
    7
 10
239.58554004530311
 20
559.31642886449902
 11
237.58828104530312
 21
559.21175586449942
  0
LINE
  8
_0-3_躯体と製品
  6
DASHED1
 62
    7
 10
240.68884104530298
 20
557.371504864499
 11
239.58554004530311
 21
559.31642886449902
  0
LINE
  8
_0-3_躯体と製品
  6
DASHED1
 62
    7
 10
242.68610004530296
 20
557.47617786449905
 11
240.68884104530298
 21
557.371504864499
  0
LINE
  8
_0-3_躯体と製品
  6
DASHED1
 62
    7
 10
242.58143004530308
 20
559.47343686449904
 11
242.68610004530296
 21
557.47617786449905
  0
LINE
  8
_0-3_躯体と製品
  6
DASHED1
 62
    7
 10
244.57868904530307
 20
559.57810986449931
 11
242.58143004530308
 21
559.47343686449904
  0
LINE
  8
_0-3_躯体と製品
  6
DASHED1
 62
    7
 10
245.68199004530311
 20
557.63318586449896
 11
244.57868904530307
 21
559.57810986449931
  0
LINE
  8
_0-3_躯体と製品
  6
DASHED1
 62
    7
 10
247.67924904530315
 20
557.737858864499
 11
245.68199004530311
 21
557.63318586449896
  0
LINE
  8
_0-3_躯体と製品
  6
DASHED1
 62
    7
 10
247.5745760453031
 20
559.73511786449899
 11
247.67924904530315
 21
557.737858864499
  0
LINE
  8
_0-3_躯体と製品
  6
DASHED1
 62
    7
 10
249.57183504530309
 20
559.83978786449916
 11
247.5745760453031
 21
559.73511786449899
  0
LINE
  8
_0-3_躯体と製品
  6
DASHED1
 62
    7
 10
250.67513604530316
 20
557.89486686449936
 11
249.57183504530309
 21
559.83978786449916
  0
LINE
  8
_0-3_躯体と製品
  6
DASHED1
 62
    7
 10
252.67239504530315
 20
557.99953686449896
 11
250.67513604530316
 21
557.89486686449936
  0
LINE
  8
_0-3_躯体と製品
  6
DASHED1
 62
    7
 10
252.56772504530301
 20
559.99679586449918
 11
252.67239504530315
 21
557.99953686449896
  0
LINE
  8
_0-3_躯体と製品
  6
DASHED1
 62
    7
 10
254.56498404530322
 20
560.10146886449934
 11
252.56772504530301
 21
559.99679586449918
  0
LINE
  8
_0-3_躯体と製品
  6
DASHED1
 62
    7
 10
255.66828504530309
 20
558.15654486449921
 11
254.56498404530322
 21
560.10146886449934
  0
LINE
  8
_0-3_躯体と製品
  6
DASHED1
 62
    7
 10
233.51525904530311
 20
560.50035786449916
 11
264.47277504530302
 21
562.12277286449932
  0
LINE
  8
_0-3_躯体と製品
  6
DASHED1
 62
    7
 10
233.59376304530315
 20
559.00241286449909
 11
233.51525904530311
 21
560.50035786449916
  0
LINE
  8
_0-3_躯体と製品
  6
DASHED1
 62
    7
 10
235.69569504530301
 20
557.10982686449915
 11
233.59376304530315
 21
559.00241286449909
  0
LINE
  8
_0-3_躯体と製品
  6
DASHED1
 62
    7
 10
235.5125180453031
 20
560.60503086449944
 11
235.69569504530301
 21
557.10982686449915
  0
LINE
  8
_0-3_躯体と製品
  6
DASHED1
 62
    7
 10
257.66554404530308
 20
558.26121786449903
 11
255.66828504530309
 21
558.15654486449921
  0
LINE
  8
_0-3_躯体と製品
  6
DASHED1
 62
    7
 10
257.56087104530303
 20
560.25847686449924
 11
257.66554404530308
 21
558.26121786449903
  0
LINE
  8
_0-3_躯体と製品
  6
DASHED1
 62
    7
 10
259.55813004530302
 20
560.36314686449896
 11
257.56087104530303
 21
560.25847686449924
  0
LINE
  8
_0-3_躯体と製品
  6
DASHED1
 62
    7
 10
272.47277604530319
 20
557.62277286449932
 11
267.47277504530302
 21
558.62277186449933
  0
LINE
  8
_0-3_躯体と製品
  6
DASHED1
 62
    7
 10
264.47277504530302
 20
562.12277286449932
 11
264.47277504530302
 21
563.12277186449933
  0
LINE
  8
_0-3_躯体と製品
  6
DASHED1
 62
    7
 10
237.692954045303
 20
568.03104786449933
 11
235.69569504530301
 21
568.13571786449904
  0
LINE
  8
_0-3_躯体と製品
  6
DASHED1
 62
    7
 10
237.58828104530312
 20
566.03378886449934
 11
237.692954045303
 21
568.03104786449933
  0
LINE
  8
_0-3_躯体と製品
  6
DASHED1
 62
    7
 10
239.58554004530311
 20
565.92911586449918
 11
237.58828104530312
 21
566.03378886449934
  0
LINE
  8
_0-3_躯体と製品
  6
DASHED1
 62
    7
 10
240.68884104530298
 20
567.87403986449908
 11
239.58554004530311
 21
565.92911586449918
  0
LINE
  8
_0-3_躯体と製品
  6
DASHED1
 62
    7
 10
242.68610004530296
 20
567.76936686449903
 11
240.68884104530298
 21
567.87403986449908
  0
LINE
  8
_0-3_躯体と製品
  6
DASHED1
 62
    7
 10
244.57868904530307
 20
565.667434864499
 11
242.58143004530308
 21
565.77210786449905
  0
LINE
  8
_0-3_躯体と製品
  6
DASHED1
 62
    7
 10
245.68199004530311
 20
567.61235886449913
 11
244.57868904530307
 21
565.667434864499
  0
LINE
  8
_0-3_躯体と製品
  6
DASHED1
 62
    7
 10
247.67924904530315
 20
567.50768586449908
 11
245.68199004530311
 21
567.61235886449913
  0
LINE
  8
_0-3_躯体と製品
  6
DASHED1
 62
    7
 10
247.5745760453031
 20
565.51042686449944
 11
247.67924904530315
 21
567.50768586449908
  0
LINE
  8
_0-3_躯体と製品
  6
DASHED1
 62
    7
 10
249.57183504530309
 20
565.40575686449904
 11
247.5745760453031
 21
565.51042686449944
  0
LINE
  8
_0-3_躯体と製品
  6
DASHED1
 62
    7
 10
250.67513604530316
 20
567.35067786449918
 11
249.57183504530309
 21
565.40575686449904
  0
LINE
  8
_0-3_躯体と製品
  6
DASHED1
 62
    7
 10
252.67239504530315
 20
567.24600786449901
 11
250.67513604530316
 21
567.35067786449918
  0
LINE
  8
_0-3_躯体と製品
  6
DASHED1
 62
    7
 10
252.56772504530301
 20
565.24874886449925
 11
252.67239504530315
 21
567.24600786449901
  0
LINE
  8
_0-3_躯体と製品
  6
DASHED1
 62
    7
 10
254.56498404530322
 20
565.14407586449909
 11
252.56772504530301
 21
565.24874886449925
  0
LINE
  8
_0-3_躯体と製品
  6
DASHED1
 62
    7
 10
255.66828504530309
 20
567.08899986449933
 11
254.56498404530322
 21
565.14407586449909
  0
LINE
  8
_0-3_躯体と製品
  6
DASHED1
 62
    7
 10
233.51525904530311
 20
564.74518686449915
 11
264.47277504530302
 21
563.12277186449933
  0
LINE
  8
_0-3_躯体と製品
  6
DASHED1
 62
    7
 10
233.59376304530315
 20
566.24313186449945
 11
233.51525904530311
 21
564.74518686449915
  0
LINE
  8
_0-3_躯体と製品
  6
DASHED1
 62
    7
 10
235.69569504530301
 20
568.13571786449904
 11
233.59376304530315
 21
566.24313186449945
  0
LINE
  8
_0-3_躯体と製品
  6
DASHED1
 62
    7
 10
235.5125180453031
 20
564.64051386449933
 11
235.69569504530301
 21
568.13571786449904
  0
LINE
  8
_0-3_躯体と製品
  6
DASHED1
 62
    7
 10
257.66554404530308
 20
566.98432686449905
 11
255.66828504530309
 21
567.08899986449933
  0
LINE
  8
_0-3_躯体と製品
  6
DASHED1
 62
    7
 10
257.56087104530303
 20
564.98706786449929
 11
257.66554404530308
 21
566.98432686449905
  0
LINE
  8
_0-3_躯体と製品
  6
DASHED1
 62
    7
 10
259.55813004530302
 20
564.88239786449913
 11
257.56087104530303
 21
564.98706786449929
  0
LINE
  8
_0-3_躯体と製品
  6
DASHED1
 62
    7
 10
238.34222004530307
 20
564.49221786449914
 11
236.47277604530319
 21
562.62277386449909
  0
LINE
  8
_0-3_躯体と製品
  6
DASHED1
 62
    7
 10
267.47277504530302
 20
562.62277386449909
 11
272.47277604530319
 21
562.62277386449909
  0
LINE
  8
_0-3_躯体と製品
  6
DASHED1
 62
    7
 10
272.47277604530319
 20
561.62277186449944
 11
267.47277504530302
 21
562.62277386449909
  0
LINE
  8
_0-3_躯体と製品
  6
DASHED1
 62
    7
 10
272.47277604530319
 20
563.62277286449898
 11
267.47277504530302
 21
562.62277386449909
  0
LINE
  8
_0-3_躯体と製品
  6
DASHED1
 62
    7
 10
272.47277604530319
 20
567.62277186449933
 11
267.47277504530302
 21
566.62277286449932
  0
LINE
  8
_0-3_躯体と製品
  6
DASHED1
 62
    7
 10
260.47277604530319
 20
566.62277286449932
 11
259.55813004530302
 21
564.88239786449913
  0
ARC
  8
_0-3_躯体と製品
  6
DASHED1
 62
    7
 10
264.21984804530308
 20
569.34109086449905
 40
0.3999990000000001
 50
278.13010199999781
 51
8.1301020000015125
  0
LINE
  8
_0-3_躯体と製品
  6
DASHED1
 62
    7
 10
264.58771104530302
 20
569.59448586449912
 11
264.61582704530321
 21
569.39766186449913
  0
ARC
  8
_0-3_躯体と製品
  6
DASHED1
 62
    7
 10
264.19172904530302
 20
569.53791786449915
 40
0.3999990000000001
 50
8.1301020000014788
 51
98.29846599999712
  0
LINE
  8
_0-3_躯体と製品
  6
DASHED1
 62
    7
 10
257.33037504530313
 20
568.94137386449904
 11
264.13399704530298
 21
569.93372886449924
  0
LINE
  8
_0-3_躯体と製品
  6
DASHED1
 62
    7
 10
264.27641604530305
 20
556.30043286449916
 11
257.672396045303
 21
557.24386386449896
  0
ARC
  8
_0-3_躯体と製品
  6
DASHED1
 62
    7
 10
264.21984804530308
 20
555.90445386449915
 40
0.3999990000000001
 50
351.8698979999985
 51
81.869898000002181
  0
LINE
  8
_0-3_躯体と製品
  6
DASHED1
 62
    7
 10
264.58771104530302
 20
555.65105886449919
 11
264.61582704530321
 21
555.84788586449895
  0
ARC
  8
_0-3_躯体と製品
  6
DASHED1
 62
    7
 10
264.19172904530302
 20
555.70762686449893
 40
0.3999990000000001
 50
261.70153400000288
 51
351.8698979999985
  0
LINE
  8
_0-3_躯体と製品
  6
DASHED1
 62
    7
 10
257.33037504530313
 20
556.30417086449916
 11
264.13399704530298
 21
555.31181586449895
  0
LINE
  8
_0-3_躯体と製品
  6
DASHED1
 62
    7
 10
252.67239504530315
 20
559.06371486449905
 11
257.672396045303
 21
557.24386386449896
  0
LINE
  8
_0-3_躯体と製品
  6
DASHED1
 62
    7
 10
252.67239504530315
 20
567.24600786449901
 11
257.33037504530313
 21
568.94137386449904
  0
LINE
  8
_0-3_躯体と製品
  6
DASHED1
 62
    7
 10
252.67239504530315
 20
566.18182986449915
 11
257.672396045303
 21
568.00168086449912
  0
LINE
  8
_0-3_躯体と製品
  6
DASHED1
 62
    7
 10
260.47277604530319
 20
558.62277186449933
 11
272.47277604530319
 21
558.62277186449933
  0
LINE
  8
_0-3_躯体と製品
  6
DASHED1
 62
    7
 10
259.55813004530302
 20
560.36314686449896
 11
260.47277604530319
 21
558.62277186449933
  0
LINE
  8
_0-3_躯体と製品
  6
CONTINUOUS
 62
    3
 10
274.47277604530314
 20
567.62277386449909
 11
274.97277604530319
 21
567.62277386449909
  0
LINE
  8
_0-3_躯体と製品
  6
CONTINUOUS
 62
    3
 10
274.47277604530314
 20
557.62277386449898
 11
274.97277604530319
 21
557.62277386449898
  0
LINE
  8
_0-3_躯体と製品
  6
CONTINUOUS
 62
    3
 10
276.97277604530319
 20
563.12277386449909
 11
276.47277604530319
 21
562.62277386449909
  0
LINE
  8
_0-3_躯体と製品
  6
CONTINUOUS
 62
    3
 10
276.97277604530319
 20
562.12277386449898
 11
276.47277604530319
 21
562.62277386449909
  0
LINE
  8
_0-3_躯体と製品
  6
CONTINUOUS
 62
    3
 10
274.47277604530314
 20
567.62277386449909
 11
274.47277604530314
 21
557.62277386449898
  0
LINE
  8
_0-3_躯体と製品
  6
CONTINUOUS
 62
    3
 10
274.47277604530314
 20
609.12277386449909
 11
274.97277604530319
 21
609.12277386449909
  0
LINE
  8
_0-3_躯体と製品
  6
CONTINUOUS
 62
    3
 10
274.97277604530319
 20
609.12277386449909
 11
274.97277604530319
 21
596.12277386449909
  0
LINE
  8
_0-3_躯体と製品
  6
CONTINUOUS
 62
    3
 10
274.97277604530319
 20
596.12277386449909
 11
274.47277604530314
 21
596.12277386449909
  0
LINE
  8
_0-3_躯体と製品
  6
CONTINUOUS
 62
    3
 10
274.47277604530314
 20
594.62277386449909
 11
274.97277604530319
 21
594.62277386449909
  0
ARC
  8
_0-3_躯体と製品
  6
CONTINUOUS
 62
    3
 10
284.47277604530319
 20
604.42277386449905
 40
0.2999999999999998
 50
180
 51
270
  0
LINE
  8
_0-3_躯体と製品
  6
CONTINUOUS
 62
    3
 10
284.47277604530319
 20
604.12277386449898
 11
289.0727760453031
 21
604.12277386449898
  0
LINE
  8
_0-3_躯体と製品
  6
CONTINUOUS
 62
    3
 10
282.97277604530319
 20
603.92277386449905
 11
282.97277604530319
 21
608.62277386449921
  0
ARC
  8
_0-3_躯体と製品
  6
CONTINUOUS
 62
    3
 10
283.97277604530319
 20
603.92277386449905
 40
1
 50
180
 51
270
  0
LINE
  8
_0-3_躯体と製品
  6
CONTINUOUS
 62
    3
 10
283.97277604530319
 20
602.92277386449894
 11
289.0727760453031
 21
602.92277386449894
  0
ARC
  8
_0-3_躯体と製品
  6
CONTINUOUS
 62
    3
 10
282.47277604530319
 20
608.62277386449921
 40
0.5
 50
0
 51
90
  0
LINE
  8
_0-3_躯体と製品
  6
CONTINUOUS
 62
    3
 10
282.47277604530319
 20
609.12277386449909
 11
277.47277604530314
 21
609.12277386449909
  0
ARC
  8
_0-3_躯体と製品
  6
CONTINUOUS
 62
    3
 10
277.47277604530314
 20
608.62277386449921
 40
0.5
 50
90
 51
180
  0
LINE
  8
_0-3_躯体と製品
  6
CONTINUOUS
 62
    3
 10
276.97277604530319
 20
608.62277386449921
 11
276.97277604530319
 21
596.62277386449909
  0
ARC
  8
_0-3_躯体と製品
  6
CONTINUOUS
 62
    3
 10
289.0727760453031
 20
603.52277386449896
 40
0.5999999999999996
 50
270
 51
90
  0
ARC
  8
_0-3_躯体と製品
  6
CONTINUOUS
 62
    3
 10
277.47277604530314
 20
594.12277386449887
 40
0.5
 50
90
 51
180
  0
ARC
  8
_0-3_躯体と製品
  6
CONTINUOUS
 62
    3
 10
277.47277604530314
 20
596.62277386449909
 40
0.5
 50
180
 51
270
  0
LINE
  8
_0-3_躯体と製品
  6
CONTINUOUS
 62
    3
 10
282.97277604530319
 20
596.12277386449909
 11
277.47277604530314
 21
596.12277386449909
  0
ARC
  8
_0-3_躯体と製品
  6
CONTINUOUS
 62
    3
 10
282.97277604530319
 20
595.62277386449909
 40
0.5
 50
0
 51
90
  0
LINE
  8
_0-3_躯体と製品
  6
CONTINUOUS
 62
    3
 10
283.47277604530314
 20
589.62277386449887
 11
283.47277604530314
 21
595.62277386449909
  0
ARC
  8
_0-3_躯体と製品
  6
CONTINUOUS
 62
    3
 10
282.47277604530319
 20
589.62277386449887
 40
1
 50
270
 51
0
  0
LINE
  8
_0-3_躯体と製品
  6
CONTINUOUS
 62
    3
 10
282.47277604530319
 20
588.62277386449909
 11
280.57277604530304
 21
588.62277386449909
  0
LINE
  8
_0-3_躯体と製品
  6
CONTINUOUS
 62
    3
 10
281.97277604530314
 20
594.12277386449887
 11
281.97277604530314
 21
590.32277386449914
  0
ARC
  8
_0-3_躯体と製品
  6
CONTINUOUS
 62
    3
 10
281.47277604530319
 20
594.12277386449887
 40
0.5
 50
0
 51
90
  0
LINE
  8
_0-3_躯体と製品
  6
CONTINUOUS
 62
    3
 10
281.47277604530319
 20
594.62277386449909
 11
277.47277604530314
 21
594.62277386449909
  0
LINE
  8
_0-3_躯体と製品
  6
CONTINUOUS
 62
    3
 10
281.47277604530319
 20
589.82277386449925
 11
280.57277604530304
 21
589.82277386449925
  0
ARC
  8
_0-3_躯体と製品
  6
CONTINUOUS
 62
    3
 10
281.47277604530319
 20
590.32277386449914
 40
0.5
 50
270
 51
0
  0
ARC
  8
_0-3_躯体と製品
  6
CONTINUOUS
 62
    3
 10
280.57277604530304
 20
589.22277386449912
 40
0.5999999999999996
 50
90
 51
270
  0
LINE
  8
_0-3_躯体と製品
  6
CONTINUOUS
 62
    3
 10
275.97277604530314
 20
611.42277386449905
 11
275.97277604530314
 21
614.82277386449914
  0
ARC
  8
_0-3_躯体と製品
  6
CONTINUOUS
 62
    3
 10
276.27277604530315
 20
611.42277386449905
 40
0.2999999999999998
 50
180
 51
270
  0
LINE
  8
_0-3_躯体と製品
  6
CONTINUOUS
 62
    3
 10
276.27277604530315
 20
611.12277386449898
 11
277.47277604530314
 21
611.12277386449898
  0
LINE
  8
_0-3_躯体と製品
  6
CONTINUOUS
 62
    3
 10
276.27277604530315
 20
615.12277386449909
 11
277.47277604530314
 21
615.12277386449909
  0
ARC
  8
_0-3_躯体と製品
  6
CONTINUOUS
 62
    3
 10
276.27277604530315
 20
614.82277386449914
 40
0.2999999999999998
 50
90
 51
180
  0
LINE
  8
_0-3_躯体と製品
  6
CONTINUOUS
 62
    3
 10
282.47277604530319
 20
615.12277386449909
 11
284.97277604530314
 21
615.12277386449909
  0
LINE
  8
_0-3_躯体と製品
  6
CONTINUOUS
 62
    3
 10
282.47277604530319
 20
611.12277386449898
 11
284.97277604530314
 21
611.12277386449898
  0
LINE
  8
_0-3_躯体と製品
  6
CONTINUOUS
 62
    3
 10
282.47277604530319
 20
615.12277386449909
 11
281.97277604530314
 21
614.62277386449898
  0
LINE
  8
_0-3_躯体と製品
  6
CONTINUOUS
 62
    3
 10
281.97277604530314
 20
614.62277386449898
 11
281.47277604530319
 21
615.12277386449909
  0
LINE
  8
_0-3_躯体と製品
  6
CONTINUOUS
 62
    3
 10
281.47277604530319
 20
615.12277386449909
 11
280.97277604530319
 21
614.62277386449898
  0
LINE
  8
_0-3_躯体と製品
  6
CONTINUOUS
 62
    3
 10
280.97277604530319
 20
614.62277386449898
 11
280.47277604530314
 21
615.12277386449909
  0
LINE
  8
_0-3_躯体と製品
  6
CONTINUOUS
 62
    3
 10
280.47277604530314
 20
615.12277386449909
 11
279.97277604530319
 21
614.62277386449898
  0
LINE
  8
_0-3_躯体と製品
  6
CONTINUOUS
 62
    3
 10
279.97277604530319
 20
614.62277386449898
 11
279.47277604530319
 21
615.12277386449909
  0
LINE
  8
_0-3_躯体と製品
  6
CONTINUOUS
 62
    3
 10
279.47277604530319
 20
615.12277386449909
 11
278.97277604530314
 21
614.62277386449898
  0
LINE
  8
_0-3_躯体と製品
  6
CONTINUOUS
 62
    3
 10
278.97277604530314
 20
614.62277386449898
 11
278.47277604530319
 21
615.12277386449909
  0
LINE
  8
_0-3_躯体と製品
  6
CONTINUOUS
 62
    3
 10
278.47277604530319
 20
615.12277386449909
 11
277.972776045302
 21
614.62277386449898
  0
LINE
  8
_0-3_躯体と製品
  6
CONTINUOUS
 62
    3
 10
277.972776045302
 20
614.62277386449898
 11
277.47277604530314
 21
615.12277386449909
  0
LINE
  8
_0-3_躯体と製品
  6
CONTINUOUS
 62
    3
 10
282.47277604530319
 20
611.12277386449898
 11
281.97277604530314
 21
611.62277386449909
  0
LINE
  8
_0-3_躯体と製品
  6
CONTINUOUS
 62
    3
 10
281.97277604530314
 20
611.62277386449909
 11
281.47277604530319
 21
611.12277386449898
  0
LINE
  8
_0-3_躯体と製品
  6
CONTINUOUS
 62
    3
 10
281.47277604530319
 20
611.12277386449898
 11
280.97277604530319
 21
611.62277386449909
  0
LINE
  8
_0-3_躯体と製品
  6
CONTINUOUS
 62
    3
 10
280.97277604530319
 20
611.62277386449909
 11
280.47277604530314
 21
611.12277386449898
  0
LINE
  8
_0-3_躯体と製品
  6
CONTINUOUS
 62
    3
 10
280.47277604530314
 20
611.12277386449898
 11
279.97277604530319
 21
611.62277386449909
  0
LINE
  8
_0-3_躯体と製品
  6
CONTINUOUS
 62
    3
 10
279.97277604530319
 20
611.62277386449909
 11
279.47277604530319
 21
611.12277386449898
  0
LINE
  8
_0-3_躯体と製品
  6
CONTINUOUS
 62
    3
 10
279.47277604530319
 20
611.12277386449898
 11
278.97277604530314
 21
611.62277386449909
  0
LINE
  8
_0-3_躯体と製品
  6
CONTINUOUS
 62
    3
 10
278.97277604530314
 20
611.62277386449909
 11
278.47277604530319
 21
611.12277386449898
  0
LINE
  8
_0-3_躯体と製品
  6
CONTINUOUS
 62
    3
 10
278.47277604530319
 20
611.12277386449898
 11
277.972776045302
 21
611.62277386449909
  0
LINE
  8
_0-3_躯体と製品
  6
CONTINUOUS
 62
    3
 10
277.972776045302
 20
611.62277386449909
 11
277.47277604530314
 21
611.12277386449898
  0
LINE
  8
_0-3_躯体と製品
  6
CONTINUOUS
 62
    3
 10
274.97277604530319
 20
617.12277386449909
 11
283.47277604530314
 21
617.12277386449909
  0
ARC
  8
_0-3_躯体と製品
  6
CONTINUOUS
 62
    3
 10
274.97277604530319
 20
616.62277386449887
 40
0.5
 50
90
 51
180
  0
LINE
  8
_0-3_躯体と製品
  6
CONTINUOUS
 62
    3
 10
274.47277604530314
 20
616.62277386449887
 11
274.47277604530314
 21
609.12277386449909
  0
LINE
  8
_0-3_躯体と製品
  6
CONTINUOUS
 62
    3
 10
283.47277604530314
 20
617.12277386449909
 11
283.47277604530314
 21
616.32277386449914
  0
LINE
  8
_0-3_躯体と製品
  6
CONTINUOUS
 62
    3
 10
284.17277604530301
 20
609.92277386449905
 11
284.87277604530306
 21
609.92277386449905
  0
LINE
  8
_0-3_躯体と製品
  6
CONTINUOUS
 62
    3
 10
284.17277604530301
 20
604.42277386449905
 11
284.17277604530301
 21
609.92277386449905
  0
LINE
  8
_0-3_躯体と製品
  6
CONTINUOUS
 62
    3
 10
283.47277604530314
 20
616.32277386449914
 11
284.87277604530306
 21
616.32277386449914
  0
LINE
  8
_0-3_躯体と製品
  6
CONTINUOUS
 62
    3
 10
274.47277604530314
 20
596.12277386449909
 11
274.47277604530314
 21
594.62277386449909
  0
ARC
  8
_0-3_躯体と製品
  6
CONTINUOUS
 62
    3
 10
284.87277604530306
 20
610.52277386449896
 40
0.5999999999999996
 50
270
 51
90
  0
ARC
  8
_0-3_躯体と製品
  6
CONTINUOUS
 62
    3
 10
284.87277604530306
 20
615.722773864499
 40
0.5999999999999996
 50
270
 51
90
  0
LINE
  8
_0-3_躯体と製品
  6
CONTINUOUS
 62
    3
 10
274.97277604530319
 20
594.62277386449909
 11
274.97277604530319
 21
583.12277386449909
  0
LINE
  8
_0-3_躯体と製品
  6
CONTINUOUS
 62
    3
 10
276.97277604530319
 20
583.62277386449921
 11
276.97277604530319
 21
594.12277386449887
  0
LINE
  8
_0-3_躯体と製品
  6
CONTINUOUS
 62
    3
 10
274.97277604530319
 20
583.12277386449909
 11
274.47277604530314
 21
583.12277386449909
  0
LINE
  8
_0-3_躯体と製品
  6
CONTINUOUS
 62
    3
 10
274.47277604530314
 20
581.62277386449898
 11
274.97277604530319
 21
581.62277386449898
  0
LINE
  8
_0-3_躯体と製品
  6
CONTINUOUS
 62
    3
 10
274.97277604530319
 20
581.62277386449898
 11
274.97277604530319
 21
567.62277386449909
  0
LINE
  8
_0-3_躯体と製品
  6
CONTINUOUS
 62
    3
 10
274.97277604530319
 20
557.62277386449898
 11
274.97277604530319
 21
543.62277386449909
  0
LINE
  8
_0-3_躯体と製品
  6
CONTINUOUS
 62
    3
 10
274.97277604530319
 20
543.62277386449909
 11
274.47277604530314
 21
543.62277386449909
  0
ARC
  8
_0-3_躯体と製品
  6
CONTINUOUS
 62
    3
 10
277.47277604530314
 20
583.62277386449921
 40
0.5
 50
180
 51
270
  0
LINE
  8
_0-3_躯体と製品
  6
CONTINUOUS
 62
    3
 10
277.47277604530314
 20
583.12277386449909
 11
286.47277604530314
 21
583.12277386449909
  0
LINE
  8
_0-3_躯体と製品
  6
CONTINUOUS
 62
    3
 10
277.47277604530314
 20
537.12277386449898
 11
283.22277604530319
 21
537.12277386449898
  0
ARC
  8
_0-3_躯体と製品
  6
CONTINUOUS
 62
    3
 10
277.47277604530314
 20
537.62277386449909
 40
0.5
 50
180
 51
270
  0
ARC
  8
_0-3_躯体と製品
  6
CONTINUOUS
 62
    3
 10
277.47277604530314
 20
535.12277386449898
 40
0.5
 50
90
 51
180
  0
LINE
  8
_0-3_躯体と製品
  6
CONTINUOUS
 62
    3
 10
277.47277604530314
 20
535.62277386449909
 11
279.97277604530319
 21
535.62277386449909
  0
LINE
  8
_0-3_躯体と製品
  6
CONTINUOUS
 62
    3
 10
279.97277604530319
 20
535.62277386449909
 11
280.97277604530319
 21
536.12277386449898
  0
LINE
  8
_0-3_躯体と製品
  6
CONTINUOUS
 62
    3
 10
280.97277604530319
 20
536.12277386449898
 11
280.97277604530319
 21
535.62277386449909
  0
LINE
  8
_0-3_躯体と製品
  6
CONTINUOUS
 62
    3
 10
280.97277604530319
 20
535.62277386449909
 11
281.97277604530314
 21
536.12277386449898
  0
LINE
  8
_0-3_躯体と製品
  6
CONTINUOUS
 62
    3
 10
281.97277604530314
 20
536.12277386449898
 11
281.97277604530314
 21
535.62277386449909
  0
ARC
  8
_0-3_躯体と製品
  6
CONTINUOUS
 62
    3
 10
283.22277604530319
 20
536.37277386449898
 40
0.75
 50
270
 51
90
  0
ARC
  8
_0-3_躯体と製品
  6
CONTINUOUS
 62
    3
 10
277.47277604530314
 20
581.12277386449909
 40
0.5
 50
90
 51
180
  0
ARC
  8
_0-3_躯体と製品
  6
CONTINUOUS
 62
    3
 10
286.47277604530314
 20
582.62277386449898
 40
0.5
 50
0
 51
90
  0
LINE
  8
_0-3_躯体と製品
  6
CONTINUOUS
 62
    3
 10
286.47277604530314
 20
581.62277386449898
 11
277.47277604530314
 21
581.62277386449898
  0
ARC
  8
_0-3_躯体と製品
  6
CONTINUOUS
 62
    3
 10
286.47277604530314
 20
582.12277386449909
 40
0.5
 50
270
 51
0
  0
LINE
  8
_0-3_躯体と製品
  6
CONTINUOUS
 62
    3
 10
286.97277604530319
 20
582.12277386449909
 11
286.97277604530319
 21
582.62277386449898
  0
LINE
  8
_0-3_躯体と製品
  6
CONTINUOUS
 62
    3
 10
276.97277604530319
 20
541.62277386449887
 11
276.97277604530319
 21
537.62277386449909
  0
ARC
  8
_0-3_躯体と製品
  6
CONTINUOUS
 62
    3
 10
277.47277604530314
 20
541.62277386449887
 40
0.5
 50
90
 51
180
  0
LINE
  8
_0-3_躯体と製品
  6
CONTINUOUS
 62
    3
 10
277.47277604530314
 20
542.12277386449909
 11
288.22277604530319
 21
542.12277386449909
  0
LINE
  8
_0-3_躯体と製品
  6
CONTINUOUS
 62
    3
 10
276.97277604530319
 20
544.12277386449898
 11
276.97277604530319
 21
562.12277386449898
  0
ARC
  8
_0-3_躯体と製品
  6
CONTINUOUS
 62
    3
 10
277.47277604530314
 20
544.12277386449898
 40
0.5
 50
180
 51
270
  0
LINE
  8
_0-3_躯体と製品
  6
CONTINUOUS
 62
    3
 10
277.47277604530314
 20
543.62277386449909
 11
288.22277604530319
 21
543.62277386449909
  0
ARC
  8
_0-3_躯体と製品
  6
CONTINUOUS
 62
    3
 10
288.22277604530319
 20
542.87277386449909
 40
0.75
 50
270
 51
90
  0
ARC
  8
_0-3_躯体と製品
  6
CONTINUOUS
 62
    3
 10
277.47277604530314
 20
532.12277386449909
 40
0.5
 50
180
 51
270
  0
LINE
  8
_0-3_躯体と製品
  6
CONTINUOUS
 62
    3
 10
277.47277604530314
 20
531.62277386449898
 11
279.97277604530319
 21
531.62277386449898
  0
ARC
  8
_0-3_躯体と製品
  6
CONTINUOUS
 62
    3
 10
283.22277604530319
 20
530.87277386449898
 40
0.75
 50
270
 51
90
  0
LINE
  8
_0-3_躯体と製品
  6
CONTINUOUS
 62
    3
 10
279.97277604530319
 20
531.62277386449898
 11
280.97277604530319
 21
531.12277386449909
  0
LINE
  8
_0-3_躯体と製品
  6
CONTINUOUS
 62
    3
 10
280.97277604530319
 20
531.62277386449898
 11
280.97277604530319
 21
531.12277386449909
  0
LINE
  8
_0-3_躯体と製品
  6
CONTINUOUS
 62
    3
 10
280.97277604530319
 20
531.62277386449898
 11
281.97277604530314
 21
531.12277386449909
  0
LINE
  8
_0-3_躯体と製品
  6
CONTINUOUS
 62
    3
 10
281.97277604530314
 20
531.62277386449898
 11
281.97277604530314
 21
531.12277386449909
  0
LINE
  8
_0-3_躯体と製品
  6
CONTINUOUS
 62
    3
 10
276.97277604530319
 20
532.12277386449909
 11
276.97277604530319
 21
535.12277386449898
  0
LINE
  8
_0-3_躯体と製品
  6
CONTINUOUS
 62
    3
 10
275.47277604530319
 20
532.12277386449909
 11
275.47277604530319
 21
541.62277386449887
  0
ARC
  8
_0-3_躯体と製品
  6
CONTINUOUS
 62
    3
 10
274.97277604530319
 20
532.12277386449909
 40
0.5
 50
270
 51
0
  0
LINE
  8
_0-3_躯体と製品
  6
CONTINUOUS
 62
    3
 10
274.97277604530319
 20
531.62277386449898
 11
274.47277604530314
 21
531.62277386449898
  0
LINE
  8
_0-3_躯体と製品
  6
CONTINUOUS
 62
    3
 10
274.47277604530314
 20
530.12277386449909
 11
274.47277604530314
 21
531.62277386449898
  0
LINE
  8
_0-3_躯体と製品
  6
CONTINUOUS
 62
    3
 10
283.22277604530319
 20
530.12277386449909
 11
274.47277604530314
 21
530.12277386449909
  0
LINE
  8
_0-3_躯体と製品
  6
CONTINUOUS
 62
    3
 10
274.97277604530319
 20
542.12277386449909
 11
274.47277604530314
 21
542.12277386449909
  0
ARC
  8
_0-3_躯体と製品
  6
CONTINUOUS
 62
    3
 10
274.97277604530319
 20
541.62277386449887
 40
0.5
 50
0
 51
90
  0
LINE
  8
_0-3_躯体と製品
  6
CONTINUOUS
 62
    3
 10
283.22277604530319
 20
531.62277386449898
 11
281.97277604530314
 21
531.62277386449898
  0
LINE
  8
_0-3_躯体と製品
  6
CONTINUOUS
 62
    3
 10
283.22277604530319
 20
535.62277386449909
 11
281.97277604530314
 21
535.62277386449909
  0
LINE
  8
_0-3_躯体と製品
  6
CONTINUOUS
 62
    3
 10
274.47277604530314
 20
543.62277386449909
 11
274.47277604530314
 21
542.12277386449909
  0
LINE
  8
_0-3_躯体と製品
  6
CONTINUOUS
 62
    3
 10
274.47277604530314
 20
583.12277386449909
 11
274.47277604530314
 21
581.62277386449898
  0
LINE
  8
_0-3_躯体と製品
  6
CONTINUOUS
 62
    3
 10
276.97277604530319
 20
563.12277386449909
 11
276.97277604530319
 21
581.12277386449909
  0
ARC
  8
_0-3_躯体と製品
  6
CONTINUOUS
 62
    7
 10
286.67277604530295
 20
614.60134529307061
 40
2.021428571428586
 50
42.741244538683617
 51
90
  0
LINE
  8
_0-3_躯体と製品
  6
CONTINUOUS
 62
    3
 10
304.47277604530314
 20
570.32277386449914
 11
296.67277604530301
 21
570.32277386449914
  0
LINE
  8
_0-3_躯体と製品
  6
CONTINUOUS
 62
    3
 10
306.67277604530301
 20
572.52277386449907
 11
306.67277604530301
 21
604.12277386449898
  0
LINE
  8
_0-3_躯体と製品
  6
CONTINUOUS
 62
    3
 10
304.47277604530314
 20
606.32277386449914
 11
287.67277604530301
 21
606.32277386449914
  0
POINT
  8
_0-3_躯体と製品
 62
    4
 10
306.67277604530301
 20
570.32277386449914
  0
LINE
  8
_0-3_躯体と製品
  6
CONTINUOUS
 62
    7
 10
284.97277704530308
 20
605.42277586449882
 11
284.97277704530308
 21
608.92277386449882
  0
ARC
  8
_0-3_躯体と製品
  6
CONTINUOUS
 62
    7
 10
285.47277804530319
 20
605.42277586449882
 40
0.5000010000000001
 50
180
 51
270
  0
ARC
  8
_0-3_躯体と製品
  6
CONTINUOUS
 62
    7
 10
285.47277804530319
 20
605.42277586449882
 40
1.2999989999999988
 50
180
 51
270
  0
LINE
  8
_0-3_躯体と製品
  6
CONTINUOUS
 62
    7
 10
284.17277604530301
 20
608.92277386449882
 11
284.97277704530308
 21
608.92277386449882
  0
LINE
  8
_0-3_躯体と製品
  6
CONTINUOUS
 62
    7
 10
303.87277704530317
 20
604.92277486449859
 11
285.47277804530319
 21
604.92277486449859
  0
ARC
  8
_0-3_躯体と製品
  6
CONTINUOUS
 62
    7
 10
303.87277704530317
 20
603.62277586449886
 40
1.2999989999999988
 50
0
 51
90
  0
ARC
  8
_0-3_躯体と製品
  6
CONTINUOUS
 62
    7
 10
303.87277704530317
 20
603.62277586449886
 40
0.5000010000000001
 50
0
 51
90
  0
LINE
  8
_0-3_躯体と製品
  6
CONTINUOUS
 62
    7
 10
304.37277804530305
 20
603.62277586449886
 11
304.37277804530305
 21
574.92277486449871
  0
LINE
  8
_0-3_躯体と製品
  6
CONTINUOUS
 62
    7
 10
305.17277604530301
 20
603.62277586449886
 11
305.17277604530301
 21
574.92277486449871
  0
LINE
  8
_0-3_躯体と製品
  6
CONTINUOUS
 62
    7
 10
304.37277804530305
 20
574.92277486449871
 11
305.17277604530301
 21
574.92277486449871
  0
LINE
  8
_0-3_躯体と製品
  6
CONTINUOUS
 62
    7
 10
303.87277704530317
 20
604.12277386449864
 11
285.47277804530319
 21
604.12277386449864
  0
LINE
  8
_0-3_躯体と製品
  6
CONTINUOUS
 62
    7
 10
284.17277604530301
 20
608.92277386449882
 11
284.17277904530312
 21
605.42277586449882
  0
LINE
  8
_0-3_躯体と製品
  6
CONTINUOUS
 62
    4
 10
304.37277804530214
 20
575.17231802651281
 11
305.17277604530301
 21
575.97231602651368
  0
LINE
  8
_0-3_躯体と製品
  6
CONTINUOUS
 62
    4
 10
304.37277804530214
 20
576.58653158888615
 11
305.17277604530301
 21
577.38652958888679
  0
LINE
  8
_0-3_躯体と製品
  6
CONTINUOUS
 62
    4
 10
304.37277804530305
 20
578.00074515126062
 11
305.17277604530301
 21
578.80074315126001
  0
LINE
  8
_0-3_躯体と製品
  6
CONTINUOUS
 62
    4
 10
304.37277804530305
 20
579.41495871363372
 11
305.17277604530301
 21
580.21495671363334
  0
LINE
  8
_0-3_躯体と製品
  6
CONTINUOUS
 62
    4
 10
304.37277804530305
 20
580.82917227600683
 11
305.17277604530301
 21
581.62917027600645
  0
LINE
  8
_0-3_躯体と製品
  6
CONTINUOUS
 62
    4
 10
304.37277804530305
 20
582.24338583838016
 11
305.17277604530301
 21
583.04338383837944
  0
LINE
  8
_0-3_躯体と製品
  6
CONTINUOUS
 62
    4
 10
304.37277804530305
 20
583.65759940075338
 11
305.17277604530301
 21
584.457597400753
  0
LINE
  8
_0-3_躯体と製品
  6
CONTINUOUS
 62
    4
 10
304.37277804530305
 20
585.0718129631266
 11
305.1727760453021
 21
585.87181096312645
  0
LINE
  8
_0-3_躯体と製品
  6
CONTINUOUS
 62
    4
 10
304.37277804530305
 20
586.48602652550005
 11
305.1727760453021
 21
587.28602452549944
  0
LINE
  8
_0-3_躯体と製品
  6
CONTINUOUS
 62
    4
 10
304.37277804530305
 20
587.90024008787304
 11
305.1727760453021
 21
588.70023808787266
  0
LINE
  8
_0-3_躯体と製品
  6
CONTINUOUS
 62
    4
 10
304.37277804530214
 20
589.31445365024615
 11
305.17277604530301
 21
590.11445165024702
  0
LINE
  8
_0-3_躯体と製品
  6
CONTINUOUS
 62
    4
 10
304.37277804530214
 20
590.72866721261983
 11
305.17277604530301
 21
591.52866521262035
  0
LINE
  8
_0-3_躯体と製品
  6
CONTINUOUS
 62
    4
 10
304.37277804530214
 20
592.14288077499259
 11
305.17277604530301
 21
592.94287877499335
  0
LINE
  8
_0-3_躯体と製品
  6
CONTINUOUS
 62
    4
 10
304.37277804530214
 20
593.55709433736604
 11
305.17277604530301
 21
594.35709233736679
  0
LINE
  8
_0-3_躯体と製品
  6
CONTINUOUS
 62
    4
 10
304.37277804530214
 20
594.97130789973949
 11
305.17277604530301
 21
595.77130589974013
  0
LINE
  8
_0-3_躯体と製品
  6
CONTINUOUS
 62
    4
 10
304.37277804530214
 20
596.38552146210839
 11
305.1727760453021
 21
597.18551946210914
  0
LINE
  8
_0-3_躯体と製品
  6
CONTINUOUS
 62
    4
 10
304.37277804530214
 20
597.79973502448183
 11
305.17277604530301
 21
598.5997330244827
  0
LINE
  8
_0-3_躯体と製品
  6
CONTINUOUS
 62
    4
 10
304.37277804530419
 20
599.21394858685699
 11
305.17277604530301
 21
600.01394658685695
  0
LINE
  8
_0-3_躯体と製品
  6
CONTINUOUS
 62
    4
 10
304.37277804530419
 20
600.62816214923032
 11
305.17277604530301
 21
601.42816014923005
  0
LINE
  8
_0-3_躯体と製品
  6
CONTINUOUS
 62
    4
 10
304.37277804530419
 20
602.04237571160365
 11
305.17277604530301
 21
602.84237371160339
  0
LINE
  8
_0-3_躯体と製品
  6
CONTINUOUS
 62
    4
 10
304.37277804530305
 20
603.45658927397676
 11
305.062636399837
 21
604.14644762851094
  0
LINE
  8
_0-3_躯体と製品
  6
CONTINUOUS
 62
    4
 10
303.62474907345313
 20
604.12277386449932
 11
304.33847412026608
 21
604.83649891131245
  0
LINE
  8
_0-3_躯体と製品
  6
CONTINUOUS
 62
    4
 10
302.21053551107804
 20
604.12277386449864
 11
303.01053651107804
 21
604.92277486449825
  0
LINE
  8
_0-3_躯体と製品
  6
CONTINUOUS
 62
    4
 10
300.7963219487051
 20
604.12277386449864
 11
301.59632294870499
 21
604.92277486449825
  0
LINE
  8
_0-3_躯体と製品
  6
CONTINUOUS
 62
    4
 10
299.38210838633205
 20
604.12277386449898
 11
300.18210938633206
 21
604.92277486449825
  0
LINE
  8
_0-3_躯体と製品
  6
CONTINUOUS
 62
    4
 10
297.96789482395911
 20
604.12277386449932
 11
298.76789582395901
 21
604.92277486449882
  0
LINE
  8
_0-3_躯体と製品
  6
CONTINUOUS
 62
    4
 10
296.5536812615851
 20
604.1227738644983
 11
297.35368226158522
 21
604.92277486449916
  0
LINE
  8
_0-3_躯体と製品
  6
CONTINUOUS
 62
    4
 10
295.13946769921205
 20
604.12277386449864
 11
295.93946869921206
 21
604.92277486449916
  0
LINE
  8
_0-3_躯体と製品
  6
CONTINUOUS
 62
    4
 10
293.72525413683803
 20
604.12277386449796
 11
294.52525513683901
 21
604.92277486449882
  0
LINE
  8
_0-3_躯体と製品
  6
CONTINUOUS
 62
    4
 10
292.3110405744651
 20
604.1227738644983
 11
293.11104157446522
 21
604.92277486449825
  0
LINE
  8
_0-3_躯体と製品
  6
CONTINUOUS
 62
    4
 10
290.89682701209108
 20
604.12277386449864
 11
291.6968280120912
 21
604.92277486449825
  0
LINE
  8
_0-3_躯体と製品
  6
CONTINUOUS
 62
    4
 10
289.48261344971911
 20
604.12277386449864
 11
290.28261444971804
 21
604.92277486449825
  0
LINE
  8
_0-3_躯体と製品
  6
CONTINUOUS
 62
    4
 10
288.06839988734902
 20
604.12277386449898
 11
288.86840088734908
 21
604.92277486449859
  0
LINE
  8
_0-3_躯体と製品
  6
CONTINUOUS
 62
    4
 10
286.65418632497614
 20
604.12277386449932
 11
287.45418732497615
 21
604.92277486449882
  0
LINE
  8
_0-3_躯体と製品
  6
CONTINUOUS
 62
    4
 10
285.25786355058614
 20
604.14066465248288
 11
286.03997376260213
 21
604.92277486449893
  0
LINE
  8
_0-3_躯体と製品
  6
CONTINUOUS
 62
    4
 10
284.39655509019508
 20
604.69356975446487
 11
284.99121877093904
 21
605.28823343520901
  0
LINE
  8
_0-3_躯体と製品
  6
CONTINUOUS
 62
    4
 10
284.17277864996214
 20
605.88400687660487
 11
284.97277704530308
 21
606.68400527194547
  0
LINE
  8
_0-3_躯体と製品
  6
CONTINUOUS
 62
    4
 10
284.17277743777919
 20
607.29821922679537
 11
284.97277704530308
 21
608.09821883431914
  0
LINE
  8
_0-3_躯体と製品
  6
CONTINUOUS
 62
    4
 10
284.17277622559715
 20
608.71243157698655
 11
284.3831185131092
 21
608.92277386449825
  0
LINE
  8
_0-3_躯体と製品
  6
CONTINUOUS
 62
    7
 10
276.97277604530319
 20
611.62277386449909
 11
277.47277604530314
 21
611.12277386449898
  0
LINE
  8
_0-3_躯体と製品
  6
CONTINUOUS
 62
    7
 10
276.97277604530319
 20
614.62277386449898
 11
277.47277604530314
 21
615.12277386449909
  0
LINE
  8
_0-3_躯体と製品
  6
CONTINUOUS
 62
    7
 10
276.97277604530319
 20
614.62277386449898
 11
276.97277604530319
 21
611.62277386449909
  0
LINE
  8
_0-3_躯体と製品
  6
CONTINUOUS
 62
    4
 10
277.47277604530314
 20
615.12277386449909
 11
277.47277604530314
 21
611.12277386449898
  0
LINE
  8
_0-3_躯体と製品
  6
CONTINUOUS
 62
    7
 10
285.47277604530319
 20
615.12277386449909
 11
282.47277604530319
 21
615.12277386449909
  0
LINE
  8
_0-3_躯体と製品
  6
CONTINUOUS
 62
    4
 10
285.47277604530319
 20
614.62277386449898
 11
276.97277604530319
 21
614.62277386449898
  0
LINE
  8
_0-3_躯体と製品
  6
CONTINUOUS
 62
    4
 10
285.47277604530319
 20
611.62277386449909
 11
276.97277604530319
 21
611.62277386449909
  0
LINE
  8
_0-3_躯体と製品
  6
CONTINUOUS
 62
    7
 10
285.47277604530319
 20
611.12277386449898
 11
282.47277604530319
 21
611.12277386449898
  0
LINE
  8
_0-3_躯体と製品
  6
CONTINUOUS
 62
    3
 10
276.67277604530301
 20
618.31042986449916
 11
276.68512004530299
 21
618.32277386449914
  0
ARC
  8
_0-3_躯体と製品
  6
CONTINUOUS
 62
    3
 10
284.47277604530319
 20
616.12277386449909
 40
1
 50
0
 51
90
  0
LINE
  8
_0-3_躯体と製品
  6
CONTINUOUS
 62
    3
 10
284.47277604530319
 20
618.32277386449914
 11
276.67277604530301
 21
618.32277386449914
  0
ARC
  8
_0-3_躯体と製品
  6
CONTINUOUS
 62
    3
 10
284.47277604530319
 20
616.12277386449909
 40
2.2000000000000002
 50
0
 51
90
  0
LINE
  8
_0-3_躯体と製品
  6
CONTINUOUS
 62
    3
 10
285.47277604530319
 20
607.32277386449914
 11
285.47277604530319
 21
616.12277386449909
  0
ARC
  8
_0-3_躯体と製品
  6
CONTINUOUS
 62
    3
 10
287.67277604530301
 20
607.32277386449914
 40
1
 50
180
 51
270
  0
ARC
  8
_0-3_躯体と製品
  6
CONTINUOUS
 62
    3
 10
304.47277604530314
 20
604.12277386449898
 40
1
 50
0
 51
90
  0
ARC
  8
_0-3_躯体と製品
  6
CONTINUOUS
 62
    3
 10
287.67277604530301
 20
607.32277386449914
 40
2.2000000000000002
 50
180
 51
270
  0
ARC
  8
_0-3_躯体と製品
  6
CONTINUOUS
 62
    3
 10
304.47277604530314
 20
604.12277386449898
 40
2.2000000000000002
 50
0
 51
90
  0
LINE
  8
_0-3_躯体と製品
  6
CONTINUOUS
 62
    3
 10
276.67277604530301
 20
617.12277386449909
 11
284.47277604530319
 21
617.12277386449909
  0
LINE
  8
_0-3_躯体と製品
  6
CONTINUOUS
 62
    3
 10
276.67277604530301
 20
618.32277386449914
 11
276.67277604530301
 21
617.12277386449909
  0
LINE
  8
_0-3_躯体と製品
  6
CONTINUOUS
 62
    3
 10
287.67277604530301
 20
605.12277386449909
 11
304.47277604530314
 21
605.12277386449909
  0
LINE
  8
_0-3_躯体と製品
  6
CONTINUOUS
 62
    3
 10
296.67277604530301
 20
571.52277386449896
 11
296.67277604530301
 21
570.32277386449914
  0
ARC
  8
_0-3_躯体と製品
  6
CONTINUOUS
 62
    3
 10
304.47277604530314
 20
572.52277386449907
 40
2.2000000000000002
 50
270
 51
0
  0
LINE
  8
_0-3_躯体と製品
  6
CONTINUOUS
 62
    3
 10
304.47277604530314
 20
571.52277386449896
 11
296.67277604530301
 21
571.52277386449896
  0
ARC
  8
_0-3_躯体と製品
  6
CONTINUOUS
 62
    3
 10
304.47277604530314
 20
572.52277386449907
 40
1
 50
270
 51
0
  0
LINE
  8
_0-3_躯体と製品
  6
CONTINUOUS
 62
    3
 10
305.47277604530319
 20
572.52277386449907
 11
305.47277604530319
 21
604.12277386449898
  0
LINE
  8
_0-3_躯体と製品
  6
DASHED1
 62
    4
 10
285.47277604530319
 20
615.12277386449909
 11
286.67277604530295
 21
615.12277386449909
  0
LINE
  8
_0-3_躯体と製品
  6
DASHED1
 62
    4
 10
285.47277604530319
 20
611.12277386449898
 11
286.67277604530295
 21
611.12277386449898
  0
POINT
  8
_0-3_躯体と製品
 62
    4
 10
306.67277604530301
 20
606.32277386449914
  0
LINE
  8
_0-3_躯体と製品
  6
CONTINUOUS
 62
    7
 10
296.67277604530301
 20
569.32277386449914
 11
305.67277604530301
 21
569.32277386449914
  0
ARC
  8
_0-3_躯体と製品
  6
CONTINUOUS
 62
    7
 10
305.17277604530301
 20
569.82277386449914
 40
0.5
 50
0
 51
90
  0
LINE
  8
_0-3_躯体と製品
  6
CONTINUOUS
 62
    7
 10
305.67277604530301
 20
569.82277386449914
 11
305.67277604530301
 21
569.32277386449914
  0
LINE
  8
_0-3_躯体と製品
  6
CONTINUOUS
 62
    7
 10
296.97277604530314
 20
570.32277386449914
 11
305.17277604530301
 21
570.32277386449914
  0
ARC
  8
_0-3_躯体と製品
  6
CONTINUOUS
 62
    7
 10
296.67277604530301
 20
570.32277386449914
 40
1
 50
180
 51
270
  0
ARC
  8
_0-3_躯体と製品
  6
CONTINUOUS
 62
    7
 10
302.27804996469405
 20
573.06243933456926
 40
0.5
 50
265.25268174597102
 51
355.25268174227472
  0
ARC
  8
_0-3_躯体と製品
  6
CONTINUOUS
 62
    7
 10
303.31600012336918
 20
573.47796246032931
 40
0.4999999999354555
 50
355.25268174597483
 51
175.25268174597468
  0
LINE
  8
_0-3_躯体と製品
  6
CONTINUOUS
 62
    7
 10
303.73152324912098
 20
572.44001230155754
 11
303.81428481206808
 21
573.43658167888543
  0
ARC
  8
_0-3_躯体と製品
  6
CONTINUOUS
 62
    7
 10
302.73495387185818
 20
572.52277386449907
 40
1
 50
265.25268174597102
 51
355.25268174227472
  0
LINE
  8
_0-3_躯体と製品
  6
CONTINUOUS
 62
    7
 10
302.7763346533261
 20
573.02105855309867
 11
302.81771543479914
 21
573.51934324176273
  0
LINE
  8
_0-3_躯体と製品
  6
CONTINUOUS
 62
    7
 10
295.67277604530295
 20
572.02277386449896
 11
295.67277604530295
 21
570.32277386449914
  0
LINE
  8
_0-3_躯体と製品
  6
CONTINUOUS
 62
    7
 10
296.75553760818008
 20
573.01934324176818
 11
302.23666918325517
 21
572.56415464593499
  0
ARC
  8
_0-3_躯体と製品
  6
CONTINUOUS
 62
    7
 10
296.67277604530301
 20
572.02277386449896
 40
1
 50
85.252681745970989
 51
180
  0
LINE
  8
_0-3_躯体と製品
  6
CONTINUOUS
 62
    7
 10
296.67277604530301
 20
571.69682719558455
 11
296.67277604530301
 21
570.62277386449909
  0
LINE
  8
_0-3_躯体と製品
  6
CONTINUOUS
 62
    7
 10
296.9976045141662
 20
571.99579800876495
 11
302.65219230898015
 21
571.5262044872303
  0
ARC
  8
_0-3_躯体と製品
  6
CONTINUOUS
 62
    7
 10
296.97277604530314
 20
571.69682719558455
 40
0.2999999999999998
 50
85.252681745970989
 51
180
  0
ARC
  8
_0-3_躯体と製品
  6
CONTINUOUS
 62
    7
 10
288.73849561995718
 20
612.20229514109485
 40
0.4204787234042585
 50
345.90421075582725
 51
90.000000000000057
  0
ARC
  8
_0-3_躯体と製品
  6
CONTINUOUS
 62
    7
 10
286.67277604530295
 20
611.64420243592781
 40
2.0214285714285678
 50
270
 51
317.2587554613163
  0
LINE
  8
_0-3_躯体と製品
  6
CONTINUOUS
 62
    7
 10
286.67277604530295
 20
609.62277386449909
 11
286.67277604530295
 21
616.62277386449887
  0
ARC
  8
_0-3_躯体と製品
  6
CONTINUOUS
 62
    7
 10
288.73849561995718
 20
614.04325258790334
 40
0.4204787234042585
 50
270
 51
14.095789244172815
  0
LINE
  8
_0-3_躯体と製品
  6
CONTINUOUS
 62
    7
 10
288.73849561995718
 20
613.62277386449909
 11
288.73849561995718
 21
612.62277386449909
  0
ARC
  8
_0-3_躯体と製品
  6
CONTINUOUS
 62
    7
 10
285.07277604530304
 20
613.12277386449909
 40
4.1999999999999993
 50
317.2587554613163
 51
345.90421075582719
  0
ARC
  8
_0-3_躯体と製品
  6
CONTINUOUS
 62
    7
 10
285.07277604530304
 20
613.12277386449909
 40
4.1999999999999993
 50
14.095789244172799
 51
42.741244538683617
  0
LINE
  8
_0-3_躯体と製品
  6
CONTINUOUS
 62
    7
 10
287.67277604530301
 20
606.32277386449914
 11
289.67277604530295
 21
606.32277386449914
  0
ARC
  8
_0-3_躯体と製品
  6
CONTINUOUS
 62
    7
 10
289.67277604530295
 20
607.32277386449914
 40
1
 50
270
 51
0
  0
ARC
  8
_0-3_躯体と製品
  6
CONTINUOUS
 62
    7
 10
287.67277604530301
 20
607.32277386449914
 40
1
 50
180
 51
270
  0
LINE
  8
_0-3_躯体と製品
  6
CONTINUOUS
 62
    3
 10
286.67277604530295
 20
616.12277386449909
 11
286.67277604530295
 21
607.32277386449914
  0
LINE
  8
_0-3_躯体と製品
  6
CONTINUOUS
 62
    3
 10
288.47277604530319
 20
567.20203653475801
 11
288.47277604530319
 21
578.25307196804351
  0
ARC
  8
_0-3_躯体と製品
  6
CONTINUOUS
 62
    3
 10
289.47277604530314
 20
567.20203653475801
 40
1
 50
180
 51
266.99999999999437
  0
ARC
  8
_0-3_躯体と製品
  6
CONTINUOUS
 62
    3
 10
289.47277604530314
 20
567.20203653475812
 40
2.5
 50
180
 51
266.99999999999437
  0
LINE
  8
_0-3_躯体と製品
  6
CONTINUOUS
 62
    3
 10
286.97277604530319
 20
578.25307196804351
 11
288.47277604530319
 21
578.25307196804351
  0
LINE
  8
_0-3_躯体と製品
  6
CONTINUOUS
 62
    3
 10
286.97277604530319
 20
567.20203653475812
 11
286.97277604530319
 21
578.25307196804351
  0
LINE
  8
_0-3_躯体と製品
  6
CONTINUOUS
 62
    7
 10
304.63937133880609
 20
561.17325074653354
 11
304.78207920714209
 21
563.89627908868056
  0
LINE
  8
_0-3_躯体と製品
  6
CONTINUOUS
 62
    7
 10
319.61881436012413
 20
560.3882114028894
 11
319.76152222846099
 21
563.11123974503619
  0
LINE
  8
_0-3_躯体と製品
  6
CONTINUOUS
 62
    4
 10
308.16419680279296
 20
560.98852247160585
 11
305.28267531610709
 21
563.87004395829194
  0
LINE
  8
_0-3_躯体と製品
  6
CONTINUOUS
 62
    4
 10
309.65662522448616
 20
560.91030761228592
 11
306.77510373780007
 21
563.79182909897202
  0
LINE
  8
_0-3_躯体と製品
  6
CONTINUOUS
 62
    4
 10
311.14905364618022
 20
560.8320927529661
 11
308.26753215949316
 21
563.71361423965232
  0
LINE
  8
_0-3_躯体と製品
  6
CONTINUOUS
 62
    4
 10
312.641482067872
 20
560.7538778936464
 11
309.75996058118614
 21
563.63539938033239
  0
LINE
  8
_0-3_躯体と製品
  6
CONTINUOUS
 62
    4
 10
314.1339104895651
 20
560.67566303432659
 11
311.25238900287906
 21
563.55718452101269
  0
LINE
  8
_0-3_躯体と製品
  6
CONTINUOUS
 62
    4
 10
315.62633891125915
 20
560.59744817500655
 11
312.74481742457311
 21
563.47896966169264
  0
LINE
  8
_0-3_躯体と製品
  6
CONTINUOUS
 62
    4
 10
317.11876733295213
 20
560.51923331568696
 11
314.23724584626598
 21
563.40075480237294
  0
LINE
  8
_0-3_躯体と製品
  6
CONTINUOUS
 62
    4
 10
318.61119575464301
 20
560.44101845636737
 11
315.72967426795714
 21
563.32253994305324
  0
LINE
  8
_0-3_躯体と製品
  6
CONTINUOUS
 62
    4
 10
319.64169165126106
 20
560.82473612212209
 11
317.22210268965
 21
563.24432508373343
  0
LINE
  8
_0-3_躯体と製品
  6
CONTINUOUS
 62
    4
 10
306.67176838109918
 20
561.066737330926
 11
304.7352764489911
 21
563.00322926303443
  0
LINE
  8
_0-3_躯体と製品
  6
CONTINUOUS
 62
    4
 10
319.71211662691712
 20
562.16852470883941
 11
318.71453111134321
 21
563.16611022441339
  0
ARC
  8
_0-3_躯体と製品
  6
DASHED1
 62
    7
 10
284.47277604530319
 20
567.96476160417114
 40
7.5
 50
180
 51
266.99999999999437
  0
ARC
  8
_0-3_躯体と製品
  6
DASHED1
 62
    7
 10
284.47277604530319
 20
567.96476160417183
 40
3
 50
180
 51
266.99999999999437
  0
LINE
  8
_0-3_躯体と製品
  6
DASHED1
 62
    7
 10
276.97277604530319
 20
567.96476160417114
 11
276.97277604530319
 21
580.11786790402698
  0
LINE
  8
_0-3_躯体と製品
  6
DASHED1
 62
    7
 10
281.47277604530319
 20
580.11786790402698
 11
276.97277604530319
 21
580.11786790402698
  0
LINE
  8
_0-3_躯体と製品
  6
DASHED1
 62
    7
 10
281.47277604530319
 20
567.96476160417183
 11
281.47277604530319
 21
580.11786790402698
  0
LINE
  8
_0-3_躯体と製品
  6
DASHED1
 62
    7
 10
284.08025637348106
 20
560.47504009351178
 11
304.54656740404909
 21
559.40244618228405
  0
LINE
  8
_0-3_躯体と製品
  6
DASHED1
 62
    7
 10
284.31576817657407
 20
564.96887299990794
 11
304.78207920714209
 21
563.8962790886801
  0
LINE
  8
_0-3_躯体と製品
  6
CONTINUOUS
 62
    7
 10
305.67277604530301
 20
569.32277386449914
 11
304.22377863498201
 21
567.28551921549615
  0
LINE
  8
_0-3_躯体と製品
  6
CONTINUOUS
 62
    7
 10
304.69185840083816
 20
569.32389254732971
 11
303.57185714730105
 21
567.74919838679898
  0
LINE
  8
_0-3_躯体と製品
  6
CONTINUOUS
 62
    7
 10
297.797607144018
 20
568.42710376500554
 11
296.624272658346
 21
569.275767440133
  0
ARC
  8
_0-3_躯体と製品
  6
CONTINUOUS
 62
    7
 10
300.96417119657713
 20
569.60391507200984
 40
3.2000000000000002
 50
210.59600537096031
 51
324.57765914528972
  0
ARC
  8
_0-3_躯体と製品
  6
CONTINUOUS
 62
    7
 10
296.91851687613013
 20
567.21170247287807
 40
1.5
 50
30.596005370966971
 51
54.122077872826068
  0
ARC
  8
_0-3_躯体と製品
  6
CONTINUOUS
 62
    7
 10
296.91851687613013
 20
567.21170247287807
 40
0.6999999999999998
 50
30.596005370966971
 51
54.122077872826068
  0
ARC
  8
_0-3_躯体と製品
  6
CONTINUOUS
 62
    7
 10
296.38984858691202
 20
568.95166042889718
 40
0.4
 50
54.122077872826061
 51
234.12207787282611
  0
LINE
  8
_0-3_躯体と製品
  6
CONTINUOUS
 62
    7
 10
273.47277604530319
 20
565.12277386449909
 11
272.47277604530319
 21
565.12277386449909
  0
LINE
  8
_0-3_躯体と製品
  6
CONTINUOUS
 62
    7
 10
273.47277604530319
 20
560.12277386449898
 11
272.47277604530319
 21
560.12277386449898
  0
LINE
  8
_0-4_図枠
  6
CONTINUOUS
 62
    4
 10
356.67277604530295
 20
567.68572315092945
 11
406.67277604530295
 21
567.68572315092945
  0
LINE
  8
_0-4_図枠
  6
CONTINUOUS
 62
    4
 10
406.67277604530295
 20
565.06533418677736
 11
406.67277604530295
 21
567.68572315092945
  0
LINE
  8
_0-4_図枠
  6
CONTINUOUS
 62
    4
 10
356.67277604530295
 20
567.68572315092945
 11
406.67277604530295
 21
565.06533418677736
  0
LINE
  8
_0-3_躯体と製品
  6
CENTER1
 62
    4
 10
287.17277804530301
 20
562.62277386449909
 11
213.47277604530314
 21
562.62277386449909
  0
LINE
  8
_0-3_躯体と製品
  6
CENTER1
 62
    4
 10
275.35005336273713
 20
613.12277386449909
 11
292.21808704530309
 21
613.12277386449909
  0
ARC
  8
_0-3_躯体と製品
  6
CONTINUOUS
 62
    7
 10
278.34406704530312
 20
561.12001086449925
 40
3
 50
272.45892599999632
 51
321.38536200000192
  0
ARC
  8
_0-3_躯体と製品
  6
CONTINUOUS
 62
    7
 10
276.47277804530319
 20
562.62277386449909
 40
5.4000000000000004
 50
321.31781300000171
 51
0.0000000000000127
  0
ARC
  8
_0-3_躯体と製品
  6
CONTINUOUS
 62
    7
 10
276.47277804530319
 20
562.62277386449909
 40
5.4000000000000004
 50
0
 51
38.851062000003751
  0
ARC
  8
_0-3_躯体と製品
  6
CONTINUOUS
 62
    7
 10
278.34406704530312
 20
564.12553386449918
 40
3
 50
38.614637999998109
 51
87.541074000003704
  0
LINE
  8
_0-3_躯体と製品
  6
CONTINUOUS
 62
    7
 10
278.47277604530319
 20
553.62277386449909
 11
278.47277604530319
 21
571.62277386449909
  0
LINE
  8
_0-3_躯体と製品
  6
CONTINUOUS
 62
    7
 10
278.47277604530319
 20
571.62277386449909
 11
276.97277604530319
 21
571.62277386449909
  0
LINE
  8
_0-3_躯体と製品
  6
CONTINUOUS
 62
    7
 10
278.47277604530319
 20
553.62277386449909
 11
276.97277604530319
 21
553.62277386449909
  0
CIRCLE
  8
_0-4_図枠
  6
CONTINUOUS
 62
    4
 10
279.44318851130697
 20
595.36016083667573
 40
0.8999999999999999
  0
CIRCLE
  8
_0-4_図枠
  6
CONTINUOUS
 62
    4
 10
304.6904751834432
 20
587.08246660066095
 40
0.8999999999999999
  0
CIRCLE
  8
_0-4_図枠
  6
CONTINUOUS
 62
    4
 10
304.19367029388906
 20
568.02424039161474
 40
0.8999999999999999
  0
CIRCLE
  8
_0-4_図枠
  6
CONTINUOUS
 62
    4
 10
283.61468581870901
 20
613.87900325456781
 40
0.8999999999999999
  0
CIRCLE
  8
_0-4_図枠
  6
CONTINUOUS
 62
    4
 10
331.08527799071913
 20
521.44660956349469
 40
6
  0
LINE
  8
_0-4_図枠
  6
CONTINUOUS
 62
    4
 10
304.19367029388906
 20
568.02424039161474
 11
328.08527799071913
 21
526.64276198620132
  0
CIRCLE
  8
_0-4_図枠
  6
CONTINUOUS
 62
    4
 10
329.1593315697192
 20
629.46376906479804
 40
6
  0
LINE
  8
_0-4_図枠
  6
CONTINUOUS
 62
    4
 10
304.6904751834432
 20
587.08246660066095
 11
326.1593315697192
 21
624.26761664209153
  0
CIRCLE
  8
_0-4_図枠
  6
CONTINUOUS
 62
    4
 10
260.80466960095805
 20
653.38711026518354
 40
6
  0
LINE
  8
_0-4_図枠
  6
CONTINUOUS
 62
    4
 10
283.61468581870901
 20
613.87900325456781
 11
263.80466960095805
 21
648.19095784247691
  0
CIRCLE
  8
_0-4_図枠
  6
CONTINUOUS
 62
    4
 10
258.32407326863409
 20
631.93954144788802
 40
6
  0
LINE
  8
_0-4_図枠
  6
CONTINUOUS
 62
    4
 10
279.44318851130697
 20
595.36016083667573
 11
261.32407326863409
 21
626.74338902518105
  0
CIRCLE
  8
_0-4_図枠
  6
CONTINUOUS
 62
    4
 10
279.83577988954607
 20
564.54200826903218
 40
0.8999999999999999
  0
CIRCLE
  8
_0-4_図枠
  6
CONTINUOUS
 62
    4
 10
240.53913640246017
 20
565.52434568530043
 40
0.8999999999999999
  0
LINE
  8
_0-4_図枠
  6
CONTINUOUS
 62
    4
 10
240.53913640246017
 20
565.52434568530043
 11
231.04101229537406
 21
581.97557921536873
  0
CIRCLE
  8
_0-4_図枠
  6
CONTINUOUS
 62
    4
 10
228.04101229537406
 20
587.17173163807547
 40
6
  0
CIRCLE
  8
_0-4_図枠
  6
CONTINUOUS
 62
    4
 10
256.10731630772403
 20
588.27047185085462
 40
6
  0
LINE
  8
_0-4_図枠
  6
CONTINUOUS
 62
    4
 10
279.83577988954607
 20
564.54200826903218
 11
260.34995699484307
 21
584.02783116373519
  0
CIRCLE
  8
_0-4_図枠
  6
CONTINUOUS
 62
    4
 10
277.75657893315207
 20
556.00644563631113
 40
0.8999999999999999
  0
LINE
  8
_0-4_図枠
  6
CONTINUOUS
 62
    4
 10
277.75657893315207
 20
556.00644563631113
 11
262.52692885816515
 21
547.21360306585382
  0
CIRCLE
  8
_0-4_図枠
  6
CONTINUOUS
 62
    4
 10
257.33077643545909
 20
544.21360306585393
 40
6
  0
CIRCLE
  8
_0-4_図枠
  6
CONTINUOUS
 62
    4
 10
299.99391892457112
 20
605.75965824008495
 40
0.8999999999999999
  0
LINE
  8
_0-4_図枠
  6
CONTINUOUS
 62
    4
 10
299.99391892457112
 20
605.75965824008495
 11
318.23074042940203
 21
637.34675965501572
  0
CIRCLE
  8
_0-4_図枠
  6
CONTINUOUS
 62
    4
 10
321.23074042940203
 20
642.54291207772212
 40
6
  0
LINE
  8
_0-3_躯体と製品
  6
CONTINUOUS
 62
    7
 10
272.47277604530319
 20
621.32277386449903
 11
297.47277604530319
 21
621.32277386449903
  0
LINE
  8
_0-3_躯体と製品
  6
CONTINUOUS
 62
    7
 10
289.67277604530295
 20
621.32277386449903
 11
287.67277604530301
 21
621.32277386449903
  0
ARC
  8
_0-3_躯体と製品
  6
CONTINUOUS
 62
    7
 10
289.67277604530295
 20
620.32277386449914
 40
1
 50
0
 51
90
  0
LINE
  8
_0-3_躯体と製品
  6
CONTINUOUS
 62
    7
 10
290.67277604530301
 20
607.32277386449914
 11
290.67277604530301
 21
620.32277386449914
  0
ARC
  8
_0-3_躯体と製品
  6
CONTINUOUS
 62
    7
 10
287.67277604530301
 20
620.32277386449914
 40
1
 50
90
 51
180
  0
LINE
  8
_0-3_躯体と製品
  6
CONTINUOUS
 62
    7
 10
286.67277604530295
 20
616.62277386449887
 11
286.67277604530295
 21
620.32277386449914
  0
LINE
  8
_0-3_躯体と製品
  6
CONTINUOUS
 62
    3
 10
273.47277604530319
 20
606.32277386449914
 11
272.47277604530319
 21
606.32277386449914
  0
LINE
  8
_0-3_躯体と製品
  6
CONTINUOUS
 62
    3
 10
273.47277604530319
 20
576.32277386449914
 11
273.47277604530319
 21
606.32277386449914
  0
LINE
  8
_0-3_躯体と製品
  6
CONTINUOUS
 62
    3
 10
272.47277604530319
 20
576.32277386449914
 11
273.47277604530319
 21
576.32277386449914
  0
LINE
  8
_0-3_躯体と製品
  6
CONTINUOUS
 62
    3
 10
272.47277604530319
 20
606.32277386449914
 11
272.47277604530319
 21
576.32277386449914
  0
LINE
  8
_0-3_躯体と製品
  6
CONTINUOUS
 62
    4
 10
272.47277604530319
 20
577.6622366632887
 11
273.47277604530319
 21
576.66223666328892
  0
LINE
  8
_0-3_躯体と製品
  6
CONTINUOUS
 62
    4
 10
272.47277604530319
 20
579.0764502256618
 11
273.47277604530319
 21
578.07645022566203
  0
LINE
  8
_0-3_躯体と製品
  6
CONTINUOUS
 62
    4
 10
272.47277604530206
 20
580.49066378803604
 11
273.472776045302
 21
579.49066378803582
  0
LINE
  8
_0-3_躯体と製品
  6
CONTINUOUS
 62
    4
 10
272.47277604530319
 20
581.90487735040665
 11
273.47277604530319
 21
580.9048773504062
  0
LINE
  8
_0-3_躯体と製品
  6
CONTINUOUS
 62
    4
 10
272.47277604530319
 20
583.31909091277976
 11
273.47277604530319
 21
582.31909091277964
  0
LINE
  8
_0-3_躯体と製品
  6
CONTINUOUS
 62
    4
 10
272.47277604530319
 20
584.73330447515355
 11
273.47277604530319
 21
583.73330447515355
  0
LINE
  8
_0-3_躯体と製品
  6
CONTINUOUS
 62
    4
 10
272.47277604530319
 20
586.14751803752642
 11
273.47277604530319
 21
585.14751803752654
  0
LINE
  8
_0-3_躯体と製品
  6
CONTINUOUS
 62
    4
 10
272.47277604530319
 20
587.56173159989976
 11
273.47277604530319
 21
586.56173159989976
  0
LINE
  8
_0-3_躯体と製品
  6
CONTINUOUS
 62
    4
 10
272.47277604530319
 20
588.97594516227275
 11
273.47277604530319
 21
587.97594516227286
  0
LINE
  8
_0-3_躯体と製品
  6
CONTINUOUS
 62
    4
 10
272.47277604530319
 20
590.39015872464677
 11
273.47277604530319
 21
589.39015872464654
  0
LINE
  8
_0-3_躯体と製品
  6
CONTINUOUS
 62
    4
 10
272.47277604530319
 20
591.80437228701862
 11
273.47277604530319
 21
590.80437228701828
  0
LINE
  8
_0-3_躯体と製品
  6
CONTINUOUS
 62
    4
 10
272.47277604530319
 20
593.21858584939173
 11
273.47277604530319
 21
592.2185858493915
  0
LINE
  8
_0-3_躯体と製品
  6
CONTINUOUS
 62
    4
 10
272.47277604530319
 20
594.63279941176506
 11
273.47277604530319
 21
593.63279941176461
  0
LINE
  8
_0-3_躯体と製品
  6
CONTINUOUS
 62
    4
 10
272.47277604530319
 20
596.04701297413874
 11
273.472776045302
 21
595.04701297413885
  0
LINE
  8
_0-3_躯体と製品
  6
CONTINUOUS
 62
    4
 10
272.47277604530319
 20
597.46122653651173
 11
273.472776045302
 21
596.46122653651196
  0
LINE
  8
_0-3_躯体と製品
  6
CONTINUOUS
 62
    4
 10
272.47277604530319
 20
598.87544009888495
 11
273.472776045302
 21
597.87544009888506
  0
LINE
  8
_0-3_躯体と製品
  6
CONTINUOUS
 62
    4
 10
272.47277604530319
 20
600.2896536612584
 11
273.472776045302
 21
599.28965366125863
  0
LINE
  8
_0-3_躯体と製品
  6
CONTINUOUS
 62
    4
 10
272.47277604530206
 20
601.70386722363207
 11
273.472776045302
 21
600.70386722363185
  0
LINE
  8
_0-3_躯体と製品
  6
CONTINUOUS
 62
    4
 10
272.47277604530319
 20
603.11808078600268
 11
273.47277604530319
 21
602.11808078600245
  0
LINE
  8
_0-3_躯体と製品
  6
CONTINUOUS
 62
    4
 10
272.47277604530319
 20
604.53229434837658
 11
273.47277604530319
 21
603.53229434837624
  0
LINE
  8
_0-3_躯体と製品
  6
CONTINUOUS
 62
    4
 10
272.47277604530319
 20
605.94650791074969
 11
273.47277604530319
 21
604.94650791075014
  0
LINE
  8
_0-3_躯体と製品
  6
CONTINUOUS
 62
    7
 10
273.47277604530319
 20
606.32277386449914
 11
274.47277604530314
 21
606.32277386449914
  0
LINE
  8
_0-3_躯体と製品
  6
CONTINUOUS
 62
    7
 10
274.47277604530314
 20
530.12277386449909
 11
274.47277604530314
 21
606.32277386449914
  0
LINE
  8
_0-3_躯体と製品
  6
CONTINUOUS
 62
    7
 10
273.47277604530319
 20
530.07911292159065
 11
273.47277604530319
 21
576.32277386449914
  0
LINE
  8
_0-3_躯体と製品
  6
CONTINUOUS
 62
    7
 10
297.47277604530319
 20
686.32277386449869
 11
297.47277604530319
 21
621.32277386449903
  0
LINE
  8
_0-3_躯体と製品
  6
CONTINUOUS
 62
    4
 10
286.81316599907996
 20
620.83372451616094
 11
288.08182006373295
 21
616.05074807474091
  0
LINE
  8
_0-3_躯体と製品
  6
CONTINUOUS
 62
    4
 10
289.13819555181118
 20
612.06808706923448
 11
290.53238609152504
 21
606.81182321283734
  0
LINE
  8
_0-3_躯体と製品
  6
CONTINUOUS
 62
    4
 10
290.67277604530301
 20
619.93172756740751
 11
292.0638223423951
 21
621.32277386449903
  0
LINE
  8
_0-3_躯体と製品
  6
CONTINUOUS
 62
    4
 10
290.67277604530301
 20
617.10330044266061
 11
294.89224946714108
 21
621.32277386449903
  0
LINE
  8
_0-3_躯体と製品
  6
CONTINUOUS
 62
    4
 10
290.67277604530301
 20
614.27487331791394
 11
297.38341511318919
 21
620.98551238580058
  0
LINE
  8
_0-3_躯体と製品
  6
CONTINUOUS
 62
    4
 10
290.67277604530301
 20
611.44644619316728
 11
296.70752046539707
 21
617.48119061326179
  0
LINE
  8
_0-3_躯体と製品
  6
CONTINUOUS
 62
    4
 10
290.67277604530301
 20
608.61801906842049
 11
296.47909784129416
 21
614.42434086441187
  0
LINE
  8
_0-3_躯体と製品
  6
CONTINUOUS
 62
    4
 10
291.20595796612821
 20
606.32277386449914
 11
296.55379555947417
 21
611.67061145784487
  0
LINE
  8
_0-3_躯体と製品
  6
CONTINUOUS
 62
    4
 10
294.0343850908742
 20
606.32277386449914
 11
296.85743651147806
 21
609.145825285103
  0
ARC
  8
_0-3_躯体と製品
  6
CONTINUOUS
 62
    7
 10
325.09777604530314
 20
613.82277386449914
 40
28.625
 50
164.81071326281932
 51
195.18928673718068
  0
LINE
  8
_0-2_寸法
  6
CONTINUOUS
 62
    4
 10
288.47277604530319
 20
580.25307196804351
 11
288.47277604530319
 21
599.32277386449914
  0
INSERT
  2
-000-_Dot
  8
_0-2_寸法
 10
288.47277604530319
 20
599.32277386449914
 41
0.3333333333333333
 42
0.3333333333333333
 50
180
  0
POINT
  8
_0-2_寸法
 62
    7
 10
288.47277604530319
 20
580.25307196804351
  0
LINE
  8
_0-2_寸法
  6
CONTINUOUS
 62
    4
 10
273.47277604530319
 20
608.32277386449914
 11
273.47277604530319
 21
671.32277386449891
  0
INSERT
  2
-000-_Dot
  8
_0-2_寸法
 10
273.47277604530319
 20
671.32277386449891
 41
0.3333333333333333
 42
0.3333333333333333
 50
180
  0
POINT
  8
_0-2_寸法
 62
    7
 10
273.47277604530319
 20
608.32277386449914
  0
LINE
  8
_0-2_寸法
  6
CONTINUOUS
 62
    4
 10
270.47277604530319
 20
621.32277386449903
 11
197.47277604530319
 21
621.32277386449903
  0
INSERT
  2
-000-_Dot
  8
_0-2_寸法
 10
197.47277604530319
 20
621.32277386449903
 41
0.3333333333333333
 42
0.3333333333333333
 50
90
  0
POINT
  8
_0-2_寸法
 62
    7
 10
270.47277604530319
 20
621.32277386449903
  0
INSERT
  2
-000-_Dot
  8
_0-2_寸法
 10
217.47277604530316
 20
562.62277386449909
 41
0.3333333333333333
 42
0.3333333333333333
 50
90
  0
POINT
  8
_0-2_寸法
 62
    7
 10
217.47277604530316
 20
562.62277386449909
  0
POINT
  8
_0-2_寸法
 62
    7
 10
217.47277604530316
 20
562.62277386449909
  0
LINE
  8
_0-2_寸法
  6
CONTINUOUS
 62
    4
 10
308.67277604530301
 20
606.32277386449914
 11
341.67277604530301
 21
606.32277386449914
  0
LINE
  8
_0-2_寸法
  6
CONTINUOUS
 62
    4
 10
308.67277604530301
 20
570.32277386449914
 11
341.67277604530301
 21
570.32277386449914
  0
LINE
  8
_0-2_寸法
  6
CONTINUOUS
 62
    4
 10
341.67277604530301
 20
605.32277386449891
 11
341.67277604530301
 21
571.32277386449903
  0
INSERT
  2
-000-_Dot
  8
_0-2_寸法
 10
341.67277604530301
 20
606.32277386449914
 41
0.3333333333333333
 42
0.3333333333333333
 50
90
  0
INSERT
  2
-000-_Dot
  8
_0-2_寸法
 10
341.67277604530301
 20
570.32277386449914
 41
0.3333333333333333
 42
0.3333333333333333
 50
270
  0
POINT
  8
_0-2_寸法
 62
    7
 10
308.67277604530301
 20
606.32277386449914
  0
POINT
  8
_0-2_寸法
 62
    7
 10
308.67277604530301
 20
570.32277386449914
  0
POINT
  8
_0-2_寸法
 62
    7
 10
341.67277604530301
 20
570.32277386449914
  0
LINE
  8
_0-2_寸法
  6
CONTINUOUS
 62
    4
 10
299.47277604530319
 20
621.32277386449903
 11
341.67277604530301
 21
621.32277386449903
  0
LINE
  8
_0-2_寸法
  6
CONTINUOUS
 62
    4
 10
308.67277604530301
 20
606.32277386449914
 11
341.67277604530301
 21
606.32277386449914
  0
LINE
  8
_0-2_寸法
  6
CONTINUOUS
 62
    4
 10
341.67277604530301
 20
620.32277386449914
 11
341.67277604530301
 21
607.32277386449914
  0
INSERT
  2
-000-_Dot
  8
_0-2_寸法
 10
341.67277604530301
 20
621.32277386449903
 41
0.3333333333333333
 42
0.3333333333333333
 50
90
  0
INSERT
  2
-000-_Dot
  8
_0-2_寸法
 10
341.67277604530301
 20
606.32277386449914
 41
0.3333333333333333
 42
0.3333333333333333
 50
270
  0
POINT
  8
_0-2_寸法
 62
    7
 10
299.47277604530319
 20
621.32277386449903
  0
POINT
  8
_0-2_寸法
 62
    7
 10
308.67277604530301
 20
606.32277386449914
  0
POINT
  8
_0-2_寸法
 62
    7
 10
341.67277604530301
 20
606.32277386449914
  0
LINE
  8
_0-2_寸法
  6
CONTINUOUS
 62
    4
 10
286.67277604530295
 20
623.32277386449891
 11
286.67277604530295
 21
646.32277386449903
  0
LINE
  8
_0-2_寸法
  6
CONTINUOUS
 62
    4
 10
306.67277604530301
 20
608.77597959441709
 11
306.67277604530301
 21
646.32277386449903
  0
LINE
  8
_0-2_寸法
  6
CONTINUOUS
 62
    4
 10
287.67277604530301
 20
646.32277386449903
 11
305.67277604530301
 21
646.32277386449903
  0
INSERT
  2
-000-_Dot
  8
_0-2_寸法
 10
286.67277604530295
 20
646.32277386449903
 41
0.3333333333333333
 42
0.3333333333333333
 50
180
  0
INSERT
  2
-000-_Dot
  8
_0-2_寸法
 10
306.67277604530301
 20
646.32277386449903
 41
0.3333333333333333
 42
0.3333333333333333
 50
0
  0
POINT
  8
_0-2_寸法
 62
    7
 10
286.67277604530295
 20
623.32277386449891
  0
POINT
  8
_0-2_寸法
 62
    7
 10
306.67277604530301
 20
608.77597959441709
  0
POINT
  8
_0-2_寸法
 62
    7
 10
306.67277604530301
 20
646.32277386449903
  0
LINE
  8
_0-2_寸法
  6
CONTINUOUS
 62
    4
 10
273.47277604530319
 20
608.32277386449914
 11
273.47277604530319
 21
656.32277386449891
  0
LINE
  8
_0-2_寸法
  6
CONTINUOUS
 62
    4
 10
306.67277604530301
 20
608.77597959441709
 11
306.67277604530301
 21
656.32277386449891
  0
LINE
  8
_0-2_寸法
  6
CONTINUOUS
 62
    4
 10
274.47277604530314
 20
656.32277386449891
 11
305.67277604530301
 21
656.32277386449891
  0
INSERT
  2
-000-_Dot
  8
_0-2_寸法
 10
273.47277604530319
 20
656.32277386449891
 41
0.3333333333333333
 42
0.3333333333333333
 50
180
  0
INSERT
  2
-000-_Dot
  8
_0-2_寸法
 10
306.67277604530301
 20
656.32277386449891
 41
0.3333333333333333
 42
0.3333333333333333
 50
0
  0
POINT
  8
_0-2_寸法
 62
    7
 10
273.47277604530319
 20
608.32277386449914
  0
POINT
  8
_0-2_寸法
 62
    7
 10
306.67277604530301
 20
608.77597959441709
  0
POINT
  8
_0-2_寸法
 62
    7
 10
306.67277604530301
 20
656.32277386449891
  0
LINE
  8
_0-0_0
  6
DASHED1
 62
    4
 10
433.40415769145687
 20
534.19725285478034
 11
433.30995297021957
 21
532.39971969222211
  0
INSERT
  2
-000-_Dot
  8
_0-2_寸法
 10
272.47277604530319
 20
374.31859572420092
 41
0.3333333333333333
 42
0.3333333333333333
 50
180
  0
POINT
  8
_0-2_寸法
 62
    7
 10
272.47277604530319
 20
374.31859572420092
  0
POINT
  8
_0-2_寸法
 62
    7
 10
272.47277604530319
 20
374.31859572420092
  0
LINE
  8
_0-3_躯体と製品
  6
CONTINUOUS
 62
    7
 10
274.47277604530314
 20
530.12277386449909
 11
286.10265046409984
 21
397.19270098310028
  0
LINE
  8
_0-3_躯体と製品
  6
CONTINUOUS
 62
    7
 10
273.47277604530319
 20
530.07911292159065
 11
285.09883062655598
 21
397.19270098310028
  0
CIRCLE
  8
_0-4_図枠
  6
CONTINUOUS
 62
    4
 10
283.48582334744327
 20
435.66566646524666
 40
0.8999999999999999
  0
LINE
  8
_0-4_図枠
  6
CONTINUOUS
 62
    4
 10
283.48582334744327
 20
435.66566646524666
 11
297.36911053386518
 21
459.71222524819905
  0
CIRCLE
  8
_0-4_図枠
  6
CONTINUOUS
 62
    4
 10
300.36911053386518
 20
464.90837767090557
 40
6
  0
LINE
  8
_0-3_躯体と製品
  6
CONTINUOUS
 62
    7
 10
272.47277604530319
 20
621.32277386449903
 11
272.47277604530319
 21
355.86956813458107
  0
TEXT
  8
_0-2_寸法
 62
    4
 10
197.1717634623607
 20
550.14865733984868
 40
7.5
 41
1
 50
90
  1
E
  0
TEXT
  8
_0-2_寸法
 62
    4
 10
216.47277604530203
 20
527.99617099954014
 40
7.5
 41
1
 50
90
  1
D
  0
TEXT
  8
_0-4_図枠
 62
    4
 10
224.25173888142183
 20
582.83138629388793
 40
7.5
 41
1
 50
0
  1
18
  0
TEXT
  8
_0-4_図枠
 62
    4
 10
252.26550655631269
 20
584.38770672027078
 40
7.5
 41
1
 50
0
  1
19
  0
TEXT
  8
_0-4_図枠
 62
    4
 10
253.82182698269554
 20
540.18820661099858
 40
7.5
 41
1
 50
0
  1
21
  0
TEXT
  8
_0-4_図枠
 62
    4
 10
255.06688332380179
 20
628.27594274426644
 40
7.5
 41
1
 50
0
  1
４
  0
TEXT
  8
_0-4_図枠
 62
    4
 10
257.24573192073774
 20
649.1306364577963
 40
7.5
 41
1
 50
0
  1
15
  0
TEXT
  8
_0-2_寸法
 62
    4
 10
283.39191508396925
 20
656.60097450443391
 40
7.5
 41
1
 50
0
  1
33.2
  0
TEXT
  8
_0-2_寸法
 62
    4
 10
293.66362989809585
 20
646.6405237755838
 40
7.5
 41
1
 50
0
  1
20
  0
TEXT
  8
_0-4_図枠
 62
    4
 10
317.31970037911481
 20
638.54765755839321
 40
7.5
 41
1
 50
0
  1
２
  0
TEXT
  8
_0-4_図枠
 62
    4
 10
325.72383068158206
 20
625.4745659767774
 40
7.5
 41
1
 50
0
  1
10
  0
TEXT
  8
_0-2_寸法
 62
    4
 10
340.97577086013371
 20
609.28883354239599
 40
7.5
 41
1
 50
90
  1
15
  0
TEXT
  8
_0-2_寸法
 62
    4
 10
341.59829903068692
 20
583.14265037916448
 40
7.5
 41
1
 50
90
  1
36
  0
TEXT
  8
_0-4_図枠
 62
    4
 10
368.05574627919492
 20
568.82450245644259
 40
7.5
 41
1
 50
0
  1
勾配３度
  0
TEXT
  8
_0-4_図枠
 62
    4
 10
327.28015110796491
 20
518.08845655636242
 40
7.5
 41
1
 50
0
  1
13
  0
TEXT
  8
_0-4_図枠
 62
    4
 10
296.66710376867792
 20
460.54363834028254
 40
7.5
 41
1
 50
0
  1
12
  0
CIRCLE
  8
_0-4_図枠
  6
CONTINUOUS
 62
    4
 10
1032.3090409164161
 20
510.58835202236048
 40
6
  0
LINE
  8
_0-2_寸法
  6
CONTINUOUS
 62
    4
 10
1024.4727760453034
 20
527.78576197429118
 11
1082.4727760453029
 21
527.78576197429118
  0
LINE
  8
_0-3_躯体と製品
  6
DASHED1
 62
    4
 10
991.95349885574501
 20
503.12245204155499
 11
303.48798030146105
 21
539.20340098193299
  0
LINE
  8
_0-3_躯体と製品
  6
DASHED1
 62
    4
 10
992.04770357698214
 20
504.91998520411317
 11
303.58218502269807
 21
541.00093414449134
  0
LINE
  8
_0-3_躯体と製品
  6
CONTINUOUS
 62
    3
 10
991.6394831182871
 20
497.13067483302791
 11
993.1048898930901
 21
525.09230180615589
  0
LINE
  8
_0-3_躯体と製品
  6
CONTINUOUS
 62
    3
 10
991.6394831182871
 20
497.13067483302791
 11
303.17396456400303
 21
533.21162377340545
  0
LINE
  8
_0-3_躯体と製品
  6
CONTINUOUS
 62
    4
 10
978.66541549237411
 20
525.84904259351219
 11
978.15092700630112
 21
526.36353107958519
  0
LINE
  8
_0-3_躯体と製品
  6
DASHED1
 62
    7
 10
986.77717533512111
 20
499.88892845112906
 11
991.77032300889516
 21
499.62724866991425
  0
LINE
  8
_0-3_躯体と製品
  6
DASHED1
 62
    7
 10
986.82951129136495
 20
500.8875579858834
 11
986.77717533512111
 21
499.88892845112906
  0
LINE
  8
_0-3_躯体と製品
  6
DASHED1
 62
    7
 10
966.8569205962732
 20
501.93427711074247
 11
986.82951129136495
 21
500.8875579858834
  0
LINE
  8
_0-3_躯体と製品
  6
DASHED1
 62
    7
 10
966.8569205962732
 20
501.93427711074247
 11
966.80458464003004
 21
500.93564757598773
  0
LINE
  8
_0-3_躯体と製品
  6
DASHED1
 62
    7
 10
963.30938126838896
 20
501.11882342283809
 11
966.80458464003004
 21
500.93564757598773
  0
ARC
  8
_0-3_躯体と製品
  6
DASHED1
 62
    7
 10
963.38788520275398
 20
502.61676772497003
 40
1.5
 50
86.999999999994415
 51
266.99999999999437
  0
LINE
  8
_0-3_躯体と製品
  6
DASHED1
 62
    7
 10
963.46638913711809
 20
504.11471202710209
 11
991.92733087762394
 21
502.62313727417785
  0
LINE
  8
_0-3_躯体と製品
  6
CONTINUOUS
 62
    3
 10
1001.90367753898
 20
498.50855264778147
 11
1001.3204849960609
 21
495.98246821806339
  0
LINE
  8
_0-3_躯体と製品
  6
CONTINUOUS
 62
    3
 10
993.76758207840408
 20
499.52257675742834
 11
1001.442660484709
 21
499.12034294233075
  0
LINE
  8
_0-3_躯体と製品
  6
CONTINUOUS
 62
    3
 10
1004.683293992927
 20
498.95050853669488
 11
1003.5059475608612
 21
499.01221064864609
  0
LINE
  8
_0-3_躯体と製品
  6
CONTINUOUS
 62
    3
 10
1003.1979357545521
 20
498.78010710452315
 11
1002.4897290738031
 21
495.71252695285057
  0
ARC
  8
_0-3_躯体と製品
  6
CONTINUOUS
 62
    3
 10
993.74141410028221
 20
499.02326199005108
 40
0.5
 50
86.999999999994415
 51
177.00000000000111
  0
LINE
  8
_0-3_躯体と製品
  6
CONTINUOUS
 62
    3
 10
993.24209933290513
 20
499.04942996817255
 11
993.1897633766622
 21
498.05080043341798
  0
ARC
  8
_0-3_躯体と製品
  6
CONTINUOUS
 62
    3
 10
993.95075792525415
 20
503.01778012906942
 40
0.5
 50
177.00000000000111
 51
266.99999999999437
  0
LINE
  8
_0-3_躯体と製品
  6
CONTINUOUS
 62
    3
 10
993.92458994713206
 20
502.51846536169222
 11
1005.606577254666
 21
501.90623834929164
  0
LINE
  8
_0-3_躯体と製品
  6
CONTINUOUS
 62
    3
 10
993.45144315787707
 20
503.043948107191
 11
993.55611507036326
 21
505.04120717669997
  0
LINE
  8
_0-3_躯体と製品
  6
CONTINUOUS
 62
    3
 10
1014.9550394351701
 20
451.28576197429101
 11
1010.572488013438
 21
451.28576197429101
  0
LINE
  8
_0-3_躯体と製品
  6
CONTINUOUS
 62
    3
 10
1005.609105637418
 20
498.15979069275807
 11
1015.4441132355371
 21
451.88971781969974
  0
LINE
  8
_0-3_躯体と製品
  6
CONTINUOUS
 62
    3
 10
1008.384012188139
 20
499.53408481748085
 11
1020.339962291393
 21
443.28576197429106
  0
ARC
  8
_0-3_躯体と製品
  6
CONTINUOUS
 62
    3
 10
993.05680030298504
 20
505.06737515482132
 40
0.5
 50
357.00000000000108
 51
86.999999999994444
  0
LINE
  8
_0-3_躯体と製品
  6
CONTINUOUS
 62
    3
 10
993.08296828110713
 20
505.56668992219909
 11
992.58365351373004
 21
505.59285790032033
  0
ARC
  8
_0-3_躯体と製品
  6
CONTINUOUS
 62
    3
 10
992.55748553560818
 20
505.09354313294295
 40
0.5
 50
86.999999999994415
 51
177.00000000000111
  0
ARC
  8
_0-3_躯体と製品
  6
CONTINUOUS
 62
    3
 10
1005.449569385938
 20
498.91034974502804
 40
3
 50
11.99999999999979
 51
86.999999999994415
  0
ARC
  8
_0-3_躯体と製品
  6
CONTINUOUS
 62
    3
 10
1004.6309580366851
 20
497.95187900194037
 40
1
 50
11.99999999999979
 51
86.999999999994415
  0
ARC
  8
_0-3_躯体と製品
  6
CONTINUOUS
 62
    3
 10
992.69044860928511
 20
498.07696841153938
 40
0.5
 50
266.99999999999437
 51
357.00000000000108
  0
LINE
  8
_0-3_躯体と製品
  6
CONTINUOUS
 62
    3
 10
992.66428063116325
 20
497.5776536441623
 11
992.16496586378605
 21
497.60382162228359
  0
ARC
  8
_0-3_躯体と製品
  6
CONTINUOUS
 62
    3
 10
992.19113384190712
 20
498.10313638966096
 40
0.5
 50
177.00000000000111
 51
266.99999999999437
  0
ARC
  8
_0-3_躯体と製品
  6
CONTINUOUS
 62
    3
 10
1015.422663870844
 20
449.58576197429079
 40
0.5
 50
11.99999999999979
 51
90
  0
LINE
  8
_0-3_躯体と製品
  6
CONTINUOUS
 62
    3
 10
1015.9117376712112
 20
449.68971781969952
 11
1017.339962291393
 21
442.97044926849401
  0
LINE
  8
_0-3_躯体と製品
  6
CONTINUOUS
 62
    3
 10
1015.422663870844
 20
450.08576197429073
 11
1006.172488013437
 21
450.08576197429073
  0
ARC
  8
_0-3_躯体と製品
  6
CONTINUOUS
 62
    3
 10
1014.9550394351701
 20
451.78576197429106
 40
0.5
 50
270
 51
11.999999999999774
  0
LINE
  8
_0-3_躯体と製品
  6
CONTINUOUS
 62
    3
 10
1006.172488013437
 20
451.28576197429101
 11
1008.5724880134381
 21
451.28576197429101
  0
LINE
  8
_0-3_躯体と製品
  6
CONTINUOUS
 62
    3
 10
1010.572488013438
 20
452.28576197429106
 11
1008.5724880134381
 21
451.28576197429101
  0
LINE
  8
_0-3_躯体と製品
  6
CONTINUOUS
 62
    3
 10
1010.572488013438
 20
451.28576197429101
 11
1010.572488013438
 21
452.28576197429106
  0
ARC
  8
_0-3_躯体と製品
  6
CONTINUOUS
 62
    3
 10
1017.839962291393
 20
441.78576197429106
 40
2.5
 50
270
 51
0
  0
LINE
  8
_0-3_躯体と製品
  6
CONTINUOUS
 62
    3
 10
1017.839962291393
 20
439.28576197429095
 11
1017.339962291393
 21
439.28576197429095
  0
LINE
  8
_0-3_躯体と製品
  6
CONTINUOUS
 62
    3
 10
1020.339962291393
 20
441.78576197429106
 11
1020.339962291393
 21
443.28576197429106
  0
LINE
  8
_0-3_躯体と製品
  6
CONTINUOUS
 62
    3
 10
1017.339962291393
 20
442.97044926849401
 11
1017.339962291393
 21
439.28576197429095
  0
ARC
  8
_0-3_躯体と製品
  6
CONTINUOUS
 62
    3
 10
1006.172488013437
 20
450.68576197429104
 40
0.6000000000000015
 50
90
 51
270
  0
ARC
  8
_0-3_躯体と製品
  6
CONTINUOUS
 62
    3
 10
1003.4902467739881
 20
498.71262178821991
 40
0.2999999999999998
 50
86.999999999994415
 51
166.99999999999969
  0
ARC
  8
_0-3_躯体と製品
  6
CONTINUOUS
 62
    3
 10
1001.4164925065883
 20
498.62102817495349
 40
0.5
 50
346.99999999999972
 51
86.999999999994444
  0
ARC
  8
_0-3_躯体と製品
  6
CONTINUOUS
 62
    3
 10
1001.9051070349323
 20
495.84749758545718
 40
0.5999999999999983
 50
166.99999999999969
 51
346.99999999999972
  0
LINE
  8
_0-3_躯体と製品
  6
CONTINUOUS
 62
    4
 10
978.4299036892811
 20
521.35520968711648
 11
977.91541520320811
 21
521.86969817318948
  0
LINE
  8
_0-3_躯体と製品
  6
CONTINUOUS
 62
    7
 10
993.07872191496824
 20
524.59298703877869
 11
978.09927889365019
 21
525.37802638242295
  0
LINE
  8
_0-3_躯体と製品
  6
CONTINUOUS
 62
    7
 10
977.88993506867826
 20
521.38350824340466
 11
978.09927889365019
 21
525.37802638242295
  0
LINE
  8
_0-3_躯体と製品
  6
CONTINUOUS
 62
    4
 10
979.92233211097209
 20
521.27699482779713
 11
977.98584017886401
 21
523.21348675990566
  0
LINE
  8
_0-3_躯体と製品
  6
CONTINUOUS
 62
    4
 10
981.41476053266615
 20
521.19877996847708
 11
978.056265154519
 21
524.5572753466231
  0
LINE
  8
_0-3_躯体と製品
  6
CONTINUOUS
 62
    4
 10
982.90718895435919
 20
521.12056510915659
 11
978.6801709434252
 21
525.34758312009103
  0
LINE
  8
_0-3_躯体と製品
  6
CONTINUOUS
 62
    4
 10
984.39961737605199
 20
521.04235024983723
 11
980.172599365118
 21
525.26936826077122
  0
LINE
  8
_0-3_躯体と製品
  6
CONTINUOUS
 62
    4
 10
985.89204579774525
 20
520.96413539051741
 11
981.66502778681127
 21
525.1911534014514
  0
LINE
  8
_0-3_躯体と製品
  6
CONTINUOUS
 62
    4
 10
987.38447421943806
 20
520.88592053119783
 11
983.15745620850407
 21
525.11293854213159
  0
LINE
  8
_0-3_躯体と製品
  6
CONTINUOUS
 62
    4
 10
988.87690264113098
 20
520.80770567187778
 11
984.64988463019699
 21
525.03472368281177
  0
LINE
  8
_0-3_躯体と製品
  6
CONTINUOUS
 62
    4
 10
990.36933106282413
 20
520.72949081255808
 11
986.14231305189105
 21
524.95650882349207
  0
LINE
  8
_0-3_躯体と製品
  6
CONTINUOUS
 62
    4
 10
991.86175948451614
 20
520.65127595323872
 11
987.63474147358102
 21
524.87829396417226
  0
LINE
  8
_0-3_躯体と製品
  6
CONTINUOUS
 62
    4
 10
992.89225538113396
 20
521.0349936189931
 11
989.12716989527507
 21
524.80007910485222
  0
LINE
  8
_0-3_躯体と製品
  6
CONTINUOUS
 62
    4
 10
993.03310533244507
 20
523.72257079242854
 11
992.11202673866114
 21
524.6436493862127
  0
LINE
  8
_0-3_躯体と製品
  6
CONTINUOUS
 62
    4
 10
992.96268035678895
 20
522.3787822057111
 11
990.61959831696811
 21
524.72186424553229
  0
LINE
  8
_0-3_躯体と製品
  6
CONTINUOUS
 62
    3
 10
1010.572488013438
 20
452.28576197429106
 11
1010.572488013438
 21
451.78576197429106
  0
LINE
  8
_0-3_躯体と製品
  6
CONTINUOUS
 62
    3
 10
993.1048898930901
 20
525.09230180615589
 11
304.63937133880609
 21
561.17325074653354
  0
LINE
  8
_0-3_躯体と製品
  6
CONTINUOUS
 62
    3
 10
992.86937808999596
 20
520.59846889976063
 11
304.403859535712
 21
556.67941784013806
  0
LINE
  8
_0-3_躯体と製品
  6
CONTINUOUS
 62
    3
 10
992.79087415563208
 20
519.10052459762846
 11
304.32535560134812
 21
555.18147353800612
  0
LINE
  8
_0-3_躯体と製品
  6
DASHED1
 62
    4
 10
991.77032300889414
 20
499.62724866991425
 11
303.30480445461109
 21
535.70819761029168
  0
LINE
  8
_0-3_躯体と製品
  6
DASHED1
 62
    4
 10
991.69181907453003
 20
498.12930436778231
 11
303.22630052024601
 21
534.21025330816008
  0
LINE
  8
_0-3_躯体と製品
  6
DASHED1
 62
    4
 10
978.04694293740704
 20
524.3793968476682
 11
319.54031042575917
 21
558.89026710075746
  0
LINE
  8
_0-3_躯体と製品
  6
CONTINUOUS
 62
    3
 10
1019.4727760453031
 20
437.78576197429095
 11
1012.4727760453032
 21
437.78576197429095
  0
ARC
  8
_0-3_躯体と製品
  6
CONTINUOUS
 62
    3
 10
1019.4727760453031
 20
524.93886827414633
 40
3
 50
0
 51
86.999999999994415
  0
ARC
  8
_0-3_躯体と製品
  6
CONTINUOUS
 62
    3
 10
1019.4727760453031
 20
440.78576197429101
 40
3
 50
270
 51
0
  0
LINE
  8
_0-3_躯体と製品
  6
CONTINUOUS
 62
    3
 10
1022.4727760453031
 20
524.93886827414633
 11
1022.4727760453031
 21
440.78576197429101
  0
POINT
  8
_0-3_躯体と製品
 62
    4
 10
1022.4727760453031
 20
527.78576197429118
  0
LINE
  8
_0-3_躯体と製品
  6
CONTINUOUS
 62
    3
 10
289.42044008906015
 20
566.20340700000349
 11
1019.6297839140321
 21
527.93475687841021
  0
LINE
  8
_0-3_躯体と製品
  6
CONTINUOUS
 62
    3
 10
289.34193615469604
 20
564.70546269787155
 11
1019.551279979667
 21
526.43681257627804
  0
ARC
  8
_0-3_躯体と製品
  6
CONTINUOUS
 62
    3
 10
1019.4727760453031
 20
524.93886827414633
 40
1.5
 50
0
 51
86.999999999994415
  0
LINE
  8
_0-3_躯体と製品
  6
CONTINUOUS
 62
    3
 10
1020.9727760453031
 20
440.78576197429101
 11
1020.9727760453031
 21
524.93886827414633
  0
ARC
  8
_0-3_躯体と製品
  6
CONTINUOUS
 62
    3
 10
1019.4727760453031
 20
440.78576197429101
 40
1.5
 50
270
 51
0
  0
LINE
  8
_0-3_躯体と製品
  6
CONTINUOUS
 62
    3
 10
1012.4727760453032
 20
437.78576197429095
 11
1012.4727760453032
 21
439.28576197429095
  0
LINE
  8
_0-3_躯体と製品
  6
CONTINUOUS
 62
    3
 10
1019.4727760453031
 20
439.28576197429095
 11
1012.4727760453032
 21
439.28576197429095
  0
LINE
  8
_0-3_躯体と製品
  6
CONTINUOUS
 62
    7
 10
993.1048898930901
 20
525.09230180615589
 11
993.24759776142616
 21
527.81533014830325
  0
LINE
  8
_0-3_躯体と製品
  6
CONTINUOUS
 62
    7
 10
978.12544687177126
 20
525.87734114980015
 11
978.26815474010812
 21
528.60036949194739
  0
LINE
  8
_0-3_躯体と製品
  6
CONTINUOUS
 62
    4
 10
981.65027233575915
 20
525.69261287487268
 11
978.76875084907306
 21
528.57413436155866
  0
LINE
  8
_0-3_躯体と製品
  6
CONTINUOUS
 62
    4
 10
983.14270075745219
 20
525.61439801555241
 11
980.26117927076598
 21
528.49591950223862
  0
LINE
  8
_0-3_躯体と製品
  6
CONTINUOUS
 62
    4
 10
984.635129179145
 20
525.53618315623271
 11
981.75360769245913
 21
528.41770464291903
  0
LINE
  8
_0-3_躯体と製品
  6
CONTINUOUS
 62
    4
 10
986.12755760083826
 20
525.45796829691312
 11
983.24603611415205
 21
528.33948978359911
  0
LINE
  8
_0-3_躯体と製品
  6
CONTINUOUS
 62
    4
 10
987.61998602253107
 20
525.37975343759331
 11
984.73846453584508
 21
528.26127492427941
  0
LINE
  8
_0-3_躯体と製品
  6
CONTINUOUS
 62
    4
 10
989.11241444422399
 20
525.30153857827327
 11
986.23089295753812
 21
528.18306006495948
  0
LINE
  8
_0-3_躯体と製品
  6
CONTINUOUS
 62
    4
 10
990.60484286591804
 20
525.22332371895357
 11
987.72332137923195
 21
528.10484520563966
  0
LINE
  8
_0-3_躯体と製品
  6
CONTINUOUS
 62
    4
 10
992.09727128760915
 20
525.14510885963386
 11
989.21574980092316
 21
528.02663034632008
  0
LINE
  8
_0-3_躯体と製品
  6
CONTINUOUS
 62
    4
 10
993.12776718422697
 20
525.52882652538858
 11
990.70817822261517
 21
527.94841548699992
  0
LINE
  8
_0-3_躯体と製品
  6
CONTINUOUS
 62
    4
 10
980.1578439140651
 20
525.77082773419284
 11
978.22135198195701
 21
527.70731966630092
  0
LINE
  8
_0-3_躯体と製品
  6
CONTINUOUS
 62
    4
 10
993.19819215988196
 20
526.87261511210613
 11
992.20060664430798
 21
527.87020062768033
  0
ARC
  8
_0-3_躯体と製品
  6
DASHED1
 62
    7
 10
999.13595567957395
 20
519.99644179120469
 40
3
 50
10.124671655396439
 51
86.999999999994415
  0
LINE
  8
_0-3_躯体と製品
  6
DASHED1
 62
    7
 10
1002.089238406099
 20
520.52381370665557
 11
1016.0428519555151
 21
442.3835778299291
  0
LINE
  8
_0-3_躯体と製品
  6
DASHED1
 62
    7
 10
1020.4727760453031
 20
443.17463570310559
 11
1016.042851955578
 21
442.38357782957348
  0
LINE
  8
_0-3_躯体と製品
  6
DASHED1
 62
    7
 10
1006.519162495887
 20
521.31487157983202
 11
1020.4727760453031
 21
443.17463570310559
  0
ARC
  8
_0-3_躯体と製品
  6
DASHED1
 62
    7
 10
999.13595567957395
 20
519.99644179120469
 40
7.5
 50
10.124671655396439
 51
86.999999999994415
  0
LINE
  8
_0-3_躯体と製品
  6
DASHED1
 62
    7
 10
993.24759776142616
 20
527.81533014830325
 11
999.52847535139608
 21
527.48616330186383
  0
LINE
  8
_0-3_躯体と製品
  6
DASHED1
 62
    7
 10
993.01208595833316
 20
523.32149724190708
 11
999.29296354830308
 21
522.99233039546834
  0
CIRCLE
  8
_0-4_図枠
  6
CONTINUOUS
 62
    4
 10
1006.226358755549
 20
509.72778878073052
 40
0.8999999999999999
  0
CIRCLE
  8
_0-4_図枠
  6
CONTINUOUS
 62
    4
 10
1032.8628398989513
 20
555.86352745595309
 40
6
  0
LINE
  8
_0-4_図枠
  6
CONTINUOUS
 62
    4
 10
1006.226358755549
 20
509.72778878073052
 11
1029.862839898952
 21
550.66737503324634
  0
CIRCLE
  8
_0-4_図枠
  6
CONTINUOUS
 62
    4
 10
1005.6821320171811
 20
527.90839474019458
 40
0.8999999999999999
  0
LINE
  8
_0-4_図枠
  6
CONTINUOUS
 62
    4
 10
1005.6821320171811
 20
527.90839474019458
 11
1030.818613160583
 21
571.44605720406389
  0
CIRCLE
  8
_0-4_図枠
  6
CONTINUOUS
 62
    4
 10
1033.818613160583
 20
576.64220962677075
 40
6
  0
LINE
  8
_0-2_寸法
  6
CONTINUOUS
 62
    4
 10
1024.4727760453034
 20
437.78576197429095
 11
1062.4727760453031
 21
437.78576197429095
  0
INSERT
  2
-000-_Dot
  8
_0-2_寸法
 10
1062.4727760453031
 20
437.78576197429095
 41
0.3333333333333333
 42
0.3333333333333333
 50
270
  0
POINT
  8
_0-2_寸法
 62
    7
 10
1024.4727760453034
 20
437.78576197429095
  0
POINT
  8
_0-2_寸法
 62
    7
 10
1062.4727760453031
 20
437.78576197429095
  0
LINE
  8
_0-2_寸法
  6
CONTINUOUS
 62
    4
 10
1024.4727760453034
 20
437.78576197429095
 11
1082.4727760453029
 21
437.78576197429095
  0
LINE
  8
_0-2_寸法
  6
CONTINUOUS
 62
    4
 10
1082.4727760453029
 20
526.78576197429118
 11
1082.4727760453029
 21
438.78576197429078
  0
INSERT
  2
-000-_Dot
  8
_0-2_寸法
 10
1082.4727760453029
 20
527.78576197429118
 41
0.3333333333333333
 42
0.3333333333333333
 50
90
  0
INSERT
  2
-000-_Dot
  8
_0-2_寸法
 10
1082.4727760453029
 20
437.78576197429095
 41
0.3333333333333333
 42
0.3333333333333333
 50
270
  0
POINT
  8
_0-2_寸法
 62
    7
 10
1024.4727760453034
 20
437.78576197429095
  0
POINT
  8
_0-2_寸法
 62
    7
 10
1082.4727760453029
 20
437.78576197429095
  0
CIRCLE
  8
_0-4_図枠
  6
CONTINUOUS
 62
    4
 10
1012.1741044609887
 20
475.17649226079436
 40
0.8999999999999999
  0
LINE
  8
_0-4_図枠
  6
CONTINUOUS
 62
    4
 10
1012.1741044609887
 20
475.17649226079436
 11
1029.5446304186519
 21
505.26312577365979
  0
LINE
  8
ADD_LINE
  6
DOT
 62
    9
 10
1019.6297839140323
 20
527.93475687840998
 11
1047.702654255376
 21
526.46352008571967
  0
LINE
  8
_0-2_寸法
  6
CONTINUOUS
 62
    4
 10
289.47277604530314
 20
599.32277386449914
 11
1021.4727760453032
 21
599.32277386449914
  0
INSERT
  2
-000-_Dot
  8
_0-2_寸法
 10
1022.4727760453031
 20
599.32277386449914
 41
0.3333333333333333
 42
0.3333333333333333
 50
0
  0
POINT
  8
_0-2_寸法
 62
    7
 10
1022.4727760453031
 20
599.32277386449914
  0
LINE
  8
_0-2_寸法
  6
CONTINUOUS
 62
    4
 10
1022.4727760453031
 20
545.45568797992041
 11
1022.4727760453031
 21
671.32277386449891
  0
LINE
  8
_0-2_寸法
  6
CONTINUOUS
 62
    4
 10
274.47277604530314
 20
671.32277386449891
 11
1021.4727760453032
 21
671.32277386449891
  0
INSERT
  2
-000-_Dot
  8
_0-2_寸法
 10
1022.4727760453031
 20
671.32277386449891
 41
0.3333333333333333
 42
0.3333333333333333
 50
0
  0
POINT
  8
_0-2_寸法
 62
    7
 10
1022.4727760453031
 20
671.32277386449891
  0
LINE
  8
_0-2_寸法
  6
CONTINUOUS
 62
    4
 10
1022.4727760453031
 20
444.90471556954026
 11
1022.4727760453031
 21
374.31859572420092
  0
INSERT
  2
-000-_Dot
  8
_0-2_寸法
 10
1022.4727760453031
 20
374.31859572420092
 41
0.3333333333333333
 42
0.3333333333333333
 50
0
  0
POINT
  8
_0-2_寸法
 62
    7
 10
1022.4727760453031
 20
374.31859572420092
  0
TEXT
  8
_0-2_寸法
 62
    4
 10
643.14849112020465
 20
671.07426234493425
 40
7.5
 41
1
 50
0
  1
W
  0
TEXT
  8
_0-2_寸法
 62
    4
 10
643.52394001999994
 20
600.48986918339733
 40
7.5
 41
1
 50
0
  1
A
  0
TEXT
  8
_0-2_寸法
 62
    4
 10
619.1197615332984
 20
590.35274888892127
 40
7.5
 41
1
 50
0
  1
（キャップ幅）
  0
POINT
  8
_0-2_寸法
 62
    7
 10
1082.4727760453029
 20
527.78576197429118
  0
TEXT
  8
_0-4_図枠
 62
    4
 10
1029.0174413710624
 20
573.56407227992088
 40
7.5
 41
1
 50
0
  1
１
  0
TEXT
  8
_0-4_図枠
 62
    4
 10
1029.3641398800428
 20
551.72206621415546
 40
7.5
 41
1
 50
0
  1
９
  0
TEXT
  8
_0-4_図枠
 62
    4
 10
1027.9773458441211
 20
506.65126004670316
 40
7.5
 41
1
 50
0
  1
５
  0
TEXT
  8
_0-2_寸法
 62
    4
 10
1082.4090117540445
 20
480.30217336419247
 40
7.5
 41
1
 50
90
  1
90
  0
TEXT
  8
_0-2_寸法
 62
    4
 10
1061.6071012152202
 20
456.37997624454471
 40
7.5
 41
1
 50
90
  1
44
  0
INSERT
  2
-000-_Dot
  8
_0-2_寸法
 10
1062.4727760453031
 20
481.78935312629608
 41
0.3333333333333333
 42
0.3333333333333333
 50
90
  0
POINT
  8
_0-2_寸法
 62
    7
 10
1062.4727760453031
 20
481.78935312629608
  0
LINE
  8
_0-2_寸法
  6
CONTINUOUS
 62
    4
 10
1062.4727760453031
 20
481.78576197429089
 11
1062.4727760453031
 21
438.78576197429078
  0
POINT
  8
_0-2_寸法
 62
    7
 10
672.47277604530325
 20
374.31859572420092
  0
POINT
  8
_0-2_寸法
 62
    7
 10
672.47277604530325
 20
374.31859572420092
  0
INSERT
  2
-000-_Dot
  8
_0-2_寸法
 10
672.47277604530325
 20
374.31859572420092
 41
0.3333333333333333
 42
0.3333333333333333
 50
180
  0
POINT
  8
_0-2_寸法
 62
    7
 10
672.47277604530325
 20
374.31859572420092
  0
INSERT
  2
-000-_Dot
  8
_0-2_寸法
 10
672.47277604530325
 20
374.31859572420092
 41
0.3333333333333333
 42
0.3333333333333333
 50
0
  0
INSERT
  2
-000-_Dot
  8
_0-2_寸法
 10
802.47277604530325
 20
374.31859572420092
 41
0.3333333333333333
 42
0.3333333333333333
 50
0
  0
POINT
  8
_0-2_寸法
 62
    7
 10
802.47277604530325
 20
374.31859572420092
  0
INSERT
  2
-000-_Dot
  8
_0-2_寸法
 10
802.47277604530325
 20
374.31859572420092
 41
0.3333333333333333
 42
0.3333333333333333
 50
180
  0
POINT
  8
_0-2_寸法
 62
    7
 10
802.47277604530325
 20
374.31859572420092
  0
POINT
  8
_0-2_寸法
 62
    7
 10
802.47277604530325
 20
374.31859572420092
  0
LINE
  8
_0-2_寸法
  6
CONTINUOUS
 62
    4
 10
802.47277604530325
 20
374.31859572420092
 11
272.47277604530319
 21
374.31859572420092
  0
TEXT
  8
_0-2_寸法
 62
    4
 10
733.66577650426223
 20
374.68109482200356
 40
7.5
 41
1
 50
0
  1
Ｃ
  0
LINE
  8
_0-2_寸法
  6
CONTINUOUS
 62
    4
 10
1022.4727760453031
 20
374.31859572420092
 11
802.47277604530325
 21
374.31859572420092
  0
LINE
  8
_0-0_0
  6
CONTINUOUS
 62
    4
 10
1062.4727760453031
 20
481.78935312629608
 11
809.50637656029085
 21
481.78935312629608
  0
TEXT
  8
_0-2_寸法
 62
    4
 10
460.16357915427665
 20
375.49692158727913
 40
7.5
 41
1
 50
0
  1
400
  0
TEXT
  8
_0-2_寸法
 62
    4
 10
909.99581002204252
 20
374.37088815510288
 40
7.5
 41
1
 50
0
  1
220
  0
LINE
  8
ADD_LINE
  6
DOT
 62
    9
 10
802.47277604530325
 20
475.51430607917916
 11
802.47277604530325
 21
374.31859572420092
  0
LINE
  8
_0-3_躯体と製品
  6
CONTINUOUS
 62
    7
 10
672.47277604530325
 20
481.78935312629608
 11
672.47277604530325
 21
357.61575073975609
  0
LINE
  8
_0-3_躯体と製品
  6
CONTINUOUS
 62
    7
 10
670.48038664912008
 20
480.96366461179184
 11
662.49265362671292
 21
389.66345838519567
  0
LINE
  8
_0-3_躯体と製品
  6
CONTINUOUS
 62
    7
 10
671.47658134721121
 20
480.87650886904402
 11
663.49647346425581
 21
389.66345838519567
  0
ARC
  8
_0-3_躯体と製品
  6
CONTINUOUS
 62
    7
 10
672.47277604530325
 20
480.78935312629631
 40
2
 50
90
 51
175.00000000000051
  0
ARC
  8
_0-3_躯体と製品
  6
CONTINUOUS
 62
    7
 10
672.47277604530325
 20
480.78935312629631
 40
1
 50
90
 51
175.00000000000051
  0
CIRCLE
  8
_0-5_ADD_LINE
  6
CONTINUOUS
 62
    4
 10
797.80752188493102
 20
543.71431319636099
 40
6
  0
LINE
  8
_0-5_ADD_LINE
  6
CONTINUOUS
 62
    4
 10
769.99446762948105
 20
495.54069011225215
 11
794.80752188493227
 21
538.51816077365436
  0
CIRCLE
  8
_0-5_ADD_LINE
  6
CONTINUOUS
 62
    4
 10
777.431944905215
 20
471.67533663615791
 40
6
  0
LINE
  8
_0-5_ADD_LINE
  6
CONTINUOUS
 62
    4
 10
762.65025877344601
 20
497.27796803791688
 11
774.431944905215
 21
476.87148905886443
  0
CIRCLE
  8
_0-5_ADD_LINE
  6
CONTINUOUS
 62
    4
 10
762.65025877344601
 20
497.27796803791688
 40
0.8999999999999999
  0
CIRCLE
  8
_0-5_ADD_LINE
  6
CONTINUOUS
 62
    4
 10
769.99446762948105
 20
495.54069011225215
 40
0.8999999999999999
  0
CIRCLE
  8
_0-5_ADD_LINE
  6
CONTINUOUS
 62
    4
 10
756.81018687399808
 20
489.88992527355458
 40
0.8999999999999999
  0
LINE
  8
_0-5_ADD_LINE
  6
CONTINUOUS
 62
    4
 10
756.81018687399808
 20
489.88992527355458
 11
773.23257253885515
 21
461.44551892053221
  0
CIRCLE
  8
_0-5_ADD_LINE
  6
CONTINUOUS
 62
    4
 10
776.23257253885515
 20
456.24936649782558
 40
6
  0
LINE
  8
_0-5_ADD_LINE
  6
CONTINUOUS
 62
    4
 10
745.35102429228107
 20
487.02551005887381
 11
735.65377066040207
 21
470.22937407457698
  0
CIRCLE
  8
_0-5_ADD_LINE
  6
CONTINUOUS
 62
    4
 10
745.35102429228107
 20
487.02551005887381
 40
0.8999999999999999
  0
CIRCLE
  8
_0-5_ADD_LINE
  6
CONTINUOUS
 62
    4
 10
732.65377066040207
 20
465.03322165187046
 40
6
  0
CIRCLE
  8
_0-5_ADD_LINE
  6
CONTINUOUS
 62
    4
 10
750.34676506930111
 20
456.70669172814951
 40
0.8999999999999999
  0
LINE
  8
_0-5_ADD_LINE
  6
CONTINUOUS
 62
    4
 10
750.34676506930111
 20
456.70669172814951
 11
740.30515087455422
 21
439.31410575284372
  0
CIRCLE
  8
_0-5_ADD_LINE
  6
CONTINUOUS
 62
    4
 10
737.30515087455422
 20
434.1179533301372
 40
6
  0
LINE
  8
_0-5_ADD_LINE
  6
CONTINUOUS
 62
    4
 10
753.47277604530325
 20
421.78935312629642
 11
801.47277604530314
 21
421.78935312629642
  0
POINT
  8
_0-5_ADD_LINE
 62
    7
 10
752.47277604530314
 20
421.78935312629642
  0
POINT
  8
_0-5_ADD_LINE
 62
    7
 10
802.47277604530325
 20
421.78935312629642
  0
POINT
  8
_0-5_ADD_LINE
 62
    7
 10
802.40425278303201
 20
421.79294427830121
  0
INSERT
  2
-001-_Dot_1_
  8
_0-5_ADD_LINE
 10
802.40425278303201
 20
421.79294427830121
 41
0.3333333333333333
 42
0.3333333333333333
 50
0
  0
INSERT
  2
-000-_Dot
  8
_0-5_ADD_LINE
 10
802.47277604530325
 20
421.78935312629642
 41
0.3333333333333333
 42
0.3333333333333333
 50
0
  0
LINE
  8
_0-6_
  6
CONTINUOUS
 62
    2
 10
747.70834333089545
 20
498.36731612629603
 11
756.89573533089538
 21
497.88582512629557
  0
LINE
  8
_0-6_
  6
CONTINUOUS
 62
    4
 10
737.49044833089454
 20
482.36337559799119
 11
737.91642585919931
 21
482.78935312629653
  0
ARC
  8
_0-6_
  6
CONTINUOUS
 62
    7
 10
737.49044833089454
 20
474.53935312629653
 40
8.25
 50
90
 51
108.92464441605439
  0
ARC
  8
_0-6_
  6
CONTINUOUS
 62
    7
 10
737.49044833089454
 20
474.53935312629653
 40
9.25
 50
90
 51
108.92464441605439
  0
ARC
  8
_0-6_
  6
CONTINUOUS
 62
    7
 10
731.49044833089454
 20
492.03935312629631
 40
9.25
 50
270
 51
288.92464441605443
  0
LINE
  8
_0-6_
  6
DASHED1
 62
    3
 10
757.22277704530325
 20
472.78935312629608
 11
756.52277504530321
 21
473.48935212629647
  0
LINE
  8
_0-6_
  6
DASHED1
 62
    3
 10
756.52277504530321
 20
482.78935212629619
 11
756.52277504530321
 21
473.48935212629647
  0
LINE
  8
_0-6_
  6
DASHED1
 62
    3
 10
757.22277704530325
 20
454.16118012629647
 11
757.22277704530325
 21
472.78935312629608
  0
LINE
  8
_0-6_
  6
DASHED1
 62
    3
 10
756.97277504530337
 20
442.28935212629619
 11
756.97277504530337
 21
443.15265612629594
  0
LINE
  8
_0-6_
  6
DASHED1
 62
    3
 10
759.09780704530317
 20
443.52735612629601
 11
757.22277704530325
 21
454.16118012629647
  0
LINE
  8
_0-6_
  6
DASHED1
 62
    3
 10
752.97277604530325
 20
453.78935112629631
 11
751.97277704530325
 21
453.78935112629631
  0
LINE
  8
_0-6_
  6
DASHED1
 62
    3
 10
747.72277604530325
 20
472.78935312629608
 11
748.42277504530307
 21
473.48935212629647
  0
LINE
  8
_0-6_
  6
DASHED1
 62
    3
 10
748.42277504530307
 20
482.78935212629619
 11
748.42277504530307
 21
473.48935212629647
  0
LINE
  8
_0-6_
  6
DASHED1
 62
    3
 10
747.72277604530325
 20
454.16118012629647
 11
747.72277604530325
 21
472.78935312629608
  0
LINE
  8
_0-6_
  6
DASHED1
 62
    3
 10
748.97277704530325
 20
441.28935312629608
 11
755.97277604530325
 21
441.28935312629608
  0
ARC
  8
_0-6_
  6
DASHED1
 62
    3
 10
748.97277704530325
 20
442.28935212629619
 40
0.9999989999999993
 50
180
 51
270
  0
LINE
  8
_0-6_
  6
DASHED1
 62
    3
 10
747.97277504530337
 20
442.28935212629619
 11
747.97277504530337
 21
443.15265612629594
  0
LINE
  8
_0-6_
  6
DASHED1
 62
    3
 10
745.84774604530332
 20
443.52735612629601
 11
750.03317804530298
 21
442.78935312629608
  0
LINE
  8
_0-6_
  6
DASHED1
 62
    3
 10
752.97277604530325
 20
453.78935112629631
 11
754.91237204530319
 21
442.78935312629608
  0
LINE
  8
_0-6_
  6
DASHED1
 62
    3
 10
751.97277704530325
 20
453.78935112629631
 11
750.03317804530298
 21
442.78935312629608
  0
LINE
  8
_0-6_
  6
DASHED1
 62
    3
 10
745.84774604530332
 20
443.52735612629601
 11
747.72277604530325
 21
454.16118012629647
  0
LINE
  8
_0-6_
  6
DASHED1
 62
    3
 10
757.22277704530325
 20
472.78935312629608
 11
747.72277604530325
 21
472.78935312629608
  0
LINE
  8
_0-6_
  6
DASHED1
 62
    3
 10
756.52277504530321
 20
473.48935212629647
 11
748.42277504530307
 21
473.48935212629647
  0
LINE
  8
_0-6_
  6
DASHED1
 62
    3
 10
759.09780704530317
 20
443.52735612629601
 11
754.91237204530319
 21
442.78935312629608
  0
ARC
  8
_0-6_
  6
DASHED1
 62
    3
 10
755.97277604530325
 20
442.28935212629619
 40
0.9999989999999993
 50
270
 51
0
  0
LINE
  8
_0-6_
  6
CONTINUOUS
 62
    4
 10
738.33063942157219
 20
481.78935312629608
 11
739.33063942157253
 21
482.78935312629653
  0
LINE
  8
_0-6_
  6
CONTINUOUS
 62
    4
 10
739.74485298394541
 20
481.78935312629608
 11
740.74485298394518
 21
482.78935312629585
  0
LINE
  8
_0-6_
  6
CONTINUOUS
 62
    4
 10
741.15906654631942
 20
481.78935312629608
 11
742.15906654631931
 21
482.78935312629585
  0
LINE
  8
_0-6_
  6
CONTINUOUS
 62
    4
 10
742.57328010869219
 20
481.78935312629608
 11
743.57328010869253
 21
482.78935312629585
  0
LINE
  8
_0-6_
  6
CONTINUOUS
 62
    4
 10
743.98749367106541
 20
481.78935312629608
 11
744.98749367106518
 21
482.78935312629585
  0
LINE
  8
_0-6_
  6
CONTINUOUS
 62
    4
 10
745.40170723343942
 20
481.78935312629608
 11
746.40170723343851
 21
482.78935312629585
  0
LINE
  8
_0-6_
  6
CONTINUOUS
 62
    4
 10
746.81592079581014
 20
481.78935312629608
 11
747.81592079581048
 21
482.78935312629585
  0
LINE
  8
_0-6_
  6
CONTINUOUS
 62
    4
 10
748.23013435818336
 20
481.7893531262954
 11
749.23013435818325
 21
482.78935312629585
  0
LINE
  8
_0-6_
  6
CONTINUOUS
 62
    4
 10
749.64434792055613
 20
481.7893531262954
 11
750.64434792055647
 21
482.78935312629585
  0
LINE
  8
_0-6_
  6
CONTINUOUS
 62
    4
 10
751.05856148292935
 20
481.7893531262954
 11
752.05856148293049
 21
482.78935312629585
  0
LINE
  8
_0-6_
  6
CONTINUOUS
 62
    4
 10
752.47277504530337
 20
481.78935312629608
 11
753.47277504530325
 21
482.78935312629585
  0
LINE
  8
_0-6_
  6
CONTINUOUS
 62
    4
 10
753.88698860767738
 20
481.78935312629608
 11
754.88698860767647
 21
482.78935312629585
  0
LINE
  8
_0-6_
  6
CONTINUOUS
 62
    4
 10
755.30120217005015
 20
481.78935312629608
 11
756.30120217005049
 21
482.78935312629585
  0
LINE
  8
_0-6_
  6
CONTINUOUS
 62
    4
 10
756.71541573242337
 20
481.7893531262954
 11
757.71541573242325
 21
482.78935312629517
  0
LINE
  8
_0-6_
  6
CONTINUOUS
 62
    4
 10
758.12962929479534
 20
481.78935312629608
 11
759.12962929479522
 21
482.78935312629653
  0
LINE
  8
_0-6_
  6
CONTINUOUS
 62
    4
 10
759.5438428571681
 20
481.78935312629608
 11
760.54384285716844
 21
482.78935312629585
  0
LINE
  8
_0-6_
  6
CONTINUOUS
 62
    4
 10
760.95805641954144
 20
481.78935312629608
 11
761.95805641954246
 21
482.78935312629585
  0
LINE
  8
_0-6_
  6
CONTINUOUS
 62
    4
 10
762.37226998191534
 20
481.78935312629608
 11
763.37226998191522
 21
482.78935312629585
  0
LINE
  8
_0-6_
  6
CONTINUOUS
 62
    4
 10
763.7864835442881
 20
481.78935312629608
 11
764.78648354428844
 21
482.78935312629585
  0
LINE
  8
_0-6_
  6
CONTINUOUS
 62
    4
 10
765.20069710666212
 20
481.78935312629608
 11
766.20069710666246
 21
482.78935312629585
  0
LINE
  8
_0-6_
  6
CONTINUOUS
 62
    4
 10
766.61491066903534
 20
481.78935312629608
 11
767.49044833089454
 21
482.66489078815528
  0
LINE
  8
_0-6_
  6
CONTINUOUS
 62
    3
 10
767.49044833089454
 20
481.78935312629608
 11
737.49044833089454
 21
481.78935312629608
  0
LINE
  8
_0-6_
  6
CONTINUOUS
 62
    3
 10
737.49044833089454
 20
481.78935312629608
 11
737.49044833089454
 21
482.78935312629585
  0
LINE
  8
_0-6_
  6
CONTINUOUS
 62
    3
 10
737.49044833089454
 20
482.78935312629585
 11
767.49044833089454
 21
482.78935312629585
  0
LINE
  8
_0-6_
  6
CONTINUOUS
 62
    3
 10
767.49044833089454
 20
482.78935312629585
 11
767.49044833089454
 21
481.78935312629608
  0
ARC
  8
_0-6_
  6
CONTINUOUS
 62
    7
 10
731.49044833089454
 20
492.03935312629631
 40
10.25
 50
270
 51
288.92464441605443
  0
LINE
  8
_0-6_
  6
CONTINUOUS
 62
    2
 10
761.49044833089533
 20
487.89812312629635
 11
761.49044833089533
 21
486.2981241262961
  0
LINE
  8
_0-6_
  6
CONTINUOUS
 62
    2
 10
761.49044833089533
 20
487.89812312629635
 11
743.49044833089533
 21
487.89812312629635
  0
LINE
  8
_0-6_
  6
CONTINUOUS
 62
    2
 10
743.49044833089533
 20
487.89812312629635
 11
743.49044833089533
 21
486.2981241262961
  0
LINE
  8
_0-6_
  6
CONTINUOUS
 62
    2
 10
746.61044833089522
 20
492.161186126296
 11
746.61044833089522
 21
487.89812312629635
  0
LINE
  8
_0-6_
  6
CONTINUOUS
 62
    2
 10
747.5404483308954
 20
492.69812312629608
 11
746.61044833089522
 21
492.161186126296
  0
ARC
  8
_0-6_
  6
CONTINUOUS
 62
    2
 10
747.5404483308954
 20
488.88872912629597
 40
3.8093940000000002
 50
59.210035999999995
 51
90
  0
ARC
  8
_0-6_
  6
CONTINUOUS
 62
    2
 10
752.49044833089533
 20
484.04876312629619
 40
8.6493599999999997
 50
69.705444999999997
 51
110.294555
  0
LINE
  8
_0-6_
  6
CONTINUOUS
 62
    2
 10
749.49044833089533
 20
492.161186126296
 11
749.49044833089533
 21
487.89812312629635
  0
LINE
  8
_0-6_
  6
CONTINUOUS
 62
    2
 10
755.49044833089533
 20
492.161186126296
 11
755.49044833089533
 21
487.89812312629635
  0
LINE
  8
_0-6_
  6
CONTINUOUS
 62
    2
 10
758.37044833089544
 20
492.161186126296
 11
758.37044833089544
 21
487.89812312629635
  0
LINE
  8
_0-6_
  6
CONTINUOUS
 62
    2
 10
757.44044833089549
 20
492.69812312629608
 11
758.37044833089544
 21
492.161186126296
  0
LINE
  8
_0-6_
  6
CONTINUOUS
 62
    2
 10
747.5404483308954
 20
492.69812312629608
 11
757.44044833089549
 21
492.69812312629608
  0
ARC
  8
_0-6_
  6
CONTINUOUS
 62
    2
 10
757.44044833089549
 20
488.88872912629597
 40
3.8093940000000002
 50
90
 51
120.789964
  0
LINE
  8
_0-6_
  6
CONTINUOUS
 62
    2
 10
747.7606783308953
 20
499.36594712629596
 11
747.70834333089545
 21
498.36731612629603
  0
LINE
  8
_0-6_
  6
CONTINUOUS
 62
    2
 10
756.94807033089523
 20
498.88445612629596
 11
756.89573533089538
 21
497.88582512629557
  0
ARC
  8
_0-6_
  6
CONTINUOUS
 62
    2
 10
746.76205033089548
 20
499.41828212629582
 40
0.9999989999999993
 50
356.99999999999994
 51
87
  0
ARC
  8
_0-6_
  6
CONTINUOUS
 62
    2
 10
757.94670133089528
 20
498.83211812629554
 40
0.9999989999999993
 50
87
 51
176.99999999999997
  0
ARC
  8
_0-6_
  6
CONTINUOUS
 62
    2
 10
740.49044833089533
 20
493.29812312629622
 40
0.9999989999999993
 50
270
 51
0
  0
LINE
  8
_0-6_
  6
CONTINUOUS
 62
    2
 10
740.49044833089533
 20
492.2981241262961
 11
736.2904483308954
 21
492.2981241262961
  0
ARC
  8
_0-6_
  6
CONTINUOUS
 62
    2
 10
744.09044833089536
 20
499.558295126296
 40
0.9999989999999993
 50
87.000000000000014
 51
180
  0
LINE
  8
_0-6_
  6
CONTINUOUS
 62
    2
 10
760.9427833308954
 20
499.67647412629606
 11
744.14278333089521
 21
500.55692312629583
  0
ARC
  8
_0-6_
  6
CONTINUOUS
 62
    2
 10
760.8904483308952
 20
498.67784312629612
 40
0.9999989999999993
 50
0
 51
87.000000000000014
  0
LINE
  8
_0-6_
  6
CONTINUOUS
 62
    2
 10
764.49044833089533
 20
492.2981241262961
 11
768.69044833089549
 21
492.2981241262961
  0
ARC
  8
_0-6_
  6
CONTINUOUS
 62
    2
 10
764.49044833089533
 20
493.29812312629622
 40
0.9999989999999993
 50
180
 51
270
  0
LINE
  8
_0-6_
  6
CONTINUOUS
 62
    2
 10
743.09044933089524
 20
493.29812312629622
 11
743.09044933089524
 21
499.558295126296
  0
ARC
  8
_0-6_
  6
CONTINUOUS
 62
    2
 10
740.49044833089533
 20
493.29812312629622
 40
2.6000009999999998
 50
270
 51
0
  0
LINE
  8
_0-6_
  6
CONTINUOUS
 62
    2
 10
740.49044833089533
 20
490.6981221262962
 11
735.99044833089533
 21
490.6981221262962
  0
LINE
  8
_0-6_
  6
CONTINUOUS
 62
    2
 10
741.49044733089545
 20
499.558295126296
 11
741.49044733089545
 21
493.29812312629622
  0
ARC
  8
_0-6_
  6
CONTINUOUS
 62
    2
 10
744.09044833089536
 20
499.558295126296
 40
2.6000009999999998
 50
87.000000000000014
 51
180
  0
LINE
  8
_0-6_
  6
CONTINUOUS
 62
    2
 10
763.49044933089522
 20
498.67784312629612
 11
763.49044933089522
 21
493.29812312629622
  0
ARC
  8
_0-6_
  6
CONTINUOUS
 62
    2
 10
760.8904483308952
 20
498.67784312629612
 40
2.6000009999999998
 50
0
 51
87.000000000000014
  0
LINE
  8
_0-6_
  6
CONTINUOUS
 62
    2
 10
761.02652233089543
 20
501.27428012629628
 11
744.22652233089536
 21
502.15473212629615
  0
LINE
  8
_0-6_
  6
CONTINUOUS
 62
    2
 10
761.8904473308952
 20
493.29812312629622
 11
761.8904473308952
 21
498.67784312629612
  0
ARC
  8
_0-6_
  6
CONTINUOUS
 62
    2
 10
764.49044833089533
 20
493.29812312629622
 40
2.6000009999999998
 50
180
 51
270
  0
LINE
  8
_0-6_
  6
CONTINUOUS
 62
    2
 10
764.49044833089533
 20
490.6981221262962
 11
768.99044833089533
 21
490.6981221262962
  0
LINE
  8
_0-6_
  6
CONTINUOUS
 62
    2
 10
768.69044833089549
 20
489.79812212629633
 11
766.74044833089533
 21
489.79812212629633
  0
ARC
  8
_0-6_
  6
CONTINUOUS
 62
    2
 10
768.69044833089549
 20
490.09812212629606
 40
0.2999999999999998
 50
270
 51
0
  0
ARC
  8
_0-6_
  6
CONTINUOUS
 62
    2
 10
768.69044833089549
 20
491.99812412629637
 40
0.2999999999999998
 50
0
 51
90
  0
LINE
  8
_0-6_
  6
CONTINUOUS
 62
    2
 10
751.99044733089545
 20
486.2981241262961
 11
752.49044833089533
 21
485.79812312629622
  0
LINE
  8
_0-6_
  6
CONTINUOUS
 62
    2
 10
752.99044933089522
 20
486.2981241262961
 11
752.49044833089533
 21
485.79812312629622
  0
LINE
  8
_0-6_
  6
CONTINUOUS
 62
    2
 10
747.49044733089545
 20
484.29812312629622
 11
747.49044733089545
 21
483.79812212629633
  0
LINE
  8
_0-6_
  6
CONTINUOUS
 62
    2
 10
768.49044733089545
 20
493.7981241262961
 11
765.74044933089522
 21
493.7981241262961
  0
ARC
  8
_0-6_
  6
CONTINUOUS
 62
    2
 10
768.49044733089545
 20
494.29812212629633
 40
0.500001
 50
270
 51
0
  0
ARC
  8
_0-6_
  6
CONTINUOUS
 62
    2
 10
765.74044933089522
 20
493.0481241262961
 40
0.75
 50
90
 51
270
  0
LINE
  8
_0-6_
  6
CONTINUOUS
 62
    2
 10
757.49044933089522
 20
484.29812312629622
 11
768.99044833089533
 21
484.29812312629622
  0
LINE
  8
_0-6_
  6
CONTINUOUS
 62
    2
 10
757.49044933089522
 20
484.29812312629622
 11
757.49044933089522
 21
483.79812212629633
  0
ARC
  8
_0-6_
  6
CONTINUOUS
 62
    2
 10
766.74044833089533
 20
489.04812212629633
 40
0.75
 50
90
 51
270
  0
LINE
  8
_0-6_
  6
CONTINUOUS
 62
    2
 10
768.69044833089549
 20
488.29812212629633
 11
766.74044833089533
 21
488.29812212629633
  0
ARC
  8
_0-6_
  6
CONTINUOUS
 62
    2
 10
768.69044833089549
 20
487.99812212629593
 40
0.2999999999999998
 50
0
 51
90
  0
LINE
  8
_0-6_
  6
CONTINUOUS
 62
    2
 10
735.99044833089533
 20
484.29812312629622
 11
747.49044733089545
 21
484.29812312629622
  0
LINE
  8
_0-6_
  6
CONTINUOUS
 62
    2
 10
736.2904483308954
 20
489.79812212629633
 11
738.24044833089533
 21
489.79812212629633
  0
ARC
  8
_0-6_
  6
CONTINUOUS
 62
    2
 10
736.2904483308954
 20
490.09812212629606
 40
0.2999999999999998
 50
180
 51
270
  0
LINE
  8
_0-6_
  6
CONTINUOUS
 62
    2
 10
735.99044833089533
 20
490.09812212629606
 11
735.99044833089533
 21
491.99812412629637
  0
ARC
  8
_0-6_
  6
CONTINUOUS
 62
    2
 10
736.2904483308954
 20
491.99812412629637
 40
0.2999999999999998
 50
90
 51
180
  0
LINE
  8
_0-6_
  6
CONTINUOUS
 62
    2
 10
734.99044933089522
 20
493.7981241262961
 11
739.24044733089545
 21
493.7981241262961
  0
ARC
  8
_0-6_
  6
CONTINUOUS
 62
    2
 10
734.99044933089522
 20
493.29812312629622
 40
0.500001
 50
90
 51
180
  0
ARC
  8
_0-6_
  6
CONTINUOUS
 62
    2
 10
739.24044733089545
 20
493.0481241262961
 40
0.75
 50
270
 51
90
  0
LINE
  8
_0-6_
  6
CONTINUOUS
 62
    2
 10
734.49044833089533
 20
493.29812312629622
 11
734.49044833089533
 21
483.79812212629633
  0
LINE
  8
_0-6_
  6
CONTINUOUS
 62
    2
 10
735.99044833089533
 20
484.29812312629622
 11
735.99044833089533
 21
483.79812212629633
  0
ARC
  8
_0-6_
  6
CONTINUOUS
 62
    2
 10
738.24044833089533
 20
489.04812212629633
 40
0.75
 50
270
 51
90
  0
ARC
  8
_0-6_
  6
CONTINUOUS
 62
    2
 10
736.2904483308954
 20
486.59812412629583
 40
0.2999999999999998
 50
180
 51
270
  0
LINE
  8
_0-6_
  6
CONTINUOUS
 62
    2
 10
735.99044833089533
 20
486.59812412629583
 11
735.99044833089533
 21
487.99812212629593
  0
ARC
  8
_0-6_
  6
CONTINUOUS
 62
    2
 10
736.2904483308954
 20
487.99812212629593
 40
0.2999999999999998
 50
90
 51
180
  0
LINE
  8
_0-6_
  6
CONTINUOUS
 62
    2
 10
736.2904483308954
 20
488.29812212629633
 11
738.24044833089533
 21
488.29812212629633
  0
ARC
  8
_0-6_
  6
CONTINUOUS
 62
    2
 10
768.49044733089545
 20
486.79812212629633
 40
0.500001
 50
270
 51
0
  0
LINE
  8
_0-6_
  6
CONTINUOUS
 62
    2
 10
768.49044733089545
 20
486.2981241262961
 11
736.2904483308954
 21
486.2981241262961
  0
LINE
  8
_0-6_
  6
CONTINUOUS
 62
    2
 10
735.99044833089533
 20
483.79812212629633
 11
734.49044833089533
 21
483.79812212629633
  0
ARC
  8
_0-6_
  6
CONTINUOUS
 62
    2
 10
769.99044733089545
 20
501.79812212629633
 40
0.9999989999999993
 50
0
 51
180
  0
LINE
  8
_0-6_
  6
CONTINUOUS
 62
    2
 10
768.99044833089533
 20
494.29812212629633
 11
768.99044833089533
 21
501.79812212629633
  0
LINE
  8
_0-6_
  6
CONTINUOUS
 62
    2
 10
768.99044833089533
 20
490.09812212629606
 11
768.99044833089533
 21
491.99812412629637
  0
ARC
  8
_0-6_
  6
CONTINUOUS
 62
    2
 10
771.49044733089545
 20
486.79812212629633
 40
0.500001
 50
180
 51
270
  0
LINE
  8
_0-6_
  6
CONTINUOUS
 62
    2
 10
770.99044933089522
 20
484.7981241262961
 11
770.99044933089522
 21
483.79812212629633
  0
LINE
  8
_0-6_
  6
CONTINUOUS
 62
    2
 10
768.99044833089533
 20
484.29812312629622
 11
768.99044833089533
 21
483.79812212629633
  0
LINE
  8
_0-6_
  6
CONTINUOUS
 62
    2
 10
768.99044833089533
 20
486.79812212629633
 11
768.99044833089533
 21
487.99812212629593
  0
LINE
  8
_0-6_
  6
CONTINUOUS
 62
    2
 10
781.49044933089544
 20
484.7981241262961
 11
781.49044933089544
 21
483.79812212629633
  0
LINE
  8
_0-6_
  6
CONTINUOUS
 62
    2
 10
782.99044933089544
 20
483.79812212629633
 11
781.49044933089544
 21
483.79812212629633
  0
LINE
  8
_0-6_
  6
CONTINUOUS
 62
    2
 10
770.99044933089522
 20
483.79812212629633
 11
768.99044833089533
 21
483.79812212629633
  0
LINE
  8
_0-6_
  6
CONTINUOUS
 62
    2
 10
782.99044933089544
 20
485.79812412629633
 11
782.99044933089544
 21
483.79812212629633
  0
ARC
  8
_0-6_
  6
CONTINUOUS
 62
    2
 10
782.49044933089522
 20
485.79812412629633
 40
0.5
 50
0
 51
90
  0
LINE
  8
_0-6_
  6
CONTINUOUS
 62
    4
 10
771.24044933089624
 20
489.54812412629633
 11
772.49044933097628
 21
489.54812412629633
  0
LINE
  8
_0-6_
  6
CONTINUOUS
 62
    4
 10
775.49044933097628
 20
489.54812412629633
 11
776.74044933089635
 21
489.54812412629633
  0
ARC
  8
_0-6_
  6
CONTINUOUS
 62
    4
 10
802.33705480323306
 20
532.48351674858804
 40
0.5
 50
260.801339104806
 51
78.590455650788144
  0
ARC
  8
_0-6_
  6
CONTINUOUS
 62
    4
 10
797.49044933097707
 20
508.46767998622852
 40
24.999999999999996
 50
78.590455650788186
 51
180
  0
ARC
  8
_0-6_
  6
CONTINUOUS
 62
    4
 10
798.56639492493809
 20
509.19931148423314
 40
23.087541006014401
 50
80.801339104808051
 51
181.81597582067386
  0
LINE
  8
_0-6_
  6
CONTINUOUS
 62
    2
 10
770.99044933089522
 20
484.7981241262961
 11
778.49639820473612
 21
484.7981241262961
  0
LINE
  8
_0-6_
  6
CONTINUOUS
 62
    2
 10
778.49639820473612
 20
484.7981241262961
 11
781.49044933089544
 21
484.7981241262961
  0
LINE
  8
_0-6_
  6
CONTINUOUS
 62
    2
 10
776.49044933089522
 20
486.2981241262961
 11
771.49044733089545
 21
486.2981241262961
  0
LINE
  8
_0-6_
  6
CONTINUOUS
 62
    2
 10
782.49044933089522
 20
486.2981241262961
 11
778.49044933089544
 21
486.2981241262961
  0
ARC
  8
_0-6_
  6
CONTINUOUS
 62
    4
 10
776.49044933089522
 20
486.79812412629633
 40
0.25
 50
270
 51
0
  0
ARC
  8
_0-6_
  6
CONTINUOUS
 62
    4
 10
771.49044733089545
 20
486.79812212629633
 40
0.2500009999999999
 50
180
 51
270
  0
LINE
  8
_0-6_
  6
CONTINUOUS
 62
    4
 10
776.74044933089635
 20
486.79812412629633
 11
776.74044933089635
 21
489.54812412629633
  0
LINE
  8
_0-6_
  6
CONTINUOUS
 62
    4
 10
771.24044933089624
 20
486.79812212629633
 11
771.24044933089624
 21
489.54812412629633
  0
LINE
  8
_0-6_
  6
CONTINUOUS
 62
    4
 10
776.49044933089522
 20
486.54812412629633
 11
771.49044733089545
 21
486.54812412629633
  0
LINE
  8
_0-6_
  6
CONTINUOUS
 62
    2
 10
770.99044933089522
 20
501.79812212629633
 11
770.99044933089522
 21
491.29812412629701
  0
LINE
  8
_0-6_
  6
CONTINUOUS
 62
    2
 10
770.99044933089522
 20
489.79812412629701
 11
770.99044933089522
 21
486.79812212629633
  0
LINE
  8
_0-6_
  6
CONTINUOUS
 62
    2
 10
776.99044933089544
 20
486.79812412629633
 11
776.99044933089544
 21
489.79812412629701
  0
LINE
  8
_0-6_
  6
CONTINUOUS
 62
    2
 10
778.49044933089544
 20
490.79812412629724
 11
778.49044933089544
 21
486.2981241262961
  0
ARC
  8
_0-6_
  6
CONTINUOUS
 62
    2
 10
777.99044933089522
 20
490.79812412629724
 40
0.5
 50
0
 51
90
  0
ARC
  8
_0-6_
  6
CONTINUOUS
 62
    2
 10
776.49044933089522
 20
486.79812412629633
 40
0.5
 50
270
 51
0
  0
LINE
  8
_0-6_
  6
CONTINUOUS
 62
    2
 10
777.99044933089522
 20
491.29812412629701
 11
776.74044933089533
 21
491.29812412629701
  0
ARC
  8
_0-6_
  6
CONTINUOUS
 62
    2
 10
776.74044933089533
 20
490.29812412629724
 40
1
 50
90
 51
180
  0
LINE
  8
_0-6_
  6
CONTINUOUS
 62
    2
 10
775.74044933089522
 20
490.29812412629724
 11
775.74044933089522
 21
489.79812412629701
  0
LINE
  8
_0-6_
  6
CONTINUOUS
 62
    2
 10
775.74044933089522
 20
489.79812412629701
 11
776.99044933089544
 21
489.79812412629701
  0
LINE
  8
_0-6_
  6
CONTINUOUS
 62
    2
 10
770.99044933089522
 20
489.79812412629701
 11
772.24044933089533
 21
489.79812412629701
  0
LINE
  8
_0-6_
  6
CONTINUOUS
 62
    2
 10
772.24044933089533
 20
490.29812412629724
 11
772.24044933089533
 21
489.79812412629701
  0
ARC
  8
_0-6_
  6
CONTINUOUS
 62
    2
 10
771.24044933089522
 20
490.29812412629724
 40
1
 50
0
 51
90
  0
LINE
  8
_0-6_
  6
CONTINUOUS
 62
    2
 10
771.24044933089522
 20
491.29812412629701
 11
770.99044933089522
 21
491.29812412629701
  0
LINE
  8
_0-6_
  6
CONTINUOUS
 62
    7
 10
767.49044833089454
 20
482.66489078815528
 11
767.49044833089454
 21
483.78935312629631
  0
LINE
  8
_0-6_
  6
CONTINUOUS
 62
    7
 10
737.49044833089454
 20
483.78935312629631
 11
767.49044833089454
 21
483.78935312629631
  0
LINE
  8
_0-6_
  6
CONTINUOUS
 62
    4
 10
772.49044933097628
 20
489.54812412629633
 11
772.47680411772376
 21
509.51655068020369
  0
LINE
  8
_0-6_
  6
CONTINUOUS
 62
    4
 10
775.49044933097628
 20
489.54812412629633
 11
775.47680411772376
 21
510.97981367621753
  0
LINE
  8
_0-0_0
  6
CONTINUOUS
 62
    7
 10
802.47277604530325
 20
481.78935312629608
 11
802.47277604530325
 21
357.61575073975609
  0
LINE
  8
_0-3_躯体と製品
  6
CONTINUOUS
 62
    7
 10
672.47277604530325
 20
482.78935312629636
 11
731.47277604530314
 21
482.78935312629636
  0
LINE
  8
_0-3_躯体と製品
  6
CONTINUOUS
 62
    7
 10
672.47277604530325
 20
481.78935312629608
 11
802.47277604530325
 21
481.78935312629608
  0
LINE
  8
_0-6_
  6
CENTER1
 62
    3
 10
752.47277504530337
 20
418.07426627470204
 11
752.47277504530337
 21
481.78935312629608
  0
CIRCLE
  8
_0-4_図枠
  6
CONTINUOUS
 62
    4
 10
738.28351715457552
 20
482.43272167832959
 40
0.8999999999999999
  0
CIRCLE
  8
_0-4_図枠
  6
CONTINUOUS
 62
    4
 10
713.68181679797453
 20
525.68155804847856
 40
6
  0
LINE
  8
_0-4_図枠
  6
CONTINUOUS
 62
    4
 10
738.28351715457552
 20
482.43272167832959
 11
716.68181679797453
 21
520.48540562577159
  0
CIRCLE
  8
_0-5_ADD_LINE
  6
CONTINUOUS
 62
    4
 10
818.52822388373158
 20
562.43342440785386
 40
6
  0
LINE
  8
_0-5_ADD_LINE
  6
CONTINUOUS
 62
    4
 10
801.6029087721214
 20
533.11791870043191
 11
815.52822388373158
 21
557.23727198514712
  0
CIRCLE
  8
_0-5_ADD_LINE
  6
CONTINUOUS
 62
    4
 10
801.6029087721214
 20
533.11791870043191
 40
0.8999999999999999
  0
TEXT
  8
_0-4_図枠
 62
    4
 10
710.20490556945924
 20
521.62980484563423
 40
7.5
 41
1
 50
0
  1
５
  0
TEXT
  8
_0-5_ADD_LINE
 62
    4
 10
814.72713056175382
 20
558.52000190173817
 40
7.5
 41
1
 50
0
  1
11
  0
TEXT
  8
_0-5_ADD_LINE
 62
    4
 10
794.34044271495952
 20
539.75130515389583
 40
7.5
 41
1
 50
0
  1
３
  0
TEXT
  8
_0-5_ADD_LINE
 62
    4
 10
729.13540142719683
 20
461.76413418441297
 40
7.5
 41
1
 50
0
  1
20
  0
TEXT
  8
_0-5_ADD_LINE
 62
    4
 10
773.63015664837485
 20
467.75070125053503
 40
7.5
 41
1
 50
0
  1
８
  0
TEXT
  8
_0-5_ADD_LINE
 62
    4
 10
733.9893747240526
 20
430.21330775485035
 40
7.5
 41
1
 50
0
  1
17
  0
TEXT
  8
_0-5_ADD_LINE
 62
    4
 10
772.4975628791085
 20
451.89438848080624
 40
7.5
 41
1
 50
0
  1
16
  0
TEXT
  8
_0-5_ADD_LINE
 62
    4
 10
774.7627504176412
 20
422.12335226009071
 40
7.5
 41
1
 50
0
  1
50
  0
TEXT
  8
_0-5_ADD_LINE
 62
    4
 10
818.34089371422169
 20
545.08930265931531
 40
7.5
 41
1
 50
0
  1
６
  0
CIRCLE
  8
_0-5_ADD_LINE
  6
CONTINUOUS
 62
    4
 10
822.33799860856038
 20
549.0702557798711
 40
6
  0
LINE
  8
_0-5_ADD_LINE
  6
CONTINUOUS
 62
    4
 10
805.41268349695019
 20
519.75475007244916
 11
819.33799860856038
 21
543.87410335716436
  0
CIRCLE
  8
_0-5_ADD_LINE
  6
CONTINUOUS
 62
    4
 10
805.41268349695019
 20
519.75475007244916
 40
0.8999999999999999
  0
POINT
  8
_0-2_寸法
 62
    7
 10
809.43785329801995
 20
481.78935312629608
  0
POINT
  8
_0-0_0
 62
    7
 10
809.36933003574916
 20
481.79294427830121
  0
CIRCLE
  8
_0-5_ADD_LINE
  6
CONTINUOUS
 62
    4
 10
791.92636565712849
 20
563.17411335099393
 40
6
  0
CIRCLE
  8
_0-5_ADD_LINE
  6
CONTINUOUS
 62
    4
 10
775.91542443282754
 20
559.65242012881004
 40
6
  0
LINE
  8
_0-5_ADD_LINE
  6
CONTINUOUS
 62
    4
 10
770.63927588475235
 20
526.30379231995869
 11
788.92636565712849
 21
557.97796092828708
  0
CIRCLE
  8
_0-5_ADD_LINE
  6
CONTINUOUS
 62
    4
 10
770.63927588475235
 20
526.30379231995869
 40
0.8999999999999999
  0
LINE
  8
_0-5_ADD_LINE
  6
CONTINUOUS
 62
    4
 10
755.08989189379531
 20
523.58153967652765
 11
772.91542443282754
 21
554.45626770610318
  0
CIRCLE
  8
_0-5_ADD_LINE
  6
CONTINUOUS
 62
    4
 10
755.08989189379531
 20
523.58153967652765
 40
0.8999999999999999
  0
LINE
  8
_0-6_
  6
DASHED1
 62
    3
 10
742.94697018193551
 20
531.99016283143351
 11
765.91545018193551
 21
530.78643683143332
  0
LINE
  8
_0-6_
  6
DASHED1
 62
    3
 10
729.49940118193535
 20
519.77325383143329
 11
742.94697018193551
 21
531.99016283143351
  0
LINE
  8
_0-6_
  6
DASHED1
 62
    3
 10
725.65057818193532
 20
521.97987983143344
 11
726.31181418193523
 21
522.43017983143386
  0
LINE
  8
_0-6_
  6
DASHED1
 62
    3
 10
726.31181418193523
 20
522.43017983143386
 11
728.0004301819356
 21
519.95054783143382
  0
LINE
  8
_0-6_
  6
DASHED1
 62
    3
 10
725.65057818193532
 20
521.97987983143344
 11
727.33919418193545
 21
519.5002478314334
  0
ARC
  8
_0-6_
  6
DASHED1
 62
    3
 10
728.82697218193539
 20
520.51341983143334
 40
0.9999989999999993
 50
214.25465800000001
 51
312.25465199999996
  0
ARC
  8
_0-6_
  6
DASHED1
 62
    3
 10
728.82697218193539
 20
520.51341983143334
 40
1.7999999999999994
 50
214.25465800000001
 51
312.25465100000002
  0
ARC
  8
_0-6_
  6
DASHED1
 62
    3
 10
754.35270618193545
 20
529.89035483143357
 40
6.3000000000000007
 50
37.903458000000029
 51
136.096542
  0
LINE
  8
_0-6_
  6
DASHED1
 62
    3
 10
749.2572571819353
 20
532.97684183143315
 11
749.18840418193531
 21
531.66306383143387
  0
LINE
  8
_0-6_
  6
DASHED1
 62
    3
 10
759.74286618193514
 20
532.42731383143314
 11
759.67401618193549
 21
531.11353583143386
  0
ARC
  8
_0-6_
  6
DASHED1
 62
    3
 10
751.25451618193551
 20
532.87217183143343
 40
2.0000010000000001
 50
136.096542
 51
176.99999999999997
  0
LINE
  8
_0-6_
  6
DASHED1
 62
    3
 10
730.03734018193541
 20
519.18112283143341
 11
743.23809918193524
 21
531.17380883143346
  0
LINE
  8
_0-6_
  6
DASHED1
 62
    3
 10
743.23809918193524
 20
531.17380883143346
 11
765.58142718193517
 21
530.00284283143333
  0
LINE
  8
_0-6_
  6
DASHED1
 62
    3
 10
777.41544918193517
 20
516.69814283143364
 11
765.54058218193541
 21
530.0049848314336
  0
ARC
  8
_0-6_
  6
DASHED1
 62
    3
 10
757.74560718193538
 20
532.53198683143341
 40
2.0000010000000001
 50
356.99999999999994
 51
37.903457999999993
  0
LINE
  8
_0-6_
  6
DASHED1
 62
    3
 10
782.07073218193523
 20
519.02302583143387
 11
781.46018718193523
 21
519.53997383143337
  0
LINE
  8
_0-6_
  6
DASHED1
 62
    3
 10
781.46018718193523
 20
519.53997383143337
 11
779.5216291819354
 21
517.25043383143361
  0
LINE
  8
_0-6_
  6
DASHED1
 62
    3
 10
782.07073218193523
 20
519.02302583143387
 11
780.13217418193517
 21
516.7334858314332
  0
ARC
  8
_0-6_
  6
DASHED1
 62
    3
 10
778.75845018193525
 20
517.89662183143332
 40
0.9999989999999993
 50
221.74534799999995
 51
319.74534199999994
  0
LINE
  8
_0-6_
  6
DASHED1
 62
    3
 10
778.01233818193532
 20
517.23079883143305
 11
765.91545018193551
 21
530.78643683143332
  0
ARC
  8
_0-6_
  6
DASHED1
 62
    3
 10
778.75845018193525
 20
517.89662183143332
 40
1.7999999999999994
 50
221.74534899999995
 51
319.74534199999994
  0
LINE
  8
_0-6_
  6
CENTER1
 62
    3
 10
754.73770818193543
 20
537.2366498314334
 11
752.59144053510931
 21
498.56975289586558
  0
LINE
  8
_0-6_
  6
DASHED1
 62
    3
 10
757.4271001819352
 20
531.23129183143305
 11
755.72547854663685
 21
501.77998602101769
  0
LINE
  8
_0-6_
  6
DASHED1
 62
    3
 10
751.43532018193514
 20
531.54530783143377
 11
749.73370247188609
 21
502.0940014302812
  0
LINE
  8
_0-6_
  6
DASHED1
 62
    3
 10
749.73370247188609
 20
502.0940014302812
 11
755.72547854663685
 21
501.77998602101769
  0
LINE
  8
_0-6_
  6
DASHED1
 62
    3
 10
756.92778318193518
 20
531.25746083143372
 11
755.19732446270268
 21
501.30697920815942
  0
LINE
  8
_0-6_
  6
DASHED1
 62
    3
 10
751.93463718193539
 20
531.51913883143311
 11
750.20417430107977
 21
501.56865889577665
  0
LINE
  8
_0-6_
  6
CONTINUOUS
 62
    3
 10
750.20417430107977
 20
501.56865889577665
 11
755.19732446270268
 21
501.30697920815942
  0
LINE
  8
_0-6_
  6
CONTINUOUS
 62
    3
 10
755.40443683438184
 20
501.49246591707896
 11
755.19732446270268
 21
501.30697920815942
  0
LINE
  8
_0-6_
  6
CONTINUOUS
 62
    3
 10
750.20417430107977
 20
501.56865889577665
 11
750.01968133995365
 21
501.77466910463971
  0
LINE
  8
_0-6_
  6
DASHED1
 62
    3
 10
755.72547854663685
 20
501.77998602101769
 11
755.40443683438184
 21
501.49246591707896
  0
LINE
  8
_0-6_
  6
DASHED1
 62
    3
 10
750.01968133995365
 20
501.77466910463971
 11
749.73370247188609
 21
502.0940014302812
  0
TEXT
  8
_0-5_ADD_LINE
 62
    4
 10
772.42692753542701
 20
555.55478586066795
 40
7.5
 41
1
 50
0
  1
14
  0
TEXT
  8
_0-5_ADD_LINE
 62
    4
 10
788.76863763484141
 20
558.62896894867663
 40
7.5
 41
1
 50
0
  1
７
  0
LINE
  8
_0-2_寸法
  6
CONTINUOUS
 62
    4
 10
197.47277604530319
 20
620.32277386449914
 11
197.47277604530319
 21
482.78935312629602
  0
INSERT
  2
-000-_Dot
  8
_0-2_寸法
 10
197.47277604530319
 20
481.78935312629608
 41
0.3333333333333333
 42
0.3333333333333333
 50
270
  0
POINT
  8
_0-2_寸法
 62
    7
 10
197.47277604530319
 20
481.78935312629608
  0
LINE
  8
_0-2_寸法
  6
CONTINUOUS
 62
    4
 10
217.47277604530316
 20
482.78935312629602
 11
217.47277604530316
 21
561.62277386449909
  0
INSERT
  2
-000-_Dot
  8
_0-2_寸法
 10
217.47277604530316
 20
481.78935312629608
 41
0.3333333333333333
 42
0.3333333333333333
 50
270
  0
LINE
  8
_0-0_0
  6
CONTINUOUS
 62
    4
 10
667.03968292786885
 20
481.79294427830121
 11
197.47277604530319
 21
481.78935312629608
  0
POINT
  8
_0-2_寸法
 62
    7
 10
217.47277604530316
 20
481.78950608221999
  0
TEXT
  8
_0-4_図枠
 62
    7
 10
692.98443695183948
 20
310.54153523665894
 40
7.4999999999999787
 41
1.0000000000000029
 50
0
  1
４００ＦＹＫＧ－Ｓ７５０
  0
TEXT
  8
_0-4_図枠
 62
    7
 10
814.91100094701812
 20
310.35735613696835
 40
7.5000000000000426
 41
0.9999999999999943
 50
0
  1
750
  0
TEXT
  8
_0-4_図枠
 62
    7
 10
860.21905947090613
 20
310.35735613696835
 40
7.5000000000000426
 41
0.9999999999999943
 50
0
  1
735
  0
TEXT
  8
_0-4_図枠
 62
    7
 10
904.79040159603198
 20
309.62063973820597
 40
7.5000000000000426
 41
0.9999999999999943
 50
0
  1
130
  0
TEXT
  8
_0-4_図枠
 62
    7
 10
951.18258946713149
 20
310.31705407531945
 40
7.5000000000000426
 41
0.9999999999999943
 50
0
  1
81
  0
POINT
  8
_0-2_寸法
 62
    7
 10
197.47277604530319
 20
621.32277386449903
  0
TEXT
  8
_0-4_図枠
 62
    7
 10
993.55758946713149
 20
310.31705407531945
 40
7.5000000000000426
 41
0.9999999999999943
 50
0
  1
140
  0
TEXT
  8
_0-4_図枠
 62
    7
 10
419.05758946713144
 20
310.31705407531967
 40
7.4999999999999787
 41
1.0000000000000029
 50
0
  1
４００ＦＹＫＧ－Ｓ７５０
  0
TEXT
  8
_0-4_図枠
 62
    7
 10
419.05758946713144
 20
256.31705407531967
 40
7.5
 41
0.9999999999999994
 50
0
  1
ｔ１．０×ｗ３０
  0
TEXT
  8
_0-4_図枠
 62
    7
 10
419.05758946713144
 20
242.81705407531965
 40
7.5
 41
1
 50
0
  1
４００ＦＹＫＨ－７５０
  0
TEXT
  8
_0-4_図枠
 62
    7
 10
419.05758946713144
 20
202.31705407531948
 40
7.5
 41
1
 50
0
  1
４００ＦＹＫＪ－７５０
  0
TEXT
  8
_0-4_図枠
 62
    7
 10
419.05758946713144
 20
161.81705407531948
 40
7.5
 41
0.9999999999999993
 50
0
  1
ＦＳ１２００
  0
TEXT
  8
_0-0_0
 62
    7
 10
418.92037768919442
 20
176.05652529586811
 40
7.5
 41
1
 50
0
  1
ＳＰＶＣ
  0
TEXT
  8
_0-4_図枠
 62
    7
 10
419.05758946713144
 20
134.81705407531948
 40
7.5
 41
0.9999999999999994
 50
0
  1
なべＭ６×３５
  0
TEXT
  8
_0-4_図枠
 62
    7
 10
419.05758946713144
 20
121.31705407531948
 40
7.5
 41
0.9999999999999994
 50
0
  1
なべＭ４×１０
  0
TEXT
  8
_0-4_図枠
 62
    7
 10
419.05758946713144
 20
107.81705407531948
 40
7.5
 41
1
 50
0
  1
Ｍ６×４０
  0
TEXT
  8
_0-4_図枠
 62
    7
 10
419.05758946713144
 20
94.317054075319732
 40
7.5000000000000426
 41
0.9999999999999943
 50
0
  1
ＡＧ－６６０
  0
TEXT
  8
_0-4_図枠
 62
    7
 10
419.05758946713144
 20
80.817054075319646
 40
7.5000000000000853
 41
0.9999999999999886
 50
0
  1
φ８×４０
  0
TEXT
  8
_0-4_図枠
 62
    7
 10
419.05758946713144
 20
67.317054075319646
 40
7.5000000000000853
 41
0.9999999999999881
 50
0
  1
ナなべ５×５０
  0
TEXT
  8
_0-4_図枠
 62
    7
 10
419.05758946713144
 20
53.817054075319646
 40
7.5000000000000853
 41
0.9999999999999882
 50
0
  1
１．５×１８×６．５穴
  0
TEXT
  8
_0-4_図枠
 62
    7
 10
419.05758946713144
 20
40.317054075319646
 40
7.5000000000000853
 41
0.9999999999999882
 50
0
  1
１．５×１８×５．５穴
  0
LINE
  8
_0-4_図枠
  6
CONTINUOUS
 62
    7
 10
240.55758946713144
 20
38.067054075319732
 11
240.55758946713144
 21
335.0670540753195
  0
LINE
  8
_0-4_図枠
  6
CONTINUOUS
 62
    7
 10
261.55758946713138
 20
38.067054075319732
 11
261.55758946713138
 21
335.0670540753195
  0
LINE
  8
_0-4_図枠
  6
CONTINUOUS
 62
    7
 10
411.55758946713144
 20
38.067054075319732
 11
411.55758946713144
 21
335.0670540753195
  0
LINE
  8
_0-4_図枠
  6
CONTINUOUS
 62
    7
 10
554.05758946713138
 20
38.067054075319732
 11
554.05758946713138
 21
335.0670540753195
  0
LINE
  8
_0-4_図枠
  6
CONTINUOUS
 62
    7
 10
555.55758946713138
 20
38.067054075319732
 11
555.55758946713138
 21
335.0670540753195
  0
LINE
  8
_0-4_図枠
  6
CONTINUOUS
 62
    7
 10
608.05758946713138
 20
38.067054075319732
 11
608.05758946713138
 21
335.0670540753195
  0
LINE
  8
_0-4_図枠
  6
CONTINUOUS
 62
    7
 10
635.05758946713149
 20
38.067054075319732
 11
635.05758946713149
 21
335.0670540753195
  0
LINE
  8
_0-4_図枠
  6
CONTINUOUS
 62
    7
 10
656.05758946713138
 20
38.067054075319732
 11
656.05758946713138
 21
335.0670540753195
  0
TEXT
  8
_0-4_図枠
 62
    7
 10
567.05348455114688
 20
310.31705407531967
 40
7.4999999999999787
 41
1.0000000000000036
 50
0
  1
２０００
  0
TEXT
  8
_0-4_図枠
 62
    7
 10
567.05348455114688
 20
296.81705407531945
 40
7.5000000000000426
 41
0.999999999999995
 50
0
  1
２０００
  0
TEXT
  8
_0-4_図枠
 62
    7
 10
567.05348455114688
 20
283.31705407531945
 40
7.5000000000000213
 41
0.9999999999999978
 50
0
  1
２０００
  0
TEXT
  8
_0-4_図枠
 62
    7
 10
567.05348455114688
 20
269.81705407531945
 40
7.5
 41
1.0000000000000007
 50
0
  1
２０００
  0
TEXT
  8
_0-4_図枠
 62
    7
 10
567.05348455114688
 20
256.31705407531967
 40
7.5
 41
1.0000000000000007
 50
0
  1
６０００
  0
TEXT
  8
_0-0_0
 62
    7
 10
567.18780668385602
 20
175.8973369017053
 40
7.5
 41
0.9999999999999993
 50
0
  1
２０６０
  0
TEXT
  8
_0-4_図枠
 62
    7
 10
567.05348455114688
 20
161.81705407531948
 40
7.5
 41
1.0000000000000007
 50
0
  1
２１００
  0
TEXT
  8
_0-4_図枠
 62
    7
 10
567.05348455114688
 20
148.31705407531973
 40
7.5
 41
1.0000000000000007
 50
0
  1
２０００
  0
TEXT
  8
_0-4_図枠
 62
    7
 10
616.68258946713138
 20
310.31705407531967
 40
7.4999999999999787
 41
1.0000000000000029
 50
0
  1
１
  0
TEXT
  8
_0-4_図枠
 62
    7
 10
616.68258946713138
 20
296.81705407531945
 40
7.5000000000000426
 41
0.9999999999999943
 50
0
  1
１
  0
TEXT
  8
_0-4_図枠
 62
    7
 10
616.68258946713138
 20
283.31705407531945
 40
7.5000000000000213
 41
0.9999999999999971
 50
0
  1
１
  0
TEXT
  8
_0-4_図枠
 62
    7
 10
616.68258946713138
 20
269.81705407531945
 40
7.5
 41
1
 50
0
  1
１
  0
TEXT
  8
_0-4_図枠
 62
    7
 10
616.68258946713138
 20
256.31705407531967
 40
7.5
 41
1
 50
0
  1
１
  0
TEXT
  8
_0-4_図枠
 62
    7
 10
616.68258946713138
 20
242.81705407531965
 40
7.5
 41
1
 50
0
  1
４
  0
TEXT
  8
_0-4_図枠
 62
    7
 10
616.68258946713138
 20
229.31705407531965
 40
7.5
 41
1
 50
0
  1
４
  0
TEXT
  8
_0-4_図枠
 62
    7
 10
616.68258946713138
 20
215.81705407531948
 40
7.5
 41
1
 50
0
  1
４
  0
TEXT
  8
_0-4_図枠
 62
    7
 10
616.68258946713138
 20
202.31705407531948
 40
7.5
 41
1
 50
0
  1
１
  0
TEXT
  8
_0-4_図枠
 62
    7
 10
616.68258946713138
 20
188.81705407531948
 40
7.5
 41
1
 50
0
  1
１
  0
TEXT
  8
_0-0_0
 62
    7
 10
616.54973112173138
 20
176.11607814550422
 40
7.4999999999999574
 41
1.0000000000000058
 50
0
  1
１
  0
TEXT
  8
_0-4_図枠
 62
    7
 10
616.68258946713138
 20
161.81705407531948
 40
7.5
 41
1
 50
0
  1
１
  0
TEXT
  8
_0-4_図枠
 62
    7
 10
616.68258946713138
 20
148.31705407531973
 40
7.5
 41
1
 50
0
  1
１
  0
TEXT
  8
_0-4_図枠
 62
    7
 10
616.68258946713138
 20
134.81705407531948
 40
7.5
 41
1
 50
0
  1
４
  0
TEXT
  8
_0-4_図枠
 62
    7
 10
616.68258946713138
 20
121.31705407531948
 40
7.5
 41
1
 50
0
  1
５
  0
TEXT
  8
_0-4_図枠
 62
    7
 10
616.68258946713138
 20
107.81705407531948
 40
7.5
 41
1
 50
0
  1
５
  0
TEXT
  8
_0-4_図枠
 62
    7
 10
616.68258946713138
 20
94.317054075319732
 40
7.5000000000000426
 41
0.9999999999999943
 50
0
  1
５
  0
TEXT
  8
_0-4_図枠
 62
    7
 10
616.68258946713138
 20
80.817054075319646
 40
7.5000000000000853
 41
0.9999999999999886
 50
0
  1
５
  0
TEXT
  8
_0-4_図枠
 62
    7
 10
616.68258946713138
 20
67.317054075319646
 40
7.5000000000000853
 41
0.9999999999999886
 50
0
  1
５
  0
TEXT
  8
_0-4_図枠
 62
    7
 10
616.68258946713138
 20
53.817054075319646
 40
7.5000000000000853
 41
0.9999999999999886
 50
0
  1
５
  0
TEXT
  8
_0-4_図枠
 62
    7
 10
616.68258946713138
 20
40.317054075319646
 40
7.5000000000000853
 41
0.9999999999999886
 50
0
  1
５
  0
ENDSEC
  0
EOF
