  0
SECTION
  2
HEADER
  9
$ACADVER
  1
AC1009
  9
$INSBASE
 10
0
 20
0
 30
0
  9
$EXTMIN
 10
0
 20
0
  9
$EXTMAX
 10
1260
 20
891
  9
$LIMMIN
 10
0
 20
0
  9
$LIMMAX
 10
1260
 20
891
  9
$LTSCALE
 40
3
  0
ENDSEC
  0
SECTION
  2
TABLES
  0
TABLE
  2
LTYPE
 70
     9
  0
LTYPE
  2
CONTINUOUS
 70
    64
  3
実線
 72
    65
 73
     0
 40
0.0
  0
LTYPE
  2
DASHED1
 70
    64
  3
--  --  --  --  --  --  --  --  
 72
    65
 73
     2
 40
2.5
 49
1.25
 49
-1.25
  0
LTYPE
  2
DASHED2
 70
    64
  3
----    ----    ----    ----    
 72
    65
 73
     2
 40
5.0
 49
2.5
 49
-2.5
  0
LTYPE
  2
DASHED3
 70
    64
  3
------  ------  ------  ------  
 72
    65
 73
     2
 40
5.0
 49
3.75
 49
-1.25
  0
LTYPE
  2
CENTER1
 70
    64
  3
----- - ----- - ----- - ----- - 
 72
    65
 73
     4
 40
10.0
 49
6.25
 49
-1.25
 49
1.25
 49
-1.25
  0
LTYPE
  2
CENTER2
 70
    64
  3
----------  --  ----------  --  
 72
    65
 73
     4
 40
20.0
 49
12.5
 49
-2.5
 49
2.5
 49
-2.5
  0
LTYPE
  2
PHANTOM1
 70
    64
  3
--- - - --- - - --- - - --- - - 
 72
    65
 73
     6
 40
10.0
 49
3.25
 49
-1.25
 49
1.25
 49
-1.25
 49
1.25
 49
-1.25
  0
LTYPE
  2
PHANTOM2
 70
    64
  3
--------  -  -  --------  -  -  
 72
    65
 73
     6
 40
20.0
 49
10.0
 49
-2.5
 49
1.25
 49
-2.5
 49
1.25
 49
-2.5
  0
LTYPE
  2
DOT
 70
    64
  3
-   -   -   -   -   -   -   -   
 72
    65
 73
     2
 40
2.5
 49
0.625
 49
-1.875
  0
LTYPE
  2
DUMMY
 70
    64
  3
ダミー
 72
    65
 73
     0
 40
0.0
  0
LTYPE
  2
RAND1
 70
    64
  3
ランダム線1
 72
    65
 73
     4
 40
10.0
 49
1.0
 49
-2.0
 49
3.0
 49
-4.0
  0
LTYPE
  2
RAND2
 70
    64
  3
ランダム線2
 72
    65
 73
     4
 40
14.0
 49
2.0
 49
-3.0
 49
4.0
 49
-5.0
  0
LTYPE
  2
RAND3
 70
    64
  3
ランダム線3
 72
    65
 73
     4
 40
18.0
 49
3.0
 49
-4.0
 49
5.0
 49
-6.0
  0
LTYPE
  2
RAND4
 70
    64
  3
ランダム線4
 72
    65
 73
     4
 40
22.0
 49
4.0
 49
-5.0
 49
6.0
 49
-7.0
  0
LTYPE
  2
RAND5
 70
    64
  3
ランダム線5
 72
    65
 73
     4
 40
26.0
 49
5.0
 49
-6.0
 49
7.0
 49
-8.0
  0
LTYPE
  2
LONG1
 70
    64
  3
----------  --  ----------  --  
 72
    65
 73
     4
 40
40.0
 49
32.5
 49
-2.5
 49
2.5
 49
-2.5
  0
LTYPE
  2
LONG2
 70
    64
  3
--------  -  -  --------  -  -  
 72
    65
 73
     6
 40
40.0
 49
30.0
 49
-2.5
 49
1.25
 49
-2.5
 49
1.25
 49
-2.5
  0
LTYPE
  2
LONG3
 70
    64
  3
+++++++++++++++..+++++++++++++++
 72
    65
 73
     2
 40
40.0
 49
37.5
 49
-2.5
  0
LTYPE
  2
LONG4
 70
    64
  3
+++++++++++++++..+++++++++++++++
 72
    65
 73
     2
 40
80.0
 49
75.0
 49
-5.0
  0
LTYPE
  2
LONG5
 70
    64
  3
----------  --  ----------  --  
 72
    65
 73
     4
 40
60.0
 49
37.5
 49
-7.5
 49
7.5
 49
-7.5
  0
LTYPE
  2
dashed
 70
   64
  3
-------   -------------   ------
 72
   65
 73
    2
 40
7.5
 49
6
 49
-1.5
  0
LTYPE
  2
dashed_spaced
 70
   64
  3
----        --------        ----
 72
   65
 73
    2
 40
12
 49
6
 49
-6
  0
LTYPE
  2
long_dashed_dotted
 70
   64
  3
------------- --- --------------
 72
   65
 73
    4
 40
15.25
 49
12
 49
-1.5
 49
0.25
 49
-1.5
  0
LTYPE
  2
long_dashed_double-dotted
 70
   64
  3
----------- --- --- ------------
 72
   65
 73
    6
 40
17
 49
12
 49
-1.5
 49
0.25
 49
-1.5
 49
0.25
 49
-1.5
  0
LTYPE
  2
long_dashed_triplicate-dotted
 70
   64
  3
--------- --- --- --- ----------
 72
   65
 73
    8
 40
18.75
 49
12
 49
-1.5
 49
0.25
 49
-1.5
 49
0.25
 49
-1.5
 49
0.25
 49
-1.5
  0
LTYPE
  2
dotted
 70
   64
  3
   -       -       -       -    
 72
   65
 73
    2
 40
1.75
 49
0.25
 49
-1.5
  0
LTYPE
  2
chain
 70
   64
  3
-------------- -- --------------
 72
   65
 73
    4
 40
18.5
 49
12
 49
-1.5
 49
3.5
 49
-1.5
  0
LTYPE
  2
chain_double_dash
 70
   64
  3
------------ -- -- -------------
 72
   65
 73
    6
 40
23.5
 49
12
 49
-1.5
 49
3.5
 49
-1.5
 49
3.5
 49
-1.5
  0
LTYPE
  2
dashed_dotted
 70
   64
  3
-----------     -     ----------
 72
   65
 73
    4
 40
9.25
 49
6
 49
-1.5
 49
0.25
 49
-1.5
  0
LTYPE
  2
double-dashed_dotted
 70
   64
  3
------   -----------   -   -----
 72
   65
 73
    6
 40
16.75
 49
6
 49
-1.5
 49
6
 49
-1.5
 49
0.25
 49
-1.5
  0
LTYPE
  2
dashed_double-dotted
 70
   64
  3
---------    -    -    ---------
 72
   65
 73
    6
 40
11
 49
6
 49
-1.5
 49
0.25
 49
-1.5
 49
0.25
 49
-1.5
  0
LTYPE
  2
double-dashed_double-dotted
 70
   64
  3
-----   ---------   -   -   ----
 72
   65
 73
    8
 40
18.5
 49
6
 49
-1.5
 49
6
 49
-1.5
 49
0.25
 49
-1.5
 49
0.25
 49
-1.5
  0
LTYPE
  2
dashed_triplicate-dotted
 70
   64
  3
-------    -    -    -    ------
 72
   65
 73
    8
 40
12.75
 49
6
 49
-1.5
 49
0.25
 49
-1.5
 49
0.25
 49
-1.5
 49
0.25
 49
-1.5
  0
LTYPE
  2
double-dashed_triplicate-dotted
 70
   64
  3
-----  ---------  -  -  -  -----
 72
   65
 73
   10
 40
20.25
 49
6
 49
-1.5
 49
6
 49
-1.5
 49
0.25
 49
-1.5
 49
0.25
 49
-1.5
 49
0.25
 49
-1.5
  0
LTYPE
  2
undefined
 70
   64
  3
--------------------------------
 72
   65
 73
    0
 40
0
  0
LTYPE
  2
PLINE2
 70
   64
  3
------     -----------     -----
 72
   65
 73
    2
 40
3
 49
2.1000000000000001
 49
-0.9
  0
LTYPE
  2
PLINE3
 70
   64
  3
------------   ---   -----------
 72
   65
 73
    4
 40
10
 49
7
 49
-1
 49
1
 49
-1
  0
LTYPE
  2
PLINE4
 70
   64
  3
---------   ---   ---   --------
 72
   65
 73
    6
 40
10
 49
5
 49
-1
 49
1
 49
-1
 49
1
 49
-1
  0
LTYPE
  2
PLINE5
 70
   64
  3
------     -----------     -----
 72
   65
 73
    2
 40
5
 49
3.5
 49
-1.5
  0
LTYPE
  2
PLINE6
 70
   64
  3
------------   ---   -----------
 72
   65
 73
    4
 40
15
 49
10.5
 49
-1.5
 49
1.5
 49
-1.5
  0
LTYPE
  2
PLINE7
 70
   64
  3
---------   ---   ---   --------
 72
   65
 73
    6
 40
15
 49
7.5
 49
-1.5
 49
1.5
 49
-1.5
 49
1.5
 49
-1.5
  0
LTYPE
  2
PLINE8
 70
   64
  3
------     -----------     -----
 72
   65
 73
    2
 40
7
 49
4.9000000000000004
 49
-2.1000000000000001
  0
LTYPE
  2
PLINE9
 70
   64
  3
------------   ---   -----------
 72
   65
 73
    4
 40
20
 49
14
 49
-2
 49
2
 49
-2
  0
LTYPE
  2
PLINE10
 70
   64
  3
---------   ---   ---   --------
 72
   65
 73
    6
 40
20
 49
10
 49
-2
 49
2
 49
-2
 49
2
 49
-2
  0
LTYPE
  2
PLINE11
 70
   64
  3
------     -----------     -----
 72
   65
 73
    2
 40
9
 49
6.2999999999999989
 49
-2.7000000000000002
  0
LTYPE
  2
PLINE12
 70
   64
  3
------------   ---   -----------
 72
   65
 73
    4
 40
25
 49
17.5
 49
-2.5
 49
2.5
 49
-2.5
  0
LTYPE
  2
PLINE13
 70
   64
  3
---------   ---   ---   --------
 72
   65
 73
    6
 40
25
 49
12.5
 49
-2.5
 49
2.5
 49
-2.5
 49
2.5
 49
-2.5
  0
LTYPE
  2
PLINE14
 70
   64
  3
------     -----------     -----
 72
   65
 73
    2
 40
11
 49
7.7000000000000002
 49
-3.2999999999999989
  0
LTYPE
  2
PLINE15
 70
   64
  3
------------   ---   -----------
 72
   65
 73
    4
 40
30
 49
21
 49
-3
 49
3
 49
-3
  0
LTYPE
  2
PLINE16
 70
   64
  3
---------   ---   ---   --------
 72
   65
 73
    6
 40
30
 49
15
 49
-3
 49
3
 49
-3
 49
3
 49
-3
  0
ENDTAB
  0
TABLE
  2
STYLE
  5
3
100
AcDbSymbolTable
 70
     1
  0
STYLE
  5
10
100
AcDbSymbolTableRecord
100
AcDbTextStyleTableRecord
  2
STANDARD
 70
     0
 40
0.0
 41
1.0
 50
0.0
 71
     0
 42
0.2
  3
txt
  4
bigfont.shx
  0
STYLE
  5
26
100
AcDbSymbolTableRecord
100
AcDbTextStyleTableRecord
  2
TATEGAKI
 70
    68
 40
0.0
 41
1.0
 50
0.0
 71
     0
 42
1.0
  3
txt
  4
bigfont.shx
  0
ENDTAB
  0
TABLE
  2
LAYER
 70
    7
  0
LAYER
  2
_0-0_0
 70
   64
 62
    7
  6
CONTINUOUS
  0
LAYER
  2
_0-4_図枠
 70
   64
 62
    7
  6
CONTINUOUS
  0
LAYER
  2
_0-5_ADD_LINE
 70
   64
 62
    7
  6
CONTINUOUS
  0
LAYER
  2
_0-7_
 70
   64
 62
    7
  6
CONTINUOUS
  0
LAYER
  2
_0-8_
 70
   64
 62
    7
  6
CONTINUOUS
  0
LAYER
  2
_0-9_
 70
   64
 62
    7
  6
CONTINUOUS
  0
LAYER
  2
ADD_LINE
 70
   64
 62
    7
  6
CONTINUOUS
  0
ENDTAB
  0
ENDSEC
  0
SECTION
  2
BLOCKS
  0
ENDSEC
  0
SECTION
  2
ENTITIES
  0
LINE
  8
_0-4_図枠
  6
CONTINUOUS
 62
    7
 10
1102.599914650908
 20
103.75576777720615
 11
765.09991465090786
 21
103.75576777720615
  0
LINE
  8
_0-4_図枠
  6
CONTINUOUS
 62
    7
 10
634.59991465090786
 20
-166.24423222279381
 11
735.09991465090786
 21
-166.24423222279381
  0
LINE
  8
_0-4_図枠
  6
CONTINUOUS
 62
    7
 10
634.59991465090786
 20
63.255767777206145
 11
735.09991465090786
 21
63.255767777206145
  0
LINE
  8
_0-4_図枠
  6
CONTINUOUS
 62
    7
 10
1102.599914650908
 20
117.25576777720615
 11
765.09991465090786
 21
117.25576777720615
  0
TEXT
  8
_0-4_図枠
 62
    7
 10
612.84991465090786
 20
119.50576777720615
 40
7.5000000000000426
 41
0.9999999999999946
 50
0
  1
単位
  0
TEXT
  8
_0-4_図枠
 62
    7
 10
714.84991465090786
 20
119.50576777720615
 40
7.5000000000000426
 41
0.9999999999999935
 50
0
  1
単位
  0
TEXT
  8
_0-4_図枠
 62
    7
 10
720.09991465090786
 20
-163.99423222279381
 40
7.5
 41
1.0000000000000013
 50
0
  1
〃
  0
TEXT
  8
_0-4_図枠
 62
    7
 10
720.09991465090786
 20
-150.49423222279364
 40
7.5000000000000853
 41
0.99999999999999
 50
0
  1
枚
  0
TEXT
  8
_0-4_図枠
 62
    7
 10
720.09991465090786
 20
-136.99423222279364
 40
7.5000000000000853
 41
0.99999999999999
 50
0
  1
〃
  0
TEXT
  8
_0-4_図枠
 62
    7
 10
720.09991465090786
 20
-123.49423222279364
 40
7.5000000000000853
 41
0.99999999999999
 50
0
  1
〃
  0
TEXT
  8
_0-4_図枠
 62
    7
 10
720.09991465090786
 20
-109.99423222279364
 40
7.5000000000000853
 41
0.99999999999999
 50
0
  1
〃
  0
TEXT
  8
_0-4_図枠
 62
    7
 10
720.09991465090786
 20
-96.494232222793642
 40
7.5000000000000853
 41
0.99999999999999
 50
0
  1
〃
  0
TEXT
  8
_0-4_図枠
 62
    7
 10
720.09991465090786
 20
-82.994232222793642
 40
7.5000000000000853
 41
0.99999999999999
 50
0
  1
〃
  0
TEXT
  8
_0-4_図枠
 62
    7
 10
720.09991465090786
 20
-69.494232222793642
 40
7.5000000000000853
 41
0.99999999999999
 50
0
  1
〃
  0
TEXT
  8
_0-4_図枠
 62
    7
 10
720.09991465090786
 20
-55.994232222793812
 40
7.5
 41
1.0000000000000013
 50
0
  1
本
  0
TEXT
  8
_0-4_図枠
 62
    7
 10
720.09991465090786
 20
-42.494232222793812
 40
7.5
 41
1.0000000000000013
 50
0
  1
〃
  0
TEXT
  8
_0-4_図枠
 62
    7
 10
720.09991465090786
 20
-28.994232222793642
 40
7.5000000000000426
 41
0.9999999999999957
 50
0
  1
枚
  0
TEXT
  8
_0-4_図枠
 62
    7
 10
720.09991465090786
 20
-15.494232222793812
 40
7.5000000000000426
 41
0.9999999999999957
 50
0
  1
〃
  0
TEXT
  8
_0-4_図枠
 62
    7
 10
720.09991465090786
 20
-1.9942322227938121
 40
7.5000000000000426
 41
0.9999999999999957
 50
0
  1
〃
  0
TEXT
  8
_0-4_図枠
 62
    7
 10
720.09991465090786
 20
11.505767777206188
 40
7.5000000000000426
 41
0.9999999999999957
 50
0
  1
〃
  0
TEXT
  8
_0-4_図枠
 62
    7
 10
720.09991465090786
 20
25.005767777206188
 40
7.5000000000000426
 41
0.9999999999999957
 50
0
  1
〃
  0
TEXT
  8
_0-4_図枠
 62
    7
 10
720.09991465090786
 20
38.505767777206188
 40
7.5000000000000426
 41
0.9999999999999957
 50
0
  1
〃
  0
TEXT
  8
_0-4_図枠
 62
    7
 10
720.09991465090786
 20
65.505767777206145
 40
7.5000000000000426
 41
0.9999999999999957
 50
0
  1
〃
  0
TEXT
  8
_0-4_図枠
 62
    7
 10
720.09991465090786
 20
79.005767777206145
 40
7.5000000000000426
 41
0.9999999999999957
 50
0
  1
〃
  0
TEXT
  8
_0-4_図枠
 62
    7
 10
720.09991465090786
 20
92.505767777206145
 40
7.5000000000000426
 41
0.9999999999999957
 50
0
  1
〃
  0
TEXT
  8
_0-4_図枠
 62
    7
 10
720.09991465090786
 20
106.00576777720615
 40
7.5000000000000426
 41
0.9999999999999957
 50
0
  1
本
  0
TEXT
  8
_0-4_図枠
 62
    7
 10
618.09991465090786
 20
-163.99423222279381
 40
7.5
 41
1
 50
0
  1
〃
  0
TEXT
  8
_0-4_図枠
 62
    7
 10
618.09991465090786
 20
-150.49423222279364
 40
7.5000000000000853
 41
0.9999999999999886
 50
0
  1
枚
  0
TEXT
  8
_0-4_図枠
 62
    7
 10
618.09991465090786
 20
-136.99423222279364
 40
7.5000000000000853
 41
0.9999999999999886
 50
0
  1
〃
  0
TEXT
  8
_0-4_図枠
 62
    7
 10
618.09991465090786
 20
-123.49423222279364
 40
7.5000000000000853
 41
0.9999999999999886
 50
0
  1
〃
  0
TEXT
  8
_0-4_図枠
 62
    7
 10
618.09991465090786
 20
-109.99423222279364
 40
7.5000000000000853
 41
0.9999999999999886
 50
0
  1
〃
  0
TEXT
  8
_0-4_図枠
 62
    7
 10
618.09991465090786
 20
-96.494232222793642
 40
7.5000000000000853
 41
0.9999999999999886
 50
0
  1
〃
  0
TEXT
  8
_0-4_図枠
 62
    7
 10
618.09991465090786
 20
-82.994232222793642
 40
7.5000000000000853
 41
0.9999999999999886
 50
0
  1
〃
  0
TEXT
  8
_0-4_図枠
 62
    7
 10
618.09991465090786
 20
-69.494232222793642
 40
7.5000000000000853
 41
0.9999999999999886
 50
0
  1
〃
  0
TEXT
  8
_0-4_図枠
 62
    7
 10
618.09991465090786
 20
-55.994232222793812
 40
7.5
 41
1
 50
0
  1
本
  0
TEXT
  8
_0-4_図枠
 62
    7
 10
618.09991465090786
 20
-42.494232222793812
 40
7.5
 41
1
 50
0
  1
〃
  0
TEXT
  8
_0-4_図枠
 62
    7
 10
618.09991465090786
 20
-28.994232222793642
 40
7.5000000000000426
 41
0.9999999999999943
 50
0
  1
枚
  0
TEXT
  8
_0-4_図枠
 62
    7
 10
618.09991465090786
 20
-15.494232222793812
 40
7.5000000000000426
 41
0.9999999999999943
 50
0
  1
〃
  0
TEXT
  8
_0-4_図枠
 62
    7
 10
618.09991465090786
 20
-1.9942322227938121
 40
7.5000000000000426
 41
0.9999999999999943
 50
0
  1
〃
  0
TEXT
  8
_0-4_図枠
 62
    7
 10
618.09991465090786
 20
11.505767777206188
 40
7.5000000000000426
 41
0.9999999999999943
 50
0
  1
〃
  0
TEXT
  8
_0-4_図枠
 62
    7
 10
618.09991465090786
 20
25.005767777206188
 40
7.5000000000000426
 41
0.9999999999999943
 50
0
  1
〃
  0
TEXT
  8
_0-4_図枠
 62
    7
 10
618.09991465090786
 20
38.505767777206188
 40
7.5000000000000426
 41
0.9999999999999943
 50
0
  1
〃
  0
TEXT
  8
_0-4_図枠
 62
    7
 10
618.09991465090786
 20
65.505767777206145
 40
7.5000000000000426
 41
0.9999999999999943
 50
0
  1
〃
  0
TEXT
  8
_0-4_図枠
 62
    7
 10
618.09991465090786
 20
79.005767777206145
 40
7.5000000000000426
 41
0.9999999999999943
 50
0
  1
〃
  0
TEXT
  8
_0-4_図枠
 62
    7
 10
618.09991465090786
 20
92.505767777206145
 40
7.5000000000000426
 41
0.9999999999999943
 50
0
  1
〃
  0
TEXT
  8
_0-4_図枠
 62
    7
 10
618.09991465090786
 20
106.00576777720615
 40
7.5000000000000426
 41
0.9999999999999943
 50
0
  1
本
  0
TEXT
  8
_0-4_図枠
 62
    7
 10
690.84991465090786
 20
119.50576777720615
 40
7.5000000000000426
 41
0.9999999999999957
 50
0
  1
入数
  0
TEXT
  8
_0-4_図枠
 62
    7
 10
588.84991465090786
 20
119.50576777720615
 40
7.5000000000000426
 41
0.999999999999994
 50
0
  1
入数
  0
TEXT
  8
_0-4_図枠
 62
    7
 10
640.22491465090786
 20
119.50576777720615
 40
7.5000000000000426
 41
0.9999999999999943
 50
0
  1
定尺(mm)
  0
TEXT
  8
_0-4_図枠
 62
    7
 10
538.22491465090786
 20
119.50576777720615
 40
7.5000000000000426
 41
0.9999999999999946
 50
0
  1
定尺(mm)
  0
LINE
  8
_0-4_図枠
  6
CONTINUOUS
 62
    7
 10
634.59991465090786
 20
-152.74423222279347
 11
735.09991465090786
 21
-152.74423222279347
  0
LINE
  8
_0-4_図枠
  6
CONTINUOUS
 62
    7
 10
634.59991465090786
 20
-139.24423222279347
 11
735.09991465090786
 21
-139.24423222279347
  0
LINE
  8
_0-4_図枠
  6
CONTINUOUS
 62
    7
 10
634.59991465090786
 20
-125.74423222279347
 11
735.09991465090786
 21
-125.74423222279347
  0
LINE
  8
_0-4_図枠
  6
CONTINUOUS
 62
    7
 10
634.59991465090786
 20
-112.24423222279347
 11
735.09991465090786
 21
-112.24423222279347
  0
LINE
  8
_0-4_図枠
  6
CONTINUOUS
 62
    7
 10
634.59991465090786
 20
-98.744232222793471
 11
735.09991465090786
 21
-98.744232222793471
  0
LINE
  8
_0-4_図枠
  6
CONTINUOUS
 62
    7
 10
634.59991465090786
 20
-85.244232222793471
 11
735.09991465090786
 21
-85.244232222793471
  0
LINE
  8
_0-4_図枠
  6
CONTINUOUS
 62
    7
 10
634.59991465090786
 20
-71.744232222793812
 11
735.09991465090786
 21
-71.744232222793812
  0
LINE
  8
_0-4_図枠
  6
CONTINUOUS
 62
    7
 10
634.59991465090786
 20
-58.244232222793812
 11
735.09991465090786
 21
-58.244232222793812
  0
LINE
  8
_0-4_図枠
  6
CONTINUOUS
 62
    7
 10
634.59991465090786
 20
-44.744232222793471
 11
735.09991465090786
 21
-44.744232222793471
  0
LINE
  8
_0-4_図枠
  6
CONTINUOUS
 62
    7
 10
634.59991465090786
 20
-31.244232222793812
 11
735.09991465090786
 21
-31.244232222793812
  0
LINE
  8
_0-4_図枠
  6
CONTINUOUS
 62
    7
 10
634.59991465090786
 20
-17.744232222793812
 11
735.09991465090786
 21
-17.744232222793812
  0
LINE
  8
_0-4_図枠
  6
CONTINUOUS
 62
    7
 10
634.59991465090786
 20
-4.2442322227938121
 11
735.09991465090786
 21
-4.2442322227938121
  0
LINE
  8
_0-4_図枠
  6
CONTINUOUS
 62
    7
 10
634.59991465090786
 20
9.2557677772061879
 11
735.09991465090786
 21
9.2557677772061879
  0
LINE
  8
_0-4_図枠
  6
CONTINUOUS
 62
    7
 10
634.59991465090786
 20
22.755767777206188
 11
735.09991465090786
 21
22.755767777206188
  0
LINE
  8
_0-4_図枠
  6
CONTINUOUS
 62
    7
 10
634.59991465090786
 20
36.255767777206188
 11
735.09991465090786
 21
36.255767777206188
  0
LINE
  8
_0-4_図枠
  6
CONTINUOUS
 62
    7
 10
634.59991465090786
 20
49.755767777206188
 11
735.09991465090786
 21
49.755767777206188
  0
LINE
  8
_0-4_図枠
  6
CONTINUOUS
 62
    7
 10
634.59991465090786
 20
76.755767777205932
 11
735.09991465090786
 21
76.755767777205932
  0
LINE
  8
_0-4_図枠
  6
CONTINUOUS
 62
    7
 10
634.59991465090786
 20
90.255767777206145
 11
735.09991465090786
 21
90.255767777206145
  0
LINE
  8
_0-4_図枠
  6
CONTINUOUS
 62
    7
 10
634.59991465090786
 20
103.75576777720615
 11
735.09991465090786
 21
103.75576777720615
  0
LINE
  8
_0-4_図枠
  6
CONTINUOUS
 62
    7
 10
634.59991465090786
 20
117.25576777720615
 11
735.09991465090786
 21
117.25576777720615
  0
LINE
  8
_0-4_図枠
  6
CONTINUOUS
 62
    7
 10
634.59991465090786
 20
130.75576777720613
 11
735.09991465090786
 21
130.75576777720613
  0
LINE
  8
_0-4_図枠
  6
CONTINUOUS
 62
    7
 10
633.09991465090786
 20
-166.24423222279381
 11
532.59991465090786
 21
-166.24423222279381
  0
LINE
  8
_0-4_図枠
  6
CONTINUOUS
 62
    7
 10
633.09991465090786
 20
-152.74423222279347
 11
532.59991465090786
 21
-152.74423222279347
  0
LINE
  8
_0-4_図枠
  6
CONTINUOUS
 62
    7
 10
633.09991465090786
 20
-139.24423222279347
 11
532.59991465090786
 21
-139.24423222279347
  0
LINE
  8
_0-4_図枠
  6
CONTINUOUS
 62
    7
 10
633.09991465090786
 20
-125.74423222279347
 11
532.59991465090786
 21
-125.74423222279347
  0
LINE
  8
_0-4_図枠
  6
CONTINUOUS
 62
    7
 10
633.09991465090786
 20
-112.24423222279347
 11
532.59991465090786
 21
-112.24423222279347
  0
LINE
  8
_0-4_図枠
  6
CONTINUOUS
 62
    7
 10
633.09991465090786
 20
-98.744232222793471
 11
532.59991465090786
 21
-98.744232222793471
  0
LINE
  8
_0-4_図枠
  6
CONTINUOUS
 62
    7
 10
633.09991465090786
 20
-85.244232222793471
 11
532.59991465090786
 21
-85.244232222793471
  0
LINE
  8
_0-4_図枠
  6
CONTINUOUS
 62
    7
 10
633.09991465090786
 20
-71.744232222793812
 11
532.59991465090786
 21
-71.744232222793812
  0
LINE
  8
_0-4_図枠
  6
CONTINUOUS
 62
    7
 10
633.09991465090786
 20
-58.244232222793812
 11
532.59991465090786
 21
-58.244232222793812
  0
LINE
  8
_0-4_図枠
  6
CONTINUOUS
 62
    7
 10
633.09991465090786
 20
-44.744232222793471
 11
532.59991465090786
 21
-44.744232222793471
  0
LINE
  8
_0-4_図枠
  6
CONTINUOUS
 62
    7
 10
633.09991465090786
 20
-31.244232222793812
 11
532.59991465090786
 21
-31.244232222793812
  0
LINE
  8
_0-4_図枠
  6
CONTINUOUS
 62
    7
 10
633.09991465090786
 20
-17.744232222793812
 11
532.59991465090786
 21
-17.744232222793812
  0
LINE
  8
_0-4_図枠
  6
CONTINUOUS
 62
    7
 10
633.09991465090786
 20
-4.2442322227938121
 11
532.59991465090786
 21
-4.2442322227938121
  0
LINE
  8
_0-4_図枠
  6
CONTINUOUS
 62
    7
 10
633.09991465090786
 20
9.2557677772061879
 11
532.59991465090786
 21
9.2557677772061879
  0
LINE
  8
_0-4_図枠
  6
CONTINUOUS
 62
    7
 10
633.09991465090786
 20
22.755767777206188
 11
532.59991465090786
 21
22.755767777206188
  0
LINE
  8
_0-4_図枠
  6
CONTINUOUS
 62
    7
 10
633.09991465090786
 20
36.255767777206188
 11
532.59991465090786
 21
36.255767777206188
  0
LINE
  8
_0-4_図枠
  6
CONTINUOUS
 62
    7
 10
633.09991465090786
 20
49.755767777206188
 11
532.59991465090786
 21
49.755767777206188
  0
LINE
  8
_0-4_図枠
  6
CONTINUOUS
 62
    7
 10
633.09991465090786
 20
63.255767777206145
 11
532.59991465090786
 21
63.255767777206145
  0
LINE
  8
_0-4_図枠
  6
CONTINUOUS
 62
    7
 10
633.09991465090786
 20
76.755767777205932
 11
532.59991465090786
 21
76.755767777205932
  0
LINE
  8
_0-4_図枠
  6
CONTINUOUS
 62
    7
 10
633.09991465090786
 20
90.255767777206145
 11
532.59991465090786
 21
90.255767777206145
  0
LINE
  8
_0-4_図枠
  6
CONTINUOUS
 62
    7
 10
633.09991465090786
 20
103.75576777720615
 11
532.59991465090786
 21
103.75576777720615
  0
LINE
  8
_0-4_図枠
  6
CONTINUOUS
 62
    7
 10
633.09991465090786
 20
117.25576777720615
 11
532.59991465090786
 21
117.25576777720615
  0
LINE
  8
_0-4_図枠
  6
CONTINUOUS
 62
    7
 10
633.09991465090786
 20
130.75576777720613
 11
532.59991465090786
 21
130.75576777720613
  0
TEXT
  8
_0-4_図枠
 62
    7
 10
223.22491465090789
 20
-163.99423222279381
 40
7.5
 41
1
 50
0
  1
21
  0
TEXT
  8
_0-4_図枠
 62
    7
 10
223.22491465090789
 20
-150.49423222279364
 40
7.5000000000000853
 41
0.9999999999999886
 50
0
  1
20
  0
TEXT
  8
_0-4_図枠
 62
    7
 10
223.22491465090789
 20
-136.99423222279364
 40
7.5000000000000853
 41
0.9999999999999886
 50
0
  1
19
  0
TEXT
  8
_0-4_図枠
 62
    7
 10
223.22491465090789
 20
-123.49423222279364
 40
7.5000000000000853
 41
0.9999999999999886
 50
0
  1
18
  0
TEXT
  8
_0-4_図枠
 62
    7
 10
223.22491465090789
 20
-109.99423222279364
 40
7.5000000000000853
 41
0.9999999999999886
 50
0
  1
17
  0
TEXT
  8
_0-4_図枠
 62
    7
 10
223.22491465090789
 20
-96.494232222793642
 40
7.5000000000000853
 41
0.9999999999999886
 50
0
  1
16
  0
TEXT
  8
_0-4_図枠
 62
    7
 10
223.22491465090789
 20
-82.994232222793642
 40
7.5000000000000853
 41
0.9999999999999886
 50
0
  1
15
  0
TEXT
  8
_0-4_図枠
 62
    7
 10
223.22491465090789
 20
-69.494232222793642
 40
7.5000000000000853
 41
0.9999999999999886
 50
0
  1
14
  0
TEXT
  8
_0-4_図枠
 62
    7
 10
223.22491465090789
 20
-55.994232222793812
 40
7.5
 41
1
 50
0
  1
13
  0
TEXT
  8
_0-4_図枠
 62
    7
 10
223.22491465090789
 20
-42.494232222793812
 40
7.5
 41
1
 50
0
  1
12
  0
TEXT
  8
_0-4_図枠
 62
    7
 10
223.22491465090789
 20
-28.994232222793642
 40
7.5000000000000426
 41
0.9999999999999943
 50
0
  1
11
  0
TEXT
  8
_0-4_図枠
 62
    7
 10
223.22491465090789
 20
-15.494232222793812
 40
7.5000000000000426
 41
0.9999999999999943
 50
0
  1
10
  0
TEXT
  8
_0-4_図枠
 62
    7
 10
223.22491465090789
 20
-1.9942322227938121
 40
7.5000000000000426
 41
0.9999999999999943
 50
0
  1
 9
  0
TEXT
  8
_0-4_図枠
 62
    7
 10
223.22491465090789
 20
11.505767777206188
 40
7.5000000000000426
 41
0.9999999999999943
 50
0
  1
 8
  0
TEXT
  8
_0-4_図枠
 62
    7
 10
223.22491465090789
 20
25.005767777206188
 40
7.5000000000000426
 41
0.9999999999999943
 50
0
  1
 7
  0
TEXT
  8
_0-4_図枠
 62
    7
 10
223.22491465090789
 20
38.505767777206188
 40
7.5000000000000426
 41
0.9999999999999943
 50
0
  1
 6
  0
TEXT
  8
_0-4_図枠
 62
    7
 10
223.22491465090789
 20
52.005767777206188
 40
7.5000000000000426
 41
0.9999999999999943
 50
0
  1
 5
  0
TEXT
  8
_0-4_図枠
 62
    7
 10
223.22491465090789
 20
65.505767777206145
 40
7.5000000000000426
 41
0.9999999999999943
 50
0
  1
 4
  0
TEXT
  8
_0-4_図枠
 62
    7
 10
223.22491465090789
 20
79.005767777206145
 40
7.5000000000000426
 41
0.9999999999999943
 50
0
  1
 3
  0
TEXT
  8
_0-4_図枠
 62
    7
 10
223.22491465090789
 20
92.505767777206145
 40
7.5000000000000426
 41
0.9999999999999943
 50
0
  1
 2
  0
TEXT
  8
_0-4_図枠
 62
    7
 10
223.22491465090789
 20
106.00576777720615
 40
7.5000000000000426
 41
0.9999999999999943
 50
0
  1
 1
  0
TEXT
  8
_0-4_図枠
 62
    7
 10
220.59991465090789
 20
119.50576777720615
 40
7.5000000000000426
 41
0.9999999999999943
 50
0
  1
No.
  0
LINE
  8
_0-4_図枠
  6
CONTINUOUS
 62
    7
 10
531.09991465090786
 20
-166.24423222279381
 11
217.59991465090789
 21
-166.24423222279381
  0
LINE
  8
_0-4_図枠
  6
CONTINUOUS
 62
    7
 10
531.09991465090786
 20
-152.74423222279347
 11
217.59991465090789
 21
-152.74423222279347
  0
LINE
  8
_0-4_図枠
  6
CONTINUOUS
 62
    7
 10
531.09991465090786
 20
-139.24423222279347
 11
217.59991465090789
 21
-139.24423222279347
  0
LINE
  8
_0-4_図枠
  6
CONTINUOUS
 62
    7
 10
531.09991465090786
 20
-125.74423222279347
 11
217.59991465090789
 21
-125.74423222279347
  0
LINE
  8
_0-4_図枠
  6
CONTINUOUS
 62
    7
 10
531.09991465090786
 20
-112.24423222279347
 11
217.59991465090789
 21
-112.24423222279347
  0
LINE
  8
_0-4_図枠
  6
CONTINUOUS
 62
    7
 10
531.09991465090786
 20
-98.744232222793471
 11
217.59991465090789
 21
-98.744232222793471
  0
LINE
  8
_0-4_図枠
  6
CONTINUOUS
 62
    7
 10
531.09991465090786
 20
-85.244232222793471
 11
217.59991465090789
 21
-85.244232222793471
  0
LINE
  8
_0-4_図枠
  6
CONTINUOUS
 62
    7
 10
531.09991465090786
 20
-71.744232222793812
 11
217.59991465090789
 21
-71.744232222793812
  0
LINE
  8
_0-4_図枠
  6
CONTINUOUS
 62
    7
 10
531.09991465090786
 20
-58.244232222793812
 11
217.59991465090789
 21
-58.244232222793812
  0
LINE
  8
_0-4_図枠
  6
CONTINUOUS
 62
    7
 10
531.09991465090786
 20
-44.744232222793471
 11
217.59991465090789
 21
-44.744232222793471
  0
LINE
  8
_0-4_図枠
  6
CONTINUOUS
 62
    7
 10
531.09991465090786
 20
-31.244232222793812
 11
217.59991465090789
 21
-31.244232222793812
  0
LINE
  8
_0-4_図枠
  6
CONTINUOUS
 62
    7
 10
531.09991465090786
 20
-17.744232222793812
 11
217.59991465090789
 21
-17.744232222793812
  0
LINE
  8
_0-4_図枠
  6
CONTINUOUS
 62
    7
 10
531.09991465090786
 20
-4.2442322227938121
 11
217.59991465090789
 21
-4.2442322227938121
  0
LINE
  8
_0-4_図枠
  6
CONTINUOUS
 62
    7
 10
531.09991465090786
 20
9.2557677772061879
 11
217.59991465090789
 21
9.2557677772061879
  0
LINE
  8
_0-4_図枠
  6
CONTINUOUS
 62
    7
 10
531.09991465090786
 20
22.755767777206188
 11
217.59991465090789
 21
22.755767777206188
  0
LINE
  8
_0-4_図枠
  6
CONTINUOUS
 62
    7
 10
531.09991465090786
 20
36.255767777206188
 11
217.59991465090789
 21
36.255767777206188
  0
LINE
  8
_0-4_図枠
  6
CONTINUOUS
 62
    7
 10
531.09991465090786
 20
49.755767777206188
 11
217.59991465090789
 21
49.755767777206188
  0
LINE
  8
_0-4_図枠
  6
CONTINUOUS
 62
    7
 10
531.09991465090786
 20
63.255767777206145
 11
217.59991465090789
 21
63.255767777206145
  0
LINE
  8
_0-4_図枠
  6
CONTINUOUS
 62
    7
 10
531.09991465090786
 20
76.755767777205932
 11
217.59991465090789
 21
76.755767777205932
  0
LINE
  8
_0-4_図枠
  6
CONTINUOUS
 62
    7
 10
531.09991465090786
 20
90.255767777206145
 11
217.59991465090789
 21
90.255767777206145
  0
LINE
  8
_0-4_図枠
  6
CONTINUOUS
 62
    7
 10
531.09991465090786
 20
117.25576777720615
 11
217.59991465090789
 21
117.25576777720615
  0
LINE
  8
_0-4_図枠
  6
CONTINUOUS
 62
    7
 10
531.09991465090786
 20
130.75576777720613
 11
217.59991465090789
 21
130.75576777720613
  0
TEXT
  8
_0-4_図枠
 62
    7
 10
246.09991465090789
 20
-163.99423222279381
 40
7.5
 41
1.0000000000000007
 50
0
  1
ステンワッシャー
  0
TEXT
  8
_0-4_図枠
 62
    7
 10
246.09991465090789
 20
-150.49423222279364
 40
7.5000000000000853
 41
0.9999999999999893
 50
0
  1
ステスワッシャー
  0
TEXT
  8
_0-4_図枠
 62
    7
 10
246.09991465090789
 20
-136.99423222279364
 40
7.5000000000000853
 41
0.9999999999999886
 50
0
  1
ステンタッピンねじ
  0
TEXT
  8
_0-4_図枠
 62
    7
 10
246.09991465090789
 20
-123.49423222279364
 40
7.5000000000000853
 41
0.9999999999999886
 50
0
  1
アンカープラグ
  0
TEXT
  8
_0-4_図枠
 62
    7
 10
246.09991465090789
 20
-109.99423222279364
 40
7.5000000000000853
 41
0.9999999999999886
 50
0
  1
アジャストアンカー
  0
TEXT
  8
_0-4_図枠
 62
    7
 10
246.09991465090789
 20
-96.494232222793642
 40
7.5000000000000853
 41
0.9999999999999893
 50
0
  1
ステン六角ボルト
  0
TEXT
  8
_0-4_図枠
 62
    7
 10
246.09991465090789
 20
-55.994232222793812
 40
7.5
 41
1
 50
0
  1
ガスケットＮ
  0
TEXT
  8
_0-4_図枠
 62
    7
 10
246.09991465090789
 20
-42.494232222793812
 40
7.5
 41
1.0000000000000011
 50
0
  1
止水補助板
  0
TEXT
  8
_0-4_図枠
 62
    7
 10
246.09991465090789
 20
-15.494232222793812
 40
7.5000000000000426
 41
0.9999999999999946
 50
0
  1
ＦＹＫｻｲﾄﾞｷｬｯﾌﾟ ｼﾞｮｲﾝﾄ
  0
TEXT
  8
_0-4_図枠
 62
    7
 10
246.09991465090789
 20
-1.9942322227938121
 40
7.5000000000000426
 41
0.9999999999999943
 50
0
  1
ＦＹＫ水切ジョイント
  0
TEXT
  8
_0-4_図枠
 62
    7
 10
246.09991465090789
 20
11.505767777206188
 40
7.5000000000000426
 41
0.9999999999999943
 50
0
  1
ＦＹＹフレームナット
  0
TEXT
  8
_0-4_図枠
 62
    7
 10
246.09991465090789
 20
25.005767777206188
 40
7.5000000000000426
 41
0.9999999999999943
 50
0
  1
ＦＹＹホルダースプリング
  0
TEXT
  8
_0-4_図枠
 62
    7
 10
246.09991465090789
 20
38.505767777206188
 40
7.5000000000000426
 41
0.9999999999999943
 50
0
  1
ＦＹＫホルダー
  0
TEXT
  8
_0-4_図枠
 62
    7
 10
246.09991465090789
 20
65.505767777206145
 40
7.5000000000000426
 41
0.999999999999995
 50
0
  1
ＦＹＫ壁フレーム
  0
TEXT
  8
_0-4_図枠
 62
    7
 10
246.09991465090789
 20
79.005767777206145
 40
7.5000000000000426
 41
0.9999999999999943
 50
0
  1
ＦＹＹフレーム
  0
TEXT
  8
_0-4_図枠
 62
    7
 10
246.09991465090789
 20
92.505767777206145
 40
7.5000000000000426
 41
0.9999999999999946
 50
0
  1
ＦＹＫサイドキャップＡ
  0
TEXT
  8
_0-4_図枠
 62
    7
 10
246.09991465090789
 20
106.00576777720615
 40
7.5000000000000426
 41
0.999999999999995
 50
0
  1
ＦＹＫキャップＡ
  0
TEXT
  8
_0-4_図枠
 62
    7
 10
444.84991465090798
 20
119.50576777720615
 40
7.5000000000000426
 41
0.9999999999999943
 50
0
  1
規　格
  0
TEXT
  8
_0-4_図枠
 62
    7
 10
293.34991465090786
 20
119.50576777720615
 40
7.5000000000000426
 41
0.9999999999999943
 50
0
  1
部材名称
  0
LINE
  8
_0-4_図枠
  6
CONTINUOUS
 62
    7
 10
1102.599914650908
 20
130.75576777720593
 11
765.09991465090786
 21
130.75576777720593
  0
TEXT
  8
_0-4_図枠
 62
    7
 10
1041.0999146509077
 20
131.6242683458558
 40
7.4999999999999147
 41
1.0000000000000113
 50
0
  1
（単位：mm）
  0
TEXT
  8
_0-4_図枠
 62
    7
 10
1075.599914650908
 20
119.50576777720615
 40
7.5000000000000426
 41
0.9999999999999943
 50
0
  1
Ｅ
  0
TEXT
  8
_0-4_図枠
 62
    7
 10
1030.599914650908
 20
119.50576777720615
 40
7.5000000000000426
 41
0.9999999999999943
 50
0
  1
Ｄ
  0
TEXT
  8
_0-4_図枠
 62
    7
 10
985.59991465090798
 20
119.50576777720615
 40
7.5000000000000426
 41
0.9999999999999943
 50
0
  1
Ｃ
  0
TEXT
  8
_0-4_図枠
 62
    7
 10
895.59991465090798
 20
119.50576777720615
 40
7.5000000000000426
 41
0.9999999999999943
 50
0
  1
Ｗ
  0
TEXT
  8
_0-4_図枠
 62
    7
 10
940.59991465090798
 20
119.50576777720615
 40
7.5000000000000426
 41
0.9999999999999943
 50
0
  1
Ａ
  0
TEXT
  8
_0-4_図枠
 62
    7
 10
795.84991465090798
 20
119.50576777720615
 40
7.5000000000000426
 41
0.9999999999999943
 50
0
  1
タ　イ　プ
  0
LINE
  8
_0-4_図枠
  6
CONTINUOUS
 62
    7
 10
531.09991465090786
 20
103.75576777720615
 11
217.59991465090789
 21
103.75576777720615
  0
TEXT
  8
_0-4_図枠
 62
    7
 10
246.31367430551407
 20
-29.428468675001
 40
7.5000000000000426
 41
0.9999999999999943
 50
0
  1
ウォーターガード
  0
TEXT
  8
_0-4_図枠
 62
    7
 10
720.09991465090786
 20
52.005767777206188
 40
7.5000000000000426
 41
0.9999999999999957
 50
0
  1
巻
  0
TEXT
  8
_0-4_図枠
 62
    7
 10
618.09991465090786
 20
52.005767777206188
 40
7.5000000000000426
 41
0.9999999999999943
 50
0
  1
巻
  0
LINE
  8
_0-4_図枠
  6
CONTINUOUS
 62
    7
 10
634.59991465090786
 20
49.755767777206188
 11
735.09991465090786
 21
49.755767777206188
  0
LINE
  8
_0-4_図枠
  6
CONTINUOUS
 62
    7
 10
633.09991465090786
 20
49.755767777206188
 11
532.59991465090786
 21
49.755767777206188
  0
TEXT
  8
_0-4_図枠
 62
    7
 10
246.09991465090789
 20
52.005767777206188
 40
7.5000000000000426
 41
0.9999999999999943
 50
0
  1
ブチルテープ
  0
LINE
  8
_0-4_図枠
  6
CONTINUOUS
 62
    7
 10
217.59991465090789
 20
-166.24423222279381
 11
217.59991465090789
 21
130.75576777720613
  0
LINE
  8
_0-4_図枠
  6
CONTINUOUS
 62
    7
 10
238.59991465090789
 20
-166.24423222279381
 11
238.59991465090789
 21
130.75576777720613
  0
LINE
  8
_0-4_図枠
  6
CONTINUOUS
 62
    7
 10
388.59991465090786
 20
-166.24423222279381
 11
388.59991465090786
 21
130.75576777720613
  0
LINE
  8
_0-4_図枠
  6
CONTINUOUS
 62
    7
 10
531.09991465090786
 20
-166.24423222279381
 11
531.09991465090786
 21
130.75576777720613
  0
LINE
  8
_0-4_図枠
  6
CONTINUOUS
 62
    7
 10
532.59991465090786
 20
-166.24423222279381
 11
532.59991465090786
 21
130.75576777720613
  0
LINE
  8
_0-4_図枠
  6
CONTINUOUS
 62
    7
 10
585.09991465090786
 20
-166.24423222279381
 11
585.09991465090786
 21
130.75576777720613
  0
LINE
  8
_0-4_図枠
  6
CONTINUOUS
 62
    7
 10
612.09991465090786
 20
-166.24423222279381
 11
612.09991465090786
 21
130.75576777720613
  0
LINE
  8
_0-4_図枠
  6
CONTINUOUS
 62
    7
 10
633.09991465090786
 20
-166.24423222279381
 11
633.09991465090786
 21
130.75576777720613
  0
LINE
  8
_0-4_図枠
  6
CONTINUOUS
 62
    7
 10
634.59991465090786
 20
-166.24423222279381
 11
634.59991465090786
 21
130.75576777720613
  0
LINE
  8
_0-4_図枠
  6
CONTINUOUS
 62
    7
 10
687.09991465090786
 20
-166.24423222279381
 11
687.09991465090786
 21
130.75576777720613
  0
LINE
  8
_0-4_図枠
  6
CONTINUOUS
 62
    7
 10
714.09991465090786
 20
-166.24423222279381
 11
714.09991465090786
 21
130.75576777720613
  0
LINE
  8
_0-4_図枠
  6
CONTINUOUS
 62
    7
 10
735.09991465090786
 20
-166.24423222279381
 11
735.09991465090786
 21
130.75576777720613
  0
LINE
  8
_0-4_図枠
  6
CONTINUOUS
 62
    7
 10
765.09991465090786
 20
130.75576777720593
 11
765.09991465090786
 21
103.75576777720615
  0
LINE
  8
_0-4_図枠
  6
CONTINUOUS
 62
    7
 10
877.59991465090798
 20
130.75576777720593
 11
877.59991465090798
 21
103.75576777720615
  0
LINE
  8
_0-4_図枠
  6
CONTINUOUS
 62
    7
 10
922.59991465090798
 20
130.75576777720593
 11
922.59991465090798
 21
103.75576777720615
  0
LINE
  8
_0-4_図枠
  6
CONTINUOUS
 62
    7
 10
967.59991465090798
 20
130.75576777720593
 11
967.59991465090798
 21
103.75576777720615
  0
LINE
  8
_0-4_図枠
  6
CONTINUOUS
 62
    7
 10
1012.599914650908
 20
130.75576777720593
 11
1012.599914650908
 21
103.75576777720615
  0
LINE
  8
_0-4_図枠
  6
CONTINUOUS
 62
    7
 10
1057.599914650908
 20
130.75576777720593
 11
1057.599914650908
 21
103.75576777720615
  0
LINE
  8
_0-4_図枠
  6
CONTINUOUS
 62
    7
 10
1102.599914650908
 20
130.75576777720593
 11
1102.599914650908
 21
103.75576777720615
  0
TEXT
  8
_0-4_図枠
 62
    7
 10
246.09991465090789
 20
-69.494232222793642
 40
7.5000000000000853
 41
0.9999999999999886
 50
0
  1
ステン小ねじ
  0
TEXT
  8
_0-4_図枠
 62
    7
 10
246.09991465090789
 20
-82.994232222793642
 40
7.5000000000000853
 41
0.9999999999999886
 50
0
  1
ステン小ねじ
  0
TEXT
  8
_0-4_図枠
 62
    7
 10
395.96663420517876
 20
-29.428468675001
 40
7.5000000000000426
 41
0.9999999999999957
 50
0
  1
ＳＰＶＣ
  0
TEXT
  8
_0-4_図枠
 62
    7
 10
396.09991465090798
 20
-42.494232222793812
 40
7.5
 41
0.9999999999999991
 50
0
  1
ＦＳ1２００
  0
TEXT
  8
_0-4_図枠
 62
    7
 10
396.09991465090798
 20
-82.994232222793642
 40
7.5000000000000853
 41
0.9999999999999877
 50
0
  1
なべＭ４×１０
  0
TEXT
  8
_0-4_図枠
 62
    7
 10
396.09991465090798
 20
-96.494232222793642
 40
7.5000000000000853
 41
0.9999999999999886
 50
0
  1
Ｍ６×４０
  0
TEXT
  8
_0-4_図枠
 62
    7
 10
396.09991465090798
 20
-109.99423222279364
 40
7.5000000000000853
 41
0.9999999999999877
 50
0
  1
ＡＧ－６６０
  0
TEXT
  8
_0-4_図枠
 62
    7
 10
396.09991465090798
 20
-123.49423222279364
 40
7.5000000000000853
 41
0.9999999999999886
 50
0
  1
φ８×４０
  0
TEXT
  8
_0-4_図枠
 62
    7
 10
396.09991465090798
 20
-136.99423222279364
 40
7.5000000000000853
 41
0.9999999999999887
 50
0
  1
なべ ５×５０
  0
TEXT
  8
_0-4_図枠
 62
    7
 10
396.09991465090798
 20
-150.49423222279364
 40
7.5000000000000853
 41
0.9999999999999886
 50
0
  1
１．５×１８×６．５穴
  0
TEXT
  8
_0-4_図枠
 62
    7
 10
396.09991465090798
 20
-163.99423222279381
 40
7.5
 41
1
 50
0
  1
１．５×１８×５．５穴
  0
TEXT
  8
_0-4_図枠
 62
    7
 10
541.59991465090786
 20
131.62426834585585
 40
7.5000000000000426
 41
0.9999999999999941
 50
0
  1
（３０００mmセット）
  0
TEXT
  8
_0-4_図枠
 62
    7
 10
643.59991465090786
 20
131.62426834585585
 40
7.5000000000000426
 41
0.9999999999999948
 50
0
  1
（２０００mmセット）
  0
TEXT
  8
_0-4_図枠
 62
    7
 10
542.68969287006951
 20
106.00576777720615
 40
7.5000000000000426
 41
0.9999999999999946
 50
0
  1
３０００
  0
TEXT
  8
_0-4_図枠
 62
    7
 10
542.68969287006951
 20
92.505767777206145
 40
7.5000000000000426
 41
0.9999999999999946
 50
0
  1
３０００
  0
TEXT
  8
_0-4_図枠
 62
    7
 10
542.68969287006951
 20
79.005767777206145
 40
7.5000000000000426
 41
0.9999999999999946
 50
0
  1
３０００
  0
TEXT
  8
_0-4_図枠
 62
    7
 10
542.68969287006951
 20
65.505767777206145
 40
7.5000000000000426
 41
0.9999999999999946
 50
0
  1
３０００
  0
TEXT
  8
_0-4_図枠
 62
    7
 10
542.68969287006951
 20
52.005767777206188
 40
7.5000000000000426
 41
0.9999999999999946
 50
0
  1
６０００
  0
TEXT
  8
_0-4_図枠
 62
    7
 10
542.68969287006951
 20
-28.994232222793642
 40
7.5000000000000426
 41
0.9999999999999946
 50
0
  1
３０６０
  0
TEXT
  8
_0-4_図枠
 62
    7
 10
542.68969287006951
 20
-42.494232222793812
 40
7.5
 41
1.0000000000000004
 50
0
  1
３１００
  0
TEXT
  8
_0-4_図枠
 62
    7
 10
542.68969287006951
 20
-55.994232222793812
 40
7.5
 41
1.0000000000000004
 50
0
  1
３０００
  0
TEXT
  8
_0-4_図枠
 62
    7
 10
593.72491465090786
 20
106.00576777720615
 40
7.5000000000000426
 41
0.999999999999995
 50
0
  1
１
  0
TEXT
  8
_0-4_図枠
 62
    7
 10
593.72491465090786
 20
92.505767777206145
 40
7.5000000000000426
 41
0.999999999999995
 50
0
  1
１
  0
TEXT
  8
_0-4_図枠
 62
    7
 10
593.72491465090786
 20
79.005767777206145
 40
7.5000000000000426
 41
0.999999999999995
 50
0
  1
１
  0
TEXT
  8
_0-4_図枠
 62
    7
 10
593.72491465090786
 20
65.505767777206145
 40
7.5000000000000426
 41
0.999999999999995
 50
0
  1
１
  0
TEXT
  8
_0-4_図枠
 62
    7
 10
593.72491465090786
 20
52.005767777206188
 40
7.5000000000000426
 41
0.999999999999995
 50
0
  1
１
  0
TEXT
  8
_0-4_図枠
 62
    7
 10
593.72491465090786
 20
38.505767777206188
 40
7.5000000000000426
 41
0.999999999999995
 50
0
  1
６
  0
TEXT
  8
_0-4_図枠
 62
    7
 10
593.72491465090786
 20
25.005767777206188
 40
7.5000000000000426
 41
0.999999999999995
 50
0
  1
６
  0
TEXT
  8
_0-4_図枠
 62
    7
 10
593.72491465090786
 20
11.505767777206188
 40
7.5000000000000426
 41
0.999999999999995
 50
0
  1
６
  0
TEXT
  8
_0-4_図枠
 62
    7
 10
593.72491465090786
 20
-1.9942322227938121
 40
7.5000000000000426
 41
0.999999999999995
 50
0
  1
１
  0
TEXT
  8
_0-4_図枠
 62
    7
 10
593.72491465090786
 20
-15.494232222793812
 40
7.5000000000000426
 41
0.999999999999995
 50
0
  1
１
  0
TEXT
  8
_0-4_図枠
 62
    7
 10
593.72491465090786
 20
-28.994232222793642
 40
7.5000000000000426
 41
0.999999999999995
 50
0
  1
１
  0
TEXT
  8
_0-4_図枠
 62
    7
 10
593.72491465090786
 20
-42.494232222793812
 40
7.5
 41
1.0000000000000007
 50
0
  1
１
  0
TEXT
  8
_0-4_図枠
 62
    7
 10
593.72491465090786
 20
-55.994232222793812
 40
7.5
 41
1.0000000000000007
 50
0
  1
１
  0
TEXT
  8
_0-4_図枠
 62
    7
 10
593.72491465090786
 20
-69.494232222793642
 40
7.5000000000000853
 41
0.9999999999999893
 50
0
  1
６
  0
TEXT
  8
_0-4_図枠
 62
    7
 10
593.72491465090786
 20
-82.994232222793642
 40
7.5000000000000853
 41
0.9999999999999893
 50
0
  1
６
  0
TEXT
  8
_0-4_図枠
 62
    7
 10
593.72491465090786
 20
-96.494232222793642
 40
7.5000000000000853
 41
0.9999999999999893
 50
0
  1
６
  0
TEXT
  8
_0-4_図枠
 62
    7
 10
593.72491465090786
 20
-109.99423222279364
 40
7.5000000000000853
 41
0.9999999999999893
 50
0
  1
６
  0
TEXT
  8
_0-4_図枠
 62
    7
 10
593.72491465090786
 20
-123.49423222279364
 40
7.5000000000000853
 41
0.9999999999999893
 50
0
  1
６
  0
TEXT
  8
_0-4_図枠
 62
    7
 10
593.72491465090786
 20
-136.99423222279364
 40
7.5000000000000853
 41
0.9999999999999893
 50
0
  1
６
  0
TEXT
  8
_0-4_図枠
 62
    7
 10
593.72491465090786
 20
-150.49423222279364
 40
7.5000000000000853
 41
0.9999999999999893
 50
0
  1
６
  0
TEXT
  8
_0-4_図枠
 62
    7
 10
593.72491465090786
 20
-163.99423222279381
 40
7.5
 41
1.0000000000000007
 50
0
  1
６
  0
TEXT
  8
_0-4_図枠
 62
    7
 10
642.18408923457116
 20
106.00576777720615
 40
7.5000000000000426
 41
0.9999999999999946
 50
0
  1
２０００
  0
TEXT
  8
_0-4_図枠
 62
    7
 10
642.18408923457116
 20
92.505767777206145
 40
7.5000000000000426
 41
0.9999999999999946
 50
0
  1
２０００
  0
TEXT
  8
_0-4_図枠
 62
    7
 10
642.18408923457116
 20
79.005767777206145
 40
7.5000000000000426
 41
0.9999999999999946
 50
0
  1
２０００
  0
TEXT
  8
_0-4_図枠
 62
    7
 10
642.18408923457116
 20
65.505767777206145
 40
7.5000000000000426
 41
0.9999999999999946
 50
0
  1
２０００
  0
TEXT
  8
_0-4_図枠
 62
    7
 10
642.18408923457116
 20
52.005767777206188
 40
7.5000000000000426
 41
0.9999999999999946
 50
0
  1
６０００
  0
TEXT
  8
_0-4_図枠
 62
    7
 10
642.18408923457116
 20
-28.994232222793642
 40
7.5000000000000426
 41
0.9999999999999946
 50
0
  1
２０６０
  0
TEXT
  8
_0-4_図枠
 62
    7
 10
642.18408923457116
 20
-42.494232222793812
 40
7.5
 41
1.0000000000000004
 50
0
  1
２１００
  0
TEXT
  8
_0-4_図枠
 62
    7
 10
642.18408923457116
 20
-55.994232222793812
 40
7.5
 41
1.0000000000000004
 50
0
  1
２０００
  0
TEXT
  8
_0-4_図枠
 62
    7
 10
698.01884232243742
 20
106.00576777720615
 40
7.5000000000000426
 41
0.9999999999999971
 50
0
  1
１
  0
TEXT
  8
_0-4_図枠
 62
    7
 10
698.01884232243742
 20
92.505767777206145
 40
7.5000000000000426
 41
0.9999999999999971
 50
0
  1
１
  0
TEXT
  8
_0-4_図枠
 62
    7
 10
698.01884232243742
 20
79.005767777206145
 40
7.5000000000000426
 41
0.9999999999999971
 50
0
  1
１
  0
TEXT
  8
_0-4_図枠
 62
    7
 10
698.01884232243742
 20
65.505767777206145
 40
7.5000000000000426
 41
0.9999999999999971
 50
0
  1
１
  0
TEXT
  8
_0-4_図枠
 62
    7
 10
698.01884232243742
 20
52.005767777206188
 40
7.5000000000000426
 41
0.9999999999999971
 50
0
  1
１
  0
TEXT
  8
_0-4_図枠
 62
    7
 10
698.01884232243742
 20
38.505767777206188
 40
7.5000000000000426
 41
0.9999999999999971
 50
0
  1
４
  0
TEXT
  8
_0-4_図枠
 62
    7
 10
698.01884232243742
 20
25.005767777206188
 40
7.5000000000000426
 41
0.9999999999999971
 50
0
  1
４
  0
TEXT
  8
_0-4_図枠
 62
    7
 10
698.01884232243742
 20
11.505767777206188
 40
7.5000000000000426
 41
0.9999999999999971
 50
0
  1
４
  0
TEXT
  8
_0-4_図枠
 62
    7
 10
698.01884232243742
 20
-1.9942322227938121
 40
7.5000000000000426
 41
0.9999999999999971
 50
0
  1
１
  0
TEXT
  8
_0-4_図枠
 62
    7
 10
698.01884232243742
 20
-15.494232222793812
 40
7.5000000000000426
 41
0.9999999999999971
 50
0
  1
１
  0
TEXT
  8
_0-4_図枠
 62
    7
 10
698.01884232243742
 20
-28.994232222793642
 40
7.5000000000000426
 41
0.9999999999999971
 50
0
  1
１
  0
TEXT
  8
_0-4_図枠
 62
    7
 10
698.01884232243742
 20
-42.494232222793812
 40
7.5
 41
1.0000000000000029
 50
0
  1
１
  0
TEXT
  8
_0-4_図枠
 62
    7
 10
698.01884232243742
 20
-55.994232222793812
 40
7.5
 41
1.0000000000000029
 50
0
  1
１
  0
TEXT
  8
_0-4_図枠
 62
    7
 10
698.01884232243742
 20
-69.494232222793642
 40
7.5000000000000853
 41
0.9999999999999914
 50
0
  1
４
  0
TEXT
  8
_0-4_図枠
 62
    7
 10
698.01884232243742
 20
-82.994232222793642
 40
7.5000000000000853
 41
0.9999999999999914
 50
0
  1
５
  0
TEXT
  8
_0-4_図枠
 62
    7
 10
698.01884232243742
 20
-96.494232222793642
 40
7.5000000000000853
 41
0.9999999999999914
 50
0
  1
５
  0
TEXT
  8
_0-4_図枠
 62
    7
 10
698.01884232243742
 20
-109.99423222279364
 40
7.5000000000000853
 41
0.9999999999999914
 50
0
  1
５
  0
TEXT
  8
_0-4_図枠
 62
    7
 10
698.01884232243742
 20
-123.49423222279364
 40
7.5000000000000853
 41
0.9999999999999914
 50
0
  1
５
  0
TEXT
  8
_0-4_図枠
 62
    7
 10
698.01884232243742
 20
-136.99423222279364
 40
7.5000000000000853
 41
0.9999999999999914
 50
0
  1
５
  0
TEXT
  8
_0-4_図枠
 62
    7
 10
698.01884232243742
 20
-150.49423222279364
 40
7.5000000000000853
 41
0.9999999999999914
 50
0
  1
５
  0
TEXT
  8
_0-4_図枠
 62
    7
 10
698.01884232243742
 20
-163.99423222279381
 40
7.5
 41
1.0000000000000029
 50
0
  1
５
  0
LINE
  8
_0-0_0
  6
CONTINUOUS
 62
    7
 10
27.95906516424796
 20
-196.59147027841482
 11
1231.9590651642479
 21
-196.59147027841482
  0
LINE
  8
_0-0_0
  6
CONTINUOUS
 62
    7
 10
27.95906516424796
 20
659.40852972158496
 11
27.95906516424796
 21
-196.59147027841482
  0
LINE
  8
_0-0_0
  6
CONTINUOUS
 62
    7
 10
1231.9590651642479
 20
659.40852972158496
 11
27.95906516424796
 21
659.40852972158496
  0
LINE
  8
_0-0_0
  6
CONTINUOUS
 62
    7
 10
1231.9590651642479
 20
-196.59147027841482
 11
1231.9590651642479
 21
659.40852972158496
  0
TEXT
  8
_0-4_図枠
 62
    7
 10
46.631182105468667
 20
622.21339380548534
 40
9
 41
1
 50
0
  1
　　屋根－壁（切欠き壁）
  0
LINE
  8
_0-7_
  6
CONTINUOUS
 62
    3
 10
304.00916858760939
 20
428.52928323161018
 11
304.00916858760939
 21
413.52928323161018
  0
LINE
  8
_0-7_
  6
CONTINUOUS
 62
    3
 10
273.18711158760937
 20
428.52928323161018
 11
310.00916858760939
 21
428.52928323161018
  0
LINE
  8
_0-7_
  6
CONTINUOUS
 62
    3
 10
279.18711158760937
 20
413.52928323161018
 11
310.00916858760939
 21
413.52928323161018
  0
LINE
  8
_0-7_
  6
CONTINUOUS
 62
    3
 10
304.00916858760939
 20
428.52928323161018
 11
303.25916858760939
 21
425.52928323161018
  0
LINE
  8
_0-7_
  6
CONTINUOUS
 62
    3
 10
304.00916858760939
 20
428.52928323161018
 11
304.75916858760939
 21
425.52928323161018
  0
LINE
  8
_0-7_
  6
CONTINUOUS
 62
    3
 10
304.00916858760939
 20
413.52928323161018
 11
304.75916858760939
 21
416.52928323161018
  0
LINE
  8
_0-7_
  6
CONTINUOUS
 62
    3
 10
304.00916858760939
 20
413.52928323161018
 11
303.25916858760939
 21
416.52928323161018
  0
LINE
  8
_0-7_
  6
CONTINUOUS
 62
    3
 10
304.00916858760939
 20
413.52928323161018
 11
304.00916858760939
 21
377.52928323161018
  0
LINE
  8
_0-7_
  6
CONTINUOUS
 62
    3
 10
304.00916858760939
 20
413.52928323161018
 11
303.25916858760939
 21
410.52928323161018
  0
LINE
  8
_0-7_
  6
CONTINUOUS
 62
    3
 10
304.00916858760939
 20
413.52928323161018
 11
304.75916858760939
 21
410.52928323161018
  0
LINE
  8
_0-7_
  6
CONTINUOUS
 62
    3
 10
304.00916858760939
 20
377.52928323161018
 11
304.75916858760939
 21
380.52928323161018
  0
LINE
  8
_0-7_
  6
CONTINUOUS
 62
    3
 10
304.00916858760939
 20
377.52928323161018
 11
303.25916858760939
 21
380.52928323161018
  0
LINE
  8
_0-7_
  6
CONTINUOUS
 62
    4
 10
259.3871115876093
 20
458.08458247748712
 11
279.38710958760936
 21
458.08458247748712
  0
LINE
  8
_0-7_
  6
CONTINUOUS
 62
    4
 10
259.3871115876093
 20
458.08458247748712
 11
263.25081489276562
 21
459.11985865789728
  0
LINE
  8
_0-7_
  6
CONTINUOUS
 62
    4
 10
259.3871115876093
 20
458.08458247748712
 11
263.25081489276562
 21
457.04930629707695
  0
LINE
  8
_0-7_
  6
CONTINUOUS
 62
    4
 10
279.38710958760936
 20
458.08458247748712
 11
275.52340628245315
 21
459.11985865789728
  0
LINE
  8
_0-7_
  6
CONTINUOUS
 62
    4
 10
279.38710958760936
 20
458.08458247748712
 11
275.52340628245315
 21
457.04930629707695
  0
LINE
  8
_0-7_
  6
CONTINUOUS
 62
    4
 10
259.3871115876093
 20
460.08458247748706
 11
259.3871115876093
 21
434.52928323161018
  0
LINE
  8
_0-7_
  6
CONTINUOUS
 62
    4
 10
279.38710958760936
 20
460.08458247748706
 11
279.38710958760936
 21
417.32928423161013
  0
LINE
  8
_0-7_
  6
CONTINUOUS
 62
    4
 10
246.18711158760937
 20
480.4009080340312
 11
279.38710958760936
 21
480.4009080340312
  0
LINE
  8
_0-7_
  6
CONTINUOUS
 62
    4
 10
246.18711158760937
 20
480.4009080340312
 11
250.05081489276569
 21
481.43618421444114
  0
LINE
  8
_0-7_
  6
CONTINUOUS
 62
    4
 10
246.18711158760937
 20
480.4009080340312
 11
250.05081489276569
 21
479.3656318536211
  0
LINE
  8
_0-7_
  6
CONTINUOUS
 62
    4
 10
279.38710958760936
 20
480.4009080340312
 11
275.52340628245315
 21
481.43618421444114
  0
LINE
  8
_0-7_
  6
CONTINUOUS
 62
    4
 10
279.38710958760936
 20
480.4009080340312
 11
275.52340628245315
 21
479.3656318536211
  0
LINE
  8
_0-7_
  6
CONTINUOUS
 62
    4
 10
279.38710958760936
 20
482.40090803403115
 11
279.38710958760936
 21
466.08458247748706
  0
CIRCLE
  8
_0-7_
  6
CONTINUOUS
 62
    4
 10
232.61043427602931
 20
459.95727151734309
 40
6
  0
LINE
  8
_0-7_
  6
CONTINUOUS
 62
    4
 10
255.42045049378137
 20
420.4491645067269
 11
235.61043427602931
 21
454.761119094636
  0
CIRCLE
  8
_0-7_
  6
CONTINUOUS
 62
    4
 10
255.42045049378137
 20
420.4491645067269
 40
0.8999999999999999
  0
CIRCLE
  8
_0-7_
  6
CONTINUOUS
 62
    4
 10
231.83636787057236
 20
439.24165248719021
 40
6
  0
LINE
  8
_0-7_
  6
CONTINUOUS
 62
    4
 10
252.95548311324526
 20
402.66227187597758
 11
234.83636787057236
 21
434.04550006448335
  0
CIRCLE
  8
_0-7_
  6
CONTINUOUS
 62
    4
 10
252.95548311324526
 20
402.66227187597758
 40
0.8999999999999999
  0
CIRCLE
  8
_0-7_
  6
CONTINUOUS
 62
    4
 10
227.53797020710456
 20
396.247419607761
 40
6
  0
LINE
  8
_0-7_
  6
CONTINUOUS
 62
    4
 10
251.26643378892663
 20
372.51895602593891
 11
231.78061089422363
 21
392.00477892064191
  0
CIRCLE
  8
_0-7_
  6
CONTINUOUS
 62
    4
 10
251.26643378892663
 20
372.51895602593891
 40
0.8999999999999999
  0
CIRCLE
  8
_0-7_
  6
CONTINUOUS
 62
    4
 10
229.28284208472917
 20
353.71616759066001
 40
6
  0
LINE
  8
_0-7_
  6
CONTINUOUS
 62
    4
 10
249.70864458242218
 20
365.50901016111749
 11
234.47899450743526
 21
356.71616759066001
  0
CIRCLE
  8
_0-7_
  6
CONTINUOUS
 62
    4
 10
249.70864458242218
 20
365.50901016111749
 40
0.8999999999999999
  0
CIRCLE
  8
_0-7_
  6
CONTINUOUS
 62
    4
 10
201.06622466297654
 20
393.98037770400003
 40
6
  0
LINE
  8
_0-7_
  6
CONTINUOUS
 62
    4
 10
213.56434877006248
 20
372.33299175122528
 11
204.06622466297654
 21
388.7842252812934
  0
CIRCLE
  8
_0-7_
  6
CONTINUOUS
 62
    4
 10
213.56434877006248
 20
372.33299175122528
 40
0.8999999999999999
  0
CIRCLE
  8
_0-7_
  6
CONTINUOUS
 62
    4
 10
296.63250069709466
 20
451.35988694903165
 40
6
  0
LINE
  8
_0-7_
  6
CONTINUOUS
 62
    4
 10
275.39567919226374
 20
414.57663311139459
 11
293.63250069709466
 21
446.1637345263249
  0
CIRCLE
  8
_0-7_
  6
CONTINUOUS
 62
    4
 10
275.39567919226374
 20
414.57663311139459
 40
0.8999999999999999
  0
CIRCLE
  8
_0-7_
  6
CONTINUOUS
 62
    4
 10
302.12868306380392
 20
438.18370419391221
 40
6
  0
LINE
  8
_0-7_
  6
CONTINUOUS
 62
    4
 10
277.65982667752792
 20
395.80240172977449
 11
299.12868306380511
 21
432.98755177120563
  0
LINE
  8
_0-7_
  6
CONTINUOUS
 62
    3
 10
279.18711158760937
 20
377.52928323161018
 11
310.00916858760939
 21
377.52928323161018
  0
LINE
  8
_0-7_
  6
CONTINUOUS
 62
    3
 10
261.18711158760937
 20
397.52145423161005
 11
264.18711158760937
 21
398.27145423161005
  0
LINE
  8
_0-7_
  6
CONTINUOUS
 62
    3
 10
261.18711158760937
 20
397.52145423161005
 11
264.18711158760937
 21
396.77145423161005
  0
LINE
  8
_0-7_
  6
CONTINUOUS
 62
    3
 10
261.18711158760937
 20
386.43165723161007
 11
261.18711158760937
 21
401.52145623161016
  0
CIRCLE
  8
_0-7_
  6
CONTINUOUS
 62
    4
 10
304.96199814284989
 20
328.33015070392901
 40
6
  0
LINE
  8
_0-7_
  6
CONTINUOUS
 62
    4
 10
278.07039044601981
 20
374.907781532049
 11
301.96199814284989
 21
333.52630312663558
  0
CIRCLE
  8
_0-7_
  6
CONTINUOUS
 62
    4
 10
278.07039044601981
 20
374.907781532049
 40
0.8999999999999999
  0
LINE
  8
_0-8_
  6
CONTINUOUS
 62
    3
 10
246.18711158760937
 20
189.67223223161008
 11
271.18711058760931
 21
189.67223223161008
  0
LINE
  8
_0-8_
  6
CONTINUOUS
 62
    3
 10
271.18711058760931
 20
205.77153723161015
 11
271.18711058760931
 21
183.67223223161008
  0
LINE
  8
_0-8_
  6
CONTINUOUS
 62
    3
 10
246.18711158760937
 20
189.67223223161008
 11
249.18711158760937
 21
188.92223223161008
  0
LINE
  8
_0-8_
  6
CONTINUOUS
 62
    3
 10
246.18711158760937
 20
189.67223223161008
 11
249.18711158760937
 21
190.42223223161008
  0
LINE
  8
_0-8_
  6
CONTINUOUS
 62
    3
 10
271.18711058760931
 20
189.67223223161008
 11
268.18711058760931
 21
190.42223223161008
  0
LINE
  8
_0-8_
  6
CONTINUOUS
 62
    3
 10
271.18711058760931
 20
189.67223223161008
 11
268.18711058760931
 21
188.92223223161008
  0
LINE
  8
_0-8_
  6
CONTINUOUS
 62
    3
 10
271.18711058760931
 20
189.67223223161008
 11
274.18711058760931
 21
188.92223223161008
  0
LINE
  8
_0-8_
  6
CONTINUOUS
 62
    3
 10
271.18711058760931
 20
189.67223223161008
 11
274.18711058760931
 21
190.42223223161008
  0
LINE
  8
_0-9_
  6
CONTINUOUS
 62
    2
 10
264.38711258760907
 20
431.14967053143613
 11
264.38711258760907
 21
416.14967053143613
  0
LINE
  8
_0-9_
  6
CONTINUOUS
 62
    2
 10
259.38711158760918
 20
431.14967053143613
 11
264.38711258760907
 21
416.14967053143613
  0
LINE
  8
_0-9_
  6
CONTINUOUS
 62
    2
 10
254.68711058760906
 20
403.94967253143602
 11
254.68711058760906
 21
400.14967153143601
  0
LINE
  8
_0-9_
  6
CONTINUOUS
 62
    2
 10
256.18711058760903
 20
399.44967253143602
 11
256.18711058760903
 21
405.44967253143602
  0
LINE
  8
_0-9_
  6
CONTINUOUS
 62
    2
 10
249.68711258760925
 20
393.44967253143602
 11
249.68711258760925
 21
403.94967253143602
  0
LINE
  8
_0-9_
  6
CONTINUOUS
 62
    2
 10
247.68711158760937
 20
404.44967053143614
 11
247.68711158760937
 21
392.94967153143614
  0
LINE
  8
_0-9_
  6
CONTINUOUS
 62
    2
 10
250.18711058760906
 20
398.44967053143614
 11
250.18711058760906
 21
401.69967253143602
  0
LINE
  8
_0-9_
  6
CONTINUOUS
 62
    2
 10
251.68711058760906
 20
401.69967253143602
 11
251.68711058760906
 21
398.44967053143614
  0
LINE
  8
_0-9_
  6
CONTINUOUS
 62
    2
 10
279.38711258760907
 20
382.34967253143594
 11
279.38711258760907
 21
413.94967153143614
  0
LINE
  8
_0-9_
  6
CONTINUOUS
 62
    2
 10
278.18711258760925
 20
382.34967253143594
 11
278.18711258760925
 21
413.94967153143614
  0
LINE
  8
_0-9_
  6
CONTINUOUS
 62
    2
 10
277.88711258760907
 20
413.24967253143603
 11
277.88711258760907
 21
383.74967053143627
  0
LINE
  8
_0-9_
  6
CONTINUOUS
 62
    2
 10
276.8871105876093
 20
413.24967253143603
 11
276.8871105876093
 21
383.74967053143627
  0
LINE
  8
_0-9_
  6
CONTINUOUS
 62
    3
 10
276.89842658760915
 20
384.54967153143616
 11
277.88711258760907
 21
385.53835753143596
  0
LINE
  8
_0-9_
  6
CONTINUOUS
 62
    3
 10
276.8871105876093
 20
387.37809853143625
 11
277.88711258760907
 21
388.37809753143608
  0
LINE
  8
_0-9_
  6
CONTINUOUS
 62
    3
 10
276.8871105876093
 20
390.20652553143623
 11
277.88711258760907
 21
391.20652453143606
  0
LINE
  8
_0-9_
  6
CONTINUOUS
 62
    3
 10
276.8871105876093
 20
393.03495253143603
 11
277.88711258760907
 21
394.03495153143615
  0
LINE
  8
_0-9_
  6
CONTINUOUS
 62
    3
 10
276.8871105876093
 20
395.86337953143601
 11
277.88711258760907
 21
396.86337853143613
  0
LINE
  8
_0-9_
  6
CONTINUOUS
 62
    3
 10
276.8871105876093
 20
398.6918065314361
 11
277.88711258760907
 21
399.69180853143615
  0
LINE
  8
_0-9_
  6
CONTINUOUS
 62
    3
 10
276.8871105876093
 20
401.52023353143608
 11
277.88711258760907
 21
402.52023553143613
  0
LINE
  8
_0-9_
  6
CONTINUOUS
 62
    3
 10
276.8871105876093
 20
404.34866053143617
 11
277.88711258760907
 21
405.34866253143593
  0
LINE
  8
_0-9_
  6
CONTINUOUS
 62
    3
 10
276.8871105876093
 20
407.17708753143614
 11
277.88711258760907
 21
408.1770895314362
  0
LINE
  8
_0-9_
  6
CONTINUOUS
 62
    3
 10
276.8871105876093
 20
410.00551453143612
 11
277.88711258760907
 21
411.00551653143629
  0
LINE
  8
_0-9_
  6
CONTINUOUS
 62
    3
 10
276.8871105876093
 20
412.83394153143593
 11
277.80172058760911
 21
413.74855153143602
  0
LINE
  8
_0-9_
  6
CONTINUOUS
 62
    3
 10
274.97441258760927
 20
413.74967053143627
 11
275.9744145876092
 21
414.74967253143603
  0
LINE
  8
_0-9_
  6
CONTINUOUS
 62
    3
 10
272.14598558760929
 20
413.74967053143627
 11
273.14598758760906
 21
414.74967253143603
  0
LINE
  8
_0-9_
  6
CONTINUOUS
 62
    3
 10
269.31755858760937
 20
413.74967053143627
 11
270.31755758760903
 21
414.74967253143603
  0
LINE
  8
_0-9_
  6
CONTINUOUS
 62
    3
 10
266.48913158760951
 20
413.74967053143627
 11
267.48913058760911
 21
414.74967253143603
  0
LINE
  8
_0-9_
  6
CONTINUOUS
 62
    3
 10
263.6607045876093
 20
413.74967053143627
 11
264.66070358760942
 21
414.74967253143603
  0
LINE
  8
_0-9_
  6
CONTINUOUS
 62
    3
 10
260.83227758760916
 20
413.74967053143627
 11
261.83227658760927
 21
414.74967253143603
  0
LINE
  8
_0-9_
  6
CONTINUOUS
 62
    3
 10
258.04369058760915
 20
413.78951353143628
 11
259.00384958760935
 21
414.74967253143603
  0
LINE
  8
_0-9_
  6
CONTINUOUS
 62
    3
 10
256.88711258760907
 20
415.46135953143596
 11
257.88711158760918
 21
416.46135853143608
  0
ARC
  8
_0-9_
  6
CONTINUOUS
 62
    2
 10
261.478996587609
 20
422.04967153143616
 40
0.3999989999999997
 50
346.29976699999997
 51
89.999999999999972
  0
ARC
  8
_0-9_
  6
CONTINUOUS
 62
    2
 10
261.478996587609
 20
423.84967153143623
 40
0.3999989999999997
 50
270
 51
13.700232999999979
  0
LINE
  8
_0-9_
  6
CONTINUOUS
 62
    2
 10
261.45283358760952
 20
423.44967253143602
 11
261.45283358760952
 21
422.44967053143614
  0
ARC
  8
_0-9_
  6
CONTINUOUS
 62
    2
 10
259.25720558760906
 20
421.74599953143615
 40
2.3000009999999991
 50
273.23783700000001
 51
320.69087599999995
  0
ARC
  8
_0-9_
  6
CONTINUOUS
 62
    2
 10
259.25420258760926
 20
424.15701853143617
 40
2.3000009999999991
 50
39.179510999999984
 51
86.687257000000002
  0
ARC
  8
_0-9_
  6
CONTINUOUS
 62
    2
 10
257.78711258760939
 20
422.94967153143614
 40
4.1999999999999993
 50
320.69062899999994
 51
39.303130999999972
  0
ARC
  8
_0-9_
  6
CONTINUOUS
 62
    2
 10
257.58711158760923
 20
425.54967253143616
 40
0.5999999999999996
 50
270
 51
90
  0
ARC
  8
_0-9_
  6
CONTINUOUS
 62
    2
 10
257.58711158760923
 20
420.34967053143612
 40
0.5999999999999996
 50
270
 51
90
  0
LINE
  8
_0-9_
  6
CONTINUOUS
 62
    2
 10
256.18711058760903
 20
426.14967253143618
 11
257.58711158760923
 21
426.14967253143618
  0
LINE
  8
_0-9_
  6
CONTINUOUS
 62
    2
 10
256.88711258760907
 20
414.04967053143599
 11
256.88711258760907
 21
419.74967053143627
  0
LINE
  8
_0-9_
  6
CONTINUOUS
 62
    2
 10
256.88711258760907
 20
419.74967053143627
 11
257.58711158760923
 21
419.74967053143627
  0
LINE
  8
_0-9_
  6
CONTINUOUS
 62
    2
 10
256.18711058760903
 20
426.94967053143614
 11
256.18711058760903
 21
426.14967253143618
  0
ARC
  8
_0-9_
  6
CONTINUOUS
 62
    2
 10
247.68711158760937
 20
426.44967253143602
 40
0.500001
 50
90
 51
180
  0
LINE
  8
_0-9_
  6
CONTINUOUS
 62
    2
 10
250.68711158760937
 20
421.44967153143614
 11
250.18711058760906
 21
420.94967053143614
  0
LINE
  8
_0-9_
  6
CONTINUOUS
 62
    2
 10
251.18711258760925
 20
420.94967053143614
 11
250.68711158760937
 21
421.44967153143614
  0
LINE
  8
_0-9_
  6
CONTINUOUS
 62
    2
 10
251.68711058760906
 20
421.44967153143614
 11
251.18711258760925
 21
420.94967053143614
  0
LINE
  8
_0-9_
  6
CONTINUOUS
 62
    2
 10
252.18711158760937
 20
420.94967053143614
 11
251.68711058760906
 21
421.44967153143614
  0
LINE
  8
_0-9_
  6
CONTINUOUS
 62
    2
 10
252.68711258760925
 20
421.44967153143614
 11
252.18711158760937
 21
420.94967053143614
  0
LINE
  8
_0-9_
  6
CONTINUOUS
 62
    2
 10
253.18711058760906
 20
420.94967053143614
 11
252.68711258760925
 21
421.44967153143614
  0
LINE
  8
_0-9_
  6
CONTINUOUS
 62
    2
 10
253.68711158760937
 20
421.44967153143614
 11
253.18711058760906
 21
420.94967053143614
  0
LINE
  8
_0-9_
  6
CONTINUOUS
 62
    2
 10
254.18711258760925
 20
420.94967053143614
 11
253.68711158760937
 21
421.44967153143614
  0
LINE
  8
_0-9_
  6
CONTINUOUS
 62
    2
 10
254.68711058760906
 20
421.44967153143614
 11
254.18711258760925
 21
420.94967053143614
  0
LINE
  8
_0-9_
  6
CONTINUOUS
 62
    2
 10
255.18711158760937
 20
420.94967053143614
 11
254.68711058760906
 21
421.44967153143614
  0
LINE
  8
_0-9_
  6
CONTINUOUS
 62
    2
 10
250.68711158760937
 20
424.44967153143614
 11
250.18711058760906
 21
424.94967253143602
  0
LINE
  8
_0-9_
  6
CONTINUOUS
 62
    2
 10
251.18711258760925
 20
424.94967253143602
 11
250.68711158760937
 21
424.44967153143614
  0
LINE
  8
_0-9_
  6
CONTINUOUS
 62
    2
 10
251.68711058760906
 20
424.44967153143614
 11
251.18711258760925
 21
424.94967253143602
  0
LINE
  8
_0-9_
  6
CONTINUOUS
 62
    2
 10
252.18711158760937
 20
424.94967253143602
 11
251.68711058760906
 21
424.44967153143614
  0
LINE
  8
_0-9_
  6
CONTINUOUS
 62
    2
 10
252.68711258760925
 20
424.44967153143614
 11
252.18711158760937
 21
424.94967253143602
  0
LINE
  8
_0-9_
  6
CONTINUOUS
 62
    2
 10
253.18711058760906
 20
424.94967253143602
 11
252.68711258760925
 21
424.44967153143614
  0
LINE
  8
_0-9_
  6
CONTINUOUS
 62
    2
 10
253.68711158760937
 20
424.44967153143614
 11
253.18711058760906
 21
424.94967253143602
  0
LINE
  8
_0-9_
  6
CONTINUOUS
 62
    2
 10
254.18711258760925
 20
424.94967253143602
 11
253.68711158760937
 21
424.44967153143614
  0
LINE
  8
_0-9_
  6
CONTINUOUS
 62
    2
 10
254.68711058760906
 20
424.44967153143614
 11
254.18711258760925
 21
424.94967253143602
  0
LINE
  8
_0-9_
  6
CONTINUOUS
 62
    2
 10
255.18711158760937
 20
424.94967253143602
 11
254.68711058760906
 21
424.44967153143614
  0
LINE
  8
_0-9_
  6
CONTINUOUS
 62
    2
 10
255.18711158760937
 20
420.94967053143614
 11
257.68711058760903
 21
420.94967053143614
  0
LINE
  8
_0-9_
  6
CONTINUOUS
 62
    2
 10
255.18711158760937
 20
424.94967253143602
 11
257.68711058760903
 21
424.94967253143602
  0
ARC
  8
_0-9_
  6
CONTINUOUS
 62
    2
 10
248.98711058760921
 20
424.64967253143618
 40
0.2999999999999998
 50
90
 51
180
  0
LINE
  8
_0-9_
  6
CONTINUOUS
 62
    2
 10
248.98711058760921
 20
424.94967253143602
 11
250.18711058760906
 21
424.94967253143602
  0
LINE
  8
_0-9_
  6
CONTINUOUS
 62
    2
 10
248.98711058760921
 20
420.94967053143614
 11
250.18711058760906
 21
420.94967053143614
  0
ARC
  8
_0-9_
  6
CONTINUOUS
 62
    2
 10
248.98711058760921
 20
421.24967053143627
 40
0.2999999999999998
 50
180
 51
270
  0
LINE
  8
_0-9_
  6
CONTINUOUS
 62
    2
 10
248.68711058760906
 20
421.24967053143627
 11
248.68711058760906
 21
424.64967253143618
  0
LINE
  8
_0-9_
  6
CONTINUOUS
 62
    2
 10
254.18711258760925
 20
404.44967053143614
 11
250.18711058760906
 21
404.44967053143614
  0
ARC
  8
_0-9_
  6
CONTINUOUS
 62
    2
 10
254.18711258760925
 20
403.94967253143602
 40
0.500001
 50
0
 51
90
  0
ARC
  8
_0-9_
  6
CONTINUOUS
 62
    2
 10
255.68711258760925
 20
405.44967253143602
 40
0.500001
 50
0
 51
90
  0
LINE
  8
_0-9_
  6
CONTINUOUS
 62
    2
 10
255.68711258760925
 20
405.94967053143614
 11
250.18711058760906
 21
405.94967053143614
  0
ARC
  8
_0-9_
  6
CONTINUOUS
 62
    2
 10
250.18711058760906
 20
406.44967153143614
 40
0.500001
 50
180
 51
270
  0
ARC
  8
_0-9_
  6
CONTINUOUS
 62
    2
 10
250.18711058760906
 20
403.94967253143602
 40
0.500001
 50
90
 51
180
  0
ARC
  8
_0-9_
  6
CONTINUOUS
 62
    2
 10
261.78711158760933
 20
413.14967053143613
 40
0.5999999999999996
 50
270
 51
90
  0
LINE
  8
_0-9_
  6
CONTINUOUS
 62
    2
 10
249.68711258760925
 20
418.44967153143614
 11
249.68711258760925
 21
406.44967153143614
  0
ARC
  8
_0-9_
  6
CONTINUOUS
 62
    2
 10
250.18711058760906
 20
418.44967153143614
 40
0.500001
 50
90
 51
180
  0
LINE
  8
_0-9_
  6
CONTINUOUS
 62
    2
 10
255.18711158760937
 20
418.94967253143602
 11
250.18711058760906
 21
418.94967253143602
  0
ARC
  8
_0-9_
  6
CONTINUOUS
 62
    2
 10
255.18711158760937
 20
418.44967153143614
 40
0.500001
 50
0
 51
90
  0
LINE
  8
_0-9_
  6
CONTINUOUS
 62
    2
 10
256.68711158760937
 20
412.54967053143599
 11
261.78711158760933
 21
412.54967053143599
  0
ARC
  8
_0-9_
  6
CONTINUOUS
 62
    2
 10
256.68711158760937
 20
413.54967253143616
 40
0.9999989999999996
 50
180
 51
270
  0
LINE
  8
_0-9_
  6
CONTINUOUS
 62
    2
 10
255.68711258760925
 20
413.54967253143616
 11
255.68711258760925
 21
418.44967153143614
  0
ARC
  8
_0-9_
  6
CONTINUOUS
 62
    2
 10
257.18711258760925
 20
414.04967053143599
 40
0.2999999999999998
 50
180
 51
270
  0
LINE
  8
_0-9_
  6
CONTINUOUS
 62
    2
 10
247.18711058760906
 20
404.44967053143614
 11
247.68711158760937
 21
404.44967053143614
  0
LINE
  8
_0-9_
  6
CONTINUOUS
 62
    2
 10
247.68711158760937
 20
405.94967053143614
 11
247.18711058760906
 21
405.94967053143614
  0
LINE
  8
_0-9_
  6
CONTINUOUS
 62
    2
 10
247.68711158760937
 20
418.94967253143602
 11
247.68711158760937
 21
405.94967053143614
  0
LINE
  8
_0-9_
  6
CONTINUOUS
 62
    2
 10
247.18711058760906
 20
418.94967253143602
 11
247.68711158760937
 21
418.94967253143602
  0
ARC
  8
_0-9_
  6
CONTINUOUS
 62
    2
 10
250.93711058760906
 20
401.69967253143602
 40
0.75
 50
0
 51
180
  0
LINE
  8
_0-9_
  6
CONTINUOUS
 62
    1
 10
246.18711158760937
 20
431.14967053143613
 11
271.18711058760903
 21
431.14967053143613
  0
LINE
  8
_0-9_
  6
CONTINUOUS
 62
    2
 10
258.18711158760937
 20
417.14967253143618
 11
258.18711158760937
 21
425.94967153143614
  0
ARC
  8
_0-9_
  6
CONTINUOUS
 62
    2
 10
260.3871105876093
 20
417.14967253143618
 40
2.199999
 50
180
 51
270
  0
LINE
  8
_0-9_
  6
CONTINUOUS
 62
    2
 10
260.3871105876093
 20
414.94967053143614
 11
277.18711058760903
 21
414.94967053143614
  0
LINE
  8
_0-9_
  6
CONTINUOUS
 62
    2
 10
257.18711258760925
 20
428.14967053143613
 11
249.3871125876091
 21
428.14967053143613
  0
ARC
  8
_0-9_
  6
CONTINUOUS
 62
    2
 10
257.18711258760925
 20
425.94967153143614
 40
2.199999
 50
0
 51
90
  0
LINE
  8
_0-9_
  6
CONTINUOUS
 62
    2
 10
259.38711158760918
 20
425.94967153143614
 11
259.38711158760918
 21
417.14967253143618
  0
LINE
  8
_0-9_
  6
CONTINUOUS
 62
    2
 10
277.18711058760903
 20
416.14967053143613
 11
260.3871105876093
 21
416.14967053143613
  0
ARC
  8
_0-9_
  6
CONTINUOUS
 62
    2
 10
277.18711058760903
 20
413.94967153143614
 40
2.199999
 50
0
 51
90
  0
ARC
  8
_0-9_
  6
CONTINUOUS
 62
    2
 10
277.18711058760903
 20
413.94967153143614
 40
0.9999989999999996
 50
0
 51
90
  0
ARC
  8
_0-9_
  6
CONTINUOUS
 62
    2
 10
260.3871105876093
 20
417.14967253143618
 40
0.9999989999999996
 50
180
 51
270
  0
LINE
  8
_0-9_
  6
CONTINUOUS
 62
    2
 10
257.18711258760925
 20
426.94967053143614
 11
247.68711158760937
 21
426.94967053143614
  0
ARC
  8
_0-9_
  6
CONTINUOUS
 62
    2
 10
257.18711258760925
 20
425.94967153143614
 40
0.9999989999999996
 50
0
 51
90
  0
LINE
  8
_0-9_
  6
CONTINUOUS
 62
    2
 10
259.38711158760918
 20
431.14967053143613
 11
259.38711158760918
 21
425.94967153143614
  0
LINE
  8
_0-9_
  6
CONTINUOUS
 62
    1
 10
271.18711058760903
 20
452.16251653143615
 11
271.18711058760903
 21
431.14967053143613
  0
LINE
  8
_0-9_
  6
CENTER1
 62
    3
 10
245.88913058760923
 20
422.94967153143614
 11
264.70600658760929
 21
422.94967153143614
  0
LINE
  8
_0-9_
  6
DASHED1
 62
    3
 10
258.18711158760937
 20
420.94967053143614
 11
259.38711158760918
 21
420.94967053143614
  0
LINE
  8
_0-9_
  6
DASHED1
 62
    3
 10
258.18711158760937
 20
424.94967253143602
 11
259.38711158760918
 21
424.94967253143602
  0
LINE
  8
_0-9_
  6
DASHED1
 62
    3
 10
258.18711158760937
 20
421.44967153143614
 11
259.38711158760918
 21
421.44967153143614
  0
LINE
  8
_0-9_
  6
DASHED1
 62
    3
 10
258.18711158760937
 20
424.44967153143614
 11
259.38711158760918
 21
424.44967153143614
  0
LINE
  8
_0-9_
  6
CONTINUOUS
 62
    3
 10
249.3871125876091
 20
421.44967153143614
 11
258.18711158760937
 21
421.44967153143614
  0
LINE
  8
_0-9_
  6
CONTINUOUS
 62
    3
 10
249.3871125876091
 20
424.44967153143614
 11
258.18711158760937
 21
424.44967153143614
  0
LINE
  8
_0-9_
  6
CONTINUOUS
 62
    2
 10
257.58711158760923
 20
420.94967053143614
 11
258.18711158760937
 21
420.94967053143614
  0
LINE
  8
_0-9_
  6
CONTINUOUS
 62
    2
 10
257.58711158760923
 20
424.94967253143602
 11
258.18711158760937
 21
424.94967253143602
  0
LINE
  8
_0-9_
  6
CONTINUOUS
 62
    2
 10
249.3871125876091
 20
424.44967153143614
 11
249.3871125876091
 21
421.44967153143614
  0
LINE
  8
_0-9_
  6
CONTINUOUS
 62
    2
 10
249.3871125876091
 20
421.44967153143614
 11
249.88711058760933
 21
420.94967053143614
  0
LINE
  8
_0-9_
  6
CONTINUOUS
 62
    2
 10
249.88711058760933
 20
424.94967253143602
 11
249.88711058760933
 21
420.94967053143614
  0
LINE
  8
_0-9_
  6
CONTINUOUS
 62
    2
 10
249.3871125876091
 20
424.44967153143614
 11
249.88711058760933
 21
424.94967253143602
  0
LINE
  8
_0-9_
  6
CONTINUOUS
 62
    2
 10
249.3871125876091
 20
428.14967053143613
 11
249.3871125876091
 21
426.94967053143614
  0
LINE
  8
_0-9_
  6
CONTINUOUS
 62
    2
 10
257.88711158760918
 20
418.74967153143615
 11
257.88711158760918
 21
415.24967053143627
  0
LINE
  8
_0-9_
  6
CONTINUOUS
 62
    2
 10
256.88711258760907
 20
418.74967153143615
 11
257.88711158760918
 21
418.74967153143615
  0
ARC
  8
_0-9_
  6
CONTINUOUS
 62
    2
 10
276.38711258760907
 20
413.24967253143603
 40
1.5
 50
0
 51
90
  0
LINE
  8
_0-9_
  6
CONTINUOUS
 62
    2
 10
276.38711258760907
 20
414.74967253143603
 11
258.38711258760907
 21
414.74967253143603
  0
LINE
  8
_0-9_
  6
CONTINUOUS
 62
    2
 10
276.38711258760907
 20
413.74967053143627
 11
257.18711258760925
 21
413.74967053143627
  0
ARC
  8
_0-9_
  6
CONTINUOUS
 62
    2
 10
276.38711258760907
 20
413.24967253143603
 40
0.500001
 50
0
 51
90
  0
ARC
  8
_0-9_
  6
CONTINUOUS
 62
    2
 10
258.38711258760907
 20
415.24967053143627
 40
0.500001
 50
180
 51
270
  0
LINE
  8
_0-9_
  6
CONTINUOUS
 62
    3
 10
257.34699758760928
 20
418.74967153143615
 11
256.88711258760907
 21
418.28978653143622
  0
ARC
  8
_0-9_
  6
CONTINUOUS
 62
    2
 10
258.38711258760907
 20
415.24967053143627
 40
1.5
 50
180
 51
270
  0
LINE
  8
_0-9_
  6
CENTER1
 62
    3
 10
202.21926758760912
 20
372.44967253143608
 11
254.26981958760933
 21
372.44967253143608
  0
LINE
  8
_0-9_
  6
CONTINUOUS
 62
    2
 10
277.543750587609
 20
372.71828953143608
 11
277.45370558760931
 21
371.00014753143608
  0
LINE
  8
_0-9_
  6
CONTINUOUS
 62
    2
 10
287.53004558760938
 20
372.19493053143623
 11
287.4400035876094
 21
370.47678853143611
  0
LINE
  8
_0-9_
  6
CONTINUOUS
 62
    2
 10
250.18711058760906
 20
353.44967053143614
 11
260.93711258760925
 21
353.44967053143614
  0
ARC
  8
_0-9_
  6
CONTINUOUS
 62
    2
 10
250.18711058760906
 20
353.94967153143619
 40
0.500001
 50
180
 51
270
  0
LINE
  8
_0-9_
  6
CONTINUOUS
 62
    2
 10
249.68711258760925
 20
353.94967153143619
 11
249.68711258760925
 21
390.94967053143614
  0
LINE
  8
_0-9_
  6
CONTINUOUS
 62
    2
 10
277.45370558760931
 20
371.00014753143608
 11
275.98830158760927
 21
343.03852153143606
  0
ARC
  8
_0-9_
  6
CONTINUOUS
 62
    2
 10
247.68711158760937
 20
351.44967253143608
 40
0.500001
 50
0
 51
90
  0
LINE
  8
_0-9_
  6
CONTINUOUS
 62
    2
 10
247.68711158760937
 20
351.94967053143614
 11
247.18711058760906
 21
351.94967053143614
  0
LINE
  8
_0-9_
  6
CONTINUOUS
 62
    2
 10
255.93711158760937
 20
339.94967053143614
 11
247.18711058760906
 21
339.94967053143614
  0
LINE
  8
_0-9_
  6
CONTINUOUS
 62
    2
 10
247.68711158760937
 20
341.44967053143614
 11
247.18711058760906
 21
341.44967053143614
  0
ARC
  8
_0-9_
  6
CONTINUOUS
 62
    2
 10
247.68711158760937
 20
341.94967153143619
 40
0.500001
 50
270
 51
0
  0
LINE
  8
_0-9_
  6
CONTINUOUS
 62
    2
 10
248.18711258760925
 20
341.94967153143619
 11
248.18711258760925
 21
351.44967253143608
  0
LINE
  8
_0-9_
  6
CONTINUOUS
 62
    2
 10
249.68711258760925
 20
341.94967153143619
 11
249.68711258760925
 21
344.94967153143619
  0
LINE
  8
_0-9_
  6
CONTINUOUS
 62
    2
 10
254.68711058760906
 20
341.44967053143614
 11
254.68711058760906
 21
340.94967253143608
  0
LINE
  8
_0-9_
  6
CONTINUOUS
 62
    2
 10
253.68711158760937
 20
341.44967053143614
 11
254.68711058760906
 21
340.94967253143608
  0
LINE
  8
_0-9_
  6
CONTINUOUS
 62
    2
 10
253.68711158760937
 20
341.44967053143614
 11
253.68711158760937
 21
340.94967253143608
  0
LINE
  8
_0-9_
  6
CONTINUOUS
 62
    2
 10
252.68711258760925
 20
341.44967053143614
 11
253.68711158760937
 21
340.94967253143608
  0
ARC
  8
_0-9_
  6
CONTINUOUS
 62
    2
 10
255.93711158760937
 20
340.69967053143614
 40
0.75
 50
270
 51
90
  0
LINE
  8
_0-9_
  6
CONTINUOUS
 62
    2
 10
250.18711058760906
 20
341.44967053143614
 11
252.68711258760925
 21
341.44967053143614
  0
ARC
  8
_0-9_
  6
CONTINUOUS
 62
    2
 10
250.18711058760906
 20
341.94967153143619
 40
0.500001
 50
180
 51
270
  0
ARC
  8
_0-9_
  6
CONTINUOUS
 62
    2
 10
260.93711258760925
 20
352.69967053143614
 40
0.75
 50
270
 51
90
  0
ARC
  8
_0-9_
  6
CONTINUOUS
 62
    2
 10
253.28711258760939
 20
399.04967053143599
 40
0.5999999999999996
 50
90
 51
270
  0
ARC
  8
_0-9_
  6
CONTINUOUS
 62
    2
 10
254.18711258760925
 20
400.14967153143601
 40
0.500001
 50
270
 51
0
  0
LINE
  8
_0-9_
  6
CONTINUOUS
 62
    2
 10
254.18711258760925
 20
399.64967053143613
 11
253.28711258760939
 21
399.64967053143613
  0
LINE
  8
_0-9_
  6
CONTINUOUS
 62
    2
 10
255.18711158760937
 20
398.44967053143614
 11
253.28711258760939
 21
398.44967053143614
  0
ARC
  8
_0-9_
  6
CONTINUOUS
 62
    2
 10
255.18711158760937
 20
399.44967253143602
 40
0.9999989999999996
 50
270
 51
0
  0
LINE
  8
_0-9_
  6
CONTINUOUS
 62
    2
 10
250.18711058760906
 20
351.94967053143614
 11
260.93711258760925
 21
351.94967053143614
  0
ARC
  8
_0-9_
  6
CONTINUOUS
 62
    2
 10
250.18711058760906
 20
351.44967253143608
 40
0.500001
 50
90
 51
180
  0
LINE
  8
_0-9_
  6
CONTINUOUS
 62
    2
 10
249.68711258760925
 20
351.44967253143608
 11
249.68711258760925
 21
347.44967053143614
  0
LINE
  8
_0-9_
  6
CONTINUOUS
 62
    2
 10
259.68711158760937
 20
391.94967253143602
 11
259.68711158760937
 21
392.44967053143614
  0
ARC
  8
_0-9_
  6
CONTINUOUS
 62
    2
 10
259.18711058760903
 20
391.94967253143602
 40
0.500001
 50
270
 51
0
  0
LINE
  8
_0-9_
  6
CONTINUOUS
 62
    2
 10
259.18711058760903
 20
391.44967153143614
 11
250.18711058760906
 21
391.44967153143614
  0
ARC
  8
_0-9_
  6
CONTINUOUS
 62
    2
 10
259.18711058760903
 20
392.44967053143614
 40
0.500001
 50
0
 51
90
  0
ARC
  8
_0-9_
  6
CONTINUOUS
 62
    2
 10
250.18711058760906
 20
390.94967053143614
 40
0.500001
 50
90
 51
180
  0
ARC
  8
_0-9_
  6
CONTINUOUS
 62
    2
 10
255.93711158760937
 20
346.19967253143608
 40
0.75
 50
270
 51
90
  0
LINE
  8
_0-9_
  6
CONTINUOUS
 62
    2
 10
254.68711058760906
 20
345.94967053143614
 11
254.68711058760906
 21
345.44967253143608
  0
LINE
  8
_0-9_
  6
CONTINUOUS
 62
    2
 10
253.68711158760937
 20
345.44967253143608
 11
254.68711058760906
 21
345.94967053143614
  0
LINE
  8
_0-9_
  6
CONTINUOUS
 62
    2
 10
253.68711158760937
 20
345.94967053143614
 11
253.68711158760937
 21
345.44967253143608
  0
LINE
  8
_0-9_
  6
CONTINUOUS
 62
    2
 10
252.68711258760925
 20
345.44967253143608
 11
253.68711158760937
 21
345.94967053143614
  0
LINE
  8
_0-9_
  6
CONTINUOUS
 62
    2
 10
250.18711058760906
 20
345.44967253143608
 11
252.68711258760925
 21
345.44967253143608
  0
ARC
  8
_0-9_
  6
CONTINUOUS
 62
    2
 10
250.18711058760906
 20
344.94967153143619
 40
0.500001
 50
90
 51
180
  0
ARC
  8
_0-9_
  6
CONTINUOUS
 62
    2
 10
250.18711058760906
 20
347.44967053143614
 40
0.500001
 50
180
 51
270
  0
LINE
  8
_0-9_
  6
CONTINUOUS
 62
    2
 10
250.18711058760906
 20
346.94967253143608
 11
255.93711158760937
 21
346.94967253143608
  0
LINE
  8
_0-9_
  6
CONTINUOUS
 62
    2
 10
250.18711058760906
 20
392.94967153143614
 11
259.18711058760903
 21
392.94967153143614
  0
ARC
  8
_0-9_
  6
CONTINUOUS
 62
    2
 10
250.18711058760906
 20
393.44967253143602
 40
0.500001
 50
180
 51
270
  0
LINE
  8
_0-9_
  6
CONTINUOUS
 62
    2
 10
249.68711258760925
 20
371.94967153143619
 11
249.18711158760937
 21
372.44967253143608
  0
LINE
  8
_0-9_
  6
CONTINUOUS
 62
    2
 10
249.68711258760925
 20
372.94967053143614
 11
249.18711158760937
 21
372.44967253143608
  0
LINE
  8
_0-9_
  6
CONTINUOUS
 62
    2
 10
247.68711158760937
 20
353.44967053143614
 11
247.18711058760906
 21
353.44967053143614
  0
LINE
  8
_0-9_
  6
CONTINUOUS
 62
    2
 10
247.68711158760937
 20
367.44967153143619
 11
247.68711158760937
 21
353.44967053143614
  0
LINE
  8
_0-9_
  6
CONTINUOUS
 62
    2
 10
247.18711058760906
 20
367.44967153143619
 11
247.68711158760937
 21
367.44967153143619
  0
LINE
  8
_0-9_
  6
CONTINUOUS
 62
    2
 10
247.18711058760906
 20
377.44967053143614
 11
247.68711158760937
 21
377.44967053143614
  0
LINE
  8
_0-9_
  6
CONTINUOUS
 62
    2
 10
247.68711158760937
 20
391.44967153143614
 11
247.68711158760937
 21
377.44967053143614
  0
LINE
  8
_0-9_
  6
CONTINUOUS
 62
    2
 10
247.18711058760906
 20
391.44967153143614
 11
247.68711158760937
 21
391.44967153143614
  0
LINE
  8
_0-9_
  6
CONTINUOUS
 62
    2
 10
247.68711158760937
 20
392.94967153143614
 11
247.18711058760906
 21
392.94967153143614
  0
LINE
  8
_0-9_
  6
CONTINUOUS
 62
    2
 10
257.28711158760933
 20
359.94967153143619
 11
257.28711158760933
 21
387.94967053143614
  0
LINE
  8
_0-9_
  6
CONTINUOUS
 62
    2
 10
255.28711058760945
 20
358.44967153143619
 11
255.28711058760945
 21
388.44967153143614
  0
LINE
  8
_0-9_
  6
CONTINUOUS
 62
    2
 10
269.23477658760947
 20
348.90000553143608
 11
274.27888958760934
 21
348.63565453143605
  0
ARC
  8
_0-9_
  6
CONTINUOUS
 62
    2
 10
269.28711158760933
 20
349.89863653143601
 40
0.9999989999999996
 50
180
 51
267
  0
LINE
  8
_0-9_
  6
CONTINUOUS
 62
    2
 10
268.28711258760939
 20
349.89863653143601
 11
268.28711258760939
 21
356.94967153143619
  0
LINE
  8
_0-9_
  6
CONTINUOUS
 62
    2
 10
265.78711058760945
 20
347.97450253143614
 11
265.78711058760945
 21
355.44967153143619
  0
ARC
  8
_0-9_
  6
CONTINUOUS
 62
    2
 10
267.78711158760933
 20
347.97450253143614
 40
2.0000010000000001
 50
180
 51
267
  0
LINE
  8
_0-9_
  6
CONTINUOUS
 62
    2
 10
267.682438587609
 20
345.97724353143616
 11
274.62119558760935
 21
345.61359853143608
  0
LINE
  8
_0-9_
  6
CONTINUOUS
 62
    2
 10
266.28711158760933
 20
358.94967253143608
 11
258.28711058760945
 21
358.94967253143608
  0
ARC
  8
_0-9_
  6
CONTINUOUS
 62
    2
 10
266.28711158760933
 20
356.94967153143619
 40
2.0000010000000001
 50
0
 51
90
  0
LINE
  8
_0-9_
  6
CONTINUOUS
 62
    2
 10
264.78711158760933
 20
356.44967053143614
 11
254.28711158760933
 21
356.44967053143614
  0
ARC
  8
_0-9_
  6
CONTINUOUS
 62
    2
 10
264.78711158760933
 20
355.44967153143619
 40
0.9999989999999996
 50
0
 51
90
  0
ARC
  8
_0-9_
  6
CONTINUOUS
 62
    2
 10
258.28711058760945
 20
359.94967153143619
 40
0.9999989999999996
 50
180
 51
270
  0
LINE
  8
_0-9_
  6
CONTINUOUS
 62
    2
 10
254.78711258760939
 20
357.94967053143614
 11
253.28711258760939
 21
357.94967053143614
  0
ARC
  8
_0-9_
  6
CONTINUOUS
 62
    2
 10
254.78711258760939
 20
358.44967153143619
 40
0.500001
 50
270
 51
0
  0
ARC
  8
_0-9_
  6
CONTINUOUS
 62
    2
 10
254.28711158760933
 20
355.94967253143608
 40
0.500001
 50
90
 51
180
  0
LINE
  8
_0-9_
  6
CONTINUOUS
 62
    2
 10
253.78711058760945
 20
355.94967253143608
 11
253.78711058760945
 21
354.19967053143614
  0
LINE
  8
_0-9_
  6
CONTINUOUS
 62
    2
 10
274.80437258760924
 20
349.10880253143614
 11
274.90514558760935
 21
351.03167053143619
  0
ARC
  8
_0-9_
  6
CONTINUOUS
 62
    2
 10
274.30505558760899
 20
349.13497153143607
 40
0.500001
 50
267
 51
357.00000000000023
  0
LINE
  8
_0-9_
  6
CONTINUOUS
 62
    2
 10
274.62119558760935
 20
345.61359853143608
 11
274.54269158760928
 21
344.11565353143618
  0
ARC
  8
_0-9_
  6
CONTINUOUS
 62
    2
 10
253.03711058760945
 20
354.19967053143614
 40
0.75
 50
180
 51
0
  0
ARC
  8
_0-9_
  6
CONTINUOUS
 62
    2
 10
253.28711258760939
 20
356.94967153143619
 40
0.9999989999999996
 50
90
 51
180
  0
LINE
  8
_0-9_
  6
CONTINUOUS
 62
    2
 10
252.28711058760945
 20
356.94967153143619
 11
252.28711058760945
 21
354.19967053143614
  0
LINE
  8
_0-9_
  6
CONTINUOUS
 62
    2
 10
275.43062858760925
 20
351.50481553143618
 11
275.92994258760945
 21
351.47864653143614
  0
ARC
  8
_0-9_
  6
CONTINUOUS
 62
    2
 10
275.40445958760927
 20
351.00550153143627
 40
0.500001
 50
87
 51
176.99999999999997
  0
ARC
  8
_0-9_
  6
CONTINUOUS
 62
    2
 10
275.04200558760948
 20
344.08948753143608
 40
0.500001
 50
176.99999999999997
 51
267
  0
ARC
  8
_0-9_
  6
CONTINUOUS
 62
    2
 10
275.90377358760918
 20
350.979332531436
 40
0.500001
 50
357.00000000000006
 51
87.000000000000028
  0
LINE
  8
_0-9_
  6
CONTINUOUS
 62
    2
 10
275.01583958760938
 20
343.59017353143616
 11
275.51515358760901
 21
343.56400453143596
  0
ARC
  8
_0-9_
  6
CONTINUOUS
 62
    2
 10
275.54132258760922
 20
344.06331853143615
 40
0.500001
 50
267
 51
357.00000000000023
  0
ARC
  8
_0-9_
  6
DASHED1
 62
    3
 10
304.65858458760943
 20
345.54146353143614
 40
1.5
 50
267
 51
87.000000000000185
  0
LINE
  8
_0-9_
  6
CONTINUOUS
 62
    2
 10
263.28711158760933
 20
381.44967253143608
 11
262.28711258760939
 21
381.44967253143608
  0
ARC
  8
_0-9_
  6
CONTINUOUS
 62
    2
 10
263.28711158760933
 20
381.94967053143614
 40
0.500001
 50
270
 51
0
  0
LINE
  8
_0-9_
  6
CONTINUOUS
 62
    2
 10
263.78711258760939
 20
381.94967053143614
 11
263.78711258760939
 21
395.44967053143614
  0
LINE
  8
_0-9_
  6
CONTINUOUS
 62
    2
 10
256.78711058760945
 20
389.94967153143614
 11
261.28505258760936
 21
389.94967153143614
  0
ARC
  8
_0-9_
  6
CONTINUOUS
 62
    2
 10
256.78711058760945
 20
388.44967153143614
 40
1.5
 50
90
 51
180
  0
LINE
  8
_0-9_
  6
CONTINUOUS
 62
    2
 10
262.78711058760945
 20
396.44967253143602
 11
255.18711158760937
 21
396.44967253143602
  0
ARC
  8
_0-9_
  6
CONTINUOUS
 62
    2
 10
262.78711058760945
 20
395.44967053143614
 40
0.9999989999999996
 50
0
 51
90
  0
LINE
  8
_0-9_
  6
CONTINUOUS
 62
    2
 10
257.78711258760939
 20
388.44967153143614
 11
261.78711158760933
 21
388.44967153143614
  0
ARC
  8
_0-9_
  6
CONTINUOUS
 62
    2
 10
257.78711258760939
 20
387.94967053143614
 40
0.500001
 50
90
 51
180
  0
LINE
  8
_0-9_
  6
CONTINUOUS
 62
    2
 10
254.78876558760948
 20
394.94967253143602
 11
254.78876558760948
 21
393.54967153143616
  0
ARC
  8
_0-9_
  6
CONTINUOUS
 62
    2
 10
261.78505358760924
 20
394.44967153143614
 40
0.500001
 50
0
 51
90
  0
LINE
  8
_0-9_
  6
CONTINUOUS
 62
    2
 10
262.28505458760912
 20
390.94967053143614
 11
262.28505458760912
 21
394.44967153143614
  0
ARC
  8
_0-9_
  6
CONTINUOUS
 62
    2
 10
261.28505258760936
 20
390.94967053143614
 40
0.9999989999999996
 50
270
 51
0
  0
LINE
  8
_0-9_
  6
CONTINUOUS
 62
    2
 10
262.28711258760939
 20
387.94967053143614
 11
262.28711258760939
 21
383.44967053143614
  0
ARC
  8
_0-9_
  6
CONTINUOUS
 62
    2
 10
261.78711158760933
 20
387.94967053143614
 40
0.500001
 50
0
 51
90
  0
ARC
  8
_0-9_
  6
CONTINUOUS
 62
    2
 10
262.28711258760939
 20
382.44967153143619
 40
0.9999989999999996
 50
90
 51
270
  0
ARC
  8
_0-9_
  6
CONTINUOUS
 62
    2
 10
251.68711058760906
 20
398.44967053143614
 40
1.5
 50
180
 51
240.25511899999998
  0
LINE
  8
_0-9_
  6
CONTINUOUS
 62
    2
 10
250.94290358760935
 20
397.14730753143613
 11
254.78876558760948
 21
394.94967253143602
  0
LINE
  8
_0-9_
  6
CONTINUOUS
 62
    2
 10
255.98876558760924
 20
394.94967253143602
 11
261.78505358760924
 21
394.94967253143602
  0
LINE
  8
_0-9_
  6
CONTINUOUS
 62
    2
 10
255.98876558760924
 20
393.54967153143616
 11
255.98876558760924
 21
394.94967253143602
  0
LINE
  8
_0-9_
  6
CONTINUOUS
 62
    2
 10
251.68711058760906
 20
398.44967053143614
 11
255.18711158760937
 21
396.44967253143602
  0
ARC
  8
_0-9_
  6
CONTINUOUS
 62
    2
 10
255.3887655876091
 20
393.54967153143616
 40
0.5999999999999996
 50
180
 51
0
  0
LINE
  8
_0-9_
  6
CONTINUOUS
 62
    2
 10
255.93711158760937
 20
341.44967053143614
 11
254.68711058760906
 21
341.44967053143614
  0
LINE
  8
_0-9_
  6
CONTINUOUS
 62
    2
 10
255.93711158760937
 20
345.44967253143608
 11
254.68711058760906
 21
345.44967253143608
  0
LINE
  8
_0-9_
  6
CONTINUOUS
 62
    2
 10
275.78384558760911
 20
375.86704753143607
 11
274.88783258760958
 21
375.91400653143614
  0
ARC
  8
_0-9_
  6
CONTINUOUS
 62
    2
 10
275.8623495876094
 20
377.36499253143614
 40
1.5
 50
267
 51
0.0000000000001399
  0
LINE
  8
_0-9_
  6
CONTINUOUS
 62
    2
 10
277.3623495876094
 20
377.36499253143614
 11
277.38711158760918
 21
379.14967153143601
  0
LINE
  8
_0-9_
  6
CONTINUOUS
 62
    2
 10
271.3623495876094
 20
377.52221653143596
 11
271.38711158760918
 21
379.14967153143601
  0
ARC
  8
_0-9_
  6
CONTINUOUS
 62
    2
 10
272.8623495876094
 20
377.52221653143596
 40
1.5
 50
180
 51
267
  0
LINE
  8
_0-9_
  6
CONTINUOUS
 62
    2
 10
272.78384558760911
 20
376.02427153143611
 11
273.88920158760914
 21
375.96634153143617
  0
LINE
  8
_0-9_
  6
CONTINUOUS
 62
    2
 10
278.3871105876093
 20
380.14967053143613
 11
278.3871105876093
 21
379.14967153143601
  0
LINE
  8
_0-9_
  6
CONTINUOUS
 62
    2
 10
269.3871105876093
 20
380.14967053143613
 11
278.3871105876093
 21
380.14967053143613
  0
LINE
  8
_0-9_
  6
CONTINUOUS
 62
    2
 10
269.3871105876093
 20
379.14967153143601
 11
278.3871105876093
 21
379.14967153143601
  0
ARC
  8
_0-9_
  6
CONTINUOUS
 62
    2
 10
269.3871105876093
 20
380.14967053143613
 40
0.9999989999999996
 50
180
 51
270
  0
LINE
  8
_0-9_
  6
CONTINUOUS
 62
    2
 10
268.38711158760918
 20
380.14967053143613
 11
268.38711158760918
 21
381.34967053143617
  0
ARC
  8
_0-9_
  6
CONTINUOUS
 62
    2
 10
269.3871105876093
 20
381.34967053143617
 40
0.9999989999999996
 50
90
 51
180
  0
LINE
  8
_0-9_
  6
CONTINUOUS
 62
    2
 10
269.3871105876093
 20
382.34967253143594
 11
274.88711258760907
 21
382.34967253143594
  0
LINE
  8
_0-9_
  6
CONTINUOUS
 62
    2
 10
275.3871105876093
 20
382.84967053143617
 11
275.3871105876093
 21
383.34967153143606
  0
ARC
  8
_0-9_
  6
CONTINUOUS
 62
    2
 10
274.88711258760907
 20
382.84967053143617
 40
0.500001
 50
270
 51
0
  0
ARC
  8
_0-9_
  6
CONTINUOUS
 62
    2
 10
277.18711058760903
 20
382.34967253143594
 40
2.199999
 50
270
 51
0
  0
ARC
  8
_0-9_
  6
CONTINUOUS
 62
    2
 10
277.18711058760903
 20
382.34967253143594
 40
0.9999989999999996
 50
270
 51
0
  0
LINE
  8
_0-9_
  6
CONTINUOUS
 62
    2
 10
277.18711058760903
 20
381.34967053143617
 11
269.3871105876093
 21
381.34967053143617
  0
ARC
  8
_0-9_
  6
CONTINUOUS
 62
    2
 10
275.8623495876094
 20
377.36499253143614
 40
2.4999989999999999
 50
267
 51
0.0000000000001399
  0
ARC
  8
_0-9_
  6
CONTINUOUS
 62
    2
 10
272.8623495876094
 20
377.52221653143596
 40
2.4999989999999999
 50
180
 51
267
  0
ARC
  8
_0-9_
  6
CONTINUOUS
 62
    2
 10
274.86166358760931
 20
375.41468953143607
 40
0.500001
 50
87
 51
267
  0
ARC
  8
_0-9_
  6
CONTINUOUS
 62
    2
 10
273.86303558760903
 20
375.46702753143626
 40
0.500001
 50
267
 51
87.000000000000185
  0
LINE
  8
_0-9_
  6
CONTINUOUS
 62
    2
 10
270.38711258760907
 20
379.14967153143601
 11
270.36234758760946
 21
377.52221653143596
  0
LINE
  8
_0-9_
  6
CONTINUOUS
 62
    2
 10
278.3871105876093
 20
379.14967153143601
 11
278.36234858760935
 21
377.36499253143614
  0
ARC
  8
_0-9_
  6
CONTINUOUS
 62
    2
 10
274.88711258760907
 20
382.84967053143617
 40
1.5
 50
270
 51
0
  0
LINE
  8
_0-9_
  6
CONTINUOUS
 62
    2
 10
276.38711258760907
 20
383.34967153143606
 11
276.38711258760907
 21
382.84967053143617
  0
LINE
  8
_0-9_
  6
CONTINUOUS
 62
    2
 10
269.3871105876093
 20
381.34967053143617
 11
269.3871105876093
 21
380.14967053143613
  0
LINE
  8
_0-9_
  6
DASHED1
 62
    3
 10
250.18711058760906
 20
389.89063753143608
 11
254.68711058760906
 21
389.89063753143608
  0
LINE
  8
_0-9_
  6
DASHED1
 62
    3
 10
233.2724685876093
 20
370.19004853143605
 11
234.18711158760937
 21
368.44967053143614
  0
LINE
  8
_0-9_
  6
DASHED1
 62
    3
 10
234.18711158760937
 20
368.44967053143614
 11
246.18711158760937
 21
368.44967053143614
  0
LINE
  8
_0-9_
  6
DASHED1
 62
    3
 10
226.38673358760923
 20
376.00872853143613
 11
231.38673458760911
 21
377.82857953143616
  0
LINE
  8
_0-9_
  6
DASHED1
 62
    3
 10
226.38673358760923
 20
377.07290653143599
 11
231.04471358760941
 21
378.76827253143614
  0
LINE
  8
_0-9_
  6
DASHED1
 62
    3
 10
226.38673358760923
 20
368.89061353143614
 11
231.38673458760911
 21
367.07076253143617
  0
LINE
  8
_0-9_
  6
DASHED1
 62
    3
 10
231.04471358760941
 20
366.13106953143614
 11
237.84833558760934
 21
365.13871453143611
  0
ARC
  8
_0-9_
  6
DASHED1
 62
    3
 10
237.9060675876093
 20
365.53452853143625
 40
0.3999989999999997
 50
261.70153399999998
 51
351.86989799999998
  0
LINE
  8
_0-9_
  6
DASHED1
 62
    3
 10
238.3020465876092
 20
365.47795753143618
 11
238.33016558760906
 21
365.67478453143616
  0
ARC
  8
_0-9_
  6
DASHED1
 62
    3
 10
237.93418358760925
 20
365.73135253143613
 40
0.3999989999999997
 50
351.86989799999992
 51
81.869897999999949
  0
LINE
  8
_0-9_
  6
DASHED1
 62
    3
 10
237.99075458760933
 20
366.12733153143603
 11
231.38673458760911
 21
367.07076253143617
  0
LINE
  8
_0-9_
  6
DASHED1
 62
    3
 10
231.04471358760941
 20
378.76827253143614
 11
237.84833558760934
 21
379.76062753143623
  0
ARC
  8
_0-9_
  6
DASHED1
 62
    3
 10
237.9060675876093
 20
379.36481653143613
 40
0.3999989999999997
 50
8.1301019999999866
 51
98.298465999999991
  0
LINE
  8
_0-9_
  6
DASHED1
 62
    3
 10
238.3020465876092
 20
379.42138453143616
 11
238.33016558760906
 21
379.22456053143623
  0
ARC
  8
_0-9_
  6
DASHED1
 62
    3
 10
237.93418358760925
 20
379.16798953143615
 40
0.3999989999999997
 50
278.13010200000008
 51
8.1301020000000506
  0
LINE
  8
_0-9_
  6
DASHED1
 62
    3
 10
238.18711058760906
 20
372.94967053143614
 11
238.18711058760906
 21
372.44967253143608
  0
LINE
  8
_0-9_
  6
DASHED1
 62
    3
 10
234.18711158760937
 20
376.44967153143619
 11
233.2724685876093
 21
374.70929653143617
  0
LINE
  8
_0-9_
  6
DASHED1
 62
    3
 10
246.18711158760937
 20
377.44967053143614
 11
241.18711058760906
 21
376.44967153143619
  0
LINE
  8
_0-9_
  6
DASHED1
 62
    3
 10
246.18711158760937
 20
373.44967153143619
 11
241.18711058760906
 21
372.44967253143608
  0
LINE
  8
_0-9_
  6
DASHED1
 62
    3
 10
246.18711158760937
 20
371.44967053143614
 11
241.18711058760906
 21
372.44967253143608
  0
LINE
  8
_0-9_
  6
DASHED1
 62
    3
 10
241.18711058760906
 20
372.44967253143608
 11
246.18711158760937
 21
372.44967253143608
  0
LINE
  8
_0-9_
  6
DASHED1
 62
    3
 10
212.05655558760932
 20
374.31911653143601
 11
210.18711158760937
 21
372.44967253143608
  0
LINE
  8
_0-9_
  6
DASHED1
 62
    3
 10
233.2724685876093
 20
374.70929653143617
 11
231.27520958760931
 21
374.81396653143628
  0
LINE
  8
_0-9_
  6
DASHED1
 62
    3
 10
231.27520958760931
 20
374.81396653143628
 11
231.37987958760928
 21
376.81122553143604
  0
LINE
  8
_0-9_
  6
DASHED1
 62
    3
 10
231.37987958760928
 20
376.81122553143604
 11
229.38262058760955
 21
376.91589853143608
  0
LINE
  8
_0-9_
  6
DASHED1
 62
    3
 10
209.22685658760918
 20
374.46741553143619
 11
209.41003058760919
 21
377.96261653143614
  0
LINE
  8
_0-9_
  6
DASHED1
 62
    3
 10
209.41003058760919
 20
377.96261653143614
 11
207.30809858760915
 21
376.07003053143598
  0
LINE
  8
_0-9_
  6
DASHED1
 62
    3
 10
207.30809858760915
 20
376.07003053143598
 11
207.22959458760911
 21
374.57208553143613
  0
LINE
  8
_0-9_
  6
DASHED1
 62
    3
 10
207.22959458760911
 20
374.57208553143613
 11
238.18711058760906
 21
372.94967053143614
  0
LINE
  8
_0-9_
  6
DASHED1
 62
    3
 10
229.38262058760955
 20
376.91589853143608
 11
228.27931958760917
 21
374.97097453143596
  0
LINE
  8
_0-9_
  6
DASHED1
 62
    3
 10
228.27931958760917
 20
374.97097453143596
 11
226.28206058760918
 21
375.07564753143623
  0
LINE
  8
_0-9_
  6
DASHED1
 62
    3
 10
226.28206058760918
 20
375.07564753143623
 11
226.38673358760923
 21
377.07290653143599
  0
LINE
  8
_0-9_
  6
DASHED1
 62
    3
 10
226.38673358760923
 20
377.07290653143599
 11
224.38947458760924
 21
377.17757953143627
  0
LINE
  8
_0-9_
  6
DASHED1
 62
    3
 10
224.38947458760924
 20
377.17757953143627
 11
223.28617358760937
 21
375.23265553143614
  0
LINE
  8
_0-9_
  6
DASHED1
 62
    3
 10
223.28617358760937
 20
375.23265553143614
 11
221.28891458760938
 21
375.33732853143619
  0
LINE
  8
_0-9_
  6
DASHED1
 62
    3
 10
221.28891458760938
 20
375.33732853143619
 11
221.3935845876091
 21
377.33458753143594
  0
LINE
  8
_0-9_
  6
DASHED1
 62
    3
 10
221.3935845876091
 20
377.33458753143594
 11
219.39632558760911
 21
377.43925753143617
  0
LINE
  8
_0-9_
  6
DASHED1
 62
    3
 10
219.39632558760911
 20
377.43925753143617
 11
218.29302458760924
 21
375.49433353143621
  0
LINE
  8
_0-9_
  6
DASHED1
 62
    3
 10
218.29302458760924
 20
375.49433353143621
 11
216.29576558760925
 21
375.59900653143609
  0
LINE
  8
_0-9_
  6
DASHED1
 62
    3
 10
216.29576558760925
 20
375.59900653143609
 11
216.4004385876093
 21
377.59626553143625
  0
LINE
  8
_0-9_
  6
DASHED1
 62
    3
 10
216.4004385876093
 20
377.59626553143625
 11
214.40317958760932
 21
377.70093853143612
  0
LINE
  8
_0-9_
  6
DASHED1
 62
    3
 10
214.40317958760932
 20
377.70093853143612
 11
213.29987858760902
 21
375.75601453143616
  0
LINE
  8
_0-9_
  6
DASHED1
 62
    3
 10
213.29987858760902
 20
375.75601453143616
 11
211.30261958760929
 21
375.86068753143621
  0
LINE
  8
_0-9_
  6
DASHED1
 62
    3
 10
211.30261958760929
 20
375.86068753143621
 11
211.40728958760917
 21
377.8579465314362
  0
LINE
  8
_0-9_
  6
DASHED1
 62
    3
 10
211.40728958760917
 20
377.8579465314362
 11
209.41003058760919
 21
377.96261653143614
  0
LINE
  8
_0-9_
  6
DASHED1
 62
    3
 10
238.18711058760906
 20
371.94967153143619
 11
238.18711058760906
 21
372.44967253143608
  0
LINE
  8
_0-9_
  6
DASHED1
 62
    3
 10
246.18711158760937
 20
367.44967153143619
 11
241.18711058760906
 21
368.44967053143614
  0
LINE
  8
_0-9_
  6
DASHED1
 62
    3
 10
233.2724685876093
 20
370.19004853143605
 11
231.27520958760931
 21
370.085375531436
  0
LINE
  8
_0-9_
  6
DASHED1
 62
    3
 10
231.27520958760931
 20
370.085375531436
 11
231.37987958760928
 21
368.08811653143601
  0
LINE
  8
_0-9_
  6
DASHED1
 62
    3
 10
231.37987958760928
 20
368.08811653143601
 11
229.38262058760955
 21
367.98344353143625
  0
LINE
  8
_0-9_
  6
DASHED1
 62
    3
 10
209.22685658760918
 20
370.43192953143597
 11
209.41003058760919
 21
366.93672553143614
  0
LINE
  8
_0-9_
  6
DASHED1
 62
    3
 10
209.41003058760919
 20
366.93672553143614
 11
207.30809858760915
 21
368.82931153143608
  0
LINE
  8
_0-9_
  6
DASHED1
 62
    3
 10
207.30809858760915
 20
368.82931153143608
 11
207.22959458760911
 21
370.32725653143615
  0
LINE
  8
_0-9_
  6
DASHED1
 62
    3
 10
207.22959458760911
 20
370.32725653143615
 11
238.18711058760906
 21
371.94967153143619
  0
LINE
  8
_0-9_
  6
DASHED1
 62
    3
 10
229.38262058760955
 20
367.98344353143625
 11
228.27931958760917
 21
369.92836753143609
  0
LINE
  8
_0-9_
  6
DASHED1
 62
    3
 10
228.27931958760917
 20
369.92836753143609
 11
226.28206058760918
 21
369.82369453143605
  0
LINE
  8
_0-9_
  6
DASHED1
 62
    3
 10
226.28206058760918
 20
369.82369453143605
 11
226.38673358760923
 21
367.82643553143606
  0
LINE
  8
_0-9_
  6
DASHED1
 62
    3
 10
226.38673358760923
 20
367.82643553143606
 11
224.38947458760924
 21
367.72176553143612
  0
LINE
  8
_0-9_
  6
DASHED1
 62
    3
 10
224.38947458760924
 20
367.72176553143612
 11
223.28617358760937
 21
369.66668653143614
  0
LINE
  8
_0-9_
  6
DASHED1
 62
    3
 10
223.28617358760937
 20
369.66668653143614
 11
221.28891458760938
 21
369.5620165314362
  0
LINE
  8
_0-9_
  6
DASHED1
 62
    3
 10
221.28891458760938
 20
369.5620165314362
 11
221.3935845876091
 21
367.56475753143621
  0
LINE
  8
_0-9_
  6
DASHED1
 62
    3
 10
221.3935845876091
 20
367.56475753143621
 11
219.39632558760911
 21
367.46008453143617
  0
LINE
  8
_0-9_
  6
DASHED1
 62
    3
 10
219.39632558760911
 20
367.46008453143617
 11
218.29302458760924
 21
369.40500853143612
  0
LINE
  8
_0-9_
  6
DASHED1
 62
    3
 10
218.29302458760924
 20
369.40500853143612
 11
216.29576558760925
 21
369.30033553143608
  0
LINE
  8
_0-9_
  6
DASHED1
 62
    3
 10
216.29576558760925
 20
369.30033553143608
 11
216.4004385876093
 21
367.30307653143626
  0
LINE
  8
_0-9_
  6
DASHED1
 62
    3
 10
216.4004385876093
 20
367.30307653143626
 11
214.40317958760932
 21
367.19840653143609
  0
LINE
  8
_0-9_
  6
DASHED1
 62
    3
 10
214.40317958760932
 20
367.19840653143609
 11
213.29987858760902
 21
369.14332753143617
  0
LINE
  8
_0-9_
  6
DASHED1
 62
    3
 10
213.29987858760902
 20
369.14332753143617
 11
211.30261958760929
 21
369.03865753143617
  0
LINE
  8
_0-9_
  6
DASHED1
 62
    3
 10
211.30261958760929
 20
369.03865753143617
 11
211.40728958760917
 21
367.04139853143596
  0
LINE
  8
_0-9_
  6
DASHED1
 62
    3
 10
211.40728958760917
 20
367.04139853143596
 11
209.41003058760919
 21
366.93672553143614
  0
LINE
  8
_0-9_
  6
DASHED1
 62
    3
 10
212.05655558760932
 20
370.58022853143621
 11
210.18711158760937
 21
372.44967253143608
  0
LINE
  8
_0-9_
  6
DASHED1
 62
    3
 10
237.99075458760933
 20
378.77201053143625
 11
231.38673458760911
 21
377.82857953143616
  0
LINE
  8
_0-9_
  6
DASHED1
 62
    3
 10
226.38673358760923
 20
367.82643553143606
 11
231.04471358760941
 21
366.13106953143614
  0
LINE
  8
_0-9_
  6
DASHED1
 62
    3
 10
234.18711158760937
 20
376.44967153143619
 11
246.18711158760937
 21
376.44967153143619
  0
ARC
  8
_0-9_
  6
CONTINUOUS
 62
    2
 10
249.55840358760918
 20
373.95243253143616
 40
3
 50
38.614638000000006
 51
87.541073999999981
  0
ARC
  8
_0-9_
  6
CONTINUOUS
 62
    2
 10
247.68711158760937
 20
372.44967253143608
 40
5.4000000000000004
 50
0
 51
38.851061999999992
  0
ARC
  8
_0-9_
  6
CONTINUOUS
 62
    2
 10
247.68711158760937
 20
372.44967253143608
 40
5.4000000000000004
 50
321.31781300000006
 51
0.0000000000000445
  0
ARC
  8
_0-9_
  6
CONTINUOUS
 62
    2
 10
249.55840358760918
 20
370.94690953143612
 40
3
 50
272.45892600000002
 51
321.38536199999999
  0
LINE
  8
_0-9_
  6
CONTINUOUS
 62
    2
 10
276.8871105876093
 20
383.74967053143627
 11
277.88711258760907
 21
383.74967053143627
  0
LINE
  8
_0-9_
  6
CONTINUOUS
 62
    3
 10
277.51263758760922
 20
383.74967053143627
 11
277.88711258760907
 21
384.12414553143617
  0
ARC
  8
_0-9_
  6
CONTINUOUS
 62
    2
 10
275.88711158760918
 20
383.34967153143606
 40
0.500001
 50
0
 51
180
  0
ARC
  8
_0-9_
  6
DASHED1
 62
    3
 10
257.68711058760903
 20
376.76304853143614
 40
7.5
 50
180
 51
267
  0
LINE
  8
_0-9_
  6
DASHED1
 62
    3
 10
250.18711058760906
 20
376.76304853143614
 11
250.18711058760906
 21
389.89063753143608
  0
LINE
  8
_0-9_
  6
DASHED1
 62
    3
 10
257.53010258760941
 20
373.7671615314361
 11
262.03010558760923
 21
373.53132553143604
  0
ARC
  8
_0-9_
  6
DASHED1
 62
    3
 10
257.68711058760903
 20
376.76304853143614
 40
3
 50
180
 51
267
  0
LINE
  8
_0-9_
  6
DASHED1
 62
    3
 10
254.68711058760906
 20
376.76304853143614
 11
254.68711058760906
 21
389.89063753143608
  0
LINE
  8
_0-9_
  6
CONTINUOUS
 62
    2
 10
261.18711158760937
 20
376.52721553143618
 11
261.18711158760937
 21
387.57824953143603
  0
ARC
  8
_0-9_
  6
CONTINUOUS
 62
    2
 10
262.18711058760903
 20
376.52721553143618
 40
0.9999989999999996
 50
180
 51
267
  0
LINE
  8
_0-9_
  6
CONTINUOUS
 62
    2
 10
259.18711058760903
 20
376.52721553143618
 11
259.18711058760903
 21
387.57824953143603
  0
ARC
  8
_0-9_
  6
CONTINUOUS
 62
    2
 10
262.18711058760903
 20
376.52721553143618
 40
3
 50
180
 51
267
  0
LINE
  8
_0-9_
  6
CONTINUOUS
 62
    2
 10
259.18711058760903
 20
387.57824953143603
 11
261.18711158760937
 21
387.57824953143603
  0
LINE
  8
_0-9_
  6
CONTINUOUS
 62
    3
 10
280.43456258760909
 20
372.56678953143609
 11
278.79749558760898
 21
370.92972253143597
  0
LINE
  8
_0-9_
  6
CONTINUOUS
 62
    3
 10
281.77834958760934
 20
372.4963645314362
 11
280.14128558760939
 21
370.85929753143608
  0
LINE
  8
_0-9_
  6
CONTINUOUS
 62
    3
 10
283.1221395876093
 20
372.42593953143614
 11
281.48507258760935
 21
370.7888725314362
  0
LINE
  8
_0-9_
  6
CONTINUOUS
 62
    3
 10
284.46592658760926
 20
372.35551453143597
 11
282.82886258760902
 21
370.71844753143614
  0
LINE
  8
_0-9_
  6
CONTINUOUS
 62
    3
 10
285.80971658760939
 20
372.28508953143609
 11
284.17264958760927
 21
370.64802253143597
  0
LINE
  8
_0-9_
  6
CONTINUOUS
 62
    3
 10
287.15350358760918
 20
372.2146645314362
 11
285.5164395876094
 21
370.57759753143608
  0
LINE
  8
_0-9_
  6
CONTINUOUS
 62
    3
 10
286.86022658760919
 20
370.5071725314362
 11
287.47374758760918
 21
371.12069353143596
  0
LINE
  8
_0-9_
  6
CONTINUOUS
 62
    3
 10
279.10152158760923
 20
372.63665053143603
 11
277.46445758760927
 21
370.99958353143614
  0
LINE
  8
_0-9_
  6
CONTINUOUS
 62
    3
 10
277.74698558760946
 20
372.70763953143609
 11
277.53192158760947
 21
372.4925755314361
  0
LINE
  8
_0-9_
  6
CONTINUOUS
 62
    3
 10
270.36699158760905
 20
377.82738253143611
 11
271.37992358760937
 21
378.6773335314362
  0
LINE
  8
_0-9_
  6
CONTINUOUS
 62
    3
 10
270.51946658760943
 20
376.64991553143608
 11
271.3706955876093
 21
377.36418253143614
  0
LINE
  8
_0-9_
  6
CONTINUOUS
 62
    3
 10
271.05556358760958
 20
375.79434853143607
 11
271.82431358760931
 21
376.43940553143619
  0
LINE
  8
_0-9_
  6
CONTINUOUS
 62
    3
 10
271.91385458760908
 20
375.20913253143613
 11
272.87933558760932
 21
376.01926753143624
  0
LINE
  8
_0-9_
  6
CONTINUOUS
 62
    3
 10
273.2203695876093
 20
375.00002053143612
 11
274.20812558760929
 21
375.82884553143612
  0
LINE
  8
_0-9_
  6
CONTINUOUS
 62
    3
 10
277.37794058760926
 20
378.48863653143616
 11
278.16573158760923
 21
379.14967153143601
  0
LINE
  8
_0-9_
  6
CONTINUOUS
 62
    3
 10
274.70457458760927
 20
374.94000853143621
 11
275.80809458760916
 21
375.86597353143605
  0
LINE
  8
_0-9_
  6
CONTINUOUS
 62
    3
 10
277.34801558760927
 20
377.15811853143623
 11
278.37139358760908
 21
378.01683553143602
  0
LINE
  8
_0-9_
  6
CONTINUOUS
 62
    3
 10
276.19784558760938
 20
374.88760453143618
 11
278.24383958760944
 21
376.60439653143607
  0
LINE
  8
_0-9_
  6
CONTINUOUS
 62
    3
 10
270.39955658760903
 20
379.14967153143601
 11
270.38695058760925
 21
379.13909353143612
  0
LINE
  8
_0-9_
  6
CONTINUOUS
 62
    2
 10
246.18711158760937
 20
426.94967053143614
 11
247.18711058760906
 21
426.94967053143614
  0
LINE
  8
_0-9_
  6
CONTINUOUS
 62
    2
 10
247.18711058760906
 20
426.94967053143614
 11
247.18711058760906
 21
339.91892053143619
  0
ARC
  8
_0-9_
  6
CONTINUOUS
 62
    2
 10
289.18711058760903
 20
423.64967053143613
 40
19.5
 50
157.38013499999997
 51
202.619865
  0
LINE
  8
_0-0_0
  6
CONTINUOUS
 62
    4
 10
264.38711258760907
 20
429.45862323434426
 11
266.0781598847006
 21
431.14967053143573
  0
LINE
  8
_0-0_0
  6
CONTINUOUS
 62
    4
 10
264.38711258760907
 20
426.63019610959753
 11
268.90658700944732
 21
431.14967053143573
  0
LINE
  8
_0-0_0
  6
CONTINUOUS
 62
    4
 10
268.048722633181
 20
416.14967053143619
 11
270.38361047690825
 21
418.48455837516337
  0
LINE
  8
_0-0_0
  6
CONTINUOUS
 62
    4
 10
265.22029550843411
 20
416.14967053143573
 11
269.89314247058866
 21
420.82251749359023
  0
LINE
  8
_0-0_0
  6
CONTINUOUS
 62
    4
 10
264.38711258760907
 20
418.14491473535753
 11
269.68817449357732
 21
423.44597664132579
  0
LINE
  8
_0-0_0
  6
CONTINUOUS
 62
    4
 10
264.38711258760907
 20
420.97334186010426
 11
269.89358023775924
 21
426.47980951025454
  0
LINE
  8
_0-0_0
  6
CONTINUOUS
 62
    4
 10
264.38711258760907
 20
423.80176898485092
 11
270.83967235129836
 21
430.2543287485405
  0
LINE
  8
_0-7_
  6
CONTINUOUS
 62
    3
 10
246.18711158760937
 20
429.52928223160995
 11
246.18711158760937
 21
499.0582598501602
  0
LINE
  8
_0-7_
  6
CONTINUOUS
 62
    3
 10
246.18711158760937
 20
493.0582598501602
 11
249.18711158760937
 21
492.3082598501602
  0
LINE
  8
_0-7_
  6
CONTINUOUS
 62
    3
 10
246.18711158760937
 20
493.0582598501602
 11
249.18711158760937
 21
493.8082598501602
  0
TEXT
  8
_0-7_
 62
    7
 10
195.365858290722
 20
390.20764519535669
 40
9
 41
1
 50
0
  1
18
  0
TEXT
  8
_0-7_
 62
    7
 10
222.83830170174738
 20
391.73389205152478
 40
9
 41
1
 50
0
  1
19
  0
TEXT
  8
_0-7_
 62
    7
 10
227.02891884216754
 20
434.46880402423096
 40
9
 41
1
 50
0
  1
４
  0
TEXT
  8
_0-7_
 62
    7
 10
227.41704227025164
 20
455.836260010584
 40
9
 41
1
 50
0
  1
15
  0
TEXT
  8
_0-7_
 62
    7
 10
254.21822624978128
 20
480.63777142331526
 40
9
 41
1
 50
0
  1
33.5
  0
TEXT
  8
_0-7_
 62
    7
 10
264.81009024636944
 20
458.88875372292023
 40
9
 41
1
 50
0
  1
20
  0
TEXT
  8
_0-7_
 62
    7
 10
291.51284851526884
 20
447.06034058761759
 40
9
 41
1
 50
0
  1
２
  0
TEXT
  8
_0-7_
 62
    7
 10
304.71002736973105
 20
413.48947146596191
 40
9
 41
1
 50
90
  1
15
  0
TEXT
  8
_0-7_
 62
    7
 10
303.94690394164695
 20
387.24701547960882
 40
9
 41
1
 50
90
  1
３６
  0
TEXT
  8
_0-7_
 62
    7
 10
296.47971251185714
 20
433.32411888210493
 40
9
 41
1
 50
0
  1
10
  0
TEXT
  8
_0-7_
 62
    7
 10
225.50923370004156
 20
348.99898007881865
 40
9
 41
1
 50
0
  1
21
  0
TEXT
  8
_0-7_
 62
    7
 10
300.67689136631935
 20
324.57903038012944
 40
9
 41
1
 50
0
  1
13
  0
TEXT
  8
_0-8_
 62
    7
 10
251.15917082340309
 20
189.8877453232966
 40
9
 41
1
 50
0
  1
２５
  0
LINE
  8
_0-7_
  6
CONTINUOUS
 62
    3
 10
134.58111228823387
 20
428.52928323161018
 11
133.83111228823387
 21
425.52928323161018
  0
LINE
  8
_0-7_
  6
CONTINUOUS
 62
    3
 10
134.58111228823387
 20
428.52928323161018
 11
135.33111228823387
 21
425.52928323161018
  0
LINE
  8
_0-7_
  6
CONTINUOUS
 62
    3
 10
244.1871105876094
 20
428.52928323161018
 11
128.58111228823387
 21
428.52928323161018
  0
TEXT
  8
_0-7_
 62
    7
 10
133.15777877633596
 20
357.2159847271883
 40
9
 41
1
 50
90
  1
Ｅ
  0
LINE
  8
_0-7_
  6
CONTINUOUS
 62
    3
 10
203.60415458760943
 20
369.82928223160997
 11
164.36083756319042
 21
369.82928223160997
  0
LINE
  8
_0-7_
  6
CONTINUOUS
 62
    3
 10
168.36083656319045
 20
369.82928223160997
 11
167.61083656319045
 21
366.82928223160997
  0
LINE
  8
_0-7_
  6
CONTINUOUS
 62
    3
 10
168.36083656319045
 20
369.82928223160997
 11
169.11083656319045
 21
366.82928223160997
  0
TEXT
  8
_0-7_
 62
    7
 10
166.53864879808165
 20
330.82455646773843
 40
9
 41
1
 50
90
  1
Ｄ
  0
LINE
  8
_0-9_
  6
CONTINUOUS
 62
    2
 10
1014.2698155876089
 20
258.54833556948927
 11
1005.0196395876089
 21
258.54833556948927
  0
LINE
  8
_0-9_
  6
CONTINUOUS
 62
    2
 10
1005.0196395876089
 20
259.74833556948909
 11
1007.4196395876091
 21
259.74833556948909
  0
ARC
  8
_0-9_
  6
CONTINUOUS
 62
    2
 10
1005.0196395876089
 20
259.14833556948912
 40
0.5999999999999996
 50
90
 51
270
  0
LINE
  8
_0-9_
  6
CONTINUOUS
 62
    2
 10
277.45370558760931
 20
371.00014753143608
 11
991.95204158760896
 21
333.55487556948913
  0
LINE
  8
_0-9_
  6
CONTINUOUS
 62
    2
 10
277.21819658760899
 20
366.5063155314362
 11
991.71652958760876
 21
329.06104356948924
  0
LINE
  8
_0-9_
  6
CONTINUOUS
 62
    2
 10
277.13969258760915
 20
365.00837053143613
 11
991.63802558760858
 21
327.5630985694894
  0
LINE
  8
_0-9_
  6
DASHED1
 62
    3
 10
276.37035158760921
 20
350.32851553143627
 11
990.86868458760887
 21
312.88324356948925
  0
LINE
  8
_0-9_
  6
DASHED1
 62
    3
 10
276.27614858760933
 20
348.5309845314361
 11
990.77448158760876
 21
311.08571256948937
  0
LINE
  8
_0-9_
  6
CONTINUOUS
 62
    2
 10
275.98830158760927
 20
343.03852153143606
 11
990.48663458760871
 21
305.59324956948933
  0
LINE
  8
_0-9_
  6
DASHED1
 62
    3
 10
276.11914058760942
 20
345.53509453143596
 11
990.61747358760874
 21
308.08982256948923
  0
LINE
  8
_0-9_
  6
DASHED1
 62
    3
 10
276.04063658760913
 20
344.03714953143611
 11
990.53896958760856
 21
306.59187756948916
  0
LINE
  8
_0-9_
  6
DASHED1
 62
    3
 10
998.18295758760883
 20
330.44501256948922
 11
257.29459058760938
 21
369.27332653143611
  0
LINE
  8
_0-9_
  6
CONTINUOUS
 62
    2
 10
1018.2394485876086
 20
333.90007356948934
 11
262.03010258760941
 21
373.53132553143604
  0
LINE
  8
_0-9_
  6
CONTINUOUS
 62
    2
 10
1011.1871115876087
 20
247.74833556948909
 11
1011.1871115876087
 21
245.74833756948928
  0
ARC
  8
_0-9_
  6
DASHED1
 62
    3
 10
998.02594958760869
 20
327.44912556948913
 40
7.5
 50
10.124671999999995
 51
87.000000000000014
  0
LINE
  8
_0-9_
  6
CONTINUOUS
 62
    3
 10
984.9466005876086
 20
335.64487656948916
 11
983.30953358760894
 21
334.00780956948921
  0
LINE
  8
_0-9_
  6
CONTINUOUS
 62
    3
 10
986.29038758760885
 20
335.57445156948927
 11
984.65332358760895
 21
333.93738456948915
  0
LINE
  8
_0-9_
  6
CONTINUOUS
 62
    3
 10
987.63417758760886
 20
335.50402656948938
 11
985.99711058760874
 21
333.86695956948927
  0
LINE
  8
_0-9_
  6
CONTINUOUS
 62
    3
 10
988.97796458760899
 20
335.43360156948927
 11
987.34090058760853
 21
333.79653456948938
  0
LINE
  8
_0-9_
  6
CONTINUOUS
 62
    3
 10
990.32175458760889
 20
335.3631765694891
 11
988.68468758760878
 21
333.72611256948915
  0
LINE
  8
_0-9_
  6
CONTINUOUS
 62
    3
 10
991.66554158760869
 20
335.29275156948921
 11
990.02847758760913
 21
333.65568756948926
  0
LINE
  8
_0-9_
  6
CONTINUOUS
 62
    3
 10
991.37226458760892
 20
333.58526256948937
 11
991.98578558760869
 21
334.19878056948926
  0
LINE
  8
_0-9_
  6
CONTINUOUS
 62
    3
 10
983.61355958760873
 20
335.7147375694891
 11
981.97649558760884
 21
334.07767356948909
  0
LINE
  8
_0-9_
  6
CONTINUOUS
 62
    3
 10
982.2590205876088
 20
335.78572656948938
 11
982.04395958760904
 21
335.57066556948928
  0
ARC
  8
_0-9_
  6
CONTINUOUS
 62
    2
 10
1018.1871135876088
 20
248.74833756948928
 40
0.9999989999999996
 50
270
 51
0
  0
LINE
  8
_0-9_
  6
CONTINUOUS
 62
    2
 10
1018.1871135876088
 20
247.74833556948909
 11
1011.1871115876087
 21
247.74833556948909
  0
ARC
  8
_0-9_
  6
CONTINUOUS
 62
    2
 10
1018.1871135876088
 20
248.74833756948928
 40
3
 50
270
 51
0
  0
LINE
  8
_0-9_
  6
CONTINUOUS
 62
    2
 10
1018.1871135876088
 20
245.74833756948928
 11
1011.1871115876087
 21
245.74833756948928
  0
ARC
  8
_0-9_
  6
CONTINUOUS
 62
    2
 10
1018.1871135876088
 20
332.90144256948918
 40
3
 50
0
 51
87.000000000000014
  0
LINE
  8
_0-9_
  6
CONTINUOUS
 62
    2
 10
1021.1871135876088
 20
332.90144256948918
 11
1021.1871135876088
 21
248.74833756948928
  0
LINE
  8
_0-9_
  6
DASHED1
 62
    3
 10
1005.4091565876091
 20
328.76755356948917
 11
1019.1871125876089
 21
251.6110065694894
  0
LINE
  8
_0-9_
  6
CONTINUOUS
 62
    2
 10
1019.1871125876089
 20
332.90144256948918
 11
1019.1871125876089
 21
248.74833756948928
  0
ARC
  8
_0-9_
  6
CONTINUOUS
 62
    2
 10
1018.1871135876088
 20
332.90144256948918
 40
0.9999989999999996
 50
0
 51
87.000000000000014
  0
LINE
  8
_0-9_
  6
DASHED1
 62
    3
 10
1000.9792335876089
 20
327.97649556948915
 11
1014.7559175876088
 21
250.82705856948917
  0
ARC
  8
_0-9_
  6
DASHED1
 62
    3
 10
998.02594958760869
 20
327.44912556948913
 40
3
 50
10.124671999999995
 51
87.000000000000014
  0
ARC
  8
_0-9_
  6
CONTINUOUS
 62
    2
 10
1014.2698155876089
 20
258.04833756948926
 40
0.500001
 50
12.00000000000003
 51
90
  0
LINE
  8
_0-9_
  6
CONTINUOUS
 62
    2
 10
1014.7588875876088
 20
258.15229356948919
 11
1016.1871125876089
 21
251.43302256948925
  0
LINE
  8
_0-9_
  6
CONTINUOUS
 62
    2
 10
1016.1871125876089
 20
251.43302256948925
 11
1016.1871125876089
 21
247.74833556948909
  0
LINE
  8
_0-9_
  6
CONTINUOUS
 62
    2
 10
1016.6871135876088
 20
247.74833556948909
 11
1016.1871125876089
 21
247.74833556948909
  0
ARC
  8
_0-9_
  6
CONTINUOUS
 62
    2
 10
1016.6871135876088
 20
250.24833756948928
 40
2.4999989999999999
 50
270
 51
0
  0
LINE
  8
_0-9_
  6
CONTINUOUS
 62
    2
 10
1009.4196375876088
 20
260.74833756948931
 11
1009.4196375876088
 21
259.74833556948909
  0
LINE
  8
_0-9_
  6
CONTINUOUS
 62
    2
 10
1007.4196395876091
 20
259.74833556948909
 11
1009.4196375876088
 21
260.74833756948931
  0
LINE
  8
_0-9_
  6
CONTINUOUS
 62
    2
 10
1013.8021905876088
 20
259.74833556948909
 11
1009.4196375876088
 21
259.74833556948909
  0
ARC
  8
_0-9_
  6
CONTINUOUS
 62
    2
 10
1013.8021905876088
 20
260.24833656948914
 40
0.500001
 50
270
 51
11.999999999999991
  0
ARC
  8
_0-9_
  6
CONTINUOUS
 62
    2
 10
992.58856358760863
 20
307.48583556948927
 40
0.500001
 50
87
 51
176.99999999999997
  0
LINE
  8
_0-9_
  6
CONTINUOUS
 62
    2
 10
992.08924958760906
 20
307.51200456948925
 11
992.03691458760863
 21
306.51337356948909
  0
LINE
  8
_0-9_
  6
CONTINUOUS
 62
    2
 10
991.51143158760885
 20
306.0402285694891
 11
991.0121175876086
 21
306.06639756948937
  0
ARC
  8
_0-9_
  6
CONTINUOUS
 62
    2
 10
991.0382835876087
 20
306.56571156948928
 40
0.500001
 50
176.99999999999997
 51
267
  0
ARC
  8
_0-9_
  6
CONTINUOUS
 62
    2
 10
991.53759758760896
 20
306.5395425694893
 40
0.500001
 50
267
 51
357.00000000000023
  0
LINE
  8
_0-9_
  6
CONTINUOUS
 62
    2
 10
1000.2898095876087
 20
307.58291856948938
 11
992.61473258760884
 21
307.98515256948923
  0
ARC
  8
_0-9_
  6
CONTINUOUS
 62
    2
 10
1000.2636435876086
 20
307.08360156948913
 40
0.500001
 50
347
 51
87
  0
LINE
  8
_0-9_
  6
CONTINUOUS
 62
    2
 10
1000.7508285876086
 20
306.97112856948922
 11
1000.1676345876089
 21
304.44504156948926
  0
LINE
  8
_0-9_
  6
CONTINUOUS
 62
    2
 10
1002.3530985876089
 20
307.47478656948908
 11
1003.5304455876087
 21
307.41308256948935
  0
ARC
  8
_0-9_
  6
CONTINUOUS
 62
    2
 10
1002.3373965876089
 20
307.17519756948934
 40
0.2999999999999998
 50
87
 51
167
  0
LINE
  8
_0-9_
  6
CONTINUOUS
 62
    2
 10
1002.0450855876092
 20
307.24268256948915
 11
1001.3368785876085
 21
304.17510156948936
  0
ARC
  8
_0-9_
  6
CONTINUOUS
 62
    2
 10
1003.4781075876087
 20
306.41445456948929
 40
0.9999989999999996
 50
12.000000000000018
 51
87.000000000000014
  0
ARC
  8
_0-9_
  6
CONTINUOUS
 62
    2
 10
1000.7522565876091
 20
304.3100715694892
 40
0.5999999999999996
 50
167
 51
347
  0
LINE
  8
_0-9_
  6
CONTINUOUS
 62
    2
 10
1007.231161587609
 20
307.99666056948911
 11
1019.1871125876089
 21
251.74833756948928
  0
LINE
  8
_0-9_
  6
CONTINUOUS
 62
    2
 10
1004.4562545876091
 20
306.62236656948915
 11
1014.291262587609
 21
260.35229256948929
  0
LINE
  8
_0-9_
  6
DASHED1
 62
    3
 10
1014.7559175876088
 20
250.82705856948917
 11
1019.1871125876089
 21
251.6110065694894
  0
LINE
  8
_0-9_
  6
CONTINUOUS
 62
    2
 10
992.04208358760877
 20
335.27301756948924
 11
991.95204158760896
 21
333.55487556948913
  0
LINE
  8
_0-9_
  6
CONTINUOUS
 62
    2
 10
982.05578858760896
 20
335.7963765694891
 11
981.96574358760904
 21
334.07823456948938
  0
ARC
  8
_0-9_
  6
CONTINUOUS
 62
    2
 10
991.40463458760883
 20
313.55611656948923
 40
0.500001
 50
87
 51
176.99999999999997
  0
LINE
  8
_0-9_
  6
CONTINUOUS
 62
    2
 10
992.77174058760863
 20
310.98103956948933
 11
1004.4537285876088
 21
310.36881156948937
  0
ARC
  8
_0-9_
  6
CONTINUOUS
 62
    2
 10
992.79790958760873
 20
311.48035356948924
 40
0.500001
 50
176.99999999999997
 51
267
  0
LINE
  8
_0-9_
  6
CONTINUOUS
 62
    2
 10
992.29859258760848
 20
311.50652256948922
 11
992.40326558760887
 21
313.50378156948921
  0
ARC
  8
_0-9_
  6
CONTINUOUS
 62
    2
 10
991.90395158760862
 20
313.52995056948913
 40
0.500001
 50
357.00000000000006
 51
87.000000000000028
  0
LINE
  8
_0-9_
  6
CONTINUOUS
 62
    2
 10
991.93011758760872
 20
314.02926456948933
 11
991.43080358760858
 21
314.05543356948931
  0
LINE
  8
_0-9_
  6
CONTINUOUS
 62
    2
 10
991.95204158760896
 20
333.55487556948913
 11
990.48663458760871
 21
305.59324956948933
  0
ARC
  8
_0-9_
  6
CONTINUOUS
 62
    2
 10
1004.2967205876088
 20
307.3729245694891
 40
3
 50
12.000000000000018
 51
87.000000000000014
  0
CIRCLE
  8
_0-7_
  6
CONTINUOUS
 62
    4
 10
1004.8317797690238
 20
335.90718708244538
 40
0.8999999999999999
  0
CIRCLE
  8
_0-7_
  6
CONTINUOUS
 62
    4
 10
1005.1826322547794
 20
316.32671626888907
 40
0.8999999999999999
  0
LINE
  8
_0-7_
  6
CONTINUOUS
 62
    4
 10
1005.1826322547794
 20
316.32671626888907
 11
1028.8191133981823
 21
357.26630252140484
  0
LINE
  8
_0-7_
  6
CONTINUOUS
 62
    4
 10
1004.8317797690238
 20
335.90718708244538
 11
1029.9682609124261
 21
379.44484954631423
  0
CIRCLE
  8
_0-7_
  6
CONTINUOUS
 62
    4
 10
1031.8191133981823
 20
362.4624549441117
 40
6
  0
CIRCLE
  8
_0-7_
  6
CONTINUOUS
 62
    4
 10
1032.9682609124268
 20
384.64100196902132
 40
6
  0
LINE
  8
_0-7_
  6
CONTINUOUS
 62
    4
 10
989.85518459211994
 20
325.22208655948975
 11
1007.8037926465435
 21
354.03444619273893
  0
CIRCLE
  8
_0-7_
  6
CONTINUOUS
 62
    4
 10
989.85518459211994
 20
325.22208655948975
 40
0.8999999999999999
  0
CIRCLE
  8
_0-7_
  6
CONTINUOUS
 62
    4
 10
1010.8037926465435
 20
359.23059861544573
 40
6
  0
ARC
  8
_0-0_0
  6
DASHED1
 62
    3
 10
962.23503758760864
 20
311.07934356948914
 40
1.5
 50
87.000000000000028
 51
267.00000000000006
  0
LINE
  8
_0-9_
  6
CONTINUOUS
 62
    2
 10
1018.3441215296444
 20
335.89733257252703
 11
262.13477558760917
 21
375.52858453143625
  0
TEXT
  8
_0-7_
 62
    7
 10
1027.2682661624494
 20
379.56314525679625
 40
9
 41
1
 50
0
  1
１
  0
TEXT
  8
_0-7_
 62
    7
 10
1005.7320132723719
 20
353.96344842519454
 40
9
 41
1
 50
0
  1
６
  0
TEXT
  8
_0-7_
 62
    7
 10
1026.861921768297
 20
357.62054797256621
 40
9
 41
1
 50
0
  1
９
  0
LINE
  8
_0-7_
  6
CONTINUOUS
 62
    3
 10
261.18711158760937
 20
397.52145423161005
 11
1021.1871105876098
 21
397.52145423161005
  0
LINE
  8
_0-8_
  6
CONTINUOUS
 62
    3
 10
1021.1871105876098
 20
429.96149523161012
 11
1021.1871105876098
 21
443.06344023161
  0
LINE
  8
_0-8_
  6
CONTINUOUS
 62
    3
 10
1021.1871105876098
 20
384.41950923161016
 11
1021.1871105876098
 21
397.52145423161005
  0
LINE
  8
_0-8_
  6
CONTINUOUS
 62
    3
 10
1021.1871105876098
 20
397.52145423161005
 11
1018.1871105876098
 21
398.27145423161005
  0
LINE
  8
_0-8_
  6
CONTINUOUS
 62
    3
 10
1021.1871105876098
 20
397.52145423161005
 11
1018.1871105876098
 21
396.77145423161005
  0
LINE
  8
_0-7_
  6
CONTINUOUS
 62
    3
 10
246.18711158760937
 20
493.0582598501602
 11
1021.1871105876098
 21
493.0582598501602
  0
LINE
  8
_0-8_
  6
CONTINUOUS
 62
    3
 10
1021.1871105876098
 20
343.07280723161006
 11
1021.1871105876098
 21
499.0582598501602
  0
LINE
  8
_0-8_
  6
CONTINUOUS
 62
    3
 10
1021.1871105876098
 20
493.0582598501602
 11
1018.1871105876098
 21
493.8082598501602
  0
LINE
  8
_0-8_
  6
CONTINUOUS
 62
    3
 10
1021.1871105876098
 20
493.0582598501602
 11
1018.1871105876098
 21
492.3082598501602
  0
LINE
  8
_0-8_
  6
CONTINUOUS
 62
    3
 10
1093.7208309217888
 20
335.74833768036672
 11
1093.7208309217888
 21
245.74833768036643
  0
LINE
  8
_0-8_
  6
CONTINUOUS
 62
    3
 10
1093.7208309217888
 20
335.74833768036672
 11
1092.9708309217888
 21
332.74833768036672
  0
LINE
  8
_0-8_
  6
CONTINUOUS
 62
    3
 10
1093.7208309217888
 20
335.74833768036672
 11
1094.4708309217888
 21
332.74833768036672
  0
LINE
  8
_0-8_
  6
CONTINUOUS
 62
    3
 10
1093.7208309217888
 20
245.74833768036643
 11
1094.4708309217888
 21
248.74833768036643
  0
LINE
  8
_0-8_
  6
CONTINUOUS
 62
    3
 10
1093.7208309217888
 20
245.74833768036643
 11
1092.9708309217888
 21
248.74833768036643
  0
LINE
  8
_0-7_
  6
CONTINUOUS
 62
    3
 10
1022.6871115876093
 20
335.74833768036672
 11
1096.7208309217888
 21
335.74833768036672
  0
LINE
  8
_0-8_
  6
CONTINUOUS
 62
    3
 10
1019.6871115876093
 20
245.74833768036643
 11
1096.7208309217888
 21
245.74833768036643
  0
TEXT
  8
_0-8_
 62
    7
 10
1091.771740372415
 20
279.22855702513289
 40
9
 41
1
 50
90
  1
９０
  0
LINE
  8
_0-8_
  6
CONTINUOUS
 62
    3
 10
1053.6025926342786
 20
289.61717268036642
 11
1053.6025926342786
 21
245.74833768036643
  0
LINE
  8
_0-8_
  6
CONTINUOUS
 62
    3
 10
1053.6025926342786
 20
289.61717268036642
 11
1052.8525926342786
 21
286.61717268036642
  0
LINE
  8
_0-8_
  6
CONTINUOUS
 62
    3
 10
1053.6025926342786
 20
289.61717268036642
 11
1054.3525926342786
 21
286.61717268036642
  0
LINE
  8
_0-8_
  6
CONTINUOUS
 62
    3
 10
1053.6025926342786
 20
245.74833768036643
 11
1054.3525926342786
 21
248.74833768036643
  0
LINE
  8
_0-8_
  6
CONTINUOUS
 62
    3
 10
1053.6025926342786
 20
245.74833768036643
 11
1052.8525926342786
 21
248.74833768036643
  0
TEXT
  8
_0-8_
 62
    7
 10
1053.0506387703836
 20
256.06692655844552
 40
9
 41
1
 50
90
  1
４４
  0
LINE
  8
_0-8_
  6
CONTINUOUS
 62
    3
 10
1021.1871105876098
 20
189.67223223161008
 11
1018.1871105876098
 21
190.42223223161008
  0
LINE
  8
_0-8_
  6
CONTINUOUS
 62
    3
 10
1021.1871105876098
 20
189.67223223161008
 11
1018.1871105876098
 21
188.92223223161008
  0
LINE
  8
_0-8_
  6
CONTINUOUS
 62
    3
 10
1021.1871105876098
 20
256.91970123161008
 11
1021.1871105876098
 21
183.67223223161008
  0
LINE
  8
_0-8_
  6
CONTINUOUS
 62
    3
 10
801.18711058760971
 20
289.61717268036642
 11
1059.6025926342786
 21
289.61717268036642
  0
LINE
  8
ADD_LINE
  6
DOT
 62
    9
 10
801.18711058760971
 20
289.61717268036642
 11
179.60942447943296
 21
289.61717268036642
  0
LINE
  8
_0-8_
  6
CONTINUOUS
 62
    3
 10
801.18710858761006
 20
205.77153723161015
 11
801.18710858761006
 21
183.67223223161008
  0
LINE
  8
_0-8_
  6
CONTINUOUS
 62
    3
 10
801.18710858761006
 20
189.67223223161008
 11
798.18710858761006
 21
190.42223223161008
  0
LINE
  8
_0-8_
  6
CONTINUOUS
 62
    3
 10
801.18710858761006
 20
189.67223223161008
 11
798.18710858761006
 21
188.92223223161008
  0
LINE
  8
_0-8_
  6
CONTINUOUS
 62
    3
 10
801.18710858761006
 20
189.67223223161008
 11
804.18710858761006
 21
188.92223223161008
  0
LINE
  8
_0-8_
  6
CONTINUOUS
 62
    3
 10
801.18710858761006
 20
189.67223223161008
 11
804.18710858761006
 21
190.42223223161008
  0
LINE
  8
_0-8_
  6
CONTINUOUS
 62
    3
 10
801.18710858761006
 20
189.67223223161008
 11
1021.1871105876098
 21
189.67223223161008
  0
LINE
  8
_0-8_
  6
CONTINUOUS
 62
    3
 10
271.18711058760931
 20
189.67223223161008
 11
671.18710858760983
 21
189.67223223161008
  0
LINE
  8
_0-8_
  6
CONTINUOUS
 62
    3
 10
671.18710858760983
 20
205.77153723161015
 11
671.18710858760983
 21
183.67223223161008
  0
LINE
  8
_0-8_
  6
CONTINUOUS
 62
    3
 10
671.18710858760983
 20
189.67223223161008
 11
668.18710858760983
 21
190.42223223161008
  0
LINE
  8
_0-8_
  6
CONTINUOUS
 62
    3
 10
671.18710858760983
 20
189.67223223161008
 11
668.18710858760983
 21
188.92223223161008
  0
LINE
  8
_0-8_
  6
CONTINUOUS
 62
    3
 10
671.18710858760983
 20
189.67223223161008
 11
674.18710858760983
 21
188.92223223161008
  0
LINE
  8
_0-8_
  6
CONTINUOUS
 62
    3
 10
671.18710858760983
 20
189.67223223161008
 11
674.18710858760983
 21
190.42223223161008
  0
LINE
  8
_0-8_
  6
CONTINUOUS
 62
    3
 10
671.18710858760983
 20
189.67223223161008
 11
801.18710858761006
 21
189.67223223161008
  0
LINE
  8
ADD_LINE
  6
DOT
 62
    9
 10
801.18711058760971
 20
285.6865892342343
 11
801.18711058760971
 21
183.67223223161008
  0
CIRCLE
  8
_0-4_図枠
  6
CONTINUOUS
 62
    4
 10
817.21564798820305
 20
369.093138375531
 40
6
  0
LINE
  8
_0-9_
  6
CONTINUOUS
 62
    1
 10
801.18711058760971
 20
208.08173053143599
 11
801.18711058760971
 21
289.61717268036642
  0
LINE
  8
_0-9_
  6
DASHED1
 62
    3
 10
755.23710958761012
 20
281.31717168036613
 11
747.1371095876101
 21
281.31717168036613
  0
LINE
  8
_0-9_
  6
DASHED1
 62
    3
 10
755.93710958760983
 20
280.61717168036631
 11
746.43710958761005
 21
280.61717168036631
  0
LINE
  8
_0-9_
  6
DASHED1
 62
    3
 10
746.43710958761005
 20
261.98899768036665
 11
746.43710958761005
 21
280.61717168036631
  0
LINE
  8
_0-9_
  6
DASHED1
 62
    3
 10
747.1371095876101
 20
290.61717168036608
 11
747.1371095876101
 21
281.31717168036613
  0
LINE
  8
_0-9_
  6
DASHED1
 62
    3
 10
746.43710958761005
 20
280.61717168036631
 11
747.1371095876101
 21
281.31717168036613
  0
LINE
  8
_0-9_
  6
DASHED1
 62
    3
 10
755.93710958760983
 20
261.98899768036665
 11
755.93710958760983
 21
280.61717168036631
  0
LINE
  8
_0-9_
  6
DASHED1
 62
    3
 10
755.23710958761012
 20
290.61717168036608
 11
755.23710958761012
 21
281.31717168036613
  0
LINE
  8
_0-9_
  6
DASHED1
 62
    3
 10
755.93710958760983
 20
280.61717168036631
 11
755.23710958761012
 21
281.31717168036613
  0
ARC
  8
_0-9_
  6
DASHED1
 62
    3
 10
754.68710958761005
 20
250.11717168036654
 40
0.99999999999999
 50
270
 51
0
  0
LINE
  8
_0-9_
  6
DASHED1
 62
    3
 10
757.81213758760975
 20
251.35517568036659
 11
753.62670558760999
 21
250.61717168036657
  0
LINE
  8
_0-9_
  6
DASHED1
 62
    3
 10
744.56207958760967
 20
251.35517568036659
 11
746.43710958761005
 21
261.98899768036665
  0
LINE
  8
_0-9_
  6
DASHED1
 62
    3
 10
750.68710958760983
 20
261.61717168036654
 11
748.74751158760967
 21
250.61717168036657
  0
LINE
  8
_0-9_
  6
DASHED1
 62
    3
 10
751.68710958761005
 20
261.61717168036654
 11
753.62670558760999
 21
250.61717168036657
  0
LINE
  8
_0-9_
  6
DASHED1
 62
    3
 10
744.56207958760967
 20
251.35517568036659
 11
748.74751158760967
 21
250.61717168036657
  0
LINE
  8
_0-9_
  6
DASHED1
 62
    3
 10
746.68710958761039
 20
250.11717168036654
 11
746.68710958761039
 21
250.98047568036651
  0
ARC
  8
_0-9_
  6
DASHED1
 62
    3
 10
747.68710958760983
 20
250.11717168036654
 40
0.99999999999999
 50
180
 51
270
  0
LINE
  8
_0-9_
  6
DASHED1
 62
    3
 10
747.68710958760983
 20
249.11717168036657
 11
754.68710958761005
 21
249.11717168036657
  0
LINE
  8
_0-9_
  6
DASHED1
 62
    3
 10
751.68710958761005
 20
261.61717168036654
 11
750.68710958760983
 21
261.61717168036654
  0
LINE
  8
_0-9_
  6
DASHED1
 62
    3
 10
757.81213758760975
 20
251.35517568036659
 11
755.93710958760983
 21
261.98899768036665
  0
LINE
  8
_0-9_
  6
DASHED1
 62
    3
 10
755.68710958760983
 20
250.11717168036654
 11
755.68710958760983
 21
250.98047568036651
  0
LINE
  8
_0-9_
  6
CENTER1
 62
    3
 10
751.18710958760983
 20
244.18376968036668
 11
751.18710958760983
 21
299.41717168036627
  0
CIRCLE
  8
_0-7_
  6
CONTINUOUS
 62
    4
 10
796.66625618336479
 20
354.24901473240442
 40
6
  0
LINE
  8
_0-7_
  6
CONTINUOUS
 62
    4
 10
801.25764018532914
 20
340.65204528892122
 11
814.21564598820305
 21
363.89698595282431
  0
LINE
  8
_0-7_
  6
CONTINUOUS
 62
    4
 10
768.85320192791482
 20
306.07539164829547
 11
793.66625618336479
 21
349.0528623096979
  0
LINE
  8
_0-7_
  6
CONTINUOUS
 62
    4
 10
761.0525750477409
 20
302.3131227541698
 11
772.83426117950899
 21
281.90664377511729
  0
CIRCLE
  8
_0-7_
  6
CONTINUOUS
 62
    4
 10
775.83426117950899
 20
276.71049135241077
 40
6
  0
LINE
  8
_0-7_
  6
CONTINUOUS
 62
    4
 10
755.52154704206214
 20
296.54128594848902
 11
771.94393270691921
 21
268.09687959546676
  0
LINE
  8
_0-7_
  6
CONTINUOUS
 62
    4
 10
744.25895060657945
 20
293.69329045750982
 11
734.56169697469932
 21
276.89715447321294
  0
CIRCLE
  8
_0-7_
  6
CONTINUOUS
 62
    4
 10
731.56169697469932
 20
271.70100205050642
 40
6
  0
CIRCLE
  8
_0-7_
  6
CONTINUOUS
 62
    4
 10
748.19546757833052
 20
269.50386122721699
 40
0.8999999999999999
  0
LINE
  8
_0-7_
  6
CONTINUOUS
 62
    4
 10
748.19546757833052
 20
269.50386122721699
 11
738.15385338358362
 21
252.11127525191131
  0
CIRCLE
  8
_0-7_
  6
CONTINUOUS
 62
    4
 10
735.15385338358362
 20
246.91512282920471
 40
6
  0
CIRCLE
  8
_0-7_
  6
CONTINUOUS
 62
    4
 10
774.94393270691921
 20
262.90072717276007
 40
6
  0
LINE
  8
_0-7_
  6
CONTINUOUS
 62
    3
 10
751.18710758760983
 20
245.10017268036648
 11
751.18710758760983
 21
237.7302976803665
  0
LINE
  8
_0-7_
  6
CONTINUOUS
 62
    3
 10
751.18710758760983
 20
241.7302996803665
 11
754.18710758760983
 21
240.9802996803665
  0
LINE
  8
_0-7_
  6
CONTINUOUS
 62
    3
 10
751.18710758760983
 20
241.7302996803665
 11
754.18710758760983
 21
242.4802996803665
  0
LINE
  8
_0-7_
  6
CONTINUOUS
 62
    3
 10
751.18710758760983
 20
241.7302996803665
 11
801.18710858761006
 21
241.7302996803665
  0
LINE
  8
_0-7_
  6
CONTINUOUS
 62
    3
 10
801.18710858761006
 20
241.7302996803665
 11
798.18710858761006
 21
240.9802996803665
  0
LINE
  8
_0-7_
  6
CONTINUOUS
 62
    3
 10
801.18710858761006
 20
241.7302996803665
 11
798.18710858761006
 21
242.4802996803665
  0
CIRCLE
  8
_0-7_
  6
CONTINUOUS
 62
    4
 10
768.85320192791482
 20
306.07539164829547
 40
0.8999999999999999
  0
CIRCLE
  8
_0-7_
  6
CONTINUOUS
 62
    4
 10
744.25895060657945
 20
293.69329045750982
 40
0.8999999999999999
  0
CIRCLE
  8
_0-7_
  6
CONTINUOUS
 62
    4
 10
755.52154704206214
 20
296.54128594848902
 40
0.8999999999999999
  0
CIRCLE
  8
_0-7_
  6
CONTINUOUS
 62
    4
 10
761.0525750477409
 20
302.3131227541698
 40
0.8999999999999999
  0
LINE
  8
_0-5_ADD_LINE
  6
CONTINUOUS
 62
    2
 10
746.42267787320202
 20
306.19513568036655
 11
755.61006987320195
 21
305.71364468036603
  0
LINE
  8
_0-5_ADD_LINE
  6
CONTINUOUS
 62
    4
 10
736.204782873201
 20
290.19119515206154
 11
736.63076040150588
 21
290.61717268036688
  0
ARC
  8
_0-5_ADD_LINE
  6
CONTINUOUS
 62
    7
 10
736.204782873201
 20
282.36717268036688
 40
8.25
 50
90
 51
108.92464441605439
  0
ARC
  8
_0-5_ADD_LINE
  6
CONTINUOUS
 62
    7
 10
736.204782873201
 20
282.36717268036688
 40
9.25
 50
90
 51
108.92464441605439
  0
ARC
  8
_0-5_ADD_LINE
  6
CONTINUOUS
 62
    7
 10
730.204782873201
 20
299.86717268036665
 40
9.25
 50
270
 51
288.92464441605443
  0
LINE
  8
_0-5_ADD_LINE
  6
CONTINUOUS
 62
    4
 10
737.0449739638791
 20
289.61717268036642
 11
738.04497396387899
 21
290.61717268036688
  0
LINE
  8
_0-5_ADD_LINE
  6
CONTINUOUS
 62
    4
 10
738.45918752625187
 20
289.61717268036642
 11
739.45918752625187
 21
290.6171726803662
  0
LINE
  8
_0-5_ADD_LINE
  6
CONTINUOUS
 62
    4
 10
739.87340108862588
 20
289.61717268036642
 11
740.87340108862588
 21
290.6171726803662
  0
LINE
  8
_0-5_ADD_LINE
  6
CONTINUOUS
 62
    4
 10
741.2876146509991
 20
289.61717268036642
 11
742.28761465099899
 21
290.6171726803662
  0
LINE
  8
_0-5_ADD_LINE
  6
CONTINUOUS
 62
    4
 10
742.70182821337187
 20
289.61717268036642
 11
743.70182821337187
 21
290.6171726803662
  0
LINE
  8
_0-5_ADD_LINE
  6
CONTINUOUS
 62
    4
 10
744.11604177574588
 20
289.61717268036642
 11
745.11604177574497
 21
290.6171726803662
  0
LINE
  8
_0-5_ADD_LINE
  6
CONTINUOUS
 62
    4
 10
745.53025533811706
 20
289.61717268036642
 11
746.53025533811694
 21
290.6171726803662
  0
LINE
  8
_0-5_ADD_LINE
  6
CONTINUOUS
 62
    4
 10
746.94446890048982
 20
289.61717268036574
 11
747.94446890048982
 21
290.6171726803662
  0
LINE
  8
_0-5_ADD_LINE
  6
CONTINUOUS
 62
    4
 10
748.35868246286304
 20
289.61717268036574
 11
749.35868246286293
 21
290.6171726803662
  0
LINE
  8
_0-5_ADD_LINE
  6
CONTINUOUS
 62
    4
 10
749.77289602523581
 20
289.61717268036574
 11
750.77289602523695
 21
290.6171726803662
  0
LINE
  8
_0-5_ADD_LINE
  6
CONTINUOUS
 62
    4
 10
751.18710958760983
 20
289.61717268036642
 11
752.18710958760983
 21
290.6171726803662
  0
LINE
  8
_0-5_ADD_LINE
  6
CONTINUOUS
 62
    4
 10
752.60132314998384
 20
289.61717268036642
 11
753.60132314998293
 21
290.6171726803662
  0
LINE
  8
_0-5_ADD_LINE
  6
CONTINUOUS
 62
    4
 10
754.01553671235706
 20
289.61717268036642
 11
755.01553671235695
 21
290.6171726803662
  0
LINE
  8
_0-5_ADD_LINE
  6
CONTINUOUS
 62
    4
 10
755.42975027472983
 20
289.61717268036574
 11
756.42975027472983
 21
290.61717268036551
  0
LINE
  8
_0-5_ADD_LINE
  6
CONTINUOUS
 62
    4
 10
756.84396383710202
 20
289.61717268036642
 11
757.84396383710214
 21
290.61717268036688
  0
LINE
  8
_0-5_ADD_LINE
  6
CONTINUOUS
 62
    4
 10
758.25817739947502
 20
289.61717268036642
 11
759.2581773994749
 21
290.6171726803662
  0
LINE
  8
_0-5_ADD_LINE
  6
CONTINUOUS
 62
    4
 10
759.67239096184801
 20
289.61717268036642
 11
760.67239096184892
 21
290.6171726803662
  0
LINE
  8
_0-5_ADD_LINE
  6
CONTINUOUS
 62
    4
 10
761.08660452422203
 20
289.61717268036642
 11
762.08660452422214
 21
290.6171726803662
  0
LINE
  8
_0-5_ADD_LINE
  6
CONTINUOUS
 62
    4
 10
762.50081808659502
 20
289.61717268036642
 11
763.5008180865949
 21
290.6171726803662
  0
LINE
  8
_0-5_ADD_LINE
  6
CONTINUOUS
 62
    4
 10
763.91503164896903
 20
289.61717268036642
 11
764.91503164896892
 21
290.6171726803662
  0
LINE
  8
_0-5_ADD_LINE
  6
CONTINUOUS
 62
    4
 10
765.32924521134203
 20
289.61717268036642
 11
766.204782873201
 21
290.49271034222562
  0
LINE
  8
_0-5_ADD_LINE
  6
CONTINUOUS
 62
    3
 10
766.204782873201
 20
289.61717268036642
 11
736.204782873201
 21
289.61717268036642
  0
LINE
  8
_0-5_ADD_LINE
  6
CONTINUOUS
 62
    3
 10
736.204782873201
 20
289.61717268036642
 11
736.204782873201
 21
290.6171726803662
  0
LINE
  8
_0-5_ADD_LINE
  6
CONTINUOUS
 62
    3
 10
736.204782873201
 20
290.6171726803662
 11
766.204782873201
 21
290.6171726803662
  0
LINE
  8
_0-5_ADD_LINE
  6
CONTINUOUS
 62
    3
 10
766.204782873201
 20
290.6171726803662
 11
766.204782873201
 21
289.61717268036642
  0
ARC
  8
_0-5_ADD_LINE
  6
CONTINUOUS
 62
    7
 10
730.204782873201
 20
299.86717268036665
 40
10.25
 50
270
 51
288.92464441605443
  0
LINE
  8
_0-5_ADD_LINE
  6
CONTINUOUS
 62
    2
 10
760.20478287320191
 20
295.7259426803667
 11
760.20478287320191
 21
294.12594368036645
  0
LINE
  8
_0-5_ADD_LINE
  6
CONTINUOUS
 62
    2
 10
760.20478287320191
 20
295.7259426803667
 11
742.20478287320191
 21
295.7259426803667
  0
LINE
  8
_0-5_ADD_LINE
  6
CONTINUOUS
 62
    2
 10
742.20478287320191
 20
295.7259426803667
 11
742.20478287320191
 21
294.12594368036645
  0
LINE
  8
_0-5_ADD_LINE
  6
CONTINUOUS
 62
    2
 10
745.32478287320214
 20
299.98900568036635
 11
745.32478287320214
 21
295.7259426803667
  0
LINE
  8
_0-5_ADD_LINE
  6
CONTINUOUS
 62
    2
 10
746.25478287320198
 20
300.52594268036643
 11
745.32478287320214
 21
299.98900568036635
  0
ARC
  8
_0-5_ADD_LINE
  6
CONTINUOUS
 62
    2
 10
746.25478287320198
 20
296.71654868036632
 40
3.8093940000000002
 50
59.210035999999995
 51
90
  0
ARC
  8
_0-5_ADD_LINE
  6
CONTINUOUS
 62
    2
 10
751.20478287320191
 20
291.87658268036654
 40
8.6493599999999997
 50
69.705444999999997
 51
110.294555
  0
LINE
  8
_0-5_ADD_LINE
  6
CONTINUOUS
 62
    2
 10
748.20478287320191
 20
299.98900568036635
 11
748.20478287320191
 21
295.7259426803667
  0
LINE
  8
_0-5_ADD_LINE
  6
CONTINUOUS
 62
    2
 10
754.20478287320191
 20
299.98900568036635
 11
754.20478287320191
 21
295.7259426803667
  0
LINE
  8
_0-5_ADD_LINE
  6
CONTINUOUS
 62
    2
 10
757.08478287320202
 20
299.98900568036635
 11
757.08478287320202
 21
295.7259426803667
  0
LINE
  8
_0-5_ADD_LINE
  6
CONTINUOUS
 62
    2
 10
756.15478287320195
 20
300.52594268036643
 11
757.08478287320202
 21
299.98900568036635
  0
LINE
  8
_0-5_ADD_LINE
  6
CONTINUOUS
 62
    2
 10
746.25478287320198
 20
300.52594268036643
 11
756.15478287320195
 21
300.52594268036643
  0
ARC
  8
_0-5_ADD_LINE
  6
CONTINUOUS
 62
    2
 10
756.15478287320195
 20
296.71654868036632
 40
3.8093940000000002
 50
90
 51
120.789964
  0
LINE
  8
_0-5_ADD_LINE
  6
CONTINUOUS
 62
    2
 10
746.47501287320188
 20
307.19376668036642
 11
746.42267787320202
 21
306.19513568036655
  0
LINE
  8
_0-5_ADD_LINE
  6
CONTINUOUS
 62
    2
 10
755.66240487320215
 20
306.71227568036647
 11
755.61006987320195
 21
305.71364468036603
  0
ARC
  8
_0-5_ADD_LINE
  6
CONTINUOUS
 62
    2
 10
745.47638487320205
 20
307.24610168036628
 40
0.9999989999999993
 50
356.99999999999994
 51
87
  0
ARC
  8
_0-5_ADD_LINE
  6
CONTINUOUS
 62
    2
 10
756.66103587320197
 20
306.659937680366
 40
0.9999989999999993
 50
87
 51
176.99999999999997
  0
ARC
  8
_0-5_ADD_LINE
  6
CONTINUOUS
 62
    2
 10
739.20478287320191
 20
301.12594268036656
 40
0.9999989999999993
 50
270
 51
0
  0
LINE
  8
_0-5_ADD_LINE
  6
CONTINUOUS
 62
    2
 10
739.20478287320191
 20
300.12594368036645
 11
735.00478287320198
 21
300.12594368036645
  0
ARC
  8
_0-5_ADD_LINE
  6
CONTINUOUS
 62
    2
 10
742.80478287320204
 20
307.38611468036646
 40
0.9999989999999993
 50
87.000000000000014
 51
180
  0
LINE
  8
_0-5_ADD_LINE
  6
CONTINUOUS
 62
    2
 10
759.65711787320208
 20
307.50429368036652
 11
742.8571178732019
 21
308.38474268036629
  0
ARC
  8
_0-5_ADD_LINE
  6
CONTINUOUS
 62
    2
 10
759.60478287320211
 20
306.50566268036664
 40
0.9999989999999993
 50
0
 51
87.000000000000014
  0
LINE
  8
_0-5_ADD_LINE
  6
CONTINUOUS
 62
    2
 10
763.20478287320191
 20
300.12594368036645
 11
767.40478287320195
 21
300.12594368036645
  0
ARC
  8
_0-5_ADD_LINE
  6
CONTINUOUS
 62
    2
 10
763.20478287320191
 20
301.12594268036656
 40
0.9999989999999993
 50
180
 51
270
  0
LINE
  8
_0-5_ADD_LINE
  6
CONTINUOUS
 62
    2
 10
741.80478387320193
 20
301.12594268036656
 11
741.80478387320193
 21
307.38611468036646
  0
ARC
  8
_0-5_ADD_LINE
  6
CONTINUOUS
 62
    2
 10
739.20478287320191
 20
301.12594268036656
 40
2.6000009999999998
 50
270
 51
0
  0
LINE
  8
_0-5_ADD_LINE
  6
CONTINUOUS
 62
    2
 10
739.20478287320191
 20
298.52594168036654
 11
734.70478287320191
 21
298.52594168036654
  0
LINE
  8
_0-5_ADD_LINE
  6
CONTINUOUS
 62
    2
 10
740.20478187320202
 20
307.38611468036646
 11
740.20478187320202
 21
301.12594268036656
  0
ARC
  8
_0-5_ADD_LINE
  6
CONTINUOUS
 62
    2
 10
742.80478287320204
 20
307.38611468036646
 40
2.6000009999999998
 50
87.000000000000014
 51
180
  0
LINE
  8
_0-5_ADD_LINE
  6
CONTINUOUS
 62
    2
 10
762.20478387320213
 20
306.50566268036664
 11
762.20478387320213
 21
301.12594268036656
  0
ARC
  8
_0-5_ADD_LINE
  6
CONTINUOUS
 62
    2
 10
759.60478287320211
 20
306.50566268036664
 40
2.6000009999999998
 50
0
 51
87.000000000000014
  0
LINE
  8
_0-5_ADD_LINE
  6
CONTINUOUS
 62
    2
 10
759.74085687320201
 20
309.10209968036679
 11
742.94085687320205
 21
309.98255168036661
  0
LINE
  8
_0-5_ADD_LINE
  6
CONTINUOUS
 62
    2
 10
760.60478187320189
 20
301.12594268036656
 11
760.60478187320189
 21
306.50566268036664
  0
ARC
  8
_0-5_ADD_LINE
  6
CONTINUOUS
 62
    2
 10
763.20478287320191
 20
301.12594268036656
 40
2.6000009999999998
 50
180
 51
270
  0
LINE
  8
_0-5_ADD_LINE
  6
CONTINUOUS
 62
    2
 10
763.20478287320191
 20
298.52594168036654
 11
767.70478287320191
 21
298.52594168036654
  0
LINE
  8
_0-5_ADD_LINE
  6
CONTINUOUS
 62
    2
 10
767.40478287320195
 20
297.62594168036668
 11
765.45478287320191
 21
297.62594168036668
  0
ARC
  8
_0-5_ADD_LINE
  6
CONTINUOUS
 62
    2
 10
767.40478287320195
 20
297.92594168036641
 40
0.2999999999999998
 50
270
 51
0
  0
ARC
  8
_0-5_ADD_LINE
  6
CONTINUOUS
 62
    2
 10
767.40478287320195
 20
299.82594368036672
 40
0.2999999999999998
 50
0
 51
90
  0
LINE
  8
_0-5_ADD_LINE
  6
CONTINUOUS
 62
    2
 10
750.70478187320202
 20
294.12594368036645
 11
751.20478287320191
 21
293.62594268036656
  0
LINE
  8
_0-5_ADD_LINE
  6
CONTINUOUS
 62
    2
 10
751.70478387320213
 20
294.12594368036645
 11
751.20478287320191
 21
293.62594268036656
  0
LINE
  8
_0-5_ADD_LINE
  6
CONTINUOUS
 62
    2
 10
746.20478187320202
 20
292.12594268036656
 11
746.20478187320202
 21
291.62594168036668
  0
LINE
  8
_0-5_ADD_LINE
  6
CONTINUOUS
 62
    2
 10
767.20478187320202
 20
301.62594368036645
 11
764.45478387320213
 21
301.62594368036645
  0
ARC
  8
_0-5_ADD_LINE
  6
CONTINUOUS
 62
    2
 10
767.20478187320202
 20
302.12594168036685
 40
0.500001
 50
270
 51
0
  0
ARC
  8
_0-5_ADD_LINE
  6
CONTINUOUS
 62
    2
 10
764.45478387320213
 20
300.87594368036645
 40
0.75
 50
90
 51
270
  0
LINE
  8
_0-5_ADD_LINE
  6
CONTINUOUS
 62
    2
 10
756.20478387320213
 20
292.12594268036656
 11
767.70478287320191
 21
292.12594268036656
  0
LINE
  8
_0-5_ADD_LINE
  6
CONTINUOUS
 62
    2
 10
756.20478387320213
 20
292.12594268036656
 11
756.20478387320213
 21
291.62594168036668
  0
ARC
  8
_0-5_ADD_LINE
  6
CONTINUOUS
 62
    2
 10
765.45478287320191
 20
296.87594168036668
 40
0.75
 50
90
 51
270
  0
LINE
  8
_0-5_ADD_LINE
  6
CONTINUOUS
 62
    2
 10
767.40478287320195
 20
296.12594168036668
 11
765.45478287320191
 21
296.12594168036668
  0
ARC
  8
_0-5_ADD_LINE
  6
CONTINUOUS
 62
    2
 10
767.40478287320195
 20
295.82594168036627
 40
0.2999999999999998
 50
0
 51
90
  0
LINE
  8
_0-5_ADD_LINE
  6
CONTINUOUS
 62
    2
 10
734.70478287320191
 20
292.12594268036656
 11
746.20478187320202
 21
292.12594268036656
  0
LINE
  8
_0-5_ADD_LINE
  6
CONTINUOUS
 62
    2
 10
735.00478287320198
 20
297.62594168036668
 11
736.95478287320191
 21
297.62594168036668
  0
ARC
  8
_0-5_ADD_LINE
  6
CONTINUOUS
 62
    2
 10
735.00478287320198
 20
297.92594168036641
 40
0.2999999999999998
 50
180
 51
270
  0
LINE
  8
_0-5_ADD_LINE
  6
CONTINUOUS
 62
    2
 10
734.70478287320191
 20
297.92594168036641
 11
734.70478287320191
 21
299.82594368036672
  0
ARC
  8
_0-5_ADD_LINE
  6
CONTINUOUS
 62
    2
 10
735.00478287320198
 20
299.82594368036672
 40
0.2999999999999998
 50
90
 51
180
  0
LINE
  8
_0-5_ADD_LINE
  6
CONTINUOUS
 62
    2
 10
733.70478387320213
 20
301.62594368036645
 11
737.95478187320202
 21
301.62594368036645
  0
ARC
  8
_0-5_ADD_LINE
  6
CONTINUOUS
 62
    2
 10
733.70478387320213
 20
301.12594268036656
 40
0.500001
 50
90
 51
180
  0
ARC
  8
_0-5_ADD_LINE
  6
CONTINUOUS
 62
    2
 10
737.95478187320202
 20
300.87594368036645
 40
0.75
 50
270
 51
90
  0
LINE
  8
_0-5_ADD_LINE
  6
CONTINUOUS
 62
    2
 10
733.20478287320191
 20
301.12594268036656
 11
733.20478287320191
 21
291.62594168036668
  0
LINE
  8
_0-5_ADD_LINE
  6
CONTINUOUS
 62
    2
 10
734.70478287320191
 20
292.12594268036656
 11
734.70478287320191
 21
291.62594168036668
  0
ARC
  8
_0-5_ADD_LINE
  6
CONTINUOUS
 62
    2
 10
736.95478287320191
 20
296.87594168036668
 40
0.75
 50
270
 51
90
  0
ARC
  8
_0-5_ADD_LINE
  6
CONTINUOUS
 62
    2
 10
735.00478287320198
 20
294.42594368036617
 40
0.2999999999999998
 50
180
 51
270
  0
LINE
  8
_0-5_ADD_LINE
  6
CONTINUOUS
 62
    2
 10
734.70478287320191
 20
294.42594368036617
 11
734.70478287320191
 21
295.82594168036627
  0
ARC
  8
_0-5_ADD_LINE
  6
CONTINUOUS
 62
    2
 10
735.00478287320198
 20
295.82594168036627
 40
0.2999999999999998
 50
90
 51
180
  0
LINE
  8
_0-5_ADD_LINE
  6
CONTINUOUS
 62
    2
 10
735.00478287320198
 20
296.12594168036668
 11
736.95478287320191
 21
296.12594168036668
  0
ARC
  8
_0-5_ADD_LINE
  6
CONTINUOUS
 62
    2
 10
767.20478187320202
 20
294.62594168036668
 40
0.500001
 50
270
 51
0
  0
LINE
  8
_0-5_ADD_LINE
  6
CONTINUOUS
 62
    2
 10
767.20478187320202
 20
294.12594368036645
 11
735.00478287320198
 21
294.12594368036645
  0
LINE
  8
_0-5_ADD_LINE
  6
CONTINUOUS
 62
    2
 10
734.70478287320191
 20
291.62594168036668
 11
733.20478287320191
 21
291.62594168036668
  0
ARC
  8
_0-5_ADD_LINE
  6
CONTINUOUS
 62
    2
 10
768.70478187320214
 20
309.62594168036685
 40
0.9999989999999993
 50
0
 51
180
  0
LINE
  8
_0-5_ADD_LINE
  6
CONTINUOUS
 62
    2
 10
767.70478287320191
 20
302.12594168036685
 11
767.70478287320191
 21
309.62594168036685
  0
LINE
  8
_0-5_ADD_LINE
  6
CONTINUOUS
 62
    2
 10
767.70478287320191
 20
297.92594168036641
 11
767.70478287320191
 21
299.82594368036672
  0
ARC
  8
_0-5_ADD_LINE
  6
CONTINUOUS
 62
    2
 10
770.20478187320214
 20
294.62594168036668
 40
0.500001
 50
180
 51
270
  0
LINE
  8
_0-5_ADD_LINE
  6
CONTINUOUS
 62
    2
 10
769.70478387320225
 20
292.62594368036645
 11
769.70478387320225
 21
291.62594168036668
  0
LINE
  8
_0-5_ADD_LINE
  6
CONTINUOUS
 62
    2
 10
767.70478287320191
 20
292.12594268036656
 11
767.70478287320191
 21
291.62594168036668
  0
LINE
  8
_0-5_ADD_LINE
  6
CONTINUOUS
 62
    2
 10
767.70478287320191
 20
294.62594168036668
 11
767.70478287320191
 21
295.82594168036627
  0
LINE
  8
_0-5_ADD_LINE
  6
CONTINUOUS
 62
    2
 10
780.20478387320225
 20
292.62594368036645
 11
780.20478387320225
 21
291.62594168036668
  0
LINE
  8
_0-5_ADD_LINE
  6
CONTINUOUS
 62
    2
 10
781.70478387320225
 20
291.62594168036668
 11
780.20478387320225
 21
291.62594168036668
  0
LINE
  8
_0-5_ADD_LINE
  6
CONTINUOUS
 62
    2
 10
769.70478387320225
 20
291.62594168036668
 11
767.70478287320191
 21
291.62594168036668
  0
LINE
  8
_0-5_ADD_LINE
  6
CONTINUOUS
 62
    2
 10
781.70478387320225
 20
293.62594368036656
 11
781.70478387320225
 21
291.62594168036668
  0
ARC
  8
_0-5_ADD_LINE
  6
CONTINUOUS
 62
    2
 10
781.20478387320202
 20
293.62594368036656
 40
0.5
 50
0
 51
90
  0
LINE
  8
_0-5_ADD_LINE
  6
CONTINUOUS
 62
    4
 10
769.95478387320304
 20
297.37594368036656
 11
771.20478387328308
 21
297.37594368036656
  0
LINE
  8
_0-5_ADD_LINE
  6
CONTINUOUS
 62
    4
 10
774.20478387328308
 20
297.37594368036656
 11
775.45478387320316
 21
297.37594368036656
  0
LINE
  8
_0-5_ADD_LINE
  6
CONTINUOUS
 62
    4
 10
771.20478387328308
 20
297.37594368036656
 11
771.20478387328308
 21
316.29549954029875
  0
LINE
  8
_0-5_ADD_LINE
  6
CONTINUOUS
 62
    4
 10
774.20478387328308
 20
297.37594368036656
 11
774.20478387328308
 21
317.75876253631259
  0
LINE
  8
_0-5_ADD_LINE
  6
CONTINUOUS
 62
    2
 10
769.70478387320225
 20
292.62594368036645
 11
777.21073274704293
 21
292.62594368036645
  0
LINE
  8
_0-5_ADD_LINE
  6
CONTINUOUS
 62
    2
 10
777.21073274704293
 20
292.62594368036645
 11
780.20478387320225
 21
292.62594368036645
  0
LINE
  8
_0-5_ADD_LINE
  6
CONTINUOUS
 62
    2
 10
775.20478387320202
 20
294.12594368036645
 11
770.20478187320214
 21
294.12594368036645
  0
LINE
  8
_0-5_ADD_LINE
  6
CONTINUOUS
 62
    2
 10
781.20478387320202
 20
294.12594368036645
 11
777.20478387320225
 21
294.12594368036645
  0
ARC
  8
_0-5_ADD_LINE
  6
CONTINUOUS
 62
    4
 10
775.20478387320202
 20
294.62594368036667
 40
0.25
 50
270
 51
0
  0
ARC
  8
_0-5_ADD_LINE
  6
CONTINUOUS
 62
    4
 10
770.20478187320214
 20
294.62594168036668
 40
0.2500009999999999
 50
180
 51
270
  0
LINE
  8
_0-5_ADD_LINE
  6
CONTINUOUS
 62
    4
 10
775.45478387320316
 20
294.62594368036667
 11
775.45478387320316
 21
297.37594368036656
  0
LINE
  8
_0-5_ADD_LINE
  6
CONTINUOUS
 62
    4
 10
769.95478387320304
 20
294.62594168036668
 11
769.95478387320304
 21
297.37594368036656
  0
LINE
  8
_0-5_ADD_LINE
  6
CONTINUOUS
 62
    4
 10
775.20478387320202
 20
294.37594368036656
 11
770.20478187320214
 21
294.37594368036656
  0
LINE
  8
_0-5_ADD_LINE
  6
CONTINUOUS
 62
    2
 10
769.70478387320225
 20
309.62594168036685
 11
769.70478387320225
 21
299.12594368036736
  0
LINE
  8
_0-5_ADD_LINE
  6
CONTINUOUS
 62
    2
 10
769.70478387320225
 20
297.62594368036736
 11
769.70478387320225
 21
294.62594168036668
  0
LINE
  8
_0-5_ADD_LINE
  6
CONTINUOUS
 62
    2
 10
775.70478387320225
 20
294.62594368036667
 11
775.70478387320225
 21
297.62594368036736
  0
LINE
  8
_0-5_ADD_LINE
  6
CONTINUOUS
 62
    2
 10
777.20478387320225
 20
298.62594368036747
 11
777.20478387320225
 21
294.12594368036645
  0
ARC
  8
_0-5_ADD_LINE
  6
CONTINUOUS
 62
    2
 10
776.70478387320202
 20
298.62594368036747
 40
0.5
 50
0
 51
90
  0
ARC
  8
_0-5_ADD_LINE
  6
CONTINUOUS
 62
    2
 10
775.20478387320202
 20
294.62594368036667
 40
0.5
 50
270
 51
0
  0
LINE
  8
_0-5_ADD_LINE
  6
CONTINUOUS
 62
    2
 10
776.70478387320202
 20
299.12594368036736
 11
775.45478387320213
 21
299.12594368036736
  0
ARC
  8
_0-5_ADD_LINE
  6
CONTINUOUS
 62
    2
 10
775.45478387320213
 20
298.12594368036758
 40
1
 50
90
 51
180
  0
LINE
  8
_0-5_ADD_LINE
  6
CONTINUOUS
 62
    2
 10
774.45478387320202
 20
298.12594368036758
 11
774.45478387320202
 21
297.62594368036736
  0
LINE
  8
_0-5_ADD_LINE
  6
CONTINUOUS
 62
    2
 10
774.45478387320202
 20
297.62594368036736
 11
775.70478387320225
 21
297.62594368036736
  0
LINE
  8
_0-5_ADD_LINE
  6
CONTINUOUS
 62
    2
 10
769.70478387320225
 20
297.62594368036736
 11
770.95478387320213
 21
297.62594368036736
  0
LINE
  8
_0-5_ADD_LINE
  6
CONTINUOUS
 62
    2
 10
770.95478387320213
 20
298.12594368036758
 11
770.95478387320213
 21
297.62594368036736
  0
ARC
  8
_0-5_ADD_LINE
  6
CONTINUOUS
 62
    2
 10
769.95478387320202
 20
298.12594368036758
 40
1
 50
0
 51
90
  0
LINE
  8
_0-5_ADD_LINE
  6
CONTINUOUS
 62
    2
 10
769.95478387320202
 20
299.12594368036736
 11
769.70478387320225
 21
299.12594368036736
  0
LINE
  8
_0-5_ADD_LINE
  6
CONTINUOUS
 62
    7
 10
736.204782873201
 20
291.61717268036665
 11
766.204782873201
 21
291.61717268036665
  0
LINE
  8
_0-5_ADD_LINE
  6
CONTINUOUS
 62
    7
 10
766.204782873201
 20
290.61717268036688
 11
766.204782873201
 21
291.61717268036665
  0
ARC
  8
_0-5_ADD_LINE
  6
CONTINUOUS
 62
    4
 10
797.2807294672449
 20
317.02713103830359
 40
23.087541006014401
 50
80.801339104808051
 51
181.81597582067386
  0
ARC
  8
_0-5_ADD_LINE
  6
CONTINUOUS
 62
    4
 10
796.20478387328387
 20
316.29549954029875
 40
24.999999999999996
 50
78.590455650788186
 51
180
  0
ARC
  8
_0-5_ADD_LINE
  6
CONTINUOUS
 62
    4
 10
801.05138934553986
 20
340.31133630265862
 40
0.5
 50
260.801339104806
 51
78.590455650788144
  0
CIRCLE
  8
_0-7_
  6
CONTINUOUS
 62
    4
 10
801.25764018532914
 20
340.65204528892122
 40
0.8999999999999999
  0
CIRCLE
  8
_0-4_図枠
  6
CONTINUOUS
 62
    4
 10
801.25764218532913
 20
340.65204528892122
 40
0.8999999999999999
  0
TEXT
  8
_0-7_
 62
    7
 10
768.57341072189161
 20
241.20287904790138
 40
9
 41
1
 50
0
  1
５０
  0
TEXT
  8
_0-7_
 62
    7
 10
730.17273274466027
 20
242.828256624511
 40
9
 41
1
 50
0
  1
17
  0
TEXT
  8
_0-7_
 62
    7
 10
726.51563319728859
 20
267.00574807657927
 40
9
 41
1
 50
0
  1
20
  0
TEXT
  8
_0-7_
 62
    7
 10
770.77582776574855
 20
272.0850530034844
 40
9
 41
1
 50
0
  1
８
  0
TEXT
  8
_0-7_
 62
    7
 10
770.60399996282467
 20
258.06617140522633
 40
9
 41
1
 50
0
  1
16
  0
TEXT
  8
_0-7_
 62
    7
 10
791.90573626167384
 20
350.30634887782287
 40
9
 41
1
 50
0
  1
３
  0
TEXT
  8
_0-7_
 62
    7
 10
812.0511281663704
 20
363.91888608192858
 40
9
 41
1
 50
0
  1
11
  0
LINE
  8
_0-9_
  6
CONTINUOUS
 62
    1
 10
671.18710958760983
 20
208.08173053143599
 11
671.18710958760983
 21
289.61717268036642
  0
LINE
  8
_0-7_
  6
CONTINUOUS
 62
    2
 10
671.18710958760983
 20
289.61717268036642
 11
650.03339089214364
 21
210.67041973986687
  0
LINE
  8
_0-7_
  6
CONTINUOUS
 62
    2
 10
670.41978233168163
 20
290.61717168036608
 11
649.06746506585455
 21
210.92923878496941
  0
LINE
  8
_0-9_
  6
CONTINUOUS
 62
    2
 10
730.204782873201
 20
290.61717168036608
 11
670.41978233168163
 21
290.61717168036608
  0
LINE
  8
_0-9_
  6
CONTINUOUS
 62
    1
 10
671.18710958760983
 20
289.61717268036642
 11
801.18711058760971
 21
289.61717268036642
  0
CIRCLE
  8
_0-7_
  6
CONTINUOUS
 62
    4
 10
773.5628061864129
 20
367.73456716989881
 40
6
  0
CIRCLE
  8
_0-7_
  6
CONTINUOUS
 62
    4
 10
789.54176076457361
 20
368.28335955369607
 40
6
  0
LINE
  8
_0-7_
  6
CONTINUOUS
 62
    4
 10
768.59315271014998
 20
334.2748474977401
 11
786.54176076457361
 21
363.08720713098944
  0
LINE
  8
_0-7_
  6
CONTINUOUS
 62
    4
 10
753.07575536533318
 20
334.5254956926957
 11
770.56280618641381
 21
362.53841474719229
  0
CIRCLE
  8
_0-7_
  6
CONTINUOUS
 62
    4
 10
768.59315271014998
 20
334.2748474977401
 40
0.8999999999999999
  0
CIRCLE
  8
_0-7_
  6
CONTINUOUS
 62
    4
 10
753.07575536533318
 20
334.5254956926957
 40
0.8999999999999999
  0
CIRCLE
  8
_0-4_図枠
  6
CONTINUOUS
 62
    4
 10
753.07575736533317
 20
334.5254956926957
 40
0.8999999999999999
  0
CIRCLE
  8
_0-4_図枠
  6
CONTINUOUS
 62
    4
 10
768.59315471014997
 20
334.2748474977401
 40
0.8999999999999999
  0
LINE
  8
_0-5_ADD_LINE
  6
DASHED1
 62
    3
 10
741.53067969541598
 20
340.26102965242501
 11
764.49915969541598
 21
339.05730365242471
  0
LINE
  8
_0-5_ADD_LINE
  6
DASHED1
 62
    3
 10
728.08311069541594
 20
328.04412065242468
 11
741.53067969541598
 21
340.26102965242501
  0
LINE
  8
_0-5_ADD_LINE
  6
DASHED1
 62
    3
 10
724.23428769541579
 20
330.25074665242494
 11
724.89552369541582
 21
330.70104665242525
  0
LINE
  8
_0-5_ADD_LINE
  6
DASHED1
 62
    3
 10
724.89552369541582
 20
330.70104665242525
 11
726.58413969541607
 21
328.22141465242521
  0
LINE
  8
_0-5_ADD_LINE
  6
DASHED1
 62
    3
 10
724.23428769541579
 20
330.25074665242494
 11
725.92290369541604
 21
327.7711146524249
  0
ARC
  8
_0-5_ADD_LINE
  6
DASHED1
 62
    3
 10
727.41068169541586
 20
328.78428665242484
 40
0.9999989999999993
 50
214.25465800000001
 51
312.25465199999996
  0
ARC
  8
_0-5_ADD_LINE
  6
DASHED1
 62
    3
 10
727.41068169541586
 20
328.78428665242484
 40
1.7999999999999994
 50
214.25465800000001
 51
312.25465100000002
  0
ARC
  8
_0-5_ADD_LINE
  6
DASHED1
 62
    3
 10
752.93641569541614
 20
338.16122165242507
 40
6.3000000000000007
 50
37.903458000000029
 51
136.096542
  0
LINE
  8
_0-5_ADD_LINE
  6
DASHED1
 62
    3
 10
747.840966695416
 20
341.24770865242465
 11
747.77211369541601
 21
339.93393065242526
  0
LINE
  8
_0-5_ADD_LINE
  6
DASHED1
 62
    3
 10
758.32657569541584
 20
340.69818065242464
 11
758.25772569541618
 21
339.38440265242525
  0
ARC
  8
_0-5_ADD_LINE
  6
DASHED1
 62
    3
 10
749.83822569541599
 20
341.14303865242493
 40
2.0000010000000001
 50
136.096542
 51
176.99999999999997
  0
LINE
  8
_0-5_ADD_LINE
  6
DASHED1
 62
    3
 10
728.62104969541588
 20
327.4519896524248
 11
741.82180869541594
 21
339.44467565242485
  0
LINE
  8
_0-5_ADD_LINE
  6
DASHED1
 62
    3
 10
741.82180869541594
 20
339.44467565242485
 11
764.16513669541587
 21
338.27370965242483
  0
LINE
  8
_0-5_ADD_LINE
  6
DASHED1
 62
    3
 10
775.99915869541587
 20
324.96900965242503
 11
764.1242916954161
 21
338.27585165242499
  0
ARC
  8
_0-5_ADD_LINE
  6
DASHED1
 62
    3
 10
756.32931669541586
 20
340.8028536524248
 40
2.0000010000000001
 50
356.99999999999994
 51
37.903457999999993
  0
LINE
  8
_0-5_ADD_LINE
  6
DASHED1
 62
    3
 10
780.65444169541593
 20
327.29389265242526
 11
780.04389669541592
 21
327.81084065242487
  0
LINE
  8
_0-5_ADD_LINE
  6
DASHED1
 62
    3
 10
780.04389669541592
 20
327.81084065242487
 11
778.10533869541609
 21
325.52130065242511
  0
LINE
  8
_0-5_ADD_LINE
  6
DASHED1
 62
    3
 10
780.65444169541593
 20
327.29389265242526
 11
778.71588369541587
 21
325.0043526524247
  0
ARC
  8
_0-5_ADD_LINE
  6
DASHED1
 62
    3
 10
777.34215969541583
 20
326.16748865242471
 40
0.9999989999999993
 50
221.74534799999995
 51
319.74534199999994
  0
LINE
  8
_0-5_ADD_LINE
  6
DASHED1
 62
    3
 10
776.59604769541602
 20
325.50166565242455
 11
764.49915969541598
 21
339.05730365242471
  0
ARC
  8
_0-5_ADD_LINE
  6
DASHED1
 62
    3
 10
777.34215969541583
 20
326.16748865242471
 40
1.7999999999999994
 50
221.74534899999995
 51
319.74534199999994
  0
LINE
  8
_0-5_ADD_LINE
  6
CENTER1
 62
    3
 10
753.32141769541613
 20
345.50751665242478
 11
751.1751500485899
 21
306.84061971685719
  0
LINE
  8
_0-5_ADD_LINE
  6
DASHED1
 62
    3
 10
755.51149269541588
 20
339.52832765242511
 11
753.78103397618315
 21
309.57784602915069
  0
LINE
  8
_0-5_ADD_LINE
  6
DASHED1
 62
    3
 10
756.0108096954159
 20
339.50215865242455
 11
754.30918806011755
 21
310.05085284200925
  0
LINE
  8
_0-5_ADD_LINE
  6
DASHED1
 62
    3
 10
748.31741198536656
 20
310.36486825127258
 11
754.30918806011755
 21
310.05085284200925
  0
LINE
  8
_0-5_ADD_LINE
  6
DASHED1
 62
    3
 10
748.60339085343401
 20
310.04553592563127
 11
748.31741198536656
 21
310.36486825127258
  0
LINE
  8
_0-5_ADD_LINE
  6
CONTINUOUS
 62
    3
 10
748.78788381456047
 20
309.83952571676832
 11
753.78103397618327
 21
309.57784602915069
  0
LINE
  8
_0-5_ADD_LINE
  6
CONTINUOUS
 62
    3
 10
748.78788381456047
 20
309.83952571676832
 11
748.60339085343401
 21
310.04553592563127
  0
LINE
  8
_0-5_ADD_LINE
  6
CONTINUOUS
 62
    3
 10
753.98814634786231
 20
309.76333273807052
 11
753.78103397618327
 21
309.57784602915069
  0
LINE
  8
_0-5_ADD_LINE
  6
DASHED1
 62
    3
 10
754.30918806011755
 20
310.05085284200925
 11
753.98814634786231
 21
309.76333273807052
  0
LINE
  8
_0-5_ADD_LINE
  6
DASHED1
 62
    3
 10
750.51834669541608
 20
339.79000565242461
 11
748.78788381456047
 21
309.83952571676832
  0
LINE
  8
_0-5_ADD_LINE
  6
DASHED1
 62
    3
 10
750.01902969541584
 20
339.81617465242516
 11
748.31741198536656
 21
310.36486825127258
  0
TEXT
  8
_0-7_
 62
    7
 10
768.85641494924073
 20
363.0285782566072
 40
9
 41
1
 50
0
  1
14
  0
TEXT
  8
_0-7_
 62
    7
 10
784.46932972995614
 20
364.24761143906449
 40
9
 41
1
 50
0
  1
７
  0
LINE
  8
_0-8_
  6
CONTINUOUS
 62
    3
 10
246.18711158760937
 20
288.61717368036653
 11
246.18711158760937
 21
183.67223223161008
  0
LINE
  8
_0-9_
  6
CONTINUOUS
 62
    1
 10
246.18711158760937
 20
431.14967053143613
 11
246.18711158760937
 21
289.61717268036642
  0
LINE
  8
_0-9_
  6
CONTINUOUS
 62
    1
 10
246.18711158760937
 20
289.61717268036642
 11
271.18711058760903
 21
289.61717268036642
  0
LINE
  8
_0-9_
  6
CONTINUOUS
 62
    1
 10
271.18711058760903
 20
208.08173053143599
 11
271.18711058760903
 21
289.61717268036642
  0
LINE
  8
_0-7_
  6
CONTINUOUS
 62
    2
 10
246.18711158760937
 20
339.51425353143622
 11
271.18711058760903
 21
289.61717268036642
  0
LINE
  8
_0-7_
  6
CONTINUOUS
 62
    2
 10
271.18711058760903
 20
289.61717268036642
 11
291.4473509241904
 21
223.17628892193198
  0
LINE
  8
_0-7_
  6
CONTINUOUS
 62
    2
 10
247.03934832122394
 20
340.03740986550679
 11
272.03934732122354
 21
290.14032901443699
  0
LINE
  8
_0-7_
  6
CONTINUOUS
 62
    2
 10
272.15303641389812
 20
289.87599172546896
 11
292.41327675047944
 21
223.43510796703453
  0
LINE
  8
_0-7_
  6
CONTINUOUS
 62
    3
 10
134.58111228823387
 20
428.52928323161018
 11
134.58111228823387
 21
289.61717268036642
  0
LINE
  8
_0-7_
  6
CONTINUOUS
 62
    3
 10
134.58111228823387
 20
289.61717268036642
 11
135.33111228823387
 21
292.61717268036642
  0
LINE
  8
_0-7_
  6
CONTINUOUS
 62
    3
 10
134.58111228823387
 20
289.61717268036642
 11
133.83111228823387
 21
292.61717268036642
  0
LINE
  8
_0-7_
  6
CONTINUOUS
 62
    3
 10
168.36083656319045
 20
369.82928223160997
 11
168.36083656319045
 21
289.61717268036642
  0
LINE
  8
_0-7_
  6
CONTINUOUS
 62
    3
 10
168.36083656319045
 20
289.61717268036642
 11
169.11083656319045
 21
292.61717268036642
  0
LINE
  8
_0-7_
  6
CONTINUOUS
 62
    3
 10
168.36083656319045
 20
289.61717268036642
 11
167.61083656319045
 21
292.61717268036642
  0
LINE
  8
_0-7_
  6
CONTINUOUS
 62
    3
 10
669.18710758760994
 20
289.61717268036642
 11
128.58111228823387
 21
289.61717268036642
  0
LINE
  8
_0-0_0
  6
CENTER1
 62
    3
 10
471.18711008760943
 20
455.00070316998318
 11
471.18711008760943
 21
157.16593321746964
  0
TEXT
  8
_0-8_
 62
    7
 10
456.86637189519962
 20
190.87214277406034
 40
9
 41
1
 50
0
  1
４００
  0
TEXT
  8
_0-4_図枠
 62
    7
 10
772.31740174372533
 20
106.17713575335
 40
7.5000000000000426
 41
0.9999999999999943
 50
0
  1
４００ＦＹＫＧ－Ａ７７５
  0
TEXT
  8
_0-0_0
 62
    7
 10
894.98934388065106
 20
105.87902345878288
 40
7.5000000000000426
 41
0.9999999999999943
 50
0
  1
775
  0
TEXT
  8
_0-0_0
 62
    7
 10
939.46544033536361
 20
105.63755904279009
 40
7.5000000000000426
 41
0.9999999999999905
 50
0
  1
760
  0
TEXT
  8
_0-0_0
 62
    7
 10
984.32495141468553
 20
105.49560883417337
 40
7.4999999999999147
 41
1.0000000000000113
 50
0
  1
130
  0
TEXT
  8
_0-8_
 62
    7
 10
732.07778840245237
 20
189.99756169509996
 40
9
 41
1
 50
0
  1
Ｃ
  0
TEXT
  8
_0-8_
 62
    7
 10
905.98915676951924
 20
190.50004498765327
 40
9
 41
1
 50
0
  1
２２０
  0
TEXT
  8
_0-8_
 62
    7
 10
632.86063055450893
 20
400.25115252255102
 40
9
 41
1
 50
0
  1
Ａ
  0
TEXT
  8
_0-8_
 62
    7
 10
630.30162922906936
 20
494.64155186762002
 40
9
 41
1
 50
0
  1
Ｗ
  0
TEXT
  8
_0-8_
 62
    7
 10
613.33560837465564
 20
383.33953434260036
 40
9
 41
1
 50
0
  1
（キャップ幅）
  0
CIRCLE
  8
_0-7_
  6
CONTINUOUS
 62
    4
 10
304.63221101802162
 20
270.59268126413838
 40
6
  0
LINE
  8
_0-7_
  6
CONTINUOUS
 62
    4
 10
287.74892383160079
 20
241.34997005847958
 11
301.63221101802276
 21
265.39652884143197
  0
CIRCLE
  8
_0-7_
  6
CONTINUOUS
 62
    4
 10
287.74892383160079
 20
241.34997005847958
 40
0.8999999999999999
  0
TEXT
  8
_0-7_
 62
    7
 10
300.06533407152153
 20
265.98838730682388
 40
9
 41
1
 50
0
  1
12
  0
TEXT
  8
_0-0_0
 62
    7
 10
1071.9747334338035
 20
106.02097366739969
 40
7.4999999999999147
 41
1.0000000000000113
 50
0
  1
139
  0
TEXT
  8
_0-0_0
 62
    7
 10
1026.902304789098
 20
105.19537704578522
 40
7.4999999999999147
 41
1.0000000000000058
 50
0
  1
80.2
  0
TEXT
  8
_0-4_図枠
 62
    7
 10
50.441360077911327
 20
637.45410569525575
 40
9
 41
0.9999999999999996
 50
0
  1
◇アルミ４００タイプ（４００ＦＹＫＧ－Ａ）
  0
TEXT
  8
_0-4_図枠
 62
    7
 10
52.346449064132571
 20
607.60771157778868
 40
9
 41
1
 50
0
  1
　　Ｓ＝１／３
  0
TEXT
  8
_0-4_図枠
 62
    7
 10
396.09991465090798
 20
106.00576777720619
 40
7.5000000000000426
 41
0.9999999999999937
 50
0
  1
４００ＦＹＫＧ－Ａ７７５
  0
TEXT
  8
_0-4_図枠
 62
    7
 10
386.72491465090798
 20
52.005767777206188
 40
7.5000000000000426
 41
0.9999999999999934
 50
0
  1
ｔ１．０×ｗ３０
  0
TEXT
  8
_0-4_図枠
 62
    7
 10
396.09991465090798
 20
38.505767777206188
 40
7.5000000000000426
 41
0.9999999999999943
 50
0
  1
４００ＦＹＫＨ－７７５
  0
TEXT
  8
_0-4_図枠
 62
    7
 10
396.09991465090798
 20
-1.9942322227938121
 40
7.5000000000000426
 41
0.9999999999999943
 50
0
  1
４００ＦＹＫＪ－７７５
  0
TEXT
  8
_0-4_図枠
 62
    7
 10
396.09991465090786
 20
-69.494232222793642
 40
7.5000000000000853
 41
0.9999999999999877
 50
0
  1
なべＭ６×３５
  0
ENDSEC
  0
EOF
