  0
SECTION
  2
HEADER
  9
$ACADVER
  1
AC1009
  9
$INSBASE
 10
0
 20
0
 30
0
  9
$EXTMIN
 10
0
 20
0
  9
$EXTMAX
 10
1260
 20
891
  9
$LIMMIN
 10
0
 20
0
  9
$LIMMAX
 10
1260
 20
891
  9
$LTSCALE
 40
3
  0
ENDSEC
  0
SECTION
  2
TABLES
  0
TABLE
  2
LTYPE
 70
     9
  0
LTYPE
  2
CONTINUOUS
 70
    64
  3
実線
 72
    65
 73
     0
 40
0.0
  0
LTYPE
  2
DASHED1
 70
    64
  3
--  --  --  --  --  --  --  --  
 72
    65
 73
     2
 40
2.5
 49
1.25
 49
-1.25
  0
LTYPE
  2
DASHED2
 70
    64
  3
----    ----    ----    ----    
 72
    65
 73
     2
 40
5.0
 49
2.5
 49
-2.5
  0
LTYPE
  2
DASHED3
 70
    64
  3
------  ------  ------  ------  
 72
    65
 73
     2
 40
5.0
 49
3.75
 49
-1.25
  0
LTYPE
  2
CENTER1
 70
    64
  3
----- - ----- - ----- - ----- - 
 72
    65
 73
     4
 40
10.0
 49
6.25
 49
-1.25
 49
1.25
 49
-1.25
  0
LTYPE
  2
CENTER2
 70
    64
  3
----------  --  ----------  --  
 72
    65
 73
     4
 40
20.0
 49
12.5
 49
-2.5
 49
2.5
 49
-2.5
  0
LTYPE
  2
PHANTOM1
 70
    64
  3
--- - - --- - - --- - - --- - - 
 72
    65
 73
     6
 40
10.0
 49
3.25
 49
-1.25
 49
1.25
 49
-1.25
 49
1.25
 49
-1.25
  0
LTYPE
  2
PHANTOM2
 70
    64
  3
--------  -  -  --------  -  -  
 72
    65
 73
     6
 40
20.0
 49
10.0
 49
-2.5
 49
1.25
 49
-2.5
 49
1.25
 49
-2.5
  0
LTYPE
  2
DOT
 70
    64
  3
-   -   -   -   -   -   -   -   
 72
    65
 73
     2
 40
2.5
 49
0.625
 49
-1.875
  0
LTYPE
  2
DUMMY
 70
    64
  3
ダミー
 72
    65
 73
     0
 40
0.0
  0
LTYPE
  2
RAND1
 70
    64
  3
ランダム線1
 72
    65
 73
     4
 40
10.0
 49
1.0
 49
-2.0
 49
3.0
 49
-4.0
  0
LTYPE
  2
RAND2
 70
    64
  3
ランダム線2
 72
    65
 73
     4
 40
14.0
 49
2.0
 49
-3.0
 49
4.0
 49
-5.0
  0
LTYPE
  2
RAND3
 70
    64
  3
ランダム線3
 72
    65
 73
     4
 40
18.0
 49
3.0
 49
-4.0
 49
5.0
 49
-6.0
  0
LTYPE
  2
RAND4
 70
    64
  3
ランダム線4
 72
    65
 73
     4
 40
22.0
 49
4.0
 49
-5.0
 49
6.0
 49
-7.0
  0
LTYPE
  2
RAND5
 70
    64
  3
ランダム線5
 72
    65
 73
     4
 40
26.0
 49
5.0
 49
-6.0
 49
7.0
 49
-8.0
  0
LTYPE
  2
LONG1
 70
    64
  3
----------  --  ----------  --  
 72
    65
 73
     4
 40
40.0
 49
32.5
 49
-2.5
 49
2.5
 49
-2.5
  0
LTYPE
  2
LONG2
 70
    64
  3
--------  -  -  --------  -  -  
 72
    65
 73
     6
 40
40.0
 49
30.0
 49
-2.5
 49
1.25
 49
-2.5
 49
1.25
 49
-2.5
  0
LTYPE
  2
LONG3
 70
    64
  3
+++++++++++++++..+++++++++++++++
 72
    65
 73
     2
 40
40.0
 49
37.5
 49
-2.5
  0
LTYPE
  2
LONG4
 70
    64
  3
+++++++++++++++..+++++++++++++++
 72
    65
 73
     2
 40
80.0
 49
75.0
 49
-5.0
  0
LTYPE
  2
LONG5
 70
    64
  3
----------  --  ----------  --  
 72
    65
 73
     4
 40
60.0
 49
37.5
 49
-7.5
 49
7.5
 49
-7.5
  0
LTYPE
  2
dashed
 70
   64
  3
-------   -------------   ------
 72
   65
 73
    2
 40
7.5
 49
6
 49
-1.5
  0
LTYPE
  2
dashed_spaced
 70
   64
  3
----        --------        ----
 72
   65
 73
    2
 40
12
 49
6
 49
-6
  0
LTYPE
  2
long_dashed_dotted
 70
   64
  3
------------- --- --------------
 72
   65
 73
    4
 40
15.25
 49
12
 49
-1.5
 49
0.25
 49
-1.5
  0
LTYPE
  2
long_dashed_double-dotted
 70
   64
  3
----------- --- --- ------------
 72
   65
 73
    6
 40
17
 49
12
 49
-1.5
 49
0.25
 49
-1.5
 49
0.25
 49
-1.5
  0
LTYPE
  2
long_dashed_triplicate-dotted
 70
   64
  3
--------- --- --- --- ----------
 72
   65
 73
    8
 40
18.75
 49
12
 49
-1.5
 49
0.25
 49
-1.5
 49
0.25
 49
-1.5
 49
0.25
 49
-1.5
  0
LTYPE
  2
dotted
 70
   64
  3
   -       -       -       -    
 72
   65
 73
    2
 40
1.75
 49
0.25
 49
-1.5
  0
LTYPE
  2
chain
 70
   64
  3
-------------- -- --------------
 72
   65
 73
    4
 40
18.5
 49
12
 49
-1.5
 49
3.5
 49
-1.5
  0
LTYPE
  2
chain_double_dash
 70
   64
  3
------------ -- -- -------------
 72
   65
 73
    6
 40
23.5
 49
12
 49
-1.5
 49
3.5
 49
-1.5
 49
3.5
 49
-1.5
  0
LTYPE
  2
dashed_dotted
 70
   64
  3
-----------     -     ----------
 72
   65
 73
    4
 40
9.25
 49
6
 49
-1.5
 49
0.25
 49
-1.5
  0
LTYPE
  2
double-dashed_dotted
 70
   64
  3
------   -----------   -   -----
 72
   65
 73
    6
 40
16.75
 49
6
 49
-1.5
 49
6
 49
-1.5
 49
0.25
 49
-1.5
  0
LTYPE
  2
dashed_double-dotted
 70
   64
  3
---------    -    -    ---------
 72
   65
 73
    6
 40
11
 49
6
 49
-1.5
 49
0.25
 49
-1.5
 49
0.25
 49
-1.5
  0
LTYPE
  2
double-dashed_double-dotted
 70
   64
  3
-----   ---------   -   -   ----
 72
   65
 73
    8
 40
18.5
 49
6
 49
-1.5
 49
6
 49
-1.5
 49
0.25
 49
-1.5
 49
0.25
 49
-1.5
  0
LTYPE
  2
dashed_triplicate-dotted
 70
   64
  3
-------    -    -    -    ------
 72
   65
 73
    8
 40
12.75
 49
6
 49
-1.5
 49
0.25
 49
-1.5
 49
0.25
 49
-1.5
 49
0.25
 49
-1.5
  0
LTYPE
  2
double-dashed_triplicate-dotted
 70
   64
  3
-----  ---------  -  -  -  -----
 72
   65
 73
   10
 40
20.25
 49
6
 49
-1.5
 49
6
 49
-1.5
 49
0.25
 49
-1.5
 49
0.25
 49
-1.5
 49
0.25
 49
-1.5
  0
LTYPE
  2
undefined
 70
   64
  3
--------------------------------
 72
   65
 73
    0
 40
0
  0
LTYPE
  2
PLINE2
 70
   64
  3
------     -----------     -----
 72
   65
 73
    2
 40
3
 49
2.1000000000000001
 49
-0.9
  0
LTYPE
  2
PLINE3
 70
   64
  3
------------   ---   -----------
 72
   65
 73
    4
 40
10
 49
7
 49
-1
 49
1
 49
-1
  0
LTYPE
  2
PLINE4
 70
   64
  3
---------   ---   ---   --------
 72
   65
 73
    6
 40
10
 49
5
 49
-1
 49
1
 49
-1
 49
1
 49
-1
  0
LTYPE
  2
PLINE5
 70
   64
  3
------     -----------     -----
 72
   65
 73
    2
 40
5
 49
3.5
 49
-1.5
  0
LTYPE
  2
PLINE6
 70
   64
  3
------------   ---   -----------
 72
   65
 73
    4
 40
15
 49
10.5
 49
-1.5
 49
1.5
 49
-1.5
  0
LTYPE
  2
PLINE7
 70
   64
  3
---------   ---   ---   --------
 72
   65
 73
    6
 40
15
 49
7.5
 49
-1.5
 49
1.5
 49
-1.5
 49
1.5
 49
-1.5
  0
LTYPE
  2
PLINE8
 70
   64
  3
------     -----------     -----
 72
   65
 73
    2
 40
7
 49
4.9000000000000004
 49
-2.1000000000000001
  0
LTYPE
  2
PLINE9
 70
   64
  3
------------   ---   -----------
 72
   65
 73
    4
 40
20
 49
14
 49
-2
 49
2
 49
-2
  0
LTYPE
  2
PLINE10
 70
   64
  3
---------   ---   ---   --------
 72
   65
 73
    6
 40
20
 49
10
 49
-2
 49
2
 49
-2
 49
2
 49
-2
  0
LTYPE
  2
PLINE11
 70
   64
  3
------     -----------     -----
 72
   65
 73
    2
 40
9
 49
6.2999999999999989
 49
-2.7000000000000002
  0
LTYPE
  2
PLINE12
 70
   64
  3
------------   ---   -----------
 72
   65
 73
    4
 40
25
 49
17.5
 49
-2.5
 49
2.5
 49
-2.5
  0
LTYPE
  2
PLINE13
 70
   64
  3
---------   ---   ---   --------
 72
   65
 73
    6
 40
25
 49
12.5
 49
-2.5
 49
2.5
 49
-2.5
 49
2.5
 49
-2.5
  0
LTYPE
  2
PLINE14
 70
   64
  3
------     -----------     -----
 72
   65
 73
    2
 40
11
 49
7.7000000000000002
 49
-3.2999999999999989
  0
LTYPE
  2
PLINE15
 70
   64
  3
------------   ---   -----------
 72
   65
 73
    4
 40
30
 49
21
 49
-3
 49
3
 49
-3
  0
LTYPE
  2
PLINE16
 70
   64
  3
---------   ---   ---   --------
 72
   65
 73
    6
 40
30
 49
15
 49
-3
 49
3
 49
-3
 49
3
 49
-3
  0
ENDTAB
  0
TABLE
  2
STYLE
  5
3
100
AcDbSymbolTable
 70
     1
  0
STYLE
  5
10
100
AcDbSymbolTableRecord
100
AcDbTextStyleTableRecord
  2
STANDARD
 70
     0
 40
0.0
 41
1.0
 50
0.0
 71
     0
 42
0.2
  3
txt
  4
bigfont.shx
  0
STYLE
  5
26
100
AcDbSymbolTableRecord
100
AcDbTextStyleTableRecord
  2
TATEGAKI
 70
    68
 40
0.0
 41
1.0
 50
0.0
 71
     0
 42
1.0
  3
txt
  4
bigfont.shx
  0
ENDTAB
  0
TABLE
  2
LAYER
 70
    6
  0
LAYER
  2
_0-0_0
 70
   64
 62
    7
  6
CONTINUOUS
  0
LAYER
  2
_0-2_寸法
 70
   64
 62
    7
  6
CONTINUOUS
  0
LAYER
  2
_0-3_躯体と製品
 70
   64
 62
    7
  6
CONTINUOUS
  0
LAYER
  2
_0-4_図枠
 70
   64
 62
    7
  6
CONTINUOUS
  0
LAYER
  2
_0-5_ADD_LINE
 70
   64
 62
    7
  6
CONTINUOUS
  0
LAYER
  2
ADD_LINE
 70
   64
 62
    7
  6
CONTINUOUS
  0
ENDTAB
  0
ENDSEC
  0
SECTION
  2
BLOCKS
  0
ENDSEC
  0
SECTION
  2
ENTITIES
  0
LINE
  8
_0-0_0
  6
CONTINUOUS
 62
    7
 10
1221.9590651642479
 20
805.81193473454573
 11
37.959065164247903
 21
805.81193473454573
  0
LINE
  8
_0-0_0
  6
CONTINUOUS
 62
    7
 10
1221.9590651642479
 20
-30.188065265454242
 11
1221.9590651642479
 21
805.81193473454573
  0
LINE
  8
_0-0_0
  6
CONTINUOUS
 62
    7
 10
37.959065164247903
 20
-30.188065265454242
 11
1221.9590651642479
 21
-30.188065265454242
  0
LINE
  8
_0-0_0
  6
CONTINUOUS
 62
    7
 10
37.959065164247903
 20
805.81193473454573
 11
37.959065164247903
 21
-30.188065265454242
  0
TEXT
  8
_0-4_図枠
 62
    7
 10
107.2643083322906
 20
754.20681822427946
 40
9
 41
0.9999999999999994
 50
0
  1
　　屋根－壁（ストレート壁）
  0
TEXT
  8
_0-4_図枠
 62
    7
 10
106.85004109524371
 20
741.36453387582628
 40
9
 41
0.9999999999999992
 50
0
  1
　　Ｓ＝１／３
  0
TEXT
  8
_0-4_図枠
 62
    7
 10
105.77623721193501
 20
765.4502110468286
 40
9
 41
0.9999999999999995
 50
0
  1
◇アルミ４００タイプ（４００ＦＹＫＧ－Ａ）
  0
LINE
  8
_0-0_0
  6
CONTINUOUS
 62
    1
 10
297.63306863858497
 20
599.70560597473502
 11
297.63306863858497
 21
395.99276274840753
  0
LINE
  8
_0-0_0
  6
CONTINUOUS
 62
    7
 10
326.43007419613389
 20
404.46200443327507
 11
298.63306763858492
 21
508.20184520437317
  0
LINE
  8
_0-0_0
  6
CONTINUOUS
 62
    2
 10
315.83306663858497
 20
599.70560597473502
 11
315.83306663858497
 21
584.70560597473502
  0
LINE
  8
_0-0_0
  6
CONTINUOUS
 62
    2
 10
310.8330686385849
 20
599.70560597473502
 11
315.83306663858497
 21
584.70560597473502
  0
LINE
  8
_0-0_0
  6
CONTINUOUS
 62
    3
 10
312.63306863858497
 20
557.60797997473492
 11
312.63306863858497
 21
572.697778974735
  0
LINE
  8
_0-0_0
  6
CONTINUOUS
 62
    3
 10
312.63306863858497
 20
568.69777697473489
 11
315.63306863858497
 21
567.94777697473489
  0
LINE
  8
_0-0_0
  6
CONTINUOUS
 62
    3
 10
312.63306863858497
 20
568.69777697473489
 11
315.63306863858497
 21
569.44777697473489
  0
LINE
  8
_0-0_0
  6
CONTINUOUS
 62
    2
 10
306.13306763858492
 20
572.50560497473487
 11
306.13306763858492
 21
568.70560697473491
  0
LINE
  8
_0-0_0
  6
CONTINUOUS
 62
    2
 10
307.63306763858492
 20
568.00560497473487
 11
307.63306763858492
 21
574.00560497473487
  0
LINE
  8
_0-0_0
  6
CONTINUOUS
 62
    2
 10
301.13306663858503
 20
562.00560497473487
 11
301.13306663858503
 21
572.50560497473487
  0
LINE
  8
_0-0_0
  6
CONTINUOUS
 62
    2
 10
299.13306863858497
 20
573.00560597473486
 11
299.13306863858497
 21
561.50560697473497
  0
LINE
  8
_0-0_0
  6
CONTINUOUS
 62
    2
 10
301.63306763858492
 20
567.00560597473486
 11
301.63306763858492
 21
570.25560497473487
  0
LINE
  8
_0-0_0
  6
CONTINUOUS
 62
    2
 10
303.13306763858492
 20
570.25560497473487
 11
303.13306763858492
 21
567.00560597473486
  0
LINE
  8
_0-0_0
  6
CONTINUOUS
 62
    2
 10
330.83306663858491
 20
550.90560497473484
 11
330.83306663858491
 21
582.50560697473497
  0
LINE
  8
_0-0_0
  6
CONTINUOUS
 62
    2
 10
329.63306663858498
 20
550.90560497473484
 11
329.63306663858498
 21
582.50560697473497
  0
LINE
  8
_0-0_0
  6
CONTINUOUS
 62
    2
 10
329.33306663858491
 20
581.80560497473493
 11
329.33306663858491
 21
552.30560597473482
  0
LINE
  8
_0-0_0
  6
CONTINUOUS
 62
    2
 10
328.33306763858502
 20
581.80560497473493
 11
328.33306763858502
 21
552.30560597473482
  0
LINE
  8
_0-0_0
  6
CONTINUOUS
 62
    3
 10
328.34438063858488
 20
553.10560697473488
 11
329.33306663858491
 21
554.0942929747348
  0
LINE
  8
_0-0_0
  6
CONTINUOUS
 62
    3
 10
328.33306763858502
 20
555.9340339747348
 11
329.33306663858491
 21
556.93403297473492
  0
LINE
  8
_0-0_0
  6
CONTINUOUS
 62
    3
 10
328.33306763858502
 20
558.76246097473484
 11
329.33306663858491
 21
559.76245997473495
  0
LINE
  8
_0-0_0
  6
CONTINUOUS
 62
    3
 10
328.33306763858502
 20
561.59088797473487
 11
329.33306663858491
 21
562.59088697473499
  0
LINE
  8
_0-0_0
  6
CONTINUOUS
 62
    3
 10
328.33306763858502
 20
564.4193149747349
 11
329.33306663858491
 21
565.41931397473502
  0
LINE
  8
_0-0_0
  6
CONTINUOUS
 62
    3
 10
328.33306763858502
 20
567.24774197473494
 11
329.33306663858491
 21
568.24774097473482
  0
LINE
  8
_0-0_0
  6
CONTINUOUS
 62
    3
 10
328.33306763858502
 20
570.07616897473497
 11
329.33306663858491
 21
571.07616797473497
  0
LINE
  8
_0-0_0
  6
CONTINUOUS
 62
    3
 10
328.33306763858502
 20
572.904595974735
 11
329.33306663858491
 21
573.90459497473478
  0
LINE
  8
_0-0_0
  6
CONTINUOUS
 62
    3
 10
328.33306763858502
 20
575.73302297473492
 11
329.33306663858491
 21
576.73302197473481
  0
LINE
  8
_0-0_0
  6
CONTINUOUS
 62
    3
 10
328.33306763858502
 20
578.56144997473484
 11
329.33306663858491
 21
579.56144897473484
  0
LINE
  8
_0-0_0
  6
CONTINUOUS
 62
    3
 10
328.33306763858502
 20
581.38987697473499
 11
329.24767763858495
 21
582.30448697473491
  0
LINE
  8
_0-0_0
  6
CONTINUOUS
 62
    3
 10
326.42036963858504
 20
582.30560597473482
 11
327.42036863858493
 21
583.30560497473493
  0
LINE
  8
_0-0_0
  6
CONTINUOUS
 62
    3
 10
323.59194263858501
 20
582.30560597473482
 11
324.5919416385849
 21
583.30560497473493
  0
LINE
  8
_0-0_0
  6
CONTINUOUS
 62
    3
 10
320.76351563858498
 20
582.30560597473482
 11
321.76351463858487
 21
583.30560497473493
  0
LINE
  8
_0-0_0
  6
CONTINUOUS
 62
    3
 10
317.93508863858494
 20
582.30560597473482
 11
318.93508763858483
 21
583.30560497473493
  0
LINE
  8
_0-0_0
  6
CONTINUOUS
 62
    3
 10
315.10666163858491
 20
582.30560597473482
 11
316.10666063858503
 21
583.30560497473493
  0
LINE
  8
_0-0_0
  6
CONTINUOUS
 62
    3
 10
312.27823463858505
 20
582.30560597473482
 11
313.27823363858499
 21
583.30560497473493
  0
LINE
  8
_0-0_0
  6
CONTINUOUS
 62
    3
 10
309.48964763858504
 20
582.34544897473484
 11
310.44980663858496
 21
583.30560497473493
  0
LINE
  8
_0-0_0
  6
CONTINUOUS
 62
    3
 10
308.33306663858497
 20
584.0172949747348
 11
309.3330686385849
 21
585.01729397473491
  0
ARC
  8
_0-0_0
  6
CONTINUOUS
 62
    2
 10
312.9249506385849
 20
590.60560697473488
 40
0.3999989999999996
 50
346.29976700000003
 51
90.000000000000071
  0
ARC
  8
_0-0_0
  6
CONTINUOUS
 62
    2
 10
312.9249506385849
 20
592.40560697473484
 40
0.3999989999999996
 50
270
 51
13.700232999999979
  0
LINE
  8
_0-0_0
  6
CONTINUOUS
 62
    2
 10
312.89878763858496
 20
592.00560497473487
 11
312.89878763858496
 21
591.00560597473486
  0
ARC
  8
_0-0_0
  6
CONTINUOUS
 62
    2
 10
310.70316263858496
 20
590.30193497473488
 40
2.3000009999999991
 50
273.23783700000001
 51
320.69087599999995
  0
ARC
  8
_0-0_0
  6
CONTINUOUS
 62
    2
 10
310.70015963858503
 20
592.712953974735
 40
2.3000009999999991
 50
39.179510999999984
 51
86.687257000000002
  0
ARC
  8
_0-0_0
  6
CONTINUOUS
 62
    2
 10
309.23306963858499
 20
591.50560697473497
 40
4.1999999999999993
 50
320.69062899999994
 51
39.303130999999972
  0
ARC
  8
_0-0_0
  6
CONTINUOUS
 62
    2
 10
309.03306863858501
 20
594.105604974735
 40
0.5999999999999996
 50
270
 51
90
  0
ARC
  8
_0-0_0
  6
CONTINUOUS
 62
    2
 10
309.03306863858501
 20
588.90560597473495
 40
0.5999999999999996
 50
270
 51
90
  0
LINE
  8
_0-0_0
  6
CONTINUOUS
 62
    2
 10
307.63306763858492
 20
594.7056049747348
 11
309.03306863858501
 21
594.7056049747348
  0
LINE
  8
_0-0_0
  6
CONTINUOUS
 62
    2
 10
308.33306663858497
 20
582.60560597473489
 11
308.33306663858497
 21
588.30560597473482
  0
LINE
  8
_0-0_0
  6
CONTINUOUS
 62
    2
 10
308.33306663858497
 20
588.30560597473482
 11
309.03306863858501
 21
588.30560597473482
  0
LINE
  8
_0-0_0
  6
CONTINUOUS
 62
    2
 10
307.63306763858492
 20
595.50560597473486
 11
307.63306763858492
 21
594.7056049747348
  0
ARC
  8
_0-0_0
  6
CONTINUOUS
 62
    2
 10
299.13306863858497
 20
595.00560497473487
 40
0.500001
 50
90
 51
180
  0
LINE
  8
_0-0_0
  6
CONTINUOUS
 62
    2
 10
302.13306863858497
 20
590.00560697473497
 11
301.63306763858492
 21
589.50560597473486
  0
LINE
  8
_0-0_0
  6
CONTINUOUS
 62
    2
 10
302.63306663858503
 20
589.50560597473486
 11
302.13306863858497
 21
590.00560697473497
  0
LINE
  8
_0-0_0
  6
CONTINUOUS
 62
    2
 10
303.13306763858492
 20
590.00560697473497
 11
302.63306663858503
 21
589.50560597473486
  0
LINE
  8
_0-0_0
  6
CONTINUOUS
 62
    2
 10
303.63306863858497
 20
589.50560597473486
 11
303.13306763858492
 21
590.00560697473497
  0
LINE
  8
_0-0_0
  6
CONTINUOUS
 62
    2
 10
304.13306663858503
 20
590.00560697473497
 11
303.63306863858497
 21
589.50560597473486
  0
LINE
  8
_0-0_0
  6
CONTINUOUS
 62
    2
 10
304.63306763858492
 20
589.50560597473486
 11
304.13306663858503
 21
590.00560697473497
  0
LINE
  8
_0-0_0
  6
CONTINUOUS
 62
    2
 10
305.13306863858497
 20
590.00560697473497
 11
304.63306763858492
 21
589.50560597473486
  0
LINE
  8
_0-0_0
  6
CONTINUOUS
 62
    2
 10
305.63306663858503
 20
589.50560597473486
 11
305.13306863858497
 21
590.00560697473497
  0
LINE
  8
_0-0_0
  6
CONTINUOUS
 62
    2
 10
306.13306763858492
 20
590.00560697473497
 11
305.63306663858503
 21
589.50560597473486
  0
LINE
  8
_0-0_0
  6
CONTINUOUS
 62
    2
 10
306.63306863858497
 20
589.50560597473486
 11
306.13306763858492
 21
590.00560697473497
  0
LINE
  8
_0-0_0
  6
CONTINUOUS
 62
    2
 10
302.13306863858497
 20
593.00560697473497
 11
301.63306763858492
 21
593.50560497473487
  0
LINE
  8
_0-0_0
  6
CONTINUOUS
 62
    2
 10
302.63306663858503
 20
593.50560497473487
 11
302.13306863858497
 21
593.00560697473497
  0
LINE
  8
_0-0_0
  6
CONTINUOUS
 62
    2
 10
303.13306763858492
 20
593.00560697473497
 11
302.63306663858503
 21
593.50560497473487
  0
LINE
  8
_0-0_0
  6
CONTINUOUS
 62
    2
 10
303.63306863858497
 20
593.50560497473487
 11
303.13306763858492
 21
593.00560697473497
  0
LINE
  8
_0-0_0
  6
CONTINUOUS
 62
    2
 10
304.13306663858503
 20
593.00560697473497
 11
303.63306863858497
 21
593.50560497473487
  0
LINE
  8
_0-0_0
  6
CONTINUOUS
 62
    2
 10
304.63306763858492
 20
593.50560497473487
 11
304.13306663858503
 21
593.00560697473497
  0
LINE
  8
_0-0_0
  6
CONTINUOUS
 62
    2
 10
305.13306863858497
 20
593.00560697473497
 11
304.63306763858492
 21
593.50560497473487
  0
LINE
  8
_0-0_0
  6
CONTINUOUS
 62
    2
 10
305.63306663858503
 20
593.50560497473487
 11
305.13306863858497
 21
593.00560697473497
  0
LINE
  8
_0-0_0
  6
CONTINUOUS
 62
    2
 10
306.13306763858492
 20
593.00560697473497
 11
305.63306663858503
 21
593.50560497473487
  0
LINE
  8
_0-0_0
  6
CONTINUOUS
 62
    2
 10
306.63306863858497
 20
593.50560497473487
 11
306.13306763858492
 21
593.00560697473497
  0
LINE
  8
_0-0_0
  6
CONTINUOUS
 62
    2
 10
306.63306863858497
 20
589.50560597473486
 11
309.13306763858492
 21
589.50560597473486
  0
LINE
  8
_0-0_0
  6
CONTINUOUS
 62
    2
 10
306.63306863858497
 20
593.50560497473487
 11
309.13306763858492
 21
593.50560497473487
  0
ARC
  8
_0-0_0
  6
CONTINUOUS
 62
    2
 10
300.43306763858499
 20
593.2056049747348
 40
0.2999999999999998
 50
90
 51
180
  0
LINE
  8
_0-0_0
  6
CONTINUOUS
 62
    2
 10
300.43306763858499
 20
593.50560497473487
 11
301.63306763858492
 21
593.50560497473487
  0
LINE
  8
_0-0_0
  6
CONTINUOUS
 62
    2
 10
300.43306763858499
 20
589.50560597473486
 11
301.63306763858492
 21
589.50560597473486
  0
ARC
  8
_0-0_0
  6
CONTINUOUS
 62
    2
 10
300.43306763858499
 20
589.80560597473482
 40
0.2999999999999998
 50
180
 51
270
  0
LINE
  8
_0-0_0
  6
CONTINUOUS
 62
    2
 10
300.13306763858492
 20
589.80560597473482
 11
300.13306763858492
 21
593.2056049747348
  0
LINE
  8
_0-0_0
  6
CONTINUOUS
 62
    2
 10
305.63306663858503
 20
573.00560597473486
 11
301.63306763858492
 21
573.00560597473486
  0
ARC
  8
_0-0_0
  6
CONTINUOUS
 62
    2
 10
305.63306663858503
 20
572.50560497473487
 40
0.500001
 50
0
 51
90
  0
ARC
  8
_0-0_0
  6
CONTINUOUS
 62
    2
 10
307.13306663858503
 20
574.00560497473487
 40
0.500001
 50
0
 51
90
  0
LINE
  8
_0-0_0
  6
CONTINUOUS
 62
    2
 10
307.13306663858503
 20
574.50560597473486
 11
301.63306763858492
 21
574.50560597473486
  0
ARC
  8
_0-0_0
  6
CONTINUOUS
 62
    2
 10
301.63306763858492
 20
575.00560697473497
 40
0.500001
 50
180
 51
270
  0
ARC
  8
_0-0_0
  6
CONTINUOUS
 62
    2
 10
301.63306763858492
 20
572.50560497473487
 40
0.500001
 50
90
 51
180
  0
ARC
  8
_0-0_0
  6
CONTINUOUS
 62
    2
 10
313.23306863858494
 20
581.70560597473502
 40
0.5999999999999996
 50
270
 51
90
  0
LINE
  8
_0-0_0
  6
CONTINUOUS
 62
    2
 10
301.13306663858503
 20
587.00560697473497
 11
301.13306663858503
 21
575.00560697473497
  0
ARC
  8
_0-0_0
  6
CONTINUOUS
 62
    2
 10
301.63306763858492
 20
587.00560697473497
 40
0.500001
 50
90
 51
180
  0
LINE
  8
_0-0_0
  6
CONTINUOUS
 62
    2
 10
306.63306863858497
 20
587.50560497473487
 11
301.63306763858492
 21
587.50560497473487
  0
ARC
  8
_0-0_0
  6
CONTINUOUS
 62
    2
 10
306.63306863858497
 20
587.00560697473497
 40
0.500001
 50
0
 51
90
  0
LINE
  8
_0-0_0
  6
CONTINUOUS
 62
    2
 10
308.13306863858497
 20
581.10560597473489
 11
313.23306863858494
 21
581.10560597473489
  0
ARC
  8
_0-0_0
  6
CONTINUOUS
 62
    2
 10
308.13306863858497
 20
582.105604974735
 40
0.9999989999999996
 50
180
 51
270
  0
LINE
  8
_0-0_0
  6
CONTINUOUS
 62
    2
 10
307.13306663858503
 20
582.105604974735
 11
307.13306663858503
 21
587.00560697473497
  0
ARC
  8
_0-0_0
  6
CONTINUOUS
 62
    2
 10
308.63306663858503
 20
582.60560597473489
 40
0.2999999999999998
 50
180
 51
270
  0
LINE
  8
_0-0_0
  6
CONTINUOUS
 62
    2
 10
298.63306763858492
 20
573.00560597473486
 11
299.13306863858497
 21
573.00560597473486
  0
LINE
  8
_0-0_0
  6
CONTINUOUS
 62
    2
 10
299.13306863858497
 20
574.50560597473486
 11
298.63306763858492
 21
574.50560597473486
  0
LINE
  8
_0-0_0
  6
CONTINUOUS
 62
    2
 10
299.13306863858497
 20
587.50560497473487
 11
299.13306863858497
 21
574.50560597473486
  0
LINE
  8
_0-0_0
  6
CONTINUOUS
 62
    2
 10
298.63306763858492
 20
587.50560497473487
 11
299.13306863858497
 21
587.50560497473487
  0
ARC
  8
_0-0_0
  6
CONTINUOUS
 62
    2
 10
302.38306763858492
 20
570.25560497473487
 40
0.75
 50
0
 51
180
  0
LINE
  8
_0-0_0
  6
CONTINUOUS
 62
    1
 10
297.63306863858497
 20
599.70560597473502
 11
322.63306763858486
 21
599.70560597473502
  0
LINE
  8
_0-0_0
  6
CONTINUOUS
 62
    2
 10
309.63306863858497
 20
585.7056049747348
 11
309.63306863858497
 21
594.50560697473497
  0
ARC
  8
_0-0_0
  6
CONTINUOUS
 62
    2
 10
311.83306763858502
 20
585.7056049747348
 40
2.199999
 50
180
 51
270
  0
LINE
  8
_0-0_0
  6
CONTINUOUS
 62
    2
 10
311.83306763858502
 20
583.50560597473486
 11
328.63306763858486
 21
583.50560597473486
  0
LINE
  8
_0-0_0
  6
CONTINUOUS
 62
    2
 10
308.63306663858503
 20
596.70560597473502
 11
300.83306663858497
 21
596.70560597473502
  0
ARC
  8
_0-0_0
  6
CONTINUOUS
 62
    2
 10
308.63306663858503
 20
594.50560697473497
 40
2.199999
 50
0
 51
90
  0
LINE
  8
_0-0_0
  6
CONTINUOUS
 62
    2
 10
310.8330686385849
 20
594.50560697473497
 11
310.8330686385849
 21
585.7056049747348
  0
LINE
  8
_0-0_0
  6
CONTINUOUS
 62
    2
 10
328.63306763858486
 20
584.70560597473502
 11
311.83306763858502
 21
584.70560597473502
  0
ARC
  8
_0-0_0
  6
CONTINUOUS
 62
    2
 10
328.63306763858486
 20
582.50560697473497
 40
2.199999
 50
0
 51
90
  0
ARC
  8
_0-0_0
  6
CONTINUOUS
 62
    2
 10
328.63306763858486
 20
582.50560697473497
 40
0.9999989999999996
 50
0
 51
90
  0
ARC
  8
_0-0_0
  6
CONTINUOUS
 62
    2
 10
311.83306763858502
 20
585.7056049747348
 40
0.9999989999999996
 50
180
 51
270
  0
LINE
  8
_0-0_0
  6
CONTINUOUS
 62
    2
 10
308.63306663858503
 20
595.50560597473486
 11
299.13306863858497
 21
595.50560597473486
  0
ARC
  8
_0-0_0
  6
CONTINUOUS
 62
    2
 10
308.63306663858503
 20
594.50560697473497
 40
0.9999989999999996
 50
0
 51
90
  0
LINE
  8
_0-0_0
  6
CONTINUOUS
 62
    2
 10
310.8330686385849
 20
599.70560597473502
 11
310.8330686385849
 21
594.50560697473497
  0
LINE
  8
_0-0_0
  6
CONTINUOUS
 62
    1
 10
322.63306763858486
 20
620.71845197473499
 11
322.63306763858486
 21
599.70560597473502
  0
LINE
  8
_0-0_0
  6
CENTER1
 62
    3
 10
297.33508763858492
 20
591.50560697473497
 11
316.1519636385849
 21
591.50560697473497
  0
LINE
  8
_0-0_0
  6
DASHED1
 62
    3
 10
309.63306863858497
 20
589.50560597473486
 11
310.8330686385849
 21
589.50560597473486
  0
LINE
  8
_0-0_0
  6
DASHED1
 62
    3
 10
309.63306863858497
 20
593.50560497473487
 11
310.8330686385849
 21
593.50560497473487
  0
LINE
  8
_0-0_0
  6
DASHED1
 62
    3
 10
309.63306863858497
 20
590.00560697473497
 11
310.8330686385849
 21
590.00560697473497
  0
LINE
  8
_0-0_0
  6
DASHED1
 62
    3
 10
309.63306863858497
 20
593.00560697473497
 11
310.8330686385849
 21
593.00560697473497
  0
LINE
  8
_0-0_0
  6
CONTINUOUS
 62
    3
 10
300.83306663858497
 20
590.00560697473497
 11
309.63306863858497
 21
590.00560697473497
  0
LINE
  8
_0-0_0
  6
CONTINUOUS
 62
    3
 10
300.83306663858497
 20
593.00560697473497
 11
309.63306863858497
 21
593.00560697473497
  0
LINE
  8
_0-0_0
  6
CONTINUOUS
 62
    2
 10
309.03306863858501
 20
589.50560597473486
 11
309.63306863858497
 21
589.50560597473486
  0
LINE
  8
_0-0_0
  6
CONTINUOUS
 62
    2
 10
309.03306863858501
 20
593.50560497473487
 11
309.63306863858497
 21
593.50560497473487
  0
LINE
  8
_0-0_0
  6
CONTINUOUS
 62
    2
 10
300.83306663858497
 20
593.00560697473497
 11
300.83306663858497
 21
590.00560697473497
  0
LINE
  8
_0-0_0
  6
CONTINUOUS
 62
    2
 10
300.83306663858497
 20
590.00560697473497
 11
301.33306763858502
 21
589.50560597473486
  0
LINE
  8
_0-0_0
  6
CONTINUOUS
 62
    2
 10
301.33306763858502
 20
593.50560497473487
 11
301.33306763858502
 21
589.50560597473486
  0
LINE
  8
_0-0_0
  6
CONTINUOUS
 62
    2
 10
300.83306663858497
 20
593.00560697473497
 11
301.33306763858502
 21
593.50560497473487
  0
LINE
  8
_0-0_0
  6
CONTINUOUS
 62
    2
 10
300.83306663858497
 20
596.70560597473502
 11
300.83306663858497
 21
595.50560597473486
  0
LINE
  8
_0-0_0
  6
CONTINUOUS
 62
    2
 10
309.3330686385849
 20
587.30560697473493
 11
309.3330686385849
 21
583.80560597473482
  0
LINE
  8
_0-0_0
  6
CONTINUOUS
 62
    2
 10
308.33306663858497
 20
587.30560697473493
 11
309.3330686385849
 21
587.30560697473493
  0
ARC
  8
_0-0_0
  6
CONTINUOUS
 62
    2
 10
327.83306663858491
 20
581.80560497473493
 40
1.5
 50
0
 51
90
  0
LINE
  8
_0-0_0
  6
CONTINUOUS
 62
    2
 10
327.83306663858491
 20
583.30560497473493
 11
309.83306663858497
 21
583.30560497473493
  0
LINE
  8
_0-0_0
  6
CONTINUOUS
 62
    2
 10
327.83306663858491
 20
582.30560597473482
 11
308.63306663858503
 21
582.30560597473482
  0
ARC
  8
_0-0_0
  6
CONTINUOUS
 62
    2
 10
327.83306663858491
 20
581.80560497473493
 40
0.500001
 50
0
 51
90
  0
ARC
  8
_0-0_0
  6
CONTINUOUS
 62
    2
 10
309.83306663858497
 20
583.80560597473482
 40
0.500001
 50
180
 51
270
  0
LINE
  8
_0-0_0
  6
CONTINUOUS
 62
    3
 10
308.79295163858501
 20
587.30560697473493
 11
308.33306663858497
 21
586.84572197473483
  0
ARC
  8
_0-0_0
  6
CONTINUOUS
 62
    2
 10
309.83306663858497
 20
583.80560597473482
 40
1.5
 50
180
 51
270
  0
LINE
  8
_0-0_0
  6
CONTINUOUS
 62
    2
 10
328.98970763858483
 20
541.27422497473481
 11
328.89966263858491
 21
539.55608297473486
  0
LINE
  8
_0-0_0
  6
CONTINUOUS
 62
    2
 10
338.97600263858499
 20
540.75086597473489
 11
338.88595763858496
 21
539.03272397473484
  0
LINE
  8
_0-0_0
  6
CONTINUOUS
 62
    2
 10
301.63306763858492
 20
522.00560597473486
 11
312.38306663858503
 21
522.00560597473486
  0
ARC
  8
_0-0_0
  6
CONTINUOUS
 62
    2
 10
301.63306763858492
 20
522.50560697473509
 40
0.500001
 50
180
 51
270
  0
LINE
  8
_0-0_0
  6
CONTINUOUS
 62
    2
 10
301.13306663858503
 20
522.50560697473509
 11
301.13306663858503
 21
559.50560597473486
  0
LINE
  8
_0-0_0
  6
CONTINUOUS
 62
    2
 10
328.89966263858491
 20
539.55608297473486
 11
327.43425563858489
 21
511.59445697473495
  0
ARC
  8
_0-0_0
  6
CONTINUOUS
 62
    2
 10
299.13306863858497
 20
520.00560497473475
 40
0.500001
 50
0
 51
90
  0
LINE
  8
_0-0_0
  6
CONTINUOUS
 62
    2
 10
299.13306863858497
 20
520.50560597473486
 11
298.63306763858492
 21
520.50560597473486
  0
LINE
  8
_0-0_0
  6
CONTINUOUS
 62
    2
 10
307.38306863858497
 20
508.50560597473492
 11
298.63306763858492
 21
508.50560597473492
  0
LINE
  8
_0-0_0
  6
CONTINUOUS
 62
    2
 10
299.13306863858497
 20
510.00560597473492
 11
298.63306763858492
 21
510.00560597473492
  0
ARC
  8
_0-0_0
  6
CONTINUOUS
 62
    2
 10
299.13306863858497
 20
510.50560697473509
 40
0.500001
 50
270
 51
0
  0
LINE
  8
_0-0_0
  6
CONTINUOUS
 62
    2
 10
299.63306663858503
 20
510.50560697473509
 11
299.63306663858503
 21
520.00560497473475
  0
LINE
  8
_0-0_0
  6
CONTINUOUS
 62
    2
 10
301.13306663858503
 20
510.50560697473509
 11
301.13306663858503
 21
513.50560697473509
  0
LINE
  8
_0-0_0
  6
CONTINUOUS
 62
    2
 10
306.13306763858492
 20
510.00560597473492
 11
306.13306763858492
 21
509.50560497473475
  0
LINE
  8
_0-0_0
  6
CONTINUOUS
 62
    2
 10
305.13306863858497
 20
510.00560597473492
 11
306.13306763858492
 21
509.50560497473475
  0
LINE
  8
_0-0_0
  6
CONTINUOUS
 62
    2
 10
305.13306863858497
 20
510.00560597473492
 11
305.13306863858497
 21
509.50560497473475
  0
LINE
  8
_0-0_0
  6
CONTINUOUS
 62
    2
 10
304.13306663858503
 20
510.00560597473492
 11
305.13306863858497
 21
509.50560497473475
  0
ARC
  8
_0-0_0
  6
CONTINUOUS
 62
    2
 10
307.38306863858497
 20
509.25560597473492
 40
0.75
 50
270
 51
90
  0
LINE
  8
_0-0_0
  6
CONTINUOUS
 62
    2
 10
301.63306763858492
 20
510.00560597473492
 11
304.13306663858503
 21
510.00560597473492
  0
ARC
  8
_0-0_0
  6
CONTINUOUS
 62
    2
 10
301.63306763858492
 20
510.50560697473509
 40
0.500001
 50
180
 51
270
  0
ARC
  8
_0-0_0
  6
CONTINUOUS
 62
    2
 10
312.38306663858503
 20
521.25560597473486
 40
0.75
 50
270
 51
90
  0
ARC
  8
_0-0_0
  6
CONTINUOUS
 62
    2
 10
304.733066638585
 20
567.60560597473489
 40
0.5999999999999996
 50
90
 51
270
  0
ARC
  8
_0-0_0
  6
CONTINUOUS
 62
    2
 10
305.63306663858503
 20
568.70560697473491
 40
0.500001
 50
270
 51
0
  0
LINE
  8
_0-0_0
  6
CONTINUOUS
 62
    2
 10
305.63306663858503
 20
568.20560597473502
 11
304.733066638585
 21
568.20560597473502
  0
LINE
  8
_0-0_0
  6
CONTINUOUS
 62
    2
 10
306.63306863858497
 20
567.00560597473486
 11
304.733066638585
 21
567.00560597473486
  0
ARC
  8
_0-0_0
  6
CONTINUOUS
 62
    2
 10
306.63306863858497
 20
568.00560497473487
 40
0.9999989999999996
 50
270
 51
0
  0
LINE
  8
_0-0_0
  6
CONTINUOUS
 62
    2
 10
301.63306763858492
 20
520.50560597473486
 11
312.38306663858503
 21
520.50560597473486
  0
ARC
  8
_0-0_0
  6
CONTINUOUS
 62
    2
 10
301.63306763858492
 20
520.00560497473475
 40
0.500001
 50
90
 51
180
  0
LINE
  8
_0-0_0
  6
CONTINUOUS
 62
    2
 10
301.13306663858503
 20
520.00560497473475
 11
301.13306663858503
 21
516.00560597473486
  0
LINE
  8
_0-0_0
  6
CONTINUOUS
 62
    2
 10
311.13306863858497
 20
560.50560497473487
 11
311.13306863858497
 21
561.00560597473486
  0
ARC
  8
_0-0_0
  6
CONTINUOUS
 62
    2
 10
310.63306763858492
 20
560.50560497473487
 40
0.500001
 50
270
 51
0
  0
LINE
  8
_0-0_0
  6
CONTINUOUS
 62
    2
 10
310.63306763858492
 20
560.00560697473497
 11
301.63306763858492
 21
560.00560697473497
  0
ARC
  8
_0-0_0
  6
CONTINUOUS
 62
    2
 10
310.63306763858492
 20
561.00560597473486
 40
0.500001
 50
0
 51
90
  0
ARC
  8
_0-0_0
  6
CONTINUOUS
 62
    2
 10
301.63306763858492
 20
559.50560597473486
 40
0.500001
 50
90
 51
180
  0
ARC
  8
_0-0_0
  6
CONTINUOUS
 62
    2
 10
307.38306863858497
 20
514.75560497473475
 40
0.75
 50
270
 51
90
  0
LINE
  8
_0-0_0
  6
CONTINUOUS
 62
    2
 10
306.13306763858492
 20
514.50560597473486
 11
306.13306763858492
 21
514.00560497473475
  0
LINE
  8
_0-0_0
  6
CONTINUOUS
 62
    2
 10
305.13306863858497
 20
514.00560497473475
 11
306.13306763858492
 21
514.50560597473486
  0
LINE
  8
_0-0_0
  6
CONTINUOUS
 62
    2
 10
305.13306863858497
 20
514.50560597473486
 11
305.13306863858497
 21
514.00560497473475
  0
LINE
  8
_0-0_0
  6
CONTINUOUS
 62
    2
 10
304.13306663858503
 20
514.00560497473475
 11
305.13306863858497
 21
514.50560597473486
  0
LINE
  8
_0-0_0
  6
CONTINUOUS
 62
    2
 10
301.63306763858492
 20
514.00560497473475
 11
304.13306663858503
 21
514.00560497473475
  0
ARC
  8
_0-0_0
  6
CONTINUOUS
 62
    2
 10
301.63306763858492
 20
513.50560697473509
 40
0.500001
 50
90
 51
180
  0
ARC
  8
_0-0_0
  6
CONTINUOUS
 62
    2
 10
301.63306763858492
 20
516.00560597473486
 40
0.500001
 50
180
 51
270
  0
LINE
  8
_0-0_0
  6
CONTINUOUS
 62
    2
 10
301.63306763858492
 20
515.50560497473475
 11
307.38306863858497
 21
515.50560497473475
  0
LINE
  8
_0-0_0
  6
CONTINUOUS
 62
    2
 10
301.63306763858492
 20
561.50560697473497
 11
310.63306763858492
 21
561.50560697473497
  0
ARC
  8
_0-0_0
  6
CONTINUOUS
 62
    2
 10
301.63306763858492
 20
562.00560497473487
 40
0.500001
 50
180
 51
270
  0
LINE
  8
_0-0_0
  6
CONTINUOUS
 62
    2
 10
301.13306663858503
 20
540.50560697473509
 11
300.63306863858497
 21
541.00560497473475
  0
LINE
  8
_0-0_0
  6
CONTINUOUS
 62
    2
 10
301.13306663858503
 20
541.50560597473486
 11
300.63306863858497
 21
541.00560497473475
  0
LINE
  8
_0-0_0
  6
CONTINUOUS
 62
    2
 10
299.13306863858497
 20
522.00560597473486
 11
298.63306763858492
 21
522.00560597473486
  0
LINE
  8
_0-0_0
  6
CONTINUOUS
 62
    2
 10
299.13306863858497
 20
536.00560697473509
 11
299.13306863858497
 21
522.00560597473486
  0
LINE
  8
_0-0_0
  6
CONTINUOUS
 62
    2
 10
298.63306763858492
 20
536.00560697473509
 11
299.13306863858497
 21
536.00560697473509
  0
LINE
  8
_0-0_0
  6
CONTINUOUS
 62
    2
 10
298.63306763858492
 20
546.00560597473486
 11
299.13306863858497
 21
546.00560597473486
  0
LINE
  8
_0-0_0
  6
CONTINUOUS
 62
    2
 10
299.13306863858497
 20
560.00560697473497
 11
299.13306863858497
 21
546.00560597473486
  0
LINE
  8
_0-0_0
  6
CONTINUOUS
 62
    2
 10
298.63306763858492
 20
560.00560697473497
 11
299.13306863858497
 21
560.00560697473497
  0
LINE
  8
_0-0_0
  6
CONTINUOUS
 62
    2
 10
299.13306863858497
 20
561.50560697473497
 11
298.63306763858492
 21
561.50560697473497
  0
LINE
  8
_0-0_0
  6
CONTINUOUS
 62
    2
 10
308.73306863858494
 20
528.50560697473509
 11
308.73306863858494
 21
556.50560597473486
  0
LINE
  8
_0-0_0
  6
CONTINUOUS
 62
    2
 10
306.73306763858488
 20
527.00560697473509
 11
306.73306763858488
 21
557.00560697473497
  0
LINE
  8
_0-0_0
  6
CONTINUOUS
 62
    2
 10
320.68073063858492
 20
517.45594097473486
 11
325.72484663858495
 21
517.19158997473482
  0
ARC
  8
_0-0_0
  6
CONTINUOUS
 62
    2
 10
320.73306863858488
 20
518.4545719747349
 40
0.9999989999999996
 50
180.00000000000006
 51
267.00000000000006
  0
LINE
  8
_0-0_0
  6
CONTINUOUS
 62
    2
 10
319.733066638585
 20
518.4545719747349
 11
319.733066638585
 21
525.50560697473509
  0
LINE
  8
_0-0_0
  6
CONTINUOUS
 62
    2
 10
317.23306763858488
 20
516.53043797473492
 11
317.23306763858488
 21
524.00560697473509
  0
ARC
  8
_0-0_0
  6
CONTINUOUS
 62
    2
 10
319.23306863858488
 20
516.53043797473492
 40
2.0000010000000001
 50
180.00000000000006
 51
267.00000000000006
  0
LINE
  8
_0-0_0
  6
CONTINUOUS
 62
    2
 10
319.12839563858483
 20
514.53317897473494
 11
326.06715263858496
 21
514.1695339747348
  0
LINE
  8
_0-0_0
  6
CONTINUOUS
 62
    2
 10
317.73306863858488
 20
527.50560497473475
 11
309.73306763858488
 21
527.50560497473475
  0
ARC
  8
_0-0_0
  6
CONTINUOUS
 62
    2
 10
317.73306863858488
 20
525.50560697473509
 40
2.0000010000000001
 50
0
 51
90
  0
LINE
  8
_0-0_0
  6
CONTINUOUS
 62
    2
 10
316.23306863858494
 20
525.00560597473486
 11
305.73306863858494
 21
525.00560597473486
  0
ARC
  8
_0-0_0
  6
CONTINUOUS
 62
    2
 10
316.23306863858494
 20
524.00560697473509
 40
0.9999989999999996
 50
0
 51
90
  0
ARC
  8
_0-0_0
  6
CONTINUOUS
 62
    2
 10
309.73306763858488
 20
528.50560697473509
 40
0.9999989999999996
 50
180
 51
270
  0
LINE
  8
_0-0_0
  6
CONTINUOUS
 62
    2
 10
306.233066638585
 20
526.50560597473486
 11
304.733066638585
 21
526.50560597473486
  0
ARC
  8
_0-0_0
  6
CONTINUOUS
 62
    2
 10
306.233066638585
 20
527.00560697473509
 40
0.500001
 50
270
 51
0
  0
ARC
  8
_0-0_0
  6
CONTINUOUS
 62
    2
 10
305.73306863858494
 20
524.50560497473475
 40
0.500001
 50
90
 51
180
  0
LINE
  8
_0-0_0
  6
CONTINUOUS
 62
    2
 10
305.23306763858488
 20
524.50560497473475
 11
305.23306763858488
 21
522.75560597473486
  0
LINE
  8
_0-0_0
  6
CONTINUOUS
 62
    2
 10
326.25032663858497
 20
517.66473797473486
 11
326.35109963858497
 21
519.58760297473486
  0
ARC
  8
_0-0_0
  6
CONTINUOUS
 62
    2
 10
325.75101263858505
 20
517.69090397473474
 40
0.500001
 50
267
 51
357.00000000000023
  0
LINE
  8
_0-0_0
  6
CONTINUOUS
 62
    2
 10
326.06715263858496
 20
514.1695339747348
 11
325.988648638585
 21
512.67158897473507
  0
ARC
  8
_0-0_0
  6
CONTINUOUS
 62
    2
 10
304.48306763858488
 20
522.75560597473486
 40
0.75
 50
180
 51
0
  0
ARC
  8
_0-0_0
  6
CONTINUOUS
 62
    2
 10
304.733066638585
 20
525.50560697473509
 40
0.9999989999999996
 50
90
 51
180
  0
LINE
  8
_0-0_0
  6
CONTINUOUS
 62
    2
 10
303.73306763858488
 20
525.50560697473509
 11
303.73306763858488
 21
522.75560597473486
  0
LINE
  8
_0-0_0
  6
CONTINUOUS
 62
    2
 10
326.87658263858498
 20
520.06075097473467
 11
327.37589963858488
 21
520.03458197473492
  0
ARC
  8
_0-0_0
  6
CONTINUOUS
 62
    2
 10
326.85041663858499
 20
519.56143697473476
 40
0.500001
 50
87
 51
176.99999999999997
  0
ARC
  8
_0-0_0
  6
CONTINUOUS
 62
    2
 10
326.48796263858492
 20
512.64542297473497
 40
0.500001
 50
177.00000000000003
 51
267.00000000000006
  0
ARC
  8
_0-0_0
  6
CONTINUOUS
 62
    2
 10
327.3497306385849
 20
519.53526797473489
 40
0.500001
 50
357.00000000000006
 51
87.000000000000028
  0
LINE
  8
_0-0_0
  6
CONTINUOUS
 62
    2
 10
326.46179363858494
 20
512.14610597473484
 11
326.96111063858484
 21
512.11993997473473
  0
ARC
  8
_0-0_0
  6
CONTINUOUS
 62
    2
 10
326.98727663858494
 20
512.61925397473487
 40
0.500001
 50
267
 51
357.00000000000023
  0
ARC
  8
_0-0_0
  6
DASHED1
 62
    3
 10
356.10454163858503
 20
514.09739897473492
 40
1.5
 50
267
 51
87.000000000000185
  0
LINE
  8
_0-0_0
  6
CONTINUOUS
 62
    2
 10
314.73306863858494
 20
550.00560497473487
 11
313.733066638585
 21
550.00560497473487
  0
ARC
  8
_0-0_0
  6
CONTINUOUS
 62
    2
 10
314.73306863858494
 20
550.50560597473486
 40
0.500001
 50
270
 51
0
  0
LINE
  8
_0-0_0
  6
CONTINUOUS
 62
    2
 10
315.233066638585
 20
550.50560597473486
 11
315.233066638585
 21
564.00560597473486
  0
LINE
  8
_0-0_0
  6
CONTINUOUS
 62
    2
 10
308.23306763858488
 20
558.50560697473497
 11
312.73100963858496
 21
558.50560697473497
  0
ARC
  8
_0-0_0
  6
CONTINUOUS
 62
    2
 10
308.23306763858488
 20
557.00560697473497
 40
1.5
 50
90
 51
180
  0
LINE
  8
_0-0_0
  6
CONTINUOUS
 62
    2
 10
314.23306763858488
 20
565.00560497473487
 11
306.63306863858497
 21
565.00560497473487
  0
ARC
  8
_0-0_0
  6
CONTINUOUS
 62
    2
 10
314.23306763858488
 20
564.00560597473486
 40
0.9999989999999996
 50
0
 51
90
  0
LINE
  8
_0-0_0
  6
CONTINUOUS
 62
    2
 10
309.233066638585
 20
557.00560697473497
 11
313.23306863858494
 21
557.00560697473497
  0
ARC
  8
_0-0_0
  6
CONTINUOUS
 62
    2
 10
309.233066638585
 20
556.50560597473486
 40
0.500001
 50
90
 51
180
  0
LINE
  8
_0-0_0
  6
CONTINUOUS
 62
    2
 10
306.23472263858491
 20
563.50560497473487
 11
306.23472263858491
 21
562.10560697473488
  0
ARC
  8
_0-0_0
  6
CONTINUOUS
 62
    2
 10
313.23101063858502
 20
563.00560697473497
 40
0.500001
 50
0
 51
90
  0
LINE
  8
_0-0_0
  6
CONTINUOUS
 62
    2
 10
313.73100863858491
 20
559.50560597473486
 11
313.73100863858491
 21
563.00560697473497
  0
ARC
  8
_0-0_0
  6
CONTINUOUS
 62
    2
 10
312.73100963858496
 20
559.50560597473486
 40
0.9999989999999996
 50
270
 51
0
  0
LINE
  8
_0-0_0
  6
CONTINUOUS
 62
    2
 10
313.733066638585
 20
556.50560597473486
 11
313.733066638585
 21
552.00560597473486
  0
ARC
  8
_0-0_0
  6
CONTINUOUS
 62
    2
 10
313.23306863858494
 20
556.50560597473486
 40
0.500001
 50
0
 51
90
  0
ARC
  8
_0-0_0
  6
CONTINUOUS
 62
    2
 10
313.733066638585
 20
551.00560697473497
 40
0.9999989999999996
 50
90
 51
270
  0
ARC
  8
_0-0_0
  6
CONTINUOUS
 62
    2
 10
303.13306763858492
 20
567.00560597473486
 40
1.5
 50
180
 51
240.25511899999998
  0
LINE
  8
_0-0_0
  6
CONTINUOUS
 62
    2
 10
302.38886063858496
 20
565.70324297473485
 11
306.23472263858491
 21
563.50560497473487
  0
LINE
  8
_0-0_0
  6
CONTINUOUS
 62
    2
 10
307.43472263858501
 20
563.50560497473487
 11
313.23101063858502
 21
563.50560497473487
  0
LINE
  8
_0-0_0
  6
CONTINUOUS
 62
    2
 10
307.43472263858501
 20
562.10560697473488
 11
307.43472263858501
 21
563.50560497473487
  0
LINE
  8
_0-0_0
  6
CONTINUOUS
 62
    2
 10
303.13306763858492
 20
567.00560597473486
 11
306.63306863858497
 21
565.00560497473487
  0
ARC
  8
_0-0_0
  6
CONTINUOUS
 62
    2
 10
306.83472263858505
 20
562.10560697473488
 40
0.5999999999999996
 50
180
 51
0
  0
LINE
  8
_0-0_0
  6
CONTINUOUS
 62
    2
 10
307.38306863858497
 20
510.00560597473492
 11
306.13306763858492
 21
510.00560597473492
  0
LINE
  8
_0-0_0
  6
CONTINUOUS
 62
    2
 10
307.38306863858497
 20
514.00560497473475
 11
306.13306763858492
 21
514.00560497473475
  0
ARC
  8
_0-0_0
  6
CONTINUOUS
 62
    2
 10
328.63306763858486
 20
550.90560497473484
 40
2.199999
 50
270
 51
0
  0
ARC
  8
_0-0_0
  6
CONTINUOUS
 62
    2
 10
328.63306763858486
 20
550.90560497473484
 40
0.9999989999999996
 50
270
 51
0
  0
LINE
  8
_0-0_0
  6
CONTINUOUS
 62
    2
 10
328.63306763858486
 20
549.90560597473495
 11
320.83306763858502
 21
549.90560597473495
  0
LINE
  8
_0-0_0
  6
DASHED1
 62
    3
 10
301.63306763858492
 20
558.44657297473498
 11
306.13306763858492
 21
558.44657297473498
  0
LINE
  8
_0-0_0
  6
DASHED1
 62
    3
 10
284.7184256385849
 20
538.74598097473506
 11
285.63306863858497
 21
537.00560597473486
  0
LINE
  8
_0-0_0
  6
DASHED1
 62
    3
 10
285.63306863858497
 20
537.00560597473486
 11
297.63306863858497
 21
537.00560597473486
  0
LINE
  8
_0-0_0
  6
DASHED1
 62
    3
 10
277.83269063858501
 20
544.56466397473503
 11
282.8326886385849
 21
546.38451497473488
  0
LINE
  8
_0-0_0
  6
DASHED1
 62
    3
 10
277.83269063858501
 20
545.628841974735
 11
282.49067063858502
 21
547.32420797473492
  0
LINE
  8
_0-0_0
  6
DASHED1
 62
    3
 10
277.83269063858501
 20
537.44654897473492
 11
282.8326886385849
 21
535.62669797473507
  0
LINE
  8
_0-0_0
  6
DASHED1
 62
    3
 10
282.49067063858502
 20
534.68700497473492
 11
289.29429263858503
 21
533.69464997473483
  0
ARC
  8
_0-0_0
  6
DASHED1
 62
    3
 10
289.35202463858491
 20
534.09046097473492
 40
0.3999989999999996
 50
261.70153399999998
 51
351.86989799999998
  0
LINE
  8
_0-0_0
  6
DASHED1
 62
    3
 10
289.74800363858498
 20
534.03389297473507
 11
289.77611963858493
 21
534.23071697473483
  0
ARC
  8
_0-0_0
  6
DASHED1
 62
    3
 10
289.38014063858503
 20
534.28728797473491
 40
0.3999989999999996
 50
351.86989800000003
 51
81.869898000000049
  0
LINE
  8
_0-0_0
  6
DASHED1
 62
    3
 10
289.43670863858495
 20
534.68326697473481
 11
282.8326886385849
 21
535.62669797473507
  0
LINE
  8
_0-0_0
  6
DASHED1
 62
    3
 10
282.49067063858502
 20
547.32420797473492
 11
289.29429263858503
 21
548.31656297473501
  0
ARC
  8
_0-0_0
  6
DASHED1
 62
    3
 10
289.35202463858491
 20
547.92074897473481
 40
0.3999989999999996
 50
8.1301019999999866
 51
98.298465999999991
  0
LINE
  8
_0-0_0
  6
DASHED1
 62
    3
 10
289.74800363858498
 20
547.97731997473488
 11
289.77611963858493
 21
547.78049297473478
  0
ARC
  8
_0-0_0
  6
DASHED1
 62
    3
 10
289.38014063858503
 20
547.72392497473493
 40
0.3999989999999996
 50
278.13010200000008
 51
8.1301020000000506
  0
LINE
  8
_0-0_0
  6
DASHED1
 62
    3
 10
289.63306763858492
 20
541.50560597473486
 11
289.63306763858492
 21
541.00560497473475
  0
LINE
  8
_0-0_0
  6
DASHED1
 62
    3
 10
285.63306863858497
 20
545.00560697473497
 11
284.7184256385849
 21
543.2652289747349
  0
LINE
  8
_0-0_0
  6
DASHED1
 62
    3
 10
297.63306863858497
 20
546.00560597473486
 11
292.63306763858492
 21
545.00560697473497
  0
LINE
  8
_0-0_0
  6
DASHED1
 62
    3
 10
297.63306863858497
 20
542.00560697473509
 11
292.63306763858492
 21
541.00560497473475
  0
LINE
  8
_0-0_0
  6
DASHED1
 62
    3
 10
297.63306863858497
 20
540.00560597473486
 11
292.63306763858492
 21
541.00560497473475
  0
LINE
  8
_0-0_0
  6
DASHED1
 62
    3
 10
292.63306763858492
 20
541.00560497473475
 11
297.63306863858497
 21
541.00560497473475
  0
LINE
  8
_0-0_0
  6
DASHED1
 62
    3
 10
263.50251263858502
 20
542.8750519747349
 11
261.63306863858497
 21
541.00560497473475
  0
LINE
  8
_0-0_0
  6
DASHED1
 62
    3
 10
284.7184256385849
 20
543.2652289747349
 11
282.72116663858492
 21
543.36990197473494
  0
LINE
  8
_0-0_0
  6
DASHED1
 62
    3
 10
282.72116663858492
 20
543.36990197473494
 11
282.82583663858497
 21
545.36716097473482
  0
LINE
  8
_0-0_0
  6
DASHED1
 62
    3
 10
282.82583663858497
 20
545.36716097473482
 11
280.82857763858499
 21
545.47183397473486
  0
LINE
  8
_0-0_0
  6
DASHED1
 62
    3
 10
260.67281063858496
 20
543.02334797473497
 11
260.85598763858496
 21
546.51855197473492
  0
LINE
  8
_0-0_0
  6
DASHED1
 62
    3
 10
260.85598763858496
 20
546.51855197473492
 11
258.75405563858493
 21
544.62596597473498
  0
LINE
  8
_0-0_0
  6
DASHED1
 62
    3
 10
258.75405563858493
 20
544.62596597473498
 11
258.67555163858498
 21
543.12802097473502
  0
LINE
  8
_0-0_0
  6
DASHED1
 62
    3
 10
258.67555163858498
 20
543.12802097473502
 11
289.63306763858492
 21
541.50560597473486
  0
LINE
  8
_0-0_0
  6
DASHED1
 62
    3
 10
280.82857763858499
 20
545.47183397473486
 11
279.72527663858494
 21
543.52690997473496
  0
LINE
  8
_0-0_0
  6
DASHED1
 62
    3
 10
279.72527663858494
 20
543.52690997473496
 11
277.72801763858496
 21
543.6315829747349
  0
LINE
  8
_0-0_0
  6
DASHED1
 62
    3
 10
277.72801763858496
 20
543.6315829747349
 11
277.83269063858501
 21
545.628841974735
  0
LINE
  8
_0-0_0
  6
DASHED1
 62
    3
 10
277.83269063858501
 20
545.628841974735
 11
275.83543163858502
 21
545.73351197473482
  0
LINE
  8
_0-0_0
  6
DASHED1
 62
    3
 10
275.83543163858502
 20
545.73351197473482
 11
274.73212763858498
 21
543.78859097473503
  0
LINE
  8
_0-0_0
  6
DASHED1
 62
    3
 10
274.73212763858498
 20
543.78859097473503
 11
272.734868638585
 21
543.89326097473486
  0
LINE
  8
_0-0_0
  6
DASHED1
 62
    3
 10
272.734868638585
 20
543.89326097473486
 11
272.83954163858505
 21
545.89051997473484
  0
LINE
  8
_0-0_0
  6
DASHED1
 62
    3
 10
272.83954163858505
 20
545.89051997473484
 11
270.84228263858489
 21
545.99519297473478
  0
LINE
  8
_0-0_0
  6
DASHED1
 62
    3
 10
270.84228263858489
 20
545.99519297473478
 11
269.73898163858502
 21
544.05026897473499
  0
LINE
  8
_0-0_0
  6
DASHED1
 62
    3
 10
269.73898163858502
 20
544.05026897473499
 11
267.74172263858503
 21
544.15494197473481
  0
LINE
  8
_0-0_0
  6
DASHED1
 62
    3
 10
267.74172263858503
 20
544.15494197473481
 11
267.84639263858492
 21
546.15220097473502
  0
LINE
  8
_0-0_0
  6
DASHED1
 62
    3
 10
267.84639263858492
 20
546.15220097473502
 11
265.84913363858493
 21
546.25687397473484
  0
LINE
  8
_0-0_0
  6
DASHED1
 62
    3
 10
265.84913363858493
 20
546.25687397473484
 11
264.74583263858489
 21
544.31194997473494
  0
LINE
  8
_0-0_0
  6
DASHED1
 62
    3
 10
264.74583263858489
 20
544.31194997473494
 11
262.7485736385849
 21
544.416619974735
  0
LINE
  8
_0-0_0
  6
DASHED1
 62
    3
 10
262.7485736385849
 20
544.416619974735
 11
262.85324663858495
 21
546.41387897473498
  0
LINE
  8
_0-0_0
  6
DASHED1
 62
    3
 10
262.85324663858495
 20
546.41387897473498
 11
260.85598763858496
 21
546.51855197473492
  0
LINE
  8
_0-0_0
  6
DASHED1
 62
    3
 10
289.63306763858492
 20
540.50560697473509
 11
289.63306763858492
 21
541.00560497473475
  0
LINE
  8
_0-0_0
  6
DASHED1
 62
    3
 10
297.63306863858497
 20
536.00560697473509
 11
292.63306763858492
 21
537.00560597473486
  0
LINE
  8
_0-0_0
  6
DASHED1
 62
    3
 10
284.7184256385849
 20
538.74598097473506
 11
282.72116663858492
 21
538.64131097473478
  0
LINE
  8
_0-0_0
  6
DASHED1
 62
    3
 10
282.72116663858492
 20
538.64131097473478
 11
282.82583663858497
 21
536.64405197473479
  0
LINE
  8
_0-0_0
  6
DASHED1
 62
    3
 10
282.82583663858497
 20
536.64405197473479
 11
280.82857763858499
 21
536.53937897473475
  0
LINE
  8
_0-0_0
  6
DASHED1
 62
    3
 10
260.67281063858496
 20
538.98786497473498
 11
260.85598763858496
 21
535.49266097473492
  0
LINE
  8
_0-0_0
  6
DASHED1
 62
    3
 10
260.85598763858496
 20
535.49266097473492
 11
258.75405563858493
 21
537.38524697473486
  0
LINE
  8
_0-0_0
  6
DASHED1
 62
    3
 10
258.75405563858493
 20
537.38524697473486
 11
258.67555163858498
 21
538.88319197473493
  0
LINE
  8
_0-0_0
  6
DASHED1
 62
    3
 10
258.67555163858498
 20
538.88319197473493
 11
289.63306763858492
 21
540.50560697473509
  0
LINE
  8
_0-0_0
  6
DASHED1
 62
    3
 10
280.82857763858499
 20
536.53937897473475
 11
279.72527663858494
 21
538.48430297473487
  0
LINE
  8
_0-0_0
  6
DASHED1
 62
    3
 10
279.72527663858494
 20
538.48430297473487
 11
277.72801763858496
 21
538.37962997473483
  0
LINE
  8
_0-0_0
  6
DASHED1
 62
    3
 10
277.72801763858496
 20
538.37962997473483
 11
277.83269063858501
 21
536.38237097473484
  0
LINE
  8
_0-0_0
  6
DASHED1
 62
    3
 10
277.83269063858501
 20
536.38237097473484
 11
275.83543163858502
 21
536.27770097473501
  0
LINE
  8
_0-0_0
  6
DASHED1
 62
    3
 10
275.83543163858502
 20
536.27770097473501
 11
274.73212763858498
 21
538.22262197473492
  0
LINE
  8
_0-0_0
  6
DASHED1
 62
    3
 10
274.73212763858498
 20
538.22262197473492
 11
272.734868638585
 21
538.11795197473509
  0
LINE
  8
_0-0_0
  6
DASHED1
 62
    3
 10
272.734868638585
 20
538.11795197473509
 11
272.83954163858505
 21
536.12069297473511
  0
LINE
  8
_0-0_0
  6
DASHED1
 62
    3
 10
272.83954163858505
 20
536.12069297473511
 11
270.84228263858489
 21
536.01601997473506
  0
LINE
  8
_0-0_0
  6
DASHED1
 62
    3
 10
270.84228263858489
 20
536.01601997473506
 11
269.73898163858502
 21
537.96094397473485
  0
LINE
  8
_0-0_0
  6
DASHED1
 62
    3
 10
269.73898163858502
 20
537.96094397473485
 11
267.74172263858503
 21
537.85627097473514
  0
LINE
  8
_0-0_0
  6
DASHED1
 62
    3
 10
267.74172263858503
 20
537.85627097473514
 11
267.84639263858492
 21
535.85901197473481
  0
LINE
  8
_0-0_0
  6
DASHED1
 62
    3
 10
267.84639263858492
 20
535.85901197473481
 11
265.84913363858493
 21
535.75433897473511
  0
LINE
  8
_0-0_0
  6
DASHED1
 62
    3
 10
265.84913363858493
 20
535.75433897473511
 11
264.74583263858489
 21
537.69926297473467
  0
LINE
  8
_0-0_0
  6
DASHED1
 62
    3
 10
264.74583263858489
 20
537.69926297473467
 11
262.7485736385849
 21
537.59458997473484
  0
LINE
  8
_0-0_0
  6
DASHED1
 62
    3
 10
262.7485736385849
 20
537.59458997473484
 11
262.85324663858495
 21
535.59733097473486
  0
LINE
  8
_0-0_0
  6
DASHED1
 62
    3
 10
262.85324663858495
 20
535.59733097473486
 11
260.85598763858496
 21
535.49266097473492
  0
LINE
  8
_0-0_0
  6
DASHED1
 62
    3
 10
263.50251263858502
 20
539.13616097473493
 11
261.63306863858497
 21
541.00560497473475
  0
LINE
  8
_0-0_0
  6
DASHED1
 62
    3
 10
289.43670863858495
 20
547.3279459747348
 11
282.8326886385849
 21
546.38451497473488
  0
LINE
  8
_0-0_0
  6
DASHED1
 62
    3
 10
277.83269063858501
 20
536.38237097473484
 11
282.49067063858502
 21
534.68700497473492
  0
LINE
  8
_0-0_0
  6
DASHED1
 62
    3
 10
285.63306863858497
 20
545.00560697473497
 11
297.63306863858497
 21
545.00560697473497
  0
LINE
  8
_0-0_0
  6
CONTINUOUS
 62
    2
 10
328.33306763858502
 20
552.30560597473482
 11
329.33306663858491
 21
552.30560597473482
  0
LINE
  8
_0-0_0
  6
CONTINUOUS
 62
    3
 10
328.95859463858494
 20
552.30560597473482
 11
329.33306663858491
 21
552.68007797473479
  0
ARC
  8
_0-0_0
  6
DASHED1
 62
    3
 10
309.13306763858492
 20
545.31898397473492
 40
7.5
 50
180.00000000000006
 51
267.00000000000006
  0
LINE
  8
_0-0_0
  6
DASHED1
 62
    3
 10
301.63306763858492
 20
545.31898397473492
 11
301.63306763858492
 21
558.44657297473498
  0
LINE
  8
_0-0_0
  6
DASHED1
 62
    3
 10
308.97605963858501
 20
542.32309697473499
 11
313.47605963858501
 21
542.08726097473493
  0
ARC
  8
_0-0_0
  6
DASHED1
 62
    3
 10
309.13306763858492
 20
545.31898397473492
 40
3
 50
180.00000000000006
 51
267.00000000000006
  0
LINE
  8
_0-0_0
  6
DASHED1
 62
    3
 10
306.13306763858492
 20
545.31898397473492
 11
306.13306763858492
 21
558.44657297473498
  0
LINE
  8
_0-0_0
  6
CONTINUOUS
 62
    2
 10
312.63306863858497
 20
545.08314797473497
 11
312.63306863858497
 21
556.13418497473492
  0
ARC
  8
_0-0_0
  6
CONTINUOUS
 62
    2
 10
313.63306763858492
 20
545.08314797473497
 40
0.9999989999999996
 50
180.00000000000006
 51
267.00000000000006
  0
LINE
  8
_0-0_0
  6
CONTINUOUS
 62
    2
 10
310.63306763858492
 20
545.08314797473497
 11
310.63306763858492
 21
556.13418497473492
  0
ARC
  8
_0-0_0
  6
CONTINUOUS
 62
    2
 10
313.63306763858492
 20
545.08314797473497
 40
3
 50
180.00000000000006
 51
267.00000000000006
  0
LINE
  8
_0-0_0
  6
CONTINUOUS
 62
    2
 10
310.63306763858492
 20
556.13418497473492
 11
312.63306863858497
 21
556.13418497473492
  0
LINE
  8
_0-0_0
  6
CONTINUOUS
 62
    3
 10
331.88051663858494
 20
541.12272497473498
 11
330.24345263858504
 21
539.48565797473498
  0
LINE
  8
_0-0_0
  6
CONTINUOUS
 62
    3
 10
333.22430663858495
 20
541.05229997473509
 11
331.58723963858495
 21
539.41523297473498
  0
LINE
  8
_0-0_0
  6
CONTINUOUS
 62
    3
 10
334.56809363858486
 20
540.98187497473486
 11
332.93102963858496
 21
539.34480797473509
  0
LINE
  8
_0-0_0
  6
CONTINUOUS
 62
    3
 10
335.91188363858498
 20
540.91144997473475
 11
334.27481663858487
 21
539.27438297473486
  0
LINE
  8
_0-0_0
  6
CONTINUOUS
 62
    3
 10
337.255670638585
 20
540.84102497473486
 11
335.61860663858499
 21
539.20395797473475
  0
LINE
  8
_0-0_0
  6
CONTINUOUS
 62
    3
 10
338.5994606385849
 20
540.77059997473498
 11
336.96239363858501
 21
539.13353297473486
  0
LINE
  8
_0-0_0
  6
CONTINUOUS
 62
    3
 10
338.30618363858491
 20
539.06310797473498
 11
338.9197046385849
 21
539.67662897473474
  0
LINE
  8
_0-0_0
  6
CONTINUOUS
 62
    3
 10
330.54747863858495
 20
541.19258597473493
 11
328.91041463858505
 21
539.55551897473492
  0
LINE
  8
_0-0_0
  6
CONTINUOUS
 62
    3
 10
329.1929396385849
 20
541.26357497473487
 11
328.97787863858491
 21
541.04851097473488
  0
LINE
  8
_0-0_0
  6
CONTINUOUS
 62
    3
 10
321.84551363858486
 20
547.70560697473491
 11
321.83290763858497
 21
547.69502897473501
  0
LINE
  8
_0-0_0
  6
CONTINUOUS
 62
    2
 10
297.63306863858497
 20
595.50560597473486
 11
298.63306763858492
 21
595.50560597473486
  0
LINE
  8
_0-0_0
  6
CONTINUOUS
 62
    2
 10
298.63306763858492
 20
595.50560597473486
 11
298.63306763858492
 21
508.50560597473492
  0
ARC
  8
_0-0_0
  6
CONTINUOUS
 62
    2
 10
340.63306763858486
 20
592.20560597473502
 40
19.5
 50
157.38013499999997
 51
202.619865
  0
LINE
  8
_0-0_0
  6
CONTINUOUS
 62
    4
 10
310.8330686385849
 20
629.26090522061202
 11
330.83306663858491
 21
629.26090522061202
  0
LINE
  8
_0-0_0
  6
CONTINUOUS
 62
    4
 10
310.8330686385849
 20
629.26090522061202
 11
314.69677194374111
 21
630.29618140102218
  0
LINE
  8
_0-0_0
  6
CONTINUOUS
 62
    4
 10
310.8330686385849
 20
629.26090522061202
 11
314.69677194374111
 21
628.22562904020185
  0
LINE
  8
_0-0_0
  6
CONTINUOUS
 62
    4
 10
330.83306663858491
 20
629.26090522061202
 11
326.96936333342865
 21
630.29618140102218
  0
LINE
  8
_0-0_0
  6
CONTINUOUS
 62
    4
 10
330.83306663858491
 20
629.26090522061202
 11
326.96936333342865
 21
628.22562904020185
  0
LINE
  8
_0-0_0
  6
CONTINUOUS
 62
    4
 10
310.8330686385849
 20
631.2609052206119
 11
310.8330686385849
 21
605.70560597473502
  0
LINE
  8
_0-0_0
  6
CONTINUOUS
 62
    4
 10
330.83306663858491
 20
631.2609052206119
 11
330.83306663858491
 21
588.50560697473497
  0
LINE
  8
_0-0_0
  6
CONTINUOUS
 62
    4
 10
330.83306663858491
 20
653.57723077715605
 11
330.83306663858491
 21
637.2609052206119
  0
CIRCLE
  8
_0-4_図枠
  6
CONTINUOUS
 62
    4
 10
284.05639132700492
 20
631.13359426046782
 40
6
  0
LINE
  8
_0-4_図枠
  6
CONTINUOUS
 62
    4
 10
306.8664075447569
 20
591.62548724985186
 11
287.05639132700492
 21
625.93744183776084
  0
CIRCLE
  8
_0-4_図枠
  6
CONTINUOUS
 62
    4
 10
306.8664075447569
 20
591.62548724985186
 40
0.8999999999999999
  0
CIRCLE
  8
_0-4_図枠
  6
CONTINUOUS
 62
    4
 10
283.28232492154785
 20
610.41797523031505
 40
6
  0
LINE
  8
_0-4_図枠
  6
CONTINUOUS
 62
    4
 10
304.40144016422079
 20
573.83859461910231
 11
286.28232492154785
 21
605.22182280760808
  0
CIRCLE
  8
_0-4_図枠
  6
CONTINUOUS
 62
    4
 10
304.40144016422079
 20
573.83859461910231
 40
0.8999999999999999
  0
CIRCLE
  8
_0-4_図枠
  6
CONTINUOUS
 62
    4
 10
278.98392725808009
 20
567.42374235088585
 40
6
  0
LINE
  8
_0-4_図枠
  6
CONTINUOUS
 62
    4
 10
302.71239083990224
 20
543.69527876906363
 11
283.22656794519924
 21
563.18110166376664
  0
CIRCLE
  8
_0-4_図枠
  6
CONTINUOUS
 62
    4
 10
302.71239083990224
 20
543.69527876906363
 40
0.8999999999999999
  0
CIRCLE
  8
_0-4_図枠
  6
CONTINUOUS
 62
    4
 10
280.72879913570478
 20
524.89249033378474
 40
6
  0
LINE
  8
_0-4_図枠
  6
CONTINUOUS
 62
    4
 10
301.1546016333977
 20
536.68533290424239
 11
285.92495155841078
 21
527.89249033378474
  0
CIRCLE
  8
_0-4_図枠
  6
CONTINUOUS
 62
    4
 10
301.1546016333977
 20
536.68533290424239
 40
0.8999999999999999
  0
LINE
  8
_0-3_躯体と製品
  6
CONTINUOUS
 62
    7
 10
302.63306863858492
 20
532.00560497473498
 11
302.63306863858492
 21
550.00560497473487
  0
LINE
  8
_0-3_躯体と製品
  6
CONTINUOUS
 62
    7
 10
302.63306863858492
 20
550.00560497473487
 11
301.13306863858492
 21
550.00560497473487
  0
LINE
  8
_0-3_躯体と製品
  6
CONTINUOUS
 62
    7
 10
302.63306863858492
 20
532.00560497473498
 11
301.13306863858492
 21
532.00560497473498
  0
ARC
  8
_0-3_躯体と製品
  6
CONTINUOUS
 62
    7
 10
302.5043590926179
 20
539.50284197473491
 40
3
 50
272.45892599999632
 51
321.38536200000192
  0
ARC
  8
_0-3_躯体と製品
  6
CONTINUOUS
 62
    7
 10
300.63307009261803
 20
541.00560497473475
 40
5.4000000000000004
 50
321.31781300000171
 51
0.0000000000000127
  0
ARC
  8
_0-3_躯体と製品
  6
CONTINUOUS
 62
    7
 10
300.63307009261803
 20
541.00560497473475
 40
5.4000000000000004
 50
0
 51
38.851062000003751
  0
ARC
  8
_0-3_躯体と製品
  6
CONTINUOUS
 62
    7
 10
302.5043590926179
 20
542.50836497473506
 40
3
 50
38.614637999998109
 51
87.541074000003704
  0
CIRCLE
  8
_0-4_図枠
  6
CONTINUOUS
 62
    4
 10
252.51218171395215
 20
565.15670044712488
 40
6
  0
LINE
  8
_0-4_図枠
  6
CONTINUOUS
 62
    4
 10
265.010305821038
 20
543.50931449435018
 11
255.51218171395215
 21
559.96054802441836
  0
CIRCLE
  8
_0-4_図枠
  6
CONTINUOUS
 62
    4
 10
265.010305821038
 20
543.50931449435018
 40
0.8999999999999999
  0
CIRCLE
  8
_0-4_図枠
  6
CONTINUOUS
 62
    4
 10
348.07845774807026
 20
622.53620969215649
 40
6
  0
LINE
  8
_0-4_図枠
  6
CONTINUOUS
 62
    4
 10
326.84163624323935
 20
585.75295585451954
 11
345.07845774807026
 21
617.34005726944974
  0
CIRCLE
  8
_0-4_図枠
  6
CONTINUOUS
 62
    4
 10
326.84163624323935
 20
585.75295585451954
 40
0.8999999999999999
  0
CIRCLE
  8
_0-4_図枠
  6
CONTINUOUS
 62
    4
 10
356.40795519382539
 20
499.50647344705379
 40
6
  0
LINE
  8
_0-4_図枠
  6
CONTINUOUS
 62
    4
 10
329.51634749699531
 20
546.0841042751739
 11
353.40795519382539
 21
504.70262586976037
  0
CIRCLE
  8
_0-4_図枠
  6
CONTINUOUS
 62
    4
 10
329.51634749699531
 20
546.0841042751739
 40
0.8999999999999999
  0
CIRCLE
  8
_0-4_図枠
  6
CONTINUOUS
 62
    4
 10
353.57464011477953
 20
609.36002693703711
 40
6
  0
LINE
  8
_0-4_図枠
  6
CONTINUOUS
 62
    4
 10
329.10578372850352
 20
566.97872447289933
 11
350.57464011478066
 21
604.16387451433047
  0
CIRCLE
  8
_0-4_図枠
  6
CONTINUOUS
 62
    4
 10
329.10578372850352
 20
566.97872447289933
 40
0.8999999999999999
  0
CIRCLE
  8
_0-4_図枠
  6
CONTINUOUS
 62
    4
 10
341.42414056206439
 20
439.76324666628591
 40
6
  0
LINE
  8
_0-4_図枠
  6
CONTINUOUS
 62
    4
 10
324.54085337564356
 20
410.52053546062712
 11
338.42414056206553
 21
434.56709424357962
  0
CIRCLE
  8
_0-4_図枠
  6
CONTINUOUS
 62
    4
 10
324.54085337564356
 20
410.52053546062712
 40
0.8999999999999999
  0
LINE
  8
_0-0_0
  6
CONTINUOUS
 62
    7
 10
325.46414836984479
 20
404.20318538817259
 11
297.63306863858497
 21
508.07018897473472
  0
LINE
  8
_0-0_0
  6
CONTINUOUS
 62
    7
 10
298.63306763858492
 20
508.50560597473492
 11
298.63306763858492
 21
508.20184520437317
  0
ARC
  8
_0-0_0
  6
CONTINUOUS
 62
    7
 10
350.25806764538459
 20
592.20560599105875
 40
28.624999999998277
 50
164.81071326281631
 51
195.18928673718369
  0
LINE
  8
_0-0_0
  6
CONTINUOUS
 62
    4
 10
316.13306764538629
 20
598.31455969396666
 11
317.52411394247792
 21
599.70560599105818
  0
LINE
  8
_0-0_0
  6
CONTINUOUS
 62
    4
 10
316.13306764538629
 20
595.48613256921976
 11
320.35254106722471
 21
599.70560599105818
  0
LINE
  8
_0-0_0
  6
CONTINUOUS
 62
    4
 10
316.13306764538629
 20
592.65770544447332
 11
322.44329538411489
 21
598.96793318320204
  0
LINE
  8
_0-0_0
  6
CONTINUOUS
 62
    4
 10
316.13306764538629
 20
589.82927831972665
 11
321.82583500744988
 21
595.52204568179013
  0
LINE
  8
_0-0_0
  6
CONTINUOUS
 62
    4
 10
316.13306764538629
 20
587.00085119497976
 11
321.63460621261788
 21
592.50238976221135
  0
LINE
  8
_0-0_0
  6
CONTINUOUS
 62
    4
 10
316.66624956621149
 20
584.70560599105818
 11
321.73638496339868
 21
589.77574138824525
  0
LINE
  8
_0-0_0
  6
CONTINUOUS
 62
    4
 10
319.49467669095839
 20
584.70560599105875
 11
322.06137977984451
 21
587.27230907994476
  0
LINE
  8
_0-0_0
  6
CONTINUOUS
 62
    7
 10
320.83306763858502
 20
550.09546320829349
 11
320.83306763858502
 21
549.00560697473497
  0
LINE
  8
_0-0_0
  6
CONTINUOUS
 62
    7
 10
319.83306763858502
 20
550.40560697473506
 11
319.83306763858502
 21
548.70560697473479
  0
ARC
  8
_0-0_0
  6
CONTINUOUS
 62
    7
 10
321.13306763858498
 20
550.09546320829349
 40
0.2999999999999998
 50
88.095067099444307
 51
180
  0
LINE
  8
_0-0_0
  6
CONTINUOUS
 62
    7
 10
321.14304000647201
 20
550.39529741561319
 11
326.82975178503409
 21
550.20615961700412
  0
ARC
  8
_0-0_0
  6
CONTINUOUS
 62
    7
 10
320.83306763858502
 20
550.40560697473506
 40
1
 50
88.095067099444307
 51
180
  0
LINE
  8
_0-0_0
  6
CONTINUOUS
 62
    7
 10
320.86630886487308
 20
551.40505433246585
 11
326.36326933248904
 21
551.22222758787802
  0
LINE
  8
_0-0_0
  6
CONTINUOUS
 62
    7
 10
326.87961362449698
 20
551.70533065356688
 11
326.896234237675
 21
552.20505433246342
  0
ARC
  8
_0-0_0
  6
CONTINUOUS
 62
    7
 10
326.86299301132215
 20
551.20560697473479
 40
1
 50
268.09506709944435
 51
358.09506709574242
  0
LINE
  8
_0-0_0
  6
CONTINUOUS
 62
    7
 10
327.86244036904998
 20
551.1723657483825
 11
327.89568159540511
 21
552.17181310617548
  0
ARC
  8
_0-0_0
  6
CONTINUOUS
 62
    7
 10
327.39595791647514
 20
552.18843371932155
 40
0.4999999999354555
 50
358.09506709944128
 51
178.0950670994412
  0
ARC
  8
_0-0_0
  6
CONTINUOUS
 62
    7
 10
326.37988994563295
 20
551.72195126674342
 40
0.5
 50
268.09506709944435
 51
358.09506709574242
  0
ARC
  8
_0-0_0
  6
CONTINUOUS
 62
    7
 10
321.13306763858498
 20
549.00560697473497
 40
0.2999999999999998
 50
180
 51
270
  0
ARC
  8
_0-0_0
  6
CONTINUOUS
 62
    7
 10
320.83306763858502
 20
548.70560697473479
 40
1
 50
180
 51
270
  0
LINE
  8
_0-0_0
  6
CONTINUOUS
 62
    7
 10
329.83306763858502
 20
548.20560697473502
 11
329.83306763858502
 21
547.70560697473491
  0
ARC
  8
_0-0_0
  6
CONTINUOUS
 62
    7
 10
329.33306763858502
 20
548.20560697473502
 40
0.5
 50
0
 51
90
  0
LINE
  8
_0-0_0
  6
CONTINUOUS
 62
    7
 10
320.83306763858502
 20
547.70560697473491
 11
329.83306763858502
 21
547.70560697473491
  0
LINE
  8
_0-0_0
  6
CONTINUOUS
 62
    7
 10
321.01088234219799
 20
545.97961549265824
 11
322.00044089330402
 21
544.72232719082263
  0
LINE
  8
_0-0_0
  6
CONTINUOUS
 62
    7
 10
321.63952649311511
 20
546.47439476821125
 11
322.62908504422205
 21
545.21710646637553
  0
ARC
  8
_0-0_0
  6
CONTINUOUS
 62
    7
 10
321.32520441765712
 20
546.22700513043469
 40
0.4
 50
38.204790190277691
 51
218.20479019027769
  0
ARC
  8
_0-0_0
  6
CONTINUOUS
 62
    7
 10
325.14366164789305
 20
547.19622356858804
 40
3.2000000000000002
 50
218.20479019027769
 51
334.19402377411382
  0
ARC
  8
_0-0_0
  6
CONTINUOUS
 62
    7
 10
325.14366164789305
 20
547.19622356858804
 40
4
 50
218.20479019027769
 51
334.19402377411382
  0
LINE
  8
_0-0_0
  6
CONTINUOUS
 62
    7
 10
329.83306763858502
 20
547.70560697473491
 11
328.74475512710899
 21
545.4549235502252
  0
LINE
  8
_0-0_0
  6
CONTINUOUS
 62
    7
 10
328.94444866257993
 20
547.70560697473491
 11
328.02453643126603
 21
545.80318355389761
  0
LINE
  8
_0-0_0
  6
CONTINUOUS
 62
    7
 10
320.83306763858502
 20
548.70560697473479
 11
329.33306763858502
 21
548.70560697473479
  0
LINE
  8
_0-0_0
  6
CONTINUOUS
 62
    2
 10
320.83306763858502
 20
549.90560597473495
 11
320.83306763858502
 21
548.70560697473479
  0
LINE
  8
_0-0_0
  6
CONTINUOUS
 62
    3
 10
298.63306863858492
 20
584.70560697473502
 11
297.63306863858497
 21
584.70560697473502
  0
LINE
  8
_0-0_0
  6
CONTINUOUS
 62
    3
 10
298.63306863858492
 20
554.70560697473502
 11
298.63306863858492
 21
584.70560697473502
  0
LINE
  8
_0-0_0
  6
CONTINUOUS
 62
    3
 10
297.63306863858497
 20
554.70560697473502
 11
298.63306863858492
 21
554.70560697473502
  0
LINE
  8
_0-0_0
  6
CONTINUOUS
 62
    3
 10
297.63306863858497
 20
584.70560697473502
 11
297.63306863858497
 21
554.70560697473502
  0
LINE
  8
_0-0_0
  6
CONTINUOUS
 62
    4
 10
297.63306863858583
 20
556.04506977352457
 11
298.63306863858492
 21
555.04506977352469
  0
LINE
  8
_0-0_0
  6
CONTINUOUS
 62
    4
 10
297.63306863858583
 20
557.45928333589768
 11
298.63306863858492
 21
556.45928333589802
  0
LINE
  8
_0-0_0
  6
CONTINUOUS
 62
    4
 10
297.63306863858497
 20
558.87349689827181
 11
298.63306863858492
 21
557.8734968982717
  0
LINE
  8
_0-0_0
  6
CONTINUOUS
 62
    4
 10
297.63306863858583
 20
560.28771046064242
 11
298.63306863858583
 21
559.2877104606423
  0
LINE
  8
_0-0_0
  6
CONTINUOUS
 62
    4
 10
297.63306863858583
 20
561.70192402301575
 11
298.63306863858583
 21
560.70192402301564
  0
LINE
  8
_0-0_0
  6
CONTINUOUS
 62
    4
 10
297.63306863858583
 20
563.1161375853892
 11
298.63306863858492
 21
562.11613758538931
  0
LINE
  8
_0-0_0
  6
CONTINUOUS
 62
    4
 10
297.63306863858583
 20
564.53035114776242
 11
298.63306863858583
 21
563.5303511477623
  0
LINE
  8
_0-0_0
  6
CONTINUOUS
 62
    4
 10
297.63306863858583
 20
565.94456471013564
 11
298.63306863858583
 21
564.94456471013586
  0
LINE
  8
_0-0_0
  6
CONTINUOUS
 62
    4
 10
297.63306863858583
 20
567.35877827250874
 11
298.63306863858583
 21
566.35877827250863
  0
LINE
  8
_0-0_0
  6
CONTINUOUS
 62
    4
 10
297.63306863858497
 20
568.7729918348831
 11
298.63306863858583
 21
567.77299183488253
  0
LINE
  8
_0-0_0
  6
CONTINUOUS
 62
    4
 10
297.63306863858497
 20
570.18720539725439
 11
298.63306863858492
 21
569.18720539725427
  0
LINE
  8
_0-0_0
  6
CONTINUOUS
 62
    4
 10
297.63306863858497
 20
571.60141895962772
 11
298.63306863858492
 21
570.60141895962761
  0
LINE
  8
_0-0_0
  6
CONTINUOUS
 62
    4
 10
297.63306863858497
 20
573.01563252200094
 11
298.63306863858583
 21
572.0156325220006
  0
LINE
  8
_0-0_0
  6
CONTINUOUS
 62
    4
 10
297.63306863858497
 20
574.42984608437439
 11
298.63306863858492
 21
573.42984608437496
  0
LINE
  8
_0-0_0
  6
CONTINUOUS
 62
    4
 10
297.63306863858497
 20
575.84405964674772
 11
298.63306863858492
 21
574.84405964674829
  0
LINE
  8
_0-0_0
  6
CONTINUOUS
 62
    4
 10
297.63306863858497
 20
577.25827320912072
 11
298.63306863858492
 21
576.25827320912128
  0
LINE
  8
_0-0_0
  6
CONTINUOUS
 62
    4
 10
297.63306863858497
 20
578.67248677149428
 11
298.63306863858492
 21
577.6724867714945
  0
LINE
  8
_0-0_0
  6
CONTINUOUS
 62
    4
 10
297.63306863858497
 20
580.08670033386807
 11
298.63306863858492
 21
579.08670033386784
  0
LINE
  8
_0-0_0
  6
CONTINUOUS
 62
    4
 10
297.63306863858583
 20
581.50091389623844
 11
298.63306863858583
 21
580.50091389623844
  0
LINE
  8
_0-0_0
  6
CONTINUOUS
 62
    4
 10
297.63306863858497
 20
582.91512745861269
 11
298.63306863858583
 21
581.91512745861201
  0
LINE
  8
_0-0_0
  6
CONTINUOUS
 62
    4
 10
297.63306863858497
 20
584.32934102098579
 11
298.63306863858492
 21
583.32934102098591
  0
LINE
  8
_0-0_0
  6
CONTINUOUS
 62
    7
 10
1035.4922810590672
 20
312.42800081844496
 11
697.99228105906764
 21
312.42800081844496
  0
LINE
  8
_0-4_図枠
  6
CONTINUOUS
 62
    7
 10
567.49228105906752
 20
163.92800081844564
 11
667.99228105906752
 21
163.92800081844564
  0
LINE
  8
_0-4_図枠
  6
CONTINUOUS
 62
    7
 10
567.49228105906752
 20
177.42800081844564
 11
667.99228105906752
 21
177.42800081844564
  0
LINE
  8
_0-4_図枠
  6
CONTINUOUS
 62
    7
 10
565.99228105906752
 20
177.42800081844564
 11
465.49228105906752
 21
177.42800081844564
  0
LINE
  8
_0-4_図枠
  6
CONTINUOUS
 62
    7
 10
463.99228105906752
 20
177.42800081844564
 11
150.49228105906752
 21
177.42800081844564
  0
TEXT
  8
_0-4_図枠
 62
    7
 10
545.74228105906752
 20
314.67800081844564
 40
7.5
 41
1
 50
0
  1
単位
  0
TEXT
  8
_0-4_図枠
 62
    7
 10
647.74228105906752
 20
314.67800081844564
 40
7.5
 41
1
 50
0
  1
単位
  0
TEXT
  8
_0-4_図枠
 62
    7
 10
652.99228105906752
 20
31.178000818445611
 40
7.5
 41
0.9999999999999971
 50
0
  1
〃
  0
TEXT
  8
_0-4_図枠
 62
    7
 10
652.99228105906752
 20
44.678000818445611
 40
7.5
 41
0.9999999999999971
 50
0
  1
枚
  0
TEXT
  8
_0-4_図枠
 62
    7
 10
652.99228105906752
 20
58.178000818445611
 40
7.5
 41
0.9999999999999971
 50
0
  1
〃
  0
TEXT
  8
_0-4_図枠
 62
    7
 10
652.99228105906752
 20
71.678000818445653
 40
7.5
 41
0.9999999999999971
 50
0
  1
〃
  0
TEXT
  8
_0-4_図枠
 62
    7
 10
652.99228105906752
 20
85.178000818445653
 40
7.5
 41
0.9999999999999971
 50
0
  1
〃
  0
TEXT
  8
_0-4_図枠
 62
    7
 10
652.99228105906752
 20
98.678000818445653
 40
7.5
 41
0.9999999999999971
 50
0
  1
〃
  0
TEXT
  8
_0-4_図枠
 62
    7
 10
652.99228105906752
 20
112.1780008184457
 40
7.5
 41
0.9999999999999971
 50
0
  1
〃
  0
TEXT
  8
_0-4_図枠
 62
    7
 10
652.99228105906752
 20
125.6780008184457
 40
7.5
 41
0.9999999999999971
 50
0
  1
〃
  0
TEXT
  8
_0-4_図枠
 62
    7
 10
652.99228105906752
 20
139.1780008184457
 40
7.5
 41
0.9999999999999971
 50
0
  1
本
  0
TEXT
  8
_0-4_図枠
 62
    7
 10
652.99228105906752
 20
152.6780008184457
 40
7.5
 41
0.9999999999999971
 50
0
  1
〃
  0
TEXT
  8
_0-4_図枠
 62
    7
 10
652.99228105906752
 20
179.6780008184457
 40
7.5
 41
0.9999999999999971
 50
0
  1
〃
  0
TEXT
  8
_0-4_図枠
 62
    7
 10
652.99228105906752
 20
193.1780008184457
 40
7.5
 41
0.9999999999999971
 50
0
  1
〃
  0
TEXT
  8
_0-4_図枠
 62
    7
 10
652.99228105906752
 20
206.6780008184457
 40
7.5
 41
0.9999999999999971
 50
0
  1
〃
  0
TEXT
  8
_0-4_図枠
 62
    7
 10
652.99228105906752
 20
220.1780008184457
 40
7.5
 41
0.9999999999999971
 50
0
  1
〃
  0
TEXT
  8
_0-4_図枠
 62
    7
 10
652.99228105906752
 20
233.67800081844541
 40
7.5000000000000213
 41
0.9999999999999943
 50
0
  1
〃
  0
TEXT
  8
_0-4_図枠
 62
    7
 10
652.99228105906752
 20
260.67800081844541
 40
7.5000000000000213
 41
0.9999999999999943
 50
0
  1
〃
  0
TEXT
  8
_0-4_図枠
 62
    7
 10
652.99228105906752
 20
274.17800081844541
 40
7.5000000000000213
 41
0.9999999999999943
 50
0
  1
〃
  0
TEXT
  8
_0-4_図枠
 62
    7
 10
652.99228105906752
 20
287.67800081844541
 40
7.5000000000000213
 41
0.9999999999999943
 50
0
  1
〃
  0
TEXT
  8
_0-4_図枠
 62
    7
 10
652.99228105906752
 20
301.17800081844541
 40
7.5000000000000213
 41
0.9999999999999943
 50
0
  1
本
  0
TEXT
  8
_0-4_図枠
 62
    7
 10
550.99228105906752
 20
31.178000818445611
 40
7.5
 41
0.9999999999999993
 50
0
  1
〃
  0
TEXT
  8
_0-4_図枠
 62
    7
 10
550.99228105906752
 20
44.678000818445611
 40
7.5
 41
0.9999999999999993
 50
0
  1
枚
  0
TEXT
  8
_0-4_図枠
 62
    7
 10
550.99228105906752
 20
58.178000818445611
 40
7.5
 41
0.9999999999999993
 50
0
  1
〃
  0
TEXT
  8
_0-4_図枠
 62
    7
 10
550.99228105906752
 20
71.678000818445653
 40
7.5
 41
0.9999999999999993
 50
0
  1
〃
  0
TEXT
  8
_0-4_図枠
 62
    7
 10
550.99228105906752
 20
85.178000818445653
 40
7.5
 41
0.9999999999999993
 50
0
  1
〃
  0
TEXT
  8
_0-4_図枠
 62
    7
 10
550.99228105906752
 20
98.678000818445653
 40
7.5
 41
0.9999999999999993
 50
0
  1
〃
  0
TEXT
  8
_0-4_図枠
 62
    7
 10
550.99228105906752
 20
112.1780008184457
 40
7.5
 41
0.9999999999999993
 50
0
  1
〃
  0
TEXT
  8
_0-4_図枠
 62
    7
 10
550.99228105906752
 20
125.6780008184457
 40
7.5
 41
0.9999999999999993
 50
0
  1
〃
  0
TEXT
  8
_0-4_図枠
 62
    7
 10
550.99228105906752
 20
139.1780008184457
 40
7.5
 41
0.9999999999999993
 50
0
  1
本
  0
TEXT
  8
_0-4_図枠
 62
    7
 10
550.99228105906752
 20
152.6780008184457
 40
7.5
 41
0.9999999999999993
 50
0
  1
〃
  0
TEXT
  8
_0-4_図枠
 62
    7
 10
550.99228105906752
 20
179.6780008184457
 40
7.5
 41
0.9999999999999993
 50
0
  1
〃
  0
TEXT
  8
_0-4_図枠
 62
    7
 10
550.99228105906752
 20
193.1780008184457
 40
7.5
 41
0.9999999999999993
 50
0
  1
〃
  0
TEXT
  8
_0-4_図枠
 62
    7
 10
550.99228105906752
 20
206.6780008184457
 40
7.5
 41
0.9999999999999993
 50
0
  1
〃
  0
TEXT
  8
_0-4_図枠
 62
    7
 10
550.99228105906752
 20
220.1780008184457
 40
7.5
 41
0.9999999999999993
 50
0
  1
〃
  0
TEXT
  8
_0-4_図枠
 62
    7
 10
550.99228105906752
 20
233.67800081844541
 40
7.5000000000000213
 41
0.9999999999999964
 50
0
  1
〃
  0
TEXT
  8
_0-4_図枠
 62
    7
 10
550.99228105906752
 20
260.67800081844541
 40
7.5000000000000213
 41
0.9999999999999964
 50
0
  1
〃
  0
TEXT
  8
_0-4_図枠
 62
    7
 10
550.99228105906752
 20
274.17800081844541
 40
7.5000000000000213
 41
0.9999999999999964
 50
0
  1
〃
  0
TEXT
  8
_0-4_図枠
 62
    7
 10
550.99228105906752
 20
287.67800081844541
 40
7.5000000000000213
 41
0.9999999999999964
 50
0
  1
〃
  0
TEXT
  8
_0-4_図枠
 62
    7
 10
550.99228105906752
 20
301.17800081844541
 40
7.5000000000000213
 41
0.9999999999999964
 50
0
  1
本
  0
TEXT
  8
_0-4_図枠
 62
    7
 10
623.74228105906752
 20
314.67800081844564
 40
7.5
 41
1
 50
0
  1
入数
  0
TEXT
  8
_0-4_図枠
 62
    7
 10
521.74228105906752
 20
314.67800081844564
 40
7.5
 41
0.9999999999999996
 50
0
  1
入数
  0
TEXT
  8
_0-4_図枠
 62
    7
 10
573.11728105906752
 20
314.67800081844564
 40
7.5
 41
0.9999999999999996
 50
0
  1
定尺(mm)
  0
TEXT
  8
_0-4_図枠
 62
    7
 10
471.11728105906752
 20
314.67800081844564
 40
7.5
 41
1
 50
0
  1
定尺(mm)
  0
LINE
  8
_0-4_図枠
  6
CONTINUOUS
 62
    7
 10
567.49228105906752
 20
42.428000818445611
 11
667.99228105906752
 21
42.428000818445611
  0
LINE
  8
_0-4_図枠
  6
CONTINUOUS
 62
    7
 10
567.49228105906752
 20
55.928000818445952
 11
667.99228105906752
 21
55.928000818445952
  0
LINE
  8
_0-4_図枠
  6
CONTINUOUS
 62
    7
 10
567.49228105906752
 20
69.428000818445653
 11
667.99228105906752
 21
69.428000818445653
  0
LINE
  8
_0-4_図枠
  6
CONTINUOUS
 62
    7
 10
567.49228105906752
 20
82.928000818445653
 11
667.99228105906752
 21
82.928000818445653
  0
LINE
  8
_0-4_図枠
  6
CONTINUOUS
 62
    7
 10
567.49228105906752
 20
96.428000818445653
 11
667.99228105906752
 21
96.428000818445653
  0
LINE
  8
_0-4_図枠
  6
CONTINUOUS
 62
    7
 10
567.49228105906752
 20
109.92800081844565
 11
667.99228105906752
 21
109.92800081844565
  0
LINE
  8
_0-4_図枠
  6
CONTINUOUS
 62
    7
 10
567.49228105906752
 20
123.42800081844565
 11
667.99228105906752
 21
123.42800081844565
  0
LINE
  8
_0-4_図枠
  6
CONTINUOUS
 62
    7
 10
567.49228105906752
 20
136.92800081844564
 11
667.99228105906752
 21
136.92800081844564
  0
LINE
  8
_0-4_図枠
  6
CONTINUOUS
 62
    7
 10
567.49228105906752
 20
150.42800081844564
 11
667.99228105906752
 21
150.42800081844564
  0
LINE
  8
_0-4_図枠
  6
CONTINUOUS
 62
    7
 10
567.49228105906752
 20
190.92800081844561
 11
667.99228105906752
 21
190.92800081844561
  0
LINE
  8
_0-4_図枠
  6
CONTINUOUS
 62
    7
 10
567.49228105906752
 20
204.42800081844561
 11
667.99228105906752
 21
204.42800081844561
  0
LINE
  8
_0-4_図枠
  6
CONTINUOUS
 62
    7
 10
567.49228105906752
 20
217.92800081844561
 11
667.99228105906752
 21
217.92800081844561
  0
LINE
  8
_0-4_図枠
  6
CONTINUOUS
 62
    7
 10
567.49228105906752
 20
231.42800081844544
 11
667.99228105906752
 21
231.42800081844544
  0
LINE
  8
_0-4_図枠
  6
CONTINUOUS
 62
    7
 10
567.49228105906752
 20
244.92800081844544
 11
667.99228105906752
 21
244.92800081844544
  0
LINE
  8
_0-4_図枠
  6
CONTINUOUS
 62
    7
 10
567.49228105906752
 20
258.42800081844541
 11
667.99228105906752
 21
258.42800081844541
  0
LINE
  8
_0-4_図枠
  6
CONTINUOUS
 62
    7
 10
567.49228105906752
 20
271.9280008184453
 11
667.99228105906752
 21
271.9280008184453
  0
LINE
  8
_0-4_図枠
  6
CONTINUOUS
 62
    7
 10
567.49228105906752
 20
285.42800081844541
 11
667.99228105906752
 21
285.42800081844541
  0
LINE
  8
_0-4_図枠
  6
CONTINUOUS
 62
    7
 10
567.49228105906752
 20
298.92800081844564
 11
667.99228105906752
 21
298.92800081844564
  0
LINE
  8
_0-4_図枠
  6
CONTINUOUS
 62
    7
 10
567.49228105906752
 20
312.42800081844541
 11
667.99228105906752
 21
312.42800081844541
  0
LINE
  8
_0-4_図枠
  6
CONTINUOUS
 62
    7
 10
567.49228105906752
 20
325.92800081844541
 11
667.99228105906752
 21
325.92800081844541
  0
LINE
  8
_0-4_図枠
  6
CONTINUOUS
 62
    7
 10
565.99228105906752
 20
42.428000818445611
 11
465.49228105906752
 21
42.428000818445611
  0
LINE
  8
_0-4_図枠
  6
CONTINUOUS
 62
    7
 10
565.99228105906752
 20
55.928000818445952
 11
465.49228105906752
 21
55.928000818445952
  0
LINE
  8
_0-4_図枠
  6
CONTINUOUS
 62
    7
 10
565.99228105906752
 20
69.428000818445653
 11
465.49228105906752
 21
69.428000818445653
  0
LINE
  8
_0-4_図枠
  6
CONTINUOUS
 62
    7
 10
565.99228105906752
 20
82.928000818445653
 11
465.49228105906752
 21
82.928000818445653
  0
LINE
  8
_0-4_図枠
  6
CONTINUOUS
 62
    7
 10
565.99228105906752
 20
96.428000818445653
 11
465.49228105906752
 21
96.428000818445653
  0
LINE
  8
_0-4_図枠
  6
CONTINUOUS
 62
    7
 10
565.99228105906752
 20
109.92800081844565
 11
465.49228105906752
 21
109.92800081844565
  0
LINE
  8
_0-4_図枠
  6
CONTINUOUS
 62
    7
 10
565.99228105906752
 20
123.42800081844565
 11
465.49228105906752
 21
123.42800081844565
  0
LINE
  8
_0-4_図枠
  6
CONTINUOUS
 62
    7
 10
565.99228105906752
 20
136.92800081844564
 11
465.49228105906752
 21
136.92800081844564
  0
LINE
  8
_0-4_図枠
  6
CONTINUOUS
 62
    7
 10
565.99228105906752
 20
150.42800081844564
 11
465.49228105906752
 21
150.42800081844564
  0
LINE
  8
_0-4_図枠
  6
CONTINUOUS
 62
    7
 10
565.99228105906752
 20
163.92800081844564
 11
465.49228105906752
 21
163.92800081844564
  0
LINE
  8
_0-4_図枠
  6
CONTINUOUS
 62
    7
 10
565.99228105906752
 20
190.92800081844561
 11
465.49228105906752
 21
190.92800081844561
  0
LINE
  8
_0-4_図枠
  6
CONTINUOUS
 62
    7
 10
565.99228105906752
 20
204.42800081844561
 11
465.49228105906752
 21
204.42800081844561
  0
LINE
  8
_0-4_図枠
  6
CONTINUOUS
 62
    7
 10
565.99228105906752
 20
217.92800081844561
 11
465.49228105906752
 21
217.92800081844561
  0
LINE
  8
_0-4_図枠
  6
CONTINUOUS
 62
    7
 10
565.99228105906752
 20
231.42800081844544
 11
465.49228105906752
 21
231.42800081844544
  0
LINE
  8
_0-4_図枠
  6
CONTINUOUS
 62
    7
 10
565.99228105906752
 20
244.92800081844544
 11
465.49228105906752
 21
244.92800081844544
  0
LINE
  8
_0-4_図枠
  6
CONTINUOUS
 62
    7
 10
565.99228105906752
 20
258.42800081844541
 11
465.49228105906752
 21
258.42800081844541
  0
LINE
  8
_0-4_図枠
  6
CONTINUOUS
 62
    7
 10
565.99228105906752
 20
271.9280008184453
 11
465.49228105906752
 21
271.9280008184453
  0
LINE
  8
_0-4_図枠
  6
CONTINUOUS
 62
    7
 10
565.99228105906752
 20
285.42800081844541
 11
465.49228105906752
 21
285.42800081844541
  0
LINE
  8
_0-4_図枠
  6
CONTINUOUS
 62
    7
 10
565.99228105906752
 20
298.92800081844564
 11
465.49228105906752
 21
298.92800081844564
  0
LINE
  8
_0-4_図枠
  6
CONTINUOUS
 62
    7
 10
565.99228105906752
 20
312.42800081844541
 11
465.49228105906752
 21
312.42800081844541
  0
LINE
  8
_0-4_図枠
  6
CONTINUOUS
 62
    7
 10
565.99228105906752
 20
325.92800081844541
 11
465.49228105906752
 21
325.92800081844541
  0
TEXT
  8
_0-4_図枠
 62
    7
 10
156.11728105906752
 20
31.178000818445611
 40
7.5
 41
1.0000000000000113
 50
0
  1
21
  0
TEXT
  8
_0-4_図枠
 62
    7
 10
156.11728105906752
 20
44.678000818445611
 40
7.5
 41
1.0000000000000113
 50
0
  1
20
  0
TEXT
  8
_0-4_図枠
 62
    7
 10
156.11728105906752
 20
58.178000818445611
 40
7.5
 41
1.0000000000000113
 50
0
  1
19
  0
TEXT
  8
_0-4_図枠
 62
    7
 10
156.11728105906752
 20
71.678000818445653
 40
7.5
 41
1.0000000000000113
 50
0
  1
18
  0
TEXT
  8
_0-4_図枠
 62
    7
 10
156.11728105906752
 20
85.178000818445653
 40
7.5
 41
1.0000000000000113
 50
0
  1
17
  0
TEXT
  8
_0-4_図枠
 62
    7
 10
156.11728105906752
 20
98.678000818445653
 40
7.5
 41
1.0000000000000113
 50
0
  1
16
  0
TEXT
  8
_0-4_図枠
 62
    7
 10
156.11728105906752
 20
112.1780008184457
 40
7.5
 41
1.0000000000000113
 50
0
  1
15
  0
TEXT
  8
_0-4_図枠
 62
    7
 10
156.11728105906752
 20
125.6780008184457
 40
7.5
 41
1.0000000000000113
 50
0
  1
14
  0
TEXT
  8
_0-4_図枠
 62
    7
 10
156.11728105906752
 20
139.1780008184457
 40
7.5
 41
1.0000000000000113
 50
0
  1
13
  0
TEXT
  8
_0-4_図枠
 62
    7
 10
156.11728105906752
 20
152.6780008184457
 40
7.5
 41
1.0000000000000113
 50
0
  1
12
  0
TEXT
  8
_0-4_図枠
 62
    7
 10
156.11728105906752
 20
166.1780008184457
 40
7.5
 41
1.0000000000000113
 50
0
  1
11
  0
TEXT
  8
_0-4_図枠
 62
    7
 10
156.11728105906752
 20
179.6780008184457
 40
7.5
 41
1.0000000000000113
 50
0
  1
10
  0
TEXT
  8
_0-4_図枠
 62
    7
 10
156.11728105906752
 20
193.1780008184457
 40
7.5
 41
1.0000000000000113
 50
0
  1
 9
  0
TEXT
  8
_0-4_図枠
 62
    7
 10
156.11728105906752
 20
206.6780008184457
 40
7.5
 41
1.0000000000000113
 50
0
  1
 8
  0
TEXT
  8
_0-4_図枠
 62
    7
 10
156.11728105906752
 20
220.1780008184457
 40
7.5
 41
1.0000000000000113
 50
0
  1
 7
  0
TEXT
  8
_0-4_図枠
 62
    7
 10
156.11728105906752
 20
233.67800081844541
 40
7.5000000000000213
 41
1.0000000000000084
 50
0
  1
 6
  0
TEXT
  8
_0-4_図枠
 62
    7
 10
156.11728105906752
 20
247.17800081844541
 40
7.5000000000000213
 41
1.0000000000000084
 50
0
  1
 5
  0
TEXT
  8
_0-4_図枠
 62
    7
 10
156.11728105906752
 20
260.67800081844541
 40
7.5000000000000213
 41
1.0000000000000084
 50
0
  1
 4
  0
TEXT
  8
_0-4_図枠
 62
    7
 10
156.11728105906752
 20
274.17800081844541
 40
7.5000000000000213
 41
1.0000000000000084
 50
0
  1
 3
  0
TEXT
  8
_0-4_図枠
 62
    7
 10
156.11728105906752
 20
287.67800081844541
 40
7.5000000000000213
 41
1.0000000000000084
 50
0
  1
 2
  0
TEXT
  8
_0-4_図枠
 62
    7
 10
156.11728105906752
 20
301.17800081844541
 40
7.5000000000000213
 41
1.0000000000000084
 50
0
  1
 1
  0
TEXT
  8
_0-4_図枠
 62
    7
 10
153.49228105906769
 20
314.67800081844564
 40
7.5
 41
1
 50
0
  1
No.
  0
LINE
  8
_0-4_図枠
  6
CONTINUOUS
 62
    7
 10
463.99228105906752
 20
42.428000818445611
 11
150.49228105906752
 21
42.428000818445611
  0
LINE
  8
_0-4_図枠
  6
CONTINUOUS
 62
    7
 10
463.99228105906752
 20
55.928000818445952
 11
150.49228105906752
 21
55.928000818445952
  0
LINE
  8
_0-4_図枠
  6
CONTINUOUS
 62
    7
 10
463.99228105906752
 20
69.428000818445653
 11
150.49228105906752
 21
69.428000818445653
  0
LINE
  8
_0-4_図枠
  6
CONTINUOUS
 62
    7
 10
463.99228105906752
 20
82.928000818445653
 11
150.49228105906752
 21
82.928000818445653
  0
LINE
  8
_0-4_図枠
  6
CONTINUOUS
 62
    7
 10
463.99228105906752
 20
96.428000818445653
 11
150.49228105906752
 21
96.428000818445653
  0
LINE
  8
_0-4_図枠
  6
CONTINUOUS
 62
    7
 10
463.99228105906752
 20
109.92800081844565
 11
150.49228105906752
 21
109.92800081844565
  0
LINE
  8
_0-4_図枠
  6
CONTINUOUS
 62
    7
 10
463.99228105906752
 20
123.42800081844565
 11
150.49228105906752
 21
123.42800081844565
  0
LINE
  8
_0-4_図枠
  6
CONTINUOUS
 62
    7
 10
463.99228105906752
 20
136.92800081844564
 11
150.49228105906752
 21
136.92800081844564
  0
LINE
  8
_0-4_図枠
  6
CONTINUOUS
 62
    7
 10
463.99228105906752
 20
150.42800081844564
 11
150.49228105906752
 21
150.42800081844564
  0
LINE
  8
_0-4_図枠
  6
CONTINUOUS
 62
    7
 10
463.99228105906752
 20
163.92800081844564
 11
150.49228105906752
 21
163.92800081844564
  0
LINE
  8
_0-4_図枠
  6
CONTINUOUS
 62
    7
 10
463.99228105906752
 20
190.92800081844561
 11
150.49228105906752
 21
190.92800081844561
  0
LINE
  8
_0-4_図枠
  6
CONTINUOUS
 62
    7
 10
463.99228105906752
 20
204.42800081844561
 11
150.49228105906752
 21
204.42800081844561
  0
LINE
  8
_0-4_図枠
  6
CONTINUOUS
 62
    7
 10
463.99228105906752
 20
217.92800081844561
 11
150.49228105906752
 21
217.92800081844561
  0
LINE
  8
_0-4_図枠
  6
CONTINUOUS
 62
    7
 10
463.99228105906752
 20
231.42800081844544
 11
150.49228105906752
 21
231.42800081844544
  0
LINE
  8
_0-4_図枠
  6
CONTINUOUS
 62
    7
 10
463.99228105906752
 20
244.92800081844544
 11
150.49228105906752
 21
244.92800081844544
  0
LINE
  8
_0-4_図枠
  6
CONTINUOUS
 62
    7
 10
463.99228105906752
 20
258.42800081844541
 11
150.49228105906752
 21
258.42800081844541
  0
LINE
  8
_0-4_図枠
  6
CONTINUOUS
 62
    7
 10
463.99228105906752
 20
271.9280008184453
 11
150.49228105906752
 21
271.9280008184453
  0
LINE
  8
_0-4_図枠
  6
CONTINUOUS
 62
    7
 10
463.99228105906752
 20
285.42800081844541
 11
150.49228105906752
 21
285.42800081844541
  0
LINE
  8
_0-4_図枠
  6
CONTINUOUS
 62
    7
 10
463.99228105906752
 20
312.42800081844541
 11
150.49228105906752
 21
312.42800081844541
  0
LINE
  8
_0-4_図枠
  6
CONTINUOUS
 62
    7
 10
463.99228105906752
 20
325.92800081844541
 11
150.49228105906752
 21
325.92800081844541
  0
TEXT
  8
_0-4_図枠
 62
    7
 10
178.99228105906752
 20
31.178000818445611
 40
7.5
 41
1
 50
0
  1
ステンワッシャー
  0
TEXT
  8
_0-4_図枠
 62
    7
 10
178.99228105906752
 20
44.678000818445611
 40
7.5
 41
1
 50
0
  1
ステスワッシャー
  0
TEXT
  8
_0-4_図枠
 62
    7
 10
178.99228105906752
 20
58.178000818445611
 40
7.5
 41
1
 50
0
  1
ステンタッピンねじ
  0
TEXT
  8
_0-4_図枠
 62
    7
 10
178.99228105906752
 20
71.678000818445653
 40
7.5
 41
1
 50
0
  1
アンカープラグ
  0
TEXT
  8
_0-4_図枠
 62
    7
 10
178.99228105906752
 20
85.178000818445653
 40
7.5
 41
1
 50
0
  1
アジャストアンカー
  0
TEXT
  8
_0-4_図枠
 62
    7
 10
178.99228105906752
 20
98.678000818445653
 40
7.5
 41
1
 50
0
  1
ステン六角ボルト
  0
TEXT
  8
_0-4_図枠
 62
    7
 10
178.99228105906752
 20
139.1780008184457
 40
7.5
 41
1
 50
0
  1
ガスケットＮ
  0
TEXT
  8
_0-4_図枠
 62
    7
 10
178.99228105906752
 20
152.6780008184457
 40
7.5
 41
1
 50
0
  1
止水補助板
  0
TEXT
  8
_0-4_図枠
 62
    7
 10
178.99228105906752
 20
179.6780008184457
 40
7.5
 41
1
 50
0
  1
ＦＹＫｻｲﾄﾞｷｬｯﾌﾟ ｼﾞｮｲﾝﾄ
  0
TEXT
  8
_0-4_図枠
 62
    7
 10
178.99228105906752
 20
193.1780008184457
 40
7.5
 41
1
 50
0
  1
ＦＹＫ水切ジョイント
  0
TEXT
  8
_0-4_図枠
 62
    7
 10
178.99228105906752
 20
206.6780008184457
 40
7.5
 41
1
 50
0
  1
ＦＹＹフレームナット
  0
TEXT
  8
_0-4_図枠
 62
    7
 10
178.99228105906752
 20
220.1780008184457
 40
7.5
 41
1
 50
0
  1
ＦＹＹホルダースプリング
  0
TEXT
  8
_0-4_図枠
 62
    7
 10
178.99228105906752
 20
233.67800081844541
 40
7.5000000000000213
 41
0.9999999999999971
 50
0
  1
ＦＹＫホルダー
  0
TEXT
  8
_0-4_図枠
 62
    7
 10
178.99228105906752
 20
260.67800081844541
 40
7.5000000000000213
 41
0.9999999999999971
 50
0
  1
ＦＹＫ壁フレーム
  0
TEXT
  8
_0-4_図枠
 62
    7
 10
178.99228105906752
 20
274.17800081844541
 40
7.5000000000000213
 41
0.9999999999999971
 50
0
  1
ＦＹＹフレーム
  0
TEXT
  8
_0-4_図枠
 62
    7
 10
178.99228105906752
 20
287.67800081844541
 40
7.5000000000000213
 41
0.9999999999999971
 50
0
  1
ＦＹＫサイドキャップＡ
  0
TEXT
  8
_0-4_図枠
 62
    7
 10
178.99228105906752
 20
301.17800081844541
 40
7.5000000000000213
 41
0.9999999999999971
 50
0
  1
ＦＹＫキャップＡ
  0
TEXT
  8
_0-4_図枠
 62
    7
 10
377.74228105906764
 20
314.67800081844564
 40
7.5
 41
1
 50
0
  1
規　格
  0
TEXT
  8
_0-4_図枠
 62
    7
 10
226.24228105906752
 20
314.67800081844564
 40
7.5
 41
1
 50
0
  1
部材名称
  0
LINE
  8
_0-4_図枠
  6
CONTINUOUS
 62
    7
 10
1035.4922810590674
 20
298.92800081844541
 11
697.99228105906764
 21
298.92800081844541
  0
LINE
  8
_0-0_0
  6
CONTINUOUS
 62
    7
 10
1035.4922810590672
 20
325.92800081844507
 11
697.99228105906764
 21
325.92800081844507
  0
TEXT
  8
_0-4_図枠
 62
    7
 10
973.99228105906752
 20
326.79650138709485
 40
7.5000000000000213
 41
0.9999999999999971
 50
0
  1
（単位：mm）
  0
TEXT
  8
_0-4_図枠
 62
    7
 10
1008.4922810590675
 20
314.6780008184453
 40
7.5
 41
1.0000000000000113
 50
0
  1
Ｅ
  0
TEXT
  8
_0-4_図枠
 62
    7
 10
963.49228105906752
 20
314.6780008184453
 40
7.5
 41
1.0000000000000113
 50
0
  1
Ｄ
  0
TEXT
  8
_0-4_図枠
 62
    7
 10
918.49228105906752
 20
314.6780008184453
 40
7.5
 41
1.0000000000000113
 50
0
  1
Ｃ
  0
TEXT
  8
_0-4_図枠
 62
    7
 10
828.49228105906752
 20
314.6780008184453
 40
7.5
 41
1.0000000000000113
 50
0
  1
Ｗ
  0
TEXT
  8
_0-4_図枠
 62
    7
 10
873.49228105906752
 20
314.6780008184453
 40
7.5
 41
1.0000000000000113
 50
0
  1
Ａ
  0
TEXT
  8
_0-4_図枠
 62
    7
 10
728.74228105906752
 20
314.6780008184453
 40
7.5
 41
1.0000000000000004
 50
0
  1
タ　イ　プ
  0
TEXT
  8
_0-4_図枠
 62
    7
 10
652.99228105906752
 20
247.17800081844541
 40
7.5000000000000213
 41
0.9999999999999943
 50
0
  1
巻
  0
TEXT
  8
_0-4_図枠
 62
    7
 10
550.99228105906752
 20
247.17800081844541
 40
7.5000000000000213
 41
0.9999999999999964
 50
0
  1
巻
  0
LINE
  8
_0-4_図枠
  6
CONTINUOUS
 62
    7
 10
567.49228105906752
 20
244.92800081844544
 11
667.99228105906752
 21
244.92800081844544
  0
LINE
  8
_0-4_図枠
  6
CONTINUOUS
 62
    7
 10
567.49228105906752
 20
258.42800081844541
 11
667.99228105906752
 21
258.42800081844541
  0
LINE
  8
_0-4_図枠
  6
CONTINUOUS
 62
    7
 10
565.99228105906752
 20
244.92800081844544
 11
465.49228105906752
 21
244.92800081844544
  0
LINE
  8
_0-4_図枠
  6
CONTINUOUS
 62
    7
 10
565.99228105906752
 20
258.42800081844541
 11
465.49228105906752
 21
258.42800081844541
  0
TEXT
  8
_0-4_図枠
 62
    7
 10
178.99228105906752
 20
247.17800081844541
 40
7.5000000000000213
 41
0.9999999999999971
 50
0
  1
ブチルテープ
  0
LINE
  8
_0-4_図枠
  6
CONTINUOUS
 62
    7
 10
150.49228105906752
 20
28.928000818445611
 11
150.49228105906752
 21
325.92800081844541
  0
LINE
  8
_0-4_図枠
  6
CONTINUOUS
 62
    7
 10
171.49228105906769
 20
28.928000818445611
 11
171.49228105906769
 21
325.92800081844541
  0
LINE
  8
_0-4_図枠
  6
CONTINUOUS
 62
    7
 10
321.49228105906758
 20
28.928000818445611
 11
321.49228105906758
 21
325.92800081844541
  0
LINE
  8
_0-4_図枠
  6
CONTINUOUS
 62
    7
 10
463.99228105906752
 20
28.928000818445611
 11
463.99228105906752
 21
325.92800081844541
  0
LINE
  8
_0-4_図枠
  6
CONTINUOUS
 62
    7
 10
465.49228105906752
 20
28.928000818445611
 11
465.49228105906752
 21
325.92800081844541
  0
LINE
  8
_0-4_図枠
  6
CONTINUOUS
 62
    7
 10
517.99228105906752
 20
28.928000818445611
 11
517.99228105906752
 21
325.92800081844541
  0
LINE
  8
_0-4_図枠
  6
CONTINUOUS
 62
    7
 10
544.99228105906752
 20
28.928000818445611
 11
544.99228105906752
 21
325.92800081844541
  0
LINE
  8
_0-4_図枠
  6
CONTINUOUS
 62
    7
 10
565.99228105906752
 20
28.928000818445611
 11
565.99228105906752
 21
325.92800081844541
  0
LINE
  8
_0-4_図枠
  6
CONTINUOUS
 62
    7
 10
567.49228105906752
 20
28.928000818445611
 11
567.49228105906752
 21
325.92800081844541
  0
LINE
  8
_0-4_図枠
  6
CONTINUOUS
 62
    7
 10
619.99228105906752
 20
28.928000818445611
 11
619.99228105906752
 21
325.92800081844541
  0
LINE
  8
_0-4_図枠
  6
CONTINUOUS
 62
    7
 10
646.99228105906752
 20
28.928000818445611
 11
646.99228105906752
 21
325.92800081844541
  0
LINE
  8
_0-4_図枠
  6
CONTINUOUS
 62
    7
 10
667.99228105906752
 20
28.928000818445611
 11
150.49228105906752
 21
28.928000818445611
  0
LINE
  8
_0-4_図枠
  6
CONTINUOUS
 62
    7
 10
667.99228105906752
 20
28.928000818445611
 11
667.99228105906752
 21
325.92800081844541
  0
TEXT
  8
_0-0_0
 62
    7
 10
179.28941001241589
 20
166.39674206224447
 40
7.5
 41
0.9999999999999984
 50
0
  1
ウォーターガード
  0
TEXT
  8
_0-4_図枠
 62
    7
 10
550.99228105906752
 20
166.1780008184453
 40
7.5
 41
0.9999999999999993
 50
0
  1
枚
  0
TEXT
  8
_0-4_図枠
 62
    7
 10
652.99228105906752
 20
166.1780008184453
 40
7.5
 41
0.9999999999999971
 50
0
  1
枚
  0
LINE
  8
_0-4_図枠
  6
CONTINUOUS
 62
    7
 10
697.99228105906764
 20
325.92800081844507
 11
697.99228105906764
 21
298.92800081844541
  0
LINE
  8
_0-4_図枠
  6
CONTINUOUS
 62
    7
 10
810.49228105906752
 20
325.92800081844507
 11
810.49228105906752
 21
298.92800081844541
  0
LINE
  8
_0-4_図枠
  6
CONTINUOUS
 62
    7
 10
855.49228105906752
 20
325.92800081844507
 11
855.49228105906752
 21
298.92800081844541
  0
LINE
  8
_0-4_図枠
  6
CONTINUOUS
 62
    7
 10
900.49228105906752
 20
325.92800081844507
 11
900.49228105906752
 21
298.92800081844541
  0
LINE
  8
_0-4_図枠
  6
CONTINUOUS
 62
    7
 10
945.49228105906752
 20
325.92800081844507
 11
945.49228105906752
 21
298.92800081844541
  0
LINE
  8
_0-4_図枠
  6
CONTINUOUS
 62
    7
 10
990.49228105906752
 20
325.92800081844507
 11
990.49228105906752
 21
298.92800081844541
  0
LINE
  8
_0-4_図枠
  6
CONTINUOUS
 62
    7
 10
1035.4922810590674
 20
325.92800081844507
 11
1035.4922810590674
 21
298.92800081844541
  0
TEXT
  8
_0-4_図枠
 62
    7
 10
178.99228105906752
 20
125.6780008184457
 40
7.5
 41
1
 50
0
  1
ステン小ねじ
  0
TEXT
  8
_0-4_図枠
 62
    7
 10
178.99228105906752
 20
112.1780008184457
 40
7.5
 41
1
 50
0
  1
ステン小ねじ
  0
TEXT
  8
_0-0_0
 62
    7
 10
326.6216815247916
 20
166.39674206224447
 40
7.5
 41
1
 50
0
  1
ＳＰＶＣ
  0
LINE
  8
_0-0_0
  6
CONTINUOUS
 62
    7
 10
463.99228105906752
 20
298.92800081844564
 11
150.49228105906752
 21
298.92800081844564
  0
TEXT
  8
_0-4_図枠
 62
    7
 10
328.99228105906758
 20
247.17800081844541
 40
7.5000000000000213
 41
0.9999999999999975
 50
0
  1
ｔ１．０×ｗ３０
  0
TEXT
  8
_0-4_図枠
 62
    7
 10
328.99228105906758
 20
125.6780008184457
 40
7.5
 41
0.9999999999999996
 50
0
  1
なべＭ６×３５
  0
TEXT
  8
_0-4_図枠
 62
    7
 10
328.99228105906758
 20
112.1780008184457
 40
7.5
 41
0.9999999999999996
 50
0
  1
なべＭ４×１０
  0
TEXT
  8
_0-4_図枠
 62
    7
 10
328.99228105906758
 20
98.678000818445653
 40
7.5
 41
1
 50
0
  1
Ｍ６×４０
  0
TEXT
  8
_0-4_図枠
 62
    7
 10
328.99228105906758
 20
85.178000818445653
 40
7.5
 41
1
 50
0
  1
ＡＧ－６６０
  0
TEXT
  8
_0-4_図枠
 62
    7
 10
328.99228105906758
 20
71.678000818445653
 40
7.5
 41
1
 50
0
  1
φ８×４０
  0
TEXT
  8
_0-4_図枠
 62
    7
 10
328.99228105906758
 20
58.178000818445611
 40
7.5
 41
1.0000000000000004
 50
0
  1
なべ ５×５０
  0
TEXT
  8
_0-4_図枠
 62
    7
 10
328.99228105906758
 20
44.678000818445611
 40
7.5
 41
1
 50
0
  1
１．５×１８×６．５穴
  0
TEXT
  8
_0-4_図枠
 62
    7
 10
328.99228105906758
 20
31.178000818445611
 40
7.5
 41
1
 50
0
  1
１．５×１８×５．５穴
  0
TEXT
  8
_0-4_図枠
 62
    7
 10
474.49228105906752
 20
326.79650138709519
 40
7.5
 41
0.9999999999999996
 50
0
  1
（３０００mmセット）
  0
TEXT
  8
_0-4_図枠
 62
    7
 10
576.49228105906752
 20
326.79650138709519
 40
7.5
 41
1.0000000000000002
 50
0
  1
（２０００mmセット）
  0
TEXT
  8
_0-4_図枠
 62
    7
 10
473.53554777437165
 20
301.17800081844541
 40
7.5000000000000213
 41
0.9999999999999971
 50
0
  1
３０００
  0
TEXT
  8
_0-4_図枠
 62
    7
 10
473.53554777437165
 20
287.67800081844541
 40
7.5000000000000213
 41
0.9999999999999971
 50
0
  1
３０００
  0
TEXT
  8
_0-4_図枠
 62
    7
 10
473.53554777437165
 20
274.17800081844541
 40
7.5000000000000213
 41
0.9999999999999971
 50
0
  1
３０００
  0
TEXT
  8
_0-4_図枠
 62
    7
 10
473.53554777437165
 20
260.67800081844541
 40
7.5000000000000213
 41
0.9999999999999971
 50
0
  1
３０００
  0
TEXT
  8
_0-4_図枠
 62
    7
 10
473.53554777437165
 20
247.17800081844541
 40
7.5000000000000213
 41
0.9999999999999971
 50
0
  1
６０００
  0
TEXT
  8
_0-4_図枠
 62
    7
 10
473.53554777437165
 20
166.1780008184457
 40
7.5
 41
1
 50
0
  1
３０６０
  0
TEXT
  8
_0-4_図枠
 62
    7
 10
473.53554777437165
 20
152.6780008184457
 40
7.5
 41
1
 50
0
  1
３１００
  0
TEXT
  8
_0-4_図枠
 62
    7
 10
473.53554777437165
 20
139.1780008184457
 40
7.5
 41
1
 50
0
  1
３０００
  0
TEXT
  8
_0-4_図枠
 62
    7
 10
527.90824693682202
 20
301.17800081844541
 40
7.5000000000000213
 41
0.9999999999999964
 50
0
  1
１
  0
TEXT
  8
_0-4_図枠
 62
    7
 10
527.90824693682202
 20
287.67800081844541
 40
7.5000000000000213
 41
0.9999999999999964
 50
0
  1
１
  0
TEXT
  8
_0-4_図枠
 62
    7
 10
527.90824693682202
 20
274.17800081844541
 40
7.5000000000000213
 41
0.9999999999999964
 50
0
  1
１
  0
TEXT
  8
_0-4_図枠
 62
    7
 10
527.90824693682202
 20
260.67800081844541
 40
7.5000000000000213
 41
0.9999999999999964
 50
0
  1
１
  0
TEXT
  8
_0-4_図枠
 62
    7
 10
527.90824693682202
 20
247.17800081844541
 40
7.5000000000000213
 41
0.9999999999999964
 50
0
  1
１
  0
TEXT
  8
_0-4_図枠
 62
    7
 10
527.90824693682202
 20
233.67800081844541
 40
7.5000000000000213
 41
0.9999999999999964
 50
0
  1
６
  0
TEXT
  8
_0-4_図枠
 62
    7
 10
527.90824693682202
 20
220.1780008184457
 40
7.5
 41
0.9999999999999993
 50
0
  1
６
  0
TEXT
  8
_0-4_図枠
 62
    7
 10
527.90824693682202
 20
206.6780008184457
 40
7.5
 41
0.9999999999999993
 50
0
  1
６
  0
TEXT
  8
_0-4_図枠
 62
    7
 10
527.90824693682202
 20
193.1780008184457
 40
7.5
 41
0.9999999999999993
 50
0
  1
１
  0
TEXT
  8
_0-4_図枠
 62
    7
 10
527.90824693682202
 20
179.6780008184457
 40
7.5
 41
0.9999999999999993
 50
0
  1
１
  0
TEXT
  8
_0-4_図枠
 62
    7
 10
528.22398915053657
 20
167.4058672095897
 40
7.5
 41
0.9999999999999993
 50
0
  1
１
  0
TEXT
  8
_0-4_図枠
 62
    7
 10
527.90824693682202
 20
152.6780008184457
 40
7.5
 41
0.9999999999999993
 50
0
  1
１
  0
TEXT
  8
_0-4_図枠
 62
    7
 10
527.90824693682202
 20
139.1780008184457
 40
7.5
 41
0.9999999999999993
 50
0
  1
１
  0
TEXT
  8
_0-4_図枠
 62
    7
 10
527.90824693682202
 20
125.6780008184457
 40
7.5
 41
0.9999999999999993
 50
0
  1
６
  0
TEXT
  8
_0-4_図枠
 62
    7
 10
527.90824693682202
 20
112.1780008184457
 40
7.5
 41
0.9999999999999993
 50
0
  1
６
  0
TEXT
  8
_0-4_図枠
 62
    7
 10
527.90824693682202
 20
98.678000818445653
 40
7.5
 41
0.9999999999999993
 50
0
  1
６
  0
TEXT
  8
_0-4_図枠
 62
    7
 10
527.90824693682202
 20
85.178000818445653
 40
7.5
 41
0.9999999999999993
 50
0
  1
６
  0
TEXT
  8
_0-4_図枠
 62
    7
 10
527.90824693682202
 20
71.678000818445653
 40
7.5
 41
0.9999999999999993
 50
0
  1
６
  0
TEXT
  8
_0-4_図枠
 62
    7
 10
527.90824693682202
 20
58.178000818445611
 40
7.5
 41
0.9999999999999993
 50
0
  1
６
  0
TEXT
  8
_0-4_図枠
 62
    7
 10
527.90824693682202
 20
44.678000818445611
 40
7.5
 41
0.9999999999999993
 50
0
  1
６
  0
TEXT
  8
_0-4_図枠
 62
    7
 10
527.90824693682202
 20
31.178000818445611
 40
7.5
 41
0.9999999999999993
 50
0
  1
６
  0
TEXT
  8
_0-4_図枠
 62
    7
 10
577.48400556779029
 20
301.17800081844541
 40
7.5000000000000213
 41
0.9999999999999971
 50
0
  1
２０００
  0
TEXT
  8
_0-4_図枠
 62
    7
 10
577.48400556779029
 20
287.67800081844541
 40
7.5000000000000213
 41
0.9999999999999971
 50
0
  1
２０００
  0
TEXT
  8
_0-4_図枠
 62
    7
 10
577.48400556779029
 20
274.17800081844541
 40
7.5000000000000213
 41
0.9999999999999971
 50
0
  1
２０００
  0
TEXT
  8
_0-4_図枠
 62
    7
 10
577.48400556779029
 20
260.67800081844541
 40
7.5000000000000213
 41
0.9999999999999971
 50
0
  1
２０００
  0
TEXT
  8
_0-4_図枠
 62
    7
 10
577.48400556779029
 20
247.17800081844541
 40
7.5000000000000213
 41
0.9999999999999971
 50
0
  1
６０００
  0
TEXT
  8
_0-4_図枠
 62
    7
 10
577.48400556779029
 20
166.1780008184457
 40
7.5
 41
1
 50
0
  1
２０６０
  0
TEXT
  8
_0-4_図枠
 62
    7
 10
577.48400556779029
 20
152.6780008184457
 40
7.5
 41
1
 50
0
  1
２１００
  0
TEXT
  8
_0-4_図枠
 62
    7
 10
577.48400556779029
 20
139.1780008184457
 40
7.5
 41
1
 50
0
  1
２０００
  0
TEXT
  8
_0-4_図枠
 62
    7
 10
630.62961071190989
 20
301.17800081844541
 40
7.5000000000000213
 41
0.9999999999999971
 50
0
  1
１
  0
TEXT
  8
_0-4_図枠
 62
    7
 10
630.62961071190989
 20
287.67800081844541
 40
7.5000000000000213
 41
0.9999999999999971
 50
0
  1
１
  0
TEXT
  8
_0-4_図枠
 62
    7
 10
630.62961071190989
 20
274.17800081844541
 40
7.5000000000000213
 41
0.9999999999999971
 50
0
  1
１
  0
TEXT
  8
_0-4_図枠
 62
    7
 10
630.62961071190989
 20
260.67800081844541
 40
7.5000000000000213
 41
0.9999999999999971
 50
0
  1
１
  0
TEXT
  8
_0-4_図枠
 62
    7
 10
630.62961071190989
 20
247.17800081844541
 40
7.5000000000000213
 41
0.9999999999999971
 50
0
  1
１
  0
TEXT
  8
_0-4_図枠
 62
    7
 10
630.62961071190989
 20
233.67800081844541
 40
7.5000000000000213
 41
0.9999999999999971
 50
0
  1
１
  0
TEXT
  8
_0-4_図枠
 62
    7
 10
630.62961071190989
 20
220.1780008184457
 40
7.5
 41
1
 50
0
  1
１
  0
TEXT
  8
_0-4_図枠
 62
    7
 10
630.62961071190989
 20
206.6780008184457
 40
7.5
 41
1
 50
0
  1
４
  0
TEXT
  8
_0-4_図枠
 62
    7
 10
630.62961071190989
 20
193.1780008184457
 40
7.5
 41
1
 50
0
  1
１
  0
TEXT
  8
_0-4_図枠
 62
    7
 10
630.62961071190989
 20
179.6780008184457
 40
7.5
 41
1
 50
0
  1
１
  0
TEXT
  8
_0-4_図枠
 62
    7
 10
630.36243023380086
 20
166.39674206224447
 40
7.5
 41
1
 50
0
  1
１
  0
TEXT
  8
_0-4_図枠
 62
    7
 10
630.62961071190989
 20
152.6780008184457
 40
7.5
 41
1
 50
0
  1
１
  0
TEXT
  8
_0-4_図枠
 62
    7
 10
630.62961071190989
 20
139.1780008184457
 40
7.5
 41
1
 50
0
  1
１
  0
TEXT
  8
_0-4_図枠
 62
    7
 10
630.62961071190989
 20
125.6780008184457
 40
7.5
 41
1
 50
0
  1
４
  0
TEXT
  8
_0-4_図枠
 62
    7
 10
630.62961071190989
 20
112.1780008184457
 40
7.5
 41
1
 50
0
  1
５
  0
TEXT
  8
_0-4_図枠
 62
    7
 10
630.62961071190989
 20
98.678000818445653
 40
7.5
 41
1
 50
0
  1
５
  0
TEXT
  8
_0-4_図枠
 62
    7
 10
630.62961071190989
 20
85.178000818445653
 40
7.5
 41
1
 50
0
  1
５
  0
TEXT
  8
_0-4_図枠
 62
    7
 10
630.62961071190989
 20
71.678000818445653
 40
7.5
 41
1
 50
0
  1
５
  0
TEXT
  8
_0-4_図枠
 62
    7
 10
630.62961071190989
 20
58.178000818445611
 40
7.5
 41
1
 50
0
  1
５
  0
TEXT
  8
_0-4_図枠
 62
    7
 10
630.62961071190989
 20
44.678000818445611
 40
7.5
 41
1
 50
0
  1
５
  0
TEXT
  8
_0-4_図枠
 62
    7
 10
630.62961071190989
 20
31.178000818445611
 40
7.5
 41
1
 50
0
  1
５
  0
TEXT
  8
_0-4_図枠
 62
    7
 10
276.17990504589443
 20
521.13893103708688
 40
9
 41
1
 50
0
  1
21
  0
TEXT
  8
_0-4_図枠
 62
    7
 10
273.178125062866
 20
563.53907329736307
 40
9
 41
1
 50
0
  1
19
  0
TEXT
  8
_0-4_図枠
 62
    7
 10
279.55690752680135
 20
606.31443805551771
 40
9
 41
1
 50
0
  1
４
  0
TEXT
  8
_0-4_図枠
 62
    7
 10
278.43124003316569
 20
627.70212043459503
 40
9
 41
1
 50
0
  1
15
  0
TEXT
  8
_0-4_図枠
 62
    7
 10
246.91255021136749
 20
560.91251581221309
 40
9
 41
1
 50
0
  1
18
  0
TEXT
  8
_0-0_0
 62
    7
 10
315.9534898210207
 20
629.95345542186635
 40
9
 41
1
 50
0
  1
20
  0
TEXT
  8
_0-4_図枠
 62
    7
 10
342.96950966827632
 20
618.69678048550986
 40
9
 41
1
 50
0
  1
２
  0
TEXT
  8
_0-4_図枠
 62
    7
 10
348.59784713645456
 20
605.18877056188217
 40
9
 41
1
 50
0
  1
10
  0
TEXT
  8
_0-4_図枠
 62
    7
 10
350.84918212372588
 20
495.62380118134547
 40
9
 41
1
 50
0
  1
13
  0
TEXT
  8
_0-4_図枠
 62
    7
 10
335.84028220858386
 20
435.21297902289882
 40
9
 41
1
 50
0
  1
12
  0
LINE
  8
_0-0_0
  6
DASHED1
 62
    3
 10
327.56509763858503
 20
514.09102997473497
 11
1017.0634296385841
 21
477.95595201331122
  0
LINE
  8
_0-0_0
  6
CONTINUOUS
 62
    2
 10
1035.8655966385845
 20
430.61446701331113
 11
1035.8655966385845
 21
429.61446801331118
  0
LINE
  8
_0-0_0
  6
CONTINUOUS
 62
    2
 10
328.89966263858491
 20
539.55608297473486
 11
1018.3979976385843
 21
503.42100801331105
  0
LINE
  8
_0-0_0
  6
CONTINUOUS
 62
    2
 10
328.66415063858483
 20
535.06225097473498
 11
1018.1624856385841
 21
498.92717301331123
  0
LINE
  8
_0-0_0
  6
CONTINUOUS
 62
    2
 10
328.58564663858488
 20
533.56430597473491
 11
1018.0839816385842
 21
497.42922801331116
  0
LINE
  8
_0-0_0
  6
DASHED1
 62
    3
 10
327.81630863858493
 20
518.88445097473482
 11
1017.3146436385842
 21
482.74937601331118
  0
LINE
  8
_0-0_0
  6
DASHED1
 62
    3
 10
327.72210563858494
 20
517.086919974735
 11
1017.220437638584
 21
480.95184201331119
  0
LINE
  8
_0-0_0
  6
CONTINUOUS
 62
    2
 10
327.43425563858489
 20
511.59445697473495
 11
1016.932590638584
 21
475.45937901331132
  0
LINE
  8
_0-0_0
  6
DASHED1
 62
    3
 10
327.48659363858485
 20
512.59308497473489
 11
1016.9849256385845
 21
476.45801001331108
  0
LINE
  8
_0-0_0
  6
DASHED1
 62
    3
 10
1024.6289166385841
 20
500.31114201331121
 11
308.74054763858499
 21
537.82926197473489
  0
LINE
  8
_0-0_0
  6
CONTINUOUS
 62
    2
 10
1044.6854046385843
 20
503.76620301331133
 11
313.47605963858501
 21
542.08726097473493
  0
LINE
  8
_0-0_0
  6
CONTINUOUS
 62
    2
 10
1044.7900776385845
 20
505.76346201331131
 11
313.58073263858489
 21
544.0845199747348
  0
LINE
  8
_0-0_0
  6
CONTINUOUS
 62
    2
 10
1037.6330706385843
 20
417.61446801331118
 11
1037.6330706385843
 21
415.61446701331113
  0
ARC
  8
_0-0_0
  6
DASHED1
 62
    3
 10
1024.4719086385844
 20
497.31525501331123
 40
7.5
 50
10.124672000000007
 51
87.000000000000014
  0
LINE
  8
_0-0_0
  6
CONTINUOUS
 62
    3
 10
1011.3925566385843
 20
505.5110060133112
 11
1009.7554896385842
 21
503.87394201331114
  0
LINE
  8
_0-0_0
  6
CONTINUOUS
 62
    3
 10
1012.7363466385845
 20
505.4405810133112
 11
1011.0992796385843
 21
503.80351701331125
  0
LINE
  8
_0-0_0
  6
CONTINUOUS
 62
    3
 10
1014.0801336385842
 20
505.37015601331115
 11
1012.4430666385841
 21
503.73309201331119
  0
LINE
  8
_0-0_0
  6
CONTINUOUS
 62
    3
 10
1015.4239236385844
 20
505.29973101331126
 11
1013.7868566385843
 21
503.66266701331108
  0
LINE
  8
_0-0_0
  6
CONTINUOUS
 62
    3
 10
1016.7677106385842
 20
505.2293060133112
 11
1015.1306466385844
 21
503.59224201331119
  0
LINE
  8
_0-0_0
  6
CONTINUOUS
 62
    3
 10
1018.1115006385843
 20
505.15888101331109
 11
1016.4744336385842
 21
503.52181701331119
  0
LINE
  8
_0-0_0
  6
CONTINUOUS
 62
    3
 10
1017.8182236385843
 20
503.45139201331114
 11
1018.4317446385841
 21
504.06491301331118
  0
LINE
  8
_0-0_0
  6
CONTINUOUS
 62
    3
 10
1010.0595186385843
 20
505.58086701331115
 11
1008.4224516385842
 21
503.94380301331125
  0
LINE
  8
_0-0_0
  6
CONTINUOUS
 62
    3
 10
1008.7049796385844
 20
505.6518560133112
 11
1008.4899156385844
 21
505.43679501331121
  0
ARC
  8
_0-0_0
  6
CONTINUOUS
 62
    2
 10
1044.6330696385844
 20
418.61446701331113
 40
0.9999989999999996
 50
270
 51
0
  0
LINE
  8
_0-0_0
  6
CONTINUOUS
 62
    2
 10
1044.6330696385844
 20
417.61446801331118
 11
1037.6330706385843
 21
417.61446801331118
  0
ARC
  8
_0-0_0
  6
CONTINUOUS
 62
    2
 10
1044.6330696385844
 20
418.61446701331113
 40
3
 50
270
 51
0
  0
LINE
  8
_0-0_0
  6
CONTINUOUS
 62
    2
 10
1044.6330696385844
 20
415.61446701331113
 11
1037.6330706385843
 21
415.61446701331113
  0
ARC
  8
_0-0_0
  6
CONTINUOUS
 62
    2
 10
1044.6330696385844
 20
502.76757201331117
 40
3
 50
0
 51
87.000000000000014
  0
LINE
  8
_0-0_0
  6
CONTINUOUS
 62
    2
 10
1047.6330696385844
 20
502.76757201331117
 11
1047.6330696385844
 21
418.61446701331113
  0
LINE
  8
_0-0_0
  6
DASHED1
 62
    3
 10
1031.8551156385843
 20
498.63368301331104
 11
1045.6330686385841
 21
421.47713601331134
  0
LINE
  8
_0-0_0
  6
CONTINUOUS
 62
    2
 10
1045.6330686385841
 20
502.76757201331117
 11
1045.6330686385841
 21
418.61446701331113
  0
ARC
  8
_0-0_0
  6
CONTINUOUS
 62
    2
 10
1044.6330696385844
 20
502.76757201331117
 40
0.9999989999999996
 50
0
 51
87.000000000000014
  0
LINE
  8
_0-0_0
  6
DASHED1
 62
    3
 10
1027.4251896385842
 20
497.84262501331125
 11
1041.2018766385841
 21
420.6931880133111
  0
ARC
  8
_0-0_0
  6
DASHED1
 62
    3
 10
1024.4719086385844
 20
497.31525501331123
 40
3
 50
10.124672000000007
 51
87.000000000000014
  0
LINE
  8
_0-0_0
  6
CONTINUOUS
 62
    2
 10
1040.7157716385841
 20
428.41446801331119
 11
1031.4655956385841
 21
428.41446801331119
  0
ARC
  8
_0-0_0
  6
CONTINUOUS
 62
    2
 10
1040.7157716385841
 20
427.9144670133112
 40
0.500001
 50
12.00000000000003
 51
90
  0
LINE
  8
_0-0_0
  6
CONTINUOUS
 62
    2
 10
1041.2048466385841
 20
428.01842301331135
 11
1042.6330686385841
 21
421.29915501331118
  0
LINE
  8
_0-0_0
  6
CONTINUOUS
 62
    2
 10
1042.6330686385841
 20
421.29915501331118
 11
1042.6330686385841
 21
417.61446801331118
  0
LINE
  8
_0-0_0
  6
CONTINUOUS
 62
    2
 10
1043.1330696385844
 20
417.61446801331118
 11
1042.6330686385841
 21
417.61446801331118
  0
ARC
  8
_0-0_0
  6
CONTINUOUS
 62
    2
 10
1043.1330696385844
 20
420.11446701331113
 40
2.4999989999999999
 50
270
 51
0
  0
LINE
  8
_0-0_0
  6
CONTINUOUS
 62
    2
 10
1031.4655956385841
 20
429.61446801331118
 11
1033.8655956385842
 21
429.61446801331118
  0
LINE
  8
_0-0_0
  6
CONTINUOUS
 62
    2
 10
1033.8655956385842
 20
429.61446801331118
 11
1035.8655966385845
 21
430.61446701331113
  0
ARC
  8
_0-0_0
  6
CONTINUOUS
 62
    2
 10
1031.4655956385841
 20
429.01446801331122
 40
0.5999999999999996
 50
90
 51
270
  0
LINE
  8
_0-0_0
  6
CONTINUOUS
 62
    2
 10
1040.2481466385843
 20
429.61446801331118
 11
1035.8655966385845
 21
429.61446801331118
  0
ARC
  8
_0-0_0
  6
CONTINUOUS
 62
    2
 10
1040.2481466385843
 20
430.11446601331124
 40
0.500001
 50
270
 51
11.999999999999941
  0
ARC
  8
_0-0_0
  6
CONTINUOUS
 62
    2
 10
1019.034522638584
 20
477.35196801331119
 40
0.500001
 50
87
 51
176.99999999999997
  0
LINE
  8
_0-0_0
  6
CONTINUOUS
 62
    2
 10
1018.5352056385844
 20
477.37813401331118
 11
1018.4828706385842
 21
476.37950601331119
  0
LINE
  8
_0-0_0
  6
CONTINUOUS
 62
    2
 10
1017.9573876385842
 20
475.90635801331121
 11
1017.4580736385843
 21
475.93252701331113
  0
ARC
  8
_0-0_0
  6
CONTINUOUS
 62
    2
 10
1017.4842426385841
 20
476.43184101331121
 40
0.500001
 50
177.00000000000003
 51
267.00000000000006
  0
ARC
  8
_0-0_0
  6
CONTINUOUS
 62
    2
 10
1017.983556638584
 20
476.40567201331129
 40
0.500001
 50
267
 51
357.00000000000023
  0
LINE
  8
_0-0_0
  6
CONTINUOUS
 62
    2
 10
1026.735768638584
 20
477.4490480133112
 11
1019.0606886385841
 21
477.85128201331111
  0
ARC
  8
_0-0_0
  6
CONTINUOUS
 62
    2
 10
1026.7095996385842
 20
476.94973401331106
 40
0.500001
 50
347
 51
87
  0
LINE
  8
_0-0_0
  6
CONTINUOUS
 62
    2
 10
1027.1967846385846
 20
476.83725801331127
 11
1026.6135936385842
 21
474.31117401331119
  0
LINE
  8
_0-0_0
  6
CONTINUOUS
 62
    2
 10
1028.799054638584
 20
477.34091601331113
 11
1029.9764016385839
 21
477.27921201331111
  0
ARC
  8
_0-0_0
  6
CONTINUOUS
 62
    2
 10
1028.7833556385842
 20
477.0413270133111
 40
0.2999999999999998
 50
87
 51
167
  0
LINE
  8
_0-0_0
  6
CONTINUOUS
 62
    2
 10
1028.4910446385843
 20
477.10881201331119
 11
1027.7828376385842
 21
474.04123101331135
  0
ARC
  8
_0-0_0
  6
CONTINUOUS
 62
    2
 10
1029.924066638584
 20
476.28058401331128
 40
0.9999989999999996
 50
12.00000000000003
 51
87.000000000000014
  0
ARC
  8
_0-0_0
  6
CONTINUOUS
 62
    2
 10
1027.1982156385839
 20
474.17620101331124
 40
0.5999999999999996
 50
167
 51
347
  0
LINE
  8
_0-0_0
  6
CONTINUOUS
 62
    2
 10
1033.6771206385843
 20
477.8627900133111
 11
1045.6330686385841
 21
421.61446701331113
  0
LINE
  8
_0-0_0
  6
CONTINUOUS
 62
    2
 10
1030.9022136385843
 20
476.48849601331119
 11
1040.7372216385843
 21
430.21842201331117
  0
LINE
  8
_0-0_0
  6
DASHED1
 62
    3
 10
1041.2018766385841
 20
420.6931880133111
 11
1045.6330686385841
 21
421.47713601331134
  0
LINE
  8
_0-0_0
  6
CONTINUOUS
 62
    2
 10
1018.4880426385845
 20
505.13914701331112
 11
1018.3979976385843
 21
503.42100801331105
  0
LINE
  8
_0-0_0
  6
CONTINUOUS
 62
    2
 10
1008.5017476385842
 20
505.66250901331125
 11
1008.4117026385844
 21
503.94436701331119
  0
ARC
  8
_0-0_0
  6
CONTINUOUS
 62
    2
 10
1017.8505936385844
 20
483.42224901331116
 40
0.500001
 50
87
 51
176.99999999999997
  0
LINE
  8
_0-0_0
  6
CONTINUOUS
 62
    2
 10
1019.217696638584
 20
480.84716901331132
 11
1030.8996846385839
 21
480.23494401331129
  0
ARC
  8
_0-0_0
  6
CONTINUOUS
 62
    2
 10
1019.2438656385845
 20
481.34648601331116
 40
0.500001
 50
177.00000000000003
 51
267.00000000000006
  0
LINE
  8
_0-0_0
  6
CONTINUOUS
 62
    2
 10
1018.7445516385842
 20
481.37265201331127
 11
1018.8492216385843
 21
483.36991101331125
  0
ARC
  8
_0-0_0
  6
CONTINUOUS
 62
    2
 10
1018.3499076385843
 20
483.39608001331123
 40
0.500001
 50
357.00000000000006
 51
87.000000000000028
  0
LINE
  8
_0-0_0
  6
CONTINUOUS
 62
    2
 10
1018.3760766385841
 20
483.89539401331132
 11
1017.8767626385842
 21
483.92156301331124
  0
LINE
  8
_0-0_0
  6
CONTINUOUS
 62
    2
 10
1018.3979976385843
 20
503.42100801331105
 11
1016.932590638584
 21
475.45937901331132
  0
ARC
  8
_0-0_0
  6
CONTINUOUS
 62
    2
 10
1030.7426766385843
 20
477.23905401331115
 40
3
 50
12.00000000000003
 51
87.000000000000014
  0
ARC
  8
_0-0_0
  6
DASHED1
 62
    3
 10
988.68099363858403
 20
480.94547301331124
 40
1.5
 50
87.000000000000028
 51
267.00000000000006
  0
CIRCLE
  8
_0-4_図枠
  6
CONTINUOUS
 62
    4
 10
1058.2650714491579
 20
532.32858427705639
 40
6
  0
LINE
  8
_0-4_図枠
  6
CONTINUOUS
 62
    4
 10
1031.6285903057546
 20
486.19284560183365
 11
1055.2650714491579
 21
527.13243185434953
  0
CIRCLE
  8
_0-4_図枠
  6
CONTINUOUS
 62
    4
 10
1031.6285903057546
 20
486.19284560183365
 40
0.8999999999999999
  0
CIRCLE
  8
_0-4_図枠
  6
CONTINUOUS
 62
    4
 10
1059.4142189634022
 20
554.50713130196596
 40
6
  0
LINE
  8
_0-4_図枠
  6
CONTINUOUS
 62
    4
 10
1031.2777378199989
 20
505.77331641538996
 11
1056.4142189634013
 21
549.31097887925887
  0
CIRCLE
  8
_0-4_図枠
  6
CONTINUOUS
 62
    4
 10
1031.2777378199989
 20
505.77331641538996
 40
0.8999999999999999
  0
CIRCLE
  8
_0-4_図枠
  6
CONTINUOUS
 62
    4
 10
1058.3525765230306
 20
485.92008819100295
 40
6
  0
LINE
  8
_0-4_図枠
  6
CONTINUOUS
 62
    4
 10
1030.3845627066735
 20
437.47806727428537
 11
1055.3525765230306
 21
480.72393576829626
  0
CIRCLE
  8
_0-4_図枠
  6
CONTINUOUS
 62
    4
 10
1030.3845627066735
 20
437.47806727428537
 40
0.8999999999999999
  0
TEXT
  8
_0-4_図枠
 62
    7
 10
1053.4083362489991
 20
481.4329054725963
 40
9
 41
1
 50
0
  1
５
  0
TEXT
  8
_0-4_図枠
 62
    7
 10
1053.9140907214933
 20
527.70943970578367
 40
9
 41
1
 50
0
  1
９
  0
TEXT
  8
_0-4_図枠
 62
    7
 10
1054.4198451939869
 20
549.70975925926621
 40
9
 41
1
 50
0
  1
１
  0
LINE
  8
_0-0_0
  6
CONTINUOUS
 62
    3
 10
1049.1330696385844
 20
505.6144670133113
 11
1137.009746949544
 21
505.6144670133113
  0
CIRCLE
  8
_0-4_図枠
  6
CONTINUOUS
 62
    4
 10
823.11221623433948
 20
524.11514406534911
 40
6
  0
LINE
  8
_0-0_0
  6
CONTINUOUS
 62
    1
 10
827.63306863858497
 20
392.0621792497717
 11
827.63306863858497
 21
459.48330201331112
  0
CIRCLE
  8
_0-4_図枠
  6
CONTINUOUS
 62
    4
 10
872.24974969751918
 20
535.64770041117811
 40
6
  0
LINE
  8
_0-4_図枠
  6
CONTINUOUS
 62
    4
 10
851.30114164309566
 20
501.63918835522225
 11
869.24974969751918
 21
530.45154798847159
  0
CIRCLE
  8
_0-4_図枠
  6
CONTINUOUS
 62
    4
 10
851.30114164309566
 20
501.63918835522225
 40
0.8999999999999999
  0
ARC
  8
_0-0_0
  6
DASHED1
 62
    3
 10
781.13306763875994
 20
419.98330201133638
 40
1.00000000005
 50
270
 51
0
  0
LINE
  8
_0-0_0
  6
DASHED1
 62
    3
 10
784.25809563891573
 20
421.22130601139804
 11
780.07266363870667
 21
420.48330201136116
  0
LINE
  8
_0-0_0
  6
DASHED1
 62
    3
 10
781.68306763878741
 20
451.18330201289615
 11
773.58306763838209
 21
451.18330201289615
  0
LINE
  8
_0-0_0
  6
DASHED1
 62
    3
 10
782.38306763882224
 20
450.48330201286115
 11
772.88306763834726
 21
450.48330201286115
  0
LINE
  8
_0-0_0
  6
DASHED1
 62
    3
 10
771.00803763825343
 20
421.22130601139804
 11
772.88306763834726
 21
431.85512801192976
  0
LINE
  8
_0-0_0
  6
DASHED1
 62
    3
 10
777.13306763855962
 20
431.48330201191118
 11
775.19346963846237
 21
420.48330201136116
  0
LINE
  8
_0-0_0
  6
DASHED1
 62
    3
 10
778.13306763860987
 20
431.48330201191118
 11
780.07266363870667
 21
420.48330201136116
  0
LINE
  8
_0-0_0
  6
DASHED1
 62
    3
 10
771.00803763825343
 20
421.22130601139804
 11
775.19346963846237
 21
420.48330201136116
  0
LINE
  8
_0-0_0
  6
DASHED1
 62
    3
 10
773.13306763835953
 20
419.98330201133638
 11
773.13306763835953
 21
420.84660601137944
  0
ARC
  8
_0-0_0
  6
DASHED1
 62
    3
 10
774.13306763840978
 20
419.98330201133638
 40
1.00000000005
 50
180
 51
270
  0
LINE
  8
_0-0_0
  6
DASHED1
 62
    3
 10
774.13306763840978
 20
418.9833020112863
 11
781.13306763875994
 21
418.9833020112863
  0
LINE
  8
_0-0_0
  6
DASHED1
 62
    3
 10
772.88306763834726
 20
431.85512801192976
 11
772.88306763834726
 21
450.48330201286115
  0
LINE
  8
_0-0_0
  6
DASHED1
 62
    3
 10
773.58306763838209
 20
460.48330201336125
 11
773.58306763838209
 21
451.18330201289615
  0
LINE
  8
_0-0_0
  6
DASHED1
 62
    3
 10
772.88306763834726
 20
450.48330201286115
 11
773.58306763838209
 21
451.18330201289615
  0
LINE
  8
_0-0_0
  6
DASHED1
 62
    3
 10
778.13306763860987
 20
431.48330201191118
 11
777.13306763855962
 21
431.48330201191118
  0
LINE
  8
_0-0_0
  6
DASHED1
 62
    3
 10
784.25809563891573
 20
421.22130601139804
 11
782.38306763882224
 21
431.85512801192976
  0
LINE
  8
_0-0_0
  6
DASHED1
 62
    3
 10
782.13306763880962
 20
419.98330201133638
 11
782.13306763880962
 21
420.84660601137944
  0
LINE
  8
_0-0_0
  6
DASHED1
 62
    3
 10
782.38306763882224
 20
431.85512801192976
 11
782.38306763882224
 21
450.48330201286115
  0
LINE
  8
_0-0_0
  6
DASHED1
 62
    3
 10
781.68306763878741
 20
460.48330201336125
 11
781.68306763878741
 21
451.18330201289615
  0
LINE
  8
_0-0_0
  6
DASHED1
 62
    3
 10
782.38306763882224
 20
450.48330201286115
 11
781.68306763878741
 21
451.18330201289615
  0
CIRCLE
  8
_0-4_図枠
  6
CONTINUOUS
 62
    4
 10
795.29916197888952
 20
475.94152098124016
 40
0.8999999999999999
  0
CIRCLE
  8
_0-4_図枠
  6
CONTINUOUS
 62
    4
 10
802.2802212304839
 20
446.57662068535546
 40
6
  0
LINE
  8
_0-4_図枠
  6
CONTINUOUS
 62
    4
 10
787.49853509871582
 20
472.17925208711449
 11
799.2802212304839
 21
451.77277310806198
  0
CIRCLE
  8
_0-4_図枠
  6
CONTINUOUS
 62
    4
 10
787.49853509871582
 20
472.17925208711449
 40
0.8999999999999999
  0
CIRCLE
  8
_0-4_図枠
  6
CONTINUOUS
 62
    4
 10
801.3898927578939
 20
432.76685650570465
 40
6
  0
LINE
  8
_0-4_図枠
  6
CONTINUOUS
 62
    4
 10
781.96750709303683
 20
466.40741528143371
 11
798.3898927578939
 21
437.96300892841145
  0
CIRCLE
  8
_0-4_図枠
  6
CONTINUOUS
 62
    4
 10
781.96750709303683
 20
466.40741528143371
 40
0.8999999999999999
  0
CIRCLE
  8
_0-4_図枠
  6
CONTINUOUS
 62
    4
 10
761.59981343455843
 20
416.78125216214931
 40
6
  0
LINE
  8
_0-4_図枠
  6
CONTINUOUS
 62
    4
 10
774.64142762930533
 20
439.36999056016168
 11
764.59981343455843
 21
421.977404584856
  0
CIRCLE
  8
_0-4_図枠
  6
CONTINUOUS
 62
    4
 10
774.64142762930533
 20
439.36999056016168
 40
0.8999999999999999
  0
LINE
  8
_0-0_0
  6
CONTINUOUS
 62
    2
 10
772.86863592417683
 20
476.06126501331113
 11
782.05602792417676
 21
475.57977401331073
  0
LINE
  8
_0-0_0
  6
CONTINUOUS
 62
    4
 10
762.65074092417581
 20
460.05732448500623
 11
763.07671845248069
 21
460.48330201331157
  0
ARC
  8
_0-0_0
  6
CONTINUOUS
 62
    7
 10
762.65074092417581
 20
452.23330201331157
 40
8.25
 50
90
 51
108.92464441605439
  0
ARC
  8
_0-0_0
  6
CONTINUOUS
 62
    7
 10
762.65074092417581
 20
452.23330201331157
 40
9.25
 50
90
 51
108.92464441605439
  0
ARC
  8
_0-0_0
  6
CONTINUOUS
 62
    7
 10
756.65074092417581
 20
469.73330201331135
 40
9.25
 50
270
 51
288.92464441605443
  0
LINE
  8
_0-0_0
  6
CONTINUOUS
 62
    4
 10
763.49093201485391
 20
459.48330201331112
 11
764.4909320148538
 21
460.48330201331157
  0
LINE
  8
_0-0_0
  6
CONTINUOUS
 62
    4
 10
764.90514557722668
 20
459.48330201331112
 11
765.90514557722668
 21
460.48330201331089
  0
LINE
  8
_0-0_0
  6
CONTINUOUS
 62
    4
 10
766.31935913960069
 20
459.48330201331112
 11
767.31935913960069
 21
460.48330201331089
  0
LINE
  8
_0-0_0
  6
CONTINUOUS
 62
    4
 10
767.7335727019738
 20
459.48330201331112
 11
768.7335727019738
 21
460.48330201331089
  0
LINE
  8
_0-0_0
  6
CONTINUOUS
 62
    4
 10
769.14778626434668
 20
459.48330201331112
 11
770.14778626434668
 21
460.48330201331089
  0
LINE
  8
_0-0_0
  6
CONTINUOUS
 62
    4
 10
770.56199982672069
 20
459.48330201331112
 11
771.56199982671978
 21
460.48330201331089
  0
LINE
  8
_0-0_0
  6
CONTINUOUS
 62
    4
 10
771.97621338909187
 20
459.48330201331112
 11
772.97621338909175
 21
460.48330201331089
  0
LINE
  8
_0-0_0
  6
CONTINUOUS
 62
    4
 10
773.39042695146463
 20
459.48330201331044
 11
774.39042695146463
 21
460.48330201331089
  0
LINE
  8
_0-0_0
  6
CONTINUOUS
 62
    4
 10
774.80464051383785
 20
459.48330201331044
 11
775.80464051383774
 21
460.48330201331089
  0
LINE
  8
_0-0_0
  6
CONTINUOUS
 62
    4
 10
776.21885407621062
 20
459.48330201331044
 11
777.21885407621164
 21
460.48330201331089
  0
LINE
  8
_0-0_0
  6
CONTINUOUS
 62
    4
 10
777.63306763858452
 20
459.48330201331112
 11
778.63306763858463
 21
460.48330201331089
  0
LINE
  8
_0-0_0
  6
CONTINUOUS
 62
    4
 10
779.04728120095854
 20
459.48330201331112
 11
780.04728120095763
 21
460.48330201331089
  0
LINE
  8
_0-0_0
  6
CONTINUOUS
 62
    4
 10
780.46149476333176
 20
459.48330201331112
 11
781.46149476333164
 21
460.48330201331089
  0
LINE
  8
_0-0_0
  6
CONTINUOUS
 62
    4
 10
781.87570832570452
 20
459.48330201331044
 11
782.87570832570464
 21
460.48330201331021
  0
LINE
  8
_0-0_0
  6
CONTINUOUS
 62
    4
 10
783.28992188807683
 20
459.48330201331112
 11
784.28992188807683
 21
460.48330201331157
  0
LINE
  8
_0-0_0
  6
CONTINUOUS
 62
    4
 10
784.70413545044971
 20
459.48330201331112
 11
785.7041354504496
 21
460.48330201331089
  0
LINE
  8
_0-0_0
  6
CONTINUOUS
 62
    4
 10
786.11834901282282
 20
459.48330201331112
 11
787.11834901282361
 21
460.48330201331089
  0
LINE
  8
_0-0_0
  6
CONTINUOUS
 62
    4
 10
787.53256257519683
 20
459.48330201331112
 11
788.53256257519683
 21
460.48330201331089
  0
LINE
  8
_0-0_0
  6
CONTINUOUS
 62
    4
 10
788.94677613756971
 20
459.48330201331112
 11
789.9467761375696
 21
460.48330201331089
  0
LINE
  8
_0-0_0
  6
CONTINUOUS
 62
    4
 10
790.36098969994373
 20
459.48330201331112
 11
791.36098969994362
 21
460.48330201331089
  0
LINE
  8
_0-0_0
  6
CONTINUOUS
 62
    4
 10
791.77520326231684
 20
459.48330201331112
 11
792.65074092417569
 21
460.35883967517032
  0
LINE
  8
_0-0_0
  6
CONTINUOUS
 62
    3
 10
792.65074092417569
 20
459.48330201331112
 11
762.65074092417581
 21
459.48330201331112
  0
LINE
  8
_0-0_0
  6
CONTINUOUS
 62
    3
 10
762.65074092417581
 20
459.48330201331112
 11
762.65074092417581
 21
460.48330201331089
  0
LINE
  8
_0-0_0
  6
CONTINUOUS
 62
    3
 10
762.65074092417581
 20
460.48330201331089
 11
792.65074092417569
 21
460.48330201331089
  0
LINE
  8
_0-0_0
  6
CONTINUOUS
 62
    3
 10
792.65074092417569
 20
460.48330201331089
 11
792.65074092417569
 21
459.48330201331112
  0
ARC
  8
_0-0_0
  6
CONTINUOUS
 62
    7
 10
756.65074092417581
 20
469.73330201331135
 40
10.25
 50
270
 51
288.92464441605443
  0
LINE
  8
_0-0_0
  6
CONTINUOUS
 62
    2
 10
786.65074092417672
 20
465.59207201331139
 11
786.65074092417672
 21
463.99207301331114
  0
LINE
  8
_0-0_0
  6
CONTINUOUS
 62
    2
 10
786.65074092417672
 20
465.59207201331139
 11
768.65074092417672
 21
465.59207201331139
  0
LINE
  8
_0-0_0
  6
CONTINUOUS
 62
    2
 10
768.65074092417672
 20
465.59207201331139
 11
768.65074092417672
 21
463.99207301331114
  0
LINE
  8
_0-0_0
  6
CONTINUOUS
 62
    2
 10
771.77074092417695
 20
469.85513501331104
 11
771.77074092417695
 21
465.59207201331139
  0
LINE
  8
_0-0_0
  6
CONTINUOUS
 62
    2
 10
772.70074092417678
 20
470.39207201331112
 11
771.77074092417695
 21
469.85513501331104
  0
ARC
  8
_0-0_0
  6
CONTINUOUS
 62
    2
 10
772.70074092417678
 20
466.58267801331101
 40
3.8093940000000002
 50
59.210035999999995
 51
90
  0
ARC
  8
_0-0_0
  6
CONTINUOUS
 62
    2
 10
777.65074092417672
 20
461.74271201331123
 40
8.6493599999999997
 50
69.705444999999997
 51
110.294555
  0
LINE
  8
_0-0_0
  6
CONTINUOUS
 62
    2
 10
774.65074092417672
 20
469.85513501331104
 11
774.65074092417672
 21
465.59207201331139
  0
LINE
  8
_0-0_0
  6
CONTINUOUS
 62
    2
 10
780.65074092417672
 20
469.85513501331104
 11
780.65074092417672
 21
465.59207201331139
  0
LINE
  8
_0-0_0
  6
CONTINUOUS
 62
    2
 10
783.53074092417683
 20
469.85513501331104
 11
783.53074092417683
 21
465.59207201331139
  0
LINE
  8
_0-0_0
  6
CONTINUOUS
 62
    2
 10
782.60074092417665
 20
470.39207201331112
 11
783.53074092417683
 21
469.85513501331104
  0
LINE
  8
_0-0_0
  6
CONTINUOUS
 62
    2
 10
772.70074092417678
 20
470.39207201331112
 11
782.60074092417665
 21
470.39207201331112
  0
ARC
  8
_0-0_0
  6
CONTINUOUS
 62
    2
 10
782.60074092417665
 20
466.58267801331101
 40
3.8093940000000002
 50
90
 51
120.789964
  0
LINE
  8
_0-0_0
  6
CONTINUOUS
 62
    2
 10
772.92097092417669
 20
477.05989601331112
 11
772.86863592417683
 21
476.06126501331113
  0
LINE
  8
_0-0_0
  6
CONTINUOUS
 62
    2
 10
782.10836292417684
 20
476.57840501331106
 11
782.05602792417676
 21
475.57977401331073
  0
ARC
  8
_0-0_0
  6
CONTINUOUS
 62
    2
 10
771.92234292417686
 20
477.11223101331097
 40
0.9999989999999993
 50
356.99999999999994
 51
87
  0
ARC
  8
_0-0_0
  6
CONTINUOUS
 62
    2
 10
783.10699392417678
 20
476.52606701331069
 40
0.9999989999999993
 50
87
 51
176.99999999999997
  0
ARC
  8
_0-0_0
  6
CONTINUOUS
 62
    2
 10
765.65074092417672
 20
470.99207201331126
 40
0.9999989999999993
 50
270
 51
0
  0
LINE
  8
_0-0_0
  6
CONTINUOUS
 62
    2
 10
765.65074092417672
 20
469.99207301331114
 11
761.45074092417678
 21
469.99207301331114
  0
ARC
  8
_0-0_0
  6
CONTINUOUS
 62
    2
 10
769.25074092417685
 20
477.25224401331116
 40
0.9999989999999993
 50
87.000000000000014
 51
180
  0
LINE
  8
_0-0_0
  6
CONTINUOUS
 62
    2
 10
786.10307592417678
 20
477.37042301331121
 11
769.30307592417671
 21
478.25087201331098
  0
ARC
  8
_0-0_0
  6
CONTINUOUS
 62
    2
 10
786.05074092417681
 20
476.37179201331122
 40
0.9999989999999993
 50
0
 51
87.000000000000014
  0
LINE
  8
_0-0_0
  6
CONTINUOUS
 62
    2
 10
789.65074092417672
 20
469.99207301331114
 11
793.85074092417665
 21
469.99207301331114
  0
ARC
  8
_0-0_0
  6
CONTINUOUS
 62
    2
 10
789.65074092417672
 20
470.99207201331126
 40
0.9999989999999993
 50
180
 51
270
  0
LINE
  8
_0-0_0
  6
CONTINUOUS
 62
    2
 10
768.25074192417674
 20
470.99207201331126
 11
768.25074192417674
 21
477.25224401331116
  0
ARC
  8
_0-0_0
  6
CONTINUOUS
 62
    2
 10
765.65074092417672
 20
470.99207201331126
 40
2.6000009999999998
 50
270
 51
0
  0
LINE
  8
_0-0_0
  6
CONTINUOUS
 62
    2
 10
765.65074092417672
 20
468.39207101331124
 11
761.15074092417672
 21
468.39207101331124
  0
LINE
  8
_0-0_0
  6
CONTINUOUS
 62
    2
 10
766.65073992417683
 20
477.25224401331116
 11
766.65073992417683
 21
470.99207201331126
  0
ARC
  8
_0-0_0
  6
CONTINUOUS
 62
    2
 10
769.25074092417685
 20
477.25224401331116
 40
2.6000009999999998
 50
87.000000000000014
 51
180
  0
LINE
  8
_0-0_0
  6
CONTINUOUS
 62
    2
 10
788.65074192417683
 20
476.37179201331122
 11
788.65074192417683
 21
470.99207201331126
  0
ARC
  8
_0-0_0
  6
CONTINUOUS
 62
    2
 10
786.05074092417681
 20
476.37179201331122
 40
2.6000009999999998
 50
0
 51
87.000000000000014
  0
LINE
  8
_0-0_0
  6
CONTINUOUS
 62
    2
 10
786.18681492417682
 20
478.96822901331137
 11
769.38681492417686
 21
479.84868101331131
  0
LINE
  8
_0-0_0
  6
CONTINUOUS
 62
    2
 10
787.0507399241767
 20
470.99207201331126
 11
787.0507399241767
 21
476.37179201331122
  0
ARC
  8
_0-0_0
  6
CONTINUOUS
 62
    2
 10
789.65074092417672
 20
470.99207201331126
 40
2.6000009999999998
 50
180
 51
270
  0
LINE
  8
_0-0_0
  6
CONTINUOUS
 62
    2
 10
789.65074092417672
 20
468.39207101331124
 11
794.15074092417672
 21
468.39207101331124
  0
LINE
  8
_0-0_0
  6
CONTINUOUS
 62
    2
 10
793.85074092417665
 20
467.49207101331137
 11
791.90074092417672
 21
467.49207101331137
  0
ARC
  8
_0-0_0
  6
CONTINUOUS
 62
    2
 10
793.85074092417665
 20
467.7920710133111
 40
0.2999999999999998
 50
270
 51
0
  0
ARC
  8
_0-0_0
  6
CONTINUOUS
 62
    2
 10
793.85074092417665
 20
469.69207301331141
 40
0.2999999999999998
 50
0
 51
90
  0
LINE
  8
_0-0_0
  6
CONTINUOUS
 62
    2
 10
777.15073992417683
 20
463.99207301331114
 11
777.65074092417672
 21
463.49207201331126
  0
LINE
  8
_0-0_0
  6
CONTINUOUS
 62
    2
 10
778.15074192417683
 20
463.99207301331114
 11
777.65074092417672
 21
463.49207201331126
  0
LINE
  8
_0-0_0
  6
CONTINUOUS
 62
    2
 10
772.65073992417683
 20
461.99207201331126
 11
772.65073992417683
 21
461.49207101331137
  0
LINE
  8
_0-0_0
  6
CONTINUOUS
 62
    2
 10
793.65073992417683
 20
471.49207301331114
 11
790.90074192417683
 21
471.49207301331114
  0
ARC
  8
_0-0_0
  6
CONTINUOUS
 62
    2
 10
793.65073992417683
 20
471.99207101331143
 40
0.500001
 50
270
 51
0
  0
ARC
  8
_0-0_0
  6
CONTINUOUS
 62
    2
 10
790.90074192417683
 20
470.74207301331114
 40
0.75
 50
90
 51
270
  0
LINE
  8
_0-0_0
  6
CONTINUOUS
 62
    2
 10
782.65074192417683
 20
461.99207201331126
 11
794.15074092417672
 21
461.99207201331126
  0
LINE
  8
_0-0_0
  6
CONTINUOUS
 62
    2
 10
782.65074192417683
 20
461.99207201331126
 11
782.65074192417683
 21
461.49207101331137
  0
ARC
  8
_0-0_0
  6
CONTINUOUS
 62
    2
 10
791.90074092417672
 20
466.74207101331137
 40
0.75
 50
90
 51
270
  0
LINE
  8
_0-0_0
  6
CONTINUOUS
 62
    2
 10
793.85074092417665
 20
465.99207101331137
 11
791.90074092417672
 21
465.99207101331137
  0
ARC
  8
_0-0_0
  6
CONTINUOUS
 62
    2
 10
793.85074092417665
 20
465.69207101331097
 40
0.2999999999999998
 50
0
 51
90
  0
LINE
  8
_0-0_0
  6
CONTINUOUS
 62
    2
 10
761.15074092417672
 20
461.99207201331126
 11
772.65073992417683
 21
461.99207201331126
  0
LINE
  8
_0-0_0
  6
CONTINUOUS
 62
    2
 10
761.45074092417678
 20
467.49207101331137
 11
763.40074092417672
 21
467.49207101331137
  0
ARC
  8
_0-0_0
  6
CONTINUOUS
 62
    2
 10
761.45074092417678
 20
467.7920710133111
 40
0.2999999999999998
 50
180
 51
270
  0
LINE
  8
_0-0_0
  6
CONTINUOUS
 62
    2
 10
761.15074092417672
 20
467.7920710133111
 11
761.15074092417672
 21
469.69207301331141
  0
ARC
  8
_0-0_0
  6
CONTINUOUS
 62
    2
 10
761.45074092417678
 20
469.69207301331141
 40
0.2999999999999998
 50
90
 51
180
  0
LINE
  8
_0-0_0
  6
CONTINUOUS
 62
    2
 10
760.15074192417694
 20
471.49207301331114
 11
764.40073992417683
 21
471.49207301331114
  0
ARC
  8
_0-0_0
  6
CONTINUOUS
 62
    2
 10
760.15074192417694
 20
470.99207201331126
 40
0.500001
 50
90
 51
180
  0
ARC
  8
_0-0_0
  6
CONTINUOUS
 62
    2
 10
764.40073992417683
 20
470.74207301331114
 40
0.75
 50
270
 51
90
  0
LINE
  8
_0-0_0
  6
CONTINUOUS
 62
    2
 10
759.65074092417672
 20
470.99207201331126
 11
759.65074092417672
 21
461.49207101331137
  0
LINE
  8
_0-0_0
  6
CONTINUOUS
 62
    2
 10
761.15074092417672
 20
461.99207201331126
 11
761.15074092417672
 21
461.49207101331137
  0
ARC
  8
_0-0_0
  6
CONTINUOUS
 62
    2
 10
763.40074092417672
 20
466.74207101331137
 40
0.75
 50
270
 51
90
  0
ARC
  8
_0-0_0
  6
CONTINUOUS
 62
    2
 10
761.45074092417678
 20
464.29207301331087
 40
0.2999999999999998
 50
180
 51
270
  0
LINE
  8
_0-0_0
  6
CONTINUOUS
 62
    2
 10
761.15074092417672
 20
464.29207301331087
 11
761.15074092417672
 21
465.69207101331097
  0
ARC
  8
_0-0_0
  6
CONTINUOUS
 62
    2
 10
761.45074092417678
 20
465.69207101331097
 40
0.2999999999999998
 50
90
 51
180
  0
LINE
  8
_0-0_0
  6
CONTINUOUS
 62
    2
 10
761.45074092417678
 20
465.99207101331137
 11
763.40074092417672
 21
465.99207101331137
  0
ARC
  8
_0-0_0
  6
CONTINUOUS
 62
    2
 10
793.65073992417683
 20
464.49207101331137
 40
0.500001
 50
270
 51
0
  0
LINE
  8
_0-0_0
  6
CONTINUOUS
 62
    2
 10
793.65073992417683
 20
463.99207301331114
 11
761.45074092417678
 21
463.99207301331114
  0
LINE
  8
_0-0_0
  6
CONTINUOUS
 62
    2
 10
761.15074092417672
 20
461.49207101331137
 11
759.65074092417672
 21
461.49207101331137
  0
ARC
  8
_0-0_0
  6
CONTINUOUS
 62
    2
 10
795.15073992417683
 20
479.49207101331143
 40
0.9999989999999993
 50
0
 51
180
  0
LINE
  8
_0-0_0
  6
CONTINUOUS
 62
    2
 10
794.15074092417672
 20
471.99207101331143
 11
794.15074092417672
 21
479.49207101331143
  0
LINE
  8
_0-0_0
  6
CONTINUOUS
 62
    2
 10
794.15074092417672
 20
467.7920710133111
 11
794.15074092417672
 21
469.69207301331141
  0
ARC
  8
_0-0_0
  6
CONTINUOUS
 62
    2
 10
796.65073992417683
 20
464.49207101331137
 40
0.500001
 50
180
 51
270
  0
LINE
  8
_0-0_0
  6
CONTINUOUS
 62
    2
 10
796.15074192417683
 20
462.49207301331114
 11
796.15074192417683
 21
461.49207101331137
  0
LINE
  8
_0-0_0
  6
CONTINUOUS
 62
    2
 10
794.15074092417672
 20
461.99207201331126
 11
794.15074092417672
 21
461.49207101331137
  0
LINE
  8
_0-0_0
  6
CONTINUOUS
 62
    2
 10
794.15074092417672
 20
464.49207101331137
 11
794.15074092417672
 21
465.69207101331097
  0
LINE
  8
_0-0_0
  6
CONTINUOUS
 62
    2
 10
806.65074192417683
 20
462.49207301331114
 11
806.65074192417683
 21
461.49207101331137
  0
LINE
  8
_0-0_0
  6
CONTINUOUS
 62
    2
 10
808.15074192417683
 20
461.49207101331137
 11
806.65074192417683
 21
461.49207101331137
  0
LINE
  8
_0-0_0
  6
CONTINUOUS
 62
    2
 10
796.15074192417683
 20
461.49207101331137
 11
794.15074092417672
 21
461.49207101331137
  0
LINE
  8
_0-0_0
  6
CONTINUOUS
 62
    2
 10
808.15074192417683
 20
463.49207301331126
 11
808.15074192417683
 21
461.49207101331137
  0
ARC
  8
_0-0_0
  6
CONTINUOUS
 62
    2
 10
807.65074192417671
 20
463.49207301331126
 40
0.5
 50
0
 51
90
  0
LINE
  8
_0-0_0
  6
CONTINUOUS
 62
    4
 10
796.40074192417774
 20
467.24207301331126
 11
797.65074192425777
 21
467.24207301331126
  0
LINE
  8
_0-0_0
  6
CONTINUOUS
 62
    4
 10
800.65074192425777
 20
467.24207301331126
 11
801.90074192417774
 21
467.24207301331126
  0
LINE
  8
_0-0_0
  6
CONTINUOUS
 62
    4
 10
797.65074192425777
 20
467.24207301331126
 11
797.65074192425777
 21
486.16162887324344
  0
LINE
  8
_0-0_0
  6
CONTINUOUS
 62
    4
 10
800.65074192425777
 20
467.24207301331126
 11
800.65074192425777
 21
487.62489186925717
  0
LINE
  8
_0-0_0
  6
CONTINUOUS
 62
    2
 10
796.15074192417683
 20
462.49207301331114
 11
803.65669079801762
 21
462.49207301331114
  0
LINE
  8
_0-0_0
  6
CONTINUOUS
 62
    2
 10
803.65669079801762
 20
462.49207301331114
 11
806.65074192417683
 21
462.49207301331114
  0
LINE
  8
_0-0_0
  6
CONTINUOUS
 62
    2
 10
801.65074192417671
 20
463.99207301331114
 11
796.65073992417683
 21
463.99207301331114
  0
LINE
  8
_0-0_0
  6
CONTINUOUS
 62
    2
 10
807.65074192417671
 20
463.99207301331114
 11
803.65074192417683
 21
463.99207301331114
  0
ARC
  8
_0-0_0
  6
CONTINUOUS
 62
    4
 10
801.65074192417671
 20
464.49207301331137
 40
0.25
 50
270
 51
0
  0
ARC
  8
_0-0_0
  6
CONTINUOUS
 62
    4
 10
796.65073992417683
 20
464.49207101331137
 40
0.2500009999999999
 50
180
 51
270
  0
LINE
  8
_0-0_0
  6
CONTINUOUS
 62
    4
 10
801.90074192417774
 20
464.49207301331137
 11
801.90074192417774
 21
467.24207301331126
  0
LINE
  8
_0-0_0
  6
CONTINUOUS
 62
    4
 10
796.40074192417774
 20
464.49207101331137
 11
796.40074192417774
 21
467.24207301331126
  0
LINE
  8
_0-0_0
  6
CONTINUOUS
 62
    4
 10
801.65074192417671
 20
464.24207301331126
 11
796.65073992417683
 21
464.24207301331126
  0
LINE
  8
_0-0_0
  6
CONTINUOUS
 62
    2
 10
796.15074192417683
 20
479.49207101331143
 11
796.15074192417683
 21
468.99207301331205
  0
LINE
  8
_0-0_0
  6
CONTINUOUS
 62
    2
 10
796.15074192417683
 20
467.49207301331205
 11
796.15074192417683
 21
464.49207101331137
  0
LINE
  8
_0-0_0
  6
CONTINUOUS
 62
    2
 10
802.15074192417683
 20
464.49207301331137
 11
802.15074192417683
 21
467.49207301331205
  0
LINE
  8
_0-0_0
  6
CONTINUOUS
 62
    2
 10
803.65074192417683
 20
468.49207301331217
 11
803.65074192417683
 21
463.99207301331114
  0
ARC
  8
_0-0_0
  6
CONTINUOUS
 62
    2
 10
803.15074192417671
 20
468.49207301331217
 40
0.5
 50
0
 51
90
  0
ARC
  8
_0-0_0
  6
CONTINUOUS
 62
    2
 10
801.65074192417671
 20
464.49207301331137
 40
0.5
 50
270
 51
0
  0
LINE
  8
_0-0_0
  6
CONTINUOUS
 62
    2
 10
803.15074192417671
 20
468.99207301331205
 11
801.90074192417683
 21
468.99207301331205
  0
ARC
  8
_0-0_0
  6
CONTINUOUS
 62
    2
 10
801.90074192417683
 20
467.99207301331228
 40
1
 50
90
 51
180
  0
LINE
  8
_0-0_0
  6
CONTINUOUS
 62
    2
 10
800.90074192417671
 20
467.99207301331228
 11
800.90074192417671
 21
467.49207301331205
  0
LINE
  8
_0-0_0
  6
CONTINUOUS
 62
    2
 10
800.90074192417671
 20
467.49207301331205
 11
802.15074192417683
 21
467.49207301331205
  0
LINE
  8
_0-0_0
  6
CONTINUOUS
 62
    2
 10
796.15074192417683
 20
467.49207301331205
 11
797.40074192417683
 21
467.49207301331205
  0
LINE
  8
_0-0_0
  6
CONTINUOUS
 62
    2
 10
797.40074192417683
 20
467.99207301331228
 11
797.40074192417683
 21
467.49207301331205
  0
ARC
  8
_0-0_0
  6
CONTINUOUS
 62
    2
 10
796.40074192417671
 20
467.99207301331228
 40
1
 50
0
 51
90
  0
LINE
  8
_0-0_0
  6
CONTINUOUS
 62
    2
 10
796.40074192417671
 20
468.99207301331205
 11
796.15074192417683
 21
468.99207301331205
  0
LINE
  8
_0-0_0
  6
CONTINUOUS
 62
    7
 10
762.65074092417581
 20
461.48330201331135
 11
792.65074092417569
 21
461.48330201331135
  0
LINE
  8
_0-0_0
  6
CONTINUOUS
 62
    7
 10
792.65074092417569
 20
460.48330201331157
 11
792.65074092417569
 21
461.48330201331135
  0
LINE
  8
_0-0_0
  6
CONTINUOUS
 62
    1
 10
762.65074092417581
 20
459.48330201331112
 11
827.63306863858497
 21
459.48330201331112
  0
CIRCLE
  8
_0-4_図枠
  6
CONTINUOUS
 62
    4
 10
762.8780416101381
 20
442.76745952629017
 40
6
  0
LINE
  8
_0-4_図枠
  6
CONTINUOUS
 62
    4
 10
775.57529524201823
 20
464.75974793329362
 11
765.8780416101381
 21
447.96361194899669
  0
CIRCLE
  8
_0-4_図枠
  6
CONTINUOUS
 62
    4
 10
775.57529524201823
 20
464.75974793329362
 40
0.8999999999999999
  0
LINE
  8
_0-4_図枠
  6
CONTINUOUS
 62
    4
 10
763.18799099425996
 20
459.51896536693431
 11
753.49073736237995
 21
442.72282938263743
  0
CIRCLE
  8
_0-4_図枠
  6
CONTINUOUS
 62
    4
 10
763.18799099425996
 20
459.51896536693431
 40
0.8999999999999999
  0
ARC
  8
_0-0_0
  6
CONTINUOUS
 62
    4
 10
823.7266875182188
 20
486.89326037124829
 40
23.087541006014401
 50
80.801339104808051
 51
181.81597582067386
  0
ARC
  8
_0-0_0
  6
CONTINUOUS
 62
    4
 10
822.65074192425777
 20
486.16162887324344
 40
24.999999999999996
 50
78.590455650788186
 51
180
  0
CIRCLE
  8
_0-4_図枠
  6
CONTINUOUS
 62
    4
 10
826.41838736045941
 20
510.35915570103276
 40
0.8999999999999999
  0
ARC
  8
_0-0_0
  6
CONTINUOUS
 62
    4
 10
827.49734739651376
 20
510.17746563560331
 40
0.5
 50
260.801339104806
 51
78.590455650788144
  0
LINE
  8
_0-4_図枠
  6
CONTINUOUS
 62
    4
 10
826.41838736045941
 20
510.35915570103276
 11
844.36699541488315
 21
539.17151533428205
  0
CIRCLE
  8
_0-4_図枠
  6
CONTINUOUS
 62
    4
 10
847.36699541488315
 20
544.36766775698857
 40
6
  0
CIRCLE
  8
_0-4_図枠
  6
CONTINUOUS
 62
    4
 10
750.88156898420618
 20
437.52667695993091
 40
6
  0
TEXT
  8
_0-4_図枠
 62
    7
 10
842.32990500746678
 20
540.35675754345243
 40
9
 41
1
 50
0
  1
11
  0
TEXT
  8
_0-4_図枠
 62
    7
 10
867.89701078988242
 20
530.49956013336464
 40
9
 41
1
 50
0
  1
６
  0
TEXT
  8
_0-4_図枠
 62
    7
 10
819.22709857757332
 20
520.0262878851463
 40
9
 41
1
 50
0
  1
３
  0
LINE
  8
_0-4_図枠
  6
CONTINUOUS
 62
    4
 10
795.29916197888952
 20
475.94152098124016
 11
819.09075882663387
 21
519.66229325738243
  0
TEXT
  8
_0-4_図枠
 62
    7
 10
757.16730232787222
 20
438.01722255678101
 40
9
 41
1
 50
0
  1
20
  0
TEXT
  8
_0-4_図枠
 62
    7
 10
748.52721170121629
 20
432.89716885209606
 40
9
 41
1
 50
0
  1
5
  0
TEXT
  8
_0-4_図枠
 62
    7
 10
756.52729561478645
 20
412.41695403335632
 40
9
 41
1
 50
0
  1
17
  0
TEXT
  8
_0-4_図枠
 62
    7
 10
797.48772525226616
 20
442.49726954838036
 40
9
 41
1
 50
0
  1
８
  0
TEXT
  8
_0-4_図枠
 62
    7
 10
796.20771182609485
 20
427.77711514741117
 40
9
 41
1
 50
0
  1
16
  0
CIRCLE
  8
_0-4_図枠
  6
CONTINUOUS
 62
    4
 10
779.36089988539277
 20
504.10488197999211
 40
0.8999999999999999
  0
CIRCLE
  8
_0-4_図枠
  6
CONTINUOUS
 62
    4
 10
794.87829723020968
 20
503.85423378503674
 40
0.8999999999999999
  0
LINE
  8
_0-0_0
  6
DASHED1
 62
    3
 10
767.81582221547569
 20
509.84041593972159
 11
790.78430221547592
 21
508.63668993972124
  0
LINE
  8
_0-0_0
  6
DASHED1
 62
    3
 10
754.36825321547565
 20
497.62350693972121
 11
767.81582221547569
 21
509.84041593972159
  0
LINE
  8
_0-0_0
  6
DASHED1
 62
    3
 10
750.5194302154755
 20
499.83013293972152
 11
751.18066621547553
 21
500.28043293972178
  0
LINE
  8
_0-0_0
  6
DASHED1
 62
    3
 10
751.18066621547553
 20
500.28043293972178
 11
752.86928221547578
 21
497.80080093972174
  0
LINE
  8
_0-0_0
  6
DASHED1
 62
    3
 10
750.5194302154755
 20
499.83013293972152
 11
752.20804621547575
 21
497.35050093972148
  0
ARC
  8
_0-0_0
  6
DASHED1
 62
    3
 10
753.69582421547557
 20
498.36367293972143
 40
0.9999989999999993
 50
214.25465800000001
 51
312.25465199999996
  0
ARC
  8
_0-0_0
  6
DASHED1
 62
    3
 10
753.69582421547557
 20
498.36367293972143
 40
1.7999999999999994
 50
214.25465800000001
 51
312.25465100000002
  0
ARC
  8
_0-0_0
  6
DASHED1
 62
    3
 10
779.22155821547574
 20
507.74060793972166
 40
6.3000000000000007
 50
37.903458000000029
 51
136.096542
  0
LINE
  8
_0-0_0
  6
DASHED1
 62
    3
 10
774.12610921547571
 20
510.82709493972123
 11
774.0572562154756
 21
509.51331693972179
  0
LINE
  8
_0-0_0
  6
DASHED1
 62
    3
 10
784.61171821547578
 20
510.27756693972123
 11
784.54286821547578
 21
508.96378893972178
  0
ARC
  8
_0-0_0
  6
DASHED1
 62
    3
 10
776.12336821547569
 20
510.72242493972152
 40
2.0000010000000001
 50
136.096542
 51
176.99999999999997
  0
LINE
  8
_0-0_0
  6
DASHED1
 62
    3
 10
754.90619221547558
 20
497.03137593972133
 11
768.10695121547565
 21
509.02406193972138
  0
LINE
  8
_0-0_0
  6
DASHED1
 62
    3
 10
768.10695121547565
 20
509.02406193972138
 11
790.4502792154758
 21
507.85309593972141
  0
LINE
  8
_0-0_0
  6
DASHED1
 62
    3
 10
802.28430121547547
 20
494.54839593972156
 11
790.4094342154757
 21
507.85523793972152
  0
ARC
  8
_0-0_0
  6
DASHED1
 62
    3
 10
782.61445921547579
 20
510.38223993972133
 40
2.0000010000000001
 50
356.99999999999994
 51
37.903457999999993
  0
LINE
  8
_0-0_0
  6
DASHED1
 62
    3
 10
806.93958421547586
 20
496.87327893972179
 11
806.32903921547552
 21
497.39022693972146
  0
LINE
  8
_0-0_0
  6
DASHED1
 62
    3
 10
806.32903921547552
 20
497.39022693972146
 11
804.39048121547569
 21
495.1006869397217
  0
LINE
  8
_0-0_0
  6
DASHED1
 62
    3
 10
806.93958421547586
 20
496.87327893972179
 11
805.00102621547546
 21
494.58373893972129
  0
ARC
  8
_0-0_0
  6
DASHED1
 62
    3
 10
803.62730221547577
 20
495.74687493972124
 40
0.9999989999999993
 50
221.74534799999995
 51
319.74534199999994
  0
LINE
  8
_0-0_0
  6
DASHED1
 62
    3
 10
802.88119021547561
 20
495.08105193972114
 11
790.78430221547592
 21
508.63668993972124
  0
ARC
  8
_0-0_0
  6
DASHED1
 62
    3
 10
803.62730221547577
 20
495.74687493972124
 40
1.7999999999999994
 50
221.74534899999995
 51
319.74534199999994
  0
LINE
  8
_0-4_図枠
  6
CONTINUOUS
 62
    4
 10
794.87829723020968
 20
503.85423378503674
 11
812.8269052846332
 21
532.66659341828597
  0
CIRCLE
  8
_0-4_図枠
  6
CONTINUOUS
 62
    4
 10
815.8269052846332
 20
537.8627458409926
 40
6
  0
CIRCLE
  8
_0-4_図枠
  6
CONTINUOUS
 62
    4
 10
799.84795070647249
 20
537.31395345719534
 40
6
  0
LINE
  8
_0-4_図枠
  6
CONTINUOUS
 62
    4
 10
779.36089988539277
 20
504.10488197999211
 11
796.84795070647351
 21
532.11780103448882
  0
LINE
  8
_0-0_0
  6
DASHED1
 62
    3
 10
776.30417221547555
 20
509.39556093972169
 11
774.60255450542627
 21
479.94425453856911
  0
LINE
  8
_0-0_0
  6
DASHED1
 62
    3
 10
776.80348921547579
 20
509.3693919397212
 11
775.07302633462018
 21
479.41891200406485
  0
LINE
  8
_0-0_0
  6
DASHED1
 62
    3
 10
781.79663521547582
 20
509.10771393972163
 11
780.06617649624309
 21
479.15723231644733
  0
LINE
  8
_0-0_0
  6
DASHED1
 62
    3
 10
782.29595221547549
 20
509.08154493972114
 11
780.59433058017714
 21
479.63023912930583
  0
LINE
  8
_0-0_0
  6
CONTINUOUS
 62
    3
 10
775.07302633462018
 20
479.41891200406485
 11
774.8885333734936
 21
479.62492221292786
  0
LINE
  8
_0-0_0
  6
DASHED1
 62
    3
 10
774.8885333734936
 20
479.62492221292786
 11
774.60255450542627
 21
479.94425453856911
  0
LINE
  8
_0-0_0
  6
DASHED1
 62
    3
 10
774.60255450542627
 20
479.94425453856911
 11
780.59433058017714
 21
479.63023912930583
  0
LINE
  8
_0-0_0
  6
CONTINUOUS
 62
    3
 10
775.07302633462018
 20
479.41891200406485
 11
780.06617649624309
 21
479.15723231644733
  0
LINE
  8
_0-0_0
  6
DASHED1
 62
    3
 10
780.59433058017714
 20
479.63023912930583
 11
780.27328886792225
 21
479.3427190253671
  0
LINE
  8
_0-0_0
  6
CONTINUOUS
 62
    3
 10
780.27328886792225
 20
479.3427190253671
 11
780.06617649624309
 21
479.15723231644733
  0
TEXT
  8
_0-4_図枠
 62
    7
 10
794.39927493333676
 20
532.77340844960781
 40
9
 41
1
 50
0
  1
14
  0
TEXT
  8
_0-4_図枠
 62
    7
 10
811.03329556286008
 20
533.69752070680352
 40
9
 41
1
 50
0
  1
７
  0
LINE
  8
_0-0_0
  6
CONTINUOUS
 62
    7
 10
679.04635474980671
 20
393.98044847185128
 11
696.86574118650447
 21
460.48330401331128
  0
LINE
  8
_0-0_0
  6
CONTINUOUS
 62
    3
 10
697.63306763858509
 20
403.73526201331117
 11
697.63306763858509
 21
411.59642901331119
  0
LINE
  8
_0-0_0
  6
CONTINUOUS
 62
    1
 10
697.63306763858509
 20
392.0621792497717
 11
697.63306763858509
 21
459.48330201331112
  0
LINE
  8
_0-0_0
  6
CONTINUOUS
 62
    7
 10
680.01228057609569
 20
393.7216294267489
 11
697.63306763858509
 21
459.48330201331112
  0
LINE
  8
_0-0_0
  6
CONTINUOUS
 62
    2
 10
756.65074092417581
 20
460.48330401331128
 11
696.86574118650447
 21
460.48330401331128
  0
LINE
  8
_0-0_0
  6
CONTINUOUS
 62
    1
 10
697.63306763858509
 20
459.48330201331112
 11
762.65074092417581
 21
459.48330201331112
  0
TEXT
  8
_0-2_寸法
 62
    7
 10
660.51505363888168
 20
568.88401779824221
 40
9
 41
1
 50
0
  1
A
  0
TEXT
  8
_0-2_寸法
 62
    7
 10
625.14477630646411
 20
557.42315693122987
 40
9
 41
1
 50
0
  1
（キャップ幅）
  0
TEXT
  8
_0-4_図枠
 62
    7
 10
705.02952375279631
 20
301.73467224544493
 40
7.5
 41
1.0000000000000002
 50
0
  1
４００ＦＹＫＧ－Ａ７５０
  0
TEXT
  8
_0-0_0
 62
    7
 10
870.49228105906752
 20
301.17800081844507
 40
7.5
 41
1
 50
0
  1
735
  0
TEXT
  8
_0-0_0
 62
    7
 10
825.49228105906752
 20
301.17800081844507
 40
7.5
 41
1
 50
0
  1
750
  0
TEXT
  8
_0-0_0
 62
    7
 10
915.49228105906752
 20
301.17800081844507
 40
7.5
 41
1
 50
0
  1
130
  0
TEXT
  8
_0-0_0
 62
    7
 10
963.11728105906752
 20
301.17800081844507
 40
7.5
 41
0.9999999999999886
 50
0
  1
82
  0
TEXT
  8
_0-0_0
 62
    7
 10
1005.4922810590675
 20
301.17800081844507
 40
7.5
 41
1
 50
0
  1
140
  0
TEXT
  8
_0-4_図枠
 62
    7
 10
328.99228105906758
 20
301.17800081844541
 40
7.5000000000000213
 41
0.9999999999999971
 50
0
  1
４００ＦＹＫＧ－Ａ７５０
  0
TEXT
  8
_0-4_図枠
 62
    7
 10
328.99228105906758
 20
233.67800081844541
 40
7.5000000000000213
 41
0.9999999999999971
 50
0
  1
４００ＦＹＫＨ－７５０
  0
TEXT
  8
_0-4_図枠
 62
    7
 10
328.99228105906758
 20
193.1780008184457
 40
7.5
 41
1
 50
0
  1
４００ＦＹＫＪ－７５０
  0
TEXT
  8
_0-4_図枠
 62
    7
 10
328.99228105906758
 20
152.6780008184457
 40
7.5
 41
1
 50
0
  1
ＦＳ１２００
  0
LINE
  8
_0-0_0
  6
CONTINUOUS
 62
    4
 10
297.63306863858497
 20
378.89345874840762
 11
300.63306863858497
 21
378.14345874840762
  0
LINE
  8
_0-0_0
  6
CONTINUOUS
 62
    4
 10
297.63306863858497
 20
378.89345874840762
 11
300.63306863858497
 21
379.64345874840762
  0
LINE
  8
_0-0_0
  6
CONTINUOUS
 62
    4
 10
297.63306863858497
 20
395.99276274840753
 11
297.63306863858497
 21
372.89345874840762
  0
LINE
  8
_0-0_0
  6
CONTINUOUS
 62
    4
 10
355.45512563858495
 20
599.70560597473502
 11
355.45512563858495
 21
584.70560597473502
  0
LINE
  8
_0-0_0
  6
CONTINUOUS
 62
    4
 10
324.63306863858497
 20
599.70560597473502
 11
361.455125638585
 21
599.70560597473502
  0
LINE
  8
_0-0_0
  6
CONTINUOUS
 62
    4
 10
330.63306863858497
 20
584.70560597473502
 11
361.455125638585
 21
584.70560597473502
  0
LINE
  8
_0-0_0
  6
CONTINUOUS
 62
    4
 10
355.45512563858495
 20
599.70560597473502
 11
354.70512563858495
 21
596.70560597473502
  0
LINE
  8
_0-0_0
  6
CONTINUOUS
 62
    4
 10
355.45512563858495
 20
599.70560597473502
 11
356.20512563858495
 21
596.70560597473502
  0
LINE
  8
_0-0_0
  6
CONTINUOUS
 62
    4
 10
355.45512563858495
 20
584.70560597473502
 11
356.20512563858495
 21
587.70560597473502
  0
LINE
  8
_0-0_0
  6
CONTINUOUS
 62
    4
 10
355.45512563858495
 20
584.70560597473502
 11
354.70512563858495
 21
587.70560597473502
  0
LINE
  8
_0-0_0
  6
CONTINUOUS
 62
    4
 10
355.45512563858495
 20
584.70560597473502
 11
355.45512563858495
 21
548.70560597473502
  0
LINE
  8
_0-0_0
  6
CONTINUOUS
 62
    4
 10
330.63306863858497
 20
548.70560597473502
 11
361.455125638585
 21
548.70560597473502
  0
LINE
  8
_0-0_0
  6
CONTINUOUS
 62
    4
 10
355.45512563858495
 20
584.70560597473502
 11
354.70512563858495
 21
581.70560597473502
  0
LINE
  8
_0-0_0
  6
CONTINUOUS
 62
    4
 10
355.45512563858495
 20
584.70560597473502
 11
356.20512563858495
 21
581.70560597473502
  0
LINE
  8
_0-0_0
  6
CONTINUOUS
 62
    4
 10
355.45512563858495
 20
548.70560597473502
 11
356.20512563858495
 21
551.70560597473502
  0
LINE
  8
_0-0_0
  6
CONTINUOUS
 62
    4
 10
355.45512563858495
 20
548.70560597473502
 11
354.70512563858495
 21
551.70560597473502
  0
LINE
  8
_0-0_0
  6
CENTER1
 62
    4
 10
253.66522163858491
 20
541.00560497473475
 11
305.71577663858494
 21
541.00560497473475
  0
LINE
  8
_0-0_0
  6
CONTINUOUS
 62
    4
 10
297.63306863858497
 20
672.01839252673278
 11
300.63306863858497
 21
671.26839252673278
  0
LINE
  8
_0-0_0
  6
CONTINUOUS
 62
    4
 10
297.63306863858497
 20
672.01839252673278
 11
300.63306863858497
 21
672.76839252673278
  0
LINE
  8
_0-0_0
  6
CONTINUOUS
 62
    4
 10
297.63306863858497
 20
651.57723077715605
 11
330.83306663858491
 21
651.57723077715605
  0
LINE
  8
_0-0_0
  6
CONTINUOUS
 62
    4
 10
297.63306863858497
 20
651.57723077715605
 11
301.49677194374118
 21
652.61250695756598
  0
LINE
  8
_0-0_0
  6
CONTINUOUS
 62
    4
 10
297.63306863858497
 20
651.57723077715605
 11
301.49677194374118
 21
650.541954596746
  0
LINE
  8
_0-0_0
  6
CONTINUOUS
 62
    4
 10
330.83306663858491
 20
651.57723077715605
 11
326.96936333342865
 21
652.61250695756598
  0
LINE
  8
_0-0_0
  6
CONTINUOUS
 62
    4
 10
330.83306663858491
 20
651.57723077715605
 11
326.96936333342865
 21
650.541954596746
  0
LINE
  8
_0-0_0
  6
CONTINUOUS
 62
    4
 10
295.63306763858492
 20
599.70560597473502
 11
191.89379266838088
 21
599.70560597473502
  0
LINE
  8
_0-0_0
  6
CONTINUOUS
 62
    4
 10
197.89379266838088
 20
599.70560597473502
 11
197.14379266838088
 21
596.70560597473502
  0
LINE
  8
_0-0_0
  6
CONTINUOUS
 62
    4
 10
197.89379266838088
 20
599.70560597473502
 11
198.64379266838088
 21
596.70560597473502
  0
TEXT
  8
_0-0_0
 62
    7
 10
196.47045915648297
 20
528.39230747031309
 40
9
 41
1
 50
90
  1
Ｅ
  0
LINE
  8
_0-0_0
  6
CONTINUOUS
 62
    4
 10
255.05011163858495
 20
541.00560497473475
 11
221.23264792007058
 21
541.00560497473475
  0
LINE
  8
_0-0_0
  6
CONTINUOUS
 62
    4
 10
225.23264692007052
 20
541.00560497473475
 11
224.48264692007052
 21
538.00560497473475
  0
LINE
  8
_0-0_0
  6
CONTINUOUS
 62
    4
 10
225.23264692007052
 20
541.00560497473475
 11
225.98264692007052
 21
538.00560497473475
  0
TEXT
  8
_0-0_0
 62
    7
 10
223.41045915496181
 20
502.00087921086322
 40
9
 41
1
 50
90
  1
Ｄ
  0
TEXT
  8
_0-0_0
 62
    7
 10
303.19592489314999
 20
651.34113780094367
 40
9
 41
1
 50
0
  1
33.5
  0
TEXT
  8
_0-0_0
 62
    7
 10
354.97662960038991
 20
585.6772006721975
 40
9
 41
1
 50
90
  1
15
  0
TEXT
  8
_0-0_0
 62
    7
 10
354.60140710251136
 20
557.53551333130622
 40
9
 41
1
 50
90
  1
３６
  0
LINE
  8
_0-0_0
  6
CONTINUOUS
 62
    4
 10
1047.6330676385851
 20
601.13781797473496
 11
1047.6330676385851
 21
614.23976297473484
  0
LINE
  8
_0-0_0
  6
CONTINUOUS
 62
    4
 10
312.63306863858497
 20
568.69777697473489
 11
1047.6330676385851
 21
568.69777697473489
  0
LINE
  8
_0-0_0
  6
CONTINUOUS
 62
    4
 10
1047.6330676385851
 20
568.69777697473489
 11
1044.6330676385851
 21
569.44777697473489
  0
LINE
  8
_0-0_0
  6
CONTINUOUS
 62
    4
 10
1047.6330676385851
 20
568.69777697473489
 11
1044.6330676385851
 21
567.94777697473489
  0
LINE
  8
_0-0_0
  6
CONTINUOUS
 62
    4
 10
1047.6330676385851
 20
555.59583197473501
 11
1047.6330676385851
 21
568.69777697473489
  0
LINE
  8
_0-0_0
  6
CONTINUOUS
 62
    4
 10
297.63306863858497
 20
672.01839252673278
 11
1047.6330676385851
 21
672.01839252673278
  0
LINE
  8
_0-0_0
  6
CONTINUOUS
 62
    4
 10
1047.6330676385851
 20
672.01839252673278
 11
1044.6330676385851
 21
672.76839252673278
  0
LINE
  8
_0-0_0
  6
CONTINUOUS
 62
    4
 10
1047.6330676385851
 20
672.01839252673278
 11
1044.6330676385851
 21
671.26839252673278
  0
LINE
  8
_0-0_0
  6
CONTINUOUS
 62
    4
 10
1047.633068638585
 20
378.89345874840762
 11
1044.633068638585
 21
379.64345874840762
  0
LINE
  8
_0-0_0
  6
CONTINUOUS
 62
    4
 10
1047.633068638585
 20
378.89345874840762
 11
1044.633068638585
 21
378.14345874840762
  0
LINE
  8
_0-0_0
  6
CONTINUOUS
 62
    4
 10
1047.633068638585
 20
419.54505051194695
 11
1047.633068638585
 21
372.89345874840762
  0
LINE
  8
_0-0_0
  6
CONTINUOUS
 62
    4
 10
1066.9027296385843
 20
415.61446701331113
 11
1121.5496914911237
 21
415.61446701331113
  0
LINE
  8
_0-0_0
  6
CONTINUOUS
 62
    4
 10
1134.009746949544
 20
505.6144670133113
 11
1134.009746949544
 21
415.61446701331113
  0
LINE
  8
_0-0_0
  6
CONTINUOUS
 62
    4
 10
1046.1330696385844
 20
415.61446701331113
 11
1137.009746949544
 21
415.61446701331113
  0
LINE
  8
_0-0_0
  6
CONTINUOUS
 62
    4
 10
1134.009746949544
 20
505.6144670133113
 11
1133.259746949544
 21
502.6144670133113
  0
LINE
  8
_0-0_0
  6
CONTINUOUS
 62
    4
 10
1134.009746949544
 20
505.6144670133113
 11
1134.759746949544
 21
502.6144670133113
  0
LINE
  8
_0-0_0
  6
CONTINUOUS
 62
    4
 10
1134.009746949544
 20
415.61446701331113
 11
1134.759746949544
 21
418.61446701331113
  0
LINE
  8
_0-0_0
  6
CONTINUOUS
 62
    4
 10
1134.009746949544
 20
415.61446701331113
 11
1133.259746949544
 21
418.61446701331113
  0
TEXT
  8
_0-0_0
 62
    7
 10
1132.8008391923058
 20
447.80023305175513
 40
9
 41
1
 50
90
  1
９０
  0
LINE
  8
_0-0_0
  6
CONTINUOUS
 62
    4
 10
1087.3582637076806
 20
459.48330201331112
 11
1087.3582637076806
 21
415.61446701331113
  0
LINE
  8
_0-0_0
  6
CONTINUOUS
 62
    4
 10
1087.3582637076806
 20
459.48330201331112
 11
1086.6082637076806
 21
456.48330201331112
  0
LINE
  8
_0-0_0
  6
CONTINUOUS
 62
    4
 10
1087.3582637076806
 20
459.48330201331112
 11
1088.1082637076806
 21
456.48330201331112
  0
LINE
  8
_0-0_0
  6
CONTINUOUS
 62
    4
 10
1087.3582637076806
 20
415.61446701331113
 11
1088.1082637076806
 21
418.61446701331113
  0
LINE
  8
_0-0_0
  6
CONTINUOUS
 62
    4
 10
1087.3582637076806
 20
415.61446701331113
 11
1086.6082637076806
 21
418.61446701331113
  0
TEXT
  8
_0-0_0
 62
    7
 10
1086.4248410577397
 20
428.83444033323576
 40
9
 41
1
 50
90
  1
４４
  0
LINE
  8
_0-0_0
  6
CONTINUOUS
 62
    4
 10
832.63306863858497
 20
459.48330201331112
 11
1093.3582637076806
 21
459.48330201331112
  0
LINE
  8
_0-0_0
  6
CONTINUOUS
 62
    4
 10
827.63306863858497
 20
378.89345874840762
 11
824.63306863858497
 21
379.64345874840762
  0
LINE
  8
_0-0_0
  6
CONTINUOUS
 62
    4
 10
827.63306863858497
 20
378.89345874840762
 11
824.63306863858497
 21
378.14345874840762
  0
LINE
  8
_0-0_0
  6
CONTINUOUS
 62
    4
 10
827.63306863858497
 20
378.89345874840762
 11
830.63306863858497
 21
378.14345874840762
  0
LINE
  8
_0-0_0
  6
CONTINUOUS
 62
    4
 10
827.63306863858497
 20
378.89345874840762
 11
830.63306863858497
 21
379.64345874840762
  0
LINE
  8
_0-0_0
  6
CONTINUOUS
 62
    4
 10
827.63306863858497
 20
378.89345874840762
 11
1047.633068638585
 21
378.89345874840762
  0
LINE
  8
_0-0_0
  6
CONTINUOUS
 62
    4
 10
827.63306863858497
 20
391.06218024977176
 11
827.63306863858497
 21
372.89345874840762
  0
LINE
  8
_0-0_0
  6
CONTINUOUS
 62
    4
 10
777.63306763858452
 20
414.96630201331118
 11
777.63306763858452
 21
407.5964270133112
  0
LINE
  8
_0-0_0
  6
CONTINUOUS
 62
    4
 10
777.63306763858452
 20
411.59642901331119
 11
827.63306863858497
 21
411.59642901331119
  0
LINE
  8
_0-0_0
  6
CONTINUOUS
 62
    4
 10
827.63306863858497
 20
403.73526201331117
 11
827.63306863858497
 21
411.59642901331119
  0
LINE
  8
_0-0_0
  6
CONTINUOUS
 62
    4
 10
777.63306763858452
 20
411.59642901331119
 11
780.63306763858452
 21
410.84642901331119
  0
LINE
  8
_0-0_0
  6
CONTINUOUS
 62
    4
 10
777.63306763858452
 20
411.59642901331119
 11
780.63306763858452
 21
412.34642901331119
  0
LINE
  8
_0-0_0
  6
CONTINUOUS
 62
    4
 10
827.63306863858497
 20
411.59642901331119
 11
824.63306863858497
 21
412.34642901331119
  0
LINE
  8
_0-0_0
  6
CONTINUOUS
 62
    4
 10
827.63306863858497
 20
411.59642901331119
 11
824.63306863858497
 21
410.84642901331119
  0
LINE
  8
_0-0_0
  6
CENTER1
 62
    4
 10
777.63306763858452
 20
414.04990001103965
 11
777.63306763858452
 21
459.48330201331112
  0
LINE
  8
_0-0_0
  6
CONTINUOUS
 62
    4
 10
827.63306863858497
 20
403.75999498923636
 11
827.63306863858497
 21
410.31096898923636
  0
TEXT
  8
_0-0_0
 62
    7
 10
793.96768833029523
 20
412.09695067681349
 40
9
 41
1
 50
0
  1
５０
  0
LINE
  8
_0-0_0
  6
CENTER1
 62
    4
 10
779.60656021547572
 20
515.08690293972131
 11
777.46029256864972
 21
476.42000600415378
  0
LINE
  8
_0-0_0
  6
CONTINUOUS
 62
    4
 10
197.89379266838088
 20
599.70560597473502
 11
197.89379266838088
 21
459.48330201331112
  0
LINE
  8
_0-0_0
  6
CONTINUOUS
 62
    4
 10
197.89379266838088
 20
459.48330201331112
 11
198.64379266838088
 21
462.48330201331112
  0
LINE
  8
_0-0_0
  6
CONTINUOUS
 62
    4
 10
197.89379266838088
 20
459.48330201331112
 11
197.14379266838088
 21
462.48330201331112
  0
LINE
  8
_0-0_0
  6
CONTINUOUS
 62
    4
 10
225.23264692007052
 20
541.00560497473475
 11
225.23264692007052
 21
459.48330201331112
  0
LINE
  8
_0-0_0
  6
CONTINUOUS
 62
    4
 10
225.23264692007052
 20
459.48330201331112
 11
225.98264692007052
 21
462.48330201331112
  0
LINE
  8
_0-0_0
  6
CONTINUOUS
 62
    4
 10
225.23264692007052
 20
459.48330201331112
 11
224.48264692007052
 21
462.48330201331112
  0
LINE
  8
_0-0_0
  6
CONTINUOUS
 62
    4
 10
697.63306763858509
 20
378.89345874840762
 11
694.63306763858509
 21
379.64345874840762
  0
LINE
  8
_0-0_0
  6
CONTINUOUS
 62
    4
 10
697.63306763858509
 20
378.89345874840762
 11
694.63306763858509
 21
378.14345874840762
  0
LINE
  8
_0-0_0
  6
CONTINUOUS
 62
    4
 10
697.63306763858509
 20
378.89345874840762
 11
700.63306763858509
 21
378.14345874840762
  0
LINE
  8
_0-0_0
  6
CONTINUOUS
 62
    4
 10
697.63306763858509
 20
378.89345874840762
 11
700.63306763858509
 21
379.64345874840762
  0
LINE
  8
_0-0_0
  6
CONTINUOUS
 62
    4
 10
297.63306863858497
 20
378.89345874840762
 11
697.63306763858509
 21
378.89345874840762
  0
LINE
  8
_0-0_0
  6
CONTINUOUS
 62
    4
 10
697.63306763858509
 20
378.89345874840762
 11
827.63306863858497
 21
378.89345874840762
  0
LINE
  8
_0-0_0
  6
CONTINUOUS
 62
    4
 10
697.63306763858509
 20
391.06218024977176
 11
697.63306763858509
 21
372.89345874840762
  0
LINE
  8
_0-5_ADD_LINE
  6
CONTINUOUS
 62
    4
 10
691.88360369173154
 20
459.48330201331112
 11
191.89379266838088
 21
459.48330201331112
  0
TEXT
  8
_0-0_0
 62
    7
 10
482.71070852048183
 20
380.38974390076032
 40
9
 41
1
 50
0
  1
４００
  0
TEXT
  8
_0-0_0
 62
    7
 10
657.63151213175706
 20
673.06595853086037
 40
9
 41
1
 50
0
  1
Ｗ
  0
TEXT
  8
_0-0_0
 62
    7
 10
917.77925248015083
 20
379.95003817686109
 40
9
 41
1
 50
0
  1
２２０
  0
TEXT
  8
_0-0_0
 62
    7
 10
759.74602078297175
 20
380.15230904467398
 40
9
 41
1
 50
0
  1
Ｃ
  0
LINE
  8
_0-0_0
  6
CONTINUOUS
 62
    4
 10
1047.6330676385851
 20
514.24912997473484
 11
1047.6330676385851
 21
678.01839252673278
  0
LINE
  8
_0-0_0
  6
CONTINUOUS
 62
    4
 10
297.63306863858497
 20
600.7056049747348
 11
297.63306863858497
 21
678.01839252673278
  0
LINE
  8
_0-0_0
  6
CENTER1
 62
    4
 10
497.63306813858503
 20
480.82216090843048
 11
497.63306813858503
 21
349.18193070628649
  0
ENDSEC
  0
EOF
