  0
SECTION
  2
HEADER
  9
$ACADVER
  1
AC1015
  9
$DWGCODEPAGE
  3
ANSI_932
  9
$EXTMIN
 10
52.5
 20
-896.9232630015
  9
$EXTMAX
 10
1207.5
 20
846
  9
$LIMMIN
 10
0
 20
0
  9
$LIMMAX
 10
1260
 20
882
  9
$LTSCALE
 40
3
  9
$DIMSCALE
 40
3
  9
$DIMSTYLE
  2
M7DIMSTL
  9
$HANDSEED
  5
7FFFFFFF
  9
$PSLTSCALE
 70
     0
  9
$MEASUREMENT
 70
     1
  0
ENDSEC
  0
SECTION
  2
CLASSES
  0
CLASS
  1
CSOFTARXCLASS
  2
CSoftArxClass
  3
CSRasterApi
 90
     0
280
     0
281
     0
  0
CLASS
  1
IMAGEDEF
  2
AcDbRasterImageDef
  3
ISM
 90
     0
280
     0
281
     0
  0
CLASS
  1
RASTERVARIABLES
  2
AcDbRasterVariables
  3
ISM
 90
     0
280
     0
281
     0
  0
CLASS
  1
IMAGE
  2
AcDbRasterImage
  3
ISM
 90
   127
280
     0
281
     0
  0
CLASS
  1
IMAGEDEF_REACTOR
  2
AcDbRasterImageDefReactor
  3
ISM
 90
     1
280
     0
281
     0
  0
CLASS
  1
HATCH
  2
AcDbHatch
  3
M7
 90
     0
280
     0
281
     1
  0
ENDSEC
  0
SECTION
  2
TABLES
  0
TABLE
  2
VPORT
  5
FF
100
AcDbSymbolTable
 70
     5
  0
VPORT
  5
100
100
AcDbSymbolTableRecord
100
AcDbViewportTableRecord
  2
*ACTIVE
 70
     0
 10
0
 20
0
 11
1
 21
1
 12
630
 22
441
 13
0
 23
0
 14
0
 24
0
 15
0
 25
0
 16
0
 26
0
 36
1
 17
0
 27
0
 37
0
 40
441
 41
1.428571428571
 42
50
 43
0
 44
0
 50
0
 51
0
 71
     0
 72
   100
 73
     1
 74
     3
 75
     0
 76
     0
 77
     0
 78
     0
  0
ENDTAB
  0
TABLE
  2
LTYPE
  5
101
100
AcDbSymbolTable
 70
     1
  0
LTYPE
  5
102
100
AcDbSymbolTableRecord
100
AcDbLinetypeTableRecord
  2
BYBLOCK
 70
     0
  3

 72
    65
 73
     0
 40
0
  0
LTYPE
  5
103
100
AcDbSymbolTableRecord
100
AcDbLinetypeTableRecord
  2
BYLAYER
 70
     0
  3

 72
    65
 73
     0
 40
0
  0
LTYPE
  5
104
100
AcDbSymbolTableRecord
100
AcDbLinetypeTableRecord
  2
CONTINUOUS
 70
     0
  3
Solid line
 72
    65
 73
     0
 40
0
  0
LTYPE
  5
105
100
AcDbSymbolTableRecord
100
AcDbLinetypeTableRecord
  2
DOT
 70
     0
  3
...............................
 72
    65
 73
     2
 40
2
 49
1
 74
     0
 49
-1
 74
     0
  0
LTYPE
  5
106
100
AcDbSymbolTableRecord
100
AcDbLinetypeTableRecord
  2
DASHED
 70
     0
  3
- - - - - - - - - - - - - - - -
 72
    65
 73
     2
 40
4
 49
2
 74
     0
 49
-2
 74
     0
  0
LTYPE
  5
107
100
AcDbSymbolTableRecord
100
AcDbLinetypeTableRecord
  2
DASHED2
 70
     0
  3
-- -- -- -- -- -- -- -- -- -- -
 72
    65
 73
     2
 40
8
 49
5
 74
     0
 49
-3
 74
     0
  0
LTYPE
  5
108
100
AcDbSymbolTableRecord
100
AcDbLinetypeTableRecord
  2
CENTER
 70
     0
  3
--------- - --------- - -------
 72
    65
 73
     4
 40
23
 49
20
 74
     0
 49
-1
 74
     0
 49
1
 74
     0
 49
-1
 74
     0
  0
LTYPE
  5
109
100
AcDbSymbolTableRecord
100
AcDbLinetypeTableRecord
  2
CENTERX2
 70
     0
  3
-------------- - --------------
 72
    65
 73
     4
 40
43
 49
40
 74
     0
 49
-1
 74
     0
 49
1
 74
     0
 49
-1
 74
     0
  0
LTYPE
  5
10A
100
AcDbSymbolTableRecord
100
AcDbLinetypeTableRecord
  2
CENTER2
 70
     0
  3
------ - ----- - ------ - -----
 72
    65
 73
     4
 40
13
 49
10
 74
     0
 49
-1
 74
     0
 49
1
 74
     0
 49
-1
 74
     0
  0
LTYPE
  5
10B
100
AcDbSymbolTableRecord
100
AcDbLinetypeTableRecord
  2
PHANTOM
 70
     0
  3
-------- - - ------- - - ------
 72
    65
 73
     6
 40
25
 49
20
 74
     0
 49
-1
 74
     0
 49
1
 74
     0
 49
-1
 74
     0
 49
1
 74
     0
 49
-1
 74
     0
  0
LTYPE
  5
10C
100
AcDbSymbolTableRecord
100
AcDbLinetypeTableRecord
  2
PHANTOMX2
 70
     0
  3
------------- - - -------------
 72
    65
 73
     6
 40
45
 49
40
 74
     0
 49
-1
 74
     0
 49
1
 74
     0
 49
-1
 74
     0
 49
1
 74
     0
 49
-1
 74
     0
  0
LTYPE
  5
10D
100
AcDbSymbolTableRecord
100
AcDbLinetypeTableRecord
  2
PHANTOM2
 70
     0
  3
---- - - ---- - - ---- - - ----
 72
    65
 73
     6
 40
15
 49
10
 74
     0
 49
-1
 74
     0
 49
1
 74
     0
 49
-1
 74
     0
 49
1
 74
     0
 49
-1
 74
     0
  0
LTYPE
  5
10E
100
AcDbSymbolTableRecord
100
AcDbLinetypeTableRecord
  2
ACAD_ISO06W100
 70
     0
  3
------------ - - - ------------
 72
    65
 73
     8
 40
47
 49
40
 74
     0
 49
-1
 74
     0
 49
1
 74
     0
 49
-1
 74
     0
 49
1
 74
     0
 49
-1
 74
     0
 49
1
 74
     0
 49
-1
 74
     0
  0
LTYPE
  5
10F
100
AcDbSymbolTableRecord
100
AcDbLinetypeTableRecord
  2
ACAD_ISO14W100
 70
     0
  3
---- - - - -------- - - - -----
 72
    65
 73
     8
 40
27
 49
20
 74
     0
 49
-1
 74
     0
 49
1
 74
     0
 49
-1
 74
     0
 49
1
 74
     0
 49
-1
 74
     0
 49
1
 74
     0
 49
-1
 74
     0
  0
LTYPE
  5
110
100
AcDbSymbolTableRecord
100
AcDbLinetypeTableRecord
  2
ACAD_ISO11W100
 70
     0
  3
------- ------ - ------- ------
 72
    65
 73
     6
 40
44
 49
20
 74
     0
 49
-1
 74
     0
 49
20
 74
     0
 49
-1
 74
     0
 49
1
 74
     0
 49
-1
 74
     0
  0
LTYPE
  5
111
100
AcDbSymbolTableRecord
100
AcDbLinetypeTableRecord
  2
ACAD_ISO13W100
 70
     0
  3
------ ------ - - ------ ------
 72
    65
 73
     8
 40
46
 49
20
 74
     0
 49
-1
 74
     0
 49
20
 74
     0
 49
-1
 74
     0
 49
1
 74
     0
 49
-1
 74
     0
 49
1
 74
     0
 49
-1
 74
     0
  0
LTYPE
  5
112
100
AcDbSymbolTableRecord
100
AcDbLinetypeTableRecord
  2
ACAD_ISO15W100
 70
     0
  3
------ ----- - - - ------ -----
 72
    65
 73
    10
 40
48
 49
20
 74
     0
 49
-1
 74
     0
 49
20
 74
     0
 49
-1
 74
     0
 49
1
 74
     0
 49
-1
 74
     0
 49
1
 74
     0
 49
-1
 74
     0
 49
1
 74
     0
 49
-1
 74
     0
  0
LTYPE
  5
113
100
AcDbSymbolTableRecord
100
AcDbLinetypeTableRecord
  2
HIDDEN
 70
     0
  3
. . . . . . . . . . . . . . . .
 72
    65
 73
     2
 40
1.5
 49
1
 74
     0
 49
-0.5
 74
     0
  0
ENDTAB
  0
TABLE
  2
LAYER
  5
114
100
AcDbSymbolTable
 70
     1
  0
LAYER
  5
115
100
AcDbSymbolTableRecord
100
AcDbLayerTableRecord
  2
0
 70
     0
 62
     7
  6
CONTINUOUS
390
116
  0
LAYER
  5
117
100
AcDbSymbolTableRecord
100
AcDbLayerTableRecord
  2
_0-0_
 70
     0
 62
     7
  6
CONTINUOUS
390
   278
  0
LAYER
  5
118
100
AcDbSymbolTableRecord
100
AcDbLayerTableRecord
  2
_0-1_PRO0
 70
     0
 62
     7
  6
CONTINUOUS
390
   278
  0
LAYER
  5
119
100
AcDbSymbolTableRecord
100
AcDbLayerTableRecord
  2
_0-2_
 70
     0
 62
     7
  6
CONTINUOUS
390
   278
  0
LAYER
  5
11A
100
AcDbSymbolTableRecord
100
AcDbLayerTableRecord
  2
_0-3_
 70
     0
 62
     7
  6
CONTINUOUS
390
   278
  0
LAYER
  5
11B
100
AcDbSymbolTableRecord
100
AcDbLayerTableRecord
  2
ADD_LINE
 70
     0
 62
     7
  6
CONTINUOUS
390
   278
  0
ENDTAB
  0
TABLE
  2
STYLE
  5
11C
100
AcDbSymbolTable
 70
     1
  0
STYLE
  5
11D
100
AcDbSymbolTableRecord
100
AcDbTextStyleTableRecord
  2
STANDARD
 70
     0
 40
0
 41
0
 50
0
 71
     0
 42
1
  3
txt
  4
bigfont
  0
STYLE
  5
11E
100
AcDbSymbolTableRecord
100
AcDbTextStyleTableRecord
  2
VSTANDARD
 70
     4
 40
0
 41
0
 50
0
 71
     0
 42
1
  3
txt
  4
bigfont
  0
ENDTAB
  0
TABLE
  2
VIEW
  5
11F
100
AcDbSymbolTable
 70
     0
  0
ENDTAB
  0
TABLE
  2
UCS
  5
120
100
AcDbSymbolTable
 70
     0
  0
ENDTAB
  0
TABLE
  2
APPID
  5
121
100
AcDbSymbolTable
 70
     1
  0
APPID
  5
122
100
AcDbSymbolTableRecord
100
AcDbRegAppTableRecord
  2
ACAD
 70
     0
  0
ENDTAB
  0
TABLE
  2
DIMSTYLE
  5
123
100
AcDbSymbolTable
 70
     1
100
AcDbDimStyleTable
 71
     0
  0
DIMSTYLE
105
124
100
AcDbSymbolTableRecord
100
AcDbDimStyleTableRecord
  2
M7DIMSTL
 70
     0
  3

  4

  5

  6

  7

 40
3
 41
2.5
 42
0.625
 43
3.75
 44
1.25
 45
0
 46
0
 47
0
 48
0
140
2.5
141
2.5
142
0
143
0.03937007874016
144
1
145
0
146
1
147
0.625
 71
     0
 72
     0
 73
     0
 74
     0
 75
     0
 76
     0
 77
     1
 78
     8
170
     0
171
     3
172
     1
173
     0
174
     0
175
     0
176
     0
177
     0
178
     0
270
     2
271
     2
272
     2
273
     2
274
     3
340
11D
275
     0
280
     0
281
     0
282
     0
283
     0
284
     8
285
     0
286
     0
287
     3
288
     0
  0
ENDTAB
  0
TABLE
  2
BLOCK_RECORD
  5
125
100
AcDbSymbolTable
 70
     2
  0
BLOCK_RECORD
  5
126
100
AcDbSymbolTableRecord
100
AcDbBlockTableRecord
  2
*MODEL_SPACE
  0
BLOCK_RECORD
  5
127
100
AcDbSymbolTableRecord
100
AcDbBlockTableRecord
  2
*PAPER_SPACE
  0
BLOCK_RECORD
  5
128
100
AcDbSymbolTableRecord
100
AcDbBlockTableRecord
  2
_DOT
  0
BLOCK_RECORD
  5
129
100
AcDbSymbolTableRecord
100
AcDbBlockTableRecord
  2
_OPEN30
  0
BLOCK_RECORD
  5
12A
100
AcDbSymbolTableRecord
100
AcDbBlockTableRecord
  2
_ClosedBlank
  0
BLOCK_RECORD
  5
12B
100
AcDbSymbolTableRecord
100
AcDbBlockTableRecord
  2
_Origin
  0
BLOCK_RECORD
  5
12C
100
AcDbSymbolTableRecord
100
AcDbBlockTableRecord
  2
_Oblique
  0
BLOCK_RECORD
  5
12D
100
AcDbSymbolTableRecord
100
AcDbBlockTableRecord
  2
_Origin2
  0
BLOCK_RECORD
  5
12E
100
AcDbSymbolTableRecord
100
AcDbBlockTableRecord
  2
_BoxBlank
  0
BLOCK_RECORD
  5
12F
100
AcDbSymbolTableRecord
100
AcDbBlockTableRecord
  2
_BoxFilled
  0
BLOCK_RECORD
  5
130
100
AcDbSymbolTableRecord
100
AcDbBlockTableRecord
  2
_Integral
  0
ENDTAB
  0
ENDSEC
  0
SECTION
  2
BLOCKS
  0
BLOCK
  5
131
100
AcDbEntity
  8
0
100
AcDbBlockBegin
  2
*MODEL_SPACE
 70
     0
 10
0
 20
0
  3
*MODEL_SPACE
  1

  0
ENDBLK
  5
132
100
AcDbEntity
  8
0
100
AcDbBlockEnd
  0
BLOCK
  5
133
100
AcDbEntity
 67
     1
  8
0
100
AcDbBlockBegin
  2
*PAPER_SPACE
 70
     0
 10
0
 20
0
  3
*PAPER_SPACE
  1

  0
ENDBLK
  5
134
100
AcDbEntity
 67
     1
  8
0
100
AcDbBlockEnd
  0
BLOCK
  5
135
100
AcDbEntity
 67
     1
  8
0
100
AcDbBlockBegin
  2
_DOT
 70
     0
 10
0
 20
0
  3
_DOT
  1

  0
LWPOLYLINE
  5
136
100
AcDbEntity
  8
0
  6
BYBLOCK
 62
     0
100
AcDbPolyline
 90
     2
 70
     1
 43
0.5
 10
-0.25
 20
0
 42
1
 10
0.25
 20
0
 42
1
  0
LINE
  5
137
100
AcDbEntity
  8
0
  6
BYBLOCK
 62
     0
100
AcDbLine
 10
-0.5
 20
0
 11
-1
 21
0
  0
ENDBLK
  5
138
100
AcDbEntity
  8
0
100
AcDbBlockEnd
  0
BLOCK
  5
139
100
AcDbEntity
 67
     1
  8
0
100
AcDbBlockBegin
  2
_OPEN30
 70
     0
 10
0
 20
0
  3
_OPEN30
  1

  0
LINE
  5
13A
100
AcDbEntity
  8
0
  6
BYBLOCK
 62
     0
100
AcDbLine
 10
-1
 20
0.26794919
 11
0
 21
0
  0
LINE
  5
13B
100
AcDbEntity
  8
0
  6
BYBLOCK
 62
     0
100
AcDbLine
 10
-1
 20
-0.26794919
 11
0
 21
0
  0
LINE
  5
13C
100
AcDbEntity
  8
0
  6
BYBLOCK
 62
     0
100
AcDbLine
 10
0
 20
0
 11
-1
 21
0
  0
ENDBLK
  5
13D
100
AcDbEntity
  8
0
100
AcDbBlockEnd
  0
BLOCK
  5
13E
100
AcDbEntity
 67
     1
  8
0
100
AcDbBlockBegin
  2
_ClosedBlank
 70
     0
 10
0
 20
0
  3
_ClosedBlank
  1

  0
LINE
  5
13F
100
AcDbEntity
  8
0
  6
BYBLOCK
 62
     0
100
AcDbLine
 10
-1
 20
0.1666666666667
 11
0
 21
0
  0
LINE
  5
140
100
AcDbEntity
  8
0
  6
BYBLOCK
 62
     0
100
AcDbLine
 10
0
 20
0
 11
-1
 21
-0.1666666666667
  0
LINE
  5
141
100
AcDbEntity
  8
0
  6
BYBLOCK
 62
     0
100
AcDbLine
 10
-1
 20
0.1666666666667
 11
-1
 21
-0.1666666666667
  0
ENDBLK
  5
142
100
AcDbEntity
  8
0
100
AcDbBlockEnd
  0
BLOCK
  5
143
100
AcDbEntity
 67
     1
  8
0
100
AcDbBlockBegin
  2
_Origin
 70
     0
 10
0
 20
0
  3
_Origin
  1

  0
CIRCLE
  5
144
100
AcDbEntity
  8
0
  6
BYBLOCK
 62
     0
100
AcDbCircle
 10
0
 20
0
 40
0.5
  0
LINE
  5
145
100
AcDbEntity
  8
0
  6
BYBLOCK
 62
     0
100
AcDbLine
 10
0
 20
0
 11
-1
 21
0
  0
ENDBLK
  5
146
100
AcDbEntity
  8
0
100
AcDbBlockEnd
  0
BLOCK
  5
147
100
AcDbEntity
 67
     1
  8
0
100
AcDbBlockBegin
  2
_Oblique
 70
     0
 10
0
 20
0
  3
_Oblique
  1

  0
LINE
  5
148
100
AcDbEntity
  8
0
  6
BYBLOCK
 62
     0
100
AcDbLine
 10
-0.5
 20
-0.5
 11
0.5
 21
0.5
  0
ENDBLK
  5
149
100
AcDbEntity
  8
0
100
AcDbBlockEnd
  0
BLOCK
  5
14A
100
AcDbEntity
 67
     1
  8
0
100
AcDbBlockBegin
  2
_Origin2
 70
     0
 10
0
 20
0
  3
_Origin2
  1

  0
CIRCLE
  5
14B
100
AcDbEntity
  8
0
  6
BYBLOCK
 62
     0
100
AcDbCircle
 10
0
 20
0
 40
0.5
  0
CIRCLE
  5
14C
100
AcDbEntity
  8
0
  6
BYBLOCK
 62
     0
100
AcDbCircle
 10
0
 20
0
 40
0.25
  0
LINE
  5
14D
100
AcDbEntity
  8
0
  6
BYBLOCK
 62
     0
100
AcDbLine
 10
-0.5
 20
0
 11
-1
 21
0
  0
ENDBLK
  5
14E
100
AcDbEntity
  8
0
100
AcDbBlockEnd
  0
BLOCK
  5
14F
100
AcDbEntity
 67
     1
  8
0
100
AcDbBlockBegin
  2
_BoxBlank
 70
     0
 10
0
 20
0
  3
_BoxBlank
  1

  0
LINE
  5
150
100
AcDbEntity
  8
0
  6
BYBLOCK
 62
     0
100
AcDbLine
 10
-0.5
 20
-0.5
 11
0.5
 21
-0.5
  0
LINE
  5
151
100
AcDbEntity
  8
0
  6
BYBLOCK
 62
     0
100
AcDbLine
 10
0.5
 20
-0.5
 11
0.5
 21
0.5
  0
LINE
  5
152
100
AcDbEntity
  8
0
  6
BYBLOCK
 62
     0
100
AcDbLine
 10
0.5
 20
0.5
 11
-0.5
 21
0.5
  0
LINE
  5
153
100
AcDbEntity
  8
0
  6
BYBLOCK
 62
     0
100
AcDbLine
 10
-0.5
 20
0.5
 11
-0.5
 21
-0.5
  0
LINE
  5
154
100
AcDbEntity
  8
0
  6
BYBLOCK
 62
     0
100
AcDbLine
 10
-0.5
 20
0
 11
-1
 21
0
  0
ENDBLK
  5
155
100
AcDbEntity
  8
0
100
AcDbBlockEnd
  0
BLOCK
  5
156
100
AcDbEntity
 67
     1
  8
0
100
AcDbBlockBegin
  2
_BoxFilled
 70
     0
 10
0
 20
0
  3
_BoxFilled
  1

  0
SOLID
  5
157
100
AcDbEntity
  8
0
  6
BYBLOCK
 62
     0
100
AcDbTrace
 10
-0.5
 20
0.5
 11
0.5
 21
0.5
 12
-0.5
 22
-0.5
 13
0.5
 23
-0.5
  0
LINE
  5
158
100
AcDbEntity
  8
0
  6
BYBLOCK
 62
     0
100
AcDbLine
 10
-0.5
 20
0
 11
-1
 21
0
  0
ENDBLK
  5
159
100
AcDbEntity
  8
0
100
AcDbBlockEnd
  0
BLOCK
  5
15A
100
AcDbEntity
 67
     1
  8
0
100
AcDbBlockBegin
  2
_Integral
 70
     0
 10
0
 20
0
  3
_Integral
  1

  0
ARC
  5
15B
100
AcDbEntity
  8
0
  6
BYBLOCK
 62
     0
100
AcDbCircle
 10
0.44488802
 20
-0.09133463
 40
0.45416667
100
AcDbArc
 50
101.999999998
 51
167.9999999799
  0
ARC
  5
15C
100
AcDbEntity
  8
0
  6
BYBLOCK
 62
     0
100
AcDbCircle
 10
-0.44488802
 20
0.09133463
 40
0.45416667
100
AcDbArc
 50
282.0000000215
 51
348.0000000034
  0
ENDBLK
  5
15D
100
AcDbEntity
  8
0
100
AcDbBlockEnd
  0
ENDSEC
  0
SECTION
  2
ENTITIES
  0
CIRCLE
  5
15E
100
AcDbEntity
  8
_0-3_
  6
CONTINUOUS
 62
     0
100
AcDbCircle
 10
946.6674598504
 20
660.4018248303
 40
6
  0
TEXT
  5
15F
100
AcDbEntity
  8
_0-3_
  6
CONTINUOUS
 62
     0
100
AcDbText
 10
941.8335099858
 20
654.8652594344
 40
9
  1
４
  7
STANDARD
100
AcDbText
  0
LINE
  5
160
100
AcDbEntity
  8
_0-3_
  6
CONTINUOUS
 62
     0
100
AcDbLine
 10
929.7421447388
 20
631.0863191228
 11
943.6674598504
 21
655.2056724076
  0
CIRCLE
  5
161
100
AcDbEntity
  8
_0-3_
  6
CONTINUOUS
 62
     0
100
AcDbCircle
 10
929.7421447388
 20
631.0863191228
 40
0.9
  0
LINE
  5
162
100
AcDbEntity
  8
_0-0_
  6
CONTINUOUS
 62
     0
100
AcDbLine
 10
556.4984660336
 20
227.464683929
 11
656.9984660336
 21
227.464683929
  0
LINE
  5
163
100
AcDbEntity
  8
_0-1_PRO0
  6
CONTINUOUS
 62
     0
100
AcDbLine
 10
1207.5
 20
36
 11
1207.5
 21
846
  0
LINE
  5
164
100
AcDbEntity
  8
_0-1_PRO0
  6
CONTINUOUS
 62
     0
100
AcDbLine
 10
52.5
 20
846
 11
52.5
 21
36
  0
LINE
  5
165
100
AcDbEntity
  8
_0-1_PRO0
  6
CONTINUOUS
 62
     0
100
AcDbLine
 10
52.5
 20
846
 11
1207.5
 21
846
  0
LINE
  5
166
100
AcDbEntity
  8
_0-1_PRO0
  6
CONTINUOUS
 62
     0
100
AcDbLine
 10
52.5
 20
36
 11
1207.5
 21
36
  0
LINE
  5
167
100
AcDbEntity
  8
_0-1_PRO0
  6
CONTINUOUS
 62
     0
100
AcDbLine
 10
623.026694
 20
665.8460940227
 11
623.1415
 21
664.1292500227
  0
LINE
  5
168
100
AcDbEntity
  8
_0-1_PRO0
  6
CONTINUOUS
 62
     0
100
AcDbLine
 10
613.040398
 20
665.3227340227
 11
613.155205
 21
663.6058900227
  0
LINE
  5
169
100
AcDbEntity
  8
_0-1_PRO0
  6
CONTINUOUS
 62
     0
100
AcDbLine
 10
616.469197
 20
665.5024300227
 11
614.651051
 21
663.6842840227
  0
LINE
  5
16A
100
AcDbEntity
  8
_0-1_PRO0
  6
CONTINUOUS
 62
     0
100
AcDbLine
 10
617.961625
 20
665.5806450227
 11
616.143479
 21
663.7624990227
  0
LINE
  5
16B
100
AcDbEntity
  8
_0-1_PRO0
  6
CONTINUOUS
 62
     0
100
AcDbLine
 10
619.454054
 20
665.6588600227
 11
617.635908
 21
663.8407140227
  0
LINE
  5
16C
100
AcDbEntity
  8
_0-1_PRO0
  6
CONTINUOUS
 62
     0
100
AcDbLine
 10
620.946482
 20
665.7370750227
 11
619.128336
 21
663.9189290227
  0
LINE
  5
16D
100
AcDbEntity
  8
_0-1_PRO0
  6
CONTINUOUS
 62
     0
100
AcDbLine
 10
622.43891
 20
665.8152900227
 11
620.620765
 21
663.9971440227
  0
LINE
  5
16E
100
AcDbEntity
  8
_0-1_PRO0
  6
CONTINUOUS
 62
     0
100
AcDbLine
 10
622.113193
 20
664.0753590227
 11
623.080425
 21
665.0425900227
  0
LINE
  5
16F
100
AcDbEntity
  8
_0-1_PRO0
  6
CONTINUOUS
 62
     0
100
AcDbLine
 10
614.976768
 20
665.4242150227
 11
613.158623
 21
663.6060700227
  0
LINE
  5
170
100
AcDbEntity
  8
_0-1_PRO0
  6
CONTINUOUS
 62
     0
100
AcDbLine
 10
613.48434
 20
665.3460000227
 11
613.066766
 21
664.9284270227
  0
TEXT
  5
171
100
AcDbEntity
  8
_0-0_
  6
CONTINUOUS
 62
     0
100
AcDbText
 10
243.5609660336
 20
357.339683929
 40
7.49
  1
No.
 41
1.001335113485
  7
STANDARD
100
AcDbText
  0
TEXT
  5
172
100
AcDbEntity
  8
_0-0_
  6
CONTINUOUS
 62
     0
100
AcDbText
 10
314.7484660336
 20
357.339683929
 40
7.49
  1
部材名称
  7
STANDARD
100
AcDbText
  0
LINE
  5
173
100
AcDbEntity
  8
_0-0_
  6
CONTINUOUS
 62
     0
100
AcDbLine
 10
556.4984660336
 20
119.464683929
 11
656.9984660336
 21
119.464683929
  0
LINE
  5
174
100
AcDbEntity
  8
_0-0_
  6
CONTINUOUS
 62
     0
100
AcDbLine
 10
556.4984660336
 20
137.464683929
 11
656.9984660336
 21
137.464683929
  0
LINE
  5
175
100
AcDbEntity
  8
_0-0_
  6
CONTINUOUS
 62
     0
100
AcDbLine
 10
556.4984660336
 20
173.464683929
 11
656.9984660336
 21
173.464683929
  0
LINE
  5
176
100
AcDbEntity
  8
_0-0_
  6
CONTINUOUS
 62
     0
100
AcDbLine
 10
556.4984660336
 20
191.464683929
 11
656.9984660336
 21
191.464683929
  0
LINE
  5
177
100
AcDbEntity
  8
_0-0_
  6
CONTINUOUS
 62
     0
100
AcDbLine
 10
556.4984660336
 20
245.464683929
 11
656.9984660336
 21
245.464683929
  0
LINE
  5
178
100
AcDbEntity
  8
_0-0_
  6
CONTINUOUS
 62
     0
100
AcDbLine
 10
556.4984660336
 20
263.464683929
 11
656.9984660336
 21
263.464683929
  0
LINE
  5
179
100
AcDbEntity
  8
_0-0_
  6
CONTINUOUS
 62
     0
100
AcDbLine
 10
556.4984660336
 20
209.464683929
 11
656.9984660336
 21
209.464683929
  0
LINE
  5
17A
100
AcDbEntity
  8
_0-0_
  6
CONTINUOUS
 62
     0
100
AcDbLine
 10
556.4984660336
 20
155.464683929
 11
656.9984660336
 21
155.464683929
  0
LINE
  5
17B
100
AcDbEntity
  8
_0-0_
  6
CONTINUOUS
 62
     0
100
AcDbLine
 10
556.4984660336
 20
281.464683929
 11
656.9984660336
 21
281.464683929
  0
LINE
  5
17C
100
AcDbEntity
  8
_0-0_
  6
CONTINUOUS
 62
     0
100
AcDbLine
 10
556.4984660336
 20
299.464683929
 11
656.9984660336
 21
299.464683929
  0
LINE
  5
17D
100
AcDbEntity
  8
_0-0_
  6
CONTINUOUS
 62
     0
100
AcDbLine
 10
556.4984660336
 20
317.464683929
 11
656.9984660336
 21
317.464683929
  0
LINE
  5
17E
100
AcDbEntity
  8
_0-0_
  6
CONTINUOUS
 62
     0
100
AcDbLine
 10
556.4984660336
 20
335.464683929
 11
656.9984660336
 21
335.464683929
  0
LINE
  5
17F
100
AcDbEntity
  8
_0-0_
  6
CONTINUOUS
 62
     0
100
AcDbLine
 10
556.4984660336
 20
353.464683929
 11
656.9984660336
 21
353.464683929
  0
LINE
  5
180
100
AcDbEntity
  8
_0-0_
  6
CONTINUOUS
 62
     0
100
AcDbLine
 10
556.4984660336
 20
371.464683929
 11
656.9984660336
 21
371.464683929
  0
TEXT
  5
181
100
AcDbEntity
  8
_0-0_
  6
CONTINUOUS
 62
     0
100
AcDbText
 10
466.8734660336
 20
357.339683929
 40
7.49
  1
規　格
  7
STANDARD
100
AcDbText
  0
TEXT
  5
182
100
AcDbEntity
  8
_0-0_
  6
CONTINUOUS
 62
     0
100
AcDbText
 10
246.4984660336
 20
339.339683929
 40
7.49
  1
 1
  7
STANDARD
100
AcDbText
  0
TEXT
  5
183
100
AcDbEntity
  8
_0-0_
  6
CONTINUOUS
 62
     0
100
AcDbText
 10
264.9984660336
 20
339.339683929
 40
7.49
  1
ＦＹＹキヤップＳ
 41
1.001335113485
  7
STANDARD
100
AcDbText
  0
TEXT
  5
184
100
AcDbEntity
  8
_0-0_
  6
CONTINUOUS
 62
     0
100
AcDbText
 10
641.3734660336
 20
339.339683929
 40
7.49
  1
本
  7
STANDARD
100
AcDbText
  0
LINE
  5
185
100
AcDbEntity
  8
_0-0_
  6
CONTINUOUS
 62
     0
100
AcDbLine
 10
554.9984660336
 20
299.464683929
 11
241.4984660336
 21
299.464683929
  0
LINE
  5
186
100
AcDbEntity
  8
_0-0_
  6
CONTINUOUS
 62
     0
100
AcDbLine
 10
554.9984660336
 20
317.464683929
 11
241.4984660336
 21
317.464683929
  0
LINE
  5
187
100
AcDbEntity
  8
_0-0_
  6
CONTINUOUS
 62
     0
100
AcDbLine
 10
554.9984660336
 20
335.464683929
 11
241.4984660336
 21
335.464683929
  0
LINE
  5
188
100
AcDbEntity
  8
_0-0_
  6
CONTINUOUS
 62
     0
100
AcDbLine
 10
554.9984660336
 20
353.464683929
 11
241.4984660336
 21
353.464683929
  0
LINE
  5
189
100
AcDbEntity
  8
_0-0_
  6
CONTINUOUS
 62
     0
100
AcDbLine
 10
554.9984660336
 20
173.464683929
 11
241.4984660336
 21
173.464683929
  0
LINE
  5
18A
100
AcDbEntity
  8
_0-0_
  6
CONTINUOUS
 62
     0
100
AcDbLine
 10
554.9984660336
 20
191.464683929
 11
241.4984660336
 21
191.464683929
  0
LINE
  5
18B
100
AcDbEntity
  8
_0-0_
  6
CONTINUOUS
 62
     0
100
AcDbLine
 10
554.9984660336
 20
227.464683929
 11
241.4984660336
 21
227.464683929
  0
LINE
  5
18C
100
AcDbEntity
  8
_0-0_
  6
CONTINUOUS
 62
     0
100
AcDbLine
 10
554.9984660336
 20
245.464683929
 11
241.4984660336
 21
245.464683929
  0
LINE
  5
18D
100
AcDbEntity
  8
_0-0_
  6
CONTINUOUS
 62
     0
100
AcDbLine
 10
554.9984660336
 20
263.464683929
 11
241.4984660336
 21
263.464683929
  0
LINE
  5
18E
100
AcDbEntity
  8
_0-0_
  6
CONTINUOUS
 62
     0
100
AcDbLine
 10
554.9984660336
 20
281.464683929
 11
241.4984660336
 21
281.464683929
  0
LINE
  5
18F
100
AcDbEntity
  8
_0-0_
  6
CONTINUOUS
 62
     0
100
AcDbLine
 10
554.9984660336
 20
209.464683929
 11
241.4984660336
 21
209.464683929
  0
LINE
  5
190
100
AcDbEntity
  8
_0-0_
  6
CONTINUOUS
 62
     0
100
AcDbLine
 10
554.9984660336
 20
119.464683929
 11
241.4984660336
 21
119.464683929
  0
LINE
  5
191
100
AcDbEntity
  8
_0-0_
  6
CONTINUOUS
 62
     0
100
AcDbLine
 10
554.9984660336
 20
137.464683929
 11
241.4984660336
 21
137.464683929
  0
LINE
  5
192
100
AcDbEntity
  8
_0-0_
  6
CONTINUOUS
 62
     0
100
AcDbLine
 10
554.9984660336
 20
155.464683929
 11
241.4984660336
 21
155.464683929
  0
LINE
  5
193
100
AcDbEntity
  8
_0-0_
  6
CONTINUOUS
 62
     0
100
AcDbLine
 10
554.9984660336
 20
371.464683929
 11
241.4984660336
 21
371.464683929
  0
TEXT
  5
194
100
AcDbEntity
  8
_0-0_
  6
CONTINUOUS
 62
     0
100
AcDbText
 10
246.4984660336
 20
321.339683929
 40
7.49
  1
 2
  7
STANDARD
100
AcDbText
  0
TEXT
  5
195
100
AcDbEntity
  8
_0-0_
  6
CONTINUOUS
 62
     0
100
AcDbText
 10
265.6234660336
 20
321.339683929
 40
7.49
  1
ＦＹＹフレーム
  7
STANDARD
100
AcDbText
  0
TEXT
  5
196
100
AcDbEntity
  8
_0-0_
  6
CONTINUOUS
 62
     0
100
AcDbText
 10
641.3734660336
 20
321.339683929
 40
7.49
  1
〃
  7
STANDARD
100
AcDbText
  0
TEXT
  5
197
100
AcDbEntity
  8
_0-0_
  6
CONTINUOUS
 62
     0
100
AcDbText
 10
246.4984660336
 20
303.339683929
 40
7.49
  1
 3
  7
STANDARD
100
AcDbText
  0
TEXT
  5
198
100
AcDbEntity
  8
_0-0_
  6
CONTINUOUS
 62
     0
100
AcDbText
 10
641.3734660336
 20
303.339683929
 40
7.49
  1
〃
  7
STANDARD
100
AcDbText
  0
TEXT
  5
199
100
AcDbEntity
  8
_0-0_
  6
CONTINUOUS
 62
     0
100
AcDbText
 10
246.4984660336
 20
285.339683929
 40
7.5
  1
 4
  7
STANDARD
100
AcDbText
  0
TEXT
  5
19A
100
AcDbEntity
  8
_0-0_
  6
CONTINUOUS
 62
     0
100
AcDbText
 10
265.6234660336
 20
285.339683929
 40
7.5
  1
ＦＹＹホルダー
 41
0.9986666666667
  7
STANDARD
100
AcDbText
  0
TEXT
  5
19B
100
AcDbEntity
  8
_0-0_
  6
CONTINUOUS
 62
     0
100
AcDbText
 10
641.3734660336
 20
285.339683929
 40
7.5
  1
個
 41
0.9986666666667
  7
STANDARD
100
AcDbText
  0
TEXT
  5
19C
100
AcDbEntity
  8
_0-0_
  6
CONTINUOUS
 62
     0
100
AcDbText
 10
246.4984660336
 20
267.339683929
 40
7.5
  1
 5
  7
STANDARD
100
AcDbText
  0
TEXT
  5
19D
100
AcDbEntity
  8
_0-0_
  6
CONTINUOUS
 62
     0
100
AcDbText
 10
262.4984660336
 20
267.339683929
 40
7.5
  1
ＦＹＹホルダースプリング
 41
0.9986666666667
  7
STANDARD
100
AcDbText
  0
TEXT
  5
19E
100
AcDbEntity
  8
_0-0_
  6
CONTINUOUS
 62
     0
100
AcDbText
 10
641.3734660336
 20
267.339683929
 40
7.5
  1
〃
 41
0.9986666666667
  7
STANDARD
100
AcDbText
  0
TEXT
  5
19F
100
AcDbEntity
  8
_0-0_
  6
CONTINUOUS
 62
     0
100
AcDbText
 10
246.4984660336
 20
249.339683929
 40
7.5
  1
 6
  7
STANDARD
100
AcDbText
  0
TEXT
  5
1A0
100
AcDbEntity
  8
_0-0_
  6
CONTINUOUS
 62
     0
100
AcDbText
 10
263.7484660336
 20
249.339683929
 40
7.5
  1
ＦＹＹフレームナット
 41
0.9986666666667
  7
STANDARD
100
AcDbText
  0
TEXT
  5
1A1
100
AcDbEntity
  8
_0-0_
  6
CONTINUOUS
 62
     0
100
AcDbText
 10
641.3734660336
 20
249.339683929
 40
7.5
  1
〃
 41
0.9986666666667
  7
STANDARD
100
AcDbText
  0
TEXT
  5
1A2
100
AcDbEntity
  8
_0-0_
  6
CONTINUOUS
 62
     0
100
AcDbText
 10
246.4984660336
 20
231.339683929
 40
7.5
  1
 7
  7
STANDARD
100
AcDbText
  0
TEXT
  5
1A3
100
AcDbEntity
  8
_0-0_
  6
CONTINUOUS
 62
     0
100
AcDbText
 10
263.7484660336
 20
231.339683929
 40
7.5
  1
ＦＹＹ水切ジョイント
 41
0.9986666666667
  7
STANDARD
100
AcDbText
  0
TEXT
  5
1A4
100
AcDbEntity
  8
_0-0_
  6
CONTINUOUS
 62
     0
100
AcDbText
 10
641.3734660336
 20
231.339683929
 40
7.5
  1
〃
 41
0.9986666666667
  7
STANDARD
100
AcDbText
  0
TEXT
  5
1A5
100
AcDbEntity
  8
_0-0_
  6
CONTINUOUS
 62
     0
100
AcDbText
 10
246.4984660336
 20
213.339683929
 40
7.5
  1
 8
  7
STANDARD
100
AcDbText
  0
TEXT
  5
1A6
100
AcDbEntity
  8
_0-0_
  6
CONTINUOUS
 62
     0
100
AcDbText
 10
246.4984660336
 20
195.339683929
 40
7.5
  1
 9
  7
STANDARD
100
AcDbText
  0
TEXT
  5
1A7
100
AcDbEntity
  8
_0-0_
  6
CONTINUOUS
 62
     0
100
AcDbText
 10
266.8734660336
 20
195.339683929
 40
7.5
  1
止水補助板
  7
STANDARD
100
AcDbText
  0
TEXT
  5
1A8
100
AcDbEntity
  8
_0-0_
  6
CONTINUOUS
 62
     0
100
AcDbText
 10
641.3734660336
 20
195.339683929
 40
7.5
  1
〃
 41
0.9986666666667
  7
STANDARD
100
AcDbText
  0
TEXT
  5
1A9
100
AcDbEntity
  8
_0-0_
  6
CONTINUOUS
 62
     0
100
AcDbText
 10
246.4984660336
 20
177.339683929
 40
7.5
  1
10
  7
STANDARD
100
AcDbText
  0
TEXT
  5
1AA
100
AcDbEntity
  8
_0-0_
  6
CONTINUOUS
 62
     0
100
AcDbText
 10
641.3734660336
 20
177.339683929
 40
7.5
  1
本
 41
0.9986666666667
  7
STANDARD
100
AcDbText
  0
TEXT
  5
1AB
100
AcDbEntity
  8
_0-0_
  6
CONTINUOUS
 62
     0
100
AcDbText
 10
246.4984660336
 20
159.339683929
 40
7.5
  1
11
  7
STANDARD
100
AcDbText
  0
TEXT
  5
1AC
100
AcDbEntity
  8
_0-0_
  6
CONTINUOUS
 62
     0
100
AcDbText
 10
264.9984660336
 20
159.339683929
 40
7.5
  1
ステン六角ボルト
  7
STANDARD
100
AcDbText
  0
TEXT
  5
1AD
100
AcDbEntity
  8
_0-0_
  6
CONTINUOUS
 62
     0
100
AcDbText
 10
641.3734660336
 20
159.339683929
 40
7.5
  1
〃
 41
0.9986666666667
  7
STANDARD
100
AcDbText
  0
TEXT
  5
1AE
100
AcDbEntity
  8
_0-0_
  6
CONTINUOUS
 62
     0
100
AcDbText
 10
246.4984660336
 20
141.339683929
 40
7.5
  1
12
  7
STANDARD
100
AcDbText
  0
TEXT
  5
1AF
100
AcDbEntity
  8
_0-0_
  6
CONTINUOUS
 62
     0
100
AcDbText
 10
264.3734660336
 20
141.339683929
 40
7.5
  1
アジャストアンカー
  7
STANDARD
100
AcDbText
  0
TEXT
  5
1B0
100
AcDbEntity
  8
_0-0_
  6
CONTINUOUS
 62
     0
100
AcDbText
 10
641.3734660336
 20
141.339683929
 40
7.5
  1
〃
 41
0.9986666666667
  7
STANDARD
100
AcDbText
  0
TEXT
  5
1B1
100
AcDbEntity
  8
_0-0_
  6
CONTINUOUS
 62
     0
100
AcDbText
 10
246.4984660336
 20
123.339683929
 40
7.5
  1
13
  7
STANDARD
100
AcDbText
  0
TEXT
  5
1B2
100
AcDbEntity
  8
_0-0_
  6
CONTINUOUS
 62
     0
100
AcDbText
 10
264.9984660336
 20
123.339683929
 40
7.5
  1
ステンワッシャー
  7
STANDARD
100
AcDbText
  0
TEXT
  5
1B3
100
AcDbEntity
  8
_0-0_
  6
CONTINUOUS
 62
     0
100
AcDbText
 10
641.3734660336
 20
123.339683929
 40
7.5
  1
枚
 41
0.9986666666667
  7
STANDARD
100
AcDbText
  0
TEXT
  5
1B4
100
AcDbEntity
  8
_0-0_
  6
CONTINUOUS
 62
     0
100
AcDbText
 10
66.6122057406
 20
809.0593114545
 40
10
  1
　　屋根－屋根
 41
0.999
  7
STANDARD
100
AcDbText
  0
TEXT
  5
1B5
100
AcDbEntity
  8
_0-0_
  6
CONTINUOUS
 62
     0
100
AcDbText
 10
66.6122057406
 20
793.8238042081
 40
10
  1
　　Ｓ＝１／３
 41
0.999
  7
STANDARD
100
AcDbText
  0
LINE
  5
1B6
100
AcDbEntity
  8
_0-1_PRO0
  6
CONTINUOUS
 62
     0
100
AcDbLine
 10
636.510914
 20
665.8460940227
 11
636.396108
 21
664.1292500227
  0
LINE
  5
1B7
100
AcDbEntity
  8
_0-1_PRO0
  6
CONTINUOUS
 62
     0
100
AcDbLine
 10
646.49721
 20
665.3227340227
 11
646.382403
 21
663.6058900227
  0
LINE
  5
1B8
100
AcDbEntity
  8
_0-1_PRO0
  6
CONTINUOUS
 62
     0
100
AcDbLine
 10
643.068411
 20
665.5024300227
 11
644.886557
 21
663.6842840227
  0
LINE
  5
1B9
100
AcDbEntity
  8
_0-1_PRO0
  6
CONTINUOUS
 62
     0
100
AcDbLine
 10
641.575983
 20
665.5806450227
 11
643.394129
 21
663.7624990227
  0
LINE
  5
1BA
100
AcDbEntity
  8
_0-1_PRO0
  6
CONTINUOUS
 62
     0
100
AcDbLine
 10
640.083554
 20
665.6588600227
 11
641.9017
 21
663.8407140227
  0
LINE
  5
1BB
100
AcDbEntity
  8
_0-1_PRO0
  6
CONTINUOUS
 62
     0
100
AcDbLine
 10
638.591126
 20
665.7370750227
 11
640.409272
 21
663.9189290227
  0
LINE
  5
1BC
100
AcDbEntity
  8
_0-1_PRO0
  6
CONTINUOUS
 62
     0
100
AcDbLine
 10
637.098698
 20
665.8152900227
 11
638.916843
 21
663.9971440227
  0
LINE
  5
1BD
100
AcDbEntity
  8
_0-1_PRO0
  6
CONTINUOUS
 62
     0
100
AcDbLine
 10
637.424415
 20
664.0753590227
 11
636.457183
 21
665.0425900227
  0
LINE
  5
1BE
100
AcDbEntity
  8
_0-1_PRO0
  6
CONTINUOUS
 62
     0
100
AcDbLine
 10
644.56084
 20
665.4242150227
 11
646.378985
 21
663.6060700227
  0
LINE
  5
1BF
100
AcDbEntity
  8
_0-1_PRO0
  6
CONTINUOUS
 62
     0
100
AcDbLine
 10
646.053268
 20
665.3460000227
 11
646.470842
 21
664.9284270227
  0
LINE
  5
1C0
100
AcDbEntity
  8
_0-1_PRO0
  6
CONTINUOUS
 62
     0
100
AcDbLine
 10
629.768804
 20
413.6865698101
 11
629.768804
 21
680.4710310227
  0
LINE
  5
1C1
100
AcDbEntity
  8
_0-0_
  6
CONTINUOUS
 62
     0
100
AcDbLine
 10
889.4984660336
 20
371.464683929
 11
686.9984660336
 21
371.464683929
  0
LINE
  5
1C2
100
AcDbEntity
  8
_0-0_
  6
CONTINUOUS
 62
     0
100
AcDbLine
 10
889.4984660336
 20
353.464683929
 11
686.9984660336
 21
353.464683929
  0
LINE
  5
1C3
100
AcDbEntity
  8
_0-0_
  6
CONTINUOUS
 62
     0
100
AcDbLine
 10
889.4984660336
 20
335.464683929
 11
686.9984660336
 21
335.464683929
  0
LINE
  5
1C4
100
AcDbEntity
  8
_0-0_
  6
CONTINUOUS
 62
     0
100
AcDbLine
 10
889.4984660336
 20
317.464683929
 11
686.9984660336
 21
317.464683929
  0
TEXT
  5
1C5
100
AcDbEntity
  8
_0-0_
  6
CONTINUOUS
 62
     0
100
AcDbText
 10
824.2484660336
 20
371.7286018957
 40
7.5
  1
（単位：mm）
  7
STANDARD
100
AcDbText
  0
TEXT
  5
1C6
100
AcDbEntity
  8
_0-0_
  6
CONTINUOUS
 62
     0
100
AcDbText
 10
718.3734652836
 20
357.339683929
 40
7.49
  1
タ　イ　プ
  7
STANDARD
100
AcDbText
  0
TEXT
  5
1C7
100
AcDbEntity
  8
_0-0_
  6
CONTINUOUS
 62
     0
100
AcDbText
 10
816.8734660336
 20
357.339683929
 40
7.49
  1
Ｗ
  7
STANDARD
100
AcDbText
  0
TEXT
  5
1C8
100
AcDbEntity
  8
_0-0_
  6
CONTINUOUS
 62
     0
100
AcDbText
 10
861.8734660336
 20
357.339683929
 40
7.49
  1
Ｃ
  7
STANDARD
100
AcDbText
  0
LINE
  5
1C9
100
AcDbEntity
  8
_0-1_PRO0
  6
CONTINUOUS
 62
     0
100
AcDbLine
 10
329.768804
 20
389.7601458101
 11
335.768804
 21
391.2601458101
  0
LINE
  5
1CA
100
AcDbEntity
  8
_0-1_PRO0
  6
CONTINUOUS
 62
     0
100
AcDbLine
 10
329.768804
 20
389.7601458101
 11
335.768804
 21
388.2601458101
  0
LINE
  5
1CB
100
AcDbEntity
  8
_0-1_PRO0
  6
CONTINUOUS
 62
     0
100
AcDbLine
 10
329.768804
 20
408.2559858101
 11
329.768804
 21
383.7601458101
  0
LINE
  5
1CC
100
AcDbEntity
  8
_0-1_PRO0
  6
CONTINUOUS
 62
     0
100
AcDbLine
 10
329.768804
 20
389.7601458101
 11
323.768804
 21
388.2601458101
  0
LINE
  5
1CD
100
AcDbEntity
  8
_0-1_PRO0
  6
CONTINUOUS
 62
     0
100
AcDbLine
 10
329.768804
 20
389.7601458101
 11
323.768804
 21
391.2601458101
  0
LINE
  5
1CE
100
AcDbEntity
  8
_0-2_
  6
CONTINUOUS
 62
     0
100
AcDbLine
 10
379.768805
 20
443.8654912089
 11
376.768805
 21
444.6154912089
  0
LINE
  5
1CF
100
AcDbEntity
  8
_0-2_
  6
CONTINUOUS
 62
     0
100
AcDbLine
 10
379.768805
 20
443.8654912089
 11
376.768805
 21
443.1154912089
  0
LINE
  5
1D0
100
AcDbEntity
  8
_0-2_
  6
CONTINUOUS
 62
     0
100
AcDbLine
 10
329.768804
 20
443.8654912089
 11
332.768804
 21
443.1154912089
  0
LINE
  5
1D1
100
AcDbEntity
  8
_0-2_
  6
CONTINUOUS
 62
     0
100
AcDbLine
 10
329.768804
 20
443.8654912089
 11
332.768804
 21
444.6154912089
  0
LINE
  5
1D2
100
AcDbEntity
  8
_0-2_
  6
CONTINUOUS
 62
     0
100
AcDbLine
 10
329.768804
 20
443.8654912089
 11
379.768805
 21
443.8654912089
  0
TEXT
  5
1D3
100
AcDbEntity
  8
_0-2_
  6
CONTINUOUS
 62
     0
100
AcDbText
 10
351.3485167772
 20
443.6349896691
 40
9
  1
50
  7
STANDARD
100
AcDbText
  0
LINE
  5
1D4
100
AcDbEntity
  8
_0-2_
  6
CONTINUOUS
 62
     0
100
AcDbLine
 10
351.494822
 20
655.9153585844
 11
411.494822
 21
659.0598235844
  0
LINE
  5
1D5
100
AcDbEntity
  8
_0-2_
  6
CONTINUOUS
 62
     0
100
AcDbLine
 10
351.494822
 20
659.0598235844
 11
411.494822
 21
659.0598235844
  0
TEXT
  5
1D6
100
AcDbEntity
  8
_0-2_
  6
CONTINUOUS
 62
     0
100
AcDbText
 10
347.1118750704
 20
659.4927508617
 40
9
  1
（勾配３度）
  7
STANDARD
100
AcDbText
  0
LINE
  5
1D7
100
AcDbEntity
  8
_0-2_
  6
CONTINUOUS
 62
     0
100
AcDbLine
 10
351.494822
 20
659.0598235844
 11
351.494822
 21
655.9153585844
  0
LINE
  5
1D8
100
AcDbEntity
  8
_0-1_PRO0
  6
CONTINUOUS
 62
     0
100
AcDbLine
 10
929.768804
 20
408.2559858101
 11
929.768804
 21
383.7601458101
  0
LINE
  5
1D9
100
AcDbEntity
  8
_0-1_PRO0
  6
CONTINUOUS
 62
     0
100
AcDbLine
 10
929.768804
 20
389.7601458101
 11
923.768804
 21
388.2601458101
  0
LINE
  5
1DA
100
AcDbEntity
  8
_0-1_PRO0
  6
CONTINUOUS
 62
     0
100
AcDbLine
 10
929.768804
 20
389.7601458101
 11
923.768804
 21
391.2601458101
  0
LINE
  5
1DB
100
AcDbEntity
  8
_0-1_PRO0
  6
CONTINUOUS
 62
     0
100
AcDbLine
 10
929.768804
 20
389.7601458101
 11
935.768804
 21
391.2601458101
  0
LINE
  5
1DC
100
AcDbEntity
  8
_0-1_PRO0
  6
CONTINUOUS
 62
     0
100
AcDbLine
 10
929.768804
 20
389.7601458101
 11
935.768804
 21
388.2601458101
  0
TEXT
  5
1DD
100
AcDbEntity
  8
_0-0_
  6
CONTINUOUS
 62
     0
100
AcDbText
 10
265.4999885839
 20
214.0439071947
 40
7.49
  1
ウォーターガード
  7
STANDARD
100
AcDbText
  0
TEXT
  5
1DE
100
AcDbEntity
  8
_0-0_
  6
CONTINUOUS
 62
     0
100
AcDbText
 10
642.2034823477
 20
214.6848790899
 40
7.5
  1
枚
 41
0.9986666666667
  7
STANDARD
100
AcDbText
  0
LINE
  5
1DF
100
AcDbEntity
  8
_0-0_
  6
CONTINUOUS
 62
     0
100
AcDbLine
 10
556.4984660336
 20
299.464683929
 11
656.9984660336
 21
299.464683929
  0
TEXT
  5
1E0
100
AcDbEntity
  8
_0-0_
  6
CONTINUOUS
 62
     0
100
AcDbText
 10
266.2484660336
 20
303.339683929
 40
7.5
  1
ブチルテープ
 41
0.9986666666667
  7
STANDARD
100
AcDbText
  0
TEXT
  5
1E1
100
AcDbEntity
  8
_0-0_
  6
CONTINUOUS
 62
     0
100
AcDbText
 10
641.3734660336
 20
303.339683929
 40
7.5
  1
巻
 41
0.9986666666667
  7
STANDARD
100
AcDbText
  0
LINE
  5
1E2
100
AcDbEntity
  8
_0-0_
  6
CONTINUOUS
 62
     0
100
AcDbLine
 10
241.4984660336
 20
119.464683929
 11
241.4984660336
 21
371.464683929
  0
LINE
  5
1E3
100
AcDbEntity
  8
_0-0_
  6
CONTINUOUS
 62
     0
100
AcDbLine
 10
262.4984660336
 20
119.464683929
 11
262.4984660336
 21
371.464683929
  0
LINE
  5
1E4
100
AcDbEntity
  8
_0-0_
  6
CONTINUOUS
 62
     0
100
AcDbLine
 10
412.4984660336
 20
119.464683929
 11
412.4984660336
 21
371.464683929
  0
LINE
  5
1E5
100
AcDbEntity
  8
_0-0_
  6
CONTINUOUS
 62
     0
100
AcDbLine
 10
554.9984660336
 20
119.464683929
 11
554.9984660336
 21
371.464683929
  0
LINE
  5
1E6
100
AcDbEntity
  8
_0-0_
  6
CONTINUOUS
 62
     0
100
AcDbLine
 10
556.4984660336
 20
119.464683929
 11
556.4984660336
 21
371.464683929
  0
LINE
  5
1E7
100
AcDbEntity
  8
_0-0_
  6
CONTINUOUS
 62
     0
100
AcDbLine
 10
608.9984660336
 20
119.464683929
 11
608.9984660336
 21
371.464683929
  0
LINE
  5
1E8
100
AcDbEntity
  8
_0-0_
  6
CONTINUOUS
 62
     0
100
AcDbLine
 10
635.9984660336
 20
119.464683929
 11
635.9984660336
 21
371.464683929
  0
LINE
  5
1E9
100
AcDbEntity
  8
_0-0_
  6
CONTINUOUS
 62
     0
100
AcDbLine
 10
656.9984660336
 20
119.464683929
 11
656.9984660336
 21
371.464683929
  0
TEXT
  5
1EA
100
AcDbEntity
  8
_0-1_PRO0
  6
CONTINUOUS
 62
     0
100
AcDbText
 10
625.7584084277
 20
741.7378287071
 40
9
  1
Ｗ
 41
0.7377777777778
  7
STANDARD
100
AcDbText
  0
LINE
  5
1EB
100
AcDbEntity
  8
_0-0_
  6
CONTINUOUS
 62
     0
100
AcDbLine
 10
556.4984660336
 20
-705.4585790725
 11
656.9984660336
 21
-705.4585790725
  0
LINE
  5
1EC
100
AcDbEntity
  8
_0-1_PRO0
  6
CONTINUOUS
 62
     0
100
AcDbLine
 10
1207.5
 20
-896.9232630015
 11
1207.5
 21
-86.92326300148
  0
LINE
  5
1ED
100
AcDbEntity
  8
_0-1_PRO0
  6
CONTINUOUS
 62
     0
100
AcDbLine
 10
52.5
 20
-86.92326300148
 11
52.5
 21
-896.9232630015
  0
LINE
  5
1EE
100
AcDbEntity
  8
_0-1_PRO0
  6
CONTINUOUS
 62
     0
100
AcDbLine
 10
52.5
 20
-86.92326300148
 11
1207.5
 21
-86.92326300148
  0
LINE
  5
1EF
100
AcDbEntity
  8
_0-1_PRO0
  6
CONTINUOUS
 62
     0
100
AcDbLine
 10
52.5
 20
-896.9232630015
 11
1207.5
 21
-896.9232630015
  0
TEXT
  5
1F0
100
AcDbEntity
  8
_0-0_
  6
CONTINUOUS
 62
     0
100
AcDbText
 10
243.5609660336
 20
-575.5835790725
 40
7.49
  1
No.
 41
1.001335113485
  7
STANDARD
100
AcDbText
  0
TEXT
  5
1F1
100
AcDbEntity
  8
_0-0_
  6
CONTINUOUS
 62
     0
100
AcDbText
 10
314.7484660336
 20
-575.5835790725
 40
7.49
  1
部材名称
  7
STANDARD
100
AcDbText
  0
LINE
  5
1F2
100
AcDbEntity
  8
_0-0_
  6
CONTINUOUS
 62
     0
100
AcDbLine
 10
556.4984660336
 20
-813.4585790725
 11
656.9984660336
 21
-813.4585790725
  0
LINE
  5
1F3
100
AcDbEntity
  8
_0-0_
  6
CONTINUOUS
 62
     0
100
AcDbLine
 10
556.4984660336
 20
-795.4585790725
 11
656.9984660336
 21
-795.4585790725
  0
LINE
  5
1F4
100
AcDbEntity
  8
_0-0_
  6
CONTINUOUS
 62
     0
100
AcDbLine
 10
556.4984660336
 20
-759.4585790725
 11
656.9984660336
 21
-759.4585790725
  0
LINE
  5
1F5
100
AcDbEntity
  8
_0-0_
  6
CONTINUOUS
 62
     0
100
AcDbLine
 10
556.4984660336
 20
-741.4585790725
 11
656.9984660336
 21
-741.4585790725
  0
LINE
  5
1F6
100
AcDbEntity
  8
_0-0_
  6
CONTINUOUS
 62
     0
100
AcDbLine
 10
556.4984660336
 20
-687.4585790725
 11
656.9984660336
 21
-687.4585790725
  0
LINE
  5
1F7
100
AcDbEntity
  8
_0-0_
  6
CONTINUOUS
 62
     0
100
AcDbLine
 10
556.4984660336
 20
-669.4585790725
 11
656.9984660336
 21
-669.4585790725
  0
LINE
  5
1F8
100
AcDbEntity
  8
_0-0_
  6
CONTINUOUS
 62
     0
100
AcDbLine
 10
556.4984660336
 20
-723.4585790725
 11
656.9984660336
 21
-723.4585790725
  0
LINE
  5
1F9
100
AcDbEntity
  8
_0-0_
  6
CONTINUOUS
 62
     0
100
AcDbLine
 10
556.4984660336
 20
-777.4585790725
 11
656.9984660336
 21
-777.4585790725
  0
LINE
  5
1FA
100
AcDbEntity
  8
_0-0_
  6
CONTINUOUS
 62
     0
100
AcDbLine
 10
556.4984660336
 20
-651.4585790725
 11
656.9984660336
 21
-651.4585790725
  0
LINE
  5
1FB
100
AcDbEntity
  8
_0-0_
  6
CONTINUOUS
 62
     0
100
AcDbLine
 10
556.4984660336
 20
-633.4585790725
 11
656.9984660336
 21
-633.4585790725
  0
LINE
  5
1FC
100
AcDbEntity
  8
_0-0_
  6
CONTINUOUS
 62
     0
100
AcDbLine
 10
556.4984660336
 20
-615.4585790725
 11
656.9984660336
 21
-615.4585790725
  0
LINE
  5
1FD
100
AcDbEntity
  8
_0-0_
  6
CONTINUOUS
 62
     0
100
AcDbLine
 10
556.4984660336
 20
-597.4585790725
 11
656.9984660336
 21
-597.4585790725
  0
LINE
  5
1FE
100
AcDbEntity
  8
_0-0_
  6
CONTINUOUS
 62
     0
100
AcDbLine
 10
556.4984660336
 20
-579.4585790725
 11
656.9984660336
 21
-579.4585790725
  0
LINE
  5
1FF
100
AcDbEntity
  8
_0-0_
  6
CONTINUOUS
 62
     0
100
AcDbLine
 10
556.4984660336
 20
-561.4585790725
 11
656.9984660336
 21
-561.4585790725
  0
TEXT
  5
200
100
AcDbEntity
  8
_0-0_
  6
CONTINUOUS
 62
     0
100
AcDbText
 10
466.8734660336
 20
-575.5835790725
 40
7.49
  1
規　格
  7
STANDARD
100
AcDbText
  0
TEXT
  5
201
100
AcDbEntity
  8
_0-0_
  6
CONTINUOUS
 62
     0
100
AcDbText
 10
611.4984660336
 20
-575.5835790725
 40
7.49
  1
入数
  7
STANDARD
100
AcDbText
  0
TEXT
  5
202
100
AcDbEntity
  8
_0-0_
  6
CONTINUOUS
 62
     0
100
AcDbText
 10
635.4984660336
 20
-575.5835790725
 40
7.49
  1
単位
  7
STANDARD
100
AcDbText
  0
TEXT
  5
203
100
AcDbEntity
  8
_0-0_
  6
CONTINUOUS
 62
     0
100
AcDbText
 10
246.4984660336
 20
-593.5835790725
 40
7.49
  1
 1
  7
STANDARD
100
AcDbText
  0
TEXT
  5
204
100
AcDbEntity
  8
_0-0_
  6
CONTINUOUS
 62
     0
100
AcDbText
 10
264.9984660336
 20
-593.5835790725
 40
7.49
  1
ＦＹＹキヤップＳ
 41
1.001335113485
  7
STANDARD
100
AcDbText
  0
TEXT
  5
205
100
AcDbEntity
  8
_0-0_
  6
CONTINUOUS
 62
     0
100
AcDbText
 10
641.3734660336
 20
-593.5835790725
 40
7.49
  1
本
  7
STANDARD
100
AcDbText
  0
LINE
  5
206
100
AcDbEntity
  8
_0-0_
  6
CONTINUOUS
 62
     0
100
AcDbLine
 10
554.9984660336
 20
-633.4585790725
 11
241.4984660336
 21
-633.4585790725
  0
LINE
  5
207
100
AcDbEntity
  8
_0-0_
  6
CONTINUOUS
 62
     0
100
AcDbLine
 10
554.9984660336
 20
-615.4585790725
 11
241.4984660336
 21
-615.4585790725
  0
LINE
  5
208
100
AcDbEntity
  8
_0-0_
  6
CONTINUOUS
 62
     0
100
AcDbLine
 10
554.9984660336
 20
-597.4585790725
 11
241.4984660336
 21
-597.4585790725
  0
LINE
  5
209
100
AcDbEntity
  8
_0-0_
  6
CONTINUOUS
 62
     0
100
AcDbLine
 10
554.9984660336
 20
-579.4585790725
 11
241.4984660336
 21
-579.4585790725
  0
LINE
  5
20A
100
AcDbEntity
  8
_0-0_
  6
CONTINUOUS
 62
     0
100
AcDbLine
 10
554.9984660336
 20
-759.4585790725
 11
241.4984660336
 21
-759.4585790725
  0
LINE
  5
20B
100
AcDbEntity
  8
_0-0_
  6
CONTINUOUS
 62
     0
100
AcDbLine
 10
554.9984660336
 20
-741.4585790725
 11
241.4984660336
 21
-741.4585790725
  0
LINE
  5
20C
100
AcDbEntity
  8
_0-0_
  6
CONTINUOUS
 62
     0
100
AcDbLine
 10
554.9984660336
 20
-705.4585790725
 11
241.4984660336
 21
-705.4585790725
  0
LINE
  5
20D
100
AcDbEntity
  8
_0-0_
  6
CONTINUOUS
 62
     0
100
AcDbLine
 10
554.9984660336
 20
-687.4585790725
 11
241.4984660336
 21
-687.4585790725
  0
LINE
  5
20E
100
AcDbEntity
  8
_0-0_
  6
CONTINUOUS
 62
     0
100
AcDbLine
 10
554.9984660336
 20
-669.4585790725
 11
241.4984660336
 21
-669.4585790725
  0
LINE
  5
20F
100
AcDbEntity
  8
_0-0_
  6
CONTINUOUS
 62
     0
100
AcDbLine
 10
554.9984660336
 20
-651.4585790725
 11
241.4984660336
 21
-651.4585790725
  0
LINE
  5
210
100
AcDbEntity
  8
_0-0_
  6
CONTINUOUS
 62
     0
100
AcDbLine
 10
554.9984660336
 20
-723.4585790725
 11
241.4984660336
 21
-723.4585790725
  0
LINE
  5
211
100
AcDbEntity
  8
_0-0_
  6
CONTINUOUS
 62
     0
100
AcDbLine
 10
554.9984660336
 20
-813.4585790725
 11
241.4984660336
 21
-813.4585790725
  0
LINE
  5
212
100
AcDbEntity
  8
_0-0_
  6
CONTINUOUS
 62
     0
100
AcDbLine
 10
554.9984660336
 20
-795.4585790725
 11
241.4984660336
 21
-795.4585790725
  0
LINE
  5
213
100
AcDbEntity
  8
_0-0_
  6
CONTINUOUS
 62
     0
100
AcDbLine
 10
554.9984660336
 20
-777.4585790725
 11
241.4984660336
 21
-777.4585790725
  0
LINE
  5
214
100
AcDbEntity
  8
_0-0_
  6
CONTINUOUS
 62
     0
100
AcDbLine
 10
554.9984660336
 20
-561.4585790725
 11
241.4984660336
 21
-561.4585790725
  0
TEXT
  5
215
100
AcDbEntity
  8
_0-0_
  6
CONTINUOUS
 62
     0
100
AcDbText
 10
246.4984660336
 20
-611.5835790725
 40
7.49
  1
 2
  7
STANDARD
100
AcDbText
  0
TEXT
  5
216
100
AcDbEntity
  8
_0-0_
  6
CONTINUOUS
 62
     0
100
AcDbText
 10
265.6234660336
 20
-611.5835790725
 40
7.49
  1
ＦＹＹフレーム
  7
STANDARD
100
AcDbText
  0
TEXT
  5
217
100
AcDbEntity
  8
_0-0_
  6
CONTINUOUS
 62
     0
100
AcDbText
 10
641.3734660336
 20
-611.5835790725
 40
7.49
  1
〃
  7
STANDARD
100
AcDbText
  0
TEXT
  5
218
100
AcDbEntity
  8
_0-0_
  6
CONTINUOUS
 62
     0
100
AcDbText
 10
246.4984660336
 20
-629.5835790725
 40
7.49
  1
 3
  7
STANDARD
100
AcDbText
  0
TEXT
  5
219
100
AcDbEntity
  8
_0-0_
  6
CONTINUOUS
 62
     0
100
AcDbText
 10
641.3734660336
 20
-629.5835790725
 40
7.49
  1
〃
  7
STANDARD
100
AcDbText
  0
TEXT
  5
21A
100
AcDbEntity
  8
_0-0_
  6
CONTINUOUS
 62
     0
100
AcDbText
 10
246.4984660336
 20
-647.5835790725
 40
7.5
  1
 4
  7
STANDARD
100
AcDbText
  0
TEXT
  5
21B
100
AcDbEntity
  8
_0-0_
  6
CONTINUOUS
 62
     0
100
AcDbText
 10
265.6234660336
 20
-647.5835790725
 40
7.5
  1
ＦＹＹホルダー
 41
0.9986666666667
  7
STANDARD
100
AcDbText
  0
TEXT
  5
21C
100
AcDbEntity
  8
_0-0_
  6
CONTINUOUS
 62
     0
100
AcDbText
 10
641.3734660336
 20
-647.5835790725
 40
7.5
  1
個
 41
0.9986666666667
  7
STANDARD
100
AcDbText
  0
TEXT
  5
21D
100
AcDbEntity
  8
_0-0_
  6
CONTINUOUS
 62
     0
100
AcDbText
 10
246.4984660336
 20
-665.5835790725
 40
7.5
  1
 5
  7
STANDARD
100
AcDbText
  0
TEXT
  5
21E
100
AcDbEntity
  8
_0-0_
  6
CONTINUOUS
 62
     0
100
AcDbText
 10
262.4984660336
 20
-665.5835790725
 40
7.5
  1
ＦＹＹホルダースプリング
 41
0.9986666666667
  7
STANDARD
100
AcDbText
  0
TEXT
  5
21F
100
AcDbEntity
  8
_0-0_
  6
CONTINUOUS
 62
     0
100
AcDbText
 10
641.3734660336
 20
-665.5835790725
 40
7.5
  1
〃
 41
0.9986666666667
  7
STANDARD
100
AcDbText
  0
TEXT
  5
220
100
AcDbEntity
  8
_0-0_
  6
CONTINUOUS
 62
     0
100
AcDbText
 10
246.4984660336
 20
-683.5835790725
 40
7.5
  1
 6
  7
STANDARD
100
AcDbText
  0
TEXT
  5
221
100
AcDbEntity
  8
_0-0_
  6
CONTINUOUS
 62
     0
100
AcDbText
 10
263.7484660336
 20
-683.5835790725
 40
7.5
  1
ＦＹＹフレームナット
 41
0.9986666666667
  7
STANDARD
100
AcDbText
  0
TEXT
  5
222
100
AcDbEntity
  8
_0-0_
  6
CONTINUOUS
 62
     0
100
AcDbText
 10
641.3734660336
 20
-683.5835790725
 40
7.5
  1
〃
 41
0.9986666666667
  7
STANDARD
100
AcDbText
  0
TEXT
  5
223
100
AcDbEntity
  8
_0-0_
  6
CONTINUOUS
 62
     0
100
AcDbText
 10
246.4984660336
 20
-701.5835790725
 40
7.5
  1
 7
  7
STANDARD
100
AcDbText
  0
TEXT
  5
224
100
AcDbEntity
  8
_0-0_
  6
CONTINUOUS
 62
     0
100
AcDbText
 10
263.7484660336
 20
-701.5835790725
 40
7.5
  1
ＦＹＹ水切ジョイント
 41
0.9986666666667
  7
STANDARD
100
AcDbText
  0
TEXT
  5
225
100
AcDbEntity
  8
_0-0_
  6
CONTINUOUS
 62
     0
100
AcDbText
 10
641.3734660336
 20
-701.5835790725
 40
7.5
  1
〃
 41
0.9986666666667
  7
STANDARD
100
AcDbText
  0
TEXT
  5
226
100
AcDbEntity
  8
_0-0_
  6
CONTINUOUS
 62
     0
100
AcDbText
 10
246.4984660336
 20
-719.5835790725
 40
7.5
  1
 8
  7
STANDARD
100
AcDbText
  0
TEXT
  5
227
100
AcDbEntity
  8
_0-0_
  6
CONTINUOUS
 62
     0
100
AcDbText
 10
246.4984660336
 20
-737.5835790725
 40
7.5
  1
 9
  7
STANDARD
100
AcDbText
  0
TEXT
  5
228
100
AcDbEntity
  8
_0-0_
  6
CONTINUOUS
 62
     0
100
AcDbText
 10
266.8734660336
 20
-737.5835790725
 40
7.5
  1
止水補助板
  7
STANDARD
100
AcDbText
  0
TEXT
  5
229
100
AcDbEntity
  8
_0-0_
  6
CONTINUOUS
 62
     0
100
AcDbText
 10
641.3734660336
 20
-737.5835790725
 40
7.5
  1
〃
 41
0.9986666666667
  7
STANDARD
100
AcDbText
  0
TEXT
  5
22A
100
AcDbEntity
  8
_0-0_
  6
CONTINUOUS
 62
     0
100
AcDbText
 10
246.4984660336
 20
-755.5835790725
 40
7.5
  1
10
  7
STANDARD
100
AcDbText
  0
TEXT
  5
22B
100
AcDbEntity
  8
_0-0_
  6
CONTINUOUS
 62
     0
100
AcDbText
 10
641.3734660336
 20
-755.5835790725
 40
7.5
  1
本
 41
0.9986666666667
  7
STANDARD
100
AcDbText
  0
TEXT
  5
22C
100
AcDbEntity
  8
_0-0_
  6
CONTINUOUS
 62
     0
100
AcDbText
 10
246.4984660336
 20
-773.5835790725
 40
7.5
  1
11
  7
STANDARD
100
AcDbText
  0
TEXT
  5
22D
100
AcDbEntity
  8
_0-0_
  6
CONTINUOUS
 62
     0
100
AcDbText
 10
264.9984660336
 20
-773.5835790725
 40
7.5
  1
ステン六角ボルト
  7
STANDARD
100
AcDbText
  0
TEXT
  5
22E
100
AcDbEntity
  8
_0-0_
  6
CONTINUOUS
 62
     0
100
AcDbText
 10
641.3734660336
 20
-773.5835790725
 40
7.5
  1
〃
 41
0.9986666666667
  7
STANDARD
100
AcDbText
  0
TEXT
  5
22F
100
AcDbEntity
  8
_0-0_
  6
CONTINUOUS
 62
     0
100
AcDbText
 10
246.4984660336
 20
-791.5835790725
 40
7.5
  1
12
  7
STANDARD
100
AcDbText
  0
TEXT
  5
230
100
AcDbEntity
  8
_0-0_
  6
CONTINUOUS
 62
     0
100
AcDbText
 10
264.3734660336
 20
-791.5835790725
 40
7.5
  1
アジャストアンカー
  7
STANDARD
100
AcDbText
  0
TEXT
  5
231
100
AcDbEntity
  8
_0-0_
  6
CONTINUOUS
 62
     0
100
AcDbText
 10
641.3734660336
 20
-791.5835790725
 40
7.5
  1
〃
 41
0.9986666666667
  7
STANDARD
100
AcDbText
  0
TEXT
  5
232
100
AcDbEntity
  8
_0-0_
  6
CONTINUOUS
 62
     0
100
AcDbText
 10
246.4984660336
 20
-809.5835790725
 40
7.5
  1
13
  7
STANDARD
100
AcDbText
  0
TEXT
  5
233
100
AcDbEntity
  8
_0-0_
  6
CONTINUOUS
 62
     0
100
AcDbText
 10
264.9984660336
 20
-809.5835790725
 40
7.5
  1
ステンワッシャー
  7
STANDARD
100
AcDbText
  0
TEXT
  5
234
100
AcDbEntity
  8
_0-0_
  6
CONTINUOUS
 62
     0
100
AcDbText
 10
641.3734660336
 20
-809.5835790725
 40
7.5
  1
枚
 41
0.9986666666667
  7
STANDARD
100
AcDbText
  0
TEXT
  5
235
100
AcDbEntity
  8
_0-0_
  6
CONTINUOUS
 62
     0
100
AcDbText
 10
66.6122057406
 20
-123.863951547
 40
10
  1
　　屋根－屋根
 41
0.999
  7
STANDARD
100
AcDbText
  0
TEXT
  5
236
100
AcDbEntity
  8
_0-0_
  6
CONTINUOUS
 62
     0
100
AcDbText
 10
66.6122057406
 20
-139.0994587933
 40
10
  1
　　Ｓ＝１／３
 41
0.999
  7
STANDARD
100
AcDbText
  0
LINE
  5
237
100
AcDbEntity
  8
_0-0_
  6
CONTINUOUS
 62
     0
100
AcDbLine
 10
889.4984660336
 20
-561.4585790725
 11
686.9984660336
 21
-561.4585790725
  0
LINE
  5
238
100
AcDbEntity
  8
_0-0_
  6
CONTINUOUS
 62
     0
100
AcDbLine
 10
889.4984660336
 20
-579.4585790725
 11
686.9984660336
 21
-579.4585790725
  0
LINE
  5
239
100
AcDbEntity
  8
_0-0_
  6
CONTINUOUS
 62
     0
100
AcDbLine
 10
889.4984660336
 20
-597.4585790725
 11
686.9984660336
 21
-597.4585790725
  0
TEXT
  5
23A
100
AcDbEntity
  8
_0-0_
  6
CONTINUOUS
 62
     0
100
AcDbText
 10
824.2484660336
 20
-561.1946611057
 40
7.5
  1
（単位：mm）
  7
STANDARD
100
AcDbText
  0
TEXT
  5
23B
100
AcDbEntity
  8
_0-0_
  6
CONTINUOUS
 62
     0
100
AcDbText
 10
718.3734652836
 20
-575.5835790725
 40
7.49
  1
タ　イ　プ
  7
STANDARD
100
AcDbText
  0
TEXT
  5
23C
100
AcDbEntity
  8
_0-0_
  6
CONTINUOUS
 62
     0
100
AcDbText
 10
816.8734660336
 20
-575.5835790725
 40
7.49
  1
Ｗ
  7
STANDARD
100
AcDbText
  0
TEXT
  5
23D
100
AcDbEntity
  8
_0-0_
  6
CONTINUOUS
 62
     0
100
AcDbText
 10
861.8734660336
 20
-575.5835790725
 40
7.49
  1
Ｃ
  7
STANDARD
100
AcDbText
  0
TEXT
  5
23E
100
AcDbEntity
  8
_0-0_
  6
CONTINUOUS
 62
     0
100
AcDbText
 10
265.4999885839
 20
-718.8793558067
 40
7.49
  1
ウォーターガード
  7
STANDARD
100
AcDbText
  0
TEXT
  5
23F
100
AcDbEntity
  8
_0-0_
  6
CONTINUOUS
 62
     0
100
AcDbText
 10
642.2034823477
 20
-718.2383839115
 40
7.5
  1
枚
 41
0.9986666666667
  7
STANDARD
100
AcDbText
  0
LINE
  5
240
100
AcDbEntity
  8
_0-0_
  6
CONTINUOUS
 62
     0
100
AcDbLine
 10
556.4984660336
 20
-633.4585790725
 11
656.9984660336
 21
-633.4585790725
  0
TEXT
  5
241
100
AcDbEntity
  8
_0-0_
  6
CONTINUOUS
 62
     0
100
AcDbText
 10
266.2484660336
 20
-629.5835790725
 40
7.5
  1
ブチルテープ
 41
0.9986666666667
  7
STANDARD
100
AcDbText
  0
TEXT
  5
242
100
AcDbEntity
  8
_0-0_
  6
CONTINUOUS
 62
     0
100
AcDbText
 10
641.3734660336
 20
-629.5835790725
 40
7.5
  1
巻
 41
0.9986666666667
  7
STANDARD
100
AcDbText
  0
LINE
  5
243
100
AcDbEntity
  8
_0-0_
  6
CONTINUOUS
 62
     0
100
AcDbLine
 10
241.4984660336
 20
-813.4585790725
 11
241.4984660336
 21
-561.4585790725
  0
LINE
  5
244
100
AcDbEntity
  8
_0-0_
  6
CONTINUOUS
 62
     0
100
AcDbLine
 10
262.4984660336
 20
-813.4585790725
 11
262.4984660336
 21
-561.4585790725
  0
LINE
  5
245
100
AcDbEntity
  8
_0-0_
  6
CONTINUOUS
 62
     0
100
AcDbLine
 10
412.4984660336
 20
-813.4585790725
 11
412.4984660336
 21
-561.4585790725
  0
LINE
  5
246
100
AcDbEntity
  8
_0-0_
  6
CONTINUOUS
 62
     0
100
AcDbLine
 10
554.9984660336
 20
-813.4585790725
 11
554.9984660336
 21
-561.4585790725
  0
LINE
  5
247
100
AcDbEntity
  8
_0-0_
  6
CONTINUOUS
 62
     0
100
AcDbLine
 10
556.4984660336
 20
-813.4585790725
 11
556.4984660336
 21
-561.4585790725
  0
LINE
  5
248
100
AcDbEntity
  8
_0-0_
  6
CONTINUOUS
 62
     0
100
AcDbLine
 10
608.9984660336
 20
-813.4585790725
 11
608.9984660336
 21
-561.4585790725
  0
LINE
  5
249
100
AcDbEntity
  8
_0-0_
  6
CONTINUOUS
 62
     0
100
AcDbLine
 10
635.9984660336
 20
-813.4585790725
 11
635.9984660336
 21
-561.4585790725
  0
LINE
  5
24A
100
AcDbEntity
  8
_0-0_
  6
CONTINUOUS
 62
     0
100
AcDbLine
 10
656.9984660336
 20
-813.4585790725
 11
656.9984660336
 21
-561.4585790725
  0
LINE
  5
24B
100
AcDbEntity
  8
_0-0_
  6
CONTINUOUS
 62
     0
100
AcDbLine
 10
686.9984660336
 20
-561.4585790725
 11
686.9984660336
 21
-597.4585790725
  0
LINE
  5
24C
100
AcDbEntity
  8
_0-0_
  6
CONTINUOUS
 62
     0
100
AcDbLine
 10
799.4984660336
 20
-561.4585790725
 11
799.4984660336
 21
-597.4585790725
  0
LINE
  5
24D
100
AcDbEntity
  8
_0-0_
  6
CONTINUOUS
 62
     0
100
AcDbLine
 10
844.4984660336
 20
-561.4585790725
 11
844.4984660336
 21
-597.4585790725
  0
LINE
  5
24E
100
AcDbEntity
  8
_0-0_
  6
CONTINUOUS
 62
     0
100
AcDbLine
 10
889.4984660336
 20
-561.4585790725
 11
889.4984660336
 21
-597.4585790725
  0
TEXT
  5
24F
100
AcDbEntity
  8
_0-0_
  6
CONTINUOUS
 62
     0
100
AcDbText
 10
414.0492333924
 20
214.5036661707
 40
7.49
  1
ＳＰＶＣ
 41
1.001335113485
  7
STANDARD
100
AcDbText
  0
TEXT
  5
250
100
AcDbEntity
  8
_0-0_
  6
CONTINUOUS
 62
     0
100
AcDbText
 10
266.2484660336
 20
177.339683929
 40
7.5
  1
ステン小ねじ
 41
0.9986666666667
  7
STANDARD
100
AcDbText
  0
TEXT
  5
251
100
AcDbEntity
  8
_0-0_
  6
CONTINUOUS
 62
     0
100
AcDbText
 10
266.2484660336
 20
-755.5835790725
 40
7.5
  1
ステン小ねじ
 41
0.9986666666667
  7
STANDARD
100
AcDbText
  0
LINE
  5
252
100
AcDbEntity
  8
_0-1_PRO0
  6
CONTINUOUS
 62
     0
100
AcDbLine
 10
1185.396589
 20
641.9982880341
 11
1185.396589
 21
551.9982880341
  0
LINE
  5
253
100
AcDbEntity
  8
_0-1_PRO0
  6
CONTINUOUS
 62
     0
100
AcDbLine
 10
1130.768804
 20
641.9982880341
 11
1191.396589
 21
641.9982880341
  0
LINE
  5
254
100
AcDbEntity
  8
_0-1_PRO0
  6
CONTINUOUS
 62
     0
100
AcDbLine
 10
1127.768804
 20
551.9982880341
 11
1191.396589
 21
551.9982880341
  0
LINE
  5
255
100
AcDbEntity
  8
_0-1_PRO0
  6
CONTINUOUS
 62
     0
100
AcDbLine
 10
1185.396589
 20
641.9982880341
 11
1186.896589
 21
635.9982880341
  0
LINE
  5
256
100
AcDbEntity
  8
_0-1_PRO0
  6
CONTINUOUS
 62
     0
100
AcDbLine
 10
1185.396589
 20
641.9982880341
 11
1183.896589
 21
635.9982880341
  0
LINE
  5
257
100
AcDbEntity
  8
_0-1_PRO0
  6
CONTINUOUS
 62
     0
100
AcDbLine
 10
1185.396589
 20
551.9982880341
 11
1183.896589
 21
557.9982880341
  0
LINE
  5
258
100
AcDbEntity
  8
_0-1_PRO0
  6
CONTINUOUS
 62
     0
100
AcDbLine
 10
1185.396589
 20
551.9982880341
 11
1186.896589
 21
557.9982880341
  0
TEXT
  5
259
100
AcDbEntity
  8
_0-1_PRO0
  6
CONTINUOUS
 62
     0
100
AcDbText
 10
1182.396522
 20
589.2738970341
 40
9
  1
９０
 41
0.7377777777778
 50
90.000003
  7
STANDARD
100
AcDbText
  0
LINE
  5
25A
100
AcDbEntity
  8
_0-1_PRO0
  6
CONTINUOUS
 62
     0
100
AcDbLine
 10
1106.562824
 20
636.7055420341
 11
629.742636
 21
661.6946290227
  0
LINE
  5
25B
100
AcDbEntity
  8
_0-1_PRO0
  6
CONTINUOUS
 62
     0
100
AcDbLine
 10
1100.533732
 20
639.8048280341
 11
629.768804
 21
664.4765720227
  0
LINE
  5
25C
100
AcDbEntity
  8
_0-1_PRO0
  6
CONTINUOUS
 62
     0
100
AcDbLine
 10
1100.29822
 20
635.3109950341
 11
629.768804
 21
659.9703970227
  0
LINE
  5
25D
100
AcDbEntity
  8
_0-1_PRO0
  6
CONTINUOUS
 62
     0
100
AcDbLine
 10
1100.219716
 20
633.8130510341
 11
629.768804
 21
658.4683380227
  0
LINE
  5
25E
100
AcDbEntity
  8
_0-1_PRO0
  6
CONTINUOUS
 62
     0
100
AcDbLine
 10
1099.450378
 20
619.1331960341
 11
629.768804
 21
643.7481650227
  0
LINE
  5
25F
100
AcDbEntity
  8
_0-1_PRO0
  6
CONTINUOUS
 62
     0
100
AcDbLine
 10
1099.356173
 20
617.3356630341
 11
629.768804
 21
641.9456940227
  0
LINE
  5
260
100
AcDbEntity
  8
_0-1_PRO0
  6
CONTINUOUS
 62
     0
100
AcDbLine
 10
1099.199165
 20
614.3397750341
 11
629.768804
 21
638.9415770227
  0
LINE
  5
261
100
AcDbEntity
  8
_0-1_PRO0
  6
CONTINUOUS
 62
     0
100
AcDbLine
 10
1099.120661
 20
612.8418300341
 11
629.768804
 21
637.4395190227
  0
LINE
  5
262
100
AcDbEntity
  8
_0-1_PRO0
  6
CONTINUOUS
 62
     0
100
AcDbLine
 10
1099.068325
 20
611.8432010341
 11
629.768804
 21
636.4381470227
  0
LINE
  5
263
100
AcDbEntity
  8
_0-1_PRO0
  6
CONTINUOUS
 62
     0
100
AcDbLine
 10
1126.925812
 20
642.1472830341
 11
629.768804
 21
668.2021780227
  0
ARC
  5
264
100
AcDbEntity
  8
_0-1_PRO0
  6
CONTINUOUS
 62
     0
100
AcDbCircle
 10
1106.607643
 20
633.6990760341
 40
7.5
100
AcDbArc
 50
10.124672
 51
87
  0
LINE
  5
265
100
AcDbEntity
  8
_0-1_PRO0
  6
CONTINUOUS
 62
     0
100
AcDbLine
 10
1093.528291
 20
641.8948280341
 11
1091.891225
 21
640.2577620341
  0
LINE
  5
266
100
AcDbEntity
  8
_0-1_PRO0
  6
CONTINUOUS
 62
     0
100
AcDbLine
 10
1094.872079
 20
641.8244030341
 11
1093.235014
 21
640.1873370341
  0
LINE
  5
267
100
AcDbEntity
  8
_0-1_PRO0
  6
CONTINUOUS
 62
     0
100
AcDbLine
 10
1096.215868
 20
641.7539780341
 11
1094.578802
 21
640.1169120341
  0
LINE
  5
268
100
AcDbEntity
  8
_0-1_PRO0
  6
CONTINUOUS
 62
     0
100
AcDbLine
 10
1097.559657
 20
641.6835530341
 11
1095.922591
 21
640.0464870341
  0
LINE
  5
269
100
AcDbEntity
  8
_0-1_PRO0
  6
CONTINUOUS
 62
     0
100
AcDbLine
 10
1098.903445
 20
641.6131280341
 11
1097.26638
 21
639.9760630341
  0
LINE
  5
26A
100
AcDbEntity
  8
_0-1_PRO0
  6
CONTINUOUS
 62
     0
100
AcDbLine
 10
1100.247234
 20
641.5427030341
 11
1098.610168
 21
639.9056380341
  0
LINE
  5
26B
100
AcDbEntity
  8
_0-1_PRO0
  6
CONTINUOUS
 62
     0
100
AcDbLine
 10
1099.953957
 20
639.8352130341
 11
1100.567478
 21
640.4487330341
  0
LINE
  5
26C
100
AcDbEntity
  8
_0-1_PRO0
  6
CONTINUOUS
 62
     0
100
AcDbLine
 10
1092.195253
 20
641.9646900341
 11
1090.558187
 21
640.3276240341
  0
LINE
  5
26D
100
AcDbEntity
  8
_0-1_PRO0
  6
CONTINUOUS
 62
     0
100
AcDbLine
 10
1090.840714
 20
642.0356780341
 11
1090.625651
 21
641.8206160341
  0
ARC
  5
26E
100
AcDbEntity
  8
_0-1_PRO0
  6
CONTINUOUS
 62
     0
100
AcDbCircle
 10
1126.768804
 20
554.9982880341
 40
3
100
AcDbArc
 50
-90
 51
0
  0
LINE
  5
26F
100
AcDbEntity
  8
_0-1_PRO0
  6
CONTINUOUS
 62
     0
100
AcDbLine
 10
1126.768804
 20
551.9982880341
 11
1119.768804
 21
551.9982880341
  0
ARC
  5
270
100
AcDbEntity
  8
_0-1_PRO0
  6
CONTINUOUS
 62
     0
100
AcDbCircle
 10
1126.768804
 20
639.1513940341
 40
3
100
AcDbArc
 50
0
 51
87
  0
LINE
  5
271
100
AcDbEntity
  8
_0-1_PRO0
  6
CONTINUOUS
 62
     0
100
AcDbLine
 10
1129.768804
 20
639.1513940341
 11
1129.768804
 21
554.9982880341
  0
LINE
  5
272
100
AcDbEntity
  8
_0-1_PRO0
  6
CONTINUOUS
 62
     0
100
AcDbLine
 10
1113.990849
 20
635.0175060341
 11
1127.768804
 21
557.8609580341
  0
LINE
  5
273
100
AcDbEntity
  8
_0-1_PRO0
  6
CONTINUOUS
 62
     0
100
AcDbLine
 10
1109.560925
 20
634.2264480341
 11
1123.337611
 21
557.0770100341
  0
ARC
  5
274
100
AcDbEntity
  8
_0-1_PRO0
  6
CONTINUOUS
 62
     0
100
AcDbCircle
 10
1106.607643
 20
633.6990760341
 40
3
100
AcDbArc
 50
10.124672
 51
87
  0
LINE
  5
275
100
AcDbEntity
  8
_0-1_PRO0
  6
CONTINUOUS
 62
     0
100
AcDbLine
 10
1122.851506
 20
564.7982880341
 11
1113.60133
 21
564.7982880341
  0
ARC
  5
276
100
AcDbEntity
  8
_0-1_PRO0
  6
CONTINUOUS
 62
     0
100
AcDbCircle
 10
1122.851506
 20
564.2982880341
 40
0.5
100
AcDbArc
 50
12.00000000002
 51
90
  0
LINE
  5
277
100
AcDbEntity
  8
_0-1_PRO0
  6
CONTINUOUS
 62
     0
100
AcDbLine
 10
1123.34058
 20
564.4022440341
 11
1124.768804
 21
557.6829750341
  0
LINE
  5
278
100
AcDbEntity
  8
_0-1_PRO0
  6
CONTINUOUS
 62
     0
100
AcDbLine
 10
1124.768804
 20
557.6829750341
 11
1124.768804
 21
553.9982880341
  0
LINE
  5
279
100
AcDbEntity
  8
_0-1_PRO0
  6
CONTINUOUS
 62
     0
100
AcDbLine
 10
1125.268804
 20
553.9982880341
 11
1124.768804
 21
553.9982880341
  0
ARC
  5
27A
100
AcDbEntity
  8
_0-1_PRO0
  6
CONTINUOUS
 62
     0
100
AcDbCircle
 10
1125.268804
 20
556.4982880341
 40
2.5
100
AcDbArc
 50
-90
 51
0
  0
LINE
  5
27B
100
AcDbEntity
  8
_0-1_PRO0
  6
CONTINUOUS
 62
     0
100
AcDbLine
 10
1113.60133
 20
565.9982880341
 11
1116.00133
 21
565.9982880341
  0
LINE
  5
27C
100
AcDbEntity
  8
_0-1_PRO0
  6
CONTINUOUS
 62
     0
100
AcDbLine
 10
1118.00133
 20
566.9982880341
 11
1118.00133
 21
565.9982880341
  0
LINE
  5
27D
100
AcDbEntity
  8
_0-1_PRO0
  6
CONTINUOUS
 62
     0
100
AcDbLine
 10
1116.00133
 20
565.9982880341
 11
1118.00133
 21
566.9982880341
  0
ARC
  5
27E
100
AcDbEntity
  8
_0-1_PRO0
  6
CONTINUOUS
 62
     0
100
AcDbCircle
 10
1113.60133
 20
565.3982880341
 40
0.6
100
AcDbArc
 50
90
 51
270
  0
LINE
  5
27F
100
AcDbEntity
  8
_0-1_PRO0
  6
CONTINUOUS
 62
     0
100
AcDbLine
 10
1122.383881
 20
565.9982880341
 11
1118.00133
 21
565.9982880341
  0
ARC
  5
280
100
AcDbEntity
  8
_0-1_PRO0
  6
CONTINUOUS
 62
     0
100
AcDbCircle
 10
1122.383881
 20
566.4982880341
 40
0.5
100
AcDbArc
 50
-90
 51
11.99999999999
  0
ARC
  5
281
100
AcDbEntity
  8
_0-1_PRO0
  6
CONTINUOUS
 62
     0
100
AcDbCircle
 10
1101.170256
 20
613.7357880341
 40
0.5
100
AcDbArc
 50
86.99999999999
 51
177
  0
LINE
  5
282
100
AcDbEntity
  8
_0-1_PRO0
  6
CONTINUOUS
 62
     0
100
AcDbLine
 10
1100.670941
 20
613.7619560341
 11
1100.618605
 21
612.7633260341
  0
LINE
  5
283
100
AcDbEntity
  8
_0-1_PRO0
  6
CONTINUOUS
 62
     0
100
AcDbLine
 10
1100.093123
 20
612.2901800341
 11
1099.593808
 21
612.3163480341
  0
ARC
  5
284
100
AcDbEntity
  8
_0-1_PRO0
  6
CONTINUOUS
 62
     0
100
AcDbCircle
 10
1099.619976
 20
612.8156620341
 40
0.5
100
AcDbArc
 50
177
 51
267
  0
ARC
  5
285
100
AcDbEntity
  8
_0-1_PRO0
  6
CONTINUOUS
 62
     0
100
AcDbCircle
 10
1100.119291
 20
612.7894940341
 40
0.5
100
AcDbArc
 50
-93.00000000001
 51
-3.000000000006
  0
LINE
  5
286
100
AcDbEntity
  8
_0-1_PRO0
  6
CONTINUOUS
 62
     0
100
AcDbLine
 10
1108.871503
 20
613.8328690341
 11
1101.196424
 21
614.2351030341
  0
ARC
  5
287
100
AcDbEntity
  8
_0-1_PRO0
  6
CONTINUOUS
 62
     0
100
AcDbCircle
 10
1108.845335
 20
613.3335540341
 40
0.5
100
AcDbArc
 50
-13
 51
86.99999999999
  0
LINE
  5
288
100
AcDbEntity
  8
_0-1_PRO0
  6
CONTINUOUS
 62
     0
100
AcDbLine
 10
1109.33252
 20
613.2210790341
 11
1108.749327
 21
610.6949940341
  0
LINE
  5
289
100
AcDbEntity
  8
_0-1_PRO0
  6
CONTINUOUS
 62
     0
100
AcDbLine
 10
1110.93479
 20
613.7247370341
 11
1112.112136
 21
613.6630350341
  0
ARC
  5
28A
100
AcDbEntity
  8
_0-1_PRO0
  6
CONTINUOUS
 62
     0
100
AcDbCircle
 10
1110.919089
 20
613.4251480341
 40
0.3
100
AcDbArc
 50
86.99999999999
 51
167
  0
LINE
  5
28B
100
AcDbEntity
  8
_0-1_PRO0
  6
CONTINUOUS
 62
     0
100
AcDbLine
 10
1110.626778
 20
613.4926330341
 11
1109.918571
 21
610.4250530341
  0
ARC
  5
28C
100
AcDbEntity
  8
_0-1_PRO0
  6
CONTINUOUS
 62
     0
100
AcDbCircle
 10
1112.0598
 20
612.6644050341
 40
1
100
AcDbArc
 50
12
 51
86.99999999999
  0
ARC
  5
28D
100
AcDbEntity
  8
_0-1_PRO0
  6
CONTINUOUS
 62
     0
100
AcDbCircle
 10
1109.333949
 20
610.5600240341
 40
0.6
100
AcDbArc
 50
167
 51
347
  0
LINE
  5
28E
100
AcDbEntity
  8
_0-1_PRO0
  6
CONTINUOUS
 62
     0
100
AcDbLine
 10
1115.812854
 20
614.2466110341
 11
1127.768804
 21
557.9982880341
  0
LINE
  5
28F
100
AcDbEntity
  8
_0-1_PRO0
  6
CONTINUOUS
 62
     0
100
AcDbLine
 10
1113.037948
 20
612.8723170341
 11
1122.872955
 21
566.6022440341
  0
LINE
  5
290
100
AcDbEntity
  8
_0-1_PRO0
  6
CONTINUOUS
 62
     0
100
AcDbLine
 10
1123.337611
 20
557.0770100341
 11
1127.768804
 21
557.8609580341
  0
LINE
  5
291
100
AcDbEntity
  8
_0-1_PRO0
  6
CONTINUOUS
 62
     0
100
AcDbLine
 10
1100.623776
 20
641.5229700341
 11
1100.533732
 21
639.8048280341
  0
LINE
  5
292
100
AcDbEntity
  8
_0-1_PRO0
  6
CONTINUOUS
 62
     0
100
AcDbLine
 10
1090.637481
 20
642.0463290341
 11
1090.547437
 21
640.3281870341
  0
ARC
  5
293
100
AcDbEntity
  8
_0-1_PRO0
  6
CONTINUOUS
 62
     0
100
AcDbCircle
 10
1099.986328
 20
619.8060690341
 40
0.5
100
AcDbArc
 50
86.99999999999
 51
177
  0
LINE
  5
294
100
AcDbEntity
  8
_0-1_PRO0
  6
CONTINUOUS
 62
     0
100
AcDbLine
 10
1101.353432
 20
617.2309910341
 11
1113.035419
 21
616.6187640341
  0
ARC
  5
295
100
AcDbEntity
  8
_0-1_PRO0
  6
CONTINUOUS
 62
     0
100
AcDbCircle
 10
1101.3796
 20
617.7303060341
 40
0.5
100
AcDbArc
 50
177
 51
267
  0
LINE
  5
296
100
AcDbEntity
  8
_0-1_PRO0
  6
CONTINUOUS
 62
     0
100
AcDbLine
 10
1100.880285
 20
617.7564740341
 11
1100.984957
 21
619.7537330341
  0
ARC
  5
297
100
AcDbEntity
  8
_0-1_PRO0
  6
CONTINUOUS
 62
     0
100
AcDbCircle
 10
1100.485642
 20
619.7799010341
 40
0.5
100
AcDbArc
 50
-3.000000000006
 51
86.99999999999
  0
LINE
  5
298
100
AcDbEntity
  8
_0-1_PRO0
  6
CONTINUOUS
 62
     0
100
AcDbLine
 10
1100.51181
 20
620.2792160341
 11
1100.012496
 21
620.3053840341
  0
LINE
  5
299
100
AcDbEntity
  8
_0-1_PRO0
  6
CONTINUOUS
 62
     0
100
AcDbLine
 10
1100.533732
 20
639.8048280341
 11
1099.068325
 21
611.8432010341
  0
ARC
  5
29A
100
AcDbEntity
  8
_0-1_PRO0
  6
CONTINUOUS
 62
     0
100
AcDbCircle
 10
1112.878411
 20
613.6228760341
 40
3
100
AcDbArc
 50
12
 51
87
  0
ARC
  5
29B
100
AcDbEntity
  8
_0-1_PRO0
  6
CONTINUOUS
 62
     0
100
AcDbCircle
 10
1070.816727
 20
617.3292940341
 40
1.5
100
AcDbArc
 50
87
 51
267
  0
ARC
  5
29C
100
AcDbEntity
  8
_0-0_
  6
CONTINUOUS
 62
     0
100
AcDbCircle
 10
1126.768804
 20
554.9982880341
 40
1.5
100
AcDbArc
 50
-90
 51
0
  0
LINE
  5
29D
100
AcDbEntity
  8
_0-0_
  6
CONTINUOUS
 62
     0
100
AcDbLine
 10
1128.268804
 20
639.1513940341
 11
1128.268804
 21
554.9982880341
  0
ARC
  5
29E
100
AcDbEntity
  8
_0-0_
  6
CONTINUOUS
 62
     0
100
AcDbCircle
 10
1126.768804
 20
639.1513940341
 40
1.5
100
AcDbArc
 50
0
 51
87
  0
LINE
  5
29F
100
AcDbEntity
  8
_0-0_
  6
CONTINUOUS
 62
     0
100
AcDbLine
 10
1126.847308065
 20
640.649338732
 11
629.768804
 21
666.7001195037
  0
LINE
  5
2A0
100
AcDbEntity
  8
_0-0_
  6
CONTINUOUS
 62
     0
100
AcDbLine
 10
1126.768804
 20
553.4982880341
 11
1119.768804
 21
553.4982880341
  0
LINE
  5
2A1
100
AcDbEntity
  8
_0-1_PRO0
  6
CONTINUOUS
 62
     0
100
AcDbLine
 10
1119.768804
 20
553.4982880341
 11
1119.768804
 21
551.9982880341
  0
LINE
  5
2A2
100
AcDbEntity
  8
_0-1_PRO0
  6
CONTINUOUS
 62
     0
100
AcDbLine
 10
1127.768804
 20
557.9982880341
 11
1127.768804
 21
556.4982880341
  0
LINE
  5
2A3
100
AcDbEntity
  8
_0-1_PRO0
  6
CONTINUOUS
 62
     0
100
AcDbLine
 10
1106.798335803
 20
641.1993749405
 11
629.9781478031
 21
666.1884619291
  0
CIRCLE
  5
2A4
100
AcDbEntity
  8
_0-0_
  6
CONTINUOUS
 62
     0
100
AcDbCircle
 10
1112.848620116
 20
643.3497492083
 40
0.9
  0
CIRCLE
  5
2A5
100
AcDbEntity
  8
_0-0_
  6
CONTINUOUS
 62
     0
100
AcDbCircle
 10
1113.061974326
 20
625.2108342798
 40
0.9
  0
LINE
  5
2A6
100
AcDbEntity
  8
_0-0_
  6
CONTINUOUS
 62
     0
100
AcDbLine
 10
1112.848620116
 20
643.3497492083
 11
1137.98510126
 21
686.8874116722
  0
CIRCLE
  5
2A7
100
AcDbEntity
  8
_0-0_
  6
CONTINUOUS
 62
     0
100
AcDbCircle
 10
1139.69845547
 20
671.346572955
 40
6
  0
LINE
  5
2A8
100
AcDbEntity
  8
_0-0_
  6
CONTINUOUS
 62
     0
100
AcDbLine
 10
1113.061974326
 20
625.2108342798
 11
1136.69845547
 21
666.1504205323
  0
CIRCLE
  5
2A9
100
AcDbEntity
  8
_0-0_
  6
CONTINUOUS
 62
     0
100
AcDbCircle
 10
1140.98510126
 20
692.0835640949
 40
6
  0
TEXT
  5
2AA
100
AcDbEntity
  8
_0-0_
  6
CONTINUOUS
 62
     0
100
AcDbText
 10
1135.852456132
 20
686.9437572396
 40
9
  1
１
  7
STANDARD
100
AcDbText
  0
TEXT
  5
2AB
100
AcDbEntity
  8
_0-0_
  6
CONTINUOUS
 62
     0
100
AcDbText
 10
1134.898407845
 20
666.5271238772
 40
9
  1
７
  7
STANDARD
100
AcDbText
  0
LINE
  5
2AC
100
AcDbEntity
  8
_0-1_PRO0
  6
CONTINUOUS
 62
     0
100
AcDbLine
 10
1157.821664417
 20
595.8677360341
 11
1157.821664417
 21
551.9982880341
  0
LINE
  5
2AD
100
AcDbEntity
  8
_0-1_PRO0
  6
CONTINUOUS
 62
     0
100
AcDbLine
 10
1157.821664417
 20
595.8677360341
 11
1159.321664417
 21
589.8677360341
  0
LINE
  5
2AE
100
AcDbEntity
  8
_0-1_PRO0
  6
CONTINUOUS
 62
     0
100
AcDbLine
 10
1157.821664417
 20
595.8677360341
 11
1156.321664417
 21
589.8677360341
  0
LINE
  5
2AF
100
AcDbEntity
  8
_0-1_PRO0
  6
CONTINUOUS
 62
     0
100
AcDbLine
 10
1157.821664417
 20
551.9982880341
 11
1156.321664417
 21
557.9982880341
  0
LINE
  5
2B0
100
AcDbEntity
  8
_0-1_PRO0
  6
CONTINUOUS
 62
     0
100
AcDbLine
 10
1157.821664417
 20
551.9982880341
 11
1159.321664417
 21
557.9982880341
  0
TEXT
  5
2B1
100
AcDbEntity
  8
_0-1_PRO0
  6
CONTINUOUS
 62
     0
100
AcDbText
 10
1154.821615417
 20
566.2086040341
 40
9
  1
４４
 41
0.7377777777778
 50
90.000003
  7
STANDARD
100
AcDbText
  0
LINE
  5
2B2
100
AcDbEntity
  8
_0-1_PRO0
  6
CONTINUOUS
 62
     0
100
AcDbLine
 10
1152.538712417
 20
551.9982880341
 11
1163.821664417
 21
551.9982880341
  0
LINE
  5
2B3
100
AcDbEntity
  8
_0-1_PRO0
  6
CONTINUOUS
 62
     0
100
AcDbLine
 10
986.2677617576
 20
595.8677360341
 11
1163.821664417
 21
595.8677360341
  0
LINE
  5
2B4
100
AcDbEntity
  8
_0-1_PRO0
  6
CONTINUOUS
 62
     0
100
AcDbLine
 10
1129.768804
 20
556.1186770227
 11
1129.768804
 21
383.7601458101
  0
LINE
  5
2B5
100
AcDbEntity
  8
_0-1_PRO0
  6
CONTINUOUS
 62
     0
100
AcDbLine
 10
1129.768804
 20
389.7601458101
 11
1123.768804
 21
388.2601458101
  0
LINE
  5
2B6
100
AcDbEntity
  8
_0-1_PRO0
  6
CONTINUOUS
 62
     0
100
AcDbLine
 10
1129.768804
 20
389.7601458101
 11
1123.768804
 21
391.2601458101
  0
LINE
  5
2B7
100
AcDbEntity
  8
_0-1_PRO0
  6
CONTINUOUS
 62
     0
100
AcDbLine
 10
929.768804
 20
389.7601458101
 11
1129.768804
 21
389.7601458101
  0
LINE
  5
2B8
100
AcDbEntity
  8
_0-1_PRO0
  6
CONTINUOUS
 62
     0
100
AcDbLine
 10
1129.768804
 20
642.7717830227
 11
1129.768804
 21
743.3612469943
  0
LINE
  5
2B9
100
AcDbEntity
  8
_0-1_PRO0
  6
CONTINUOUS
 62
     0
100
AcDbLine
 10
1129.768804
 20
739.3612469943
 11
1123.768804
 21
737.8612469943
  0
LINE
  5
2BA
100
AcDbEntity
  8
_0-1_PRO0
  6
CONTINUOUS
 62
     0
100
AcDbLine
 10
1129.768804
 20
739.3612469943
 11
1123.768804
 21
740.8612469943
  0
LINE
  5
2BB
100
AcDbEntity
  8
_0-1_PRO0
  6
CONTINUOUS
 62
     0
100
AcDbLine
 10
929.768804
 20
409.7559858101
 11
929.768804
 21
595.8677360341
  0
CIRCLE
  5
2BC
100
AcDbEntity
  8
_0-3_
  6
CONTINUOUS
 62
     0
100
AcDbCircle
 10
925.1322813982
 20
657.7167960982
 40
6
  0
TEXT
  5
2BD
100
AcDbEntity
  8
_0-3_
  6
CONTINUOUS
 62
     0
100
AcDbText
 10
920.5066353519
 20
652.6780369641
 40
9
  1
２
  7
STANDARD
100
AcDbText
  0
LINE
  5
2BE
100
AcDbEntity
  8
_0-3_
  6
CONTINUOUS
 62
     0
100
AcDbLine
 10
897.3192271427
 20
609.543173014
 11
922.1322813982
 21
652.5206436754
  0
CIRCLE
  5
2BF
100
AcDbEntity
  8
_0-3_
  6
CONTINUOUS
 62
     0
100
AcDbCircle
 10
897.2728222986
 20
609.61907302
 40
0.9
  0
CIRCLE
  5
2C0
100
AcDbEntity
  8
_0-3_
  6
CONTINUOUS
 62
     0
100
AcDbCircle
 10
889.9286134426
 20
611.3563509457
 40
0.9
  0
LINE
  5
2C1
100
AcDbEntity
  8
_0-3_
  6
CONTINUOUS
 62
     0
100
AcDbLine
 10
889.9487199767
 20
611.2851317958
 11
901.7304061084
 21
590.8786528167
  0
CIRCLE
  5
2C2
100
AcDbEntity
  8
_0-3_
  6
CONTINUOUS
 62
     0
100
AcDbCircle
 10
904.7304061084
 20
585.682500394
 40
6
  0
TEXT
  5
2C3
100
AcDbEntity
  8
_0-3_
  6
CONTINUOUS
 62
     0
100
AcDbText
 10
900.5350621966
 20
581.0343577233
 40
9
  1
６
  7
STANDARD
100
AcDbText
  0
LINE
  5
2C4
100
AcDbEntity
  8
_0-3_
  6
CONTINUOUS
 62
     0
100
AcDbLine
 10
884.0660626933
 20
604.0879769148
 11
900.4884483582
 21
575.6435705617
  0
CIRCLE
  5
2C5
100
AcDbEntity
  8
_0-3_
  6
CONTINUOUS
 62
     0
100
AcDbCircle
 10
884.0885415431
 20
603.9683081813
 40
0.9
  0
CIRCLE
  5
2C6
100
AcDbEntity
  8
_0-3_
  6
CONTINUOUS
 62
     0
100
AcDbCircle
 10
872.6293789614
 20
601.1038929667
 40
0.9
  0
LINE
  5
2C7
100
AcDbEntity
  8
_0-3_
  6
CONTINUOUS
 62
     0
100
AcDbLine
 10
872.6806509193
 20
601.0516445303
 11
862.9833972874
 21
584.255508546
  0
CIRCLE
  5
2C8
100
AcDbEntity
  8
_0-3_
  6
CONTINUOUS
 62
     0
100
AcDbCircle
 10
859.9833972874
 20
579.0593561233
 40
6
  0
TEXT
  5
2C9
100
AcDbEntity
  8
_0-3_
  6
CONTINUOUS
 62
     0
100
AcDbText
 10
854.9538776678
 20
574.1622539836
 40
9
  1
13
  7
STANDARD
100
AcDbText
  0
TEXT
  5
2CA
100
AcDbEntity
  8
_0-3_
  6
CONTINUOUS
 62
     0
100
AcDbText
 10
899.5080376051
 20
565.4742182849
 40
9
  1
11
  7
STANDARD
100
AcDbText
  0
CIRCLE
  5
2CB
100
AcDbEntity
  8
_0-3_
  6
CONTINUOUS
 62
     0
100
AcDbCircle
 10
903.4884483582
 20
570.447418139
 40
6
  0
CIRCLE
  5
2CC
100
AcDbEntity
  8
_0-3_
  6
CONTINUOUS
 62
     0
100
AcDbCircle
 10
877.642793024
 20
569.7850746359
 40
0.9
  0
LINE
  5
2CD
100
AcDbEntity
  8
_0-3_
  6
CONTINUOUS
 62
     0
100
AcDbLine
 10
877.642793024
 20
569.7850746359
 11
867.6011788293
 21
552.3924886606
  0
TEXT
  5
2CE
100
AcDbEntity
  8
_0-3_
  6
CONTINUOUS
 62
     0
100
AcDbText
 10
859.8424750336
 20
542.3687405815
 40
9
  1
12
  7
STANDARD
100
AcDbText
  0
CIRCLE
  5
2CF
100
AcDbEntity
  8
_0-3_
  6
CONTINUOUS
 62
     0
100
AcDbCircle
 10
864.6011788293
 20
547.1963362379
 40
6
  0
LINE
  5
2D0
100
AcDbEntity
  8
_0-2_
  6
CONTINUOUS
 62
     0
100
AcDbLine
 10
875.0043712856
 20
612.4456990341
 11
884.1917632856
 21
611.9642080341
  0
LINE
  5
2D1
100
AcDbEntity
  8
_0-2_
  6
CONTINUOUS
 62
     0
100
AcDbLine
 10
864.7864762856
 20
596.4417585058
 11
865.2124538139
 21
596.8677360341
  0
ARC
  5
2D2
100
AcDbEntity
  8
_0-2_
  6
CONTINUOUS
 62
     0
100
AcDbCircle
 10
864.7864762856
 20
588.6177360341
 40
8.25
100
AcDbArc
 50
90
 51
108.9246444161
  0
ARC
  5
2D3
100
AcDbEntity
  8
_0-2_
  6
CONTINUOUS
 62
     0
100
AcDbCircle
 10
864.7864762856
 20
588.6177360341
 40
9.25
100
AcDbArc
 50
90
 51
108.9246444161
  0
ARC
  5
2D4
100
AcDbEntity
  8
_0-2_
  6
CONTINUOUS
 62
     0
100
AcDbCircle
 10
858.7864762856
 20
606.1177360341
 40
9.25
100
AcDbArc
 50
-90
 51
-71.07535558395
  0
LINE
  5
2D5
100
AcDbEntity
  8
_0-2_
  6
CONTINUOUS
 62
     0
100
AcDbLine
 10
879.768803
 20
550.4343350341
 11
879.768803
 21
595.8677360341
  0
LINE
  5
2D6
100
AcDbEntity
  8
_0-2_
  6
CONTINUOUS
 62
     0
100
AcDbLine
 10
884.518805
 20
586.8677360341
 11
883.818803
 21
587.5677350341
  0
LINE
  5
2D7
100
AcDbEntity
  8
_0-2_
  6
CONTINUOUS
 62
     0
100
AcDbLine
 10
883.818803
 20
596.8677350341
 11
883.818803
 21
587.5677350341
  0
LINE
  5
2D8
100
AcDbEntity
  8
_0-2_
  6
CONTINUOUS
 62
     0
100
AcDbLine
 10
884.518805
 20
568.2395630341
 11
884.518805
 21
586.8677360341
  0
LINE
  5
2D9
100
AcDbEntity
  8
_0-2_
  6
CONTINUOUS
 62
     0
100
AcDbLine
 10
884.268803
 20
556.3677350341
 11
884.268803
 21
557.2310390341
  0
LINE
  5
2DA
100
AcDbEntity
  8
_0-2_
  6
CONTINUOUS
 62
     0
100
AcDbLine
 10
886.393835
 20
557.6057390341
 11
884.518805
 21
568.2395630341
  0
LINE
  5
2DB
100
AcDbEntity
  8
_0-2_
  6
CONTINUOUS
 62
     0
100
AcDbLine
 10
880.268804
 20
567.8677340341
 11
879.268805
 21
567.8677340341
  0
LINE
  5
2DC
100
AcDbEntity
  8
_0-2_
  6
CONTINUOUS
 62
     0
100
AcDbLine
 10
875.018804
 20
586.8677360341
 11
875.718803
 21
587.5677350341
  0
LINE
  5
2DD
100
AcDbEntity
  8
_0-2_
  6
CONTINUOUS
 62
     0
100
AcDbLine
 10
875.718803
 20
596.8677350341
 11
875.718803
 21
587.5677350341
  0
LINE
  5
2DE
100
AcDbEntity
  8
_0-2_
  6
CONTINUOUS
 62
     0
100
AcDbLine
 10
875.018804
 20
568.2395630341
 11
875.018804
 21
586.8677360341
  0
LINE
  5
2DF
100
AcDbEntity
  8
_0-2_
  6
CONTINUOUS
 62
     0
100
AcDbLine
 10
876.268805
 20
555.3677360341
 11
883.268804
 21
555.3677360341
  0
ARC
  5
2E0
100
AcDbEntity
  8
_0-2_
  6
CONTINUOUS
 62
     0
100
AcDbCircle
 10
876.268805
 20
556.3677350341
 40
0.999999
100
AcDbArc
 50
180
 51
270
  0
LINE
  5
2E1
100
AcDbEntity
  8
_0-2_
  6
CONTINUOUS
 62
     0
100
AcDbLine
 10
875.268803
 20
556.3677350341
 11
875.268803
 21
557.2310390341
  0
LINE
  5
2E2
100
AcDbEntity
  8
_0-2_
  6
CONTINUOUS
 62
     0
100
AcDbLine
 10
873.143774
 20
557.6057390341
 11
877.329206
 21
556.8677360341
  0
LINE
  5
2E3
100
AcDbEntity
  8
_0-2_
  6
CONTINUOUS
 62
     0
100
AcDbLine
 10
880.268804
 20
567.8677340341
 11
882.2084
 21
556.8677360341
  0
LINE
  5
2E4
100
AcDbEntity
  8
_0-2_
  6
CONTINUOUS
 62
     0
100
AcDbLine
 10
879.268805
 20
567.8677340341
 11
877.329206
 21
556.8677360341
  0
LINE
  5
2E5
100
AcDbEntity
  8
_0-2_
  6
CONTINUOUS
 62
     0
100
AcDbLine
 10
873.143774
 20
557.6057390341
 11
875.018804
 21
568.2395630341
  0
LINE
  5
2E6
100
AcDbEntity
  8
_0-2_
  6
CONTINUOUS
 62
     0
100
AcDbLine
 10
884.518805
 20
586.8677360341
 11
875.018804
 21
586.8677360341
  0
LINE
  5
2E7
100
AcDbEntity
  8
_0-2_
  6
CONTINUOUS
 62
     0
100
AcDbLine
 10
883.818803
 20
587.5677350341
 11
875.718803
 21
587.5677350341
  0
LINE
  5
2E8
100
AcDbEntity
  8
_0-2_
  6
CONTINUOUS
 62
     0
100
AcDbLine
 10
886.393835
 20
557.6057390341
 11
882.2084
 21
556.8677360341
  0
ARC
  5
2E9
100
AcDbEntity
  8
_0-2_
  6
CONTINUOUS
 62
     0
100
AcDbCircle
 10
883.268804
 20
556.3677350341
 40
0.999999
100
AcDbArc
 50
-90
 51
0
  0
LINE
  5
2EA
100
AcDbEntity
  8
_0-2_
  6
CONTINUOUS
 62
     0
100
AcDbLine
 10
865.6266673763
 20
595.8677360341
 11
866.6266673763
 21
596.8677360341
  0
LINE
  5
2EB
100
AcDbEntity
  8
_0-2_
  6
CONTINUOUS
 62
     0
100
AcDbLine
 10
867.0408809386
 20
595.8677360341
 11
868.0408809386
 21
596.8677360341
  0
LINE
  5
2EC
100
AcDbEntity
  8
_0-2_
  6
CONTINUOUS
 62
     0
100
AcDbLine
 10
868.455094501
 20
595.8677360341
 11
869.455094501
 21
596.8677360341
  0
LINE
  5
2ED
100
AcDbEntity
  8
_0-2_
  6
CONTINUOUS
 62
     0
100
AcDbLine
 10
869.8693080634
 20
595.8677360341
 11
870.8693080634
 21
596.8677360341
  0
LINE
  5
2EE
100
AcDbEntity
  8
_0-2_
  6
CONTINUOUS
 62
     0
100
AcDbLine
 10
871.2835216258
 20
595.8677360341
 11
872.2835216258
 21
596.8677360341
  0
LINE
  5
2EF
100
AcDbEntity
  8
_0-2_
  6
CONTINUOUS
 62
     0
100
AcDbLine
 10
872.6977351881
 20
595.8677360341
 11
873.6977351881
 21
596.8677360341
  0
LINE
  5
2F0
100
AcDbEntity
  8
_0-2_
  6
CONTINUOUS
 62
     0
100
AcDbLine
 10
874.1119487505
 20
595.8677360341
 11
875.1119487505
 21
596.8677360341
  0
LINE
  5
2F1
100
AcDbEntity
  8
_0-2_
  6
CONTINUOUS
 62
     0
100
AcDbLine
 10
875.5261623129
 20
595.8677360341
 11
876.5261623129
 21
596.8677360341
  0
LINE
  5
2F2
100
AcDbEntity
  8
_0-2_
  6
CONTINUOUS
 62
     0
100
AcDbLine
 10
876.9403758753
 20
595.8677360341
 11
877.9403758753
 21
596.8677360341
  0
LINE
  5
2F3
100
AcDbEntity
  8
_0-2_
  6
CONTINUOUS
 62
     0
100
AcDbLine
 10
878.3545894376
 20
595.8677360341
 11
879.3545894376
 21
596.8677360341
  0
LINE
  5
2F4
100
AcDbEntity
  8
_0-2_
  6
CONTINUOUS
 62
     0
100
AcDbLine
 10
879.768803
 20
595.8677360341
 11
880.768803
 21
596.8677360341
  0
LINE
  5
2F5
100
AcDbEntity
  8
_0-2_
  6
CONTINUOUS
 62
     0
100
AcDbLine
 10
881.1830165624
 20
595.8677360341
 11
882.1830165624
 21
596.8677360341
  0
LINE
  5
2F6
100
AcDbEntity
  8
_0-2_
  6
CONTINUOUS
 62
     0
100
AcDbLine
 10
882.5972301247
 20
595.8677360341
 11
883.5972301247
 21
596.8677360341
  0
LINE
  5
2F7
100
AcDbEntity
  8
_0-2_
  6
CONTINUOUS
 62
     0
100
AcDbLine
 10
884.0114436871
 20
595.8677360341
 11
885.0114436871
 21
596.8677360341
  0
LINE
  5
2F8
100
AcDbEntity
  8
_0-2_
  6
CONTINUOUS
 62
     0
100
AcDbLine
 10
885.4256572495
 20
595.8677360341
 11
886.4256572495
 21
596.8677360341
  0
LINE
  5
2F9
100
AcDbEntity
  8
_0-2_
  6
CONTINUOUS
 62
     0
100
AcDbLine
 10
886.8398708119
 20
595.8677360341
 11
887.8398708119
 21
596.8677360341
  0
LINE
  5
2FA
100
AcDbEntity
  8
_0-2_
  6
CONTINUOUS
 62
     0
100
AcDbLine
 10
888.2540843742
 20
595.8677360341
 11
889.2540843742
 21
596.8677360341
  0
LINE
  5
2FB
100
AcDbEntity
  8
_0-2_
  6
CONTINUOUS
 62
     0
100
AcDbLine
 10
889.6682979366
 20
595.8677360341
 11
890.6682979366
 21
596.8677360341
  0
LINE
  5
2FC
100
AcDbEntity
  8
_0-2_
  6
CONTINUOUS
 62
     0
100
AcDbLine
 10
891.082511499
 20
595.8677360341
 11
892.082511499
 21
596.8677360341
  0
LINE
  5
2FD
100
AcDbEntity
  8
_0-2_
  6
CONTINUOUS
 62
     0
100
AcDbLine
 10
892.4967250614
 20
595.8677360341
 11
893.4967250614
 21
596.8677360341
  0
LINE
  5
2FE
100
AcDbEntity
  8
_0-2_
  6
CONTINUOUS
 62
     0
100
AcDbLine
 10
893.9109386237
 20
595.8677360341
 11
894.7864762856
 21
596.7432736959
  0
LINE
  5
2FF
100
AcDbEntity
  8
_0-2_
  6
CONTINUOUS
 62
     0
100
AcDbLine
 10
894.7864762856
 20
595.8677360341
 11
864.7864762856
 21
595.8677360341
  0
LINE
  5
300
100
AcDbEntity
  8
_0-2_
  6
CONTINUOUS
 62
     0
100
AcDbLine
 10
864.7864762856
 20
595.8677360341
 11
864.7864762856
 21
596.8677360341
  0
LINE
  5
301
100
AcDbEntity
  8
_0-2_
  6
CONTINUOUS
 62
     0
100
AcDbLine
 10
864.7864762856
 20
596.8677360341
 11
894.7864762856
 21
596.8677360341
  0
LINE
  5
302
100
AcDbEntity
  8
_0-2_
  6
CONTINUOUS
 62
     0
100
AcDbLine
 10
894.7864762856
 20
596.8677360341
 11
894.7864762856
 21
595.8677360341
  0
ARC
  5
303
100
AcDbEntity
  8
_0-2_
  6
CONTINUOUS
 62
     0
100
AcDbCircle
 10
858.7864762856
 20
606.1177360341
 40
10.25
100
AcDbArc
 50
-90
 51
-71.07535558395
  0
LINE
  5
304
100
AcDbEntity
  8
_0-2_
  6
CONTINUOUS
 62
     0
100
AcDbLine
 10
888.7864762856
 20
601.9765060341
 11
888.7864762856
 21
600.3765070341
  0
LINE
  5
305
100
AcDbEntity
  8
_0-2_
  6
CONTINUOUS
 62
     0
100
AcDbLine
 10
888.7864762856
 20
601.9765060341
 11
870.7864762856
 21
601.9765060341
  0
LINE
  5
306
100
AcDbEntity
  8
_0-2_
  6
CONTINUOUS
 62
     0
100
AcDbLine
 10
870.7864762856
 20
601.9765060341
 11
870.7864762856
 21
600.3765070341
  0
LINE
  5
307
100
AcDbEntity
  8
_0-2_
  6
CONTINUOUS
 62
     0
100
AcDbLine
 10
873.9064762856
 20
606.2395690341
 11
873.9064762856
 21
601.9765060341
  0
LINE
  5
308
100
AcDbEntity
  8
_0-2_
  6
CONTINUOUS
 62
     0
100
AcDbLine
 10
874.8364762856
 20
606.7765060341
 11
873.9064762856
 21
606.2395690341
  0
ARC
  5
309
100
AcDbEntity
  8
_0-2_
  6
CONTINUOUS
 62
     0
100
AcDbCircle
 10
874.8364762856
 20
602.9671120341
 40
3.809394
100
AcDbArc
 50
59.210036
 51
90
  0
ARC
  5
30A
100
AcDbEntity
  8
_0-2_
  6
CONTINUOUS
 62
     0
100
AcDbCircle
 10
879.7864762856
 20
598.1271460341
 40
8.64936
100
AcDbArc
 50
69.705445
 51
110.294555
  0
LINE
  5
30B
100
AcDbEntity
  8
_0-2_
  6
CONTINUOUS
 62
     0
100
AcDbLine
 10
876.7864762856
 20
606.2395690341
 11
876.7864762856
 21
601.9765060341
  0
LINE
  5
30C
100
AcDbEntity
  8
_0-2_
  6
CONTINUOUS
 62
     0
100
AcDbLine
 10
882.7864762856
 20
606.2395690341
 11
882.7864762856
 21
601.9765060341
  0
LINE
  5
30D
100
AcDbEntity
  8
_0-2_
  6
CONTINUOUS
 62
     0
100
AcDbLine
 10
885.6664762856
 20
606.2395690341
 11
885.6664762856
 21
601.9765060341
  0
LINE
  5
30E
100
AcDbEntity
  8
_0-2_
  6
CONTINUOUS
 62
     0
100
AcDbLine
 10
884.7364762856
 20
606.7765060341
 11
885.6664762856
 21
606.2395690341
  0
LINE
  5
30F
100
AcDbEntity
  8
_0-2_
  6
CONTINUOUS
 62
     0
100
AcDbLine
 10
874.8364762856
 20
606.7765060341
 11
884.7364762856
 21
606.7765060341
  0
ARC
  5
310
100
AcDbEntity
  8
_0-2_
  6
CONTINUOUS
 62
     0
100
AcDbCircle
 10
884.7364762856
 20
602.9671120341
 40
3.809394
100
AcDbArc
 50
90
 51
120.789964
  0
LINE
  5
311
100
AcDbEntity
  8
_0-2_
  6
CONTINUOUS
 62
     0
100
AcDbLine
 10
875.0567062856
 20
613.4443300341
 11
875.0043712856
 21
612.4456990341
  0
LINE
  5
312
100
AcDbEntity
  8
_0-2_
  6
CONTINUOUS
 62
     0
100
AcDbLine
 10
884.2440982856
 20
612.9628390341
 11
884.1917632856
 21
611.9642080341
  0
ARC
  5
313
100
AcDbEntity
  8
_0-2_
  6
CONTINUOUS
 62
     0
100
AcDbCircle
 10
874.0580782856
 20
613.4966650341
 40
0.999999
100
AcDbArc
 50
-3.000000000005
 51
86.99999999999
  0
ARC
  5
314
100
AcDbEntity
  8
_0-2_
  6
CONTINUOUS
 62
     0
100
AcDbCircle
 10
885.2427292856
 20
612.9105010341
 40
0.999999
100
AcDbArc
 50
86.99999999999
 51
177
  0
ARC
  5
315
100
AcDbEntity
  8
_0-2_
  6
CONTINUOUS
 62
     0
100
AcDbCircle
 10
867.7864762856
 20
607.3765060341
 40
0.999999
100
AcDbArc
 50
-90
 51
0
  0
LINE
  5
316
100
AcDbEntity
  8
_0-2_
  6
CONTINUOUS
 62
     0
100
AcDbLine
 10
867.7864762856
 20
606.3765070341
 11
863.5864762856
 21
606.3765070341
  0
ARC
  5
317
100
AcDbEntity
  8
_0-2_
  6
CONTINUOUS
 62
     0
100
AcDbCircle
 10
871.3864762856
 20
613.6366780341
 40
0.999999
100
AcDbArc
 50
86.99999999999
 51
180
  0
LINE
  5
318
100
AcDbEntity
  8
_0-2_
  6
CONTINUOUS
 62
     0
100
AcDbLine
 10
888.2388112856
 20
613.7548570341
 11
871.4388112856
 21
614.6353060341
  0
ARC
  5
319
100
AcDbEntity
  8
_0-2_
  6
CONTINUOUS
 62
     0
100
AcDbCircle
 10
888.1864762856
 20
612.7562260341
 40
0.999999
100
AcDbArc
 50
0
 51
86.99999999999
  0
LINE
  5
31A
100
AcDbEntity
  8
_0-2_
  6
CONTINUOUS
 62
     0
100
AcDbLine
 10
891.7864762856
 20
606.3765070341
 11
895.9864762856
 21
606.3765070341
  0
ARC
  5
31B
100
AcDbEntity
  8
_0-2_
  6
CONTINUOUS
 62
     0
100
AcDbCircle
 10
891.7864762856
 20
607.3765060341
 40
0.999999
100
AcDbArc
 50
180
 51
270
  0
LINE
  5
31C
100
AcDbEntity
  8
_0-2_
  6
CONTINUOUS
 62
     0
100
AcDbLine
 10
870.3864772856
 20
607.3765060341
 11
870.3864772856
 21
613.6366780341
  0
ARC
  5
31D
100
AcDbEntity
  8
_0-2_
  6
CONTINUOUS
 62
     0
100
AcDbCircle
 10
867.7864762856
 20
607.3765060341
 40
2.600001
100
AcDbArc
 50
-90
 51
0
  0
LINE
  5
31E
100
AcDbEntity
  8
_0-2_
  6
CONTINUOUS
 62
     0
100
AcDbLine
 10
867.7864762856
 20
604.7765050341
 11
863.2864762856
 21
604.7765050341
  0
LINE
  5
31F
100
AcDbEntity
  8
_0-2_
  6
CONTINUOUS
 62
     0
100
AcDbLine
 10
868.7864752856
 20
613.6366780341
 11
868.7864752856
 21
607.3765060341
  0
ARC
  5
320
100
AcDbEntity
  8
_0-2_
  6
CONTINUOUS
 62
     0
100
AcDbCircle
 10
871.3864762856
 20
613.6366780341
 40
2.600001
100
AcDbArc
 50
87
 51
180
  0
LINE
  5
321
100
AcDbEntity
  8
_0-2_
  6
CONTINUOUS
 62
     0
100
AcDbLine
 10
890.7864772856
 20
612.7562260341
 11
890.7864772856
 21
607.3765060341
  0
ARC
  5
322
100
AcDbEntity
  8
_0-2_
  6
CONTINUOUS
 62
     0
100
AcDbCircle
 10
888.1864762856
 20
612.7562260341
 40
2.600001
100
AcDbArc
 50
0
 51
87
  0
LINE
  5
323
100
AcDbEntity
  8
_0-2_
  6
CONTINUOUS
 62
     0
100
AcDbLine
 10
888.3225502856
 20
615.3526630341
 11
871.5225502856
 21
616.2331150341
  0
LINE
  5
324
100
AcDbEntity
  8
_0-2_
  6
CONTINUOUS
 62
     0
100
AcDbLine
 10
889.1864752856
 20
607.3765060341
 11
889.1864752856
 21
612.7562260341
  0
ARC
  5
325
100
AcDbEntity
  8
_0-2_
  6
CONTINUOUS
 62
     0
100
AcDbCircle
 10
891.7864762856
 20
607.3765060341
 40
2.600001
100
AcDbArc
 50
180
 51
270
  0
LINE
  5
326
100
AcDbEntity
  8
_0-2_
  6
CONTINUOUS
 62
     0
100
AcDbLine
 10
891.7864762856
 20
604.7765050341
 11
896.2864762856
 21
604.7765050341
  0
LINE
  5
327
100
AcDbEntity
  8
_0-2_
  6
CONTINUOUS
 62
     0
100
AcDbLine
 10
895.9864762856
 20
603.8765050341
 11
894.0364762856
 21
603.8765050341
  0
ARC
  5
328
100
AcDbEntity
  8
_0-2_
  6
CONTINUOUS
 62
     0
100
AcDbCircle
 10
895.9864762856
 20
604.1765050341
 40
0.3
100
AcDbArc
 50
-90
 51
0
  0
ARC
  5
329
100
AcDbEntity
  8
_0-2_
  6
CONTINUOUS
 62
     0
100
AcDbCircle
 10
895.9864762856
 20
606.0765070341
 40
0.3
100
AcDbArc
 50
0
 51
90
  0
LINE
  5
32A
100
AcDbEntity
  8
_0-2_
  6
CONTINUOUS
 62
     0
100
AcDbLine
 10
879.2864752856
 20
600.3765070341
 11
879.7864762856
 21
599.8765060341
  0
LINE
  5
32B
100
AcDbEntity
  8
_0-2_
  6
CONTINUOUS
 62
     0
100
AcDbLine
 10
880.2864772856
 20
600.3765070341
 11
879.7864762856
 21
599.8765060341
  0
LINE
  5
32C
100
AcDbEntity
  8
_0-2_
  6
CONTINUOUS
 62
     0
100
AcDbLine
 10
874.7864752856
 20
598.3765060341
 11
874.7864752856
 21
597.8765050341
  0
LINE
  5
32D
100
AcDbEntity
  8
_0-2_
  6
CONTINUOUS
 62
     0
100
AcDbLine
 10
895.7864752856
 20
607.8765070341
 11
893.0364772856
 21
607.8765070341
  0
ARC
  5
32E
100
AcDbEntity
  8
_0-2_
  6
CONTINUOUS
 62
     0
100
AcDbCircle
 10
895.7864752856
 20
608.3765050341
 40
0.500001
100
AcDbArc
 50
-90
 51
0
  0
ARC
  5
32F
100
AcDbEntity
  8
_0-2_
  6
CONTINUOUS
 62
     0
100
AcDbCircle
 10
893.0364772856
 20
607.1265070341
 40
0.75
100
AcDbArc
 50
90
 51
270
  0
LINE
  5
330
100
AcDbEntity
  8
_0-2_
  6
CONTINUOUS
 62
     0
100
AcDbLine
 10
884.7864772856
 20
598.3765060341
 11
896.2864762856
 21
598.3765060341
  0
LINE
  5
331
100
AcDbEntity
  8
_0-2_
  6
CONTINUOUS
 62
     0
100
AcDbLine
 10
884.7864772856
 20
598.3765060341
 11
884.7864772856
 21
597.8765050341
  0
ARC
  5
332
100
AcDbEntity
  8
_0-2_
  6
CONTINUOUS
 62
     0
100
AcDbCircle
 10
894.0364762856
 20
603.1265050341
 40
0.75
100
AcDbArc
 50
90
 51
270
  0
LINE
  5
333
100
AcDbEntity
  8
_0-2_
  6
CONTINUOUS
 62
     0
100
AcDbLine
 10
895.9864762856
 20
602.3765050341
 11
894.0364762856
 21
602.3765050341
  0
ARC
  5
334
100
AcDbEntity
  8
_0-2_
  6
CONTINUOUS
 62
     0
100
AcDbCircle
 10
895.9864762856
 20
602.0765050341
 40
0.3
100
AcDbArc
 50
0
 51
90
  0
LINE
  5
335
100
AcDbEntity
  8
_0-2_
  6
CONTINUOUS
 62
     0
100
AcDbLine
 10
863.2864762856
 20
598.3765060341
 11
874.7864752856
 21
598.3765060341
  0
LINE
  5
336
100
AcDbEntity
  8
_0-2_
  6
CONTINUOUS
 62
     0
100
AcDbLine
 10
863.5864762856
 20
603.8765050341
 11
865.5364762856
 21
603.8765050341
  0
ARC
  5
337
100
AcDbEntity
  8
_0-2_
  6
CONTINUOUS
 62
     0
100
AcDbCircle
 10
863.5864762856
 20
604.1765050341
 40
0.3
100
AcDbArc
 50
180
 51
270
  0
LINE
  5
338
100
AcDbEntity
  8
_0-2_
  6
CONTINUOUS
 62
     0
100
AcDbLine
 10
863.2864762856
 20
604.1765050341
 11
863.2864762856
 21
606.0765070341
  0
ARC
  5
339
100
AcDbEntity
  8
_0-2_
  6
CONTINUOUS
 62
     0
100
AcDbCircle
 10
863.5864762856
 20
606.0765070341
 40
0.3
100
AcDbArc
 50
90
 51
180
  0
LINE
  5
33A
100
AcDbEntity
  8
_0-2_
  6
CONTINUOUS
 62
     0
100
AcDbLine
 10
862.2864772856
 20
607.8765070341
 11
866.5364752856
 21
607.8765070341
  0
ARC
  5
33B
100
AcDbEntity
  8
_0-2_
  6
CONTINUOUS
 62
     0
100
AcDbCircle
 10
862.2864772856
 20
607.3765060341
 40
0.500001
100
AcDbArc
 50
90
 51
180
  0
ARC
  5
33C
100
AcDbEntity
  8
_0-2_
  6
CONTINUOUS
 62
     0
100
AcDbCircle
 10
866.5364752856
 20
607.1265070341
 40
0.75
100
AcDbArc
 50
-90
 51
90
  0
LINE
  5
33D
100
AcDbEntity
  8
_0-2_
  6
CONTINUOUS
 62
     0
100
AcDbLine
 10
861.7864762856
 20
607.3765060341
 11
861.7864762856
 21
597.8765050341
  0
LINE
  5
33E
100
AcDbEntity
  8
_0-2_
  6
CONTINUOUS
 62
     0
100
AcDbLine
 10
863.2864762856
 20
598.3765060341
 11
863.2864762856
 21
597.8765050341
  0
ARC
  5
33F
100
AcDbEntity
  8
_0-2_
  6
CONTINUOUS
 62
     0
100
AcDbCircle
 10
865.5364762856
 20
603.1265050341
 40
0.75
100
AcDbArc
 50
-90
 51
90
  0
ARC
  5
340
100
AcDbEntity
  8
_0-2_
  6
CONTINUOUS
 62
     0
100
AcDbCircle
 10
863.5864762856
 20
600.6765070341
 40
0.3
100
AcDbArc
 50
180
 51
270
  0
LINE
  5
341
100
AcDbEntity
  8
_0-2_
  6
CONTINUOUS
 62
     0
100
AcDbLine
 10
863.2864762856
 20
600.6765070341
 11
863.2864762856
 21
602.0765050341
  0
ARC
  5
342
100
AcDbEntity
  8
_0-2_
  6
CONTINUOUS
 62
     0
100
AcDbCircle
 10
863.5864762856
 20
602.0765050341
 40
0.3
100
AcDbArc
 50
90
 51
180
  0
LINE
  5
343
100
AcDbEntity
  8
_0-2_
  6
CONTINUOUS
 62
     0
100
AcDbLine
 10
863.5864762856
 20
602.3765050341
 11
865.5364762856
 21
602.3765050341
  0
ARC
  5
344
100
AcDbEntity
  8
_0-2_
  6
CONTINUOUS
 62
     0
100
AcDbCircle
 10
895.7864752856
 20
600.8765050341
 40
0.500001
100
AcDbArc
 50
-90
 51
0
  0
LINE
  5
345
100
AcDbEntity
  8
_0-2_
  6
CONTINUOUS
 62
     0
100
AcDbLine
 10
895.7864752856
 20
600.3765070341
 11
863.5864762856
 21
600.3765070341
  0
LINE
  5
346
100
AcDbEntity
  8
_0-2_
  6
CONTINUOUS
 62
     0
100
AcDbLine
 10
863.2864762856
 20
597.8765050341
 11
861.7864762856
 21
597.8765050341
  0
ARC
  5
347
100
AcDbEntity
  8
_0-2_
  6
CONTINUOUS
 62
     0
100
AcDbCircle
 10
897.2864752856
 20
615.8765050341
 40
0.999999
100
AcDbArc
 50
0
 51
180
  0
LINE
  5
348
100
AcDbEntity
  8
_0-2_
  6
CONTINUOUS
 62
     0
100
AcDbLine
 10
896.2864762856
 20
608.3765050341
 11
896.2864762856
 21
615.8765050341
  0
LINE
  5
349
100
AcDbEntity
  8
_0-2_
  6
CONTINUOUS
 62
     0
100
AcDbLine
 10
896.2864762856
 20
604.1765050341
 11
896.2864762856
 21
606.0765070341
  0
ARC
  5
34A
100
AcDbEntity
  8
_0-2_
  6
CONTINUOUS
 62
     0
100
AcDbCircle
 10
898.7864752856
 20
600.8765050341
 40
0.500001
100
AcDbArc
 50
180
 51
270
  0
LINE
  5
34B
100
AcDbEntity
  8
_0-2_
  6
CONTINUOUS
 62
     0
100
AcDbLine
 10
898.2864772856
 20
598.8765070341
 11
898.2864772856
 21
597.8765050341
  0
LINE
  5
34C
100
AcDbEntity
  8
_0-2_
  6
CONTINUOUS
 62
     0
100
AcDbLine
 10
896.2864762856
 20
598.3765060341
 11
896.2864762856
 21
597.8765050341
  0
LINE
  5
34D
100
AcDbEntity
  8
_0-2_
  6
CONTINUOUS
 62
     0
100
AcDbLine
 10
896.2864762856
 20
600.8765050341
 11
896.2864762856
 21
602.0765050341
  0
LINE
  5
34E
100
AcDbEntity
  8
_0-2_
  6
CONTINUOUS
 62
     0
100
AcDbLine
 10
908.7864772856
 20
598.8765070341
 11
908.7864772856
 21
597.8765050341
  0
LINE
  5
34F
100
AcDbEntity
  8
_0-2_
  6
CONTINUOUS
 62
     0
100
AcDbLine
 10
910.2864772856
 20
597.8765050341
 11
908.7864772856
 21
597.8765050341
  0
LINE
  5
350
100
AcDbEntity
  8
_0-2_
  6
CONTINUOUS
 62
     0
100
AcDbLine
 10
898.2864772856
 20
597.8765050341
 11
896.2864762856
 21
597.8765050341
  0
LINE
  5
351
100
AcDbEntity
  8
_0-2_
  6
CONTINUOUS
 62
     0
100
AcDbLine
 10
910.2864772856
 20
599.8765070341
 11
910.2864772856
 21
597.8765050341
  0
ARC
  5
352
100
AcDbEntity
  8
_0-2_
  6
CONTINUOUS
 62
     0
100
AcDbCircle
 10
909.7864772856
 20
599.8765070341
 40
0.5
100
AcDbArc
 50
0
 51
90
  0
LINE
  5
353
100
AcDbEntity
  8
_0-2_
  6
CONTINUOUS
 62
     0
100
AcDbLine
 10
898.5364772856
 20
603.6265070341
 11
899.7864772857
 21
603.6265070341
  0
LINE
  5
354
100
AcDbEntity
  8
_0-2_
  6
CONTINUOUS
 62
     0
100
AcDbLine
 10
902.7864772857
 20
603.6265070341
 11
904.0364772856
 21
603.6265070341
  0
ARC
  5
355
100
AcDbEntity
  8
_0-2_
  6
CONTINUOUS
 62
     0
100
AcDbCircle
 10
929.6330827579
 20
646.5618996564
 40
0.5
100
AcDbArc
 50
-99.19866089521
 51
78.59045565079
  0
ARC
  5
356
100
AcDbEntity
  8
_0-2_
  6
CONTINUOUS
 62
     0
100
AcDbCircle
 10
924.7864772857
 20
622.546062894
 40
25
100
AcDbArc
 50
78.59045565079
 51
180
  0
ARC
  5
357
100
AcDbEntity
  8
_0-2_
  6
CONTINUOUS
 62
     0
100
AcDbCircle
 10
925.8624228796
 20
623.277694392
 40
23.08754100601
100
AcDbArc
 50
80.80133910481
 51
181.8159758207
  0
LINE
  5
358
100
AcDbEntity
  8
_0-2_
  6
CONTINUOUS
 62
     0
100
AcDbLine
 10
898.2864772856
 20
598.8765070341
 11
905.7924261594
 21
598.8765070341
  0
LINE
  5
359
100
AcDbEntity
  8
_0-2_
  6
CONTINUOUS
 62
     0
100
AcDbLine
 10
905.7924261594
 20
598.8765070341
 11
908.7864772856
 21
598.8765070341
  0
LINE
  5
35A
100
AcDbEntity
  8
_0-2_
  6
CONTINUOUS
 62
     0
100
AcDbLine
 10
903.7864772856
 20
600.3765070341
 11
898.7864752856
 21
600.3765070341
  0
LINE
  5
35B
100
AcDbEntity
  8
_0-2_
  6
CONTINUOUS
 62
     0
100
AcDbLine
 10
909.7864772856
 20
600.3765070341
 11
905.7864772856
 21
600.3765070341
  0
ARC
  5
35C
100
AcDbEntity
  8
_0-2_
  6
CONTINUOUS
 62
     0
100
AcDbCircle
 10
903.7864772856
 20
600.8765070341
 40
0.25
100
AcDbArc
 50
-90
 51
0
  0
ARC
  5
35D
100
AcDbEntity
  8
_0-2_
  6
CONTINUOUS
 62
     0
100
AcDbCircle
 10
898.7864752856
 20
600.8765050341
 40
0.250001
100
AcDbArc
 50
180
 51
270
  0
LINE
  5
35E
100
AcDbEntity
  8
_0-2_
  6
CONTINUOUS
 62
     0
100
AcDbLine
 10
904.0364772856
 20
600.8765070341
 11
904.0364772856
 21
603.6265070341
  0
LINE
  5
35F
100
AcDbEntity
  8
_0-2_
  6
CONTINUOUS
 62
     0
100
AcDbLine
 10
898.5364772856
 20
600.8765050341
 11
898.5364772856
 21
603.6265070341
  0
LINE
  5
360
100
AcDbEntity
  8
_0-2_
  6
CONTINUOUS
 62
     0
100
AcDbLine
 10
903.7864772856
 20
600.6265070341
 11
898.7864752856
 21
600.6265070341
  0
LINE
  5
361
100
AcDbEntity
  8
_0-2_
  6
CONTINUOUS
 62
     0
100
AcDbLine
 10
898.2864772856
 20
615.8765050341
 11
898.2864772856
 21
605.3765070341
  0
LINE
  5
362
100
AcDbEntity
  8
_0-2_
  6
CONTINUOUS
 62
     0
100
AcDbLine
 10
898.2864772856
 20
603.8765070341
 11
898.2864772856
 21
600.8765050341
  0
LINE
  5
363
100
AcDbEntity
  8
_0-2_
  6
CONTINUOUS
 62
     0
100
AcDbLine
 10
904.2864772856
 20
600.8765070341
 11
904.2864772856
 21
603.8765070341
  0
LINE
  5
364
100
AcDbEntity
  8
_0-2_
  6
CONTINUOUS
 62
     0
100
AcDbLine
 10
905.7864772856
 20
604.8765070341
 11
905.7864772856
 21
600.3765070341
  0
ARC
  5
365
100
AcDbEntity
  8
_0-2_
  6
CONTINUOUS
 62
     0
100
AcDbCircle
 10
905.2864772856
 20
604.8765070341
 40
0.5
100
AcDbArc
 50
0
 51
90
  0
ARC
  5
366
100
AcDbEntity
  8
_0-2_
  6
CONTINUOUS
 62
     0
100
AcDbCircle
 10
903.7864772856
 20
600.8765070341
 40
0.5
100
AcDbArc
 50
-90
 51
0
  0
LINE
  5
367
100
AcDbEntity
  8
_0-2_
  6
CONTINUOUS
 62
     0
100
AcDbLine
 10
905.2864772856
 20
605.3765070341
 11
904.0364772856
 21
605.3765070341
  0
ARC
  5
368
100
AcDbEntity
  8
_0-2_
  6
CONTINUOUS
 62
     0
100
AcDbCircle
 10
904.0364772856
 20
604.3765070341
 40
1
100
AcDbArc
 50
90
 51
180
  0
LINE
  5
369
100
AcDbEntity
  8
_0-2_
  6
CONTINUOUS
 62
     0
100
AcDbLine
 10
903.0364772856
 20
604.3765070341
 11
903.0364772856
 21
603.8765070341
  0
LINE
  5
36A
100
AcDbEntity
  8
_0-2_
  6
CONTINUOUS
 62
     0
100
AcDbLine
 10
903.0364772856
 20
603.8765070341
 11
904.2864772856
 21
603.8765070341
  0
LINE
  5
36B
100
AcDbEntity
  8
_0-2_
  6
CONTINUOUS
 62
     0
100
AcDbLine
 10
898.2864772856
 20
603.8765070341
 11
899.5364772856
 21
603.8765070341
  0
LINE
  5
36C
100
AcDbEntity
  8
_0-2_
  6
CONTINUOUS
 62
     0
100
AcDbLine
 10
899.5364772856
 20
604.3765070341
 11
899.5364772856
 21
603.8765070341
  0
ARC
  5
36D
100
AcDbEntity
  8
_0-2_
  6
CONTINUOUS
 62
     0
100
AcDbCircle
 10
898.5364772856
 20
604.3765070341
 40
1
100
AcDbArc
 50
0
 51
90
  0
LINE
  5
36E
100
AcDbEntity
  8
_0-2_
  6
CONTINUOUS
 62
     0
100
AcDbLine
 10
898.5364772856
 20
605.3765070341
 11
898.2864772856
 21
605.3765070341
  0
LINE
  5
36F
100
AcDbEntity
  8
_0-2_
  6
CONTINUOUS
 62
     0
100
AcDbLine
 10
894.7864762856
 20
596.7432736959
 11
894.7864762856
 21
597.8677360341
  0
LINE
  5
370
100
AcDbEntity
  8
_0-2_
  6
CONTINUOUS
 62
     0
100
AcDbLine
 10
864.7864762856
 20
597.8677360341
 11
894.7864762856
 21
597.8677360341
  0
LINE
  5
371
100
AcDbEntity
  8
_0-2_
  6
CONTINUOUS
 62
     0
100
AcDbLine
 10
879.768803
 20
441.2451022203
 11
882.768803
 21
441.9951022203
  0
LINE
  5
372
100
AcDbEntity
  8
_0-2_
  6
CONTINUOUS
 62
     0
100
AcDbLine
 10
879.768803
 20
441.2451022203
 11
882.768803
 21
440.4951022203
  0
LINE
  5
373
100
AcDbEntity
  8
_0-2_
  6
CONTINUOUS
 62
     0
100
AcDbLine
 10
929.768804
 20
441.2451022203
 11
926.768804
 21
440.4951022203
  0
LINE
  5
374
100
AcDbEntity
  8
_0-2_
  6
CONTINUOUS
 62
     0
100
AcDbLine
 10
929.768804
 20
441.2451022203
 11
926.768804
 21
441.9951022203
  0
LINE
  5
375
100
AcDbEntity
  8
_0-2_
  6
CONTINUOUS
 62
     0
100
AcDbLine
 10
879.768803
 20
549.4343330341
 11
879.768803
 21
437.2451002203
  0
LINE
  5
376
100
AcDbEntity
  8
_0-2_
  6
CONTINUOUS
 62
     0
100
AcDbLine
 10
929.768804
 20
441.2451022203
 11
879.768803
 21
441.2451022203
  0
LINE
  5
377
100
AcDbEntity
  8
_0-2_
  6
CONTINUOUS
 62
     0
100
AcDbLine
 10
929.768804
 20
595.8677360341
 11
929.768804
 21
430.6257142203
  0
TEXT
  5
378
100
AcDbEntity
  8
_0-2_
  6
CONTINUOUS
 62
     0
100
AcDbText
 10
899.1890912228
 20
441.0146006805
 40
9
  1
50
  7
STANDARD
100
AcDbText
  0
LINE
  5
379
100
AcDbEntity
  8
_0-2_
  6
CONTINUOUS
 62
     0
100
AcDbLine
 10
899.7864772857
 20
603.6265070341
 11
899.7728320724
 21
623.594933588
  0
LINE
  5
37A
100
AcDbEntity
  8
_0-2_
  6
CONTINUOUS
 62
     0
100
AcDbLine
 10
902.7864772857
 20
603.6265070341
 11
902.7728320724
 21
625.058196584
  0
LINE
  5
37B
100
AcDbEntity
  8
_0-3_
  6
CONTINUOUS
 62
     0
100
AcDbLine
 10
882.1313093428
 20
632.9355078915
 11
899.9568418818
 21
663.8102359211
  0
CIRCLE
  5
37C
100
AcDbEntity
  8
_0-3_
  6
CONTINUOUS
 62
     0
100
AcDbCircle
 10
882.1313093428
 20
632.9355078915
 40
0.9
  0
LINE
  5
37D
100
AcDbEntity
  8
_0-2_
  6
CONTINUOUS
 62
     0
100
AcDbLine
 10
870.1362964559
 20
645.1663995546
 11
893.1047764559
 21
643.9626735546
  0
LINE
  5
37E
100
AcDbEntity
  8
_0-2_
  6
CONTINUOUS
 62
     0
100
AcDbLine
 10
856.6887274559
 20
632.9494905546
 11
870.1362964559
 21
645.1663995546
  0
LINE
  5
37F
100
AcDbEntity
  8
_0-2_
  6
CONTINUOUS
 62
     0
100
AcDbLine
 10
852.8399044559
 20
635.1561165546
 11
853.5011404559
 21
635.6064165546
  0
LINE
  5
380
100
AcDbEntity
  8
_0-2_
  6
CONTINUOUS
 62
     0
100
AcDbLine
 10
853.5011404559
 20
635.6064165546
 11
855.1897564559
 21
633.1267845546
  0
LINE
  5
381
100
AcDbEntity
  8
_0-2_
  6
CONTINUOUS
 62
     0
100
AcDbLine
 10
852.8399044559
 20
635.1561165546
 11
854.5285204559
 21
632.6764845546
  0
ARC
  5
382
100
AcDbEntity
  8
_0-2_
  6
CONTINUOUS
 62
     0
100
AcDbCircle
 10
856.0162984559
 20
633.6896565546
 40
0.999999
100
AcDbArc
 50
-145.745342
 51
-47.74534800001
  0
ARC
  5
383
100
AcDbEntity
  8
_0-2_
  6
CONTINUOUS
 62
     0
100
AcDbCircle
 10
856.0162984559
 20
633.6896565546
 40
1.8
100
AcDbArc
 50
-145.745342
 51
-47.745349
  0
ARC
  5
384
100
AcDbEntity
  8
_0-2_
  6
CONTINUOUS
 62
     0
100
AcDbCircle
 10
881.5420324559
 20
643.0665915546
 40
6.3
100
AcDbArc
 50
37.903458
 51
136.096542
  0
LINE
  5
385
100
AcDbEntity
  8
_0-2_
  6
CONTINUOUS
 62
     0
100
AcDbLine
 10
876.4465834559
 20
646.1530785546
 11
876.3777304559
 21
644.8393005546
  0
LINE
  5
386
100
AcDbEntity
  8
_0-2_
  6
CONTINUOUS
 62
     0
100
AcDbLine
 10
886.9321924559
 20
645.6035505546
 11
886.8633424559
 21
644.2897725546
  0
ARC
  5
387
100
AcDbEntity
  8
_0-2_
  6
CONTINUOUS
 62
     0
100
AcDbCircle
 10
878.4438424559
 20
646.0484085546
 40
2.000001
100
AcDbArc
 50
136.096542
 51
177
  0
LINE
  5
388
100
AcDbEntity
  8
_0-2_
  6
CONTINUOUS
 62
     0
100
AcDbLine
 10
857.2266664559
 20
632.3573595546
 11
870.4274254559
 21
644.3500455546
  0
LINE
  5
389
100
AcDbEntity
  8
_0-2_
  6
CONTINUOUS
 62
     0
100
AcDbLine
 10
870.4274254559
 20
644.3500455546
 11
892.7707534559
 21
643.1790795546
  0
LINE
  5
38A
100
AcDbEntity
  8
_0-2_
  6
CONTINUOUS
 62
     0
100
AcDbLine
 10
904.6047754559
 20
629.8743795546
 11
892.7299084559
 21
643.1812215546
  0
ARC
  5
38B
100
AcDbEntity
  8
_0-2_
  6
CONTINUOUS
 62
     0
100
AcDbCircle
 10
884.9349334559
 20
645.7082235546
 40
2.000001
100
AcDbArc
 50
-2.999999999999
 51
37.903458
  0
LINE
  5
38C
100
AcDbEntity
  8
_0-2_
  6
CONTINUOUS
 62
     0
100
AcDbLine
 10
909.2600584559
 20
632.1992625546
 11
908.6495134559
 21
632.7162105546
  0
LINE
  5
38D
100
AcDbEntity
  8
_0-2_
  6
CONTINUOUS
 62
     0
100
AcDbLine
 10
908.6495134559
 20
632.7162105546
 11
906.7109554559
 21
630.4266705546
  0
LINE
  5
38E
100
AcDbEntity
  8
_0-2_
  6
CONTINUOUS
 62
     0
100
AcDbLine
 10
909.2600584559
 20
632.1992625546
 11
907.3215004559
 21
629.9097225546
  0
ARC
  5
38F
100
AcDbEntity
  8
_0-2_
  6
CONTINUOUS
 62
     0
100
AcDbCircle
 10
905.9477764559
 20
631.0728585546
 40
0.999999
100
AcDbArc
 50
-138.254652
 51
-40.254658
  0
LINE
  5
390
100
AcDbEntity
  8
_0-2_
  6
CONTINUOUS
 62
     0
100
AcDbLine
 10
905.2016644559
 20
630.4070355546
 11
893.1047764559
 21
643.9626735546
  0
ARC
  5
391
100
AcDbEntity
  8
_0-2_
  6
CONTINUOUS
 62
     0
100
AcDbCircle
 10
905.9477764559
 20
631.0728585546
 40
1.8
100
AcDbArc
 50
-138.254651
 51
-40.254658
  0
LINE
  5
392
100
AcDbEntity
  8
_0-2_
  6
CONTINUOUS
 62
     0
100
AcDbLine
 10
881.9270344559
 20
650.4128865546
 11
879.7807668091
 21
611.745989619
  0
LINE
  5
393
100
AcDbEntity
  8
_0-2_
  6
CONTINUOUS
 62
     0
100
AcDbLine
 10
884.6164264559
 20
644.4075285546
 11
882.9148048206
 21
614.9562227442
  0
LINE
  5
394
100
AcDbEntity
  8
_0-2_
  6
CONTINUOUS
 62
     0
100
AcDbLine
 10
878.6246464559
 20
644.7215445546
 11
876.9230287459
 21
615.2702381535
  0
LINE
  5
395
100
AcDbEntity
  8
_0-2_
  6
CONTINUOUS
 62
     0
100
AcDbLine
 10
876.9230287459
 20
615.2702381535
 11
882.9148048206
 21
614.9562227442
  0
LINE
  5
396
100
AcDbEntity
  8
_0-2_
  6
CONTINUOUS
 62
     0
100
AcDbLine
 10
884.1171094559
 20
644.4336975546
 11
882.3866507367
 21
614.4832159313
  0
LINE
  5
397
100
AcDbEntity
  8
_0-2_
  6
CONTINUOUS
 62
     0
100
AcDbLine
 10
879.1239634559
 20
644.6953755546
 11
877.3935005751
 21
614.744895619
  0
LINE
  5
398
100
AcDbEntity
  8
_0-2_
  6
CONTINUOUS
 62
     0
100
AcDbLine
 10
877.3935005751
 20
614.744895619
 11
882.3866507367
 21
614.4832159313
  0
LINE
  5
399
100
AcDbEntity
  8
_0-2_
  6
CONTINUOUS
 62
     0
100
AcDbLine
 10
882.5937631084
 20
614.6687026403
 11
882.3866507367
 21
614.4832159313
  0
LINE
  5
39A
100
AcDbEntity
  8
_0-2_
  6
CONTINUOUS
 62
     0
100
AcDbLine
 10
877.3935005751
 20
614.744895619
 11
877.209007614
 21
614.9509058278
  0
LINE
  5
39B
100
AcDbEntity
  8
_0-2_
  6
CONTINUOUS
 62
     0
100
AcDbLine
 10
882.9148048206
 20
614.9562227442
 11
882.5937631084
 21
614.6687026403
  0
LINE
  5
39C
100
AcDbEntity
  8
_0-2_
  6
CONTINUOUS
 62
     0
100
AcDbLine
 10
877.209007614
 20
614.9509058278
 11
876.9230287459
 21
615.2702381535
  0
CIRCLE
  5
39D
100
AcDbEntity
  8
_0-3_
  6
CONTINUOUS
 62
     0
100
AcDbCircle
 10
898.3588061399
 20
637.2016226677
 40
0.9
  0
LINE
  5
39E
100
AcDbEntity
  8
_0-3_
  6
CONTINUOUS
 62
     0
100
AcDbLine
 10
898.3588061399
 20
637.2016226677
 11
916.6458959122
 21
668.875791276
  0
CIRCLE
  5
39F
100
AcDbEntity
  8
_0-3_
  6
CONTINUOUS
 62
     0
100
AcDbCircle
 10
919.381045209
 20
674.121070044
 40
6
  0
TEXT
  5
3A0
100
AcDbEntity
  8
_0-3_
  6
CONTINUOUS
 62
     0
100
AcDbText
 10
915.0625577555
 20
669.9431316753
 40
9
  1
５
  7
STANDARD
100
AcDbText
  0
CIRCLE
  5
3A1
100
AcDbEntity
  8
_0-3_
  6
CONTINUOUS
 62
     0
100
AcDbCircle
 10
902.8873464956
 20
669.3838476627
 40
6
  0
TEXT
  5
3A2
100
AcDbEntity
  8
_0-3_
  6
CONTINUOUS
 62
     0
100
AcDbText
 10
898.6244623066
 20
664.5546679728
 40
9
  1
10
  7
STANDARD
100
AcDbText
  0
TEXT
  5
3A3
100
AcDbEntity
  8
_0-0_
  6
CONTINUOUS
 62
     0
100
AcDbText
 10
53.7131753758
 20
826.6362988234
 40
9.99
  1
◇ステンレス３５０タイプ（３５０ＦＹＹＧ－Ｓ）
 41
1.001001001001
  7
STANDARD
100
AcDbText
  0
LINE
  5
3A4
100
AcDbEntity
  8
_0-1_PRO0
  6
CONTINUOUS
 62
     0
100
AcDbLine
 10
141.536278
 20
566.9982880341
 11
141.536278
 21
565.9982880341
  0
LINE
  5
3A5
100
AcDbEntity
  8
_0-1_PRO0
  6
CONTINUOUS
 62
     0
100
AcDbLine
 10
152.974784
 20
636.7055420341
 11
629.794972
 21
661.6946290227
  0
LINE
  5
3A6
100
AcDbEntity
  8
_0-1_PRO0
  6
CONTINUOUS
 62
     0
100
AcDbLine
 10
159.003876
 20
639.8048280341
 11
629.768804
 21
664.4765720227
  0
LINE
  5
3A7
100
AcDbEntity
  8
_0-1_PRO0
  6
CONTINUOUS
 62
     0
100
AcDbLine
 10
159.239388
 20
635.3109950341
 11
629.768804
 21
659.9703970227
  0
LINE
  5
3A8
100
AcDbEntity
  8
_0-1_PRO0
  6
CONTINUOUS
 62
     0
100
AcDbLine
 10
159.317892
 20
633.8130510341
 11
629.768804
 21
658.4683380227
  0
LINE
  5
3A9
100
AcDbEntity
  8
_0-1_PRO0
  6
CONTINUOUS
 62
     0
100
AcDbLine
 10
160.08723
 20
619.1331960341
 11
629.768804
 21
643.7481650227
  0
LINE
  5
3AA
100
AcDbEntity
  8
_0-1_PRO0
  6
CONTINUOUS
 62
     0
100
AcDbLine
 10
160.181435
 20
617.3356630341
 11
629.768804
 21
641.9456940227
  0
LINE
  5
3AB
100
AcDbEntity
  8
_0-1_PRO0
  6
CONTINUOUS
 62
     0
100
AcDbLine
 10
160.338443
 20
614.3397750341
 11
629.768804
 21
638.9415770227
  0
LINE
  5
3AC
100
AcDbEntity
  8
_0-1_PRO0
  6
CONTINUOUS
 62
     0
100
AcDbLine
 10
160.416947
 20
612.8418300341
 11
629.768804
 21
637.4395190227
  0
LINE
  5
3AD
100
AcDbEntity
  8
_0-1_PRO0
  6
CONTINUOUS
 62
     0
100
AcDbLine
 10
160.469283
 20
611.8432010341
 11
629.768804
 21
636.4381470227
  0
LINE
  5
3AE
100
AcDbEntity
  8
_0-1_PRO0
  6
CONTINUOUS
 62
     0
100
AcDbLine
 10
132.611796
 20
642.1472830341
 11
629.768804
 21
668.2021780227
  0
ARC
  5
3AF
100
AcDbEntity
  8
_0-1_PRO0
  6
CONTINUOUS
 62
     0
100
AcDbCircle
 10
152.929965
 20
633.6990760341
 40
7.5
100
AcDbArc
 50
93
 51
169.875328
  0
LINE
  5
3B0
100
AcDbEntity
  8
_0-1_PRO0
  6
CONTINUOUS
 62
     0
100
AcDbLine
 10
166.009317
 20
641.8948280341
 11
167.646383
 21
640.2577620341
  0
LINE
  5
3B1
100
AcDbEntity
  8
_0-1_PRO0
  6
CONTINUOUS
 62
     0
100
AcDbLine
 10
164.665529
 20
641.8244030341
 11
166.302594
 21
640.1873370341
  0
LINE
  5
3B2
100
AcDbEntity
  8
_0-1_PRO0
  6
CONTINUOUS
 62
     0
100
AcDbLine
 10
163.32174
 20
641.7539780341
 11
164.958806
 21
640.1169120341
  0
LINE
  5
3B3
100
AcDbEntity
  8
_0-1_PRO0
  6
CONTINUOUS
 62
     0
100
AcDbLine
 10
161.977951
 20
641.6835530341
 11
163.615017
 21
640.0464870341
  0
LINE
  5
3B4
100
AcDbEntity
  8
_0-1_PRO0
  6
CONTINUOUS
 62
     0
100
AcDbLine
 10
160.634163
 20
641.6131280341
 11
162.271228
 21
639.9760630341
  0
LINE
  5
3B5
100
AcDbEntity
  8
_0-1_PRO0
  6
CONTINUOUS
 62
     0
100
AcDbLine
 10
159.290374
 20
641.5427030341
 11
160.92744
 21
639.9056380341
  0
LINE
  5
3B6
100
AcDbEntity
  8
_0-1_PRO0
  6
CONTINUOUS
 62
     0
100
AcDbLine
 10
159.583651
 20
639.8352130341
 11
158.97013
 21
640.4487330341
  0
LINE
  5
3B7
100
AcDbEntity
  8
_0-1_PRO0
  6
CONTINUOUS
 62
     0
100
AcDbLine
 10
167.342355
 20
641.9646900341
 11
168.979421
 21
640.3276240341
  0
LINE
  5
3B8
100
AcDbEntity
  8
_0-1_PRO0
  6
CONTINUOUS
 62
     0
100
AcDbLine
 10
168.696894
 20
642.0356780341
 11
168.911957
 21
641.8206160341
  0
ARC
  5
3B9
100
AcDbEntity
  8
_0-1_PRO0
  6
CONTINUOUS
 62
     0
100
AcDbCircle
 10
132.768804
 20
554.9982880341
 40
3
100
AcDbArc
 50
180
 51
270
  0
LINE
  5
3BA
100
AcDbEntity
  8
_0-1_PRO0
  6
CONTINUOUS
 62
     0
100
AcDbLine
 10
132.768804
 20
551.9982880341
 11
139.768804
 21
551.9982880341
  0
ARC
  5
3BB
100
AcDbEntity
  8
_0-1_PRO0
  6
CONTINUOUS
 62
     0
100
AcDbCircle
 10
132.768804
 20
639.1513940341
 40
3
100
AcDbArc
 50
93
 51
180
  0
LINE
  5
3BC
100
AcDbEntity
  8
_0-1_PRO0
  6
CONTINUOUS
 62
     0
100
AcDbLine
 10
129.768804
 20
639.1513940341
 11
129.768804
 21
554.9982880341
  0
LINE
  5
3BD
100
AcDbEntity
  8
_0-1_PRO0
  6
CONTINUOUS
 62
     0
100
AcDbLine
 10
145.546759
 20
635.0175060341
 11
131.768804
 21
557.8609580341
  0
LINE
  5
3BE
100
AcDbEntity
  8
_0-1_PRO0
  6
CONTINUOUS
 62
     0
100
AcDbLine
 10
149.976683
 20
634.2264480341
 11
136.199997
 21
557.0770100341
  0
ARC
  5
3BF
100
AcDbEntity
  8
_0-1_PRO0
  6
CONTINUOUS
 62
     0
100
AcDbCircle
 10
152.929965
 20
633.6990760341
 40
3
100
AcDbArc
 50
93
 51
169.875328
  0
LINE
  5
3C0
100
AcDbEntity
  8
_0-1_PRO0
  6
CONTINUOUS
 62
     0
100
AcDbLine
 10
136.686102
 20
564.7982880341
 11
145.936278
 21
564.7982880341
  0
ARC
  5
3C1
100
AcDbEntity
  8
_0-1_PRO0
  6
CONTINUOUS
 62
     0
100
AcDbCircle
 10
136.686102
 20
564.2982880341
 40
0.5
100
AcDbArc
 50
90
 51
168
  0
LINE
  5
3C2
100
AcDbEntity
  8
_0-1_PRO0
  6
CONTINUOUS
 62
     0
100
AcDbLine
 10
136.197028
 20
564.4022440341
 11
134.768804
 21
557.6829750341
  0
LINE
  5
3C3
100
AcDbEntity
  8
_0-1_PRO0
  6
CONTINUOUS
 62
     0
100
AcDbLine
 10
134.768804
 20
557.6829750341
 11
134.768804
 21
553.9982880341
  0
LINE
  5
3C4
100
AcDbEntity
  8
_0-1_PRO0
  6
CONTINUOUS
 62
     0
100
AcDbLine
 10
134.268804
 20
553.9982880341
 11
134.768804
 21
553.9982880341
  0
ARC
  5
3C5
100
AcDbEntity
  8
_0-1_PRO0
  6
CONTINUOUS
 62
     0
100
AcDbCircle
 10
134.268804
 20
556.4982880341
 40
2.5
100
AcDbArc
 50
180
 51
270
  0
LINE
  5
3C6
100
AcDbEntity
  8
_0-1_PRO0
  6
CONTINUOUS
 62
     0
100
AcDbLine
 10
145.936278
 20
565.9982880341
 11
143.536278
 21
565.9982880341
  0
LINE
  5
3C7
100
AcDbEntity
  8
_0-1_PRO0
  6
CONTINUOUS
 62
     0
100
AcDbLine
 10
143.536278
 20
565.9982880341
 11
141.536278
 21
566.9982880341
  0
ARC
  5
3C8
100
AcDbEntity
  8
_0-1_PRO0
  6
CONTINUOUS
 62
     0
100
AcDbCircle
 10
145.936278
 20
565.3982880341
 40
0.6
100
AcDbArc
 50
-90
 51
90
  0
LINE
  5
3C9
100
AcDbEntity
  8
_0-1_PRO0
  6
CONTINUOUS
 62
     0
100
AcDbLine
 10
137.153727
 20
565.9982880341
 11
141.536278
 21
565.9982880341
  0
ARC
  5
3CA
100
AcDbEntity
  8
_0-1_PRO0
  6
CONTINUOUS
 62
     0
100
AcDbCircle
 10
137.153727
 20
566.4982880341
 40
0.5
100
AcDbArc
 50
168
 51
270
  0
ARC
  5
3CB
100
AcDbEntity
  8
_0-1_PRO0
  6
CONTINUOUS
 62
     0
100
AcDbCircle
 10
158.367352
 20
613.7357880341
 40
0.5
100
AcDbArc
 50
3.000000000006
 51
93.00000000001
  0
LINE
  5
3CC
100
AcDbEntity
  8
_0-1_PRO0
  6
CONTINUOUS
 62
     0
100
AcDbLine
 10
158.866667
 20
613.7619560341
 11
158.919003
 21
612.7633260341
  0
LINE
  5
3CD
100
AcDbEntity
  8
_0-1_PRO0
  6
CONTINUOUS
 62
     0
100
AcDbLine
 10
159.444485
 20
612.2901800341
 11
159.9438
 21
612.3163480341
  0
ARC
  5
3CE
100
AcDbEntity
  8
_0-1_PRO0
  6
CONTINUOUS
 62
     0
100
AcDbCircle
 10
159.917632
 20
612.8156620341
 40
0.5
100
AcDbArc
 50
-86.99999999999
 51
3.000000000006
  0
ARC
  5
3CF
100
AcDbEntity
  8
_0-1_PRO0
  6
CONTINUOUS
 62
     0
100
AcDbCircle
 10
159.418317
 20
612.7894940341
 40
0.5
100
AcDbArc
 50
-177
 51
-86.99999999999
  0
LINE
  5
3D0
100
AcDbEntity
  8
_0-1_PRO0
  6
CONTINUOUS
 62
     0
100
AcDbLine
 10
150.666105
 20
613.8328690341
 11
158.341184
 21
614.2351030341
  0
ARC
  5
3D1
100
AcDbEntity
  8
_0-1_PRO0
  6
CONTINUOUS
 62
     0
100
AcDbCircle
 10
150.692273
 20
613.3335540341
 40
0.5
100
AcDbArc
 50
93.00000000001
 51
193
  0
LINE
  5
3D2
100
AcDbEntity
  8
_0-1_PRO0
  6
CONTINUOUS
 62
     0
100
AcDbLine
 10
150.205088
 20
613.2210790341
 11
150.788281
 21
610.6949940341
  0
LINE
  5
3D3
100
AcDbEntity
  8
_0-1_PRO0
  6
CONTINUOUS
 62
     0
100
AcDbLine
 10
148.602818
 20
613.7247370341
 11
147.425472
 21
613.6630350341
  0
ARC
  5
3D4
100
AcDbEntity
  8
_0-1_PRO0
  6
CONTINUOUS
 62
     0
100
AcDbCircle
 10
148.618519
 20
613.4251480341
 40
0.3
100
AcDbArc
 50
13.00000000001
 51
93.00000000001
  0
LINE
  5
3D5
100
AcDbEntity
  8
_0-1_PRO0
  6
CONTINUOUS
 62
     0
100
AcDbLine
 10
148.91083
 20
613.4926330341
 11
149.619037
 21
610.4250530341
  0
ARC
  5
3D6
100
AcDbEntity
  8
_0-1_PRO0
  6
CONTINUOUS
 62
     0
100
AcDbCircle
 10
147.477808
 20
612.6644050341
 40
1
100
AcDbArc
 50
93
 51
168
  0
ARC
  5
3D7
100
AcDbEntity
  8
_0-1_PRO0
  6
CONTINUOUS
 62
     0
100
AcDbCircle
 10
150.203659
 20
610.5600240341
 40
0.6
100
AcDbArc
 50
-167
 51
13.00000000001
  0
LINE
  5
3D8
100
AcDbEntity
  8
_0-1_PRO0
  6
CONTINUOUS
 62
     0
100
AcDbLine
 10
143.724754
 20
614.2466110341
 11
131.768804
 21
557.9982880341
  0
LINE
  5
3D9
100
AcDbEntity
  8
_0-1_PRO0
  6
CONTINUOUS
 62
     0
100
AcDbLine
 10
146.49966
 20
612.8723170341
 11
136.664653
 21
566.6022440341
  0
LINE
  5
3DA
100
AcDbEntity
  8
_0-1_PRO0
  6
CONTINUOUS
 62
     0
100
AcDbLine
 10
136.199997
 20
557.0770100341
 11
131.768804
 21
557.8609580341
  0
LINE
  5
3DB
100
AcDbEntity
  8
_0-1_PRO0
  6
CONTINUOUS
 62
     0
100
AcDbLine
 10
158.913832
 20
641.5229700341
 11
159.003876
 21
639.8048280341
  0
LINE
  5
3DC
100
AcDbEntity
  8
_0-1_PRO0
  6
CONTINUOUS
 62
     0
100
AcDbLine
 10
168.900127
 20
642.0463290341
 11
168.990171
 21
640.3281870341
  0
ARC
  5
3DD
100
AcDbEntity
  8
_0-1_PRO0
  6
CONTINUOUS
 62
     0
100
AcDbCircle
 10
159.55128
 20
619.8060690341
 40
0.5
100
AcDbArc
 50
3.000000000006
 51
93.00000000001
  0
LINE
  5
3DE
100
AcDbEntity
  8
_0-1_PRO0
  6
CONTINUOUS
 62
     0
100
AcDbLine
 10
158.184176
 20
617.2309910341
 11
146.502189
 21
616.6187640341
  0
ARC
  5
3DF
100
AcDbEntity
  8
_0-1_PRO0
  6
CONTINUOUS
 62
     0
100
AcDbCircle
 10
158.158008
 20
617.7303060341
 40
0.5
100
AcDbArc
 50
-86.99999999999
 51
3.000000000006
  0
LINE
  5
3E0
100
AcDbEntity
  8
_0-1_PRO0
  6
CONTINUOUS
 62
     0
100
AcDbLine
 10
158.657323
 20
617.7564740341
 11
158.552651
 21
619.7537330341
  0
ARC
  5
3E1
100
AcDbEntity
  8
_0-1_PRO0
  6
CONTINUOUS
 62
     0
100
AcDbCircle
 10
159.051966
 20
619.7799010341
 40
0.5
100
AcDbArc
 50
93.00000000001
 51
183
  0
LINE
  5
3E2
100
AcDbEntity
  8
_0-1_PRO0
  6
CONTINUOUS
 62
     0
100
AcDbLine
 10
159.025798
 20
620.2792160341
 11
159.525112
 21
620.3053840341
  0
LINE
  5
3E3
100
AcDbEntity
  8
_0-1_PRO0
  6
CONTINUOUS
 62
     0
100
AcDbLine
 10
159.003876
 20
639.8048280341
 11
160.469283
 21
611.8432010341
  0
ARC
  5
3E4
100
AcDbEntity
  8
_0-1_PRO0
  6
CONTINUOUS
 62
     0
100
AcDbCircle
 10
146.659197
 20
613.6228760341
 40
3
100
AcDbArc
 50
93
 51
168
  0
ARC
  5
3E5
100
AcDbEntity
  8
_0-1_PRO0
  6
CONTINUOUS
 62
     0
100
AcDbCircle
 10
188.720881
 20
617.3292940341
 40
1.5
100
AcDbArc
 50
-87
 51
93
  0
ARC
  5
3E6
100
AcDbEntity
  8
_0-0_
  6
CONTINUOUS
 62
     0
100
AcDbCircle
 10
132.768804
 20
554.9982880341
 40
1.5
100
AcDbArc
 50
180
 51
270
  0
LINE
  5
3E7
100
AcDbEntity
  8
_0-0_
  6
CONTINUOUS
 62
     0
100
AcDbLine
 10
131.268804
 20
639.1513940341
 11
131.268804
 21
554.9982880341
  0
ARC
  5
3E8
100
AcDbEntity
  8
_0-0_
  6
CONTINUOUS
 62
     0
100
AcDbCircle
 10
132.768804
 20
639.1513940341
 40
1.5
100
AcDbArc
 50
93
 51
180
  0
LINE
  5
3E9
100
AcDbEntity
  8
_0-0_
  6
CONTINUOUS
 62
     0
100
AcDbLine
 10
132.6902999351
 20
640.649338732
 11
629.768804
 21
666.7001195037
  0
LINE
  5
3EA
100
AcDbEntity
  8
_0-0_
  6
CONTINUOUS
 62
     0
100
AcDbLine
 10
132.768804
 20
553.4982880341
 11
139.768804
 21
553.4982880341
  0
LINE
  5
3EB
100
AcDbEntity
  8
_0-1_PRO0
  6
CONTINUOUS
 62
     0
100
AcDbLine
 10
139.768804
 20
553.4982880341
 11
139.768804
 21
551.9982880341
  0
LINE
  5
3EC
100
AcDbEntity
  8
_0-1_PRO0
  6
CONTINUOUS
 62
     0
100
AcDbLine
 10
131.768804
 20
557.9982880341
 11
131.768804
 21
556.4982880341
  0
LINE
  5
3ED
100
AcDbEntity
  8
_0-1_PRO0
  6
CONTINUOUS
 62
     0
100
AcDbLine
 10
152.7392721969
 20
641.1993749405
 11
629.5594601969
 21
666.1884619291
  0
LINE
  5
3EE
100
AcDbEntity
  8
ADD_LINE
  6
DOT
 62
     0
100
AcDbLine
 10
132.6117961313
 20
642.1472826383
 11
129.768804
 21
641.9982877328
  0
LINE
  5
3EF
100
AcDbEntity
  8
_0-1_PRO0
  6
CONTINUOUS
 62
     0
100
AcDbLine
 10
129.768804
 20
739.3612469943
 11
135.768804
 21
740.8612469943
  0
LINE
  5
3F0
100
AcDbEntity
  8
_0-1_PRO0
  6
CONTINUOUS
 62
     0
100
AcDbLine
 10
129.768804
 20
739.3612469943
 11
135.768804
 21
737.8612469943
  0
LINE
  5
3F1
100
AcDbEntity
  8
_0-1_PRO0
  6
CONTINUOUS
 62
     0
100
AcDbLine
 10
129.768804
 20
739.3612469943
 11
1129.768804
 21
739.3612469943
  0
LINE
  5
3F2
100
AcDbEntity
  8
_0-1_PRO0
  6
CONTINUOUS
 62
     0
100
AcDbLine
 10
129.768804
 20
642.7717830227
 11
129.768804
 21
743.3612469943
  0
LINE
  5
3F3
100
AcDbEntity
  8
_0-1_PRO0
  6
CONTINUOUS
 62
     0
100
AcDbLine
 10
129.768804
 20
556.1186770227
 11
129.768804
 21
383.7601458101
  0
LINE
  5
3F4
100
AcDbEntity
  8
_0-1_PRO0
  6
CONTINUOUS
 62
     0
100
AcDbLine
 10
129.768804
 20
389.7601458101
 11
135.768804
 21
391.2601458101
  0
LINE
  5
3F5
100
AcDbEntity
  8
_0-1_PRO0
  6
CONTINUOUS
 62
     0
100
AcDbLine
 10
129.768804
 20
389.7601458101
 11
135.768804
 21
388.2601458101
  0
LINE
  5
3F6
100
AcDbEntity
  8
_0-1_PRO0
  6
CONTINUOUS
 62
     0
100
AcDbLine
 10
129.768804
 20
389.7601458101
 11
329.768804
 21
389.7601458101
  0
TEXT
  5
3F7
100
AcDbEntity
  8
_0-1_PRO0
  6
CONTINUOUS
 62
     0
100
AcDbText
 10
217.5885238297
 20
391.2995092054
 40
8.99
  1
２００
 41
0.7385984427141
  7
STANDARD
100
AcDbText
  0
LINE
  5
3F8
100
AcDbEntity
  8
_0-1_PRO0
  6
CONTINUOUS
 62
     0
100
AcDbLine
 10
454.768804
 20
389.7601458101
 11
460.768804
 21
391.2601458101
  0
LINE
  5
3F9
100
AcDbEntity
  8
_0-1_PRO0
  6
CONTINUOUS
 62
     0
100
AcDbLine
 10
454.768804
 20
389.7601458101
 11
460.768804
 21
388.2601458101
  0
LINE
  5
3FA
100
AcDbEntity
  8
_0-1_PRO0
  6
CONTINUOUS
 62
     0
100
AcDbLine
 10
454.768804
 20
408.2559858101
 11
454.768804
 21
383.7601458101
  0
LINE
  5
3FB
100
AcDbEntity
  8
_0-1_PRO0
  6
CONTINUOUS
 62
     0
100
AcDbLine
 10
454.768804
 20
389.7601458101
 11
448.768804
 21
388.2601458101
  0
LINE
  5
3FC
100
AcDbEntity
  8
_0-1_PRO0
  6
CONTINUOUS
 62
     0
100
AcDbLine
 10
454.768804
 20
389.7601458101
 11
448.768804
 21
391.2601458101
  0
LINE
  5
3FD
100
AcDbEntity
  8
_0-1_PRO0
  6
CONTINUOUS
 62
     0
100
AcDbLine
 10
329.768804
 20
389.7601458101
 11
454.768804
 21
389.7601458101
  0
LINE
  5
3FE
100
AcDbEntity
  8
_0-1_PRO0
  6
CONTINUOUS
 62
     0
100
AcDbLine
 10
804.768804
 20
389.7601458101
 11
810.768804
 21
391.2601458101
  0
LINE
  5
3FF
100
AcDbEntity
  8
_0-1_PRO0
  6
CONTINUOUS
 62
     0
100
AcDbLine
 10
804.768804
 20
389.7601458101
 11
810.768804
 21
388.2601458101
  0
LINE
  5
400
100
AcDbEntity
  8
_0-1_PRO0
  6
CONTINUOUS
 62
     0
100
AcDbLine
 10
804.768804
 20
408.2559858101
 11
804.768804
 21
383.7601458101
  0
LINE
  5
401
100
AcDbEntity
  8
_0-1_PRO0
  6
CONTINUOUS
 62
     0
100
AcDbLine
 10
804.768804
 20
389.7601458101
 11
798.768804
 21
388.2601458101
  0
LINE
  5
402
100
AcDbEntity
  8
_0-1_PRO0
  6
CONTINUOUS
 62
     0
100
AcDbLine
 10
804.768804
 20
389.7601458101
 11
798.768804
 21
391.2601458101
  0
LINE
  5
403
100
AcDbEntity
  8
_0-1_PRO0
  6
CONTINUOUS
 62
     0
100
AcDbLine
 10
804.768804
 20
389.7601458101
 11
929.768804
 21
389.7601458101
  0
LINE
  5
404
100
AcDbEntity
  8
_0-0_
  6
CONTINUOUS
 62
     0
100
AcDbLine
 10
772.3836118402
 20
475.004553481
 11
804.768804
 21
595.8677360341
  0
LINE
  5
405
100
AcDbEntity
  8
_0-0_
  6
CONTINUOUS
 62
     0
100
AcDbLine
 10
771.4176860139
 20
475.2633725261
 11
804.0015378831
 21
596.8679632079
  0
LINE
  5
406
100
AcDbEntity
  8
_0-1_PRO0
  6
CONTINUOUS
 62
     0
100
AcDbLine
 10
804.768804
 20
409.7559858101
 11
804.768804
 21
595.8677360341
  0
LINE
  5
407
100
AcDbEntity
  8
_0-1_PRO0
  6
CONTINUOUS
 62
     0
100
AcDbLine
 10
804.768804
 20
595.8677360341
 11
929.768804
 21
595.8677360341
  0
LINE
  5
408
100
AcDbEntity
  8
_0-1_PRO0
  6
CONTINUOUS
 62
     0
100
AcDbLine
 10
858.7511303108
 20
596.8600742641
 11
804.0015378831
 21
596.8679632079
  0
LINE
  5
409
100
AcDbEntity
  8
_0-1_PRO0
  6
CONTINUOUS
 62
     0
100
AcDbLine
 10
454.768804
 20
389.7601458101
 11
804.768804
 21
389.7601458101
  0
TEXT
  5
40A
100
AcDbEntity
  8
_0-1_PRO0
  6
CONTINUOUS
 62
     0
100
AcDbText
 10
619.3496677448
 20
392.8778505194
 40
9
  1
３５０
 41
0.7377777777778
  7
STANDARD
100
AcDbText
  0
TEXT
  5
40B
100
AcDbEntity
  8
_0-1_PRO0
  6
CONTINUOUS
 62
     0
100
AcDbText
 10
865.0527303283
 20
390.9240793031
 40
9
  1
≦Ｃ
 41
0.7377777777778
  7
STANDARD
100
AcDbText
  0
TEXT
  5
40C
100
AcDbEntity
  8
_0-1_PRO0
  6
CONTINUOUS
 62
     0
100
AcDbText
 10
390.0834182325
 20
390.9240793031
 40
8.99
  1
≦Ｃ
 41
0.7385984427141
  7
STANDARD
100
AcDbText
  0
LINE
  5
40D
100
AcDbEntity
  8
_0-2_
  6
CONTINUOUS
 62
     0
100
AcDbLine
 10
370.7511317144
 20
601.9765060341
 11
388.7511317144
 21
601.9765060341
  0
LINE
  5
40E
100
AcDbEntity
  8
_0-1_PRO0
  6
CONTINUOUS
 62
     0
100
AcDbLine
 10
329.768804
 20
409.7559858101
 11
329.768804
 21
595.8677360341
  0
LINE
  5
40F
100
AcDbEntity
  8
_0-2_
  6
CONTINUOUS
 62
     0
100
AcDbLine
 10
384.5332367144
 20
612.4456990341
 11
375.3458447144
 21
611.9642080341
  0
LINE
  5
410
100
AcDbEntity
  8
_0-2_
  6
CONTINUOUS
 62
     0
100
AcDbLine
 10
394.7511317144
 20
596.4417585058
 11
394.3251541861
 21
596.8677360341
  0
ARC
  5
411
100
AcDbEntity
  8
_0-2_
  6
CONTINUOUS
 62
     0
100
AcDbCircle
 10
394.7511317144
 20
588.6177360341
 40
8.25
100
AcDbArc
 50
71.07535558395
 51
90
  0
ARC
  5
412
100
AcDbEntity
  8
_0-2_
  6
CONTINUOUS
 62
     0
100
AcDbCircle
 10
394.7511317144
 20
588.6177360341
 40
9.25
100
AcDbArc
 50
71.07535558395
 51
90
  0
ARC
  5
413
100
AcDbEntity
  8
_0-2_
  6
CONTINUOUS
 62
     0
100
AcDbCircle
 10
400.7511317144
 20
606.1177360341
 40
9.25
100
AcDbArc
 50
-108.9246444161
 51
-90
  0
LINE
  5
414
100
AcDbEntity
  8
_0-2_
  6
CONTINUOUS
 62
     0
100
AcDbLine
 10
379.768805
 20
550.4343350341
 11
379.768805
 21
595.8677360341
  0
LINE
  5
415
100
AcDbEntity
  8
_0-2_
  6
CONTINUOUS
 62
     0
100
AcDbLine
 10
375.018803
 20
586.8677360341
 11
375.718805
 21
587.5677350341
  0
LINE
  5
416
100
AcDbEntity
  8
_0-2_
  6
CONTINUOUS
 62
     0
100
AcDbLine
 10
375.718805
 20
596.8677350341
 11
375.718805
 21
587.5677350341
  0
LINE
  5
417
100
AcDbEntity
  8
_0-2_
  6
CONTINUOUS
 62
     0
100
AcDbLine
 10
375.018803
 20
568.2395630341
 11
375.018803
 21
586.8677360341
  0
LINE
  5
418
100
AcDbEntity
  8
_0-2_
  6
CONTINUOUS
 62
     0
100
AcDbLine
 10
375.268805
 20
556.3677350341
 11
375.268805
 21
557.2310390341
  0
LINE
  5
419
100
AcDbEntity
  8
_0-2_
  6
CONTINUOUS
 62
     0
100
AcDbLine
 10
373.143773
 20
557.6057390341
 11
375.018803
 21
568.2395630341
  0
LINE
  5
41A
100
AcDbEntity
  8
_0-2_
  6
CONTINUOUS
 62
     0
100
AcDbLine
 10
379.268804
 20
567.8677340341
 11
380.268803
 21
567.8677340341
  0
LINE
  5
41B
100
AcDbEntity
  8
_0-2_
  6
CONTINUOUS
 62
     0
100
AcDbLine
 10
384.518804
 20
586.8677360341
 11
383.818805
 21
587.5677350341
  0
LINE
  5
41C
100
AcDbEntity
  8
_0-2_
  6
CONTINUOUS
 62
     0
100
AcDbLine
 10
383.818805
 20
596.8677350341
 11
383.818805
 21
587.5677350341
  0
LINE
  5
41D
100
AcDbEntity
  8
_0-2_
  6
CONTINUOUS
 62
     0
100
AcDbLine
 10
384.518804
 20
568.2395630341
 11
384.518804
 21
586.8677360341
  0
LINE
  5
41E
100
AcDbEntity
  8
_0-2_
  6
CONTINUOUS
 62
     0
100
AcDbLine
 10
383.268803
 20
555.3677360341
 11
376.268804
 21
555.3677360341
  0
ARC
  5
41F
100
AcDbEntity
  8
_0-2_
  6
CONTINUOUS
 62
     0
100
AcDbCircle
 10
383.268803
 20
556.3677350341
 40
0.999999
100
AcDbArc
 50
-90
 51
0
  0
LINE
  5
420
100
AcDbEntity
  8
_0-2_
  6
CONTINUOUS
 62
     0
100
AcDbLine
 10
384.268805
 20
556.3677350341
 11
384.268805
 21
557.2310390341
  0
LINE
  5
421
100
AcDbEntity
  8
_0-2_
  6
CONTINUOUS
 62
     0
100
AcDbLine
 10
386.393834
 20
557.6057390341
 11
382.208402
 21
556.8677360341
  0
LINE
  5
422
100
AcDbEntity
  8
_0-2_
  6
CONTINUOUS
 62
     0
100
AcDbLine
 10
379.268804
 20
567.8677340341
 11
377.329208
 21
556.8677360341
  0
LINE
  5
423
100
AcDbEntity
  8
_0-2_
  6
CONTINUOUS
 62
     0
100
AcDbLine
 10
380.268803
 20
567.8677340341
 11
382.208402
 21
556.8677360341
  0
LINE
  5
424
100
AcDbEntity
  8
_0-2_
  6
CONTINUOUS
 62
     0
100
AcDbLine
 10
386.393834
 20
557.6057390341
 11
384.518804
 21
568.2395630341
  0
LINE
  5
425
100
AcDbEntity
  8
_0-2_
  6
CONTINUOUS
 62
     0
100
AcDbLine
 10
375.018803
 20
586.8677360341
 11
384.518804
 21
586.8677360341
  0
LINE
  5
426
100
AcDbEntity
  8
_0-2_
  6
CONTINUOUS
 62
     0
100
AcDbLine
 10
375.718805
 20
587.5677350341
 11
383.818805
 21
587.5677350341
  0
LINE
  5
427
100
AcDbEntity
  8
_0-2_
  6
CONTINUOUS
 62
     0
100
AcDbLine
 10
373.143773
 20
557.6057390341
 11
377.329208
 21
556.8677360341
  0
ARC
  5
428
100
AcDbEntity
  8
_0-2_
  6
CONTINUOUS
 62
     0
100
AcDbCircle
 10
376.268804
 20
556.3677350341
 40
0.999999
100
AcDbArc
 50
180
 51
270
  0
LINE
  5
429
100
AcDbEntity
  8
_0-2_
  6
CONTINUOUS
 62
     0
100
AcDbLine
 10
393.9109406237
 20
595.8677360341
 11
392.9109406237
 21
596.8677360341
  0
LINE
  5
42A
100
AcDbEntity
  8
_0-2_
  6
CONTINUOUS
 62
     0
100
AcDbLine
 10
392.4967270614
 20
595.8677360341
 11
391.4967270614
 21
596.8677360341
  0
LINE
  5
42B
100
AcDbEntity
  8
_0-2_
  6
CONTINUOUS
 62
     0
100
AcDbLine
 10
391.082513499
 20
595.8677360341
 11
390.082513499
 21
596.8677360341
  0
LINE
  5
42C
100
AcDbEntity
  8
_0-2_
  6
CONTINUOUS
 62
     0
100
AcDbLine
 10
389.6682999366
 20
595.8677360341
 11
388.6682999366
 21
596.8677360341
  0
LINE
  5
42D
100
AcDbEntity
  8
_0-2_
  6
CONTINUOUS
 62
     0
100
AcDbLine
 10
388.2540863742
 20
595.8677360341
 11
387.2540863742
 21
596.8677360341
  0
LINE
  5
42E
100
AcDbEntity
  8
_0-2_
  6
CONTINUOUS
 62
     0
100
AcDbLine
 10
386.8398728119
 20
595.8677360341
 11
385.8398728119
 21
596.8677360341
  0
LINE
  5
42F
100
AcDbEntity
  8
_0-2_
  6
CONTINUOUS
 62
     0
100
AcDbLine
 10
385.4256592495
 20
595.8677360341
 11
384.4256592495
 21
596.8677360341
  0
LINE
  5
430
100
AcDbEntity
  8
_0-2_
  6
CONTINUOUS
 62
     0
100
AcDbLine
 10
384.0114456871
 20
595.8677360341
 11
383.0114456871
 21
596.8677360341
  0
LINE
  5
431
100
AcDbEntity
  8
_0-2_
  6
CONTINUOUS
 62
     0
100
AcDbLine
 10
382.5972321247
 20
595.8677360341
 11
381.5972321247
 21
596.8677360341
  0
LINE
  5
432
100
AcDbEntity
  8
_0-2_
  6
CONTINUOUS
 62
     0
100
AcDbLine
 10
381.1830185624
 20
595.8677360341
 11
380.1830185624
 21
596.8677360341
  0
LINE
  5
433
100
AcDbEntity
  8
_0-2_
  6
CONTINUOUS
 62
     0
100
AcDbLine
 10
379.768805
 20
595.8677360341
 11
378.768805
 21
596.8677360341
  0
LINE
  5
434
100
AcDbEntity
  8
_0-2_
  6
CONTINUOUS
 62
     0
100
AcDbLine
 10
378.3545914376
 20
595.8677360341
 11
377.3545914376
 21
596.8677360341
  0
LINE
  5
435
100
AcDbEntity
  8
_0-2_
  6
CONTINUOUS
 62
     0
100
AcDbLine
 10
376.9403778753
 20
595.8677360341
 11
375.9403778753
 21
596.8677360341
  0
LINE
  5
436
100
AcDbEntity
  8
_0-2_
  6
CONTINUOUS
 62
     0
100
AcDbLine
 10
375.5261643129
 20
595.8677360341
 11
374.5261643129
 21
596.8677360341
  0
LINE
  5
437
100
AcDbEntity
  8
_0-2_
  6
CONTINUOUS
 62
     0
100
AcDbLine
 10
374.1119507505
 20
595.8677360341
 11
373.1119507505
 21
596.8677360341
  0
LINE
  5
438
100
AcDbEntity
  8
_0-2_
  6
CONTINUOUS
 62
     0
100
AcDbLine
 10
372.6977371881
 20
595.8677360341
 11
371.6977371881
 21
596.8677360341
  0
LINE
  5
439
100
AcDbEntity
  8
_0-2_
  6
CONTINUOUS
 62
     0
100
AcDbLine
 10
371.2835236258
 20
595.8677360341
 11
370.2835236258
 21
596.8677360341
  0
LINE
  5
43A
100
AcDbEntity
  8
_0-2_
  6
CONTINUOUS
 62
     0
100
AcDbLine
 10
369.8693100634
 20
595.8677360341
 11
368.8693100634
 21
596.8677360341
  0
LINE
  5
43B
100
AcDbEntity
  8
_0-2_
  6
CONTINUOUS
 62
     0
100
AcDbLine
 10
368.455096501
 20
595.8677360341
 11
367.455096501
 21
596.8677360341
  0
LINE
  5
43C
100
AcDbEntity
  8
_0-2_
  6
CONTINUOUS
 62
     0
100
AcDbLine
 10
367.0408829386
 20
595.8677360341
 11
366.0408829386
 21
596.8677360341
  0
LINE
  5
43D
100
AcDbEntity
  8
_0-2_
  6
CONTINUOUS
 62
     0
100
AcDbLine
 10
365.6266693763
 20
595.8677360341
 11
364.7511317144
 21
596.7432736959
  0
LINE
  5
43E
100
AcDbEntity
  8
_0-2_
  6
CONTINUOUS
 62
     0
100
AcDbLine
 10
364.7511317144
 20
595.8677360341
 11
394.7511317144
 21
595.8677360341
  0
LINE
  5
43F
100
AcDbEntity
  8
_0-2_
  6
CONTINUOUS
 62
     0
100
AcDbLine
 10
394.7511317144
 20
595.8677360341
 11
394.7511317144
 21
596.8677360341
  0
LINE
  5
440
100
AcDbEntity
  8
_0-2_
  6
CONTINUOUS
 62
     0
100
AcDbLine
 10
394.7511317144
 20
596.8677360341
 11
364.7511317144
 21
596.8677360341
  0
LINE
  5
441
100
AcDbEntity
  8
_0-2_
  6
CONTINUOUS
 62
     0
100
AcDbLine
 10
364.7511317144
 20
596.8677360341
 11
364.7511317144
 21
595.8677360341
  0
ARC
  5
442
100
AcDbEntity
  8
_0-2_
  6
CONTINUOUS
 62
     0
100
AcDbCircle
 10
400.7511317144
 20
606.1177360341
 40
10.25
100
AcDbArc
 50
-108.9246444161
 51
-90
  0
LINE
  5
443
100
AcDbEntity
  8
_0-2_
  6
CONTINUOUS
 62
     0
100
AcDbLine
 10
370.7511317144
 20
601.9765060341
 11
370.7511317144
 21
600.3765070341
  0
LINE
  5
444
100
AcDbEntity
  8
_0-2_
  6
CONTINUOUS
 62
     0
100
AcDbLine
 10
388.7511317144
 20
601.9765060341
 11
388.7511317144
 21
600.3765070341
  0
LINE
  5
445
100
AcDbEntity
  8
_0-2_
  6
CONTINUOUS
 62
     0
100
AcDbLine
 10
385.6311317144
 20
606.2395690341
 11
385.6311317144
 21
601.9765060341
  0
LINE
  5
446
100
AcDbEntity
  8
_0-2_
  6
CONTINUOUS
 62
     0
100
AcDbLine
 10
384.7011317144
 20
606.7765060341
 11
385.6311317144
 21
606.2395690341
  0
ARC
  5
447
100
AcDbEntity
  8
_0-2_
  6
CONTINUOUS
 62
     0
100
AcDbCircle
 10
384.7011317144
 20
602.9671120341
 40
3.809394
100
AcDbArc
 50
90
 51
120.789964
  0
ARC
  5
448
100
AcDbEntity
  8
_0-2_
  6
CONTINUOUS
 62
     0
100
AcDbCircle
 10
379.7511317144
 20
598.1271460341
 40
8.64936
100
AcDbArc
 50
69.705445
 51
110.294555
  0
LINE
  5
449
100
AcDbEntity
  8
_0-2_
  6
CONTINUOUS
 62
     0
100
AcDbLine
 10
382.7511317144
 20
606.2395690341
 11
382.7511317144
 21
601.9765060341
  0
LINE
  5
44A
100
AcDbEntity
  8
_0-2_
  6
CONTINUOUS
 62
     0
100
AcDbLine
 10
376.7511317144
 20
606.2395690341
 11
376.7511317144
 21
601.9765060341
  0
LINE
  5
44B
100
AcDbEntity
  8
_0-2_
  6
CONTINUOUS
 62
     0
100
AcDbLine
 10
373.8711317144
 20
606.2395690341
 11
373.8711317144
 21
601.9765060341
  0
LINE
  5
44C
100
AcDbEntity
  8
_0-2_
  6
CONTINUOUS
 62
     0
100
AcDbLine
 10
374.8011317144
 20
606.7765060341
 11
373.8711317144
 21
606.2395690341
  0
LINE
  5
44D
100
AcDbEntity
  8
_0-2_
  6
CONTINUOUS
 62
     0
100
AcDbLine
 10
384.7011317144
 20
606.7765060341
 11
374.8011317144
 21
606.7765060341
  0
ARC
  5
44E
100
AcDbEntity
  8
_0-2_
  6
CONTINUOUS
 62
     0
100
AcDbCircle
 10
374.8011317144
 20
602.9671120341
 40
3.809394
100
AcDbArc
 50
59.210036
 51
90
  0
LINE
  5
44F
100
AcDbEntity
  8
_0-2_
  6
CONTINUOUS
 62
     0
100
AcDbLine
 10
384.4809017144
 20
613.4443300341
 11
384.5332367144
 21
612.4456990341
  0
LINE
  5
450
100
AcDbEntity
  8
_0-2_
  6
CONTINUOUS
 62
     0
100
AcDbLine
 10
375.2935097144
 20
612.9628390341
 11
375.3458447144
 21
611.9642080341
  0
ARC
  5
451
100
AcDbEntity
  8
_0-2_
  6
CONTINUOUS
 62
     0
100
AcDbCircle
 10
385.4795297144
 20
613.4966650341
 40
0.999999
100
AcDbArc
 50
93
 51
183
  0
ARC
  5
452
100
AcDbEntity
  8
_0-2_
  6
CONTINUOUS
 62
     0
100
AcDbCircle
 10
374.2948787144
 20
612.9105010341
 40
0.999999
100
AcDbArc
 50
3.000000000005
 51
93
  0
ARC
  5
453
100
AcDbEntity
  8
_0-2_
  6
CONTINUOUS
 62
     0
100
AcDbCircle
 10
391.7511317144
 20
607.3765060341
 40
0.999999
100
AcDbArc
 50
180
 51
270
  0
LINE
  5
454
100
AcDbEntity
  8
_0-2_
  6
CONTINUOUS
 62
     0
100
AcDbLine
 10
391.7511317144
 20
606.3765070341
 11
395.9511317144
 21
606.3765070341
  0
ARC
  5
455
100
AcDbEntity
  8
_0-2_
  6
CONTINUOUS
 62
     0
100
AcDbCircle
 10
388.1511317144
 20
613.6366780341
 40
0.999999
100
AcDbArc
 50
0
 51
93.00000000001
  0
LINE
  5
456
100
AcDbEntity
  8
_0-2_
  6
CONTINUOUS
 62
     0
100
AcDbLine
 10
371.2987967144
 20
613.7548570341
 11
388.0987967144
 21
614.6353060341
  0
ARC
  5
457
100
AcDbEntity
  8
_0-2_
  6
CONTINUOUS
 62
     0
100
AcDbCircle
 10
371.3511317144
 20
612.7562260341
 40
0.999999
100
AcDbArc
 50
93
 51
180
  0
LINE
  5
458
100
AcDbEntity
  8
_0-2_
  6
CONTINUOUS
 62
     0
100
AcDbLine
 10
367.7511317144
 20
606.3765070341
 11
363.5511317144
 21
606.3765070341
  0
ARC
  5
459
100
AcDbEntity
  8
_0-2_
  6
CONTINUOUS
 62
     0
100
AcDbCircle
 10
367.7511317144
 20
607.3765060341
 40
0.999999
100
AcDbArc
 50
-90
 51
0
  0
LINE
  5
45A
100
AcDbEntity
  8
_0-2_
  6
CONTINUOUS
 62
     0
100
AcDbLine
 10
389.1511307144
 20
607.3765060341
 11
389.1511307144
 21
613.6366780341
  0
ARC
  5
45B
100
AcDbEntity
  8
_0-2_
  6
CONTINUOUS
 62
     0
100
AcDbCircle
 10
391.7511317144
 20
607.3765060341
 40
2.600001
100
AcDbArc
 50
180
 51
270
  0
LINE
  5
45C
100
AcDbEntity
  8
_0-2_
  6
CONTINUOUS
 62
     0
100
AcDbLine
 10
391.7511317144
 20
604.7765050341
 11
396.2511317144
 21
604.7765050341
  0
LINE
  5
45D
100
AcDbEntity
  8
_0-2_
  6
CONTINUOUS
 62
     0
100
AcDbLine
 10
390.7511327144
 20
613.6366780341
 11
390.7511327144
 21
607.3765060341
  0
ARC
  5
45E
100
AcDbEntity
  8
_0-2_
  6
CONTINUOUS
 62
     0
100
AcDbCircle
 10
388.1511317144
 20
613.6366780341
 40
2.600001
100
AcDbArc
 50
0
 51
93
  0
LINE
  5
45F
100
AcDbEntity
  8
_0-2_
  6
CONTINUOUS
 62
     0
100
AcDbLine
 10
368.7511307144
 20
612.7562260341
 11
368.7511307144
 21
607.3765060341
  0
ARC
  5
460
100
AcDbEntity
  8
_0-2_
  6
CONTINUOUS
 62
     0
100
AcDbCircle
 10
371.3511317144
 20
612.7562260341
 40
2.600001
100
AcDbArc
 50
93
 51
180
  0
LINE
  5
461
100
AcDbEntity
  8
_0-2_
  6
CONTINUOUS
 62
     0
100
AcDbLine
 10
371.2150577144
 20
615.3526630341
 11
388.0150577144
 21
616.2331150341
  0
LINE
  5
462
100
AcDbEntity
  8
_0-2_
  6
CONTINUOUS
 62
     0
100
AcDbLine
 10
370.3511327144
 20
607.3765060341
 11
370.3511327144
 21
612.7562260341
  0
ARC
  5
463
100
AcDbEntity
  8
_0-2_
  6
CONTINUOUS
 62
     0
100
AcDbCircle
 10
367.7511317144
 20
607.3765060341
 40
2.600001
100
AcDbArc
 50
-90
 51
0
  0
LINE
  5
464
100
AcDbEntity
  8
_0-2_
  6
CONTINUOUS
 62
     0
100
AcDbLine
 10
367.7511317144
 20
604.7765050341
 11
363.2511317144
 21
604.7765050341
  0
LINE
  5
465
100
AcDbEntity
  8
_0-2_
  6
CONTINUOUS
 62
     0
100
AcDbLine
 10
363.5511317144
 20
603.8765050341
 11
365.5011317144
 21
603.8765050341
  0
ARC
  5
466
100
AcDbEntity
  8
_0-2_
  6
CONTINUOUS
 62
     0
100
AcDbCircle
 10
363.5511317144
 20
604.1765050341
 40
0.3
100
AcDbArc
 50
180
 51
270
  0
ARC
  5
467
100
AcDbEntity
  8
_0-2_
  6
CONTINUOUS
 62
     0
100
AcDbCircle
 10
363.5511317144
 20
606.0765070341
 40
0.3
100
AcDbArc
 50
90
 51
180
  0
LINE
  5
468
100
AcDbEntity
  8
_0-2_
  6
CONTINUOUS
 62
     0
100
AcDbLine
 10
380.2511327144
 20
600.3765070341
 11
379.7511317144
 21
599.8765060341
  0
LINE
  5
469
100
AcDbEntity
  8
_0-2_
  6
CONTINUOUS
 62
     0
100
AcDbLine
 10
379.2511307144
 20
600.3765070341
 11
379.7511317144
 21
599.8765060341
  0
LINE
  5
46A
100
AcDbEntity
  8
_0-2_
  6
CONTINUOUS
 62
     0
100
AcDbLine
 10
384.7511327144
 20
598.3765060341
 11
384.7511327144
 21
597.8765050341
  0
LINE
  5
46B
100
AcDbEntity
  8
_0-2_
  6
CONTINUOUS
 62
     0
100
AcDbLine
 10
363.7511327144
 20
607.8765070341
 11
366.5011307144
 21
607.8765070341
  0
ARC
  5
46C
100
AcDbEntity
  8
_0-2_
  6
CONTINUOUS
 62
     0
100
AcDbCircle
 10
363.7511327144
 20
608.3765050341
 40
0.500001
100
AcDbArc
 50
180
 51
270
  0
ARC
  5
46D
100
AcDbEntity
  8
_0-2_
  6
CONTINUOUS
 62
     0
100
AcDbCircle
 10
366.5011307144
 20
607.1265070341
 40
0.75
100
AcDbArc
 50
-90
 51
90
  0
LINE
  5
46E
100
AcDbEntity
  8
_0-2_
  6
CONTINUOUS
 62
     0
100
AcDbLine
 10
374.7511307144
 20
598.3765060341
 11
363.2511317144
 21
598.3765060341
  0
LINE
  5
46F
100
AcDbEntity
  8
_0-2_
  6
CONTINUOUS
 62
     0
100
AcDbLine
 10
374.7511307144
 20
598.3765060341
 11
374.7511307144
 21
597.8765050341
  0
ARC
  5
470
100
AcDbEntity
  8
_0-2_
  6
CONTINUOUS
 62
     0
100
AcDbCircle
 10
365.5011317144
 20
603.1265050341
 40
0.75
100
AcDbArc
 50
-90
 51
90
  0
LINE
  5
471
100
AcDbEntity
  8
_0-2_
  6
CONTINUOUS
 62
     0
100
AcDbLine
 10
363.5511317144
 20
602.3765050341
 11
365.5011317144
 21
602.3765050341
  0
ARC
  5
472
100
AcDbEntity
  8
_0-2_
  6
CONTINUOUS
 62
     0
100
AcDbCircle
 10
363.5511317144
 20
602.0765050341
 40
0.3
100
AcDbArc
 50
90
 51
180
  0
LINE
  5
473
100
AcDbEntity
  8
_0-2_
  6
CONTINUOUS
 62
     0
100
AcDbLine
 10
396.2511317144
 20
598.3765060341
 11
384.7511327144
 21
598.3765060341
  0
LINE
  5
474
100
AcDbEntity
  8
_0-2_
  6
CONTINUOUS
 62
     0
100
AcDbLine
 10
395.9511317144
 20
603.8765050341
 11
394.0011317144
 21
603.8765050341
  0
ARC
  5
475
100
AcDbEntity
  8
_0-2_
  6
CONTINUOUS
 62
     0
100
AcDbCircle
 10
395.9511317144
 20
604.1765050341
 40
0.3
100
AcDbArc
 50
-90
 51
0
  0
LINE
  5
476
100
AcDbEntity
  8
_0-2_
  6
CONTINUOUS
 62
     0
100
AcDbLine
 10
396.2511317144
 20
604.1765050341
 11
396.2511317144
 21
606.0765070341
  0
ARC
  5
477
100
AcDbEntity
  8
_0-2_
  6
CONTINUOUS
 62
     0
100
AcDbCircle
 10
395.9511317144
 20
606.0765070341
 40
0.3
100
AcDbArc
 50
0
 51
90
  0
LINE
  5
478
100
AcDbEntity
  8
_0-2_
  6
CONTINUOUS
 62
     0
100
AcDbLine
 10
397.2511307144
 20
607.8765070341
 11
393.0011327144
 21
607.8765070341
  0
ARC
  5
479
100
AcDbEntity
  8
_0-2_
  6
CONTINUOUS
 62
     0
100
AcDbCircle
 10
397.2511307144
 20
607.3765060341
 40
0.500001
100
AcDbArc
 50
0
 51
90
  0
ARC
  5
47A
100
AcDbEntity
  8
_0-2_
  6
CONTINUOUS
 62
     0
100
AcDbCircle
 10
393.0011327144
 20
607.1265070341
 40
0.75
100
AcDbArc
 50
90
 51
270
  0
LINE
  5
47B
100
AcDbEntity
  8
_0-2_
  6
CONTINUOUS
 62
     0
100
AcDbLine
 10
397.7511317144
 20
607.3765060341
 11
397.7511317144
 21
597.8765050341
  0
LINE
  5
47C
100
AcDbEntity
  8
_0-2_
  6
CONTINUOUS
 62
     0
100
AcDbLine
 10
396.2511317144
 20
598.3765060341
 11
396.2511317144
 21
597.8765050341
  0
ARC
  5
47D
100
AcDbEntity
  8
_0-2_
  6
CONTINUOUS
 62
     0
100
AcDbCircle
 10
394.0011317144
 20
603.1265050341
 40
0.75
100
AcDbArc
 50
90
 51
270
  0
ARC
  5
47E
100
AcDbEntity
  8
_0-2_
  6
CONTINUOUS
 62
     0
100
AcDbCircle
 10
395.9511317144
 20
600.6765070341
 40
0.3
100
AcDbArc
 50
-90
 51
0
  0
LINE
  5
47F
100
AcDbEntity
  8
_0-2_
  6
CONTINUOUS
 62
     0
100
AcDbLine
 10
396.2511317144
 20
600.6765070341
 11
396.2511317144
 21
602.0765050341
  0
ARC
  5
480
100
AcDbEntity
  8
_0-2_
  6
CONTINUOUS
 62
     0
100
AcDbCircle
 10
395.9511317144
 20
602.0765050341
 40
0.3
100
AcDbArc
 50
0
 51
90
  0
LINE
  5
481
100
AcDbEntity
  8
_0-2_
  6
CONTINUOUS
 62
     0
100
AcDbLine
 10
395.9511317144
 20
602.3765050341
 11
394.0011317144
 21
602.3765050341
  0
ARC
  5
482
100
AcDbEntity
  8
_0-2_
  6
CONTINUOUS
 62
     0
100
AcDbCircle
 10
363.7511327144
 20
600.8765050341
 40
0.500001
100
AcDbArc
 50
180
 51
270
  0
LINE
  5
483
100
AcDbEntity
  8
_0-2_
  6
CONTINUOUS
 62
     0
100
AcDbLine
 10
363.7511327144
 20
600.3765070341
 11
395.9511317144
 21
600.3765070341
  0
LINE
  5
484
100
AcDbEntity
  8
_0-2_
  6
CONTINUOUS
 62
     0
100
AcDbLine
 10
396.2511317144
 20
597.8765050341
 11
397.7511317144
 21
597.8765050341
  0
ARC
  5
485
100
AcDbEntity
  8
_0-2_
  6
CONTINUOUS
 62
     0
100
AcDbCircle
 10
362.2511327144
 20
615.8765050341
 40
0.999999
100
AcDbArc
 50
0
 51
180
  0
LINE
  5
486
100
AcDbEntity
  8
_0-2_
  6
CONTINUOUS
 62
     0
100
AcDbLine
 10
363.2511317144
 20
608.3765050341
 11
363.2511317144
 21
615.8765050341
  0
LINE
  5
487
100
AcDbEntity
  8
_0-2_
  6
CONTINUOUS
 62
     0
100
AcDbLine
 10
363.2511317144
 20
604.1765050341
 11
363.2511317144
 21
606.0765070341
  0
ARC
  5
488
100
AcDbEntity
  8
_0-2_
  6
CONTINUOUS
 62
     0
100
AcDbCircle
 10
360.7511327144
 20
600.8765050341
 40
0.500001
100
AcDbArc
 50
-90
 51
0
  0
LINE
  5
489
100
AcDbEntity
  8
_0-2_
  6
CONTINUOUS
 62
     0
100
AcDbLine
 10
361.2511307144
 20
598.8765070341
 11
361.2511307144
 21
597.8765050341
  0
LINE
  5
48A
100
AcDbEntity
  8
_0-2_
  6
CONTINUOUS
 62
     0
100
AcDbLine
 10
363.2511317144
 20
598.3765060341
 11
363.2511317144
 21
597.8765050341
  0
LINE
  5
48B
100
AcDbEntity
  8
_0-2_
  6
CONTINUOUS
 62
     0
100
AcDbLine
 10
363.2511317144
 20
600.8765050341
 11
363.2511317144
 21
602.0765050341
  0
LINE
  5
48C
100
AcDbEntity
  8
_0-2_
  6
CONTINUOUS
 62
     0
100
AcDbLine
 10
350.7511307144
 20
598.8765070341
 11
350.7511307144
 21
597.8765050341
  0
LINE
  5
48D
100
AcDbEntity
  8
_0-2_
  6
CONTINUOUS
 62
     0
100
AcDbLine
 10
349.2511307144
 20
597.8765050341
 11
350.7511307144
 21
597.8765050341
  0
LINE
  5
48E
100
AcDbEntity
  8
_0-2_
  6
CONTINUOUS
 62
     0
100
AcDbLine
 10
361.2511307144
 20
597.8765050341
 11
363.2511317144
 21
597.8765050341
  0
LINE
  5
48F
100
AcDbEntity
  8
_0-2_
  6
CONTINUOUS
 62
     0
100
AcDbLine
 10
349.2511307144
 20
599.8765070341
 11
349.2511307144
 21
597.8765050341
  0
ARC
  5
490
100
AcDbEntity
  8
_0-2_
  6
CONTINUOUS
 62
     0
100
AcDbCircle
 10
349.7511307144
 20
599.8765070341
 40
0.5
100
AcDbArc
 50
90
 51
180
  0
LINE
  5
491
100
AcDbEntity
  8
_0-2_
  6
CONTINUOUS
 62
     0
100
AcDbLine
 10
361.0011307144
 20
603.6265070341
 11
359.7511307143
 21
603.6265070341
  0
LINE
  5
492
100
AcDbEntity
  8
_0-2_
  6
CONTINUOUS
 62
     0
100
AcDbLine
 10
356.7511307143
 20
603.6265070341
 11
355.5011307144
 21
603.6265070341
  0
ARC
  5
493
100
AcDbEntity
  8
_0-2_
  6
CONTINUOUS
 62
     0
100
AcDbCircle
 10
329.9045252421
 20
646.5618996564
 40
0.5
100
AcDbArc
 50
101.4095443492
 51
279.1986608952
  0
ARC
  5
494
100
AcDbEntity
  8
_0-2_
  6
CONTINUOUS
 62
     0
100
AcDbCircle
 10
334.7511307143
 20
622.546062894
 40
25
100
AcDbArc
 50
0
 51
101.4095443492
  0
ARC
  5
495
100
AcDbEntity
  8
_0-2_
  6
CONTINUOUS
 62
     0
100
AcDbCircle
 10
333.6751851204
 20
623.277694392
 40
23.08754100601
100
AcDbArc
 50
-1.815975820674
 51
99.19866089519
  0
LINE
  5
496
100
AcDbEntity
  8
_0-2_
  6
CONTINUOUS
 62
     0
100
AcDbLine
 10
361.2511307144
 20
598.8765070341
 11
353.7451818406
 21
598.8765070341
  0
LINE
  5
497
100
AcDbEntity
  8
_0-2_
  6
CONTINUOUS
 62
     0
100
AcDbLine
 10
353.7451818406
 20
598.8765070341
 11
350.7511307144
 21
598.8765070341
  0
LINE
  5
498
100
AcDbEntity
  8
_0-2_
  6
CONTINUOUS
 62
     0
100
AcDbLine
 10
355.7511307144
 20
600.3765070341
 11
360.7511327144
 21
600.3765070341
  0
LINE
  5
499
100
AcDbEntity
  8
_0-2_
  6
CONTINUOUS
 62
     0
100
AcDbLine
 10
349.7511307144
 20
600.3765070341
 11
353.7511307144
 21
600.3765070341
  0
ARC
  5
49A
100
AcDbEntity
  8
_0-2_
  6
CONTINUOUS
 62
     0
100
AcDbCircle
 10
355.7511307144
 20
600.8765070341
 40
0.25
100
AcDbArc
 50
180
 51
270
  0
ARC
  5
49B
100
AcDbEntity
  8
_0-2_
  6
CONTINUOUS
 62
     0
100
AcDbCircle
 10
360.7511327144
 20
600.8765050341
 40
0.250001
100
AcDbArc
 50
-90
 51
0
  0
LINE
  5
49C
100
AcDbEntity
  8
_0-2_
  6
CONTINUOUS
 62
     0
100
AcDbLine
 10
355.5011307144
 20
600.8765070341
 11
355.5011307144
 21
603.6265070341
  0
LINE
  5
49D
100
AcDbEntity
  8
_0-2_
  6
CONTINUOUS
 62
     0
100
AcDbLine
 10
361.0011307144
 20
600.8765050341
 11
361.0011307144
 21
603.6265070341
  0
LINE
  5
49E
100
AcDbEntity
  8
_0-2_
  6
CONTINUOUS
 62
     0
100
AcDbLine
 10
355.7511307144
 20
600.6265070341
 11
360.7511327144
 21
600.6265070341
  0
LINE
  5
49F
100
AcDbEntity
  8
_0-2_
  6
CONTINUOUS
 62
     0
100
AcDbLine
 10
361.2511307144
 20
615.8765050341
 11
361.2511307144
 21
605.3765070341
  0
LINE
  5
4A0
100
AcDbEntity
  8
_0-2_
  6
CONTINUOUS
 62
     0
100
AcDbLine
 10
361.2511307144
 20
603.8765070341
 11
361.2511307144
 21
600.8765050341
  0
LINE
  5
4A1
100
AcDbEntity
  8
_0-2_
  6
CONTINUOUS
 62
     0
100
AcDbLine
 10
355.2511307144
 20
600.8765070341
 11
355.2511307144
 21
603.8765070341
  0
LINE
  5
4A2
100
AcDbEntity
  8
_0-2_
  6
CONTINUOUS
 62
     0
100
AcDbLine
 10
353.7511307144
 20
604.8765070341
 11
353.7511307144
 21
600.3765070341
  0
ARC
  5
4A3
100
AcDbEntity
  8
_0-2_
  6
CONTINUOUS
 62
     0
100
AcDbCircle
 10
354.2511307144
 20
604.8765070341
 40
0.5
100
AcDbArc
 50
90
 51
180
  0
ARC
  5
4A4
100
AcDbEntity
  8
_0-2_
  6
CONTINUOUS
 62
     0
100
AcDbCircle
 10
355.7511307144
 20
600.8765070341
 40
0.5
100
AcDbArc
 50
180
 51
270
  0
LINE
  5
4A5
100
AcDbEntity
  8
_0-2_
  6
CONTINUOUS
 62
     0
100
AcDbLine
 10
354.2511307144
 20
605.3765070341
 11
355.5011307144
 21
605.3765070341
  0
ARC
  5
4A6
100
AcDbEntity
  8
_0-2_
  6
CONTINUOUS
 62
     0
100
AcDbCircle
 10
355.5011307144
 20
604.3765070341
 40
1
100
AcDbArc
 50
0
 51
90
  0
LINE
  5
4A7
100
AcDbEntity
  8
_0-2_
  6
CONTINUOUS
 62
     0
100
AcDbLine
 10
356.5011307144
 20
604.3765070341
 11
356.5011307144
 21
603.8765070341
  0
LINE
  5
4A8
100
AcDbEntity
  8
_0-2_
  6
CONTINUOUS
 62
     0
100
AcDbLine
 10
356.5011307144
 20
603.8765070341
 11
355.2511307144
 21
603.8765070341
  0
LINE
  5
4A9
100
AcDbEntity
  8
_0-2_
  6
CONTINUOUS
 62
     0
100
AcDbLine
 10
361.2511307144
 20
603.8765070341
 11
360.0011307144
 21
603.8765070341
  0
LINE
  5
4AA
100
AcDbEntity
  8
_0-2_
  6
CONTINUOUS
 62
     0
100
AcDbLine
 10
360.0011307144
 20
604.3765070341
 11
360.0011307144
 21
603.8765070341
  0
ARC
  5
4AB
100
AcDbEntity
  8
_0-2_
  6
CONTINUOUS
 62
     0
100
AcDbCircle
 10
361.0011307144
 20
604.3765070341
 40
1
100
AcDbArc
 50
90
 51
180
  0
LINE
  5
4AC
100
AcDbEntity
  8
_0-2_
  6
CONTINUOUS
 62
     0
100
AcDbLine
 10
361.0011307144
 20
605.3765070341
 11
361.2511307144
 21
605.3765070341
  0
CIRCLE
  5
4AD
100
AcDbEntity
  8
_0-2_
  6
CONTINUOUS
 62
     0
100
AcDbCircle
 10
354.7766386424
 20
635.3130103109
 40
0.9
  0
LINE
  5
4AE
100
AcDbEntity
  8
_0-2_
  6
CONTINUOUS
 62
     0
100
AcDbLine
 10
354.7766386424
 20
635.3130103109
 11
340.6880694129
 21
674.0210324023
  0
LINE
  5
4AF
100
AcDbEntity
  8
_0-2_
  6
CONTINUOUS
 62
     0
100
AcDbLine
 10
364.7511317144
 20
596.7432736959
 11
364.7511317144
 21
597.8677360341
  0
LINE
  5
4B0
100
AcDbEntity
  8
_0-2_
  6
CONTINUOUS
 62
     0
100
AcDbLine
 10
394.7511317144
 20
597.8677360341
 11
364.7511317144
 21
597.8677360341
  0
CIRCLE
  5
4B1
100
AcDbEntity
  8
_0-2_
  6
CONTINUOUS
 62
     0
100
AcDbCircle
 10
339.3115362712
 20
679.5120327754
 40
6
  0
TEXT
  5
4B2
100
AcDbEntity
  8
_0-2_
  6
CONTINUOUS
 62
     0
100
AcDbText
 10
334.0012690052
 20
674.8104700466
 40
9
  1
８
  7
STANDARD
100
AcDbText
  0
LINE
  5
4B3
100
AcDbEntity
  8
_0-2_
  6
CONTINUOUS
 62
     0
100
AcDbLine
 10
379.768805
 20
549.4343330341
 11
379.768805
 21
439.8654892089
  0
LINE
  5
4B4
100
AcDbEntity
  8
_0-2_
  6
CONTINUOUS
 62
     0
100
AcDbLine
 10
329.768804
 20
595.8677360341
 11
329.768804
 21
433.2461032089
  0
CIRCLE
  5
4B5
100
AcDbEntity
  8
_0-2_
  6
CONTINUOUS
 62
     0
100
AcDbCircle
 10
354.4319521343
 20
567.0094984359
 40
6
  0
LINE
  5
4B6
100
AcDbEntity
  8
_0-2_
  6
CONTINUOUS
 62
     0
100
AcDbLine
 10
371.1123991343
 20
595.9008784359
 11
357.4319521343
 21
572.2056514359
  0
CIRCLE
  5
4B7
100
AcDbEntity
  8
_0-2_
  6
CONTINUOUS
 62
     0
100
AcDbCircle
 10
371.1123991343
 20
595.9008784359
 40
0.9
  0
TEXT
  5
4B8
100
AcDbEntity
  8
_0-2_
  6
CONTINUOUS
 62
     0
100
AcDbText
 10
352.0966938834
 20
561.3916456739
 40
9
  1
3
  7
STANDARD
100
AcDbText
  0
LINE
  5
4B9
100
AcDbEntity
  8
_0-2_
  6
CONTINUOUS
 62
     0
100
AcDbLine
 10
359.7511307143
 20
603.6265070341
 11
359.7647759276
 21
623.594933588
  0
LINE
  5
4BA
100
AcDbEntity
  8
_0-2_
  6
CONTINUOUS
 62
     0
100
AcDbLine
 10
356.7511307143
 20
603.6265070341
 11
356.7647759276
 21
625.058196584
  0
LINE
  5
4BB
100
AcDbEntity
  8
_0-0_
  6
CONTINUOUS
 62
     0
100
AcDbLine
 10
487.1539961598
 20
475.004553481
 11
454.768804
 21
595.8677360341
  0
LINE
  5
4BC
100
AcDbEntity
  8
_0-0_
  6
CONTINUOUS
 62
     0
100
AcDbLine
 10
488.1199219861
 20
475.2633725261
 11
455.5360701169
 21
596.8679632079
  0
LINE
  5
4BD
100
AcDbEntity
  8
_0-1_PRO0
  6
CONTINUOUS
 62
     0
100
AcDbLine
 10
454.768804
 20
409.7559858101
 11
454.768804
 21
595.8677360341
  0
LINE
  5
4BE
100
AcDbEntity
  8
_0-1_PRO0
  6
CONTINUOUS
 62
     0
100
AcDbLine
 10
454.768804
 20
595.8677360341
 11
329.768804
 21
595.8677360341
  0
LINE
  5
4BF
100
AcDbEntity
  8
_0-1_PRO0
  6
CONTINUOUS
 62
     0
100
AcDbLine
 10
400.7511311181
 20
596.860072402
 11
455.5360701169
 21
596.8679632079
  0
CIRCLE
  5
4C0
100
AcDbEntity
  8
_0-0_
  6
CONTINUOUS
 62
     0
100
AcDbCircle
 10
504.7187050662
 20
566.9408946578
 40
6
  0
LINE
  5
4C1
100
AcDbEntity
  8
_0-0_
  6
CONTINUOUS
 62
     0
100
AcDbLine
 10
476.7506912499
 20
518.498873741
 11
501.7187050662
 21
561.744742235
  0
CIRCLE
  5
4C2
100
AcDbEntity
  8
_0-0_
  6
CONTINUOUS
 62
     0
100
AcDbCircle
 10
476.7506912499
 20
518.498873741
 40
0.9
  0
TEXT
  5
4C3
100
AcDbEntity
  8
_0-0_
  6
CONTINUOUS
 62
     0
100
AcDbText
 10
500.1886673271
 20
562.845700121
 40
9
  1
９
  7
STANDARD
100
AcDbText
  0
LINE
  5
4C4
100
AcDbEntity
  8
_0-2_
  6
CONTINUOUS
 62
     0
100
AcDbLine
 10
389.4013115441
 20
645.1663995546
 11
366.4328315441
 21
643.9626735546
  0
LINE
  5
4C5
100
AcDbEntity
  8
_0-2_
  6
CONTINUOUS
 62
     0
100
AcDbLine
 10
402.8488805441
 20
632.9494905546
 11
389.4013115441
 21
645.1663995546
  0
LINE
  5
4C6
100
AcDbEntity
  8
_0-2_
  6
CONTINUOUS
 62
     0
100
AcDbLine
 10
406.6977035441
 20
635.1561165546
 11
406.0364675441
 21
635.6064165546
  0
LINE
  5
4C7
100
AcDbEntity
  8
_0-2_
  6
CONTINUOUS
 62
     0
100
AcDbLine
 10
406.0364675441
 20
635.6064165546
 11
404.3478515441
 21
633.1267845546
  0
LINE
  5
4C8
100
AcDbEntity
  8
_0-2_
  6
CONTINUOUS
 62
     0
100
AcDbLine
 10
406.6977035441
 20
635.1561165546
 11
405.0090875441
 21
632.6764845546
  0
ARC
  5
4C9
100
AcDbEntity
  8
_0-2_
  6
CONTINUOUS
 62
     0
100
AcDbCircle
 10
403.5213095441
 20
633.6896565546
 40
0.999999
100
AcDbArc
 50
-132.254652
 51
-34.25465800001
  0
ARC
  5
4CA
100
AcDbEntity
  8
_0-2_
  6
CONTINUOUS
 62
     0
100
AcDbCircle
 10
403.5213095441
 20
633.6896565546
 40
1.8
100
AcDbArc
 50
-132.254651
 51
-34.254658
  0
ARC
  5
4CB
100
AcDbEntity
  8
_0-2_
  6
CONTINUOUS
 62
     0
100
AcDbCircle
 10
377.9955755441
 20
643.0665915546
 40
6.3
100
AcDbArc
 50
43.903458
 51
142.096542
  0
LINE
  5
4CC
100
AcDbEntity
  8
_0-2_
  6
CONTINUOUS
 62
     0
100
AcDbLine
 10
383.0910245441
 20
646.1530785546
 11
383.1598775441
 21
644.8393005546
  0
LINE
  5
4CD
100
AcDbEntity
  8
_0-2_
  6
CONTINUOUS
 62
     0
100
AcDbLine
 10
372.6054155441
 20
645.6035505546
 11
372.6742655441
 21
644.2897725546
  0
ARC
  5
4CE
100
AcDbEntity
  8
_0-2_
  6
CONTINUOUS
 62
     0
100
AcDbCircle
 10
381.0937655441
 20
646.0484085546
 40
2.000001
100
AcDbArc
 50
2.999999999999
 51
43.903458
  0
LINE
  5
4CF
100
AcDbEntity
  8
_0-2_
  6
CONTINUOUS
 62
     0
100
AcDbLine
 10
402.3109415441
 20
632.3573595546
 11
389.1101825441
 21
644.3500455546
  0
LINE
  5
4D0
100
AcDbEntity
  8
_0-2_
  6
CONTINUOUS
 62
     0
100
AcDbLine
 10
389.1101825441
 20
644.3500455546
 11
366.7668545441
 21
643.1790795546
  0
LINE
  5
4D1
100
AcDbEntity
  8
_0-2_
  6
CONTINUOUS
 62
     0
100
AcDbLine
 10
354.9328325441
 20
629.8743795546
 11
366.8076995441
 21
643.1812215546
  0
ARC
  5
4D2
100
AcDbEntity
  8
_0-2_
  6
CONTINUOUS
 62
     0
100
AcDbCircle
 10
374.6026745441
 20
645.7082235546
 40
2.000001
100
AcDbArc
 50
142.096542
 51
183
  0
LINE
  5
4D3
100
AcDbEntity
  8
_0-2_
  6
CONTINUOUS
 62
     0
100
AcDbLine
 10
350.2775495441
 20
632.1992625546
 11
350.8880945441
 21
632.7162105546
  0
LINE
  5
4D4
100
AcDbEntity
  8
_0-2_
  6
CONTINUOUS
 62
     0
100
AcDbLine
 10
350.8880945441
 20
632.7162105546
 11
352.8266525441
 21
630.4266705546
  0
LINE
  5
4D5
100
AcDbEntity
  8
_0-2_
  6
CONTINUOUS
 62
     0
100
AcDbLine
 10
350.2775495441
 20
632.1992625546
 11
352.2161075441
 21
629.9097225546
  0
ARC
  5
4D6
100
AcDbEntity
  8
_0-2_
  6
CONTINUOUS
 62
     0
100
AcDbCircle
 10
353.5898315441
 20
631.0728585546
 40
0.999999
100
AcDbArc
 50
-139.745342
 51
-41.745348
  0
LINE
  5
4D7
100
AcDbEntity
  8
_0-2_
  6
CONTINUOUS
 62
     0
100
AcDbLine
 10
354.3359435441
 20
630.4070355546
 11
366.4328315441
 21
643.9626735546
  0
ARC
  5
4D8
100
AcDbEntity
  8
_0-2_
  6
CONTINUOUS
 62
     0
100
AcDbCircle
 10
353.5898315441
 20
631.0728585546
 40
1.8
100
AcDbArc
 50
-139.745342
 51
-41.745349
  0
LINE
  5
4D9
100
AcDbEntity
  8
_0-2_
  6
CONTINUOUS
 62
     0
100
AcDbLine
 10
377.6105735441
 20
650.4128865546
 11
379.7568411909
 21
611.745989619
  0
LINE
  5
4DA
100
AcDbEntity
  8
_0-2_
  6
CONTINUOUS
 62
     0
100
AcDbLine
 10
374.9211815441
 20
644.4075285546
 11
376.6228031794
 21
614.9562227442
  0
LINE
  5
4DB
100
AcDbEntity
  8
_0-2_
  6
CONTINUOUS
 62
     0
100
AcDbLine
 10
380.9129615441
 20
644.7215445546
 11
382.6145792541
 21
615.2702381535
  0
LINE
  5
4DC
100
AcDbEntity
  8
_0-2_
  6
CONTINUOUS
 62
     0
100
AcDbLine
 10
382.6145792541
 20
615.2702381535
 11
376.6228031794
 21
614.9562227442
  0
LINE
  5
4DD
100
AcDbEntity
  8
_0-2_
  6
CONTINUOUS
 62
     0
100
AcDbLine
 10
375.4204985441
 20
644.4336975546
 11
377.1509572633
 21
614.4832159313
  0
LINE
  5
4DE
100
AcDbEntity
  8
_0-2_
  6
CONTINUOUS
 62
     0
100
AcDbLine
 10
380.4136445441
 20
644.6953755546
 11
382.1441074249
 21
614.744895619
  0
LINE
  5
4DF
100
AcDbEntity
  8
_0-2_
  6
CONTINUOUS
 62
     0
100
AcDbLine
 10
382.1441074249
 20
614.744895619
 11
377.1509572633
 21
614.4832159313
  0
LINE
  5
4E0
100
AcDbEntity
  8
_0-2_
  6
CONTINUOUS
 62
     0
100
AcDbLine
 10
376.9438448916
 20
614.6687026403
 11
377.1509572633
 21
614.4832159313
  0
LINE
  5
4E1
100
AcDbEntity
  8
_0-2_
  6
CONTINUOUS
 62
     0
100
AcDbLine
 10
382.1441074249
 20
614.744895619
 11
382.328600386
 21
614.9509058278
  0
LINE
  5
4E2
100
AcDbEntity
  8
_0-2_
  6
CONTINUOUS
 62
     0
100
AcDbLine
 10
376.6228031794
 20
614.9562227442
 11
376.9438448916
 21
614.6687026403
  0
LINE
  5
4E3
100
AcDbEntity
  8
_0-2_
  6
CONTINUOUS
 62
     0
100
AcDbLine
 10
382.328600386
 20
614.9509058278
 11
382.6145792541
 21
615.2702381535
  0
TEXT
  5
4E4
100
AcDbEntity
  8
_0-0_
  6
CONTINUOUS
 62
     0
100
AcDbText
 10
416.5609660336
 20
303.339683929
 40
7.5
  1
ｔ１．０×ｗ３０
 41
0.9986666666667
  7
STANDARD
100
AcDbText
  0
TEXT
  5
4E5
100
AcDbEntity
  8
_0-0_
  6
CONTINUOUS
 62
     0
100
AcDbText
 10
413.4359660336
 20
339.339683929
 40
7.49
  1
３５０ＦＹＹＧ－Ｓ１０００～１０５０
 41
1.001335113485
  7
STANDARD
100
AcDbText
  0
TEXT
  5
4E6
100
AcDbEntity
  8
_0-0_
  6
CONTINUOUS
 62
     0
100
AcDbText
 10
413.4359660336
 20
285.339683929
 40
7.5
  1
３５０ＦＹＹＨ－１０００～１０５０
  7
STANDARD
100
AcDbText
  0
TEXT
  5
4E7
100
AcDbEntity
  8
_0-0_
  6
CONTINUOUS
 62
     0
100
AcDbText
 10
413.4359660336
 20
231.339683929
 40
7.5
  1
３５０ＦＹＹＪ－１０００～１０５０
  7
STANDARD
100
AcDbText
  0
TEXT
  5
4E8
100
AcDbEntity
  8
_0-0_
  6
CONTINUOUS
 62
     0
100
AcDbText
 10
416.2484660336
 20
195.339683929
 40
7.5
  1
ＦＳ１２００
  7
STANDARD
100
AcDbText
  0
TEXT
  5
4E9
100
AcDbEntity
  8
_0-0_
  6
CONTINUOUS
 62
     0
100
AcDbText
 10
416.5609660336
 20
177.339683929
 40
7.5
  1
なべＭ６×３５
 41
0.9986666666667
  7
STANDARD
100
AcDbText
  0
TEXT
  5
4EA
100
AcDbEntity
  8
_0-0_
  6
CONTINUOUS
 62
     0
100
AcDbText
 10
417.8109660336
 20
159.339683929
 40
7.5
  1
Ｍ６×４０
 41
0.9986666666667
  7
STANDARD
100
AcDbText
  0
TEXT
  5
4EB
100
AcDbEntity
  8
_0-0_
  6
CONTINUOUS
 62
     0
100
AcDbText
 10
417.1859660336
 20
141.339683929
 40
7.5
  1
ＡＧ－６６０
  7
STANDARD
100
AcDbText
  0
TEXT
  5
4EC
100
AcDbEntity
  8
_0-0_
  6
CONTINUOUS
 62
     0
100
AcDbText
 10
415.6234660336
 20
123.339683929
 40
7.5
  1
１．５×１８×６．５穴
 41
0.9986666666667
  7
STANDARD
100
AcDbText
  0
TEXT
  5
4ED
100
AcDbEntity
  8
_0-1_PRO0
  6
CONTINUOUS
 62
     0
100
AcDbText
 10
1018.919035741
 20
391.9352836289
 40
9
  1
２００
 41
0.7377777777778
  7
STANDARD
100
AcDbText
  0
TEXT
  5
4EE
100
AcDbEntity
  8
_0-0_
  6
CONTINUOUS
 62
     0
100
AcDbText
 10
569.0500139768
 20
357.549616334
 40
7.49
  1
定尺(mm)
  7
STANDARD
100
AcDbText
  0
TEXT
  5
4EF
100
AcDbEntity
  8
_0-0_
  6
CONTINUOUS
 62
     0
100
AcDbText
 10
567.8900444441
 20
339.339683929
 40
7.49
  1
２０００
  7
STANDARD
100
AcDbText
  0
TEXT
  5
4F0
100
AcDbEntity
  8
_0-0_
  6
CONTINUOUS
 62
     0
100
AcDbText
 10
567.8900444441
 20
321.339683929
 40
7.49
  1
２０００
  7
STANDARD
100
AcDbText
  0
TEXT
  5
4F1
100
AcDbEntity
  8
_0-0_
  6
CONTINUOUS
 62
     0
100
AcDbText
 10
567.8900444441
 20
303.339683929
 40
7.5
  1
６０００
 41
0.9986666666667
  7
STANDARD
100
AcDbText
  0
TEXT
  5
4F2
100
AcDbEntity
  8
_0-0_
  6
CONTINUOUS
 62
     0
100
AcDbText
 10
567.7536666322
 20
287.5632404971
 40
7.49
  1
２０１０
  7
STANDARD
100
AcDbText
  0
TEXT
  5
4F3
100
AcDbEntity
  8
_0-0_
  6
CONTINUOUS
 62
     0
100
AcDbText
 10
568.0950607582
 20
214.6848790899
 40
7.5
  1
２０６０
 41
0.9986666666667
  7
STANDARD
100
AcDbText
  0
TEXT
  5
4F4
100
AcDbEntity
  8
_0-0_
  6
CONTINUOUS
 62
     0
100
AcDbText
 10
567.8900444441
 20
195.339683929
 40
7.5
  1
２１００
 41
0.9986666666667
  7
STANDARD
100
AcDbText
  0
TEXT
  5
4F5
100
AcDbEntity
  8
_0-0_
  6
CONTINUOUS
 62
     0
100
AcDbText
 10
614.4043082286
 20
177.339683929
 40
7.5
  1
１０
  7
STANDARD
100
AcDbText
  0
TEXT
  5
4F6
100
AcDbEntity
  8
_0-0_
  6
CONTINUOUS
 62
     0
100
AcDbText
 10
614.4043082286
 20
159.339683929
 40
7.5
  1
１０
  7
STANDARD
100
AcDbText
  0
TEXT
  5
4F7
100
AcDbEntity
  8
_0-0_
  6
CONTINUOUS
 62
     0
100
AcDbText
 10
614.4043082286
 20
141.339683929
 40
7.5
  1
１０
  7
STANDARD
100
AcDbText
  0
TEXT
  5
4F8
100
AcDbEntity
  8
_0-0_
  6
CONTINUOUS
 62
     0
100
AcDbText
 10
614.4043082286
 20
123.339683929
 40
7.5
  1
１０
  7
STANDARD
100
AcDbText
  0
TEXT
  5
4F9
100
AcDbEntity
  8
_0-0_
  6
CONTINUOUS
 62
     0
100
AcDbText
 10
618.4265965679
 20
339.339683929
 40
7.49
  1
１
 41
1.001335113485
  7
STANDARD
100
AcDbText
  0
TEXT
  5
4FA
100
AcDbEntity
  8
_0-0_
  6
CONTINUOUS
 62
     0
100
AcDbText
 10
618.4265965679
 20
321.339683929
 40
7.49
  1
２
 41
1.001335113485
  7
STANDARD
100
AcDbText
  0
TEXT
  5
4FB
100
AcDbEntity
  8
_0-0_
  6
CONTINUOUS
 62
     0
100
AcDbText
 10
618.4265965679
 20
303.339683929
 40
7.49
  1
２
 41
1.001335113485
  7
STANDARD
100
AcDbText
  0
TEXT
  5
4FC
100
AcDbEntity
  8
_0-0_
  6
CONTINUOUS
 62
     0
100
AcDbText
 10
618.4265965679
 20
285.339683929
 40
7.5
  1
４
  7
STANDARD
100
AcDbText
  0
TEXT
  5
4FD
100
AcDbEntity
  8
_0-0_
  6
CONTINUOUS
 62
     0
100
AcDbText
 10
618.4265965679
 20
267.339683929
 40
7.5
  1
８
  7
STANDARD
100
AcDbText
  0
TEXT
  5
4FE
100
AcDbEntity
  8
_0-0_
  6
CONTINUOUS
 62
     0
100
AcDbText
 10
618.4265965679
 20
249.339683929
 40
7.5
  1
８
  7
STANDARD
100
AcDbText
  0
TEXT
  5
4FF
100
AcDbEntity
  8
_0-0_
  6
CONTINUOUS
 62
     0
100
AcDbText
 10
618.4265965679
 20
231.339683929
 40
7.5
  1
１
  7
STANDARD
100
AcDbText
  0
TEXT
  5
500
100
AcDbEntity
  8
_0-0_
  6
CONTINUOUS
 62
     0
100
AcDbText
 10
619.256612882
 20
214.6848790899
 40
7.5
  1
２
 41
0.9986666666667
  7
STANDARD
100
AcDbText
  0
TEXT
  5
501
100
AcDbEntity
  8
_0-0_
  6
CONTINUOUS
 62
     0
100
AcDbText
 10
618.4265965679
 20
195.339683929
 40
7.5
  1
１
  7
STANDARD
100
AcDbText
  0
TEXT
  5
502
100
AcDbEntity
  8
_0-0_
  6
CONTINUOUS
 62
     0
100
AcDbText
 10
615.7075978681
 20
357.1851039599
 40
7.49
  1
入数
  7
STANDARD
100
AcDbText
  0
TEXT
  5
503
100
AcDbEntity
  8
_0-0_
  6
CONTINUOUS
 62
     0
100
AcDbText
 10
639.0363898137
 20
357.549616334
 40
7.49
  1
単位
  7
STANDARD
100
AcDbText
  0
TEXT
  5
504
100
AcDbEntity
  8
_0-0_
  6
CONTINUOUS
 62
     0
100
AcDbText
 10
696.6234660336
 20
341.3551779143
 40
7.49
  1
３５０ＦＹＹＧ－Ｓ１０００
  7
STANDARD
100
AcDbText
  0
TEXT
  5
505
100
AcDbEntity
  8
_0-0_
  6
CONTINUOUS
 62
     0
100
AcDbText
 10
715.5087811734
 20
321.2633495775
 40
7.5
  1
 　　〃　　　１０５０
  7
STANDARD
100
AcDbText
  0
TEXT
  5
506
100
AcDbEntity
  8
_0-0_
  6
CONTINUOUS
 62
     0
100
AcDbText
 10
807.0432362596
 20
340.6443694044
 40
7.5
  1
１０００
  7
STANDARD
100
AcDbText
  0
TEXT
  5
507
100
AcDbEntity
  8
_0-0_
  6
CONTINUOUS
 62
     0
100
AcDbText
 10
807.0432362596
 20
321.4968558404
 40
7.5
  1
１０５０
  7
STANDARD
100
AcDbText
  0
LINE
  5
508
100
AcDbEntity
  8
_0-0_
  6
CONTINUOUS
 62
     0
100
AcDbLine
 10
686.9984660336
 20
371.464683929
 11
686.9984660336
 21
317.464683929
  0
LINE
  5
509
100
AcDbEntity
  8
_0-0_
  6
CONTINUOUS
 62
     0
100
AcDbLine
 10
799.4984660336
 20
371.464683929
 11
799.4984660336
 21
317.464683929
  0
LINE
  5
50A
100
AcDbEntity
  8
_0-0_
  6
CONTINUOUS
 62
     0
100
AcDbLine
 10
844.4984660336
 20
371.464683929
 11
844.4984660336
 21
317.464683929
  0
LINE
  5
50B
100
AcDbEntity
  8
_0-0_
  6
CONTINUOUS
 62
     0
100
AcDbLine
 10
889.4984660336
 20
371.464683929
 11
889.4984660336
 21
317.464683929
  0
LINE
  5
50C
100
AcDbEntity
  8
_0-1_PRO0
  6
CONTINUOUS
 62
     0
100
AcDbLine
 10
606.2833036628
 20
-267.0771689787
 11
606.3981096628
 21
-268.7940129787
  0
LINE
  5
50D
100
AcDbEntity
  8
_0-1_PRO0
  6
CONTINUOUS
 62
     0
100
AcDbLine
 10
596.2970076628
 20
-267.6005289787
 11
596.4118146628
 21
-269.3173729787
  0
LINE
  5
50E
100
AcDbEntity
  8
_0-1_PRO0
  6
CONTINUOUS
 62
     0
100
AcDbLine
 10
599.7258066628
 20
-267.4208329787
 11
597.9076606628
 21
-269.2389789787
  0
LINE
  5
50F
100
AcDbEntity
  8
_0-1_PRO0
  6
CONTINUOUS
 62
     0
100
AcDbLine
 10
601.2182346628
 20
-267.3426179787
 11
599.4000886628
 21
-269.1607639787
  0
LINE
  5
510
100
AcDbEntity
  8
_0-1_PRO0
  6
CONTINUOUS
 62
     0
100
AcDbLine
 10
602.7106636628
 20
-267.2644029787
 11
600.8925176628
 21
-269.0825489787
  0
LINE
  5
511
100
AcDbEntity
  8
_0-1_PRO0
  6
CONTINUOUS
 62
     0
100
AcDbLine
 10
604.2030916628
 20
-267.1861879787
 11
602.3849456628
 21
-269.0043339787
  0
LINE
  5
512
100
AcDbEntity
  8
_0-1_PRO0
  6
CONTINUOUS
 62
     0
100
AcDbLine
 10
605.6955196628
 20
-267.1079729787
 11
603.8773746628
 21
-268.9261189787
  0
LINE
  5
513
100
AcDbEntity
  8
_0-1_PRO0
  6
CONTINUOUS
 62
     0
100
AcDbLine
 10
605.3698026628
 20
-268.8479039787
 11
606.3370346628
 21
-267.8806729787
  0
LINE
  5
514
100
AcDbEntity
  8
_0-1_PRO0
  6
CONTINUOUS
 62
     0
100
AcDbLine
 10
598.2333776628
 20
-267.4990479787
 11
596.4152326628
 21
-269.3171929787
  0
LINE
  5
515
100
AcDbEntity
  8
_0-1_PRO0
  6
CONTINUOUS
 62
     0
100
AcDbLine
 10
596.7409496628
 20
-267.5772629787
 11
596.3233756628
 21
-267.9948359787
  0
LINE
  5
516
100
AcDbEntity
  8
_0-1_PRO0
  6
CONTINUOUS
 62
     0
100
AcDbLine
 10
619.7675236628
 20
-267.0771689787
 11
619.6527176628
 21
-268.7940129787
  0
LINE
  5
517
100
AcDbEntity
  8
_0-1_PRO0
  6
CONTINUOUS
 62
     0
100
AcDbLine
 10
629.7538196628
 20
-267.6005289787
 11
629.6390126628
 21
-269.3173729787
  0
LINE
  5
518
100
AcDbEntity
  8
_0-1_PRO0
  6
CONTINUOUS
 62
     0
100
AcDbLine
 10
626.3250206628
 20
-267.4208329787
 11
628.1431666628
 21
-269.2389789787
  0
LINE
  5
519
100
AcDbEntity
  8
_0-1_PRO0
  6
CONTINUOUS
 62
     0
100
AcDbLine
 10
624.8325926628
 20
-267.3426179787
 11
626.6507386628
 21
-269.1607639787
  0
LINE
  5
51A
100
AcDbEntity
  8
_0-1_PRO0
  6
CONTINUOUS
 62
     0
100
AcDbLine
 10
623.3401636628
 20
-267.2644029787
 11
625.1583096628
 21
-269.0825489787
  0
LINE
  5
51B
100
AcDbEntity
  8
_0-1_PRO0
  6
CONTINUOUS
 62
     0
100
AcDbLine
 10
621.8477356628
 20
-267.1861879787
 11
623.6658816628
 21
-269.0043339787
  0
LINE
  5
51C
100
AcDbEntity
  8
_0-1_PRO0
  6
CONTINUOUS
 62
     0
100
AcDbLine
 10
620.3553076628
 20
-267.1079729787
 11
622.1734526628
 21
-268.9261189787
  0
LINE
  5
51D
100
AcDbEntity
  8
_0-1_PRO0
  6
CONTINUOUS
 62
     0
100
AcDbLine
 10
620.6810246628
 20
-268.8479039787
 11
619.7137926628
 21
-267.8806729787
  0
LINE
  5
51E
100
AcDbEntity
  8
_0-1_PRO0
  6
CONTINUOUS
 62
     0
100
AcDbLine
 10
627.8174496628
 20
-267.4990479787
 11
629.6355946628
 21
-269.3171929787
  0
LINE
  5
51F
100
AcDbEntity
  8
_0-1_PRO0
  6
CONTINUOUS
 62
     0
100
AcDbLine
 10
629.3098776628
 20
-267.5772629787
 11
629.7274516628
 21
-267.9948359787
  0
LINE
  5
520
100
AcDbEntity
  8
_0-1_PRO0
  6
CONTINUOUS
 62
     0
100
AcDbLine
 10
613.0254136628
 20
-519.2366931914
 11
613.0254136628
 21
-252.4522319787
  0
TEXT
  5
521
100
AcDbEntity
  8
_0-1_PRO0
  6
CONTINUOUS
 62
     0
100
AcDbText
 10
609.0150180905
 20
-191.1854342944
 40
9
  1
Ｗ
 41
0.7377777777778
  7
STANDARD
100
AcDbText
  0
LINE
  5
522
100
AcDbEntity
  8
_0-2_
  6
CONTINUOUS
 62
     0
100
AcDbLine
 10
354.7514316628
 20
-277.0079044171
 11
414.7514316628
 21
-273.8634394171
  0
LINE
  5
523
100
AcDbEntity
  8
_0-2_
  6
CONTINUOUS
 62
     0
100
AcDbLine
 10
354.7514316628
 20
-273.8634394171
 11
414.7514316628
 21
-273.8634394171
  0
TEXT
  5
524
100
AcDbEntity
  8
_0-2_
  6
CONTINUOUS
 62
     0
100
AcDbText
 10
350.3684847332
 20
-273.4305121398
 40
9
  1
（勾配３度）
  7
STANDARD
100
AcDbText
  0
LINE
  5
525
100
AcDbEntity
  8
_0-2_
  6
CONTINUOUS
 62
     0
100
AcDbLine
 10
354.7514316628
 20
-273.8634394171
 11
354.7514316628
 21
-277.0079044171
  0
LINE
  5
526
100
AcDbEntity
  8
_0-1_PRO0
  6
CONTINUOUS
 62
     0
100
AcDbLine
 10
813.0254136628
 20
-543.1631171914
 11
819.0254136628
 21
-541.6631171914
  0
LINE
  5
527
100
AcDbEntity
  8
_0-1_PRO0
  6
CONTINUOUS
 62
     0
100
AcDbLine
 10
813.0254136628
 20
-543.1631171914
 11
819.0254136628
 21
-544.6631171914
  0
LINE
  5
528
100
AcDbEntity
  8
_0-1_PRO0
  6
CONTINUOUS
 62
     0
100
AcDbLine
 10
813.0254136628
 20
-524.6672771914
 11
813.0254136628
 21
-549.1631171914
  0
LINE
  5
529
100
AcDbEntity
  8
_0-1_PRO0
  6
CONTINUOUS
 62
     0
100
AcDbLine
 10
813.0254136628
 20
-543.1631171914
 11
807.0254136628
 21
-544.6631171914
  0
LINE
  5
52A
100
AcDbEntity
  8
_0-1_PRO0
  6
CONTINUOUS
 62
     0
100
AcDbLine
 10
813.0254136628
 20
-543.1631171914
 11
807.0254136628
 21
-541.6631171914
  0
LINE
  5
52B
100
AcDbEntity
  8
_0-1_PRO0
  6
CONTINUOUS
 62
     0
100
AcDbLine
 10
1139.819433663
 20
-298.8381099561
 11
612.9992456628
 21
-271.2286339787
  0
LINE
  5
52C
100
AcDbEntity
  8
_0-1_PRO0
  6
CONTINUOUS
 62
     0
100
AcDbLine
 10
1133.790341663
 20
-295.7388239561
 11
613.0254136628
 21
-268.4466909787
  0
LINE
  5
52D
100
AcDbEntity
  8
_0-1_PRO0
  6
CONTINUOUS
 62
     0
100
AcDbLine
 10
1133.554829663
 20
-300.2326569561
 11
613.0254136628
 21
-272.9528659787
  0
LINE
  5
52E
100
AcDbEntity
  8
_0-1_PRO0
  6
CONTINUOUS
 62
     0
100
AcDbLine
 10
1133.476325663
 20
-301.7306009561
 11
613.0254136628
 21
-274.4549249787
  0
LINE
  5
52F
100
AcDbEntity
  8
_0-1_PRO0
  6
CONTINUOUS
 62
     0
100
AcDbLine
 10
1132.706987663
 20
-316.4104559561
 11
613.0254136628
 21
-289.1750979787
  0
LINE
  5
530
100
AcDbEntity
  8
_0-1_PRO0
  6
CONTINUOUS
 62
     0
100
AcDbLine
 10
1132.612782663
 20
-318.2079889561
 11
613.0254136628
 21
-290.9775689787
  0
LINE
  5
531
100
AcDbEntity
  8
_0-1_PRO0
  6
CONTINUOUS
 62
     0
100
AcDbLine
 10
1132.455774663
 20
-321.2038769561
 11
613.0254136628
 21
-293.9816859787
  0
LINE
  5
532
100
AcDbEntity
  8
_0-1_PRO0
  6
CONTINUOUS
 62
     0
100
AcDbLine
 10
1132.377270663
 20
-322.7018219561
 11
613.0254136628
 21
-295.4837439787
  0
LINE
  5
533
100
AcDbEntity
  8
_0-1_PRO0
  6
CONTINUOUS
 62
     0
100
AcDbLine
 10
1132.324934663
 20
-323.7004509561
 11
613.0254136628
 21
-296.4851159787
  0
LINE
  5
534
100
AcDbEntity
  8
_0-1_PRO0
  6
CONTINUOUS
 62
     0
100
AcDbLine
 10
1160.182421663
 20
-293.3963689561
 11
613.0254136628
 21
-264.7210849787
  0
ARC
  5
535
100
AcDbEntity
  8
_0-1_PRO0
  6
CONTINUOUS
 62
     0
100
AcDbCircle
 10
1139.864252663
 20
-301.8445759561
 40
7.5
100
AcDbArc
 50
10.124672
 51
87
  0
LINE
  5
536
100
AcDbEntity
  8
_0-1_PRO0
  6
CONTINUOUS
 62
     0
100
AcDbLine
 10
1126.784900663
 20
-293.6488239561
 11
1125.147834663
 21
-295.2858899561
  0
LINE
  5
537
100
AcDbEntity
  8
_0-1_PRO0
  6
CONTINUOUS
 62
     0
100
AcDbLine
 10
1128.128688663
 20
-293.7192489561
 11
1126.491623663
 21
-295.3563149561
  0
LINE
  5
538
100
AcDbEntity
  8
_0-1_PRO0
  6
CONTINUOUS
 62
     0
100
AcDbLine
 10
1129.472477663
 20
-293.7896739561
 11
1127.835411663
 21
-295.4267399561
  0
LINE
  5
539
100
AcDbEntity
  8
_0-1_PRO0
  6
CONTINUOUS
 62
     0
100
AcDbLine
 10
1130.816266663
 20
-293.8600989561
 11
1129.179200663
 21
-295.4971649561
  0
LINE
  5
53A
100
AcDbEntity
  8
_0-1_PRO0
  6
CONTINUOUS
 62
     0
100
AcDbLine
 10
1132.160054663
 20
-293.9305239561
 11
1130.522989663
 21
-295.5675889561
  0
LINE
  5
53B
100
AcDbEntity
  8
_0-1_PRO0
  6
CONTINUOUS
 62
     0
100
AcDbLine
 10
1133.503843663
 20
-294.0009489561
 11
1131.866777663
 21
-295.6380139561
  0
LINE
  5
53C
100
AcDbEntity
  8
_0-1_PRO0
  6
CONTINUOUS
 62
     0
100
AcDbLine
 10
1133.210566663
 20
-295.7084389561
 11
1133.824087663
 21
-295.0949189561
  0
LINE
  5
53D
100
AcDbEntity
  8
_0-1_PRO0
  6
CONTINUOUS
 62
     0
100
AcDbLine
 10
1125.451862663
 20
-293.5789619561
 11
1123.814796663
 21
-295.2160279561
  0
LINE
  5
53E
100
AcDbEntity
  8
_0-1_PRO0
  6
CONTINUOUS
 62
     0
100
AcDbLine
 10
1124.097323663
 20
-293.5079739561
 11
1123.882260663
 21
-293.7230359561
  0
ARC
  5
53F
100
AcDbEntity
  8
_0-1_PRO0
  6
CONTINUOUS
 62
     0
100
AcDbCircle
 10
1160.025413663
 20
-380.5453639561
 40
3
100
AcDbArc
 50
-90
 51
0
  0
LINE
  5
540
100
AcDbEntity
  8
_0-1_PRO0
  6
CONTINUOUS
 62
     0
100
AcDbLine
 10
1160.025413663
 20
-383.5453639561
 11
1153.025413663
 21
-383.5453639561
  0
ARC
  5
541
100
AcDbEntity
  8
_0-1_PRO0
  6
CONTINUOUS
 62
     0
100
AcDbCircle
 10
1160.025413663
 20
-296.3922579561
 40
3
100
AcDbArc
 50
0
 51
87
  0
LINE
  5
542
100
AcDbEntity
  8
_0-1_PRO0
  6
CONTINUOUS
 62
     0
100
AcDbLine
 10
1163.025413663
 20
-296.3922579561
 11
1163.025413663
 21
-380.5453639561
  0
LINE
  5
543
100
AcDbEntity
  8
_0-1_PRO0
  6
CONTINUOUS
 62
     0
100
AcDbLine
 10
1147.247458663
 20
-300.5261459561
 11
1161.025413663
 21
-377.6826939561
  0
LINE
  5
544
100
AcDbEntity
  8
_0-1_PRO0
  6
CONTINUOUS
 62
     0
100
AcDbLine
 10
1142.817534663
 20
-301.3172039561
 11
1156.594220663
 21
-378.4666419561
  0
ARC
  5
545
100
AcDbEntity
  8
_0-1_PRO0
  6
CONTINUOUS
 62
     0
100
AcDbCircle
 10
1139.864252663
 20
-301.8445759561
 40
3
100
AcDbArc
 50
10.124672
 51
87
  0
LINE
  5
546
100
AcDbEntity
  8
_0-1_PRO0
  6
CONTINUOUS
 62
     0
100
AcDbLine
 10
1156.108115663
 20
-370.7453639561
 11
1146.857939663
 21
-370.7453639561
  0
ARC
  5
547
100
AcDbEntity
  8
_0-1_PRO0
  6
CONTINUOUS
 62
     0
100
AcDbCircle
 10
1156.108115663
 20
-371.2453639561
 40
0.5
100
AcDbArc
 50
12
 51
90
  0
LINE
  5
548
100
AcDbEntity
  8
_0-1_PRO0
  6
CONTINUOUS
 62
     0
100
AcDbLine
 10
1156.597189663
 20
-371.1414079561
 11
1158.025413663
 21
-377.8606769561
  0
LINE
  5
549
100
AcDbEntity
  8
_0-1_PRO0
  6
CONTINUOUS
 62
     0
100
AcDbLine
 10
1158.025413663
 20
-377.8606769561
 11
1158.025413663
 21
-381.5453639561
  0
LINE
  5
54A
100
AcDbEntity
  8
_0-1_PRO0
  6
CONTINUOUS
 62
     0
100
AcDbLine
 10
1158.525413663
 20
-381.5453639561
 11
1158.025413663
 21
-381.5453639561
  0
ARC
  5
54B
100
AcDbEntity
  8
_0-1_PRO0
  6
CONTINUOUS
 62
     0
100
AcDbCircle
 10
1158.525413663
 20
-379.0453639561
 40
2.5
100
AcDbArc
 50
-90
 51
0
  0
LINE
  5
54C
100
AcDbEntity
  8
_0-1_PRO0
  6
CONTINUOUS
 62
     0
100
AcDbLine
 10
1146.857939663
 20
-369.5453639561
 11
1149.257939663
 21
-369.5453639561
  0
LINE
  5
54D
100
AcDbEntity
  8
_0-1_PRO0
  6
CONTINUOUS
 62
     0
100
AcDbLine
 10
1151.257939663
 20
-368.5453639561
 11
1151.257939663
 21
-369.5453639561
  0
LINE
  5
54E
100
AcDbEntity
  8
_0-1_PRO0
  6
CONTINUOUS
 62
     0
100
AcDbLine
 10
1149.257939663
 20
-369.5453639561
 11
1151.257939663
 21
-368.5453639561
  0
ARC
  5
54F
100
AcDbEntity
  8
_0-1_PRO0
  6
CONTINUOUS
 62
     0
100
AcDbCircle
 10
1146.857939663
 20
-370.1453639561
 40
0.6
100
AcDbArc
 50
90
 51
270
  0
LINE
  5
550
100
AcDbEntity
  8
_0-1_PRO0
  6
CONTINUOUS
 62
     0
100
AcDbLine
 10
1155.640490663
 20
-369.5453639561
 11
1151.257939663
 21
-369.5453639561
  0
ARC
  5
551
100
AcDbEntity
  8
_0-1_PRO0
  6
CONTINUOUS
 62
     0
100
AcDbCircle
 10
1155.640490663
 20
-369.0453639561
 40
0.5
100
AcDbArc
 50
-90
 51
12
  0
ARC
  5
552
100
AcDbEntity
  8
_0-1_PRO0
  6
CONTINUOUS
 62
     0
100
AcDbCircle
 10
1134.426865663
 20
-321.8078639561
 40
0.5
100
AcDbArc
 50
86.99999999999
 51
177
  0
LINE
  5
553
100
AcDbEntity
  8
_0-1_PRO0
  6
CONTINUOUS
 62
     0
100
AcDbLine
 10
1133.927550663
 20
-321.7816959561
 11
1133.875214663
 21
-322.7803259561
  0
LINE
  5
554
100
AcDbEntity
  8
_0-1_PRO0
  6
CONTINUOUS
 62
     0
100
AcDbLine
 10
1133.349732663
 20
-323.2534719561
 11
1132.850417663
 21
-323.2273039561
  0
ARC
  5
555
100
AcDbEntity
  8
_0-1_PRO0
  6
CONTINUOUS
 62
     0
100
AcDbCircle
 10
1132.876585663
 20
-322.7279899561
 40
0.5
100
AcDbArc
 50
177
 51
267
  0
ARC
  5
556
100
AcDbEntity
  8
_0-1_PRO0
  6
CONTINUOUS
 62
     0
100
AcDbCircle
 10
1133.375900663
 20
-322.7541579561
 40
0.5
100
AcDbArc
 50
-93.00000000001
 51
-2.999999999993
  0
LINE
  5
557
100
AcDbEntity
  8
_0-1_PRO0
  6
CONTINUOUS
 62
     0
100
AcDbLine
 10
1142.128112663
 20
-321.7107829561
 11
1134.453033663
 21
-321.3085489561
  0
ARC
  5
558
100
AcDbEntity
  8
_0-1_PRO0
  6
CONTINUOUS
 62
     0
100
AcDbCircle
 10
1142.101944663
 20
-322.2100979561
 40
0.5
100
AcDbArc
 50
-13
 51
86.99999999999
  0
LINE
  5
559
100
AcDbEntity
  8
_0-1_PRO0
  6
CONTINUOUS
 62
     0
100
AcDbLine
 10
1142.589129663
 20
-322.3225729561
 11
1142.005936663
 21
-324.8486579561
  0
LINE
  5
55A
100
AcDbEntity
  8
_0-1_PRO0
  6
CONTINUOUS
 62
     0
100
AcDbLine
 10
1144.191399663
 20
-321.8189149561
 11
1145.368745663
 21
-321.8806169561
  0
ARC
  5
55B
100
AcDbEntity
  8
_0-1_PRO0
  6
CONTINUOUS
 62
     0
100
AcDbCircle
 10
1144.175698663
 20
-322.1185039561
 40
0.3
100
AcDbArc
 50
86.99999999999
 51
167
  0
LINE
  5
55C
100
AcDbEntity
  8
_0-1_PRO0
  6
CONTINUOUS
 62
     0
100
AcDbLine
 10
1143.883387663
 20
-322.0510189561
 11
1143.175180663
 21
-325.1185989561
  0
ARC
  5
55D
100
AcDbEntity
  8
_0-1_PRO0
  6
CONTINUOUS
 62
     0
100
AcDbCircle
 10
1145.316409663
 20
-322.8792469561
 40
1
100
AcDbArc
 50
12
 51
86.99999999999
  0
ARC
  5
55E
100
AcDbEntity
  8
_0-1_PRO0
  6
CONTINUOUS
 62
     0
100
AcDbCircle
 10
1142.590558663
 20
-324.9836279561
 40
0.6
100
AcDbArc
 50
167
 51
347
  0
LINE
  5
55F
100
AcDbEntity
  8
_0-1_PRO0
  6
CONTINUOUS
 62
     0
100
AcDbLine
 10
1149.069463663
 20
-321.2970409561
 11
1161.025413663
 21
-377.5453639561
  0
LINE
  5
560
100
AcDbEntity
  8
_0-1_PRO0
  6
CONTINUOUS
 62
     0
100
AcDbLine
 10
1146.294557663
 20
-322.6713349561
 11
1156.129564663
 21
-368.9414079561
  0
LINE
  5
561
100
AcDbEntity
  8
_0-1_PRO0
  6
CONTINUOUS
 62
     0
100
AcDbLine
 10
1156.594220663
 20
-378.4666419561
 11
1161.025413663
 21
-377.6826939561
  0
LINE
  5
562
100
AcDbEntity
  8
_0-1_PRO0
  6
CONTINUOUS
 62
     0
100
AcDbLine
 10
1133.880385663
 20
-294.0206819561
 11
1133.790341663
 21
-295.7388239561
  0
LINE
  5
563
100
AcDbEntity
  8
_0-1_PRO0
  6
CONTINUOUS
 62
     0
100
AcDbLine
 10
1123.894090663
 20
-293.4973229561
 11
1123.804046663
 21
-295.2154649561
  0
ARC
  5
564
100
AcDbEntity
  8
_0-1_PRO0
  6
CONTINUOUS
 62
     0
100
AcDbCircle
 10
1133.242937663
 20
-315.7375829561
 40
0.5
100
AcDbArc
 50
86.99999999999
 51
177
  0
LINE
  5
565
100
AcDbEntity
  8
_0-1_PRO0
  6
CONTINUOUS
 62
     0
100
AcDbLine
 10
1134.610041663
 20
-318.3126609561
 11
1146.292028663
 21
-318.9248879561
  0
ARC
  5
566
100
AcDbEntity
  8
_0-1_PRO0
  6
CONTINUOUS
 62
     0
100
AcDbCircle
 10
1134.636209663
 20
-317.8133459561
 40
0.5
100
AcDbArc
 50
177
 51
267
  0
LINE
  5
567
100
AcDbEntity
  8
_0-1_PRO0
  6
CONTINUOUS
 62
     0
100
AcDbLine
 10
1134.136894663
 20
-317.7871779561
 11
1134.241566663
 21
-315.7899189561
  0
ARC
  5
568
100
AcDbEntity
  8
_0-1_PRO0
  6
CONTINUOUS
 62
     0
100
AcDbCircle
 10
1133.742251663
 20
-315.7637509561
 40
0.5
100
AcDbArc
 50
-3.000000000006
 51
86.99999999999
  0
LINE
  5
569
100
AcDbEntity
  8
_0-1_PRO0
  6
CONTINUOUS
 62
     0
100
AcDbLine
 10
1133.768419663
 20
-315.2644359561
 11
1133.269105663
 21
-315.2382679561
  0
LINE
  5
56A
100
AcDbEntity
  8
_0-1_PRO0
  6
CONTINUOUS
 62
     0
100
AcDbLine
 10
1133.790341663
 20
-295.7388239561
 11
1132.324934663
 21
-323.7004509561
  0
ARC
  5
56B
100
AcDbEntity
  8
_0-1_PRO0
  6
CONTINUOUS
 62
     0
100
AcDbCircle
 10
1146.135020663
 20
-321.9207759561
 40
3
100
AcDbArc
 50
12
 51
87
  0
ARC
  5
56C
100
AcDbEntity
  8
_0-1_PRO0
  6
CONTINUOUS
 62
     0
100
AcDbCircle
 10
1104.073336663
 20
-318.2143579561
 40
1.5
100
AcDbArc
 50
87
 51
267
  0
ARC
  5
56D
100
AcDbEntity
  8
_0-0_
  6
CONTINUOUS
 62
     0
100
AcDbCircle
 10
1160.025413663
 20
-380.5453639561
 40
1.5
100
AcDbArc
 50
-90
 51
0
  0
LINE
  5
56E
100
AcDbEntity
  8
_0-0_
  6
CONTINUOUS
 62
     0
100
AcDbLine
 10
1161.525413663
 20
-296.3922579561
 11
1161.525413663
 21
-380.5453639561
  0
ARC
  5
56F
100
AcDbEntity
  8
_0-0_
  6
CONTINUOUS
 62
     0
100
AcDbCircle
 10
1160.025413663
 20
-296.3922579561
 40
1.5
100
AcDbArc
 50
0
 51
87
  0
LINE
  5
570
100
AcDbEntity
  8
_0-0_
  6
CONTINUOUS
 62
     0
100
AcDbLine
 10
1160.103917728
 20
-294.8943132581
 11
613.0254136628
 21
-266.2231434978
  0
LINE
  5
571
100
AcDbEntity
  8
_0-0_
  6
CONTINUOUS
 62
     0
100
AcDbLine
 10
1160.025413663
 20
-382.0453639561
 11
1153.025413663
 21
-382.0453639561
  0
LINE
  5
572
100
AcDbEntity
  8
_0-1_PRO0
  6
CONTINUOUS
 62
     0
100
AcDbLine
 10
1153.025413663
 20
-382.0453639561
 11
1153.025413663
 21
-383.5453639561
  0
LINE
  5
573
100
AcDbEntity
  8
_0-1_PRO0
  6
CONTINUOUS
 62
     0
100
AcDbLine
 10
1161.025413663
 20
-377.5453639561
 11
1161.025413663
 21
-379.0453639561
  0
LINE
  5
574
100
AcDbEntity
  8
_0-1_PRO0
  6
CONTINUOUS
 62
     0
100
AcDbLine
 10
1140.054945466
 20
-294.3442770497
 11
613.2347574659
 21
-266.7348010723
  0
CIRCLE
  5
575
100
AcDbEntity
  8
_0-0_
  6
CONTINUOUS
 62
     0
100
AcDbCircle
 10
1146.105229779
 20
-292.1939027818
 40
0.9
  0
CIRCLE
  5
576
100
AcDbEntity
  8
_0-0_
  6
CONTINUOUS
 62
     0
100
AcDbCircle
 10
1146.318583989
 20
-310.3328177103
 40
0.9
  0
LINE
  5
577
100
AcDbEntity
  8
_0-0_
  6
CONTINUOUS
 62
     0
100
AcDbLine
 10
1146.105229779
 20
-292.1939027818
 11
1171.241710923
 21
-248.6562403179
  0
CIRCLE
  5
578
100
AcDbEntity
  8
_0-0_
  6
CONTINUOUS
 62
     0
100
AcDbCircle
 10
1172.955065133
 20
-264.1970790351
 40
6
  0
LINE
  5
579
100
AcDbEntity
  8
_0-0_
  6
CONTINUOUS
 62
     0
100
AcDbLine
 10
1146.318583989
 20
-310.3328177103
 11
1169.955065133
 21
-269.3932314578
  0
CIRCLE
  5
57A
100
AcDbEntity
  8
_0-0_
  6
CONTINUOUS
 62
     0
100
AcDbCircle
 10
1174.241710923
 20
-243.4600878952
 40
6
  0
TEXT
  5
57B
100
AcDbEntity
  8
_0-0_
  6
CONTINUOUS
 62
     0
100
AcDbText
 10
1169.109065795
 20
-248.5998947505
 40
9
  1
１
  7
STANDARD
100
AcDbText
  0
TEXT
  5
57C
100
AcDbEntity
  8
_0-0_
  6
CONTINUOUS
 62
     0
100
AcDbText
 10
1168.155017507
 20
-269.0165281129
 40
9
  1
７
  7
STANDARD
100
AcDbText
  0
LINE
  5
57D
100
AcDbEntity
  8
ADD_LINE
  6
DOT
 62
     0
100
AcDbLine
 10
1163.025413663
 20
-291.4616744731
 11
1163.025413663
 21
-296.3922579561
  0
LINE
  5
57E
100
AcDbEntity
  8
_0-1_PRO0
  6
CONTINUOUS
 62
     0
100
AcDbLine
 10
1163.025413663
 20
-376.8045859787
 11
1163.025413663
 21
-549.1631171914
  0
LINE
  5
57F
100
AcDbEntity
  8
_0-1_PRO0
  6
CONTINUOUS
 62
     0
100
AcDbLine
 10
1163.025413663
 20
-543.1631171914
 11
1157.025413663
 21
-544.6631171914
  0
LINE
  5
580
100
AcDbEntity
  8
_0-1_PRO0
  6
CONTINUOUS
 62
     0
100
AcDbLine
 10
1163.025413663
 20
-543.1631171914
 11
1157.025413663
 21
-541.6631171914
  0
LINE
  5
581
100
AcDbEntity
  8
_0-1_PRO0
  6
CONTINUOUS
 62
     0
100
AcDbLine
 10
943.0254136628
 20
-524.6672771914
 11
943.0254136628
 21
-549.1631171914
  0
LINE
  5
582
100
AcDbEntity
  8
_0-1_PRO0
  6
CONTINUOUS
 62
     0
100
AcDbLine
 10
943.0254136628
 20
-543.1631171914
 11
937.0254136628
 21
-544.6631171914
  0
LINE
  5
583
100
AcDbEntity
  8
_0-1_PRO0
  6
CONTINUOUS
 62
     0
100
AcDbLine
 10
943.0254136628
 20
-543.1631171914
 11
937.0254136628
 21
-541.6631171914
  0
LINE
  5
584
100
AcDbEntity
  8
_0-1_PRO0
  6
CONTINUOUS
 62
     0
100
AcDbLine
 10
943.0254136628
 20
-543.1631171914
 11
949.0254136628
 21
-541.6631171914
  0
LINE
  5
585
100
AcDbEntity
  8
_0-1_PRO0
  6
CONTINUOUS
 62
     0
100
AcDbLine
 10
943.0254136628
 20
-543.1631171914
 11
949.0254136628
 21
-544.6631171914
  0
LINE
  5
586
100
AcDbEntity
  8
_0-2_
  6
CONTINUOUS
 62
     0
100
AcDbLine
 10
893.0254126628
 20
-489.0577717926
 11
896.0254126628
 21
-488.3077717926
  0
LINE
  5
587
100
AcDbEntity
  8
_0-2_
  6
CONTINUOUS
 62
     0
100
AcDbLine
 10
893.0254126628
 20
-489.0577717926
 11
896.0254126628
 21
-489.8077717926
  0
LINE
  5
588
100
AcDbEntity
  8
_0-2_
  6
CONTINUOUS
 62
     0
100
AcDbLine
 10
943.0254136628
 20
-489.0577717926
 11
940.0254136628
 21
-489.8077717926
  0
LINE
  5
589
100
AcDbEntity
  8
_0-2_
  6
CONTINUOUS
 62
     0
100
AcDbLine
 10
943.0254136628
 20
-489.0577717926
 11
940.0254136628
 21
-488.3077717926
  0
LINE
  5
58A
100
AcDbEntity
  8
_0-2_
  6
CONTINUOUS
 62
     0
100
AcDbLine
 10
943.0254136628
 20
-489.0577717926
 11
893.0254126628
 21
-489.0577717926
  0
TEXT
  5
58B
100
AcDbEntity
  8
_0-2_
  6
CONTINUOUS
 62
     0
100
AcDbText
 10
912.4457008856
 20
-489.2882733324
 40
9
  1
50
  7
STANDARD
100
AcDbText
  0
LINE
  5
58C
100
AcDbEntity
  8
_0-1_PRO0
  6
CONTINUOUS
 62
     0
100
AcDbLine
 10
813.0254136628
 20
-543.1631171914
 11
943.0254136628
 21
-543.1631171914
  0
LINE
  5
58D
100
AcDbEntity
  8
_0-1_PRO0
  6
CONTINUOUS
 62
     0
100
AcDbLine
 10
943.0254136628
 20
-543.1631171914
 11
1163.025413663
 21
-543.1631171914
  0
TEXT
  5
58E
100
AcDbEntity
  8
_0-1_PRO0
  6
CONTINUOUS
 62
     0
100
AcDbText
 10
1041.952860474
 20
-542.8495044048
 40
9
  1
２２０
 41
0.7377777777778
  7
STANDARD
100
AcDbText
  0
LINE
  5
58F
100
AcDbEntity
  8
_0-0_
  6
CONTINUOUS
 62
     0
100
AcDbLine
 10
780.6402215031
 20
-460.5390985092
 11
813.0254136628
 21
-339.6759159561
  0
LINE
  5
590
100
AcDbEntity
  8
_0-0_
  6
CONTINUOUS
 62
     0
100
AcDbLine
 10
779.6742956768
 20
-460.2802794641
 11
812.2581475459
 21
-338.6756887823
  0
LINE
  5
591
100
AcDbEntity
  8
_0-1_PRO0
  6
CONTINUOUS
 62
     0
100
AcDbLine
 10
813.0254136628
 20
-523.1672771914
 11
813.0254136628
 21
-339.6759159561
  0
LINE
  5
592
100
AcDbEntity
  8
ADD_LINE
  6
DOT
 62
     0
100
AcDbLine
 10
943.0254136628
 20
-343.606499439
 11
943.0254136628
 21
-549.1631171914
  0
LINE
  5
593
100
AcDbEntity
  8
_0-1_PRO0
  6
CONTINUOUS
 62
     0
100
AcDbLine
 10
943.0254136628
 20
-523.1672771914
 11
943.0254136628
 21
-339.6759159561
  0
CIRCLE
  5
594
100
AcDbEntity
  8
_0-3_
  6
CONTINUOUS
 62
     0
100
AcDbCircle
 10
910.5294319614
 20
-325.9245789701
 40
0.9
  0
CIRCLE
  5
595
100
AcDbEntity
  8
_0-3_
  6
CONTINUOUS
 62
     0
100
AcDbCircle
 10
903.1852231054
 20
-324.1873010444
 40
0.9
  0
LINE
  5
596
100
AcDbEntity
  8
_0-3_
  6
CONTINUOUS
 62
     0
100
AcDbLine
 10
903.2053296395
 20
-324.2585201943
 11
914.9870157713
 21
-344.6649991734
  0
CIRCLE
  5
597
100
AcDbEntity
  8
_0-3_
  6
CONTINUOUS
 62
     0
100
AcDbCircle
 10
917.9870157713
 20
-349.8611515961
 40
6
  0
TEXT
  5
598
100
AcDbEntity
  8
_0-3_
  6
CONTINUOUS
 62
     0
100
AcDbText
 10
913.7916718594
 20
-354.5092942669
 40
9
  1
６
  7
STANDARD
100
AcDbText
  0
LINE
  5
599
100
AcDbEntity
  8
_0-3_
  6
CONTINUOUS
 62
     0
100
AcDbLine
 10
897.3226723561
 20
-331.4556750754
 11
913.745058021
 21
-359.9000814284
  0
CIRCLE
  5
59A
100
AcDbEntity
  8
_0-3_
  6
CONTINUOUS
 62
     0
100
AcDbCircle
 10
897.3451512059
 20
-331.5753438088
 40
0.9
  0
CIRCLE
  5
59B
100
AcDbEntity
  8
_0-3_
  6
CONTINUOUS
 62
     0
100
AcDbCircle
 10
885.8859886242
 20
-334.4397590235
 40
0.9
  0
LINE
  5
59C
100
AcDbEntity
  8
_0-3_
  6
CONTINUOUS
 62
     0
100
AcDbLine
 10
885.9372605821
 20
-334.4920074598
 11
876.2400069502
 21
-351.2881434441
  0
CIRCLE
  5
59D
100
AcDbEntity
  8
_0-3_
  6
CONTINUOUS
 62
     0
100
AcDbCircle
 10
873.2400069502
 20
-356.4842958668
 40
6
  0
TEXT
  5
59E
100
AcDbEntity
  8
_0-3_
  6
CONTINUOUS
 62
     0
100
AcDbText
 10
868.2104873307
 20
-361.3813980066
 40
9
  1
13
  7
STANDARD
100
AcDbText
  0
TEXT
  5
59F
100
AcDbEntity
  8
_0-3_
  6
CONTINUOUS
 62
     0
100
AcDbText
 10
912.7646472679
 20
-370.0694337053
 40
9
  1
11
  7
STANDARD
100
AcDbText
  0
CIRCLE
  5
5A0
100
AcDbEntity
  8
_0-3_
  6
CONTINUOUS
 62
     0
100
AcDbCircle
 10
916.745058021
 20
-365.0962338511
 40
6
  0
CIRCLE
  5
5A1
100
AcDbEntity
  8
_0-3_
  6
CONTINUOUS
 62
     0
100
AcDbCircle
 10
890.8994026868
 20
-365.7585773542
 40
0.9
  0
LINE
  5
5A2
100
AcDbEntity
  8
_0-3_
  6
CONTINUOUS
 62
     0
100
AcDbLine
 10
890.8994026868
 20
-365.7585773542
 11
880.8577884921
 21
-383.1511633295
  0
TEXT
  5
5A3
100
AcDbEntity
  8
_0-3_
  6
CONTINUOUS
 62
     0
100
AcDbText
 10
873.0990846964
 20
-393.1749114086
 40
9
  1
12
  7
STANDARD
100
AcDbText
  0
CIRCLE
  5
5A4
100
AcDbEntity
  8
_0-3_
  6
CONTINUOUS
 62
     0
100
AcDbCircle
 10
877.8577884921
 20
-388.3473157522
 40
6
  0
LINE
  5
5A5
100
AcDbEntity
  8
_0-2_
  6
CONTINUOUS
 62
     0
100
AcDbLine
 10
888.2609809484
 20
-323.0979529561
 11
897.4483729484
 21
-323.5794439561
  0
LINE
  5
5A6
100
AcDbEntity
  8
_0-2_
  6
CONTINUOUS
 62
     0
100
AcDbLine
 10
878.0430859484
 20
-339.1018934844
 11
878.4690634767
 21
-338.6759159561
  0
ARC
  5
5A7
100
AcDbEntity
  8
_0-2_
  6
CONTINUOUS
 62
     0
100
AcDbCircle
 10
878.0430859484
 20
-346.9259159561
 40
8.25
100
AcDbArc
 50
90
 51
108.9246444161
  0
ARC
  5
5A8
100
AcDbEntity
  8
_0-2_
  6
CONTINUOUS
 62
     0
100
AcDbCircle
 10
878.0430859484
 20
-346.9259159561
 40
9.25
100
AcDbArc
 50
90
 51
108.9246444161
  0
ARC
  5
5A9
100
AcDbEntity
  8
_0-2_
  6
CONTINUOUS
 62
     0
100
AcDbCircle
 10
872.0430859484
 20
-329.4259159561
 40
9.25
100
AcDbArc
 50
-90
 51
-71.07535558395
  0
LINE
  5
5AA
100
AcDbEntity
  8
_0-2_
  6
CONTINUOUS
 62
     0
100
AcDbLine
 10
893.0254126628
 20
-385.1093169561
 11
893.0254126628
 21
-339.6759159561
  0
LINE
  5
5AB
100
AcDbEntity
  8
_0-2_
  6
CONTINUOUS
 62
     0
100
AcDbLine
 10
897.7754146628
 20
-348.6759159561
 11
897.0754126628
 21
-347.9759169561
  0
LINE
  5
5AC
100
AcDbEntity
  8
_0-2_
  6
CONTINUOUS
 62
     0
100
AcDbLine
 10
897.0754126628
 20
-338.6759169561
 11
897.0754126628
 21
-347.9759169561
  0
LINE
  5
5AD
100
AcDbEntity
  8
_0-2_
  6
CONTINUOUS
 62
     0
100
AcDbLine
 10
897.7754146628
 20
-367.3040889561
 11
897.7754146628
 21
-348.6759159561
  0
LINE
  5
5AE
100
AcDbEntity
  8
_0-2_
  6
CONTINUOUS
 62
     0
100
AcDbLine
 10
897.5254126628
 20
-379.1759169561
 11
897.5254126628
 21
-378.3126129561
  0
LINE
  5
5AF
100
AcDbEntity
  8
_0-2_
  6
CONTINUOUS
 62
     0
100
AcDbLine
 10
899.6504446628
 20
-377.9379129561
 11
897.7754146628
 21
-367.3040889561
  0
LINE
  5
5B0
100
AcDbEntity
  8
_0-2_
  6
CONTINUOUS
 62
     0
100
AcDbLine
 10
893.5254136628
 20
-367.6759179561
 11
892.5254146628
 21
-367.6759179561
  0
LINE
  5
5B1
100
AcDbEntity
  8
_0-2_
  6
CONTINUOUS
 62
     0
100
AcDbLine
 10
888.2754136628
 20
-348.6759159561
 11
888.9754126628
 21
-347.9759169561
  0
LINE
  5
5B2
100
AcDbEntity
  8
_0-2_
  6
CONTINUOUS
 62
     0
100
AcDbLine
 10
888.9754126628
 20
-338.6759169561
 11
888.9754126628
 21
-347.9759169561
  0
LINE
  5
5B3
100
AcDbEntity
  8
_0-2_
  6
CONTINUOUS
 62
     0
100
AcDbLine
 10
888.2754136628
 20
-367.3040889561
 11
888.2754136628
 21
-348.6759159561
  0
LINE
  5
5B4
100
AcDbEntity
  8
_0-2_
  6
CONTINUOUS
 62
     0
100
AcDbLine
 10
889.5254146628
 20
-380.1759159561
 11
896.5254136628
 21
-380.1759159561
  0
ARC
  5
5B5
100
AcDbEntity
  8
_0-2_
  6
CONTINUOUS
 62
     0
100
AcDbCircle
 10
889.5254146628
 20
-379.1759169561
 40
0.999999
100
AcDbArc
 50
180
 51
270
  0
LINE
  5
5B6
100
AcDbEntity
  8
_0-2_
  6
CONTINUOUS
 62
     0
100
AcDbLine
 10
888.5254126628
 20
-379.1759169561
 11
888.5254126628
 21
-378.3126129561
  0
LINE
  5
5B7
100
AcDbEntity
  8
_0-2_
  6
CONTINUOUS
 62
     0
100
AcDbLine
 10
886.4003836628
 20
-377.9379129561
 11
890.5858156628
 21
-378.6759159561
  0
LINE
  5
5B8
100
AcDbEntity
  8
_0-2_
  6
CONTINUOUS
 62
     0
100
AcDbLine
 10
893.5254136628
 20
-367.6759179561
 11
895.4650096628
 21
-378.6759159561
  0
LINE
  5
5B9
100
AcDbEntity
  8
_0-2_
  6
CONTINUOUS
 62
     0
100
AcDbLine
 10
892.5254146628
 20
-367.6759179561
 11
890.5858156628
 21
-378.6759159561
  0
LINE
  5
5BA
100
AcDbEntity
  8
_0-2_
  6
CONTINUOUS
 62
     0
100
AcDbLine
 10
886.4003836628
 20
-377.9379129561
 11
888.2754136628
 21
-367.3040889561
  0
LINE
  5
5BB
100
AcDbEntity
  8
_0-2_
  6
CONTINUOUS
 62
     0
100
AcDbLine
 10
897.7754146628
 20
-348.6759159561
 11
888.2754136628
 21
-348.6759159561
  0
LINE
  5
5BC
100
AcDbEntity
  8
_0-2_
  6
CONTINUOUS
 62
     0
100
AcDbLine
 10
897.0754126628
 20
-347.9759169561
 11
888.9754126628
 21
-347.9759169561
  0
LINE
  5
5BD
100
AcDbEntity
  8
_0-2_
  6
CONTINUOUS
 62
     0
100
AcDbLine
 10
899.6504446628
 20
-377.9379129561
 11
895.4650096628
 21
-378.6759159561
  0
ARC
  5
5BE
100
AcDbEntity
  8
_0-2_
  6
CONTINUOUS
 62
     0
100
AcDbCircle
 10
896.5254136628
 20
-379.1759169561
 40
0.999999
100
AcDbArc
 50
-90
 51
0
  0
LINE
  5
5BF
100
AcDbEntity
  8
_0-2_
  6
CONTINUOUS
 62
     0
100
AcDbLine
 10
878.8832770391
 20
-339.6759159561
 11
879.8832770391
 21
-338.6759159561
  0
LINE
  5
5C0
100
AcDbEntity
  8
_0-2_
  6
CONTINUOUS
 62
     0
100
AcDbLine
 10
880.2974906015
 20
-339.6759159561
 11
881.2974906015
 21
-338.6759159561
  0
LINE
  5
5C1
100
AcDbEntity
  8
_0-2_
  6
CONTINUOUS
 62
     0
100
AcDbLine
 10
881.7117041638
 20
-339.6759159561
 11
882.7117041638
 21
-338.6759159561
  0
LINE
  5
5C2
100
AcDbEntity
  8
_0-2_
  6
CONTINUOUS
 62
     0
100
AcDbLine
 10
883.1259177262
 20
-339.6759159561
 11
884.1259177262
 21
-338.6759159561
  0
LINE
  5
5C3
100
AcDbEntity
  8
_0-2_
  6
CONTINUOUS
 62
     0
100
AcDbLine
 10
884.5401312886
 20
-339.6759159561
 11
885.5401312886
 21
-338.6759159561
  0
LINE
  5
5C4
100
AcDbEntity
  8
_0-2_
  6
CONTINUOUS
 62
     0
100
AcDbLine
 10
885.954344851
 20
-339.6759159561
 11
886.954344851
 21
-338.6759159561
  0
LINE
  5
5C5
100
AcDbEntity
  8
_0-2_
  6
CONTINUOUS
 62
     0
100
AcDbLine
 10
887.3685584133
 20
-339.6759159561
 11
888.3685584133
 21
-338.6759159561
  0
LINE
  5
5C6
100
AcDbEntity
  8
_0-2_
  6
CONTINUOUS
 62
     0
100
AcDbLine
 10
888.7827719757
 20
-339.6759159561
 11
889.7827719757
 21
-338.6759159561
  0
LINE
  5
5C7
100
AcDbEntity
  8
_0-2_
  6
CONTINUOUS
 62
     0
100
AcDbLine
 10
890.1969855381
 20
-339.6759159561
 11
891.1969855381
 21
-338.6759159561
  0
LINE
  5
5C8
100
AcDbEntity
  8
_0-2_
  6
CONTINUOUS
 62
     0
100
AcDbLine
 10
891.6111991005
 20
-339.6759159561
 11
892.6111991005
 21
-338.6759159561
  0
LINE
  5
5C9
100
AcDbEntity
  8
_0-2_
  6
CONTINUOUS
 62
     0
100
AcDbLine
 10
893.0254126628
 20
-339.6759159561
 11
894.0254126628
 21
-338.6759159561
  0
LINE
  5
5CA
100
AcDbEntity
  8
_0-2_
  6
CONTINUOUS
 62
     0
100
AcDbLine
 10
894.4396262252
 20
-339.6759159561
 11
895.4396262252
 21
-338.6759159561
  0
LINE
  5
5CB
100
AcDbEntity
  8
_0-2_
  6
CONTINUOUS
 62
     0
100
AcDbLine
 10
895.8538397876
 20
-339.6759159561
 11
896.8538397876
 21
-338.6759159561
  0
LINE
  5
5CC
100
AcDbEntity
  8
_0-2_
  6
CONTINUOUS
 62
     0
100
AcDbLine
 10
897.26805335
 20
-339.6759159561
 11
898.26805335
 21
-338.6759159561
  0
LINE
  5
5CD
100
AcDbEntity
  8
_0-2_
  6
CONTINUOUS
 62
     0
100
AcDbLine
 10
898.6822669123
 20
-339.6759159561
 11
899.6822669123
 21
-338.6759159561
  0
LINE
  5
5CE
100
AcDbEntity
  8
_0-2_
  6
CONTINUOUS
 62
     0
100
AcDbLine
 10
900.0964804747
 20
-339.6759159561
 11
901.0964804747
 21
-338.6759159561
  0
LINE
  5
5CF
100
AcDbEntity
  8
_0-2_
  6
CONTINUOUS
 62
     0
100
AcDbLine
 10
901.5106940371
 20
-339.6759159561
 11
902.5106940371
 21
-338.6759159561
  0
LINE
  5
5D0
100
AcDbEntity
  8
_0-2_
  6
CONTINUOUS
 62
     0
100
AcDbLine
 10
902.9249075994
 20
-339.6759159561
 11
903.9249075994
 21
-338.6759159561
  0
LINE
  5
5D1
100
AcDbEntity
  8
_0-2_
  6
CONTINUOUS
 62
     0
100
AcDbLine
 10
904.3391211618
 20
-339.6759159561
 11
905.3391211618
 21
-338.6759159561
  0
LINE
  5
5D2
100
AcDbEntity
  8
_0-2_
  6
CONTINUOUS
 62
     0
100
AcDbLine
 10
905.7533347242
 20
-339.6759159561
 11
906.7533347242
 21
-338.6759159561
  0
LINE
  5
5D3
100
AcDbEntity
  8
_0-2_
  6
CONTINUOUS
 62
     0
100
AcDbLine
 10
907.1675482866
 20
-339.6759159561
 11
908.0430859484
 21
-338.8003782942
  0
LINE
  5
5D4
100
AcDbEntity
  8
_0-2_
  6
CONTINUOUS
 62
     0
100
AcDbLine
 10
908.0430859484
 20
-339.6759159561
 11
878.0430859484
 21
-339.6759159561
  0
LINE
  5
5D5
100
AcDbEntity
  8
_0-2_
  6
CONTINUOUS
 62
     0
100
AcDbLine
 10
878.0430859484
 20
-339.6759159561
 11
878.0430859484
 21
-338.6759159561
  0
LINE
  5
5D6
100
AcDbEntity
  8
_0-2_
  6
CONTINUOUS
 62
     0
100
AcDbLine
 10
878.0430859484
 20
-338.6759159561
 11
908.0430859484
 21
-338.6759159561
  0
LINE
  5
5D7
100
AcDbEntity
  8
_0-2_
  6
CONTINUOUS
 62
     0
100
AcDbLine
 10
908.0430859484
 20
-338.6759159561
 11
908.0430859484
 21
-339.6759159561
  0
ARC
  5
5D8
100
AcDbEntity
  8
_0-2_
  6
CONTINUOUS
 62
     0
100
AcDbCircle
 10
872.0430859484
 20
-329.4259159561
 40
10.25
100
AcDbArc
 50
-90
 51
-71.07535558395
  0
LINE
  5
5D9
100
AcDbEntity
  8
_0-2_
  6
CONTINUOUS
 62
     0
100
AcDbLine
 10
902.0430859484
 20
-333.5671459561
 11
902.0430859484
 21
-335.1671449561
  0
LINE
  5
5DA
100
AcDbEntity
  8
_0-2_
  6
CONTINUOUS
 62
     0
100
AcDbLine
 10
902.0430859484
 20
-333.5671459561
 11
884.0430859484
 21
-333.5671459561
  0
LINE
  5
5DB
100
AcDbEntity
  8
_0-2_
  6
CONTINUOUS
 62
     0
100
AcDbLine
 10
884.0430859484
 20
-333.5671459561
 11
884.0430859484
 21
-335.1671449561
  0
LINE
  5
5DC
100
AcDbEntity
  8
_0-2_
  6
CONTINUOUS
 62
     0
100
AcDbLine
 10
887.1630859484
 20
-329.3040829561
 11
887.1630859484
 21
-333.5671459561
  0
LINE
  5
5DD
100
AcDbEntity
  8
_0-2_
  6
CONTINUOUS
 62
     0
100
AcDbLine
 10
888.0930859484
 20
-328.7671459561
 11
887.1630859484
 21
-329.3040829561
  0
ARC
  5
5DE
100
AcDbEntity
  8
_0-2_
  6
CONTINUOUS
 62
     0
100
AcDbCircle
 10
888.0930859484
 20
-332.5765399561
 40
3.809394
100
AcDbArc
 50
59.210036
 51
90
  0
ARC
  5
5DF
100
AcDbEntity
  8
_0-2_
  6
CONTINUOUS
 62
     0
100
AcDbCircle
 10
893.0430859484
 20
-337.4165059561
 40
8.64936
100
AcDbArc
 50
69.705445
 51
110.294555
  0
LINE
  5
5E0
100
AcDbEntity
  8
_0-2_
  6
CONTINUOUS
 62
     0
100
AcDbLine
 10
890.0430859484
 20
-329.3040829561
 11
890.0430859484
 21
-333.5671459561
  0
LINE
  5
5E1
100
AcDbEntity
  8
_0-2_
  6
CONTINUOUS
 62
     0
100
AcDbLine
 10
896.0430859484
 20
-329.3040829561
 11
896.0430859484
 21
-333.5671459561
  0
LINE
  5
5E2
100
AcDbEntity
  8
_0-2_
  6
CONTINUOUS
 62
     0
100
AcDbLine
 10
898.9230859484
 20
-329.3040829561
 11
898.9230859484
 21
-333.5671459561
  0
LINE
  5
5E3
100
AcDbEntity
  8
_0-2_
  6
CONTINUOUS
 62
     0
100
AcDbLine
 10
897.9930859484
 20
-328.7671459561
 11
898.9230859484
 21
-329.3040829561
  0
LINE
  5
5E4
100
AcDbEntity
  8
_0-2_
  6
CONTINUOUS
 62
     0
100
AcDbLine
 10
888.0930859484
 20
-328.7671459561
 11
897.9930859484
 21
-328.7671459561
  0
ARC
  5
5E5
100
AcDbEntity
  8
_0-2_
  6
CONTINUOUS
 62
     0
100
AcDbCircle
 10
897.9930859484
 20
-332.5765399561
 40
3.809394
100
AcDbArc
 50
90
 51
120.789964
  0
LINE
  5
5E6
100
AcDbEntity
  8
_0-2_
  6
CONTINUOUS
 62
     0
100
AcDbLine
 10
888.3133159484
 20
-322.0993219561
 11
888.2609809484
 21
-323.0979529561
  0
LINE
  5
5E7
100
AcDbEntity
  8
_0-2_
  6
CONTINUOUS
 62
     0
100
AcDbLine
 10
897.5007079484
 20
-322.5808129561
 11
897.4483729484
 21
-323.5794439561
  0
ARC
  5
5E8
100
AcDbEntity
  8
_0-2_
  6
CONTINUOUS
 62
     0
100
AcDbCircle
 10
887.3146879484
 20
-322.0469869561
 40
0.999999
100
AcDbArc
 50
-3.000000000005
 51
86.99999999999
  0
ARC
  5
5E9
100
AcDbEntity
  8
_0-2_
  6
CONTINUOUS
 62
     0
100
AcDbCircle
 10
898.4993389484
 20
-322.6331509561
 40
0.999999
100
AcDbArc
 50
86.99999999999
 51
177
  0
ARC
  5
5EA
100
AcDbEntity
  8
_0-2_
  6
CONTINUOUS
 62
     0
100
AcDbCircle
 10
881.0430859484
 20
-328.1671459561
 40
0.999999
100
AcDbArc
 50
-90
 51
0
  0
LINE
  5
5EB
100
AcDbEntity
  8
_0-2_
  6
CONTINUOUS
 62
     0
100
AcDbLine
 10
881.0430859484
 20
-329.1671449561
 11
876.8430859484
 21
-329.1671449561
  0
ARC
  5
5EC
100
AcDbEntity
  8
_0-2_
  6
CONTINUOUS
 62
     0
100
AcDbCircle
 10
884.6430859484
 20
-321.9069739561
 40
0.999999
100
AcDbArc
 50
86.99999999999
 51
180
  0
LINE
  5
5ED
100
AcDbEntity
  8
_0-2_
  6
CONTINUOUS
 62
     0
100
AcDbLine
 10
901.4954209484
 20
-321.7887949561
 11
884.6954209484
 21
-320.9083459561
  0
ARC
  5
5EE
100
AcDbEntity
  8
_0-2_
  6
CONTINUOUS
 62
     0
100
AcDbCircle
 10
901.4430859484
 20
-322.7874259561
 40
0.999999
100
AcDbArc
 50
0
 51
86.99999999999
  0
LINE
  5
5EF
100
AcDbEntity
  8
_0-2_
  6
CONTINUOUS
 62
     0
100
AcDbLine
 10
905.0430859484
 20
-329.1671449561
 11
909.2430859484
 21
-329.1671449561
  0
ARC
  5
5F0
100
AcDbEntity
  8
_0-2_
  6
CONTINUOUS
 62
     0
100
AcDbCircle
 10
905.0430859484
 20
-328.1671459561
 40
0.999999
100
AcDbArc
 50
180
 51
270
  0
LINE
  5
5F1
100
AcDbEntity
  8
_0-2_
  6
CONTINUOUS
 62
     0
100
AcDbLine
 10
883.6430869484
 20
-328.1671459561
 11
883.6430869484
 21
-321.9069739561
  0
ARC
  5
5F2
100
AcDbEntity
  8
_0-2_
  6
CONTINUOUS
 62
     0
100
AcDbCircle
 10
881.0430859484
 20
-328.1671459561
 40
2.600001
100
AcDbArc
 50
-90
 51
0
  0
LINE
  5
5F3
100
AcDbEntity
  8
_0-2_
  6
CONTINUOUS
 62
     0
100
AcDbLine
 10
881.0430859484
 20
-330.7671469561
 11
876.5430859484
 21
-330.7671469561
  0
LINE
  5
5F4
100
AcDbEntity
  8
_0-2_
  6
CONTINUOUS
 62
     0
100
AcDbLine
 10
882.0430849484
 20
-321.9069739561
 11
882.0430849484
 21
-328.1671459561
  0
ARC
  5
5F5
100
AcDbEntity
  8
_0-2_
  6
CONTINUOUS
 62
     0
100
AcDbCircle
 10
884.6430859484
 20
-321.9069739561
 40
2.600001
100
AcDbArc
 50
87
 51
180
  0
LINE
  5
5F6
100
AcDbEntity
  8
_0-2_
  6
CONTINUOUS
 62
     0
100
AcDbLine
 10
904.0430869484
 20
-322.7874259561
 11
904.0430869484
 21
-328.1671459561
  0
ARC
  5
5F7
100
AcDbEntity
  8
_0-2_
  6
CONTINUOUS
 62
     0
100
AcDbCircle
 10
901.4430859484
 20
-322.7874259561
 40
2.600001
100
AcDbArc
 50
0
 51
87
  0
LINE
  5
5F8
100
AcDbEntity
  8
_0-2_
  6
CONTINUOUS
 62
     0
100
AcDbLine
 10
901.5791599484
 20
-320.1909889561
 11
884.7791599484
 21
-319.3105369561
  0
LINE
  5
5F9
100
AcDbEntity
  8
_0-2_
  6
CONTINUOUS
 62
     0
100
AcDbLine
 10
902.4430849484
 20
-328.1671459561
 11
902.4430849484
 21
-322.7874259561
  0
ARC
  5
5FA
100
AcDbEntity
  8
_0-2_
  6
CONTINUOUS
 62
     0
100
AcDbCircle
 10
905.0430859484
 20
-328.1671459561
 40
2.600001
100
AcDbArc
 50
180
 51
270
  0
LINE
  5
5FB
100
AcDbEntity
  8
_0-2_
  6
CONTINUOUS
 62
     0
100
AcDbLine
 10
905.0430859484
 20
-330.7671469561
 11
909.5430859484
 21
-330.7671469561
  0
LINE
  5
5FC
100
AcDbEntity
  8
_0-2_
  6
CONTINUOUS
 62
     0
100
AcDbLine
 10
909.2430859484
 20
-331.6671469561
 11
907.2930859484
 21
-331.6671469561
  0
ARC
  5
5FD
100
AcDbEntity
  8
_0-2_
  6
CONTINUOUS
 62
     0
100
AcDbCircle
 10
909.2430859484
 20
-331.3671469561
 40
0.3
100
AcDbArc
 50
-90
 51
0
  0
ARC
  5
5FE
100
AcDbEntity
  8
_0-2_
  6
CONTINUOUS
 62
     0
100
AcDbCircle
 10
909.2430859484
 20
-329.4671449561
 40
0.3
100
AcDbArc
 50
0
 51
90
  0
LINE
  5
5FF
100
AcDbEntity
  8
_0-2_
  6
CONTINUOUS
 62
     0
100
AcDbLine
 10
892.5430849484
 20
-335.1671449561
 11
893.0430859484
 21
-335.6671459561
  0
LINE
  5
600
100
AcDbEntity
  8
_0-2_
  6
CONTINUOUS
 62
     0
100
AcDbLine
 10
893.5430869484
 20
-335.1671449561
 11
893.0430859484
 21
-335.6671459561
  0
LINE
  5
601
100
AcDbEntity
  8
_0-2_
  6
CONTINUOUS
 62
     0
100
AcDbLine
 10
888.0430849484
 20
-337.1671459561
 11
888.0430849484
 21
-337.6671469561
  0
LINE
  5
602
100
AcDbEntity
  8
_0-2_
  6
CONTINUOUS
 62
     0
100
AcDbLine
 10
909.0430849484
 20
-327.6671449561
 11
906.2930869484
 21
-327.6671449561
  0
ARC
  5
603
100
AcDbEntity
  8
_0-2_
  6
CONTINUOUS
 62
     0
100
AcDbCircle
 10
909.0430849484
 20
-327.1671469561
 40
0.500001
100
AcDbArc
 50
-90
 51
0
  0
ARC
  5
604
100
AcDbEntity
  8
_0-2_
  6
CONTINUOUS
 62
     0
100
AcDbCircle
 10
906.2930869484
 20
-328.4171449561
 40
0.75
100
AcDbArc
 50
90
 51
270
  0
LINE
  5
605
100
AcDbEntity
  8
_0-2_
  6
CONTINUOUS
 62
     0
100
AcDbLine
 10
898.0430869484
 20
-337.1671459561
 11
909.5430859484
 21
-337.1671459561
  0
LINE
  5
606
100
AcDbEntity
  8
_0-2_
  6
CONTINUOUS
 62
     0
100
AcDbLine
 10
898.0430869484
 20
-337.1671459561
 11
898.0430869484
 21
-337.6671469561
  0
ARC
  5
607
100
AcDbEntity
  8
_0-2_
  6
CONTINUOUS
 62
     0
100
AcDbCircle
 10
907.2930859484
 20
-332.4171469561
 40
0.75
100
AcDbArc
 50
90
 51
270
  0
LINE
  5
608
100
AcDbEntity
  8
_0-2_
  6
CONTINUOUS
 62
     0
100
AcDbLine
 10
909.2430859484
 20
-333.1671469561
 11
907.2930859484
 21
-333.1671469561
  0
ARC
  5
609
100
AcDbEntity
  8
_0-2_
  6
CONTINUOUS
 62
     0
100
AcDbCircle
 10
909.2430859484
 20
-333.4671469561
 40
0.3
100
AcDbArc
 50
0
 51
90
  0
LINE
  5
60A
100
AcDbEntity
  8
_0-2_
  6
CONTINUOUS
 62
     0
100
AcDbLine
 10
876.5430859484
 20
-337.1671459561
 11
888.0430849484
 21
-337.1671459561
  0
LINE
  5
60B
100
AcDbEntity
  8
_0-2_
  6
CONTINUOUS
 62
     0
100
AcDbLine
 10
876.8430859484
 20
-331.6671469561
 11
878.7930859484
 21
-331.6671469561
  0
ARC
  5
60C
100
AcDbEntity
  8
_0-2_
  6
CONTINUOUS
 62
     0
100
AcDbCircle
 10
876.8430859484
 20
-331.3671469561
 40
0.3
100
AcDbArc
 50
180
 51
270
  0
LINE
  5
60D
100
AcDbEntity
  8
_0-2_
  6
CONTINUOUS
 62
     0
100
AcDbLine
 10
876.5430859484
 20
-331.3671469561
 11
876.5430859484
 21
-329.4671449561
  0
ARC
  5
60E
100
AcDbEntity
  8
_0-2_
  6
CONTINUOUS
 62
     0
100
AcDbCircle
 10
876.8430859484
 20
-329.4671449561
 40
0.3
100
AcDbArc
 50
90
 51
180
  0
LINE
  5
60F
100
AcDbEntity
  8
_0-2_
  6
CONTINUOUS
 62
     0
100
AcDbLine
 10
875.5430869484
 20
-327.6671449561
 11
879.7930849484
 21
-327.6671449561
  0
ARC
  5
610
100
AcDbEntity
  8
_0-2_
  6
CONTINUOUS
 62
     0
100
AcDbCircle
 10
875.5430869484
 20
-328.1671459561
 40
0.500001
100
AcDbArc
 50
90
 51
180
  0
ARC
  5
611
100
AcDbEntity
  8
_0-2_
  6
CONTINUOUS
 62
     0
100
AcDbCircle
 10
879.7930849484
 20
-328.4171449561
 40
0.75
100
AcDbArc
 50
-90
 51
90
  0
LINE
  5
612
100
AcDbEntity
  8
_0-2_
  6
CONTINUOUS
 62
     0
100
AcDbLine
 10
875.0430859484
 20
-328.1671459561
 11
875.0430859484
 21
-337.6671469561
  0
LINE
  5
613
100
AcDbEntity
  8
_0-2_
  6
CONTINUOUS
 62
     0
100
AcDbLine
 10
876.5430859484
 20
-337.1671459561
 11
876.5430859484
 21
-337.6671469561
  0
ARC
  5
614
100
AcDbEntity
  8
_0-2_
  6
CONTINUOUS
 62
     0
100
AcDbCircle
 10
878.7930859484
 20
-332.4171469561
 40
0.75
100
AcDbArc
 50
-90
 51
90
  0
ARC
  5
615
100
AcDbEntity
  8
_0-2_
  6
CONTINUOUS
 62
     0
100
AcDbCircle
 10
876.8430859484
 20
-334.8671449561
 40
0.3
100
AcDbArc
 50
180
 51
270
  0
LINE
  5
616
100
AcDbEntity
  8
_0-2_
  6
CONTINUOUS
 62
     0
100
AcDbLine
 10
876.5430859484
 20
-334.8671449561
 11
876.5430859484
 21
-333.4671469561
  0
ARC
  5
617
100
AcDbEntity
  8
_0-2_
  6
CONTINUOUS
 62
     0
100
AcDbCircle
 10
876.8430859484
 20
-333.4671469561
 40
0.3
100
AcDbArc
 50
90
 51
180
  0
LINE
  5
618
100
AcDbEntity
  8
_0-2_
  6
CONTINUOUS
 62
     0
100
AcDbLine
 10
876.8430859484
 20
-333.1671469561
 11
878.7930859484
 21
-333.1671469561
  0
ARC
  5
619
100
AcDbEntity
  8
_0-2_
  6
CONTINUOUS
 62
     0
100
AcDbCircle
 10
909.0430849484
 20
-334.6671469561
 40
0.500001
100
AcDbArc
 50
-90
 51
0
  0
LINE
  5
61A
100
AcDbEntity
  8
_0-2_
  6
CONTINUOUS
 62
     0
100
AcDbLine
 10
909.0430849484
 20
-335.1671449561
 11
876.8430859484
 21
-335.1671449561
  0
LINE
  5
61B
100
AcDbEntity
  8
_0-2_
  6
CONTINUOUS
 62
     0
100
AcDbLine
 10
876.5430859484
 20
-337.6671469561
 11
875.0430859484
 21
-337.6671469561
  0
ARC
  5
61C
100
AcDbEntity
  8
_0-2_
  6
CONTINUOUS
 62
     0
100
AcDbCircle
 10
910.5430849484
 20
-319.6671469561
 40
0.999999
100
AcDbArc
 50
0
 51
180
  0
LINE
  5
61D
100
AcDbEntity
  8
_0-2_
  6
CONTINUOUS
 62
     0
100
AcDbLine
 10
909.5430859484
 20
-327.1671469561
 11
909.5430859484
 21
-319.6671469561
  0
LINE
  5
61E
100
AcDbEntity
  8
_0-2_
  6
CONTINUOUS
 62
     0
100
AcDbLine
 10
909.5430859484
 20
-331.3671469561
 11
909.5430859484
 21
-329.4671449561
  0
ARC
  5
61F
100
AcDbEntity
  8
_0-2_
  6
CONTINUOUS
 62
     0
100
AcDbCircle
 10
912.0430849484
 20
-334.6671469561
 40
0.500001
100
AcDbArc
 50
180
 51
270
  0
LINE
  5
620
100
AcDbEntity
  8
_0-2_
  6
CONTINUOUS
 62
     0
100
AcDbLine
 10
911.5430869484
 20
-336.6671449561
 11
911.5430869484
 21
-337.6671469561
  0
LINE
  5
621
100
AcDbEntity
  8
_0-2_
  6
CONTINUOUS
 62
     0
100
AcDbLine
 10
909.5430859484
 20
-337.1671459561
 11
909.5430859484
 21
-337.6671469561
  0
LINE
  5
622
100
AcDbEntity
  8
_0-2_
  6
CONTINUOUS
 62
     0
100
AcDbLine
 10
909.5430859484
 20
-334.6671469561
 11
909.5430859484
 21
-333.4671469561
  0
LINE
  5
623
100
AcDbEntity
  8
_0-2_
  6
CONTINUOUS
 62
     0
100
AcDbLine
 10
922.0430869484
 20
-336.6671449561
 11
922.0430869484
 21
-337.6671469561
  0
LINE
  5
624
100
AcDbEntity
  8
_0-2_
  6
CONTINUOUS
 62
     0
100
AcDbLine
 10
923.5430869484
 20
-337.6671469561
 11
922.0430869484
 21
-337.6671469561
  0
LINE
  5
625
100
AcDbEntity
  8
_0-2_
  6
CONTINUOUS
 62
     0
100
AcDbLine
 10
911.5430869484
 20
-337.6671469561
 11
909.5430859484
 21
-337.6671469561
  0
LINE
  5
626
100
AcDbEntity
  8
_0-2_
  6
CONTINUOUS
 62
     0
100
AcDbLine
 10
923.5430869484
 20
-335.6671449561
 11
923.5430869484
 21
-337.6671469561
  0
ARC
  5
627
100
AcDbEntity
  8
_0-2_
  6
CONTINUOUS
 62
     0
100
AcDbCircle
 10
923.0430869484
 20
-335.6671449561
 40
0.5
100
AcDbArc
 50
0
 51
90
  0
LINE
  5
628
100
AcDbEntity
  8
_0-2_
  6
CONTINUOUS
 62
     0
100
AcDbLine
 10
911.7930869484
 20
-331.9171449561
 11
913.0430869485
 21
-331.9171449561
  0
LINE
  5
629
100
AcDbEntity
  8
_0-2_
  6
CONTINUOUS
 62
     0
100
AcDbLine
 10
916.0430869485
 20
-331.9171449561
 11
917.2930869484
 21
-331.9171449561
  0
ARC
  5
62A
100
AcDbEntity
  8
_0-2_
  6
CONTINUOUS
 62
     0
100
AcDbCircle
 10
942.8896924208
 20
-288.9817523338
 40
0.5
100
AcDbArc
 50
-99.19866089521
 51
78.59045565079
  0
ARC
  5
62B
100
AcDbEntity
  8
_0-2_
  6
CONTINUOUS
 62
     0
100
AcDbCircle
 10
938.0430869485
 20
-312.9975890961
 40
25
100
AcDbArc
 50
78.59045565079
 51
180
  0
ARC
  5
62C
100
AcDbEntity
  8
_0-2_
  6
CONTINUOUS
 62
     0
100
AcDbCircle
 10
939.1190325425
 20
-312.2659575981
 40
23.08754100601
100
AcDbArc
 50
80.80133910481
 51
181.8159758207
  0
LINE
  5
62D
100
AcDbEntity
  8
_0-2_
  6
CONTINUOUS
 62
     0
100
AcDbLine
 10
911.5430869484
 20
-336.6671449561
 11
919.0490358223
 21
-336.6671449561
  0
LINE
  5
62E
100
AcDbEntity
  8
_0-2_
  6
CONTINUOUS
 62
     0
100
AcDbLine
 10
919.0490358223
 20
-336.6671449561
 11
922.0430869484
 21
-336.6671449561
  0
LINE
  5
62F
100
AcDbEntity
  8
_0-2_
  6
CONTINUOUS
 62
     0
100
AcDbLine
 10
917.0430869484
 20
-335.1671449561
 11
912.0430849484
 21
-335.1671449561
  0
LINE
  5
630
100
AcDbEntity
  8
_0-2_
  6
CONTINUOUS
 62
     0
100
AcDbLine
 10
923.0430869484
 20
-335.1671449561
 11
919.0430869484
 21
-335.1671449561
  0
ARC
  5
631
100
AcDbEntity
  8
_0-2_
  6
CONTINUOUS
 62
     0
100
AcDbCircle
 10
917.0430869484
 20
-334.6671449561
 40
0.25
100
AcDbArc
 50
-90
 51
0
  0
ARC
  5
632
100
AcDbEntity
  8
_0-2_
  6
CONTINUOUS
 62
     0
100
AcDbCircle
 10
912.0430849484
 20
-334.6671469561
 40
0.250001
100
AcDbArc
 50
180
 51
270
  0
LINE
  5
633
100
AcDbEntity
  8
_0-2_
  6
CONTINUOUS
 62
     0
100
AcDbLine
 10
917.2930869484
 20
-334.6671449561
 11
917.2930869484
 21
-331.9171449561
  0
LINE
  5
634
100
AcDbEntity
  8
_0-2_
  6
CONTINUOUS
 62
     0
100
AcDbLine
 10
911.7930869484
 20
-334.6671469561
 11
911.7930869484
 21
-331.9171449561
  0
LINE
  5
635
100
AcDbEntity
  8
_0-2_
  6
CONTINUOUS
 62
     0
100
AcDbLine
 10
917.0430869484
 20
-334.9171449561
 11
912.0430849484
 21
-334.9171449561
  0
LINE
  5
636
100
AcDbEntity
  8
_0-2_
  6
CONTINUOUS
 62
     0
100
AcDbLine
 10
911.5430869484
 20
-319.6671469561
 11
911.5430869484
 21
-330.167144956
  0
LINE
  5
637
100
AcDbEntity
  8
_0-2_
  6
CONTINUOUS
 62
     0
100
AcDbLine
 10
911.5430869484
 20
-331.667144956
 11
911.5430869484
 21
-334.6671469561
  0
LINE
  5
638
100
AcDbEntity
  8
_0-2_
  6
CONTINUOUS
 62
     0
100
AcDbLine
 10
917.5430869484
 20
-334.6671449561
 11
917.5430869484
 21
-331.667144956
  0
LINE
  5
639
100
AcDbEntity
  8
_0-2_
  6
CONTINUOUS
 62
     0
100
AcDbLine
 10
919.0430869484
 20
-330.667144956
 11
919.0430869484
 21
-335.1671449561
  0
ARC
  5
63A
100
AcDbEntity
  8
_0-2_
  6
CONTINUOUS
 62
     0
100
AcDbCircle
 10
918.5430869484
 20
-330.667144956
 40
0.5
100
AcDbArc
 50
0
 51
90
  0
ARC
  5
63B
100
AcDbEntity
  8
_0-2_
  6
CONTINUOUS
 62
     0
100
AcDbCircle
 10
917.0430869484
 20
-334.6671449561
 40
0.5
100
AcDbArc
 50
-90
 51
0
  0
LINE
  5
63C
100
AcDbEntity
  8
_0-2_
  6
CONTINUOUS
 62
     0
100
AcDbLine
 10
918.5430869484
 20
-330.167144956
 11
917.2930869484
 21
-330.167144956
  0
ARC
  5
63D
100
AcDbEntity
  8
_0-2_
  6
CONTINUOUS
 62
     0
100
AcDbCircle
 10
917.2930869484
 20
-331.167144956
 40
1
100
AcDbArc
 50
90
 51
180
  0
LINE
  5
63E
100
AcDbEntity
  8
_0-2_
  6
CONTINUOUS
 62
     0
100
AcDbLine
 10
916.2930869484
 20
-331.167144956
 11
916.2930869484
 21
-331.667144956
  0
LINE
  5
63F
100
AcDbEntity
  8
_0-2_
  6
CONTINUOUS
 62
     0
100
AcDbLine
 10
916.2930869484
 20
-331.667144956
 11
917.5430869484
 21
-331.667144956
  0
LINE
  5
640
100
AcDbEntity
  8
_0-2_
  6
CONTINUOUS
 62
     0
100
AcDbLine
 10
911.5430869484
 20
-331.667144956
 11
912.7930869484
 21
-331.667144956
  0
LINE
  5
641
100
AcDbEntity
  8
_0-2_
  6
CONTINUOUS
 62
     0
100
AcDbLine
 10
912.7930869484
 20
-331.167144956
 11
912.7930869484
 21
-331.667144956
  0
ARC
  5
642
100
AcDbEntity
  8
_0-2_
  6
CONTINUOUS
 62
     0
100
AcDbCircle
 10
911.7930869484
 20
-331.167144956
 40
1
100
AcDbArc
 50
0
 51
90
  0
LINE
  5
643
100
AcDbEntity
  8
_0-2_
  6
CONTINUOUS
 62
     0
100
AcDbLine
 10
911.7930869484
 20
-330.167144956
 11
911.5430869484
 21
-330.167144956
  0
LINE
  5
644
100
AcDbEntity
  8
_0-2_
  6
CONTINUOUS
 62
     0
100
AcDbLine
 10
908.0430859484
 20
-338.8003782942
 11
908.0430859484
 21
-337.6759159561
  0
LINE
  5
645
100
AcDbEntity
  8
_0-2_
  6
CONTINUOUS
 62
     0
100
AcDbLine
 10
878.0430859484
 20
-337.6759159561
 11
908.0430859484
 21
-337.6759159561
  0
LINE
  5
646
100
AcDbEntity
  8
_0-2_
  6
CONTINUOUS
 62
     0
100
AcDbLine
 10
893.0254126628
 20
-386.1093189561
 11
893.0254126628
 21
-493.0577737926
  0
LINE
  5
647
100
AcDbEntity
  8
_0-2_
  6
CONTINUOUS
 62
     0
100
AcDbLine
 10
943.0254136628
 20
-339.6759159561
 11
943.0254136628
 21
-499.6771597926
  0
LINE
  5
648
100
AcDbEntity
  8
_0-2_
  6
CONTINUOUS
 62
     0
100
AcDbLine
 10
913.0430869485
 20
-331.9171449561
 11
913.0294417353
 21
-311.9487184021
  0
LINE
  5
649
100
AcDbEntity
  8
_0-2_
  6
CONTINUOUS
 62
     0
100
AcDbLine
 10
916.0430869485
 20
-331.9171449561
 11
916.0294417353
 21
-310.4854554061
  0
LINE
  5
64A
100
AcDbEntity
  8
_0-1_PRO0
  6
CONTINUOUS
 62
     0
100
AcDbLine
 10
813.0254136628
 20
-339.6759159561
 11
943.0254136628
 21
-339.6759159561
  0
LINE
  5
64B
100
AcDbEntity
  8
_0-1_PRO0
  6
CONTINUOUS
 62
     0
100
AcDbLine
 10
872.0077399736
 20
-338.683577726
 11
812.2581475459
 21
-338.6756887823
  0
CIRCLE
  5
64C
100
AcDbEntity
  8
_0-3_
  6
CONTINUOUS
 62
     0
100
AcDbCircle
 10
946.923353945
 20
-300.5931208329
 40
0.9
  0
LINE
  5
64D
100
AcDbEntity
  8
_0-3_
  6
CONTINUOUS
 62
     0
100
AcDbLine
 10
946.923353945
 20
-300.5931208329
 11
960.8486690566
 21
-276.4737675482
  0
TEXT
  5
64E
100
AcDbEntity
  8
_0-3_
  6
CONTINUOUS
 62
     0
100
AcDbText
 10
959.014719192
 20
-276.8141805214
 40
9
  1
４
  7
STANDARD
100
AcDbText
  0
CIRCLE
  5
64F
100
AcDbEntity
  8
_0-3_
  6
CONTINUOUS
 62
     0
100
AcDbCircle
 10
963.8486690566
 20
-271.2776151255
 40
6
  0
CIRCLE
  5
650
100
AcDbEntity
  8
_0-3_
  6
CONTINUOUS
 62
     0
100
AcDbCircle
 10
942.2264099772
 20
-270.8507450555
 40
6
  0
TEXT
  5
651
100
AcDbEntity
  8
_0-3_
  6
CONTINUOUS
 62
     0
100
AcDbText
 10
937.6007639309
 20
-275.8895041896
 40
9
  1
２
  7
STANDARD
100
AcDbText
  0
LINE
  5
652
100
AcDbEntity
  8
_0-3_
  6
CONTINUOUS
 62
     0
100
AcDbLine
 10
910.5758368056
 20
-326.0004789761
 11
939.2264099772
 21
-276.0468974783
  0
TEXT
  5
653
100
AcDbEntity
  8
_0-1_PRO0
  6
CONTINUOUS
 62
     0
100
AcDbText
 10
874.7963054688
 20
-542.3335891116
 40
9
  1
≦Ｃ
 41
0.7377777777778
  7
STANDARD
100
AcDbText
  0
LINE
  5
654
100
AcDbEntity
  8
ADD_LINE
  6
DOT
 62
     0
100
AcDbLine
 10
1135.182421532
 20
-292.0861748575
 11
1189.316691211
 21
-295.3670678414
  0
LINE
  5
655
100
AcDbEntity
  8
_0-1_PRO0
  6
CONTINUOUS
 62
     0
100
AcDbLine
 10
1176.660608444
 20
-383.5453639561
 11
1187.943560444
 21
-383.5453639561
  0
LINE
  5
656
100
AcDbEntity
  8
_0-1_PRO0
  6
CONTINUOUS
 62
     0
100
AcDbLine
 10
1197.288746484
 20
-293.5453639561
 11
1197.288746484
 21
-383.5453639561
  0
LINE
  5
657
100
AcDbEntity
  8
_0-1_PRO0
  6
CONTINUOUS
 62
     0
100
AcDbLine
 10
1164.025413663
 20
-293.5453639561
 11
1203.288746484
 21
-293.5453639561
  0
LINE
  5
658
100
AcDbEntity
  8
_0-1_PRO0
  6
CONTINUOUS
 62
     0
100
AcDbLine
 10
1161.025413663
 20
-383.5453639561
 11
1203.288746484
 21
-383.5453639561
  0
LINE
  5
659
100
AcDbEntity
  8
_0-1_PRO0
  6
CONTINUOUS
 62
     0
100
AcDbLine
 10
1197.288746484
 20
-293.5453639561
 11
1198.788746484
 21
-299.5453639561
  0
LINE
  5
65A
100
AcDbEntity
  8
_0-1_PRO0
  6
CONTINUOUS
 62
     0
100
AcDbLine
 10
1197.288746484
 20
-293.5453639561
 11
1195.788746484
 21
-299.5453639561
  0
LINE
  5
65B
100
AcDbEntity
  8
_0-1_PRO0
  6
CONTINUOUS
 62
     0
100
AcDbLine
 10
1197.288746484
 20
-383.5453639561
 11
1195.788746484
 21
-377.5453639561
  0
LINE
  5
65C
100
AcDbEntity
  8
_0-1_PRO0
  6
CONTINUOUS
 62
     0
100
AcDbLine
 10
1197.288746484
 20
-383.5453639561
 11
1198.788746484
 21
-377.5453639561
  0
TEXT
  5
65D
100
AcDbEntity
  8
_0-1_PRO0
  6
CONTINUOUS
 62
     0
100
AcDbText
 10
1194.288679484
 20
-346.2697549561
 40
9
  1
９０
 41
0.7377777777778
 50
90.000003
  7
STANDARD
100
AcDbText
  0
LINE
  5
65E
100
AcDbEntity
  8
_0-1_PRO0
  6
CONTINUOUS
 62
     0
100
AcDbLine
 10
996.5494214781
 20
-339.6759159561
 11
1185.634426919
 21
-339.6759159561
  0
LINE
  5
65F
100
AcDbEntity
  8
_0-1_PRO0
  6
CONTINUOUS
 62
     0
100
AcDbLine
 10
1179.634426919
 20
-339.6759159561
 11
1178.134426919
 21
-345.6759159561
  0
LINE
  5
660
100
AcDbEntity
  8
_0-1_PRO0
  6
CONTINUOUS
 62
     0
100
AcDbLine
 10
1179.634426919
 20
-339.6759159561
 11
1181.134426919
 21
-345.6759159561
  0
LINE
  5
661
100
AcDbEntity
  8
_0-1_PRO0
  6
CONTINUOUS
 62
     0
100
AcDbLine
 10
1179.634426919
 20
-339.6759159561
 11
1179.634426919
 21
-383.5453639561
  0
LINE
  5
662
100
AcDbEntity
  8
_0-1_PRO0
  6
CONTINUOUS
 62
     0
100
AcDbLine
 10
1179.634426919
 20
-383.5453639561
 11
1181.134426919
 21
-377.5453639561
  0
LINE
  5
663
100
AcDbEntity
  8
_0-1_PRO0
  6
CONTINUOUS
 62
     0
100
AcDbLine
 10
1179.634426919
 20
-383.5453639561
 11
1178.134426919
 21
-377.5453639561
  0
TEXT
  5
664
100
AcDbEntity
  8
_0-1_PRO0
  6
CONTINUOUS
 62
     0
100
AcDbText
 10
1179.071985678
 20
-367.9499451345
 40
9
  1
４４
 41
0.7377777777778
 50
90.000003
  7
STANDARD
100
AcDbText
  0
LINE
  5
665
100
AcDbEntity
  8
_0-1_PRO0
  6
CONTINUOUS
 62
     0
100
AcDbLine
 10
74.79288766283
 20
-368.5453639561
 11
74.79288766283
 21
-369.5453639561
  0
LINE
  5
666
100
AcDbEntity
  8
_0-1_PRO0
  6
CONTINUOUS
 62
     0
100
AcDbLine
 10
86.23139366283
 20
-298.8381099561
 11
613.0515816628
 21
-271.2286339787
  0
LINE
  5
667
100
AcDbEntity
  8
_0-1_PRO0
  6
CONTINUOUS
 62
     0
100
AcDbLine
 10
92.26048566283
 20
-295.7388239561
 11
613.0254136628
 21
-268.4466909787
  0
LINE
  5
668
100
AcDbEntity
  8
_0-1_PRO0
  6
CONTINUOUS
 62
     0
100
AcDbLine
 10
92.49599766283
 20
-300.2326569561
 11
613.0254136628
 21
-272.9528659787
  0
LINE
  5
669
100
AcDbEntity
  8
_0-1_PRO0
  6
CONTINUOUS
 62
     0
100
AcDbLine
 10
92.57450166283
 20
-301.7306009561
 11
613.0254136628
 21
-274.4549249787
  0
LINE
  5
66A
100
AcDbEntity
  8
_0-1_PRO0
  6
CONTINUOUS
 62
     0
100
AcDbLine
 10
93.34383966283
 20
-316.4104559561
 11
613.0254136628
 21
-289.1750979787
  0
LINE
  5
66B
100
AcDbEntity
  8
_0-1_PRO0
  6
CONTINUOUS
 62
     0
100
AcDbLine
 10
93.43804466283
 20
-318.2079889561
 11
613.0254136628
 21
-290.9775689787
  0
LINE
  5
66C
100
AcDbEntity
  8
_0-1_PRO0
  6
CONTINUOUS
 62
     0
100
AcDbLine
 10
93.59505266283
 20
-321.2038769561
 11
613.0254136628
 21
-293.9816859787
  0
LINE
  5
66D
100
AcDbEntity
  8
_0-1_PRO0
  6
CONTINUOUS
 62
     0
100
AcDbLine
 10
93.67355666283
 20
-322.7018219561
 11
613.0254136628
 21
-295.4837439787
  0
LINE
  5
66E
100
AcDbEntity
  8
_0-1_PRO0
  6
CONTINUOUS
 62
     0
100
AcDbLine
 10
93.72589266283
 20
-323.7004509561
 11
613.0254136628
 21
-296.4851159787
  0
LINE
  5
66F
100
AcDbEntity
  8
_0-1_PRO0
  6
CONTINUOUS
 62
     0
100
AcDbLine
 10
65.86840566283
 20
-293.3963689561
 11
613.0254136628
 21
-264.7210849787
  0
ARC
  5
670
100
AcDbEntity
  8
_0-1_PRO0
  6
CONTINUOUS
 62
     0
100
AcDbCircle
 10
86.18657466283
 20
-301.8445759561
 40
7.5
100
AcDbArc
 50
93
 51
169.875328
  0
LINE
  5
671
100
AcDbEntity
  8
_0-1_PRO0
  6
CONTINUOUS
 62
     0
100
AcDbLine
 10
99.26592666283
 20
-293.6488239561
 11
100.9029926628
 21
-295.2858899561
  0
LINE
  5
672
100
AcDbEntity
  8
_0-1_PRO0
  6
CONTINUOUS
 62
     0
100
AcDbLine
 10
97.92213866283
 20
-293.7192489561
 11
99.55920366283
 21
-295.3563149561
  0
LINE
  5
673
100
AcDbEntity
  8
_0-1_PRO0
  6
CONTINUOUS
 62
     0
100
AcDbLine
 10
96.57834966283
 20
-293.7896739561
 11
98.21541566283
 21
-295.4267399561
  0
LINE
  5
674
100
AcDbEntity
  8
_0-1_PRO0
  6
CONTINUOUS
 62
     0
100
AcDbLine
 10
95.23456066283
 20
-293.8600989561
 11
96.87162666283
 21
-295.4971649561
  0
LINE
  5
675
100
AcDbEntity
  8
_0-1_PRO0
  6
CONTINUOUS
 62
     0
100
AcDbLine
 10
93.89077266283
 20
-293.9305239561
 11
95.52783766283
 21
-295.5675889561
  0
LINE
  5
676
100
AcDbEntity
  8
_0-1_PRO0
  6
CONTINUOUS
 62
     0
100
AcDbLine
 10
92.54698366283
 20
-294.0009489561
 11
94.18404966283
 21
-295.6380139561
  0
LINE
  5
677
100
AcDbEntity
  8
_0-1_PRO0
  6
CONTINUOUS
 62
     0
100
AcDbLine
 10
92.84026066283
 20
-295.7084389561
 11
92.22673966283
 21
-295.0949189561
  0
LINE
  5
678
100
AcDbEntity
  8
_0-1_PRO0
  6
CONTINUOUS
 62
     0
100
AcDbLine
 10
100.5989646628
 20
-293.5789619561
 11
102.2360306628
 21
-295.2160279561
  0
LINE
  5
679
100
AcDbEntity
  8
_0-1_PRO0
  6
CONTINUOUS
 62
     0
100
AcDbLine
 10
101.9535036628
 20
-293.5079739561
 11
102.1685666628
 21
-293.7230359561
  0
ARC
  5
67A
100
AcDbEntity
  8
_0-1_PRO0
  6
CONTINUOUS
 62
     0
100
AcDbCircle
 10
66.02541366283
 20
-380.5453639561
 40
3
100
AcDbArc
 50
180
 51
270
  0
LINE
  5
67B
100
AcDbEntity
  8
_0-1_PRO0
  6
CONTINUOUS
 62
     0
100
AcDbLine
 10
66.02541366283
 20
-383.5453639561
 11
73.02541366283
 21
-383.5453639561
  0
ARC
  5
67C
100
AcDbEntity
  8
_0-1_PRO0
  6
CONTINUOUS
 62
     0
100
AcDbCircle
 10
66.02541366283
 20
-296.3922579561
 40
3
100
AcDbArc
 50
93
 51
180
  0
LINE
  5
67D
100
AcDbEntity
  8
_0-1_PRO0
  6
CONTINUOUS
 62
     0
100
AcDbLine
 10
63.02541366283
 20
-296.3922579561
 11
63.02541366283
 21
-380.5453639561
  0
LINE
  5
67E
100
AcDbEntity
  8
_0-1_PRO0
  6
CONTINUOUS
 62
     0
100
AcDbLine
 10
78.80336866283
 20
-300.5261459561
 11
65.02541366283
 21
-377.6826939561
  0
LINE
  5
67F
100
AcDbEntity
  8
_0-1_PRO0
  6
CONTINUOUS
 62
     0
100
AcDbLine
 10
83.23329266283
 20
-301.3172039561
 11
69.45660666283
 21
-378.4666419561
  0
ARC
  5
680
100
AcDbEntity
  8
_0-1_PRO0
  6
CONTINUOUS
 62
     0
100
AcDbCircle
 10
86.18657466283
 20
-301.8445759561
 40
3
100
AcDbArc
 50
93
 51
169.875328
  0
LINE
  5
681
100
AcDbEntity
  8
_0-1_PRO0
  6
CONTINUOUS
 62
     0
100
AcDbLine
 10
69.94271166283
 20
-370.7453639561
 11
79.19288766283
 21
-370.7453639561
  0
ARC
  5
682
100
AcDbEntity
  8
_0-1_PRO0
  6
CONTINUOUS
 62
     0
100
AcDbCircle
 10
69.94271166283
 20
-371.2453639561
 40
0.5
100
AcDbArc
 50
90
 51
168
  0
LINE
  5
683
100
AcDbEntity
  8
_0-1_PRO0
  6
CONTINUOUS
 62
     0
100
AcDbLine
 10
69.45363766283
 20
-371.1414079561
 11
68.02541366283
 21
-377.8606769561
  0
LINE
  5
684
100
AcDbEntity
  8
_0-1_PRO0
  6
CONTINUOUS
 62
     0
100
AcDbLine
 10
68.02541366283
 20
-377.8606769561
 11
68.02541366283
 21
-381.5453639561
  0
LINE
  5
685
100
AcDbEntity
  8
_0-1_PRO0
  6
CONTINUOUS
 62
     0
100
AcDbLine
 10
67.52541366283
 20
-381.5453639561
 11
68.02541366283
 21
-381.5453639561
  0
ARC
  5
686
100
AcDbEntity
  8
_0-1_PRO0
  6
CONTINUOUS
 62
     0
100
AcDbCircle
 10
67.52541366283
 20
-379.0453639561
 40
2.5
100
AcDbArc
 50
180
 51
270
  0
LINE
  5
687
100
AcDbEntity
  8
_0-1_PRO0
  6
CONTINUOUS
 62
     0
100
AcDbLine
 10
79.19288766283
 20
-369.5453639561
 11
76.79288766283
 21
-369.5453639561
  0
LINE
  5
688
100
AcDbEntity
  8
_0-1_PRO0
  6
CONTINUOUS
 62
     0
100
AcDbLine
 10
76.79288766283
 20
-369.5453639561
 11
74.79288766283
 21
-368.5453639561
  0
ARC
  5
689
100
AcDbEntity
  8
_0-1_PRO0
  6
CONTINUOUS
 62
     0
100
AcDbCircle
 10
79.19288766283
 20
-370.1453639561
 40
0.6
100
AcDbArc
 50
-90
 51
90
  0
LINE
  5
68A
100
AcDbEntity
  8
_0-1_PRO0
  6
CONTINUOUS
 62
     0
100
AcDbLine
 10
70.41033666283
 20
-369.5453639561
 11
74.79288766283
 21
-369.5453639561
  0
ARC
  5
68B
100
AcDbEntity
  8
_0-1_PRO0
  6
CONTINUOUS
 62
     0
100
AcDbCircle
 10
70.41033666283
 20
-369.0453639561
 40
0.5
100
AcDbArc
 50
168
 51
270
  0
ARC
  5
68C
100
AcDbEntity
  8
_0-1_PRO0
  6
CONTINUOUS
 62
     0
100
AcDbCircle
 10
91.62396166283
 20
-321.8078639561
 40
0.5
100
AcDbArc
 50
3.000000000006
 51
93.00000000001
  0
LINE
  5
68D
100
AcDbEntity
  8
_0-1_PRO0
  6
CONTINUOUS
 62
     0
100
AcDbLine
 10
92.12327666283
 20
-321.7816959561
 11
92.17561266283
 21
-322.7803259561
  0
LINE
  5
68E
100
AcDbEntity
  8
_0-1_PRO0
  6
CONTINUOUS
 62
     0
100
AcDbLine
 10
92.70109466283
 20
-323.2534719561
 11
93.20040966283
 21
-323.2273039561
  0
ARC
  5
68F
100
AcDbEntity
  8
_0-1_PRO0
  6
CONTINUOUS
 62
     0
100
AcDbCircle
 10
93.17424166283
 20
-322.7279899561
 40
0.5
100
AcDbArc
 50
-86.99999999999
 51
2.999999999993
  0
ARC
  5
690
100
AcDbEntity
  8
_0-1_PRO0
  6
CONTINUOUS
 62
     0
100
AcDbCircle
 10
92.67492666283
 20
-322.7541579561
 40
0.5
100
AcDbArc
 50
-177
 51
-86.99999999999
  0
LINE
  5
691
100
AcDbEntity
  8
_0-1_PRO0
  6
CONTINUOUS
 62
     0
100
AcDbLine
 10
83.92271466283
 20
-321.7107829561
 11
91.59779366283
 21
-321.3085489561
  0
ARC
  5
692
100
AcDbEntity
  8
_0-1_PRO0
  6
CONTINUOUS
 62
     0
100
AcDbCircle
 10
83.94888266283
 20
-322.2100979561
 40
0.5
100
AcDbArc
 50
93.00000000001
 51
193
  0
LINE
  5
693
100
AcDbEntity
  8
_0-1_PRO0
  6
CONTINUOUS
 62
     0
100
AcDbLine
 10
83.46169766283
 20
-322.3225729561
 11
84.04489066283
 21
-324.8486579561
  0
LINE
  5
694
100
AcDbEntity
  8
_0-1_PRO0
  6
CONTINUOUS
 62
     0
100
AcDbLine
 10
81.85942766283
 20
-321.8189149561
 11
80.68208166283
 21
-321.8806169561
  0
ARC
  5
695
100
AcDbEntity
  8
_0-1_PRO0
  6
CONTINUOUS
 62
     0
100
AcDbCircle
 10
81.87512866283
 20
-322.1185039561
 40
0.3
100
AcDbArc
 50
13.00000000001
 51
93.00000000001
  0
LINE
  5
696
100
AcDbEntity
  8
_0-1_PRO0
  6
CONTINUOUS
 62
     0
100
AcDbLine
 10
82.16743966283
 20
-322.0510189561
 11
82.87564666283
 21
-325.1185989561
  0
ARC
  5
697
100
AcDbEntity
  8
_0-1_PRO0
  6
CONTINUOUS
 62
     0
100
AcDbCircle
 10
80.73441766283
 20
-322.8792469561
 40
1
100
AcDbArc
 50
93
 51
168
  0
ARC
  5
698
100
AcDbEntity
  8
_0-1_PRO0
  6
CONTINUOUS
 62
     0
100
AcDbCircle
 10
83.46026866283
 20
-324.9836279561
 40
0.6
100
AcDbArc
 50
-167
 51
12.99999999999
  0
LINE
  5
699
100
AcDbEntity
  8
_0-1_PRO0
  6
CONTINUOUS
 62
     0
100
AcDbLine
 10
76.98136366283
 20
-321.2970409561
 11
65.02541366283
 21
-377.5453639561
  0
LINE
  5
69A
100
AcDbEntity
  8
_0-1_PRO0
  6
CONTINUOUS
 62
     0
100
AcDbLine
 10
79.75626966283
 20
-322.6713349561
 11
69.92126266283
 21
-368.9414079561
  0
LINE
  5
69B
100
AcDbEntity
  8
_0-1_PRO0
  6
CONTINUOUS
 62
     0
100
AcDbLine
 10
69.45660666283
 20
-378.4666419561
 11
65.02541366283
 21
-377.6826939561
  0
LINE
  5
69C
100
AcDbEntity
  8
_0-1_PRO0
  6
CONTINUOUS
 62
     0
100
AcDbLine
 10
92.17044166283
 20
-294.0206819561
 11
92.26048566283
 21
-295.7388239561
  0
LINE
  5
69D
100
AcDbEntity
  8
_0-1_PRO0
  6
CONTINUOUS
 62
     0
100
AcDbLine
 10
102.1567366628
 20
-293.4973229561
 11
102.2467806628
 21
-295.2154649561
  0
ARC
  5
69E
100
AcDbEntity
  8
_0-1_PRO0
  6
CONTINUOUS
 62
     0
100
AcDbCircle
 10
92.80788966283
 20
-315.7375829561
 40
0.5
100
AcDbArc
 50
3.000000000006
 51
93.00000000001
  0
LINE
  5
69F
100
AcDbEntity
  8
_0-1_PRO0
  6
CONTINUOUS
 62
     0
100
AcDbLine
 10
91.44078566283
 20
-318.3126609561
 11
79.75879866283
 21
-318.9248879561
  0
ARC
  5
6A0
100
AcDbEntity
  8
_0-1_PRO0
  6
CONTINUOUS
 62
     0
100
AcDbCircle
 10
91.41461766283
 20
-317.8133459561
 40
0.5
100
AcDbArc
 50
-86.99999999999
 51
3.000000000006
  0
LINE
  5
6A1
100
AcDbEntity
  8
_0-1_PRO0
  6
CONTINUOUS
 62
     0
100
AcDbLine
 10
91.91393266283
 20
-317.7871779561
 11
91.80926066283
 21
-315.7899189561
  0
ARC
  5
6A2
100
AcDbEntity
  8
_0-1_PRO0
  6
CONTINUOUS
 62
     0
100
AcDbCircle
 10
92.30857566283
 20
-315.7637509561
 40
0.5
100
AcDbArc
 50
93.00000000001
 51
183
  0
LINE
  5
6A3
100
AcDbEntity
  8
_0-1_PRO0
  6
CONTINUOUS
 62
     0
100
AcDbLine
 10
92.28240766283
 20
-315.2644359561
 11
92.78172166283
 21
-315.2382679561
  0
LINE
  5
6A4
100
AcDbEntity
  8
_0-1_PRO0
  6
CONTINUOUS
 62
     0
100
AcDbLine
 10
92.26048566283
 20
-295.7388239561
 11
93.72589266283
 21
-323.7004509561
  0
ARC
  5
6A5
100
AcDbEntity
  8
_0-1_PRO0
  6
CONTINUOUS
 62
     0
100
AcDbCircle
 10
79.91580666283
 20
-321.9207759561
 40
3
100
AcDbArc
 50
93
 51
168
  0
ARC
  5
6A6
100
AcDbEntity
  8
_0-1_PRO0
  6
CONTINUOUS
 62
     0
100
AcDbCircle
 10
121.9774906628
 20
-318.2143579561
 40
1.5
100
AcDbArc
 50
-87
 51
93
  0
ARC
  5
6A7
100
AcDbEntity
  8
_0-0_
  6
CONTINUOUS
 62
     0
100
AcDbCircle
 10
66.02541366283
 20
-380.5453639561
 40
1.5
100
AcDbArc
 50
180
 51
270
  0
LINE
  5
6A8
100
AcDbEntity
  8
_0-0_
  6
CONTINUOUS
 62
     0
100
AcDbLine
 10
64.52541366283
 20
-296.3922579561
 11
64.52541366283
 21
-380.5453639561
  0
ARC
  5
6A9
100
AcDbEntity
  8
_0-0_
  6
CONTINUOUS
 62
     0
100
AcDbCircle
 10
66.02541366283
 20
-296.3922579561
 40
1.5
100
AcDbArc
 50
93
 51
180
  0
LINE
  5
6AA
100
AcDbEntity
  8
_0-0_
  6
CONTINUOUS
 62
     0
100
AcDbLine
 10
65.94690959793
 20
-294.8943132581
 11
613.0254136628
 21
-266.2231434978
  0
LINE
  5
6AB
100
AcDbEntity
  8
_0-0_
  6
CONTINUOUS
 62
     0
100
AcDbLine
 10
66.02541366283
 20
-382.0453639561
 11
73.02541366283
 21
-382.0453639561
  0
LINE
  5
6AC
100
AcDbEntity
  8
_0-1_PRO0
  6
CONTINUOUS
 62
     0
100
AcDbLine
 10
73.02541366283
 20
-382.0453639561
 11
73.02541366283
 21
-383.5453639561
  0
LINE
  5
6AD
100
AcDbEntity
  8
_0-1_PRO0
  6
CONTINUOUS
 62
     0
100
AcDbLine
 10
65.02541366283
 20
-377.5453639561
 11
65.02541366283
 21
-379.0453639561
  0
LINE
  5
6AE
100
AcDbEntity
  8
_0-1_PRO0
  6
CONTINUOUS
 62
     0
100
AcDbLine
 10
85.99588185974
 20
-294.3442770497
 11
612.8160698597
 21
-266.7348010723
  0
LINE
  5
6AF
100
AcDbEntity
  8
_0-1_PRO0
  6
CONTINUOUS
 62
     0
100
AcDbLine
 10
63.02541366283
 20
-376.8045859787
 11
63.02541366283
 21
-549.1631171914
  0
LINE
  5
6B0
100
AcDbEntity
  8
_0-1_PRO0
  6
CONTINUOUS
 62
     0
100
AcDbLine
 10
63.02541366283
 20
-543.1631171914
 11
69.02541366283
 21
-541.6631171914
  0
LINE
  5
6B1
100
AcDbEntity
  8
_0-1_PRO0
  6
CONTINUOUS
 62
     0
100
AcDbLine
 10
63.02541366283
 20
-543.1631171914
 11
69.02541366283
 21
-544.6631171914
  0
LINE
  5
6B2
100
AcDbEntity
  8
_0-1_PRO0
  6
CONTINUOUS
 62
     0
100
AcDbLine
 10
63.02541366283
 20
-290.1514799787
 11
63.02541366283
 21
-189.5620160072
  0
LINE
  5
6B3
100
AcDbEntity
  8
_0-1_PRO0
  6
CONTINUOUS
 62
     0
100
AcDbLine
 10
63.02541366283
 20
-193.5620160072
 11
69.02541366283
 21
-192.0620160072
  0
LINE
  5
6B4
100
AcDbEntity
  8
_0-1_PRO0
  6
CONTINUOUS
 62
     0
100
AcDbLine
 10
63.02541366283
 20
-193.5620160072
 11
69.02541366283
 21
-195.0620160072
  0
LINE
  5
6B5
100
AcDbEntity
  8
_0-1_PRO0
  6
CONTINUOUS
 62
     0
100
AcDbLine
 10
1163.025413663
 20
-290.1514799787
 11
1163.025413663
 21
-189.5620160072
  0
LINE
  5
6B6
100
AcDbEntity
  8
_0-1_PRO0
  6
CONTINUOUS
 62
     0
100
AcDbLine
 10
1163.025413663
 20
-193.5620160072
 11
1157.025413663
 21
-195.0620160072
  0
LINE
  5
6B7
100
AcDbEntity
  8
_0-1_PRO0
  6
CONTINUOUS
 62
     0
100
AcDbLine
 10
1163.025413663
 20
-193.5620160072
 11
1157.025413663
 21
-192.0620160072
  0
LINE
  5
6B8
100
AcDbEntity
  8
_0-1_PRO0
  6
CONTINUOUS
 62
     0
100
AcDbLine
 10
63.02541366283
 20
-193.5620160072
 11
1163.025413663
 21
-193.5620160072
  0
LINE
  5
6B9
100
AcDbEntity
  8
ADD_LINE
  6
DOT
 62
     0
100
AcDbLine
 10
996.5494214781
 20
-339.6759159561
 11
63.02541366283
 21
-339.6759159561
  0
LINE
  5
6BA
100
AcDbEntity
  8
_0-1_PRO0
  6
CONTINUOUS
 62
     0
100
AcDbLine
 10
283.0254136628
 20
-543.1631171914
 11
289.0254136628
 21
-541.6631171914
  0
LINE
  5
6BB
100
AcDbEntity
  8
_0-1_PRO0
  6
CONTINUOUS
 62
     0
100
AcDbLine
 10
283.0254136628
 20
-543.1631171914
 11
289.0254136628
 21
-544.6631171914
  0
LINE
  5
6BC
100
AcDbEntity
  8
_0-1_PRO0
  6
CONTINUOUS
 62
     0
100
AcDbLine
 10
283.0254136628
 20
-524.6672771914
 11
283.0254136628
 21
-549.1631171914
  0
LINE
  5
6BD
100
AcDbEntity
  8
_0-1_PRO0
  6
CONTINUOUS
 62
     0
100
AcDbLine
 10
283.0254136628
 20
-543.1631171914
 11
277.0254136628
 21
-544.6631171914
  0
LINE
  5
6BE
100
AcDbEntity
  8
_0-1_PRO0
  6
CONTINUOUS
 62
     0
100
AcDbLine
 10
283.0254136628
 20
-543.1631171914
 11
277.0254136628
 21
-541.6631171914
  0
LINE
  5
6BF
100
AcDbEntity
  8
_0-1_PRO0
  6
CONTINUOUS
 62
     0
100
AcDbLine
 10
63.02541366283
 20
-543.1631171914
 11
283.0254136628
 21
-543.1631171914
  0
TEXT
  5
6C0
100
AcDbEntity
  8
_0-1_PRO0
  6
CONTINUOUS
 62
     0
100
AcDbText
 10
160.0955399481
 20
-541.5002067378
 40
8.99
  1
２２０
 41
0.7385984427141
  7
STANDARD
100
AcDbText
  0
LINE
  5
6C1
100
AcDbEntity
  8
_0-1_PRO0
  6
CONTINUOUS
 62
     0
100
AcDbLine
 10
413.0254136628
 20
-543.1631171914
 11
419.0254136628
 21
-541.6631171914
  0
LINE
  5
6C2
100
AcDbEntity
  8
_0-1_PRO0
  6
CONTINUOUS
 62
     0
100
AcDbLine
 10
413.0254136628
 20
-543.1631171914
 11
419.0254136628
 21
-544.6631171914
  0
LINE
  5
6C3
100
AcDbEntity
  8
_0-1_PRO0
  6
CONTINUOUS
 62
     0
100
AcDbLine
 10
413.0254136628
 20
-524.6672771914
 11
413.0254136628
 21
-549.1631171914
  0
LINE
  5
6C4
100
AcDbEntity
  8
_0-1_PRO0
  6
CONTINUOUS
 62
     0
100
AcDbLine
 10
413.0254136628
 20
-543.1631171914
 11
407.0254136628
 21
-544.6631171914
  0
LINE
  5
6C5
100
AcDbEntity
  8
_0-1_PRO0
  6
CONTINUOUS
 62
     0
100
AcDbLine
 10
413.0254136628
 20
-543.1631171914
 11
407.0254136628
 21
-541.6631171914
  0
LINE
  5
6C6
100
AcDbEntity
  8
_0-1_PRO0
  6
CONTINUOUS
 62
     0
100
AcDbLine
 10
413.0254136628
 20
-543.1631171914
 11
813.0254136628
 21
-543.1631171914
  0
LINE
  5
6C7
100
AcDbEntity
  8
_0-1_PRO0
  6
CONTINUOUS
 62
     0
100
AcDbLine
 10
283.0254136628
 20
-543.1631171914
 11
413.0254136628
 21
-543.1631171914
  0
TEXT
  5
6C8
100
AcDbEntity
  8
_0-1_PRO0
  6
CONTINUOUS
 62
     0
100
AcDbText
 10
602.6062774076
 20
-540.0454124821
 40
9
  1
４００
 41
0.7377777777778
  7
STANDARD
100
AcDbText
  0
TEXT
  5
6C9
100
AcDbEntity
  8
_0-1_PRO0
  6
CONTINUOUS
 62
     0
100
AcDbText
 10
341.5853781668
 20
-543.1300617277
 40
8.99
  1
≦Ｃ
 41
0.7385984427141
  7
STANDARD
100
AcDbText
  0
LINE
  5
6CA
100
AcDbEntity
  8
ADD_LINE
  6
DOT
 62
     0
100
AcDbLine
 10
283.0254136628
 20
-344.9166939334
 11
283.0254136628
 21
-549.1631171914
  0
LINE
  5
6CB
100
AcDbEntity
  8
_0-2_
  6
CONTINUOUS
 62
     0
100
AcDbLine
 10
324.0077413772
 20
-333.5671459561
 11
342.0077413772
 21
-333.5671459561
  0
LINE
  5
6CC
100
AcDbEntity
  8
_0-1_PRO0
  6
CONTINUOUS
 62
     0
100
AcDbLine
 10
283.0254136628
 20
-523.1672771914
 11
283.0254136628
 21
-339.6759159561
  0
LINE
  5
6CD
100
AcDbEntity
  8
_0-2_
  6
CONTINUOUS
 62
     0
100
AcDbLine
 10
337.7898463772
 20
-323.0979529561
 11
328.6024543772
 21
-323.5794439561
  0
LINE
  5
6CE
100
AcDbEntity
  8
_0-2_
  6
CONTINUOUS
 62
     0
100
AcDbLine
 10
348.0077413772
 20
-339.1018934844
 11
347.5817638489
 21
-338.6759159561
  0
ARC
  5
6CF
100
AcDbEntity
  8
_0-2_
  6
CONTINUOUS
 62
     0
100
AcDbCircle
 10
348.0077413772
 20
-346.9259159561
 40
8.25
100
AcDbArc
 50
71.07535558395
 51
90
  0
ARC
  5
6D0
100
AcDbEntity
  8
_0-2_
  6
CONTINUOUS
 62
     0
100
AcDbCircle
 10
348.0077413772
 20
-346.9259159561
 40
9.25
100
AcDbArc
 50
71.07535558395
 51
90
  0
ARC
  5
6D1
100
AcDbEntity
  8
_0-2_
  6
CONTINUOUS
 62
     0
100
AcDbCircle
 10
354.0077413772
 20
-329.4259159561
 40
9.25
100
AcDbArc
 50
-108.9246444161
 51
-90
  0
LINE
  5
6D2
100
AcDbEntity
  8
_0-2_
  6
CONTINUOUS
 62
     0
100
AcDbLine
 10
333.0254146628
 20
-385.1093169561
 11
333.0254146628
 21
-339.6759159561
  0
LINE
  5
6D3
100
AcDbEntity
  8
_0-2_
  6
CONTINUOUS
 62
     0
100
AcDbLine
 10
328.2754126628
 20
-348.6759159561
 11
328.9754146628
 21
-347.9759169561
  0
LINE
  5
6D4
100
AcDbEntity
  8
_0-2_
  6
CONTINUOUS
 62
     0
100
AcDbLine
 10
328.9754146628
 20
-338.6759169561
 11
328.9754146628
 21
-347.9759169561
  0
LINE
  5
6D5
100
AcDbEntity
  8
_0-2_
  6
CONTINUOUS
 62
     0
100
AcDbLine
 10
328.2754126628
 20
-367.3040889561
 11
328.2754126628
 21
-348.6759159561
  0
LINE
  5
6D6
100
AcDbEntity
  8
_0-2_
  6
CONTINUOUS
 62
     0
100
AcDbLine
 10
328.5254146628
 20
-379.1759169561
 11
328.5254146628
 21
-378.3126129561
  0
LINE
  5
6D7
100
AcDbEntity
  8
_0-2_
  6
CONTINUOUS
 62
     0
100
AcDbLine
 10
326.4003826628
 20
-377.9379129561
 11
328.2754126628
 21
-367.3040889561
  0
LINE
  5
6D8
100
AcDbEntity
  8
_0-2_
  6
CONTINUOUS
 62
     0
100
AcDbLine
 10
332.5254136628
 20
-367.6759179561
 11
333.5254126628
 21
-367.6759179561
  0
LINE
  5
6D9
100
AcDbEntity
  8
_0-2_
  6
CONTINUOUS
 62
     0
100
AcDbLine
 10
337.7754136628
 20
-348.6759159561
 11
337.0754146628
 21
-347.9759169561
  0
LINE
  5
6DA
100
AcDbEntity
  8
_0-2_
  6
CONTINUOUS
 62
     0
100
AcDbLine
 10
337.0754146628
 20
-338.6759169561
 11
337.0754146628
 21
-347.9759169561
  0
LINE
  5
6DB
100
AcDbEntity
  8
_0-2_
  6
CONTINUOUS
 62
     0
100
AcDbLine
 10
337.7754136628
 20
-367.3040889561
 11
337.7754136628
 21
-348.6759159561
  0
LINE
  5
6DC
100
AcDbEntity
  8
_0-2_
  6
CONTINUOUS
 62
     0
100
AcDbLine
 10
336.5254126628
 20
-380.1759159561
 11
329.5254136628
 21
-380.1759159561
  0
ARC
  5
6DD
100
AcDbEntity
  8
_0-2_
  6
CONTINUOUS
 62
     0
100
AcDbCircle
 10
336.5254126628
 20
-379.1759169561
 40
0.999999
100
AcDbArc
 50
-90
 51
0
  0
LINE
  5
6DE
100
AcDbEntity
  8
_0-2_
  6
CONTINUOUS
 62
     0
100
AcDbLine
 10
337.5254146628
 20
-379.1759169561
 11
337.5254146628
 21
-378.3126129561
  0
LINE
  5
6DF
100
AcDbEntity
  8
_0-2_
  6
CONTINUOUS
 62
     0
100
AcDbLine
 10
339.6504436628
 20
-377.9379129561
 11
335.4650116628
 21
-378.6759159561
  0
LINE
  5
6E0
100
AcDbEntity
  8
_0-2_
  6
CONTINUOUS
 62
     0
100
AcDbLine
 10
332.5254136628
 20
-367.6759179561
 11
330.5858176628
 21
-378.6759159561
  0
LINE
  5
6E1
100
AcDbEntity
  8
_0-2_
  6
CONTINUOUS
 62
     0
100
AcDbLine
 10
333.5254126628
 20
-367.6759179561
 11
335.4650116628
 21
-378.6759159561
  0
LINE
  5
6E2
100
AcDbEntity
  8
_0-2_
  6
CONTINUOUS
 62
     0
100
AcDbLine
 10
339.6504436628
 20
-377.9379129561
 11
337.7754136628
 21
-367.3040889561
  0
LINE
  5
6E3
100
AcDbEntity
  8
_0-2_
  6
CONTINUOUS
 62
     0
100
AcDbLine
 10
328.2754126628
 20
-348.6759159561
 11
337.7754136628
 21
-348.6759159561
  0
LINE
  5
6E4
100
AcDbEntity
  8
_0-2_
  6
CONTINUOUS
 62
     0
100
AcDbLine
 10
328.9754146628
 20
-347.9759169561
 11
337.0754146628
 21
-347.9759169561
  0
LINE
  5
6E5
100
AcDbEntity
  8
_0-2_
  6
CONTINUOUS
 62
     0
100
AcDbLine
 10
326.4003826628
 20
-377.9379129561
 11
330.5858176628
 21
-378.6759159561
  0
ARC
  5
6E6
100
AcDbEntity
  8
_0-2_
  6
CONTINUOUS
 62
     0
100
AcDbCircle
 10
329.5254136628
 20
-379.1759169561
 40
0.999999
100
AcDbArc
 50
180
 51
270
  0
LINE
  5
6E7
100
AcDbEntity
  8
_0-2_
  6
CONTINUOUS
 62
     0
100
AcDbLine
 10
347.1675502866
 20
-339.6759159561
 11
346.1675502866
 21
-338.6759159561
  0
LINE
  5
6E8
100
AcDbEntity
  8
_0-2_
  6
CONTINUOUS
 62
     0
100
AcDbLine
 10
345.7533367242
 20
-339.6759159561
 11
344.7533367242
 21
-338.6759159561
  0
LINE
  5
6E9
100
AcDbEntity
  8
_0-2_
  6
CONTINUOUS
 62
     0
100
AcDbLine
 10
344.3391231618
 20
-339.6759159561
 11
343.3391231618
 21
-338.6759159561
  0
LINE
  5
6EA
100
AcDbEntity
  8
_0-2_
  6
CONTINUOUS
 62
     0
100
AcDbLine
 10
342.9249095994
 20
-339.6759159561
 11
341.9249095994
 21
-338.6759159561
  0
LINE
  5
6EB
100
AcDbEntity
  8
_0-2_
  6
CONTINUOUS
 62
     0
100
AcDbLine
 10
341.5106960371
 20
-339.6759159561
 11
340.5106960371
 21
-338.6759159561
  0
LINE
  5
6EC
100
AcDbEntity
  8
_0-2_
  6
CONTINUOUS
 62
     0
100
AcDbLine
 10
340.0964824747
 20
-339.6759159561
 11
339.0964824747
 21
-338.6759159561
  0
LINE
  5
6ED
100
AcDbEntity
  8
_0-2_
  6
CONTINUOUS
 62
     0
100
AcDbLine
 10
338.6822689123
 20
-339.6759159561
 11
337.6822689123
 21
-338.6759159561
  0
LINE
  5
6EE
100
AcDbEntity
  8
_0-2_
  6
CONTINUOUS
 62
     0
100
AcDbLine
 10
337.26805535
 20
-339.6759159561
 11
336.26805535
 21
-338.6759159561
  0
LINE
  5
6EF
100
AcDbEntity
  8
_0-2_
  6
CONTINUOUS
 62
     0
100
AcDbLine
 10
335.8538417876
 20
-339.6759159561
 11
334.8538417876
 21
-338.6759159561
  0
LINE
  5
6F0
100
AcDbEntity
  8
_0-2_
  6
CONTINUOUS
 62
     0
100
AcDbLine
 10
334.4396282252
 20
-339.6759159561
 11
333.4396282252
 21
-338.6759159561
  0
LINE
  5
6F1
100
AcDbEntity
  8
_0-2_
  6
CONTINUOUS
 62
     0
100
AcDbLine
 10
333.0254146628
 20
-339.6759159561
 11
332.0254146628
 21
-338.6759159561
  0
LINE
  5
6F2
100
AcDbEntity
  8
_0-2_
  6
CONTINUOUS
 62
     0
100
AcDbLine
 10
331.6112011005
 20
-339.6759159561
 11
330.6112011005
 21
-338.6759159561
  0
LINE
  5
6F3
100
AcDbEntity
  8
_0-2_
  6
CONTINUOUS
 62
     0
100
AcDbLine
 10
330.1969875381
 20
-339.6759159561
 11
329.1969875381
 21
-338.6759159561
  0
LINE
  5
6F4
100
AcDbEntity
  8
_0-2_
  6
CONTINUOUS
 62
     0
100
AcDbLine
 10
328.7827739757
 20
-339.6759159561
 11
327.7827739757
 21
-338.6759159561
  0
LINE
  5
6F5
100
AcDbEntity
  8
_0-2_
  6
CONTINUOUS
 62
     0
100
AcDbLine
 10
327.3685604133
 20
-339.6759159561
 11
326.3685604133
 21
-338.6759159561
  0
LINE
  5
6F6
100
AcDbEntity
  8
_0-2_
  6
CONTINUOUS
 62
     0
100
AcDbLine
 10
325.954346851
 20
-339.6759159561
 11
324.954346851
 21
-338.6759159561
  0
LINE
  5
6F7
100
AcDbEntity
  8
_0-2_
  6
CONTINUOUS
 62
     0
100
AcDbLine
 10
324.5401332886
 20
-339.6759159561
 11
323.5401332886
 21
-338.6759159561
  0
LINE
  5
6F8
100
AcDbEntity
  8
_0-2_
  6
CONTINUOUS
 62
     0
100
AcDbLine
 10
323.1259197262
 20
-339.6759159561
 11
322.1259197262
 21
-338.6759159561
  0
LINE
  5
6F9
100
AcDbEntity
  8
_0-2_
  6
CONTINUOUS
 62
     0
100
AcDbLine
 10
321.7117061638
 20
-339.6759159561
 11
320.7117061638
 21
-338.6759159561
  0
LINE
  5
6FA
100
AcDbEntity
  8
_0-2_
  6
CONTINUOUS
 62
     0
100
AcDbLine
 10
320.2974926015
 20
-339.6759159561
 11
319.2974926015
 21
-338.6759159561
  0
LINE
  5
6FB
100
AcDbEntity
  8
_0-2_
  6
CONTINUOUS
 62
     0
100
AcDbLine
 10
318.8832790391
 20
-339.6759159561
 11
318.0077413772
 21
-338.8003782942
  0
LINE
  5
6FC
100
AcDbEntity
  8
_0-2_
  6
CONTINUOUS
 62
     0
100
AcDbLine
 10
318.0077413772
 20
-339.6759159561
 11
348.0077413772
 21
-339.6759159561
  0
LINE
  5
6FD
100
AcDbEntity
  8
_0-2_
  6
CONTINUOUS
 62
     0
100
AcDbLine
 10
348.0077413772
 20
-339.6759159561
 11
348.0077413772
 21
-338.6759159561
  0
LINE
  5
6FE
100
AcDbEntity
  8
_0-2_
  6
CONTINUOUS
 62
     0
100
AcDbLine
 10
348.0077413772
 20
-338.6759159561
 11
318.0077413772
 21
-338.6759159561
  0
LINE
  5
6FF
100
AcDbEntity
  8
_0-2_
  6
CONTINUOUS
 62
     0
100
AcDbLine
 10
318.0077413772
 20
-338.6759159561
 11
318.0077413772
 21
-339.6759159561
  0
ARC
  5
700
100
AcDbEntity
  8
_0-2_
  6
CONTINUOUS
 62
     0
100
AcDbCircle
 10
354.0077413772
 20
-329.4259159561
 40
10.25
100
AcDbArc
 50
-108.9246444161
 51
-90
  0
LINE
  5
701
100
AcDbEntity
  8
_0-2_
  6
CONTINUOUS
 62
     0
100
AcDbLine
 10
324.0077413772
 20
-333.5671459561
 11
324.0077413772
 21
-335.1671449561
  0
LINE
  5
702
100
AcDbEntity
  8
_0-2_
  6
CONTINUOUS
 62
     0
100
AcDbLine
 10
342.0077413772
 20
-333.5671459561
 11
342.0077413772
 21
-335.1671449561
  0
LINE
  5
703
100
AcDbEntity
  8
_0-2_
  6
CONTINUOUS
 62
     0
100
AcDbLine
 10
338.8877413772
 20
-329.3040829561
 11
338.8877413772
 21
-333.5671459561
  0
LINE
  5
704
100
AcDbEntity
  8
_0-2_
  6
CONTINUOUS
 62
     0
100
AcDbLine
 10
337.9577413772
 20
-328.7671459561
 11
338.8877413772
 21
-329.3040829561
  0
ARC
  5
705
100
AcDbEntity
  8
_0-2_
  6
CONTINUOUS
 62
     0
100
AcDbCircle
 10
337.9577413772
 20
-332.5765399561
 40
3.809394
100
AcDbArc
 50
90
 51
120.789964
  0
ARC
  5
706
100
AcDbEntity
  8
_0-2_
  6
CONTINUOUS
 62
     0
100
AcDbCircle
 10
333.0077413772
 20
-337.4165059561
 40
8.64936
100
AcDbArc
 50
69.705445
 51
110.294555
  0
LINE
  5
707
100
AcDbEntity
  8
_0-2_
  6
CONTINUOUS
 62
     0
100
AcDbLine
 10
336.0077413772
 20
-329.3040829561
 11
336.0077413772
 21
-333.5671459561
  0
LINE
  5
708
100
AcDbEntity
  8
_0-2_
  6
CONTINUOUS
 62
     0
100
AcDbLine
 10
330.0077413772
 20
-329.3040829561
 11
330.0077413772
 21
-333.5671459561
  0
LINE
  5
709
100
AcDbEntity
  8
_0-2_
  6
CONTINUOUS
 62
     0
100
AcDbLine
 10
327.1277413772
 20
-329.3040829561
 11
327.1277413772
 21
-333.5671459561
  0
LINE
  5
70A
100
AcDbEntity
  8
_0-2_
  6
CONTINUOUS
 62
     0
100
AcDbLine
 10
328.0577413772
 20
-328.7671459561
 11
327.1277413772
 21
-329.3040829561
  0
LINE
  5
70B
100
AcDbEntity
  8
_0-2_
  6
CONTINUOUS
 62
     0
100
AcDbLine
 10
337.9577413772
 20
-328.7671459561
 11
328.0577413772
 21
-328.7671459561
  0
ARC
  5
70C
100
AcDbEntity
  8
_0-2_
  6
CONTINUOUS
 62
     0
100
AcDbCircle
 10
328.0577413772
 20
-332.5765399561
 40
3.809394
100
AcDbArc
 50
59.210036
 51
90
  0
LINE
  5
70D
100
AcDbEntity
  8
_0-2_
  6
CONTINUOUS
 62
     0
100
AcDbLine
 10
337.7375113772
 20
-322.0993219561
 11
337.7898463772
 21
-323.0979529561
  0
LINE
  5
70E
100
AcDbEntity
  8
_0-2_
  6
CONTINUOUS
 62
     0
100
AcDbLine
 10
328.5501193772
 20
-322.5808129561
 11
328.6024543772
 21
-323.5794439561
  0
ARC
  5
70F
100
AcDbEntity
  8
_0-2_
  6
CONTINUOUS
 62
     0
100
AcDbCircle
 10
338.7361393772
 20
-322.0469869561
 40
0.999999
100
AcDbArc
 50
93
 51
183
  0
ARC
  5
710
100
AcDbEntity
  8
_0-2_
  6
CONTINUOUS
 62
     0
100
AcDbCircle
 10
327.5514883772
 20
-322.6331509561
 40
0.999999
100
AcDbArc
 50
2.999999999999
 51
93
  0
ARC
  5
711
100
AcDbEntity
  8
_0-2_
  6
CONTINUOUS
 62
     0
100
AcDbCircle
 10
345.0077413772
 20
-328.1671459561
 40
0.999999
100
AcDbArc
 50
180
 51
270
  0
LINE
  5
712
100
AcDbEntity
  8
_0-2_
  6
CONTINUOUS
 62
     0
100
AcDbLine
 10
345.0077413772
 20
-329.1671449561
 11
349.2077413772
 21
-329.1671449561
  0
ARC
  5
713
100
AcDbEntity
  8
_0-2_
  6
CONTINUOUS
 62
     0
100
AcDbCircle
 10
341.4077413772
 20
-321.9069739561
 40
0.999999
100
AcDbArc
 50
0
 51
93
  0
LINE
  5
714
100
AcDbEntity
  8
_0-2_
  6
CONTINUOUS
 62
     0
100
AcDbLine
 10
324.5554063772
 20
-321.7887949561
 11
341.3554063772
 21
-320.9083459561
  0
ARC
  5
715
100
AcDbEntity
  8
_0-2_
  6
CONTINUOUS
 62
     0
100
AcDbCircle
 10
324.6077413772
 20
-322.7874259561
 40
0.999999
100
AcDbArc
 50
93
 51
180
  0
LINE
  5
716
100
AcDbEntity
  8
_0-2_
  6
CONTINUOUS
 62
     0
100
AcDbLine
 10
321.0077413772
 20
-329.1671449561
 11
316.8077413772
 21
-329.1671449561
  0
ARC
  5
717
100
AcDbEntity
  8
_0-2_
  6
CONTINUOUS
 62
     0
100
AcDbCircle
 10
321.0077413772
 20
-328.1671459561
 40
0.999999
100
AcDbArc
 50
-90
 51
0
  0
LINE
  5
718
100
AcDbEntity
  8
_0-2_
  6
CONTINUOUS
 62
     0
100
AcDbLine
 10
342.4077403772
 20
-328.1671459561
 11
342.4077403772
 21
-321.9069739561
  0
ARC
  5
719
100
AcDbEntity
  8
_0-2_
  6
CONTINUOUS
 62
     0
100
AcDbCircle
 10
345.0077413772
 20
-328.1671459561
 40
2.600001
100
AcDbArc
 50
180
 51
270
  0
LINE
  5
71A
100
AcDbEntity
  8
_0-2_
  6
CONTINUOUS
 62
     0
100
AcDbLine
 10
345.0077413772
 20
-330.7671469561
 11
349.5077413772
 21
-330.7671469561
  0
LINE
  5
71B
100
AcDbEntity
  8
_0-2_
  6
CONTINUOUS
 62
     0
100
AcDbLine
 10
344.0077423772
 20
-321.9069739561
 11
344.0077423772
 21
-328.1671459561
  0
ARC
  5
71C
100
AcDbEntity
  8
_0-2_
  6
CONTINUOUS
 62
     0
100
AcDbCircle
 10
341.4077413772
 20
-321.9069739561
 40
2.600001
100
AcDbArc
 50
0
 51
93
  0
LINE
  5
71D
100
AcDbEntity
  8
_0-2_
  6
CONTINUOUS
 62
     0
100
AcDbLine
 10
322.0077403772
 20
-322.7874259561
 11
322.0077403772
 21
-328.1671459561
  0
ARC
  5
71E
100
AcDbEntity
  8
_0-2_
  6
CONTINUOUS
 62
     0
100
AcDbCircle
 10
324.6077413772
 20
-322.7874259561
 40
2.600001
100
AcDbArc
 50
93
 51
180
  0
LINE
  5
71F
100
AcDbEntity
  8
_0-2_
  6
CONTINUOUS
 62
     0
100
AcDbLine
 10
324.4716673772
 20
-320.1909889561
 11
341.2716673772
 21
-319.3105369561
  0
LINE
  5
720
100
AcDbEntity
  8
_0-2_
  6
CONTINUOUS
 62
     0
100
AcDbLine
 10
323.6077423772
 20
-328.1671459561
 11
323.6077423772
 21
-322.7874259561
  0
ARC
  5
721
100
AcDbEntity
  8
_0-2_
  6
CONTINUOUS
 62
     0
100
AcDbCircle
 10
321.0077413772
 20
-328.1671459561
 40
2.600001
100
AcDbArc
 50
-90
 51
0
  0
LINE
  5
722
100
AcDbEntity
  8
_0-2_
  6
CONTINUOUS
 62
     0
100
AcDbLine
 10
321.0077413772
 20
-330.7671469561
 11
316.5077413772
 21
-330.7671469561
  0
LINE
  5
723
100
AcDbEntity
  8
_0-2_
  6
CONTINUOUS
 62
     0
100
AcDbLine
 10
316.8077413772
 20
-331.6671469561
 11
318.7577413772
 21
-331.6671469561
  0
ARC
  5
724
100
AcDbEntity
  8
_0-2_
  6
CONTINUOUS
 62
     0
100
AcDbCircle
 10
316.8077413772
 20
-331.3671469561
 40
0.3
100
AcDbArc
 50
180
 51
270
  0
ARC
  5
725
100
AcDbEntity
  8
_0-2_
  6
CONTINUOUS
 62
     0
100
AcDbCircle
 10
316.8077413772
 20
-329.4671449561
 40
0.3
100
AcDbArc
 50
90
 51
180
  0
LINE
  5
726
100
AcDbEntity
  8
_0-2_
  6
CONTINUOUS
 62
     0
100
AcDbLine
 10
333.5077423772
 20
-335.1671449561
 11
333.0077413772
 21
-335.6671459561
  0
LINE
  5
727
100
AcDbEntity
  8
_0-2_
  6
CONTINUOUS
 62
     0
100
AcDbLine
 10
332.5077403772
 20
-335.1671449561
 11
333.0077413772
 21
-335.6671459561
  0
LINE
  5
728
100
AcDbEntity
  8
_0-2_
  6
CONTINUOUS
 62
     0
100
AcDbLine
 10
338.0077423772
 20
-337.1671459561
 11
338.0077423772
 21
-337.6671469561
  0
LINE
  5
729
100
AcDbEntity
  8
_0-2_
  6
CONTINUOUS
 62
     0
100
AcDbLine
 10
317.0077423772
 20
-327.6671449561
 11
319.7577403772
 21
-327.6671449561
  0
ARC
  5
72A
100
AcDbEntity
  8
_0-2_
  6
CONTINUOUS
 62
     0
100
AcDbCircle
 10
317.0077423772
 20
-327.1671469561
 40
0.500001
100
AcDbArc
 50
180
 51
270
  0
ARC
  5
72B
100
AcDbEntity
  8
_0-2_
  6
CONTINUOUS
 62
     0
100
AcDbCircle
 10
319.7577403772
 20
-328.4171449561
 40
0.75
100
AcDbArc
 50
-90
 51
90
  0
LINE
  5
72C
100
AcDbEntity
  8
_0-2_
  6
CONTINUOUS
 62
     0
100
AcDbLine
 10
328.0077403772
 20
-337.1671459561
 11
316.5077413772
 21
-337.1671459561
  0
LINE
  5
72D
100
AcDbEntity
  8
_0-2_
  6
CONTINUOUS
 62
     0
100
AcDbLine
 10
328.0077403772
 20
-337.1671459561
 11
328.0077403772
 21
-337.6671469561
  0
ARC
  5
72E
100
AcDbEntity
  8
_0-2_
  6
CONTINUOUS
 62
     0
100
AcDbCircle
 10
318.7577413772
 20
-332.4171469561
 40
0.75
100
AcDbArc
 50
-90
 51
90
  0
LINE
  5
72F
100
AcDbEntity
  8
_0-2_
  6
CONTINUOUS
 62
     0
100
AcDbLine
 10
316.8077413772
 20
-333.1671469561
 11
318.7577413772
 21
-333.1671469561
  0
ARC
  5
730
100
AcDbEntity
  8
_0-2_
  6
CONTINUOUS
 62
     0
100
AcDbCircle
 10
316.8077413772
 20
-333.4671469561
 40
0.3
100
AcDbArc
 50
90
 51
180
  0
LINE
  5
731
100
AcDbEntity
  8
_0-2_
  6
CONTINUOUS
 62
     0
100
AcDbLine
 10
349.5077413772
 20
-337.1671459561
 11
338.0077423772
 21
-337.1671459561
  0
LINE
  5
732
100
AcDbEntity
  8
_0-2_
  6
CONTINUOUS
 62
     0
100
AcDbLine
 10
349.2077413772
 20
-331.6671469561
 11
347.2577413772
 21
-331.6671469561
  0
ARC
  5
733
100
AcDbEntity
  8
_0-2_
  6
CONTINUOUS
 62
     0
100
AcDbCircle
 10
349.2077413772
 20
-331.3671469561
 40
0.3
100
AcDbArc
 50
-90
 51
0
  0
LINE
  5
734
100
AcDbEntity
  8
_0-2_
  6
CONTINUOUS
 62
     0
100
AcDbLine
 10
349.5077413772
 20
-331.3671469561
 11
349.5077413772
 21
-329.4671449561
  0
ARC
  5
735
100
AcDbEntity
  8
_0-2_
  6
CONTINUOUS
 62
     0
100
AcDbCircle
 10
349.2077413772
 20
-329.4671449561
 40
0.3
100
AcDbArc
 50
0
 51
90
  0
LINE
  5
736
100
AcDbEntity
  8
_0-2_
  6
CONTINUOUS
 62
     0
100
AcDbLine
 10
350.5077403772
 20
-327.6671449561
 11
346.2577423772
 21
-327.6671449561
  0
ARC
  5
737
100
AcDbEntity
  8
_0-2_
  6
CONTINUOUS
 62
     0
100
AcDbCircle
 10
350.5077403772
 20
-328.1671459561
 40
0.500001
100
AcDbArc
 50
0
 51
90
  0
ARC
  5
738
100
AcDbEntity
  8
_0-2_
  6
CONTINUOUS
 62
     0
100
AcDbCircle
 10
346.2577423772
 20
-328.4171449561
 40
0.75
100
AcDbArc
 50
90
 51
270
  0
LINE
  5
739
100
AcDbEntity
  8
_0-2_
  6
CONTINUOUS
 62
     0
100
AcDbLine
 10
351.0077413772
 20
-328.1671459561
 11
351.0077413772
 21
-337.6671469561
  0
LINE
  5
73A
100
AcDbEntity
  8
_0-2_
  6
CONTINUOUS
 62
     0
100
AcDbLine
 10
349.5077413772
 20
-337.1671459561
 11
349.5077413772
 21
-337.6671469561
  0
ARC
  5
73B
100
AcDbEntity
  8
_0-2_
  6
CONTINUOUS
 62
     0
100
AcDbCircle
 10
347.2577413772
 20
-332.4171469561
 40
0.75
100
AcDbArc
 50
90
 51
270
  0
ARC
  5
73C
100
AcDbEntity
  8
_0-2_
  6
CONTINUOUS
 62
     0
100
AcDbCircle
 10
349.2077413772
 20
-334.8671449561
 40
0.3
100
AcDbArc
 50
-90
 51
0
  0
LINE
  5
73D
100
AcDbEntity
  8
_0-2_
  6
CONTINUOUS
 62
     0
100
AcDbLine
 10
349.5077413772
 20
-334.8671449561
 11
349.5077413772
 21
-333.4671469561
  0
ARC
  5
73E
100
AcDbEntity
  8
_0-2_
  6
CONTINUOUS
 62
     0
100
AcDbCircle
 10
349.2077413772
 20
-333.4671469561
 40
0.3
100
AcDbArc
 50
0
 51
90
  0
LINE
  5
73F
100
AcDbEntity
  8
_0-2_
  6
CONTINUOUS
 62
     0
100
AcDbLine
 10
349.2077413772
 20
-333.1671469561
 11
347.2577413772
 21
-333.1671469561
  0
ARC
  5
740
100
AcDbEntity
  8
_0-2_
  6
CONTINUOUS
 62
     0
100
AcDbCircle
 10
317.0077423772
 20
-334.6671469561
 40
0.500001
100
AcDbArc
 50
180
 51
270
  0
LINE
  5
741
100
AcDbEntity
  8
_0-2_
  6
CONTINUOUS
 62
     0
100
AcDbLine
 10
317.0077423772
 20
-335.1671449561
 11
349.2077413772
 21
-335.1671449561
  0
LINE
  5
742
100
AcDbEntity
  8
_0-2_
  6
CONTINUOUS
 62
     0
100
AcDbLine
 10
349.5077413772
 20
-337.6671469561
 11
351.0077413772
 21
-337.6671469561
  0
ARC
  5
743
100
AcDbEntity
  8
_0-2_
  6
CONTINUOUS
 62
     0
100
AcDbCircle
 10
315.5077423772
 20
-319.6671469561
 40
0.999999
100
AcDbArc
 50
0
 51
180
  0
LINE
  5
744
100
AcDbEntity
  8
_0-2_
  6
CONTINUOUS
 62
     0
100
AcDbLine
 10
316.5077413772
 20
-327.1671469561
 11
316.5077413772
 21
-319.6671469561
  0
LINE
  5
745
100
AcDbEntity
  8
_0-2_
  6
CONTINUOUS
 62
     0
100
AcDbLine
 10
316.5077413772
 20
-331.3671469561
 11
316.5077413772
 21
-329.4671449561
  0
ARC
  5
746
100
AcDbEntity
  8
_0-2_
  6
CONTINUOUS
 62
     0
100
AcDbCircle
 10
314.0077423772
 20
-334.6671469561
 40
0.500001
100
AcDbArc
 50
-90
 51
0
  0
LINE
  5
747
100
AcDbEntity
  8
_0-2_
  6
CONTINUOUS
 62
     0
100
AcDbLine
 10
314.5077403772
 20
-336.6671449561
 11
314.5077403772
 21
-337.6671469561
  0
LINE
  5
748
100
AcDbEntity
  8
_0-2_
  6
CONTINUOUS
 62
     0
100
AcDbLine
 10
316.5077413772
 20
-337.1671459561
 11
316.5077413772
 21
-337.6671469561
  0
LINE
  5
749
100
AcDbEntity
  8
_0-2_
  6
CONTINUOUS
 62
     0
100
AcDbLine
 10
316.5077413772
 20
-334.6671469561
 11
316.5077413772
 21
-333.4671469561
  0
LINE
  5
74A
100
AcDbEntity
  8
_0-2_
  6
CONTINUOUS
 62
     0
100
AcDbLine
 10
304.0077403772
 20
-336.6671449561
 11
304.0077403772
 21
-337.6671469561
  0
LINE
  5
74B
100
AcDbEntity
  8
_0-2_
  6
CONTINUOUS
 62
     0
100
AcDbLine
 10
302.5077403772
 20
-337.6671469561
 11
304.0077403772
 21
-337.6671469561
  0
LINE
  5
74C
100
AcDbEntity
  8
_0-2_
  6
CONTINUOUS
 62
     0
100
AcDbLine
 10
314.5077403772
 20
-337.6671469561
 11
316.5077413772
 21
-337.6671469561
  0
LINE
  5
74D
100
AcDbEntity
  8
_0-2_
  6
CONTINUOUS
 62
     0
100
AcDbLine
 10
302.5077403772
 20
-335.6671449561
 11
302.5077403772
 21
-337.6671469561
  0
ARC
  5
74E
100
AcDbEntity
  8
_0-2_
  6
CONTINUOUS
 62
     0
100
AcDbCircle
 10
303.0077403772
 20
-335.6671449561
 40
0.5
100
AcDbArc
 50
90
 51
180
  0
LINE
  5
74F
100
AcDbEntity
  8
_0-2_
  6
CONTINUOUS
 62
     0
100
AcDbLine
 10
314.2577403772
 20
-331.9171449561
 11
313.0077403772
 21
-331.9171449561
  0
LINE
  5
750
100
AcDbEntity
  8
_0-2_
  6
CONTINUOUS
 62
     0
100
AcDbLine
 10
310.0077403772
 20
-331.9171449561
 11
308.7577403772
 21
-331.9171449561
  0
ARC
  5
751
100
AcDbEntity
  8
_0-2_
  6
CONTINUOUS
 62
     0
100
AcDbCircle
 10
283.1611349049
 20
-288.9817523338
 40
0.5
100
AcDbArc
 50
101.4095443492
 51
279.1986608952
  0
ARC
  5
752
100
AcDbEntity
  8
_0-2_
  6
CONTINUOUS
 62
     0
100
AcDbCircle
 10
288.0077403772
 20
-312.9975890961
 40
25
100
AcDbArc
 50
0
 51
101.4095443492
  0
ARC
  5
753
100
AcDbEntity
  8
_0-2_
  6
CONTINUOUS
 62
     0
100
AcDbCircle
 10
286.9317947832
 20
-312.2659575981
 40
23.08754100601
100
AcDbArc
 50
-1.815975820674
 51
99.19866089519
  0
LINE
  5
754
100
AcDbEntity
  8
_0-2_
  6
CONTINUOUS
 62
     0
100
AcDbLine
 10
314.5077403772
 20
-336.6671449561
 11
307.0017915034
 21
-336.6671449561
  0
LINE
  5
755
100
AcDbEntity
  8
_0-2_
  6
CONTINUOUS
 62
     0
100
AcDbLine
 10
307.0017915034
 20
-336.6671449561
 11
304.0077403772
 21
-336.6671449561
  0
LINE
  5
756
100
AcDbEntity
  8
_0-2_
  6
CONTINUOUS
 62
     0
100
AcDbLine
 10
309.0077403772
 20
-335.1671449561
 11
314.0077423772
 21
-335.1671449561
  0
LINE
  5
757
100
AcDbEntity
  8
_0-2_
  6
CONTINUOUS
 62
     0
100
AcDbLine
 10
303.0077403772
 20
-335.1671449561
 11
307.0077403772
 21
-335.1671449561
  0
ARC
  5
758
100
AcDbEntity
  8
_0-2_
  6
CONTINUOUS
 62
     0
100
AcDbCircle
 10
309.0077403772
 20
-334.6671449561
 40
0.25
100
AcDbArc
 50
180
 51
270
  0
ARC
  5
759
100
AcDbEntity
  8
_0-2_
  6
CONTINUOUS
 62
     0
100
AcDbCircle
 10
314.0077423772
 20
-334.6671469561
 40
0.250001
100
AcDbArc
 50
-90
 51
0
  0
LINE
  5
75A
100
AcDbEntity
  8
_0-2_
  6
CONTINUOUS
 62
     0
100
AcDbLine
 10
308.7577403772
 20
-334.6671449561
 11
308.7577403772
 21
-331.9171449561
  0
LINE
  5
75B
100
AcDbEntity
  8
_0-2_
  6
CONTINUOUS
 62
     0
100
AcDbLine
 10
314.2577403772
 20
-334.6671469561
 11
314.2577403772
 21
-331.9171449561
  0
LINE
  5
75C
100
AcDbEntity
  8
_0-2_
  6
CONTINUOUS
 62
     0
100
AcDbLine
 10
309.0077403772
 20
-334.9171449561
 11
314.0077423772
 21
-334.9171449561
  0
LINE
  5
75D
100
AcDbEntity
  8
_0-2_
  6
CONTINUOUS
 62
     0
100
AcDbLine
 10
314.5077403772
 20
-319.6671469561
 11
314.5077403772
 21
-330.167144956
  0
LINE
  5
75E
100
AcDbEntity
  8
_0-2_
  6
CONTINUOUS
 62
     0
100
AcDbLine
 10
314.5077403772
 20
-331.667144956
 11
314.5077403772
 21
-334.6671469561
  0
LINE
  5
75F
100
AcDbEntity
  8
_0-2_
  6
CONTINUOUS
 62
     0
100
AcDbLine
 10
308.5077403772
 20
-334.6671449561
 11
308.5077403772
 21
-331.667144956
  0
LINE
  5
760
100
AcDbEntity
  8
_0-2_
  6
CONTINUOUS
 62
     0
100
AcDbLine
 10
307.0077403772
 20
-330.667144956
 11
307.0077403772
 21
-335.1671449561
  0
ARC
  5
761
100
AcDbEntity
  8
_0-2_
  6
CONTINUOUS
 62
     0
100
AcDbCircle
 10
307.5077403772
 20
-330.667144956
 40
0.5
100
AcDbArc
 50
90
 51
180
  0
ARC
  5
762
100
AcDbEntity
  8
_0-2_
  6
CONTINUOUS
 62
     0
100
AcDbCircle
 10
309.0077403772
 20
-334.6671449561
 40
0.5
100
AcDbArc
 50
180
 51
270
  0
LINE
  5
763
100
AcDbEntity
  8
_0-2_
  6
CONTINUOUS
 62
     0
100
AcDbLine
 10
307.5077403772
 20
-330.167144956
 11
308.7577403772
 21
-330.167144956
  0
ARC
  5
764
100
AcDbEntity
  8
_0-2_
  6
CONTINUOUS
 62
     0
100
AcDbCircle
 10
308.7577403772
 20
-331.167144956
 40
1
100
AcDbArc
 50
0
 51
90
  0
LINE
  5
765
100
AcDbEntity
  8
_0-2_
  6
CONTINUOUS
 62
     0
100
AcDbLine
 10
309.7577403772
 20
-331.167144956
 11
309.7577403772
 21
-331.667144956
  0
LINE
  5
766
100
AcDbEntity
  8
_0-2_
  6
CONTINUOUS
 62
     0
100
AcDbLine
 10
309.7577403772
 20
-331.667144956
 11
308.5077403772
 21
-331.667144956
  0
LINE
  5
767
100
AcDbEntity
  8
_0-2_
  6
CONTINUOUS
 62
     0
100
AcDbLine
 10
314.5077403772
 20
-331.667144956
 11
313.2577403772
 21
-331.667144956
  0
LINE
  5
768
100
AcDbEntity
  8
_0-2_
  6
CONTINUOUS
 62
     0
100
AcDbLine
 10
313.2577403772
 20
-331.167144956
 11
313.2577403772
 21
-331.667144956
  0
ARC
  5
769
100
AcDbEntity
  8
_0-2_
  6
CONTINUOUS
 62
     0
100
AcDbCircle
 10
314.2577403772
 20
-331.167144956
 40
1
100
AcDbArc
 50
90
 51
180
  0
LINE
  5
76A
100
AcDbEntity
  8
_0-2_
  6
CONTINUOUS
 62
     0
100
AcDbLine
 10
314.2577403772
 20
-330.167144956
 11
314.5077403772
 21
-330.167144956
  0
CIRCLE
  5
76B
100
AcDbEntity
  8
_0-2_
  6
CONTINUOUS
 62
     0
100
AcDbCircle
 10
308.0332483052
 20
-300.2306416793
 40
0.9
  0
LINE
  5
76C
100
AcDbEntity
  8
_0-2_
  6
CONTINUOUS
 62
     0
100
AcDbLine
 10
308.0332483052
 20
-300.2306416793
 11
293.9446790757
 21
-261.5226195879
  0
LINE
  5
76D
100
AcDbEntity
  8
_0-2_
  6
CONTINUOUS
 62
     0
100
AcDbLine
 10
318.0077413772
 20
-338.8003782942
 11
318.0077413772
 21
-337.6759159561
  0
LINE
  5
76E
100
AcDbEntity
  8
_0-2_
  6
CONTINUOUS
 62
     0
100
AcDbLine
 10
348.0077413772
 20
-337.6759159561
 11
318.0077413772
 21
-337.6759159561
  0
CIRCLE
  5
76F
100
AcDbEntity
  8
_0-2_
  6
CONTINUOUS
 62
     0
100
AcDbCircle
 10
292.568145934
 20
-256.0316192147
 40
6
  0
TEXT
  5
770
100
AcDbEntity
  8
_0-2_
  6
CONTINUOUS
 62
     0
100
AcDbText
 10
287.257878668
 20
-260.7331819436
 40
9
  1
８
  7
STANDARD
100
AcDbText
  0
LINE
  5
771
100
AcDbEntity
  8
_0-2_
  6
CONTINUOUS
 62
     0
100
AcDbLine
 10
333.0254146628
 20
-494.2985497699
 11
330.0254146628
 21
-493.5485497699
  0
LINE
  5
772
100
AcDbEntity
  8
_0-2_
  6
CONTINUOUS
 62
     0
100
AcDbLine
 10
333.0254146628
 20
-494.2985497699
 11
330.0254146628
 21
-495.0485497699
  0
LINE
  5
773
100
AcDbEntity
  8
_0-2_
  6
CONTINUOUS
 62
     0
100
AcDbLine
 10
283.0254136628
 20
-494.2985497699
 11
286.0254136628
 21
-495.0485497699
  0
LINE
  5
774
100
AcDbEntity
  8
_0-2_
  6
CONTINUOUS
 62
     0
100
AcDbLine
 10
283.0254136628
 20
-494.2985497699
 11
286.0254136628
 21
-493.5485497699
  0
LINE
  5
775
100
AcDbEntity
  8
_0-2_
  6
CONTINUOUS
 62
     0
100
AcDbLine
 10
333.0254146628
 20
-386.1093189561
 11
333.0254146628
 21
-498.2985517699
  0
LINE
  5
776
100
AcDbEntity
  8
_0-2_
  6
CONTINUOUS
 62
     0
100
AcDbLine
 10
283.0254136628
 20
-494.2985497699
 11
333.0254146628
 21
-494.2985497699
  0
LINE
  5
777
100
AcDbEntity
  8
_0-2_
  6
CONTINUOUS
 62
     0
100
AcDbLine
 10
283.0254136628
 20
-339.6759159561
 11
283.0254136628
 21
-499.6771597926
  0
TEXT
  5
778
100
AcDbEntity
  8
_0-2_
  6
CONTINUOUS
 62
     0
100
AcDbText
 10
304.60512644
 20
-494.5290513097
 40
9
  1
50
  7
STANDARD
100
AcDbText
  0
CIRCLE
  5
779
100
AcDbEntity
  8
_0-2_
  6
CONTINUOUS
 62
     0
100
AcDbCircle
 10
307.6885617972
 20
-368.5341535543
 40
6
  0
LINE
  5
77A
100
AcDbEntity
  8
_0-2_
  6
CONTINUOUS
 62
     0
100
AcDbLine
 10
324.3690087972
 20
-339.6427735543
 11
310.6885617972
 21
-363.3380005543
  0
CIRCLE
  5
77B
100
AcDbEntity
  8
_0-2_
  6
CONTINUOUS
 62
     0
100
AcDbCircle
 10
324.3690087972
 20
-339.6427735543
 40
0.9
  0
TEXT
  5
77C
100
AcDbEntity
  8
_0-2_
  6
CONTINUOUS
 62
     0
100
AcDbText
 10
305.3533035463
 20
-374.1520063162
 40
9
  1
3
  7
STANDARD
100
AcDbText
  0
LINE
  5
77D
100
AcDbEntity
  8
_0-2_
  6
CONTINUOUS
 62
     0
100
AcDbLine
 10
313.0077403772
 20
-331.9171449561
 11
313.0213855904
 21
-311.9487184021
  0
LINE
  5
77E
100
AcDbEntity
  8
_0-2_
  6
CONTINUOUS
 62
     0
100
AcDbLine
 10
310.0077403772
 20
-331.9171449561
 11
310.0213855904
 21
-310.4854554061
  0
LINE
  5
77F
100
AcDbEntity
  8
_0-0_
  6
CONTINUOUS
 62
     0
100
AcDbLine
 10
445.4106058226
 20
-460.5390985092
 11
413.0254136628
 21
-339.6759159561
  0
LINE
  5
780
100
AcDbEntity
  8
_0-0_
  6
CONTINUOUS
 62
     0
100
AcDbLine
 10
446.3765316489
 20
-460.2802794641
 11
413.7926797798
 21
-338.6756887823
  0
LINE
  5
781
100
AcDbEntity
  8
_0-1_PRO0
  6
CONTINUOUS
 62
     0
100
AcDbLine
 10
413.0254136628
 20
-523.1672771914
 11
413.0254136628
 21
-339.6759159561
  0
CIRCLE
  5
782
100
AcDbEntity
  8
_0-0_
  6
CONTINUOUS
 62
     0
100
AcDbCircle
 10
462.975314729
 20
-368.6027573324
 40
6
  0
LINE
  5
783
100
AcDbEntity
  8
_0-0_
  6
CONTINUOUS
 62
     0
100
AcDbLine
 10
435.0073009127
 20
-417.0447782491
 11
459.975314729
 21
-373.7989097551
  0
CIRCLE
  5
784
100
AcDbEntity
  8
_0-0_
  6
CONTINUOUS
 62
     0
100
AcDbCircle
 10
435.0073009127
 20
-417.0447782491
 40
0.9
  0
TEXT
  5
785
100
AcDbEntity
  8
_0-0_
  6
CONTINUOUS
 62
     0
100
AcDbText
 10
458.4452769899
 20
-372.6979518691
 40
9
  1
９
  7
STANDARD
100
AcDbText
  0
LINE
  5
786
100
AcDbEntity
  8
_0-1_PRO0
  6
CONTINUOUS
 62
     0
100
AcDbLine
 10
413.0254136628
 20
-339.6759159561
 11
283.0254136628
 21
-339.6759159561
  0
LINE
  5
787
100
AcDbEntity
  8
_0-1_PRO0
  6
CONTINUOUS
 62
     0
100
AcDbLine
 10
354.007740781
 20
-338.6835795881
 11
413.7926797798
 21
-338.6756887823
  0
LINE
  5
788
100
AcDbEntity
  8
ADD_LINE
  6
DOT
 62
     0
100
AcDbLine
 10
357.620635159
 20
-307.8143998719
 11
356.2369838109
 21
-296.1158420185
  0
LINE
  5
789
100
AcDbEntity
  8
_0-2_
  6
CONTINUOUS
 62
     0
100
AcDbLine
 10
342.6716131523
 20
-289.3283792812
 11
319.7031331523
 21
-290.5321052812
  0
LINE
  5
78A
100
AcDbEntity
  8
_0-2_
  6
CONTINUOUS
 62
     0
100
AcDbLine
 10
356.1191821523
 20
-301.5452882812
 11
342.6716131523
 21
-289.3283792812
  0
LINE
  5
78B
100
AcDbEntity
  8
_0-2_
  6
CONTINUOUS
 62
     0
100
AcDbLine
 10
359.9680051523
 20
-299.3386622812
 11
359.3067691523
 21
-298.8883622812
  0
LINE
  5
78C
100
AcDbEntity
  8
_0-2_
  6
CONTINUOUS
 62
     0
100
AcDbLine
 10
359.3067691523
 20
-298.8883622812
 11
357.6181531523
 21
-301.3679942812
  0
LINE
  5
78D
100
AcDbEntity
  8
_0-2_
  6
CONTINUOUS
 62
     0
100
AcDbLine
 10
359.9680051523
 20
-299.3386622812
 11
358.2793891523
 21
-301.8182942812
  0
ARC
  5
78E
100
AcDbEntity
  8
_0-2_
  6
CONTINUOUS
 62
     0
100
AcDbCircle
 10
356.7916111523
 20
-300.8051222812
 40
0.999999
100
AcDbArc
 50
-132.254652
 51
-34.254658
  0
ARC
  5
78F
100
AcDbEntity
  8
_0-2_
  6
CONTINUOUS
 62
     0
100
AcDbCircle
 10
356.7916111523
 20
-300.8051222812
 40
1.8
100
AcDbArc
 50
-132.254651
 51
-34.254658
  0
ARC
  5
790
100
AcDbEntity
  8
_0-2_
  6
CONTINUOUS
 62
     0
100
AcDbCircle
 10
331.2658771523
 20
-291.4281872812
 40
6.3
100
AcDbArc
 50
43.903458
 51
142.096542
  0
LINE
  5
791
100
AcDbEntity
  8
_0-2_
  6
CONTINUOUS
 62
     0
100
AcDbLine
 10
336.3613261523
 20
-288.3417002812
 11
336.4301791523
 21
-289.6554782812
  0
LINE
  5
792
100
AcDbEntity
  8
_0-2_
  6
CONTINUOUS
 62
     0
100
AcDbLine
 10
325.8757171523
 20
-288.8912282812
 11
325.9445671523
 21
-290.2050062812
  0
ARC
  5
793
100
AcDbEntity
  8
_0-2_
  6
CONTINUOUS
 62
     0
100
AcDbCircle
 10
334.3640671523
 20
-288.4463702812
 40
2.000001
100
AcDbArc
 50
2.999999999999
 51
43.903458
  0
LINE
  5
794
100
AcDbEntity
  8
_0-2_
  6
CONTINUOUS
 62
     0
100
AcDbLine
 10
355.5812431523
 20
-302.1374192812
 11
342.3804841523
 21
-290.1447332812
  0
LINE
  5
795
100
AcDbEntity
  8
_0-2_
  6
CONTINUOUS
 62
     0
100
AcDbLine
 10
342.3804841523
 20
-290.1447332812
 11
320.0371561523
 21
-291.3156992812
  0
LINE
  5
796
100
AcDbEntity
  8
_0-2_
  6
CONTINUOUS
 62
     0
100
AcDbLine
 10
308.2031341523
 20
-304.6203992812
 11
320.0780011523
 21
-291.3135572812
  0
ARC
  5
797
100
AcDbEntity
  8
_0-2_
  6
CONTINUOUS
 62
     0
100
AcDbCircle
 10
327.8729761523
 20
-288.7865552812
 40
2.000001
100
AcDbArc
 50
142.096542
 51
183
  0
LINE
  5
798
100
AcDbEntity
  8
_0-2_
  6
CONTINUOUS
 62
     0
100
AcDbLine
 10
303.5478511523
 20
-302.2955162812
 11
304.1583961523
 21
-301.7785682812
  0
LINE
  5
799
100
AcDbEntity
  8
_0-2_
  6
CONTINUOUS
 62
     0
100
AcDbLine
 10
304.1583961523
 20
-301.7785682812
 11
306.0969541523
 21
-304.0681082812
  0
LINE
  5
79A
100
AcDbEntity
  8
_0-2_
  6
CONTINUOUS
 62
     0
100
AcDbLine
 10
303.5478511523
 20
-302.2955162812
 11
305.4864091523
 21
-304.5850562812
  0
ARC
  5
79B
100
AcDbEntity
  8
_0-2_
  6
CONTINUOUS
 62
     0
100
AcDbCircle
 10
306.8601331523
 20
-303.4219202812
 40
0.999999
100
AcDbArc
 50
-139.745342
 51
-41.745348
  0
LINE
  5
79C
100
AcDbEntity
  8
_0-2_
  6
CONTINUOUS
 62
     0
100
AcDbLine
 10
307.6062451523
 20
-304.0877432812
 11
319.7031331523
 21
-290.5321052812
  0
ARC
  5
79D
100
AcDbEntity
  8
_0-2_
  6
CONTINUOUS
 62
     0
100
AcDbCircle
 10
306.8601331523
 20
-303.4219202812
 40
1.8
100
AcDbArc
 50
-139.745342
 51
-41.745349
  0
LINE
  5
79E
100
AcDbEntity
  8
_0-2_
  6
CONTINUOUS
 62
     0
100
AcDbLine
 10
334.1832631523
 20
-289.7732342812
 11
335.8848808624
 21
-319.2245406824
  0
LINE
  5
79F
100
AcDbEntity
  8
_0-2_
  6
CONTINUOUS
 62
     0
100
AcDbLine
 10
333.6839461523
 20
-289.7994032812
 11
335.4144090332
 21
-319.7498832169
  0
LINE
  5
7A0
100
AcDbEntity
  8
_0-2_
  6
CONTINUOUS
 62
     0
100
AcDbLine
 10
330.8808751523
 20
-284.0818922812
 11
333.0271427992
 21
-322.7487892168
  0
LINE
  5
7A1
100
AcDbEntity
  8
_0-2_
  6
CONTINUOUS
 62
     0
100
AcDbLine
 10
328.6908001523
 20
-290.0610812812
 11
330.4212588716
 21
-320.0115629045
  0
LINE
  5
7A2
100
AcDbEntity
  8
_0-2_
  6
CONTINUOUS
 62
     0
100
AcDbLine
 10
328.1914831523
 20
-290.0872502812
 11
329.8931047876
 21
-319.5385560917
  0
LINE
  5
7A3
100
AcDbEntity
  8
_0-2_
  6
CONTINUOUS
 62
     0
100
AcDbLine
 10
335.8848808624
 20
-319.2245406824
 11
329.8931047876
 21
-319.5385560917
  0
LINE
  5
7A4
100
AcDbEntity
  8
_0-2_
  6
CONTINUOUS
 62
     0
100
AcDbLine
 10
335.4144090332
 20
-319.7498832169
 11
330.4212588716
 21
-320.0115629045
  0
LINE
  5
7A5
100
AcDbEntity
  8
_0-2_
  6
CONTINUOUS
 62
     0
100
AcDbLine
 10
330.2141464999
 20
-319.8260761956
 11
330.4212588716
 21
-320.0115629045
  0
LINE
  5
7A6
100
AcDbEntity
  8
_0-2_
  6
CONTINUOUS
 62
     0
100
AcDbLine
 10
329.8931047876
 20
-319.5385560917
 11
330.2141464999
 21
-319.8260761956
  0
LINE
  5
7A7
100
AcDbEntity
  8
_0-2_
  6
CONTINUOUS
 62
     0
100
AcDbLine
 10
335.5989019943
 20
-319.543873008
 11
335.8848808624
 21
-319.2245406824
  0
LINE
  5
7A8
100
AcDbEntity
  8
_0-2_
  6
CONTINUOUS
 62
     0
100
AcDbLine
 10
335.4144090332
 20
-319.7498832169
 11
335.5989019943
 21
-319.543873008
  0
TEXT
  5
7A9
100
AcDbEntity
  8
_0-3_
  6
CONTINUOUS
 62
     0
100
AcDbText
 10
911.950525281
 20
-271.3667990705
 40
9
  1
10
  7
STANDARD
100
AcDbText
  0
LINE
  5
7AA
100
AcDbEntity
  8
_0-3_
  6
CONTINUOUS
 62
     0
100
AcDbLine
 10
895.387876931
 20
-302.6084998329
 11
913.21340947
 21
-271.7337718034
  0
CIRCLE
  5
7AB
100
AcDbEntity
  8
_0-3_
  6
CONTINUOUS
 62
     0
100
AcDbCircle
 10
895.387876931
 20
-302.6084998329
 40
0.9
  0
LINE
  5
7AC
100
AcDbEntity
  8
_0-2_
  6
CONTINUOUS
 62
     0
100
AcDbLine
 10
883.5161134104
 20
-289.3355538664
 11
906.4845934104
 21
-290.5392798664
  0
LINE
  5
7AD
100
AcDbEntity
  8
_0-2_
  6
CONTINUOUS
 62
     0
100
AcDbLine
 10
870.0685444104
 20
-301.5524628664
 11
883.5161134104
 21
-289.3355538664
  0
LINE
  5
7AE
100
AcDbEntity
  8
_0-2_
  6
CONTINUOUS
 62
     0
100
AcDbLine
 10
866.2197214104
 20
-299.3458368664
 11
866.8809574104
 21
-298.8955368664
  0
LINE
  5
7AF
100
AcDbEntity
  8
_0-2_
  6
CONTINUOUS
 62
     0
100
AcDbLine
 10
866.8809574104
 20
-298.8955368664
 11
868.5695734104
 21
-301.3751688664
  0
LINE
  5
7B0
100
AcDbEntity
  8
_0-2_
  6
CONTINUOUS
 62
     0
100
AcDbLine
 10
866.2197214104
 20
-299.3458368664
 11
867.9083374104
 21
-301.8254688664
  0
ARC
  5
7B1
100
AcDbEntity
  8
_0-2_
  6
CONTINUOUS
 62
     0
100
AcDbCircle
 10
869.3961154104
 20
-300.8122968664
 40
0.999999
100
AcDbArc
 50
-145.745342
 51
-47.745348
  0
ARC
  5
7B2
100
AcDbEntity
  8
_0-2_
  6
CONTINUOUS
 62
     0
100
AcDbCircle
 10
869.3961154104
 20
-300.8122968664
 40
1.8
100
AcDbArc
 50
-145.745342
 51
-47.745349
  0
ARC
  5
7B3
100
AcDbEntity
  8
_0-2_
  6
CONTINUOUS
 62
     0
100
AcDbCircle
 10
894.9218494104
 20
-291.4353618664
 40
6.3
100
AcDbArc
 50
37.903458
 51
136.096542
  0
LINE
  5
7B4
100
AcDbEntity
  8
_0-2_
  6
CONTINUOUS
 62
     0
100
AcDbLine
 10
889.8264004104
 20
-288.3488748664
 11
889.7575474104
 21
-289.6626528664
  0
LINE
  5
7B5
100
AcDbEntity
  8
_0-2_
  6
CONTINUOUS
 62
     0
100
AcDbLine
 10
900.3120094104
 20
-288.8984028664
 11
900.2431594104
 21
-290.2121808664
  0
ARC
  5
7B6
100
AcDbEntity
  8
_0-2_
  6
CONTINUOUS
 62
     0
100
AcDbCircle
 10
891.8236594104
 20
-288.4535448664
 40
2.000001
100
AcDbArc
 50
136.096542
 51
177
  0
LINE
  5
7B7
100
AcDbEntity
  8
_0-2_
  6
CONTINUOUS
 62
     0
100
AcDbLine
 10
870.6064834104
 20
-302.1445938664
 11
883.8072424104
 21
-290.1519078664
  0
LINE
  5
7B8
100
AcDbEntity
  8
_0-2_
  6
CONTINUOUS
 62
     0
100
AcDbLine
 10
883.8072424104
 20
-290.1519078664
 11
906.1505704104
 21
-291.3228738664
  0
LINE
  5
7B9
100
AcDbEntity
  8
_0-2_
  6
CONTINUOUS
 62
     0
100
AcDbLine
 10
917.9845924104
 20
-304.6275738664
 11
906.1097254104
 21
-291.3207318664
  0
ARC
  5
7BA
100
AcDbEntity
  8
_0-2_
  6
CONTINUOUS
 62
     0
100
AcDbCircle
 10
898.3147504104
 20
-288.7937298664
 40
2.000001
100
AcDbArc
 50
-2.999999999999
 51
37.903458
  0
LINE
  5
7BB
100
AcDbEntity
  8
_0-2_
  6
CONTINUOUS
 62
     0
100
AcDbLine
 10
922.6398754104
 20
-302.3026908664
 11
922.0293304104
 21
-301.7857428664
  0
LINE
  5
7BC
100
AcDbEntity
  8
_0-2_
  6
CONTINUOUS
 62
     0
100
AcDbLine
 10
922.0293304104
 20
-301.7857428664
 11
920.0907724104
 21
-304.0752828664
  0
LINE
  5
7BD
100
AcDbEntity
  8
_0-2_
  6
CONTINUOUS
 62
     0
100
AcDbLine
 10
922.6398754104
 20
-302.3026908664
 11
920.7013174104
 21
-304.5922308664
  0
ARC
  5
7BE
100
AcDbEntity
  8
_0-2_
  6
CONTINUOUS
 62
     0
100
AcDbCircle
 10
919.3275934104
 20
-303.4290948664
 40
0.999999
100
AcDbArc
 50
-138.254652
 51
-40.254658
  0
LINE
  5
7BF
100
AcDbEntity
  8
_0-2_
  6
CONTINUOUS
 62
     0
100
AcDbLine
 10
918.5814814104
 20
-304.0949178664
 11
906.4845934104
 21
-290.5392798664
  0
ARC
  5
7C0
100
AcDbEntity
  8
_0-2_
  6
CONTINUOUS
 62
     0
100
AcDbCircle
 10
919.3275934104
 20
-303.4290948664
 40
1.8
100
AcDbArc
 50
-138.254651
 51
-40.254658
  0
LINE
  5
7C1
100
AcDbEntity
  8
_0-2_
  6
CONTINUOUS
 62
     0
100
AcDbLine
 10
892.0044634104
 20
-289.7804088664
 11
890.3028457004
 21
-319.2317152676
  0
LINE
  5
7C2
100
AcDbEntity
  8
_0-2_
  6
CONTINUOUS
 62
     0
100
AcDbLine
 10
895.3068514104
 20
-284.0890668664
 11
893.1605837636
 21
-322.755963802
  0
LINE
  5
7C3
100
AcDbEntity
  8
_0-2_
  6
CONTINUOUS
 62
     0
100
AcDbLine
 10
897.4969264104
 20
-290.0682558664
 11
895.7664676912
 21
-320.0187374897
  0
LINE
  5
7C4
100
AcDbEntity
  8
_0-2_
  6
CONTINUOUS
 62
     0
100
AcDbLine
 10
897.9962434104
 20
-290.0944248664
 11
896.2946217751
 21
-319.5457306769
  0
LINE
  5
7C5
100
AcDbEntity
  8
_0-2_
  6
CONTINUOUS
 62
     0
100
AcDbLine
 10
892.5037804104
 20
-289.8065778664
 11
890.7733175296
 21
-319.7570578021
  0
LINE
  5
7C6
100
AcDbEntity
  8
_0-2_
  6
CONTINUOUS
 62
     0
100
AcDbLine
 10
890.7733175296
 20
-319.7570578021
 11
895.7664676912
 21
-320.0187374897
  0
LINE
  5
7C7
100
AcDbEntity
  8
_0-2_
  6
CONTINUOUS
 62
     0
100
AcDbLine
 10
890.3028457004
 20
-319.2317152676
 11
896.2946217751
 21
-319.5457306769
  0
LINE
  5
7C8
100
AcDbEntity
  8
_0-2_
  6
CONTINUOUS
 62
     0
100
AcDbLine
 10
890.5888245685
 20
-319.5510475932
 11
890.3028457004
 21
-319.2317152676
  0
LINE
  5
7C9
100
AcDbEntity
  8
_0-2_
  6
CONTINUOUS
 62
     0
100
AcDbLine
 10
890.7733175296
 20
-319.7570578021
 11
890.5888245685
 21
-319.5510475932
  0
LINE
  5
7CA
100
AcDbEntity
  8
_0-2_
  6
CONTINUOUS
 62
     0
100
AcDbLine
 10
895.9735800629
 20
-319.8332507808
 11
895.7664676912
 21
-320.0187374897
  0
LINE
  5
7CB
100
AcDbEntity
  8
_0-2_
  6
CONTINUOUS
 62
     0
100
AcDbLine
 10
896.2946217751
 20
-319.5457306769
 11
895.9735800629
 21
-319.8332507808
  0
CIRCLE
  5
7CC
100
AcDbEntity
  8
_0-3_
  6
CONTINUOUS
 62
     0
100
AcDbCircle
 10
916.21340947
 20
-266.5376193806
 40
6
  0
TEXT
  5
7CD
100
AcDbEntity
  8
_0-3_
  6
CONTINUOUS
 62
     0
100
AcDbText
 10
929.4627340023
 20
-264.4527917234
 40
9
  1
５
  7
STANDARD
100
AcDbText
  0
CIRCLE
  5
7CE
100
AcDbEntity
  8
_0-3_
  6
CONTINUOUS
 62
     0
100
AcDbCircle
 10
933.7812214557
 20
-260.2748533548
 40
6
  0
LINE
  5
7CF
100
AcDbEntity
  8
_0-3_
  6
CONTINUOUS
 62
     0
100
AcDbLine
 10
912.4941316833
 20
-297.1451743858
 11
930.7812214557
 21
-265.4710057775
  0
CIRCLE
  5
7D0
100
AcDbEntity
  8
_0-3_
  6
CONTINUOUS
 62
     0
100
AcDbCircle
 10
912.4941316833
 20
-297.1451743858
 40
0.9
  0
TEXT
  5
7D1
100
AcDbEntity
  8
_0-0_
  6
CONTINUOUS
 62
     0
100
AcDbText
 10
696.6954317631
 20
-593.609555679
 40
7.49
  1
４００ＦＹＹＧ－Ｓ１１００
  7
STANDARD
100
AcDbText
  0
TEXT
  5
7D2
100
AcDbEntity
  8
_0-0_
  6
CONTINUOUS
 62
     0
100
AcDbText
 10
807.7272260444
 20
-593.609555679
 40
7.5
  1
１１００
  7
STANDARD
100
AcDbText
  0
TEXT
  5
7D3
100
AcDbEntity
  8
_0-0_
  6
CONTINUOUS
 62
     0
100
AcDbText
 10
854.2548350765
 20
-593.3451942641
 40
7.5
  1
１３０
  7
STANDARD
100
AcDbText
  0
TEXT
  5
7D4
100
AcDbEntity
  8
_0-0_
  6
CONTINUOUS
 62
     0
100
AcDbText
 10
416.5609660336
 20
-629.5835790725
 40
7.5
  1
ｔ１．０×ｗ３０
 41
0.9986666666667
  7
STANDARD
100
AcDbText
  0
TEXT
  5
7D5
100
AcDbEntity
  8
_0-0_
  6
CONTINUOUS
 62
     0
100
AcDbText
 10
416.8396227282
 20
-646.9995647689
 40
7.5
  1
４００ＦＹＹＨ－１１００
  7
STANDARD
100
AcDbText
  0
TEXT
  5
7D6
100
AcDbEntity
  8
_0-0_
  6
CONTINUOUS
 62
     0
100
AcDbText
 10
416.4287848554
 20
-593.5906413016
 40
7.49
  1
４００ＦＹＹＧ－Ｓ１１００
 41
1.001335113485
  7
STANDARD
100
AcDbText
  0
TEXT
  5
7D7
100
AcDbEntity
  8
_0-0_
  6
CONTINUOUS
 62
     0
100
AcDbText
 10
416.8396227282
 20
-701.6410018548
 40
7.5
  1
４００ＦＹＹＪ－１１００
  7
STANDARD
100
AcDbText
  0
TEXT
  5
7D8
100
AcDbEntity
  8
_0-0_
  6
CONTINUOUS
 62
     0
100
AcDbText
 10
417.250460601
 20
-718.4853546406
 40
7.49
  1
ＳＰＶＣ
 41
1.001335113485
  7
STANDARD
100
AcDbText
  0
TEXT
  5
7D9
100
AcDbEntity
  8
_0-0_
  6
CONTINUOUS
 62
     0
100
AcDbText
 10
418.4829742195
 20
-737.3838967906
 40
7.5
  1
ＦＳ１２００
  7
STANDARD
100
AcDbText
  0
TEXT
  5
7DA
100
AcDbEntity
  8
_0-0_
  6
CONTINUOUS
 62
     0
100
AcDbText
 10
417.6612984739
 20
-755.4607631949
 40
7.5
  1
なべＭ６×３５
 41
0.9986666666667
  7
STANDARD
100
AcDbText
  0
TEXT
  5
7DB
100
AcDbEntity
  8
_0-0_
  6
CONTINUOUS
 62
     0
100
AcDbText
 10
417.8109660336
 20
-773.5835790725
 40
7.5
  1
Ｍ６×４０
 41
0.9986666666667
  7
STANDARD
100
AcDbText
  0
TEXT
  5
7DC
100
AcDbEntity
  8
_0-0_
  6
CONTINUOUS
 62
     0
100
AcDbText
 10
418.0721363467
 20
-791.2036581308
 40
7.5
  1
ＡＧ－６６０
  7
STANDARD
100
AcDbText
  0
TEXT
  5
7DD
100
AcDbEntity
  8
_0-0_
  6
CONTINUOUS
 62
     0
100
AcDbText
 10
418.8938120923
 20
-809.2805245351
 40
7.5
  1
１．５×１８×６．５穴
 41
0.9986666666667
  7
STANDARD
100
AcDbText
  0
TEXT
  5
7DE
100
AcDbEntity
  8
_0-0_
  6
CONTINUOUS
 62
     0
100
AcDbText
 10
566.9964476042
 20
-575.5835790725
 40
7.49
  1
定尺(mm)
  7
STANDARD
100
AcDbText
  0
TEXT
  5
7DF
100
AcDbEntity
  8
_0-0_
  6
CONTINUOUS
 62
     0
100
AcDbText
 10
566.5612408662
 20
-593.5835790725
 40
7.49
  1
２０００
  7
STANDARD
100
AcDbText
  0
TEXT
  5
7E0
100
AcDbEntity
  8
_0-0_
  6
CONTINUOUS
 62
     0
100
AcDbText
 10
566.5612408662
 20
-611.5835790725
 40
7.49
  1
２０００
  7
STANDARD
100
AcDbText
  0
TEXT
  5
7E1
100
AcDbEntity
  8
_0-0_
  6
CONTINUOUS
 62
     0
100
AcDbText
 10
566.5612408662
 20
-629.5835790725
 40
7.5
  1
６０００
 41
0.9986666666667
  7
STANDARD
100
AcDbText
  0
TEXT
  5
7E2
100
AcDbEntity
  8
_0-0_
  6
CONTINUOUS
 62
     0
100
AcDbText
 10
566.5024377433
 20
-646.1778890233
 40
7.49
  1
２０１０
  7
STANDARD
100
AcDbText
  0
TEXT
  5
7E3
100
AcDbEntity
  8
_0-0_
  6
CONTINUOUS
 62
     0
100
AcDbText
 10
566.7662571803
 20
-718.2383839115
 40
7.5
  1
２０６０
 41
0.9986666666667
  7
STANDARD
100
AcDbText
  0
TEXT
  5
7E4
100
AcDbEntity
  8
_0-0_
  6
CONTINUOUS
 62
     0
100
AcDbText
 10
566.5612408662
 20
-737.5835790725
 40
7.5
  1
２１００
 41
0.9986666666667
  7
STANDARD
100
AcDbText
  0
TEXT
  5
7E5
100
AcDbEntity
  8
_0-0_
  6
CONTINUOUS
 62
     0
100
AcDbText
 10
616.9984660336
 20
-593.5835790725
 40
7.49
  1
１
 41
1.001335113485
  7
STANDARD
100
AcDbText
  0
TEXT
  5
7E6
100
AcDbEntity
  8
_0-0_
  6
CONTINUOUS
 62
     0
100
AcDbText
 10
616.9984660336
 20
-611.5835790725
 40
7.49
  1
２
 41
1.001335113485
  7
STANDARD
100
AcDbText
  0
TEXT
  5
7E7
100
AcDbEntity
  8
_0-0_
  6
CONTINUOUS
 62
     0
100
AcDbText
 10
616.9984660336
 20
-629.5835790725
 40
7.49
  1
２
 41
1.001335113485
  7
STANDARD
100
AcDbText
  0
TEXT
  5
7E8
100
AcDbEntity
  8
_0-0_
  6
CONTINUOUS
 62
     0
100
AcDbText
 10
616.9984660336
 20
-647.5835790725
 40
7.5
  1
４
  7
STANDARD
100
AcDbText
  0
TEXT
  5
7E9
100
AcDbEntity
  8
_0-0_
  6
CONTINUOUS
 62
     0
100
AcDbText
 10
616.9984660336
 20
-665.5835790725
 40
7.5
  1
８
  7
STANDARD
100
AcDbText
  0
TEXT
  5
7EA
100
AcDbEntity
  8
_0-0_
  6
CONTINUOUS
 62
     0
100
AcDbText
 10
616.9984660336
 20
-683.5835790725
 40
7.5
  1
８
  7
STANDARD
100
AcDbText
  0
TEXT
  5
7EB
100
AcDbEntity
  8
_0-0_
  6
CONTINUOUS
 62
     0
100
AcDbText
 10
616.9984660336
 20
-701.5835790725
 40
7.5
  1
１
  7
STANDARD
100
AcDbText
  0
TEXT
  5
7EC
100
AcDbEntity
  8
_0-0_
  6
CONTINUOUS
 62
     0
100
AcDbText
 10
617.8284823477
 20
-718.2383839115
 40
7.5
  1
２
 41
0.9986666666667
  7
STANDARD
100
AcDbText
  0
TEXT
  5
7ED
100
AcDbEntity
  8
_0-0_
  6
CONTINUOUS
 62
     0
100
AcDbText
 10
616.9984660336
 20
-737.5835790725
 40
7.5
  1
１
  7
STANDARD
100
AcDbText
  0
TEXT
  5
7EE
100
AcDbEntity
  8
_0-0_
  6
CONTINUOUS
 62
     0
100
AcDbText
 10
615.1693970139
 20
-755.5835790725
 40
7.5
  1
１０
  7
STANDARD
100
AcDbText
  0
TEXT
  5
7EF
100
AcDbEntity
  8
_0-0_
  6
CONTINUOUS
 62
     0
100
AcDbText
 10
615.1693970139
 20
-773.5835790725
 40
7.5
  1
１０
  7
STANDARD
100
AcDbText
  0
TEXT
  5
7F0
100
AcDbEntity
  8
_0-0_
  6
CONTINUOUS
 62
     0
100
AcDbText
 10
615.1693970139
 20
-791.5835790725
 40
7.5
  1
１０
  7
STANDARD
100
AcDbText
  0
TEXT
  5
7F1
100
AcDbEntity
  8
_0-0_
  6
CONTINUOUS
 62
     0
100
AcDbText
 10
615.1693970139
 20
-809.5835790725
 40
7.5
  1
１０
  7
STANDARD
100
AcDbText
  0
TEXT
  5
7F2
100
AcDbEntity
  8
_0-0_
  6
CONTINUOUS
 62
     0
100
AcDbText
 10
853.7494844769
 20
339.339683929
 40
7.5
  1
１２５
  7
STANDARD
100
AcDbText
  0
TEXT
  5
7F3
100
AcDbEntity
  8
_0-0_
  6
CONTINUOUS
 62
     0
100
AcDbText
 10
853.7494844769
 20
321.339683929
 40
7.5
  1
１５０
  7
STANDARD
100
AcDbText
  0
TEXT
  5
7F4
100
AcDbEntity
  8
_0-0_
  6
CONTINUOUS
 62
     0
100
AcDbText
 10
53.7131753758
 20
-106.2869641781
 40
9.99
  1
◇ステンレス４００タイプ（４００ＦＹＹＧ－Ｓ）
 41
1.001001001001
  7
STANDARD
100
AcDbText
  0
ENDSEC
  0
SECTION
  2
OBJECTS
  0
DICTIONARY
  5
7F5
100
AcDbDictionary
  3
ACAD_GROUP
350
7F6
  3
ACAD_IMAGE_DICT
350
7F7
  3
ACAD_MLINESTYLE
350
7F8
  0
DICTIONARY
  5
7F6
330
7F5
100
AcDbDictionary
  0
DICTIONARY
  5
7F7
100
AcDbDictionary
  0
DICTIONARY
  5
7F8
100
AcDbDictionary
  3
STANDARD
350
7F9
  0
RASTERVARIABLES
  5
7FA
100
AcDbRasterVariables
 90
     0
 70
     1
 71
     1
 72
     0
  0
MLINESTYLE
  5
7F9
100
AcDbMlineStyle
  2
STANDARD
 70
     0
  3

 62
   256
 51
90
 52
90
 71
     0
  0
ENDSEC
  0
EOF
