  0
SECTION
  2
HEADER
  9
$ACADVER
  1
AC1015
  9
$ACADMAINTVER
 70
    20
  9
$DWGCODEPAGE
  3
ANSI_932
  9
$INSBASE
 10
0.0
 20
0.0
 30
0.0
  9
$EXTMIN
 10
14.95788869326679
 20
15.9841435276594
 30
-0.0015258207003583
  9
$EXTMAX
 10
1245.042117174065
 20
866.0963490809372
 30
0.0000000349246037
  9
$LIMMIN
 10
0.0
 20
0.0
  9
$LIMMAX
 10
1260.0
 20
882.0
  9
$ORTHOMODE
 70
     0
  9
$REGENMODE
 70
     1
  9
$FILLMODE
 70
     1
  9
$QTEXTMODE
 70
     0
  9
$MIRRTEXT
 70
     0
  9
$LTSCALE
 40
3.0
  9
$ATTMODE
 70
     1
  9
$TEXTSIZE
 40
1.0
  9
$TRACEWID
 40
0.05
  9
$TEXTSTYLE
  7
STANDARD
  9
$CLAYER
  8
0
  9
$CELTYPE
  6
CONTINUOUS
  9
$CECOLOR
 62
   256
  9
$CELTSCALE
 40
1.0
  9
$DISPSILH
 70
     0
  9
$DIMSCALE
 40
3.0
  9
$DIMASZ
 40
0.18
  9
$DIMEXO
 40
0.0625
  9
$DIMDLI
 40
0.38
  9
$DIMRND
 40
0.0
  9
$DIMDLE
 40
0.0
  9
$DIMEXE
 40
0.18
  9
$DIMTP
 40
0.0
  9
$DIMTM
 40
0.0
  9
$DIMTXT
 40
0.18
  9
$DIMCEN
 40
0.09
  9
$DIMTSZ
 40
0.0
  9
$DIMTOL
 70
     0
  9
$DIMLIM
 70
     0
  9
$DIMTIH
 70
     1
  9
$DIMTOH
 70
     1
  9
$DIMSE1
 70
     0
  9
$DIMSE2
 70
     0
  9
$DIMTAD
 70
     0
  9
$DIMZIN
 70
     0
  9
$DIMBLK
  1

  9
$DIMASO
 70
     1
  9
$DIMSHO
 70
     1
  9
$DIMPOST
  1

  9
$DIMAPOST
  1

  9
$DIMALT
 70
     0
  9
$DIMALTD
 70
     2
  9
$DIMALTF
 40
25.4
  9
$DIMLFAC
 40
1.0
  9
$DIMTOFL
 70
     0
  9
$DIMTVP
 40
0.0
  9
$DIMTIX
 70
     0
  9
$DIMSOXD
 70
     0
  9
$DIMSAH
 70
     0
  9
$DIMBLK1
  1

  9
$DIMBLK2
  1

  9
$DIMSTYLE
  2
M7DIMSTL
  9
$DIMCLRD
 70
     0
  9
$DIMCLRE
 70
     0
  9
$DIMCLRT
 70
     0
  9
$DIMTFAC
 40
1.0
  9
$DIMGAP
 40
0.09
  9
$DIMJUST
 70
     0
  9
$DIMSD1
 70
     0
  9
$DIMSD2
 70
     0
  9
$DIMTOLJ
 70
     1
  9
$DIMTZIN
 70
     0
  9
$DIMALTZ
 70
     0
  9
$DIMALTTZ
 70
     0
  9
$DIMUPT
 70
     0
  9
$DIMDEC
 70
     4
  9
$DIMTDEC
 70
     4
  9
$DIMALTU
 70
     2
  9
$DIMALTTD
 70
     2
  9
$DIMTXSTY
  7
STANDARD
  9
$DIMAUNIT
 70
     0
  9
$DIMADEC
 70
     0
  9
$DIMALTRND
 40
0.0
  9
$DIMAZIN
 70
     0
  9
$DIMDSEP
 70
    46
  9
$DIMATFIT
 70
     3
  9
$DIMFRAC
 70
     0
  9
$DIMLDRBLK
  1

  9
$DIMLUNIT
 70
     2
  9
$DIMLWD
 70
    -2
  9
$DIMLWE
 70
    -2
  9
$DIMTMOVE
 70
     0
  9
$LUNITS
 70
     2
  9
$LUPREC
 70
     4
  9
$SKETCHINC
 40
0.1
  9
$FILLETRAD
 40
0.0
  9
$AUNITS
 70
     0
  9
$AUPREC
 70
     0
  9
$MENU
  1
.
  9
$ELEVATION
 40
0.0
  9
$PELEVATION
 40
0.0
  9
$THICKNESS
 40
0.0
  9
$LIMCHECK
 70
     0
  9
$CHAMFERA
 40
0.0
  9
$CHAMFERB
 40
0.0
  9
$CHAMFERC
 40
0.0
  9
$CHAMFERD
 40
0.0
  9
$SKPOLY
 70
     0
  9
$TDCREATE
 40
2457807.640937500
  9
$TDUCREATE
 40
2457807.265937500
  9
$TDUPDATE
 40
2457807.641701389
  9
$TDUUPDATE
 40
2457807.266701389
  9
$TDINDWG
 40
0.0007754630
  9
$TDUSRTIMER
 40
0.0007754630
  9
$USRTIMER
 70
     1
  9
$ANGBASE
 50
0.0
  9
$ANGDIR
 70
     0
  9
$PDMODE
 70
     0
  9
$PDSIZE
 40
0.0
  9
$PLINEWID
 40
0.0
  9
$SPLFRAME
 70
     0
  9
$SPLINETYPE
 70
     6
  9
$SPLINESEGS
 70
     8
  9
$HANDSEED
  5
1000000BB
  9
$SURFTAB1
 70
     6
  9
$SURFTAB2
 70
     6
  9
$SURFTYPE
 70
     6
  9
$SURFU
 70
     6
  9
$SURFV
 70
     6
  9
$UCSBASE
  2

  9
$UCSNAME
  2

  9
$UCSORG
 10
0.0
 20
0.0
 30
0.0
  9
$UCSXDIR
 10
1.0
 20
0.0
 30
0.0
  9
$UCSYDIR
 10
0.0
 20
1.0
 30
0.0
  9
$UCSORTHOREF
  2

  9
$UCSORTHOVIEW
 70
     0
  9
$UCSORGTOP
 10
0.0
 20
0.0
 30
0.0
  9
$UCSORGBOTTOM
 10
0.0
 20
0.0
 30
0.0
  9
$UCSORGLEFT
 10
0.0
 20
0.0
 30
0.0
  9
$UCSORGRIGHT
 10
0.0
 20
0.0
 30
0.0
  9
$UCSORGFRONT
 10
0.0
 20
0.0
 30
0.0
  9
$UCSORGBACK
 10
0.0
 20
0.0
 30
0.0
  9
$PUCSBASE
  2

  9
$PUCSNAME
  2

  9
$PUCSORG
 10
0.0
 20
0.0
 30
0.0
  9
$PUCSXDIR
 10
1.0
 20
0.0
 30
0.0
  9
$PUCSYDIR
 10
0.0
 20
1.0
 30
0.0
  9
$PUCSORTHOREF
  2

  9
$PUCSORTHOVIEW
 70
     0
  9
$PUCSORGTOP
 10
0.0
 20
0.0
 30
0.0
  9
$PUCSORGBOTTOM
 10
0.0
 20
0.0
 30
0.0
  9
$PUCSORGLEFT
 10
0.0
 20
0.0
 30
0.0
  9
$PUCSORGRIGHT
 10
0.0
 20
0.0
 30
0.0
  9
$PUCSORGFRONT
 10
0.0
 20
0.0
 30
0.0
  9
$PUCSORGBACK
 10
0.0
 20
0.0
 30
0.0
  9
$USERI1
 70
     0
  9
$USERI2
 70
     0
  9
$USERI3
 70
     0
  9
$USERI4
 70
     0
  9
$USERI5
 70
     0
  9
$USERR1
 40
0.0
  9
$USERR2
 40
0.0
  9
$USERR3
 40
0.0
  9
$USERR4
 40
0.0
  9
$USERR5
 40
0.0
  9
$WORLDVIEW
 70
     1
  9
$SHADEDGE
 70
     3
  9
$SHADEDIF
 70
    70
  9
$TILEMODE
 70
     1
  9
$MAXACTVP
 70
    64
  9
$PINSBASE
 10
0.0
 20
0.0
 30
0.0
  9
$PLIMCHECK
 70
     0
  9
$PEXTMIN
 10
1.000000000000000E+20
 20
1.000000000000000E+20
 30
1.000000000000000E+20
  9
$PEXTMAX
 10
-1.000000000000000E+20
 20
-1.000000000000000E+20
 30
-1.000000000000000E+20
  9
$PLIMMIN
 10
0.0
 20
0.0
  9
$PLIMMAX
 10
12.0
 20
9.0
  9
$UNITMODE
 70
     0
  9
$VISRETAIN
 70
     1
  9
$PLINEGEN
 70
     0
  9
$PSLTSCALE
 70
     0
  9
$TREEDEPTH
 70
  3020
  9
$CMLSTYLE
  2
STANDARD
  9
$CMLJUST
 70
     0
  9
$CMLSCALE
 40
1.0
  9
$PROXYGRAPHICS
 70
     1
  9
$MEASUREMENT
 70
     1
  9
$CELWEIGHT
370
    -1
  9
$ENDCAPS
280
     0
  9
$JOINSTYLE
280
     0
  9
$LWDISPLAY
290
     0
  9
$INSUNITS
 70
     0
  9
$HYPERLINKBASE
  1

  9
$STYLESHEET
  1

  9
$XEDIT
290
     1
  9
$CEPSNTYPE
380
     0
  9
$PSTYLEMODE
290
     1
  9
$FINGERPRINTGUID
  2
{2DEA44AA-F228-734F-A58A-FC14627E4C6B}
  9
$VERSIONGUID
  2
{5A5E854B-6870-894B-9C16-E600B1978A63}
  9
$EXTNAMES
290
     1
  9
$PSVPSCALE
 40
0.0
  9
$OLESTARTUP
290
     0
  0
ENDSEC
  0
SECTION
  2
CLASSES
  0
CLASS
  1
CSOFTARXCLASS
  2
CSoftArxClass
  3
CSRasterApi
 90
    32768
280
     0
281
     0
  0
CLASS
  1
IMAGEDEF
  2
AcDbRasterImageDef
  3
ISM
 90
    32768
280
     0
281
     0
  0
CLASS
  1
RASTERVARIABLES
  2
AcDbRasterVariables
  3
ISM
 90
        0
280
     0
281
     0
  0
CLASS
  1
IMAGE
  2
AcDbRasterImage
  3
ISM
 90
    34943
280
     0
281
     0
  0
CLASS
  1
IMAGEDEF_REACTOR
  2
AcDbRasterImageDefReactor
  3
ISM
 90
    32769
280
     0
281
     0
  0
CLASS
  1
ACDBDICTIONARYWDFLT
  2
AcDbDictionaryWithDefault
  3
ObjectDBX Classes
 90
        0
280
     0
281
     0
  0
CLASS
  1
MATERIAL
  2
AcDbMaterial
  3
ObjectDBX Classes
 90
     1153
280
     0
281
     0
  0
CLASS
  1
VISUALSTYLE
  2
AcDbVisualStyle
  3
ObjectDBX Classes
 90
     4095
280
     0
281
     0
  0
CLASS
  1
TABLESTYLE
  2
AcDbTableStyle
  3
ObjectDBX Classes
 90
     4095
280
     0
281
     0
  0
CLASS
  1
SCALE
  2
AcDbScale
  3
ObjectDBX Classes
 90
     1153
280
     0
281
     0
  0
CLASS
  1
MLEADERSTYLE
  2
AcDbMLeaderStyle
  3
ACDB_MLEADERSTYLE_CLASS
 90
     4095
280
     0
281
     0
  0
CLASS
  1
ACDBSECTIONVIEWSTYLE
  2
AcDbSectionViewStyle
  3
ObjectDBX Classes
 90
     1025
280
     0
281
     0
  0
CLASS
  1
ACDBDETAILVIEWSTYLE
  2
AcDbDetailViewStyle
  3
ObjectDBX Classes
 90
     1025
280
     0
281
     0
  0
CLASS
  1
DICTIONARYVAR
  2
AcDbDictionaryVar
  3
ObjectDBX Classes
 90
        0
280
     0
281
     0
  0
CLASS
  1
CELLSTYLEMAP
  2
AcDbCellStyleMap
  3
ObjectDBX Classes
 90
     1152
280
     0
281
     0
  0
CLASS
  1
ACDBPLACEHOLDER
  2
AcDbPlaceHolder
  3
ObjectDBX Classes
 90
        0
280
     0
281
     0
  0
CLASS
  1
LAYOUT
  2
AcDbLayout
  3
ObjectDBX Classes
 90
        0
280
     0
281
     0
  0
ENDSEC
  0
SECTION
  2
TABLES
  0
TABLE
  2
VPORT
  5
FF
330
0
100
AcDbSymbolTable
 70
     1
  0
VPORT
  5
100
330
FF
100
AcDbSymbolTableRecord
100
AcDbViewportTableRecord
  2
*ACTIVE
 70
     0
 10
0.0
 20
0.0
 11
1.0
 21
1.0
 12
630.0000029336656
 22
441.0402463042983
 13
0.0
 23
0.0
 14
0.0
 24
0.0
 15
0.0
 25
0.0
 16
0.0
 26
0.0
 36
1.0
 17
0.0
 27
0.0
 37
0.0
 40
859.8649268406958
 41
2.318007662835249
 42
50.0
 43
0.0
 44
0.0
 50
0.0
 51
0.0
 71
     0
 72
   100
 73
     1
 74
     3
 75
     0
 76
     0
 77
     0
 78
     0
281
     0
 65
     1
110
0.0
120
0.0
130
0.0
111
1.0
121
0.0
131
0.0
112
0.0
122
1.0
132
0.0
 79
     0
146
0.0
1001
ACAD_NAV_VCDISPLAY
1070
     3
  0
ENDTAB
  0
TABLE
  2
LTYPE
  5
101
330
0
100
AcDbSymbolTable
 70
    17
  0
LTYPE
  5
102
330
101
100
AcDbSymbolTableRecord
100
AcDbLinetypeTableRecord
  2
BYBLOCK
 70
     0
  3

 72
    65
 73
     0
 40
0.0
  0
LTYPE
  5
103
330
101
100
AcDbSymbolTableRecord
100
AcDbLinetypeTableRecord
  2
BYLAYER
 70
     0
  3

 72
    65
 73
     0
 40
0.0
  0
LTYPE
  5
104
330
101
100
AcDbSymbolTableRecord
100
AcDbLinetypeTableRecord
  2
CONTINUOUS
 70
     0
  3
Solid line
 72
    65
 73
     0
 40
0.0
  0
LTYPE
  5
105
330
101
100
AcDbSymbolTableRecord
100
AcDbLinetypeTableRecord
  2
DOT
 70
     0
  3
...............................
 72
    65
 73
     2
 40
2.0
 49
1.0
 74
     0
 49
-1.0
 74
     0
  0
LTYPE
  5
106
330
101
100
AcDbSymbolTableRecord
100
AcDbLinetypeTableRecord
  2
DASHED
 70
     0
  3
- - - - - - - - - - - - - - - -
 72
    65
 73
     2
 40
4.0
 49
2.0
 74
     0
 49
-2.0
 74
     0
  0
LTYPE
  5
107
330
101
100
AcDbSymbolTableRecord
100
AcDbLinetypeTableRecord
  2
DASHED2
 70
     0
  3
-- -- -- -- -- -- -- -- -- -- -
 72
    65
 73
     2
 40
8.0
 49
5.0
 74
     0
 49
-3.0
 74
     0
  0
LTYPE
  5
108
330
101
100
AcDbSymbolTableRecord
100
AcDbLinetypeTableRecord
  2
CENTER
 70
     0
  3
--------- - --------- - -------
 72
    65
 73
     4
 40
23.0
 49
20.0
 74
     0
 49
-1.0
 74
     0
 49
1.0
 74
     0
 49
-1.0
 74
     0
  0
LTYPE
  5
109
330
101
100
AcDbSymbolTableRecord
100
AcDbLinetypeTableRecord
  2
CENTERX2
 70
     0
  3
-------------- - --------------
 72
    65
 73
     4
 40
43.0
 49
40.0
 74
     0
 49
-1.0
 74
     0
 49
1.0
 74
     0
 49
-1.0
 74
     0
  0
LTYPE
  5
10A
330
101
100
AcDbSymbolTableRecord
100
AcDbLinetypeTableRecord
  2
CENTER2
 70
     0
  3
------ - ----- - ------ - -----
 72
    65
 73
     4
 40
13.0
 49
10.0
 74
     0
 49
-1.0
 74
     0
 49
1.0
 74
     0
 49
-1.0
 74
     0
  0
LTYPE
  5
10B
330
101
100
AcDbSymbolTableRecord
100
AcDbLinetypeTableRecord
  2
PHANTOM
 70
     0
  3
-------- - - ------- - - ------
 72
    65
 73
     6
 40
25.0
 49
20.0
 74
     0
 49
-1.0
 74
     0
 49
1.0
 74
     0
 49
-1.0
 74
     0
 49
1.0
 74
     0
 49
-1.0
 74
     0
  0
LTYPE
  5
10C
330
101
100
AcDbSymbolTableRecord
100
AcDbLinetypeTableRecord
  2
PHANTOMX2
 70
     0
  3
------------- - - -------------
 72
    65
 73
     6
 40
45.0
 49
40.0
 74
     0
 49
-1.0
 74
     0
 49
1.0
 74
     0
 49
-1.0
 74
     0
 49
1.0
 74
     0
 49
-1.0
 74
     0
  0
LTYPE
  5
10D
330
101
100
AcDbSymbolTableRecord
100
AcDbLinetypeTableRecord
  2
PHANTOM2
 70
     0
  3
---- - - ---- - - ---- - - ----
 72
    65
 73
     6
 40
15.0
 49
10.0
 74
     0
 49
-1.0
 74
     0
 49
1.0
 74
     0
 49
-1.0
 74
     0
 49
1.0
 74
     0
 49
-1.0
 74
     0
  0
LTYPE
  5
10E
330
101
100
AcDbSymbolTableRecord
100
AcDbLinetypeTableRecord
  2
ACAD_ISO06W100
 70
     0
  3
------------ - - - ------------
 72
    65
 73
     8
 40
47.0
 49
40.0
 74
     0
 49
-1.0
 74
     0
 49
1.0
 74
     0
 49
-1.0
 74
     0
 49
1.0
 74
     0
 49
-1.0
 74
     0
 49
1.0
 74
     0
 49
-1.0
 74
     0
  0
LTYPE
  5
10F
330
101
100
AcDbSymbolTableRecord
100
AcDbLinetypeTableRecord
  2
ACAD_ISO14W100
 70
     0
  3
---- - - - -------- - - - -----
 72
    65
 73
     8
 40
27.0
 49
20.0
 74
     0
 49
-1.0
 74
     0
 49
1.0
 74
     0
 49
-1.0
 74
     0
 49
1.0
 74
     0
 49
-1.0
 74
     0
 49
1.0
 74
     0
 49
-1.0
 74
     0
  0
LTYPE
  5
110
330
101
100
AcDbSymbolTableRecord
100
AcDbLinetypeTableRecord
  2
ACAD_ISO11W100
 70
     0
  3
------- ------ - ------- ------
 72
    65
 73
     6
 40
44.0
 49
20.0
 74
     0
 49
-1.0
 74
     0
 49
20.0
 74
     0
 49
-1.0
 74
     0
 49
1.0
 74
     0
 49
-1.0
 74
     0
  0
LTYPE
  5
111
330
101
100
AcDbSymbolTableRecord
100
AcDbLinetypeTableRecord
  2
ACAD_ISO13W100
 70
     0
  3
------ ------ - - ------ ------
 72
    65
 73
     8
 40
46.0
 49
20.0
 74
     0
 49
-1.0
 74
     0
 49
20.0
 74
     0
 49
-1.0
 74
     0
 49
1.0
 74
     0
 49
-1.0
 74
     0
 49
1.0
 74
     0
 49
-1.0
 74
     0
  0
LTYPE
  5
112
330
101
100
AcDbSymbolTableRecord
100
AcDbLinetypeTableRecord
  2
ACAD_ISO15W100
 70
     0
  3
------ ----- - - - ------ -----
 72
    65
 73
    10
 40
48.0
 49
20.0
 74
     0
 49
-1.0
 74
     0
 49
20.0
 74
     0
 49
-1.0
 74
     0
 49
1.0
 74
     0
 49
-1.0
 74
     0
 49
1.0
 74
     0
 49
-1.0
 74
     0
 49
1.0
 74
     0
 49
-1.0
 74
     0
  0
LTYPE
  5
113
330
101
100
AcDbSymbolTableRecord
100
AcDbLinetypeTableRecord
  2
HIDDEN
 70
     0
  3
. . . . . . . . . . . . . . . .
 72
    65
 73
     2
 40
1.5
 49
1.0
 74
     0
 49
-0.5
 74
     0
  0
ENDTAB
  0
TABLE
  2
LAYER
  5
114
330
0
100
AcDbSymbolTable
 70
     8
  0
LAYER
  5
115
102
{ACAD_XDICTIONARY
360
10000005F
102
}
330
114
100
AcDbSymbolTableRecord
100
AcDbLayerTableRecord
  2
0
 70
     0
 62
     7
  6
CONTINUOUS
370
    -3
390
116
  0
LAYER
  5
117
102
{ACAD_XDICTIONARY
360
100000061
102
}
330
114
100
AcDbSymbolTableRecord
100
AcDbLayerTableRecord
  2
_0-0_
 70
     0
 62
     7
  6
CONTINUOUS
370
    -3
390
278
  0
LAYER
  5
118
102
{ACAD_XDICTIONARY
360
100000063
102
}
330
114
100
AcDbSymbolTableRecord
100
AcDbLayerTableRecord
  2
_0-1_PRO0
 70
     0
 62
     7
  6
CONTINUOUS
370
    -3
390
278
  0
LAYER
  5
119
102
{ACAD_XDICTIONARY
360
100000065
102
}
330
114
100
AcDbSymbolTableRecord
100
AcDbLayerTableRecord
  2
_0-3_
 70
     0
 62
     7
  6
CONTINUOUS
370
    -3
390
278
  0
LAYER
  5
11A
102
{ACAD_XDICTIONARY
360
100000067
102
}
330
114
100
AcDbSymbolTableRecord
100
AcDbLayerTableRecord
  2
_1-0_
 70
     0
 62
     7
  6
CONTINUOUS
370
    -3
390
278
  0
LAYER
  5
11B
102
{ACAD_XDICTIONARY
360
100000069
102
}
330
114
100
AcDbSymbolTableRecord
100
AcDbLayerTableRecord
  2
_2-0_
 70
     0
 62
     7
  6
CONTINUOUS
370
    -3
390
278
  0
LAYER
  5
11C
102
{ACAD_XDICTIONARY
360
10000006B
102
}
330
114
100
AcDbSymbolTableRecord
100
AcDbLayerTableRecord
  2
_a-0_
 70
     0
 62
     7
  6
CONTINUOUS
370
    -3
390
278
  0
LAYER
  5
11D
102
{ACAD_XDICTIONARY
360
10000006D
102
}
330
114
100
AcDbSymbolTableRecord
100
AcDbLayerTableRecord
  2
ADD_LINE
 70
     0
 62
     7
  6
CONTINUOUS
370
    -3
390
278
  0
ENDTAB
  0
TABLE
  2
STYLE
  5
11E
330
0
100
AcDbSymbolTable
 70
     2
  0
STYLE
  5
11F
330
11E
100
AcDbSymbolTableRecord
100
AcDbTextStyleTableRecord
  2
STANDARD
 70
     0
 40
0.0
 41
0.0
 50
0.0
 71
     0
 42
1.0
  3
txt
  4
bigfont
  0
STYLE
  5
120
330
11E
100
AcDbSymbolTableRecord
100
AcDbTextStyleTableRecord
  2
VSTANDARD
 70
     4
 40
0.0
 41
0.0
 50
0.0
 71
     0
 42
1.0
  3
txt
  4
bigfont
  0
ENDTAB
  0
TABLE
  2
VIEW
  5
121
330
0
100
AcDbSymbolTable
 70
     0
  0
ENDTAB
  0
TABLE
  2
UCS
  5
122
330
0
100
AcDbSymbolTable
 70
     0
  0
ENDTAB
  0
TABLE
  2
APPID
  5
123
330
0
100
AcDbSymbolTable
 70
     4
  0
APPID
  5
124
330
123
100
AcDbSymbolTableRecord
100
AcDbRegAppTableRecord
  2
ACAD
 70
     0
  0
APPID
  5
100000058
330
123
100
AcDbSymbolTableRecord
100
AcDbRegAppTableRecord
  2
ACAD_EXEMPT_FROM_CAD_STANDARDS
 70
     0
  0
APPID
  5
100000079
330
123
100
AcDbSymbolTableRecord
100
AcDbRegAppTableRecord
  2
ACAD_NAV_VCDISPLAY
 70
     0
  0
APPID
  5
1000000B2
330
123
100
AcDbSymbolTableRecord
100
AcDbRegAppTableRecord
  2
ACAD_MLEADERVER
 70
     0
  0
ENDTAB
  0
TABLE
  2
DIMSTYLE
  5
125
330
0
100
AcDbSymbolTable
 70
     2
100
AcDbDimStyleTable
 71
     1
340
126
  0
DIMSTYLE
105
126
330
125
100
AcDbSymbolTableRecord
100
AcDbDimStyleTableRecord
  2
M7DIMSTL
 70
     0
 40
3.0
 41
2.5
 42
0.625
 43
3.75
 44
1.25
 73
     0
 74
     0
 77
     1
 78
     8
140
2.5
141
2.5
143
0.03937007874016
147
0.625
171
     3
172
     1
271
     2
272
     2
274
     3
283
     0
284
     8
340
11F
  0
ENDTAB
  0
TABLE
  2
BLOCK_RECORD
  5
127
330
0
100
AcDbSymbolTable
 70
    10
  0
BLOCK_RECORD
  5
128
330
127
100
AcDbSymbolTableRecord
100
AcDbBlockTableRecord
  2
*MODEL_SPACE
340
100000054
  0
BLOCK_RECORD
  5
129
330
127
100
AcDbSymbolTableRecord
100
AcDbBlockTableRecord
  2
*PAPER_SPACE
340
100000055
  0
BLOCK_RECORD
  5
12A
330
127
100
AcDbSymbolTableRecord
100
AcDbBlockTableRecord
  2
_DOT
340
0
  0
BLOCK_RECORD
  5
12B
330
127
100
AcDbSymbolTableRecord
100
AcDbBlockTableRecord
  2
_OPEN30
340
0
  0
BLOCK_RECORD
  5
12C
330
127
100
AcDbSymbolTableRecord
100
AcDbBlockTableRecord
  2
_ClosedBlank
340
0
  0
BLOCK_RECORD
  5
12D
330
127
100
AcDbSymbolTableRecord
100
AcDbBlockTableRecord
  2
_Origin
340
0
  0
BLOCK_RECORD
  5
12E
330
127
100
AcDbSymbolTableRecord
100
AcDbBlockTableRecord
  2
_Oblique
340
0
  0
BLOCK_RECORD
  5
12F
330
127
100
AcDbSymbolTableRecord
100
AcDbBlockTableRecord
  2
_Origin2
340
0
  0
BLOCK_RECORD
  5
130
330
127
100
AcDbSymbolTableRecord
100
AcDbBlockTableRecord
  2
_BoxBlank
340
0
  0
BLOCK_RECORD
  5
131
330
127
100
AcDbSymbolTableRecord
100
AcDbBlockTableRecord
  2
_BoxFilled
340
0
  0
BLOCK_RECORD
  5
132
330
127
100
AcDbSymbolTableRecord
100
AcDbBlockTableRecord
  2
_Integral
340
0
  0
ENDTAB
  0
ENDSEC
  0
SECTION
  2
BLOCKS
  0
BLOCK
  5
133
330
128
100
AcDbEntity
  8
0
100
AcDbBlockBegin
  2
*MODEL_SPACE
 70
     0
 10
0.0
 20
0.0
 30
0.0
  3
*MODEL_SPACE
  1

  0
ENDBLK
  5
134
330
128
100
AcDbEntity
  8
0
100
AcDbBlockEnd
  0
BLOCK
  5
135
330
129
100
AcDbEntity
 67
     1
  8
0
100
AcDbBlockBegin
  2
*PAPER_SPACE
 70
     0
 10
0.0
 20
0.0
 30
0.0
  3
*PAPER_SPACE
  1

  0
ENDBLK
  5
136
330
129
100
AcDbEntity
 67
     1
  8
0
100
AcDbBlockEnd
  0
BLOCK
  5
137
330
12A
100
AcDbEntity
  8
0
100
AcDbBlockBegin
  2
_DOT
 70
     0
 10
0.0
 20
0.0
 30
0.0
  3
_DOT
  1

  0
LWPOLYLINE
  5
138
330
12A
100
AcDbEntity
  8
0
  6
ByBlock
 62
     0
100
AcDbPolyline
 90
        2
 70
     1
 43
0.5
 10
-0.25
 20
0.0
 42
1.0
 10
0.25
 20
0.0
 42
1.0
  0
LINE
  5
139
330
12A
100
AcDbEntity
  8
0
  6
ByBlock
 62
     0
100
AcDbLine
 10
-0.5
 20
0.0
 30
0.0
 11
-1.0
 21
0.0
 31
0.0
  0
ENDBLK
  5
13A
330
12A
100
AcDbEntity
  8
0
100
AcDbBlockEnd
  0
BLOCK
  5
13B
330
12B
100
AcDbEntity
  8
0
100
AcDbBlockBegin
  2
_OPEN30
 70
     0
 10
0.0
 20
0.0
 30
0.0
  3
_OPEN30
  1

  0
LINE
  5
13C
330
12B
100
AcDbEntity
  8
0
  6
ByBlock
 62
     0
100
AcDbLine
 10
-1.0
 20
0.26794919
 30
0.0
 11
0.0
 21
0.0
 31
0.0
  0
LINE
  5
13D
330
12B
100
AcDbEntity
  8
0
  6
ByBlock
 62
     0
100
AcDbLine
 10
-1.0
 20
-0.26794919
 30
0.0
 11
0.0
 21
0.0
 31
0.0
  0
LINE
  5
13E
330
12B
100
AcDbEntity
  8
0
  6
ByBlock
 62
     0
100
AcDbLine
 10
0.0
 20
0.0
 30
0.0
 11
-1.0
 21
0.0
 31
0.0
  0
ENDBLK
  5
13F
330
12B
100
AcDbEntity
  8
0
100
AcDbBlockEnd
  0
BLOCK
  5
140
330
12C
100
AcDbEntity
  8
0
100
AcDbBlockBegin
  2
_ClosedBlank
 70
     0
 10
0.0
 20
0.0
 30
0.0
  3
_ClosedBlank
  1

  0
LINE
  5
141
330
12C
100
AcDbEntity
  8
0
  6
ByBlock
 62
     0
100
AcDbLine
 10
-1.0
 20
0.1666666666667
 30
0.0
 11
0.0
 21
0.0
 31
0.0
  0
LINE
  5
142
330
12C
100
AcDbEntity
  8
0
  6
ByBlock
 62
     0
100
AcDbLine
 10
0.0
 20
0.0
 30
0.0
 11
-1.0
 21
-0.1666666666667
 31
0.0
  0
LINE
  5
143
330
12C
100
AcDbEntity
  8
0
  6
ByBlock
 62
     0
100
AcDbLine
 10
-1.0
 20
0.1666666666667
 30
0.0
 11
-1.0
 21
-0.1666666666667
 31
0.0
  0
ENDBLK
  5
144
330
12C
100
AcDbEntity
  8
0
100
AcDbBlockEnd
  0
BLOCK
  5
145
330
12D
100
AcDbEntity
  8
0
100
AcDbBlockBegin
  2
_Origin
 70
     0
 10
0.0
 20
0.0
 30
0.0
  3
_Origin
  1

  0
CIRCLE
  5
146
330
12D
100
AcDbEntity
  8
0
  6
ByBlock
 62
     0
100
AcDbCircle
 10
0.0
 20
0.0
 30
0.0
 40
0.5
  0
LINE
  5
147
330
12D
100
AcDbEntity
  8
0
  6
ByBlock
 62
     0
100
AcDbLine
 10
0.0
 20
0.0
 30
0.0
 11
-1.0
 21
0.0
 31
0.0
  0
ENDBLK
  5
148
330
12D
100
AcDbEntity
  8
0
100
AcDbBlockEnd
  0
BLOCK
  5
149
330
12E
100
AcDbEntity
  8
0
100
AcDbBlockBegin
  2
_Oblique
 70
     0
 10
0.0
 20
0.0
 30
0.0
  3
_Oblique
  1

  0
LINE
  5
14A
330
12E
100
AcDbEntity
  8
0
  6
ByBlock
 62
     0
100
AcDbLine
 10
-0.5
 20
-0.5
 30
0.0
 11
0.5
 21
0.5
 31
0.0
  0
ENDBLK
  5
14B
330
12E
100
AcDbEntity
  8
0
100
AcDbBlockEnd
  0
BLOCK
  5
14C
330
12F
100
AcDbEntity
  8
0
100
AcDbBlockBegin
  2
_Origin2
 70
     0
 10
0.0
 20
0.0
 30
0.0
  3
_Origin2
  1

  0
CIRCLE
  5
14D
330
12F
100
AcDbEntity
  8
0
  6
ByBlock
 62
     0
100
AcDbCircle
 10
0.0
 20
0.0
 30
0.0
 40
0.5
  0
CIRCLE
  5
14E
330
12F
100
AcDbEntity
  8
0
  6
ByBlock
 62
     0
100
AcDbCircle
 10
0.0
 20
0.0
 30
0.0
 40
0.25
  0
LINE
  5
14F
330
12F
100
AcDbEntity
  8
0
  6
ByBlock
 62
     0
100
AcDbLine
 10
-0.5
 20
0.0
 30
0.0
 11
-1.0
 21
0.0
 31
0.0
  0
ENDBLK
  5
150
330
12F
100
AcDbEntity
  8
0
100
AcDbBlockEnd
  0
BLOCK
  5
151
330
130
100
AcDbEntity
  8
0
100
AcDbBlockBegin
  2
_BoxBlank
 70
     0
 10
0.0
 20
0.0
 30
0.0
  3
_BoxBlank
  1

  0
LINE
  5
152
330
130
100
AcDbEntity
  8
0
  6
ByBlock
 62
     0
100
AcDbLine
 10
-0.5
 20
-0.5
 30
0.0
 11
0.5
 21
-0.5
 31
0.0
  0
LINE
  5
153
330
130
100
AcDbEntity
  8
0
  6
ByBlock
 62
     0
100
AcDbLine
 10
0.5
 20
-0.5
 30
0.0
 11
0.5
 21
0.5
 31
0.0
  0
LINE
  5
154
330
130
100
AcDbEntity
  8
0
  6
ByBlock
 62
     0
100
AcDbLine
 10
0.5
 20
0.5
 30
0.0
 11
-0.5
 21
0.5
 31
0.0
  0
LINE
  5
155
330
130
100
AcDbEntity
  8
0
  6
ByBlock
 62
     0
100
AcDbLine
 10
-0.5
 20
0.5
 30
0.0
 11
-0.5
 21
-0.5
 31
0.0
  0
LINE
  5
156
330
130
100
AcDbEntity
  8
0
  6
ByBlock
 62
     0
100
AcDbLine
 10
-0.5
 20
0.0
 30
0.0
 11
-1.0
 21
0.0
 31
0.0
  0
ENDBLK
  5
157
330
130
100
AcDbEntity
  8
0
100
AcDbBlockEnd
  0
BLOCK
  5
158
330
131
100
AcDbEntity
  8
0
100
AcDbBlockBegin
  2
_BoxFilled
 70
     0
 10
0.0
 20
0.0
 30
0.0
  3
_BoxFilled
  1

  0
SOLID
  5
159
330
131
100
AcDbEntity
  8
0
  6
ByBlock
 62
     0
100
AcDbTrace
 10
-0.5
 20
0.5
 30
0.0
 11
0.5
 21
0.5
 31
0.0
 12
-0.5
 22
-0.5
 32
0.0
 13
0.5
 23
-0.5
 33
0.0
  0
LINE
  5
15A
330
131
100
AcDbEntity
  8
0
  6
ByBlock
 62
     0
100
AcDbLine
 10
-0.5
 20
0.0
 30
0.0
 11
-1.0
 21
0.0
 31
0.0
  0
ENDBLK
  5
15B
330
131
100
AcDbEntity
  8
0
100
AcDbBlockEnd
  0
BLOCK
  5
15C
330
132
100
AcDbEntity
  8
0
100
AcDbBlockBegin
  2
_Integral
 70
     0
 10
0.0
 20
0.0
 30
0.0
  3
_Integral
  1

  0
ARC
  5
15D
330
132
100
AcDbEntity
  8
0
  6
ByBlock
 62
     0
100
AcDbCircle
 10
0.44488802
 20
-0.09133463
 30
0.0
 40
0.4541666700000001
100
AcDbArc
 50
101.999999998
 51
167.9999999799
  0
ARC
  5
15E
330
132
100
AcDbEntity
  8
0
  6
ByBlock
 62
     0
100
AcDbCircle
 10
-0.44488802
 20
0.09133463
 30
0.0
 40
0.4541666700000001
100
AcDbArc
 50
282.0000000215
 51
348.0000000034
  0
ENDBLK
  5
15F
330
132
100
AcDbEntity
  8
0
100
AcDbBlockEnd
  0
ENDSEC
  0
SECTION
  2
ENTITIES
  0
LINE
  5
163
330
128
100
AcDbEntity
  8
_2-0_
  6
Continuous
 62
     0
100
AcDbLine
 10
15.0
 20
16.0
 30
0.0
 11
1245.0
 21
16.0
 31
0.0
  0
LINE
  5
164
330
128
100
AcDbEntity
  8
_2-0_
  6
Continuous
 62
     0
100
AcDbLine
 10
1245.0
 20
16.0
 30
0.0
 11
1245.0
 21
866.0
 31
0.0
  0
LINE
  5
165
330
128
100
AcDbEntity
  8
_2-0_
  6
Continuous
 62
     0
100
AcDbLine
 10
1245.0
 20
866.0
 30
0.0
 11
15.0
 21
866.0
 31
0.0
  0
LINE
  5
166
330
128
100
AcDbEntity
  8
_2-0_
  6
Continuous
 62
     0
100
AcDbLine
 10
15.0
 20
866.0
 30
0.0
 11
15.0
 21
16.0
 31
0.0
  0
TEXT
  5
167
330
128
100
AcDbEntity
  8
_2-0_
  6
Continuous
 62
     0
100
AcDbText
 10
133.412991829
 20
800.2638896878
 30
0.0
 40
12.0
  1
　　屋根－屋根
100
AcDbText
  0
TEXT
  5
168
330
128
100
AcDbEntity
  8
_2-0_
  6
Continuous
 62
     0
100
AcDbText
 10
133.412991829
 20
783.7180716547999
 30
0.0
 40
12.0
  1
　　Ｓ＝１／３
100
AcDbText
  0
TEXT
  5
169
330
128
100
AcDbEntity
  8
_2-0_
  6
Continuous
 62
     0
100
AcDbText
 10
492.7089656255
 20
312.3778453541
 30
0.0
 40
7.5
  1
規　格
100
AcDbText
  0
TEXT
  5
16A
330
128
100
AcDbEntity
  8
_2-0_
  6
Continuous
 62
     0
100
AcDbText
 10
340.5839656255
 20
312.3778453541
 30
0.0
 40
7.5
  1
部材名称
 41
0.9986666666666998
100
AcDbText
  0
TEXT
  5
16B
330
128
100
AcDbEntity
  8
_2-0_
  6
Continuous
 62
     0
100
AcDbText
 10
290.8339656255
 20
78.37784535411
 30
0.0
 40
7.5
  1
ステンワッシャー
100
AcDbText
  0
TEXT
  5
16C
330
128
100
AcDbEntity
  8
_2-0_
  6
Continuous
 62
     0
100
AcDbText
 10
290.2089656255
 20
96.37784535411
 30
0.0
 40
7.5
  1
アジャストアンカー
100
AcDbText
  0
TEXT
  5
16D
330
128
100
AcDbEntity
  8
_2-0_
  6
Continuous
 62
     0
100
AcDbText
 10
290.8339656255
 20
114.3778453541
 30
0.0
 40
7.49
  1
ステン六角ボルト
 41
1.001335113484999
100
AcDbText
  0
TEXT
  5
16E
330
128
100
AcDbEntity
  8
_2-0_
  6
Continuous
 62
     0
100
AcDbText
 10
292.7089656255
 20
150.3778453541
 30
0.0
 40
7.5
  1
止水補助板
100
AcDbText
  0
TEXT
  5
16F
330
128
100
AcDbEntity
  8
_2-0_
  6
Continuous
 62
     0
100
AcDbText
 10
289.5839656255
 20
186.3778453541
 30
0.0
 40
7.5
  1
ＦＹＹ水切ジョイント
 41
0.9986666666666998
100
AcDbText
  0
TEXT
  5
170
330
128
100
AcDbEntity
  8
_2-0_
  6
Continuous
 62
     0
100
AcDbText
 10
289.5839656255
 20
204.3778453541
 30
0.0
 40
7.5
  1
ＦＹＹフレームナット
 41
0.9986666666666998
100
AcDbText
  0
TEXT
  5
171
330
128
100
AcDbEntity
  8
_2-0_
  6
Continuous
 62
     0
100
AcDbText
 10
291.4589656255
 20
240.3778453541
 30
0.0
 40
7.5
  1
ＦＹＹホルダー
 41
0.9986666666666998
100
AcDbText
  0
TEXT
  5
172
330
128
100
AcDbEntity
  8
_2-0_
  6
Continuous
 62
     0
100
AcDbText
 10
291.4589656255
 20
276.3778453541
 30
0.0
 40
7.49
  1
ＦＹＹフレーム
100
AcDbText
  0
TEXT
  5
173
330
128
100
AcDbEntity
  8
_2-0_
  6
Continuous
 62
     0
100
AcDbText
 10
290.8339656255
 20
294.3778453541
 30
0.0
 40
7.5
  1
ＦＹＹキヤップＡ
100
AcDbText
  0
TEXT
  5
174
330
128
100
AcDbEntity
  8
_2-0_
  6
Continuous
 62
     0
100
AcDbText
 10
288.3339656255
 20
222.3778453541
 30
0.0
 40
7.5
  1
ＦＹＹホルダースプリング
100
AcDbText
  0
LINE
  5
175
330
128
100
AcDbEntity
  8
_2-0_
  6
Continuous
 62
     0
100
AcDbLine
 10
682.8339656255
 20
254.5028453541
 30
0.0
 11
582.3339656255
 21
254.5028453541
 31
0.0
  0
LINE
  5
176
330
128
100
AcDbEntity
  8
_2-0_
  6
Continuous
 62
     0
100
AcDbLine
 10
682.8339656255
 20
272.5028453541
 30
0.0
 11
582.3339656255
 21
272.5028453541
 31
0.0
  0
LINE
  5
177
330
128
100
AcDbEntity
  8
_2-0_
  6
Continuous
 62
     0
100
AcDbLine
 10
682.8339656255
 20
290.5028453541
 30
0.0
 11
582.3339656255
 21
290.5028453541
 31
0.0
  0
LINE
  5
178
330
128
100
AcDbEntity
  8
_2-0_
  6
Continuous
 62
     0
100
AcDbLine
 10
682.8339656255
 20
308.5028453541
 30
0.0
 11
582.3339656255
 21
308.5028453541
 31
0.0
  0
LINE
  5
179
330
128
100
AcDbEntity
  8
_2-0_
  6
Continuous
 62
     0
100
AcDbLine
 10
682.8339656255
 20
128.5028453541
 30
0.0
 11
582.3339656255
 21
128.5028453541
 31
0.0
  0
LINE
  5
17A
330
128
100
AcDbEntity
  8
_2-0_
  6
Continuous
 62
     0
100
AcDbLine
 10
682.8339656255
 20
146.5028453541
 30
0.0
 11
582.3339656255
 21
146.5028453541
 31
0.0
  0
LINE
  5
17B
330
128
100
AcDbEntity
  8
_2-0_
  6
Continuous
 62
     0
100
AcDbLine
 10
682.8339656255
 20
182.5028453541
 30
0.0
 11
582.3339656255
 21
182.5028453541
 31
0.0
  0
LINE
  5
17C
330
128
100
AcDbEntity
  8
_2-0_
  6
Continuous
 62
     0
100
AcDbLine
 10
682.8339656255
 20
200.5028453541
 30
0.0
 11
582.3339656255
 21
200.5028453541
 31
0.0
  0
LINE
  5
17D
330
128
100
AcDbEntity
  8
_2-0_
  6
Continuous
 62
     0
100
AcDbLine
 10
682.8339656255
 20
218.5028453541
 30
0.0
 11
582.3339656255
 21
218.5028453541
 31
0.0
  0
LINE
  5
17E
330
128
100
AcDbEntity
  8
_2-0_
  6
Continuous
 62
     0
100
AcDbLine
 10
682.8339656255
 20
236.5028453541
 30
0.0
 11
582.3339656255
 21
236.5028453541
 31
0.0
  0
LINE
  5
17F
330
128
100
AcDbEntity
  8
_2-0_
  6
Continuous
 62
     0
100
AcDbLine
 10
682.8339656255
 20
164.5028453541
 30
0.0
 11
582.3339656255
 21
164.5028453541
 31
0.0
  0
LINE
  5
180
330
128
100
AcDbEntity
  8
_2-0_
  6
Continuous
 62
     0
100
AcDbLine
 10
682.8339656255
 20
74.50284535410999
 30
0.0
 11
582.3339656255
 21
74.50284535410999
 31
0.0
  0
LINE
  5
181
330
128
100
AcDbEntity
  8
_2-0_
  6
Continuous
 62
     0
100
AcDbLine
 10
682.8339656255
 20
92.50284535410999
 30
0.0
 11
582.3339656255
 21
92.50284535410999
 31
0.0
  0
LINE
  5
182
330
128
100
AcDbEntity
  8
_2-0_
  6
Continuous
 62
     0
100
AcDbLine
 10
682.8339656255
 20
110.5028453541
 30
0.0
 11
582.3339656255
 21
110.5028453541
 31
0.0
  0
LINE
  5
183
330
128
100
AcDbEntity
  8
_2-0_
  6
Continuous
 62
     0
100
AcDbLine
 10
682.8339656255
 20
326.5028453541
 30
0.0
 11
582.3339656255
 21
326.5028453541
 31
0.0
  0
LINE
  5
184
330
128
100
AcDbEntity
  8
_2-0_
  6
Continuous
 62
     0
100
AcDbLine
 10
684.3339656254999
 20
74.50284535410999
 30
0.0
 11
784.8339656255
 21
74.50284535410999
 31
0.0
  0
LINE
  5
185
330
128
100
AcDbEntity
  8
_2-0_
  6
Continuous
 62
     0
100
AcDbLine
 10
684.3339656254999
 20
92.50284535410999
 30
0.0
 11
784.8339656255
 21
92.50284535410999
 31
0.0
  0
LINE
  5
186
330
128
100
AcDbEntity
  8
_2-0_
  6
Continuous
 62
     0
100
AcDbLine
 10
684.3339656254999
 20
128.5028453541
 30
0.0
 11
784.8339656255
 21
128.5028453541
 31
0.0
  0
LINE
  5
187
330
128
100
AcDbEntity
  8
_2-0_
  6
Continuous
 62
     0
100
AcDbLine
 10
684.3339656254999
 20
146.5028453541
 30
0.0
 11
784.8339656255
 21
146.5028453541
 31
0.0
  0
LINE
  5
188
330
128
100
AcDbEntity
  8
_2-0_
  6
Continuous
 62
     0
100
AcDbLine
 10
684.3339656254999
 20
200.5028453541
 30
0.0
 11
784.8339656255
 21
200.5028453541
 31
0.0
  0
LINE
  5
189
330
128
100
AcDbEntity
  8
_2-0_
  6
Continuous
 62
     0
100
AcDbLine
 10
684.3339656254999
 20
218.5028453541
 30
0.0
 11
784.8339656255
 21
218.5028453541
 31
0.0
  0
LINE
  5
18A
330
128
100
AcDbEntity
  8
_2-0_
  6
Continuous
 62
     0
100
AcDbLine
 10
684.3339656254999
 20
164.5028453541
 30
0.0
 11
784.8339656255
 21
164.5028453541
 31
0.0
  0
LINE
  5
18B
330
128
100
AcDbEntity
  8
_2-0_
  6
Continuous
 62
     0
100
AcDbLine
 10
684.3339656254999
 20
110.5028453541
 30
0.0
 11
784.8339656255
 21
110.5028453541
 31
0.0
  0
LINE
  5
18C
330
128
100
AcDbEntity
  8
_2-0_
  6
Continuous
 62
     0
100
AcDbLine
 10
684.3339656254999
 20
236.5028453541
 30
0.0
 11
784.8339656255
 21
236.5028453541
 31
0.0
  0
LINE
  5
18D
330
128
100
AcDbEntity
  8
_2-0_
  6
Continuous
 62
     0
100
AcDbLine
 10
684.3339656254999
 20
254.5028453541
 30
0.0
 11
784.8339656255
 21
254.5028453541
 31
0.0
  0
LINE
  5
18E
330
128
100
AcDbEntity
  8
_2-0_
  6
Continuous
 62
     0
100
AcDbLine
 10
684.3339656254999
 20
272.5028453541
 30
0.0
 11
784.8339656255
 21
272.5028453541
 31
0.0
  0
LINE
  5
18F
330
128
100
AcDbEntity
  8
_2-0_
  6
Continuous
 62
     0
100
AcDbLine
 10
684.3339656254999
 20
290.5028453541
 30
0.0
 11
784.8339656255
 21
290.5028453541
 31
0.0
  0
LINE
  5
190
330
128
100
AcDbEntity
  8
_2-0_
  6
Continuous
 62
     0
100
AcDbLine
 10
684.3339656254999
 20
308.5028453541
 30
0.0
 11
784.8339656255
 21
308.5028453541
 31
0.0
  0
LINE
  5
191
330
128
100
AcDbEntity
  8
_2-0_
  6
Continuous
 62
     0
100
AcDbLine
 10
684.3339656254999
 20
182.5028453541
 30
0.0
 11
784.8339656255
 21
182.5028453541
 31
0.0
  0
LINE
  5
192
330
128
100
AcDbEntity
  8
_2-0_
  6
Continuous
 62
     0
100
AcDbLine
 10
684.3339656254999
 20
326.5028453541
 30
0.0
 11
784.8339656255
 21
326.5028453541
 31
0.0
  0
TEXT
  5
193
330
128
100
AcDbEntity
  8
_2-0_
  6
Continuous
 62
     0
100
AcDbText
 10
667.2089656255
 20
78.37784535411
 30
0.0
 40
7.5
  1
枚
 41
0.9986666666666998
100
AcDbText
  0
TEXT
  5
194
330
128
100
AcDbEntity
  8
_2-0_
  6
Continuous
 62
     0
100
AcDbText
 10
667.2089656255
 20
96.37784535411
 30
0.0
 40
7.5
  1
〃
 41
0.9986666666666998
100
AcDbText
  0
TEXT
  5
195
330
128
100
AcDbEntity
  8
_2-0_
  6
Continuous
 62
     0
100
AcDbText
 10
667.2089656255
 20
114.3778453541
 30
0.0
 40
7.49
  1
〃
100
AcDbText
  0
TEXT
  5
196
330
128
100
AcDbEntity
  8
_2-0_
  6
Continuous
 62
     0
100
AcDbText
 10
667.2089656255
 20
132.3778453541
 30
0.0
 40
7.49
  1
本
100
AcDbText
  0
TEXT
  5
197
330
128
100
AcDbEntity
  8
_2-0_
  6
Continuous
 62
     0
100
AcDbText
 10
667.2089656255
 20
150.3778453541
 30
0.0
 40
7.5
  1
〃
 41
0.9986666666666998
100
AcDbText
  0
TEXT
  5
198
330
128
100
AcDbEntity
  8
_2-0_
  6
Continuous
 62
     0
100
AcDbText
 10
667.2089656255
 20
168.3778453541
 30
0.0
 40
7.5
  1
枚
 41
0.9986666666666998
100
AcDbText
  0
TEXT
  5
199
330
128
100
AcDbEntity
  8
_2-0_
  6
Continuous
 62
     0
100
AcDbText
 10
667.2089656255
 20
186.3778453541
 30
0.0
 40
7.5
  1
〃
 41
0.9986666666666998
100
AcDbText
  0
TEXT
  5
19A
330
128
100
AcDbEntity
  8
_2-0_
  6
Continuous
 62
     0
100
AcDbText
 10
667.2089656255
 20
204.3778453541
 30
0.0
 40
7.5
  1
〃
 41
0.9986666666666998
100
AcDbText
  0
TEXT
  5
19B
330
128
100
AcDbEntity
  8
_2-0_
  6
Continuous
 62
     0
100
AcDbText
 10
667.2089656255
 20
222.3778453541
 30
0.0
 40
7.5
  1
〃
 41
0.9986666666666998
100
AcDbText
  0
TEXT
  5
19C
330
128
100
AcDbEntity
  8
_2-0_
  6
Continuous
 62
     0
100
AcDbText
 10
667.2089656255
 20
240.3778453541
 30
0.0
 40
7.5
  1
個
 41
0.9986666666666998
100
AcDbText
  0
TEXT
  5
19D
330
128
100
AcDbEntity
  8
_2-0_
  6
Continuous
 62
     0
100
AcDbText
 10
667.2089656255
 20
276.3778453541
 30
0.0
 40
7.49
  1
〃
100
AcDbText
  0
TEXT
  5
19E
330
128
100
AcDbEntity
  8
_2-0_
  6
Continuous
 62
     0
100
AcDbText
 10
667.2089656255
 20
294.3778453541
 30
0.0
 40
7.5
  1
本
 41
0.9986666666666998
100
AcDbText
  0
TEXT
  5
19F
330
128
100
AcDbEntity
  8
_2-0_
  6
Continuous
 62
     0
100
AcDbText
 10
769.2089656255
 20
78.37784535411
 30
0.0
 40
7.5
  1
枚
100
AcDbText
  0
TEXT
  5
1A0
330
128
100
AcDbEntity
  8
_2-0_
  6
Continuous
 62
     0
100
AcDbText
 10
769.2089656255
 20
96.37784535411
 30
0.0
 40
7.5
  1
〃
100
AcDbText
  0
TEXT
  5
1A1
330
128
100
AcDbEntity
  8
_2-0_
  6
Continuous
 62
     0
100
AcDbText
 10
769.2089656255
 20
114.3778453541
 30
0.0
 40
7.49
  1
〃
 41
1.001335113484999
100
AcDbText
  0
TEXT
  5
1A2
330
128
100
AcDbEntity
  8
_2-0_
  6
Continuous
 62
     0
100
AcDbText
 10
769.2089656255
 20
132.3778453541
 30
0.0
 40
7.49
  1
本
 41
1.001335113484999
100
AcDbText
  0
TEXT
  5
1A3
330
128
100
AcDbEntity
  8
_2-0_
  6
Continuous
 62
     0
100
AcDbText
 10
769.2089656255
 20
150.3778453541
 30
0.0
 40
7.5
  1
〃
100
AcDbText
  0
TEXT
  5
1A4
330
128
100
AcDbEntity
  8
_2-0_
  6
Continuous
 62
     0
100
AcDbText
 10
769.2089656255
 20
168.3778453541
 30
0.0
 40
7.5
  1
枚
100
AcDbText
  0
TEXT
  5
1A5
330
128
100
AcDbEntity
  8
_2-0_
  6
Continuous
 62
     0
100
AcDbText
 10
769.2089656255
 20
186.3778453541
 30
0.0
 40
7.5
  1
〃
100
AcDbText
  0
TEXT
  5
1A6
330
128
100
AcDbEntity
  8
_2-0_
  6
Continuous
 62
     0
100
AcDbText
 10
769.2089656255
 20
204.3778453541
 30
0.0
 40
7.5
  1
〃
100
AcDbText
  0
TEXT
  5
1A7
330
128
100
AcDbEntity
  8
_2-0_
  6
Continuous
 62
     0
100
AcDbText
 10
769.2089656255
 20
222.3778453541
 30
0.0
 40
7.5
  1
〃
100
AcDbText
  0
TEXT
  5
1A8
330
128
100
AcDbEntity
  8
_2-0_
  6
Continuous
 62
     0
100
AcDbText
 10
769.2089656255
 20
240.3778453541
 30
0.0
 40
7.5
  1
個
100
AcDbText
  0
TEXT
  5
1A9
330
128
100
AcDbEntity
  8
_2-0_
  6
Continuous
 62
     0
100
AcDbText
 10
769.2089656255
 20
276.3778453541
 30
0.0
 40
7.49
  1
〃
 41
1.001335113484999
100
AcDbText
  0
TEXT
  5
1AA
330
128
100
AcDbEntity
  8
_2-0_
  6
Continuous
 62
     0
100
AcDbText
 10
769.2089656255
 20
294.3778453541
 30
0.0
 40
7.5
  1
本
100
AcDbText
  0
TEXT
  5
1AB
330
128
100
AcDbEntity
  8
_2-0_
  6
Continuous
 62
     0
100
AcDbText
 10
763.3339656254999
 20
312.3778453541
 30
0.0
 40
7.5
  1
単位
 41
0.9986666666666998
100
AcDbText
  0
TEXT
  5
1AC
330
128
100
AcDbEntity
  8
_2-0_
  6
Continuous
 62
     0
100
AcDbText
 10
661.3339656255
 20
312.3778453541
 30
0.0
 40
7.5
  1
単位
 41
0.9986666666666998
100
AcDbText
  0
TEXT
  5
1AD
330
128
100
AcDbEntity
  8
_2-0_
  6
Continuous
 62
     0
100
AcDbText
 10
687.4589656254999
 20
312.3778453541
 30
0.0
 40
7.5
  1
定尺(mm)
 41
0.9986666666666998
100
AcDbText
  0
TEXT
  5
1AE
330
128
100
AcDbEntity
  8
_2-0_
  6
Continuous
 62
     0
100
AcDbText
 10
637.3339656255
 20
312.3778453541
 30
0.0
 40
7.5
  1
入数
100
AcDbText
  0
TEXT
  5
1AF
330
128
100
AcDbEntity
  8
_2-0_
  6
Continuous
 62
     0
100
AcDbText
 10
739.3339656255
 20
312.3778453541
 30
0.0
 40
7.5
  1
入数
100
AcDbText
  0
LINE
  5
1B0
330
128
100
AcDbEntity
  8
_2-0_
  6
Continuous
 62
     0
100
AcDbLine
 10
580.8339656254999
 20
254.5028453541
 30
0.0
 11
267.3339656255
 21
254.5028453541
 31
0.0
  0
LINE
  5
1B1
330
128
100
AcDbEntity
  8
_2-0_
  6
Continuous
 62
     0
100
AcDbLine
 10
580.8339656254999
 20
272.5028453541
 30
0.0
 11
267.3339656255
 21
272.5028453541
 31
0.0
  0
LINE
  5
1B2
330
128
100
AcDbEntity
  8
_2-0_
  6
Continuous
 62
     0
100
AcDbLine
 10
580.8339656254999
 20
290.5028453541
 30
0.0
 11
267.3339656255
 21
290.5028453541
 31
0.0
  0
LINE
  5
1B3
330
128
100
AcDbEntity
  8
_2-0_
  6
Continuous
 62
     0
100
AcDbLine
 10
580.8339656254999
 20
308.5028453541
 30
0.0
 11
267.3339656255
 21
308.5028453541
 31
0.0
  0
LINE
  5
1B4
330
128
100
AcDbEntity
  8
_2-0_
  6
Continuous
 62
     0
100
AcDbLine
 10
580.8339656254999
 20
128.5028453541
 30
0.0
 11
267.3339656255
 21
128.5028453541
 31
0.0
  0
LINE
  5
1B5
330
128
100
AcDbEntity
  8
_2-0_
  6
Continuous
 62
     0
100
AcDbLine
 10
580.8339656254999
 20
146.5028453541
 30
0.0
 11
267.3339656255
 21
146.5028453541
 31
0.0
  0
LINE
  5
1B6
330
128
100
AcDbEntity
  8
_2-0_
  6
Continuous
 62
     0
100
AcDbLine
 10
580.8339656254999
 20
182.5028453541
 30
0.0
 11
267.3339656255
 21
182.5028453541
 31
0.0
  0
LINE
  5
1B7
330
128
100
AcDbEntity
  8
_2-0_
  6
Continuous
 62
     0
100
AcDbLine
 10
580.8339656254999
 20
200.5028453541
 30
0.0
 11
267.3339656255
 21
200.5028453541
 31
0.0
  0
LINE
  5
1B8
330
128
100
AcDbEntity
  8
_2-0_
  6
Continuous
 62
     0
100
AcDbLine
 10
580.8339656254999
 20
218.5028453541
 30
0.0
 11
267.3339656255
 21
218.5028453541
 31
0.0
  0
LINE
  5
1B9
330
128
100
AcDbEntity
  8
_2-0_
  6
Continuous
 62
     0
100
AcDbLine
 10
580.8339656254999
 20
236.5028453541
 30
0.0
 11
267.3339656255
 21
236.5028453541
 31
0.0
  0
LINE
  5
1BA
330
128
100
AcDbEntity
  8
_2-0_
  6
Continuous
 62
     0
100
AcDbLine
 10
580.8339656254999
 20
164.5028453541
 30
0.0
 11
267.3339656255
 21
164.5028453541
 31
0.0
  0
LINE
  5
1BB
330
128
100
AcDbEntity
  8
_2-0_
  6
Continuous
 62
     0
100
AcDbLine
 10
580.8339656254999
 20
74.50284535410999
 30
0.0
 11
267.3339656255
 21
74.50284535410999
 31
0.0
  0
LINE
  5
1BC
330
128
100
AcDbEntity
  8
_2-0_
  6
Continuous
 62
     0
100
AcDbLine
 10
580.8339656254999
 20
92.50284535410999
 30
0.0
 11
267.3339656255
 21
92.50284535410999
 31
0.0
  0
LINE
  5
1BD
330
128
100
AcDbEntity
  8
_2-0_
  6
Continuous
 62
     0
100
AcDbLine
 10
580.8339656254999
 20
110.5028453541
 30
0.0
 11
267.3339656255
 21
110.5028453541
 31
0.0
  0
LINE
  5
1BE
330
128
100
AcDbEntity
  8
_2-0_
  6
Continuous
 62
     0
100
AcDbLine
 10
580.8339656254999
 20
326.5028453541
 30
0.0
 11
267.3339656255
 21
326.5028453541
 31
0.0
  0
TEXT
  5
1BF
330
128
100
AcDbEntity
  8
_2-0_
  6
Continuous
 62
     0
100
AcDbText
 10
272.3339656255
 20
78.37784535411
 30
0.0
 40
7.5
  1
13
 41
0.9986666666666998
100
AcDbText
  0
TEXT
  5
1C0
330
128
100
AcDbEntity
  8
_2-0_
  6
Continuous
 62
     0
100
AcDbText
 10
272.3339656255
 20
96.37784535411
 30
0.0
 40
7.5
  1
12
 41
0.9986666666666998
100
AcDbText
  0
TEXT
  5
1C1
330
128
100
AcDbEntity
  8
_2-0_
  6
Continuous
 62
     0
100
AcDbText
 10
272.3339656255
 20
114.3778453541
 30
0.0
 40
7.49
  1
11
100
AcDbText
  0
TEXT
  5
1C2
330
128
100
AcDbEntity
  8
_2-0_
  6
Continuous
 62
     0
100
AcDbText
 10
272.3339656255
 20
132.3778453541
 30
0.0
 40
7.49
  1
10
100
AcDbText
  0
TEXT
  5
1C3
330
128
100
AcDbEntity
  8
_2-0_
  6
Continuous
 62
     0
100
AcDbText
 10
272.3339656255
 20
150.3778453541
 30
0.0
 40
7.5
  1
 9
 41
0.9986666666666998
100
AcDbText
  0
TEXT
  5
1C4
330
128
100
AcDbEntity
  8
_2-0_
  6
Continuous
 62
     0
100
AcDbText
 10
272.3339656255
 20
168.3778453541
 30
0.0
 40
7.5
  1
 8
 41
0.9986666666666998
100
AcDbText
  0
TEXT
  5
1C5
330
128
100
AcDbEntity
  8
_2-0_
  6
Continuous
 62
     0
100
AcDbText
 10
272.3339656255
 20
186.3778453541
 30
0.0
 40
7.5
  1
 7
 41
0.9986666666666998
100
AcDbText
  0
TEXT
  5
1C6
330
128
100
AcDbEntity
  8
_2-0_
  6
Continuous
 62
     0
100
AcDbText
 10
272.3339656255
 20
204.3778453541
 30
0.0
 40
7.5
  1
 6
 41
0.9986666666666998
100
AcDbText
  0
TEXT
  5
1C7
330
128
100
AcDbEntity
  8
_2-0_
  6
Continuous
 62
     0
100
AcDbText
 10
272.3339656255
 20
222.3778453541
 30
0.0
 40
7.5
  1
 5
 41
0.9986666666666998
100
AcDbText
  0
TEXT
  5
1C8
330
128
100
AcDbEntity
  8
_2-0_
  6
Continuous
 62
     0
100
AcDbText
 10
272.3339656255
 20
240.3778453541
 30
0.0
 40
7.5
  1
 4
 41
0.9986666666666998
100
AcDbText
  0
TEXT
  5
1C9
330
128
100
AcDbEntity
  8
_2-0_
  6
Continuous
 62
     0
100
AcDbText
 10
272.3339656255
 20
258.3778453541
 30
0.0
 40
7.49
  1
 3
100
AcDbText
  0
TEXT
  5
1CA
330
128
100
AcDbEntity
  8
_2-0_
  6
Continuous
 62
     0
100
AcDbText
 10
272.3339656255
 20
276.3778453541
 30
0.0
 40
7.49
  1
 2
100
AcDbText
  0
TEXT
  5
1CB
330
128
100
AcDbEntity
  8
_2-0_
  6
Continuous
 62
     0
100
AcDbText
 10
269.3964656255
 20
312.3778453541
 30
0.0
 40
7.5
  1
No.
100
AcDbText
  0
TEXT
  5
1CC
330
128
100
AcDbEntity
  8
_2-0_
  6
Continuous
 62
     0
100
AcDbText
 10
272.3339656255
 20
294.3778453541
 30
0.0
 40
7.5
  1
 1
 41
0.9986666666666998
100
AcDbText
  0
TEXT
  5
1CD
330
128
100
AcDbEntity
  8
_2-0_
  6
Continuous
 62
     0
100
AcDbText
 10
585.4589656255
 20
312.3778453541
 30
0.0
 40
7.5
  1
定尺(mm)
100
AcDbText
  0
TEXT
  5
1CE
330
128
100
AcDbEntity
  8
_2-0_
  6
Continuous
 62
     0
100
AcDbText
 10
586.3339656255
 20
326.8645263858
 30
0.0
 40
7.5
  1
（3000mmセット）
100
AcDbText
  0
TEXT
  5
1CF
330
128
100
AcDbEntity
  8
_2-0_
  6
Continuous
 62
     0
100
AcDbText
 10
688.3339656254999
 20
326.8645263858
 30
0.0
 40
7.5
  1
（2000mmセット）
 41
0.9986666666666998
100
AcDbText
  0
LINE
  5
1D0
330
128
100
AcDbEntity
  8
_0-1_PRO0
  6
Continuous
 62
     0
100
AcDbLine
 10
621.8142582636
 20
725.8672012496
 30
0.0
 11
633.0562962635999
 21
745.3389802495999
 31
0.0
  0
CIRCLE
  5
1D1
330
128
100
AcDbEntity
  8
_0-1_PRO0
  6
Continuous
 62
     0
100
AcDbCircle
 10
636.0562962636
 20
750.5351332496001
 30
0.0
 40
6.0
  0
CIRCLE
  5
1D2
330
128
100
AcDbEntity
  8
_0-1_PRO0
  6
Continuous
 62
     0
100
AcDbCircle
 10
621.8142582636
 20
725.8672012496
 30
0.0
 40
0.9
  0
LINE
  5
1D3
330
128
100
AcDbEntity
  8
_0-1_PRO0
  6
Continuous
 62
     0
100
AcDbLine
 10
615.1142052635999
 20
724.1561452496
 30
0.0
 11
615.2290122635999
 21
722.4393022496
 31
0.0
  0
LINE
  5
1D4
330
128
100
AcDbEntity
  8
_0-1_PRO0
  6
Continuous
 62
     0
100
AcDbLine
 10
605.1279102636
 20
723.6327862496
 30
0.0
 11
605.2427172635999
 21
721.9159432496001
 31
0.0
  0
LINE
  5
1D5
330
128
100
AcDbEntity
  8
_0-1_PRO0
  6
Continuous
 62
     0
100
AcDbLine
 10
608.5567092636
 20
723.8124832496001
 30
0.0
 11
606.7385622636
 21
721.9943362496
 31
0.0
  0
LINE
  5
1D6
330
128
100
AcDbEntity
  8
_0-1_PRO0
  6
Continuous
 62
     0
100
AcDbLine
 10
610.0491372636
 20
723.8906962496001
 30
0.0
 11
608.2309902636
 21
722.0725522496
 31
0.0
  0
LINE
  5
1D7
330
128
100
AcDbEntity
  8
_0-1_PRO0
  6
Continuous
 62
     0
100
AcDbLine
 10
611.5415652635999
 20
723.9689122496001
 30
0.0
 11
609.7234182636
 21
722.1507652496001
 31
0.0
  0
LINE
  5
1D8
330
128
100
AcDbEntity
  8
_0-1_PRO0
  6
Continuous
 62
     0
100
AcDbLine
 10
613.0339932635999
 20
724.0471282496001
 30
0.0
 11
611.2158462636
 21
722.2289812496001
 31
0.0
  0
LINE
  5
1D9
330
128
100
AcDbEntity
  8
_0-1_PRO0
  6
Continuous
 62
     0
100
AcDbLine
 10
614.5264212636
 20
724.1253412496
 30
0.0
 11
612.7082772636001
 21
722.3071972496001
 31
0.0
  0
LINE
  5
1DA
330
128
100
AcDbEntity
  8
_0-1_PRO0
  6
Continuous
 62
     0
100
AcDbLine
 10
614.2007052635999
 20
722.3854102496001
 30
0.0
 11
615.1679352636
 21
723.3526432496001
 31
0.0
  0
LINE
  5
1DB
330
128
100
AcDbEntity
  8
_0-1_PRO0
  6
Continuous
 62
     0
100
AcDbLine
 10
607.0642782636
 20
723.7342672496001
 30
0.0
 11
605.2461342635999
 21
721.9161232496
 31
0.0
  0
LINE
  5
1DC
330
128
100
AcDbEntity
  8
_0-1_PRO0
  6
Continuous
 62
     0
100
AcDbLine
 10
605.5718502636
 20
723.6560542496
 30
0.0
 11
605.1542772636
 21
723.2384782496001
 31
0.0
  0
LINE
  5
1DD
330
128
100
AcDbEntity
  8
_0-1_PRO0
  6
Continuous
 62
     0
100
AcDbLine
 10
628.5984252636
 20
724.1561452496
 30
0.0
 11
628.4836182635999
 21
722.4393022496
 31
0.0
  0
LINE
  5
1DE
330
128
100
AcDbEntity
  8
_0-1_PRO0
  6
Continuous
 62
     0
100
AcDbLine
 10
638.5847202636
 20
723.6327862496
 30
0.0
 11
638.4699132636
 21
721.9159432496001
 31
0.0
  0
LINE
  5
1DF
330
128
100
AcDbEntity
  8
_0-1_PRO0
  6
Continuous
 62
     0
100
AcDbLine
 10
635.1559212636
 20
723.8124832496001
 30
0.0
 11
636.9740682635999
 21
721.9943362496
 31
0.0
  0
LINE
  5
1E0
330
128
100
AcDbEntity
  8
_0-1_PRO0
  6
Continuous
 62
     0
100
AcDbLine
 10
633.6634932636
 20
723.8906962496001
 30
0.0
 11
635.4816402635999
 21
722.0725522496
 31
0.0
  0
LINE
  5
1E1
330
128
100
AcDbEntity
  8
_0-1_PRO0
  6
Continuous
 62
     0
100
AcDbLine
 10
632.1710652635999
 20
723.9689122496001
 30
0.0
 11
633.9892122636
 21
722.1507652496001
 31
0.0
  0
LINE
  5
1E2
330
128
100
AcDbEntity
  8
_0-1_PRO0
  6
Continuous
 62
     0
100
AcDbLine
 10
630.6786372636
 20
724.0471282496001
 30
0.0
 11
632.4967812636
 21
722.2289812496001
 31
0.0
  0
LINE
  5
1E3
330
128
100
AcDbEntity
  8
_0-1_PRO0
  6
Continuous
 62
     0
100
AcDbLine
 10
629.1862092636001
 20
724.1253412496
 30
0.0
 11
631.0043532636
 21
722.3071972496001
 31
0.0
  0
LINE
  5
1E4
330
128
100
AcDbEntity
  8
_0-1_PRO0
  6
Continuous
 62
     0
100
AcDbLine
 10
629.5119252635999
 20
722.3854102496001
 30
0.0
 11
628.5446952636
 21
723.3526432496001
 31
0.0
  0
LINE
  5
1E5
330
128
100
AcDbEntity
  8
_0-1_PRO0
  6
Continuous
 62
     0
100
AcDbLine
 10
636.6483492636
 20
723.7342672496001
 30
0.0
 11
638.4664962636
 21
721.9161232496
 31
0.0
  0
LINE
  5
1E6
330
128
100
AcDbEntity
  8
_0-1_PRO0
  6
Continuous
 62
     0
100
AcDbLine
 10
638.1407802636
 20
723.6560542496
 30
0.0
 11
638.5583532635999
 21
723.2384782496001
 31
0.0
  0
TEXT
  5
1E7
330
128
100
AcDbEntity
  8
_0-1_PRO0
  6
Continuous
 62
     0
100
AcDbText
 10
619.5680569744999
 20
775.6511527416001
 30
0.0
 40
9.0
  1
Ｗ
100
AcDbText
  0
TEXT
  5
1E8
330
128
100
AcDbEntity
  8
_0-1_PRO0
  6
Continuous
 62
     0
100
AcDbText
 10
589.8829128565
 20
765.4316768977
 30
0.0
 40
9.0
  1
（キャップ幅）
100
AcDbText
  0
TEXT
  5
1E9
330
128
100
AcDbEntity
  8
_0-1_PRO0
  6
Continuous
 62
     0
100
AcDbText
 10
631.2474579389999
 20
746.9392920373
 30
0.0
 40
9.0
  1
１
100
AcDbText
  0
LINE
  5
1EA
330
128
100
AcDbEntity
  8
_2-0_
  6
Continuous
 62
     0
100
AcDbLine
 10
1017.333965626
 20
326.5028453541
 30
0.0
 11
814.8339656255
 21
326.5028453541
 31
0.0
  0
LINE
  5
1EB
330
128
100
AcDbEntity
  8
_2-0_
  6
Continuous
 62
     0
100
AcDbLine
 10
1017.333965626
 20
290.5028453541
 30
0.0
 11
814.8339656255
 21
290.5028453541
 31
0.0
  0
LINE
  5
1EC
330
128
100
AcDbEntity
  8
_2-0_
  6
Continuous
 62
     0
100
AcDbLine
 10
1017.333965626
 20
308.5028453541
 30
0.0
 11
814.8339656255
 21
308.5028453541
 31
0.0
  0
TEXT
  5
1ED
330
128
100
AcDbEntity
  8
_2-0_
  6
Continuous
 62
     0
100
AcDbText
 10
846.2089648755
 20
312.3778453541
 30
0.0
 40
7.5
  1
タ　イ　プ
100
AcDbText
  0
TEXT
  5
1EE
330
128
100
AcDbEntity
  8
_2-0_
  6
Continuous
 62
     0
100
AcDbText
 10
944.7089656255
 20
312.3778453541
 30
0.0
 40
7.5
  1
Ｗ
 41
0.9986666666666998
100
AcDbText
  0
TEXT
  5
1EF
330
128
100
AcDbEntity
  8
_2-0_
  6
Continuous
 62
     0
100
AcDbText
 10
989.7089656254999
 20
312.3778453541
 30
0.0
 40
7.5
  1
Ｃ
 41
0.9986666666666998
100
AcDbText
  0
TEXT
  5
1F0
330
128
100
AcDbEntity
  8
_2-0_
  6
Continuous
 62
     0
100
AcDbText
 10
952.0839656255001
 20
326.8645263858
 30
0.0
 40
7.5
  1
（単位：mm）
100
AcDbText
  0
LINE
  5
1F1
330
128
100
AcDbEntity
  8
_0-1_PRO0
  6
Continuous
 62
     0
100
AcDbLine
 10
621.8563152636
 20
738.7810822496001
 30
0.0
 11
621.8563152636
 21
390.515832846
 31
0.0
  0
CIRCLE
  5
1F2
330
128
100
AcDbEntity
  8
_0-1_PRO0
  6
Continuous
 62
     0
100
AcDbCircle
 10
855.1509462635999
 20
607.5409769351
 30
0.0
 40
6.0
  0
TEXT
  5
1F3
330
128
100
AcDbEntity
  8
_0-1_PRO0
  6
Continuous
 62
     0
100
AcDbText
 10
850.3985852716001
 20
602.3904657985
 30
0.0
 40
9.0
  1
12
100
AcDbText
  0
LINE
  5
1F4
330
128
100
AcDbEntity
  8
_0-1_PRO0
  6
Continuous
 62
     0
100
AcDbLine
 10
921.8563152635999
 20
400.4930126137
 30
0.0
 11
918.8563152636
 21
399.7430126137
 31
0.0
  0
LINE
  5
1F5
330
128
100
AcDbEntity
  8
_0-1_PRO0
  6
Continuous
 62
     0
100
AcDbLine
 10
921.8563152635999
 20
400.4930126137
 30
0.0
 11
918.8563152636
 21
401.2430126137
 31
0.0
  0
LINE
  5
1F6
330
128
100
AcDbEntity
  8
_0-1_PRO0
  6
Continuous
 62
     0
100
AcDbLine
 10
921.8563152635999
 20
400.4930126137
 30
0.0
 11
924.8563152636
 21
401.2430126137
 31
0.0
  0
LINE
  5
1F7
330
128
100
AcDbEntity
  8
_0-1_PRO0
  6
Continuous
 62
     0
100
AcDbLine
 10
921.8563152635999
 20
400.4930126137
 30
0.0
 11
924.8563152636
 21
399.7430126137
 31
0.0
  0
LINE
  5
1F8
330
128
100
AcDbEntity
  8
_0-1_PRO0
  6
Continuous
 62
     0
100
AcDbLine
 10
321.8563152636
 20
400.4930126137
 30
0.0
 11
324.8563152636
 21
399.7430126137
 31
0.0
  0
LINE
  5
1F9
330
128
100
AcDbEntity
  8
_0-1_PRO0
  6
Continuous
 62
     0
100
AcDbLine
 10
321.8563152636
 20
400.4930126137
 30
0.0
 11
324.8563152636
 21
401.2430126137
 31
0.0
  0
LINE
  5
1FA
330
128
100
AcDbEntity
  8
_0-1_PRO0
  6
Continuous
 62
     0
100
AcDbLine
 10
321.8563152636
 20
400.4930126137
 30
0.0
 11
318.8563152636
 21
401.2430126137
 31
0.0
  0
LINE
  5
1FB
330
128
100
AcDbEntity
  8
_0-1_PRO0
  6
Continuous
 62
     0
100
AcDbLine
 10
321.8563152636
 20
400.4930126137
 30
0.0
 11
318.8563152636
 21
399.7430126137
 31
0.0
  0
LINE
  5
1FC
330
128
100
AcDbEntity
  8
_0-1_PRO0
  6
Continuous
 62
     0
100
AcDbLine
 10
871.8563142636
 20
502.1759011212999
 30
0.0
 11
921.8563152635999
 21
502.1759011212999
 31
0.0
  0
LINE
  5
1FD
330
128
100
AcDbEntity
  8
_0-1_PRO0
  6
Continuous
 62
     0
100
AcDbLine
 10
871.8563142636
 20
502.1759011212999
 30
0.0
 11
874.8563142635999
 21
501.4259011213
 31
0.0
  0
LINE
  5
1FE
330
128
100
AcDbEntity
  8
_0-1_PRO0
  6
Continuous
 62
     0
100
AcDbLine
 10
871.8563142636
 20
502.1759011212999
 30
0.0
 11
874.8563142635999
 21
502.9259011213
 31
0.0
  0
LINE
  5
1FF
330
128
100
AcDbEntity
  8
_0-1_PRO0
  6
Continuous
 62
     0
100
AcDbLine
 10
921.8563152635999
 20
502.1759011212999
 30
0.0
 11
918.8563152636
 21
502.9259011213
 31
0.0
  0
LINE
  5
200
330
128
100
AcDbEntity
  8
_0-1_PRO0
  6
Continuous
 62
     0
100
AcDbLine
 10
921.8563152635999
 20
502.1759011212999
 30
0.0
 11
918.8563152636
 21
501.4259011213
 31
0.0
  0
TEXT
  5
201
330
128
100
AcDbEntity
  8
_2-0_
  6
Continuous
 62
     0
100
AcDbText
 10
891.5435939602
 20
502.4520787281
 30
0.0
 40
9.0
  1
50
100
AcDbText
  0
LINE
  5
202
330
128
100
AcDbEntity
  8
_0-1_PRO0
  6
Continuous
 62
     0
100
AcDbLine
 10
921.8563152635999
 20
490.5565141212999
 30
0.0
 11
921.8563152635999
 21
396.4930136137001
 31
0.0
  0
LINE
  5
203
330
128
100
AcDbEntity
  8
_0-1_PRO0
  6
Continuous
 62
     0
100
AcDbLine
 10
371.8563162636
 20
502.1759011212999
 30
0.0
 11
368.8563162636
 21
502.9259011213
 31
0.0
  0
LINE
  5
204
330
128
100
AcDbEntity
  8
_0-1_PRO0
  6
Continuous
 62
     0
100
AcDbLine
 10
371.8563162636
 20
502.1759011212999
 30
0.0
 11
368.8563162636
 21
501.4259011213
 31
0.0
  0
LINE
  5
205
330
128
100
AcDbEntity
  8
_0-1_PRO0
  6
Continuous
 62
     0
100
AcDbLine
 10
321.8563152636
 20
502.1759011212999
 30
0.0
 11
324.8563152636
 21
501.4259011213
 31
0.0
  0
LINE
  5
206
330
128
100
AcDbEntity
  8
_0-1_PRO0
  6
Continuous
 62
     0
100
AcDbLine
 10
321.8563152636
 20
502.1759011212999
 30
0.0
 11
324.8563152636
 21
502.9259011213
 31
0.0
  0
LINE
  5
207
330
128
100
AcDbEntity
  8
_0-1_PRO0
  6
Continuous
 62
     0
100
AcDbLine
 10
321.8563152636
 20
502.1759011212999
 30
0.0
 11
371.8563162636
 21
502.1759011212999
 31
0.0
  0
TEXT
  5
208
330
128
100
AcDbEntity
  8
_0-1_PRO0
  6
Continuous
 62
     0
100
AcDbText
 10
344.1860280408
 20
502.6953995815
 30
0.0
 40
9.0
  1
50
100
AcDbText
  0
LINE
  5
209
330
128
100
AcDbEntity
  8
_0-1_PRO0
  6
Continuous
 62
     0
100
AcDbLine
 10
321.8563152636
 20
490.5565141212999
 30
0.0
 11
321.8563152636
 21
396.4930136137001
 31
0.0
  0
LINE
  5
20A
330
128
100
AcDbEntity
  8
_2-0_
  6
Continuous
 62
     0
100
AcDbLine
 10
682.8339656255
 20
254.5028453541
 30
0.0
 11
582.3339656255
 21
254.5028453541
 31
0.0
  0
LINE
  5
20B
330
128
100
AcDbEntity
  8
_2-0_
  6
Continuous
 62
     0
100
AcDbLine
 10
684.3339656254999
 20
254.5028453541
 30
0.0
 11
784.8339656255
 21
254.5028453541
 31
0.0
  0
TEXT
  5
20C
330
128
100
AcDbEntity
  8
_2-0_
  6
Continuous
 62
     0
100
AcDbText
 10
292.0839656255
 20
258.3778453541
 30
0.0
 40
7.5
  1
ブチルテープ
100
AcDbText
  0
TEXT
  5
20D
330
128
100
AcDbEntity
  8
_2-0_
  6
Continuous
 62
     0
100
AcDbText
 10
667.2089656255
 20
258.3778453541
 30
0.0
 40
7.5
  1
巻
 41
0.9986666666666998
100
AcDbText
  0
TEXT
  5
20E
330
128
100
AcDbEntity
  8
_2-0_
  6
Continuous
 62
     0
100
AcDbText
 10
769.2089656255
 20
258.3778453541
 30
0.0
 40
7.5
  1
巻
100
AcDbText
  0
LINE
  5
20F
330
128
100
AcDbEntity
  8
_2-0_
  6
Continuous
 62
     0
100
AcDbLine
 10
267.3339656255
 20
74.50284535410999
 30
0.0
 11
267.3339656255
 21
326.5028453541
 31
0.0
  0
LINE
  5
210
330
128
100
AcDbEntity
  8
_2-0_
  6
Continuous
 62
     0
100
AcDbLine
 10
288.3339656255
 20
74.50284535410999
 30
0.0
 11
288.3339656255
 21
326.5028453541
 31
0.0
  0
LINE
  5
211
330
128
100
AcDbEntity
  8
_2-0_
  6
Continuous
 62
     0
100
AcDbLine
 10
438.3339656254999
 20
74.50284535410999
 30
0.0
 11
438.3339656254999
 21
326.5028453541
 31
0.0
  0
LINE
  5
212
330
128
100
AcDbEntity
  8
_2-0_
  6
Continuous
 62
     0
100
AcDbLine
 10
582.3339656255
 20
74.50284535410999
 30
0.0
 11
582.3339656255
 21
326.5028453541
 31
0.0
  0
LINE
  5
213
330
128
100
AcDbEntity
  8
_2-0_
  6
Continuous
 62
     0
100
AcDbLine
 10
580.8339656254999
 20
74.50284535410999
 30
0.0
 11
580.8339656254999
 21
326.5028453541
 31
0.0
  0
LINE
  5
214
330
128
100
AcDbEntity
  8
_2-0_
  6
Continuous
 62
     0
100
AcDbLine
 10
634.8339656254999
 20
74.50284535410999
 30
0.0
 11
634.8339656254999
 21
326.5028453541
 31
0.0
  0
LINE
  5
215
330
128
100
AcDbEntity
  8
_2-0_
  6
Continuous
 62
     0
100
AcDbLine
 10
661.8339656255
 20
74.50284535410999
 30
0.0
 11
661.8339656255
 21
326.5028453541
 31
0.0
  0
LINE
  5
216
330
128
100
AcDbEntity
  8
_2-0_
  6
Continuous
 62
     0
100
AcDbLine
 10
684.3339656254999
 20
74.50284535410999
 30
0.0
 11
684.3339656254999
 21
326.5028453541
 31
0.0
  0
LINE
  5
217
330
128
100
AcDbEntity
  8
_2-0_
  6
Continuous
 62
     0
100
AcDbLine
 10
682.8339656255
 20
74.50284535410999
 30
0.0
 11
682.8339656255
 21
326.5028453541
 31
0.0
  0
LINE
  5
218
330
128
100
AcDbEntity
  8
_2-0_
  6
Continuous
 62
     0
100
AcDbLine
 10
736.8339656255
 20
74.50284535410999
 30
0.0
 11
736.8339656255
 21
326.5028453541
 31
0.0
  0
LINE
  5
219
330
128
100
AcDbEntity
  8
_2-0_
  6
Continuous
 62
     0
100
AcDbLine
 10
763.8339656254999
 20
74.50284535410999
 30
0.0
 11
763.8339656254999
 21
326.5028453541
 31
0.0
  0
LINE
  5
21A
330
128
100
AcDbEntity
  8
_2-0_
  6
Continuous
 62
     0
100
AcDbLine
 10
784.8339656255
 20
74.50284535410999
 30
0.0
 11
784.8339656255
 21
326.5028453541
 31
0.0
  0
LINE
  5
21B
330
128
100
AcDbEntity
  8
_0-1_PRO0
  6
Continuous
 62
     0
100
AcDbLine
 10
343.5823332636
 20
714.2257684967999
 30
0.0
 11
403.5823332636
 21
717.3702334967999
 31
0.0
  0
LINE
  5
21C
330
128
100
AcDbEntity
  8
_0-1_PRO0
  6
Continuous
 62
     0
100
AcDbLine
 10
343.5823332636
 20
717.3702334967999
 30
0.0
 11
403.5823332636
 21
717.3702334967999
 31
0.0
  0
TEXT
  5
21D
330
128
100
AcDbEntity
  8
_0-1_PRO0
  6
Continuous
 62
     0
100
AcDbText
 10
343.699386334
 20
718.5531607741
 30
0.0
 40
9.0
  1
（勾配３度）
100
AcDbText
  0
LINE
  5
21E
330
128
100
AcDbEntity
  8
_0-3_
  6
Continuous
 62
     0
100
AcDbLine
 10
343.5823332636
 20
717.3702334967999
 30
0.0
 11
343.5823332636
 21
714.2257684967999
 31
0.0
  0
TEXT
  5
2B2
330
128
100
AcDbEntity
  8
_2-0_
  6
Continuous
 62
     0
100
AcDbText
 10
290.605361227
 20
168.7126096692
 30
0.0
 40
7.5
  1
ウォーターガード
 41
0.9986666666666998
100
AcDbText
  0
TEXT
  5
2B3
330
128
100
AcDbEntity
  8
_2-0_
  6
Continuous
 62
     0
100
AcDbText
 10
986.3964656254999
 20
294.3778453541
 30
0.0
 40
7.5
  1
125
 41
0.9986666666666998
100
AcDbText
  0
TEXT
  5
2B8
330
128
100
AcDbEntity
  8
_0-0_
  6
Continuous
 62
     0
100
AcDbText
 10
441.6546060355
 20
169.1723686452
 30
0.0
 40
7.5
  1
ＳＰＶＣ
100
AcDbText
  0
TEXT
  5
2B9
330
128
100
AcDbEntity
  8
_2-0_
  6
Continuous
 62
     0
100
AcDbText
 10
292.0839656255
 20
132.3778453541
 30
0.0
 40
7.49
  1
ステン小ねじ
 41
1.001335113484999
100
AcDbText
  0
LINE
  5
2BC
330
128
100
AcDbEntity
  8
_0-1_PRO0
  6
Continuous
 62
     0
100
AcDbLine
 10
796.8563142636
 20
400.4930126137
 30
0.0
 11
793.8563142636
 21
399.7430126137
 31
0.0
  0
LINE
  5
2BD
330
128
100
AcDbEntity
  8
_0-1_PRO0
  6
Continuous
 62
     0
100
AcDbLine
 10
796.8563142636
 20
400.4930126137
 30
0.0
 11
793.8563142636
 21
401.2430126137
 31
0.0
  0
LINE
  5
2BE
330
128
100
AcDbEntity
  8
_0-1_PRO0
  6
Continuous
 62
     0
100
AcDbLine
 10
796.8563142636
 20
400.4930126137
 30
0.0
 11
799.8563142635999
 21
401.2430126137
 31
0.0
  0
LINE
  5
2BF
330
128
100
AcDbEntity
  8
_0-1_PRO0
  6
Continuous
 62
     0
100
AcDbLine
 10
796.8563142636
 20
400.4930126137
 30
0.0
 11
799.8563142635999
 21
399.7430126137
 31
0.0
  0
LINE
  5
2C0
330
128
100
AcDbEntity
  8
_0-1_PRO0
  6
Continuous
 62
     0
100
AcDbLine
 10
796.8563142636
 20
400.4930126137
 30
0.0
 11
921.8563152635999
 21
400.4930126137
 31
0.0
  0
LINE
  5
2C1
330
128
100
AcDbEntity
  8
_0-1_PRO0
  6
Continuous
 62
     0
100
AcDbLine
 10
796.8563142636
 20
490.5565141212999
 30
0.0
 11
796.8563142636
 21
396.4930136137001
 31
0.0
  0
LINE
  5
2C2
330
128
100
AcDbEntity
  8
_0-1_PRO0
  6
Continuous
 62
     0
100
AcDbLine
 10
446.8563162636
 20
400.4930126137
 30
0.0
 11
449.8563162635999
 21
399.7430126137
 31
0.0
  0
LINE
  5
2C3
330
128
100
AcDbEntity
  8
_0-1_PRO0
  6
Continuous
 62
     0
100
AcDbLine
 10
446.8563162636
 20
400.4930126137
 30
0.0
 11
449.8563162635999
 21
401.2430126137
 31
0.0
  0
LINE
  5
2C4
330
128
100
AcDbEntity
  8
_0-1_PRO0
  6
Continuous
 62
     0
100
AcDbLine
 10
446.8563162636
 20
400.4930126137
 30
0.0
 11
443.8563162636
 21
401.2430126137
 31
0.0
  0
LINE
  5
2C5
330
128
100
AcDbEntity
  8
_0-1_PRO0
  6
Continuous
 62
     0
100
AcDbLine
 10
446.8563162636
 20
400.4930126137
 30
0.0
 11
443.8563162636
 21
399.7430126137
 31
0.0
  0
LINE
  5
2C6
330
128
100
AcDbEntity
  8
_0-1_PRO0
  6
Continuous
 62
     0
100
AcDbLine
 10
321.8563152636
 20
400.4930126137
 30
0.0
 11
446.8563162636
 21
400.4930126137
 31
0.0
  0
LINE
  5
2C7
330
128
100
AcDbEntity
  8
_0-1_PRO0
  6
Continuous
 62
     0
100
AcDbLine
 10
446.8563162636
 20
490.5565141212999
 30
0.0
 11
446.8563162636
 21
396.4930136137001
 31
0.0
  0
LINE
  5
2C8
330
128
100
AcDbEntity
  8
_0-1_PRO0
  6
Continuous
 62
     0
100
AcDbLine
 10
446.8563162636
 20
400.4930126137
 30
0.0
 11
796.8563142636
 21
400.4930126137
 31
0.0
  0
TEXT
  5
2C9
330
128
100
AcDbEntity
  8
_0-1_PRO0
  6
Continuous
 62
     0
100
AcDbText
 10
615.8590587454
 20
401.3669495328
 30
0.0
 40
9.0
  1
350
100
AcDbText
  0
CIRCLE
  5
2CA
330
128
100
AcDbEntity
  8
_0-1_PRO0
  6
Continuous
 62
     0
100
AcDbCircle
 10
621.8563152636
 20
437.1088464212
 30
0.0
 40
0.9
  0
CIRCLE
  5
2CB
330
128
100
AcDbEntity
  8
_0-1_PRO0
  6
Continuous
 62
     0
100
AcDbCircle
 10
648.4868661155999
 20
485.3180924271
 30
0.0
 40
6.0
  0
LINE
  5
2CC
330
128
100
AcDbEntity
  8
_0-1_PRO0
  6
Continuous
 62
     0
100
AcDbLine
 10
621.8563152636
 20
437.1088464212
 30
0.0
 11
646.4347461155999
 21
479.6799374271
 31
0.0
  0
TEXT
  5
2CD
330
128
100
AcDbEntity
  8
_0-1_PRO0
  6
Continuous
 62
     0
100
AcDbText
 10
644.8059986704
 20
481.3208472287
 30
0.0
 40
9.0
  1
９
100
AcDbText
  0
LINE
  5
2CE
330
128
100
AcDbEntity
  8
_0-1_PRO0
  6
Continuous
 62
     0
100
AcDbLine
 10
1092.385731264
 20
693.6210476874999
 30
0.0
 11
621.8563152636
 21
718.2804502496001
 31
0.0
  0
LINE
  5
2CF
330
128
100
AcDbEntity
  8
_0-1_PRO0
  6
Continuous
 62
     0
100
AcDbLine
 10
1072.694733264
 20
686.3329946874999
 30
0.0
 11
1088.472108264
 21
713.6602076875
 31
0.0
  0
CIRCLE
  5
2D0
330
128
100
AcDbEntity
  8
_0-1_PRO0
  6
Continuous
 62
     0
100
AcDbCircle
 10
1091.472108263999
 20
718.8563576875
 30
0.0
 40
6.0
  0
CIRCLE
  5
2D1
330
128
100
AcDbEntity
  8
_0-1_PRO0
  6
Continuous
 62
     0
100
AcDbCircle
 10
1072.694733264
 20
686.3329946874999
 30
0.0
 40
0.9
  0
LINE
  5
2D2
330
128
100
AcDbEntity
  8
_0-1_PRO0
  6
Continuous
 62
     0
100
AcDbLine
 10
1105.640655264
 20
685.4719016875
 30
0.0
 11
1127.905899264
 21
724.0364336875
 31
0.0
  0
CIRCLE
  5
2D3
330
128
100
AcDbEntity
  8
_0-1_PRO0
  6
Continuous
 62
     0
100
AcDbCircle
 10
1105.640655264
 20
685.4719016875
 30
0.0
 40
0.9
  0
LINE
  5
2D4
330
128
100
AcDbEntity
  8
_0-1_PRO0
  6
Continuous
 62
     0
100
AcDbLine
 10
1168.617273264
 20
700.3083386875
 30
0.0
 11
1168.617273264
 21
610.3083386875
 31
0.0
  0
LINE
  5
2D5
330
128
100
AcDbEntity
  8
_0-1_PRO0
  6
Continuous
 62
     0
100
AcDbLine
 10
1122.856314264
 20
700.3083386875
 30
0.0
 11
1172.617272264
 21
700.3083386875
 31
0.0
  0
LINE
  5
2D6
330
128
100
AcDbEntity
  8
_0-1_PRO0
  6
Continuous
 62
     0
100
AcDbLine
 10
1119.856314264
 20
610.3083386875
 30
0.0
 11
1172.617272264
 21
610.3083386875
 31
0.0
  0
LINE
  5
2D7
330
128
100
AcDbEntity
  8
_0-1_PRO0
  6
Continuous
 62
     0
100
AcDbLine
 10
1168.617273264
 20
700.3083386875
 30
0.0
 11
1169.367273264
 21
697.3083386875
 31
0.0
  0
LINE
  5
2D8
330
128
100
AcDbEntity
  8
_0-1_PRO0
  6
Continuous
 62
     0
100
AcDbLine
 10
1168.617273264
 20
700.3083386875
 30
0.0
 11
1167.867273264
 21
697.3083386875
 31
0.0
  0
LINE
  5
2D9
330
128
100
AcDbEntity
  8
_0-1_PRO0
  6
Continuous
 62
     0
100
AcDbLine
 10
1168.617273264
 20
610.3083386875
 30
0.0
 11
1167.867273264
 21
613.3083386875
 31
0.0
  0
LINE
  5
2DA
330
128
100
AcDbEntity
  8
_0-1_PRO0
  6
Continuous
 62
     0
100
AcDbLine
 10
1168.617273264
 20
610.3083386875
 30
0.0
 11
1169.367273264
 21
613.3083386875
 31
0.0
  0
LINE
  5
2DB
330
128
100
AcDbEntity
  8
_0-1_PRO0
  6
Continuous
 62
     0
100
AcDbLine
 10
1143.960405264
 20
654.1781456875
 30
0.0
 11
1143.960405264
 21
610.3083386875
 31
0.0
  0
LINE
  5
2DC
330
128
100
AcDbEntity
  8
_0-1_PRO0
  6
Continuous
 62
     0
100
AcDbLine
 10
1143.960405264
 20
654.1781456875
 30
0.0
 11
1144.710405264
 21
651.1781456875
 31
0.0
  0
LINE
  5
2DD
330
128
100
AcDbEntity
  8
_0-1_PRO0
  6
Continuous
 62
     0
100
AcDbLine
 10
1143.960405264
 20
654.1781456875
 30
0.0
 11
1143.210405264
 21
651.1781456875
 31
0.0
  0
LINE
  5
2DE
330
128
100
AcDbEntity
  8
_0-1_PRO0
  6
Continuous
 62
     0
100
AcDbLine
 10
1143.960405264
 20
610.3083386875
 30
0.0
 11
1143.210405264
 21
613.3083386875
 31
0.0
  0
LINE
  5
2DF
330
128
100
AcDbEntity
  8
_0-1_PRO0
  6
Continuous
 62
     0
100
AcDbLine
 10
1143.960405264
 20
610.3083386875
 30
0.0
 11
1144.710405264
 21
613.3083386875
 31
0.0
  0
LINE
  5
2E0
330
128
100
AcDbEntity
  8
_0-1_PRO0
  6
Continuous
 62
     0
100
AcDbLine
 10
1098.650334264
 20
695.0155916874999
 30
0.0
 11
621.8301462636
 21
720.0046822496
 31
0.0
  0
LINE
  5
2E1
330
128
100
AcDbEntity
  8
_0-1_PRO0
  6
Continuous
 62
     0
100
AcDbLine
 10
1092.621240264
 20
698.1148796874999
 30
0.0
 11
621.8563152636
 21
722.7866242496
 31
0.0
  0
LINE
  5
2E2
330
128
100
AcDbEntity
  8
_0-1_PRO0
  6
Continuous
 62
     0
100
AcDbLine
 10
1092.307227264
 20
692.1231026875
 30
0.0
 11
621.8563152636
 21
716.7783922496
 31
0.0
  0
LINE
  5
2E3
330
128
100
AcDbEntity
  8
_0-1_PRO0
  6
Continuous
 62
     0
100
AcDbLine
 10
1091.537886264
 20
677.4432476875
 30
0.0
 11
621.8563152636
 21
702.0582172496
 31
0.0
  0
LINE
  5
2E4
330
128
100
AcDbEntity
  8
_0-1_PRO0
  6
Continuous
 62
     0
100
AcDbLine
 10
1091.443683264
 20
675.6457136875
 30
0.0
 11
621.8563152636
 21
700.2557482496
 31
0.0
  0
LINE
  5
2E5
330
128
100
AcDbEntity
  8
_0-1_PRO0
  6
Continuous
 62
     0
100
AcDbLine
 10
1091.286675264
 20
672.6498266874999
 30
0.0
 11
621.8563152636
 21
697.2516292496001
 31
0.0
  0
LINE
  5
2E6
330
128
100
AcDbEntity
  8
_0-1_PRO0
  6
Continuous
 62
     0
100
AcDbLine
 10
1091.208171264
 20
671.1518816875
 30
0.0
 11
621.8563152636
 21
695.7495712496
 31
0.0
  0
LINE
  5
2E7
330
128
100
AcDbEntity
  8
_0-1_PRO0
  6
Continuous
 62
     0
100
AcDbLine
 10
1091.155836264
 20
670.1532536874999
 30
0.0
 11
621.8563152636
 21
694.7481982496
 31
0.0
  0
LINE
  5
2E8
330
128
100
AcDbEntity
  8
_0-1_PRO0
  6
Continuous
 62
     0
100
AcDbLine
 10
1119.013323264
 20
700.4573336874999
 30
0.0
 11
621.8563152636
 21
726.5122312496
 31
0.0
  0
LINE
  5
2E9
330
128
100
AcDbEntity
  8
_0-1_PRO0
  6
Continuous
 62
     0
100
AcDbLine
 10
1111.856313264
 20
612.3083396875
 30
0.0
 11
1111.856313264
 21
610.3083386875
 31
0.0
  0
ARC
  5
2EA
330
128
100
AcDbEntity
  8
_0-1_PRO0
  6
Continuous
 62
     0
100
AcDbCircle
 10
1098.695151264
 20
692.0091266875
 30
0.0
 40
7.5
100
AcDbArc
 50
10.124672
 51
87.0
  0
LINE
  5
2EB
330
128
100
AcDbEntity
  8
_0-1_PRO0
  6
Continuous
 62
     0
100
AcDbLine
 10
1085.615799264
 20
700.2048806874999
 30
0.0
 11
1083.978735264
 21
698.5678136875
 31
0.0
  0
LINE
  5
2EC
330
128
100
AcDbEntity
  8
_0-1_PRO0
  6
Continuous
 62
     0
100
AcDbLine
 10
1086.959589264
 20
700.1344556874999
 30
0.0
 11
1085.322522264
 21
698.4973886875
 31
0.0
  0
LINE
  5
2ED
330
128
100
AcDbEntity
  8
_0-1_PRO0
  6
Continuous
 62
     0
100
AcDbLine
 10
1088.303376264
 20
700.0640306874999
 30
0.0
 11
1086.666312264
 21
698.4269636875
 31
0.0
  0
LINE
  5
2EE
330
128
100
AcDbEntity
  8
_0-1_PRO0
  6
Continuous
 62
     0
100
AcDbLine
 10
1089.647166264
 20
699.9936056875
 30
0.0
 11
1088.010099264
 21
698.3565386875
 31
0.0
  0
LINE
  5
2EF
330
128
100
AcDbEntity
  8
_0-1_PRO0
  6
Continuous
 62
     0
100
AcDbLine
 10
1090.990956264
 20
699.9231806875
 30
0.0
 11
1089.353889264
 21
698.2861136874999
 31
0.0
  0
LINE
  5
2F0
330
128
100
AcDbEntity
  8
_0-1_PRO0
  6
Continuous
 62
     0
100
AcDbLine
 10
1092.334743264
 20
699.8527556875
 30
0.0
 11
1090.697679264
 21
698.2156886874999
 31
0.0
  0
LINE
  5
2F1
330
128
100
AcDbEntity
  8
_0-1_PRO0
  6
Continuous
 62
     0
100
AcDbLine
 10
1092.041466264
 20
698.1452636874999
 30
0.0
 11
1092.654987264
 21
698.7587846874999
 31
0.0
  0
LINE
  5
2F2
330
128
100
AcDbEntity
  8
_0-1_PRO0
  6
Continuous
 62
     0
100
AcDbLine
 10
1084.282761264
 20
700.2747416874999
 30
0.0
 11
1082.645697264
 21
698.6376746874999
 31
0.0
  0
LINE
  5
2F3
330
128
100
AcDbEntity
  8
_0-1_PRO0
  6
Continuous
 62
     0
100
AcDbLine
 10
1082.928222264
 20
700.3457306875
 30
0.0
 11
1082.713161264
 21
700.1306666875
 31
0.0
  0
ARC
  5
2F4
330
128
100
AcDbEntity
  8
_0-1_PRO0
  6
Continuous
 62
     0
100
AcDbCircle
 10
1118.856315264
 20
613.3083386875
 30
0.0
 40
0.999999
100
AcDbArc
 50
-90.0
 51
0.0
  0
LINE
  5
2F5
330
128
100
AcDbEntity
  8
_0-1_PRO0
  6
Continuous
 62
     0
100
AcDbLine
 10
1118.856315264
 20
612.3083396875
 30
0.0
 11
1111.856313264
 21
612.3083396875
 31
0.0
  0
ARC
  5
2F6
330
128
100
AcDbEntity
  8
_0-1_PRO0
  6
Continuous
 62
     0
100
AcDbCircle
 10
1118.856315264
 20
613.3083386875
 30
0.0
 40
3.0
100
AcDbArc
 50
-90.0
 51
0.0
  0
LINE
  5
2F7
330
128
100
AcDbEntity
  8
_0-1_PRO0
  6
Continuous
 62
     0
100
AcDbLine
 10
1118.856315264
 20
610.3083386875
 30
0.0
 11
1111.856313264
 21
610.3083386875
 31
0.0
  0
ARC
  5
2F8
330
128
100
AcDbEntity
  8
_0-1_PRO0
  6
Continuous
 62
     0
100
AcDbCircle
 10
1118.856315264
 20
697.4614466875
 30
0.0
 40
3.0
100
AcDbArc
 50
0.0
 51
86.99999999999
  0
LINE
  5
2F9
330
128
100
AcDbEntity
  8
_0-1_PRO0
  6
Continuous
 62
     0
100
AcDbLine
 10
1121.856315264
 20
697.4614466875
 30
0.0
 11
1121.856315264
 21
613.3083386875
 31
0.0
  0
LINE
  5
2FA
330
128
100
AcDbEntity
  8
_0-1_PRO0
  6
Continuous
 62
     0
100
AcDbLine
 10
1106.078358264
 20
693.3275576874999
 30
0.0
 11
1119.856314264
 21
616.1710106875
 31
0.0
  0
LINE
  5
2FB
330
128
100
AcDbEntity
  8
_0-1_PRO0
  6
Continuous
 62
     0
100
AcDbLine
 10
1119.856314264
 20
697.4614466875
 30
0.0
 11
1119.856314264
 21
613.3083386875
 31
0.0
  0
ARC
  5
2FC
330
128
100
AcDbEntity
  8
_0-1_PRO0
  6
Continuous
 62
     0
100
AcDbCircle
 10
1118.856315264
 20
697.4614466875
 30
0.0
 40
0.999999
100
AcDbArc
 50
0.0
 51
86.99999999999
  0
LINE
  5
2FD
330
128
100
AcDbEntity
  8
_0-1_PRO0
  6
Continuous
 62
     0
100
AcDbLine
 10
1101.648435264
 20
692.5364996875
 30
0.0
 11
1115.425119264
 21
615.3870626875
 31
0.0
  0
ARC
  5
2FE
330
128
100
AcDbEntity
  8
_0-1_PRO0
  6
Continuous
 62
     0
100
AcDbCircle
 10
1098.695151264
 20
692.0091266875
 30
0.0
 40
3.0
100
AcDbArc
 50
10.124672
 51
86.99999999999
  0
LINE
  5
2FF
330
128
100
AcDbEntity
  8
_0-1_PRO0
  6
Continuous
 62
     0
100
AcDbLine
 10
1114.939014264
 20
623.1083396875
 30
0.0
 11
1105.688838264
 21
623.1083396875
 31
0.0
  0
ARC
  5
300
330
128
100
AcDbEntity
  8
_0-1_PRO0
  6
Continuous
 62
     0
100
AcDbCircle
 10
1114.939014264
 20
622.6083386875
 30
0.0
 40
0.5000010000000001
100
AcDbArc
 50
12.00000000001
 51
90.0
  0
LINE
  5
301
330
128
100
AcDbEntity
  8
_0-1_PRO0
  6
Continuous
 62
     0
100
AcDbLine
 10
1115.428089264
 20
622.7122946875
 30
0.0
 11
1116.856314264
 21
615.9930266875
 31
0.0
  0
LINE
  5
302
330
128
100
AcDbEntity
  8
_0-1_PRO0
  6
Continuous
 62
     0
100
AcDbLine
 10
1116.856314264
 20
615.9930266875
 30
0.0
 11
1116.856314264
 21
612.3083396875
 31
0.0
  0
LINE
  5
303
330
128
100
AcDbEntity
  8
_0-1_PRO0
  6
Continuous
 62
     0
100
AcDbLine
 10
1117.356315264
 20
612.3083396875
 30
0.0
 11
1116.856314264
 21
612.3083396875
 31
0.0
  0
ARC
  5
304
330
128
100
AcDbEntity
  8
_0-1_PRO0
  6
Continuous
 62
     0
100
AcDbCircle
 10
1117.356315264
 20
614.8083386875001
 30
0.0
 40
2.499999
100
AcDbArc
 50
-90.0
 51
0.0
  0
LINE
  5
305
330
128
100
AcDbEntity
  8
_0-1_PRO0
  6
Continuous
 62
     0
100
AcDbLine
 10
1105.688838264
 20
624.3083396875
 30
0.0
 11
1108.088838263999
 21
624.3083396875
 31
0.0
  0
LINE
  5
306
330
128
100
AcDbEntity
  8
_0-1_PRO0
  6
Continuous
 62
     0
100
AcDbLine
 10
1110.088839264
 20
625.3083386875
 30
0.0
 11
1110.088839264
 21
624.3083396875
 31
0.0
  0
LINE
  5
307
330
128
100
AcDbEntity
  8
_0-1_PRO0
  6
Continuous
 62
     0
100
AcDbLine
 10
1108.088838263999
 20
624.3083396875
 30
0.0
 11
1110.088839264
 21
625.3083386875
 31
0.0
  0
ARC
  5
308
330
128
100
AcDbEntity
  8
_0-1_PRO0
  6
Continuous
 62
     0
100
AcDbCircle
 10
1105.688838264
 20
623.7083396875
 30
0.0
 40
0.6
100
AcDbArc
 50
90.0
 51
270.0
  0
LINE
  5
309
330
128
100
AcDbEntity
  8
_0-1_PRO0
  6
Continuous
 62
     0
100
AcDbLine
 10
1114.471392264
 20
624.3083396875
 30
0.0
 11
1110.088839264
 21
624.3083396875
 31
0.0
  0
ARC
  5
30A
330
128
100
AcDbEntity
  8
_0-1_PRO0
  6
Continuous
 62
     0
100
AcDbCircle
 10
1114.471392264
 20
624.8083406875
 30
0.0
 40
0.5000010000000001
100
AcDbArc
 50
-90.0
 51
12.00000000001
  0
ARC
  5
30B
330
128
100
AcDbEntity
  8
_0-1_PRO0
  6
Continuous
 62
     0
100
AcDbCircle
 10
1093.257765264
 20
672.0458396875
 30
0.0
 40
0.5000010000000001
100
AcDbArc
 50
86.99999999999
 51
177.0
  0
LINE
  5
30C
330
128
100
AcDbEntity
  8
_0-1_PRO0
  6
Continuous
 62
     0
100
AcDbLine
 10
1092.758451264
 20
672.0720086874999
 30
0.0
 11
1092.706116264
 21
671.0733776875001
 31
0.0
  0
LINE
  5
30D
330
128
100
AcDbEntity
  8
_0-1_PRO0
  6
Continuous
 62
     0
100
AcDbLine
 10
1092.180633264
 20
670.6002296874999
 30
0.0
 11
1091.681316264
 21
670.6263986875
 31
0.0
  0
ARC
  5
30E
330
128
100
AcDbEntity
  8
_0-1_PRO0
  6
Continuous
 62
     0
100
AcDbCircle
 10
1091.707485264
 20
671.1257126875
 30
0.0
 40
0.5000010000000001
100
AcDbArc
 50
177.0
 51
267.0
  0
ARC
  5
30F
330
128
100
AcDbEntity
  8
_0-1_PRO0
  6
Continuous
 62
     0
100
AcDbCircle
 10
1092.206799264
 20
671.0995466875
 30
0.0
 40
0.5000010000000001
100
AcDbArc
 50
-93.00000000000999
 51
-3.000000000005999
  0
LINE
  5
310
330
128
100
AcDbEntity
  8
_0-1_PRO0
  6
Continuous
 62
     0
100
AcDbLine
 10
1100.959011263999
 20
672.1429196875
 30
0.0
 11
1093.283934264
 21
672.5451536875
 31
0.0
  0
ARC
  5
311
330
128
100
AcDbEntity
  8
_0-1_PRO0
  6
Continuous
 62
     0
100
AcDbCircle
 10
1100.932845264
 20
671.6436056874999
 30
0.0
 40
0.5000010000000001
100
AcDbArc
 50
-12.99999999999
 51
86.99999999999
  0
LINE
  5
312
330
128
100
AcDbEntity
  8
_0-1_PRO0
  6
Continuous
 62
     0
100
AcDbLine
 10
1101.420030264
 20
671.5311296874999
 30
0.0
 11
1100.836836264
 21
669.0050456875
 31
0.0
  0
LINE
  5
313
330
128
100
AcDbEntity
  8
_0-1_PRO0
  6
Continuous
 62
     0
100
AcDbLine
 10
1103.022300264
 20
672.0347876875
 30
0.0
 11
1104.199644264
 21
671.9730866874999
 31
0.0
  0
ARC
  5
314
330
128
100
AcDbEntity
  8
_0-1_PRO0
  6
Continuous
 62
     0
100
AcDbCircle
 10
1103.006598264
 20
671.7351986875
 30
0.0
 40
0.3
100
AcDbArc
 50
86.99999999999
 51
167.0
  0
LINE
  5
315
330
128
100
AcDbEntity
  8
_0-1_PRO0
  6
Continuous
 62
     0
100
AcDbLine
 10
1102.714287264
 20
671.8026836875
 30
0.0
 11
1102.006080264
 21
668.7351056875
 31
0.0
  0
ARC
  5
316
330
128
100
AcDbEntity
  8
_0-1_PRO0
  6
Continuous
 62
     0
100
AcDbCircle
 10
1104.147309264
 20
670.9744556875
 30
0.0
 40
0.999999
100
AcDbArc
 50
11.99999999999
 51
86.99999999999
  0
ARC
  5
317
330
128
100
AcDbEntity
  8
_0-1_PRO0
  6
Continuous
 62
     0
100
AcDbCircle
 10
1101.421458264
 20
668.8700756875
 30
0.0
 40
0.6
100
AcDbArc
 50
167.0
 51
347.0
  0
LINE
  5
318
330
128
100
AcDbEntity
  8
_0-1_PRO0
  6
Continuous
 62
     0
100
AcDbLine
 10
1107.900363264
 20
672.5566616874999
 30
0.0
 11
1119.856314264
 21
616.3083386875
 31
0.0
  0
LINE
  5
319
330
128
100
AcDbEntity
  8
_0-1_PRO0
  6
Continuous
 62
     0
100
AcDbLine
 10
1105.125456264
 20
671.1823676875
 30
0.0
 11
1114.960464264
 21
624.9122966874999
 31
0.0
  0
LINE
  5
31A
330
128
100
AcDbEntity
  8
_0-1_PRO0
  6
Continuous
 62
     0
100
AcDbLine
 10
1115.425119264
 20
615.3870626875
 30
0.0
 11
1119.856314264
 21
616.1710106875
 31
0.0
  0
LINE
  5
31B
330
128
100
AcDbEntity
  8
_0-1_PRO0
  6
Continuous
 62
     0
100
AcDbLine
 10
1092.711285264
 20
699.8330216875
 30
0.0
 11
1092.621240264
 21
698.1148796874999
 31
0.0
  0
LINE
  5
31C
330
128
100
AcDbEntity
  8
_0-1_PRO0
  6
Continuous
 62
     0
100
AcDbLine
 10
1082.724990264
 20
700.3563806874999
 30
0.0
 11
1082.634945264
 21
698.6382386875
 31
0.0
  0
ARC
  5
31D
330
128
100
AcDbEntity
  8
_0-1_PRO0
  6
Continuous
 62
     0
100
AcDbCircle
 10
1092.073836264
 20
678.1161206875
 30
0.0
 40
0.5000010000000001
100
AcDbArc
 50
86.99999999999
 51
177.0
  0
LINE
  5
31E
330
128
100
AcDbEntity
  8
_0-1_PRO0
  6
Continuous
 62
     0
100
AcDbLine
 10
1093.440942264
 20
675.5410436874999
 30
0.0
 11
1105.122930264
 21
674.9288156875
 31
0.0
  0
ARC
  5
31F
330
128
100
AcDbEntity
  8
_0-1_PRO0
  6
Continuous
 62
     0
100
AcDbCircle
 10
1093.467108264
 20
676.0403576874999
 30
0.0
 40
0.5000010000000001
100
AcDbArc
 50
177.0
 51
267.0
  0
LINE
  5
320
330
128
100
AcDbEntity
  8
_0-1_PRO0
  6
Continuous
 62
     0
100
AcDbLine
 10
1092.967794264
 20
676.0665266874999
 30
0.0
 11
1093.072467264
 21
678.0637856874999
 31
0.0
  0
ARC
  5
321
330
128
100
AcDbEntity
  8
_0-1_PRO0
  6
Continuous
 62
     0
100
AcDbCircle
 10
1092.573153264
 20
678.0899516875
 30
0.0
 40
0.5000010000000001
100
AcDbArc
 50
-3.000000000005999
 51
86.99999999999
  0
LINE
  5
322
330
128
100
AcDbEntity
  8
_0-1_PRO0
  6
Continuous
 62
     0
100
AcDbLine
 10
1092.599319264
 20
678.5892686875
 30
0.0
 11
1092.100005264
 21
678.6154346875
 31
0.0
  0
LINE
  5
323
330
128
100
AcDbEntity
  8
_0-1_PRO0
  6
Continuous
 62
     0
100
AcDbLine
 10
1092.621240264
 20
698.1148796874999
 30
0.0
 11
1091.155836264
 21
670.1532536874999
 31
0.0
  0
ARC
  5
324
330
128
100
AcDbEntity
  8
_0-1_PRO0
  6
Continuous
 62
     0
100
AcDbCircle
 10
1104.965922264
 20
671.9329256874999
 30
0.0
 40
3.0
100
AcDbArc
 50
12.0
 51
87.0
  0
ARC
  5
325
330
128
100
AcDbEntity
  8
_0-1_PRO0
  6
Continuous
 62
     0
100
AcDbCircle
 10
1062.904236264
 20
675.6393446875001
 30
0.0
 40
1.5
100
AcDbArc
 50
87.00000000000999
 51
267.0
  0
TEXT
  5
326
330
128
100
AcDbEntity
  8
_0-1_PRO0
  6
Continuous
 62
     0
100
AcDbText
 10
1086.619999747
 20
715.1204003785001
 30
0.0
 40
9.0
  1
４
100
AcDbText
  0
TEXT
  5
327
330
128
100
AcDbEntity
  8
_0-1_PRO0
  6
Continuous
 62
     0
100
AcDbText
 10
1126.767940562
 20
725.0965553689999
 30
0.0
 40
9.0
  1
７
100
AcDbText
  0
TEXT
  5
328
330
128
100
AcDbEntity
  8
_0-1_PRO0
  6
Continuous
 62
     0
100
AcDbText
 10
1144.049051937
 20
627.0964210405999
 30
0.0
 40
9.0
  1
44
 50
90.00000300000001
100
AcDbText
  0
TEXT
  5
329
330
128
100
AcDbEntity
  8
_0-1_PRO0
  6
Continuous
 62
     0
100
AcDbText
 10
1168.780650723
 20
642.2235154438999
 30
0.0
 40
9.0
  1
90
 50
90.00000300000001
100
AcDbText
  0
LINE
  5
32A
330
128
100
AcDbEntity
  8
_0-1_PRO0
  6
Continuous
 62
     0
100
AcDbLine
 10
1118.908650264
 20
698.4600746874999
 30
0.0
 11
621.8563152636
 21
724.5094847903999
 31
0.0
  0
CIRCLE
  5
32B
330
128
100
AcDbEntity
  8
_0-1_PRO0
  6
Continuous
 62
     0
100
AcDbCircle
 10
1130.905899264
 20
729.2325866875
 30
0.0
 40
6.0
  0
ARC
  5
32C
330
128
100
AcDbEntity
  8
_0-1_PRO0
  6
Continuous
 62
     0
100
AcDbCircle
 10
180.8083942636
 20
675.6393446875001
 30
0.0
 40
1.5
100
AcDbArc
 50
-87.0
 51
93.0
  0
ARC
  5
32D
330
128
100
AcDbEntity
  8
_0-1_PRO0
  6
Continuous
 62
     0
100
AcDbCircle
 10
138.7467082636
 20
671.9329256874999
 30
0.0
 40
3.0
100
AcDbArc
 50
93.0
 51
168.0
  0
LINE
  5
32E
330
128
100
AcDbEntity
  8
_0-1_PRO0
  6
Continuous
 62
     0
100
AcDbLine
 10
151.0913872636
 20
698.1148796874999
 30
0.0
 11
152.5567942636
 21
670.1532536874999
 31
0.0
  0
LINE
  5
32F
330
128
100
AcDbEntity
  8
_0-1_PRO0
  6
Continuous
 62
     0
100
AcDbLine
 10
151.1133112636
 20
678.5892686875
 30
0.0
 11
151.6126252636
 21
678.6154346875
 31
0.0
  0
ARC
  5
330
330
128
100
AcDbEntity
  8
_0-1_PRO0
  6
Continuous
 62
     0
100
AcDbCircle
 10
151.1394772636
 20
678.0899516875
 30
0.0
 40
0.5000010000000001
100
AcDbArc
 50
93.00000000000999
 51
183.0
  0
LINE
  5
331
330
128
100
AcDbEntity
  8
_0-1_PRO0
  6
Continuous
 62
     0
100
AcDbLine
 10
150.7448362636
 20
676.0665266874999
 30
0.0
 11
150.6401632636
 21
678.0637856874999
 31
0.0
  0
ARC
  5
332
330
128
100
AcDbEntity
  8
_0-1_PRO0
  6
Continuous
 62
     0
100
AcDbCircle
 10
150.2455192636
 20
676.0403576874999
 30
0.0
 40
0.5000010000000001
100
AcDbArc
 50
-86.99999999999
 51
3.000000000005999
  0
LINE
  5
333
330
128
100
AcDbEntity
  8
_0-1_PRO0
  6
Continuous
 62
     0
100
AcDbLine
 10
150.2716882636
 20
675.5410436874999
 30
0.0
 11
138.5897002636
 21
674.9288156875
 31
0.0
  0
ARC
  5
334
330
128
100
AcDbEntity
  8
_0-1_PRO0
  6
Continuous
 62
     0
100
AcDbCircle
 10
151.6387912636
 20
678.1161206875
 30
0.0
 40
0.5000010000000001
100
AcDbArc
 50
3.000000000005999
 51
93.00000000000999
  0
LINE
  5
335
330
128
100
AcDbEntity
  8
_0-1_PRO0
  6
Continuous
 62
     0
100
AcDbLine
 10
160.9876402636
 20
700.3563806874999
 30
0.0
 11
161.0776822636
 21
698.6382386875
 31
0.0
  0
LINE
  5
336
330
128
100
AcDbEntity
  8
_0-1_PRO0
  6
Continuous
 62
     0
100
AcDbLine
 10
151.0013452636
 20
699.8330216875
 30
0.0
 11
151.0913872636
 21
698.1148796874999
 31
0.0
  0
LINE
  5
337
330
128
100
AcDbEntity
  8
_0-1_PRO0
  6
Continuous
 62
     0
100
AcDbLine
 10
128.2875082636
 20
615.3870626875
 30
0.0
 11
123.8563162636
 21
616.1710106875
 31
0.0
  0
LINE
  5
338
330
128
100
AcDbEntity
  8
_0-1_PRO0
  6
Continuous
 62
     0
100
AcDbLine
 10
138.5871712636
 20
671.1823676875
 30
0.0
 11
128.7521662636
 21
624.9122966874999
 31
0.0
  0
LINE
  5
339
330
128
100
AcDbEntity
  8
_0-1_PRO0
  6
Continuous
 62
     0
100
AcDbLine
 10
135.8122672636
 20
672.5566616874999
 30
0.0
 11
123.8563162636
 21
616.3083386875
 31
0.0
  0
ARC
  5
33A
330
128
100
AcDbEntity
  8
_0-1_PRO0
  6
Continuous
 62
     0
100
AcDbCircle
 10
142.2911722636
 20
668.8700756875
 30
0.0
 40
0.6
100
AcDbArc
 50
-167.0
 51
12.99999999998
  0
ARC
  5
33B
330
128
100
AcDbEntity
  8
_0-1_PRO0
  6
Continuous
 62
     0
100
AcDbCircle
 10
139.5653212636
 20
670.9744556875
 30
0.0
 40
0.999999
100
AcDbArc
 50
93.0
 51
168.0
  0
LINE
  5
33C
330
128
100
AcDbEntity
  8
_0-1_PRO0
  6
Continuous
 62
     0
100
AcDbLine
 10
140.9983432636
 20
671.8026836875
 30
0.0
 11
141.7065502636
 21
668.7351056875
 31
0.0
  0
ARC
  5
33D
330
128
100
AcDbEntity
  8
_0-1_PRO0
  6
Continuous
 62
     0
100
AcDbCircle
 10
140.7060322636
 20
671.7351986875
 30
0.0
 40
0.3
100
AcDbArc
 50
13.00000000001
 51
93.00000000000999
  0
LINE
  5
33E
330
128
100
AcDbEntity
  8
_0-1_PRO0
  6
Continuous
 62
     0
100
AcDbLine
 10
140.6903302636
 20
672.0347876875
 30
0.0
 11
139.5129832636
 21
671.9730866874999
 31
0.0
  0
LINE
  5
33F
330
128
100
AcDbEntity
  8
_0-1_PRO0
  6
Continuous
 62
     0
100
AcDbLine
 10
142.2926002636
 20
671.5311296874999
 30
0.0
 11
142.8757942636
 21
669.0050456875
 31
0.0
  0
ARC
  5
340
330
128
100
AcDbEntity
  8
_0-1_PRO0
  6
Continuous
 62
     0
100
AcDbCircle
 10
142.7797852636
 20
671.6436056874999
 30
0.0
 40
0.5000010000000001
100
AcDbArc
 50
93.00000000000999
 51
193.0
  0
LINE
  5
341
330
128
100
AcDbEntity
  8
_0-1_PRO0
  6
Continuous
 62
     0
100
AcDbLine
 10
142.7536192636
 20
672.1429196875
 30
0.0
 11
150.4286962636
 21
672.5451536875
 31
0.0
  0
ARC
  5
342
330
128
100
AcDbEntity
  8
_0-1_PRO0
  6
Continuous
 62
     0
100
AcDbCircle
 10
151.5058282636
 20
671.0995466875
 30
0.0
 40
0.5000010000000001
100
AcDbArc
 50
-177.0
 51
-86.99999999999
  0
ARC
  5
343
330
128
100
AcDbEntity
  8
_0-1_PRO0
  6
Continuous
 62
     0
100
AcDbCircle
 10
152.0051452636
 20
671.1257126875
 30
0.0
 40
0.5000010000000001
100
AcDbArc
 50
-86.99999999999
 51
3.000000000005999
  0
LINE
  5
344
330
128
100
AcDbEntity
  8
_0-1_PRO0
  6
Continuous
 62
     0
100
AcDbLine
 10
151.5319972636
 20
670.6002296874999
 30
0.0
 11
152.0313112636
 21
670.6263986875
 31
0.0
  0
LINE
  5
345
330
128
100
AcDbEntity
  8
_0-1_PRO0
  6
Continuous
 62
     0
100
AcDbLine
 10
150.9541792636
 20
672.0720086874999
 30
0.0
 11
151.0065142636
 21
671.0733776875001
 31
0.0
  0
ARC
  5
346
330
128
100
AcDbEntity
  8
_0-1_PRO0
  6
Continuous
 62
     0
100
AcDbCircle
 10
150.4548652636
 20
672.0458396875
 30
0.0
 40
0.5000010000000001
100
AcDbArc
 50
3.000000000005999
 51
93.00000000000999
  0
ARC
  5
347
330
128
100
AcDbEntity
  8
_0-1_PRO0
  6
Continuous
 62
     0
100
AcDbCircle
 10
129.2412382636
 20
624.8083406875
 30
0.0
 40
0.5000010000000001
100
AcDbArc
 50
168.0
 51
270.0
  0
LINE
  5
348
330
128
100
AcDbEntity
  8
_0-1_PRO0
  6
Continuous
 62
     0
100
AcDbLine
 10
129.2412382636
 20
624.3083396875
 30
0.0
 11
133.6237912636
 21
624.3083396875
 31
0.0
  0
ARC
  5
349
330
128
100
AcDbEntity
  8
_0-1_PRO0
  6
Continuous
 62
     0
100
AcDbCircle
 10
138.0237892636
 20
623.7083396875
 30
0.0
 40
0.6
100
AcDbArc
 50
-90.0
 51
90.0
  0
LINE
  5
34A
330
128
100
AcDbEntity
  8
_0-1_PRO0
  6
Continuous
 62
     0
100
AcDbLine
 10
135.6237892636
 20
624.3083396875
 30
0.0
 11
133.6237912636
 21
625.3083386875
 31
0.0
  0
LINE
  5
34B
330
128
100
AcDbEntity
  8
_0-1_PRO0
  6
Continuous
 62
     0
100
AcDbLine
 10
133.6237912636
 20
625.3083386875
 30
0.0
 11
133.6237912636
 21
624.3083396875
 31
0.0
  0
LINE
  5
34C
330
128
100
AcDbEntity
  8
_0-1_PRO0
  6
Continuous
 62
     0
100
AcDbLine
 10
138.0237892636
 20
624.3083396875
 30
0.0
 11
135.6237892636
 21
624.3083396875
 31
0.0
  0
ARC
  5
34D
330
128
100
AcDbEntity
  8
_0-1_PRO0
  6
Continuous
 62
     0
100
AcDbCircle
 10
126.3563152636
 20
614.8083386875001
 30
0.0
 40
2.499999
100
AcDbArc
 50
180.0
 51
270.0
  0
LINE
  5
34E
330
128
100
AcDbEntity
  8
_0-1_PRO0
  6
Continuous
 62
     0
100
AcDbLine
 10
126.3563152636
 20
612.3083396875
 30
0.0
 11
126.8563162636
 21
612.3083396875
 31
0.0
  0
LINE
  5
34F
330
128
100
AcDbEntity
  8
_0-1_PRO0
  6
Continuous
 62
     0
100
AcDbLine
 10
126.8563162636
 20
615.9930266875
 30
0.0
 11
126.8563162636
 21
612.3083396875
 31
0.0
  0
LINE
  5
350
330
128
100
AcDbEntity
  8
_0-1_PRO0
  6
Continuous
 62
     0
100
AcDbLine
 10
128.2845412636
 20
622.7122946875
 30
0.0
 11
126.8563162636
 21
615.9930266875
 31
0.0
  0
ARC
  5
351
330
128
100
AcDbEntity
  8
_0-1_PRO0
  6
Continuous
 62
     0
100
AcDbCircle
 10
128.7736132636
 20
622.6083386875
 30
0.0
 40
0.5000010000000001
100
AcDbArc
 50
90.0
 51
168.0
  0
LINE
  5
352
330
128
100
AcDbEntity
  8
_0-1_PRO0
  6
Continuous
 62
     0
100
AcDbLine
 10
128.7736132636
 20
623.1083396875
 30
0.0
 11
138.0237892636
 21
623.1083396875
 31
0.0
  0
ARC
  5
353
330
128
100
AcDbEntity
  8
_0-1_PRO0
  6
Continuous
 62
     0
100
AcDbCircle
 10
145.0174762636
 20
692.0091266875
 30
0.0
 40
3.0
100
AcDbArc
 50
93.0
 51
169.875328
  0
LINE
  5
354
330
128
100
AcDbEntity
  8
_0-1_PRO0
  6
Continuous
 62
     0
100
AcDbLine
 10
142.0641952636
 20
692.5364996875
 30
0.0
 11
128.2875082636
 21
615.3870626875
 31
0.0
  0
ARC
  5
355
330
128
100
AcDbEntity
  8
_0-1_PRO0
  6
Continuous
 62
     0
100
AcDbCircle
 10
124.8563152636
 20
697.4614466875
 30
0.0
 40
0.999999
100
AcDbArc
 50
93.0
 51
180.0
  0
LINE
  5
356
330
128
100
AcDbEntity
  8
_0-1_PRO0
  6
Continuous
 62
     0
100
AcDbLine
 10
123.8563162636
 20
697.4614466875
 30
0.0
 11
123.8563162636
 21
613.3083386875
 31
0.0
  0
LINE
  5
357
330
128
100
AcDbEntity
  8
_0-1_PRO0
  6
Continuous
 62
     0
100
AcDbLine
 10
137.6342722636
 20
693.3275576874999
 30
0.0
 11
123.8563162636
 21
616.1710106875
 31
0.0
  0
LINE
  5
358
330
128
100
AcDbEntity
  8
_0-1_PRO0
  6
Continuous
 62
     0
100
AcDbLine
 10
121.8563152636
 20
697.4614466875
 30
0.0
 11
121.8563152636
 21
613.3083386875
 31
0.0
  0
ARC
  5
359
330
128
100
AcDbEntity
  8
_0-1_PRO0
  6
Continuous
 62
     0
100
AcDbCircle
 10
124.8563152636
 20
697.4614466875
 30
0.0
 40
3.0
100
AcDbArc
 50
93.0
 51
180.0
  0
LINE
  5
35A
330
128
100
AcDbEntity
  8
_0-1_PRO0
  6
Continuous
 62
     0
100
AcDbLine
 10
124.8563152636
 20
610.3083386875
 30
0.0
 11
131.8563172636
 21
610.3083386875
 31
0.0
  0
ARC
  5
35B
330
128
100
AcDbEntity
  8
_0-1_PRO0
  6
Continuous
 62
     0
100
AcDbCircle
 10
124.8563152636
 20
613.3083386875
 30
0.0
 40
3.0
100
AcDbArc
 50
180.0
 51
270.0
  0
LINE
  5
35C
330
128
100
AcDbEntity
  8
_0-1_PRO0
  6
Continuous
 62
     0
100
AcDbLine
 10
124.8563152636
 20
612.3083396875
 30
0.0
 11
131.8563172636
 21
612.3083396875
 31
0.0
  0
ARC
  5
35D
330
128
100
AcDbEntity
  8
_0-1_PRO0
  6
Continuous
 62
     0
100
AcDbCircle
 10
124.8563152636
 20
613.3083386875
 30
0.0
 40
0.999999
100
AcDbArc
 50
180.0
 51
270.0
  0
LINE
  5
35E
330
128
100
AcDbEntity
  8
_0-1_PRO0
  6
Continuous
 62
     0
100
AcDbLine
 10
160.7844052636
 20
700.3457306875
 30
0.0
 11
160.9994692636
 21
700.1306666875
 31
0.0
  0
LINE
  5
35F
330
128
100
AcDbEntity
  8
_0-1_PRO0
  6
Continuous
 62
     0
100
AcDbLine
 10
159.4298662636
 20
700.2747416874999
 30
0.0
 11
161.0669332636
 21
698.6376746874999
 31
0.0
  0
LINE
  5
360
330
128
100
AcDbEntity
  8
_0-1_PRO0
  6
Continuous
 62
     0
100
AcDbLine
 10
151.6711642636
 20
698.1452636874999
 30
0.0
 11
151.0576432636
 21
698.7587846874999
 31
0.0
  0
LINE
  5
361
330
128
100
AcDbEntity
  8
_0-1_PRO0
  6
Continuous
 62
     0
100
AcDbLine
 10
151.3778872636
 20
699.8527556875
 30
0.0
 11
153.0149512636
 21
698.2156886874999
 31
0.0
  0
LINE
  5
362
330
128
100
AcDbEntity
  8
_0-1_PRO0
  6
Continuous
 62
     0
100
AcDbLine
 10
152.7216742636
 20
699.9231806875
 30
0.0
 11
154.3587412636
 21
698.2861136874999
 31
0.0
  0
LINE
  5
363
330
128
100
AcDbEntity
  8
_0-1_PRO0
  6
Continuous
 62
     0
100
AcDbLine
 10
154.0654642636
 20
699.9936056875
 30
0.0
 11
155.7025282636
 21
698.3565386875
 31
0.0
  0
LINE
  5
364
330
128
100
AcDbEntity
  8
_0-1_PRO0
  6
Continuous
 62
     0
100
AcDbLine
 10
155.4092512636
 20
700.0640306874999
 30
0.0
 11
157.0463182636
 21
698.4269636875
 31
0.0
  0
LINE
  5
365
330
128
100
AcDbEntity
  8
_0-1_PRO0
  6
Continuous
 62
     0
100
AcDbLine
 10
156.7530412636
 20
700.1344556874999
 30
0.0
 11
158.3901052636
 21
698.4973886875
 31
0.0
  0
LINE
  5
366
330
128
100
AcDbEntity
  8
_0-1_PRO0
  6
Continuous
 62
     0
100
AcDbLine
 10
158.0968282636
 20
700.2048806874999
 30
0.0
 11
159.7338952636
 21
698.5678136875
 31
0.0
  0
ARC
  5
367
330
128
100
AcDbEntity
  8
_0-1_PRO0
  6
Continuous
 62
     0
100
AcDbCircle
 10
145.0174762636
 20
692.0091266875
 30
0.0
 40
7.5
100
AcDbArc
 50
93.0
 51
169.875328
  0
LINE
  5
368
330
128
100
AcDbEntity
  8
_0-1_PRO0
  6
Continuous
 62
     0
100
AcDbLine
 10
131.8563172636
 20
612.3083396875
 30
0.0
 11
131.8563172636
 21
610.3083386875
 31
0.0
  0
LINE
  5
369
330
128
100
AcDbEntity
  8
_0-1_PRO0
  6
Continuous
 62
     0
100
AcDbLine
 10
124.6993072636
 20
700.4573336874999
 30
0.0
 11
621.8563152636
 21
726.5122312496
 31
0.0
  0
LINE
  5
36A
330
128
100
AcDbEntity
  8
_0-1_PRO0
  6
Continuous
 62
     0
100
AcDbLine
 10
152.5567942636
 20
670.1532536874999
 30
0.0
 11
621.8563152636
 21
694.7481982496
 31
0.0
  0
LINE
  5
36B
330
128
100
AcDbEntity
  8
_0-1_PRO0
  6
Continuous
 62
     0
100
AcDbLine
 10
152.5044592636
 20
671.1518816875
 30
0.0
 11
621.8563152636
 21
695.7495712496
 31
0.0
  0
LINE
  5
36C
330
128
100
AcDbEntity
  8
_0-1_PRO0
  6
Continuous
 62
     0
100
AcDbLine
 10
152.4259552636
 20
672.6498266874999
 30
0.0
 11
621.8563152636
 21
697.2516292496001
 31
0.0
  0
LINE
  5
36D
330
128
100
AcDbEntity
  8
_0-1_PRO0
  6
Continuous
 62
     0
100
AcDbLine
 10
152.2689472636
 20
675.6457136875
 30
0.0
 11
621.8563152636
 21
700.2557482496
 31
0.0
  0
LINE
  5
36E
330
128
100
AcDbEntity
  8
_0-1_PRO0
  6
Continuous
 62
     0
100
AcDbLine
 10
152.1747412636
 20
677.4432476875
 30
0.0
 11
621.8563152636
 21
702.0582172496
 31
0.0
  0
LINE
  5
36F
330
128
100
AcDbEntity
  8
_0-1_PRO0
  6
Continuous
 62
     0
100
AcDbLine
 10
151.4054032636
 20
692.1231026875
 30
0.0
 11
621.8563152636
 21
716.7783922496
 31
0.0
  0
LINE
  5
370
330
128
100
AcDbEntity
  8
_0-1_PRO0
  6
Continuous
 62
     0
100
AcDbLine
 10
151.3268992636
 20
693.6210476874999
 30
0.0
 11
621.8563152636
 21
718.2804502496001
 31
0.0
  0
LINE
  5
371
330
128
100
AcDbEntity
  8
_0-1_PRO0
  6
Continuous
 62
     0
100
AcDbLine
 10
151.0913872636
 20
698.1148796874999
 30
0.0
 11
621.8563152636
 21
722.7866242496
 31
0.0
  0
LINE
  5
372
330
128
100
AcDbEntity
  8
_0-1_PRO0
  6
Continuous
 62
     0
100
AcDbLine
 10
145.0622962636
 20
695.0155916874999
 30
0.0
 11
621.8824842635999
 21
720.0046822496
 31
0.0
  0
LINE
  5
373
330
128
100
AcDbEntity
  8
_0-1_PRO0
  6
Continuous
 62
     0
100
AcDbLine
 10
621.8563152636
 20
724.5094847903999
 30
0.0
 11
124.8039802636
 21
698.4600746874999
 31
0.0
  0
LINE
  5
374
330
128
100
AcDbEntity
  8
_0-1_PRO0
  6
Continuous
 62
     0
100
AcDbLine
 10
121.8563152636
 20
698.4614456875
 30
0.0
 11
121.8563152636
 21
767.8167629350999
 31
0.0
  0
LINE
  5
375
330
128
100
AcDbEntity
  8
_0-1_PRO0
  6
Continuous
 62
     0
100
AcDbLine
 10
121.8563152636
 20
763.8167639350999
 30
0.0
 11
124.8563152636
 21
763.0667639350999
 31
0.0
  0
LINE
  5
376
330
128
100
AcDbEntity
  8
_0-1_PRO0
  6
Continuous
 62
     0
100
AcDbLine
 10
121.8563152636
 20
763.8167639350999
 30
0.0
 11
124.8563152636
 21
764.5667639351
 31
0.0
  0
LINE
  5
377
330
128
100
AcDbEntity
  8
_0-1_PRO0
  6
Continuous
 62
     0
100
AcDbLine
 10
121.8563152636
 20
400.4930126137
 30
0.0
 11
124.8563152636
 21
399.7430126137
 31
0.0
  0
LINE
  5
378
330
128
100
AcDbEntity
  8
_0-1_PRO0
  6
Continuous
 62
     0
100
AcDbLine
 10
121.8563152636
 20
400.4930126137
 30
0.0
 11
124.8563152636
 21
401.2430126137
 31
0.0
  0
LINE
  5
379
330
128
100
AcDbEntity
  8
_0-1_PRO0
  6
Continuous
 62
     0
100
AcDbLine
 10
121.8563152636
 20
614.9287289351
 30
0.0
 11
121.8563152636
 21
396.4930136137001
 31
0.0
  0
LINE
  5
37A
330
128
100
AcDbEntity
  8
_0-1_PRO0
  6
Continuous
 62
     0
100
AcDbLine
 10
121.8563152636
 20
400.4930126137
 30
0.0
 11
321.8563152636
 21
400.4930126137
 31
0.0
  0
LINE
  5
37B
330
128
100
AcDbEntity
  8
_0-1_PRO0
  6
Continuous
 62
     0
100
AcDbLine
 10
1121.856315264
 20
614.9287289351
 30
0.0
 11
1121.856315264
 21
396.4930136137001
 31
0.0
  0
LINE
  5
37C
330
128
100
AcDbEntity
  8
_0-1_PRO0
  6
Continuous
 62
     0
100
AcDbLine
 10
1121.856315264
 20
400.4930126137
 30
0.0
 11
1118.856315264
 21
399.7430126137
 31
0.0
  0
LINE
  5
37D
330
128
100
AcDbEntity
  8
_0-1_PRO0
  6
Continuous
 62
     0
100
AcDbLine
 10
1121.856315264
 20
400.4930126137
 30
0.0
 11
1118.856315264
 21
401.2430126137
 31
0.0
  0
LINE
  5
37E
330
128
100
AcDbEntity
  8
_0-1_PRO0
  6
Continuous
 62
     0
100
AcDbLine
 10
921.8563152635999
 20
400.4930126137
 30
0.0
 11
1121.856315264
 21
400.4930126137
 31
0.0
  0
LINE
  5
37F
330
128
100
AcDbEntity
  8
ADD_LINE
  6
DOT
 62
     0
100
AcDbLine
 10
1119.013323132
 20
703.0777245394
 30
0.0
 11
1121.856315264
 21
700.3083403715
 31
0.0
  0
LINE
  5
380
330
128
100
AcDbEntity
  8
_0-1_PRO0
  6
Continuous
 62
     0
100
AcDbLine
 10
1121.856315264
 20
701.0818349350999
 30
0.0
 11
1121.856315264
 21
767.8167629350999
 31
0.0
  0
LINE
  5
381
330
128
100
AcDbEntity
  8
_0-1_PRO0
  6
Continuous
 62
     0
100
AcDbLine
 10
1121.856315264
 20
763.8167639350999
 30
0.0
 11
1118.856315264
 21
763.0667639350999
 31
0.0
  0
LINE
  5
382
330
128
100
AcDbEntity
  8
_0-1_PRO0
  6
Continuous
 62
     0
100
AcDbLine
 10
1121.856315264
 20
763.8167639350999
 30
0.0
 11
1118.856315264
 21
764.5667639351
 31
0.0
  0
LINE
  5
383
330
128
100
AcDbEntity
  8
_0-1_PRO0
  6
Continuous
 62
     0
100
AcDbLine
 10
121.8563152636
 20
763.8167639350999
 30
0.0
 11
1121.856315264
 21
763.8167639350999
 31
0.0
  0
TEXT
  5
384
330
128
100
AcDbEntity
  8
_0-1_PRO0
  6
Continuous
 62
     0
100
AcDbText
 10
383.6763435411
 20
401.9170692114
 30
0.0
 40
9.0
  1
Ｃ
100
AcDbText
  0
TEXT
  5
385
330
128
100
AcDbEntity
  8
_0-1_PRO0
  6
Continuous
 62
     0
100
AcDbText
 10
211.3096374992
 20
402.8538447876999
 30
0.0
 40
9.0
  1
200
100
AcDbText
  0
LINE
  5
386
330
128
100
AcDbEntity
  8
_0-1_PRO0
  6
Continuous
 62
     0
100
AcDbLine
 10
931.8563152636
 20
654.1781456875
 30
0.0
 11
1147.960407264
 21
654.1781456875
 31
0.0
  0
CIRCLE
  5
387
330
128
100
AcDbEntity
  8
_0-1_PRO0
  6
Continuous
 62
     0
100
AcDbCircle
 10
872.1867942635999
 20
676.8950216875
 30
0.0
 40
0.9
  0
LINE
  5
388
330
128
100
AcDbEntity
  8
_0-1_PRO0
  6
Continuous
 62
     0
100
AcDbLine
 10
871.8313932636
 20
633.8119676875
 30
0.0
 11
858.1509462635999
 21
610.1167406875
 31
0.0
  0
CIRCLE
  5
389
330
128
100
AcDbEntity
  8
_0-1_PRO0
  6
Continuous
 62
     0
100
AcDbCircle
 10
871.8313932636
 20
633.8119676875
 30
0.0
 40
0.9
  0
LINE
  5
38A
330
128
100
AcDbEntity
  8
_0-1_PRO0
  6
Continuous
 62
     0
100
AcDbLine
 10
865.2312852636001
 20
615.9161486874999
 30
0.0
 11
869.4167172635999
 21
615.1781456874999
 31
0.0
  0
LINE
  5
38B
330
128
100
AcDbEntity
  8
_0-1_PRO0
  6
Continuous
 62
     0
100
AcDbLine
 10
871.8563142636
 20
608.7447446875
 30
0.0
 11
871.8563142636
 21
654.1781456875
 31
0.0
  0
ARC
  5
38C
330
128
100
AcDbEntity
  8
_1-0_
  6
Continuous
 62
     0
100
AcDbCircle
 10
875.3563152635999
 20
614.6781446874999
 30
0.0
 40
0.999999
100
AcDbArc
 50
-90.0
 51
0.0
  0
LINE
  5
38D
330
128
100
AcDbEntity
  8
_1-0_
  6
Continuous
 62
     0
100
AcDbLine
 10
878.4813462636
 20
615.9161486874999
 30
0.0
 11
874.2959112636
 21
615.1781456874999
 31
0.0
  0
LINE
  5
38E
330
128
100
AcDbEntity
  8
_1-0_
  6
Continuous
 62
     0
100
AcDbLine
 10
875.9063142636
 20
645.8781446875
 30
0.0
 11
867.8063142636
 21
645.8781446875
 31
0.0
  0
LINE
  5
38F
330
128
100
AcDbEntity
  8
_1-0_
  6
Continuous
 62
     0
100
AcDbLine
 10
876.6063162635999
 20
645.1781456874999
 30
0.0
 11
867.1063152636
 21
645.1781456874999
 31
0.0
  0
LINE
  5
390
330
128
100
AcDbEntity
  8
_1-0_
  6
Continuous
 62
     0
100
AcDbLine
 10
865.2312852636001
 20
615.9161486874999
 30
0.0
 11
867.1063152636
 21
626.5499726875
 31
0.0
  0
LINE
  5
391
330
128
100
AcDbEntity
  8
_1-0_
  6
Continuous
 62
     0
100
AcDbLine
 10
871.3563162635999
 20
626.1781436875
 30
0.0
 11
869.4167172635999
 21
615.1781456874999
 31
0.0
  0
LINE
  5
392
330
128
100
AcDbEntity
  8
_1-0_
  6
Continuous
 62
     0
100
AcDbLine
 10
872.3563152636
 20
626.1781436875
 30
0.0
 11
874.2959112636
 21
615.1781456874999
 31
0.0
  0
LINE
  5
393
330
128
100
AcDbEntity
  8
_1-0_
  6
Continuous
 62
     0
100
AcDbLine
 10
865.2312852636001
 20
615.9161486874999
 30
0.0
 11
869.4167172635999
 21
615.1781456874999
 31
0.0
  0
LINE
  5
394
330
128
100
AcDbEntity
  8
_1-0_
  6
Continuous
 62
     0
100
AcDbLine
 10
867.3563142636
 20
614.6781446874999
 30
0.0
 11
867.3563142636
 21
615.5414486874999
 31
0.0
  0
ARC
  5
395
330
128
100
AcDbEntity
  8
_1-0_
  6
Continuous
 62
     0
100
AcDbCircle
 10
868.3563162636
 20
614.6781446874999
 30
0.0
 40
0.999999
100
AcDbArc
 50
180.0
 51
270.0
  0
LINE
  5
396
330
128
100
AcDbEntity
  8
_1-0_
  6
Continuous
 62
     0
100
AcDbLine
 10
868.3563162636
 20
613.6781456875
 30
0.0
 11
875.3563152635999
 21
613.6781456875
 31
0.0
  0
LINE
  5
397
330
128
100
AcDbEntity
  8
_1-0_
  6
Continuous
 62
     0
100
AcDbLine
 10
867.1063152636
 20
626.5499726875
 30
0.0
 11
867.1063152636
 21
645.1781456874999
 31
0.0
  0
LINE
  5
398
330
128
100
AcDbEntity
  8
_1-0_
  6
Continuous
 62
     0
100
AcDbLine
 10
867.8063142636
 20
655.1781446875
 30
0.0
 11
867.8063142636
 21
645.8781446875
 31
0.0
  0
LINE
  5
399
330
128
100
AcDbEntity
  8
_1-0_
  6
Continuous
 62
     0
100
AcDbLine
 10
867.1063152636
 20
645.1781456874999
 30
0.0
 11
867.8063142636
 21
645.8781446875
 31
0.0
  0
LINE
  5
39A
330
128
100
AcDbEntity
  8
_1-0_
  6
Continuous
 62
     0
100
AcDbLine
 10
872.3563152636
 20
626.1781436875
 30
0.0
 11
871.3563162635999
 21
626.1781436875
 31
0.0
  0
LINE
  5
39B
330
128
100
AcDbEntity
  8
_1-0_
  6
Continuous
 62
     0
100
AcDbLine
 10
878.4813462636
 20
615.9161486874999
 30
0.0
 11
876.6063162635999
 21
626.5499726875
 31
0.0
  0
LINE
  5
39C
330
128
100
AcDbEntity
  8
_1-0_
  6
Continuous
 62
     0
100
AcDbLine
 10
876.3563142636
 20
614.6781446874999
 30
0.0
 11
876.3563142636
 21
615.5414486874999
 31
0.0
  0
LINE
  5
39D
330
128
100
AcDbEntity
  8
_1-0_
  6
Continuous
 62
     0
100
AcDbLine
 10
876.6063162635999
 20
626.5499726875
 30
0.0
 11
876.6063162635999
 21
645.1781456874999
 31
0.0
  0
LINE
  5
39E
330
128
100
AcDbEntity
  8
_1-0_
  6
Continuous
 62
     0
100
AcDbLine
 10
875.9063142636
 20
655.1781446875
 30
0.0
 11
875.9063142636
 21
645.8781446875
 31
0.0
  0
LINE
  5
39F
330
128
100
AcDbEntity
  8
_1-0_
  6
Continuous
 62
     0
100
AcDbLine
 10
876.6063162635999
 20
645.1781456874999
 30
0.0
 11
875.9063142636
 21
645.8781446875
 31
0.0
  0
LINE
  5
3A0
330
128
100
AcDbEntity
  8
_1-0_
  6
Continuous
 62
     0
100
AcDbLine
 10
871.8563142636
 20
608.7447446875
 30
0.0
 11
871.8563142636
 21
654.1781456875
 31
0.0
  0
LINE
  5
3A1
330
128
100
AcDbEntity
  8
_0-1_PRO0
  6
Continuous
 62
     0
100
AcDbLine
 10
872.1867942635999
 20
676.8950216875
 30
0.0
 11
898.9163850641999
 21
726.1374842003999
 31
0.0
  0
CIRCLE
  5
3A2
330
128
100
AcDbEntity
  8
_0-1_PRO0
  6
Continuous
 62
     0
100
AcDbCircle
 10
901.9163850642
 20
731.3336372003999
 30
0.0
 40
6.0
  0
CIRCLE
  5
3A3
330
128
100
AcDbEntity
  8
_0-1_PRO0
  6
Continuous
 62
     0
100
AcDbCircle
 10
918.2714721238001
 20
737.5858749678
 30
0.0
 40
6.0
  0
LINE
  5
3A4
330
128
100
AcDbEntity
  8
_0-1_PRO0
  6
Continuous
 62
     0
100
AcDbLine
 10
891.3610221238
 20
690.9756099677999
 30
0.0
 11
915.2714721238
 21
732.3897219678
 31
0.0
  0
CIRCLE
  5
3A5
330
128
100
AcDbEntity
  8
_0-1_PRO0
  6
Continuous
 62
     0
100
AcDbCircle
 10
891.3610221238
 20
690.9756099677999
 30
0.0
 40
0.9
  0
TEXT
  5
3A6
330
128
100
AcDbEntity
  8
_0-1_PRO0
  6
Continuous
 62
     0
100
AcDbText
 10
897.1024993896001
 20
726.2738499078999
 30
0.0
 40
9.0
  1
10
100
AcDbText
  0
TEXT
  5
3A7
330
128
100
AcDbEntity
  8
_0-1_PRO0
  6
Continuous
 62
     0
100
AcDbText
 10
913.6483174225999
 20
732.600192097
 30
0.0
 40
9.0
  1
５
100
AcDbText
  0
LINE
  5
3A8
330
128
100
AcDbEntity
  8
_0-1_PRO0
  6
Continuous
 62
     0
100
AcDbLine
 10
889.370205978
 20
658.9095376875
 30
0.0
 11
919.3687329780001
 21
710.8685116875
 31
0.0
  0
CIRCLE
  5
3A9
330
128
100
AcDbEntity
  8
_0-1_PRO0
  6
Continuous
 62
     0
100
AcDbCircle
 10
922.368732978
 20
716.0646616874999
 30
0.0
 40
6.0
  0
CIRCLE
  5
3AA
330
128
100
AcDbEntity
  8
_0-1_PRO0
  6
Continuous
 62
     0
100
AcDbCircle
 10
889.370205978
 20
658.9095376875
 30
0.0
 40
0.9
  0
LINE
  5
3AB
330
128
100
AcDbEntity
  8
_0-1_PRO0
  6
Continuous
 62
     0
100
AcDbLine
 10
876.516966978
 20
661.9204006874999
 30
0.0
 11
888.128517978
 21
641.8086016874999
 31
0.0
  0
CIRCLE
  5
3AC
330
128
100
AcDbEntity
  8
_0-1_PRO0
  6
Continuous
 62
     0
100
AcDbCircle
 10
891.128517978
 20
636.6124486874999
 30
0.0
 40
6.0
  0
CIRCLE
  5
3AD
330
128
100
AcDbEntity
  8
_0-1_PRO0
  6
Continuous
 62
     0
100
AcDbCircle
 10
876.516966978
 20
661.9204006874999
 30
0.0
 40
0.9
  0
LINE
  5
3AE
330
128
100
AcDbEntity
  8
_0-1_PRO0
  6
Continuous
 62
     0
100
AcDbLine
 10
867.334434978
 20
659.4567946874999
 30
0.0
 11
854.6884359779999
 21
637.5532816875
 31
0.0
  0
CIRCLE
  5
3AF
330
128
100
AcDbEntity
  8
_0-1_PRO0
  6
Continuous
 62
     0
100
AcDbCircle
 10
851.688435978
 20
632.3571316875
 30
0.0
 40
6.0
  0
CIRCLE
  5
3B0
330
128
100
AcDbEntity
  8
_0-1_PRO0
  6
Continuous
 62
     0
100
AcDbCircle
 10
867.334434978
 20
659.4567946874999
 30
0.0
 40
0.9
  0
CIRCLE
  5
3B1
330
128
100
AcDbEntity
  8
_0-1_PRO0
  6
Continuous
 62
     0
100
AcDbCircle
 10
861.2443817247999
 20
664.6919221812001
 30
0.0
 40
0.9
  0
CIRCLE
  5
3B2
330
128
100
AcDbEntity
  8
_0-1_PRO0
  6
Continuous
 62
     0
100
AcDbCircle
 10
839.9898407247999
 20
723.0882901811999
 30
0.0
 40
6.0
  0
LINE
  5
3B3
330
128
100
AcDbEntity
  8
_0-1_PRO0
  6
Continuous
 62
     0
100
AcDbLine
 10
861.2443817247999
 20
664.6919221812001
 30
0.0
 11
842.0419607248
 21
717.4501351811999
 31
0.0
  0
TEXT
  5
3B4
330
128
100
AcDbEntity
  8
_0-1_PRO0
  6
Continuous
 62
     0
100
AcDbText
 10
836.0487660935
 20
718.8056997661999
 30
0.0
 40
9.0
  1
６
100
AcDbText
  0
TEXT
  5
3B5
330
128
100
AcDbEntity
  8
_0-1_PRO0
  6
Continuous
 62
     0
100
AcDbText
 10
918.0478936981
 20
711.5060741633999
 30
0.0
 40
9.0
  1
２
100
AcDbText
  0
TEXT
  5
3B6
330
128
100
AcDbEntity
  8
_0-1_PRO0
  6
Continuous
 62
     0
100
AcDbText
 10
846.2682419374001
 20
628.0470214383
 30
0.0
 40
9.0
  1
13
100
AcDbText
  0
TEXT
  5
3B7
330
128
100
AcDbEntity
  8
_0-1_PRO0
  6
Continuous
 62
     0
100
AcDbText
 10
886.4161827527
 20
631.4535133862
 30
0.0
 40
9.0
  1
11
100
AcDbText
  0
LINE
  5
3B8
330
128
100
AcDbEntity
  8
_1-0_
  6
Continuous
 62
     0
100
AcDbLine
 10
867.0918825492
 20
670.7561086875
 30
0.0
 11
876.2792745491999
 21
670.2746176875
 31
0.0
  0
LINE
  5
3B9
330
128
100
AcDbEntity
  8
_2-0_
  6
Continuous
 62
     0
100
AcDbLine
 10
856.8739875491999
 20
654.7521681592
 30
0.0
 11
857.2999650775001
 21
655.1781456875
 31
0.0
  0
ARC
  5
3BA
330
128
100
AcDbEntity
  8
_2-0_
  6
Continuous
 62
     0
100
AcDbCircle
 10
856.8739875491999
 20
646.9281456874999
 30
0.0
 40
8.25
100
AcDbArc
 50
90.0
 51
108.9246444161
  0
ARC
  5
3BB
330
128
100
AcDbEntity
  8
_2-0_
  6
Continuous
 62
     0
100
AcDbCircle
 10
856.8739875491999
 20
646.9281456874999
 30
0.0
 40
9.25
100
AcDbArc
 50
90.0
 51
108.9246444161
  0
ARC
  5
3BC
330
128
100
AcDbEntity
  8
_2-0_
  6
Continuous
 62
     0
100
AcDbCircle
 10
850.8739875492
 20
664.4281456874999
 30
0.0
 40
9.25
100
AcDbArc
 50
-90.0
 51
-71.07535558394999
  0
LINE
  5
3BD
330
128
100
AcDbEntity
  8
_2-0_
  6
Continuous
 62
     0
100
AcDbLine
 10
857.7141786399
 20
654.1781456875
 30
0.0
 11
858.7141786399
 21
655.1781456875
 31
0.0
  0
LINE
  5
3BE
330
128
100
AcDbEntity
  8
_2-0_
  6
Continuous
 62
     0
100
AcDbLine
 10
859.1283922023
 20
654.1781456875
 30
0.0
 11
860.1283922023
 21
655.1781456875
 31
0.0
  0
LINE
  5
3BF
330
128
100
AcDbEntity
  8
_2-0_
  6
Continuous
 62
     0
100
AcDbLine
 10
860.5426057645999
 20
654.1781456875
 30
0.0
 11
861.5426057646001
 21
655.1781456875
 31
0.0
  0
LINE
  5
3C0
330
128
100
AcDbEntity
  8
_2-0_
  6
Continuous
 62
     0
100
AcDbLine
 10
861.956819327
 20
654.1781456875
 30
0.0
 11
862.9568193269999
 21
655.1781456875
 31
0.0
  0
LINE
  5
3C1
330
128
100
AcDbEntity
  8
_2-0_
  6
Continuous
 62
     0
100
AcDbLine
 10
863.3710328894
 20
654.1781456875
 30
0.0
 11
864.3710328894
 21
655.1781456875
 31
0.0
  0
LINE
  5
3C2
330
128
100
AcDbEntity
  8
_2-0_
  6
Continuous
 62
     0
100
AcDbLine
 10
864.7852464517999
 20
654.1781456875
 30
0.0
 11
865.7852464517999
 21
655.1781456875
 31
0.0
  0
LINE
  5
3C3
330
128
100
AcDbEntity
  8
_2-0_
  6
Continuous
 62
     0
100
AcDbLine
 10
866.1994600140999
 20
654.1781456875
 30
0.0
 11
867.1994600141001
 21
655.1781456875
 31
0.0
  0
LINE
  5
3C4
330
128
100
AcDbEntity
  8
_2-0_
  6
Continuous
 62
     0
100
AcDbLine
 10
867.6136735765
 20
654.1781456875
 30
0.0
 11
868.6136735765
 21
655.1781456875
 31
0.0
  0
LINE
  5
3C5
330
128
100
AcDbEntity
  8
_2-0_
  6
Continuous
 62
     0
100
AcDbLine
 10
869.0278871389001
 20
654.1781456875
 30
0.0
 11
870.0278871389
 21
655.1781456875
 31
0.0
  0
LINE
  5
3C6
330
128
100
AcDbEntity
  8
_2-0_
  6
Continuous
 62
     0
100
AcDbLine
 10
870.4421007013001
 20
654.1781456875
 30
0.0
 11
871.4421007013001
 21
655.1781456875
 31
0.0
  0
LINE
  5
3C7
330
128
100
AcDbEntity
  8
_2-0_
  6
Continuous
 62
     0
100
AcDbLine
 10
871.8563142636
 20
654.1781456875
 30
0.0
 11
872.8563142636
 21
655.1781456875
 31
0.0
  0
LINE
  5
3C8
330
128
100
AcDbEntity
  8
_2-0_
  6
Continuous
 62
     0
100
AcDbLine
 10
873.270527826
 20
654.1781456875
 30
0.0
 11
874.270527826
 21
655.1781456875
 31
0.0
  0
LINE
  5
3C9
330
128
100
AcDbEntity
  8
_2-0_
  6
Continuous
 62
     0
100
AcDbLine
 10
874.6847413883999
 20
654.1781456875
 30
0.0
 11
875.6847413883999
 21
655.1781456875
 31
0.0
  0
LINE
  5
3CA
330
128
100
AcDbEntity
  8
_2-0_
  6
Continuous
 62
     0
100
AcDbLine
 10
876.0989549508
 20
654.1781456875
 30
0.0
 11
877.0989549508
 21
655.1781456875
 31
0.0
  0
LINE
  5
3CB
330
128
100
AcDbEntity
  8
_2-0_
  6
Continuous
 62
     0
100
AcDbLine
 10
877.5131685131
 20
654.1781456875
 30
0.0
 11
878.5131685131
 21
655.1781456875
 31
0.0
  0
LINE
  5
3CC
330
128
100
AcDbEntity
  8
_2-0_
  6
Continuous
 62
     0
100
AcDbLine
 10
878.9273820755001
 20
654.1781456875
 30
0.0
 11
879.9273820755001
 21
655.1781456875
 31
0.0
  0
LINE
  5
3CD
330
128
100
AcDbEntity
  8
_2-0_
  6
Continuous
 62
     0
100
AcDbLine
 10
880.3415956378998
 20
654.1781456875
 30
0.0
 11
881.3415956378999
 21
655.1781456875
 31
0.0
  0
LINE
  5
3CE
330
128
100
AcDbEntity
  8
_2-0_
  6
Continuous
 62
     0
100
AcDbLine
 10
881.7558092002
 20
654.1781456875
 30
0.0
 11
882.7558092002
 21
655.1781456875
 31
0.0
  0
LINE
  5
3CF
330
128
100
AcDbEntity
  8
_2-0_
  6
Continuous
 62
     0
100
AcDbLine
 10
883.1700227625999
 20
654.1781456875
 30
0.0
 11
884.1700227625999
 21
655.1781456875
 31
0.0
  0
LINE
  5
3D0
330
128
100
AcDbEntity
  8
_2-0_
  6
Continuous
 62
     0
100
AcDbLine
 10
884.584236325
 20
654.1781456875
 30
0.0
 11
885.5842363249999
 21
655.1781456875
 31
0.0
  0
LINE
  5
3D1
330
128
100
AcDbEntity
  8
_2-0_
  6
Continuous
 62
     0
100
AcDbLine
 10
885.9984498874
 20
654.1781456875
 30
0.0
 11
886.8739875492
 21
655.0536833493
 31
0.0
  0
LINE
  5
3D2
330
128
100
AcDbEntity
  8
_2-0_
  6
Continuous
 62
     0
100
AcDbLine
 10
886.8739875492
 20
654.1781456875
 30
0.0
 11
856.8739875491999
 21
654.1781456875
 31
0.0
  0
LINE
  5
3D3
330
128
100
AcDbEntity
  8
_2-0_
  6
Continuous
 62
     0
100
AcDbLine
 10
856.8739875491999
 20
654.1781456875
 30
0.0
 11
856.8739875491999
 21
655.1781456875
 31
0.0
  0
LINE
  5
3D4
330
128
100
AcDbEntity
  8
_2-0_
  6
Continuous
 62
     0
100
AcDbLine
 10
856.8739875491999
 20
655.1781456875
 30
0.0
 11
886.8739875492
 21
655.1781456875
 31
0.0
  0
LINE
  5
3D5
330
128
100
AcDbEntity
  8
_2-0_
  6
Continuous
 62
     0
100
AcDbLine
 10
886.8739875492
 20
655.1781456875
 30
0.0
 11
886.8739875492
 21
654.1781456875
 31
0.0
  0
ARC
  5
3D6
330
128
100
AcDbEntity
  8
_2-0_
  6
Continuous
 62
     0
100
AcDbCircle
 10
850.8739875492
 20
664.4281456874999
 30
0.0
 40
10.25
100
AcDbArc
 50
-90.0
 51
-71.07535558394999
  0
LINE
  5
3D7
330
128
100
AcDbEntity
  8
_1-0_
  6
Continuous
 62
     0
100
AcDbLine
 10
880.8739875491999
 20
660.2869156875
 30
0.0
 11
880.8739875491999
 21
658.6869166875
 31
0.0
  0
LINE
  5
3D8
330
128
100
AcDbEntity
  8
_1-0_
  6
Continuous
 62
     0
100
AcDbLine
 10
880.8739875491999
 20
660.2869156875
 30
0.0
 11
862.8739875492
 21
660.2869156875
 31
0.0
  0
LINE
  5
3D9
330
128
100
AcDbEntity
  8
_1-0_
  6
Continuous
 62
     0
100
AcDbLine
 10
862.8739875492
 20
660.2869156875
 30
0.0
 11
862.8739875492
 21
658.6869166875
 31
0.0
  0
LINE
  5
3DA
330
128
100
AcDbEntity
  8
_1-0_
  6
Continuous
 62
     0
100
AcDbLine
 10
865.9939875492
 20
664.5499786874999
 30
0.0
 11
865.9939875492
 21
660.2869156875
 31
0.0
  0
LINE
  5
3DB
330
128
100
AcDbEntity
  8
_1-0_
  6
Continuous
 62
     0
100
AcDbLine
 10
866.9239875491999
 20
665.0869156875
 30
0.0
 11
865.9939875492
 21
664.5499786874999
 31
0.0
  0
ARC
  5
3DC
330
128
100
AcDbEntity
  8
_1-0_
  6
Continuous
 62
     0
100
AcDbCircle
 10
866.9239875491999
 20
661.2775216874999
 30
0.0
 40
3.809394
100
AcDbArc
 50
59.21003599999999
 51
90.0
  0
ARC
  5
3DD
330
128
100
AcDbEntity
  8
_1-0_
  6
Continuous
 62
     0
100
AcDbCircle
 10
871.8739875492
 20
656.4375556874999
 30
0.0
 40
8.649359999999999
100
AcDbArc
 50
69.70544499999999
 51
110.294555
  0
LINE
  5
3DE
330
128
100
AcDbEntity
  8
_1-0_
  6
Continuous
 62
     0
100
AcDbLine
 10
868.8739875492
 20
664.5499786874999
 30
0.0
 11
868.8739875492
 21
660.2869156875
 31
0.0
  0
LINE
  5
3DF
330
128
100
AcDbEntity
  8
_1-0_
  6
Continuous
 62
     0
100
AcDbLine
 10
874.8739875492001
 20
664.5499786874999
 30
0.0
 11
874.8739875492001
 21
660.2869156875
 31
0.0
  0
LINE
  5
3E0
330
128
100
AcDbEntity
  8
_1-0_
  6
Continuous
 62
     0
100
AcDbLine
 10
877.7539875491999
 20
664.5499786874999
 30
0.0
 11
877.7539875491999
 21
660.2869156875
 31
0.0
  0
LINE
  5
3E1
330
128
100
AcDbEntity
  8
_1-0_
  6
Continuous
 62
     0
100
AcDbLine
 10
876.8239875492
 20
665.0869156875
 30
0.0
 11
877.7539875491999
 21
664.5499786874999
 31
0.0
  0
LINE
  5
3E2
330
128
100
AcDbEntity
  8
_1-0_
  6
Continuous
 62
     0
100
AcDbLine
 10
866.9239875491999
 20
665.0869156875
 30
0.0
 11
876.8239875492
 21
665.0869156875
 31
0.0
  0
ARC
  5
3E3
330
128
100
AcDbEntity
  8
_1-0_
  6
Continuous
 62
     0
100
AcDbCircle
 10
876.8239875492
 20
661.2775216874999
 30
0.0
 40
3.809394
100
AcDbArc
 50
90.0
 51
120.789964
  0
LINE
  5
3E4
330
128
100
AcDbEntity
  8
_1-0_
  6
Continuous
 62
     0
100
AcDbLine
 10
867.1442175492
 20
671.7547396875
 30
0.0
 11
867.0918825492
 21
670.7561086875
 31
0.0
  0
LINE
  5
3E5
330
128
100
AcDbEntity
  8
_1-0_
  6
Continuous
 62
     0
100
AcDbLine
 10
876.3316095491999
 20
671.2732486874999
 30
0.0
 11
876.2792745491999
 21
670.2746176875
 31
0.0
  0
ARC
  5
3E6
330
128
100
AcDbEntity
  8
_1-0_
  6
Continuous
 62
     0
100
AcDbCircle
 10
866.1455895491998
 20
671.8070746875
 30
0.0
 40
0.999999
100
AcDbArc
 50
-3.000000000005
 51
86.99999999999
  0
ARC
  5
3E7
330
128
100
AcDbEntity
  8
_1-0_
  6
Continuous
 62
     0
100
AcDbCircle
 10
877.3302405492
 20
671.2209106875
 30
0.0
 40
0.999999
100
AcDbArc
 50
86.99999999999
 51
177.0
  0
ARC
  5
3E8
330
128
100
AcDbEntity
  8
_1-0_
  6
Continuous
 62
     0
100
AcDbCircle
 10
859.8739875492
 20
665.6869156875
 30
0.0
 40
0.999999
100
AcDbArc
 50
-90.0
 51
0.0
  0
LINE
  5
3E9
330
128
100
AcDbEntity
  8
_1-0_
  6
Continuous
 62
     0
100
AcDbLine
 10
859.8739875492
 20
664.6869166874999
 30
0.0
 11
855.6739875491999
 21
664.6869166874999
 31
0.0
  0
ARC
  5
3EA
330
128
100
AcDbEntity
  8
_1-0_
  6
Continuous
 62
     0
100
AcDbCircle
 10
863.4739875492
 20
671.9470876875
 30
0.0
 40
0.999999
100
AcDbArc
 50
86.99999999999
 51
180.0
  0
LINE
  5
3EB
330
128
100
AcDbEntity
  8
_1-0_
  6
Continuous
 62
     0
100
AcDbLine
 10
880.3263225491999
 20
672.0652666874999
 30
0.0
 11
863.5263225492
 21
672.9457156875
 31
0.0
  0
ARC
  5
3EC
330
128
100
AcDbEntity
  8
_1-0_
  6
Continuous
 62
     0
100
AcDbCircle
 10
880.2739875491999
 20
671.0666356875
 30
0.0
 40
0.999999
100
AcDbArc
 50
0.0
 51
86.99999999999
  0
LINE
  5
3ED
330
128
100
AcDbEntity
  8
_1-0_
  6
Continuous
 62
     0
100
AcDbLine
 10
883.8739875492001
 20
664.6869166874999
 30
0.0
 11
888.0739875491999
 21
664.6869166874999
 31
0.0
  0
ARC
  5
3EE
330
128
100
AcDbEntity
  8
_1-0_
  6
Continuous
 62
     0
100
AcDbCircle
 10
883.8739875492001
 20
665.6869156875
 30
0.0
 40
0.999999
100
AcDbArc
 50
180.0
 51
270.0
  0
LINE
  5
3EF
330
128
100
AcDbEntity
  8
_1-0_
  6
Continuous
 62
     0
100
AcDbLine
 10
862.4739885491999
 20
665.6869156875
 30
0.0
 11
862.4739885491999
 21
671.9470876875
 31
0.0
  0
ARC
  5
3F0
330
128
100
AcDbEntity
  8
_1-0_
  6
Continuous
 62
     0
100
AcDbCircle
 10
859.8739875492
 20
665.6869156875
 30
0.0
 40
2.600000999999999
100
AcDbArc
 50
-90.0
 51
0.0
  0
LINE
  5
3F1
330
128
100
AcDbEntity
  8
_1-0_
  6
Continuous
 62
     0
100
AcDbLine
 10
859.8739875492
 20
663.0869146874999
 30
0.0
 11
855.3739875492
 21
663.0869146874999
 31
0.0
  0
LINE
  5
3F2
330
128
100
AcDbEntity
  8
_1-0_
  6
Continuous
 62
     0
100
AcDbLine
 10
860.8739865491999
 20
671.9470876875
 30
0.0
 11
860.8739865491999
 21
665.6869156875
 31
0.0
  0
ARC
  5
3F3
330
128
100
AcDbEntity
  8
_1-0_
  6
Continuous
 62
     0
100
AcDbCircle
 10
863.4739875492
 20
671.9470876875
 30
0.0
 40
2.600000999999999
100
AcDbArc
 50
87.0
 51
180.0
  0
LINE
  5
3F4
330
128
100
AcDbEntity
  8
_1-0_
  6
Continuous
 62
     0
100
AcDbLine
 10
882.8739885492
 20
671.0666356875
 30
0.0
 11
882.8739885492
 21
665.6869156875
 31
0.0
  0
ARC
  5
3F5
330
128
100
AcDbEntity
  8
_1-0_
  6
Continuous
 62
     0
100
AcDbCircle
 10
880.2739875491999
 20
671.0666356875
 30
0.0
 40
2.600000999999999
100
AcDbArc
 50
0.0
 51
87.0
  0
LINE
  5
3F6
330
128
100
AcDbEntity
  8
_1-0_
  6
Continuous
 62
     0
100
AcDbLine
 10
880.4100615492
 20
673.6630726874999
 30
0.0
 11
863.6100615491999
 21
674.5435246875
 31
0.0
  0
LINE
  5
3F7
330
128
100
AcDbEntity
  8
_1-0_
  6
Continuous
 62
     0
100
AcDbLine
 10
881.2739865492
 20
665.6869156875
 30
0.0
 11
881.2739865492
 21
671.0666356875
 31
0.0
  0
ARC
  5
3F8
330
128
100
AcDbEntity
  8
_1-0_
  6
Continuous
 62
     0
100
AcDbCircle
 10
883.8739875492001
 20
665.6869156875
 30
0.0
 40
2.600000999999999
100
AcDbArc
 50
180.0
 51
270.0
  0
LINE
  5
3F9
330
128
100
AcDbEntity
  8
_1-0_
  6
Continuous
 62
     0
100
AcDbLine
 10
883.8739875492001
 20
663.0869146874999
 30
0.0
 11
888.3739875492
 21
663.0869146874999
 31
0.0
  0
LINE
  5
3FA
330
128
100
AcDbEntity
  8
_1-0_
  6
Continuous
 62
     0
100
AcDbLine
 10
888.0739875491999
 20
662.1869146875
 30
0.0
 11
886.1239875492
 21
662.1869146875
 31
0.0
  0
ARC
  5
3FB
330
128
100
AcDbEntity
  8
_1-0_
  6
Continuous
 62
     0
100
AcDbCircle
 10
888.0739875491999
 20
662.4869146874999
 30
0.0
 40
0.3
100
AcDbArc
 50
-90.0
 51
0.0
  0
ARC
  5
3FC
330
128
100
AcDbEntity
  8
_1-0_
  6
Continuous
 62
     0
100
AcDbCircle
 10
888.0739875491999
 20
664.3869166875
 30
0.0
 40
0.3
100
AcDbArc
 50
0.0
 51
90.0
  0
LINE
  5
3FD
330
128
100
AcDbEntity
  8
_1-0_
  6
Continuous
 62
     0
100
AcDbLine
 10
871.3739865492
 20
658.6869166875
 30
0.0
 11
871.8739875492
 21
658.1869156875
 31
0.0
  0
LINE
  5
3FE
330
128
100
AcDbEntity
  8
_1-0_
  6
Continuous
 62
     0
100
AcDbLine
 10
872.3739885491999
 20
658.6869166875
 30
0.0
 11
871.8739875492
 21
658.1869156875
 31
0.0
  0
LINE
  5
3FF
330
128
100
AcDbEntity
  8
_1-0_
  6
Continuous
 62
     0
100
AcDbLine
 10
866.8739865492
 20
656.6869156875
 30
0.0
 11
866.8739865492
 21
656.1869146874999
 31
0.0
  0
LINE
  5
400
330
128
100
AcDbEntity
  8
_1-0_
  6
Continuous
 62
     0
100
AcDbLine
 10
887.8739865492001
 20
666.1869166875
 30
0.0
 11
885.1239885492001
 21
666.1869166875
 31
0.0
  0
ARC
  5
401
330
128
100
AcDbEntity
  8
_1-0_
  6
Continuous
 62
     0
100
AcDbCircle
 10
887.8739865492001
 20
666.6869146875
 30
0.0
 40
0.5000010000000001
100
AcDbArc
 50
-90.0
 51
0.0
  0
ARC
  5
402
330
128
100
AcDbEntity
  8
_1-0_
  6
Continuous
 62
     0
100
AcDbCircle
 10
885.1239885492001
 20
665.4369166875
 30
0.0
 40
0.75
100
AcDbArc
 50
90.0
 51
270.0
  0
LINE
  5
403
330
128
100
AcDbEntity
  8
_1-0_
  6
Continuous
 62
     0
100
AcDbLine
 10
876.8739885491999
 20
656.6869156875
 30
0.0
 11
888.3739875492
 21
656.6869156875
 31
0.0
  0
LINE
  5
404
330
128
100
AcDbEntity
  8
_1-0_
  6
Continuous
 62
     0
100
AcDbLine
 10
876.8739885491999
 20
656.6869156875
 30
0.0
 11
876.8739885491999
 21
656.1869146874999
 31
0.0
  0
ARC
  5
405
330
128
100
AcDbEntity
  8
_1-0_
  6
Continuous
 62
     0
100
AcDbCircle
 10
886.1239875492
 20
661.4369146875
 30
0.0
 40
0.75
100
AcDbArc
 50
90.0
 51
270.0
  0
LINE
  5
406
330
128
100
AcDbEntity
  8
_1-0_
  6
Continuous
 62
     0
100
AcDbLine
 10
888.0739875491999
 20
660.6869146874999
 30
0.0
 11
886.1239875492
 21
660.6869146874999
 31
0.0
  0
ARC
  5
407
330
128
100
AcDbEntity
  8
_1-0_
  6
Continuous
 62
     0
100
AcDbCircle
 10
888.0739875491999
 20
660.3869146875
 30
0.0
 40
0.3
100
AcDbArc
 50
0.0
 51
90.0
  0
LINE
  5
408
330
128
100
AcDbEntity
  8
_1-0_
  6
Continuous
 62
     0
100
AcDbLine
 10
855.3739875492
 20
656.6869156875
 30
0.0
 11
866.8739865492
 21
656.6869156875
 31
0.0
  0
LINE
  5
409
330
128
100
AcDbEntity
  8
_1-0_
  6
Continuous
 62
     0
100
AcDbLine
 10
855.6739875491999
 20
662.1869146875
 30
0.0
 11
857.6239875491999
 21
662.1869146875
 31
0.0
  0
ARC
  5
40A
330
128
100
AcDbEntity
  8
_1-0_
  6
Continuous
 62
     0
100
AcDbCircle
 10
855.6739875491999
 20
662.4869146874999
 30
0.0
 40
0.3
100
AcDbArc
 50
180.0
 51
270.0
  0
LINE
  5
40B
330
128
100
AcDbEntity
  8
_1-0_
  6
Continuous
 62
     0
100
AcDbLine
 10
855.3739875492
 20
662.4869146874999
 30
0.0
 11
855.3739875492
 21
664.3869166875
 31
0.0
  0
ARC
  5
40C
330
128
100
AcDbEntity
  8
_1-0_
  6
Continuous
 62
     0
100
AcDbCircle
 10
855.6739875491999
 20
664.3869166875
 30
0.0
 40
0.3
100
AcDbArc
 50
90.0
 51
180.0
  0
LINE
  5
40D
330
128
100
AcDbEntity
  8
_1-0_
  6
Continuous
 62
     0
100
AcDbLine
 10
854.3739885492
 20
666.1869166875
 30
0.0
 11
858.6239865492
 21
666.1869166875
 31
0.0
  0
ARC
  5
40E
330
128
100
AcDbEntity
  8
_1-0_
  6
Continuous
 62
     0
100
AcDbCircle
 10
854.3739885492
 20
665.6869156875
 30
0.0
 40
0.5000010000000001
100
AcDbArc
 50
90.0
 51
180.0
  0
ARC
  5
40F
330
128
100
AcDbEntity
  8
_1-0_
  6
Continuous
 62
     0
100
AcDbCircle
 10
858.6239865492
 20
665.4369166875
 30
0.0
 40
0.75
100
AcDbArc
 50
-90.0
 51
90.0
  0
LINE
  5
410
330
128
100
AcDbEntity
  8
_1-0_
  6
Continuous
 62
     0
100
AcDbLine
 10
853.8739875492
 20
665.6869156875
 30
0.0
 11
853.8739875492
 21
656.1869146874999
 31
0.0
  0
LINE
  5
411
330
128
100
AcDbEntity
  8
_1-0_
  6
Continuous
 62
     0
100
AcDbLine
 10
855.3739875492
 20
656.6869156875
 30
0.0
 11
855.3739875492
 21
656.1869146874999
 31
0.0
  0
ARC
  5
412
330
128
100
AcDbEntity
  8
_1-0_
  6
Continuous
 62
     0
100
AcDbCircle
 10
857.6239875491999
 20
661.4369146875
 30
0.0
 40
0.75
100
AcDbArc
 50
-90.0
 51
90.0
  0
ARC
  5
413
330
128
100
AcDbEntity
  8
_1-0_
  6
Continuous
 62
     0
100
AcDbCircle
 10
855.6739875491999
 20
658.9869166874999
 30
0.0
 40
0.3
100
AcDbArc
 50
180.0
 51
270.0
  0
LINE
  5
414
330
128
100
AcDbEntity
  8
_1-0_
  6
Continuous
 62
     0
100
AcDbLine
 10
855.3739875492
 20
658.9869166874999
 30
0.0
 11
855.3739875492
 21
660.3869146875
 31
0.0
  0
ARC
  5
415
330
128
100
AcDbEntity
  8
_1-0_
  6
Continuous
 62
     0
100
AcDbCircle
 10
855.6739875491999
 20
660.3869146875
 30
0.0
 40
0.3
100
AcDbArc
 50
90.0
 51
180.0
  0
LINE
  5
416
330
128
100
AcDbEntity
  8
_1-0_
  6
Continuous
 62
     0
100
AcDbLine
 10
855.6739875491999
 20
660.6869146874999
 30
0.0
 11
857.6239875491999
 21
660.6869146874999
 31
0.0
  0
ARC
  5
417
330
128
100
AcDbEntity
  8
_1-0_
  6
Continuous
 62
     0
100
AcDbCircle
 10
887.8739865492001
 20
659.1869146875
 30
0.0
 40
0.5000010000000001
100
AcDbArc
 50
-90.0
 51
0.0
  0
LINE
  5
418
330
128
100
AcDbEntity
  8
_1-0_
  6
Continuous
 62
     0
100
AcDbLine
 10
887.8739865492001
 20
658.6869166875
 30
0.0
 11
855.6739875491999
 21
658.6869166875
 31
0.0
  0
LINE
  5
419
330
128
100
AcDbEntity
  8
_2-0_
  6
Continuous
 62
     0
100
AcDbLine
 10
855.3739875492
 20
656.1869146874999
 30
0.0
 11
853.8739875492
 21
656.1869146874999
 31
0.0
  0
ARC
  5
41A
330
128
100
AcDbEntity
  8
_0-0_
  6
Continuous
 62
     0
100
AcDbCircle
 10
889.3739865491999
 20
674.1869146875
 30
0.0
 40
0.999999
100
AcDbArc
 50
0.0
 51
180.0
  0
LINE
  5
41B
330
128
100
AcDbEntity
  8
_0-0_
  6
Continuous
 62
     0
100
AcDbLine
 10
888.3739875492
 20
666.6869146875
 30
0.0
 11
888.3739875492
 21
674.1869146875
 31
0.0
  0
LINE
  5
41C
330
128
100
AcDbEntity
  8
_0-0_
  6
Continuous
 62
     0
100
AcDbLine
 10
888.3739875492
 20
662.4869146874999
 30
0.0
 11
888.3739875492
 21
664.3869166875
 31
0.0
  0
ARC
  5
41D
330
128
100
AcDbEntity
  8
_0-0_
  6
Continuous
 62
     0
100
AcDbCircle
 10
890.8739865492
 20
659.1869146875
 30
0.0
 40
0.5000010000000001
100
AcDbArc
 50
180.0
 51
270.0
  0
LINE
  5
41E
330
128
100
AcDbEntity
  8
_0-0_
  6
Continuous
 62
     0
100
AcDbLine
 10
890.3739885491999
 20
657.1869166875
 30
0.0
 11
890.3739885491999
 21
656.1869146874999
 31
0.0
  0
LINE
  5
41F
330
128
100
AcDbEntity
  8
_0-0_
  6
Continuous
 62
     0
100
AcDbLine
 10
888.3739875492
 20
656.6869156875
 30
0.0
 11
888.3739875492
 21
656.1869146874999
 31
0.0
  0
LINE
  5
420
330
128
100
AcDbEntity
  8
_0-0_
  6
Continuous
 62
     0
100
AcDbLine
 10
888.3739875492
 20
659.1869146875
 30
0.0
 11
888.3739875492
 21
660.3869146875
 31
0.0
  0
LINE
  5
421
330
128
100
AcDbEntity
  8
_0-0_
  6
Continuous
 62
     0
100
AcDbLine
 10
900.8739885491999
 20
657.1869166875
 30
0.0
 11
900.8739885491999
 21
656.1869146874999
 31
0.0
  0
LINE
  5
422
330
128
100
AcDbEntity
  8
_0-0_
  6
Continuous
 62
     0
100
AcDbLine
 10
902.3739885492
 20
656.1869146874999
 30
0.0
 11
900.8739885491999
 21
656.1869146874999
 31
0.0
  0
LINE
  5
423
330
128
100
AcDbEntity
  8
_0-0_
  6
Continuous
 62
     0
100
AcDbLine
 10
890.3739885491999
 20
656.1869146874999
 30
0.0
 11
888.3739875492
 21
656.1869146874999
 31
0.0
  0
LINE
  5
424
330
128
100
AcDbEntity
  8
_0-0_
  6
Continuous
 62
     0
100
AcDbLine
 10
902.3739885492
 20
658.1869166875
 30
0.0
 11
902.3739885492
 21
656.1869146874999
 31
0.0
  0
ARC
  5
425
330
128
100
AcDbEntity
  8
_0-0_
  6
Continuous
 62
     0
100
AcDbCircle
 10
901.8739885491999
 20
658.1869166875
 30
0.0
 40
0.5
100
AcDbArc
 50
0.0
 51
90.0
  0
LINE
  5
426
330
128
100
AcDbEntity
  8
_0-0_
  6
Continuous
 62
     0
100
AcDbLine
 10
890.6239885492
 20
661.9369166874999
 30
0.0
 11
891.8739885493
 21
661.9369166874999
 31
0.0
  0
LINE
  5
427
330
128
100
AcDbEntity
  8
_0-0_
  6
Continuous
 62
     0
100
AcDbLine
 10
894.8739885492999
 20
661.9369166874999
 30
0.0
 11
896.1239885492
 21
661.9369166874999
 31
0.0
  0
ARC
  5
428
330
128
100
AcDbEntity
  8
_0-0_
  6
Continuous
 62
     0
100
AcDbCircle
 10
916.8739885493
 20
680.8564725474
 30
0.0
 40
25.0
100
AcDbArc
 50
78.59045565079
 51
180.0
  0
ARC
  5
429
330
128
100
AcDbEntity
  8
_0-0_
  6
Continuous
 62
     0
100
AcDbCircle
 10
917.9499341432999
 20
681.5881040454
 30
0.0
 40
23.08754100601
100
AcDbArc
 50
80.80133910481
 51
181.8159758207
  0
LINE
  5
42A
330
128
100
AcDbEntity
  8
_0-0_
  6
Continuous
 62
     0
100
AcDbLine
 10
891.8739885493
 20
661.9369166874999
 30
0.0
 11
891.8739885493
 21
680.8564725474
 31
0.0
  0
LINE
  5
42B
330
128
100
AcDbEntity
  8
_0-0_
  6
Continuous
 62
     0
100
AcDbLine
 10
894.8739885492999
 20
661.9369166874999
 30
0.0
 11
894.8739885492999
 21
682.3197355433999
 31
0.0
  0
LINE
  5
42C
330
128
100
AcDbEntity
  8
_0-0_
  6
Continuous
 62
     0
100
AcDbLine
 10
890.3739885491999
 20
657.1869166875
 30
0.0
 11
897.8799374231
 21
657.1869166875
 31
0.0
  0
LINE
  5
42D
330
128
100
AcDbEntity
  8
_0-0_
  6
Continuous
 62
     0
100
AcDbLine
 10
897.8799374231
 20
657.1869166875
 30
0.0
 11
900.8739885491999
 21
657.1869166875
 31
0.0
  0
LINE
  5
42E
330
128
100
AcDbEntity
  8
_0-0_
  6
Continuous
 62
     0
100
AcDbLine
 10
895.8739885492001
 20
658.6869166875
 30
0.0
 11
890.8739865492
 21
658.6869166875
 31
0.0
  0
LINE
  5
42F
330
128
100
AcDbEntity
  8
_0-0_
  6
Continuous
 62
     0
100
AcDbLine
 10
901.8739885491999
 20
658.6869166875
 30
0.0
 11
897.8739885492
 21
658.6869166875
 31
0.0
  0
ARC
  5
430
330
128
100
AcDbEntity
  8
_0-0_
  6
Continuous
 62
     0
100
AcDbCircle
 10
895.8739885492001
 20
659.1869166875
 30
0.0
 40
0.25
100
AcDbArc
 50
-90.0
 51
0.0
  0
ARC
  5
431
330
128
100
AcDbEntity
  8
_0-0_
  6
Continuous
 62
     0
100
AcDbCircle
 10
890.8739865492
 20
659.1869146875
 30
0.0
 40
0.250001
100
AcDbArc
 50
180.0
 51
270.0
  0
LINE
  5
432
330
128
100
AcDbEntity
  8
_0-0_
  6
Continuous
 62
     0
100
AcDbLine
 10
896.1239885492
 20
659.1869166875
 30
0.0
 11
896.1239885492
 21
661.9369166874999
 31
0.0
  0
LINE
  5
433
330
128
100
AcDbEntity
  8
_0-0_
  6
Continuous
 62
     0
100
AcDbLine
 10
890.6239885492
 20
659.1869146875
 30
0.0
 11
890.6239885492
 21
661.9369166874999
 31
0.0
  0
LINE
  5
434
330
128
100
AcDbEntity
  8
_0-0_
  6
Continuous
 62
     0
100
AcDbLine
 10
895.8739885492001
 20
658.9369166875
 30
0.0
 11
890.8739865492
 21
658.9369166875
 31
0.0
  0
LINE
  5
435
330
128
100
AcDbEntity
  8
_0-0_
  6
Continuous
 62
     0
100
AcDbLine
 10
890.3739885491999
 20
674.1869146875
 30
0.0
 11
890.3739885491999
 21
663.6869166874999
 31
0.0
  0
LINE
  5
436
330
128
100
AcDbEntity
  8
_0-0_
  6
Continuous
 62
     0
100
AcDbLine
 10
890.3739885491999
 20
662.1869166875
 30
0.0
 11
890.3739885491999
 21
659.1869146875
 31
0.0
  0
LINE
  5
437
330
128
100
AcDbEntity
  8
_0-0_
  6
Continuous
 62
     0
100
AcDbLine
 10
896.3739885492
 20
659.1869166875
 30
0.0
 11
896.3739885492
 21
662.1869166875
 31
0.0
  0
LINE
  5
438
330
128
100
AcDbEntity
  8
_0-0_
  6
Continuous
 62
     0
100
AcDbLine
 10
897.8739885492
 20
663.1869166875
 30
0.0
 11
897.8739885492
 21
658.6869166875
 31
0.0
  0
ARC
  5
439
330
128
100
AcDbEntity
  8
_0-0_
  6
Continuous
 62
     0
100
AcDbCircle
 10
897.3739885491999
 20
663.1869166875
 30
0.0
 40
0.5
100
AcDbArc
 50
0.0
 51
90.0
  0
ARC
  5
43A
330
128
100
AcDbEntity
  8
_0-0_
  6
Continuous
 62
     0
100
AcDbCircle
 10
895.8739885492001
 20
659.1869166875
 30
0.0
 40
0.5
100
AcDbArc
 50
-90.0
 51
0.0
  0
LINE
  5
43B
330
128
100
AcDbEntity
  8
_0-0_
  6
Continuous
 62
     0
100
AcDbLine
 10
897.3739885491999
 20
663.6869166874999
 30
0.0
 11
896.1239885492
 21
663.6869166874999
 31
0.0
  0
ARC
  5
43C
330
128
100
AcDbEntity
  8
_0-0_
  6
Continuous
 62
     0
100
AcDbCircle
 10
896.1239885492
 20
662.6869166875
 30
0.0
 40
1.0
100
AcDbArc
 50
90.0
 51
180.0
  0
LINE
  5
43D
330
128
100
AcDbEntity
  8
_0-0_
  6
Continuous
 62
     0
100
AcDbLine
 10
895.1239885492
 20
662.6869166875
 30
0.0
 11
895.1239885492
 21
662.1869166875
 31
0.0
  0
LINE
  5
43E
330
128
100
AcDbEntity
  8
_0-0_
  6
Continuous
 62
     0
100
AcDbLine
 10
895.1239885492
 20
662.1869166875
 30
0.0
 11
896.3739885492
 21
662.1869166875
 31
0.0
  0
LINE
  5
43F
330
128
100
AcDbEntity
  8
_0-0_
  6
Continuous
 62
     0
100
AcDbLine
 10
890.3739885491999
 20
662.1869166875
 30
0.0
 11
891.6239885492
 21
662.1869166875
 31
0.0
  0
LINE
  5
440
330
128
100
AcDbEntity
  8
_0-0_
  6
Continuous
 62
     0
100
AcDbLine
 10
891.6239885492
 20
662.6869166875
 30
0.0
 11
891.6239885492
 21
662.1869166875
 31
0.0
  0
ARC
  5
441
330
128
100
AcDbEntity
  8
_0-0_
  6
Continuous
 62
     0
100
AcDbCircle
 10
890.6239885492
 20
662.6869166875
 30
0.0
 40
1.0
100
AcDbArc
 50
0.0
 51
90.0
  0
LINE
  5
442
330
128
100
AcDbEntity
  8
_0-0_
  6
Continuous
 62
     0
100
AcDbLine
 10
890.6239885492
 20
663.6869166874999
 30
0.0
 11
890.3739885491999
 21
663.6869166874999
 31
0.0
  0
LINE
  5
443
330
128
100
AcDbEntity
  8
_2-0_
  6
Continuous
 62
     0
100
AcDbLine
 10
856.8739875491999
 20
656.1781456874999
 30
0.0
 11
886.8739875492
 21
656.1781456874999
 31
0.0
  0
LINE
  5
444
330
128
100
AcDbEntity
  8
_a-0_
  6
Continuous
 62
     0
100
AcDbLine
 10
886.8739875492
 20
655.1781456875
 30
0.0
 11
886.8739875492
 21
656.1781456874999
 31
0.0
  0
LINE
  5
445
330
128
100
AcDbEntity
  8
_1-0_
  6
Continuous
 62
     0
100
AcDbLine
 10
376.6207479780001
 20
670.7561086875
 30
0.0
 11
367.433355978
 21
670.2746176875
 31
0.0
  0
LINE
  5
446
330
128
100
AcDbEntity
  8
_2-0_
  6
Continuous
 62
     0
100
AcDbLine
 10
386.8386429780001
 20
654.7521681592
 30
0.0
 11
386.4126654497
 21
655.1781456875
 31
0.0
  0
ARC
  5
447
330
128
100
AcDbEntity
  8
_2-0_
  6
Continuous
 62
     0
100
AcDbCircle
 10
386.8386429780001
 20
646.9281456874999
 30
0.0
 40
8.25
100
AcDbArc
 50
71.07535558394999
 51
90.0
  0
ARC
  5
448
330
128
100
AcDbEntity
  8
_2-0_
  6
Continuous
 62
     0
100
AcDbCircle
 10
386.8386429780001
 20
646.9281456874999
 30
0.0
 40
9.25
100
AcDbArc
 50
71.07535558394999
 51
90.0
  0
ARC
  5
449
330
128
100
AcDbEntity
  8
_2-0_
  6
Continuous
 62
     0
100
AcDbCircle
 10
392.8386429780001
 20
664.4281456874999
 30
0.0
 40
9.25
100
AcDbArc
 50
-108.9246444161
 51
-90.0
  0
LINE
  5
44A
330
128
100
AcDbEntity
  8
_1-0_
  6
Continuous
 62
     0
100
AcDbLine
 10
371.8563162636
 20
608.7447446875
 30
0.0
 11
371.8563162636
 21
654.1781456875
 31
0.0
  0
LINE
  5
44B
330
128
100
AcDbEntity
  8
_1-0_
  6
Continuous
 62
     0
100
AcDbLine
 10
367.1063142636
 20
645.1781456874999
 30
0.0
 11
367.8063162636
 21
645.8781446875
 31
0.0
  0
LINE
  5
44C
330
128
100
AcDbEntity
  8
_1-0_
  6
Continuous
 62
     0
100
AcDbLine
 10
367.8063162636
 20
655.1781446875
 30
0.0
 11
367.8063162636
 21
645.8781446875
 31
0.0
  0
LINE
  5
44D
330
128
100
AcDbEntity
  8
_1-0_
  6
Continuous
 62
     0
100
AcDbLine
 10
367.1063142636
 20
626.5499726875
 30
0.0
 11
367.1063142636
 21
645.1781456874999
 31
0.0
  0
LINE
  5
44E
330
128
100
AcDbEntity
  8
_1-0_
  6
Continuous
 62
     0
100
AcDbLine
 10
367.3563162636
 20
614.6781446874999
 30
0.0
 11
367.3563162636
 21
615.5414486874999
 31
0.0
  0
LINE
  5
44F
330
128
100
AcDbEntity
  8
_1-0_
  6
Continuous
 62
     0
100
AcDbLine
 10
365.2312842636
 20
615.9161486874999
 30
0.0
 11
367.1063142636
 21
626.5499726875
 31
0.0
  0
LINE
  5
450
330
128
100
AcDbEntity
  8
_1-0_
  6
Continuous
 62
     0
100
AcDbLine
 10
371.3563152636
 20
626.1781436875
 30
0.0
 11
372.3563142636
 21
626.1781436875
 31
0.0
  0
LINE
  5
451
330
128
100
AcDbEntity
  8
_1-0_
  6
Continuous
 62
     0
100
AcDbLine
 10
376.6063152636
 20
645.1781456874999
 30
0.0
 11
375.9063162636
 21
645.8781446875
 31
0.0
  0
LINE
  5
452
330
128
100
AcDbEntity
  8
_1-0_
  6
Continuous
 62
     0
100
AcDbLine
 10
375.9063162636
 20
655.1781446875
 30
0.0
 11
375.9063162636
 21
645.8781446875
 31
0.0
  0
LINE
  5
453
330
128
100
AcDbEntity
  8
_1-0_
  6
Continuous
 62
     0
100
AcDbLine
 10
376.6063152636
 20
626.5499726875
 30
0.0
 11
376.6063152636
 21
645.1781456874999
 31
0.0
  0
LINE
  5
454
330
128
100
AcDbEntity
  8
_1-0_
  6
Continuous
 62
     0
100
AcDbLine
 10
375.3563142636
 20
613.6781456875
 30
0.0
 11
368.3563152636
 21
613.6781456875
 31
0.0
  0
ARC
  5
455
330
128
100
AcDbEntity
  8
_1-0_
  6
Continuous
 62
     0
100
AcDbCircle
 10
375.3563142636
 20
614.6781446874999
 30
0.0
 40
0.999999
100
AcDbArc
 50
-90.0
 51
0.0
  0
LINE
  5
456
330
128
100
AcDbEntity
  8
_1-0_
  6
Continuous
 62
     0
100
AcDbLine
 10
376.3563162636
 20
614.6781446874999
 30
0.0
 11
376.3563162636
 21
615.5414486874999
 31
0.0
  0
LINE
  5
457
330
128
100
AcDbEntity
  8
_1-0_
  6
Continuous
 62
     0
100
AcDbLine
 10
378.4813452636
 20
615.9161486874999
 30
0.0
 11
374.2959132636
 21
615.1781456874999
 31
0.0
  0
LINE
  5
458
330
128
100
AcDbEntity
  8
_1-0_
  6
Continuous
 62
     0
100
AcDbLine
 10
371.3563152636
 20
626.1781436875
 30
0.0
 11
369.4167192636
 21
615.1781456874999
 31
0.0
  0
LINE
  5
459
330
128
100
AcDbEntity
  8
_1-0_
  6
Continuous
 62
     0
100
AcDbLine
 10
372.3563142636
 20
626.1781436875
 30
0.0
 11
374.2959132636
 21
615.1781456874999
 31
0.0
  0
LINE
  5
45A
330
128
100
AcDbEntity
  8
_1-0_
  6
Continuous
 62
     0
100
AcDbLine
 10
378.4813452636
 20
615.9161486874999
 30
0.0
 11
376.6063152636
 21
626.5499726875
 31
0.0
  0
LINE
  5
45B
330
128
100
AcDbEntity
  8
_1-0_
  6
Continuous
 62
     0
100
AcDbLine
 10
367.1063142636
 20
645.1781456874999
 30
0.0
 11
376.6063152636
 21
645.1781456874999
 31
0.0
  0
LINE
  5
45C
330
128
100
AcDbEntity
  8
_1-0_
  6
Continuous
 62
     0
100
AcDbLine
 10
367.8063162636
 20
645.8781446875
 30
0.0
 11
375.9063162636
 21
645.8781446875
 31
0.0
  0
LINE
  5
45D
330
128
100
AcDbEntity
  8
_1-0_
  6
Continuous
 62
     0
100
AcDbLine
 10
365.2312842636
 20
615.9161486874999
 30
0.0
 11
369.4167192636
 21
615.1781456874999
 31
0.0
  0
ARC
  5
45E
330
128
100
AcDbEntity
  8
_1-0_
  6
Continuous
 62
     0
100
AcDbCircle
 10
368.3563152636
 20
614.6781446874999
 30
0.0
 40
0.999999
100
AcDbArc
 50
180.0
 51
270.0
  0
LINE
  5
45F
330
128
100
AcDbEntity
  8
_2-0_
  6
Continuous
 62
     0
100
AcDbLine
 10
385.9984518874
 20
654.1781456875
 30
0.0
 11
384.9984518874
 21
655.1781456875
 31
0.0
  0
LINE
  5
460
330
128
100
AcDbEntity
  8
_2-0_
  6
Continuous
 62
     0
100
AcDbLine
 10
384.584238325
 20
654.1781456875
 30
0.0
 11
383.584238325
 21
655.1781456875
 31
0.0
  0
LINE
  5
461
330
128
100
AcDbEntity
  8
_2-0_
  6
Continuous
 62
     0
100
AcDbLine
 10
383.1700247626
 20
654.1781456875
 30
0.0
 11
382.1700247626
 21
655.1781456875
 31
0.0
  0
LINE
  5
462
330
128
100
AcDbEntity
  8
_2-0_
  6
Continuous
 62
     0
100
AcDbLine
 10
381.7558112002
 20
654.1781456875
 30
0.0
 11
380.7558112001999
 21
655.1781456875
 31
0.0
  0
LINE
  5
463
330
128
100
AcDbEntity
  8
_2-0_
  6
Continuous
 62
     0
100
AcDbLine
 10
380.3415976379
 20
654.1781456875
 30
0.0
 11
379.3415976379
 21
655.1781456875
 31
0.0
  0
LINE
  5
464
330
128
100
AcDbEntity
  8
_2-0_
  6
Continuous
 62
     0
100
AcDbLine
 10
378.9273840755
 20
654.1781456875
 30
0.0
 11
377.9273840755
 21
655.1781456875
 31
0.0
  0
LINE
  5
465
330
128
100
AcDbEntity
  8
_2-0_
  6
Continuous
 62
     0
100
AcDbLine
 10
377.5131705131
 20
654.1781456875
 30
0.0
 11
376.5131705131
 21
655.1781456875
 31
0.0
  0
LINE
  5
466
330
128
100
AcDbEntity
  8
_2-0_
  6
Continuous
 62
     0
100
AcDbLine
 10
376.0989569508
 20
654.1781456875
 30
0.0
 11
375.0989569508
 21
655.1781456875
 31
0.0
  0
LINE
  5
467
330
128
100
AcDbEntity
  8
_2-0_
  6
Continuous
 62
     0
100
AcDbLine
 10
374.6847433884
 20
654.1781456875
 30
0.0
 11
373.6847433884
 21
655.1781456875
 31
0.0
  0
LINE
  5
468
330
128
100
AcDbEntity
  8
_2-0_
  6
Continuous
 62
     0
100
AcDbLine
 10
373.270529826
 20
654.1781456875
 30
0.0
 11
372.270529826
 21
655.1781456875
 31
0.0
  0
LINE
  5
469
330
128
100
AcDbEntity
  8
_2-0_
  6
Continuous
 62
     0
100
AcDbLine
 10
371.8563162636
 20
654.1781456875
 30
0.0
 11
370.8563162636
 21
655.1781456875
 31
0.0
  0
LINE
  5
46A
330
128
100
AcDbEntity
  8
_2-0_
  6
Continuous
 62
     0
100
AcDbLine
 10
370.4421027013
 20
654.1781456875
 30
0.0
 11
369.4421027013
 21
655.1781456875
 31
0.0
  0
LINE
  5
46B
330
128
100
AcDbEntity
  8
_2-0_
  6
Continuous
 62
     0
100
AcDbLine
 10
369.0278891389
 20
654.1781456875
 30
0.0
 11
368.0278891389
 21
655.1781456875
 31
0.0
  0
LINE
  5
46C
330
128
100
AcDbEntity
  8
_2-0_
  6
Continuous
 62
     0
100
AcDbLine
 10
367.6136755765
 20
654.1781456875
 30
0.0
 11
366.6136755765001
 21
655.1781456875
 31
0.0
  0
LINE
  5
46D
330
128
100
AcDbEntity
  8
_2-0_
  6
Continuous
 62
     0
100
AcDbLine
 10
366.1994620141001
 20
654.1781456875
 30
0.0
 11
365.1994620141
 21
655.1781456875
 31
0.0
  0
LINE
  5
46E
330
128
100
AcDbEntity
  8
_2-0_
  6
Continuous
 62
     0
100
AcDbLine
 10
364.7852484518
 20
654.1781456875
 30
0.0
 11
363.7852484518
 21
655.1781456875
 31
0.0
  0
LINE
  5
46F
330
128
100
AcDbEntity
  8
_2-0_
  6
Continuous
 62
     0
100
AcDbLine
 10
363.3710348894001
 20
654.1781456875
 30
0.0
 11
362.3710348894001
 21
655.1781456875
 31
0.0
  0
LINE
  5
470
330
128
100
AcDbEntity
  8
_2-0_
  6
Continuous
 62
     0
100
AcDbLine
 10
361.956821327
 20
654.1781456875
 30
0.0
 11
360.9568213269999
 21
655.1781456875
 31
0.0
  0
LINE
  5
471
330
128
100
AcDbEntity
  8
_2-0_
  6
Continuous
 62
     0
100
AcDbLine
 10
360.5426077646
 20
654.1781456875
 30
0.0
 11
359.5426077646
 21
655.1781456875
 31
0.0
  0
LINE
  5
472
330
128
100
AcDbEntity
  8
_2-0_
  6
Continuous
 62
     0
100
AcDbLine
 10
359.1283942023001
 20
654.1781456875
 30
0.0
 11
358.1283942023
 21
655.1781456875
 31
0.0
  0
LINE
  5
473
330
128
100
AcDbEntity
  8
_2-0_
  6
Continuous
 62
     0
100
AcDbLine
 10
357.7141806399
 20
654.1781456875
 30
0.0
 11
356.8386429780001
 21
655.0536833493
 31
0.0
  0
LINE
  5
474
330
128
100
AcDbEntity
  8
_2-0_
  6
Continuous
 62
     0
100
AcDbLine
 10
356.8386429780001
 20
654.1781456875
 30
0.0
 11
386.8386429780001
 21
654.1781456875
 31
0.0
  0
LINE
  5
475
330
128
100
AcDbEntity
  8
_2-0_
  6
Continuous
 62
     0
100
AcDbLine
 10
386.8386429780001
 20
654.1781456875
 30
0.0
 11
386.8386429780001
 21
655.1781456875
 31
0.0
  0
LINE
  5
476
330
128
100
AcDbEntity
  8
_2-0_
  6
Continuous
 62
     0
100
AcDbLine
 10
386.8386429780001
 20
655.1781456875
 30
0.0
 11
356.8386429780001
 21
655.1781456875
 31
0.0
  0
LINE
  5
477
330
128
100
AcDbEntity
  8
_2-0_
  6
Continuous
 62
     0
100
AcDbLine
 10
356.8386429780001
 20
655.1781456875
 30
0.0
 11
356.8386429780001
 21
654.1781456875
 31
0.0
  0
ARC
  5
478
330
128
100
AcDbEntity
  8
_2-0_
  6
Continuous
 62
     0
100
AcDbCircle
 10
392.8386429780001
 20
664.4281456874999
 30
0.0
 40
10.25
100
AcDbArc
 50
-108.9246444161
 51
-90.0
  0
LINE
  5
479
330
128
100
AcDbEntity
  8
_1-0_
  6
Continuous
 62
     0
100
AcDbLine
 10
362.8386429780001
 20
660.2869156875
 30
0.0
 11
362.8386429780001
 21
658.6869166875
 31
0.0
  0
LINE
  5
47A
330
128
100
AcDbEntity
  8
_1-0_
  6
Continuous
 62
     0
100
AcDbLine
 10
362.8386429780001
 20
660.2869156875
 30
0.0
 11
380.838642978
 21
660.2869156875
 31
0.0
  0
LINE
  5
47B
330
128
100
AcDbEntity
  8
_1-0_
  6
Continuous
 62
     0
100
AcDbLine
 10
380.838642978
 20
660.2869156875
 30
0.0
 11
380.838642978
 21
658.6869166875
 31
0.0
  0
LINE
  5
47C
330
128
100
AcDbEntity
  8
_1-0_
  6
Continuous
 62
     0
100
AcDbLine
 10
377.718642978
 20
664.5499786874999
 30
0.0
 11
377.718642978
 21
660.2869156875
 31
0.0
  0
LINE
  5
47D
330
128
100
AcDbEntity
  8
_1-0_
  6
Continuous
 62
     0
100
AcDbLine
 10
376.788642978
 20
665.0869156875
 30
0.0
 11
377.718642978
 21
664.5499786874999
 31
0.0
  0
ARC
  5
47E
330
128
100
AcDbEntity
  8
_1-0_
  6
Continuous
 62
     0
100
AcDbCircle
 10
376.788642978
 20
661.2775216874999
 30
0.0
 40
3.809394
100
AcDbArc
 50
90.0
 51
120.789964
  0
ARC
  5
47F
330
128
100
AcDbEntity
  8
_1-0_
  6
Continuous
 62
     0
100
AcDbCircle
 10
371.8386429780001
 20
656.4375556874999
 30
0.0
 40
8.649359999999999
100
AcDbArc
 50
69.70544499999999
 51
110.294555
  0
LINE
  5
480
330
128
100
AcDbEntity
  8
_1-0_
  6
Continuous
 62
     0
100
AcDbLine
 10
374.838642978
 20
664.5499786874999
 30
0.0
 11
374.838642978
 21
660.2869156875
 31
0.0
  0
LINE
  5
481
330
128
100
AcDbEntity
  8
_1-0_
  6
Continuous
 62
     0
100
AcDbLine
 10
368.838642978
 20
664.5499786874999
 30
0.0
 11
368.838642978
 21
660.2869156875
 31
0.0
  0
LINE
  5
482
330
128
100
AcDbEntity
  8
_1-0_
  6
Continuous
 62
     0
100
AcDbLine
 10
365.958642978
 20
664.5499786874999
 30
0.0
 11
365.958642978
 21
660.2869156875
 31
0.0
  0
LINE
  5
483
330
128
100
AcDbEntity
  8
_1-0_
  6
Continuous
 62
     0
100
AcDbLine
 10
366.888642978
 20
665.0869156875
 30
0.0
 11
365.958642978
 21
664.5499786874999
 31
0.0
  0
LINE
  5
484
330
128
100
AcDbEntity
  8
_1-0_
  6
Continuous
 62
     0
100
AcDbLine
 10
376.788642978
 20
665.0869156875
 30
0.0
 11
366.888642978
 21
665.0869156875
 31
0.0
  0
ARC
  5
485
330
128
100
AcDbEntity
  8
_1-0_
  6
Continuous
 62
     0
100
AcDbCircle
 10
366.888642978
 20
661.2775216874999
 30
0.0
 40
3.809394
100
AcDbArc
 50
59.21003599999999
 51
90.0
  0
LINE
  5
486
330
128
100
AcDbEntity
  8
_1-0_
  6
Continuous
 62
     0
100
AcDbLine
 10
376.568412978
 20
671.7547396875
 30
0.0
 11
376.6207479780001
 21
670.7561086875
 31
0.0
  0
LINE
  5
487
330
128
100
AcDbEntity
  8
_1-0_
  6
Continuous
 62
     0
100
AcDbLine
 10
367.381020978
 20
671.2732486874999
 30
0.0
 11
367.433355978
 21
670.2746176875
 31
0.0
  0
ARC
  5
488
330
128
100
AcDbEntity
  8
_1-0_
  6
Continuous
 62
     0
100
AcDbCircle
 10
377.567040978
 20
671.8070746875
 30
0.0
 40
0.999999
100
AcDbArc
 50
93.0
 51
183.0
  0
ARC
  5
489
330
128
100
AcDbEntity
  8
_1-0_
  6
Continuous
 62
     0
100
AcDbCircle
 10
366.3823899780001
 20
671.2209106875
 30
0.0
 40
0.999999
100
AcDbArc
 50
3.000000000005
 51
93.0
  0
ARC
  5
48A
330
128
100
AcDbEntity
  8
_1-0_
  6
Continuous
 62
     0
100
AcDbCircle
 10
383.8386429780001
 20
665.6869156875
 30
0.0
 40
0.999999
100
AcDbArc
 50
180.0
 51
270.0
  0
LINE
  5
48B
330
128
100
AcDbEntity
  8
_1-0_
  6
Continuous
 62
     0
100
AcDbLine
 10
383.8386429780001
 20
664.6869166874999
 30
0.0
 11
388.0386429780001
 21
664.6869166874999
 31
0.0
  0
ARC
  5
48C
330
128
100
AcDbEntity
  8
_1-0_
  6
Continuous
 62
     0
100
AcDbCircle
 10
380.238642978
 20
671.9470876875
 30
0.0
 40
0.999999
100
AcDbArc
 50
0.0
 51
93.0
  0
LINE
  5
48D
330
128
100
AcDbEntity
  8
_1-0_
  6
Continuous
 62
     0
100
AcDbLine
 10
363.3863079780001
 20
672.0652666874999
 30
0.0
 11
380.1863079780001
 21
672.9457156875
 31
0.0
  0
ARC
  5
48E
330
128
100
AcDbEntity
  8
_1-0_
  6
Continuous
 62
     0
100
AcDbCircle
 10
363.438642978
 20
671.0666356875
 30
0.0
 40
0.999999
100
AcDbArc
 50
93.0
 51
180.0
  0
LINE
  5
48F
330
128
100
AcDbEntity
  8
_1-0_
  6
Continuous
 62
     0
100
AcDbLine
 10
359.8386429780001
 20
664.6869166874999
 30
0.0
 11
355.638642978
 21
664.6869166874999
 31
0.0
  0
ARC
  5
490
330
128
100
AcDbEntity
  8
_1-0_
  6
Continuous
 62
     0
100
AcDbCircle
 10
359.8386429780001
 20
665.6869156875
 30
0.0
 40
0.999999
100
AcDbArc
 50
-90.0
 51
0.0
  0
LINE
  5
491
330
128
100
AcDbEntity
  8
_1-0_
  6
Continuous
 62
     0
100
AcDbLine
 10
381.2386419780001
 20
665.6869156875
 30
0.0
 11
381.2386419780001
 21
671.9470876875
 31
0.0
  0
ARC
  5
492
330
128
100
AcDbEntity
  8
_1-0_
  6
Continuous
 62
     0
100
AcDbCircle
 10
383.8386429780001
 20
665.6869156875
 30
0.0
 40
2.600000999999999
100
AcDbArc
 50
180.0
 51
270.0
  0
LINE
  5
493
330
128
100
AcDbEntity
  8
_1-0_
  6
Continuous
 62
     0
100
AcDbLine
 10
383.8386429780001
 20
663.0869146874999
 30
0.0
 11
388.3386429780001
 21
663.0869146874999
 31
0.0
  0
LINE
  5
494
330
128
100
AcDbEntity
  8
_1-0_
  6
Continuous
 62
     0
100
AcDbLine
 10
382.838643978
 20
671.9470876875
 30
0.0
 11
382.838643978
 21
665.6869156875
 31
0.0
  0
ARC
  5
495
330
128
100
AcDbEntity
  8
_1-0_
  6
Continuous
 62
     0
100
AcDbCircle
 10
380.238642978
 20
671.9470876875
 30
0.0
 40
2.600000999999999
100
AcDbArc
 50
0.0
 51
93.0
  0
LINE
  5
496
330
128
100
AcDbEntity
  8
_1-0_
  6
Continuous
 62
     0
100
AcDbLine
 10
360.838641978
 20
671.0666356875
 30
0.0
 11
360.838641978
 21
665.6869156875
 31
0.0
  0
ARC
  5
497
330
128
100
AcDbEntity
  8
_1-0_
  6
Continuous
 62
     0
100
AcDbCircle
 10
363.438642978
 20
671.0666356875
 30
0.0
 40
2.600000999999999
100
AcDbArc
 50
93.0
 51
180.0
  0
LINE
  5
498
330
128
100
AcDbEntity
  8
_1-0_
  6
Continuous
 62
     0
100
AcDbLine
 10
363.302568978
 20
673.6630726874999
 30
0.0
 11
380.102568978
 21
674.5435246875
 31
0.0
  0
LINE
  5
499
330
128
100
AcDbEntity
  8
_1-0_
  6
Continuous
 62
     0
100
AcDbLine
 10
362.438643978
 20
665.6869156875
 30
0.0
 11
362.438643978
 21
671.0666356875
 31
0.0
  0
ARC
  5
49A
330
128
100
AcDbEntity
  8
_1-0_
  6
Continuous
 62
     0
100
AcDbCircle
 10
359.8386429780001
 20
665.6869156875
 30
0.0
 40
2.600000999999999
100
AcDbArc
 50
-90.0
 51
0.0
  0
LINE
  5
49B
330
128
100
AcDbEntity
  8
_1-0_
  6
Continuous
 62
     0
100
AcDbLine
 10
359.8386429780001
 20
663.0869146874999
 30
0.0
 11
355.3386429780001
 21
663.0869146874999
 31
0.0
  0
LINE
  5
49C
330
128
100
AcDbEntity
  8
_1-0_
  6
Continuous
 62
     0
100
AcDbLine
 10
355.638642978
 20
662.1869146875
 30
0.0
 11
357.5886429780001
 21
662.1869146875
 31
0.0
  0
ARC
  5
49D
330
128
100
AcDbEntity
  8
_1-0_
  6
Continuous
 62
     0
100
AcDbCircle
 10
355.638642978
 20
662.4869146874999
 30
0.0
 40
0.3
100
AcDbArc
 50
180.0
 51
270.0
  0
ARC
  5
49E
330
128
100
AcDbEntity
  8
_1-0_
  6
Continuous
 62
     0
100
AcDbCircle
 10
355.638642978
 20
664.3869166875
 30
0.0
 40
0.3
100
AcDbArc
 50
90.0
 51
180.0
  0
LINE
  5
49F
330
128
100
AcDbEntity
  8
_1-0_
  6
Continuous
 62
     0
100
AcDbLine
 10
372.338643978
 20
658.6869166875
 30
0.0
 11
371.8386429780001
 21
658.1869156875
 31
0.0
  0
LINE
  5
4A0
330
128
100
AcDbEntity
  8
_1-0_
  6
Continuous
 62
     0
100
AcDbLine
 10
371.3386419780001
 20
658.6869166875
 30
0.0
 11
371.8386429780001
 21
658.1869156875
 31
0.0
  0
LINE
  5
4A1
330
128
100
AcDbEntity
  8
_1-0_
  6
Continuous
 62
     0
100
AcDbLine
 10
376.838643978
 20
656.6869156875
 30
0.0
 11
376.838643978
 21
656.1869146874999
 31
0.0
  0
LINE
  5
4A2
330
128
100
AcDbEntity
  8
_1-0_
  6
Continuous
 62
     0
100
AcDbLine
 10
355.838643978
 20
666.1869166875
 30
0.0
 11
358.588641978
 21
666.1869166875
 31
0.0
  0
ARC
  5
4A3
330
128
100
AcDbEntity
  8
_1-0_
  6
Continuous
 62
     0
100
AcDbCircle
 10
355.838643978
 20
666.6869146875
 30
0.0
 40
0.5000010000000001
100
AcDbArc
 50
180.0
 51
270.0
  0
ARC
  5
4A4
330
128
100
AcDbEntity
  8
_1-0_
  6
Continuous
 62
     0
100
AcDbCircle
 10
358.588641978
 20
665.4369166875
 30
0.0
 40
0.75
100
AcDbArc
 50
-90.0
 51
90.0
  0
LINE
  5
4A5
330
128
100
AcDbEntity
  8
_1-0_
  6
Continuous
 62
     0
100
AcDbLine
 10
366.838641978
 20
656.6869156875
 30
0.0
 11
355.3386429780001
 21
656.6869156875
 31
0.0
  0
LINE
  5
4A6
330
128
100
AcDbEntity
  8
_1-0_
  6
Continuous
 62
     0
100
AcDbLine
 10
366.838641978
 20
656.6869156875
 30
0.0
 11
366.838641978
 21
656.1869146874999
 31
0.0
  0
ARC
  5
4A7
330
128
100
AcDbEntity
  8
_1-0_
  6
Continuous
 62
     0
100
AcDbCircle
 10
357.5886429780001
 20
661.4369146875
 30
0.0
 40
0.75
100
AcDbArc
 50
-90.0
 51
90.0
  0
LINE
  5
4A8
330
128
100
AcDbEntity
  8
_1-0_
  6
Continuous
 62
     0
100
AcDbLine
 10
355.638642978
 20
660.6869146874999
 30
0.0
 11
357.5886429780001
 21
660.6869146874999
 31
0.0
  0
ARC
  5
4A9
330
128
100
AcDbEntity
  8
_1-0_
  6
Continuous
 62
     0
100
AcDbCircle
 10
355.638642978
 20
660.3869146875
 30
0.0
 40
0.3
100
AcDbArc
 50
90.0
 51
180.0
  0
LINE
  5
4AA
330
128
100
AcDbEntity
  8
_1-0_
  6
Continuous
 62
     0
100
AcDbLine
 10
388.3386429780001
 20
656.6869156875
 30
0.0
 11
376.838643978
 21
656.6869156875
 31
0.0
  0
LINE
  5
4AB
330
128
100
AcDbEntity
  8
_1-0_
  6
Continuous
 62
     0
100
AcDbLine
 10
388.0386429780001
 20
662.1869146875
 30
0.0
 11
386.0886429780001
 21
662.1869146875
 31
0.0
  0
ARC
  5
4AC
330
128
100
AcDbEntity
  8
_1-0_
  6
Continuous
 62
     0
100
AcDbCircle
 10
388.0386429780001
 20
662.4869146874999
 30
0.0
 40
0.3
100
AcDbArc
 50
-90.0
 51
0.0
  0
LINE
  5
4AD
330
128
100
AcDbEntity
  8
_1-0_
  6
Continuous
 62
     0
100
AcDbLine
 10
388.3386429780001
 20
662.4869146874999
 30
0.0
 11
388.3386429780001
 21
664.3869166875
 31
0.0
  0
ARC
  5
4AE
330
128
100
AcDbEntity
  8
_1-0_
  6
Continuous
 62
     0
100
AcDbCircle
 10
388.0386429780001
 20
664.3869166875
 30
0.0
 40
0.3
100
AcDbArc
 50
0.0
 51
90.0
  0
LINE
  5
4AF
330
128
100
AcDbEntity
  8
_1-0_
  6
Continuous
 62
     0
100
AcDbLine
 10
389.338641978
 20
666.1869166875
 30
0.0
 11
385.088643978
 21
666.1869166875
 31
0.0
  0
ARC
  5
4B0
330
128
100
AcDbEntity
  8
_1-0_
  6
Continuous
 62
     0
100
AcDbCircle
 10
389.338641978
 20
665.6869156875
 30
0.0
 40
0.5000010000000001
100
AcDbArc
 50
0.0
 51
90.0
  0
ARC
  5
4B1
330
128
100
AcDbEntity
  8
_1-0_
  6
Continuous
 62
     0
100
AcDbCircle
 10
385.088643978
 20
665.4369166875
 30
0.0
 40
0.75
100
AcDbArc
 50
90.0
 51
270.0
  0
LINE
  5
4B2
330
128
100
AcDbEntity
  8
_1-0_
  6
Continuous
 62
     0
100
AcDbLine
 10
389.8386429780001
 20
665.6869156875
 30
0.0
 11
389.8386429780001
 21
656.1869146874999
 31
0.0
  0
LINE
  5
4B3
330
128
100
AcDbEntity
  8
_1-0_
  6
Continuous
 62
     0
100
AcDbLine
 10
388.3386429780001
 20
656.6869156875
 30
0.0
 11
388.3386429780001
 21
656.1869146874999
 31
0.0
  0
ARC
  5
4B4
330
128
100
AcDbEntity
  8
_1-0_
  6
Continuous
 62
     0
100
AcDbCircle
 10
386.0886429780001
 20
661.4369146875
 30
0.0
 40
0.75
100
AcDbArc
 50
90.0
 51
270.0
  0
ARC
  5
4B5
330
128
100
AcDbEntity
  8
_1-0_
  6
Continuous
 62
     0
100
AcDbCircle
 10
388.0386429780001
 20
658.9869166874999
 30
0.0
 40
0.3
100
AcDbArc
 50
-90.0
 51
0.0
  0
LINE
  5
4B6
330
128
100
AcDbEntity
  8
_1-0_
  6
Continuous
 62
     0
100
AcDbLine
 10
388.3386429780001
 20
658.9869166874999
 30
0.0
 11
388.3386429780001
 21
660.3869146875
 31
0.0
  0
ARC
  5
4B7
330
128
100
AcDbEntity
  8
_1-0_
  6
Continuous
 62
     0
100
AcDbCircle
 10
388.0386429780001
 20
660.3869146875
 30
0.0
 40
0.3
100
AcDbArc
 50
0.0
 51
90.0
  0
LINE
  5
4B8
330
128
100
AcDbEntity
  8
_1-0_
  6
Continuous
 62
     0
100
AcDbLine
 10
388.0386429780001
 20
660.6869146874999
 30
0.0
 11
386.0886429780001
 21
660.6869146874999
 31
0.0
  0
ARC
  5
4B9
330
128
100
AcDbEntity
  8
_1-0_
  6
Continuous
 62
     0
100
AcDbCircle
 10
355.838643978
 20
659.1869146875
 30
0.0
 40
0.5000010000000001
100
AcDbArc
 50
180.0
 51
270.0
  0
LINE
  5
4BA
330
128
100
AcDbEntity
  8
_1-0_
  6
Continuous
 62
     0
100
AcDbLine
 10
355.838643978
 20
658.6869166875
 30
0.0
 11
388.0386429780001
 21
658.6869166875
 31
0.0
  0
LINE
  5
4BB
330
128
100
AcDbEntity
  8
_2-0_
  6
Continuous
 62
     0
100
AcDbLine
 10
388.3386429780001
 20
656.1869146874999
 30
0.0
 11
389.8386429780001
 21
656.1869146874999
 31
0.0
  0
ARC
  5
4BC
330
128
100
AcDbEntity
  8
_0-0_
  6
Continuous
 62
     0
100
AcDbCircle
 10
354.3386439780001
 20
674.1869146875
 30
0.0
 40
0.999999
100
AcDbArc
 50
0.0
 51
180.0
  0
LINE
  5
4BD
330
128
100
AcDbEntity
  8
_0-0_
  6
Continuous
 62
     0
100
AcDbLine
 10
355.3386429780001
 20
666.6869146875
 30
0.0
 11
355.3386429780001
 21
674.1869146875
 31
0.0
  0
LINE
  5
4BE
330
128
100
AcDbEntity
  8
_0-0_
  6
Continuous
 62
     0
100
AcDbLine
 10
355.3386429780001
 20
662.4869146874999
 30
0.0
 11
355.3386429780001
 21
664.3869166875
 31
0.0
  0
ARC
  5
4BF
330
128
100
AcDbEntity
  8
_0-0_
  6
Continuous
 62
     0
100
AcDbCircle
 10
352.8386439780001
 20
659.1869146875
 30
0.0
 40
0.5000010000000001
100
AcDbArc
 50
-90.0
 51
0.0
  0
LINE
  5
4C0
330
128
100
AcDbEntity
  8
_0-0_
  6
Continuous
 62
     0
100
AcDbLine
 10
353.3386419780001
 20
657.1869166875
 30
0.0
 11
353.3386419780001
 21
656.1869146874999
 31
0.0
  0
LINE
  5
4C1
330
128
100
AcDbEntity
  8
_0-0_
  6
Continuous
 62
     0
100
AcDbLine
 10
355.3386429780001
 20
656.6869156875
 30
0.0
 11
355.3386429780001
 21
656.1869146874999
 31
0.0
  0
LINE
  5
4C2
330
128
100
AcDbEntity
  8
_0-0_
  6
Continuous
 62
     0
100
AcDbLine
 10
355.3386429780001
 20
659.1869146875
 30
0.0
 11
355.3386429780001
 21
660.3869146875
 31
0.0
  0
LINE
  5
4C3
330
128
100
AcDbEntity
  8
_0-0_
  6
Continuous
 62
     0
100
AcDbLine
 10
342.838641978
 20
657.1869166875
 30
0.0
 11
342.838641978
 21
656.1869146874999
 31
0.0
  0
LINE
  5
4C4
330
128
100
AcDbEntity
  8
_0-0_
  6
Continuous
 62
     0
100
AcDbLine
 10
341.338641978
 20
656.1869146874999
 30
0.0
 11
342.838641978
 21
656.1869146874999
 31
0.0
  0
LINE
  5
4C5
330
128
100
AcDbEntity
  8
_0-0_
  6
Continuous
 62
     0
100
AcDbLine
 10
353.3386419780001
 20
656.1869146874999
 30
0.0
 11
355.3386429780001
 21
656.1869146874999
 31
0.0
  0
LINE
  5
4C6
330
128
100
AcDbEntity
  8
_0-0_
  6
Continuous
 62
     0
100
AcDbLine
 10
341.338641978
 20
658.1869166875
 30
0.0
 11
341.338641978
 21
656.1869146874999
 31
0.0
  0
ARC
  5
4C7
330
128
100
AcDbEntity
  8
_0-0_
  6
Continuous
 62
     0
100
AcDbCircle
 10
341.838641978
 20
658.1869166875
 30
0.0
 40
0.5
100
AcDbArc
 50
90.0
 51
180.0
  0
LINE
  5
4C8
330
128
100
AcDbEntity
  8
_0-0_
  6
Continuous
 62
     0
100
AcDbLine
 10
353.0886419780001
 20
661.9369166874999
 30
0.0
 11
351.838641978
 21
661.9369166874999
 31
0.0
  0
LINE
  5
4C9
330
128
100
AcDbEntity
  8
_0-0_
  6
Continuous
 62
     0
100
AcDbLine
 10
348.8386419780001
 20
661.9369166874999
 30
0.0
 11
347.5886419780001
 21
661.9369166874999
 31
0.0
  0
ARC
  5
4CA
330
128
100
AcDbEntity
  8
_0-0_
  6
Continuous
 62
     0
100
AcDbCircle
 10
321.9920365057
 20
704.8723093097999
 30
0.0
 40
0.5
100
AcDbArc
 50
101.4095443492
 51
279.1986608952
  0
ARC
  5
4CB
330
128
100
AcDbEntity
  8
_0-0_
  6
Continuous
 62
     0
100
AcDbCircle
 10
326.838641978
 20
680.8564725474
 30
0.0
 40
25.0
100
AcDbArc
 50
0.0
 51
101.4095443492
  0
ARC
  5
4CC
330
128
100
AcDbEntity
  8
_0-0_
  6
Continuous
 62
     0
100
AcDbCircle
 10
325.762696384
 20
681.5881040454
 30
0.0
 40
23.08754100601
100
AcDbArc
 50
-1.815975820673999
 51
99.19866089519002
  0
LINE
  5
4CD
330
128
100
AcDbEntity
  8
_0-0_
  6
Continuous
 62
     0
100
AcDbLine
 10
353.3386419780001
 20
657.1869166875
 30
0.0
 11
345.8326931041999
 21
657.1869166875
 31
0.0
  0
LINE
  5
4CE
330
128
100
AcDbEntity
  8
_0-0_
  6
Continuous
 62
     0
100
AcDbLine
 10
345.8326931041999
 20
657.1869166875
 30
0.0
 11
342.838641978
 21
657.1869166875
 31
0.0
  0
LINE
  5
4CF
330
128
100
AcDbEntity
  8
_0-0_
  6
Continuous
 62
     0
100
AcDbLine
 10
347.838641978
 20
658.6869166875
 30
0.0
 11
352.8386439780001
 21
658.6869166875
 31
0.0
  0
LINE
  5
4D0
330
128
100
AcDbEntity
  8
_0-0_
  6
Continuous
 62
     0
100
AcDbLine
 10
341.838641978
 20
658.6869166875
 30
0.0
 11
345.838641978
 21
658.6869166875
 31
0.0
  0
ARC
  5
4D1
330
128
100
AcDbEntity
  8
_0-0_
  6
Continuous
 62
     0
100
AcDbCircle
 10
347.838641978
 20
659.1869166875
 30
0.0
 40
0.25
100
AcDbArc
 50
180.0
 51
270.0
  0
ARC
  5
4D2
330
128
100
AcDbEntity
  8
_0-0_
  6
Continuous
 62
     0
100
AcDbCircle
 10
352.8386439780001
 20
659.1869146875
 30
0.0
 40
0.250001
100
AcDbArc
 50
-90.0
 51
0.0
  0
LINE
  5
4D3
330
128
100
AcDbEntity
  8
_0-0_
  6
Continuous
 62
     0
100
AcDbLine
 10
347.5886419780001
 20
659.1869166875
 30
0.0
 11
347.5886419780001
 21
661.9369166874999
 31
0.0
  0
LINE
  5
4D4
330
128
100
AcDbEntity
  8
_0-0_
  6
Continuous
 62
     0
100
AcDbLine
 10
353.0886419780001
 20
659.1869146875
 30
0.0
 11
353.0886419780001
 21
661.9369166874999
 31
0.0
  0
LINE
  5
4D5
330
128
100
AcDbEntity
  8
_0-0_
  6
Continuous
 62
     0
100
AcDbLine
 10
347.838641978
 20
658.9369166875
 30
0.0
 11
352.8386439780001
 21
658.9369166875
 31
0.0
  0
LINE
  5
4D6
330
128
100
AcDbEntity
  8
_0-0_
  6
Continuous
 62
     0
100
AcDbLine
 10
353.3386419780001
 20
674.1869146875
 30
0.0
 11
353.3386419780001
 21
663.6869166874999
 31
0.0
  0
LINE
  5
4D7
330
128
100
AcDbEntity
  8
_0-0_
  6
Continuous
 62
     0
100
AcDbLine
 10
353.3386419780001
 20
662.1869166875
 30
0.0
 11
353.3386419780001
 21
659.1869146875
 31
0.0
  0
LINE
  5
4D8
330
128
100
AcDbEntity
  8
_0-0_
  6
Continuous
 62
     0
100
AcDbLine
 10
347.3386419780001
 20
659.1869166875
 30
0.0
 11
347.3386419780001
 21
662.1869166875
 31
0.0
  0
LINE
  5
4D9
330
128
100
AcDbEntity
  8
_0-0_
  6
Continuous
 62
     0
100
AcDbLine
 10
345.838641978
 20
663.1869166875
 30
0.0
 11
345.838641978
 21
658.6869166875
 31
0.0
  0
ARC
  5
4DA
330
128
100
AcDbEntity
  8
_0-0_
  6
Continuous
 62
     0
100
AcDbCircle
 10
346.3386419780001
 20
663.1869166875
 30
0.0
 40
0.5
100
AcDbArc
 50
90.0
 51
180.0
  0
ARC
  5
4DB
330
128
100
AcDbEntity
  8
_0-0_
  6
Continuous
 62
     0
100
AcDbCircle
 10
347.838641978
 20
659.1869166875
 30
0.0
 40
0.5
100
AcDbArc
 50
180.0
 51
270.0
  0
LINE
  5
4DC
330
128
100
AcDbEntity
  8
_0-0_
  6
Continuous
 62
     0
100
AcDbLine
 10
346.3386419780001
 20
663.6869166874999
 30
0.0
 11
347.5886419780001
 21
663.6869166874999
 31
0.0
  0
ARC
  5
4DD
330
128
100
AcDbEntity
  8
_0-0_
  6
Continuous
 62
     0
100
AcDbCircle
 10
347.5886419780001
 20
662.6869166875
 30
0.0
 40
1.0
100
AcDbArc
 50
0.0
 51
90.0
  0
LINE
  5
4DE
330
128
100
AcDbEntity
  8
_0-0_
  6
Continuous
 62
     0
100
AcDbLine
 10
348.5886419780001
 20
662.6869166875
 30
0.0
 11
348.5886419780001
 21
662.1869166875
 31
0.0
  0
LINE
  5
4DF
330
128
100
AcDbEntity
  8
_0-0_
  6
Continuous
 62
     0
100
AcDbLine
 10
348.5886419780001
 20
662.1869166875
 30
0.0
 11
347.3386419780001
 21
662.1869166875
 31
0.0
  0
LINE
  5
4E0
330
128
100
AcDbEntity
  8
_0-0_
  6
Continuous
 62
     0
100
AcDbLine
 10
353.3386419780001
 20
662.1869166875
 30
0.0
 11
352.088641978
 21
662.1869166875
 31
0.0
  0
LINE
  5
4E1
330
128
100
AcDbEntity
  8
_0-0_
  6
Continuous
 62
     0
100
AcDbLine
 10
352.088641978
 20
662.6869166875
 30
0.0
 11
352.088641978
 21
662.1869166875
 31
0.0
  0
ARC
  5
4E2
330
128
100
AcDbEntity
  8
_0-0_
  6
Continuous
 62
     0
100
AcDbCircle
 10
353.0886419780001
 20
662.6869166875
 30
0.0
 40
1.0
100
AcDbArc
 50
90.0
 51
180.0
  0
LINE
  5
4E3
330
128
100
AcDbEntity
  8
_0-0_
  6
Continuous
 62
     0
100
AcDbLine
 10
353.0886419780001
 20
663.6869166874999
 30
0.0
 11
353.3386419780001
 21
663.6869166874999
 31
0.0
  0
CIRCLE
  5
4E4
330
128
100
AcDbEntity
  8
_0-1_PRO0
  6
Continuous
 62
     0
100
AcDbCircle
 10
346.864149906
 20
693.6234199642999
 30
0.0
 40
0.9
  0
LINE
  5
4E5
330
128
100
AcDbEntity
  8
_0-1_PRO0
  6
Continuous
 62
     0
100
AcDbLine
 10
346.864149906
 20
693.6234199642999
 30
0.0
 11
332.7755806765
 21
732.3314420557001
 31
0.0
  0
LINE
  5
4E6
330
128
100
AcDbEntity
  8
_0-0_
  6
Continuous
 62
     0
100
AcDbLine
 10
356.8386429780001
 20
655.0536833493
 30
0.0
 11
356.8386429780001
 21
656.1781456874999
 31
0.0
  0
LINE
  5
4E7
330
128
100
AcDbEntity
  8
_2-0_
  6
Continuous
 62
     0
100
AcDbLine
 10
386.8386429780001
 20
656.1781456874999
 30
0.0
 11
356.8386429780001
 21
656.1781456874999
 31
0.0
  0
CIRCLE
  5
4E8
330
128
100
AcDbEntity
  8
_0-1_PRO0
  6
Continuous
 62
     0
100
AcDbCircle
 10
331.3990475348
 20
737.8224424288
 30
0.0
 40
6.0
  0
TEXT
  5
4E9
330
128
100
AcDbEntity
  8
_0-1_PRO0
  6
Continuous
 62
     0
100
AcDbText
 10
326.8387802688
 20
733.8708796999
 30
0.0
 40
9.0
  1
８
100
AcDbText
  0
LINE
  5
4EA
330
128
100
AcDbEntity
  8
_0-1_PRO0
  6
Continuous
 62
     0
100
AcDbLine
 10
871.8563142636
 20
607.7447426874999
 30
0.0
 11
871.8563142636
 21
498.1758991212999
 31
0.0
  0
LINE
  5
4EB
330
128
100
AcDbEntity
  8
_0-1_PRO0
  6
Continuous
 62
     0
100
AcDbLine
 10
921.8563152635999
 20
654.1781456875
 30
0.0
 11
921.8563152635999
 21
491.5565131212999
 31
0.0
  0
LINE
  5
4EC
330
128
100
AcDbEntity
  8
_0-1_PRO0
  6
Continuous
 62
     0
100
AcDbLine
 10
371.8563162636
 20
607.7447426874999
 30
0.0
 11
371.8563162636
 21
498.1758991212999
 31
0.0
  0
LINE
  5
4ED
330
128
100
AcDbEntity
  8
_0-1_PRO0
  6
Continuous
 62
     0
100
AcDbLine
 10
321.8563152636
 20
654.1781456875
 30
0.0
 11
321.8563152636
 21
491.5565131212999
 31
0.0
  0
CIRCLE
  5
4EE
330
128
100
AcDbEntity
  8
_0-1_PRO0
  6
Continuous
 62
     0
100
AcDbCircle
 10
346.519463398
 20
625.3199080893
 30
0.0
 40
6.0
  0
LINE
  5
4EF
330
128
100
AcDbEntity
  8
_0-1_PRO0
  6
Continuous
 62
     0
100
AcDbLine
 10
363.1999103980001
 20
654.2112880892999
 30
0.0
 11
349.519463398
 21
630.5160610893
 31
0.0
  0
CIRCLE
  5
4F0
330
128
100
AcDbEntity
  8
_0-1_PRO0
  6
Continuous
 62
     0
100
AcDbCircle
 10
363.1999103980001
 20
654.2112880892999
 30
0.0
 40
0.9
  0
TEXT
  5
4F1
330
128
100
AcDbEntity
  8
_0-1_PRO0
  6
Continuous
 62
     0
100
AcDbText
 10
344.5592051471
 20
620.4520553273
 30
0.0
 40
9.0
  1
3
100
AcDbText
  0
LINE
  5
4F2
330
128
100
AcDbEntity
  8
_1-0_
  6
Continuous
 62
     0
100
AcDbLine
 10
381.796883113
 20
700.8722070378999
 30
0.0
 11
358.8284031130001
 21
699.6684810378999
 31
0.0
  0
LINE
  5
4F3
330
128
100
AcDbEntity
  8
_1-0_
  6
Continuous
 62
     0
100
AcDbLine
 10
395.244452113
 20
688.6552980378999
 30
0.0
 11
381.796883113
 21
700.8722070378999
 31
0.0
  0
LINE
  5
4F4
330
128
100
AcDbEntity
  8
_1-0_
  6
Continuous
 62
     0
100
AcDbLine
 10
399.093275113
 20
690.8619240378999
 30
0.0
 11
398.432039113
 21
691.3122240378998
 31
0.0
  0
LINE
  5
4F5
330
128
100
AcDbEntity
  8
_1-0_
  6
Continuous
 62
     0
100
AcDbLine
 10
398.432039113
 20
691.3122240378998
 30
0.0
 11
396.743423113
 21
688.8325920378999
 31
0.0
  0
LINE
  5
4F6
330
128
100
AcDbEntity
  8
_1-0_
  6
Continuous
 62
     0
100
AcDbLine
 10
399.093275113
 20
690.8619240378999
 30
0.0
 11
397.4046591130001
 21
688.3822920378999
 31
0.0
  0
ARC
  5
4F7
330
128
100
AcDbEntity
  8
_1-0_
  6
Continuous
 62
     0
100
AcDbCircle
 10
395.916881113
 20
689.3954640378999
 30
0.0
 40
0.999999
100
AcDbArc
 50
-132.254652
 51
-34.25465800001
  0
ARC
  5
4F8
330
128
100
AcDbEntity
  8
_1-0_
  6
Continuous
 62
     0
100
AcDbCircle
 10
395.916881113
 20
689.3954640378999
 30
0.0
 40
1.8
100
AcDbArc
 50
-132.254651
 51
-34.254658
  0
ARC
  5
4F9
330
128
100
AcDbEntity
  8
_1-0_
  6
Continuous
 62
     0
100
AcDbCircle
 10
370.391147113
 20
698.7723990379
 30
0.0
 40
6.299999999999999
100
AcDbArc
 50
43.903458
 51
142.096542
  0
LINE
  5
4FA
330
128
100
AcDbEntity
  8
_1-0_
  6
Continuous
 62
     0
100
AcDbLine
 10
375.486596113
 20
701.8588860378998
 30
0.0
 11
375.555449113
 21
700.5451080378999
 31
0.0
  0
LINE
  5
4FB
330
128
100
AcDbEntity
  8
_1-0_
  6
Continuous
 62
     0
100
AcDbLine
 10
365.000987113
 20
701.3093580378999
 30
0.0
 11
365.069837113
 21
699.9955800378999
 31
0.0
  0
ARC
  5
4FC
330
128
100
AcDbEntity
  8
_1-0_
  6
Continuous
 62
     0
100
AcDbCircle
 10
373.489337113
 20
701.7542160378999
 30
0.0
 40
2.000000999999999
100
AcDbArc
 50
2.999999999998999
 51
43.903458
  0
LINE
  5
4FD
330
128
100
AcDbEntity
  8
_1-0_
  6
Continuous
 62
     0
100
AcDbLine
 10
394.706513113
 20
688.0631670378999
 30
0.0
 11
381.505754113
 21
700.0558530379
 31
0.0
  0
LINE
  5
4FE
330
128
100
AcDbEntity
  8
_1-0_
  6
Continuous
 62
     0
100
AcDbLine
 10
381.505754113
 20
700.0558530379
 30
0.0
 11
359.1624261130001
 21
698.8848870378999
 31
0.0
  0
LINE
  5
4FF
330
128
100
AcDbEntity
  8
_1-0_
  6
Continuous
 62
     0
100
AcDbLine
 10
347.328404113
 20
685.5801870379
 30
0.0
 11
359.203271113
 21
698.8870290378998
 31
0.0
  0
ARC
  5
500
330
128
100
AcDbEntity
  8
_1-0_
  6
Continuous
 62
     0
100
AcDbCircle
 10
366.998246113
 20
701.4140310378999
 30
0.0
 40
2.000000999999999
100
AcDbArc
 50
142.096542
 51
183.0
  0
LINE
  5
501
330
128
100
AcDbEntity
  8
_1-0_
  6
Continuous
 62
     0
100
AcDbLine
 10
342.673121113
 20
687.9050700378999
 30
0.0
 11
343.283666113
 21
688.4220180378999
 31
0.0
  0
LINE
  5
502
330
128
100
AcDbEntity
  8
_1-0_
  6
Continuous
 62
     0
100
AcDbLine
 10
343.283666113
 20
688.4220180378999
 30
0.0
 11
345.222224113
 21
686.1324780379
 31
0.0
  0
LINE
  5
503
330
128
100
AcDbEntity
  8
_1-0_
  6
Continuous
 62
     0
100
AcDbLine
 10
342.673121113
 20
687.9050700378999
 30
0.0
 11
344.6116791130001
 21
685.6155300379001
 31
0.0
  0
ARC
  5
504
330
128
100
AcDbEntity
  8
_1-0_
  6
Continuous
 62
     0
100
AcDbCircle
 10
345.985403113
 20
686.7786660379
 30
0.0
 40
0.999999
100
AcDbArc
 50
-139.745342
 51
-41.74534799999999
  0
LINE
  5
505
330
128
100
AcDbEntity
  8
_1-0_
  6
Continuous
 62
     0
100
AcDbLine
 10
346.7315151130001
 20
686.1128430378999
 30
0.0
 11
358.8284031130001
 21
699.6684810378999
 31
0.0
  0
ARC
  5
506
330
128
100
AcDbEntity
  8
_1-0_
  6
Continuous
 62
     0
100
AcDbCircle
 10
345.985403113
 20
686.7786660379
 30
0.0
 40
1.8
100
AcDbArc
 50
-139.745342
 51
-41.745349
  0
LINE
  5
507
330
128
100
AcDbEntity
  8
_1-0_
  6
Continuous
 62
     0
100
AcDbLine
 10
370.006145113
 20
706.1186940378998
 30
0.0
 11
372.1524127598
 21
667.4517971023
 31
0.0
  0
LINE
  5
508
330
128
100
AcDbEntity
  8
_0-0_
  6
Continuous
 62
     0
100
AcDbLine
 10
351.838641978
 20
661.9369166874999
 30
0.0
 11
351.8522871912001
 21
681.9053432414
 31
0.0
  0
LINE
  5
509
330
128
100
AcDbEntity
  8
_0-0_
  6
Continuous
 62
     0
100
AcDbLine
 10
348.8386419780001
 20
661.9369166874999
 30
0.0
 11
348.8522871912
 21
683.3686062373999
 31
0.0
  0
CIRCLE
  5
50A
330
128
100
AcDbEntity
  8
_a-0_
  6
Continuous
 62
     0
100
AcDbCircle
 10
372.5193984751001
 20
660.8402270823001
 30
0.0
 40
2.1
  0
LINE
  5
50B
330
128
100
AcDbEntity
  8
_1-0_
  6
Continuous
 62
     0
100
AcDbLine
 10
367.316753113
 20
700.1133360378998
 30
0.0
 11
369.0183747483
 21
670.6620302275
 31
0.0
  0
LINE
  5
50C
330
128
100
AcDbEntity
  8
_1-0_
  6
Continuous
 62
     0
100
AcDbLine
 10
373.308533113
 20
700.4273520378999
 30
0.0
 11
375.0101508231
 21
670.9760456366999
 31
0.0
  0
LINE
  5
50D
330
128
100
AcDbEntity
  8
_a-0_
  6
Continuous
 62
     0
100
AcDbLine
 10
375.0101508231
 20
670.9760456366999
 30
0.0
 11
369.0183747483
 21
670.6620302275
 31
0.0
  0
LINE
  5
50E
330
128
100
AcDbEntity
  8
_1-0_
  6
Continuous
 62
     0
100
AcDbLine
 10
367.816070113
 20
700.1395050378999
 30
0.0
 11
369.5465288322
 21
670.1890234146
 31
0.0
  0
LINE
  5
50F
330
128
100
AcDbEntity
  8
_1-0_
  6
Continuous
 62
     0
100
AcDbLine
 10
372.8092161130001
 20
700.4011830378999
 30
0.0
 11
374.5396789939
 21
670.4507031022
 31
0.0
  0
LINE
  5
510
330
128
100
AcDbEntity
  8
_a-0_
  6
Continuous
 62
     0
100
AcDbLine
 10
374.5396789939
 20
670.4507031022
 30
0.0
 11
369.5465288322
 21
670.1890234146
 31
0.0
  0
LINE
  5
511
330
128
100
AcDbEntity
  8
_a-0_
  6
Continuous
 62
     0
100
AcDbLine
 10
369.3394164606
 20
670.3745101234999
 30
0.0
 11
369.5465288322
 21
670.1890234146
 31
0.0
  0
LINE
  5
512
330
128
100
AcDbEntity
  8
_a-0_
  6
Continuous
 62
     0
100
AcDbLine
 10
374.5396789939
 20
670.4507031022
 30
0.0
 11
374.724171955
 21
670.6567133111
 31
0.0
  0
LINE
  5
513
330
128
100
AcDbEntity
  8
_a-0_
  6
Continuous
 62
     0
100
AcDbLine
 10
369.0183747483
 20
670.6620302275
 30
0.0
 11
369.3394164606
 21
670.3745101234999
 31
0.0
  0
LINE
  5
514
330
128
100
AcDbEntity
  8
_a-0_
  6
Continuous
 62
     0
100
AcDbLine
 10
374.724171955
 20
670.6567133111
 30
0.0
 11
375.0101508231
 21
670.9760456366999
 31
0.0
  0
LINE
  5
515
330
128
100
AcDbEntity
  8
_1-0_
  6
Continuous
 62
     0
100
AcDbLine
 10
861.9157474142999
 20
700.8722070378999
 30
0.0
 11
884.8842274142999
 21
699.6684810378999
 31
0.0
  0
LINE
  5
516
330
128
100
AcDbEntity
  8
_1-0_
  6
Continuous
 62
     0
100
AcDbLine
 10
848.4681784142999
 20
688.6552980378999
 30
0.0
 11
861.9157474142999
 21
700.8722070378999
 31
0.0
  0
LINE
  5
517
330
128
100
AcDbEntity
  8
_1-0_
  6
Continuous
 62
     0
100
AcDbLine
 10
844.6193554142999
 20
690.8619240378999
 30
0.0
 11
845.2805914142999
 21
691.3122240378998
 31
0.0
  0
LINE
  5
518
330
128
100
AcDbEntity
  8
_1-0_
  6
Continuous
 62
     0
100
AcDbLine
 10
845.2805914142999
 20
691.3122240378998
 30
0.0
 11
846.9692074142999
 21
688.8325920378999
 31
0.0
  0
LINE
  5
519
330
128
100
AcDbEntity
  8
_1-0_
  6
Continuous
 62
     0
100
AcDbLine
 10
844.6193554142999
 20
690.8619240378999
 30
0.0
 11
846.3079714142999
 21
688.3822920378999
 31
0.0
  0
ARC
  5
51A
330
128
100
AcDbEntity
  8
_1-0_
  6
Continuous
 62
     0
100
AcDbCircle
 10
847.7957494143
 20
689.3954640378999
 30
0.0
 40
0.999999
100
AcDbArc
 50
-145.745342
 51
-47.74534800000999
  0
ARC
  5
51B
330
128
100
AcDbEntity
  8
_1-0_
  6
Continuous
 62
     0
100
AcDbCircle
 10
847.7957494143
 20
689.3954640378999
 30
0.0
 40
1.8
100
AcDbArc
 50
-145.745342
 51
-47.74534899999999
  0
ARC
  5
51C
330
128
100
AcDbEntity
  8
_1-0_
  6
Continuous
 62
     0
100
AcDbCircle
 10
873.3214834142998
 20
698.7723990379
 30
0.0
 40
6.299999999999999
100
AcDbArc
 50
37.903458
 51
136.096542
  0
LINE
  5
51D
330
128
100
AcDbEntity
  8
_1-0_
  6
Continuous
 62
     0
100
AcDbLine
 10
868.2260344142999
 20
701.8588860378998
 30
0.0
 11
868.1571814142998
 21
700.5451080378999
 31
0.0
  0
LINE
  5
51E
330
128
100
AcDbEntity
  8
_1-0_
  6
Continuous
 62
     0
100
AcDbLine
 10
878.7116434142999
 20
701.3093580378999
 30
0.0
 11
878.6427934142999
 21
699.9955800378999
 31
0.0
  0
ARC
  5
51F
330
128
100
AcDbEntity
  8
_1-0_
  6
Continuous
 62
     0
100
AcDbCircle
 10
870.2232934142999
 20
701.7542160378999
 30
0.0
 40
2.000000999999999
100
AcDbArc
 50
136.096542
 51
177.0
  0
LINE
  5
520
330
128
100
AcDbEntity
  8
_1-0_
  6
Continuous
 62
     0
100
AcDbLine
 10
849.0061174142999
 20
688.0631670378999
 30
0.0
 11
862.2068764143
 21
700.0558530379
 31
0.0
  0
LINE
  5
521
330
128
100
AcDbEntity
  8
_1-0_
  6
Continuous
 62
     0
100
AcDbLine
 10
862.2068764143
 20
700.0558530379
 30
0.0
 11
884.5502044143
 21
698.8848870378999
 31
0.0
  0
LINE
  5
522
330
128
100
AcDbEntity
  8
_1-0_
  6
Continuous
 62
     0
100
AcDbLine
 10
896.3842264143
 20
685.5801870379
 30
0.0
 11
884.5093594143
 21
698.8870290378998
 31
0.0
  0
ARC
  5
523
330
128
100
AcDbEntity
  8
_1-0_
  6
Continuous
 62
     0
100
AcDbCircle
 10
876.7143844142999
 20
701.4140310378999
 30
0.0
 40
2.000000999999999
100
AcDbArc
 50
-2.999999999998999
 51
37.903458
  0
LINE
  5
524
330
128
100
AcDbEntity
  8
_1-0_
  6
Continuous
 62
     0
100
AcDbLine
 10
901.0395094142999
 20
687.9050700378999
 30
0.0
 11
900.4289644142998
 21
688.4220180378999
 31
0.0
  0
LINE
  5
525
330
128
100
AcDbEntity
  8
_1-0_
  6
Continuous
 62
     0
100
AcDbLine
 10
900.4289644142998
 20
688.4220180378999
 30
0.0
 11
898.4904064143
 21
686.1324780379
 31
0.0
  0
LINE
  5
526
330
128
100
AcDbEntity
  8
_1-0_
  6
Continuous
 62
     0
100
AcDbLine
 10
901.0395094142999
 20
687.9050700378999
 30
0.0
 11
899.1009514143
 21
685.6155300379001
 31
0.0
  0
ARC
  5
527
330
128
100
AcDbEntity
  8
_1-0_
  6
Continuous
 62
     0
100
AcDbCircle
 10
897.7272274142999
 20
686.7786660379
 30
0.0
 40
0.999999
100
AcDbArc
 50
-138.254652
 51
-40.254658
  0
LINE
  5
528
330
128
100
AcDbEntity
  8
_1-0_
  6
Continuous
 62
     0
100
AcDbLine
 10
896.9811154142998
 20
686.1128430378999
 30
0.0
 11
884.8842274142999
 21
699.6684810378999
 31
0.0
  0
ARC
  5
529
330
128
100
AcDbEntity
  8
_1-0_
  6
Continuous
 62
     0
100
AcDbCircle
 10
897.7272274142999
 20
686.7786660379
 30
0.0
 40
1.8
100
AcDbArc
 50
-138.254651
 51
-40.254658
  0
LINE
  5
52A
330
128
100
AcDbEntity
  8
_1-0_
  6
Continuous
 62
     0
100
AcDbLine
 10
873.7064854142998
 20
706.1186940378998
 30
0.0
 11
871.5602177674
 21
667.4517971023
 31
0.0
  0
LINE
  5
52B
330
128
100
AcDbEntity
  8
_1-0_
  6
Continuous
 62
     0
100
AcDbLine
 10
870.9034144143
 20
700.4011830378999
 30
0.0
 11
869.1729515333999
 21
670.4507031022
 31
0.0
  0
LINE
  5
52C
330
128
100
AcDbEntity
  8
_1-0_
  6
Continuous
 62
     0
100
AcDbLine
 10
870.4040974143
 20
700.4273520378999
 30
0.0
 11
868.7024797041999
 21
670.9760456366999
 31
0.0
  0
LINE
  5
52D
330
128
100
AcDbEntity
  8
_1-0_
  6
Continuous
 62
     0
100
AcDbLine
 10
875.8965604142998
 20
700.1395050378999
 30
0.0
 11
874.1661016949999
 21
670.1890234146
 31
0.0
  0
LINE
  5
52E
330
128
100
AcDbEntity
  8
_1-0_
  6
Continuous
 62
     0
100
AcDbLine
 10
876.3958774142999
 20
700.1133360378998
 30
0.0
 11
874.6942557789999
 21
670.6620302275
 31
0.0
  0
LINE
  5
52F
330
128
100
AcDbEntity
  8
_a-0_
  6
Continuous
 62
     0
100
AcDbLine
 10
868.7024797041999
 20
670.9760456366999
 30
0.0
 11
874.6942557789999
 21
670.6620302275
 31
0.0
  0
LINE
  5
530
330
128
100
AcDbEntity
  8
_a-0_
  6
Continuous
 62
     0
100
AcDbLine
 10
868.9884585723
 20
670.6567133111
 30
0.0
 11
868.7024797041999
 21
670.9760456366999
 31
0.0
  0
LINE
  5
531
330
128
100
AcDbEntity
  8
_a-0_
  6
Continuous
 62
     0
100
AcDbLine
 10
869.1729515333999
 20
670.4507031022
 30
0.0
 11
874.1661016949999
 21
670.1890234146
 31
0.0
  0
LINE
  5
532
330
128
100
AcDbEntity
  8
_a-0_
  6
Continuous
 62
     0
100
AcDbLine
 10
869.1729515333999
 20
670.4507031022
 30
0.0
 11
868.9884585723
 21
670.6567133111
 31
0.0
  0
LINE
  5
533
330
128
100
AcDbEntity
  8
_a-0_
  6
Continuous
 62
     0
100
AcDbLine
 10
874.3732140667001
 20
670.3745101234999
 30
0.0
 11
874.1661016949999
 21
670.1890234146
 31
0.0
  0
LINE
  5
534
330
128
100
AcDbEntity
  8
_a-0_
  6
Continuous
 62
     0
100
AcDbLine
 10
874.6942557789999
 20
670.6620302275
 30
0.0
 11
874.3732140667001
 21
670.3745101234999
 31
0.0
  0
LINE
  5
535
330
128
100
AcDbEntity
  8
_0-1_PRO0
  6
Continuous
 62
     0
100
AcDbLine
 10
796.8563142636
 20
654.1781456875
 30
0.0
 11
921.8563152635999
 21
654.1781456875
 31
0.0
  0
LINE
  5
536
330
128
100
AcDbEntity
  8
_0-1_PRO0
  6
Continuous
 62
     0
100
AcDbLine
 10
850.8386400772
 20
655.1732172386
 30
0.0
 11
796.0950003960999
 21
655.2005869583999
 31
0.0
  0
LINE
  5
537
330
128
100
AcDbEntity
  8
_0-1_PRO0
  6
Continuous
 62
     0
100
AcDbLine
 10
796.8563142636
 20
654.1781456875
 30
0.0
 11
796.8563142636
 21
498.1074861880999
 31
0.0
  0
LINE
  5
538
330
128
100
AcDbEntity
  8
_0-1_PRO0
  6
Continuous
 62
     0
100
AcDbLine
 10
446.8563162636
 20
654.1781456875
 30
0.0
 11
321.8563152636
 21
654.1781456875
 31
0.0
  0
LINE
  5
539
330
128
100
AcDbEntity
  8
_0-1_PRO0
  6
Continuous
 62
     0
100
AcDbLine
 10
392.83864388
 20
655.1732107780999
 30
0.0
 11
447.6176301312
 21
655.2005869583999
 31
0.0
  0
LINE
  5
53A
330
128
100
AcDbEntity
  8
_0-1_PRO0
  6
Continuous
 62
     0
100
AcDbLine
 10
446.8563162636
 20
654.1781456875
 30
0.0
 11
446.8563162636
 21
498.1074861880999
 31
0.0
  0
LINE
  5
53B
330
128
100
AcDbEntity
  8
_2-0_
  6
Continuous
 62
     0
100
AcDbLine
 10
476.9674413203
 20
545.6656004082
 30
0.0
 11
447.6176301312
 21
655.2005869583999
 31
0.0
  0
LINE
  5
53C
330
128
100
AcDbEntity
  8
_2-0_
  6
Continuous
 62
     0
100
AcDbLine
 10
766.7451892069999
 20
548.2859896558998
 30
0.0
 11
796.0950003960999
 21
655.2005869583999
 31
0.0
  0
ARC
  5
53D
330
128
100
AcDbEntity
  8
_2-0_
  6
Continuous
 62
     0
100
AcDbCircle
 10
621.5210484761581
 20
584.0515289895346
 30
0.0
 40
149.5634475894334
100
AcDbArc
 50
194.8715636184602
 51
346.1646315590994
  0
LINE
  5
53E
330
128
100
AcDbEntity
  8
_2-0_
  6
Continuous
 62
     0
100
AcDbLine
 10
476.0015154939999
 20
545.4067813631
 30
0.0
 11
446.8563162636
 21
654.1781456875
 31
0.0
  0
ARC
  5
53F
330
128
100
AcDbEntity
  8
_0-0_
  6
Continuous
 62
     0
100
AcDbCircle
 10
621.5209450589966
 20
584.0513942136657
 30
0.0
 40
150.5633105484367
100
AcDbArc
 50
194.8723771872601
 51
346.1569561409366
  0
LINE
  5
540
330
128
100
AcDbEntity
  8
_2-0_
  6
Continuous
 62
     0
100
AcDbLine
 10
767.7111150333001
 20
548.0271706107999
 30
0.0
 11
796.8563142636
 21
654.1781456875
 31
0.0
  0
ARC
  5
541
330
128
100
AcDbEntity
  8
_0-0_
  6
Continuous
 62
     0
100
AcDbCircle
 10
921.7205940216
 20
704.8723093097999
 30
0.0
 40
0.5
100
AcDbArc
 50
-99.19866089521001
 51
78.59045565079
  0
TEXT
  5
542
330
128
100
AcDbEntity
  8
_2-0_
  6
Continuous
 62
     0
100
AcDbText
 10
941.3964656255
 20
294.3778453541
 30
0.0
 40
7.5
  1
1000
 41
0.9986666666666998
100
AcDbText
  0
TEXT
  5
543
330
128
100
AcDbEntity
  8
_0-1_PRO0
  6
Continuous
 62
     0
100
AcDbText
 10
851.1904284818999
 20
400.3873745819999
 30
0.0
 40
9.0
  1
Ｃ
100
AcDbText
  0
TEXT
  5
544
330
128
100
AcDbEntity
  8
_2-0_
  6
Continuous
 62
     0
100
AcDbText
 10
1020.666501382
 20
400.8504239615
 30
0.0
 40
9.0
  1
200
100
AcDbText
  0
TEXT
  5
545
330
128
100
AcDbEntity
  8
_2-0_
  6
Continuous
 62
     0
100
AcDbText
 10
116.8671737961
 20
823.6226916167
 30
0.0
 40
12.0
  1
◇アルミ３５０タイプ（３５０ＦＹＹＧ－Ａ）
100
AcDbText
  0
TEXT
  5
546
330
128
100
AcDbEntity
  8
_2-0_
  6
Continuous
 62
     0
100
AcDbText
 10
441.7616357512
 20
294.1899028592
 30
0.0
 40
7.5
  1
３５０ＦＹＹＧ－Ａ１０００
100
AcDbText
  0
TEXT
  5
547
330
128
100
AcDbEntity
  8
_2-0_
  6
Continuous
 62
     0
100
AcDbText
 10
591.3647146180998
 20
294.3051770993
 30
0.0
 40
7.5
  1
３０００
100
AcDbText
  0
TEXT
  5
548
330
128
100
AcDbEntity
  8
_2-0_
  6
Continuous
 62
     0
100
AcDbText
 10
694.7163577236
 20
294.3051770993
 30
0.0
 40
7.5
  1
２０００
100
AcDbText
  0
TEXT
  5
549
330
128
100
AcDbEntity
  8
_2-0_
  6
Continuous
 62
     0
100
AcDbText
 10
591.8240552541999
 20
275.9315516583
 30
0.0
 40
7.49
  1
３０００
 41
1.001335113484999
100
AcDbText
  0
TEXT
  5
54A
330
128
100
AcDbEntity
  8
_2-0_
  6
Continuous
 62
     0
100
AcDbText
 10
592.2833958901999
 20
259.3952887615
 30
0.0
 40
7.5
  1
６０００
100
AcDbText
  0
TEXT
  5
54B
330
128
100
AcDbEntity
  8
_2-0_
  6
Continuous
 62
     0
100
AcDbText
 10
442.3964656255
 20
258.3778453541
 30
0.0
 40
7.5
  1
ｔ１．０×ｗ３０
100
AcDbText
  0
TEXT
  5
54C
330
128
100
AcDbEntity
  8
_2-0_
  6
Continuous
 62
     0
100
AcDbText
 10
642.8339656254999
 20
294.3778453541
 30
0.0
 40
7.5
  1
１
 41
0.9986666666666998
100
AcDbText
  0
TEXT
  5
54D
330
128
100
AcDbEntity
  8
_2-0_
  6
Continuous
 62
     0
100
AcDbText
 10
642.8339656254999
 20
276.3778453541
 30
0.0
 40
7.49
  1
２
100
AcDbText
  0
TEXT
  5
54E
330
128
100
AcDbEntity
  8
_2-0_
  6
Continuous
 62
     0
100
AcDbText
 10
642.8339656254999
 20
258.3778453541
 30
0.0
 40
7.5
  1
１
 41
0.9986666666666998
100
AcDbText
  0
TEXT
  5
54F
330
128
100
AcDbEntity
  8
_2-0_
  6
Continuous
 62
     0
100
AcDbText
 10
642.8339656254999
 20
240.3778453541
 30
0.0
 40
7.5
  1
６
 41
0.9986666666666998
100
AcDbText
  0
TEXT
  5
550
330
128
100
AcDbEntity
  8
_2-0_
  6
Continuous
 62
     0
100
AcDbText
 10
642.8339656254999
 20
186.3778453541
 30
0.0
 40
7.5
  1
１
 41
0.9986666666666998
100
AcDbText
  0
TEXT
  5
551
330
128
100
AcDbEntity
  8
_2-0_
  6
Continuous
 62
     0
100
AcDbText
 10
642.8339656254999
 20
168.3778453541
 30
0.0
 40
7.5
  1
２
 41
0.9986666666666998
100
AcDbText
  0
TEXT
  5
552
330
128
100
AcDbEntity
  8
_2-0_
  6
Continuous
 62
     0
100
AcDbText
 10
642.8339656254999
 20
150.3778453541
 30
0.0
 40
7.5
  1
１
 41
0.9986666666666998
100
AcDbText
  0
TEXT
  5
553
330
128
100
AcDbEntity
  8
_2-0_
  6
Continuous
 62
     0
100
AcDbText
 10
640.2355909410999
 20
222.3778453541
 30
0.0
 40
7.5
  1
１２
 41
0.9986666666666998
100
AcDbText
  0
TEXT
  5
554
330
128
100
AcDbEntity
  8
_2-0_
  6
Continuous
 62
     0
100
AcDbText
 10
640.2355909410999
 20
204.3778453541
 30
0.0
 40
7.5
  1
１２
 41
0.9986666666666998
100
AcDbText
  0
TEXT
  5
555
330
128
100
AcDbEntity
  8
_2-0_
  6
Continuous
 62
     0
100
AcDbText
 10
640.2355909410999
 20
132.3778453541
 30
0.0
 40
7.49
  1
１２
100
AcDbText
  0
TEXT
  5
556
330
128
100
AcDbEntity
  8
_2-0_
  6
Continuous
 62
     0
100
AcDbText
 10
640.2355909410999
 20
114.3778453541
 30
0.0
 40
7.49
  1
１２
100
AcDbText
  0
TEXT
  5
557
330
128
100
AcDbEntity
  8
_2-0_
  6
Continuous
 62
     0
100
AcDbText
 10
640.2355909410999
 20
96.37784535411
 30
0.0
 40
7.5
  1
１２
 41
0.9986666666666998
100
AcDbText
  0
TEXT
  5
558
330
128
100
AcDbEntity
  8
_2-0_
  6
Continuous
 62
     0
100
AcDbText
 10
640.2355909410999
 20
78.37784535411
 30
0.0
 40
7.5
  1
１２
 41
0.9986666666666998
100
AcDbText
  0
TEXT
  5
559
330
128
100
AcDbEntity
  8
_2-0_
  6
Continuous
 62
     0
100
AcDbText
 10
695.3339393484
 20
276.3778453541
 30
0.0
 40
7.49
  1
２０００
 41
1.001335113484999
100
AcDbText
  0
TEXT
  5
55A
330
128
100
AcDbEntity
  8
_2-0_
  6
Continuous
 62
     0
100
AcDbText
 10
695.3339393484
 20
258.3778453541
 30
0.0
 40
7.5
  1
６０００
100
AcDbText
  0
TEXT
  5
55B
330
128
100
AcDbEntity
  8
_2-0_
  6
Continuous
 62
     0
100
AcDbText
 10
695.3339393484
 20
168.3778453541
 30
0.0
 40
7.5
  1
２０６０
100
AcDbText
  0
TEXT
  5
55C
330
128
100
AcDbEntity
  8
_2-0_
  6
Continuous
 62
     0
100
AcDbText
 10
695.3339393484
 20
150.3778453541
 30
0.0
 40
7.5
  1
２１００
100
AcDbText
  0
TEXT
  5
55D
330
128
100
AcDbEntity
  8
_2-0_
  6
Continuous
 62
     0
100
AcDbText
 10
744.8339656255
 20
294.3778453541
 30
0.0
 40
7.5
  1
１
 41
0.9986666666666998
100
AcDbText
  0
TEXT
  5
55E
330
128
100
AcDbEntity
  8
_2-0_
  6
Continuous
 62
     0
100
AcDbText
 10
744.8339656255
 20
276.3778453541
 30
0.0
 40
7.49
  1
２
100
AcDbText
  0
TEXT
  5
55F
330
128
100
AcDbEntity
  8
_2-0_
  6
Continuous
 62
     0
100
AcDbText
 10
744.8339656255
 20
258.3778453541
 30
0.0
 40
7.5
  1
１
 41
0.9986666666666998
100
AcDbText
  0
TEXT
  5
560
330
128
100
AcDbEntity
  8
_2-0_
  6
Continuous
 62
     0
100
AcDbText
 10
744.8339656255
 20
240.3778453541
 30
0.0
 40
7.5
  1
４
 41
0.9986666666666998
100
AcDbText
  0
TEXT
  5
561
330
128
100
AcDbEntity
  8
_2-0_
  6
Continuous
 62
     0
100
AcDbText
 10
744.8339656255
 20
222.3778453541
 30
0.0
 40
7.5
  1
８
 41
0.9986666666666998
100
AcDbText
  0
TEXT
  5
562
330
128
100
AcDbEntity
  8
_2-0_
  6
Continuous
 62
     0
100
AcDbText
 10
744.8339656255
 20
204.3778453541
 30
0.0
 40
7.5
  1
８
 41
0.9986666666666998
100
AcDbText
  0
TEXT
  5
563
330
128
100
AcDbEntity
  8
_2-0_
  6
Continuous
 62
     0
100
AcDbText
 10
744.8339656255
 20
186.3778453541
 30
0.0
 40
7.5
  1
１
 41
0.9986666666666998
100
AcDbText
  0
TEXT
  5
564
330
128
100
AcDbEntity
  8
_2-0_
  6
Continuous
 62
     0
100
AcDbText
 10
744.8339656255
 20
168.3778453541
 30
0.0
 40
7.5
  1
２
 41
0.9986666666666998
100
AcDbText
  0
TEXT
  5
565
330
128
100
AcDbEntity
  8
_2-0_
  6
Continuous
 62
     0
100
AcDbText
 10
744.8339656255
 20
150.3778453541
 30
0.0
 40
7.5
  1
１
 41
0.9986666666666998
100
AcDbText
  0
TEXT
  5
566
330
128
100
AcDbEntity
  8
_2-0_
  6
Continuous
 62
     0
100
AcDbText
 10
744.8339656255
 20
132.3778453541
 30
0.0
 40
7.49
  1
８
100
AcDbText
  0
TEXT
  5
567
330
128
100
AcDbEntity
  8
_2-0_
  6
Continuous
 62
     0
100
AcDbText
 10
742.7965746825
 20
78.37784535411
 30
0.0
 40
7.5
  1
１０
 41
0.9986666666666998
100
AcDbText
  0
TEXT
  5
568
330
128
100
AcDbEntity
  8
_2-0_
  6
Continuous
 62
     0
100
AcDbText
 10
742.7965746825
 20
96.37784535411
 30
0.0
 40
7.5
  1
１０
 41
0.9986666666666998
100
AcDbText
  0
TEXT
  5
569
330
128
100
AcDbEntity
  8
_2-0_
  6
Continuous
 62
     0
100
AcDbText
 10
742.7965746825
 20
114.3778453541
 30
0.0
 40
7.49
  1
１０
100
AcDbText
  0
TEXT
  5
56A
330
128
100
AcDbEntity
  8
_2-0_
  6
Continuous
 62
     0
100
AcDbText
 10
441.7616357512
 20
240.2970329766
 30
0.0
 40
7.5
  1
３５０ＦＹＹＨ－１０００
100
AcDbText
  0
TEXT
  5
56B
330
128
100
AcDbEntity
  8
_2-0_
  6
Continuous
 62
     0
100
AcDbText
 10
443.0927495259999
 20
186.2501455554
 30
0.0
 40
7.5
  1
３５０ＦＹＹＪ－１０００
 41
0.9986666666666998
100
AcDbText
  0
TEXT
  5
56C
330
128
100
AcDbEntity
  8
_2-0_
  6
Continuous
 62
     0
100
AcDbText
 10
442.3964656255
 20
132.3778453541
 30
0.0
 40
7.49
  1
なべＭ６×３５
 41
1.001335113484999
100
AcDbText
  0
TEXT
  5
56D
330
128
100
AcDbEntity
  8
_2-0_
  6
Continuous
 62
     0
100
AcDbText
 10
443.6464656255
 20
114.3778453541
 30
0.0
 40
7.49
  1
Ｍ６×４０
 41
1.001335113484999
100
AcDbText
  0
TEXT
  5
56E
330
128
100
AcDbEntity
  8
_2-0_
  6
Continuous
 62
     0
100
AcDbText
 10
443.0214656254999
 20
96.37784535411
 30
0.0
 40
7.5
  1
ＡＧ－６６０
100
AcDbText
  0
TEXT
  5
56F
330
128
100
AcDbEntity
  8
_2-0_
  6
Continuous
 62
     0
100
AcDbText
 10
441.4589656254999
 20
78.37784535411
 30
0.0
 40
7.5
  1
１．５×１８×６．５穴
100
AcDbText
  0
TEXT
  5
570
330
128
100
AcDbEntity
  8
_2-0_
  6
Continuous
 62
     0
100
AcDbText
 10
592.2024096853999
 20
169.3054380977
 30
0.0
 40
7.49
  1
３０６０
 41
1.001335113484999
100
AcDbText
  0
TEXT
  5
571
330
128
100
AcDbEntity
  8
_2-0_
  6
Continuous
 62
     0
100
AcDbText
 10
592.6808640726
 20
150.3778453541
 30
0.0
 40
7.5
  1
３１００
100
AcDbText
  0
LINE
  5
572
330
128
100
AcDbEntity
  8
_0-0_
  6
Continuous
 62
     0
100
AcDbLine
 10
1017.333965626
 20
272.5028453541
 30
0.0
 11
814.8339656255
 21
272.5028453541
 31
0.0
  0
LINE
  5
573
330
128
100
AcDbEntity
  8
_2-0_
  6
Continuous
 62
     0
100
AcDbLine
 10
814.8339656255
 20
326.5028453541
 30
0.0
 11
814.8339656255
 21
272.5028453541
 31
0.0
  0
LINE
  5
574
330
128
100
AcDbEntity
  8
_2-0_
  6
Continuous
 62
     0
100
AcDbLine
 10
927.3339656255
 20
326.5028453541
 30
0.0
 11
927.3339656255
 21
272.5028453541
 31
0.0
  0
LINE
  5
575
330
128
100
AcDbEntity
  8
_2-0_
  6
Continuous
 62
     0
100
AcDbLine
 10
972.3339656254999
 20
326.5028453541
 30
0.0
 11
972.3339656254999
 21
272.5028453541
 31
0.0
  0
LINE
  5
576
330
128
100
AcDbEntity
  8
_2-0_
  6
Continuous
 62
     0
100
AcDbLine
 10
1017.333965626
 20
326.5028453541
 30
0.0
 11
1017.333965626
 21
272.5028453541
 31
0.0
  0
TEXT
  5
577
330
128
100
AcDbEntity
  8
_2-0_
  6
Continuous
 62
     0
100
AcDbText
 10
942.1396945271
 20
277.4356820604999
 30
0.0
 40
7.5
  1
1050
100
AcDbText
  0
TEXT
  5
578
330
128
100
AcDbEntity
  8
_2-0_
  6
Continuous
 62
     0
100
AcDbText
 10
986.9609462058999
 20
277.1590076674
 30
0.0
 40
7.5
  1
150
 41
0.9986666666666998
100
AcDbText
  0
TEXT
  5
81F
330
128
100
AcDbEntity
  8
_2-0_
  6
Continuous
 62
     0
100
AcDbText
 10
442.0839656255
 20
150.3778453541
 30
0.0
 40
7.5
  1
ＦＳ１２００
100
AcDbText
  0
TEXT
  5
820
330
128
100
AcDbEntity
  8
_2-0_
  6
Continuous
 62
     0
100
AcDbText
 10
824.5920770797999
 20
293.8927764114
 30
0.0
 40
7.5
  1
３５０ＦＹＹ－Ａ１０００
100
AcDbText
  0
TEXT
  5
821
330
128
100
AcDbEntity
  8
_2-0_
  6
Continuous
 62
     0
100
AcDbText
 10
884.8609303702001
 20
277.5177040624
 30
0.0
 40
7.5
  1
１０５０
100
AcDbText
  0
ENDSEC
  0
SECTION
  2
OBJECTS
  0
DICTIONARY
  5
85E
330
0
100
AcDbDictionary
281
     1
  3
ACAD_CIP_PREVIOUS_PRODUCT_INFO
350
100000057
  3
ACAD_COLOR
350
100000037
  3
ACAD_DETAILVIEWSTYLE
350
100000050
  3
ACAD_GROUP
350
85F
  3
ACAD_IMAGE_DICT
350
860
  3
ACAD_LAYOUT
350
100000052
  3
ACAD_MATERIAL
350
100000005
  3
ACAD_MLEADERSTYLE
350
10000004C
  3
ACAD_MLINESTYLE
350
861
  3
ACAD_PLOTSETTINGS
350
100000053
  3
ACAD_PLOTSTYLENAME
350
100000003
  3
ACAD_SCALELIST
350
10000003A
  3
ACAD_SECTIONVIEWSTYLE
350
10000004E
  3
ACAD_TABLESTYLE
350
100000038
  3
ACAD_VISUALSTYLE
350
10000001E
  3
ACDB_RECOMPOSE_DATA
350
10000007C
  3
AcDbVariableDictionary
350
10000006F
  3
DWGPROPS
350
10000007D
  0
DICTIONARY
  5
10000005F
330
115
100
AcDbDictionary
280
     1
281
     1
  3
ADSK_XREC_LAYER_RECONCILED
360
100000060
  0
DICTIONARY
  5
100000061
330
117
100
AcDbDictionary
280
     1
281
     1
  3
ADSK_XREC_LAYER_RECONCILED
360
100000062
  0
DICTIONARY
  5
100000063
330
118
100
AcDbDictionary
280
     1
281
     1
  3
ADSK_XREC_LAYER_RECONCILED
360
100000064
  0
DICTIONARY
  5
100000065
330
119
100
AcDbDictionary
280
     1
281
     1
  3
ADSK_XREC_LAYER_RECONCILED
360
100000066
  0
DICTIONARY
  5
100000067
330
11A
100
AcDbDictionary
280
     1
281
     1
  3
ADSK_XREC_LAYER_RECONCILED
360
100000068
  0
DICTIONARY
  5
100000069
330
11B
100
AcDbDictionary
280
     1
281
     1
  3
ADSK_XREC_LAYER_RECONCILED
360
10000006A
  0
DICTIONARY
  5
10000006B
330
11C
100
AcDbDictionary
280
     1
281
     1
  3
ADSK_XREC_LAYER_RECONCILED
360
10000006C
  0
DICTIONARY
  5
10000006D
330
11D
100
AcDbDictionary
280
     1
281
     1
  3
ADSK_XREC_LAYER_RECONCILED
360
10000006E
  0
XRECORD
  5
100000057
102
{ACAD_REACTORS
330
85E
102
}
330
85E
100
AcDbXrecord
280
     1
300
ACDLT
300
2017
300
ACDLT_F_S
  0
DICTIONARY
  5
100000037
102
{ACAD_REACTORS
330
85E
102
}
330
85E
100
AcDbDictionary
281
     1
  0
DICTIONARY
  5
100000050
102
{ACAD_REACTORS
330
85E
102
}
330
85E
100
AcDbDictionary
281
     1
  3
Metric50
350
100000051
  0
DICTIONARY
  5
85F
330
85E
100
AcDbDictionary
281
     1
  0
DICTIONARY
  5
860
330
85E
100
AcDbDictionary
281
     1
  0
DICTIONARY
  5
100000052
102
{ACAD_REACTORS
330
85E
102
}
330
85E
100
AcDbDictionary
281
     1
  3
Model
350
100000054
  3
レイアウト1
350
100000055
  0
DICTIONARY
  5
100000005
102
{ACAD_REACTORS
330
85E
102
}
330
85E
100
AcDbDictionary
281
     1
  3
ByBlock
350
10000000E
  3
ByLayer
350
100000006
  3
Global
350
100000016
  0
DICTIONARY
  5
10000004C
102
{ACAD_REACTORS
330
85E
102
}
330
85E
100
AcDbDictionary
281
     1
  3
Standard
350
10000004D
  0
DICTIONARY
  5
861
330
85E
100
AcDbDictionary
281
     1
  3
STANDARD
350
862
  0
DICTIONARY
  5
100000053
102
{ACAD_REACTORS
330
85E
102
}
330
85E
100
AcDbDictionary
281
     1
  0
ACDBDICTIONARYWDFLT
  5
100000003
102
{ACAD_REACTORS
330
85E
102
}
330
85E
100
AcDbDictionary
281
     1
  3
Normal
350
100000004
100
AcDbDictionaryWithDefault
340
100000004
  0
DICTIONARY
  5
10000003A
102
{ACAD_REACTORS
330
85E
102
}
330
85E
100
AcDbDictionary
281
     1
  3
A0
350
10000003B
  3
A1
350
10000003C
  3
A2
350
10000003D
  3
A3
350
10000003E
  3
A4
350
10000003F
  3
A5
350
100000040
  3
A6
350
100000041
  3
A7
350
100000042
  3
A8
350
100000043
  3
A9
350
100000044
  3
B0
350
100000045
  3
B1
350
100000046
  3
B2
350
100000047
  3
B3
350
100000048
  3
B4
350
100000049
  3
B5
350
10000004A
  3
B6
350
10000004B
  0
DICTIONARY
  5
10000004E
102
{ACAD_REACTORS
330
85E
102
}
330
85E
100
AcDbDictionary
281
     1
  3
Metric50
350
10000004F
  0
DICTIONARY
  5
100000038
102
{ACAD_REACTORS
330
85E
102
}
330
85E
100
AcDbDictionary
281
     1
  3
Standard
350
100000039
  0
DICTIONARY
  5
10000001E
102
{ACAD_REACTORS
330
85E
102
}
330
85E
100
AcDbDictionary
281
     1
  3
2dWireframe
350
100000024
  3
Basic
350
100000023
  3
Brighten
350
10000002A
  3
ColorChange
350
10000002E
  3
Conceptual
350
100000027
  3
Dim
350
100000029
  3
EdgeColorOff
350
100000036
  3
Facepattern
350
10000002D
  3
Flat
350
10000001F
  3
FlatWithEdges
350
100000020
  3
Gouraud
350
100000021
  3
GouraudWithEdges
350
100000022
  3
Hidden
350
100000026
  3
JitterOff
350
100000034
  3
Linepattern
350
10000002C
  3
OverhangOff
350
100000035
  3
Realistic
350
100000028
  3
Shaded
350
100000033
  3
Shaded with edges
350
100000032
  3
Shades of Gray
350
10000002F
  3
Sketchy
350
100000030
  3
Thicken
350
10000002B
  3
Wireframe
350
100000025
  3
X-Ray
350
100000031
  0
XRECORD
  5
10000007C
102
{ACAD_REACTORS
330
85E
102
}
330
85E
100
AcDbXrecord
280
     1
 90
        1
330
100000039
  0
DICTIONARY
  5
10000006F
102
{ACAD_REACTORS
330
85E
102
}
330
85E
100
AcDbDictionary
281
     1
  3
CANNOSCALE
350
100000074
  3
CMLEADERSTYLE
350
100000071
  3
CTABLESTYLE
350
100000070
  3
CVIEWDETAILSTYLE
350
100000072
  3
CVIEWSECTIONSTYLE
350
100000073
  3
DIMASSOC
350
100000077
  3
INDEXCTL
350
100000076
  3
SORTENTS
350
100000075
  3
XCLIPFRAME
350
100000078
  0
XRECORD
  5
10000007D
102
{ACAD_REACTORS
330
85E
102
}
330
85E
100
AcDbXrecord
280
     1
  1
DWGPROPS COOKIE
  2

  3

  4

  6

  7

  8
HON1000CG
  9

300
=
301
=
302
=
303
=
304
=
305
=
306
=
307
=
308
=
309
=
 40
0.0007638888888889
 41
2457807.6409375
 42
2457807.641701389
  1

 90
        0
  0
XRECORD
  5
100000060
102
{ACAD_REACTORS
330
10000005F
102
}
330
10000005F
100
AcDbXrecord
280
     1
290
     1
  0
XRECORD
  5
100000062
102
{ACAD_REACTORS
330
100000061
102
}
330
100000061
100
AcDbXrecord
280
     1
290
     1
  0
XRECORD
  5
100000064
102
{ACAD_REACTORS
330
100000063
102
}
330
100000063
100
AcDbXrecord
280
     1
290
     1
  0
XRECORD
  5
100000066
102
{ACAD_REACTORS
330
100000065
102
}
330
100000065
100
AcDbXrecord
280
     1
290
     1
  0
XRECORD
  5
100000068
102
{ACAD_REACTORS
330
100000067
102
}
330
100000067
100
AcDbXrecord
280
     1
290
     1
  0
XRECORD
  5
10000006A
102
{ACAD_REACTORS
330
100000069
102
}
330
100000069
100
AcDbXrecord
280
     1
290
     1
  0
XRECORD
  5
10000006C
102
{ACAD_REACTORS
330
10000006B
102
}
330
10000006B
100
AcDbXrecord
280
     1
290
     1
  0
XRECORD
  5
10000006E
102
{ACAD_REACTORS
330
10000006D
102
}
330
10000006D
100
AcDbXrecord
280
     1
290
     1
  0
ACDBDETAILVIEWSTYLE
  5
100000051
102
{ACAD_XDICTIONARY
360
1000000B5
102
}
102
{ACAD_REACTORS
330
100000050
102
}
330
100000050
100
AcDbModelDocViewStyle
 70
     0
  3
Metric50
290
     0
100
AcDbDetailViewStyle
 70
     0
 71
     0
 90
        3
 71
     1
340
11F
 40
5.0
340
0
 40
5.0
300

 40
0.0
280
     1
 71
     2
340
104
 90
       25
 71
     3
340
11F
 40
5.0
 90
        0
 40
15.0
 90
        1
300
%<\AcVar ViewDetailId>% (%<\AcVar ViewScale \f "%sn">%)
 71
     4
340
104
 90
       25
340
104
 90
       25
280
     0
  0
LAYOUT
  5
100000054
102
{ACAD_XDICTIONARY
360
1000000B7
102
}
102
{ACAD_REACTORS
330
100000052
102
}
330
100000052
100
AcDbPlotSettings
  1

  2
RICOH imagio MP C4002　A 白黒
  4

  6

 40
0.0
 41
0.0
 42
0.0
 43
0.0
 44
0.0
 45
0.0
 46
0.0
 47
0.0
 48
0.0
 49
0.0
140
0.0
141
0.0
142
1.0
143
1.0
 70
  1712
 72
     0
 73
     0
 74
     0
  7

 75
     0
147
1.0
148
0.0
149
0.0
100
AcDbLayout
  1
Model
 70
     1
 71
     0
 10
0.0
 20
0.0
 11
12.0
 21
9.0
 12
0.0
 22
0.0
 32
0.0
 14
0.0
 24
0.0
 34
0.0
 15
0.0
 25
0.0
 35
0.0
146
0.0
 13
0.0
 23
0.0
 33
0.0
 16
1.0
 26
0.0
 36
0.0
 17
0.0
 27
1.0
 37
0.0
 76
     0
330
128
331
100
  0
LAYOUT
  5
100000055
102
{ACAD_XDICTIONARY
360
1000000B9
102
}
102
{ACAD_REACTORS
330
100000052
102
}
330
100000052
100
AcDbPlotSettings
  1

  2
RICOH imagio MP C4002　A 白黒
  4

  6

 40
0.0
 41
0.0
 42
0.0
 43
0.0
 44
0.0
 45
0.0
 46
0.0
 47
0.0
 48
0.0
 49
0.0
140
0.0
141
0.0
142
1.0
143
1.0
 70
   688
 72
     0
 73
     0
 74
     5
  7

 75
    16
147
1.0
148
0.0
149
0.0
100
AcDbLayout
  1
レイアウト1
 70
     0
 71
     1
 10
0.0
 20
0.0
 11
12.0
 21
9.0
 12
0.0
 22
0.0
 32
0.0
 14
1.000000000000000E+20
 24
1.000000000000000E+20
 34
1.000000000000000E+20
 15
-1.000000000000000E+20
 25
-1.000000000000000E+20
 35
-1.000000000000000E+20
146
0.0
 13
0.0
 23
0.0
 33
0.0
 16
1.0
 26
0.0
 36
0.0
 17
0.0
 27
1.0
 37
0.0
 76
     0
330
129
  0
MATERIAL
  5
10000000E
102
{ACAD_XDICTIONARY
360
10000000F
102
}
102
{ACAD_REACTORS
330
100000005
102
}
330
100000005
100
AcDbMaterial
  1
ByBlock
 72
     0
 43
0.0208333333333333
 43
0.0
 43
0.0
 43
0.0
 43
0.0
 43
0.0208333333333333
 43
0.0
 43
0.0
 43
0.0
 43
0.0
 43
1.0
 43
0.0
 43
0.0
 43
0.0
 43
0.0
 43
1.0
 77
     0
 47
0.0208333333333333
 47
0.0
 47
0.0
 47
0.0
 47
0.0
 47
0.0208333333333333
 47
0.0
 47
0.0
 47
0.0
 47
0.0
 47
1.0
 47
0.0
 47
0.0
 47
0.0
 47
0.0
 47
1.0
171
     0
 49
0.0208333333333333
 49
0.0
 49
0.0
 49
0.0
 49
0.0
 49
0.0208333333333333
 49
0.0
 49
0.0
 49
0.0
 49
0.0
 49
1.0
 49
0.0
 49
0.0
 49
0.0
 49
0.0
 49
1.0
175
     0
142
0.0208333333333333
142
0.0
142
0.0
142
0.0
142
0.0
142
0.0208333333333333
142
0.0
142
0.0
142
0.0
142
0.0
142
1.0
142
0.0
142
0.0
142
0.0
142
0.0
142
1.0
179
     0
144
0.0208333333333333
144
0.0
144
0.0
144
0.0
144
0.0
144
0.0208333333333333
144
0.0
144
0.0
144
0.0
144
0.0
144
1.0
144
0.0
144
0.0
144
0.0
144
0.0
144
1.0
147
0.0208333333333333
147
0.0
147
0.0
147
0.0
147
0.0
147
0.0208333333333333
147
0.0
147
0.0
147
0.0
147
0.0
147
1.0
147
0.0
147
0.0
147
0.0
147
0.0
147
1.0
  0
MATERIAL
  5
100000006
102
{ACAD_XDICTIONARY
360
100000007
102
}
102
{ACAD_REACTORS
330
100000005
102
}
330
100000005
100
AcDbMaterial
  1
ByLayer
 72
     0
 43
0.0208333333333333
 43
0.0
 43
0.0
 43
0.0
 43
0.0
 43
0.0208333333333333
 43
0.0
 43
0.0
 43
0.0
 43
0.0
 43
1.0
 43
0.0
 43
0.0
 43
0.0
 43
0.0
 43
1.0
 77
     0
 47
0.0208333333333333
 47
0.0
 47
0.0
 47
0.0
 47
0.0
 47
0.0208333333333333
 47
0.0
 47
0.0
 47
0.0
 47
0.0
 47
1.0
 47
0.0
 47
0.0
 47
0.0
 47
0.0
 47
1.0
171
     0
 49
0.0208333333333333
 49
0.0
 49
0.0
 49
0.0
 49
0.0
 49
0.0208333333333333
 49
0.0
 49
0.0
 49
0.0
 49
0.0
 49
1.0
 49
0.0
 49
0.0
 49
0.0
 49
0.0
 49
1.0
175
     0
142
0.0208333333333333
142
0.0
142
0.0
142
0.0
142
0.0
142
0.0208333333333333
142
0.0
142
0.0
142
0.0
142
0.0
142
1.0
142
0.0
142
0.0
142
0.0
142
0.0
142
1.0
179
     0
144
0.0208333333333333
144
0.0
144
0.0
144
0.0
144
0.0
144
0.0208333333333333
144
0.0
144
0.0
144
0.0
144
0.0
144
1.0
144
0.0
144
0.0
144
0.0
144
0.0
144
1.0
147
0.0208333333333333
147
0.0
147
0.0
147
0.0
147
0.0
147
0.0208333333333333
147
0.0
147
0.0
147
0.0
147
0.0
147
1.0
147
0.0
147
0.0
147
0.0
147
0.0
147
1.0
  0
MATERIAL
  5
100000016
102
{ACAD_XDICTIONARY
360
100000017
102
}
102
{ACAD_REACTORS
330
100000005
102
}
330
100000005
100
AcDbMaterial
  1
Global
 72
     0
 43
0.0208333333333333
 43
0.0
 43
0.0
 43
0.0
 43
0.0
 43
0.0208333333333333
 43
0.0
 43
0.0
 43
0.0
 43
0.0
 43
1.0
 43
0.0
 43
0.0
 43
0.0
 43
0.0
 43
1.0
 77
     0
 47
0.0208333333333333
 47
0.0
 47
0.0
 47
0.0
 47
0.0
 47
0.0208333333333333
 47
0.0
 47
0.0
 47
0.0
 47
0.0
 47
1.0
 47
0.0
 47
0.0
 47
0.0
 47
0.0
 47
1.0
171
     0
 49
0.0208333333333333
 49
0.0
 49
0.0
 49
0.0
 49
0.0
 49
0.0208333333333333
 49
0.0
 49
0.0
 49
0.0
 49
0.0
 49
1.0
 49
0.0
 49
0.0
 49
0.0
 49
0.0
 49
1.0
175
     0
142
0.0208333333333333
142
0.0
142
0.0
142
0.0
142
0.0
142
0.0208333333333333
142
0.0
142
0.0
142
0.0
142
0.0
142
1.0
142
0.0
142
0.0
142
0.0
142
0.0
142
1.0
179
     0
144
0.0208333333333333
144
0.0
144
0.0
144
0.0
144
0.0
144
0.0208333333333333
144
0.0
144
0.0
144
0.0
144
0.0
144
1.0
144
0.0
144
0.0
144
0.0
144
0.0
144
1.0
147
0.0208333333333333
147
0.0
147
0.0
147
0.0
147
0.0
147
0.0208333333333333
147
0.0
147
0.0
147
0.0
147
0.0
147
1.0
147
0.0
147
0.0
147
0.0
147
0.0
147
1.0
  0
MLEADERSTYLE
  5
10000004D
102
{ACAD_REACTORS
330
10000004C
102
}
330
10000004C
100
AcDbMLeaderStyle
170
     2
171
     1
172
     0
 90
        2
 40
0.0
 41
0.0
173
     1
 91
-1056964608
340
102
 92
       -2
290
     1
 42
2.0
291
     1
 43
0.36
  3
Standard
 44
4.0
300

342
11F
174
     1
178
     6
175
     1
176
     0
 93
-1056964608
 45
4.0
292
     0
297
     0
 46
4.0
 94
-1056964608
 47
1.0
 49
1.0
140
1.0
293
     1
141
0.0
294
     1
177
     0
142
1.0
295
     0
296
     0
143
0.125
1001
ACAD_MLEADERVER
1070
     2
  0
MLINESTYLE
  5
862
330
861
100
AcDbMlineStyle
  2
STANDARD
 70
     0
  3

 62
   256
 51
90.0
 52
90.0
 71
     0
  0
ACDBPLACEHOLDER
  5
100000004
102
{ACAD_REACTORS
330
100000003
102
}
330
100000003
  0
SCALE
  5
10000003B
102
{ACAD_REACTORS
330
10000003A
102
}
330
10000003A
100
AcDbScale
 70
     0
300
1:1
140
1.0
141
1.0
290
     1
  0
SCALE
  5
10000003C
102
{ACAD_REACTORS
330
10000003A
102
}
330
10000003A
100
AcDbScale
 70
     0
300
1:2
140
1.0
141
2.0
290
     0
  0
SCALE
  5
10000003D
102
{ACAD_REACTORS
330
10000003A
102
}
330
10000003A
100
AcDbScale
 70
     0
300
1:4
140
1.0
141
4.0
290
     0
  0
SCALE
  5
10000003E
102
{ACAD_REACTORS
330
10000003A
102
}
330
10000003A
100
AcDbScale
 70
     0
300
1:5
140
1.0
141
5.0
290
     0
  0
SCALE
  5
10000003F
102
{ACAD_REACTORS
330
10000003A
102
}
330
10000003A
100
AcDbScale
 70
     0
300
1:8
140
1.0
141
8.0
290
     0
  0
SCALE
  5
100000040
102
{ACAD_REACTORS
330
10000003A
102
}
330
10000003A
100
AcDbScale
 70
     0
300
1:10
140
1.0
141
10.0
290
     0
  0
SCALE
  5
100000041
102
{ACAD_REACTORS
330
10000003A
102
}
330
10000003A
100
AcDbScale
 70
     0
300
1:16
140
1.0
141
16.0
290
     0
  0
SCALE
  5
100000042
102
{ACAD_REACTORS
330
10000003A
102
}
330
10000003A
100
AcDbScale
 70
     0
300
1:20
140
1.0
141
20.0
290
     0
  0
SCALE
  5
100000043
102
{ACAD_REACTORS
330
10000003A
102
}
330
10000003A
100
AcDbScale
 70
     0
300
1:30
140
1.0
141
30.0
290
     0
  0
SCALE
  5
100000044
102
{ACAD_REACTORS
330
10000003A
102
}
330
10000003A
100
AcDbScale
 70
     0
300
1:40
140
1.0
141
40.0
290
     0
  0
SCALE
  5
100000045
102
{ACAD_REACTORS
330
10000003A
102
}
330
10000003A
100
AcDbScale
 70
     0
300
1:50
140
1.0
141
50.0
290
     0
  0
SCALE
  5
100000046
102
{ACAD_REACTORS
330
10000003A
102
}
330
10000003A
100
AcDbScale
 70
     0
300
1:100
140
1.0
141
100.0
290
     0
  0
SCALE
  5
100000047
102
{ACAD_REACTORS
330
10000003A
102
}
330
10000003A
100
AcDbScale
 70
     0
300
2:1
140
2.0
141
1.0
290
     0
  0
SCALE
  5
100000048
102
{ACAD_REACTORS
330
10000003A
102
}
330
10000003A
100
AcDbScale
 70
     0
300
4:1
140
4.0
141
1.0
290
     0
  0
SCALE
  5
100000049
102
{ACAD_REACTORS
330
10000003A
102
}
330
10000003A
100
AcDbScale
 70
     0
300
8:1
140
8.0
141
1.0
290
     0
  0
SCALE
  5
10000004A
102
{ACAD_REACTORS
330
10000003A
102
}
330
10000003A
100
AcDbScale
 70
     0
300
10:1
140
10.0
141
1.0
290
     0
  0
SCALE
  5
10000004B
102
{ACAD_REACTORS
330
10000003A
102
}
330
10000003A
100
AcDbScale
 70
     0
300
100:1
140
100.0
141
1.0
290
     0
  0
ACDBSECTIONVIEWSTYLE
  5
10000004F
102
{ACAD_XDICTIONARY
360
1000000B3
102
}
102
{ACAD_REACTORS
330
10000004E
102
}
330
10000004E
100
AcDbModelDocViewStyle
 70
     0
  3
Metric50
290
     0
100
AcDbSectionViewStyle
 70
     0
 71
     0
 90
      102
 71
     1
340
11F
 40
5.0
340
0
340
0
 40
5.0
300
I, O, Q, S, X, Z
 40
10.0
 90
        0
 40
2.5
 90
        0
 71
     2
340
104
 90
       25
340
104
 90
       50
 40
5.0
 40
2.5
 40
5.0
 71
     3
340
11F
 40
5.0
 90
        0
 40
15.0
 90
        1
300
%<\AcVar ViewSectionStartId>%-%<\AcVar ViewSectionEndId>% (%<\AcVar ViewScale \f "%sn">%)
 71
     4
300
ANSI31
 40
1.0
 90
        0
290
     0
290
     0
 90
        6
 40
0.0
 40
1.570796326794896
 40
0.2617993877991494
 40
1.308996938995747
 40
-0.2617993877991494
 40
1.832595714594046
  0
TABLESTYLE
  5
100000039
102
{ACAD_XDICTIONARY
360
10000007A
102
}
102
{ACAD_REACTORS
330
100000038
102
}
330
100000038
100
AcDbTableStyle
  3
Standard
 70
     0
 71
     0
 40
1.5
 41
1.5
280
     0
281
     0
  7
STANDARD
140
4.5
170
     2
 62
     0
 63
     7
283
     0
274
    -2
284
     1
 64
     0
275
    -2
285
     1
 65
     0
276
    -2
286
     1
 66
     0
277
    -2
287
     1
 67
     0
278
    -2
288
     1
 68
     0
279
    -2
289
     1
 69
     0
  7
STANDARD
140
6.0
170
     5
 62
     0
 63
     7
283
     0
274
    -2
284
     1
 64
     0
275
    -2
285
     1
 65
     0
276
    -2
286
     1
 66
     0
277
    -2
287
     1
 67
     0
278
    -2
288
     1
 68
     0
279
    -2
289
     1
 69
     0
  7
STANDARD
140
4.5
170
     5
 62
     0
 63
     7
283
     0
274
    -2
284
     1
 64
     0
275
    -2
285
     1
 65
     0
276
    -2
286
     1
 66
     0
277
    -2
287
     1
 67
     0
278
    -2
288
     1
 68
     0
279
    -2
289
     1
 69
     0
  0
VISUALSTYLE
  5
100000024
102
{ACAD_XDICTIONARY
360
10000008B
102
}
102
{ACAD_REACTORS
330
10000001E
102
}
330
10000001E
100
AcDbVisualStyle
  2
2dWireframe
 70
     4
 71
     0
 72
     2
 73
     0
 90
        0
 40
-0.6
 41
-30.0
 62
     5
 63
     7
 74
     1
 91
        4
 64
     7
 65
   257
 75
     1
175
     1
 42
1.0
 92
        0
 66
   257
 43
1.0
 76
     1
 77
     6
 78
     2
 67
     7
 79
     5
170
     0
171
     0
290
     0
174
     0
 93
        1
 44
0.0
173
     0
291
     0
 45
0.0
1001
ACAD
1000
AcDbSavedByObjectVersion
1070
     0
  0
VISUALSTYLE
  5
100000023
102
{ACAD_XDICTIONARY
360
100000089
102
}
102
{ACAD_REACTORS
330
10000001E
102
}
330
10000001E
100
AcDbVisualStyle
  2
Basic
 70
     7
 71
     1
 72
     0
 73
     1
 90
        0
 40
-0.6
 41
-30.0
 62
     5
 63
     7
 74
     0
 91
        4
 64
     7
 65
   257
 75
     1
175
     1
 42
1.0
 92
        8
 66
     7
 43
1.0
 76
     1
 77
     6
 78
     2
 67
     7
 79
     5
170
     0
171
     0
290
     0
174
     0
 93
        1
 44
0.0
173
     0
291
     1
 45
0.0
1001
ACAD
1000
AcDbSavedByObjectVersion
1070
     0
  0
VISUALSTYLE
  5
10000002A
102
{ACAD_XDICTIONARY
360
100000097
102
}
102
{ACAD_REACTORS
330
10000001E
102
}
330
10000001E
100
AcDbVisualStyle
  2
Brighten
 70
    12
 71
     2
 72
     2
 73
     0
 90
        0
 40
-0.6
 41
-30.0
 62
     5
 63
     7
 74
     1
 91
        4
 64
     7
 65
   257
 75
     1
175
     1
 42
1.0
 92
        8
 66
     7
 43
1.0
 76
     1
 77
     6
 78
     2
 67
     7
 79
     5
170
     0
171
     0
290
     0
174
     0
 93
        1
 44
50.0
173
     0
291
     1
 45
0.0
1001
ACAD
1000
AcDbSavedByObjectVersion
1070
     0
  0
VISUALSTYLE
  5
10000002E
102
{ACAD_XDICTIONARY
360
10000009F
102
}
102
{ACAD_REACTORS
330
10000001E
102
}
330
10000001E
100
AcDbVisualStyle
  2
ColorChange
 70
    16
 71
     2
 72
     2
 73
     3
 90
        0
 40
-0.6
 41
-30.0
 62
     5
 63
     8
 74
     1
 91
        4
 64
     7
 65
   257
 75
     1
175
     1
 42
1.0
 92
        8
 66
     8
 43
1.0
 76
     1
 77
     6
 78
     2
 67
     7
 79
     5
170
     0
171
     0
290
     0
174
     0
 93
        1
 44
0.0
173
     0
291
     1
 45
0.0
1001
ACAD
1000
AcDbSavedByObjectVersion
1070
     0
  0
VISUALSTYLE
  5
100000027
102
{ACAD_XDICTIONARY
360
100000091
102
}
102
{ACAD_REACTORS
330
10000001E
102
}
330
10000001E
100
AcDbVisualStyle
  2
Conceptual
 70
     9
 71
     3
 72
     2
 73
     0
 90
        0
 40
-0.6
 41
-30.0
 62
     5
 63
     7
 74
     2
 91
        2
 64
     7
 65
   257
 75
     1
175
     1
 42
179.0
 92
        8
 66
     7
 43
1.0
 76
     1
 77
     6
 78
     2
 67
     7
 79
     3
170
     0
171
     0
290
     0
174
     0
 93
        1
 44
0.0
173
     0
291
     0
 45
0.0
1001
ACAD
1000
AcDbSavedByObjectVersion
1070
     0
  0
VISUALSTYLE
  5
100000029
102
{ACAD_XDICTIONARY
360
100000095
102
}
102
{ACAD_REACTORS
330
10000001E
102
}
330
10000001E
100
AcDbVisualStyle
  2
Dim
 70
    11
 71
     2
 72
     2
 73
     0
 90
        0
 40
-0.6
 41
-30.0
 62
     5
 63
     7
 74
     1
 91
        4
 64
     7
 65
   257
 75
     1
175
     1
 42
1.0
 92
        8
 66
     7
 43
1.0
 76
     1
 77
     6
 78
     2
 67
     7
 79
     5
170
     0
171
     0
290
     0
174
     0
 93
        1
 44
-50.0
173
     0
291
     1
 45
0.0
1001
ACAD
1000
AcDbSavedByObjectVersion
1070
     0
  0
VISUALSTYLE
  5
100000036
102
{ACAD_XDICTIONARY
360
1000000AF
102
}
102
{ACAD_REACTORS
330
10000001E
102
}
330
10000001E
100
AcDbVisualStyle
  2
EdgeColorOff
 70
    22
 71
     2
 72
     2
 73
     0
 90
        0
 40
-0.6
 41
-30.0
 62
     5
 63
     7
 74
     1
 91
        4
 64
     7
 65
   257
 75
     1
175
     1
 42
1.0
 92
        8
 66
     7
 43
1.0
 76
     1
 77
     6
 78
     2
 67
     7
 79
     5
170
     0
171
     0
290
     0
174
     0
 93
        1
 44
0.0
173
     0
291
     1
 45
0.0
1001
ACAD
1000
AcDbSavedByObjectVersion
1070
     0
  0
VISUALSTYLE
  5
10000002D
102
{ACAD_XDICTIONARY
360
10000009D
102
}
102
{ACAD_REACTORS
330
10000001E
102
}
330
10000001E
100
AcDbVisualStyle
  2
Facepattern
 70
    15
 71
     2
 72
     2
 73
     0
 90
        0
 40
-0.6
 41
-30.0
 62
     5
 63
     7
 74
     1
 91
        4
 64
     7
 65
   257
 75
     1
175
     1
 42
1.0
 92
        8
 66
     7
 43
1.0
 76
     1
 77
     6
 78
     2
 67
     7
 79
     5
170
     0
171
     0
290
     0
174
     0
 93
        1
 44
0.0
173
     0
291
     1
 45
0.0
1001
ACAD
1000
AcDbSavedByObjectVersion
1070
     0
  0
VISUALSTYLE
  5
10000001F
102
{ACAD_XDICTIONARY
360
100000081
102
}
102
{ACAD_REACTORS
330
10000001E
102
}
330
10000001E
100
AcDbVisualStyle
  2
Flat
 70
     0
 71
     2
 72
     1
 73
     1
 90
        2
 40
-0.6
 41
30.0
 62
     5
 63
     7
 74
     0
 91
        0
 64
     7
 65
   257
 75
     1
175
     1
 42
1.0
 92
        8
 66
     7
 43
1.0
 76
     1
 77
     6
 78
     2
 67
     7
 79
     5
170
     0
171
     0
290
     0
174
     0
 93
       13
 44
0.0
173
     0
291
     1
 45
0.0
1001
ACAD
1000
AcDbSavedByObjectVersion
1070
     0
  0
VISUALSTYLE
  5
100000020
102
{ACAD_XDICTIONARY
360
100000083
102
}
102
{ACAD_REACTORS
330
10000001E
102
}
330
10000001E
100
AcDbVisualStyle
  2
FlatWithEdges
 70
     1
 71
     2
 72
     1
 73
     1
 90
        2
 40
-0.6
 41
30.0
 62
     5
 63
     7
 74
     1
 91
        0
 64
     7
 65
   257
 75
     1
175
     1
 42
1.0
 92
        0
 66
   257
 43
1.0
 76
     1
 77
     6
 78
     2
 67
     7
 79
     5
170
     0
171
     0
290
     0
174
     0
 93
       13
 44
0.0
173
     0
291
     1
 45
0.0
1001
ACAD
1000
AcDbSavedByObjectVersion
1070
     0
  0
VISUALSTYLE
  5
100000021
102
{ACAD_XDICTIONARY
360
100000085
102
}
102
{ACAD_REACTORS
330
10000001E
102
}
330
10000001E
100
AcDbVisualStyle
  2
Gouraud
 70
     2
 71
     2
 72
     2
 73
     1
 90
        2
 40
-0.6
 41
30.0
 62
     5
 63
     7
 74
     0
 91
        0
 64
     7
 65
   257
 75
     1
175
     1
 42
1.0
 92
        0
 66
     7
 43
1.0
 76
     1
 77
     6
 78
     2
 67
     7
 79
     5
170
     0
171
     0
290
     0
174
     0
 93
       13
 44
0.0
173
     0
291
     1
 45
0.0
1001
ACAD
1000
AcDbSavedByObjectVersion
1070
     0
  0
VISUALSTYLE
  5
100000022
102
{ACAD_XDICTIONARY
360
100000087
102
}
102
{ACAD_REACTORS
330
10000001E
102
}
330
10000001E
100
AcDbVisualStyle
  2
GouraudWithEdges
 70
     3
 71
     2
 72
     2
 73
     1
 90
        2
 40
-0.6
 41
30.0
 62
     5
 63
     7
 74
     1
 91
        0
 64
     7
 65
   257
 75
     1
175
     1
 42
1.0
 92
        0
 66
   257
 43
1.0
 76
     1
 77
     6
 78
     2
 67
     7
 79
     5
170
     0
171
     0
290
     0
174
     0
 93
       13
 44
0.0
173
     0
291
     1
 45
0.0
1001
ACAD
1000
AcDbSavedByObjectVersion
1070
     0
  0
VISUALSTYLE
  5
100000026
102
{ACAD_XDICTIONARY
360
10000008F
102
}
102
{ACAD_REACTORS
330
10000001E
102
}
330
10000001E
100
AcDbVisualStyle
  2
Hidden
 70
     6
 71
     1
 72
     2
 73
     2
 90
        0
 40
-0.6
 41
-30.0
 62
     5
 63
     7
 74
     2
 91
        2
 64
     7
 65
   257
 75
     2
175
     1
 42
40.0
 92
        0
 66
   257
 43
1.0
 76
     1
 77
     6
 78
     2
 67
     7
 79
     3
170
     0
171
     0
290
     0
174
     0
 93
        1
 44
0.0
173
     0
291
     0
 45
0.0
1001
ACAD
1000
AcDbSavedByObjectVersion
1070
     0
  0
VISUALSTYLE
  5
100000034
102
{ACAD_XDICTIONARY
360
1000000AB
102
}
102
{ACAD_REACTORS
330
10000001E
102
}
330
10000001E
100
AcDbVisualStyle
  2
JitterOff
 70
    20
 71
     2
 72
     2
 73
     0
 90
        0
 40
-0.6
 41
-30.0
 62
     5
 63
     7
 74
     1
 91
        4
 64
     7
 65
   257
 75
     1
175
     1
 42
1.0
 92
       10
 66
     7
 43
1.0
 76
     1
 77
     6
 78
     2
 67
     7
 79
     5
170
     0
171
     0
290
     0
174
     0
 93
        1
 44
0.0
173
     0
291
     1
 45
0.0
1001
ACAD
1000
AcDbSavedByObjectVersion
1070
     0
  0
VISUALSTYLE
  5
10000002C
102
{ACAD_XDICTIONARY
360
10000009B
102
}
102
{ACAD_REACTORS
330
10000001E
102
}
330
10000001E
100
AcDbVisualStyle
  2
Linepattern
 70
    14
 71
     2
 72
     2
 73
     0
 90
        0
 40
-0.6
 41
-30.0
 62
     5
 63
     7
 74
     1
 91
        4
 64
     7
 65
   257
 75
     7
175
     7
 42
1.0
 92
        8
 66
     7
 43
1.0
 76
     1
 77
     6
 78
     2
 67
     7
 79
     5
170
     0
171
     0
290
     0
174
     0
 93
        1
 44
0.0
173
     0
291
     1
 45
0.0
1001
ACAD
1000
AcDbSavedByObjectVersion
1070
     0
  0
VISUALSTYLE
  5
100000035
102
{ACAD_XDICTIONARY
360
1000000AD
102
}
102
{ACAD_REACTORS
330
10000001E
102
}
330
10000001E
100
AcDbVisualStyle
  2
OverhangOff
 70
    21
 71
     2
 72
     2
 73
     0
 90
        0
 40
-0.6
 41
-30.0
 62
     5
 63
     7
 74
     1
 91
        4
 64
     7
 65
   257
 75
     1
175
     1
 42
1.0
 92
        9
 66
     7
 43
1.0
 76
     1
 77
     6
 78
     2
 67
     7
 79
     5
170
     0
171
     0
290
     0
174
     0
 93
        1
 44
0.0
173
     0
291
     1
 45
0.0
1001
ACAD
1000
AcDbSavedByObjectVersion
1070
     0
  0
VISUALSTYLE
  5
100000028
102
{ACAD_XDICTIONARY
360
100000093
102
}
102
{ACAD_REACTORS
330
10000001E
102
}
330
10000001E
100
AcDbVisualStyle
  2
Realistic
 70
     8
 71
     2
 72
     3
 73
     0
 90
        2
 40
-0.6
 41
30.0
 62
     5
 63
     7
 74
     0
 91
        0
 64
     7
 65
   257
 75
     1
175
     1
 42
1.0
 92
        8
 66
   257
 43
1.0
 76
     1
 77
     6
 78
     2
 67
     7
 79
     3
170
     0
171
     0
290
     0
174
     0
 93
       13
 44
0.0
173
     0
291
     0
 45
0.0
1001
ACAD
1000
AcDbSavedByObjectVersion
1070
     0
  0
VISUALSTYLE
  5
100000033
102
{ACAD_XDICTIONARY
360
1000000A9
102
}
102
{ACAD_REACTORS
330
10000001E
102
}
330
10000001E
100
AcDbVisualStyle
  2
Shaded
 70
    27
 71
     2
 72
     2
 73
     1
 90
        2
 40
-0.6
 41
30.0
 62
     5
 63
     7
 74
     0
 91
        4
 64
     7
 65
   257
 75
     1
175
     1
 42
1.0
 92
        8
 66
   257
 43
1.0
 76
     1
 77
     6
 78
     2
 67
     8
 79
     3
170
     0
171
     0
290
     0
174
     0
 93
        5
 44
0.0
173
     0
291
     0
 45
0.0
1001
ACAD
1000
AcDbSavedByObjectVersion
1070
     0
  0
VISUALSTYLE
  5
100000032
102
{ACAD_XDICTIONARY
360
1000000A7
102
}
102
{ACAD_REACTORS
330
10000001E
102
}
330
10000001E
100
AcDbVisualStyle
  2
Shaded with edges
 70
    26
 71
     2
 72
     2
 73
     1
 90
        2
 40
-0.6
 41
30.0
 62
     5
 63
     7
 74
     1
 91
        2
 64
     7
 65
   257
 75
     2
175
     1
 42
1.0
 92
        8
 66
   257
 43
1.0
 76
     1
 77
     6
 78
     2
 67
     7
 79
     3
170
     0
171
     0
290
     0
174
     0
 93
        5
 44
0.0
173
     0
291
     0
 45
0.0
1001
ACAD
1000
AcDbSavedByObjectVersion
1070
     0
  0
VISUALSTYLE
  5
10000002F
102
{ACAD_XDICTIONARY
360
1000000A1
102
}
102
{ACAD_REACTORS
330
10000001E
102
}
330
10000001E
100
AcDbVisualStyle
  2
Shades of Gray
 70
    23
 71
     2
 72
     2
 73
     3
 90
        0
 40
-0.6
 41
-30.0
 62
     5
 63
     7
 74
     2
 91
        2
 64
     7
 65
     7
 75
     1
175
     1
 42
40.0
 92
        8
 66
     7
 43
1.0
 76
     1
 77
     6
 78
     2
 67
     7
 79
     3
170
     0
171
     0
290
     0
174
     0
 93
        1
 44
0.0
173
     0
291
     0
 45
0.0
1001
ACAD
1000
AcDbSavedByObjectVersion
1070
     0
  0
VISUALSTYLE
  5
100000030
102
{ACAD_XDICTIONARY
360
1000000A3
102
}
102
{ACAD_REACTORS
330
10000001E
102
}
330
10000001E
100
AcDbVisualStyle
  2
Sketchy
 70
    24
 71
     1
 72
     2
 73
     2
 90
        0
 40
-0.6
 41
-30.0
 62
     5
 63
     7
 74
     2
 91
        2
 64
     7
 65
     7
 75
     1
175
     1
 42
40.0
 92
       11
 66
     7
 43
1.0
 76
     1
 77
     6
 78
     2
 67
     7
 79
     6
170
     0
171
     0
290
     0
174
     0
 93
        1
 44
0.0
173
     0
291
     0
 45
0.0
1001
ACAD
1000
AcDbSavedByObjectVersion
1070
     0
  0
VISUALSTYLE
  5
10000002B
102
{ACAD_XDICTIONARY
360
100000099
102
}
102
{ACAD_REACTORS
330
10000001E
102
}
330
10000001E
100
AcDbVisualStyle
  2
Thicken
 70
    13
 71
     2
 72
     2
 73
     0
 90
        0
 40
-0.6
 41
-30.0
 62
     5
 63
     7
 74
     1
 91
        4
 64
     7
 65
   257
 75
     1
175
     1
 42
1.0
 92
       12
 66
     7
 43
1.0
 76
     1
 77
     6
 78
     2
 67
     7
 79
     5
170
     0
171
     0
290
     0
174
     0
 93
        1
 44
0.0
173
     0
291
     1
 45
0.0
1001
ACAD
1000
AcDbSavedByObjectVersion
1070
     0
  0
VISUALSTYLE
  5
100000025
102
{ACAD_XDICTIONARY
360
10000008D
102
}
102
{ACAD_REACTORS
330
10000001E
102
}
330
10000001E
100
AcDbVisualStyle
  2
Wireframe
 70
     5
 71
     0
 72
     2
 73
     0
 90
        0
 40
-0.6
 41
-30.0
 62
     5
 63
     7
 74
     1
 91
        4
 64
     7
 65
   257
 75
     1
175
     1
 42
1.0
 92
        0
 66
   257
 43
1.0
 76
     1
 77
     6
 78
     2
 67
     7
 79
     3
170
     0
171
     0
290
     0
174
     0
 93
        1
 44
0.0
173
     0
291
     0
 45
0.0
1001
ACAD
1000
AcDbSavedByObjectVersion
1070
     0
  0
VISUALSTYLE
  5
100000031
102
{ACAD_XDICTIONARY
360
1000000A5
102
}
102
{ACAD_REACTORS
330
10000001E
102
}
330
10000001E
100
AcDbVisualStyle
  2
X-Ray
 70
    25
 71
     2
 72
     2
 73
     1
 90
        1
 40
0.5
 41
-30.0
 62
     5
 63
     7
 74
     1
 91
        0
 64
     7
 65
   257
 75
     1
175
     1
 42
1.0
 92
        8
 66
     7
 43
1.0
 76
     1
 77
     6
 78
     2
 67
     7
 79
     3
170
     0
171
     0
290
     0
174
     0
 93
       13
 44
0.0
173
     0
291
     0
 45
0.0
1001
ACAD
1000
AcDbSavedByObjectVersion
1070
     0
  0
DICTIONARYVAR
  5
100000074
102
{ACAD_REACTORS
330
10000006F
102
}
330
10000006F
100
DictionaryVariables
280
     0
  1
1:1
  0
DICTIONARYVAR
  5
100000071
102
{ACAD_REACTORS
330
10000006F
102
}
330
10000006F
100
DictionaryVariables
280
     0
  1
STANDARD
  0
DICTIONARYVAR
  5
100000070
102
{ACAD_REACTORS
330
10000006F
102
}
330
10000006F
100
DictionaryVariables
280
     0
  1
STANDARD
  0
DICTIONARYVAR
  5
100000072
102
{ACAD_REACTORS
330
10000006F
102
}
330
10000006F
100
DictionaryVariables
280
     0
  1
Metric50
  0
DICTIONARYVAR
  5
100000073
102
{ACAD_REACTORS
330
10000006F
102
}
330
10000006F
100
DictionaryVariables
280
     0
  1
Metric50
  0
DICTIONARYVAR
  5
100000077
102
{ACAD_REACTORS
330
10000006F
102
}
330
10000006F
100
DictionaryVariables
280
     0
  1
1
  0
DICTIONARYVAR
  5
100000076
102
{ACAD_REACTORS
330
10000006F
102
}
330
10000006F
100
DictionaryVariables
280
     0
  1
0
  0
DICTIONARYVAR
  5
100000075
102
{ACAD_REACTORS
330
10000006F
102
}
330
10000006F
100
DictionaryVariables
280
     0
  1
127
  0
DICTIONARYVAR
  5
100000078
102
{ACAD_REACTORS
330
10000006F
102
}
330
10000006F
100
DictionaryVariables
280
     0
  1
2
  0
DICTIONARY
  5
1000000B5
330
100000051
100
AcDbDictionary
280
     1
281
     1
  3
ACAD_XREC_ROUNDTRIP
360
1000000B6
  0
DICTIONARY
  5
1000000B7
330
100000054
100
AcDbDictionary
280
     1
281
     1
  3
ACAD_XREC_ROUNDTRIP
360
1000000B8
  0
DICTIONARY
  5
1000000B9
330
100000055
100
AcDbDictionary
280
     1
281
     1
  3
ACAD_XREC_ROUNDTRIP
360
1000000BA
  0
DICTIONARY
  5
10000000F
330
10000000E
100
AcDbDictionary
280
     1
281
     1
  3
ACAD_XREC_ROUNDTRIP
360
10000007F
  3
BUMPTILE
360
100000011
  3
DIFFUSETILE
360
100000010
  3
OPACITYTILE
360
100000014
  3
REFLECTIONTILE
360
100000013
  3
REFRACTIONTILE
360
100000015
  3
SPECULARTILE
360
100000012
  0
DICTIONARY
  5
100000007
330
100000006
100
AcDbDictionary
280
     1
281
     1
  3
ACAD_XREC_ROUNDTRIP
360
10000007E
  3
BUMPTILE
360
100000009
  3
DIFFUSETILE
360
100000008
  3
OPACITYTILE
360
10000000C
  3
REFLECTIONTILE
360
10000000B
  3
REFRACTIONTILE
360
10000000D
  3
SPECULARTILE
360
10000000A
  0
DICTIONARY
  5
100000017
330
100000016
100
AcDbDictionary
280
     1
281
     1
  3
ACAD_XREC_ROUNDTRIP
360
100000080
  3
BUMPTILE
360
100000019
  3
DIFFUSETILE
360
100000018
  3
OPACITYTILE
360
10000001C
  3
REFLECTIONTILE
360
10000001B
  3
REFRACTIONTILE
360
10000001D
  3
SPECULARTILE
360
10000001A
  0
DICTIONARY
  5
1000000B3
330
10000004F
100
AcDbDictionary
280
     1
281
     1
  3
ACAD_XREC_ROUNDTRIP
360
1000000B4
  0
DICTIONARY
  5
10000007A
330
100000039
100
AcDbDictionary
280
     1
281
     1
  3
ACAD_ROUNDTRIP_2008_TABLESTYLE_CELLSTYLEMAP
360
10000007B
  3
ACAD_XREC_ROUNDTRIP
360
1000000B1
  0
DICTIONARY
  5
10000008B
330
100000024
100
AcDbDictionary
280
     1
281
     1
  3
ACAD_XREC_ROUNDTRIP
360
10000008C
  0
DICTIONARY
  5
100000089
330
100000023
100
AcDbDictionary
280
     1
281
     1
  3
ACAD_XREC_ROUNDTRIP
360
10000008A
  0
DICTIONARY
  5
100000097
330
10000002A
100
AcDbDictionary
280
     1
281
     1
  3
ACAD_XREC_ROUNDTRIP
360
100000098
  0
DICTIONARY
  5
10000009F
330
10000002E
100
AcDbDictionary
280
     1
281
     1
  3
ACAD_XREC_ROUNDTRIP
360
1000000A0
  0
DICTIONARY
  5
100000091
330
100000027
100
AcDbDictionary
280
     1
281
     1
  3
ACAD_XREC_ROUNDTRIP
360
100000092
  0
DICTIONARY
  5
100000095
330
100000029
100
AcDbDictionary
280
     1
281
     1
  3
ACAD_XREC_ROUNDTRIP
360
100000096
  0
DICTIONARY
  5
1000000AF
330
100000036
100
AcDbDictionary
280
     1
281
     1
  3
ACAD_XREC_ROUNDTRIP
360
1000000B0
  0
DICTIONARY
  5
10000009D
330
10000002D
100
AcDbDictionary
280
     1
281
     1
  3
ACAD_XREC_ROUNDTRIP
360
10000009E
  0
DICTIONARY
  5
100000081
330
10000001F
100
AcDbDictionary
280
     1
281
     1
  3
ACAD_XREC_ROUNDTRIP
360
100000082
  0
DICTIONARY
  5
100000083
330
100000020
100
AcDbDictionary
280
     1
281
     1
  3
ACAD_XREC_ROUNDTRIP
360
100000084
  0
DICTIONARY
  5
100000085
330
100000021
100
AcDbDictionary
280
     1
281
     1
  3
ACAD_XREC_ROUNDTRIP
360
100000086
  0
DICTIONARY
  5
100000087
330
100000022
100
AcDbDictionary
280
     1
281
     1
  3
ACAD_XREC_ROUNDTRIP
360
100000088
  0
DICTIONARY
  5
10000008F
330
100000026
100
AcDbDictionary
280
     1
281
     1
  3
ACAD_XREC_ROUNDTRIP
360
100000090
  0
DICTIONARY
  5
1000000AB
330
100000034
100
AcDbDictionary
280
     1
281
     1
  3
ACAD_XREC_ROUNDTRIP
360
1000000AC
  0
DICTIONARY
  5
10000009B
330
10000002C
100
AcDbDictionary
280
     1
281
     1
  3
ACAD_XREC_ROUNDTRIP
360
10000009C
  0
DICTIONARY
  5
1000000AD
330
100000035
100
AcDbDictionary
280
     1
281
     1
  3
ACAD_XREC_ROUNDTRIP
360
1000000AE
  0
DICTIONARY
  5
100000093
330
100000028
100
AcDbDictionary
280
     1
281
     1
  3
ACAD_XREC_ROUNDTRIP
360
100000094
  0
DICTIONARY
  5
1000000A9
330
100000033
100
AcDbDictionary
280
     1
281
     1
  3
ACAD_XREC_ROUNDTRIP
360
1000000AA
  0
DICTIONARY
  5
1000000A7
330
100000032
100
AcDbDictionary
280
     1
281
     1
  3
ACAD_XREC_ROUNDTRIP
360
1000000A8
  0
DICTIONARY
  5
1000000A1
330
10000002F
100
AcDbDictionary
280
     1
281
     1
  3
ACAD_XREC_ROUNDTRIP
360
1000000A2
  0
DICTIONARY
  5
1000000A3
330
100000030
100
AcDbDictionary
280
     1
281
     1
  3
ACAD_XREC_ROUNDTRIP
360
1000000A4
  0
DICTIONARY
  5
100000099
330
10000002B
100
AcDbDictionary
280
     1
281
     1
  3
ACAD_XREC_ROUNDTRIP
360
10000009A
  0
DICTIONARY
  5
10000008D
330
100000025
100
AcDbDictionary
280
     1
281
     1
  3
ACAD_XREC_ROUNDTRIP
360
10000008E
  0
DICTIONARY
  5
1000000A5
330
100000031
100
AcDbDictionary
280
     1
281
     1
  3
ACAD_XREC_ROUNDTRIP
360
1000000A6
  0
XRECORD
  5
1000000B6
102
{ACAD_REACTORS
330
1000000B5
102
}
330
1000000B5
100
AcDbXrecord
280
     1
102
DISPLAYNAME
  1
Metric50
102
FLAGS
 90
        0
  0
XRECORD
  5
1000000B8
102
{ACAD_REACTORS
330
1000000B7
102
}
330
1000000B7
100
AcDbXrecord
280
     1
102
SHADEPLOT
 70
     0
102
SHADEPLOTRESLEVEL
 70
     2
102
SHADEPLOTCUSTOMDPI
 70
   300
  0
XRECORD
  5
1000000BA
102
{ACAD_REACTORS
330
1000000B9
102
}
330
1000000B9
100
AcDbXrecord
280
     1
102
SHADEPLOT
 70
     0
102
SHADEPLOTRESLEVEL
 70
     2
102
SHADEPLOTCUSTOMDPI
 70
   300
  0
XRECORD
  5
10000007F
102
{ACAD_REACTORS
330
10000000F
102
}
330
10000000F
100
AcDbXrecord
280
     1
102
MATERIAL
148
0.0
149
0.0
149
0.0
 93
        0
 94
      127
282
     0
 72
     0
 77
     0
171
     0
175
     0
179
     0
273
     0
  0
XRECORD
  5
100000011
102
{ACAD_REACTORS
330
10000000F
102
}
330
10000000F
100
AcDbXrecord
280
     1
270
     1
271
     1
  0
XRECORD
  5
100000010
102
{ACAD_REACTORS
330
10000000F
102
}
330
10000000F
100
AcDbXrecord
280
     1
270
     1
271
     1
  0
XRECORD
  5
100000014
102
{ACAD_REACTORS
330
10000000F
102
}
330
10000000F
100
AcDbXrecord
280
     1
270
     1
271
     1
  0
XRECORD
  5
100000013
102
{ACAD_REACTORS
330
10000000F
102
}
330
10000000F
100
AcDbXrecord
280
     1
270
     1
271
     1
  0
XRECORD
  5
100000015
102
{ACAD_REACTORS
330
10000000F
102
}
330
10000000F
100
AcDbXrecord
280
     1
270
     1
271
     1
  0
XRECORD
  5
100000012
102
{ACAD_REACTORS
330
10000000F
102
}
330
10000000F
100
AcDbXrecord
280
     1
270
     1
271
     1
  0
XRECORD
  5
10000007E
102
{ACAD_REACTORS
330
100000007
102
}
330
100000007
100
AcDbXrecord
280
     1
102
MATERIAL
148
0.0
149
0.0
149
0.0
 93
        0
 94
      127
282
     0
 72
     0
 77
     0
171
     0
175
     0
179
     0
273
     0
  0
XRECORD
  5
100000009
102
{ACAD_REACTORS
330
100000007
102
}
330
100000007
100
AcDbXrecord
280
     1
270
     1
271
     1
  0
XRECORD
  5
100000008
102
{ACAD_REACTORS
330
100000007
102
}
330
100000007
100
AcDbXrecord
280
     1
270
     1
271
     1
  0
XRECORD
  5
10000000C
102
{ACAD_REACTORS
330
100000007
102
}
330
100000007
100
AcDbXrecord
280
     1
270
     1
271
     1
  0
XRECORD
  5
10000000B
102
{ACAD_REACTORS
330
100000007
102
}
330
100000007
100
AcDbXrecord
280
     1
270
     1
271
     1
  0
XRECORD
  5
10000000D
102
{ACAD_REACTORS
330
100000007
102
}
330
100000007
100
AcDbXrecord
280
     1
270
     1
271
     1
  0
XRECORD
  5
10000000A
102
{ACAD_REACTORS
330
100000007
102
}
330
100000007
100
AcDbXrecord
280
     1
270
     1
271
     1
  0
XRECORD
  5
100000080
102
{ACAD_REACTORS
330
100000017
102
}
330
100000017
100
AcDbXrecord
280
     1
102
MATERIAL
148
0.0
149
0.0
149
0.0
 93
        0
 94
      127
282
     0
 72
     0
 77
     0
171
     0
175
     0
179
     0
273
     0
  0
XRECORD
  5
100000019
102
{ACAD_REACTORS
330
100000017
102
}
330
100000017
100
AcDbXrecord
280
     1
270
     1
271
     1
  0
XRECORD
  5
100000018
102
{ACAD_REACTORS
330
100000017
102
}
330
100000017
100
AcDbXrecord
280
     1
270
     1
271
     1
  0
XRECORD
  5
10000001C
102
{ACAD_REACTORS
330
100000017
102
}
330
100000017
100
AcDbXrecord
280
     1
270
     1
271
     1
  0
XRECORD
  5
10000001B
102
{ACAD_REACTORS
330
100000017
102
}
330
100000017
100
AcDbXrecord
280
     1
270
     1
271
     1
  0
XRECORD
  5
10000001D
102
{ACAD_REACTORS
330
100000017
102
}
330
100000017
100
AcDbXrecord
280
     1
270
     1
271
     1
  0
XRECORD
  5
10000001A
102
{ACAD_REACTORS
330
100000017
102
}
330
100000017
100
AcDbXrecord
280
     1
270
     1
271
     1
  0
XRECORD
  5
1000000B4
102
{ACAD_REACTORS
330
1000000B3
102
}
330
1000000B3
100
AcDbXrecord
280
     1
102
DISPLAYNAME
  1
Metric50
102
FLAGS
 90
        0
  0
CELLSTYLEMAP
  5
10000007B
102
{ACAD_REACTORS
330
10000007A
102
}
330
10000007A
100
AcDbCellStyleMap
 90
        3
300
CELLSTYLE
  1
TABLEFORMAT_BEGIN
 90
        5
170
     1
 91
        0
 92
    32768
 62
   257
 93
        1
300
CONTENTFORMAT
  1
CONTENTFORMAT_BEGIN
 90
        0
 91
        0
 92
      512
 93
        0
300

 40
0.0
140
1.0
 94
        5
 62
     0
340
11F
144
6.0
309
CONTENTFORMAT_END
171
     1
301
MARGIN
  1
CELLMARGIN_BEGIN
 40
1.5
 40
1.5
 40
1.5
 40
1.5
 40
4.5
 40
4.5
309
CELLMARGIN_END
 94
        6
 95
        1
302
GRIDFORMAT
  1
GRIDFORMAT_BEGIN
 90
        0
 91
        1
 62
     0
 92
       -2
340
0
 93
        0
 40
1.125
309
GRIDFORMAT_END
 95
        2
302
GRIDFORMAT
  1
GRIDFORMAT_BEGIN
 90
        0
 91
        1
 62
     0
 92
       -2
340
0
 93
        0
 40
1.125
309
GRIDFORMAT_END
 95
        4
302
GRIDFORMAT
  1
GRIDFORMAT_BEGIN
 90
        0
 91
        1
 62
     0
 92
       -2
340
0
 93
        0
 40
1.125
309
GRIDFORMAT_END
 95
        8
302
GRIDFORMAT
  1
GRIDFORMAT_BEGIN
 90
        0
 91
        1
 62
     0
 92
       -2
340
0
 93
        0
 40
1.125
309
GRIDFORMAT_END
 95
       16
302
GRIDFORMAT
  1
GRIDFORMAT_BEGIN
 90
        0
 91
        1
 62
     0
 92
       -2
340
0
 93
        0
 40
1.125
309
GRIDFORMAT_END
 95
       32
302
GRIDFORMAT
  1
GRIDFORMAT_BEGIN
 90
        0
 91
        1
 62
     0
 92
       -2
340
0
 93
        0
 40
1.125
309
GRIDFORMAT_END
309
TABLEFORMAT_END
  1
CELLSTYLE_BEGIN
 90
        1
 91
        1
300
_TITLE
309
CELLSTYLE_END
300
CELLSTYLE
  1
TABLEFORMAT_BEGIN
 90
        5
170
     1
 91
        0
 92
        0
 62
   257
 93
        1
300
CONTENTFORMAT
  1
CONTENTFORMAT_BEGIN
 90
        0
 91
        0
 92
      512
 93
        0
300

 40
0.0
140
1.0
 94
        5
 62
     0
340
11F
144
4.5
309
CONTENTFORMAT_END
171
     1
301
MARGIN
  1
CELLMARGIN_BEGIN
 40
1.5
 40
1.5
 40
1.5
 40
1.5
 40
4.5
 40
4.5
309
CELLMARGIN_END
 94
        6
 95
        1
302
GRIDFORMAT
  1
GRIDFORMAT_BEGIN
 90
        0
 91
        1
 62
     0
 92
       -2
340
0
 93
        0
 40
1.125
309
GRIDFORMAT_END
 95
        2
302
GRIDFORMAT
  1
GRIDFORMAT_BEGIN
 90
        0
 91
        1
 62
     0
 92
       -2
340
0
 93
        0
 40
1.125
309
GRIDFORMAT_END
 95
        4
302
GRIDFORMAT
  1
GRIDFORMAT_BEGIN
 90
        0
 91
        1
 62
     0
 92
       -2
340
0
 93
        0
 40
1.125
309
GRIDFORMAT_END
 95
        8
302
GRIDFORMAT
  1
GRIDFORMAT_BEGIN
 90
        0
 91
        1
 62
     0
 92
       -2
340
0
 93
        0
 40
1.125
309
GRIDFORMAT_END
 95
       16
302
GRIDFORMAT
  1
GRIDFORMAT_BEGIN
 90
        0
 91
        1
 62
     0
 92
       -2
340
0
 93
        0
 40
1.125
309
GRIDFORMAT_END
 95
       32
302
GRIDFORMAT
  1
GRIDFORMAT_BEGIN
 90
        0
 91
        1
 62
     0
 92
       -2
340
0
 93
        0
 40
1.125
309
GRIDFORMAT_END
309
TABLEFORMAT_END
  1
CELLSTYLE_BEGIN
 90
        2
 91
        1
300
_HEADER
309
CELLSTYLE_END
300
CELLSTYLE
  1
TABLEFORMAT_BEGIN
 90
        5
170
     1
 91
        0
 92
        0
 62
   257
 93
        1
300
CONTENTFORMAT
  1
CONTENTFORMAT_BEGIN
 90
        0
 91
        0
 92
      512
 93
        0
300

 40
0.0
140
1.0
 94
        2
 62
     0
340
11F
144
4.5
309
CONTENTFORMAT_END
171
     1
301
MARGIN
  1
CELLMARGIN_BEGIN
 40
1.5
 40
1.5
 40
1.5
 40
1.5
 40
4.5
 40
4.5
309
CELLMARGIN_END
 94
        6
 95
        1
302
GRIDFORMAT
  1
GRIDFORMAT_BEGIN
 90
        0
 91
        1
 62
     0
 92
       -2
340
0
 93
        0
 40
1.125
309
GRIDFORMAT_END
 95
        2
302
GRIDFORMAT
  1
GRIDFORMAT_BEGIN
 90
        0
 91
        1
 62
     0
 92
       -2
340
0
 93
        0
 40
1.125
309
GRIDFORMAT_END
 95
        4
302
GRIDFORMAT
  1
GRIDFORMAT_BEGIN
 90
        0
 91
        1
 62
     0
 92
       -2
340
0
 93
        0
 40
1.125
309
GRIDFORMAT_END
 95
        8
302
GRIDFORMAT
  1
GRIDFORMAT_BEGIN
 90
        0
 91
        1
 62
     0
 92
       -2
340
0
 93
        0
 40
1.125
309
GRIDFORMAT_END
 95
       16
302
GRIDFORMAT
  1
GRIDFORMAT_BEGIN
 90
        0
 91
        1
 62
     0
 92
       -2
340
0
 93
        0
 40
1.125
309
GRIDFORMAT_END
 95
       32
302
GRIDFORMAT
  1
GRIDFORMAT_BEGIN
 90
        0
 91
        1
 62
     0
 92
       -2
340
0
 93
        0
 40
1.125
309
GRIDFORMAT_END
309
TABLEFORMAT_END
  1
CELLSTYLE_BEGIN
 90
        3
 91
        2
300
_DATA
309
CELLSTYLE_END
  0
XRECORD
  5
1000000B1
102
{ACAD_REACTORS
330
10000007A
102
}
330
10000007A
100
AcDbXrecord
280
     1
102
ACAD_ROUNDTRIP_PRE2007_TABLESTYLE
 90
      512
 91
        0
  1

 92
      512
 93
        0
  2

 94
      512
 95
        0
  3

  0
XRECORD
  5
10000008C
102
{ACAD_REACTORS
330
10000008B
102
}
330
10000008B
100
AcDbXrecord
280
     1
102
RTVSPost2010Prop28
280
     1
102
RTVSPost2010PropOp28
 70
     1
102
RTVSPost2010Prop29
280
     1
102
RTVSPost2010PropOp29
 70
     1
102
RTVSPost2010Prop30
280
     0
102
RTVSPost2010PropOp30
 70
     1
102
RTVSPost2010Prop31
280
     0
102
RTVSPost2010PropOp31
 70
     1
102
RTVSPost2010Prop32
280
     0
102
RTVSPost2010PropOp32
 70
     1
102
RTVSPost2010Prop33
280
     0
102
RTVSPost2010PropOp33
 70
     1
102
RTVSPost2010Prop34
280
     0
102
RTVSPost2010PropOp34
 70
     1
102
RTVSPost2010Prop35
280
     0
102
RTVSPost2010PropOp35
 70
     1
102
RTVSPost2010Prop36
280
     0
102
RTVSPost2010PropOp36
 70
     1
102
RTVSPost2010Prop37
 90
       50
102
RTVSPost2010PropOp37
 70
     1
102
RTVSPost2010Prop38
140
0.0
102
RTVSPost2010PropOp38
 70
     1
102
RTVSPost2010Prop39
140
1.0
102
RTVSPost2010PropOp39
 70
     1
102
RTVSPost2010Prop40
 90
        0
102
RTVSPost2010PropOp40
 70
     1
102
RTVSPost2010Prop41ColorIndex
 90
       18
102
RTVSPost2010Prop41ColorRGB
 90
        0
102
RTVSPost2010PropOp41
 70
     1
102
RTVSPost2010Prop42
 90
       50
102
RTVSPost2010PropOp42
 70
     1
102
RTVSPost2010Prop43
 90
        3
102
RTVSPost2010PropOp43
 70
     1
102
RTVSPost2010Prop44ColorIndex
 90
        5
102
RTVSPost2010Prop44ColorRGB
 90
      255
102
RTVSPost2010PropOp44
 70
     1
102
RTVSPost2010Prop45
280
     0
102
RTVSPost2010PropOp45
 70
     1
102
RTVSPost2010Prop46
 90
       50
102
RTVSPost2010PropOp46
 70
     1
102
RTVSPost2010Prop47
 90
       50
102
RTVSPost2010PropOp47
 70
     1
102
RTVSPost2010Prop48
 90
       50
102
RTVSPost2010PropOp48
 70
     1
102
RTVSPost2010Prop49
280
     0
102
RTVSPost2010PropOp49
 70
     1
102
RTVSPost2010Prop50
 90
       50
102
RTVSPost2010PropOp50
 70
     1
102
RTVSPost2010Prop51ColorIndex
 90
      256
102
RTVSPost2010Prop51ColorRGB
 90
-16777216
102
RTVSPost2010PropOp51
 70
     0
102
RTVSPost2010Prop52
140
1.0
102
RTVSPost2010PropOp52
 70
     0
102
RTVSPost2010Prop53
 90
        2
102
RTVSPost2010PropOp53
 70
     1
102
RTVSPost2010Prop54
  1
strokes_ogs.tif
102
RTVSPost2010PropOp54
 70
     1
102
RTVSPost2010Prop55
280
     0
102
RTVSPost2010PropOp55
 70
     1
102
RTVSPost2010Prop56
140
1.0
102
RTVSPost2010PropOp56
 70
     1
102
RTVSPost2010Prop57
140
1.0
102
RTVSPost2010PropOp57
 70
     1
102
RTVSPropertyOp0
 70
     1
102
RTVSPropertyOp1
 70
     1
102
RTVSPropertyOp2
 70
     1
102
RTVSPropertyOp3
 70
     1
102
RTVSPropertyOp4
 70
     1
102
RTVSPropertyOp5
 70
     1
102
RTVSPropertyOp6
 70
     1
102
RTVSPropertyOp7
 70
     1
102
RTVSPropertyOp8
 70
     1
102
RTVSPropertyOp9
 70
     1
102
RTVSPropertyOp10
 70
     1
102
RTVSPropertyOp11
 70
     1
102
RTVSPropertyOp12
 70
     1
102
RTVSPropertyOp13
 70
     1
102
RTVSPropertyOp14
 70
     1
102
RTVSPropertyOp15
 70
     1
102
RTVSPropertyOp16
 70
     1
102
RTVSPropertyOp17
 70
     1
102
RTVSPropertyOp18
 70
     1
102
RTVSPropertyOp19
 70
     1
102
RTVSPropertyOp20
 70
     1
102
RTVSPropertyOp21
 70
     1
102
RTVSPropertyOp22
 70
     1
102
RTVSPropertyOp23
 70
     1
102
RTVSPropertyOp24
 70
     1
102
RTVSPropertyOp25
 70
     1
102
RTVSPropertyOp26
 70
     1
102
RTVSPropertyOp27
 70
     1
102
RTVSPropertyOp28
 70
     1
102
RTVSPropertyOp29
 70
     1
102
RTVSPropertyOp30
 70
     1
102
RTVSPropertyOp31
 70
     1
102
RTVSPropertyOp32
 70
     1
102
RTVSPropertyOp33
 70
     1
102
RTVSPropertyOp34
 70
     1
102
RTVSPropertyOp35
 70
     1
102
RTVSPropertyOp36
 70
     1
102
RTVSPropertyOp37
 70
     1
102
RTVSPropertyOp38
 70
     1
102
RTVSPropertyOp39
 70
     1
102
RTVSPropertyOp40
 70
     1
102
RTVSPropertyOp41
 70
     1
102
RTVSPropertyOp42
 70
     1
102
RTVSPropertyOp43
 70
     1
102
RTVSPropertyOp44
 70
     1
102
RTVSPropertyOp45
 70
     1
102
RTVSPropertyOp46
 70
     1
102
RTVSPropertyOp47
 70
     1
102
RTVSPropertyOp48
 70
     1
102
RTVSPropertyOp49
 70
     1
102
RTVSPropertyOp50
 70
     1
102
RTVSPropertyOp51
 70
     0
102
RTVSPropertyOp52
 70
     0
102
RTVSPropertyOp53
 70
     1
102
RTVSPropertyOp54
 70
     1
102
RTVSPropertyOp55
 70
     1
102
RTVSPropertyOp56
 70
     1
102
RTVSPropertyOp57
 70
     1
102
RTVSPropertyOp58
 70
     1
102
RTVSPropertyOp59
 70
     1
102
RTVSPropertyOp60
 70
     1
102
RTVSPropertyOp61
 70
     1
102
RTVSPropertyOp62
 70
     1
  0
XRECORD
  5
10000008A
102
{ACAD_REACTORS
330
100000089
102
}
330
100000089
100
AcDbXrecord
280
     1
102
RTVSPost2010Prop28
280
     0
102
RTVSPost2010PropOp28
 70
     1
102
RTVSPost2010Prop29
280
     1
102
RTVSPost2010PropOp29
 70
     1
102
RTVSPost2010Prop30
280
     1
102
RTVSPost2010PropOp30
 70
     1
102
RTVSPost2010Prop31
280
     0
102
RTVSPost2010PropOp31
 70
     1
102
RTVSPost2010Prop32
280
     0
102
RTVSPost2010PropOp32
 70
     1
102
RTVSPost2010Prop33
280
     0
102
RTVSPost2010PropOp33
 70
     1
102
RTVSPost2010Prop34
280
     0
102
RTVSPost2010PropOp34
 70
     1
102
RTVSPost2010Prop35
280
     0
102
RTVSPost2010PropOp35
 70
     1
102
RTVSPost2010Prop36
280
     0
102
RTVSPost2010PropOp36
 70
     1
102
RTVSPost2010Prop37
 90
       50
102
RTVSPost2010PropOp37
 70
     1
102
RTVSPost2010Prop38
140
0.0
102
RTVSPost2010PropOp38
 70
     1
102
RTVSPost2010Prop39
140
1.0
102
RTVSPost2010PropOp39
 70
     1
102
RTVSPost2010Prop40
 90
        0
102
RTVSPost2010PropOp40
 70
     1
102
RTVSPost2010Prop41ColorIndex
 90
       18
102
RTVSPost2010Prop41ColorRGB
 90
        0
102
RTVSPost2010PropOp41
 70
     1
102
RTVSPost2010Prop42
 90
       50
102
RTVSPost2010PropOp42
 70
     1
102
RTVSPost2010Prop43
 90
        3
102
RTVSPost2010PropOp43
 70
     1
102
RTVSPost2010Prop44ColorIndex
 90
        5
102
RTVSPost2010Prop44ColorRGB
 90
      255
102
RTVSPost2010PropOp44
 70
     1
102
RTVSPost2010Prop45
280
     0
102
RTVSPost2010PropOp45
 70
     1
102
RTVSPost2010Prop46
 90
       50
102
RTVSPost2010PropOp46
 70
     1
102
RTVSPost2010Prop47
 90
       50
102
RTVSPost2010PropOp47
 70
     1
102
RTVSPost2010Prop48
 90
       50
102
RTVSPost2010PropOp48
 70
     1
102
RTVSPost2010Prop49
280
     0
102
RTVSPost2010PropOp49
 70
     1
102
RTVSPost2010Prop50
 90
       50
102
RTVSPost2010PropOp50
 70
     1
102
RTVSPost2010Prop51ColorIndex
 90
      256
102
RTVSPost2010Prop51ColorRGB
 90
-16777216
102
RTVSPost2010PropOp51
 70
     0
102
RTVSPost2010Prop52
140
1.0
102
RTVSPost2010PropOp52
 70
     0
102
RTVSPost2010Prop53
 90
        2
102
RTVSPost2010PropOp53
 70
     1
102
RTVSPost2010Prop54
  1
strokes_ogs.tif
102
RTVSPost2010PropOp54
 70
     1
102
RTVSPost2010Prop55
280
     0
102
RTVSPost2010PropOp55
 70
     1
102
RTVSPost2010Prop56
140
1.0
102
RTVSPost2010PropOp56
 70
     1
102
RTVSPost2010Prop57
140
1.0
102
RTVSPost2010PropOp57
 70
     1
102
RTVSPropertyOp0
 70
     1
102
RTVSPropertyOp1
 70
     1
102
RTVSPropertyOp2
 70
     1
102
RTVSPropertyOp3
 70
     1
102
RTVSPropertyOp4
 70
     1
102
RTVSPropertyOp5
 70
     1
102
RTVSPropertyOp6
 70
     1
102
RTVSPropertyOp7
 70
     1
102
RTVSPropertyOp8
 70
     1
102
RTVSPropertyOp9
 70
     1
102
RTVSPropertyOp10
 70
     1
102
RTVSPropertyOp11
 70
     1
102
RTVSPropertyOp12
 70
     1
102
RTVSPropertyOp13
 70
     1
102
RTVSPropertyOp14
 70
     1
102
RTVSPropertyOp15
 70
     1
102
RTVSPropertyOp16
 70
     1
102
RTVSPropertyOp17
 70
     1
102
RTVSPropertyOp18
 70
     1
102
RTVSPropertyOp19
 70
     1
102
RTVSPropertyOp20
 70
     1
102
RTVSPropertyOp21
 70
     1
102
RTVSPropertyOp22
 70
     1
102
RTVSPropertyOp23
 70
     1
102
RTVSPropertyOp24
 70
     1
102
RTVSPropertyOp25
 70
     1
102
RTVSPropertyOp26
 70
     1
102
RTVSPropertyOp27
 70
     1
102
RTVSPropertyOp28
 70
     1
102
RTVSPropertyOp29
 70
     1
102
RTVSPropertyOp30
 70
     1
102
RTVSPropertyOp31
 70
     1
102
RTVSPropertyOp32
 70
     1
102
RTVSPropertyOp33
 70
     1
102
RTVSPropertyOp34
 70
     1
102
RTVSPropertyOp35
 70
     1
102
RTVSPropertyOp36
 70
     1
102
RTVSPropertyOp37
 70
     1
102
RTVSPropertyOp38
 70
     1
102
RTVSPropertyOp39
 70
     1
102
RTVSPropertyOp40
 70
     1
102
RTVSPropertyOp41
 70
     1
102
RTVSPropertyOp42
 70
     1
102
RTVSPropertyOp43
 70
     1
102
RTVSPropertyOp44
 70
     1
102
RTVSPropertyOp45
 70
     1
102
RTVSPropertyOp46
 70
     1
102
RTVSPropertyOp47
 70
     1
102
RTVSPropertyOp48
 70
     1
102
RTVSPropertyOp49
 70
     1
102
RTVSPropertyOp50
 70
     1
102
RTVSPropertyOp51
 70
     0
102
RTVSPropertyOp52
 70
     0
102
RTVSPropertyOp53
 70
     1
102
RTVSPropertyOp54
 70
     1
102
RTVSPropertyOp55
 70
     1
102
RTVSPropertyOp56
 70
     1
102
RTVSPropertyOp57
 70
     1
102
RTVSPropertyOp58
 70
     1
102
RTVSPropertyOp59
 70
     1
102
RTVSPropertyOp60
 70
     1
102
RTVSPropertyOp61
 70
     1
102
RTVSPropertyOp62
 70
     1
  0
XRECORD
  5
100000098
102
{ACAD_REACTORS
330
100000097
102
}
330
100000097
100
AcDbXrecord
280
     1
102
RTVSPost2010Prop28
280
     0
102
RTVSPost2010PropOp28
 70
     1
102
RTVSPost2010Prop29
280
     1
102
RTVSPost2010PropOp29
 70
     1
102
RTVSPost2010Prop30
280
     1
102
RTVSPost2010PropOp30
 70
     1
102
RTVSPost2010Prop31
280
     0
102
RTVSPost2010PropOp31
 70
     1
102
RTVSPost2010Prop32
280
     0
102
RTVSPost2010PropOp32
 70
     1
102
RTVSPost2010Prop33
280
     0
102
RTVSPost2010PropOp33
 70
     1
102
RTVSPost2010Prop34
280
     0
102
RTVSPost2010PropOp34
 70
     1
102
RTVSPost2010Prop35
280
     0
102
RTVSPost2010PropOp35
 70
     1
102
RTVSPost2010Prop36
280
     0
102
RTVSPost2010PropOp36
 70
     1
102
RTVSPost2010Prop37
 90
       50
102
RTVSPost2010PropOp37
 70
     1
102
RTVSPost2010Prop38
140
0.0
102
RTVSPost2010PropOp38
 70
     1
102
RTVSPost2010Prop39
140
1.0
102
RTVSPost2010PropOp39
 70
     1
102
RTVSPost2010Prop40
 90
        0
102
RTVSPost2010PropOp40
 70
     1
102
RTVSPost2010Prop41ColorIndex
 90
       18
102
RTVSPost2010Prop41ColorRGB
 90
        0
102
RTVSPost2010PropOp41
 70
     1
102
RTVSPost2010Prop42
 90
       50
102
RTVSPost2010PropOp42
 70
     1
102
RTVSPost2010Prop43
 90
        3
102
RTVSPost2010PropOp43
 70
     1
102
RTVSPost2010Prop44ColorIndex
 90
        5
102
RTVSPost2010Prop44ColorRGB
 90
      255
102
RTVSPost2010PropOp44
 70
     1
102
RTVSPost2010Prop45
280
     0
102
RTVSPost2010PropOp45
 70
     1
102
RTVSPost2010Prop46
 90
       50
102
RTVSPost2010PropOp46
 70
     1
102
RTVSPost2010Prop47
 90
       50
102
RTVSPost2010PropOp47
 70
     1
102
RTVSPost2010Prop48
 90
       50
102
RTVSPost2010PropOp48
 70
     1
102
RTVSPost2010Prop49
280
     0
102
RTVSPost2010PropOp49
 70
     1
102
RTVSPost2010Prop50
 90
       50
102
RTVSPost2010PropOp50
 70
     1
102
RTVSPost2010Prop51ColorIndex
 90
      256
102
RTVSPost2010Prop51ColorRGB
 90
-16777216
102
RTVSPost2010PropOp51
 70
     0
102
RTVSPost2010Prop52
140
1.0
102
RTVSPost2010PropOp52
 70
     0
102
RTVSPost2010Prop53
 90
        2
102
RTVSPost2010PropOp53
 70
     1
102
RTVSPost2010Prop54
  1
strokes_ogs.tif
102
RTVSPost2010PropOp54
 70
     1
102
RTVSPost2010Prop55
280
     0
102
RTVSPost2010PropOp55
 70
     1
102
RTVSPost2010Prop56
140
1.0
102
RTVSPost2010PropOp56
 70
     1
102
RTVSPost2010Prop57
140
1.0
102
RTVSPost2010PropOp57
 70
     1
102
RTVSPropertyOp0
 70
     1
102
RTVSPropertyOp1
 70
     1
102
RTVSPropertyOp2
 70
     1
102
RTVSPropertyOp3
 70
     1
102
RTVSPropertyOp4
 70
     1
102
RTVSPropertyOp5
 70
     1
102
RTVSPropertyOp6
 70
     1
102
RTVSPropertyOp7
 70
     1
102
RTVSPropertyOp8
 70
     1
102
RTVSPropertyOp9
 70
     1
102
RTVSPropertyOp10
 70
     1
102
RTVSPropertyOp11
 70
     1
102
RTVSPropertyOp12
 70
     1
102
RTVSPropertyOp13
 70
     1
102
RTVSPropertyOp14
 70
     1
102
RTVSPropertyOp15
 70
     1
102
RTVSPropertyOp16
 70
     1
102
RTVSPropertyOp17
 70
     1
102
RTVSPropertyOp18
 70
     1
102
RTVSPropertyOp19
 70
     1
102
RTVSPropertyOp20
 70
     1
102
RTVSPropertyOp21
 70
     1
102
RTVSPropertyOp22
 70
     1
102
RTVSPropertyOp23
 70
     1
102
RTVSPropertyOp24
 70
     1
102
RTVSPropertyOp25
 70
     1
102
RTVSPropertyOp26
 70
     1
102
RTVSPropertyOp27
 70
     1
102
RTVSPropertyOp28
 70
     1
102
RTVSPropertyOp29
 70
     1
102
RTVSPropertyOp30
 70
     1
102
RTVSPropertyOp31
 70
     1
102
RTVSPropertyOp32
 70
     1
102
RTVSPropertyOp33
 70
     1
102
RTVSPropertyOp34
 70
     1
102
RTVSPropertyOp35
 70
     1
102
RTVSPropertyOp36
 70
     1
102
RTVSPropertyOp37
 70
     1
102
RTVSPropertyOp38
 70
     1
102
RTVSPropertyOp39
 70
     1
102
RTVSPropertyOp40
 70
     1
102
RTVSPropertyOp41
 70
     1
102
RTVSPropertyOp42
 70
     1
102
RTVSPropertyOp43
 70
     1
102
RTVSPropertyOp44
 70
     1
102
RTVSPropertyOp45
 70
     1
102
RTVSPropertyOp46
 70
     1
102
RTVSPropertyOp47
 70
     1
102
RTVSPropertyOp48
 70
     1
102
RTVSPropertyOp49
 70
     1
102
RTVSPropertyOp50
 70
     1
102
RTVSPropertyOp51
 70
     0
102
RTVSPropertyOp52
 70
     0
102
RTVSPropertyOp53
 70
     1
102
RTVSPropertyOp54
 70
     1
102
RTVSPropertyOp55
 70
     1
102
RTVSPropertyOp56
 70
     1
102
RTVSPropertyOp57
 70
     1
102
RTVSPropertyOp58
 70
     1
102
RTVSPropertyOp59
 70
     1
102
RTVSPropertyOp60
 70
     1
102
RTVSPropertyOp61
 70
     1
102
RTVSPropertyOp62
 70
     1
  0
XRECORD
  5
1000000A0
102
{ACAD_REACTORS
330
10000009F
102
}
330
10000009F
100
AcDbXrecord
280
     1
102
RTVSPost2010Prop28
280
     0
102
RTVSPost2010PropOp28
 70
     1
102
RTVSPost2010Prop29
280
     1
102
RTVSPost2010PropOp29
 70
     1
102
RTVSPost2010Prop30
280
     1
102
RTVSPost2010PropOp30
 70
     1
102
RTVSPost2010Prop31
280
     0
102
RTVSPost2010PropOp31
 70
     1
102
RTVSPost2010Prop32
280
     0
102
RTVSPost2010PropOp32
 70
     1
102
RTVSPost2010Prop33
280
     0
102
RTVSPost2010PropOp33
 70
     1
102
RTVSPost2010Prop34
280
     0
102
RTVSPost2010PropOp34
 70
     1
102
RTVSPost2010Prop35
280
     0
102
RTVSPost2010PropOp35
 70
     1
102
RTVSPost2010Prop36
280
     0
102
RTVSPost2010PropOp36
 70
     1
102
RTVSPost2010Prop37
 90
       50
102
RTVSPost2010PropOp37
 70
     1
102
RTVSPost2010Prop38
140
0.0
102
RTVSPost2010PropOp38
 70
     1
102
RTVSPost2010Prop39
140
1.0
102
RTVSPost2010PropOp39
 70
     1
102
RTVSPost2010Prop40
 90
        0
102
RTVSPost2010PropOp40
 70
     1
102
RTVSPost2010Prop41ColorIndex
 90
       18
102
RTVSPost2010Prop41ColorRGB
 90
        0
102
RTVSPost2010PropOp41
 70
     1
102
RTVSPost2010Prop42
 90
       50
102
RTVSPost2010PropOp42
 70
     1
102
RTVSPost2010Prop43
 90
        3
102
RTVSPost2010PropOp43
 70
     1
102
RTVSPost2010Prop44ColorIndex
 90
        5
102
RTVSPost2010Prop44ColorRGB
 90
      255
102
RTVSPost2010PropOp44
 70
     1
102
RTVSPost2010Prop45
280
     0
102
RTVSPost2010PropOp45
 70
     1
102
RTVSPost2010Prop46
 90
       50
102
RTVSPost2010PropOp46
 70
     1
102
RTVSPost2010Prop47
 90
       50
102
RTVSPost2010PropOp47
 70
     1
102
RTVSPost2010Prop48
 90
       50
102
RTVSPost2010PropOp48
 70
     1
102
RTVSPost2010Prop49
280
     0
102
RTVSPost2010PropOp49
 70
     1
102
RTVSPost2010Prop50
 90
       50
102
RTVSPost2010PropOp50
 70
     1
102
RTVSPost2010Prop51ColorIndex
 90
      256
102
RTVSPost2010Prop51ColorRGB
 90
-16777216
102
RTVSPost2010PropOp51
 70
     0
102
RTVSPost2010Prop52
140
1.0
102
RTVSPost2010PropOp52
 70
     0
102
RTVSPost2010Prop53
 90
        2
102
RTVSPost2010PropOp53
 70
     1
102
RTVSPost2010Prop54
  1
strokes_ogs.tif
102
RTVSPost2010PropOp54
 70
     1
102
RTVSPost2010Prop55
280
     0
102
RTVSPost2010PropOp55
 70
     1
102
RTVSPost2010Prop56
140
1.0
102
RTVSPost2010PropOp56
 70
     1
102
RTVSPost2010Prop57
140
1.0
102
RTVSPost2010PropOp57
 70
     1
102
RTVSPropertyOp0
 70
     1
102
RTVSPropertyOp1
 70
     1
102
RTVSPropertyOp2
 70
     1
102
RTVSPropertyOp3
 70
     1
102
RTVSPropertyOp4
 70
     1
102
RTVSPropertyOp5
 70
     1
102
RTVSPropertyOp6
 70
     1
102
RTVSPropertyOp7
 70
     1
102
RTVSPropertyOp8
 70
     1
102
RTVSPropertyOp9
 70
     1
102
RTVSPropertyOp10
 70
     1
102
RTVSPropertyOp11
 70
     1
102
RTVSPropertyOp12
 70
     1
102
RTVSPropertyOp13
 70
     1
102
RTVSPropertyOp14
 70
     1
102
RTVSPropertyOp15
 70
     1
102
RTVSPropertyOp16
 70
     1
102
RTVSPropertyOp17
 70
     1
102
RTVSPropertyOp18
 70
     1
102
RTVSPropertyOp19
 70
     1
102
RTVSPropertyOp20
 70
     1
102
RTVSPropertyOp21
 70
     1
102
RTVSPropertyOp22
 70
     1
102
RTVSPropertyOp23
 70
     1
102
RTVSPropertyOp24
 70
     1
102
RTVSPropertyOp25
 70
     1
102
RTVSPropertyOp26
 70
     1
102
RTVSPropertyOp27
 70
     1
102
RTVSPropertyOp28
 70
     1
102
RTVSPropertyOp29
 70
     1
102
RTVSPropertyOp30
 70
     1
102
RTVSPropertyOp31
 70
     1
102
RTVSPropertyOp32
 70
     1
102
RTVSPropertyOp33
 70
     1
102
RTVSPropertyOp34
 70
     1
102
RTVSPropertyOp35
 70
     1
102
RTVSPropertyOp36
 70
     1
102
RTVSPropertyOp37
 70
     1
102
RTVSPropertyOp38
 70
     1
102
RTVSPropertyOp39
 70
     1
102
RTVSPropertyOp40
 70
     1
102
RTVSPropertyOp41
 70
     1
102
RTVSPropertyOp42
 70
     1
102
RTVSPropertyOp43
 70
     1
102
RTVSPropertyOp44
 70
     1
102
RTVSPropertyOp45
 70
     1
102
RTVSPropertyOp46
 70
     1
102
RTVSPropertyOp47
 70
     1
102
RTVSPropertyOp48
 70
     1
102
RTVSPropertyOp49
 70
     1
102
RTVSPropertyOp50
 70
     1
102
RTVSPropertyOp51
 70
     0
102
RTVSPropertyOp52
 70
     0
102
RTVSPropertyOp53
 70
     1
102
RTVSPropertyOp54
 70
     1
102
RTVSPropertyOp55
 70
     1
102
RTVSPropertyOp56
 70
     1
102
RTVSPropertyOp57
 70
     1
102
RTVSPropertyOp58
 70
     1
102
RTVSPropertyOp59
 70
     1
102
RTVSPropertyOp60
 70
     1
102
RTVSPropertyOp61
 70
     1
102
RTVSPropertyOp62
 70
     1
  0
XRECORD
  5
100000092
102
{ACAD_REACTORS
330
100000091
102
}
330
100000091
100
AcDbXrecord
280
     1
102
RTVSPost2010Prop28
280
     0
102
RTVSPost2010PropOp28
 70
     1
102
RTVSPost2010Prop29
280
     1
102
RTVSPost2010PropOp29
 70
     1
102
RTVSPost2010Prop30
280
     1
102
RTVSPost2010PropOp30
 70
     1
102
RTVSPost2010Prop31
280
     0
102
RTVSPost2010PropOp31
 70
     1
102
RTVSPost2010Prop32
280
     0
102
RTVSPost2010PropOp32
 70
     1
102
RTVSPost2010Prop33
280
     0
102
RTVSPost2010PropOp33
 70
     1
102
RTVSPost2010Prop34
280
     0
102
RTVSPost2010PropOp34
 70
     1
102
RTVSPost2010Prop35
280
     0
102
RTVSPost2010PropOp35
 70
     1
102
RTVSPost2010Prop36
280
     0
102
RTVSPost2010PropOp36
 70
     1
102
RTVSPost2010Prop37
 90
       50
102
RTVSPost2010PropOp37
 70
     1
102
RTVSPost2010Prop38
140
0.0
102
RTVSPost2010PropOp38
 70
     1
102
RTVSPost2010Prop39
140
1.0
102
RTVSPost2010PropOp39
 70
     1
102
RTVSPost2010Prop40
 90
        0
102
RTVSPost2010PropOp40
 70
     1
102
RTVSPost2010Prop41ColorIndex
 90
       18
102
RTVSPost2010Prop41ColorRGB
 90
        0
102
RTVSPost2010PropOp41
 70
     1
102
RTVSPost2010Prop42
 90
       50
102
RTVSPost2010PropOp42
 70
     1
102
RTVSPost2010Prop43
 90
        3
102
RTVSPost2010PropOp43
 70
     1
102
RTVSPost2010Prop44ColorIndex
 90
        5
102
RTVSPost2010Prop44ColorRGB
 90
      255
102
RTVSPost2010PropOp44
 70
     1
102
RTVSPost2010Prop45
280
     0
102
RTVSPost2010PropOp45
 70
     1
102
RTVSPost2010Prop46
 90
       50
102
RTVSPost2010PropOp46
 70
     1
102
RTVSPost2010Prop47
 90
       50
102
RTVSPost2010PropOp47
 70
     1
102
RTVSPost2010Prop48
 90
       50
102
RTVSPost2010PropOp48
 70
     1
102
RTVSPost2010Prop49
280
     0
102
RTVSPost2010PropOp49
 70
     1
102
RTVSPost2010Prop50
 90
       50
102
RTVSPost2010PropOp50
 70
     1
102
RTVSPost2010Prop51ColorIndex
 90
      256
102
RTVSPost2010Prop51ColorRGB
 90
-16777216
102
RTVSPost2010PropOp51
 70
     0
102
RTVSPost2010Prop52
140
1.0
102
RTVSPost2010PropOp52
 70
     0
102
RTVSPost2010Prop53
 90
        2
102
RTVSPost2010PropOp53
 70
     1
102
RTVSPost2010Prop54
  1
strokes_ogs.tif
102
RTVSPost2010PropOp54
 70
     1
102
RTVSPost2010Prop55
280
     0
102
RTVSPost2010PropOp55
 70
     1
102
RTVSPost2010Prop56
140
1.0
102
RTVSPost2010PropOp56
 70
     1
102
RTVSPost2010Prop57
140
1.0
102
RTVSPost2010PropOp57
 70
     1
102
RTVSPropertyOp0
 70
     1
102
RTVSPropertyOp1
 70
     1
102
RTVSPropertyOp2
 70
     1
102
RTVSPropertyOp3
 70
     1
102
RTVSPropertyOp4
 70
     1
102
RTVSPropertyOp5
 70
     1
102
RTVSPropertyOp6
 70
     1
102
RTVSPropertyOp7
 70
     1
102
RTVSPropertyOp8
 70
     1
102
RTVSPropertyOp9
 70
     1
102
RTVSPropertyOp10
 70
     1
102
RTVSPropertyOp11
 70
     1
102
RTVSPropertyOp12
 70
     1
102
RTVSPropertyOp13
 70
     1
102
RTVSPropertyOp14
 70
     1
102
RTVSPropertyOp15
 70
     1
102
RTVSPropertyOp16
 70
     1
102
RTVSPropertyOp17
 70
     1
102
RTVSPropertyOp18
 70
     1
102
RTVSPropertyOp19
 70
     1
102
RTVSPropertyOp20
 70
     1
102
RTVSPropertyOp21
 70
     1
102
RTVSPropertyOp22
 70
     1
102
RTVSPropertyOp23
 70
     1
102
RTVSPropertyOp24
 70
     1
102
RTVSPropertyOp25
 70
     1
102
RTVSPropertyOp26
 70
     1
102
RTVSPropertyOp27
 70
     1
102
RTVSPropertyOp28
 70
     1
102
RTVSPropertyOp29
 70
     1
102
RTVSPropertyOp30
 70
     1
102
RTVSPropertyOp31
 70
     1
102
RTVSPropertyOp32
 70
     1
102
RTVSPropertyOp33
 70
     1
102
RTVSPropertyOp34
 70
     1
102
RTVSPropertyOp35
 70
     1
102
RTVSPropertyOp36
 70
     1
102
RTVSPropertyOp37
 70
     1
102
RTVSPropertyOp38
 70
     1
102
RTVSPropertyOp39
 70
     1
102
RTVSPropertyOp40
 70
     1
102
RTVSPropertyOp41
 70
     1
102
RTVSPropertyOp42
 70
     1
102
RTVSPropertyOp43
 70
     1
102
RTVSPropertyOp44
 70
     1
102
RTVSPropertyOp45
 70
     1
102
RTVSPropertyOp46
 70
     1
102
RTVSPropertyOp47
 70
     1
102
RTVSPropertyOp48
 70
     1
102
RTVSPropertyOp49
 70
     1
102
RTVSPropertyOp50
 70
     1
102
RTVSPropertyOp51
 70
     0
102
RTVSPropertyOp52
 70
     0
102
RTVSPropertyOp53
 70
     1
102
RTVSPropertyOp54
 70
     1
102
RTVSPropertyOp55
 70
     1
102
RTVSPropertyOp56
 70
     1
102
RTVSPropertyOp57
 70
     1
102
RTVSPropertyOp58
 70
     1
102
RTVSPropertyOp59
 70
     1
102
RTVSPropertyOp60
 70
     1
102
RTVSPropertyOp61
 70
     1
102
RTVSPropertyOp62
 70
     1
  0
XRECORD
  5
100000096
102
{ACAD_REACTORS
330
100000095
102
}
330
100000095
100
AcDbXrecord
280
     1
102
RTVSPost2010Prop28
280
     0
102
RTVSPost2010PropOp28
 70
     1
102
RTVSPost2010Prop29
280
     1
102
RTVSPost2010PropOp29
 70
     1
102
RTVSPost2010Prop30
280
     1
102
RTVSPost2010PropOp30
 70
     1
102
RTVSPost2010Prop31
280
     0
102
RTVSPost2010PropOp31
 70
     1
102
RTVSPost2010Prop32
280
     0
102
RTVSPost2010PropOp32
 70
     1
102
RTVSPost2010Prop33
280
     0
102
RTVSPost2010PropOp33
 70
     1
102
RTVSPost2010Prop34
280
     0
102
RTVSPost2010PropOp34
 70
     1
102
RTVSPost2010Prop35
280
     0
102
RTVSPost2010PropOp35
 70
     1
102
RTVSPost2010Prop36
280
     0
102
RTVSPost2010PropOp36
 70
     1
102
RTVSPost2010Prop37
 90
       50
102
RTVSPost2010PropOp37
 70
     1
102
RTVSPost2010Prop38
140
0.0
102
RTVSPost2010PropOp38
 70
     1
102
RTVSPost2010Prop39
140
1.0
102
RTVSPost2010PropOp39
 70
     1
102
RTVSPost2010Prop40
 90
        0
102
RTVSPost2010PropOp40
 70
     1
102
RTVSPost2010Prop41ColorIndex
 90
       18
102
RTVSPost2010Prop41ColorRGB
 90
        0
102
RTVSPost2010PropOp41
 70
     1
102
RTVSPost2010Prop42
 90
       50
102
RTVSPost2010PropOp42
 70
     1
102
RTVSPost2010Prop43
 90
        3
102
RTVSPost2010PropOp43
 70
     1
102
RTVSPost2010Prop44ColorIndex
 90
        5
102
RTVSPost2010Prop44ColorRGB
 90
      255
102
RTVSPost2010PropOp44
 70
     1
102
RTVSPost2010Prop45
280
     0
102
RTVSPost2010PropOp45
 70
     1
102
RTVSPost2010Prop46
 90
       50
102
RTVSPost2010PropOp46
 70
     1
102
RTVSPost2010Prop47
 90
       50
102
RTVSPost2010PropOp47
 70
     1
102
RTVSPost2010Prop48
 90
       50
102
RTVSPost2010PropOp48
 70
     1
102
RTVSPost2010Prop49
280
     0
102
RTVSPost2010PropOp49
 70
     1
102
RTVSPost2010Prop50
 90
       50
102
RTVSPost2010PropOp50
 70
     1
102
RTVSPost2010Prop51ColorIndex
 90
      256
102
RTVSPost2010Prop51ColorRGB
 90
-16777216
102
RTVSPost2010PropOp51
 70
     0
102
RTVSPost2010Prop52
140
1.0
102
RTVSPost2010PropOp52
 70
     0
102
RTVSPost2010Prop53
 90
        2
102
RTVSPost2010PropOp53
 70
     1
102
RTVSPost2010Prop54
  1
strokes_ogs.tif
102
RTVSPost2010PropOp54
 70
     1
102
RTVSPost2010Prop55
280
     0
102
RTVSPost2010PropOp55
 70
     1
102
RTVSPost2010Prop56
140
1.0
102
RTVSPost2010PropOp56
 70
     1
102
RTVSPost2010Prop57
140
1.0
102
RTVSPost2010PropOp57
 70
     1
102
RTVSPropertyOp0
 70
     1
102
RTVSPropertyOp1
 70
     1
102
RTVSPropertyOp2
 70
     1
102
RTVSPropertyOp3
 70
     1
102
RTVSPropertyOp4
 70
     1
102
RTVSPropertyOp5
 70
     1
102
RTVSPropertyOp6
 70
     1
102
RTVSPropertyOp7
 70
     1
102
RTVSPropertyOp8
 70
     1
102
RTVSPropertyOp9
 70
     1
102
RTVSPropertyOp10
 70
     1
102
RTVSPropertyOp11
 70
     1
102
RTVSPropertyOp12
 70
     1
102
RTVSPropertyOp13
 70
     1
102
RTVSPropertyOp14
 70
     1
102
RTVSPropertyOp15
 70
     1
102
RTVSPropertyOp16
 70
     1
102
RTVSPropertyOp17
 70
     1
102
RTVSPropertyOp18
 70
     1
102
RTVSPropertyOp19
 70
     1
102
RTVSPropertyOp20
 70
     1
102
RTVSPropertyOp21
 70
     1
102
RTVSPropertyOp22
 70
     1
102
RTVSPropertyOp23
 70
     1
102
RTVSPropertyOp24
 70
     1
102
RTVSPropertyOp25
 70
     1
102
RTVSPropertyOp26
 70
     1
102
RTVSPropertyOp27
 70
     1
102
RTVSPropertyOp28
 70
     1
102
RTVSPropertyOp29
 70
     1
102
RTVSPropertyOp30
 70
     1
102
RTVSPropertyOp31
 70
     1
102
RTVSPropertyOp32
 70
     1
102
RTVSPropertyOp33
 70
     1
102
RTVSPropertyOp34
 70
     1
102
RTVSPropertyOp35
 70
     1
102
RTVSPropertyOp36
 70
     1
102
RTVSPropertyOp37
 70
     1
102
RTVSPropertyOp38
 70
     1
102
RTVSPropertyOp39
 70
     1
102
RTVSPropertyOp40
 70
     1
102
RTVSPropertyOp41
 70
     1
102
RTVSPropertyOp42
 70
     1
102
RTVSPropertyOp43
 70
     1
102
RTVSPropertyOp44
 70
     1
102
RTVSPropertyOp45
 70
     1
102
RTVSPropertyOp46
 70
     1
102
RTVSPropertyOp47
 70
     1
102
RTVSPropertyOp48
 70
     1
102
RTVSPropertyOp49
 70
     1
102
RTVSPropertyOp50
 70
     1
102
RTVSPropertyOp51
 70
     0
102
RTVSPropertyOp52
 70
     0
102
RTVSPropertyOp53
 70
     1
102
RTVSPropertyOp54
 70
     1
102
RTVSPropertyOp55
 70
     1
102
RTVSPropertyOp56
 70
     1
102
RTVSPropertyOp57
 70
     1
102
RTVSPropertyOp58
 70
     1
102
RTVSPropertyOp59
 70
     1
102
RTVSPropertyOp60
 70
     1
102
RTVSPropertyOp61
 70
     1
102
RTVSPropertyOp62
 70
     1
  0
XRECORD
  5
1000000B0
102
{ACAD_REACTORS
330
1000000AF
102
}
330
1000000AF
100
AcDbXrecord
280
     1
102
RTVSPost2010Prop28
280
     0
102
RTVSPost2010PropOp28
 70
     1
102
RTVSPost2010Prop29
280
     1
102
RTVSPost2010PropOp29
 70
     1
102
RTVSPost2010Prop30
280
     1
102
RTVSPost2010PropOp30
 70
     1
102
RTVSPost2010Prop31
280
     0
102
RTVSPost2010PropOp31
 70
     1
102
RTVSPost2010Prop32
280
     0
102
RTVSPost2010PropOp32
 70
     1
102
RTVSPost2010Prop33
280
     0
102
RTVSPost2010PropOp33
 70
     1
102
RTVSPost2010Prop34
280
     0
102
RTVSPost2010PropOp34
 70
     1
102
RTVSPost2010Prop35
280
     0
102
RTVSPost2010PropOp35
 70
     1
102
RTVSPost2010Prop36
280
     0
102
RTVSPost2010PropOp36
 70
     1
102
RTVSPost2010Prop37
 90
       50
102
RTVSPost2010PropOp37
 70
     0
102
RTVSPost2010Prop38
140
0.0
102
RTVSPost2010PropOp38
 70
     0
102
RTVSPost2010Prop39
140
1.0
102
RTVSPost2010PropOp39
 70
     0
102
RTVSPost2010Prop40
 90
        0
102
RTVSPost2010PropOp40
 70
     0
102
RTVSPost2010Prop41ColorIndex
 90
       18
102
RTVSPost2010Prop41ColorRGB
 90
        0
102
RTVSPost2010PropOp41
 70
     0
102
RTVSPost2010Prop42
 90
       50
102
RTVSPost2010PropOp42
 70
     0
102
RTVSPost2010Prop43
 90
        3
102
RTVSPost2010PropOp43
 70
     0
102
RTVSPost2010Prop44ColorIndex
 90
        5
102
RTVSPost2010Prop44ColorRGB
 90
      255
102
RTVSPost2010PropOp44
 70
     0
102
RTVSPost2010Prop45
280
     0
102
RTVSPost2010PropOp45
 70
     1
102
RTVSPost2010Prop46
 90
       50
102
RTVSPost2010PropOp46
 70
     0
102
RTVSPost2010Prop47
 90
       50
102
RTVSPost2010PropOp47
 70
     0
102
RTVSPost2010Prop48
 90
       50
102
RTVSPost2010PropOp48
 70
     0
102
RTVSPost2010Prop49
280
     0
102
RTVSPost2010PropOp49
 70
     1
102
RTVSPost2010Prop50
 90
       50
102
RTVSPost2010PropOp50
 70
     0
102
RTVSPost2010Prop51ColorIndex
 90
      256
102
RTVSPost2010Prop51ColorRGB
 90
-16777216
102
RTVSPost2010PropOp51
 70
     0
102
RTVSPost2010Prop52
140
1.0
102
RTVSPost2010PropOp52
 70
     0
102
RTVSPost2010Prop53
 90
        2
102
RTVSPost2010PropOp53
 70
     0
102
RTVSPost2010Prop54
  1
strokes_ogs.tif
102
RTVSPost2010PropOp54
 70
     0
102
RTVSPost2010Prop55
280
     0
102
RTVSPost2010PropOp55
 70
     1
102
RTVSPost2010Prop56
140
1.0
102
RTVSPost2010PropOp56
 70
     0
102
RTVSPost2010Prop57
140
1.0
102
RTVSPost2010PropOp57
 70
     0
102
RTVSPropertyOp0
 70
     0
102
RTVSPropertyOp1
 70
     0
102
RTVSPropertyOp2
 70
     0
102
RTVSPropertyOp3
 70
     0
102
RTVSPropertyOp4
 70
     0
102
RTVSPropertyOp5
 70
     0
102
RTVSPropertyOp6
 70
     0
102
RTVSPropertyOp7
 70
     0
102
RTVSPropertyOp8
 70
     0
102
RTVSPropertyOp9
 70
     0
102
RTVSPropertyOp10
 70
     0
102
RTVSPropertyOp11
 70
     0
102
RTVSPropertyOp12
 70
     0
102
RTVSPropertyOp13
 70
     0
102
RTVSPropertyOp14
 70
     2
102
RTVSPropertyOp15
 70
     0
102
RTVSPropertyOp16
 70
     0
102
RTVSPropertyOp17
 70
     0
102
RTVSPropertyOp18
 70
     0
102
RTVSPropertyOp19
 70
     0
102
RTVSPropertyOp20
 70
     0
102
RTVSPropertyOp21
 70
     0
102
RTVSPropertyOp22
 70
     0
102
RTVSPropertyOp23
 70
     0
102
RTVSPropertyOp24
 70
     0
102
RTVSPropertyOp25
 70
     0
102
RTVSPropertyOp26
 70
     0
102
RTVSPropertyOp27
 70
     0
102
RTVSPropertyOp28
 70
     1
102
RTVSPropertyOp29
 70
     1
102
RTVSPropertyOp30
 70
     1
102
RTVSPropertyOp31
 70
     1
102
RTVSPropertyOp32
 70
     1
102
RTVSPropertyOp33
 70
     1
102
RTVSPropertyOp34
 70
     1
102
RTVSPropertyOp35
 70
     1
102
RTVSPropertyOp36
 70
     1
102
RTVSPropertyOp37
 70
     0
102
RTVSPropertyOp38
 70
     0
102
RTVSPropertyOp39
 70
     0
102
RTVSPropertyOp40
 70
     0
102
RTVSPropertyOp41
 70
     0
102
RTVSPropertyOp42
 70
     0
102
RTVSPropertyOp43
 70
     0
102
RTVSPropertyOp44
 70
     0
102
RTVSPropertyOp45
 70
     1
102
RTVSPropertyOp46
 70
     0
102
RTVSPropertyOp47
 70
     0
102
RTVSPropertyOp48
 70
     0
102
RTVSPropertyOp49
 70
     1
102
RTVSPropertyOp50
 70
     0
102
RTVSPropertyOp51
 70
     0
102
RTVSPropertyOp52
 70
     0
102
RTVSPropertyOp53
 70
     0
102
RTVSPropertyOp54
 70
     0
102
RTVSPropertyOp55
 70
     1
102
RTVSPropertyOp56
 70
     0
102
RTVSPropertyOp57
 70
     0
102
RTVSPropertyOp58
 70
     0
102
RTVSPropertyOp59
 70
     0
102
RTVSPropertyOp60
 70
     0
102
RTVSPropertyOp61
 70
     0
102
RTVSPropertyOp62
 70
     0
  0
XRECORD
  5
10000009E
102
{ACAD_REACTORS
330
10000009D
102
}
330
10000009D
100
AcDbXrecord
280
     1
102
RTVSPost2010Prop28
280
     0
102
RTVSPost2010PropOp28
 70
     1
102
RTVSPost2010Prop29
280
     1
102
RTVSPost2010PropOp29
 70
     1
102
RTVSPost2010Prop30
280
     1
102
RTVSPost2010PropOp30
 70
     1
102
RTVSPost2010Prop31
280
     0
102
RTVSPost2010PropOp31
 70
     1
102
RTVSPost2010Prop32
280
     0
102
RTVSPost2010PropOp32
 70
     1
102
RTVSPost2010Prop33
280
     0
102
RTVSPost2010PropOp33
 70
     1
102
RTVSPost2010Prop34
280
     0
102
RTVSPost2010PropOp34
 70
     1
102
RTVSPost2010Prop35
280
     0
102
RTVSPost2010PropOp35
 70
     1
102
RTVSPost2010Prop36
280
     0
102
RTVSPost2010PropOp36
 70
     1
102
RTVSPost2010Prop37
 90
       50
102
RTVSPost2010PropOp37
 70
     1
102
RTVSPost2010Prop38
140
0.0
102
RTVSPost2010PropOp38
 70
     1
102
RTVSPost2010Prop39
140
1.0
102
RTVSPost2010PropOp39
 70
     1
102
RTVSPost2010Prop40
 90
        0
102
RTVSPost2010PropOp40
 70
     1
102
RTVSPost2010Prop41ColorIndex
 90
       18
102
RTVSPost2010Prop41ColorRGB
 90
        0
102
RTVSPost2010PropOp41
 70
     1
102
RTVSPost2010Prop42
 90
       50
102
RTVSPost2010PropOp42
 70
     1
102
RTVSPost2010Prop43
 90
        3
102
RTVSPost2010PropOp43
 70
     1
102
RTVSPost2010Prop44ColorIndex
 90
        5
102
RTVSPost2010Prop44ColorRGB
 90
      255
102
RTVSPost2010PropOp44
 70
     1
102
RTVSPost2010Prop45
280
     0
102
RTVSPost2010PropOp45
 70
     1
102
RTVSPost2010Prop46
 90
       50
102
RTVSPost2010PropOp46
 70
     1
102
RTVSPost2010Prop47
 90
       50
102
RTVSPost2010PropOp47
 70
     1
102
RTVSPost2010Prop48
 90
       50
102
RTVSPost2010PropOp48
 70
     1
102
RTVSPost2010Prop49
280
     0
102
RTVSPost2010PropOp49
 70
     1
102
RTVSPost2010Prop50
 90
       50
102
RTVSPost2010PropOp50
 70
     1
102
RTVSPost2010Prop51ColorIndex
 90
      256
102
RTVSPost2010Prop51ColorRGB
 90
-16777216
102
RTVSPost2010PropOp51
 70
     0
102
RTVSPost2010Prop52
140
1.0
102
RTVSPost2010PropOp52
 70
     0
102
RTVSPost2010Prop53
 90
        2
102
RTVSPost2010PropOp53
 70
     1
102
RTVSPost2010Prop54
  1
strokes_ogs.tif
102
RTVSPost2010PropOp54
 70
     1
102
RTVSPost2010Prop55
280
     0
102
RTVSPost2010PropOp55
 70
     1
102
RTVSPost2010Prop56
140
1.0
102
RTVSPost2010PropOp56
 70
     1
102
RTVSPost2010Prop57
140
1.0
102
RTVSPost2010PropOp57
 70
     1
102
RTVSPropertyOp0
 70
     1
102
RTVSPropertyOp1
 70
     1
102
RTVSPropertyOp2
 70
     1
102
RTVSPropertyOp3
 70
     1
102
RTVSPropertyOp4
 70
     1
102
RTVSPropertyOp5
 70
     1
102
RTVSPropertyOp6
 70
     1
102
RTVSPropertyOp7
 70
     1
102
RTVSPropertyOp8
 70
     1
102
RTVSPropertyOp9
 70
     1
102
RTVSPropertyOp10
 70
     1
102
RTVSPropertyOp11
 70
     1
102
RTVSPropertyOp12
 70
     1
102
RTVSPropertyOp13
 70
     1
102
RTVSPropertyOp14
 70
     1
102
RTVSPropertyOp15
 70
     1
102
RTVSPropertyOp16
 70
     1
102
RTVSPropertyOp17
 70
     1
102
RTVSPropertyOp18
 70
     1
102
RTVSPropertyOp19
 70
     1
102
RTVSPropertyOp20
 70
     1
102
RTVSPropertyOp21
 70
     1
102
RTVSPropertyOp22
 70
     1
102
RTVSPropertyOp23
 70
     1
102
RTVSPropertyOp24
 70
     1
102
RTVSPropertyOp25
 70
     1
102
RTVSPropertyOp26
 70
     1
102
RTVSPropertyOp27
 70
     1
102
RTVSPropertyOp28
 70
     1
102
RTVSPropertyOp29
 70
     1
102
RTVSPropertyOp30
 70
     1
102
RTVSPropertyOp31
 70
     1
102
RTVSPropertyOp32
 70
     1
102
RTVSPropertyOp33
 70
     1
102
RTVSPropertyOp34
 70
     1
102
RTVSPropertyOp35
 70
     1
102
RTVSPropertyOp36
 70
     1
102
RTVSPropertyOp37
 70
     1
102
RTVSPropertyOp38
 70
     1
102
RTVSPropertyOp39
 70
     1
102
RTVSPropertyOp40
 70
     1
102
RTVSPropertyOp41
 70
     1
102
RTVSPropertyOp42
 70
     1
102
RTVSPropertyOp43
 70
     1
102
RTVSPropertyOp44
 70
     1
102
RTVSPropertyOp45
 70
     1
102
RTVSPropertyOp46
 70
     1
102
RTVSPropertyOp47
 70
     1
102
RTVSPropertyOp48
 70
     1
102
RTVSPropertyOp49
 70
     1
102
RTVSPropertyOp50
 70
     1
102
RTVSPropertyOp51
 70
     0
102
RTVSPropertyOp52
 70
     0
102
RTVSPropertyOp53
 70
     1
102
RTVSPropertyOp54
 70
     1
102
RTVSPropertyOp55
 70
     1
102
RTVSPropertyOp56
 70
     1
102
RTVSPropertyOp57
 70
     1
102
RTVSPropertyOp58
 70
     1
102
RTVSPropertyOp59
 70
     1
102
RTVSPropertyOp60
 70
     1
102
RTVSPropertyOp61
 70
     1
102
RTVSPropertyOp62
 70
     1
  0
XRECORD
  5
100000082
102
{ACAD_REACTORS
330
100000081
102
}
330
100000081
100
AcDbXrecord
280
     1
102
RTVSPost2010Prop28
280
     0
102
RTVSPost2010PropOp28
 70
     1
102
RTVSPost2010Prop29
280
     1
102
RTVSPost2010PropOp29
 70
     1
102
RTVSPost2010Prop30
280
     1
102
RTVSPost2010PropOp30
 70
     1
102
RTVSPost2010Prop31
280
     0
102
RTVSPost2010PropOp31
 70
     1
102
RTVSPost2010Prop32
280
     0
102
RTVSPost2010PropOp32
 70
     1
102
RTVSPost2010Prop33
280
     0
102
RTVSPost2010PropOp33
 70
     1
102
RTVSPost2010Prop34
280
     0
102
RTVSPost2010PropOp34
 70
     1
102
RTVSPost2010Prop35
280
     0
102
RTVSPost2010PropOp35
 70
     1
102
RTVSPost2010Prop36
280
     0
102
RTVSPost2010PropOp36
 70
     1
102
RTVSPost2010Prop37
 90
       50
102
RTVSPost2010PropOp37
 70
     1
102
RTVSPost2010Prop38
140
0.0
102
RTVSPost2010PropOp38
 70
     1
102
RTVSPost2010Prop39
140
1.0
102
RTVSPost2010PropOp39
 70
     1
102
RTVSPost2010Prop40
 90
        0
102
RTVSPost2010PropOp40
 70
     1
102
RTVSPost2010Prop41ColorIndex
 90
       18
102
RTVSPost2010Prop41ColorRGB
 90
        0
102
RTVSPost2010PropOp41
 70
     1
102
RTVSPost2010Prop42
 90
       50
102
RTVSPost2010PropOp42
 70
     1
102
RTVSPost2010Prop43
 90
        3
102
RTVSPost2010PropOp43
 70
     1
102
RTVSPost2010Prop44ColorIndex
 90
        5
102
RTVSPost2010Prop44ColorRGB
 90
      255
102
RTVSPost2010PropOp44
 70
     1
102
RTVSPost2010Prop45
280
     0
102
RTVSPost2010PropOp45
 70
     1
102
RTVSPost2010Prop46
 90
       50
102
RTVSPost2010PropOp46
 70
     1
102
RTVSPost2010Prop47
 90
       50
102
RTVSPost2010PropOp47
 70
     1
102
RTVSPost2010Prop48
 90
       50
102
RTVSPost2010PropOp48
 70
     1
102
RTVSPost2010Prop49
280
     0
102
RTVSPost2010PropOp49
 70
     1
102
RTVSPost2010Prop50
 90
       50
102
RTVSPost2010PropOp50
 70
     1
102
RTVSPost2010Prop51ColorIndex
 90
      256
102
RTVSPost2010Prop51ColorRGB
 90
-16777216
102
RTVSPost2010PropOp51
 70
     0
102
RTVSPost2010Prop52
140
1.0
102
RTVSPost2010PropOp52
 70
     0
102
RTVSPost2010Prop53
 90
        2
102
RTVSPost2010PropOp53
 70
     1
102
RTVSPost2010Prop54
  1
strokes_ogs.tif
102
RTVSPost2010PropOp54
 70
     1
102
RTVSPost2010Prop55
280
     0
102
RTVSPost2010PropOp55
 70
     1
102
RTVSPost2010Prop56
140
1.0
102
RTVSPost2010PropOp56
 70
     1
102
RTVSPost2010Prop57
140
1.0
102
RTVSPost2010PropOp57
 70
     1
102
RTVSPropertyOp0
 70
     1
102
RTVSPropertyOp1
 70
     1
102
RTVSPropertyOp2
 70
     1
102
RTVSPropertyOp3
 70
     1
102
RTVSPropertyOp4
 70
     1
102
RTVSPropertyOp5
 70
     1
102
RTVSPropertyOp6
 70
     1
102
RTVSPropertyOp7
 70
     1
102
RTVSPropertyOp8
 70
     1
102
RTVSPropertyOp9
 70
     1
102
RTVSPropertyOp10
 70
     1
102
RTVSPropertyOp11
 70
     1
102
RTVSPropertyOp12
 70
     1
102
RTVSPropertyOp13
 70
     1
102
RTVSPropertyOp14
 70
     1
102
RTVSPropertyOp15
 70
     1
102
RTVSPropertyOp16
 70
     1
102
RTVSPropertyOp17
 70
     1
102
RTVSPropertyOp18
 70
     1
102
RTVSPropertyOp19
 70
     1
102
RTVSPropertyOp20
 70
     1
102
RTVSPropertyOp21
 70
     1
102
RTVSPropertyOp22
 70
     1
102
RTVSPropertyOp23
 70
     1
102
RTVSPropertyOp24
 70
     1
102
RTVSPropertyOp25
 70
     1
102
RTVSPropertyOp26
 70
     1
102
RTVSPropertyOp27
 70
     1
102
RTVSPropertyOp28
 70
     1
102
RTVSPropertyOp29
 70
     1
102
RTVSPropertyOp30
 70
     1
102
RTVSPropertyOp31
 70
     1
102
RTVSPropertyOp32
 70
     1
102
RTVSPropertyOp33
 70
     1
102
RTVSPropertyOp34
 70
     1
102
RTVSPropertyOp35
 70
     1
102
RTVSPropertyOp36
 70
     1
102
RTVSPropertyOp37
 70
     1
102
RTVSPropertyOp38
 70
     1
102
RTVSPropertyOp39
 70
     1
102
RTVSPropertyOp40
 70
     1
102
RTVSPropertyOp41
 70
     1
102
RTVSPropertyOp42
 70
     1
102
RTVSPropertyOp43
 70
     1
102
RTVSPropertyOp44
 70
     1
102
RTVSPropertyOp45
 70
     1
102
RTVSPropertyOp46
 70
     1
102
RTVSPropertyOp47
 70
     1
102
RTVSPropertyOp48
 70
     1
102
RTVSPropertyOp49
 70
     1
102
RTVSPropertyOp50
 70
     1
102
RTVSPropertyOp51
 70
     0
102
RTVSPropertyOp52
 70
     0
102
RTVSPropertyOp53
 70
     1
102
RTVSPropertyOp54
 70
     1
102
RTVSPropertyOp55
 70
     1
102
RTVSPropertyOp56
 70
     1
102
RTVSPropertyOp57
 70
     1
102
RTVSPropertyOp58
 70
     1
102
RTVSPropertyOp59
 70
     1
102
RTVSPropertyOp60
 70
     1
102
RTVSPropertyOp61
 70
     1
102
RTVSPropertyOp62
 70
     1
  0
XRECORD
  5
100000084
102
{ACAD_REACTORS
330
100000083
102
}
330
100000083
100
AcDbXrecord
280
     1
102
RTVSPost2010Prop28
280
     0
102
RTVSPost2010PropOp28
 70
     1
102
RTVSPost2010Prop29
280
     1
102
RTVSPost2010PropOp29
 70
     1
102
RTVSPost2010Prop30
280
     1
102
RTVSPost2010PropOp30
 70
     1
102
RTVSPost2010Prop31
280
     0
102
RTVSPost2010PropOp31
 70
     1
102
RTVSPost2010Prop32
280
     0
102
RTVSPost2010PropOp32
 70
     1
102
RTVSPost2010Prop33
280
     0
102
RTVSPost2010PropOp33
 70
     1
102
RTVSPost2010Prop34
280
     0
102
RTVSPost2010PropOp34
 70
     1
102
RTVSPost2010Prop35
280
     0
102
RTVSPost2010PropOp35
 70
     1
102
RTVSPost2010Prop36
280
     0
102
RTVSPost2010PropOp36
 70
     1
102
RTVSPost2010Prop37
 90
       50
102
RTVSPost2010PropOp37
 70
     1
102
RTVSPost2010Prop38
140
0.0
102
RTVSPost2010PropOp38
 70
     1
102
RTVSPost2010Prop39
140
1.0
102
RTVSPost2010PropOp39
 70
     1
102
RTVSPost2010Prop40
 90
        0
102
RTVSPost2010PropOp40
 70
     1
102
RTVSPost2010Prop41ColorIndex
 90
       18
102
RTVSPost2010Prop41ColorRGB
 90
        0
102
RTVSPost2010PropOp41
 70
     1
102
RTVSPost2010Prop42
 90
       50
102
RTVSPost2010PropOp42
 70
     1
102
RTVSPost2010Prop43
 90
        3
102
RTVSPost2010PropOp43
 70
     1
102
RTVSPost2010Prop44ColorIndex
 90
        5
102
RTVSPost2010Prop44ColorRGB
 90
      255
102
RTVSPost2010PropOp44
 70
     1
102
RTVSPost2010Prop45
280
     0
102
RTVSPost2010PropOp45
 70
     1
102
RTVSPost2010Prop46
 90
       50
102
RTVSPost2010PropOp46
 70
     1
102
RTVSPost2010Prop47
 90
       50
102
RTVSPost2010PropOp47
 70
     1
102
RTVSPost2010Prop48
 90
       50
102
RTVSPost2010PropOp48
 70
     1
102
RTVSPost2010Prop49
280
     0
102
RTVSPost2010PropOp49
 70
     1
102
RTVSPost2010Prop50
 90
       50
102
RTVSPost2010PropOp50
 70
     1
102
RTVSPost2010Prop51ColorIndex
 90
      256
102
RTVSPost2010Prop51ColorRGB
 90
-16777216
102
RTVSPost2010PropOp51
 70
     0
102
RTVSPost2010Prop52
140
1.0
102
RTVSPost2010PropOp52
 70
     0
102
RTVSPost2010Prop53
 90
        2
102
RTVSPost2010PropOp53
 70
     1
102
RTVSPost2010Prop54
  1
strokes_ogs.tif
102
RTVSPost2010PropOp54
 70
     1
102
RTVSPost2010Prop55
280
     0
102
RTVSPost2010PropOp55
 70
     1
102
RTVSPost2010Prop56
140
1.0
102
RTVSPost2010PropOp56
 70
     1
102
RTVSPost2010Prop57
140
1.0
102
RTVSPost2010PropOp57
 70
     1
102
RTVSPropertyOp0
 70
     1
102
RTVSPropertyOp1
 70
     1
102
RTVSPropertyOp2
 70
     1
102
RTVSPropertyOp3
 70
     1
102
RTVSPropertyOp4
 70
     1
102
RTVSPropertyOp5
 70
     1
102
RTVSPropertyOp6
 70
     1
102
RTVSPropertyOp7
 70
     1
102
RTVSPropertyOp8
 70
     1
102
RTVSPropertyOp9
 70
     1
102
RTVSPropertyOp10
 70
     1
102
RTVSPropertyOp11
 70
     1
102
RTVSPropertyOp12
 70
     1
102
RTVSPropertyOp13
 70
     1
102
RTVSPropertyOp14
 70
     1
102
RTVSPropertyOp15
 70
     1
102
RTVSPropertyOp16
 70
     1
102
RTVSPropertyOp17
 70
     1
102
RTVSPropertyOp18
 70
     1
102
RTVSPropertyOp19
 70
     1
102
RTVSPropertyOp20
 70
     1
102
RTVSPropertyOp21
 70
     1
102
RTVSPropertyOp22
 70
     1
102
RTVSPropertyOp23
 70
     1
102
RTVSPropertyOp24
 70
     1
102
RTVSPropertyOp25
 70
     1
102
RTVSPropertyOp26
 70
     1
102
RTVSPropertyOp27
 70
     1
102
RTVSPropertyOp28
 70
     1
102
RTVSPropertyOp29
 70
     1
102
RTVSPropertyOp30
 70
     1
102
RTVSPropertyOp31
 70
     1
102
RTVSPropertyOp32
 70
     1
102
RTVSPropertyOp33
 70
     1
102
RTVSPropertyOp34
 70
     1
102
RTVSPropertyOp35
 70
     1
102
RTVSPropertyOp36
 70
     1
102
RTVSPropertyOp37
 70
     1
102
RTVSPropertyOp38
 70
     1
102
RTVSPropertyOp39
 70
     1
102
RTVSPropertyOp40
 70
     1
102
RTVSPropertyOp41
 70
     1
102
RTVSPropertyOp42
 70
     1
102
RTVSPropertyOp43
 70
     1
102
RTVSPropertyOp44
 70
     1
102
RTVSPropertyOp45
 70
     1
102
RTVSPropertyOp46
 70
     1
102
RTVSPropertyOp47
 70
     1
102
RTVSPropertyOp48
 70
     1
102
RTVSPropertyOp49
 70
     1
102
RTVSPropertyOp50
 70
     1
102
RTVSPropertyOp51
 70
     0
102
RTVSPropertyOp52
 70
     0
102
RTVSPropertyOp53
 70
     1
102
RTVSPropertyOp54
 70
     1
102
RTVSPropertyOp55
 70
     1
102
RTVSPropertyOp56
 70
     1
102
RTVSPropertyOp57
 70
     1
102
RTVSPropertyOp58
 70
     1
102
RTVSPropertyOp59
 70
     1
102
RTVSPropertyOp60
 70
     1
102
RTVSPropertyOp61
 70
     1
102
RTVSPropertyOp62
 70
     1
  0
XRECORD
  5
100000086
102
{ACAD_REACTORS
330
100000085
102
}
330
100000085
100
AcDbXrecord
280
     1
102
RTVSPost2010Prop28
280
     0
102
RTVSPost2010PropOp28
 70
     1
102
RTVSPost2010Prop29
280
     1
102
RTVSPost2010PropOp29
 70
     1
102
RTVSPost2010Prop30
280
     1
102
RTVSPost2010PropOp30
 70
     1
102
RTVSPost2010Prop31
280
     0
102
RTVSPost2010PropOp31
 70
     1
102
RTVSPost2010Prop32
280
     0
102
RTVSPost2010PropOp32
 70
     1
102
RTVSPost2010Prop33
280
     0
102
RTVSPost2010PropOp33
 70
     1
102
RTVSPost2010Prop34
280
     0
102
RTVSPost2010PropOp34
 70
     1
102
RTVSPost2010Prop35
280
     0
102
RTVSPost2010PropOp35
 70
     1
102
RTVSPost2010Prop36
280
     0
102
RTVSPost2010PropOp36
 70
     1
102
RTVSPost2010Prop37
 90
       50
102
RTVSPost2010PropOp37
 70
     1
102
RTVSPost2010Prop38
140
0.0
102
RTVSPost2010PropOp38
 70
     1
102
RTVSPost2010Prop39
140
1.0
102
RTVSPost2010PropOp39
 70
     1
102
RTVSPost2010Prop40
 90
        0
102
RTVSPost2010PropOp40
 70
     1
102
RTVSPost2010Prop41ColorIndex
 90
       18
102
RTVSPost2010Prop41ColorRGB
 90
        0
102
RTVSPost2010PropOp41
 70
     1
102
RTVSPost2010Prop42
 90
       50
102
RTVSPost2010PropOp42
 70
     1
102
RTVSPost2010Prop43
 90
        3
102
RTVSPost2010PropOp43
 70
     1
102
RTVSPost2010Prop44ColorIndex
 90
        5
102
RTVSPost2010Prop44ColorRGB
 90
      255
102
RTVSPost2010PropOp44
 70
     1
102
RTVSPost2010Prop45
280
     0
102
RTVSPost2010PropOp45
 70
     1
102
RTVSPost2010Prop46
 90
       50
102
RTVSPost2010PropOp46
 70
     1
102
RTVSPost2010Prop47
 90
       50
102
RTVSPost2010PropOp47
 70
     1
102
RTVSPost2010Prop48
 90
       50
102
RTVSPost2010PropOp48
 70
     1
102
RTVSPost2010Prop49
280
     0
102
RTVSPost2010PropOp49
 70
     1
102
RTVSPost2010Prop50
 90
       50
102
RTVSPost2010PropOp50
 70
     1
102
RTVSPost2010Prop51ColorIndex
 90
      256
102
RTVSPost2010Prop51ColorRGB
 90
-16777216
102
RTVSPost2010PropOp51
 70
     0
102
RTVSPost2010Prop52
140
1.0
102
RTVSPost2010PropOp52
 70
     0
102
RTVSPost2010Prop53
 90
        2
102
RTVSPost2010PropOp53
 70
     1
102
RTVSPost2010Prop54
  1
strokes_ogs.tif
102
RTVSPost2010PropOp54
 70
     1
102
RTVSPost2010Prop55
280
     0
102
RTVSPost2010PropOp55
 70
     1
102
RTVSPost2010Prop56
140
1.0
102
RTVSPost2010PropOp56
 70
     1
102
RTVSPost2010Prop57
140
1.0
102
RTVSPost2010PropOp57
 70
     1
102
RTVSPropertyOp0
 70
     1
102
RTVSPropertyOp1
 70
     1
102
RTVSPropertyOp2
 70
     1
102
RTVSPropertyOp3
 70
     1
102
RTVSPropertyOp4
 70
     1
102
RTVSPropertyOp5
 70
     1
102
RTVSPropertyOp6
 70
     1
102
RTVSPropertyOp7
 70
     1
102
RTVSPropertyOp8
 70
     1
102
RTVSPropertyOp9
 70
     1
102
RTVSPropertyOp10
 70
     1
102
RTVSPropertyOp11
 70
     1
102
RTVSPropertyOp12
 70
     1
102
RTVSPropertyOp13
 70
     1
102
RTVSPropertyOp14
 70
     1
102
RTVSPropertyOp15
 70
     1
102
RTVSPropertyOp16
 70
     1
102
RTVSPropertyOp17
 70
     1
102
RTVSPropertyOp18
 70
     1
102
RTVSPropertyOp19
 70
     1
102
RTVSPropertyOp20
 70
     1
102
RTVSPropertyOp21
 70
     1
102
RTVSPropertyOp22
 70
     1
102
RTVSPropertyOp23
 70
     1
102
RTVSPropertyOp24
 70
     1
102
RTVSPropertyOp25
 70
     1
102
RTVSPropertyOp26
 70
     1
102
RTVSPropertyOp27
 70
     1
102
RTVSPropertyOp28
 70
     1
102
RTVSPropertyOp29
 70
     1
102
RTVSPropertyOp30
 70
     1
102
RTVSPropertyOp31
 70
     1
102
RTVSPropertyOp32
 70
     1
102
RTVSPropertyOp33
 70
     1
102
RTVSPropertyOp34
 70
     1
102
RTVSPropertyOp35
 70
     1
102
RTVSPropertyOp36
 70
     1
102
RTVSPropertyOp37
 70
     1
102
RTVSPropertyOp38
 70
     1
102
RTVSPropertyOp39
 70
     1
102
RTVSPropertyOp40
 70
     1
102
RTVSPropertyOp41
 70
     1
102
RTVSPropertyOp42
 70
     1
102
RTVSPropertyOp43
 70
     1
102
RTVSPropertyOp44
 70
     1
102
RTVSPropertyOp45
 70
     1
102
RTVSPropertyOp46
 70
     1
102
RTVSPropertyOp47
 70
     1
102
RTVSPropertyOp48
 70
     1
102
RTVSPropertyOp49
 70
     1
102
RTVSPropertyOp50
 70
     1
102
RTVSPropertyOp51
 70
     0
102
RTVSPropertyOp52
 70
     0
102
RTVSPropertyOp53
 70
     1
102
RTVSPropertyOp54
 70
     1
102
RTVSPropertyOp55
 70
     1
102
RTVSPropertyOp56
 70
     1
102
RTVSPropertyOp57
 70
     1
102
RTVSPropertyOp58
 70
     1
102
RTVSPropertyOp59
 70
     1
102
RTVSPropertyOp60
 70
     1
102
RTVSPropertyOp61
 70
     1
102
RTVSPropertyOp62
 70
     1
  0
XRECORD
  5
100000088
102
{ACAD_REACTORS
330
100000087
102
}
330
100000087
100
AcDbXrecord
280
     1
102
RTVSPost2010Prop28
280
     0
102
RTVSPost2010PropOp28
 70
     1
102
RTVSPost2010Prop29
280
     1
102
RTVSPost2010PropOp29
 70
     1
102
RTVSPost2010Prop30
280
     1
102
RTVSPost2010PropOp30
 70
     1
102
RTVSPost2010Prop31
280
     0
102
RTVSPost2010PropOp31
 70
     1
102
RTVSPost2010Prop32
280
     0
102
RTVSPost2010PropOp32
 70
     1
102
RTVSPost2010Prop33
280
     0
102
RTVSPost2010PropOp33
 70
     1
102
RTVSPost2010Prop34
280
     0
102
RTVSPost2010PropOp34
 70
     1
102
RTVSPost2010Prop35
280
     0
102
RTVSPost2010PropOp35
 70
     1
102
RTVSPost2010Prop36
280
     0
102
RTVSPost2010PropOp36
 70
     1
102
RTVSPost2010Prop37
 90
       50
102
RTVSPost2010PropOp37
 70
     1
102
RTVSPost2010Prop38
140
0.0
102
RTVSPost2010PropOp38
 70
     1
102
RTVSPost2010Prop39
140
1.0
102
RTVSPost2010PropOp39
 70
     1
102
RTVSPost2010Prop40
 90
        0
102
RTVSPost2010PropOp40
 70
     1
102
RTVSPost2010Prop41ColorIndex
 90
       18
102
RTVSPost2010Prop41ColorRGB
 90
        0
102
RTVSPost2010PropOp41
 70
     1
102
RTVSPost2010Prop42
 90
       50
102
RTVSPost2010PropOp42
 70
     1
102
RTVSPost2010Prop43
 90
        3
102
RTVSPost2010PropOp43
 70
     1
102
RTVSPost2010Prop44ColorIndex
 90
        5
102
RTVSPost2010Prop44ColorRGB
 90
      255
102
RTVSPost2010PropOp44
 70
     1
102
RTVSPost2010Prop45
280
     0
102
RTVSPost2010PropOp45
 70
     1
102
RTVSPost2010Prop46
 90
       50
102
RTVSPost2010PropOp46
 70
     1
102
RTVSPost2010Prop47
 90
       50
102
RTVSPost2010PropOp47
 70
     1
102
RTVSPost2010Prop48
 90
       50
102
RTVSPost2010PropOp48
 70
     1
102
RTVSPost2010Prop49
280
     0
102
RTVSPost2010PropOp49
 70
     1
102
RTVSPost2010Prop50
 90
       50
102
RTVSPost2010PropOp50
 70
     1
102
RTVSPost2010Prop51ColorIndex
 90
      256
102
RTVSPost2010Prop51ColorRGB
 90
-16777216
102
RTVSPost2010PropOp51
 70
     0
102
RTVSPost2010Prop52
140
1.0
102
RTVSPost2010PropOp52
 70
     0
102
RTVSPost2010Prop53
 90
        2
102
RTVSPost2010PropOp53
 70
     1
102
RTVSPost2010Prop54
  1
strokes_ogs.tif
102
RTVSPost2010PropOp54
 70
     1
102
RTVSPost2010Prop55
280
     0
102
RTVSPost2010PropOp55
 70
     1
102
RTVSPost2010Prop56
140
1.0
102
RTVSPost2010PropOp56
 70
     1
102
RTVSPost2010Prop57
140
1.0
102
RTVSPost2010PropOp57
 70
     1
102
RTVSPropertyOp0
 70
     1
102
RTVSPropertyOp1
 70
     1
102
RTVSPropertyOp2
 70
     1
102
RTVSPropertyOp3
 70
     1
102
RTVSPropertyOp4
 70
     1
102
RTVSPropertyOp5
 70
     1
102
RTVSPropertyOp6
 70
     1
102
RTVSPropertyOp7
 70
     1
102
RTVSPropertyOp8
 70
     1
102
RTVSPropertyOp9
 70
     1
102
RTVSPropertyOp10
 70
     1
102
RTVSPropertyOp11
 70
     1
102
RTVSPropertyOp12
 70
     1
102
RTVSPropertyOp13
 70
     1
102
RTVSPropertyOp14
 70
     1
102
RTVSPropertyOp15
 70
     1
102
RTVSPropertyOp16
 70
     1
102
RTVSPropertyOp17
 70
     1
102
RTVSPropertyOp18
 70
     1
102
RTVSPropertyOp19
 70
     1
102
RTVSPropertyOp20
 70
     1
102
RTVSPropertyOp21
 70
     1
102
RTVSPropertyOp22
 70
     1
102
RTVSPropertyOp23
 70
     1
102
RTVSPropertyOp24
 70
     1
102
RTVSPropertyOp25
 70
     1
102
RTVSPropertyOp26
 70
     1
102
RTVSPropertyOp27
 70
     1
102
RTVSPropertyOp28
 70
     1
102
RTVSPropertyOp29
 70
     1
102
RTVSPropertyOp30
 70
     1
102
RTVSPropertyOp31
 70
     1
102
RTVSPropertyOp32
 70
     1
102
RTVSPropertyOp33
 70
     1
102
RTVSPropertyOp34
 70
     1
102
RTVSPropertyOp35
 70
     1
102
RTVSPropertyOp36
 70
     1
102
RTVSPropertyOp37
 70
     1
102
RTVSPropertyOp38
 70
     1
102
RTVSPropertyOp39
 70
     1
102
RTVSPropertyOp40
 70
     1
102
RTVSPropertyOp41
 70
     1
102
RTVSPropertyOp42
 70
     1
102
RTVSPropertyOp43
 70
     1
102
RTVSPropertyOp44
 70
     1
102
RTVSPropertyOp45
 70
     1
102
RTVSPropertyOp46
 70
     1
102
RTVSPropertyOp47
 70
     1
102
RTVSPropertyOp48
 70
     1
102
RTVSPropertyOp49
 70
     1
102
RTVSPropertyOp50
 70
     1
102
RTVSPropertyOp51
 70
     0
102
RTVSPropertyOp52
 70
     0
102
RTVSPropertyOp53
 70
     1
102
RTVSPropertyOp54
 70
     1
102
RTVSPropertyOp55
 70
     1
102
RTVSPropertyOp56
 70
     1
102
RTVSPropertyOp57
 70
     1
102
RTVSPropertyOp58
 70
     1
102
RTVSPropertyOp59
 70
     1
102
RTVSPropertyOp60
 70
     1
102
RTVSPropertyOp61
 70
     1
102
RTVSPropertyOp62
 70
     1
  0
XRECORD
  5
100000090
102
{ACAD_REACTORS
330
10000008F
102
}
330
10000008F
100
AcDbXrecord
280
     1
102
RTVSPost2010Prop28
280
     0
102
RTVSPost2010PropOp28
 70
     1
102
RTVSPost2010Prop29
280
     1
102
RTVSPost2010PropOp29
 70
     1
102
RTVSPost2010Prop30
280
     1
102
RTVSPost2010PropOp30
 70
     1
102
RTVSPost2010Prop31
280
     0
102
RTVSPost2010PropOp31
 70
     1
102
RTVSPost2010Prop32
280
     0
102
RTVSPost2010PropOp32
 70
     1
102
RTVSPost2010Prop33
280
     0
102
RTVSPost2010PropOp33
 70
     1
102
RTVSPost2010Prop34
280
     0
102
RTVSPost2010PropOp34
 70
     1
102
RTVSPost2010Prop35
280
     0
102
RTVSPost2010PropOp35
 70
     1
102
RTVSPost2010Prop36
280
     0
102
RTVSPost2010PropOp36
 70
     1
102
RTVSPost2010Prop37
 90
       50
102
RTVSPost2010PropOp37
 70
     1
102
RTVSPost2010Prop38
140
0.0
102
RTVSPost2010PropOp38
 70
     1
102
RTVSPost2010Prop39
140
1.0
102
RTVSPost2010PropOp39
 70
     1
102
RTVSPost2010Prop40
 90
        0
102
RTVSPost2010PropOp40
 70
     1
102
RTVSPost2010Prop41ColorIndex
 90
       18
102
RTVSPost2010Prop41ColorRGB
 90
        0
102
RTVSPost2010PropOp41
 70
     1
102
RTVSPost2010Prop42
 90
       50
102
RTVSPost2010PropOp42
 70
     1
102
RTVSPost2010Prop43
 90
        3
102
RTVSPost2010PropOp43
 70
     1
102
RTVSPost2010Prop44ColorIndex
 90
        5
102
RTVSPost2010Prop44ColorRGB
 90
      255
102
RTVSPost2010PropOp44
 70
     1
102
RTVSPost2010Prop45
280
     0
102
RTVSPost2010PropOp45
 70
     1
102
RTVSPost2010Prop46
 90
       50
102
RTVSPost2010PropOp46
 70
     1
102
RTVSPost2010Prop47
 90
       50
102
RTVSPost2010PropOp47
 70
     1
102
RTVSPost2010Prop48
 90
       50
102
RTVSPost2010PropOp48
 70
     1
102
RTVSPost2010Prop49
280
     0
102
RTVSPost2010PropOp49
 70
     1
102
RTVSPost2010Prop50
 90
       50
102
RTVSPost2010PropOp50
 70
     1
102
RTVSPost2010Prop51ColorIndex
 90
      256
102
RTVSPost2010Prop51ColorRGB
 90
-16777216
102
RTVSPost2010PropOp51
 70
     0
102
RTVSPost2010Prop52
140
1.0
102
RTVSPost2010PropOp52
 70
     0
102
RTVSPost2010Prop53
 90
        2
102
RTVSPost2010PropOp53
 70
     1
102
RTVSPost2010Prop54
  1
strokes_ogs.tif
102
RTVSPost2010PropOp54
 70
     1
102
RTVSPost2010Prop55
280
     0
102
RTVSPost2010PropOp55
 70
     1
102
RTVSPost2010Prop56
140
1.0
102
RTVSPost2010PropOp56
 70
     1
102
RTVSPost2010Prop57
140
1.0
102
RTVSPost2010PropOp57
 70
     1
102
RTVSPropertyOp0
 70
     1
102
RTVSPropertyOp1
 70
     1
102
RTVSPropertyOp2
 70
     1
102
RTVSPropertyOp3
 70
     1
102
RTVSPropertyOp4
 70
     1
102
RTVSPropertyOp5
 70
     1
102
RTVSPropertyOp6
 70
     1
102
RTVSPropertyOp7
 70
     1
102
RTVSPropertyOp8
 70
     1
102
RTVSPropertyOp9
 70
     1
102
RTVSPropertyOp10
 70
     1
102
RTVSPropertyOp11
 70
     1
102
RTVSPropertyOp12
 70
     1
102
RTVSPropertyOp13
 70
     1
102
RTVSPropertyOp14
 70
     1
102
RTVSPropertyOp15
 70
     1
102
RTVSPropertyOp16
 70
     1
102
RTVSPropertyOp17
 70
     1
102
RTVSPropertyOp18
 70
     1
102
RTVSPropertyOp19
 70
     1
102
RTVSPropertyOp20
 70
     1
102
RTVSPropertyOp21
 70
     1
102
RTVSPropertyOp22
 70
     1
102
RTVSPropertyOp23
 70
     1
102
RTVSPropertyOp24
 70
     1
102
RTVSPropertyOp25
 70
     1
102
RTVSPropertyOp26
 70
     1
102
RTVSPropertyOp27
 70
     1
102
RTVSPropertyOp28
 70
     1
102
RTVSPropertyOp29
 70
     1
102
RTVSPropertyOp30
 70
     1
102
RTVSPropertyOp31
 70
     1
102
RTVSPropertyOp32
 70
     1
102
RTVSPropertyOp33
 70
     1
102
RTVSPropertyOp34
 70
     1
102
RTVSPropertyOp35
 70
     1
102
RTVSPropertyOp36
 70
     1
102
RTVSPropertyOp37
 70
     1
102
RTVSPropertyOp38
 70
     1
102
RTVSPropertyOp39
 70
     1
102
RTVSPropertyOp40
 70
     1
102
RTVSPropertyOp41
 70
     1
102
RTVSPropertyOp42
 70
     1
102
RTVSPropertyOp43
 70
     1
102
RTVSPropertyOp44
 70
     1
102
RTVSPropertyOp45
 70
     1
102
RTVSPropertyOp46
 70
     1
102
RTVSPropertyOp47
 70
     1
102
RTVSPropertyOp48
 70
     1
102
RTVSPropertyOp49
 70
     1
102
RTVSPropertyOp50
 70
     1
102
RTVSPropertyOp51
 70
     0
102
RTVSPropertyOp52
 70
     0
102
RTVSPropertyOp53
 70
     1
102
RTVSPropertyOp54
 70
     1
102
RTVSPropertyOp55
 70
     1
102
RTVSPropertyOp56
 70
     1
102
RTVSPropertyOp57
 70
     1
102
RTVSPropertyOp58
 70
     1
102
RTVSPropertyOp59
 70
     1
102
RTVSPropertyOp60
 70
     1
102
RTVSPropertyOp61
 70
     1
102
RTVSPropertyOp62
 70
     1
  0
XRECORD
  5
1000000AC
102
{ACAD_REACTORS
330
1000000AB
102
}
330
1000000AB
100
AcDbXrecord
280
     1
102
RTVSPost2010Prop28
280
     0
102
RTVSPost2010PropOp28
 70
     1
102
RTVSPost2010Prop29
280
     1
102
RTVSPost2010PropOp29
 70
     1
102
RTVSPost2010Prop30
280
     1
102
RTVSPost2010PropOp30
 70
     1
102
RTVSPost2010Prop31
280
     0
102
RTVSPost2010PropOp31
 70
     1
102
RTVSPost2010Prop32
280
     0
102
RTVSPost2010PropOp32
 70
     1
102
RTVSPost2010Prop33
280
     0
102
RTVSPost2010PropOp33
 70
     1
102
RTVSPost2010Prop34
280
     0
102
RTVSPost2010PropOp34
 70
     1
102
RTVSPost2010Prop35
280
     0
102
RTVSPost2010PropOp35
 70
     1
102
RTVSPost2010Prop36
280
     0
102
RTVSPost2010PropOp36
 70
     1
102
RTVSPost2010Prop37
 90
       50
102
RTVSPost2010PropOp37
 70
     0
102
RTVSPost2010Prop38
140
0.0
102
RTVSPost2010PropOp38
 70
     0
102
RTVSPost2010Prop39
140
1.0
102
RTVSPost2010PropOp39
 70
     0
102
RTVSPost2010Prop40
 90
        0
102
RTVSPost2010PropOp40
 70
     0
102
RTVSPost2010Prop41ColorIndex
 90
       18
102
RTVSPost2010Prop41ColorRGB
 90
        0
102
RTVSPost2010PropOp41
 70
     0
102
RTVSPost2010Prop42
 90
       50
102
RTVSPost2010PropOp42
 70
     0
102
RTVSPost2010Prop43
 90
        3
102
RTVSPost2010PropOp43
 70
     0
102
RTVSPost2010Prop44ColorIndex
 90
        5
102
RTVSPost2010Prop44ColorRGB
 90
      255
102
RTVSPost2010PropOp44
 70
     0
102
RTVSPost2010Prop45
280
     0
102
RTVSPost2010PropOp45
 70
     1
102
RTVSPost2010Prop46
 90
       50
102
RTVSPost2010PropOp46
 70
     0
102
RTVSPost2010Prop47
 90
       50
102
RTVSPost2010PropOp47
 70
     0
102
RTVSPost2010Prop48
 90
       50
102
RTVSPost2010PropOp48
 70
     0
102
RTVSPost2010Prop49
280
     0
102
RTVSPost2010PropOp49
 70
     1
102
RTVSPost2010Prop50
 90
       50
102
RTVSPost2010PropOp50
 70
     0
102
RTVSPost2010Prop51ColorIndex
 90
      256
102
RTVSPost2010Prop51ColorRGB
 90
-16777216
102
RTVSPost2010PropOp51
 70
     0
102
RTVSPost2010Prop52
140
1.0
102
RTVSPost2010PropOp52
 70
     0
102
RTVSPost2010Prop53
 90
        2
102
RTVSPost2010PropOp53
 70
     0
102
RTVSPost2010Prop54
  1
strokes_ogs.tif
102
RTVSPost2010PropOp54
 70
     0
102
RTVSPost2010Prop55
280
     0
102
RTVSPost2010PropOp55
 70
     1
102
RTVSPost2010Prop56
140
1.0
102
RTVSPost2010PropOp56
 70
     0
102
RTVSPost2010Prop57
140
1.0
102
RTVSPost2010PropOp57
 70
     0
102
RTVSPropertyOp0
 70
     0
102
RTVSPropertyOp1
 70
     0
102
RTVSPropertyOp2
 70
     0
102
RTVSPropertyOp3
 70
     0
102
RTVSPropertyOp4
 70
     0
102
RTVSPropertyOp5
 70
     0
102
RTVSPropertyOp6
 70
     0
102
RTVSPropertyOp7
 70
     0
102
RTVSPropertyOp8
 70
     0
102
RTVSPropertyOp9
 70
     0
102
RTVSPropertyOp10
 70
     0
102
RTVSPropertyOp11
 70
     0
102
RTVSPropertyOp12
 70
     0
102
RTVSPropertyOp13
 70
     0
102
RTVSPropertyOp14
 70
     2
102
RTVSPropertyOp15
 70
     0
102
RTVSPropertyOp16
 70
     0
102
RTVSPropertyOp17
 70
     0
102
RTVSPropertyOp18
 70
     0
102
RTVSPropertyOp19
 70
     0
102
RTVSPropertyOp20
 70
     0
102
RTVSPropertyOp21
 70
     0
102
RTVSPropertyOp22
 70
     0
102
RTVSPropertyOp23
 70
     0
102
RTVSPropertyOp24
 70
     0
102
RTVSPropertyOp25
 70
     0
102
RTVSPropertyOp26
 70
     0
102
RTVSPropertyOp27
 70
     0
102
RTVSPropertyOp28
 70
     1
102
RTVSPropertyOp29
 70
     1
102
RTVSPropertyOp30
 70
     1
102
RTVSPropertyOp31
 70
     1
102
RTVSPropertyOp32
 70
     1
102
RTVSPropertyOp33
 70
     1
102
RTVSPropertyOp34
 70
     1
102
RTVSPropertyOp35
 70
     1
102
RTVSPropertyOp36
 70
     1
102
RTVSPropertyOp37
 70
     0
102
RTVSPropertyOp38
 70
     0
102
RTVSPropertyOp39
 70
     0
102
RTVSPropertyOp40
 70
     0
102
RTVSPropertyOp41
 70
     0
102
RTVSPropertyOp42
 70
     0
102
RTVSPropertyOp43
 70
     0
102
RTVSPropertyOp44
 70
     0
102
RTVSPropertyOp45
 70
     1
102
RTVSPropertyOp46
 70
     0
102
RTVSPropertyOp47
 70
     0
102
RTVSPropertyOp48
 70
     0
102
RTVSPropertyOp49
 70
     1
102
RTVSPropertyOp50
 70
     0
102
RTVSPropertyOp51
 70
     0
102
RTVSPropertyOp52
 70
     0
102
RTVSPropertyOp53
 70
     0
102
RTVSPropertyOp54
 70
     0
102
RTVSPropertyOp55
 70
     1
102
RTVSPropertyOp56
 70
     0
102
RTVSPropertyOp57
 70
     0
102
RTVSPropertyOp58
 70
     0
102
RTVSPropertyOp59
 70
     0
102
RTVSPropertyOp60
 70
     0
102
RTVSPropertyOp61
 70
     0
102
RTVSPropertyOp62
 70
     0
  0
XRECORD
  5
10000009C
102
{ACAD_REACTORS
330
10000009B
102
}
330
10000009B
100
AcDbXrecord
280
     1
102
RTVSPost2010Prop28
280
     0
102
RTVSPost2010PropOp28
 70
     1
102
RTVSPost2010Prop29
280
     1
102
RTVSPost2010PropOp29
 70
     1
102
RTVSPost2010Prop30
280
     1
102
RTVSPost2010PropOp30
 70
     1
102
RTVSPost2010Prop31
280
     0
102
RTVSPost2010PropOp31
 70
     1
102
RTVSPost2010Prop32
280
     0
102
RTVSPost2010PropOp32
 70
     1
102
RTVSPost2010Prop33
280
     0
102
RTVSPost2010PropOp33
 70
     1
102
RTVSPost2010Prop34
280
     0
102
RTVSPost2010PropOp34
 70
     1
102
RTVSPost2010Prop35
280
     0
102
RTVSPost2010PropOp35
 70
     1
102
RTVSPost2010Prop36
280
     0
102
RTVSPost2010PropOp36
 70
     1
102
RTVSPost2010Prop37
 90
       50
102
RTVSPost2010PropOp37
 70
     1
102
RTVSPost2010Prop38
140
0.0
102
RTVSPost2010PropOp38
 70
     1
102
RTVSPost2010Prop39
140
1.0
102
RTVSPost2010PropOp39
 70
     1
102
RTVSPost2010Prop40
 90
        0
102
RTVSPost2010PropOp40
 70
     1
102
RTVSPost2010Prop41ColorIndex
 90
       18
102
RTVSPost2010Prop41ColorRGB
 90
        0
102
RTVSPost2010PropOp41
 70
     1
102
RTVSPost2010Prop42
 90
       50
102
RTVSPost2010PropOp42
 70
     1
102
RTVSPost2010Prop43
 90
        3
102
RTVSPost2010PropOp43
 70
     1
102
RTVSPost2010Prop44ColorIndex
 90
        5
102
RTVSPost2010Prop44ColorRGB
 90
      255
102
RTVSPost2010PropOp44
 70
     1
102
RTVSPost2010Prop45
280
     0
102
RTVSPost2010PropOp45
 70
     1
102
RTVSPost2010Prop46
 90
       50
102
RTVSPost2010PropOp46
 70
     1
102
RTVSPost2010Prop47
 90
       50
102
RTVSPost2010PropOp47
 70
     1
102
RTVSPost2010Prop48
 90
       50
102
RTVSPost2010PropOp48
 70
     1
102
RTVSPost2010Prop49
280
     0
102
RTVSPost2010PropOp49
 70
     1
102
RTVSPost2010Prop50
 90
       50
102
RTVSPost2010PropOp50
 70
     1
102
RTVSPost2010Prop51ColorIndex
 90
      256
102
RTVSPost2010Prop51ColorRGB
 90
-16777216
102
RTVSPost2010PropOp51
 70
     0
102
RTVSPost2010Prop52
140
1.0
102
RTVSPost2010PropOp52
 70
     0
102
RTVSPost2010Prop53
 90
        2
102
RTVSPost2010PropOp53
 70
     1
102
RTVSPost2010Prop54
  1
strokes_ogs.tif
102
RTVSPost2010PropOp54
 70
     1
102
RTVSPost2010Prop55
280
     0
102
RTVSPost2010PropOp55
 70
     1
102
RTVSPost2010Prop56
140
1.0
102
RTVSPost2010PropOp56
 70
     1
102
RTVSPost2010Prop57
140
1.0
102
RTVSPost2010PropOp57
 70
     1
102
RTVSPropertyOp0
 70
     1
102
RTVSPropertyOp1
 70
     1
102
RTVSPropertyOp2
 70
     1
102
RTVSPropertyOp3
 70
     1
102
RTVSPropertyOp4
 70
     1
102
RTVSPropertyOp5
 70
     1
102
RTVSPropertyOp6
 70
     1
102
RTVSPropertyOp7
 70
     1
102
RTVSPropertyOp8
 70
     1
102
RTVSPropertyOp9
 70
     1
102
RTVSPropertyOp10
 70
     1
102
RTVSPropertyOp11
 70
     1
102
RTVSPropertyOp12
 70
     1
102
RTVSPropertyOp13
 70
     1
102
RTVSPropertyOp14
 70
     1
102
RTVSPropertyOp15
 70
     1
102
RTVSPropertyOp16
 70
     1
102
RTVSPropertyOp17
 70
     1
102
RTVSPropertyOp18
 70
     1
102
RTVSPropertyOp19
 70
     1
102
RTVSPropertyOp20
 70
     1
102
RTVSPropertyOp21
 70
     1
102
RTVSPropertyOp22
 70
     1
102
RTVSPropertyOp23
 70
     1
102
RTVSPropertyOp24
 70
     1
102
RTVSPropertyOp25
 70
     1
102
RTVSPropertyOp26
 70
     1
102
RTVSPropertyOp27
 70
     1
102
RTVSPropertyOp28
 70
     1
102
RTVSPropertyOp29
 70
     1
102
RTVSPropertyOp30
 70
     1
102
RTVSPropertyOp31
 70
     1
102
RTVSPropertyOp32
 70
     1
102
RTVSPropertyOp33
 70
     1
102
RTVSPropertyOp34
 70
     1
102
RTVSPropertyOp35
 70
     1
102
RTVSPropertyOp36
 70
     1
102
RTVSPropertyOp37
 70
     1
102
RTVSPropertyOp38
 70
     1
102
RTVSPropertyOp39
 70
     1
102
RTVSPropertyOp40
 70
     1
102
RTVSPropertyOp41
 70
     1
102
RTVSPropertyOp42
 70
     1
102
RTVSPropertyOp43
 70
     1
102
RTVSPropertyOp44
 70
     1
102
RTVSPropertyOp45
 70
     1
102
RTVSPropertyOp46
 70
     1
102
RTVSPropertyOp47
 70
     1
102
RTVSPropertyOp48
 70
     1
102
RTVSPropertyOp49
 70
     1
102
RTVSPropertyOp50
 70
     1
102
RTVSPropertyOp51
 70
     0
102
RTVSPropertyOp52
 70
     0
102
RTVSPropertyOp53
 70
     1
102
RTVSPropertyOp54
 70
     1
102
RTVSPropertyOp55
 70
     1
102
RTVSPropertyOp56
 70
     1
102
RTVSPropertyOp57
 70
     1
102
RTVSPropertyOp58
 70
     1
102
RTVSPropertyOp59
 70
     1
102
RTVSPropertyOp60
 70
     1
102
RTVSPropertyOp61
 70
     1
102
RTVSPropertyOp62
 70
     1
  0
XRECORD
  5
1000000AE
102
{ACAD_REACTORS
330
1000000AD
102
}
330
1000000AD
100
AcDbXrecord
280
     1
102
RTVSPost2010Prop28
280
     0
102
RTVSPost2010PropOp28
 70
     1
102
RTVSPost2010Prop29
280
     1
102
RTVSPost2010PropOp29
 70
     1
102
RTVSPost2010Prop30
280
     1
102
RTVSPost2010PropOp30
 70
     1
102
RTVSPost2010Prop31
280
     0
102
RTVSPost2010PropOp31
 70
     1
102
RTVSPost2010Prop32
280
     0
102
RTVSPost2010PropOp32
 70
     1
102
RTVSPost2010Prop33
280
     0
102
RTVSPost2010PropOp33
 70
     1
102
RTVSPost2010Prop34
280
     0
102
RTVSPost2010PropOp34
 70
     1
102
RTVSPost2010Prop35
280
     0
102
RTVSPost2010PropOp35
 70
     1
102
RTVSPost2010Prop36
280
     0
102
RTVSPost2010PropOp36
 70
     1
102
RTVSPost2010Prop37
 90
       50
102
RTVSPost2010PropOp37
 70
     0
102
RTVSPost2010Prop38
140
0.0
102
RTVSPost2010PropOp38
 70
     0
102
RTVSPost2010Prop39
140
1.0
102
RTVSPost2010PropOp39
 70
     0
102
RTVSPost2010Prop40
 90
        0
102
RTVSPost2010PropOp40
 70
     0
102
RTVSPost2010Prop41ColorIndex
 90
       18
102
RTVSPost2010Prop41ColorRGB
 90
        0
102
RTVSPost2010PropOp41
 70
     0
102
RTVSPost2010Prop42
 90
       50
102
RTVSPost2010PropOp42
 70
     0
102
RTVSPost2010Prop43
 90
        3
102
RTVSPost2010PropOp43
 70
     0
102
RTVSPost2010Prop44ColorIndex
 90
        5
102
RTVSPost2010Prop44ColorRGB
 90
      255
102
RTVSPost2010PropOp44
 70
     0
102
RTVSPost2010Prop45
280
     0
102
RTVSPost2010PropOp45
 70
     1
102
RTVSPost2010Prop46
 90
       50
102
RTVSPost2010PropOp46
 70
     0
102
RTVSPost2010Prop47
 90
       50
102
RTVSPost2010PropOp47
 70
     0
102
RTVSPost2010Prop48
 90
       50
102
RTVSPost2010PropOp48
 70
     0
102
RTVSPost2010Prop49
280
     0
102
RTVSPost2010PropOp49
 70
     1
102
RTVSPost2010Prop50
 90
       50
102
RTVSPost2010PropOp50
 70
     0
102
RTVSPost2010Prop51ColorIndex
 90
      256
102
RTVSPost2010Prop51ColorRGB
 90
-16777216
102
RTVSPost2010PropOp51
 70
     0
102
RTVSPost2010Prop52
140
1.0
102
RTVSPost2010PropOp52
 70
     0
102
RTVSPost2010Prop53
 90
        2
102
RTVSPost2010PropOp53
 70
     0
102
RTVSPost2010Prop54
  1
strokes_ogs.tif
102
RTVSPost2010PropOp54
 70
     0
102
RTVSPost2010Prop55
280
     0
102
RTVSPost2010PropOp55
 70
     1
102
RTVSPost2010Prop56
140
1.0
102
RTVSPost2010PropOp56
 70
     0
102
RTVSPost2010Prop57
140
1.0
102
RTVSPost2010PropOp57
 70
     0
102
RTVSPropertyOp0
 70
     0
102
RTVSPropertyOp1
 70
     0
102
RTVSPropertyOp2
 70
     0
102
RTVSPropertyOp3
 70
     0
102
RTVSPropertyOp4
 70
     0
102
RTVSPropertyOp5
 70
     0
102
RTVSPropertyOp6
 70
     0
102
RTVSPropertyOp7
 70
     0
102
RTVSPropertyOp8
 70
     0
102
RTVSPropertyOp9
 70
     0
102
RTVSPropertyOp10
 70
     0
102
RTVSPropertyOp11
 70
     0
102
RTVSPropertyOp12
 70
     0
102
RTVSPropertyOp13
 70
     0
102
RTVSPropertyOp14
 70
     2
102
RTVSPropertyOp15
 70
     0
102
RTVSPropertyOp16
 70
     0
102
RTVSPropertyOp17
 70
     0
102
RTVSPropertyOp18
 70
     0
102
RTVSPropertyOp19
 70
     0
102
RTVSPropertyOp20
 70
     0
102
RTVSPropertyOp21
 70
     0
102
RTVSPropertyOp22
 70
     0
102
RTVSPropertyOp23
 70
     0
102
RTVSPropertyOp24
 70
     0
102
RTVSPropertyOp25
 70
     0
102
RTVSPropertyOp26
 70
     0
102
RTVSPropertyOp27
 70
     0
102
RTVSPropertyOp28
 70
     1
102
RTVSPropertyOp29
 70
     1
102
RTVSPropertyOp30
 70
     1
102
RTVSPropertyOp31
 70
     1
102
RTVSPropertyOp32
 70
     1
102
RTVSPropertyOp33
 70
     1
102
RTVSPropertyOp34
 70
     1
102
RTVSPropertyOp35
 70
     1
102
RTVSPropertyOp36
 70
     1
102
RTVSPropertyOp37
 70
     0
102
RTVSPropertyOp38
 70
     0
102
RTVSPropertyOp39
 70
     0
102
RTVSPropertyOp40
 70
     0
102
RTVSPropertyOp41
 70
     0
102
RTVSPropertyOp42
 70
     0
102
RTVSPropertyOp43
 70
     0
102
RTVSPropertyOp44
 70
     0
102
RTVSPropertyOp45
 70
     1
102
RTVSPropertyOp46
 70
     0
102
RTVSPropertyOp47
 70
     0
102
RTVSPropertyOp48
 70
     0
102
RTVSPropertyOp49
 70
     1
102
RTVSPropertyOp50
 70
     0
102
RTVSPropertyOp51
 70
     0
102
RTVSPropertyOp52
 70
     0
102
RTVSPropertyOp53
 70
     0
102
RTVSPropertyOp54
 70
     0
102
RTVSPropertyOp55
 70
     1
102
RTVSPropertyOp56
 70
     0
102
RTVSPropertyOp57
 70
     0
102
RTVSPropertyOp58
 70
     0
102
RTVSPropertyOp59
 70
     0
102
RTVSPropertyOp60
 70
     0
102
RTVSPropertyOp61
 70
     0
102
RTVSPropertyOp62
 70
     0
  0
XRECORD
  5
100000094
102
{ACAD_REACTORS
330
100000093
102
}
330
100000093
100
AcDbXrecord
280
     1
102
RTVSPost2010Prop28
280
     0
102
RTVSPost2010PropOp28
 70
     1
102
RTVSPost2010Prop29
280
     1
102
RTVSPost2010PropOp29
 70
     1
102
RTVSPost2010Prop30
280
     1
102
RTVSPost2010PropOp30
 70
     1
102
RTVSPost2010Prop31
280
     0
102
RTVSPost2010PropOp31
 70
     1
102
RTVSPost2010Prop32
280
     0
102
RTVSPost2010PropOp32
 70
     1
102
RTVSPost2010Prop33
280
     0
102
RTVSPost2010PropOp33
 70
     1
102
RTVSPost2010Prop34
280
     0
102
RTVSPost2010PropOp34
 70
     1
102
RTVSPost2010Prop35
280
     0
102
RTVSPost2010PropOp35
 70
     1
102
RTVSPost2010Prop36
280
     0
102
RTVSPost2010PropOp36
 70
     1
102
RTVSPost2010Prop37
 90
       50
102
RTVSPost2010PropOp37
 70
     1
102
RTVSPost2010Prop38
140
0.0
102
RTVSPost2010PropOp38
 70
     1
102
RTVSPost2010Prop39
140
1.0
102
RTVSPost2010PropOp39
 70
     1
102
RTVSPost2010Prop40
 90
        0
102
RTVSPost2010PropOp40
 70
     1
102
RTVSPost2010Prop41ColorIndex
 90
       18
102
RTVSPost2010Prop41ColorRGB
 90
        0
102
RTVSPost2010PropOp41
 70
     1
102
RTVSPost2010Prop42
 90
       50
102
RTVSPost2010PropOp42
 70
     1
102
RTVSPost2010Prop43
 90
        3
102
RTVSPost2010PropOp43
 70
     1
102
RTVSPost2010Prop44ColorIndex
 90
        5
102
RTVSPost2010Prop44ColorRGB
 90
      255
102
RTVSPost2010PropOp44
 70
     1
102
RTVSPost2010Prop45
280
     0
102
RTVSPost2010PropOp45
 70
     1
102
RTVSPost2010Prop46
 90
       50
102
RTVSPost2010PropOp46
 70
     1
102
RTVSPost2010Prop47
 90
       50
102
RTVSPost2010PropOp47
 70
     1
102
RTVSPost2010Prop48
 90
       50
102
RTVSPost2010PropOp48
 70
     1
102
RTVSPost2010Prop49
280
     0
102
RTVSPost2010PropOp49
 70
     1
102
RTVSPost2010Prop50
 90
       50
102
RTVSPost2010PropOp50
 70
     1
102
RTVSPost2010Prop51ColorIndex
 90
      256
102
RTVSPost2010Prop51ColorRGB
 90
-16777216
102
RTVSPost2010PropOp51
 70
     0
102
RTVSPost2010Prop52
140
1.0
102
RTVSPost2010PropOp52
 70
     0
102
RTVSPost2010Prop53
 90
        2
102
RTVSPost2010PropOp53
 70
     1
102
RTVSPost2010Prop54
  1
strokes_ogs.tif
102
RTVSPost2010PropOp54
 70
     1
102
RTVSPost2010Prop55
280
     0
102
RTVSPost2010PropOp55
 70
     1
102
RTVSPost2010Prop56
140
1.0
102
RTVSPost2010PropOp56
 70
     1
102
RTVSPost2010Prop57
140
1.0
102
RTVSPost2010PropOp57
 70
     1
102
RTVSPropertyOp0
 70
     1
102
RTVSPropertyOp1
 70
     1
102
RTVSPropertyOp2
 70
     1
102
RTVSPropertyOp3
 70
     1
102
RTVSPropertyOp4
 70
     1
102
RTVSPropertyOp5
 70
     1
102
RTVSPropertyOp6
 70
     1
102
RTVSPropertyOp7
 70
     1
102
RTVSPropertyOp8
 70
     1
102
RTVSPropertyOp9
 70
     1
102
RTVSPropertyOp10
 70
     1
102
RTVSPropertyOp11
 70
     1
102
RTVSPropertyOp12
 70
     1
102
RTVSPropertyOp13
 70
     1
102
RTVSPropertyOp14
 70
     1
102
RTVSPropertyOp15
 70
     1
102
RTVSPropertyOp16
 70
     1
102
RTVSPropertyOp17
 70
     1
102
RTVSPropertyOp18
 70
     1
102
RTVSPropertyOp19
 70
     1
102
RTVSPropertyOp20
 70
     1
102
RTVSPropertyOp21
 70
     1
102
RTVSPropertyOp22
 70
     1
102
RTVSPropertyOp23
 70
     1
102
RTVSPropertyOp24
 70
     1
102
RTVSPropertyOp25
 70
     1
102
RTVSPropertyOp26
 70
     1
102
RTVSPropertyOp27
 70
     1
102
RTVSPropertyOp28
 70
     1
102
RTVSPropertyOp29
 70
     1
102
RTVSPropertyOp30
 70
     1
102
RTVSPropertyOp31
 70
     1
102
RTVSPropertyOp32
 70
     1
102
RTVSPropertyOp33
 70
     1
102
RTVSPropertyOp34
 70
     1
102
RTVSPropertyOp35
 70
     1
102
RTVSPropertyOp36
 70
     1
102
RTVSPropertyOp37
 70
     1
102
RTVSPropertyOp38
 70
     1
102
RTVSPropertyOp39
 70
     1
102
RTVSPropertyOp40
 70
     1
102
RTVSPropertyOp41
 70
     1
102
RTVSPropertyOp42
 70
     1
102
RTVSPropertyOp43
 70
     1
102
RTVSPropertyOp44
 70
     1
102
RTVSPropertyOp45
 70
     1
102
RTVSPropertyOp46
 70
     1
102
RTVSPropertyOp47
 70
     1
102
RTVSPropertyOp48
 70
     1
102
RTVSPropertyOp49
 70
     1
102
RTVSPropertyOp50
 70
     1
102
RTVSPropertyOp51
 70
     0
102
RTVSPropertyOp52
 70
     0
102
RTVSPropertyOp53
 70
     1
102
RTVSPropertyOp54
 70
     1
102
RTVSPropertyOp55
 70
     1
102
RTVSPropertyOp56
 70
     1
102
RTVSPropertyOp57
 70
     1
102
RTVSPropertyOp58
 70
     1
102
RTVSPropertyOp59
 70
     1
102
RTVSPropertyOp60
 70
     1
102
RTVSPropertyOp61
 70
     1
102
RTVSPropertyOp62
 70
     1
  0
XRECORD
  5
1000000AA
102
{ACAD_REACTORS
330
1000000A9
102
}
330
1000000A9
100
AcDbXrecord
280
     1
102
RTVSPost2010Prop28
280
     0
102
RTVSPost2010PropOp28
 70
     1
102
RTVSPost2010Prop29
280
     1
102
RTVSPost2010PropOp29
 70
     1
102
RTVSPost2010Prop30
280
     1
102
RTVSPost2010PropOp30
 70
     1
102
RTVSPost2010Prop31
280
     0
102
RTVSPost2010PropOp31
 70
     1
102
RTVSPost2010Prop32
280
     0
102
RTVSPost2010PropOp32
 70
     1
102
RTVSPost2010Prop33
280
     0
102
RTVSPost2010PropOp33
 70
     1
102
RTVSPost2010Prop34
280
     0
102
RTVSPost2010PropOp34
 70
     1
102
RTVSPost2010Prop35
280
     0
102
RTVSPost2010PropOp35
 70
     1
102
RTVSPost2010Prop36
280
     0
102
RTVSPost2010PropOp36
 70
     1
102
RTVSPost2010Prop37
 90
       50
102
RTVSPost2010PropOp37
 70
     1
102
RTVSPost2010Prop38
140
0.0
102
RTVSPost2010PropOp38
 70
     1
102
RTVSPost2010Prop39
140
1.0
102
RTVSPost2010PropOp39
 70
     1
102
RTVSPost2010Prop40
 90
        0
102
RTVSPost2010PropOp40
 70
     1
102
RTVSPost2010Prop41ColorIndex
 90
       18
102
RTVSPost2010Prop41ColorRGB
 90
        0
102
RTVSPost2010PropOp41
 70
     1
102
RTVSPost2010Prop42
 90
       50
102
RTVSPost2010PropOp42
 70
     1
102
RTVSPost2010Prop43
 90
        3
102
RTVSPost2010PropOp43
 70
     1
102
RTVSPost2010Prop44ColorIndex
 90
        5
102
RTVSPost2010Prop44ColorRGB
 90
      255
102
RTVSPost2010PropOp44
 70
     1
102
RTVSPost2010Prop45
280
     0
102
RTVSPost2010PropOp45
 70
     1
102
RTVSPost2010Prop46
 90
       50
102
RTVSPost2010PropOp46
 70
     1
102
RTVSPost2010Prop47
 90
       50
102
RTVSPost2010PropOp47
 70
     1
102
RTVSPost2010Prop48
 90
       50
102
RTVSPost2010PropOp48
 70
     1
102
RTVSPost2010Prop49
280
     0
102
RTVSPost2010PropOp49
 70
     1
102
RTVSPost2010Prop50
 90
       50
102
RTVSPost2010PropOp50
 70
     1
102
RTVSPost2010Prop51ColorIndex
 90
      256
102
RTVSPost2010Prop51ColorRGB
 90
-16777216
102
RTVSPost2010PropOp51
 70
     0
102
RTVSPost2010Prop52
140
1.0
102
RTVSPost2010PropOp52
 70
     0
102
RTVSPost2010Prop53
 90
        2
102
RTVSPost2010PropOp53
 70
     1
102
RTVSPost2010Prop54
  1
strokes_ogs.tif
102
RTVSPost2010PropOp54
 70
     1
102
RTVSPost2010Prop55
280
     0
102
RTVSPost2010PropOp55
 70
     1
102
RTVSPost2010Prop56
140
1.0
102
RTVSPost2010PropOp56
 70
     1
102
RTVSPost2010Prop57
140
1.0
102
RTVSPost2010PropOp57
 70
     1
102
RTVSPropertyOp0
 70
     1
102
RTVSPropertyOp1
 70
     1
102
RTVSPropertyOp2
 70
     1
102
RTVSPropertyOp3
 70
     1
102
RTVSPropertyOp4
 70
     1
102
RTVSPropertyOp5
 70
     1
102
RTVSPropertyOp6
 70
     1
102
RTVSPropertyOp7
 70
     1
102
RTVSPropertyOp8
 70
     1
102
RTVSPropertyOp9
 70
     1
102
RTVSPropertyOp10
 70
     1
102
RTVSPropertyOp11
 70
     1
102
RTVSPropertyOp12
 70
     1
102
RTVSPropertyOp13
 70
     1
102
RTVSPropertyOp14
 70
     1
102
RTVSPropertyOp15
 70
     1
102
RTVSPropertyOp16
 70
     1
102
RTVSPropertyOp17
 70
     1
102
RTVSPropertyOp18
 70
     1
102
RTVSPropertyOp19
 70
     1
102
RTVSPropertyOp20
 70
     1
102
RTVSPropertyOp21
 70
     1
102
RTVSPropertyOp22
 70
     1
102
RTVSPropertyOp23
 70
     1
102
RTVSPropertyOp24
 70
     1
102
RTVSPropertyOp25
 70
     1
102
RTVSPropertyOp26
 70
     1
102
RTVSPropertyOp27
 70
     1
102
RTVSPropertyOp28
 70
     1
102
RTVSPropertyOp29
 70
     1
102
RTVSPropertyOp30
 70
     1
102
RTVSPropertyOp31
 70
     1
102
RTVSPropertyOp32
 70
     1
102
RTVSPropertyOp33
 70
     1
102
RTVSPropertyOp34
 70
     1
102
RTVSPropertyOp35
 70
     1
102
RTVSPropertyOp36
 70
     1
102
RTVSPropertyOp37
 70
     1
102
RTVSPropertyOp38
 70
     1
102
RTVSPropertyOp39
 70
     1
102
RTVSPropertyOp40
 70
     1
102
RTVSPropertyOp41
 70
     1
102
RTVSPropertyOp42
 70
     1
102
RTVSPropertyOp43
 70
     1
102
RTVSPropertyOp44
 70
     1
102
RTVSPropertyOp45
 70
     1
102
RTVSPropertyOp46
 70
     1
102
RTVSPropertyOp47
 70
     1
102
RTVSPropertyOp48
 70
     1
102
RTVSPropertyOp49
 70
     1
102
RTVSPropertyOp50
 70
     1
102
RTVSPropertyOp51
 70
     0
102
RTVSPropertyOp52
 70
     0
102
RTVSPropertyOp53
 70
     1
102
RTVSPropertyOp54
 70
     1
102
RTVSPropertyOp55
 70
     1
102
RTVSPropertyOp56
 70
     1
102
RTVSPropertyOp57
 70
     1
102
RTVSPropertyOp58
 70
     1
102
RTVSPropertyOp59
 70
     1
102
RTVSPropertyOp60
 70
     1
102
RTVSPropertyOp61
 70
     1
102
RTVSPropertyOp62
 70
     1
  0
XRECORD
  5
1000000A8
102
{ACAD_REACTORS
330
1000000A7
102
}
330
1000000A7
100
AcDbXrecord
280
     1
102
RTVSPost2010Prop28
280
     0
102
RTVSPost2010PropOp28
 70
     1
102
RTVSPost2010Prop29
280
     1
102
RTVSPost2010PropOp29
 70
     1
102
RTVSPost2010Prop30
280
     1
102
RTVSPost2010PropOp30
 70
     1
102
RTVSPost2010Prop31
280
     0
102
RTVSPost2010PropOp31
 70
     1
102
RTVSPost2010Prop32
280
     0
102
RTVSPost2010PropOp32
 70
     1
102
RTVSPost2010Prop33
280
     0
102
RTVSPost2010PropOp33
 70
     1
102
RTVSPost2010Prop34
280
     0
102
RTVSPost2010PropOp34
 70
     1
102
RTVSPost2010Prop35
280
     0
102
RTVSPost2010PropOp35
 70
     1
102
RTVSPost2010Prop36
280
     0
102
RTVSPost2010PropOp36
 70
     1
102
RTVSPost2010Prop37
 90
       50
102
RTVSPost2010PropOp37
 70
     1
102
RTVSPost2010Prop38
140
0.0
102
RTVSPost2010PropOp38
 70
     1
102
RTVSPost2010Prop39
140
1.0
102
RTVSPost2010PropOp39
 70
     1
102
RTVSPost2010Prop40
 90
        0
102
RTVSPost2010PropOp40
 70
     1
102
RTVSPost2010Prop41ColorIndex
 90
       18
102
RTVSPost2010Prop41ColorRGB
 90
        0
102
RTVSPost2010PropOp41
 70
     1
102
RTVSPost2010Prop42
 90
       50
102
RTVSPost2010PropOp42
 70
     1
102
RTVSPost2010Prop43
 90
        3
102
RTVSPost2010PropOp43
 70
     1
102
RTVSPost2010Prop44ColorIndex
 90
        5
102
RTVSPost2010Prop44ColorRGB
 90
      255
102
RTVSPost2010PropOp44
 70
     1
102
RTVSPost2010Prop45
280
     0
102
RTVSPost2010PropOp45
 70
     1
102
RTVSPost2010Prop46
 90
       50
102
RTVSPost2010PropOp46
 70
     1
102
RTVSPost2010Prop47
 90
       50
102
RTVSPost2010PropOp47
 70
     1
102
RTVSPost2010Prop48
 90
       50
102
RTVSPost2010PropOp48
 70
     1
102
RTVSPost2010Prop49
280
     0
102
RTVSPost2010PropOp49
 70
     1
102
RTVSPost2010Prop50
 90
       50
102
RTVSPost2010PropOp50
 70
     1
102
RTVSPost2010Prop51ColorIndex
 90
      256
102
RTVSPost2010Prop51ColorRGB
 90
-16777216
102
RTVSPost2010PropOp51
 70
     0
102
RTVSPost2010Prop52
140
1.0
102
RTVSPost2010PropOp52
 70
     0
102
RTVSPost2010Prop53
 90
        2
102
RTVSPost2010PropOp53
 70
     1
102
RTVSPost2010Prop54
  1
strokes_ogs.tif
102
RTVSPost2010PropOp54
 70
     1
102
RTVSPost2010Prop55
280
     0
102
RTVSPost2010PropOp55
 70
     1
102
RTVSPost2010Prop56
140
1.0
102
RTVSPost2010PropOp56
 70
     1
102
RTVSPost2010Prop57
140
1.0
102
RTVSPost2010PropOp57
 70
     1
102
RTVSPropertyOp0
 70
     1
102
RTVSPropertyOp1
 70
     1
102
RTVSPropertyOp2
 70
     1
102
RTVSPropertyOp3
 70
     1
102
RTVSPropertyOp4
 70
     1
102
RTVSPropertyOp5
 70
     1
102
RTVSPropertyOp6
 70
     1
102
RTVSPropertyOp7
 70
     1
102
RTVSPropertyOp8
 70
     1
102
RTVSPropertyOp9
 70
     1
102
RTVSPropertyOp10
 70
     1
102
RTVSPropertyOp11
 70
     1
102
RTVSPropertyOp12
 70
     1
102
RTVSPropertyOp13
 70
     1
102
RTVSPropertyOp14
 70
     1
102
RTVSPropertyOp15
 70
     1
102
RTVSPropertyOp16
 70
     1
102
RTVSPropertyOp17
 70
     1
102
RTVSPropertyOp18
 70
     1
102
RTVSPropertyOp19
 70
     1
102
RTVSPropertyOp20
 70
     1
102
RTVSPropertyOp21
 70
     1
102
RTVSPropertyOp22
 70
     1
102
RTVSPropertyOp23
 70
     1
102
RTVSPropertyOp24
 70
     1
102
RTVSPropertyOp25
 70
     1
102
RTVSPropertyOp26
 70
     1
102
RTVSPropertyOp27
 70
     1
102
RTVSPropertyOp28
 70
     1
102
RTVSPropertyOp29
 70
     1
102
RTVSPropertyOp30
 70
     1
102
RTVSPropertyOp31
 70
     1
102
RTVSPropertyOp32
 70
     1
102
RTVSPropertyOp33
 70
     1
102
RTVSPropertyOp34
 70
     1
102
RTVSPropertyOp35
 70
     1
102
RTVSPropertyOp36
 70
     1
102
RTVSPropertyOp37
 70
     1
102
RTVSPropertyOp38
 70
     1
102
RTVSPropertyOp39
 70
     1
102
RTVSPropertyOp40
 70
     1
102
RTVSPropertyOp41
 70
     1
102
RTVSPropertyOp42
 70
     1
102
RTVSPropertyOp43
 70
     1
102
RTVSPropertyOp44
 70
     1
102
RTVSPropertyOp45
 70
     1
102
RTVSPropertyOp46
 70
     1
102
RTVSPropertyOp47
 70
     1
102
RTVSPropertyOp48
 70
     1
102
RTVSPropertyOp49
 70
     1
102
RTVSPropertyOp50
 70
     1
102
RTVSPropertyOp51
 70
     0
102
RTVSPropertyOp52
 70
     0
102
RTVSPropertyOp53
 70
     1
102
RTVSPropertyOp54
 70
     1
102
RTVSPropertyOp55
 70
     1
102
RTVSPropertyOp56
 70
     1
102
RTVSPropertyOp57
 70
     1
102
RTVSPropertyOp58
 70
     1
102
RTVSPropertyOp59
 70
     1
102
RTVSPropertyOp60
 70
     1
102
RTVSPropertyOp61
 70
     1
102
RTVSPropertyOp62
 70
     1
  0
XRECORD
  5
1000000A2
102
{ACAD_REACTORS
330
1000000A1
102
}
330
1000000A1
100
AcDbXrecord
280
     1
102
RTVSPost2010Prop28
280
     0
102
RTVSPost2010PropOp28
 70
     1
102
RTVSPost2010Prop29
280
     1
102
RTVSPost2010PropOp29
 70
     1
102
RTVSPost2010Prop30
280
     1
102
RTVSPost2010PropOp30
 70
     1
102
RTVSPost2010Prop31
280
     0
102
RTVSPost2010PropOp31
 70
     1
102
RTVSPost2010Prop32
280
     0
102
RTVSPost2010PropOp32
 70
     1
102
RTVSPost2010Prop33
280
     0
102
RTVSPost2010PropOp33
 70
     1
102
RTVSPost2010Prop34
280
     0
102
RTVSPost2010PropOp34
 70
     1
102
RTVSPost2010Prop35
280
     0
102
RTVSPost2010PropOp35
 70
     1
102
RTVSPost2010Prop36
280
     0
102
RTVSPost2010PropOp36
 70
     1
102
RTVSPost2010Prop37
 90
       50
102
RTVSPost2010PropOp37
 70
     1
102
RTVSPost2010Prop38
140
0.0
102
RTVSPost2010PropOp38
 70
     1
102
RTVSPost2010Prop39
140
1.0
102
RTVSPost2010PropOp39
 70
     1
102
RTVSPost2010Prop40
 90
        0
102
RTVSPost2010PropOp40
 70
     1
102
RTVSPost2010Prop41ColorIndex
 90
       18
102
RTVSPost2010Prop41ColorRGB
 90
        0
102
RTVSPost2010PropOp41
 70
     1
102
RTVSPost2010Prop42
 90
       50
102
RTVSPost2010PropOp42
 70
     1
102
RTVSPost2010Prop43
 90
        3
102
RTVSPost2010PropOp43
 70
     1
102
RTVSPost2010Prop44ColorIndex
 90
        5
102
RTVSPost2010Prop44ColorRGB
 90
      255
102
RTVSPost2010PropOp44
 70
     1
102
RTVSPost2010Prop45
280
     0
102
RTVSPost2010PropOp45
 70
     1
102
RTVSPost2010Prop46
 90
       50
102
RTVSPost2010PropOp46
 70
     1
102
RTVSPost2010Prop47
 90
       50
102
RTVSPost2010PropOp47
 70
     1
102
RTVSPost2010Prop48
 90
       50
102
RTVSPost2010PropOp48
 70
     1
102
RTVSPost2010Prop49
280
     0
102
RTVSPost2010PropOp49
 70
     1
102
RTVSPost2010Prop50
 90
       50
102
RTVSPost2010PropOp50
 70
     1
102
RTVSPost2010Prop51ColorIndex
 90
      256
102
RTVSPost2010Prop51ColorRGB
 90
-16777216
102
RTVSPost2010PropOp51
 70
     0
102
RTVSPost2010Prop52
140
1.0
102
RTVSPost2010PropOp52
 70
     0
102
RTVSPost2010Prop53
 90
        2
102
RTVSPost2010PropOp53
 70
     1
102
RTVSPost2010Prop54
  1
strokes_ogs.tif
102
RTVSPost2010PropOp54
 70
     1
102
RTVSPost2010Prop55
280
     0
102
RTVSPost2010PropOp55
 70
     1
102
RTVSPost2010Prop56
140
1.0
102
RTVSPost2010PropOp56
 70
     1
102
RTVSPost2010Prop57
140
1.0
102
RTVSPost2010PropOp57
 70
     1
102
RTVSPropertyOp0
 70
     1
102
RTVSPropertyOp1
 70
     1
102
RTVSPropertyOp2
 70
     1
102
RTVSPropertyOp3
 70
     1
102
RTVSPropertyOp4
 70
     1
102
RTVSPropertyOp5
 70
     1
102
RTVSPropertyOp6
 70
     1
102
RTVSPropertyOp7
 70
     1
102
RTVSPropertyOp8
 70
     1
102
RTVSPropertyOp9
 70
     1
102
RTVSPropertyOp10
 70
     1
102
RTVSPropertyOp11
 70
     1
102
RTVSPropertyOp12
 70
     1
102
RTVSPropertyOp13
 70
     1
102
RTVSPropertyOp14
 70
     1
102
RTVSPropertyOp15
 70
     1
102
RTVSPropertyOp16
 70
     1
102
RTVSPropertyOp17
 70
     1
102
RTVSPropertyOp18
 70
     1
102
RTVSPropertyOp19
 70
     1
102
RTVSPropertyOp20
 70
     1
102
RTVSPropertyOp21
 70
     1
102
RTVSPropertyOp22
 70
     1
102
RTVSPropertyOp23
 70
     1
102
RTVSPropertyOp24
 70
     1
102
RTVSPropertyOp25
 70
     1
102
RTVSPropertyOp26
 70
     1
102
RTVSPropertyOp27
 70
     1
102
RTVSPropertyOp28
 70
     1
102
RTVSPropertyOp29
 70
     1
102
RTVSPropertyOp30
 70
     1
102
RTVSPropertyOp31
 70
     1
102
RTVSPropertyOp32
 70
     1
102
RTVSPropertyOp33
 70
     1
102
RTVSPropertyOp34
 70
     1
102
RTVSPropertyOp35
 70
     1
102
RTVSPropertyOp36
 70
     1
102
RTVSPropertyOp37
 70
     1
102
RTVSPropertyOp38
 70
     1
102
RTVSPropertyOp39
 70
     1
102
RTVSPropertyOp40
 70
     1
102
RTVSPropertyOp41
 70
     1
102
RTVSPropertyOp42
 70
     1
102
RTVSPropertyOp43
 70
     1
102
RTVSPropertyOp44
 70
     1
102
RTVSPropertyOp45
 70
     1
102
RTVSPropertyOp46
 70
     1
102
RTVSPropertyOp47
 70
     1
102
RTVSPropertyOp48
 70
     1
102
RTVSPropertyOp49
 70
     1
102
RTVSPropertyOp50
 70
     1
102
RTVSPropertyOp51
 70
     0
102
RTVSPropertyOp52
 70
     0
102
RTVSPropertyOp53
 70
     1
102
RTVSPropertyOp54
 70
     1
102
RTVSPropertyOp55
 70
     1
102
RTVSPropertyOp56
 70
     1
102
RTVSPropertyOp57
 70
     1
102
RTVSPropertyOp58
 70
     1
102
RTVSPropertyOp59
 70
     1
102
RTVSPropertyOp60
 70
     1
102
RTVSPropertyOp61
 70
     1
102
RTVSPropertyOp62
 70
     1
  0
XRECORD
  5
1000000A4
102
{ACAD_REACTORS
330
1000000A3
102
}
330
1000000A3
100
AcDbXrecord
280
     1
102
RTVSPost2010Prop28
280
     0
102
RTVSPost2010PropOp28
 70
     1
102
RTVSPost2010Prop29
280
     1
102
RTVSPost2010PropOp29
 70
     1
102
RTVSPost2010Prop30
280
     1
102
RTVSPost2010PropOp30
 70
     1
102
RTVSPost2010Prop31
280
     0
102
RTVSPost2010PropOp31
 70
     1
102
RTVSPost2010Prop32
280
     0
102
RTVSPost2010PropOp32
 70
     1
102
RTVSPost2010Prop33
280
     0
102
RTVSPost2010PropOp33
 70
     1
102
RTVSPost2010Prop34
280
     0
102
RTVSPost2010PropOp34
 70
     1
102
RTVSPost2010Prop35
280
     0
102
RTVSPost2010PropOp35
 70
     1
102
RTVSPost2010Prop36
280
     0
102
RTVSPost2010PropOp36
 70
     1
102
RTVSPost2010Prop37
 90
       50
102
RTVSPost2010PropOp37
 70
     1
102
RTVSPost2010Prop38
140
0.0
102
RTVSPost2010PropOp38
 70
     1
102
RTVSPost2010Prop39
140
1.0
102
RTVSPost2010PropOp39
 70
     1
102
RTVSPost2010Prop40
 90
        0
102
RTVSPost2010PropOp40
 70
     1
102
RTVSPost2010Prop41ColorIndex
 90
       18
102
RTVSPost2010Prop41ColorRGB
 90
        0
102
RTVSPost2010PropOp41
 70
     1
102
RTVSPost2010Prop42
 90
       50
102
RTVSPost2010PropOp42
 70
     1
102
RTVSPost2010Prop43
 90
        3
102
RTVSPost2010PropOp43
 70
     1
102
RTVSPost2010Prop44ColorIndex
 90
        5
102
RTVSPost2010Prop44ColorRGB
 90
      255
102
RTVSPost2010PropOp44
 70
     1
102
RTVSPost2010Prop45
280
     0
102
RTVSPost2010PropOp45
 70
     1
102
RTVSPost2010Prop46
 90
       50
102
RTVSPost2010PropOp46
 70
     1
102
RTVSPost2010Prop47
 90
       50
102
RTVSPost2010PropOp47
 70
     1
102
RTVSPost2010Prop48
 90
       50
102
RTVSPost2010PropOp48
 70
     1
102
RTVSPost2010Prop49
280
     0
102
RTVSPost2010PropOp49
 70
     1
102
RTVSPost2010Prop50
 90
       50
102
RTVSPost2010PropOp50
 70
     1
102
RTVSPost2010Prop51ColorIndex
 90
      256
102
RTVSPost2010Prop51ColorRGB
 90
-16777216
102
RTVSPost2010PropOp51
 70
     0
102
RTVSPost2010Prop52
140
1.0
102
RTVSPost2010PropOp52
 70
     0
102
RTVSPost2010Prop53
 90
        2
102
RTVSPost2010PropOp53
 70
     1
102
RTVSPost2010Prop54
  1
strokes_ogs.tif
102
RTVSPost2010PropOp54
 70
     1
102
RTVSPost2010Prop55
280
     0
102
RTVSPost2010PropOp55
 70
     1
102
RTVSPost2010Prop56
140
1.0
102
RTVSPost2010PropOp56
 70
     1
102
RTVSPost2010Prop57
140
1.0
102
RTVSPost2010PropOp57
 70
     1
102
RTVSPropertyOp0
 70
     1
102
RTVSPropertyOp1
 70
     1
102
RTVSPropertyOp2
 70
     1
102
RTVSPropertyOp3
 70
     1
102
RTVSPropertyOp4
 70
     1
102
RTVSPropertyOp5
 70
     1
102
RTVSPropertyOp6
 70
     1
102
RTVSPropertyOp7
 70
     1
102
RTVSPropertyOp8
 70
     1
102
RTVSPropertyOp9
 70
     1
102
RTVSPropertyOp10
 70
     1
102
RTVSPropertyOp11
 70
     1
102
RTVSPropertyOp12
 70
     1
102
RTVSPropertyOp13
 70
     1
102
RTVSPropertyOp14
 70
     1
102
RTVSPropertyOp15
 70
     1
102
RTVSPropertyOp16
 70
     1
102
RTVSPropertyOp17
 70
     1
102
RTVSPropertyOp18
 70
     1
102
RTVSPropertyOp19
 70
     1
102
RTVSPropertyOp20
 70
     1
102
RTVSPropertyOp21
 70
     1
102
RTVSPropertyOp22
 70
     1
102
RTVSPropertyOp23
 70
     1
102
RTVSPropertyOp24
 70
     1
102
RTVSPropertyOp25
 70
     1
102
RTVSPropertyOp26
 70
     1
102
RTVSPropertyOp27
 70
     1
102
RTVSPropertyOp28
 70
     1
102
RTVSPropertyOp29
 70
     1
102
RTVSPropertyOp30
 70
     1
102
RTVSPropertyOp31
 70
     1
102
RTVSPropertyOp32
 70
     1
102
RTVSPropertyOp33
 70
     1
102
RTVSPropertyOp34
 70
     1
102
RTVSPropertyOp35
 70
     1
102
RTVSPropertyOp36
 70
     1
102
RTVSPropertyOp37
 70
     1
102
RTVSPropertyOp38
 70
     1
102
RTVSPropertyOp39
 70
     1
102
RTVSPropertyOp40
 70
     1
102
RTVSPropertyOp41
 70
     1
102
RTVSPropertyOp42
 70
     1
102
RTVSPropertyOp43
 70
     1
102
RTVSPropertyOp44
 70
     1
102
RTVSPropertyOp45
 70
     1
102
RTVSPropertyOp46
 70
     1
102
RTVSPropertyOp47
 70
     1
102
RTVSPropertyOp48
 70
     1
102
RTVSPropertyOp49
 70
     1
102
RTVSPropertyOp50
 70
     1
102
RTVSPropertyOp51
 70
     0
102
RTVSPropertyOp52
 70
     0
102
RTVSPropertyOp53
 70
     1
102
RTVSPropertyOp54
 70
     1
102
RTVSPropertyOp55
 70
     1
102
RTVSPropertyOp56
 70
     1
102
RTVSPropertyOp57
 70
     1
102
RTVSPropertyOp58
 70
     1
102
RTVSPropertyOp59
 70
     1
102
RTVSPropertyOp60
 70
     1
102
RTVSPropertyOp61
 70
     1
102
RTVSPropertyOp62
 70
     1
  0
XRECORD
  5
10000009A
102
{ACAD_REACTORS
330
100000099
102
}
330
100000099
100
AcDbXrecord
280
     1
102
RTVSPost2010Prop28
280
     0
102
RTVSPost2010PropOp28
 70
     1
102
RTVSPost2010Prop29
280
     1
102
RTVSPost2010PropOp29
 70
     1
102
RTVSPost2010Prop30
280
     1
102
RTVSPost2010PropOp30
 70
     1
102
RTVSPost2010Prop31
280
     0
102
RTVSPost2010PropOp31
 70
     1
102
RTVSPost2010Prop32
280
     0
102
RTVSPost2010PropOp32
 70
     1
102
RTVSPost2010Prop33
280
     0
102
RTVSPost2010PropOp33
 70
     1
102
RTVSPost2010Prop34
280
     0
102
RTVSPost2010PropOp34
 70
     1
102
RTVSPost2010Prop35
280
     0
102
RTVSPost2010PropOp35
 70
     1
102
RTVSPost2010Prop36
280
     0
102
RTVSPost2010PropOp36
 70
     1
102
RTVSPost2010Prop37
 90
       50
102
RTVSPost2010PropOp37
 70
     1
102
RTVSPost2010Prop38
140
0.0
102
RTVSPost2010PropOp38
 70
     1
102
RTVSPost2010Prop39
140
1.0
102
RTVSPost2010PropOp39
 70
     1
102
RTVSPost2010Prop40
 90
        0
102
RTVSPost2010PropOp40
 70
     1
102
RTVSPost2010Prop41ColorIndex
 90
       18
102
RTVSPost2010Prop41ColorRGB
 90
        0
102
RTVSPost2010PropOp41
 70
     1
102
RTVSPost2010Prop42
 90
       50
102
RTVSPost2010PropOp42
 70
     1
102
RTVSPost2010Prop43
 90
        3
102
RTVSPost2010PropOp43
 70
     1
102
RTVSPost2010Prop44ColorIndex
 90
        5
102
RTVSPost2010Prop44ColorRGB
 90
      255
102
RTVSPost2010PropOp44
 70
     1
102
RTVSPost2010Prop45
280
     0
102
RTVSPost2010PropOp45
 70
     1
102
RTVSPost2010Prop46
 90
       50
102
RTVSPost2010PropOp46
 70
     1
102
RTVSPost2010Prop47
 90
       50
102
RTVSPost2010PropOp47
 70
     1
102
RTVSPost2010Prop48
 90
       50
102
RTVSPost2010PropOp48
 70
     1
102
RTVSPost2010Prop49
280
     0
102
RTVSPost2010PropOp49
 70
     1
102
RTVSPost2010Prop50
 90
       50
102
RTVSPost2010PropOp50
 70
     1
102
RTVSPost2010Prop51ColorIndex
 90
      256
102
RTVSPost2010Prop51ColorRGB
 90
-16777216
102
RTVSPost2010PropOp51
 70
     0
102
RTVSPost2010Prop52
140
1.0
102
RTVSPost2010PropOp52
 70
     0
102
RTVSPost2010Prop53
 90
        2
102
RTVSPost2010PropOp53
 70
     1
102
RTVSPost2010Prop54
  1
strokes_ogs.tif
102
RTVSPost2010PropOp54
 70
     1
102
RTVSPost2010Prop55
280
     0
102
RTVSPost2010PropOp55
 70
     1
102
RTVSPost2010Prop56
140
1.0
102
RTVSPost2010PropOp56
 70
     1
102
RTVSPost2010Prop57
140
1.0
102
RTVSPost2010PropOp57
 70
     1
102
RTVSPropertyOp0
 70
     1
102
RTVSPropertyOp1
 70
     1
102
RTVSPropertyOp2
 70
     1
102
RTVSPropertyOp3
 70
     1
102
RTVSPropertyOp4
 70
     1
102
RTVSPropertyOp5
 70
     1
102
RTVSPropertyOp6
 70
     1
102
RTVSPropertyOp7
 70
     1
102
RTVSPropertyOp8
 70
     1
102
RTVSPropertyOp9
 70
     1
102
RTVSPropertyOp10
 70
     1
102
RTVSPropertyOp11
 70
     1
102
RTVSPropertyOp12
 70
     1
102
RTVSPropertyOp13
 70
     1
102
RTVSPropertyOp14
 70
     1
102
RTVSPropertyOp15
 70
     1
102
RTVSPropertyOp16
 70
     1
102
RTVSPropertyOp17
 70
     1
102
RTVSPropertyOp18
 70
     1
102
RTVSPropertyOp19
 70
     1
102
RTVSPropertyOp20
 70
     1
102
RTVSPropertyOp21
 70
     1
102
RTVSPropertyOp22
 70
     1
102
RTVSPropertyOp23
 70
     1
102
RTVSPropertyOp24
 70
     1
102
RTVSPropertyOp25
 70
     1
102
RTVSPropertyOp26
 70
     1
102
RTVSPropertyOp27
 70
     1
102
RTVSPropertyOp28
 70
     1
102
RTVSPropertyOp29
 70
     1
102
RTVSPropertyOp30
 70
     1
102
RTVSPropertyOp31
 70
     1
102
RTVSPropertyOp32
 70
     1
102
RTVSPropertyOp33
 70
     1
102
RTVSPropertyOp34
 70
     1
102
RTVSPropertyOp35
 70
     1
102
RTVSPropertyOp36
 70
     1
102
RTVSPropertyOp37
 70
     1
102
RTVSPropertyOp38
 70
     1
102
RTVSPropertyOp39
 70
     1
102
RTVSPropertyOp40
 70
     1
102
RTVSPropertyOp41
 70
     1
102
RTVSPropertyOp42
 70
     1
102
RTVSPropertyOp43
 70
     1
102
RTVSPropertyOp44
 70
     1
102
RTVSPropertyOp45
 70
     1
102
RTVSPropertyOp46
 70
     1
102
RTVSPropertyOp47
 70
     1
102
RTVSPropertyOp48
 70
     1
102
RTVSPropertyOp49
 70
     1
102
RTVSPropertyOp50
 70
     1
102
RTVSPropertyOp51
 70
     0
102
RTVSPropertyOp52
 70
     0
102
RTVSPropertyOp53
 70
     1
102
RTVSPropertyOp54
 70
     1
102
RTVSPropertyOp55
 70
     1
102
RTVSPropertyOp56
 70
     1
102
RTVSPropertyOp57
 70
     1
102
RTVSPropertyOp58
 70
     1
102
RTVSPropertyOp59
 70
     1
102
RTVSPropertyOp60
 70
     1
102
RTVSPropertyOp61
 70
     1
102
RTVSPropertyOp62
 70
     1
  0
XRECORD
  5
10000008E
102
{ACAD_REACTORS
330
10000008D
102
}
330
10000008D
100
AcDbXrecord
280
     1
102
RTVSPost2010Prop28
280
     0
102
RTVSPost2010PropOp28
 70
     1
102
RTVSPost2010Prop29
280
     1
102
RTVSPost2010PropOp29
 70
     1
102
RTVSPost2010Prop30
280
     1
102
RTVSPost2010PropOp30
 70
     1
102
RTVSPost2010Prop31
280
     0
102
RTVSPost2010PropOp31
 70
     1
102
RTVSPost2010Prop32
280
     0
102
RTVSPost2010PropOp32
 70
     1
102
RTVSPost2010Prop33
280
     0
102
RTVSPost2010PropOp33
 70
     1
102
RTVSPost2010Prop34
280
     0
102
RTVSPost2010PropOp34
 70
     1
102
RTVSPost2010Prop35
280
     0
102
RTVSPost2010PropOp35
 70
     1
102
RTVSPost2010Prop36
280
     0
102
RTVSPost2010PropOp36
 70
     1
102
RTVSPost2010Prop37
 90
       50
102
RTVSPost2010PropOp37
 70
     1
102
RTVSPost2010Prop38
140
0.0
102
RTVSPost2010PropOp38
 70
     1
102
RTVSPost2010Prop39
140
1.0
102
RTVSPost2010PropOp39
 70
     1
102
RTVSPost2010Prop40
 90
        0
102
RTVSPost2010PropOp40
 70
     1
102
RTVSPost2010Prop41ColorIndex
 90
       18
102
RTVSPost2010Prop41ColorRGB
 90
        0
102
RTVSPost2010PropOp41
 70
     1
102
RTVSPost2010Prop42
 90
       50
102
RTVSPost2010PropOp42
 70
     1
102
RTVSPost2010Prop43
 90
        3
102
RTVSPost2010PropOp43
 70
     1
102
RTVSPost2010Prop44ColorIndex
 90
        5
102
RTVSPost2010Prop44ColorRGB
 90
      255
102
RTVSPost2010PropOp44
 70
     1
102
RTVSPost2010Prop45
280
     0
102
RTVSPost2010PropOp45
 70
     1
102
RTVSPost2010Prop46
 90
       50
102
RTVSPost2010PropOp46
 70
     1
102
RTVSPost2010Prop47
 90
       50
102
RTVSPost2010PropOp47
 70
     1
102
RTVSPost2010Prop48
 90
       50
102
RTVSPost2010PropOp48
 70
     1
102
RTVSPost2010Prop49
280
     0
102
RTVSPost2010PropOp49
 70
     1
102
RTVSPost2010Prop50
 90
       50
102
RTVSPost2010PropOp50
 70
     1
102
RTVSPost2010Prop51ColorIndex
 90
      256
102
RTVSPost2010Prop51ColorRGB
 90
-16777216
102
RTVSPost2010PropOp51
 70
     0
102
RTVSPost2010Prop52
140
1.0
102
RTVSPost2010PropOp52
 70
     0
102
RTVSPost2010Prop53
 90
        2
102
RTVSPost2010PropOp53
 70
     1
102
RTVSPost2010Prop54
  1
strokes_ogs.tif
102
RTVSPost2010PropOp54
 70
     1
102
RTVSPost2010Prop55
280
     0
102
RTVSPost2010PropOp55
 70
     1
102
RTVSPost2010Prop56
140
1.0
102
RTVSPost2010PropOp56
 70
     1
102
RTVSPost2010Prop57
140
1.0
102
RTVSPost2010PropOp57
 70
     1
102
RTVSPropertyOp0
 70
     1
102
RTVSPropertyOp1
 70
     1
102
RTVSPropertyOp2
 70
     1
102
RTVSPropertyOp3
 70
     1
102
RTVSPropertyOp4
 70
     1
102
RTVSPropertyOp5
 70
     1
102
RTVSPropertyOp6
 70
     1
102
RTVSPropertyOp7
 70
     1
102
RTVSPropertyOp8
 70
     1
102
RTVSPropertyOp9
 70
     1
102
RTVSPropertyOp10
 70
     1
102
RTVSPropertyOp11
 70
     1
102
RTVSPropertyOp12
 70
     1
102
RTVSPropertyOp13
 70
     1
102
RTVSPropertyOp14
 70
     1
102
RTVSPropertyOp15
 70
     1
102
RTVSPropertyOp16
 70
     1
102
RTVSPropertyOp17
 70
     1
102
RTVSPropertyOp18
 70
     1
102
RTVSPropertyOp19
 70
     1
102
RTVSPropertyOp20
 70
     1
102
RTVSPropertyOp21
 70
     1
102
RTVSPropertyOp22
 70
     1
102
RTVSPropertyOp23
 70
     1
102
RTVSPropertyOp24
 70
     1
102
RTVSPropertyOp25
 70
     1
102
RTVSPropertyOp26
 70
     1
102
RTVSPropertyOp27
 70
     1
102
RTVSPropertyOp28
 70
     1
102
RTVSPropertyOp29
 70
     1
102
RTVSPropertyOp30
 70
     1
102
RTVSPropertyOp31
 70
     1
102
RTVSPropertyOp32
 70
     1
102
RTVSPropertyOp33
 70
     1
102
RTVSPropertyOp34
 70
     1
102
RTVSPropertyOp35
 70
     1
102
RTVSPropertyOp36
 70
     1
102
RTVSPropertyOp37
 70
     1
102
RTVSPropertyOp38
 70
     1
102
RTVSPropertyOp39
 70
     1
102
RTVSPropertyOp40
 70
     1
102
RTVSPropertyOp41
 70
     1
102
RTVSPropertyOp42
 70
     1
102
RTVSPropertyOp43
 70
     1
102
RTVSPropertyOp44
 70
     1
102
RTVSPropertyOp45
 70
     1
102
RTVSPropertyOp46
 70
     1
102
RTVSPropertyOp47
 70
     1
102
RTVSPropertyOp48
 70
     1
102
RTVSPropertyOp49
 70
     1
102
RTVSPropertyOp50
 70
     1
102
RTVSPropertyOp51
 70
     0
102
RTVSPropertyOp52
 70
     0
102
RTVSPropertyOp53
 70
     1
102
RTVSPropertyOp54
 70
     1
102
RTVSPropertyOp55
 70
     1
102
RTVSPropertyOp56
 70
     1
102
RTVSPropertyOp57
 70
     1
102
RTVSPropertyOp58
 70
     1
102
RTVSPropertyOp59
 70
     1
102
RTVSPropertyOp60
 70
     1
102
RTVSPropertyOp61
 70
     1
102
RTVSPropertyOp62
 70
     1
  0
XRECORD
  5
1000000A6
102
{ACAD_REACTORS
330
1000000A5
102
}
330
1000000A5
100
AcDbXrecord
280
     1
102
RTVSPost2010Prop28
280
     0
102
RTVSPost2010PropOp28
 70
     1
102
RTVSPost2010Prop29
280
     1
102
RTVSPost2010PropOp29
 70
     1
102
RTVSPost2010Prop30
280
     1
102
RTVSPost2010PropOp30
 70
     1
102
RTVSPost2010Prop31
280
     0
102
RTVSPost2010PropOp31
 70
     1
102
RTVSPost2010Prop32
280
     0
102
RTVSPost2010PropOp32
 70
     1
102
RTVSPost2010Prop33
280
     0
102
RTVSPost2010PropOp33
 70
     1
102
RTVSPost2010Prop34
280
     0
102
RTVSPost2010PropOp34
 70
     1
102
RTVSPost2010Prop35
280
     0
102
RTVSPost2010PropOp35
 70
     1
102
RTVSPost2010Prop36
280
     0
102
RTVSPost2010PropOp36
 70
     1
102
RTVSPost2010Prop37
 90
       50
102
RTVSPost2010PropOp37
 70
     1
102
RTVSPost2010Prop38
140
0.0
102
RTVSPost2010PropOp38
 70
     1
102
RTVSPost2010Prop39
140
1.0
102
RTVSPost2010PropOp39
 70
     1
102
RTVSPost2010Prop40
 90
        0
102
RTVSPost2010PropOp40
 70
     1
102
RTVSPost2010Prop41ColorIndex
 90
       18
102
RTVSPost2010Prop41ColorRGB
 90
        0
102
RTVSPost2010PropOp41
 70
     1
102
RTVSPost2010Prop42
 90
       50
102
RTVSPost2010PropOp42
 70
     1
102
RTVSPost2010Prop43
 90
        3
102
RTVSPost2010PropOp43
 70
     1
102
RTVSPost2010Prop44ColorIndex
 90
        5
102
RTVSPost2010Prop44ColorRGB
 90
      255
102
RTVSPost2010PropOp44
 70
     1
102
RTVSPost2010Prop45
280
     0
102
RTVSPost2010PropOp45
 70
     1
102
RTVSPost2010Prop46
 90
       50
102
RTVSPost2010PropOp46
 70
     1
102
RTVSPost2010Prop47
 90
       50
102
RTVSPost2010PropOp47
 70
     1
102
RTVSPost2010Prop48
 90
       50
102
RTVSPost2010PropOp48
 70
     1
102
RTVSPost2010Prop49
280
     0
102
RTVSPost2010PropOp49
 70
     1
102
RTVSPost2010Prop50
 90
       50
102
RTVSPost2010PropOp50
 70
     1
102
RTVSPost2010Prop51ColorIndex
 90
      256
102
RTVSPost2010Prop51ColorRGB
 90
-16777216
102
RTVSPost2010PropOp51
 70
     0
102
RTVSPost2010Prop52
140
1.0
102
RTVSPost2010PropOp52
 70
     0
102
RTVSPost2010Prop53
 90
        2
102
RTVSPost2010PropOp53
 70
     1
102
RTVSPost2010Prop54
  1
strokes_ogs.tif
102
RTVSPost2010PropOp54
 70
     1
102
RTVSPost2010Prop55
280
     0
102
RTVSPost2010PropOp55
 70
     1
102
RTVSPost2010Prop56
140
1.0
102
RTVSPost2010PropOp56
 70
     1
102
RTVSPost2010Prop57
140
1.0
102
RTVSPost2010PropOp57
 70
     1
102
RTVSPropertyOp0
 70
     1
102
RTVSPropertyOp1
 70
     1
102
RTVSPropertyOp2
 70
     1
102
RTVSPropertyOp3
 70
     1
102
RTVSPropertyOp4
 70
     1
102
RTVSPropertyOp5
 70
     1
102
RTVSPropertyOp6
 70
     1
102
RTVSPropertyOp7
 70
     1
102
RTVSPropertyOp8
 70
     1
102
RTVSPropertyOp9
 70
     1
102
RTVSPropertyOp10
 70
     1
102
RTVSPropertyOp11
 70
     1
102
RTVSPropertyOp12
 70
     1
102
RTVSPropertyOp13
 70
     1
102
RTVSPropertyOp14
 70
     1
102
RTVSPropertyOp15
 70
     1
102
RTVSPropertyOp16
 70
     1
102
RTVSPropertyOp17
 70
     1
102
RTVSPropertyOp18
 70
     1
102
RTVSPropertyOp19
 70
     1
102
RTVSPropertyOp20
 70
     1
102
RTVSPropertyOp21
 70
     1
102
RTVSPropertyOp22
 70
     1
102
RTVSPropertyOp23
 70
     1
102
RTVSPropertyOp24
 70
     1
102
RTVSPropertyOp25
 70
     1
102
RTVSPropertyOp26
 70
     1
102
RTVSPropertyOp27
 70
     1
102
RTVSPropertyOp28
 70
     1
102
RTVSPropertyOp29
 70
     1
102
RTVSPropertyOp30
 70
     1
102
RTVSPropertyOp31
 70
     1
102
RTVSPropertyOp32
 70
     1
102
RTVSPropertyOp33
 70
     1
102
RTVSPropertyOp34
 70
     1
102
RTVSPropertyOp35
 70
     1
102
RTVSPropertyOp36
 70
     1
102
RTVSPropertyOp37
 70
     1
102
RTVSPropertyOp38
 70
     1
102
RTVSPropertyOp39
 70
     1
102
RTVSPropertyOp40
 70
     1
102
RTVSPropertyOp41
 70
     1
102
RTVSPropertyOp42
 70
     1
102
RTVSPropertyOp43
 70
     1
102
RTVSPropertyOp44
 70
     1
102
RTVSPropertyOp45
 70
     1
102
RTVSPropertyOp46
 70
     1
102
RTVSPropertyOp47
 70
     1
102
RTVSPropertyOp48
 70
     1
102
RTVSPropertyOp49
 70
     1
102
RTVSPropertyOp50
 70
     1
102
RTVSPropertyOp51
 70
     0
102
RTVSPropertyOp52
 70
     0
102
RTVSPropertyOp53
 70
     1
102
RTVSPropertyOp54
 70
     1
102
RTVSPropertyOp55
 70
     1
102
RTVSPropertyOp56
 70
     1
102
RTVSPropertyOp57
 70
     1
102
RTVSPropertyOp58
 70
     1
102
RTVSPropertyOp59
 70
     1
102
RTVSPropertyOp60
 70
     1
102
RTVSPropertyOp61
 70
     1
102
RTVSPropertyOp62
 70
     1
  0
ENDSEC
  0
EOF
