  0
SECTION
  2
HEADER
  9
$ACADVER
  1
AC1009
  9
$INSBASE
 10
0
 20
0
 30
0
  9
$EXTMIN
 10
0
 20
0
  9
$EXTMAX
 10
840
 20
594
  9
$LIMMIN
 10
0
 20
0
  9
$LIMMAX
 10
840
 20
594
  9
$LTSCALE
 40
2
  0
ENDSEC
  0
SECTION
  2
TABLES
  0
TABLE
  2
LTYPE
 70
     9
  0
LTYPE
  2
CONTINUOUS
 70
    64
  3
実線
 72
    65
 73
     0
 40
0.0
  0
LTYPE
  2
DASHED1
 70
    64
  3
--  --  --  --  --  --  --  --  
 72
    65
 73
     2
 40
2.5
 49
1.25
 49
-1.25
  0
LTYPE
  2
DASHED2
 70
    64
  3
----    ----    ----    ----    
 72
    65
 73
     2
 40
5.0
 49
2.5
 49
-2.5
  0
LTYPE
  2
DASHED3
 70
    64
  3
------  ------  ------  ------  
 72
    65
 73
     2
 40
5.0
 49
3.75
 49
-1.25
  0
LTYPE
  2
CENTER1
 70
    64
  3
----- - ----- - ----- - ----- - 
 72
    65
 73
     4
 40
10.0
 49
6.25
 49
-1.25
 49
1.25
 49
-1.25
  0
LTYPE
  2
CENTER2
 70
    64
  3
----------  --  ----------  --  
 72
    65
 73
     4
 40
20.0
 49
12.5
 49
-2.5
 49
2.5
 49
-2.5
  0
LTYPE
  2
PHANTOM1
 70
    64
  3
--- - - --- - - --- - - --- - - 
 72
    65
 73
     6
 40
10.0
 49
3.25
 49
-1.25
 49
1.25
 49
-1.25
 49
1.25
 49
-1.25
  0
LTYPE
  2
PHANTOM2
 70
    64
  3
--------  -  -  --------  -  -  
 72
    65
 73
     6
 40
20.0
 49
10.0
 49
-2.5
 49
1.25
 49
-2.5
 49
1.25
 49
-2.5
  0
LTYPE
  2
DOT
 70
    64
  3
-   -   -   -   -   -   -   -   
 72
    65
 73
     2
 40
2.5
 49
0.625
 49
-1.875
  0
LTYPE
  2
DUMMY
 70
    64
  3
ダミー
 72
    65
 73
     0
 40
0.0
  0
LTYPE
  2
RAND1
 70
    64
  3
ランダム線1
 72
    65
 73
     4
 40
10.0
 49
1.0
 49
-2.0
 49
3.0
 49
-4.0
  0
LTYPE
  2
RAND2
 70
    64
  3
ランダム線2
 72
    65
 73
     4
 40
14.0
 49
2.0
 49
-3.0
 49
4.0
 49
-5.0
  0
LTYPE
  2
RAND3
 70
    64
  3
ランダム線3
 72
    65
 73
     4
 40
18.0
 49
3.0
 49
-4.0
 49
5.0
 49
-6.0
  0
LTYPE
  2
RAND4
 70
    64
  3
ランダム線4
 72
    65
 73
     4
 40
22.0
 49
4.0
 49
-5.0
 49
6.0
 49
-7.0
  0
LTYPE
  2
RAND5
 70
    64
  3
ランダム線5
 72
    65
 73
     4
 40
26.0
 49
5.0
 49
-6.0
 49
7.0
 49
-8.0
  0
LTYPE
  2
LONG1
 70
    64
  3
----------  --  ----------  --  
 72
    65
 73
     4
 40
40.0
 49
32.5
 49
-2.5
 49
2.5
 49
-2.5
  0
LTYPE
  2
LONG2
 70
    64
  3
--------  -  -  --------  -  -  
 72
    65
 73
     6
 40
40.0
 49
30.0
 49
-2.5
 49
1.25
 49
-2.5
 49
1.25
 49
-2.5
  0
LTYPE
  2
LONG3
 70
    64
  3
+++++++++++++++..+++++++++++++++
 72
    65
 73
     2
 40
40.0
 49
37.5
 49
-2.5
  0
LTYPE
  2
LONG4
 70
    64
  3
+++++++++++++++..+++++++++++++++
 72
    65
 73
     2
 40
80.0
 49
75.0
 49
-5.0
  0
LTYPE
  2
LONG5
 70
    64
  3
----------  --  ----------  --  
 72
    65
 73
     4
 40
60.0
 49
37.5
 49
-7.5
 49
7.5
 49
-7.5
  0
LTYPE
  2
dashed
 70
   64
  3
-------   -------------   ------
 72
   65
 73
    2
 40
7.5
 49
6
 49
-1.5
  0
LTYPE
  2
dashed_spaced
 70
   64
  3
----        --------        ----
 72
   65
 73
    2
 40
12
 49
6
 49
-6
  0
LTYPE
  2
long_dashed_dotted
 70
   64
  3
------------- --- --------------
 72
   65
 73
    4
 40
15.25
 49
12
 49
-1.5
 49
0.25
 49
-1.5
  0
LTYPE
  2
long_dashed_double-dotted
 70
   64
  3
----------- --- --- ------------
 72
   65
 73
    6
 40
17
 49
12
 49
-1.5
 49
0.25
 49
-1.5
 49
0.25
 49
-1.5
  0
LTYPE
  2
long_dashed_triplicate-dotted
 70
   64
  3
--------- --- --- --- ----------
 72
   65
 73
    8
 40
18.75
 49
12
 49
-1.5
 49
0.25
 49
-1.5
 49
0.25
 49
-1.5
 49
0.25
 49
-1.5
  0
LTYPE
  2
dotted
 70
   64
  3
   -       -       -       -    
 72
   65
 73
    2
 40
1.75
 49
0.25
 49
-1.5
  0
LTYPE
  2
chain
 70
   64
  3
-------------- -- --------------
 72
   65
 73
    4
 40
18.5
 49
12
 49
-1.5
 49
3.5
 49
-1.5
  0
LTYPE
  2
chain_double_dash
 70
   64
  3
------------ -- -- -------------
 72
   65
 73
    6
 40
23.5
 49
12
 49
-1.5
 49
3.5
 49
-1.5
 49
3.5
 49
-1.5
  0
LTYPE
  2
dashed_dotted
 70
   64
  3
-----------     -     ----------
 72
   65
 73
    4
 40
9.25
 49
6
 49
-1.5
 49
0.25
 49
-1.5
  0
LTYPE
  2
double-dashed_dotted
 70
   64
  3
------   -----------   -   -----
 72
   65
 73
    6
 40
16.75
 49
6
 49
-1.5
 49
6
 49
-1.5
 49
0.25
 49
-1.5
  0
LTYPE
  2
dashed_double-dotted
 70
   64
  3
---------    -    -    ---------
 72
   65
 73
    6
 40
11
 49
6
 49
-1.5
 49
0.25
 49
-1.5
 49
0.25
 49
-1.5
  0
LTYPE
  2
double-dashed_double-dotted
 70
   64
  3
-----   ---------   -   -   ----
 72
   65
 73
    8
 40
18.5
 49
6
 49
-1.5
 49
6
 49
-1.5
 49
0.25
 49
-1.5
 49
0.25
 49
-1.5
  0
LTYPE
  2
dashed_triplicate-dotted
 70
   64
  3
-------    -    -    -    ------
 72
   65
 73
    8
 40
12.75
 49
6
 49
-1.5
 49
0.25
 49
-1.5
 49
0.25
 49
-1.5
 49
0.25
 49
-1.5
  0
LTYPE
  2
double-dashed_triplicate-dotted
 70
   64
  3
-----  ---------  -  -  -  -----
 72
   65
 73
   10
 40
20.25
 49
6
 49
-1.5
 49
6
 49
-1.5
 49
0.25
 49
-1.5
 49
0.25
 49
-1.5
 49
0.25
 49
-1.5
  0
LTYPE
  2
undefined
 70
   64
  3
--------------------------------
 72
   65
 73
    0
 40
0
  0
LTYPE
  2
PLINE2
 70
   64
  3
------     -----------     -----
 72
   65
 73
    2
 40
3
 49
2.1000000000000001
 49
-0.9
  0
LTYPE
  2
PLINE3
 70
   64
  3
------------   ---   -----------
 72
   65
 73
    4
 40
10
 49
7
 49
-1
 49
1
 49
-1
  0
LTYPE
  2
PLINE4
 70
   64
  3
---------   ---   ---   --------
 72
   65
 73
    6
 40
10
 49
5
 49
-1
 49
1
 49
-1
 49
1
 49
-1
  0
LTYPE
  2
PLINE5
 70
   64
  3
------     -----------     -----
 72
   65
 73
    2
 40
5
 49
3.5
 49
-1.5
  0
LTYPE
  2
PLINE6
 70
   64
  3
------------   ---   -----------
 72
   65
 73
    4
 40
15
 49
10.5
 49
-1.5
 49
1.5
 49
-1.5
  0
LTYPE
  2
PLINE7
 70
   64
  3
---------   ---   ---   --------
 72
   65
 73
    6
 40
15
 49
7.5
 49
-1.5
 49
1.5
 49
-1.5
 49
1.5
 49
-1.5
  0
LTYPE
  2
PLINE8
 70
   64
  3
------     -----------     -----
 72
   65
 73
    2
 40
7
 49
4.9000000000000004
 49
-2.1000000000000001
  0
LTYPE
  2
PLINE9
 70
   64
  3
------------   ---   -----------
 72
   65
 73
    4
 40
20
 49
14
 49
-2
 49
2
 49
-2
  0
LTYPE
  2
PLINE10
 70
   64
  3
---------   ---   ---   --------
 72
   65
 73
    6
 40
20
 49
10
 49
-2
 49
2
 49
-2
 49
2
 49
-2
  0
LTYPE
  2
PLINE11
 70
   64
  3
------     -----------     -----
 72
   65
 73
    2
 40
9
 49
6.2999999999999989
 49
-2.7000000000000002
  0
LTYPE
  2
PLINE12
 70
   64
  3
------------   ---   -----------
 72
   65
 73
    4
 40
25
 49
17.5
 49
-2.5
 49
2.5
 49
-2.5
  0
LTYPE
  2
PLINE13
 70
   64
  3
---------   ---   ---   --------
 72
   65
 73
    6
 40
25
 49
12.5
 49
-2.5
 49
2.5
 49
-2.5
 49
2.5
 49
-2.5
  0
LTYPE
  2
PLINE14
 70
   64
  3
------     -----------     -----
 72
   65
 73
    2
 40
11
 49
7.7000000000000002
 49
-3.2999999999999989
  0
LTYPE
  2
PLINE15
 70
   64
  3
------------   ---   -----------
 72
   65
 73
    4
 40
30
 49
21
 49
-3
 49
3
 49
-3
  0
LTYPE
  2
PLINE16
 70
   64
  3
---------   ---   ---   --------
 72
   65
 73
    6
 40
30
 49
15
 49
-3
 49
3
 49
-3
 49
3
 49
-3
  0
ENDTAB
  0
TABLE
  2
STYLE
  5
3
100
AcDbSymbolTable
 70
     1
  0
STYLE
  5
10
100
AcDbSymbolTableRecord
100
AcDbTextStyleTableRecord
  2
STANDARD
 70
     0
 40
0.0
 41
1.0
 50
0.0
 71
     0
 42
0.2
  3
txt
  4
bigfont.shx
  0
STYLE
  5
26
100
AcDbSymbolTableRecord
100
AcDbTextStyleTableRecord
  2
TATEGAKI
 70
    68
 40
0.0
 41
1.0
 50
0.0
 71
     0
 42
1.0
  3
txt
  4
bigfont.shx
  0
ENDTAB
  0
TABLE
  2
LAYER
 70
    7
  0
LAYER
  2
_0-0_0
 70
   64
 62
    7
  6
CONTINUOUS
  0
LAYER
  2
_0-2_寸法
 70
   64
 62
    7
  6
CONTINUOUS
  0
LAYER
  2
_0-3_躯体と製品
 70
   64
 62
    7
  6
CONTINUOUS
  0
LAYER
  2
_0-4_図枠
 70
   64
 62
    7
  6
CONTINUOUS
  0
LAYER
  2
_0-5_ADD_LINE
 70
   64
 62
    7
  6
CONTINUOUS
  0
LAYER
  2
_0-6_
 70
   64
 62
    7
  6
CONTINUOUS
  0
LAYER
  2
ADD_LINE
 70
   64
 62
    7
  6
CONTINUOUS
  0
ENDTAB
  0
ENDSEC
  0
SECTION
  2
BLOCKS
  0
BLOCK
  2
-000-_Dot
 70
   64
 10
0
 20
0
 30
0
  0
CIRCLE
  8
_0-0_0
  6
CONTINUOUS
 62
    7
 10
0
 20
0
 40
0.5
  0
LINE
  8
_0-0_0
  6
CONTINUOUS
 62
    7
 10
0.5
 20
0
 11
-0.5
 21
0
  0
LINE
  8
_0-0_0
  6
CONTINUOUS
 62
    7
 10
-1
 20
0
 11
-2
 21
0
  0
ENDBLK
  0
BLOCK
  2
-001-_Dot_1_
 70
   64
 10
0
 20
0
 30
0
  0
CIRCLE
  8
_0-0_0
  6
CONTINUOUS
 62
    7
 10
0
 20
0
 40
0.5
  0
LINE
  8
_0-0_0
  6
CONTINUOUS
 62
    7
 10
0.5
 20
0
 11
-0.5
 21
0
  0
LINE
  8
_0-0_0
  6
CONTINUOUS
 62
    7
 10
-1
 20
0
 11
-2
 21
0
  0
ENDBLK
  0
ENDSEC
  0
SECTION
  2
ENTITIES
  0
LINE
  8
_0-4_図枠
  6
CONTINUOUS
 62
    7
 10
8.0256249864739857
 20
9.0128259127189381
 11
832.02562498647376
 21
9.0128259127189381
  0
LINE
  8
_0-4_図枠
  6
CONTINUOUS
 62
    7
 10
832.02562498647376
 20
9.0128259127189381
 11
832.02562498647376
 21
585.01282591271854
  0
LINE
  8
_0-4_図枠
  6
CONTINUOUS
 62
    7
 10
832.02562498647376
 20
585.01282591271854
 11
8.0256249864739857
 21
585.01282591271854
  0
LINE
  8
_0-4_図枠
  6
CONTINUOUS
 62
    7
 10
8.0256249864739857
 20
585.01282591271854
 11
8.0256249864739857
 21
9.0128259127189381
  0
LINE
  8
_0-4_図枠
  6
CONTINUOUS
 62
    7
 10
334.02562498647399
 20
115.43492983736257
 11
125.02562498647399
 21
115.43492983736257
  0
LINE
  8
_0-4_図枠
  6
CONTINUOUS
 62
    7
 10
334.02562498647399
 20
160.43492983736257
 11
125.02562498647399
 21
160.43492983736257
  0
TEXT
  8
_0-4_図枠
 62
    7
 10
175.52562498647399
 20
206.93492983736257
 40
5
 41
1
 50
0
  1
部材名称
  0
TEXT
  8
_0-4_図枠
 62
    7
 10
276.52562498647285
 20
206.93492983736257
 40
5
 41
1
 50
0
  1
規　格
  0
TEXT
  8
_0-4_図枠
 62
    7
 10
144.02562498647399
 20
179.93492983736246
 40
5
 41
1
 50
0
  1
ＦＹＹフレーム
  0
TEXT
  8
_0-4_図枠
 62
    7
 10
144.02562498647399
 20
170.93492983736246
 40
5
 41
1
 50
0
  1
ＦＹＫ壁フレーム
  0
TEXT
  8
_0-4_図枠
 62
    7
 10
144.02562498647399
 20
152.93492983736257
 40
5
 41
1
 50
0
  1
ＦＹＫホルダー
  0
TEXT
  8
_0-4_図枠
 62
    7
 10
144.02562498647399
 20
143.93492983736257
 40
5
 41
1
 50
0
  1
ＦＹＹホルダースプリング
  0
TEXT
  8
_0-4_図枠
 62
    7
 10
144.02562498647399
 20
134.93492983736246
 40
5
 41
1
 50
0
  1
ＦＹＹフレームナット
  0
TEXT
  8
_0-4_図枠
 62
    7
 10
144.02562498647399
 20
125.93492983736246
 40
5
 41
1
 50
0
  1
ＦＹＫ水切ジョイント
  0
TEXT
  8
_0-4_図枠
 62
    7
 10
144.02562498647399
 20
116.93492983736246
 40
5
 41
1
 50
0
  1
ＦＹＫｻｲﾄﾞｷｬｯﾌﾟ ｼﾞｮｲﾝﾄ
  0
TEXT
  8
_0-4_図枠
 62
    7
 10
144.02562498647399
 20
98.934929837362461
 40
5
 41
1
 50
0
  1
止水補助板
  0
TEXT
  8
_0-4_図枠
 62
    7
 10
144.02562498647399
 20
89.934929837362574
 40
5
 41
1
 50
0
  1
ガスケットＮ
  0
TEXT
  8
_0-4_図枠
 62
    7
 10
144.02562498647399
 20
62.934929837362461
 40
5
 41
1
 50
0
  1
ステン六角ボルト
  0
TEXT
  8
_0-4_図枠
 62
    7
 10
144.02562498647399
 20
53.934929837362631
 40
5
 41
1
 50
0
  1
アジャストアンカー
  0
TEXT
  8
_0-4_図枠
 62
    7
 10
144.02562498647399
 20
44.934929837362517
 40
5
 41
1
 50
0
  1
アンカープラグ
  0
TEXT
  8
_0-4_図枠
 62
    7
 10
144.02562498647399
 20
35.934929837362631
 40
5
 41
1
 50
0
  1
ステンタッピンねじ
  0
TEXT
  8
_0-4_図枠
 62
    7
 10
144.02562498647399
 20
26.934929837362631
 40
5
 41
1
 50
0
  1
ステスワッシャー
  0
TEXT
  8
_0-4_図枠
 62
    7
 10
144.02562498647399
 20
17.934929837362517
 40
5
 41
1
 50
0
  1
ステンワッシャー
  0
LINE
  8
_0-4_図枠
  6
CONTINUOUS
 62
    7
 10
334.02562498647399
 20
214.43492983736246
 11
125.02562498647399
 21
214.43492983736246
  0
LINE
  8
_0-4_図枠
  6
CONTINUOUS
 62
    7
 10
334.02562498647399
 20
205.43492983736246
 11
125.02562498647399
 21
205.43492983736246
  0
LINE
  8
_0-4_図枠
  6
CONTINUOUS
 62
    7
 10
334.02562498647399
 20
196.43492983736246
 11
125.02562498647399
 21
196.43492983736246
  0
LINE
  8
_0-4_図枠
  6
CONTINUOUS
 62
    7
 10
334.02562498647399
 20
187.43492983736246
 11
125.02562498647399
 21
187.43492983736246
  0
LINE
  8
_0-4_図枠
  6
CONTINUOUS
 62
    7
 10
334.02562498647399
 20
178.43492983736246
 11
125.02562498647399
 21
178.43492983736246
  0
LINE
  8
_0-4_図枠
  6
CONTINUOUS
 62
    7
 10
334.02562498647399
 20
169.43492983736257
 11
125.02562498647399
 21
169.43492983736257
  0
LINE
  8
_0-4_図枠
  6
CONTINUOUS
 62
    7
 10
334.02562498647399
 20
151.43492983736246
 11
125.02562498647399
 21
151.43492983736246
  0
LINE
  8
_0-4_図枠
  6
CONTINUOUS
 62
    7
 10
334.02562498647399
 20
142.43492983736246
 11
125.02562498647399
 21
142.43492983736246
  0
LINE
  8
_0-4_図枠
  6
CONTINUOUS
 62
    7
 10
334.02562498647399
 20
133.43492983736246
 11
125.02562498647399
 21
133.43492983736246
  0
LINE
  8
_0-4_図枠
  6
CONTINUOUS
 62
    7
 10
334.02562498647399
 20
124.43492983736246
 11
125.02562498647399
 21
124.43492983736246
  0
LINE
  8
_0-4_図枠
  6
CONTINUOUS
 62
    7
 10
334.02562498647399
 20
106.43492983736257
 11
125.02562498647399
 21
106.43492983736257
  0
LINE
  8
_0-4_図枠
  6
CONTINUOUS
 62
    7
 10
334.02562498647399
 20
97.434929837362461
 11
125.02562498647399
 21
97.434929837362461
  0
LINE
  8
_0-4_図枠
  6
CONTINUOUS
 62
    7
 10
334.02562498647399
 20
88.434929837362461
 11
125.02562498647399
 21
88.434929837362461
  0
LINE
  8
_0-4_図枠
  6
CONTINUOUS
 62
    7
 10
334.02562498647399
 20
79.434929837362461
 11
125.02562498647399
 21
79.434929837362461
  0
LINE
  8
_0-4_図枠
  6
CONTINUOUS
 62
    7
 10
334.02562498647399
 20
70.434929837362461
 11
125.02562498647399
 21
70.434929837362461
  0
LINE
  8
_0-4_図枠
  6
CONTINUOUS
 62
    7
 10
334.02562498647399
 20
61.434929837362517
 11
125.02562498647399
 21
61.434929837362517
  0
LINE
  8
_0-4_図枠
  6
CONTINUOUS
 62
    7
 10
334.02562498647399
 20
52.434929837362631
 11
125.02562498647399
 21
52.434929837362631
  0
LINE
  8
_0-4_図枠
  6
CONTINUOUS
 62
    7
 10
334.02562498647399
 20
43.434929837362631
 11
125.02562498647399
 21
43.434929837362631
  0
LINE
  8
_0-4_図枠
  6
CONTINUOUS
 62
    7
 10
334.02562498647399
 20
34.434929837362688
 11
125.02562498647399
 21
34.434929837362688
  0
LINE
  8
_0-4_図枠
  6
CONTINUOUS
 62
    7
 10
334.02562498647399
 20
25.434929837362631
 11
125.02562498647399
 21
25.434929837362631
  0
LINE
  8
_0-4_図枠
  6
CONTINUOUS
 62
    7
 10
334.02562498647399
 20
16.434929837362517
 11
125.02562498647399
 21
16.434929837362517
  0
TEXT
  8
_0-4_図枠
 62
    7
 10
127.02562498647399
 20
206.93492983736257
 40
5
 41
1
 50
0
  1
No.
  0
TEXT
  8
_0-4_図枠
 62
    7
 10
128.77562498647399
 20
197.93492983736257
 40
5
 41
1
 50
0
  1
 1
  0
TEXT
  8
_0-4_図枠
 62
    7
 10
128.77562498647399
 20
188.93492983736246
 40
5
 41
1
 50
0
  1
 2
  0
TEXT
  8
_0-4_図枠
 62
    7
 10
128.77562498647399
 20
179.93492983736246
 40
5
 41
1
 50
0
  1
 3
  0
TEXT
  8
_0-4_図枠
 62
    7
 10
128.77562498647399
 20
170.93492983736246
 40
5
 41
1
 50
0
  1
 4
  0
TEXT
  8
_0-4_図枠
 62
    7
 10
128.77562498647399
 20
161.93492983736246
 40
5
 41
1
 50
0
  1
 5
  0
TEXT
  8
_0-4_図枠
 62
    7
 10
128.77562498647399
 20
152.93492983736257
 40
5
 41
1
 50
0
  1
 6
  0
TEXT
  8
_0-4_図枠
 62
    7
 10
128.77562498647399
 20
143.93492983736257
 40
5
 41
1
 50
0
  1
 7
  0
TEXT
  8
_0-4_図枠
 62
    7
 10
128.77562498647399
 20
134.93492983736246
 40
5
 41
1
 50
0
  1
 8
  0
TEXT
  8
_0-4_図枠
 62
    7
 10
128.77562498647399
 20
125.93492983736246
 40
5
 41
1
 50
0
  1
 9
  0
TEXT
  8
_0-4_図枠
 62
    7
 10
128.77562498647399
 20
116.93492983736246
 40
5
 41
1
 50
0
  1
10
  0
TEXT
  8
_0-4_図枠
 62
    7
 10
128.77562498647399
 20
107.93492983736246
 40
5
 41
1
 50
0
  1
11
  0
TEXT
  8
_0-4_図枠
 62
    7
 10
128.77562498647399
 20
98.934929837362461
 40
5
 41
1
 50
0
  1
12
  0
TEXT
  8
_0-4_図枠
 62
    7
 10
128.77562498647399
 20
89.934929837362574
 40
5
 41
1
 50
0
  1
13
  0
TEXT
  8
_0-4_図枠
 62
    7
 10
128.77562498647399
 20
80.934929837362461
 40
5
 41
1
 50
0
  1
14
  0
TEXT
  8
_0-4_図枠
 62
    7
 10
128.77562498647399
 20
71.934929837362461
 40
5
 41
1
 50
0
  1
15
  0
TEXT
  8
_0-4_図枠
 62
    7
 10
128.77562498647399
 20
62.934929837362461
 40
5
 41
1
 50
0
  1
16
  0
TEXT
  8
_0-4_図枠
 62
    7
 10
128.77562498647399
 20
53.934929837362631
 40
5
 41
1
 50
0
  1
17
  0
TEXT
  8
_0-4_図枠
 62
    7
 10
128.77562498647399
 20
44.934929837362517
 40
5
 41
1
 50
0
  1
18
  0
TEXT
  8
_0-4_図枠
 62
    7
 10
128.77562498647399
 20
35.934929837362631
 40
5
 41
1
 50
0
  1
19
  0
TEXT
  8
_0-4_図枠
 62
    7
 10
128.77562498647399
 20
26.934929837362631
 40
5
 41
1
 50
0
  1
20
  0
TEXT
  8
_0-4_図枠
 62
    7
 10
128.77562498647399
 20
17.934929837362517
 40
5
 41
1
 50
0
  1
21
  0
TEXT
  8
_0-4_図枠
 62
    7
 10
144.02562498647399
 20
197.93492983736257
 40
5
 41
1
 50
0
  1
ＦＹＫキャップＳ
  0
TEXT
  8
_0-4_図枠
 62
    7
 10
144.02562498647399
 20
188.93492983736246
 40
5
 41
1
 50
0
  1
ＦＹＫサイドキャップＳ
  0
LINE
  8
_0-4_図枠
  6
CONTINUOUS
 62
    7
 10
335.02562498647399
 20
214.43492983736246
 11
402.02562498647399
 21
214.43492983736246
  0
LINE
  8
_0-4_図枠
  6
CONTINUOUS
 62
    7
 10
335.02562498647399
 20
205.43492983736246
 11
402.02562498647399
 21
205.43492983736246
  0
LINE
  8
_0-4_図枠
  6
CONTINUOUS
 62
    7
 10
335.02562498647399
 20
196.43492983736246
 11
402.02562498647399
 21
196.43492983736246
  0
LINE
  8
_0-4_図枠
  6
CONTINUOUS
 62
    7
 10
335.02562498647399
 20
187.43492983736246
 11
402.02562498647399
 21
187.43492983736246
  0
LINE
  8
_0-4_図枠
  6
CONTINUOUS
 62
    7
 10
335.02562498647399
 20
178.43492983736246
 11
402.02562498647399
 21
178.43492983736246
  0
LINE
  8
_0-4_図枠
  6
CONTINUOUS
 62
    7
 10
335.02562498647399
 20
169.43492983736257
 11
402.02562498647399
 21
169.43492983736257
  0
LINE
  8
_0-4_図枠
  6
CONTINUOUS
 62
    7
 10
335.02562498647399
 20
160.43492983736257
 11
402.02562498647399
 21
160.43492983736257
  0
LINE
  8
_0-4_図枠
  6
CONTINUOUS
 62
    7
 10
335.02562498647399
 20
151.43492983736246
 11
402.02562498647399
 21
151.43492983736246
  0
LINE
  8
_0-4_図枠
  6
CONTINUOUS
 62
    7
 10
335.02562498647399
 20
142.43492983736246
 11
402.02562498647399
 21
142.43492983736246
  0
LINE
  8
_0-4_図枠
  6
CONTINUOUS
 62
    7
 10
335.02562498647399
 20
133.43492983736246
 11
402.02562498647399
 21
133.43492983736246
  0
LINE
  8
_0-4_図枠
  6
CONTINUOUS
 62
    7
 10
335.02562498647399
 20
124.43492983736246
 11
402.02562498647399
 21
124.43492983736246
  0
LINE
  8
_0-4_図枠
  6
CONTINUOUS
 62
    7
 10
335.02562498647399
 20
115.43492983736257
 11
402.02562498647399
 21
115.43492983736257
  0
LINE
  8
_0-4_図枠
  6
CONTINUOUS
 62
    7
 10
335.02562498647399
 20
106.43492983736257
 11
402.02562498647399
 21
106.43492983736257
  0
LINE
  8
_0-4_図枠
  6
CONTINUOUS
 62
    7
 10
335.02562498647399
 20
97.434929837362461
 11
402.02562498647399
 21
97.434929837362461
  0
LINE
  8
_0-4_図枠
  6
CONTINUOUS
 62
    7
 10
335.02562498647399
 20
88.434929837362461
 11
402.02562498647399
 21
88.434929837362461
  0
LINE
  8
_0-4_図枠
  6
CONTINUOUS
 62
    7
 10
335.02562498647399
 20
79.434929837362461
 11
402.02562498647399
 21
79.434929837362461
  0
LINE
  8
_0-4_図枠
  6
CONTINUOUS
 62
    7
 10
335.02562498647399
 20
70.434929837362461
 11
402.02562498647399
 21
70.434929837362461
  0
LINE
  8
_0-4_図枠
  6
CONTINUOUS
 62
    7
 10
335.02562498647399
 20
61.434929837362517
 11
402.02562498647399
 21
61.434929837362517
  0
LINE
  8
_0-4_図枠
  6
CONTINUOUS
 62
    7
 10
335.02562498647399
 20
52.434929837362631
 11
402.02562498647399
 21
52.434929837362631
  0
LINE
  8
_0-4_図枠
  6
CONTINUOUS
 62
    7
 10
335.02562498647399
 20
43.434929837362631
 11
402.02562498647399
 21
43.434929837362631
  0
LINE
  8
_0-4_図枠
  6
CONTINUOUS
 62
    7
 10
335.02562498647399
 20
34.434929837362688
 11
402.02562498647399
 21
34.434929837362688
  0
LINE
  8
_0-4_図枠
  6
CONTINUOUS
 62
    7
 10
335.02562498647399
 20
25.434929837362631
 11
402.02562498647399
 21
25.434929837362631
  0
LINE
  8
_0-4_図枠
  6
CONTINUOUS
 62
    7
 10
335.02562498647399
 20
16.434929837362517
 11
402.02562498647399
 21
16.434929837362517
  0
TEXT
  8
_0-4_図枠
 62
    7
 10
372.52562498647399
 20
206.93492983736257
 40
5
 41
1
 50
0
  1
入数
  0
TEXT
  8
_0-4_図枠
 62
    7
 10
392.02562498647399
 20
197.93492983736257
 40
5
 41
1
 50
0
  1
本
  0
TEXT
  8
_0-4_図枠
 62
    7
 10
392.02562498647399
 20
188.93492983736246
 40
5
 41
1
 50
0
  1
〃
  0
TEXT
  8
_0-4_図枠
 62
    7
 10
392.02562498647399
 20
179.93492983736246
 40
5
 41
1
 50
0
  1
〃
  0
TEXT
  8
_0-4_図枠
 62
    7
 10
392.02562498647399
 20
170.93492983736246
 40
5
 41
1
 50
0
  1
〃
  0
TEXT
  8
_0-4_図枠
 62
    7
 10
392.02562498647399
 20
152.93492983736257
 40
5
 41
1
 50
0
  1
〃
  0
TEXT
  8
_0-4_図枠
 62
    7
 10
392.02562498647399
 20
143.93492983736257
 40
5
 41
1
 50
0
  1
〃
  0
TEXT
  8
_0-4_図枠
 62
    7
 10
392.02562498647399
 20
134.93492983736246
 40
5
 41
1
 50
0
  1
〃
  0
TEXT
  8
_0-4_図枠
 62
    7
 10
392.02562498647399
 20
125.93492983736246
 40
5
 41
1
 50
0
  1
〃
  0
TEXT
  8
_0-4_図枠
 62
    7
 10
392.02562498647399
 20
116.93492983736246
 40
5
 41
1
 50
0
  1
〃
  0
TEXT
  8
_0-4_図枠
 62
    7
 10
392.02562498647399
 20
98.934929837362461
 40
5
 41
1
 50
0
  1
〃
  0
TEXT
  8
_0-4_図枠
 62
    7
 10
392.02562498647399
 20
89.934929837362574
 40
5
 41
1
 50
0
  1
本
  0
TEXT
  8
_0-4_図枠
 62
    7
 10
392.02562498647399
 20
80.934929837362461
 40
5
 41
1
 50
0
  1
〃
  0
TEXT
  8
_0-4_図枠
 62
    7
 10
392.02562498647399
 20
71.934929837362461
 40
5
 41
1
 50
0
  1
〃
  0
TEXT
  8
_0-4_図枠
 62
    7
 10
392.02562498647399
 20
62.934929837362461
 40
5
 41
1
 50
0
  1
〃
  0
TEXT
  8
_0-4_図枠
 62
    7
 10
392.02562498647399
 20
53.934929837362631
 40
5
 41
1
 50
0
  1
〃
  0
TEXT
  8
_0-4_図枠
 62
    7
 10
392.02562498647399
 20
44.934929837362517
 40
5
 41
1
 50
0
  1
〃
  0
TEXT
  8
_0-4_図枠
 62
    7
 10
392.02562498647399
 20
35.934929837362631
 40
5
 41
1
 50
0
  1
〃
  0
TEXT
  8
_0-4_図枠
 62
    7
 10
392.02562498647399
 20
26.934929837362631
 40
5
 41
1
 50
0
  1
枚
  0
TEXT
  8
_0-4_図枠
 62
    7
 10
392.02562498647399
 20
17.934929837362517
 40
5
 41
1
 50
0
  1
〃
  0
TEXT
  8
_0-4_図枠
 62
    7
 10
388.52562498647399
 20
206.93492983736257
 40
5
 41
1
 50
0
  1
単位
  0
LINE
  8
_0-4_図枠
  6
CONTINUOUS
 62
    7
 10
647.02562498647399
 20
196.43492983736246
 11
422.02562498647399
 21
196.43492983736246
  0
LINE
  8
_0-4_図枠
  6
CONTINUOUS
 62
    7
 10
647.02562498647399
 20
214.43492983736246
 11
422.02562498647399
 21
214.43492983736246
  0
LINE
  8
_0-4_図枠
  6
CONTINUOUS
 62
    7
 10
647.02562498647399
 20
205.43492983736246
 11
422.02562498647399
 21
205.43492983736246
  0
TEXT
  8
_0-4_図枠
 62
    7
 10
442.52562498647399
 20
206.93492983736257
 40
5
 41
1
 50
0
  1
タ　イ　プ
  0
TEXT
  8
_0-4_図枠
 62
    7
 10
539.02562498647399
 20
206.93492983736257
 40
5
 41
1
 50
0
  1
Ａ
  0
TEXT
  8
_0-4_図枠
 62
    7
 10
509.02562498647399
 20
206.93492983736257
 40
5
 41
1
 50
0
  1
Ｗ
  0
TEXT
  8
_0-4_図枠
 62
    7
 10
569.02562498647399
 20
206.93492983736257
 40
5
 41
1
 50
0
  1
Ｃ
  0
TEXT
  8
_0-4_図枠
 62
    7
 10
599.02562498647399
 20
206.93492983736257
 40
5
 41
1
 50
0
  1
Ｄ
  0
TEXT
  8
_0-4_図枠
 62
    7
 10
629.02562498647399
 20
206.93492983736257
 40
5
 41
1
 50
0
  1
Ｅ
  0
TEXT
  8
_0-4_図枠
 62
    7
 10
606.02562498647399
 20
214.43492983736246
 40
5
 41
1
 50
0
  1
（単位：mm）
  0
LINE
  8
_0-4_図枠
  6
CONTINUOUS
 62
    7
 10
647.02562498647399
 20
196.43492983736246
 11
422.02562498647399
 21
196.43492983736246
  0
TEXT
  8
_0-4_図枠
 62
    7
 10
144.02562498647399
 20
161.93492983736257
 40
5
 41
1
 50
0
  1
ブチルテープ
  0
TEXT
  8
_0-4_図枠
 62
    7
 10
392.02562498647399
 20
161.93492983736257
 40
5
 41
1
 50
0
  1
巻
  0
TEXT
  8
_0-0_0
 62
    7
 10
144.26451510033996
 20
108.37039422024162
 40
5
 41
1
 50
0
  1
ウォーターガード
  0
TEXT
  8
_0-0_0
 62
    7
 10
392.11517307494671
 20
108.32178505495284
 40
5
 41
1
 50
0
  1
枚
  0
LINE
  8
_0-4_図枠
  6
CONTINUOUS
 62
    7
 10
125.02562498647399
 20
16.434929837362517
 11
125.02562498647399
 21
214.43492983736246
  0
LINE
  8
_0-4_図枠
  6
CONTINUOUS
 62
    7
 10
139.02562498647399
 20
16.434929837362517
 11
139.02562498647399
 21
214.43492983736246
  0
LINE
  8
_0-4_図枠
  6
CONTINUOUS
 62
    7
 10
239.02562498647399
 20
16.434929837362517
 11
239.02562498647399
 21
214.43492983736246
  0
LINE
  8
_0-4_図枠
  6
CONTINUOUS
 62
    7
 10
334.02562498647399
 20
16.434929837362517
 11
334.02562498647399
 21
214.43492983736246
  0
LINE
  8
_0-4_図枠
  6
CONTINUOUS
 62
    7
 10
335.02562498647399
 20
16.434929837362517
 11
335.02562498647399
 21
214.43492983736246
  0
LINE
  8
_0-4_図枠
  6
CONTINUOUS
 62
    7
 10
370.02562498647399
 20
16.434929837362517
 11
370.02562498647399
 21
214.43492983736246
  0
LINE
  8
_0-4_図枠
  6
CONTINUOUS
 62
    7
 10
388.02562498647399
 20
16.434929837362517
 11
388.02562498647399
 21
214.43492983736246
  0
LINE
  8
_0-4_図枠
  6
CONTINUOUS
 62
    7
 10
402.02562498647399
 20
16.434929837362517
 11
402.02562498647399
 21
214.43492983736246
  0
TEXT
  8
_0-4_図枠
 62
    7
 10
144.02562498647399
 20
80.934929837362461
 40
5
 41
1
 50
0
  1
ステン小ねじ
  0
TEXT
  8
_0-4_図枠
 62
    7
 10
144.02562498647399
 20
71.934929837362461
 40
5
 41
1
 50
0
  1
ステン小ねじ
  0
LINE
  8
_0-3_躯体と製品
  6
CONTINUOUS
 62
    7
 10
111.10759031884328
 20
441.95746485832353
 11
109.93425583317122
 21
442.8061285334511
  0
ARC
  8
_0-3_躯体と製品
  6
CONTINUOUS
 62
    7
 10
114.74300251427627
 20
443.78249018779593
 40
4
 50
210.59600537096031
 51
324.57765914528972
  0
LINE
  8
_0-3_躯体と製品
  6
CONTINUOUS
 62
    3
 10
116.95279588170212
 20
407.39019888919165
 11
118.41820265650523
 21
435.35182586231963
  0
LINE
  8
_0-3_躯体と製品
  6
CONTINUOUS
 62
    7
 10
118.39203467838325
 20
434.85251109494243
 11
133.3714776997013
 21
434.0674717512984
  0
LINE
  8
_0-3_躯体と製品
  6
CONTINUOUS
 62
    7
 10
133.16213387473027
 20
430.07295361227978
 11
133.3714776997013
 21
434.0674717512984
  0
LINE
  8
_0-3_躯体と製品
  6
CONTINUOUS
 62
    3
 10
93.251607363002279
 20
421.30134898028518
 11
93.251607363002279
 21
419.05134898028518
  0
ARC
  8
_0-3_躯体と製品
  6
CONTINUOUS
 62
    3
 10
94.251607363002279
 20
421.30134898028518
 40
1
 50
90
 51
180
  0
ARC
  8
_0-3_躯体と製品
  6
CONTINUOUS
 62
    3
 10
94.001607363002279
 20
419.05134898028518
 40
0.75
 50
180
 51
0
  0
LINE
  8
_0-3_躯体と製品
  6
CONTINUOUS
 62
    3
 10
94.751607363002279
 20
420.3013489802853
 11
94.751607363002279
 21
419.05134898028518
  0
ARC
  8
_0-3_躯体と製品
  6
CONTINUOUS
 62
    3
 10
95.251607363002279
 20
420.3013489802853
 40
0.5
 50
90
 51
180
  0
ARC
  8
_0-3_躯体と製品
  6
CONTINUOUS
 62
    3
 10
97.751607363002279
 20
452.80134898028518
 40
1.5
 50
90
 51
180
  0
LINE
  8
_0-3_躯体と製品
  6
CONTINUOUS
 62
    3
 10
96.251607363002279
 20
422.80134898028507
 11
96.251607363002279
 21
452.80134898028518
  0
ARC
  8
_0-3_躯体と製品
  6
CONTINUOUS
 62
    3
 10
95.751607363002279
 20
422.80134898028507
 40
0.5
 50
270
 51
0
  0
LINE
  8
_0-3_躯体と製品
  6
CONTINUOUS
 62
    3
 10
95.751607363002279
 20
422.30134898028518
 11
94.251607363002279
 21
422.30134898028518
  0
LINE
  8
_0-3_躯体と製品
  6
CONTINUOUS
 62
    3
 10
98.251607363002279
 20
424.30134898028518
 11
98.251607363002279
 21
452.30134898028507
  0
ARC
  8
_0-3_躯体と製品
  6
CONTINUOUS
 62
    3
 10
98.751607363002279
 20
452.30134898028507
 40
0.5
 50
90
 51
180
  0
ARC
  8
_0-3_躯体と製品
  6
CONTINUOUS
 62
    3
 10
99.251607363002279
 20
424.30134898028518
 40
1
 50
180
 51
270
  0
ARC
  8
_0-3_躯体と製品
  6
CONTINUOUS
 62
    3
 10
102.75160736300228
 20
458.80134898028518
 40
0.5
 50
0
 51
90
  0
LINE
  8
_0-3_躯体と製品
  6
CONTINUOUS
 62
    3
 10
103.25160736300228
 20
455.30134898028518
 11
103.25160736300228
 21
458.80134898028518
  0
ARC
  8
_0-3_躯体と製品
  6
CONTINUOUS
 62
    3
 10
103.75160736300228
 20
459.80134898028518
 40
1
 50
0
 51
90
  0
ARC
  8
_0-3_躯体と製品
  6
CONTINUOUS
 62
    3
 10
103.25160736300228
 20
446.80134898028507
 40
1
 50
90
 51
270
  0
ARC
  8
_0-3_躯体と製品
  6
CONTINUOUS
 62
    3
 10
102.75160736300228
 20
452.30134898028507
 40
0.5
 50
0
 51
90
  0
LINE
  8
_0-3_躯体と製品
  6
CONTINUOUS
 62
    3
 10
103.25160736300228
 20
452.30134898028507
 11
103.25160736300228
 21
447.80134898028507
  0
ARC
  8
_0-3_躯体と製品
  6
CONTINUOUS
 62
    3
 10
104.25160736300228
 20
446.30134898028518
 40
0.5
 50
270
 51
0
  0
LINE
  8
_0-3_躯体と製品
  6
CONTINUOUS
 62
    3
 10
104.25160736300228
 20
445.80134898028518
 11
103.25160736300228
 21
445.80134898028518
  0
ARC
  8
_0-3_躯体と製品
  6
CONTINUOUS
 62
    3
 10
105.75160736300228
 20
419.80134898028518
 40
1
 50
0
 51
90
  0
ARC
  8
_0-3_躯体と製品
  6
CONTINUOUS
 62
    3
 10
107.25160736300228
 20
421.30134898028518
 40
2
 50
0
 51
90
  0
LINE
  8
_0-3_躯体と製品
  6
CONTINUOUS
 62
    3
 10
98.751607363002279
 20
452.80134898028518
 11
102.75160736300228
 21
452.80134898028518
  0
LINE
  8
_0-3_躯体と製品
  6
CONTINUOUS
 62
    3
 10
107.25160736300228
 20
423.30134898028518
 11
99.251607363002279
 21
423.30134898028518
  0
LINE
  8
_0-3_躯体と製品
  6
CONTINUOUS
 62
    3
 10
102.25160736300228
 20
454.30134898028518
 11
97.751607363002279
 21
454.30134898028518
  0
LINE
  8
_0-3_躯体と製品
  6
CONTINUOUS
 62
    3
 10
105.75160736300228
 20
420.80134898028518
 11
95.251607363002279
 21
420.80134898028518
  0
ARC
  8
_0-3_躯体と製品
  6
CONTINUOUS
 62
    3
 10
102.25160736300228
 20
455.30134898028518
 40
1
 50
270
 51
0
  0
LINE
  8
_0-3_躯体と製品
  6
CONTINUOUS
 62
    3
 10
104.75160736300228
 20
446.30134898028518
 11
104.75160736300228
 21
459.80134898028518
  0
ARC
  8
_0-3_躯体と製品
  6
CONTINUOUS
 62
    3
 10
96.151607363002142
 20
457.90134898028521
 40
0.5999999999999996
 50
180
 51
0
  0
ARC
  8
_0-3_躯体と製品
  6
CONTINUOUS
 62
    3
 10
91.901607363002142
 20
466.05134898028518
 40
0.75
 50
0
 51
180
  0
LINE
  8
_0-3_躯体と製品
  6
CONTINUOUS
 62
    3
 10
92.651607363002142
 20
466.05134898028518
 11
92.651607363002142
 21
462.80134898028518
  0
LINE
  8
_0-3_躯体と製品
  6
CONTINUOUS
 62
    3
 10
92.651607363002142
 20
462.80134898028518
 11
96.151607363002142
 21
460.80134898028518
  0
LINE
  8
_0-3_躯体と製品
  6
CONTINUOUS
 62
    3
 10
96.751607363002279
 20
458.80134898028518
 11
96.751607363002279
 21
457.90134898028521
  0
ARC
  8
_0-3_躯体と製品
  6
CONTINUOUS
 62
    3
 10
97.251607363002279
 20
458.80134898028518
 40
0.5
 50
90
 51
180
  0
LINE
  8
_0-3_躯体と製品
  6
CONTINUOUS
 62
    3
 10
103.75160736300228
 20
460.80134898028518
 11
96.151607363002142
 21
460.80134898028518
  0
LINE
  8
_0-3_躯体と製品
  6
CONTINUOUS
 62
    3
 10
97.251607363002279
 20
459.30134898028507
 11
102.75160736300228
 21
459.30134898028507
  0
ARC
  8
_0-3_躯体と製品
  6
CONTINUOUS
 62
    3
 10
116.87216876426925
 20
415.4054031453494
 40
0.5
 50
357.00000000000108
 51
86.999999999994444
  0
LINE
  8
_0-3_躯体と製品
  6
CONTINUOUS
 62
    3
 10
116.39902197501311
 20
415.93088589084823
 11
116.89833674239009
 21
415.90471791272682
  0
ARC
  8
_0-3_躯体と製品
  6
CONTINUOUS
 62
    3
 10
116.37285399689114
 20
415.43157112347103
 40
0.5
 50
86.999999999994415
 51
177.00000000000111
  0
LINE
  8
_0-3_躯体と製品
  6
CONTINUOUS
 62
    3
 10
115.76886731702808
 20
413.46048003208352
 11
115.87353922951417
 21
415.45773910159232
  0
ARC
  8
_0-3_躯体と製品
  6
CONTINUOUS
 62
    3
 10
115.26955254965111
 20
413.4866480102047
 40
0.5
 50
266.99999999999437
 51
357.00000000000108
  0
ARC
  8
_0-3_躯体と製品
  6
CONTINUOUS
 62
    3
 10
116.50581707056818
 20
408.41499640206757
 40
0.5
 50
266.99999999999437
 51
357.00000000000108
  0
LINE
  8
_0-3_躯体と製品
  6
CONTINUOUS
 62
    3
 10
115.98033432506924
 20
407.94184961281167
 11
116.47964909244621
 21
407.91568163469037
  0
ARC
  8
_0-3_躯体と製品
  6
CONTINUOUS
 62
    3
 10
116.00650230319121
 20
408.44116438018909
 40
0.5
 50
177.00000000000111
 51
266.99999999999437
  0
LINE
  8
_0-3_躯体と製品
  6
CONTINUOUS
 62
    3
 10
115.55952349205614
 20
409.46596189306513
 11
115.5071875358131
 21
408.4673323583105
  0
ARC
  8
_0-3_躯体と製品
  6
CONTINUOUS
 62
    3
 10
115.06020872467917
 20
409.49212987118665
 40
0.5
 50
357.00000000000108
 51
86.999999999994444
  0
LINE
  8
_0-3_躯体と製品
  6
CONTINUOUS
 62
    3
 10
109.25160736300228
 20
414.25031354700013
 11
109.25160736300228
 21
421.30134898028518
  0
LINE
  8
_0-3_躯体と製品
  6
CONTINUOUS
 62
    3
 10
110.19927140675924
 20
413.25168401224562
 11
115.24338457152913
 21
412.98733324282773
  0
ARC
  8
_0-3_躯体と製品
  6
CONTINUOUS
 62
    3
 10
110.25160736300228
 20
414.25031354700013
 40
1
 50
180
 51
266.99999999999437
  0
LINE
  8
_0-3_躯体と製品
  6
CONTINUOUS
 62
    3
 10
106.75160736300228
 20
412.32618052392877
 11
106.75160736300228
 21
419.80134898028518
  0
LINE
  8
_0-3_躯体と製品
  6
CONTINUOUS
 62
    3
 10
108.6469354505162
 20
410.32892145441963
 11
115.08637670280024
 21
409.99144463856373
  0
ARC
  8
_0-3_躯体と製品
  6
CONTINUOUS
 62
    3
 10
108.75160736300228
 20
412.32618052392877
 40
2
 50
180
 51
266.99999999999437
  0
LINE
  8
_0-3_躯体と製品
  6
CONTINUOUS
 62
    3
 10
91.151607363002142
 20
462.80134898028518
 11
91.151607363002142
 21
466.05134898028518
  0
ARC
  8
_0-3_躯体と製品
  6
CONTINUOUS
 62
    3
 10
92.651607363002142
 20
462.80134898028518
 40
1.5
 50
180
 51
240.25511870305937
  0
LINE
  8
_0-3_躯体と製品
  6
CONTINUOUS
 62
    3
 10
91.907398955466135
 20
461.49898426709865
 11
95.551607363002233
 21
459.41657946279258
  0
LINE
  8
_0-3_躯体と製品
  6
CONTINUOUS
 62
    3
 10
95.551607363002233
 20
459.41657946279258
 11
95.551607363002233
 21
457.90134898028521
  0
LINE
  8
_0-3_躯体と製品
  6
DASHED1
 62
    7
 10
117.24064364103816
 20
412.88266133034165
 11
145.70158538154311
 21
411.39108657741781
  0
ARC
  8
_0-3_躯体と製品
  6
DASHED1
 62
    7
 10
145.62308144717923
 20
409.89314227528598
 40
1.5000000000000011
 50
266.99999999999437
 51
86.999999999994429
  0
LINE
  8
_0-3_躯体と製品
  6
DASHED1
 62
    7
 10
142.04937414117427
 20
408.57837382000423
 11
145.54457751281512
 21
408.39519797315404
  0
LINE
  8
_0-3_躯体と製品
  6
DASHED1
 62
    7
 10
142.04937414117427
 20
408.57837382000423
 11
142.10171009741708
 21
409.57700335475863
  0
LINE
  8
_0-3_躯体と製品
  6
DASHED1
 62
    7
 10
122.12911940232522
 20
410.62372247961753
 11
142.10171009741708
 21
409.57700335475863
  0
LINE
  8
_0-3_躯体と製品
  6
DASHED1
 62
    7
 10
122.07678344608217
 20
409.62509294486313
 11
122.12911940232522
 21
410.62372247961753
  0
LINE
  8
_0-3_躯体と製品
  6
DASHED1
 62
    7
 10
117.08363577231017
 20
409.88677272607777
 11
122.07678344608217
 21
409.62509294486313
  0
LINE
  8
_0-3_躯体と製品
  6
CONTINUOUS
 62
    4
 10
118.95817127710717
 20
435.32352730603168
 11
118.44368279103429
 21
435.83801579210467
  0
LINE
  8
_0-3_躯体と製品
  6
CONTINUOUS
 62
    4
 10
118.72265947401416
 20
430.82969439963642
 11
118.20817098794129
 21
431.34418288570896
  0
LINE
  8
_0-3_躯体と製品
  6
CONTINUOUS
 62
    4
 10
120.21508789570527
 20
430.75147954031661
 11
118.27859596359718
 21
432.68797147242503
  0
LINE
  8
_0-3_躯体と製品
  6
CONTINUOUS
 62
    4
 10
121.7075163173991
 20
430.67326468099657
 11
118.34902093925331
 21
434.03176005914281
  0
LINE
  8
_0-3_躯体と製品
  6
CONTINUOUS
 62
    4
 10
123.19994473909225
 20
430.59504982167653
 11
118.97292672815826
 21
434.82206783261063
  0
LINE
  8
_0-3_躯体と製品
  6
CONTINUOUS
 62
    4
 10
124.69237316078517
 20
430.51683496235648
 11
120.46535514985118
 21
434.7438529732907
  0
LINE
  8
_0-3_躯体と製品
  6
CONTINUOUS
 62
    4
 10
126.18480158247809
 20
430.43862010303678
 11
121.9577835715441
 21
434.66563811397089
  0
LINE
  8
_0-3_躯体と製品
  6
CONTINUOUS
 62
    4
 10
127.67723000417124
 20
430.36040524371731
 11
123.45021199323725
 21
434.58742325465118
  0
LINE
  8
_0-3_躯体と製品
  6
CONTINUOUS
 62
    4
 10
129.16965842586416
 20
430.28219038439715
 11
124.94264041493017
 21
434.50920839533137
  0
LINE
  8
_0-3_躯体と製品
  6
CONTINUOUS
 62
    4
 10
130.6620868475573
 20
430.20397552507779
 11
126.43506883662423
 21
434.43099353601133
  0
LINE
  8
_0-3_躯体と製品
  6
CONTINUOUS
 62
    4
 10
132.15451526924818
 20
430.12576066575798
 11
127.9274972583151
 21
434.3527786766914
  0
LINE
  8
_0-3_躯体と製品
  6
CONTINUOUS
 62
    4
 10
133.18501116586714
 20
430.5094783315127
 11
129.41992568000825
 21
434.27456381737193
  0
LINE
  8
_0-3_躯体と製品
  6
CONTINUOUS
 62
    4
 10
133.32586111717825
 20
433.19705550494814
 11
132.40478252339409
 21
434.11813409873218
  0
LINE
  8
_0-3_躯体と製品
  6
CONTINUOUS
 62
    4
 10
133.25543614152213
 20
431.8532669182307
 11
130.91235410170117
 21
434.19634895805211
  0
LINE
  8
_0-3_躯体と製品
  6
DASHED1
 62
    7
 10
56.360261363002166
 20
439.95068298028514
 11
56.464931363002108
 21
441.94794198028524
  0
LINE
  8
_0-3_躯体と製品
  6
DASHED1
 62
    7
 10
74.251607363002279
 20
440.80134798028541
 11
86.251607363002279
 21
440.80134798028541
  0
LINE
  8
_0-3_躯体と製品
  6
DASHED1
 62
    7
 10
66.451226363002263
 20
432.17811198028505
 11
71.109206363002215
 21
430.48274598028524
  0
LINE
  8
_0-3_躯体と製品
  6
DASHED1
 62
    7
 10
78.055247363002138
 20
443.12368698028513
 11
71.451227363002147
 21
442.18025598028521
  0
LINE
  8
_0-3_躯体と製品
  6
DASHED1
 62
    7
 10
52.121051363002209
 20
434.93190198028537
 11
50.251607363002279
 21
436.80134898028518
  0
LINE
  8
_0-3_躯体と製品
  6
DASHED1
 62
    7
 10
51.471785363002084
 20
431.39307198028541
 11
49.474526363002099
 21
431.28840198028524
  0
LINE
  8
_0-3_躯体と製品
  6
DASHED1
 62
    7
 10
51.367112363002263
 20
433.39033098028551
 11
51.471785363002084
 21
431.39307198028541
  0
LINE
  8
_0-3_躯体と製品
  6
DASHED1
 62
    7
 10
53.364371363002249
 20
433.49500398028511
 11
51.367112363002263
 21
433.39033098028551
  0
LINE
  8
_0-3_躯体と製品
  6
DASHED1
 62
    7
 10
54.467672363002123
 20
431.55007998028509
 11
53.364371363002249
 21
433.49500398028511
  0
LINE
  8
_0-3_躯体と製品
  6
DASHED1
 62
    7
 10
56.464931363002108
 20
431.65475298028514
 11
54.467672363002123
 21
431.55007998028509
  0
LINE
  8
_0-3_躯体と製品
  6
DASHED1
 62
    7
 10
56.360261363002166
 20
433.65201198028524
 11
56.464931363002108
 21
431.65475298028514
  0
LINE
  8
_0-3_躯体と製品
  6
DASHED1
 62
    7
 10
58.357520363002152
 20
433.7566849802854
 11
56.360261363002166
 21
433.65201198028524
  0
LINE
  8
_0-3_躯体と製品
  6
DASHED1
 62
    7
 10
59.460821363002253
 20
431.81176098028504
 11
58.357520363002152
 21
433.7566849802854
  0
LINE
  8
_0-3_躯体と製品
  6
DASHED1
 62
    7
 10
61.458080363002239
 20
431.91643398028509
 11
59.460821363002253
 21
431.81176098028504
  0
LINE
  8
_0-3_躯体と製品
  6
DASHED1
 62
    7
 10
61.353407363002191
 20
433.91369298028508
 11
61.458080363002239
 21
431.91643398028509
  0
LINE
  8
_0-3_躯体と製品
  6
DASHED1
 62
    7
 10
63.350666363002176
 20
434.01836298028525
 11
61.353407363002191
 21
433.91369298028508
  0
LINE
  8
_0-3_躯体と製品
  6
DASHED1
 62
    7
 10
64.453967363002278
 20
432.07344198028545
 11
63.350666363002176
 21
434.01836298028525
  0
LINE
  8
_0-3_躯体と製品
  6
DASHED1
 62
    7
 10
66.451226363002263
 20
432.17811198028505
 11
64.453967363002278
 21
432.07344198028545
  0
LINE
  8
_0-3_躯体と製品
  6
DASHED1
 62
    7
 10
66.346556363002094
 20
434.17537098028527
 11
66.451226363002263
 21
432.17811198028505
  0
LINE
  8
_0-3_躯体と製品
  6
DASHED1
 62
    7
 10
68.343815363002307
 20
434.28004398028554
 11
66.346556363002094
 21
434.17537098028527
  0
LINE
  8
_0-3_躯体と製品
  6
DASHED1
 62
    7
 10
69.447116363002181
 20
432.33511998028541
 11
68.343815363002307
 21
434.28004398028554
  0
LINE
  8
_0-3_躯体と製品
  6
DASHED1
 62
    7
 10
47.294090363002226
 20
434.67893298028525
 11
78.251606363002168
 21
436.30134798028541
  0
LINE
  8
_0-3_躯体と製品
  6
DASHED1
 62
    7
 10
47.372594363002293
 20
433.18098798028518
 11
47.294090363002226
 21
434.67893298028525
  0
LINE
  8
_0-3_躯体と製品
  6
DASHED1
 62
    7
 10
49.474526363002099
 20
431.28840198028524
 11
47.372594363002293
 21
433.18098798028518
  0
LINE
  8
_0-3_躯体と製品
  6
DASHED1
 62
    7
 10
49.291349363002212
 20
434.78360598028553
 11
49.474526363002099
 21
431.28840198028524
  0
LINE
  8
_0-3_躯体と製品
  6
DASHED1
 62
    7
 10
71.444375363002166
 20
432.43979298028512
 11
69.447116363002181
 21
432.33511998028541
  0
LINE
  8
_0-3_躯体と製品
  6
DASHED1
 62
    7
 10
71.339702363002118
 20
434.43705198028533
 11
71.444375363002166
 21
432.43979298028512
  0
LINE
  8
_0-3_躯体と製品
  6
DASHED1
 62
    7
 10
73.336961363002104
 20
434.54172198028505
 11
71.339702363002118
 21
434.43705198028533
  0
LINE
  8
_0-3_躯体と製品
  6
DASHED1
 62
    7
 10
86.251607363002279
 20
431.80134798028541
 11
81.251606363002168
 21
432.80134698028542
  0
LINE
  8
_0-3_躯体と製品
  6
DASHED1
 62
    7
 10
78.251606363002168
 20
436.30134798028541
 11
78.251606363002168
 21
437.30134698028542
  0
LINE
  8
_0-3_躯体と製品
  6
DASHED1
 62
    7
 10
51.471785363002084
 20
442.20962298028542
 11
49.474526363002099
 21
442.31429298028513
  0
LINE
  8
_0-3_躯体と製品
  6
DASHED1
 62
    7
 10
51.367112363002263
 20
440.21236398028543
 11
51.471785363002084
 21
442.20962298028542
  0
LINE
  8
_0-3_躯体と製品
  6
DASHED1
 62
    7
 10
53.364371363002249
 20
440.10769098028527
 11
51.367112363002263
 21
440.21236398028543
  0
LINE
  8
_0-3_躯体と製品
  6
DASHED1
 62
    7
 10
54.467672363002123
 20
442.05261498028528
 11
53.364371363002249
 21
440.10769098028527
  0
LINE
  8
_0-3_躯体と製品
  6
DASHED1
 62
    7
 10
56.464931363002108
 20
441.94794198028524
 11
54.467672363002123
 21
442.05261498028528
  0
LINE
  8
_0-3_躯体と製品
  6
DASHED1
 62
    7
 10
58.357520363002152
 20
439.8460099802852
 11
56.360261363002166
 21
439.95068298028514
  0
LINE
  8
_0-3_躯体と製品
  6
DASHED1
 62
    7
 10
59.460821363002253
 20
441.79093398028522
 11
58.357520363002152
 21
439.8460099802852
  0
LINE
  8
_0-3_躯体と製品
  6
DASHED1
 62
    7
 10
61.458080363002239
 20
441.68626098028528
 11
59.460821363002253
 21
441.79093398028522
  0
LINE
  8
_0-3_躯体と製品
  6
DASHED1
 62
    7
 10
61.353407363002191
 20
439.68900198028552
 11
61.458080363002239
 21
441.68626098028528
  0
LINE
  8
_0-3_躯体と製品
  6
DASHED1
 62
    7
 10
63.350666363002176
 20
439.58433198028513
 11
61.353407363002191
 21
439.68900198028552
  0
LINE
  8
_0-3_躯体と製品
  6
DASHED1
 62
    7
 10
64.453967363002278
 20
441.52925298028526
 11
63.350666363002176
 21
439.58433198028513
  0
LINE
  8
_0-3_躯体と製品
  6
DASHED1
 62
    7
 10
66.451226363002263
 20
441.42458298028509
 11
64.453967363002278
 21
441.52925298028526
  0
LINE
  8
_0-3_躯体と製品
  6
DASHED1
 62
    7
 10
66.346556363002094
 20
439.42732398028534
 11
66.451226363002263
 21
441.42458298028509
  0
LINE
  8
_0-3_躯体と製品
  6
DASHED1
 62
    7
 10
68.343815363002307
 20
439.32265098028518
 11
66.346556363002094
 21
439.42732398028534
  0
LINE
  8
_0-3_躯体と製品
  6
DASHED1
 62
    7
 10
69.447116363002181
 20
441.26757498028542
 11
68.343815363002307
 21
439.32265098028518
  0
LINE
  8
_0-3_躯体と製品
  6
DASHED1
 62
    7
 10
47.294090363002226
 20
438.92376198028524
 11
78.251606363002168
 21
437.30134698028542
  0
LINE
  8
_0-3_躯体と製品
  6
DASHED1
 62
    7
 10
47.372594363002293
 20
440.42170698028553
 11
47.294090363002226
 21
438.92376198028524
  0
LINE
  8
_0-3_躯体と製品
  6
DASHED1
 62
    7
 10
49.474526363002099
 20
442.31429298028513
 11
47.372594363002293
 21
440.42170698028553
  0
LINE
  8
_0-3_躯体と製品
  6
DASHED1
 62
    7
 10
49.291349363002212
 20
438.81908898028553
 11
49.474526363002099
 21
442.31429298028513
  0
LINE
  8
_0-3_躯体と製品
  6
DASHED1
 62
    7
 10
71.444375363002166
 20
441.16290198028514
 11
69.447116363002181
 21
441.26757498028542
  0
LINE
  8
_0-3_躯体と製品
  6
DASHED1
 62
    7
 10
71.339702363002118
 20
439.16564298028538
 11
71.444375363002166
 21
441.16290198028514
  0
LINE
  8
_0-3_躯体と製品
  6
DASHED1
 62
    7
 10
73.336961363002104
 20
439.06097298028521
 11
71.339702363002118
 21
439.16564298028538
  0
LINE
  8
_0-3_躯体と製品
  6
DASHED1
 62
    7
 10
52.121051363002209
 20
438.67079298028523
 11
50.251607363002279
 21
436.80134898028518
  0
LINE
  8
_0-3_躯体と製品
  6
DASHED1
 62
    7
 10
81.251606363002168
 20
436.80134898028518
 11
86.251607363002279
 21
436.80134898028518
  0
LINE
  8
_0-3_躯体と製品
  6
DASHED1
 62
    7
 10
86.251607363002279
 20
435.80134698028553
 11
81.251606363002168
 21
436.80134898028518
  0
LINE
  8
_0-3_躯体と製品
  6
DASHED1
 62
    7
 10
86.251607363002279
 20
437.80134798028507
 11
81.251606363002168
 21
436.80134898028518
  0
LINE
  8
_0-3_躯体と製品
  6
DASHED1
 62
    7
 10
86.251607363002279
 20
441.80134698028542
 11
81.251606363002168
 21
440.80134798028541
  0
LINE
  8
_0-3_躯体と製品
  6
DASHED1
 62
    7
 10
74.251607363002279
 20
440.80134798028541
 11
73.336961363002104
 21
439.06097298028521
  0
ARC
  8
_0-3_躯体と製品
  6
DASHED1
 62
    7
 10
77.998679363002168
 20
443.51966598028514
 40
0.3999990000000001
 50
278.13010199999781
 51
8.1301020000015125
  0
LINE
  8
_0-3_躯体と製品
  6
DASHED1
 62
    7
 10
78.366542363002111
 20
443.77306098028521
 11
78.394658363002293
 21
443.57623698028522
  0
ARC
  8
_0-3_躯体と製品
  6
DASHED1
 62
    7
 10
77.970560363002107
 20
443.71649298028524
 40
0.3999990000000001
 50
8.1301020000014788
 51
98.29846599999712
  0
LINE
  8
_0-3_躯体と製品
  6
DASHED1
 62
    7
 10
71.109206363002215
 20
443.11994898028513
 11
77.91282836300212
 21
444.11230398028533
  0
LINE
  8
_0-3_躯体と製品
  6
DASHED1
 62
    7
 10
78.055247363002138
 20
430.47900798028525
 11
71.451227363002147
 21
431.42243898028516
  0
ARC
  8
_0-3_躯体と製品
  6
DASHED1
 62
    7
 10
77.998679363002168
 20
430.08302898028523
 40
0.3999990000000001
 50
351.8698979999985
 51
81.869898000002181
  0
LINE
  8
_0-3_躯体と製品
  6
DASHED1
 62
    7
 10
78.366542363002111
 20
429.82963398028528
 11
78.394658363002293
 21
430.02646098028515
  0
ARC
  8
_0-3_躯体と製品
  6
DASHED1
 62
    7
 10
77.970560363002107
 20
429.88620198028502
 40
0.3999990000000001
 50
261.70153400000288
 51
351.8698979999985
  0
LINE
  8
_0-3_躯体と製品
  6
DASHED1
 62
    7
 10
71.109206363002215
 20
430.48274598028524
 11
77.91282836300212
 21
429.49039098028504
  0
LINE
  8
_0-3_躯体と製品
  6
DASHED1
 62
    7
 10
66.451226363002263
 20
433.24228998028514
 11
71.451227363002147
 21
431.42243898028516
  0
LINE
  8
_0-3_躯体と製品
  6
DASHED1
 62
    7
 10
66.451226363002263
 20
441.42458298028509
 11
71.109206363002215
 21
443.11994898028513
  0
LINE
  8
_0-3_躯体と製品
  6
DASHED1
 62
    7
 10
66.451226363002263
 20
440.36040498028524
 11
71.451227363002147
 21
442.18025598028521
  0
LINE
  8
_0-3_躯体と製品
  6
DASHED1
 62
    7
 10
74.251607363002279
 20
432.80134698028542
 11
86.251607363002279
 21
432.80134698028542
  0
LINE
  8
_0-3_躯体と製品
  6
DASHED1
 62
    7
 10
73.336961363002104
 20
434.54172198028505
 11
74.251607363002279
 21
432.80134698028542
  0
LINE
  8
_0-3_躯体と製品
  6
CONTINUOUS
 62
    3
 10
88.251607363002279
 20
441.80134898028518
 11
88.751607363002279
 21
441.80134898028518
  0
LINE
  8
_0-3_躯体と製品
  6
CONTINUOUS
 62
    3
 10
88.251607363002279
 20
431.80134898028507
 11
88.751607363002279
 21
431.80134898028507
  0
LINE
  8
_0-3_躯体と製品
  6
CONTINUOUS
 62
    3
 10
90.751607363002279
 20
437.30134898028518
 11
90.251607363002279
 21
436.80134898028518
  0
LINE
  8
_0-3_躯体と製品
  6
CONTINUOUS
 62
    3
 10
90.751607363002279
 20
436.30134898028507
 11
90.251607363002279
 21
436.80134898028518
  0
LINE
  8
_0-3_躯体と製品
  6
CONTINUOUS
 62
    3
 10
88.251607363002279
 20
441.80134898028518
 11
88.251607363002279
 21
431.80134898028507
  0
LINE
  8
_0-3_躯体と製品
  6
CONTINUOUS
 62
    3
 10
88.251607363002279
 20
483.30134898028518
 11
88.751607363002279
 21
483.30134898028518
  0
LINE
  8
_0-3_躯体と製品
  6
CONTINUOUS
 62
    3
 10
88.751607363002279
 20
483.30134898028518
 11
88.751607363002279
 21
470.3013489802853
  0
LINE
  8
_0-3_躯体と製品
  6
CONTINUOUS
 62
    3
 10
88.751607363002279
 20
470.3013489802853
 11
88.251607363002279
 21
470.3013489802853
  0
LINE
  8
_0-3_躯体と製品
  6
CONTINUOUS
 62
    3
 10
88.251607363002279
 20
468.80134898028518
 11
88.751607363002279
 21
468.80134898028518
  0
ARC
  8
_0-3_躯体と製品
  6
CONTINUOUS
 62
    3
 10
98.251607363002279
 20
478.60134898028514
 40
0.2999999999999998
 50
180
 51
270
  0
LINE
  8
_0-3_躯体と製品
  6
CONTINUOUS
 62
    3
 10
98.251607363002279
 20
478.30134898028507
 11
102.85160736300219
 21
478.30134898028507
  0
LINE
  8
_0-3_躯体と製品
  6
CONTINUOUS
 62
    3
 10
96.751607363002279
 20
478.10134898028514
 11
96.751607363002279
 21
482.8013489802853
  0
ARC
  8
_0-3_躯体と製品
  6
CONTINUOUS
 62
    3
 10
97.751607363002279
 20
478.10134898028514
 40
1
 50
180
 51
270
  0
LINE
  8
_0-3_躯体と製品
  6
CONTINUOUS
 62
    3
 10
97.751607363002279
 20
477.10134898028502
 11
102.85160736300219
 21
477.10134898028502
  0
ARC
  8
_0-3_躯体と製品
  6
CONTINUOUS
 62
    3
 10
96.251607363002279
 20
482.8013489802853
 40
0.5
 50
0
 51
90
  0
LINE
  8
_0-3_躯体と製品
  6
CONTINUOUS
 62
    3
 10
96.251607363002279
 20
483.30134898028518
 11
91.251607363002279
 21
483.30134898028518
  0
ARC
  8
_0-3_躯体と製品
  6
CONTINUOUS
 62
    3
 10
91.251607363002279
 20
482.8013489802853
 40
0.5
 50
90
 51
180
  0
LINE
  8
_0-3_躯体と製品
  6
CONTINUOUS
 62
    3
 10
90.751607363002279
 20
482.8013489802853
 11
90.751607363002279
 21
470.80134898028518
  0
ARC
  8
_0-3_躯体と製品
  6
CONTINUOUS
 62
    3
 10
102.85160736300219
 20
477.70134898028505
 40
0.5999999999999996
 50
270
 51
90
  0
ARC
  8
_0-3_躯体と製品
  6
CONTINUOUS
 62
    3
 10
91.251607363002279
 20
468.30134898028507
 40
0.5
 50
90
 51
180
  0
ARC
  8
_0-3_躯体と製品
  6
CONTINUOUS
 62
    3
 10
91.251607363002279
 20
470.80134898028518
 40
0.5
 50
180
 51
270
  0
LINE
  8
_0-3_躯体と製品
  6
CONTINUOUS
 62
    3
 10
96.751607363002279
 20
470.3013489802853
 11
91.251607363002279
 21
470.3013489802853
  0
ARC
  8
_0-3_躯体と製品
  6
CONTINUOUS
 62
    3
 10
96.751607363002279
 20
469.80134898028518
 40
0.5
 50
0
 51
90
  0
LINE
  8
_0-3_躯体と製品
  6
CONTINUOUS
 62
    3
 10
97.251607363002279
 20
463.80134898028507
 11
97.251607363002279
 21
469.80134898028518
  0
ARC
  8
_0-3_躯体と製品
  6
CONTINUOUS
 62
    3
 10
96.251607363002279
 20
463.80134898028507
 40
1
 50
270
 51
0
  0
LINE
  8
_0-3_躯体と製品
  6
CONTINUOUS
 62
    3
 10
96.251607363002279
 20
462.80134898028518
 11
94.351607363002188
 21
462.80134898028518
  0
LINE
  8
_0-3_躯体と製品
  6
CONTINUOUS
 62
    3
 10
95.751607363002279
 20
468.30134898028507
 11
95.751607363002279
 21
464.50134898028523
  0
ARC
  8
_0-3_躯体と製品
  6
CONTINUOUS
 62
    3
 10
95.251607363002279
 20
468.30134898028507
 40
0.5
 50
0
 51
90
  0
LINE
  8
_0-3_躯体と製品
  6
CONTINUOUS
 62
    3
 10
95.251607363002279
 20
468.80134898028518
 11
91.251607363002279
 21
468.80134898028518
  0
LINE
  8
_0-3_躯体と製品
  6
CONTINUOUS
 62
    3
 10
95.251607363002279
 20
464.00134898028534
 11
94.351607363002188
 21
464.00134898028534
  0
ARC
  8
_0-3_躯体と製品
  6
CONTINUOUS
 62
    3
 10
95.251607363002279
 20
464.50134898028523
 40
0.5
 50
270
 51
0
  0
ARC
  8
_0-3_躯体と製品
  6
CONTINUOUS
 62
    3
 10
94.351607363002188
 20
463.40134898028521
 40
0.5999999999999996
 50
90
 51
270
  0
LINE
  8
_0-3_躯体と製品
  6
CONTINUOUS
 62
    3
 10
89.751607363002279
 20
485.60134898028514
 11
89.751607363002279
 21
489.00134898028534
  0
ARC
  8
_0-3_躯体と製品
  6
CONTINUOUS
 62
    3
 10
90.051607363002233
 20
485.60134898028514
 40
0.2999999999999998
 50
180
 51
270
  0
LINE
  8
_0-3_躯体と製品
  6
CONTINUOUS
 62
    3
 10
90.051607363002233
 20
485.30134898028507
 11
91.251607363002279
 21
485.30134898028507
  0
LINE
  8
_0-3_躯体と製品
  6
CONTINUOUS
 62
    3
 10
90.051607363002233
 20
489.30134898028518
 11
91.251607363002279
 21
489.30134898028518
  0
ARC
  8
_0-3_躯体と製品
  6
CONTINUOUS
 62
    3
 10
90.051607363002233
 20
489.00134898028534
 40
0.2999999999999998
 50
90
 51
180
  0
LINE
  8
_0-3_躯体と製品
  6
CONTINUOUS
 62
    3
 10
96.251607363002279
 20
489.30134898028518
 11
98.751607363002279
 21
489.30134898028518
  0
LINE
  8
_0-3_躯体と製品
  6
CONTINUOUS
 62
    3
 10
96.251607363002279
 20
485.30134898028507
 11
98.751607363002279
 21
485.30134898028507
  0
LINE
  8
_0-3_躯体と製品
  6
CONTINUOUS
 62
    3
 10
96.251607363002279
 20
489.30134898028518
 11
95.751607363002279
 21
488.80134898028507
  0
LINE
  8
_0-3_躯体と製品
  6
CONTINUOUS
 62
    3
 10
95.751607363002279
 20
488.80134898028507
 11
95.251607363002279
 21
489.30134898028518
  0
LINE
  8
_0-3_躯体と製品
  6
CONTINUOUS
 62
    3
 10
95.251607363002279
 20
489.30134898028518
 11
94.751607363002279
 21
488.80134898028507
  0
LINE
  8
_0-3_躯体と製品
  6
CONTINUOUS
 62
    3
 10
94.751607363002279
 20
488.80134898028507
 11
94.251607363002279
 21
489.30134898028518
  0
LINE
  8
_0-3_躯体と製品
  6
CONTINUOUS
 62
    3
 10
94.251607363002279
 20
489.30134898028518
 11
93.751607363002279
 21
488.80134898028507
  0
LINE
  8
_0-3_躯体と製品
  6
CONTINUOUS
 62
    3
 10
93.751607363002279
 20
488.80134898028507
 11
93.251607363002279
 21
489.30134898028518
  0
LINE
  8
_0-3_躯体と製品
  6
CONTINUOUS
 62
    3
 10
93.251607363002279
 20
489.30134898028518
 11
92.751607363002279
 21
488.80134898028507
  0
LINE
  8
_0-3_躯体と製品
  6
CONTINUOUS
 62
    3
 10
92.751607363002279
 20
488.80134898028507
 11
92.251607363002279
 21
489.30134898028518
  0
LINE
  8
_0-3_躯体と製品
  6
CONTINUOUS
 62
    3
 10
92.251607363002279
 20
489.30134898028518
 11
91.751607363001142
 21
488.80134898028507
  0
LINE
  8
_0-3_躯体と製品
  6
CONTINUOUS
 62
    3
 10
91.751607363001142
 20
488.80134898028507
 11
91.251607363002279
 21
489.30134898028518
  0
LINE
  8
_0-3_躯体と製品
  6
CONTINUOUS
 62
    3
 10
96.251607363002279
 20
485.30134898028507
 11
95.751607363002279
 21
485.80134898028518
  0
LINE
  8
_0-3_躯体と製品
  6
CONTINUOUS
 62
    3
 10
95.751607363002279
 20
485.80134898028518
 11
95.251607363002279
 21
485.30134898028507
  0
LINE
  8
_0-3_躯体と製品
  6
CONTINUOUS
 62
    3
 10
95.251607363002279
 20
485.30134898028507
 11
94.751607363002279
 21
485.80134898028518
  0
LINE
  8
_0-3_躯体と製品
  6
CONTINUOUS
 62
    3
 10
94.751607363002279
 20
485.80134898028518
 11
94.251607363002279
 21
485.30134898028507
  0
LINE
  8
_0-3_躯体と製品
  6
CONTINUOUS
 62
    3
 10
94.251607363002279
 20
485.30134898028507
 11
93.751607363002279
 21
485.80134898028518
  0
LINE
  8
_0-3_躯体と製品
  6
CONTINUOUS
 62
    3
 10
93.751607363002279
 20
485.80134898028518
 11
93.251607363002279
 21
485.30134898028507
  0
LINE
  8
_0-3_躯体と製品
  6
CONTINUOUS
 62
    3
 10
93.251607363002279
 20
485.30134898028507
 11
92.751607363002279
 21
485.80134898028518
  0
LINE
  8
_0-3_躯体と製品
  6
CONTINUOUS
 62
    3
 10
92.751607363002279
 20
485.80134898028518
 11
92.251607363002279
 21
485.30134898028507
  0
LINE
  8
_0-3_躯体と製品
  6
CONTINUOUS
 62
    3
 10
92.251607363002279
 20
485.30134898028507
 11
91.751607363001142
 21
485.80134898028518
  0
LINE
  8
_0-3_躯体と製品
  6
CONTINUOUS
 62
    3
 10
91.751607363001142
 20
485.80134898028518
 11
91.251607363002279
 21
485.30134898028507
  0
LINE
  8
_0-3_躯体と製品
  6
CONTINUOUS
 62
    3
 10
88.751607363002279
 20
491.30134898028518
 11
97.251607363002279
 21
491.30134898028518
  0
ARC
  8
_0-3_躯体と製品
  6
CONTINUOUS
 62
    3
 10
88.751607363002279
 20
490.80134898028507
 40
0.5
 50
90
 51
180
  0
LINE
  8
_0-3_躯体と製品
  6
CONTINUOUS
 62
    3
 10
88.251607363002279
 20
490.80134898028507
 11
88.251607363002279
 21
483.30134898028518
  0
LINE
  8
_0-3_躯体と製品
  6
CONTINUOUS
 62
    3
 10
97.251607363002279
 20
491.30134898028518
 11
97.251607363002279
 21
490.50134898028523
  0
LINE
  8
_0-3_躯体と製品
  6
CONTINUOUS
 62
    3
 10
97.951607363002097
 20
484.10134898028514
 11
98.651607363002142
 21
484.10134898028514
  0
LINE
  8
_0-3_躯体と製品
  6
CONTINUOUS
 62
    3
 10
97.951607363002097
 20
478.60134898028514
 11
97.951607363002097
 21
484.10134898028514
  0
LINE
  8
_0-3_躯体と製品
  6
CONTINUOUS
 62
    3
 10
97.251607363002279
 20
490.50134898028523
 11
98.651607363002142
 21
490.50134898028523
  0
LINE
  8
_0-3_躯体と製品
  6
CONTINUOUS
 62
    3
 10
88.251607363002279
 20
470.3013489802853
 11
88.251607363002279
 21
468.80134898028518
  0
ARC
  8
_0-3_躯体と製品
  6
CONTINUOUS
 62
    3
 10
98.651607363002142
 20
484.70134898028505
 40
0.5999999999999996
 50
270
 51
90
  0
ARC
  8
_0-3_躯体と製品
  6
CONTINUOUS
 62
    3
 10
98.651607363002142
 20
489.90134898028521
 40
0.5999999999999996
 50
270
 51
90
  0
LINE
  8
_0-3_躯体と製品
  6
CONTINUOUS
 62
    3
 10
88.751607363002279
 20
468.80134898028518
 11
88.751607363002279
 21
457.30134898028518
  0
LINE
  8
_0-3_躯体と製品
  6
CONTINUOUS
 62
    3
 10
90.751607363002279
 20
457.8013489802853
 11
90.751607363002279
 21
468.30134898028507
  0
LINE
  8
_0-3_躯体と製品
  6
CONTINUOUS
 62
    3
 10
88.751607363002279
 20
457.30134898028518
 11
88.251607363002279
 21
457.30134898028518
  0
LINE
  8
_0-3_躯体と製品
  6
CONTINUOUS
 62
    3
 10
88.251607363002279
 20
455.80134898028507
 11
88.751607363002279
 21
455.80134898028507
  0
LINE
  8
_0-3_躯体と製品
  6
CONTINUOUS
 62
    3
 10
88.751607363002279
 20
455.80134898028507
 11
88.751607363002279
 21
441.80134898028518
  0
LINE
  8
_0-3_躯体と製品
  6
CONTINUOUS
 62
    3
 10
88.751607363002279
 20
431.80134898028507
 11
88.751607363002279
 21
417.80134898028518
  0
LINE
  8
_0-3_躯体と製品
  6
CONTINUOUS
 62
    3
 10
88.751607363002279
 20
417.80134898028518
 11
88.251607363002279
 21
417.80134898028518
  0
ARC
  8
_0-3_躯体と製品
  6
CONTINUOUS
 62
    3
 10
91.251607363002279
 20
457.8013489802853
 40
0.5
 50
180
 51
270
  0
LINE
  8
_0-3_躯体と製品
  6
CONTINUOUS
 62
    3
 10
91.251607363002279
 20
457.30134898028518
 11
100.25160736300228
 21
457.30134898028518
  0
LINE
  8
_0-3_躯体と製品
  6
CONTINUOUS
 62
    3
 10
91.251607363002279
 20
411.30134898028507
 11
97.001607363002279
 21
411.30134898028507
  0
ARC
  8
_0-3_躯体と製品
  6
CONTINUOUS
 62
    3
 10
91.251607363002279
 20
411.80134898028518
 40
0.5
 50
180
 51
270
  0
ARC
  8
_0-3_躯体と製品
  6
CONTINUOUS
 62
    3
 10
91.251607363002279
 20
409.30134898028507
 40
0.5
 50
90
 51
180
  0
LINE
  8
_0-3_躯体と製品
  6
CONTINUOUS
 62
    3
 10
91.251607363002279
 20
409.80134898028518
 11
93.751607363002279
 21
409.80134898028518
  0
LINE
  8
_0-3_躯体と製品
  6
CONTINUOUS
 62
    3
 10
93.751607363002279
 20
409.80134898028518
 11
94.751607363002279
 21
410.30134898028507
  0
LINE
  8
_0-3_躯体と製品
  6
CONTINUOUS
 62
    3
 10
94.751607363002279
 20
410.30134898028507
 11
94.751607363002279
 21
409.80134898028518
  0
LINE
  8
_0-3_躯体と製品
  6
CONTINUOUS
 62
    3
 10
94.751607363002279
 20
409.80134898028518
 11
95.751607363002279
 21
410.30134898028507
  0
LINE
  8
_0-3_躯体と製品
  6
CONTINUOUS
 62
    3
 10
95.751607363002279
 20
410.30134898028507
 11
95.751607363002279
 21
409.80134898028518
  0
ARC
  8
_0-3_躯体と製品
  6
CONTINUOUS
 62
    3
 10
97.001607363002279
 20
410.55134898028507
 40
0.75
 50
270
 51
90
  0
ARC
  8
_0-3_躯体と製品
  6
CONTINUOUS
 62
    3
 10
91.251607363002279
 20
455.30134898028518
 40
0.5
 50
90
 51
180
  0
ARC
  8
_0-3_躯体と製品
  6
CONTINUOUS
 62
    3
 10
100.25160736300228
 20
456.80134898028507
 40
0.5
 50
0
 51
90
  0
LINE
  8
_0-3_躯体と製品
  6
CONTINUOUS
 62
    3
 10
100.25160736300228
 20
455.80134898028507
 11
91.251607363002279
 21
455.80134898028507
  0
ARC
  8
_0-3_躯体と製品
  6
CONTINUOUS
 62
    3
 10
100.25160736300228
 20
456.30134898028518
 40
0.5
 50
270
 51
0
  0
LINE
  8
_0-3_躯体と製品
  6
CONTINUOUS
 62
    3
 10
100.75160736300228
 20
456.30134898028518
 11
100.75160736300228
 21
456.80134898028507
  0
LINE
  8
_0-3_躯体と製品
  6
CONTINUOUS
 62
    3
 10
90.751607363002279
 20
415.80134898028507
 11
90.751607363002279
 21
411.80134898028518
  0
ARC
  8
_0-3_躯体と製品
  6
CONTINUOUS
 62
    3
 10
91.251607363002279
 20
415.80134898028507
 40
0.5
 50
90
 51
180
  0
LINE
  8
_0-3_躯体と製品
  6
CONTINUOUS
 62
    3
 10
91.251607363002279
 20
416.30134898028518
 11
102.00160736300228
 21
416.30134898028518
  0
LINE
  8
_0-3_躯体と製品
  6
CONTINUOUS
 62
    3
 10
90.751607363002279
 20
418.30134898028507
 11
90.751607363002279
 21
436.30134898028507
  0
ARC
  8
_0-3_躯体と製品
  6
CONTINUOUS
 62
    3
 10
91.251607363002279
 20
418.30134898028507
 40
0.5
 50
180
 51
270
  0
LINE
  8
_0-3_躯体と製品
  6
CONTINUOUS
 62
    3
 10
91.251607363002279
 20
417.80134898028518
 11
102.00160736300228
 21
417.80134898028518
  0
ARC
  8
_0-3_躯体と製品
  6
CONTINUOUS
 62
    3
 10
102.00160736300228
 20
417.05134898028518
 40
0.75
 50
270
 51
90
  0
ARC
  8
_0-3_躯体と製品
  6
CONTINUOUS
 62
    3
 10
91.251607363002279
 20
406.30134898028518
 40
0.5
 50
180
 51
270
  0
LINE
  8
_0-3_躯体と製品
  6
CONTINUOUS
 62
    3
 10
91.251607363002279
 20
405.80134898028507
 11
93.751607363002279
 21
405.80134898028507
  0
ARC
  8
_0-3_躯体と製品
  6
CONTINUOUS
 62
    3
 10
97.001607363002279
 20
405.05134898028507
 40
0.75
 50
270
 51
90
  0
LINE
  8
_0-3_躯体と製品
  6
CONTINUOUS
 62
    3
 10
93.751607363002279
 20
405.80134898028507
 11
94.751607363002279
 21
405.30134898028518
  0
LINE
  8
_0-3_躯体と製品
  6
CONTINUOUS
 62
    3
 10
94.751607363002279
 20
405.80134898028507
 11
94.751607363002279
 21
405.30134898028518
  0
LINE
  8
_0-3_躯体と製品
  6
CONTINUOUS
 62
    3
 10
94.751607363002279
 20
405.80134898028507
 11
95.751607363002279
 21
405.30134898028518
  0
LINE
  8
_0-3_躯体と製品
  6
CONTINUOUS
 62
    3
 10
95.751607363002279
 20
405.80134898028507
 11
95.751607363002279
 21
405.30134898028518
  0
LINE
  8
_0-3_躯体と製品
  6
CONTINUOUS
 62
    3
 10
90.751607363002279
 20
406.30134898028518
 11
90.751607363002279
 21
409.30134898028507
  0
LINE
  8
_0-3_躯体と製品
  6
CONTINUOUS
 62
    3
 10
89.251607363002279
 20
406.30134898028518
 11
89.251607363002279
 21
415.80134898028507
  0
ARC
  8
_0-3_躯体と製品
  6
CONTINUOUS
 62
    3
 10
88.751607363002279
 20
406.30134898028518
 40
0.5
 50
270
 51
0
  0
LINE
  8
_0-3_躯体と製品
  6
CONTINUOUS
 62
    3
 10
88.751607363002279
 20
405.80134898028507
 11
88.251607363002279
 21
405.80134898028507
  0
LINE
  8
_0-3_躯体と製品
  6
CONTINUOUS
 62
    3
 10
88.251607363002279
 20
404.30134898028518
 11
88.251607363002279
 21
405.80134898028507
  0
LINE
  8
_0-3_躯体と製品
  6
CONTINUOUS
 62
    3
 10
97.001607363002279
 20
404.30134898028518
 11
88.251607363002279
 21
404.30134898028518
  0
LINE
  8
_0-3_躯体と製品
  6
CONTINUOUS
 62
    3
 10
88.751607363002279
 20
416.30134898028518
 11
88.251607363002279
 21
416.30134898028518
  0
ARC
  8
_0-3_躯体と製品
  6
CONTINUOUS
 62
    3
 10
88.751607363002279
 20
415.80134898028507
 40
0.5
 50
0
 51
90
  0
LINE
  8
_0-3_躯体と製品
  6
CONTINUOUS
 62
    3
 10
97.001607363002279
 20
405.80134898028507
 11
95.751607363002279
 21
405.80134898028507
  0
LINE
  8
_0-3_躯体と製品
  6
CONTINUOUS
 62
    3
 10
97.001607363002279
 20
409.80134898028518
 11
95.751607363002279
 21
409.80134898028518
  0
LINE
  8
_0-3_躯体と製品
  6
CONTINUOUS
 62
    3
 10
88.251607363002279
 20
417.80134898028518
 11
88.251607363002279
 21
416.30134898028518
  0
LINE
  8
_0-3_躯体と製品
  6
CONTINUOUS
 62
    3
 10
88.251607363002279
 20
457.30134898028518
 11
88.251607363002279
 21
455.80134898028507
  0
LINE
  8
_0-3_躯体と製品
  6
CONTINUOUS
 62
    3
 10
90.751607363002279
 20
437.30134898028518
 11
90.751607363002279
 21
455.30134898028518
  0
ARC
  8
_0-3_躯体と製品
  6
CONTINUOUS
 62
    7
 10
100.4516073630021
 20
488.7799204088567
 40
2.021428571428586
 50
42.741244538683617
 51
90
  0
LINE
  8
_0-3_躯体と製品
  6
CONTINUOUS
 62
    3
 10
118.25160736300228
 20
444.50134898028523
 11
110.4516073630021
 21
444.50134898028523
  0
LINE
  8
_0-3_躯体と製品
  6
CONTINUOUS
 62
    3
 10
120.4516073630021
 20
446.70134898028516
 11
120.4516073630021
 21
478.30134898028507
  0
LINE
  8
_0-3_躯体と製品
  6
CONTINUOUS
 62
    3
 10
118.25160736300228
 20
480.50134898028523
 11
101.4516073630021
 21
480.50134898028523
  0
POINT
  8
_0-3_躯体と製品
 62
    4
 10
120.4516073630021
 20
444.50134898028523
  0
LINE
  8
_0-3_躯体と製品
  6
CONTINUOUS
 62
    7
 10
98.751608363002163
 20
479.60135098028491
 11
98.751608363002163
 21
483.10134898028491
  0
ARC
  8
_0-3_躯体と製品
  6
CONTINUOUS
 62
    7
 10
99.251609363002274
 20
479.60135098028491
 40
0.5000010000000002
 50
180
 51
270
  0
ARC
  8
_0-3_躯体と製品
  6
CONTINUOUS
 62
    7
 10
99.251609363002274
 20
479.60135098028491
 40
1.299998999999999
 50
180
 51
270
  0
LINE
  8
_0-3_躯体と製品
  6
CONTINUOUS
 62
    7
 10
97.951607363002097
 20
483.10134898028491
 11
98.751608363002163
 21
483.10134898028491
  0
LINE
  8
_0-3_躯体と製品
  6
CONTINUOUS
 62
    7
 10
117.65160836300225
 20
479.10134998028468
 11
99.251609363002274
 21
479.10134998028468
  0
ARC
  8
_0-3_躯体と製品
  6
CONTINUOUS
 62
    7
 10
117.65160836300225
 20
477.80135098028495
 40
1.299998999999999
 50
0
 51
90
  0
ARC
  8
_0-3_躯体と製品
  6
CONTINUOUS
 62
    7
 10
117.65160836300225
 20
477.80135098028495
 40
0.5000010000000002
 50
0
 51
90
  0
LINE
  8
_0-3_躯体と製品
  6
CONTINUOUS
 62
    7
 10
118.15160936300214
 20
477.80135098028495
 11
118.15160936300214
 21
449.10134998028479
  0
LINE
  8
_0-3_躯体と製品
  6
CONTINUOUS
 62
    7
 10
118.9516073630021
 20
477.80135098028495
 11
118.9516073630021
 21
449.10134998028479
  0
LINE
  8
_0-3_躯体と製品
  6
CONTINUOUS
 62
    7
 10
118.15160936300214
 20
449.10134998028479
 11
118.9516073630021
 21
449.10134998028479
  0
LINE
  8
_0-3_躯体と製品
  6
CONTINUOUS
 62
    7
 10
117.65160836300225
 20
478.30134898028484
 11
99.251609363002274
 21
478.30134898028484
  0
LINE
  8
_0-3_躯体と製品
  6
CONTINUOUS
 62
    7
 10
97.951607363002097
 20
483.10134898028491
 11
97.951610363002203
 21
479.60135098028491
  0
LINE
  8
_0-3_躯体と製品
  6
CONTINUOUS
 62
    4
 10
118.15160936300123
 20
449.35089314229901
 11
118.9516073630021
 21
450.15089114229977
  0
LINE
  8
_0-3_躯体と製品
  6
CONTINUOUS
 62
    4
 10
118.15160936300123
 20
450.76510670467223
 11
118.9516073630021
 21
451.56510470467288
  0
LINE
  8
_0-3_躯体と製品
  6
CONTINUOUS
 62
    4
 10
118.15160936300214
 20
452.17932026704671
 11
118.9516073630021
 21
452.9793182670461
  0
LINE
  8
_0-3_躯体と製品
  6
CONTINUOUS
 62
    4
 10
118.15160936300214
 20
453.59353382941981
 11
118.9516073630021
 21
454.39353182941943
  0
LINE
  8
_0-3_躯体と製品
  6
CONTINUOUS
 62
    4
 10
118.15160936300214
 20
455.00774739179303
 11
118.9516073630021
 21
455.80774539179254
  0
LINE
  8
_0-3_躯体と製品
  6
CONTINUOUS
 62
    4
 10
118.15160936300214
 20
456.42196095416625
 11
118.9516073630021
 21
457.22195895416564
  0
LINE
  8
_0-3_躯体と製品
  6
CONTINUOUS
 62
    4
 10
118.15160936300214
 20
457.83617451653947
 11
118.9516073630021
 21
458.63617251653909
  0
LINE
  8
_0-3_躯体と製品
  6
CONTINUOUS
 62
    4
 10
118.15160936300214
 20
459.25038807891269
 11
118.95160736300119
 21
460.05038607891254
  0
LINE
  8
_0-3_躯体と製品
  6
CONTINUOUS
 62
    4
 10
118.15160936300214
 20
460.66460164128614
 11
118.95160736300119
 21
461.46459964128553
  0
LINE
  8
_0-3_躯体と製品
  6
CONTINUOUS
 62
    4
 10
118.15160936300214
 20
462.07881520365913
 11
118.95160736300119
 21
462.87881320365875
  0
LINE
  8
_0-3_躯体と製品
  6
CONTINUOUS
 62
    4
 10
118.15160936300123
 20
463.49302876603224
 11
118.9516073630021
 21
464.29302676603311
  0
LINE
  8
_0-3_躯体と製品
  6
CONTINUOUS
 62
    4
 10
118.15160936300123
 20
464.90724232840591
 11
118.9516073630021
 21
465.70724032840644
  0
LINE
  8
_0-3_躯体と製品
  6
CONTINUOUS
 62
    4
 10
118.15160936300123
 20
466.32145589077868
 11
118.9516073630021
 21
467.12145389077943
  0
LINE
  8
_0-3_躯体と製品
  6
CONTINUOUS
 62
    4
 10
118.15160936300123
 20
467.73566945315213
 11
118.9516073630021
 21
468.535667453153
  0
LINE
  8
_0-3_躯体と製品
  6
CONTINUOUS
 62
    4
 10
118.15160936300123
 20
469.14988301552557
 11
118.9516073630021
 21
469.94988101552622
  0
LINE
  8
_0-3_躯体と製品
  6
CONTINUOUS
 62
    4
 10
118.15160936300123
 20
470.56409657789447
 11
118.95160736300119
 21
471.36409457789523
  0
LINE
  8
_0-3_躯体と製品
  6
CONTINUOUS
 62
    4
 10
118.15160936300123
 20
471.97831014026792
 11
118.9516073630021
 21
472.77830814026879
  0
LINE
  8
_0-3_躯体と製品
  6
CONTINUOUS
 62
    4
 10
118.15160936300327
 20
473.39252370264308
 11
118.9516073630021
 21
474.19252170264303
  0
LINE
  8
_0-3_躯体と製品
  6
CONTINUOUS
 62
    4
 10
118.15160936300327
 20
474.80673726501641
 11
118.9516073630021
 21
475.60673526501625
  0
LINE
  8
_0-3_躯体と製品
  6
CONTINUOUS
 62
    4
 10
118.15160936300327
 20
476.22095082738974
 11
118.9516073630021
 21
477.02094882738947
  0
LINE
  8
_0-3_躯体と製品
  6
CONTINUOUS
 62
    4
 10
118.15160936300214
 20
477.63516438976296
 11
118.84146771753609
 21
478.32502274429703
  0
LINE
  8
_0-3_躯体と製品
  6
CONTINUOUS
 62
    4
 10
117.40358039115227
 20
478.30134898028541
 11
118.11730543796517
 21
479.01507402709854
  0
LINE
  8
_0-3_躯体と製品
  6
CONTINUOUS
 62
    4
 10
115.98936682877712
 20
478.30134898028473
 11
116.78936782877719
 21
479.10134998028434
  0
LINE
  8
_0-3_躯体と製品
  6
CONTINUOUS
 62
    4
 10
114.57515326640424
 20
478.30134898028484
 11
115.37515426640408
 21
479.10134998028434
  0
LINE
  8
_0-3_躯体と製品
  6
CONTINUOUS
 62
    4
 10
113.16093970403114
 20
478.30134898028507
 11
113.9609407040312
 21
479.10134998028445
  0
LINE
  8
_0-3_躯体と製品
  6
CONTINUOUS
 62
    4
 10
111.74672614165826
 20
478.30134898028541
 11
112.5467271416581
 21
479.10134998028491
  0
LINE
  8
_0-3_躯体と製品
  6
CONTINUOUS
 62
    4
 10
110.33251257928424
 20
478.30134898028439
 11
111.13251357928431
 21
479.10134998028525
  0
LINE
  8
_0-3_躯体と製品
  6
CONTINUOUS
 62
    4
 10
108.91829901691113
 20
478.30134898028473
 11
109.7183000169112
 21
479.10134998028525
  0
LINE
  8
_0-3_躯体と製品
  6
CONTINUOUS
 62
    4
 10
107.50408545453712
 20
478.30134898028416
 11
108.30408645453809
 21
479.10134998028491
  0
LINE
  8
_0-3_躯体と製品
  6
CONTINUOUS
 62
    4
 10
106.08987189216424
 20
478.30134898028439
 11
106.88987289216431
 21
479.10134998028434
  0
LINE
  8
_0-3_躯体と製品
  6
CONTINUOUS
 62
    4
 10
104.67565832979022
 20
478.30134898028473
 11
105.47565932979029
 21
479.10134998028434
  0
LINE
  8
_0-3_躯体と製品
  6
CONTINUOUS
 62
    4
 10
103.26144476741825
 20
478.30134898028473
 11
104.06144576741718
 21
479.10134998028434
  0
LINE
  8
_0-3_躯体と製品
  6
CONTINUOUS
 62
    4
 10
101.8472312050481
 20
478.30134898028507
 11
102.64723220504817
 21
479.10134998028468
  0
LINE
  8
_0-3_躯体と製品
  6
CONTINUOUS
 62
    4
 10
100.43301764267522
 20
478.30134898028541
 11
101.23301864267529
 21
479.10134998028491
  0
LINE
  8
_0-3_躯体と製品
  6
CONTINUOUS
 62
    4
 10
99.036694868285224
 20
478.31923976826897
 11
99.818805080301274
 21
479.10134998028514
  0
LINE
  8
_0-3_躯体と製品
  6
CONTINUOUS
 62
    4
 10
98.175386407894223
 20
478.87214487025096
 11
98.770050088638129
 21
479.4668085509951
  0
LINE
  8
_0-3_躯体と製品
  6
CONTINUOUS
 62
    4
 10
97.951609967661227
 20
480.06258199239096
 11
98.751608363002163
 21
480.86258038773155
  0
LINE
  8
_0-3_躯体と製品
  6
CONTINUOUS
 62
    4
 10
97.951608755478276
 20
481.47679434258146
 11
98.751608363002163
 21
482.27679395010523
  0
LINE
  8
_0-3_躯体と製品
  6
CONTINUOUS
 62
    4
 10
97.951607543296234
 20
482.89100669277263
 11
98.161949830808283
 21
483.10134898028434
  0
LINE
  8
_0-3_躯体と製品
  6
CONTINUOUS
 62
    7
 10
90.751607363002279
 20
485.80134898028518
 11
91.251607363002279
 21
485.30134898028507
  0
LINE
  8
_0-3_躯体と製品
  6
CONTINUOUS
 62
    7
 10
90.751607363002279
 20
488.80134898028507
 11
91.251607363002279
 21
489.30134898028518
  0
LINE
  8
_0-3_躯体と製品
  6
CONTINUOUS
 62
    7
 10
90.751607363002279
 20
488.80134898028507
 11
90.751607363002279
 21
485.80134898028518
  0
LINE
  8
_0-3_躯体と製品
  6
CONTINUOUS
 62
    4
 10
91.251607363002279
 20
489.30134898028518
 11
91.251607363002279
 21
485.30134898028507
  0
LINE
  8
_0-3_躯体と製品
  6
CONTINUOUS
 62
    7
 10
99.251607363002279
 20
489.30134898028518
 11
96.251607363002279
 21
489.30134898028518
  0
LINE
  8
_0-3_躯体と製品
  6
CONTINUOUS
 62
    4
 10
99.251607363002279
 20
488.80134898028507
 11
90.751607363002279
 21
488.80134898028507
  0
LINE
  8
_0-3_躯体と製品
  6
CONTINUOUS
 62
    4
 10
99.251607363002279
 20
485.80134898028518
 11
90.751607363002279
 21
485.80134898028518
  0
LINE
  8
_0-3_躯体と製品
  6
CONTINUOUS
 62
    7
 10
99.251607363002279
 20
485.30134898028507
 11
96.251607363002279
 21
485.30134898028507
  0
LINE
  8
_0-3_躯体と製品
  6
CONTINUOUS
 62
    3
 10
90.451607363002097
 20
492.48900498028524
 11
90.463951363002082
 21
492.50134898028523
  0
ARC
  8
_0-3_躯体と製品
  6
CONTINUOUS
 62
    3
 10
98.251607363002279
 20
490.30134898028518
 40
1
 50
0
 51
90
  0
LINE
  8
_0-3_躯体と製品
  6
CONTINUOUS
 62
    3
 10
98.251607363002279
 20
492.50134898028523
 11
90.451607363002097
 21
492.50134898028523
  0
ARC
  8
_0-3_躯体と製品
  6
CONTINUOUS
 62
    3
 10
98.251607363002279
 20
490.30134898028518
 40
2.2000000000000002
 50
0
 51
90
  0
LINE
  8
_0-3_躯体と製品
  6
CONTINUOUS
 62
    3
 10
99.251607363002279
 20
481.50134898028523
 11
99.251607363002279
 21
490.30134898028518
  0
ARC
  8
_0-3_躯体と製品
  6
CONTINUOUS
 62
    3
 10
101.4516073630021
 20
481.50134898028523
 40
1
 50
180
 51
270
  0
ARC
  8
_0-3_躯体と製品
  6
CONTINUOUS
 62
    3
 10
118.25160736300228
 20
478.30134898028507
 40
1
 50
0
 51
90
  0
ARC
  8
_0-3_躯体と製品
  6
CONTINUOUS
 62
    3
 10
101.4516073630021
 20
481.50134898028523
 40
2.2000000000000002
 50
180
 51
270
  0
ARC
  8
_0-3_躯体と製品
  6
CONTINUOUS
 62
    3
 10
118.25160736300228
 20
478.30134898028507
 40
2.2000000000000002
 50
0
 51
90
  0
LINE
  8
_0-3_躯体と製品
  6
CONTINUOUS
 62
    3
 10
90.451607363002097
 20
491.30134898028518
 11
98.251607363002279
 21
491.30134898028518
  0
LINE
  8
_0-3_躯体と製品
  6
CONTINUOUS
 62
    3
 10
90.451607363002097
 20
492.50134898028523
 11
90.451607363002097
 21
491.30134898028518
  0
LINE
  8
_0-3_躯体と製品
  6
CONTINUOUS
 62
    3
 10
101.4516073630021
 20
479.30134898028518
 11
118.25160736300228
 21
479.30134898028518
  0
LINE
  8
_0-3_躯体と製品
  6
CONTINUOUS
 62
    3
 10
110.4516073630021
 20
445.70134898028516
 11
110.4516073630021
 21
444.50134898028523
  0
ARC
  8
_0-3_躯体と製品
  6
CONTINUOUS
 62
    3
 10
118.25160736300228
 20
446.70134898028516
 40
2.2000000000000002
 50
270
 51
0
  0
LINE
  8
_0-3_躯体と製品
  6
CONTINUOUS
 62
    3
 10
118.25160736300228
 20
445.70134898028516
 11
110.4516073630021
 21
445.70134898028516
  0
ARC
  8
_0-3_躯体と製品
  6
CONTINUOUS
 62
    3
 10
118.25160736300228
 20
446.70134898028516
 40
1
 50
270
 51
0
  0
LINE
  8
_0-3_躯体と製品
  6
CONTINUOUS
 62
    3
 10
119.25160736300228
 20
446.70134898028516
 11
119.25160736300228
 21
478.30134898028507
  0
LINE
  8
_0-3_躯体と製品
  6
DASHED1
 62
    4
 10
99.251607363002279
 20
489.30134898028518
 11
100.4516073630021
 21
489.30134898028518
  0
LINE
  8
_0-3_躯体と製品
  6
DASHED1
 62
    4
 10
99.251607363002279
 20
485.30134898028507
 11
100.4516073630021
 21
485.30134898028507
  0
POINT
  8
_0-3_躯体と製品
 62
    4
 10
120.4516073630021
 20
480.50134898028523
  0
LINE
  8
_0-3_躯体と製品
  6
CONTINUOUS
 62
    7
 10
110.4516073630021
 20
443.50134898028523
 11
119.4516073630021
 21
443.50134898028523
  0
ARC
  8
_0-3_躯体と製品
  6
CONTINUOUS
 62
    7
 10
118.9516073630021
 20
444.00134898028523
 40
0.5
 50
0
 51
90
  0
LINE
  8
_0-3_躯体と製品
  6
CONTINUOUS
 62
    7
 10
119.4516073630021
 20
444.00134898028523
 11
119.4516073630021
 21
443.50134898028523
  0
LINE
  8
_0-3_躯体と製品
  6
CONTINUOUS
 62
    7
 10
110.75160736300228
 20
444.50134898028523
 11
118.9516073630021
 21
444.50134898028523
  0
ARC
  8
_0-3_躯体と製品
  6
CONTINUOUS
 62
    7
 10
110.4516073630021
 20
444.50134898028523
 40
1
 50
180
 51
270
  0
ARC
  8
_0-3_躯体と製品
  6
CONTINUOUS
 62
    7
 10
116.05688128239314
 20
447.24101445035535
 40
0.5
 50
265.25268174597102
 51
355.25268174227472
  0
ARC
  8
_0-3_躯体と製品
  6
CONTINUOUS
 62
    7
 10
117.09483144106827
 20
447.6565375761154
 40
0.4999999999354555
 50
355.25268174597483
 51
175.25268174597468
  0
LINE
  8
_0-3_躯体と製品
  6
CONTINUOUS
 62
    7
 10
117.51035456682013
 20
446.61858741734363
 11
117.59311612976722
 21
447.61515679467152
  0
ARC
  8
_0-3_躯体と製品
  6
CONTINUOUS
 62
    7
 10
116.51378518955727
 20
446.70134898028516
 40
1
 50
265.25268174597102
 51
355.25268174227472
  0
LINE
  8
_0-3_躯体と製品
  6
CONTINUOUS
 62
    7
 10
116.55516597102525
 20
447.19963366888476
 11
116.59654675249823
 21
447.69791835754893
  0
LINE
  8
_0-3_躯体と製品
  6
CONTINUOUS
 62
    7
 10
109.4516073630021
 20
446.20134898028505
 11
109.4516073630021
 21
444.50134898028523
  0
LINE
  8
_0-3_躯体と製品
  6
CONTINUOUS
 62
    7
 10
110.53436892587916
 20
447.19791835755427
 11
116.01550050095426
 21
446.74272976172108
  0
ARC
  8
_0-3_躯体と製品
  6
CONTINUOUS
 62
    7
 10
110.4516073630021
 20
446.20134898028505
 40
1
 50
85.252681745970989
 51
180
  0
LINE
  8
_0-3_躯体と製品
  6
CONTINUOUS
 62
    7
 10
110.4516073630021
 20
445.87540231137064
 11
110.4516073630021
 21
444.80134898028518
  0
LINE
  8
_0-3_躯体と製品
  6
CONTINUOUS
 62
    7
 10
110.77643583186529
 20
446.17437312455115
 11
116.43102362667929
 21
445.70477960301639
  0
ARC
  8
_0-3_躯体と製品
  6
CONTINUOUS
 62
    7
 10
110.75160736300228
 20
445.87540231137064
 40
0.2999999999999998
 50
85.252681745970989
 51
180
  0
ARC
  8
_0-3_躯体と製品
  6
CONTINUOUS
 62
    7
 10
102.51732693765626
 20
486.38087025688094
 40
0.4204787234042585
 50
345.90421075582725
 51
90.000000000000057
  0
ARC
  8
_0-3_躯体と製品
  6
CONTINUOUS
 62
    7
 10
100.4516073630021
 20
485.8227775517139
 40
2.0214285714285678
 50
270
 51
317.2587554613163
  0
LINE
  8
_0-3_躯体と製品
  6
CONTINUOUS
 62
    7
 10
100.4516073630021
 20
483.80134898028518
 11
100.4516073630021
 21
490.80134898028507
  0
ARC
  8
_0-3_躯体と製品
  6
CONTINUOUS
 62
    7
 10
102.51732693765626
 20
488.22182770368943
 40
0.4204787234042585
 50
270
 51
14.095789244172815
  0
LINE
  8
_0-3_躯体と製品
  6
CONTINUOUS
 62
    7
 10
102.51732693765626
 20
487.80134898028518
 11
102.51732693765626
 21
486.80134898028518
  0
ARC
  8
_0-3_躯体と製品
  6
CONTINUOUS
 62
    7
 10
98.851607363002188
 20
487.30134898028518
 40
4.2000000000000002
 50
317.2587554613163
 51
345.90421075582719
  0
ARC
  8
_0-3_躯体と製品
  6
CONTINUOUS
 62
    7
 10
98.851607363002188
 20
487.30134898028518
 40
4.2000000000000002
 50
14.095789244172799
 51
42.741244538683617
  0
LINE
  8
_0-3_躯体と製品
  6
CONTINUOUS
 62
    7
 10
101.4516073630021
 20
480.50134898028523
 11
103.4516073630021
 21
480.50134898028523
  0
ARC
  8
_0-3_躯体と製品
  6
CONTINUOUS
 62
    7
 10
103.4516073630021
 20
481.50134898028523
 40
1
 50
270
 51
0
  0
ARC
  8
_0-3_躯体と製品
  6
CONTINUOUS
 62
    7
 10
101.4516073630021
 20
481.50134898028523
 40
1
 50
180
 51
270
  0
LINE
  8
_0-3_躯体と製品
  6
CONTINUOUS
 62
    3
 10
100.4516073630021
 20
490.30134898028518
 11
100.4516073630021
 21
481.50134898028523
  0
LINE
  8
_0-3_躯体と製品
  6
CONTINUOUS
 62
    3
 10
102.25160736300228
 20
441.3806116505441
 11
102.25160736300228
 21
452.43164708382972
  0
ARC
  8
_0-3_躯体と製品
  6
CONTINUOUS
 62
    3
 10
103.25160736300228
 20
441.3806116505441
 40
1
 50
180
 51
266.99999999999437
  0
ARC
  8
_0-3_躯体と製品
  6
CONTINUOUS
 62
    3
 10
103.25160736300228
 20
441.38061165054421
 40
2.5
 50
180
 51
266.99999999999437
  0
LINE
  8
_0-3_躯体と製品
  6
CONTINUOUS
 62
    3
 10
100.75160736300228
 20
452.43164708382972
 11
102.25160736300228
 21
452.43164708382972
  0
LINE
  8
_0-3_躯体と製品
  6
CONTINUOUS
 62
    3
 10
100.75160736300228
 20
441.38061165054421
 11
100.75160736300228
 21
452.43164708382972
  0
LINE
  8
_0-3_躯体と製品
  6
CONTINUOUS
 62
    7
 10
118.41820265650523
 20
435.35182586231963
 11
118.56091052484118
 21
438.07485420446665
  0
LINE
  8
_0-3_躯体と製品
  6
CONTINUOUS
 62
    7
 10
133.39764567782328
 20
434.56678651867549
 11
133.54035354616013
 21
437.28981486082228
  0
LINE
  8
_0-3_躯体と製品
  6
CONTINUOUS
 62
    4
 10
121.9430281204921
 20
435.16709758739194
 11
119.06150663380623
 21
438.04861907407803
  0
LINE
  8
_0-3_躯体と製品
  6
CONTINUOUS
 62
    4
 10
123.43545654218525
 20
435.08888272807201
 11
120.55393505549915
 21
437.9704042147581
  0
LINE
  8
_0-3_躯体と製品
  6
CONTINUOUS
 62
    4
 10
124.92788496387931
 20
435.01066786875219
 11
122.0463634771923
 21
437.8921893554384
  0
LINE
  8
_0-3_躯体と製品
  6
CONTINUOUS
 62
    4
 10
126.42031338557109
 20
434.93245300943249
 11
123.53879189888522
 21
437.81397449611848
  0
LINE
  8
_0-3_躯体と製品
  6
CONTINUOUS
 62
    4
 10
127.91274180726424
 20
434.85423815011268
 11
125.03122032057814
 21
437.73575963679878
  0
LINE
  8
_0-3_躯体と製品
  6
CONTINUOUS
 62
    4
 10
129.4051702289583
 20
434.77602329079264
 11
126.5236487422722
 21
437.65754477747873
  0
LINE
  8
_0-3_躯体と製品
  6
CONTINUOUS
 62
    4
 10
130.89759865065122
 20
434.69780843147305
 11
128.01607716396512
 21
437.57932991815903
  0
LINE
  8
_0-3_躯体と製品
  6
CONTINUOUS
 62
    4
 10
132.39002707234209
 20
434.61959357215346
 11
129.50850558565622
 21
437.50111505883933
  0
LINE
  8
_0-3_躯体と製品
  6
CONTINUOUS
 62
    4
 10
133.42052296896014
 20
435.00331123790818
 11
131.00093400734914
 21
437.42290019951952
  0
LINE
  8
_0-3_躯体と製品
  6
CONTINUOUS
 62
    4
 10
120.45059969879827
 20
435.24531244671209
 11
118.51410776669019
 21
437.18180437882063
  0
LINE
  8
_0-3_躯体と製品
  6
CONTINUOUS
 62
    4
 10
133.49094794461627
 20
436.34709982462562
 11
132.49336242904229
 21
437.34468534019948
  0
ARC
  8
_0-3_躯体と製品
  6
DASHED1
 62
    7
 10
98.251607363002279
 20
442.14333671995735
 40
7.5
 50
180
 51
266.99999999999437
  0
ARC
  8
_0-3_躯体と製品
  6
DASHED1
 62
    7
 10
98.251607363002279
 20
442.14333671995792
 40
3
 50
180
 51
266.99999999999437
  0
LINE
  8
_0-3_躯体と製品
  6
DASHED1
 62
    7
 10
90.751607363002279
 20
442.14333671995735
 11
90.751607363002279
 21
454.29644301981307
  0
LINE
  8
_0-3_躯体と製品
  6
DASHED1
 62
    7
 10
95.251607363002279
 20
454.29644301981307
 11
90.751607363002279
 21
454.29644301981307
  0
LINE
  8
_0-3_躯体と製品
  6
DASHED1
 62
    7
 10
95.251607363002279
 20
442.14333671995792
 11
95.251607363002279
 21
454.29644301981307
  0
LINE
  8
_0-3_躯体と製品
  6
DASHED1
 62
    7
 10
97.85908769118015
 20
434.65361520929798
 11
118.32539872174817
 21
433.58102129807014
  0
LINE
  8
_0-3_躯体と製品
  6
DASHED1
 62
    7
 10
98.094599494273155
 20
439.14744811569415
 11
118.56091052484118
 21
438.07485420446619
  0
LINE
  8
_0-3_躯体と製品
  6
CONTINUOUS
 62
    7
 10
119.4516073630021
 20
443.50134898028523
 11
118.0026099526811
 21
441.46409433128224
  0
LINE
  8
_0-3_躯体と製品
  6
CONTINUOUS
 62
    7
 10
118.47068971853724
 20
443.50246766311579
 11
117.35068846500013
 21
441.92777350258507
  0
LINE
  8
_0-3_躯体と製品
  6
CONTINUOUS
 62
    7
 10
111.57643846171715
 20
442.60567888079163
 11
110.40310397604509
 21
443.45434255591908
  0
ARC
  8
_0-3_躯体と製品
  6
CONTINUOUS
 62
    7
 10
114.74300251427627
 20
443.78249018779593
 40
3.2000000000000002
 50
210.59600537096031
 51
324.57765914528972
  0
ARC
  8
_0-3_躯体と製品
  6
CONTINUOUS
 62
    7
 10
110.69734819382921
 20
441.39027758866416
 40
1.5
 50
30.596005370966971
 51
54.122077872826068
  0
ARC
  8
_0-3_躯体と製品
  6
CONTINUOUS
 62
    7
 10
110.69734819382921
 20
441.39027758866416
 40
0.6999999999999998
 50
30.596005370966971
 51
54.122077872826068
  0
ARC
  8
_0-3_躯体と製品
  6
CONTINUOUS
 62
    7
 10
110.16867990461111
 20
443.13023554468327
 40
0.4
 50
54.122077872826061
 51
234.12207787282611
  0
LINE
  8
_0-3_躯体と製品
  6
CONTINUOUS
 62
    7
 10
87.251607363002279
 20
439.30134898028518
 11
86.251607363002279
 21
439.30134898028518
  0
LINE
  8
_0-3_躯体と製品
  6
CONTINUOUS
 62
    7
 10
87.251607363002279
 20
434.30134898028507
 11
86.251607363002279
 21
434.30134898028507
  0
LINE
  8
_0-4_図枠
  6
CONTINUOUS
 62
    4
 10
170.4516073630021
 20
441.86429826671554
 11
220.4516073630021
 21
441.86429826671554
  0
LINE
  8
_0-4_図枠
  6
CONTINUOUS
 62
    4
 10
220.4516073630021
 20
439.24390930256357
 11
220.4516073630021
 21
441.86429826671554
  0
LINE
  8
_0-4_図枠
  6
CONTINUOUS
 62
    4
 10
170.4516073630021
 20
441.86429826671554
 11
220.4516073630021
 21
439.24390930256357
  0
TEXT
  8
_0-4_図枠
 62
    7
 10
181.9516073630021
 20
441.84857530211184
 40
5
 41
1
 50
0
  1
勾配３度
  0
LINE
  8
_0-3_躯体と製品
  6
CENTER1
 62
    4
 10
89.128884680436215
 20
487.30134898028518
 11
105.99691836300218
 21
487.30134898028518
  0
ARC
  8
_0-3_躯体と製品
  6
CONTINUOUS
 62
    7
 10
92.122898363002207
 20
435.29858598028534
 40
3
 50
272.45892599999632
 51
321.38536200000192
  0
ARC
  8
_0-3_躯体と製品
  6
CONTINUOUS
 62
    7
 10
90.251609363002274
 20
436.80134898028518
 40
5.4000000000000004
 50
321.31781300000171
 51
0.0000000000000127
  0
ARC
  8
_0-3_躯体と製品
  6
CONTINUOUS
 62
    7
 10
90.251609363002274
 20
436.80134898028518
 40
5.4000000000000004
 50
0
 51
38.851062000003751
  0
ARC
  8
_0-3_躯体と製品
  6
CONTINUOUS
 62
    7
 10
92.122898363002207
 20
438.30410898028526
 40
3
 50
38.614637999998109
 51
87.541074000003704
  0
LINE
  8
_0-3_躯体と製品
  6
CONTINUOUS
 62
    7
 10
92.251607363002279
 20
427.80134898028518
 11
92.251607363002279
 21
445.80134898028518
  0
LINE
  8
_0-3_躯体と製品
  6
CONTINUOUS
 62
    7
 10
92.251607363002279
 20
445.80134898028518
 11
90.751607363002279
 21
445.80134898028518
  0
LINE
  8
_0-3_躯体と製品
  6
CONTINUOUS
 62
    7
 10
92.251607363002279
 20
427.80134898028518
 11
90.751607363002279
 21
427.80134898028518
  0
CIRCLE
  8
_0-4_図枠
  6
CONTINUOUS
 62
    4
 10
93.222019829006115
 20
469.53873595246182
 40
0.9
  0
CIRCLE
  8
_0-4_図枠
  6
CONTINUOUS
 62
    4
 10
118.46930650114228
 20
461.26104171644704
 40
0.9
  0
CIRCLE
  8
_0-4_図枠
  6
CONTINUOUS
 62
    4
 10
117.97250161158814
 20
442.20281550740083
 40
0.9
  0
CIRCLE
  8
_0-4_図枠
  6
CONTINUOUS
 62
    4
 10
97.393517136408093
 20
488.05757837035389
 40
0.9
  0
CIRCLE
  8
_0-4_図枠
  6
CONTINUOUS
 62
    4
 10
144.86410930841822
 20
395.62518467928078
 40
6
  0
TEXT
  8
_0-4_図枠
 62
    7
 10
141.61410930841822
 20
392.62518467928089
 40
5
 41
1
 50
0
  1
13
  0
LINE
  8
_0-4_図枠
  6
CONTINUOUS
 62
    4
 10
117.97250161158814
 20
442.20281550740083
 11
141.86410930841822
 21
400.82133710198741
  0
TEXT
  8
_0-4_図枠
 62
    7
 10
139.68816288741829
 20
500.64234418058425
 40
5
 41
1
 50
0
  1
10
  0
CIRCLE
  8
_0-4_図枠
  6
CONTINUOUS
 62
    4
 10
142.93816288741829
 20
503.64234418058413
 40
6
  0
LINE
  8
_0-4_図枠
  6
CONTINUOUS
 62
    4
 10
118.46930650114228
 20
461.26104171644704
 11
139.93816288741829
 21
498.44619175787773
  0
CIRCLE
  8
_0-4_図枠
  6
CONTINUOUS
 62
    4
 10
74.583500918657194
 20
527.56568538096974
 40
6
  0
TEXT
  8
_0-4_図枠
 62
    7
 10
71.333500918657194
 20
524.56568538096985
 40
5
 41
1
 50
0
  1
15
  0
LINE
  8
_0-4_図枠
  6
CONTINUOUS
 62
    4
 10
97.393517136408093
 20
488.05757837035389
 11
77.583500918657194
 21
522.36953295826299
  0
CIRCLE
  8
_0-4_図枠
  6
CONTINUOUS
 62
    4
 10
72.102904586333182
 20
506.11811656367411
 40
6
  0
TEXT
  8
_0-4_図枠
 62
    7
 10
69.102904586333182
 20
503.11811656367422
 40
5
 41
1
 50
0
  1
４
  0
LINE
  8
_0-4_図枠
  6
CONTINUOUS
 62
    4
 10
93.222019829006115
 20
469.53873595246182
 11
75.102904586333182
 21
500.92196414096713
  0
CIRCLE
  8
_0-4_図枠
  6
CONTINUOUS
 62
    4
 10
93.614611207245218
 20
438.72058338481827
 40
0.9
  0
CIRCLE
  8
_0-4_図枠
  6
CONTINUOUS
 62
    4
 10
54.317967720159288
 20
439.70292080108663
 40
0.9
  0
TEXT
  8
_0-4_図枠
 62
    7
 10
38.569843613073147
 20
458.35030675386145
 40
5
 41
1
 50
0
  1
18
  0
LINE
  8
_0-4_図枠
  6
CONTINUOUS
 62
    4
 10
54.317967720159288
 20
439.70292080108663
 11
44.819843613073147
 21
456.15415433115481
  0
CIRCLE
  8
_0-4_図枠
  6
CONTINUOUS
 62
    4
 10
41.819843613073147
 20
461.35030675386156
 40
6
  0
CIRCLE
  8
_0-4_図枠
  6
CONTINUOUS
 62
    4
 10
69.886147625423121
 20
462.44904696664071
 40
6
  0
LINE
  8
_0-4_図枠
  6
CONTINUOUS
 62
    4
 10
93.614611207245218
 20
438.72058338481827
 11
74.128788312542213
 21
458.20640627952127
  0
TEXT
  8
_0-4_図枠
 62
    7
 10
66.636147625423121
 20
459.44904696664071
 40
5
 41
1
 50
0
  1
19
  0
CIRCLE
  8
_0-4_図枠
  6
CONTINUOUS
 62
    4
 10
91.535410250851157
 20
430.18502075209733
 40
0.9
  0
LINE
  8
_0-4_図枠
  6
CONTINUOUS
 62
    4
 10
91.535410250851157
 20
430.18502075209733
 11
76.305760175864236
 21
421.39217818163991
  0
TEXT
  8
_0-4_図枠
 62
    7
 10
67.859607753158173
 20
415.39217818163979
 40
5
 41
1
 50
0
  1
21
  0
CIRCLE
  8
_0-4_図枠
  6
CONTINUOUS
 62
    4
 10
71.109607753158173
 20
418.39217818164002
 40
6
  0
CIRCLE
  8
_0-4_図枠
  6
CONTINUOUS
 62
    4
 10
113.77275024227021
 20
479.93823335587103
 40
0.9
  0
LINE
  8
_0-4_図枠
  6
CONTINUOUS
 62
    4
 10
113.77275024227021
 20
479.93823335587103
 11
132.00957174710112
 21
511.52533477080181
  0
TEXT
  8
_0-4_図枠
 62
    7
 10
132.00957174710112
 20
513.72148719350821
 40
5
 41
1
 50
0
  1
２
  0
CIRCLE
  8
_0-4_図枠
  6
CONTINUOUS
 62
    4
 10
135.00957174710112
 20
516.72148719350821
 40
6
  0
LINE
  8
_0-3_躯体と製品
  6
CONTINUOUS
 62
    7
 10
86.251607363002279
 20
495.50134898028512
 11
111.25160736300228
 21
495.50134898028512
  0
LINE
  8
_0-3_躯体と製品
  6
CONTINUOUS
 62
    7
 10
103.4516073630021
 20
495.50134898028512
 11
101.4516073630021
 21
495.50134898028512
  0
ARC
  8
_0-3_躯体と製品
  6
CONTINUOUS
 62
    7
 10
103.4516073630021
 20
494.50134898028523
 40
1
 50
0
 51
90
  0
LINE
  8
_0-3_躯体と製品
  6
CONTINUOUS
 62
    7
 10
104.4516073630021
 20
481.50134898028523
 11
104.4516073630021
 21
494.50134898028523
  0
ARC
  8
_0-3_躯体と製品
  6
CONTINUOUS
 62
    7
 10
101.4516073630021
 20
494.50134898028523
 40
1
 50
90
 51
180
  0
LINE
  8
_0-3_躯体と製品
  6
CONTINUOUS
 62
    7
 10
100.4516073630021
 20
490.80134898028507
 11
100.4516073630021
 21
494.50134898028523
  0
LINE
  8
_0-3_躯体と製品
  6
CONTINUOUS
 62
    3
 10
87.251607363002279
 20
480.50134898028523
 11
86.251607363002279
 21
480.50134898028523
  0
LINE
  8
_0-3_躯体と製品
  6
CONTINUOUS
 62
    3
 10
87.251607363002279
 20
450.50134898028523
 11
87.251607363002279
 21
480.50134898028523
  0
LINE
  8
_0-3_躯体と製品
  6
CONTINUOUS
 62
    3
 10
86.251607363002279
 20
450.50134898028523
 11
87.251607363002279
 21
450.50134898028523
  0
LINE
  8
_0-3_躯体と製品
  6
CONTINUOUS
 62
    3
 10
86.251607363002279
 20
480.50134898028523
 11
86.251607363002279
 21
450.50134898028523
  0
LINE
  8
_0-3_躯体と製品
  6
CONTINUOUS
 62
    4
 10
86.251607363002279
 20
451.84081177907478
 11
87.251607363002279
 21
450.84081177907501
  0
LINE
  8
_0-3_躯体と製品
  6
CONTINUOUS
 62
    4
 10
86.251607363002279
 20
453.25502534144789
 11
87.251607363002279
 21
452.25502534144812
  0
LINE
  8
_0-3_躯体と製品
  6
CONTINUOUS
 62
    4
 10
86.251607363001142
 20
454.66923890382213
 11
87.251607363001142
 21
453.66923890382191
  0
LINE
  8
_0-3_躯体と製品
  6
CONTINUOUS
 62
    4
 10
86.251607363002279
 20
456.08345246619274
 11
87.251607363002279
 21
455.08345246619228
  0
LINE
  8
_0-3_躯体と製品
  6
CONTINUOUS
 62
    4
 10
86.251607363002279
 20
457.49766602856596
 11
87.251607363002279
 21
456.49766602856573
  0
LINE
  8
_0-3_躯体と製品
  6
CONTINUOUS
 62
    4
 10
86.251607363002279
 20
458.91187959093963
 11
87.251607363002279
 21
457.91187959093963
  0
LINE
  8
_0-3_躯体と製品
  6
CONTINUOUS
 62
    4
 10
86.251607363002279
 20
460.32609315331251
 11
87.251607363002279
 21
459.32609315331263
  0
LINE
  8
_0-3_躯体と製品
  6
CONTINUOUS
 62
    4
 10
86.251607363002279
 20
461.74030671568585
 11
87.251607363002279
 21
460.74030671568585
  0
LINE
  8
_0-3_躯体と製品
  6
CONTINUOUS
 62
    4
 10
86.251607363002279
 20
463.15452027805884
 11
87.251607363002279
 21
462.15452027805895
  0
LINE
  8
_0-3_躯体と製品
  6
CONTINUOUS
 62
    4
 10
86.251607363002279
 20
464.56873384043286
 11
87.251607363002279
 21
463.56873384043263
  0
LINE
  8
_0-3_躯体と製品
  6
CONTINUOUS
 62
    4
 10
86.251607363002279
 20
465.98294740280471
 11
87.251607363002279
 21
464.98294740280437
  0
LINE
  8
_0-3_躯体と製品
  6
CONTINUOUS
 62
    4
 10
86.251607363002279
 20
467.39716096517793
 11
87.251607363002279
 21
466.39716096517759
  0
LINE
  8
_0-3_躯体と製品
  6
CONTINUOUS
 62
    4
 10
86.251607363002279
 20
468.81137452755115
 11
87.251607363002279
 21
467.81137452755081
  0
LINE
  8
_0-3_躯体と製品
  6
CONTINUOUS
 62
    4
 10
86.251607363002279
 20
470.22558808992483
 11
87.251607363001142
 21
469.22558808992494
  0
LINE
  8
_0-3_躯体と製品
  6
CONTINUOUS
 62
    4
 10
86.251607363002279
 20
471.63980165229793
 11
87.251607363001142
 21
470.63980165229816
  0
LINE
  8
_0-3_躯体と製品
  6
CONTINUOUS
 62
    4
 10
86.251607363002279
 20
473.05401521467104
 11
87.251607363001142
 21
472.05401521467115
  0
LINE
  8
_0-3_躯体と製品
  6
CONTINUOUS
 62
    4
 10
86.251607363002279
 20
474.46822877704449
 11
87.251607363001142
 21
473.46822877704471
  0
LINE
  8
_0-3_躯体と製品
  6
CONTINUOUS
 62
    4
 10
86.251607363001142
 20
475.88244233941816
 11
87.251607363001142
 21
474.88244233941793
  0
LINE
  8
_0-3_躯体と製品
  6
CONTINUOUS
 62
    4
 10
86.251607363002279
 20
477.29665590178877
 11
87.251607363002279
 21
476.29665590178854
  0
LINE
  8
_0-3_躯体と製品
  6
CONTINUOUS
 62
    4
 10
86.251607363002279
 20
478.71086946416267
 11
87.251607363002279
 21
477.71086946416233
  0
LINE
  8
_0-3_躯体と製品
  6
CONTINUOUS
 62
    4
 10
86.251607363002279
 20
480.12508302653578
 11
87.251607363002279
 21
479.12508302653623
  0
LINE
  8
_0-3_躯体と製品
  6
CONTINUOUS
 62
    7
 10
87.251607363002279
 20
480.50134898028523
 11
88.251607363002279
 21
480.50134898028523
  0
LINE
  8
_0-3_躯体と製品
  6
CONTINUOUS
 62
    7
 10
88.251607363002279
 20
404.30134898028518
 11
88.251607363002279
 21
480.50134898028523
  0
LINE
  8
_0-3_躯体と製品
  6
CONTINUOUS
 62
    7
 10
87.251607363002279
 20
404.25768803737674
 11
87.251607363002279
 21
450.50134898028523
  0
LINE
  8
_0-3_躯体と製品
  6
CONTINUOUS
 62
    7
 10
111.25160736300228
 20
560.50134898028477
 11
111.25160736300228
 21
495.50134898028512
  0
LINE
  8
_0-3_躯体と製品
  6
CONTINUOUS
 62
    4
 10
100.5919973167791
 20
495.01229963194703
 11
101.86065138143209
 21
490.229323190527
  0
LINE
  8
_0-3_躯体と製品
  6
CONTINUOUS
 62
    4
 10
102.91702686951027
 20
486.24666218502057
 11
104.31121740922418
 21
480.99039832862343
  0
LINE
  8
_0-3_躯体と製品
  6
CONTINUOUS
 62
    4
 10
104.4516073630021
 20
494.11030268319359
 11
105.84265366009419
 21
495.50134898028512
  0
LINE
  8
_0-3_躯体と製品
  6
CONTINUOUS
 62
    4
 10
104.4516073630021
 20
491.2818755584467
 11
108.67108078484017
 21
495.50134898028512
  0
LINE
  8
_0-3_躯体と製品
  6
CONTINUOUS
 62
    4
 10
104.4516073630021
 20
488.45344843370003
 11
111.16224643088827
 21
495.16408750158666
  0
LINE
  8
_0-3_躯体と製品
  6
CONTINUOUS
 62
    4
 10
104.4516073630021
 20
485.62502130895336
 11
110.48635178309615
 21
491.65976572904788
  0
LINE
  8
_0-3_躯体と製品
  6
CONTINUOUS
 62
    4
 10
104.4516073630021
 20
482.79659418420658
 11
110.25792915899325
 21
488.60291598019796
  0
LINE
  8
_0-3_躯体と製品
  6
CONTINUOUS
 62
    4
 10
104.9847892838273
 20
480.50134898028523
 11
110.33262687717325
 21
485.84918657363096
  0
LINE
  8
_0-3_躯体と製品
  6
CONTINUOUS
 62
    4
 10
107.81321640857328
 20
480.50134898028523
 11
110.63626782917714
 21
483.32440040088909
  0
ARC
  8
_0-3_躯体と製品
  6
CONTINUOUS
 62
    7
 10
138.87660736300228
 20
488.00134898028523
 40
28.625
 50
164.81071326281932
 51
195.18928673718068
  0
LINE
  8
_0-2_寸法
  6
CONTINUOUS
 62
    4
 10
102.25160736300228
 20
454.4316470838296
 11
102.25160736300228
 21
473.50134898028523
  0
INSERT
  2
-000-_Dot
  8
_0-2_寸法
 10
102.25160736300228
 20
473.50134898028523
 41
0.5
 42
0.5
 50
180
  0
POINT
  8
_0-2_寸法
 62
    7
 10
102.25160736300228
 20
454.4316470838296
  0
LINE
  8
_0-2_寸法
  6
CONTINUOUS
 62
    4
 10
87.251607363002279
 20
482.50134898028523
 11
87.251607363002279
 21
545.50134898028512
  0
INSERT
  2
-000-_Dot
  8
_0-2_寸法
 10
87.251607363002279
 20
545.50134898028512
 41
0.5
 42
0.5
 50
180
  0
POINT
  8
_0-2_寸法
 62
    7
 10
87.251607363002279
 20
482.50134898028523
  0
POINT
  8
_0-2_寸法
 62
    7
 10
84.251607363002279
 20
495.50134898028512
  0
INSERT
  2
-000-_Dot
  8
_0-2_寸法
 10
31.251607363002279
 20
436.80134898028518
 41
0.5
 42
0.5
 50
90
  0
TEXT
  8
_0-2_寸法
 62
    7
 10
30.251607363001142
 20
402.17474611532623
 40
5
 41
1
 50
90
  1
D
  0
POINT
  8
_0-2_寸法
 62
    7
 10
31.251607363002279
 20
436.80134898028518
  0
POINT
  8
_0-2_寸法
 62
    7
 10
31.251607363002279
 20
436.80134898028518
  0
LINE
  8
_0-2_寸法
  6
CONTINUOUS
 62
    4
 10
122.4516073630021
 20
480.50134898028523
 11
155.4516073630021
 21
480.50134898028523
  0
LINE
  8
_0-2_寸法
  6
CONTINUOUS
 62
    4
 10
122.4516073630021
 20
444.50134898028523
 11
155.4516073630021
 21
444.50134898028523
  0
LINE
  8
_0-2_寸法
  6
CONTINUOUS
 62
    4
 10
155.4516073630021
 20
479.50134898028512
 11
155.4516073630021
 21
445.50134898028512
  0
INSERT
  2
-000-_Dot
  8
_0-2_寸法
 10
155.4516073630021
 20
480.50134898028523
 41
0.5
 42
0.5
 50
90
  0
INSERT
  2
-000-_Dot
  8
_0-2_寸法
 10
155.4516073630021
 20
444.50134898028523
 41
0.5
 42
0.5
 50
270
  0
TEXT
  8
_0-2_寸法
 62
    7
 10
154.4516073630021
 20
460.00134898028546
 40
5
 41
1
 50
90
  1
36
  0
POINT
  8
_0-2_寸法
 62
    7
 10
122.4516073630021
 20
480.50134898028523
  0
POINT
  8
_0-2_寸法
 62
    7
 10
122.4516073630021
 20
444.50134898028523
  0
POINT
  8
_0-2_寸法
 62
    7
 10
155.4516073630021
 20
444.50134898028523
  0
LINE
  8
_0-2_寸法
  6
CONTINUOUS
 62
    4
 10
113.25160736300228
 20
495.50134898028512
 11
155.4516073630021
 21
495.50134898028512
  0
LINE
  8
_0-2_寸法
  6
CONTINUOUS
 62
    4
 10
122.4516073630021
 20
480.50134898028523
 11
155.4516073630021
 21
480.50134898028523
  0
LINE
  8
_0-2_寸法
  6
CONTINUOUS
 62
    4
 10
155.4516073630021
 20
494.50134898028523
 11
155.4516073630021
 21
481.50134898028523
  0
INSERT
  2
-000-_Dot
  8
_0-2_寸法
 10
155.4516073630021
 20
495.50134898028512
 41
0.5
 42
0.5
 50
90
  0
INSERT
  2
-000-_Dot
  8
_0-2_寸法
 10
155.4516073630021
 20
480.50134898028523
 41
0.5
 42
0.5
 50
270
  0
TEXT
  8
_0-2_寸法
 62
    7
 10
154.4516073630021
 20
485.50134898028534
 40
5
 41
1
 50
90
  1
15
  0
POINT
  8
_0-2_寸法
 62
    7
 10
113.25160736300228
 20
495.50134898028512
  0
POINT
  8
_0-2_寸法
 62
    7
 10
122.4516073630021
 20
480.50134898028523
  0
POINT
  8
_0-2_寸法
 62
    7
 10
155.4516073630021
 20
480.50134898028523
  0
LINE
  8
_0-2_寸法
  6
CONTINUOUS
 62
    4
 10
100.4516073630021
 20
497.50134898028512
 11
100.4516073630021
 21
520.50134898028512
  0
LINE
  8
_0-2_寸法
  6
CONTINUOUS
 62
    4
 10
120.4516073630021
 20
482.95455471020318
 11
120.4516073630021
 21
520.50134898028512
  0
LINE
  8
_0-2_寸法
  6
CONTINUOUS
 62
    4
 10
101.4516073630021
 20
520.50134898028512
 11
119.4516073630021
 21
520.50134898028512
  0
INSERT
  2
-000-_Dot
  8
_0-2_寸法
 10
100.4516073630021
 20
520.50134898028512
 41
0.5
 42
0.5
 50
180
  0
INSERT
  2
-000-_Dot
  8
_0-2_寸法
 10
120.4516073630021
 20
520.50134898028512
 41
0.5
 42
0.5
 50
0
  0
TEXT
  8
_0-2_寸法
 62
    7
 10
107.9516073630021
 20
521.50134898028523
 40
5
 41
1
 50
0
  1
20
  0
POINT
  8
_0-2_寸法
 62
    7
 10
100.4516073630021
 20
497.50134898028512
  0
POINT
  8
_0-2_寸法
 62
    7
 10
120.4516073630021
 20
482.95455471020318
  0
POINT
  8
_0-2_寸法
 62
    7
 10
120.4516073630021
 20
520.50134898028512
  0
LINE
  8
_0-2_寸法
  6
CONTINUOUS
 62
    4
 10
87.251607363002279
 20
482.50134898028523
 11
87.251607363002279
 21
530.50134898028512
  0
LINE
  8
_0-2_寸法
  6
CONTINUOUS
 62
    4
 10
120.4516073630021
 20
482.95455471020318
 11
120.4516073630021
 21
530.50134898028512
  0
LINE
  8
_0-2_寸法
  6
CONTINUOUS
 62
    4
 10
88.251607363002279
 20
530.50134898028512
 11
119.4516073630021
 21
530.50134898028512
  0
INSERT
  2
-000-_Dot
  8
_0-2_寸法
 10
87.251607363002279
 20
530.50134898028512
 41
0.5
 42
0.5
 50
180
  0
INSERT
  2
-000-_Dot
  8
_0-2_寸法
 10
120.4516073630021
 20
530.50134898028512
 41
0.5
 42
0.5
 50
0
  0
TEXT
  8
_0-2_寸法
 62
    7
 10
98.851607363002188
 20
531.50134898028512
 40
5
 41
1
 50
0
  1
33.2
  0
POINT
  8
_0-2_寸法
 62
    7
 10
87.251607363002279
 20
482.50134898028523
  0
POINT
  8
_0-2_寸法
 62
    7
 10
120.4516073630021
 20
482.95455471020318
  0
POINT
  8
_0-2_寸法
 62
    7
 10
120.4516073630021
 20
530.50134898028512
  0
LINE
  8
_0-0_0
  6
DASHED1
 62
    4
 10
247.18298900915602
 20
408.37582797056643
 11
247.08878428791866
 21
406.5782948080082
  0
INSERT
  2
-000-_Dot
  8
_0-2_寸法
 10
86.251607363002279
 20
248.49717083998704
 41
0.5
 42
0.5
 50
180
  0
POINT
  8
_0-2_寸法
 62
    7
 10
86.251607363002279
 20
248.49717083998704
  0
POINT
  8
_0-2_寸法
 62
    7
 10
86.251607363002279
 20
248.49717083998704
  0
LINE
  8
_0-3_躯体と製品
  6
CONTINUOUS
 62
    7
 10
88.251607363002279
 20
404.30134898028518
 11
99.881481781798982
 21
271.37127609888637
  0
LINE
  8
_0-3_躯体と製品
  6
CONTINUOUS
 62
    7
 10
87.251607363002279
 20
404.25768803737674
 11
98.877661944255067
 21
271.37127609888637
  0
CIRCLE
  8
_0-4_図枠
  6
CONTINUOUS
 62
    4
 10
97.264654665142359
 20
309.84424158103286
 40
0.9
  0
LINE
  8
_0-4_図枠
  6
CONTINUOUS
 62
    4
 10
97.264654665142359
 20
309.84424158103286
 11
111.14794185156433
 21
333.89080036398514
  0
CIRCLE
  8
_0-4_図枠
  6
CONTINUOUS
 62
    4
 10
114.14794185156433
 20
339.08695278669177
 40
6
  0
TEXT
  8
_0-4_図枠
 62
    7
 10
110.89794185156433
 20
336.08695278669165
 40
5
 41
1
 50
0
  1
12
  0
LINE
  8
_0-3_躯体と製品
  6
CONTINUOUS
 62
    7
 10
86.251607363002279
 20
495.50134898028512
 11
86.251607363002279
 21
230.04814325036719
  0
TEXT
  8
_0-2_寸法
 62
    7
 10
366.7620448563668
 20
545.82388824963948
 40
5
 41
1
 50
0
  1
W
  0
TEXT
  8
_0-2_寸法
 62
    7
 10
368.96272964451754
 20
475.09304652627952
 40
5
 41
1
 50
0
  1
A
  0
LINE
  8
_0-3_躯体と製品
  6
CENTER1
 62
    4
 10
100.95160936300209
 20
436.80134898028518
 11
37.192327140529812
 21
436.80134898028518
  0
LINE
  8
_0-2_寸法
  6
CONTINUOUS
 62
    4
 10
84.251607363002279
 20
495.50134898028512
 11
21.192327140529812
 21
495.50134898028512
  0
INSERT
  2
-000-_Dot
  8
_0-2_寸法
 10
21.192327140529812
 20
495.50134898028512
 41
0.5
 42
0.5
 50
90
  0
TEXT
  8
_0-2_寸法
 62
    7
 10
20.192327140529812
 20
431.52474611532625
 40
5
 41
1
 50
90
  1
E
  0
TEXT
  8
_0-4_図枠
 62
    7
 10
35.680866702000515
 20
556.48245806947125
 40
5
 41
1
 50
0
  1
　　屋根－壁（ストレート壁）
  0
TEXT
  8
_0-4_図枠
 62
    7
 10
35.680866702000515
 20
546.48245806947125
 40
5
 41
1
 50
0
  1
　　Ｓ＝１／２
  0
LINE
  8
ADD_LINE
  6
DOT
 62
    9
 10
662.25160736300222
 20
411.08329068532657
 11
786.26301126978751
 21
404.58412840079973
  0
LINE
  8
_0-2_寸法
  6
CONTINUOUS
 62
    4
 10
763.25160736300222
 20
405.89492053630551
 11
821.25160736300199
 21
405.89492053630551
  0
LINE
  8
_0-3_躯体と製品
  6
DASHED1
 62
    4
 10
730.7323301734441
 20
381.23161060356932
 11
117.26681161916014
 21
413.38197609771908
  0
LINE
  8
_0-3_躯体と製品
  6
DASHED1
 62
    4
 10
730.82653489468112
 20
383.02914376612756
 11
117.36101634039716
 21
415.17950926027743
  0
LINE
  8
_0-3_躯体と製品
  6
CONTINUOUS
 62
    3
 10
730.41831443598608
 20
375.23983339504224
 11
731.88372121078919
 21
403.20146036817022
  0
LINE
  8
_0-3_躯体と製品
  6
CONTINUOUS
 62
    3
 10
730.41831443598608
 20
375.23983339504224
 11
116.95279588170212
 21
407.39019888919154
  0
LINE
  8
_0-3_躯体と製品
  6
CONTINUOUS
 62
    4
 10
717.44424681007308
 20
403.95820115552664
 11
716.9297583240002
 21
404.47268964159952
  0
LINE
  8
_0-3_躯体と製品
  6
DASHED1
 62
    7
 10
725.55600665282009
 20
377.99808701314345
 11
730.54915432659413
 21
377.73640723192858
  0
LINE
  8
_0-3_躯体と製品
  6
DASHED1
 62
    7
 10
725.60834260906404
 20
378.99671654789773
 11
725.55600665282009
 21
377.99808701314345
  0
LINE
  8
_0-3_躯体と製品
  6
DASHED1
 62
    7
 10
705.63575191397217
 20
380.04343567275686
 11
725.60834260906404
 21
378.99671654789773
  0
LINE
  8
_0-3_躯体と製品
  6
DASHED1
 62
    7
 10
705.63575191397217
 20
380.04343567275686
 11
705.58341595772913
 21
379.04480613800212
  0
LINE
  8
_0-3_躯体と製品
  6
DASHED1
 62
    7
 10
702.08821258608805
 20
379.22798198485242
 11
705.58341595772913
 21
379.04480613800212
  0
ARC
  8
_0-3_躯体と製品
  6
DASHED1
 62
    7
 10
702.16671652045306
 20
380.72592628698436
 40
1.5
 50
86.999999999994415
 51
266.99999999999437
  0
LINE
  8
_0-3_躯体と製品
  6
DASHED1
 62
    7
 10
702.24522045481717
 20
382.22387058911642
 11
730.70616219532303
 21
380.73229583619224
  0
LINE
  8
_0-3_躯体と製品
  6
CONTINUOUS
 62
    3
 10
740.68250885667908
 20
376.6177112097958
 11
740.09931631376003
 21
374.09162678007777
  0
LINE
  8
_0-3_躯体と製品
  6
CONTINUOUS
 62
    3
 10
732.54641339610316
 20
377.63173531944273
 11
740.22149180240808
 21
377.22950150434514
  0
LINE
  8
_0-3_躯体と製品
  6
CONTINUOUS
 62
    3
 10
743.46212531062611
 20
377.05966709870921
 11
742.28477887856025
 21
377.12136921066048
  0
LINE
  8
_0-3_躯体と製品
  6
CONTINUOUS
 62
    3
 10
741.97676707225105
 20
376.88926566653748
 11
741.26856039150221
 21
373.8216855148649
  0
ARC
  8
_0-3_躯体と製品
  6
CONTINUOUS
 62
    3
 10
732.52024541798119
 20
377.13242055206541
 40
0.5
 50
86.999999999994415
 51
177.00000000000111
  0
LINE
  8
_0-3_躯体と製品
  6
CONTINUOUS
 62
    3
 10
732.02093065060421
 20
377.15858853018693
 11
731.96859469436117
 21
376.15995899543231
  0
ARC
  8
_0-3_躯体と製品
  6
CONTINUOUS
 62
    3
 10
732.72958924295312
 20
381.12693869108381
 40
0.5
 50
177.00000000000111
 51
266.99999999999437
  0
LINE
  8
_0-3_躯体と製品
  6
CONTINUOUS
 62
    3
 10
732.70342126483115
 20
380.62762392370661
 11
744.38540857236512
 21
380.01539691130603
  0
LINE
  8
_0-3_躯体と製品
  6
CONTINUOUS
 62
    3
 10
732.23027447557615
 20
381.15310666920533
 11
732.33494638806224
 21
383.15036573871436
  0
LINE
  8
_0-3_躯体と製品
  6
CONTINUOUS
 62
    3
 10
753.73387075286905
 20
329.39492053630539
 11
749.35131933113712
 21
329.39492053630539
  0
LINE
  8
_0-3_躯体と製品
  6
CONTINUOUS
 62
    3
 10
744.38793695511708
 20
376.26894925477239
 11
754.22294455323618
 21
329.99887638171407
  0
LINE
  8
_0-3_躯体と製品
  6
CONTINUOUS
 62
    3
 10
747.16284350583805
 20
377.64324337949523
 11
759.11879360909211
 21
321.39492053630539
  0
ARC
  8
_0-3_躯体と製品
  6
CONTINUOUS
 62
    3
 10
731.83563162068413
 20
383.17653371683565
 40
0.5
 50
357.00000000000108
 51
86.999999999994444
  0
LINE
  8
_0-3_躯体と製品
  6
CONTINUOUS
 62
    3
 10
731.8617995988061
 20
383.67584848421342
 11
731.36248483142913
 21
383.70201646233471
  0
ARC
  8
_0-3_躯体と製品
  6
CONTINUOUS
 62
    3
 10
731.33631685330715
 20
383.20270169495728
 40
0.5
 50
86.999999999994415
 51
177.00000000000111
  0
ARC
  8
_0-3_躯体と製品
  6
CONTINUOUS
 62
    3
 10
744.22840070363713
 20
377.01950830704237
 40
3
 50
11.99999999999979
 51
86.999999999994415
  0
ARC
  8
_0-3_躯体と製品
  6
CONTINUOUS
 62
    3
 10
743.4097893543842
 20
376.0610375639547
 40
1
 50
11.99999999999979
 51
86.999999999994415
  0
ARC
  8
_0-3_躯体と製品
  6
CONTINUOUS
 62
    3
 10
731.4692799269842
 20
376.18612697355371
 40
0.5
 50
266.99999999999437
 51
357.00000000000108
  0
LINE
  8
_0-3_躯体と製品
  6
CONTINUOUS
 62
    3
 10
731.44311194886222
 20
375.68681220617663
 11
730.94379718148502
 21
375.71298018429792
  0
ARC
  8
_0-3_躯体と製品
  6
CONTINUOUS
 62
    3
 10
730.96996515960609
 20
376.21229495167535
 40
0.5
 50
177.00000000000111
 51
266.99999999999437
  0
ARC
  8
_0-3_躯体と製品
  6
CONTINUOUS
 62
    3
 10
754.20149518854305
 20
327.69492053630512
 40
0.5
 50
11.99999999999979
 51
90
  0
LINE
  8
_0-3_躯体と製品
  6
CONTINUOUS
 62
    3
 10
754.69056898891017
 20
327.79887638171391
 11
756.11879360909211
 21
321.07960783050834
  0
LINE
  8
_0-3_躯体と製品
  6
CONTINUOUS
 62
    3
 10
754.20149518854305
 20
328.19492053630512
 11
744.95131933113612
 21
328.19492053630512
  0
ARC
  8
_0-3_躯体と製品
  6
CONTINUOUS
 62
    3
 10
753.73387075286905
 20
329.89492053630539
 40
0.5
 50
270
 51
11.999999999999774
  0
LINE
  8
_0-3_躯体と製品
  6
CONTINUOUS
 62
    3
 10
744.95131933113612
 20
329.39492053630539
 11
747.35131933113712
 21
329.39492053630539
  0
LINE
  8
_0-3_躯体と製品
  6
CONTINUOUS
 62
    3
 10
749.35131933113712
 20
330.39492053630539
 11
747.35131933113712
 21
329.39492053630539
  0
LINE
  8
_0-3_躯体と製品
  6
CONTINUOUS
 62
    3
 10
749.35131933113712
 20
329.39492053630539
 11
749.35131933113712
 21
330.39492053630539
  0
ARC
  8
_0-3_躯体と製品
  6
CONTINUOUS
 62
    3
 10
756.61879360909211
 20
319.89492053630539
 40
2.5
 50
270
 51
0
  0
LINE
  8
_0-3_躯体と製品
  6
CONTINUOUS
 62
    3
 10
756.61879360909211
 20
317.39492053630528
 11
756.11879360909211
 21
317.39492053630528
  0
LINE
  8
_0-3_躯体と製品
  6
CONTINUOUS
 62
    3
 10
759.11879360909211
 20
319.89492053630539
 11
759.11879360909211
 21
321.39492053630539
  0
LINE
  8
_0-3_躯体と製品
  6
CONTINUOUS
 62
    3
 10
756.11879360909211
 20
321.07960783050834
 11
756.11879360909211
 21
317.39492053630528
  0
ARC
  8
_0-3_躯体と製品
  6
CONTINUOUS
 62
    3
 10
744.95131933113612
 20
328.79492053630537
 40
0.6000000000000015
 50
90
 51
270
  0
ARC
  8
_0-3_躯体と製品
  6
CONTINUOUS
 62
    3
 10
742.26907809168711
 20
376.82178035023429
 40
0.2999999999999998
 50
86.999999999994415
 51
166.99999999999969
  0
ARC
  8
_0-3_躯体と製品
  6
CONTINUOUS
 62
    3
 10
740.19532382428724
 20
376.73018673696782
 40
0.5
 50
346.99999999999972
 51
86.999999999994444
  0
ARC
  8
_0-3_躯体と製品
  6
CONTINUOUS
 62
    3
 10
740.68393835263123
 20
373.95665614747151
 40
0.5999999999999984
 50
166.99999999999969
 51
346.99999999999972
  0
LINE
  8
_0-3_躯体と製品
  6
CONTINUOUS
 62
    4
 10
717.20873500698008
 20
399.46436824913081
 11
716.6942465209072
 21
399.97885673520381
  0
LINE
  8
_0-3_躯体と製品
  6
CONTINUOUS
 62
    7
 10
731.85755323266721
 20
402.70214560079302
 11
716.87811021134917
 21
403.48718494443727
  0
LINE
  8
_0-3_躯体と製品
  6
CONTINUOUS
 62
    7
 10
716.66876638637723
 20
399.49266680541899
 11
716.87811021134917
 21
403.48718494443727
  0
LINE
  8
_0-3_躯体と製品
  6
CONTINUOUS
 62
    4
 10
718.70116342867118
 20
399.38615338981145
 11
716.7646714965631
 21
401.32264532191999
  0
LINE
  8
_0-3_躯体と製品
  6
CONTINUOUS
 62
    4
 10
720.19359185036524
 20
399.30793853049141
 11
716.83509647221808
 21
402.66643390863754
  0
LINE
  8
_0-3_躯体と製品
  6
CONTINUOUS
 62
    4
 10
721.68602027205816
 20
399.22972367117103
 11
717.45900226112417
 21
403.45674168210536
  0
LINE
  8
_0-3_躯体と製品
  6
CONTINUOUS
 62
    4
 10
723.17844869375108
 20
399.15150881185156
 11
718.95143068281709
 21
403.37852682278566
  0
LINE
  8
_0-3_躯体と製品
  6
CONTINUOUS
 62
    4
 10
724.67087711544423
 20
399.07329395253174
 11
720.44385910451024
 21
403.30031196346573
  0
LINE
  8
_0-3_躯体と製品
  6
CONTINUOUS
 62
    4
 10
726.16330553713715
 20
398.99507909321227
 11
721.93628752620316
 21
403.22209710414592
  0
LINE
  8
_0-3_躯体と製品
  6
CONTINUOUS
 62
    4
 10
727.65573395883007
 20
398.91686423389211
 11
723.42871594789608
 21
403.14388224482622
  0
LINE
  8
_0-3_躯体と製品
  6
CONTINUOUS
 62
    4
 10
729.14816238052322
 20
398.83864937457241
 11
724.92114436959014
 21
403.0656673855064
  0
LINE
  8
_0-3_躯体と製品
  6
CONTINUOUS
 62
    4
 10
730.64059080221523
 20
398.76043451525305
 11
726.4135727912801
 21
402.98745252618659
  0
LINE
  8
_0-3_躯体と製品
  6
CONTINUOUS
 62
    4
 10
731.67108669883305
 20
399.14415218100743
 11
727.90600121297416
 21
402.90923766686655
  0
LINE
  8
_0-3_躯体と製品
  6
CONTINUOUS
 62
    4
 10
731.81193665014416
 20
401.83172935444287
 11
730.89085805636023
 21
402.75280794822703
  0
LINE
  8
_0-3_躯体と製品
  6
CONTINUOUS
 62
    4
 10
731.74151167448804
 20
400.48794076772543
 11
729.39842963466708
 21
402.83102280754673
  0
LINE
  8
_0-3_躯体と製品
  6
CONTINUOUS
 62
    3
 10
749.35131933113712
 20
330.39492053630539
 11
749.35131933113712
 21
329.89492053630539
  0
LINE
  8
_0-3_躯体と製品
  6
CONTINUOUS
 62
    3
 10
731.88372121078919
 20
403.20146036817022
 11
118.41820265650523
 21
435.35182586231963
  0
LINE
  8
_0-3_躯体と製品
  6
CONTINUOUS
 62
    3
 10
731.64820940769505
 20
398.70762746177496
 11
118.18269085341109
 21
430.85799295592415
  0
LINE
  8
_0-3_躯体と製品
  6
CONTINUOUS
 62
    3
 10
731.56970547333117
 20
397.20968315964291
 11
118.10418691904721
 21
429.36004865379221
  0
LINE
  8
_0-3_躯体と製品
  6
DASHED1
 62
    4
 10
730.54915432659323
 20
377.73640723192858
 11
117.08363577231017
 21
409.88677272607777
  0
LINE
  8
_0-3_躯体と製品
  6
DASHED1
 62
    4
 10
730.47065039222912
 20
376.23846292979664
 11
117.00513183794516
 21
408.38882842394617
  0
LINE
  8
_0-3_躯体と製品
  6
DASHED1
 62
    4
 10
716.82577425510613
 20
402.48855540968265
 11
133.31914174345826
 21
433.06884221654366
  0
LINE
  8
_0-3_躯体と製品
  6
CONTINUOUS
 62
    3
 10
758.25160736300222
 20
315.89492053630528
 11
751.25160736300222
 21
315.89492053630528
  0
ARC
  8
_0-3_躯体と製品
  6
CONTINUOUS
 62
    3
 10
758.25160736300222
 20
403.04802683616066
 40
3
 50
0
 51
86.999999999994415
  0
ARC
  8
_0-3_躯体と製品
  6
CONTINUOUS
 62
    3
 10
758.25160736300222
 20
318.89492053630539
 40
3
 50
270
 51
0
  0
LINE
  8
_0-3_躯体と製品
  6
CONTINUOUS
 62
    3
 10
761.25160736300222
 20
403.04802683616066
 11
761.25160736300222
 21
318.89492053630539
  0
POINT
  8
_0-3_躯体と製品
 62
    4
 10
761.25160736300222
 20
405.89492053630551
  0
POINT
  8
_0-3_躯体と製品
 62
    4
 10
761.25160736300222
 20
315.89492053630528
  0
LINE
  8
_0-3_躯体と製品
  6
CONTINUOUS
 62
    3
 10
103.19927140675924
 20
440.38198211578958
 11
758.40861523173112
 21
406.04391544042454
  0
LINE
  8
_0-3_躯体と製品
  6
CONTINUOUS
 62
    3
 10
103.12076747239513
 20
438.88403781365776
 11
758.3301112973661
 21
404.54597113829237
  0
ARC
  8
_0-3_躯体と製品
  6
CONTINUOUS
 62
    3
 10
758.25160736300222
 20
403.04802683616066
 40
1.5
 50
0
 51
86.999999999994415
  0
LINE
  8
_0-3_躯体と製品
  6
CONTINUOUS
 62
    3
 10
759.75160736300222
 20
318.89492053630539
 11
759.75160736300222
 21
403.04802683616066
  0
ARC
  8
_0-3_躯体と製品
  6
CONTINUOUS
 62
    3
 10
758.25160736300222
 20
318.89492053630539
 40
1.5
 50
270
 51
0
  0
LINE
  8
_0-3_躯体と製品
  6
CONTINUOUS
 62
    3
 10
751.25160736300222
 20
315.89492053630528
 11
751.25160736300222
 21
317.39492053630528
  0
LINE
  8
_0-3_躯体と製品
  6
CONTINUOUS
 62
    3
 10
758.25160736300222
 20
317.39492053630528
 11
751.25160736300222
 21
317.39492053630528
  0
LINE
  8
_0-3_躯体と製品
  6
CONTINUOUS
 62
    7
 10
731.88372121078919
 20
403.20146036817022
 11
732.02642907912514
 21
405.92448871031758
  0
LINE
  8
_0-3_躯体と製品
  6
CONTINUOUS
 62
    7
 10
716.90427818947023
 20
403.98649971181447
 11
717.04698605780709
 21
406.70952805396172
  0
LINE
  8
_0-3_躯体と製品
  6
CONTINUOUS
 62
    4
 10
720.42910365345824
 20
403.80177143688701
 11
717.54758216677214
 21
406.68329292357311
  0
LINE
  8
_0-3_躯体と製品
  6
CONTINUOUS
 62
    4
 10
721.92153207515116
 20
403.72355657756674
 11
719.04001058846507
 21
406.60507806425295
  0
LINE
  8
_0-3_躯体と製品
  6
CONTINUOUS
 62
    4
 10
723.41396049684408
 20
403.64534171824715
 11
720.53243901015821
 21
406.52686320493336
  0
LINE
  8
_0-3_躯体と製品
  6
CONTINUOUS
 62
    4
 10
724.90638891853723
 20
403.56712685892745
 11
722.02486743185113
 21
406.44864834561344
  0
LINE
  8
_0-3_躯体と製品
  6
CONTINUOUS
 62
    4
 10
726.39881734023015
 20
403.48891199960775
 11
723.51729585354406
 21
406.37043348629373
  0
LINE
  8
_0-3_躯体と製品
  6
CONTINUOUS
 62
    4
 10
727.89124576192307
 20
403.41069714028771
 11
725.0097242752372
 21
406.29221862697381
  0
LINE
  8
_0-3_躯体と製品
  6
CONTINUOUS
 62
    4
 10
729.38367418361713
 20
403.33248228096789
 11
726.50215269693103
 21
406.21400376765399
  0
LINE
  8
_0-3_躯体と製品
  6
CONTINUOUS
 62
    4
 10
730.87610260530823
 20
403.25426742164831
 11
727.99458111862214
 21
406.1357889083344
  0
LINE
  8
_0-3_躯体と製品
  6
CONTINUOUS
 62
    4
 10
731.90659850192606
 20
403.63798508740291
 11
729.48700954031415
 21
406.05757404901425
  0
LINE
  8
_0-3_躯体と製品
  6
CONTINUOUS
 62
    4
 10
718.93667523176418
 20
403.87998629620716
 11
717.0001832996561
 21
405.81647822831536
  0
LINE
  8
_0-3_躯体と製品
  6
CONTINUOUS
 62
    4
 10
731.97702347758104
 20
404.98177367412046
 11
730.97943796200707
 21
405.97935918969478
  0
ARC
  8
_0-3_躯体と製品
  6
DASHED1
 62
    7
 10
737.91478699727304
 20
398.10560035321902
 40
3
 50
10.124671655396439
 51
86.999999999994415
  0
LINE
  8
_0-3_躯体と製品
  6
DASHED1
 62
    7
 10
740.86806972379804
 20
398.6329722686699
 11
754.82168327321415
 21
320.49273639194342
  0
LINE
  8
_0-3_躯体と製品
  6
DASHED1
 62
    7
 10
759.25160736300222
 20
321.28379426511998
 11
754.82168327327713
 21
320.49273639158781
  0
LINE
  8
_0-3_躯体と製品
  6
DASHED1
 62
    7
 10
745.29799381358612
 20
399.42403014184634
 11
759.25160736300222
 21
321.28379426511998
  0
ARC
  8
_0-3_躯体と製品
  6
DASHED1
 62
    7
 10
737.91478699727304
 20
398.10560035321902
 40
7.5
 50
10.124671655396439
 51
86.999999999994415
  0
LINE
  8
_0-3_躯体と製品
  6
DASHED1
 62
    7
 10
732.02642907912514
 20
405.92448871031758
 11
738.30730666909517
 21
405.59532186387827
  0
LINE
  8
_0-3_躯体と製品
  6
DASHED1
 62
    7
 10
731.79091727603213
 20
401.43065580392141
 11
738.07179486600216
 21
401.10148895748267
  0
CIRCLE
  8
_0-4_図枠
  6
CONTINUOUS
 62
    4
 10
745.00519007324806
 20
387.83694734274485
 40
0.9
  0
CIRCLE
  8
_0-4_図枠
  6
CONTINUOUS
 62
    4
 10
771.64167121665014
 20
433.97268601796742
 40
6
  0
TEXT
  8
_0-4_図枠
 62
    7
 10
768.64167121665105
 20
430.97268601796731
 40
5
 41
1
 50
0
  1
９
  0
LINE
  8
_0-4_図枠
  6
CONTINUOUS
 62
    4
 10
745.00519007324806
 20
387.83694734274485
 11
768.64167121665105
 21
428.77653359526067
  0
CIRCLE
  8
_0-4_図枠
  6
CONTINUOUS
 62
    4
 10
744.46096333488003
 20
406.01755330220902
 40
0.9
  0
LINE
  8
_0-4_図枠
  6
CONTINUOUS
 62
    4
 10
744.46096333488003
 20
406.01755330220902
 11
769.59744447828211
 21
449.55521576607822
  0
CIRCLE
  8
_0-4_図枠
  6
CONTINUOUS
 62
    4
 10
772.59744447828211
 20
454.75136818878508
 40
6
  0
TEXT
  8
_0-4_図枠
 62
    7
 10
769.59744447828211
 20
451.75136818878485
 40
5
 41
1
 50
0
  1
１
  0
POINT
  8
_0-2_寸法
 62
    7
 10
761.25160736300222
 20
313.89492053630528
  0
LINE
  8
_0-2_寸法
  6
CONTINUOUS
 62
    4
 10
763.25160736300222
 20
315.89492053630528
 11
801.25160736300222
 21
315.89492053630528
  0
INSERT
  2
-000-_Dot
  8
_0-2_寸法
 10
801.25160736300222
 20
358.30880069096571
 41
0.5
 42
0.5
 50
90
  0
INSERT
  2
-000-_Dot
  8
_0-2_寸法
 10
801.25160736300222
 20
315.89492053630528
 41
0.5
 42
0.5
 50
270
  0
POINT
  8
_0-2_寸法
 62
    7
 10
763.25160736300222
 20
315.89492053630528
  0
LINE
  8
_0-2_寸法
  6
CONTINUOUS
 62
    4
 10
763.25160736300222
 20
315.89492053630528
 11
821.25160736300199
 21
315.89492053630528
  0
LINE
  8
_0-2_寸法
  6
CONTINUOUS
 62
    4
 10
821.25160736300199
 20
404.89492053630551
 11
821.25160736300199
 21
316.89492053630516
  0
INSERT
  2
-000-_Dot
  8
_0-2_寸法
 10
821.25160736300199
 20
405.89492053630551
 41
0.5
 42
0.5
 50
90
  0
INSERT
  2
-000-_Dot
  8
_0-2_寸法
 10
821.25160736300199
 20
315.89492053630528
 41
0.5
 42
0.5
 50
270
  0
TEXT
  8
_0-2_寸法
 62
    7
 10
820.25160736300199
 20
358.39492053630573
 40
5
 41
1
 50
90
  1
90
  0
POINT
  8
_0-2_寸法
 62
    7
 10
763.25160736300222
 20
315.89492053630528
  0
POINT
  8
_0-2_寸法
 62
    7
 10
821.25160736300199
 20
315.89492053630528
  0
LINE
  8
_0-0_0
  6
DASHED1
 62
    4
 10
690.88148665516201
 20
385.12257503771218
 11
690.78728193392453
 21
383.325041875154
  0
LINE
  8
_0-2_寸法
  6
CONTINUOUS
 62
    4
 10
801.25160736300222
 20
357.30880069096571
 11
801.25160736300222
 21
316.89492053630516
  0
TEXT
  8
_0-2_寸法
 62
    7
 10
800.25160736300222
 20
334.60186061363589
 40
5
 41
1
 50
90
  1
44
  0
POINT
  8
_0-2_寸法
 62
    7
 10
801.25160736300222
 20
315.89492053630528
  0
POINT
  8
_0-2_寸法
 62
    7
 10
801.25160736300222
 20
358.30880069096571
  0
LINE
  8
_0-2_寸法
  6
CONTINUOUS
 62
    4
 10
761.25160736300234
 20
319.08329068532635
 11
761.25160736300234
 21
248.49717083998704
  0
INSERT
  2
-000-_Dot
  8
_0-2_寸法
 10
761.25160736300234
 20
248.49717083998704
 41
0.5
 42
0.5
 50
0
  0
POINT
  8
_0-2_寸法
 62
    7
 10
761.50160736300234
 20
248.49717083998704
  0
LINE
  8
_0-2_寸法
  6
CONTINUOUS
 62
    4
 10
761.25160736300234
 20
454.4316470838296
 11
761.25160736300234
 21
473.50134898028523
  0
LINE
  8
_0-2_寸法
  6
CONTINUOUS
 62
    4
 10
103.25160736300228
 20
473.50134898028523
 11
760.25160736300234
 21
473.50134898028523
  0
INSERT
  2
-000-_Dot
  8
_0-2_寸法
 10
761.25160736300234
 20
473.50134898028523
 41
0.5
 42
0.5
 50
0
  0
POINT
  8
_0-2_寸法
 62
    7
 10
761.25160736300234
 20
473.50134898028523
  0
LINE
  8
_0-2_寸法
  6
CONTINUOUS
 62
    4
 10
761.25160736300234
 20
419.6342630957065
 11
761.25160736300234
 21
545.50134898028512
  0
LINE
  8
_0-2_寸法
  6
CONTINUOUS
 62
    4
 10
88.251607363002279
 20
545.50134898028512
 11
760.25160736300234
 21
545.50134898028512
  0
INSERT
  2
-000-_Dot
  8
_0-2_寸法
 10
761.25160736300234
 20
545.50134898028512
 41
0.5
 42
0.5
 50
0
  0
POINT
  8
_0-2_寸法
 62
    7
 10
761.25160736300234
 20
545.50134898028512
  0
LINE
  8
ADD_LINE
  6
DOT
 62
    9
 10
736.63213846329666
 20
452.95140242459001
 11
771.68652627588324
 21
452.95140242459001
  0
TEXT
  8
_0-2_寸法
 62
    7
 10
401.62385629906095
 20
467.34830133637945
 40
5
 41
1
 50
0
  1
（キャップ幅）
  0
INSERT
  2
-000-_Dot
  8
_0-2_寸法
 10
561.25160736300222
 20
248.49717083998704
 41
0.5
 42
0.5
 50
0
  0
POINT
  8
_0-2_寸法
 62
    7
 10
561.25160736300222
 20
248.49717083998704
  0
INSERT
  2
-000-_Dot
  8
_0-2_寸法
 10
561.25160736300222
 20
248.49717083998704
 41
0.5
 42
0.5
 50
180
  0
POINT
  8
_0-2_寸法
 62
    7
 10
561.25160736300222
 20
248.49717083998704
  0
POINT
  8
_0-2_寸法
 62
    7
 10
561.25160736300222
 20
248.49717083998704
  0
LINE
  8
_0-2_寸法
  6
CONTINUOUS
 62
    4
 10
561.25160736300222
 20
248.49717083998704
 11
86.251607363002279
 21
248.49717083998704
  0
CIRCLE
  8
_0-5_ADD_LINE
  6
CONTINUOUS
 62
    4
 10
578.15026321337223
 20
426.41087064751366
 40
6
  0
TEXT
  8
_0-5_ADD_LINE
 62
    7
 10
575.15026321337223
 20
423.41087064751343
 40
5
 41
1
 50
0
  1
６
  0
LINE
  8
_0-5_ADD_LINE
  6
CONTINUOUS
 62
    4
 10
561.22494810176204
 20
397.0953649400916
 11
575.15026321337223
 21
421.2147182248068
  0
CIRCLE
  8
_0-5_ADD_LINE
  6
CONTINUOUS
 62
    4
 10
561.22494810176204
 20
397.0953649400916
 40
0.9
  0
LINE
  8
_0-2_寸法
  6
CONTINUOUS
 62
    4
 10
760.25160736300234
 20
248.49717083998704
 11
561.25160736300222
 21
248.49717083998704
  0
INSERT
  2
-000-_Dot
  8
_0-2_寸法
 10
436.25160736300228
 20
248.49717083998704
 41
0.5
 42
0.5
 50
0
  0
POINT
  8
_0-2_寸法
 62
    7
 10
436.25160736300228
 20
248.49717083998704
  0
INSERT
  2
-000-_Dot
  8
_0-2_寸法
 10
436.25160736300228
 20
248.49717083998704
 41
0.5
 42
0.5
 50
180
  0
POINT
  8
_0-2_寸法
 62
    7
 10
436.25160736300228
 20
248.49717083998704
  0
POINT
  8
_0-2_寸法
 62
    7
 10
436.25160736300228
 20
248.49717083998704
  0
TEXT
  8
_0-2_寸法
 62
    7
 10
263.98229760062247
 20
249.50013289962379
 40
5
 41
1
 50
0
  1
350
  0
TEXT
  8
_0-2_寸法
 62
    7
 10
500.33810185472964
 20
250.65308804232677
 40
5
 41
1
 50
0
  1
Ｃ
  0
TEXT
  8
_0-2_寸法
 62
    7
 10
656.34003072238716
 20
249.01957505728257
 40
5
 41
1
 50
0
  1
200
  0
POINT
  8
_0-2_寸法
 62
    7
 10
564.21668461571903
 20
358.30520953896058
  0
POINT
  8
_0-0_0
 62
    7
 10
564.14816135344813
 20
358.30880069096571
  0
CIRCLE
  8
_0-5_ADD_LINE
  6
CONTINUOUS
 62
    4
 10
556.58635320263011
 20
420.23016960902561
 40
6
  0
TEXT
  8
_0-5_ADD_LINE
 62
    7
 10
553.58635320263124
 20
417.23016960902572
 40
5
 41
1
 50
0
  1
３
  0
LINE
  8
_0-5_ADD_LINE
  6
CONTINUOUS
 62
    4
 10
528.77329894718025
 20
372.05654652491666
 11
553.58635320263124
 21
415.03401718631886
  0
TEXT
  8
_0-5_ADD_LINE
 62
    7
 10
533.21077622291421
 20
345.1911930488223
 40
5
 41
1
 50
0
  1
８
  0
CIRCLE
  8
_0-5_ADD_LINE
  6
CONTINUOUS
 62
    4
 10
536.21077622291421
 20
348.19119304882241
 40
6
  0
LINE
  8
_0-5_ADD_LINE
  6
CONTINUOUS
 62
    4
 10
521.42909009114521
 20
373.79382445058144
 11
533.21077622291421
 21
353.38734547152893
  0
CIRCLE
  8
_0-5_ADD_LINE
  6
CONTINUOUS
 62
    4
 10
521.42909009114521
 20
373.79382445058144
 40
0.9
  0
CIRCLE
  8
_0-5_ADD_LINE
  6
CONTINUOUS
 62
    4
 10
528.77329894718025
 20
372.05654652491666
 40
0.9
  0
CIRCLE
  8
_0-5_ADD_LINE
  6
CONTINUOUS
 62
    4
 10
515.58901819169716
 20
366.40578168621909
 40
0.9
  0
LINE
  8
_0-5_ADD_LINE
  6
CONTINUOUS
 62
    4
 10
515.58901819169716
 20
366.40578168621909
 11
532.01140385655424
 21
337.96137533319671
  0
CIRCLE
  8
_0-5_ADD_LINE
  6
CONTINUOUS
 62
    4
 10
535.01140385655424
 20
332.76522291049008
 40
6
  0
TEXT
  8
_0-5_ADD_LINE
 62
    7
 10
531.76140385655424
 20
329.76522291049008
 40
5
 41
1
 50
0
  1
16
  0
LINE
  8
_0-5_ADD_LINE
  6
CONTINUOUS
 62
    4
 10
504.1298556099801
 20
363.54136647153831
 11
494.4326019781011
 21
346.74523048724149
  0
CIRCLE
  8
_0-5_ADD_LINE
  6
CONTINUOUS
 62
    4
 10
504.1298556099801
 20
363.54136647153831
 40
0.9
  0
TEXT
  8
_0-5_ADD_LINE
 62
    7
 10
488.1826019781011
 20
338.54907806453497
 40
5
 41
1
 50
0
  1
20
  0
CIRCLE
  8
_0-5_ADD_LINE
  6
CONTINUOUS
 62
    4
 10
491.4326019781011
 20
341.54907806453497
 40
6
  0
CIRCLE
  8
_0-5_ADD_LINE
  6
CONTINUOUS
 62
    4
 10
509.12559638700014
 20
333.22254814081401
 40
0.9
  0
LINE
  8
_0-5_ADD_LINE
  6
CONTINUOUS
 62
    4
 10
509.12559638700014
 20
333.22254814081401
 11
499.08398219225325
 21
315.82996216550822
  0
CIRCLE
  8
_0-5_ADD_LINE
  6
CONTINUOUS
 62
    4
 10
496.08398219225325
 20
310.6338097428017
 40
6
  0
TEXT
  8
_0-5_ADD_LINE
 62
    7
 10
492.83398219225325
 20
307.6338097428017
 40
5
 41
1
 50
0
  1
17
  0
LINE
  8
_0-5_ADD_LINE
  6
CONTINUOUS
 62
    4
 10
512.25160736300234
 20
298.30520953896092
 11
560.25160736300222
 21
298.30520953896092
  0
TEXT
  8
_0-5_ADD_LINE
 62
    7
 10
533.75160736300234
 20
299.30520953896081
 40
5
 41
1
 50
0
  1
50
  0
POINT
  8
_0-5_ADD_LINE
 62
    7
 10
511.25160736300228
 20
298.30520953896092
  0
POINT
  8
_0-5_ADD_LINE
 62
    7
 10
561.25160736300222
 20
298.30520953896092
  0
POINT
  8
_0-5_ADD_LINE
 62
    7
 10
561.18308410073109
 20
298.30880069096571
  0
INSERT
  2
-001-_Dot_1_
  8
_0-5_ADD_LINE
 10
561.18308410073109
 20
298.30880069096571
 41
0.5
 42
0.5
 50
0
  0
INSERT
  2
-000-_Dot
  8
_0-5_ADD_LINE
 10
561.25160736300222
 20
298.30520953896092
 41
0.5
 42
0.5
 50
0
  0
LINE
  8
_0-6_
  6
CONTINUOUS
 62
    2
 10
506.48717464859448
 20
374.88317253896054
 11
515.67456664859458
 21
374.40168153896008
  0
LINE
  8
_0-6_
  6
CONTINUOUS
 62
    4
 10
496.26927964859357
 20
358.8792320106557
 11
496.69525717689845
 21
359.30520953896104
  0
ARC
  8
_0-6_
  6
CONTINUOUS
 62
    7
 10
496.26927964859357
 20
351.05520953896104
 40
8.25
 50
90
 51
108.92464441605439
  0
ARC
  8
_0-6_
  6
CONTINUOUS
 62
    7
 10
496.26927964859357
 20
351.05520953896104
 40
9.25
 50
90
 51
108.92464441605439
  0
ARC
  8
_0-6_
  6
CONTINUOUS
 62
    7
 10
490.26927964859357
 20
368.55520953896081
 40
9.25
 50
270
 51
288.92464441605443
  0
LINE
  8
_0-6_
  6
DASHED1
 62
    3
 10
516.00160836300245
 20
349.30520953896058
 11
515.30160636300241
 21
350.00520853896097
  0
LINE
  8
_0-6_
  6
DASHED1
 62
    3
 10
515.30160636300241
 20
359.3052085389607
 11
515.30160636300241
 21
350.00520853896097
  0
LINE
  8
_0-6_
  6
DASHED1
 62
    3
 10
516.00160836300245
 20
330.67703653896098
 11
516.00160836300245
 21
349.30520953896058
  0
LINE
  8
_0-6_
  6
DASHED1
 62
    3
 10
515.75160636300245
 20
318.8052085389607
 11
515.75160636300245
 21
319.66851253896044
  0
LINE
  8
_0-6_
  6
DASHED1
 62
    3
 10
517.87663836300237
 20
320.04321253896052
 11
516.00160836300245
 21
330.67703653896098
  0
LINE
  8
_0-6_
  6
DASHED1
 62
    3
 10
511.75160736300228
 20
330.30520753896081
 11
510.75160836300239
 21
330.30520753896081
  0
LINE
  8
_0-6_
  6
DASHED1
 62
    3
 10
506.50160736300228
 20
349.30520953896058
 11
507.20160636300221
 21
350.00520853896097
  0
LINE
  8
_0-6_
  6
DASHED1
 62
    3
 10
507.20160636300221
 20
359.3052085389607
 11
507.20160636300221
 21
350.00520853896097
  0
LINE
  8
_0-6_
  6
DASHED1
 62
    3
 10
506.50160736300228
 20
330.67703653896098
 11
506.50160736300228
 21
349.30520953896058
  0
LINE
  8
_0-6_
  6
DASHED1
 62
    3
 10
507.75160836300239
 20
317.80520953896058
 11
514.75160736300234
 21
317.80520953896058
  0
ARC
  8
_0-6_
  6
DASHED1
 62
    3
 10
507.75160836300239
 20
318.8052085389607
 40
0.9999989999999993
 50
180
 51
270
  0
LINE
  8
_0-6_
  6
DASHED1
 62
    3
 10
506.7516063630024
 20
318.8052085389607
 11
506.7516063630024
 21
319.66851253896044
  0
LINE
  8
_0-6_
  6
DASHED1
 62
    3
 10
504.62657736300235
 20
320.04321253896052
 11
508.81200936300212
 21
319.30520953896058
  0
LINE
  8
_0-6_
  6
DASHED1
 62
    3
 10
511.75160736300228
 20
330.30520753896081
 11
513.69120336300227
 21
319.30520953896058
  0
LINE
  8
_0-6_
  6
DASHED1
 62
    3
 10
510.75160836300239
 20
330.30520753896081
 11
508.81200936300212
 21
319.30520953896058
  0
LINE
  8
_0-6_
  6
DASHED1
 62
    3
 10
504.62657736300235
 20
320.04321253896052
 11
506.50160736300228
 21
330.67703653896098
  0
LINE
  8
_0-6_
  6
DASHED1
 62
    3
 10
516.00160836300245
 20
349.30520953896058
 11
506.50160736300228
 21
349.30520953896058
  0
LINE
  8
_0-6_
  6
DASHED1
 62
    3
 10
515.30160636300241
 20
350.00520853896097
 11
507.20160636300221
 21
350.00520853896097
  0
LINE
  8
_0-6_
  6
DASHED1
 62
    3
 10
517.87663836300237
 20
320.04321253896052
 11
513.69120336300227
 21
319.30520953896058
  0
ARC
  8
_0-6_
  6
DASHED1
 62
    3
 10
514.75160736300234
 20
318.8052085389607
 40
0.9999989999999993
 50
270
 51
0
  0
LINE
  8
_0-6_
  6
CONTINUOUS
 62
    4
 10
497.10947073927133
 20
358.30520953896058
 11
498.10947073927156
 21
359.30520953896104
  0
LINE
  8
_0-6_
  6
CONTINUOUS
 62
    4
 10
498.52368430164444
 20
358.30520953896058
 11
499.52368430164421
 21
359.30520953896036
  0
LINE
  8
_0-6_
  6
CONTINUOUS
 62
    4
 10
499.93789786401845
 20
358.30520953896058
 11
500.93789786401845
 21
359.30520953896036
  0
LINE
  8
_0-6_
  6
CONTINUOUS
 62
    4
 10
501.35211142639133
 20
358.30520953896058
 11
502.35211142639156
 21
359.30520953896036
  0
LINE
  8
_0-6_
  6
CONTINUOUS
 62
    4
 10
502.76632498876444
 20
358.30520953896058
 11
503.76632498876421
 21
359.30520953896036
  0
LINE
  8
_0-6_
  6
CONTINUOUS
 62
    4
 10
504.18053855113845
 20
358.30520953896058
 11
505.18053855113754
 21
359.30520953896036
  0
LINE
  8
_0-6_
  6
CONTINUOUS
 62
    4
 10
505.59475211350929
 20
358.30520953896058
 11
506.59475211350951
 21
359.30520953896036
  0
LINE
  8
_0-6_
  6
CONTINUOUS
 62
    4
 10
507.00896567588239
 20
358.3052095389599
 11
508.00896567588239
 21
359.30520953896036
  0
LINE
  8
_0-6_
  6
CONTINUOUS
 62
    4
 10
508.42317923825527
 20
358.3052095389599
 11
509.4231792382555
 21
359.30520953896036
  0
LINE
  8
_0-6_
  6
CONTINUOUS
 62
    4
 10
509.83739280062838
 20
358.3052095389599
 11
510.83739280062952
 21
359.30520953896036
  0
LINE
  8
_0-6_
  6
CONTINUOUS
 62
    4
 10
511.2516063630024
 20
358.30520953896058
 11
512.25160636300245
 21
359.30520953896036
  0
LINE
  8
_0-6_
  6
CONTINUOUS
 62
    4
 10
512.66581992537647
 20
358.30520953896058
 11
513.66581992537556
 21
359.30520953896036
  0
LINE
  8
_0-6_
  6
CONTINUOUS
 62
    4
 10
514.08003348774935
 20
358.30520953896058
 11
515.08003348774957
 21
359.30520953896036
  0
LINE
  8
_0-6_
  6
CONTINUOUS
 62
    4
 10
515.49424705012245
 20
358.3052095389599
 11
516.49424705012245
 21
359.30520953895967
  0
LINE
  8
_0-6_
  6
CONTINUOUS
 62
    4
 10
516.90846061249442
 20
358.30520953896058
 11
517.90846061249442
 21
359.30520953896104
  0
LINE
  8
_0-6_
  6
CONTINUOUS
 62
    4
 10
518.3226741748673
 20
358.30520953896058
 11
519.32267417486753
 21
359.30520953896036
  0
LINE
  8
_0-6_
  6
CONTINUOUS
 62
    4
 10
519.73688773724064
 20
358.30520953896058
 11
520.73688773724155
 21
359.30520953896036
  0
LINE
  8
_0-6_
  6
CONTINUOUS
 62
    4
 10
521.15110129961442
 20
358.30520953896058
 11
522.15110129961442
 21
359.30520953896036
  0
LINE
  8
_0-6_
  6
CONTINUOUS
 62
    4
 10
522.5653148619873
 20
358.30520953896058
 11
523.56531486198753
 21
359.30520953896036
  0
LINE
  8
_0-6_
  6
CONTINUOUS
 62
    4
 10
523.97952842436132
 20
358.30520953896058
 11
524.97952842436155
 21
359.30520953896036
  0
LINE
  8
_0-6_
  6
CONTINUOUS
 62
    4
 10
525.39374198673443
 20
358.30520953896058
 11
526.26927964859362
 21
359.18074720081978
  0
LINE
  8
_0-6_
  6
CONTINUOUS
 62
    3
 10
526.26927964859362
 20
358.30520953896058
 11
496.26927964859357
 21
358.30520953896058
  0
LINE
  8
_0-6_
  6
CONTINUOUS
 62
    3
 10
496.26927964859357
 20
358.30520953896058
 11
496.26927964859357
 21
359.30520953896036
  0
LINE
  8
_0-6_
  6
CONTINUOUS
 62
    3
 10
496.26927964859357
 20
359.30520953896036
 11
526.26927964859362
 21
359.30520953896036
  0
LINE
  8
_0-6_
  6
CONTINUOUS
 62
    3
 10
526.26927964859362
 20
359.30520953896036
 11
526.26927964859362
 21
358.30520953896058
  0
ARC
  8
_0-6_
  6
CONTINUOUS
 62
    7
 10
490.26927964859357
 20
368.55520953896081
 40
10.25
 50
270
 51
288.92464441605443
  0
LINE
  8
_0-6_
  6
CONTINUOUS
 62
    2
 10
520.26927964859453
 20
364.41397953896086
 11
520.26927964859453
 21
362.81398053896061
  0
LINE
  8
_0-6_
  6
CONTINUOUS
 62
    2
 10
520.26927964859453
 20
364.41397953896086
 11
502.26927964859448
 21
364.41397953896086
  0
LINE
  8
_0-6_
  6
CONTINUOUS
 62
    2
 10
502.26927964859448
 20
364.41397953896086
 11
502.26927964859448
 21
362.81398053896061
  0
LINE
  8
_0-6_
  6
CONTINUOUS
 62
    2
 10
505.38927964859437
 20
368.67704253896051
 11
505.38927964859437
 21
364.41397953896086
  0
LINE
  8
_0-6_
  6
CONTINUOUS
 62
    2
 10
506.31927964859443
 20
369.21397953896059
 11
505.38927964859437
 21
368.67704253896051
  0
ARC
  8
_0-6_
  6
CONTINUOUS
 62
    2
 10
506.31927964859443
 20
365.40458553896048
 40
3.8093940000000002
 50
59.210035999999995
 51
90
  0
ARC
  8
_0-6_
  6
CONTINUOUS
 62
    2
 10
511.26927964859448
 20
360.5646195389607
 40
8.6493599999999997
 50
69.705444999999997
 51
110.294555
  0
LINE
  8
_0-6_
  6
CONTINUOUS
 62
    2
 10
508.26927964859448
 20
368.67704253896051
 11
508.26927964859448
 21
364.41397953896086
  0
LINE
  8
_0-6_
  6
CONTINUOUS
 62
    2
 10
514.26927964859453
 20
368.67704253896051
 11
514.26927964859453
 21
364.41397953896086
  0
LINE
  8
_0-6_
  6
CONTINUOUS
 62
    2
 10
517.14927964859464
 20
368.67704253896051
 11
517.14927964859464
 21
364.41397953896086
  0
LINE
  8
_0-6_
  6
CONTINUOUS
 62
    2
 10
516.21927964859458
 20
369.21397953896059
 11
517.14927964859464
 21
368.67704253896051
  0
LINE
  8
_0-6_
  6
CONTINUOUS
 62
    2
 10
506.31927964859443
 20
369.21397953896059
 11
516.21927964859458
 21
369.21397953896059
  0
ARC
  8
_0-6_
  6
CONTINUOUS
 62
    2
 10
516.21927964859458
 20
365.40458553896048
 40
3.8093940000000002
 50
90
 51
120.789964
  0
LINE
  8
_0-6_
  6
CONTINUOUS
 62
    2
 10
506.53950964859433
 20
375.88180353896047
 11
506.48717464859448
 21
374.88317253896054
  0
LINE
  8
_0-6_
  6
CONTINUOUS
 62
    2
 10
515.72690164859443
 20
375.40031253896046
 11
515.67456664859458
 21
374.40168153896008
  0
ARC
  8
_0-6_
  6
CONTINUOUS
 62
    2
 10
505.54088164859451
 20
375.93413853896033
 40
0.9999989999999993
 50
356.99999999999994
 51
87
  0
ARC
  8
_0-6_
  6
CONTINUOUS
 62
    2
 10
516.72553264859437
 20
375.34797453896005
 40
0.9999989999999993
 50
87
 51
176.99999999999997
  0
ARC
  8
_0-6_
  6
CONTINUOUS
 62
    2
 10
499.26927964859448
 20
369.81397953896072
 40
0.9999989999999993
 50
270
 51
0
  0
LINE
  8
_0-6_
  6
CONTINUOUS
 62
    2
 10
499.26927964859448
 20
368.81398053896061
 11
495.06927964859443
 21
368.81398053896061
  0
ARC
  8
_0-6_
  6
CONTINUOUS
 62
    2
 10
502.86927964859439
 20
376.07415153896051
 40
0.9999989999999993
 50
87.000000000000014
 51
180
  0
LINE
  8
_0-6_
  6
CONTINUOUS
 62
    2
 10
519.72161464859448
 20
376.19233053896056
 11
502.92161464859424
 21
377.07277953896033
  0
ARC
  8
_0-6_
  6
CONTINUOUS
 62
    2
 10
519.6692796485944
 20
375.19369953896063
 40
0.9999989999999993
 50
0
 51
87.000000000000014
  0
LINE
  8
_0-6_
  6
CONTINUOUS
 62
    2
 10
523.26927964859453
 20
368.81398053896061
 11
527.46927964859458
 21
368.81398053896061
  0
ARC
  8
_0-6_
  6
CONTINUOUS
 62
    2
 10
523.26927964859453
 20
369.81397953896072
 40
0.9999989999999993
 50
180
 51
270
  0
LINE
  8
_0-6_
  6
CONTINUOUS
 62
    2
 10
501.86928064859427
 20
369.81397953896072
 11
501.86928064859427
 21
376.07415153896051
  0
ARC
  8
_0-6_
  6
CONTINUOUS
 62
    2
 10
499.26927964859448
 20
369.81397953896072
 40
2.6000009999999998
 50
270
 51
0
  0
LINE
  8
_0-6_
  6
CONTINUOUS
 62
    2
 10
499.26927964859448
 20
367.2139785389607
 11
494.76927964859448
 21
367.2139785389607
  0
LINE
  8
_0-6_
  6
CONTINUOUS
 62
    2
 10
500.26927864859459
 20
376.07415153896051
 11
500.26927864859459
 21
369.81397953896072
  0
ARC
  8
_0-6_
  6
CONTINUOUS
 62
    2
 10
502.86927964859439
 20
376.07415153896051
 40
2.6000009999999998
 50
87.000000000000014
 51
180
  0
LINE
  8
_0-6_
  6
CONTINUOUS
 62
    2
 10
522.26928064859442
 20
375.19369953896063
 11
522.26928064859442
 21
369.81397953896072
  0
ARC
  8
_0-6_
  6
CONTINUOUS
 62
    2
 10
519.6692796485944
 20
375.19369953896063
 40
2.6000009999999998
 50
0
 51
87.000000000000014
  0
LINE
  8
_0-6_
  6
CONTINUOUS
 62
    2
 10
519.80535364859463
 20
377.79013653896078
 11
503.00535364859439
 21
378.67058853896066
  0
LINE
  8
_0-6_
  6
CONTINUOUS
 62
    2
 10
520.66927864859429
 20
369.81397953896072
 11
520.66927864859429
 21
375.19369953896063
  0
ARC
  8
_0-6_
  6
CONTINUOUS
 62
    2
 10
523.26927964859453
 20
369.81397953896072
 40
2.6000009999999998
 50
180
 51
270
  0
LINE
  8
_0-6_
  6
CONTINUOUS
 62
    2
 10
523.26927964859453
 20
367.2139785389607
 11
527.76927964859453
 21
367.2139785389607
  0
LINE
  8
_0-6_
  6
CONTINUOUS
 62
    2
 10
527.46927964859458
 20
366.31397853896084
 11
525.51927964859453
 21
366.31397853896084
  0
ARC
  8
_0-6_
  6
CONTINUOUS
 62
    2
 10
527.46927964859458
 20
366.61397853896057
 40
0.2999999999999998
 50
270
 51
0
  0
ARC
  8
_0-6_
  6
CONTINUOUS
 62
    2
 10
527.46927964859458
 20
368.51398053896088
 40
0.2999999999999998
 50
0
 51
90
  0
LINE
  8
_0-6_
  6
CONTINUOUS
 62
    2
 10
510.76927864859459
 20
362.81398053896061
 11
511.26927964859448
 21
362.31397953896072
  0
LINE
  8
_0-6_
  6
CONTINUOUS
 62
    2
 10
511.76928064859436
 20
362.81398053896061
 11
511.26927964859448
 21
362.31397953896072
  0
LINE
  8
_0-6_
  6
CONTINUOUS
 62
    2
 10
506.26927864859459
 20
360.81397953896072
 11
506.26927864859459
 21
360.31397853896084
  0
LINE
  8
_0-6_
  6
CONTINUOUS
 62
    2
 10
527.26927864859465
 20
370.31398053896061
 11
524.51928064859442
 21
370.31398053896061
  0
ARC
  8
_0-6_
  6
CONTINUOUS
 62
    2
 10
527.26927864859465
 20
370.81397853896084
 40
0.500001
 50
270
 51
0
  0
ARC
  8
_0-6_
  6
CONTINUOUS
 62
    2
 10
524.51928064859442
 20
369.56398053896061
 40
0.75
 50
90
 51
270
  0
LINE
  8
_0-6_
  6
CONTINUOUS
 62
    2
 10
516.26928064859442
 20
360.81397953896072
 11
527.76927964859453
 21
360.81397953896072
  0
LINE
  8
_0-6_
  6
CONTINUOUS
 62
    2
 10
516.26928064859442
 20
360.81397953896072
 11
516.26928064859442
 21
360.31397853896084
  0
ARC
  8
_0-6_
  6
CONTINUOUS
 62
    2
 10
525.51927964859453
 20
365.56397853896084
 40
0.75
 50
90
 51
270
  0
LINE
  8
_0-6_
  6
CONTINUOUS
 62
    2
 10
527.46927964859458
 20
364.81397853896084
 11
525.51927964859453
 21
364.81397853896084
  0
ARC
  8
_0-6_
  6
CONTINUOUS
 62
    2
 10
527.46927964859458
 20
364.51397853896043
 40
0.2999999999999998
 50
0
 51
90
  0
LINE
  8
_0-6_
  6
CONTINUOUS
 62
    2
 10
494.76927964859448
 20
360.81397953896072
 11
506.26927864859459
 21
360.81397953896072
  0
LINE
  8
_0-6_
  6
CONTINUOUS
 62
    2
 10
495.06927964859443
 20
366.31397853896084
 11
497.01927964859448
 21
366.31397853896084
  0
ARC
  8
_0-6_
  6
CONTINUOUS
 62
    2
 10
495.06927964859443
 20
366.61397853896057
 40
0.2999999999999998
 50
180
 51
270
  0
LINE
  8
_0-6_
  6
CONTINUOUS
 62
    2
 10
494.76927964859448
 20
366.61397853896057
 11
494.76927964859448
 21
368.51398053896088
  0
ARC
  8
_0-6_
  6
CONTINUOUS
 62
    2
 10
495.06927964859443
 20
368.51398053896088
 40
0.2999999999999998
 50
90
 51
180
  0
LINE
  8
_0-6_
  6
CONTINUOUS
 62
    2
 10
493.76928064859436
 20
370.31398053896061
 11
498.01927864859459
 21
370.31398053896061
  0
ARC
  8
_0-6_
  6
CONTINUOUS
 62
    2
 10
493.76928064859436
 20
369.81397953896072
 40
0.500001
 50
90
 51
180
  0
ARC
  8
_0-6_
  6
CONTINUOUS
 62
    2
 10
498.01927864859459
 20
369.56398053896061
 40
0.75
 50
270
 51
90
  0
LINE
  8
_0-6_
  6
CONTINUOUS
 62
    2
 10
493.26927964859448
 20
369.81397953896072
 11
493.26927964859448
 21
360.31397853896084
  0
LINE
  8
_0-6_
  6
CONTINUOUS
 62
    2
 10
494.76927964859448
 20
360.81397953896072
 11
494.76927964859448
 21
360.31397853896084
  0
ARC
  8
_0-6_
  6
CONTINUOUS
 62
    2
 10
497.01927964859448
 20
365.56397853896084
 40
0.75
 50
270
 51
90
  0
ARC
  8
_0-6_
  6
CONTINUOUS
 62
    2
 10
495.06927964859443
 20
363.11398053896033
 40
0.2999999999999998
 50
180
 51
270
  0
LINE
  8
_0-6_
  6
CONTINUOUS
 62
    2
 10
494.76927964859448
 20
363.11398053896033
 11
494.76927964859448
 21
364.51397853896043
  0
ARC
  8
_0-6_
  6
CONTINUOUS
 62
    2
 10
495.06927964859443
 20
364.51397853896043
 40
0.2999999999999998
 50
90
 51
180
  0
LINE
  8
_0-6_
  6
CONTINUOUS
 62
    2
 10
495.06927964859443
 20
364.81397853896084
 11
497.01927964859448
 21
364.81397853896084
  0
ARC
  8
_0-6_
  6
CONTINUOUS
 62
    2
 10
527.26927864859465
 20
363.31397853896084
 40
0.500001
 50
270
 51
0
  0
LINE
  8
_0-6_
  6
CONTINUOUS
 62
    2
 10
527.26927864859465
 20
362.81398053896061
 11
495.06927964859443
 21
362.81398053896061
  0
LINE
  8
_0-6_
  6
CONTINUOUS
 62
    2
 10
494.76927964859448
 20
360.31397853896084
 11
493.26927964859448
 21
360.31397853896084
  0
ARC
  8
_0-6_
  6
CONTINUOUS
 62
    2
 10
528.76927864859465
 20
378.31397853896084
 40
0.9999989999999993
 50
0
 51
180
  0
LINE
  8
_0-6_
  6
CONTINUOUS
 62
    2
 10
527.76927964859453
 20
370.81397853896084
 11
527.76927964859453
 21
378.31397853896084
  0
LINE
  8
_0-6_
  6
CONTINUOUS
 62
    2
 10
527.76927964859453
 20
366.61397853896057
 11
527.76927964859453
 21
368.51398053896088
  0
ARC
  8
_0-6_
  6
CONTINUOUS
 62
    2
 10
530.26927864859465
 20
363.31397853896084
 40
0.500001
 50
180
 51
270
  0
LINE
  8
_0-6_
  6
CONTINUOUS
 62
    2
 10
529.76928064859442
 20
361.31398053896061
 11
529.76928064859442
 21
360.31397853896084
  0
LINE
  8
_0-6_
  6
CONTINUOUS
 62
    2
 10
527.76927964859453
 20
360.81397953896072
 11
527.76927964859453
 21
360.31397853896084
  0
LINE
  8
_0-6_
  6
CONTINUOUS
 62
    2
 10
527.76927964859453
 20
363.31397853896084
 11
527.76927964859453
 21
364.51397853896043
  0
LINE
  8
_0-6_
  6
CONTINUOUS
 62
    2
 10
540.26928064859464
 20
361.31398053896061
 11
540.26928064859464
 21
360.31397853896084
  0
LINE
  8
_0-6_
  6
CONTINUOUS
 62
    2
 10
541.76928064859464
 20
360.31397853896084
 11
540.26928064859464
 21
360.31397853896084
  0
LINE
  8
_0-6_
  6
CONTINUOUS
 62
    2
 10
529.76928064859442
 20
360.31397853896084
 11
527.76927964859453
 21
360.31397853896084
  0
LINE
  8
_0-6_
  6
CONTINUOUS
 62
    2
 10
541.76928064859464
 20
362.31398053896083
 11
541.76928064859464
 21
360.31397853896084
  0
ARC
  8
_0-6_
  6
CONTINUOUS
 62
    2
 10
541.26928064859442
 20
362.31398053896083
 40
0.5
 50
0
 51
90
  0
LINE
  8
_0-6_
  6
CONTINUOUS
 62
    4
 10
530.01928064859533
 20
366.06398053896083
 11
531.26928064867536
 21
366.06398053896083
  0
LINE
  8
_0-6_
  6
CONTINUOUS
 62
    4
 10
534.26928064867536
 20
366.06398053896083
 11
535.51928064859555
 21
366.06398053896083
  0
ARC
  8
_0-6_
  6
CONTINUOUS
 62
    4
 10
561.11588612093215
 20
408.99937316125266
 40
0.5
 50
260.801339104806
 51
78.590455650788144
  0
ARC
  8
_0-6_
  6
CONTINUOUS
 62
    4
 10
556.26928064867616
 20
384.98353639889302
 40
24.999999999999996
 50
78.590455650788186
 51
180
  0
ARC
  8
_0-6_
  6
CONTINUOUS
 62
    4
 10
557.34522624263718
 20
385.71516789689764
 40
23.087541006014401
 50
80.801339104808051
 51
181.81597582067386
  0
LINE
  8
_0-6_
  6
CONTINUOUS
 62
    2
 10
529.76928064859442
 20
361.31398053896061
 11
537.27522952243532
 21
361.31398053896061
  0
LINE
  8
_0-6_
  6
CONTINUOUS
 62
    2
 10
537.27522952243532
 20
361.31398053896061
 11
540.26928064859464
 21
361.31398053896061
  0
LINE
  8
_0-6_
  6
CONTINUOUS
 62
    2
 10
535.26928064859442
 20
362.81398053896061
 11
530.26927864859465
 21
362.81398053896061
  0
LINE
  8
_0-6_
  6
CONTINUOUS
 62
    2
 10
541.26928064859442
 20
362.81398053896061
 11
537.26928064859464
 21
362.81398053896061
  0
ARC
  8
_0-6_
  6
CONTINUOUS
 62
    4
 10
535.26928064859442
 20
363.31398053896083
 40
0.25
 50
270
 51
0
  0
ARC
  8
_0-6_
  6
CONTINUOUS
 62
    4
 10
530.26927864859465
 20
363.31397853896084
 40
0.2500009999999999
 50
180
 51
270
  0
LINE
  8
_0-6_
  6
CONTINUOUS
 62
    4
 10
535.51928064859555
 20
363.31398053896083
 11
535.51928064859555
 21
366.06398053896083
  0
LINE
  8
_0-6_
  6
CONTINUOUS
 62
    4
 10
530.01928064859533
 20
363.31397853896084
 11
530.01928064859533
 21
366.06398053896083
  0
LINE
  8
_0-6_
  6
CONTINUOUS
 62
    4
 10
535.26928064859442
 20
363.06398053896083
 11
530.26927864859465
 21
363.06398053896083
  0
LINE
  8
_0-6_
  6
CONTINUOUS
 62
    2
 10
529.76928064859442
 20
378.31397853896084
 11
529.76928064859442
 21
367.81398053896152
  0
LINE
  8
_0-6_
  6
CONTINUOUS
 62
    2
 10
529.76928064859442
 20
366.31398053896152
 11
529.76928064859442
 21
363.31397853896084
  0
LINE
  8
_0-6_
  6
CONTINUOUS
 62
    2
 10
535.76928064859464
 20
363.31398053896083
 11
535.76928064859464
 21
366.31398053896152
  0
LINE
  8
_0-6_
  6
CONTINUOUS
 62
    2
 10
537.26928064859464
 20
367.31398053896174
 11
537.26928064859464
 21
362.81398053896061
  0
ARC
  8
_0-6_
  6
CONTINUOUS
 62
    2
 10
536.76928064859442
 20
367.31398053896174
 40
0.5
 50
0
 51
90
  0
ARC
  8
_0-6_
  6
CONTINUOUS
 62
    2
 10
535.26928064859442
 20
363.31398053896083
 40
0.5
 50
270
 51
0
  0
LINE
  8
_0-6_
  6
CONTINUOUS
 62
    2
 10
536.76928064859442
 20
367.81398053896152
 11
535.51928064859442
 21
367.81398053896152
  0
ARC
  8
_0-6_
  6
CONTINUOUS
 62
    2
 10
535.51928064859442
 20
366.81398053896174
 40
1
 50
90
 51
180
  0
LINE
  8
_0-6_
  6
CONTINUOUS
 62
    2
 10
534.51928064859442
 20
366.81398053896174
 11
534.51928064859442
 21
366.31398053896152
  0
LINE
  8
_0-6_
  6
CONTINUOUS
 62
    2
 10
534.51928064859442
 20
366.31398053896152
 11
535.76928064859464
 21
366.31398053896152
  0
LINE
  8
_0-6_
  6
CONTINUOUS
 62
    2
 10
529.76928064859442
 20
366.31398053896152
 11
531.01928064859442
 21
366.31398053896152
  0
LINE
  8
_0-6_
  6
CONTINUOUS
 62
    2
 10
531.01928064859442
 20
366.81398053896174
 11
531.01928064859442
 21
366.31398053896152
  0
ARC
  8
_0-6_
  6
CONTINUOUS
 62
    2
 10
530.01928064859442
 20
366.81398053896174
 40
1
 50
0
 51
90
  0
LINE
  8
_0-6_
  6
CONTINUOUS
 62
    2
 10
530.01928064859442
 20
367.81398053896152
 11
529.76928064859442
 21
367.81398053896152
  0
LINE
  8
_0-6_
  6
CONTINUOUS
 62
    7
 10
526.26927964859362
 20
359.18074720081978
 11
526.26927964859362
 21
360.30520953896081
  0
LINE
  8
_0-6_
  6
CONTINUOUS
 62
    7
 10
496.26927964859357
 20
360.30520953896081
 11
526.26927964859362
 21
360.30520953896081
  0
LINE
  8
_0-6_
  6
CONTINUOUS
 62
    4
 10
531.26928064867536
 20
366.06398053896083
 11
531.25563543542296
 21
386.03240709286825
  0
LINE
  8
_0-6_
  6
CONTINUOUS
 62
    4
 10
534.26928064867536
 20
366.06398053896083
 11
534.25563543542296
 21
387.49567008888204
  0
LINE
  8
_0-6_
  6
CENTER1
 62
    3
 10
511.2516063630024
 20
280.78425066037278
 11
511.2516063630024
 21
358.30520953896058
  0
LINE
  8
_0-0_0
  6
CONTINUOUS
 62
    7
 10
561.25160736300222
 20
358.30520953896058
 11
561.25160736300222
 21
231.79432585554218
  0
CIRCLE
  8
_0-4_図枠
  6
CONTINUOUS
 62
    4
 10
561.08909798700029
 20
409.79287592188035
 40
0.9
  0
LINE
  8
_0-4_図枠
  6
CONTINUOUS
 62
    4
 10
561.08909798700029
 20
409.79287592188035
 11
578.45962394466346
 21
439.87950943474578
  0
CIRCLE
  8
_0-4_図枠
  6
CONTINUOUS
 62
    4
 10
496.69525717689845
 20
359.30520953896104
 40
0.9
  0
CIRCLE
  8
_0-4_図枠
  6
CONTINUOUS
 62
    4
 10
472.71961397153547
 20
400.81674064141788
 40
6
  0
LINE
  8
_0-4_図枠
  6
CONTINUOUS
 62
    4
 10
496.69525717689845
 20
359.30520953896104
 11
475.71961397153547
 21
395.62058821871113
  0
TEXT
  8
_0-4_図枠
 62
    7
 10
469.44854320954528
 20
398.00234153472525
 40
5
 41
1
 50
0
  1
５
  0
TEXT
  8
_0-4_図枠
 62
    7
 10
578.22403444242786
 20
442.20473568344636
 40
5
 41
1
 50
0
  1
11
  0
CIRCLE
  8
_0-4_図枠
  6
CONTINUOUS
 62
    4
 10
581.22403444242786
 20
445.20473568344647
 40
6
  0
ARC
  8
_0-3_躯体と製品
  6
CONTINUOUS
 62
    7
 10
436.25160736300228
 20
357.30520953896081
 40
1
 50
90
 51
175.00000000000051
  0
ARC
  8
_0-3_躯体と製品
  6
CONTINUOUS
 62
    7
 10
436.25160736300228
 20
357.30520953896081
 40
2
 50
90
 51
175.00000000000051
  0
LINE
  8
_0-3_躯体と製品
  6
CONTINUOUS
 62
    7
 10
435.25541266491024
 20
357.39236528170858
 11
427.27530478195479
 21
266.17931479786017
  0
LINE
  8
_0-3_躯体と製品
  6
CONTINUOUS
 62
    7
 10
434.25921796681911
 20
357.47952102445635
 11
426.27148494441195
 21
266.17931479786017
  0
LINE
  8
_0-3_躯体と製品
  6
CONTINUOUS
 62
    7
 10
436.25160736300228
 20
358.30520953896058
 11
436.25160736300228
 21
231.79432585554218
  0
LINE
  8
_0-3_躯体と製品
  6
CONTINUOUS
 62
    7
 10
436.25160736300228
 20
358.30520953896058
 11
561.25160736300222
 21
358.30520953896058
  0
LINE
  8
_0-3_躯体と製品
  6
CONTINUOUS
 62
    7
 10
436.25160736300228
 20
359.30520953896092
 11
490.25160736300228
 21
359.30520953896092
  0
LINE
  8
_0-0_0
  6
CONTINUOUS
 62
    4
 10
430.81851424556794
 20
358.30880069096571
 11
21.192327140529812
 21
358.30880069096571
  0
LINE
  8
_0-2_寸法
  6
CONTINUOUS
 62
    4
 10
31.251607363002279
 20
359.30880069096571
 11
31.251607363002279
 21
435.80134898028518
  0
INSERT
  2
-000-_Dot
  8
_0-2_寸法
 10
31.251607363002279
 20
358.30880069096571
 41
0.5
 42
0.5
 50
270
  0
LINE
  8
_0-2_寸法
  6
CONTINUOUS
 62
    4
 10
21.192327140529812
 20
494.50134898028523
 11
21.192327140529812
 21
359.30880069096571
  0
INSERT
  2
-000-_Dot
  8
_0-2_寸法
 10
21.192327140529812
 20
358.30880069096571
 41
0.5
 42
0.5
 50
270
  0
POINT
  8
_0-2_寸法
 62
    7
 10
21.192327140529812
 20
358.30880069096571
  0
POINT
  8
_0-2_寸法
 62
    7
 10
31.251607363002279
 20
358.30880069096571
  0
LINE
  8
_0-2_寸法
  6
CONTINUOUS
 62
    4
 10
564.14816135344813
 20
358.30880069096571
 11
801.25160736300222
 21
358.30880069096571
  0
CIRCLE
  8
_0-5_ADD_LINE
  6
CONTINUOUS
 62
    4
 10
529.54956209176976
 20
403.9310794625228
 40
0.9
  0
CIRCLE
  8
_0-5_ADD_LINE
  6
CONTINUOUS
 62
    4
 10
514.00017810081272
 20
401.20882681909177
 40
0.9
  0
LINE
  8
_0-6_
  6
DASHED1
 62
    3
 10
501.85725638895281
 20
409.61744997399762
 11
524.82573638895281
 21
408.41372397399743
  0
LINE
  8
_0-6_
  6
DASHED1
 62
    3
 10
488.40968738895265
 20
397.40054097399741
 11
501.85725638895281
 21
409.61744997399762
  0
LINE
  8
_0-6_
  6
DASHED1
 62
    3
 10
484.56086438895261
 20
399.60716697399755
 11
485.22210038895253
 21
400.05746697399798
  0
LINE
  8
_0-6_
  6
DASHED1
 62
    3
 10
485.22210038895253
 20
400.05746697399798
 11
486.91071638895289
 21
397.57783497399794
  0
LINE
  8
_0-6_
  6
DASHED1
 62
    3
 10
484.56086438895261
 20
399.60716697399755
 11
486.24948038895275
 21
397.12753497399751
  0
ARC
  8
_0-6_
  6
DASHED1
 62
    3
 10
487.73725838895268
 20
398.14070697399745
 40
0.9999989999999993
 50
214.25465800000001
 51
312.25465199999996
  0
ARC
  8
_0-6_
  6
DASHED1
 62
    3
 10
487.73725838895268
 20
398.14070697399745
 40
1.7999999999999994
 50
214.25465800000001
 51
312.25465100000002
  0
ARC
  8
_0-6_
  6
DASHED1
 62
    3
 10
513.26299238895274
 20
407.51764197399768
 40
6.3000000000000007
 50
37.903458000000029
 51
136.096542
  0
LINE
  8
_0-6_
  6
DASHED1
 62
    3
 10
508.16754338895259
 20
410.60412897399726
 11
508.0986903889526
 21
409.29035097399799
  0
LINE
  8
_0-6_
  6
DASHED1
 62
    3
 10
518.65315238895244
 20
410.05460097399725
 11
518.58430238895278
 21
408.74082297399798
  0
ARC
  8
_0-6_
  6
DASHED1
 62
    3
 10
510.16480238895281
 20
410.49945897399755
 40
2.0000010000000001
 50
136.096542
 51
176.99999999999997
  0
LINE
  8
_0-6_
  6
DASHED1
 62
    3
 10
488.9476263889527
 20
396.80840997399753
 11
502.14838538895253
 21
408.80109597399758
  0
LINE
  8
_0-6_
  6
DASHED1
 62
    3
 10
502.14838538895253
 20
408.80109597399758
 11
524.49171338895246
 21
407.63012997399744
  0
LINE
  8
_0-6_
  6
DASHED1
 62
    3
 10
536.32573538895247
 20
394.32542997399776
 11
524.4508683889527
 21
407.63227197399772
  0
ARC
  8
_0-6_
  6
DASHED1
 62
    3
 10
516.65589338895268
 20
410.15927397399753
 40
2.0000010000000001
 50
356.99999999999994
 51
37.903457999999993
  0
LINE
  8
_0-6_
  6
DASHED1
 62
    3
 10
540.98101838895252
 20
396.65031297399798
 11
540.37047338895252
 21
397.16726097399749
  0
LINE
  8
_0-6_
  6
DASHED1
 62
    3
 10
540.37047338895252
 20
397.16726097399749
 11
538.43191538895269
 21
394.87772097399773
  0
LINE
  8
_0-6_
  6
DASHED1
 62
    3
 10
540.98101838895252
 20
396.65031297399798
 11
539.04246038895246
 21
394.36077297399731
  0
ARC
  8
_0-6_
  6
DASHED1
 62
    3
 10
537.66873638895265
 20
395.52390897399744
 40
0.9999989999999993
 50
221.74534799999995
 51
319.74534199999994
  0
LINE
  8
_0-6_
  6
DASHED1
 62
    3
 10
536.92262438895261
 20
394.85808597399716
 11
524.82573638895281
 21
408.41372397399743
  0
ARC
  8
_0-6_
  6
DASHED1
 62
    3
 10
537.66873638895265
 20
395.52390897399744
 40
1.7999999999999994
 50
221.74534899999995
 51
319.74534199999994
  0
LINE
  8
_0-6_
  6
CENTER1
 62
    3
 10
513.64799438895272
 20
414.86393697399751
 11
511.50172674212661
 21
376.19704003842969
  0
LINE
  8
_0-6_
  6
DASHED1
 62
    3
 10
516.3373863889525
 20
408.85857897399717
 11
514.63576475365414
 21
379.40727316358186
  0
LINE
  8
_0-6_
  6
DASHED1
 62
    3
 10
510.34560638895243
 20
409.17259497399789
 11
508.64398867890338
 21
379.72128857284531
  0
LINE
  8
_0-6_
  6
DASHED1
 62
    3
 10
508.64398867890338
 20
379.72128857284531
 11
514.63576475365414
 21
379.40727316358186
  0
LINE
  8
_0-6_
  6
DASHED1
 62
    3
 10
515.83806938895248
 20
408.88474797399783
 11
514.10761066971997
 21
378.93426635072353
  0
LINE
  8
_0-6_
  6
DASHED1
 62
    3
 10
510.84492338895268
 20
409.14642597399722
 11
509.11446050809707
 21
379.19594603834082
  0
LINE
  8
_0-6_
  6
CONTINUOUS
 62
    3
 10
509.11446050809707
 20
379.19594603834082
 11
514.10761066971997
 21
378.93426635072353
  0
LINE
  8
_0-6_
  6
CONTINUOUS
 62
    3
 10
514.31472304139913
 20
379.11975305964313
 11
514.10761066971997
 21
378.93426635072353
  0
LINE
  8
_0-6_
  6
CONTINUOUS
 62
    3
 10
509.11446050809707
 20
379.19594603834082
 11
508.92996754697094
 21
379.40195624720388
  0
LINE
  8
_0-6_
  6
DASHED1
 62
    3
 10
514.63576475365414
 20
379.40727316358186
 11
514.31472304139913
 21
379.11975305964313
  0
LINE
  8
_0-6_
  6
DASHED1
 62
    3
 10
508.92996754697094
 20
379.40195624720388
 11
508.64398867890338
 21
379.72128857284531
  0
LINE
  8
_0-5_ADD_LINE
  6
CONTINUOUS
 62
    4
 10
514.00017810081272
 20
401.20882681909177
 11
531.82571063984483
 21
432.08355484866729
  0
LINE
  8
_0-5_ADD_LINE
  6
CONTINUOUS
 62
    4
 10
529.54956209176976
 20
403.9310794625228
 11
547.83665186414578
 21
435.6052480708513
  0
CIRCLE
  8
_0-5_ADD_LINE
  6
CONTINUOUS
 62
    4
 10
534.82571063984483
 20
437.27970727137415
 40
6
  0
CIRCLE
  8
_0-5_ADD_LINE
  6
CONTINUOUS
 62
    4
 10
550.83665186414578
 20
440.80140049355805
 40
6
  0
TEXT
  8
_0-5_ADD_LINE
 62
    7
 10
547.83665186414578
 20
437.80140049355816
 40
5
 41
1
 50
0
  1
７
  0
TEXT
  8
_0-5_ADD_LINE
 62
    7
 10
531.57571063984483
 20
434.27970727137426
 40
5
 41
1
 50
0
  1
14
  0
TEXT
  8
_0-4_図枠
 62
    7
 10
597.09937733729555
 20
198.00529324734686
 40
5
 41
1
 50
0
  1
78.5
  0
TEXT
  8
_0-4_図枠
 62
    7
 10
568.19086805643542
 20
198.16770060285728
 40
5
 41
1
 50
0
  1
125
  0
TEXT
  8
_0-4_図枠
 62
    7
 10
507.93773916205851
 20
198.16770060285728
 40
5
 41
1
 50
0
  1
675
  0
TEXT
  8
_0-4_図枠
 62
    7
 10
537.8206925759813
 20
197.68047853632595
 40
5
 41
1
 50
0
  1
660
  0
TEXT
  8
_0-4_図枠
 62
    7
 10
626.14935700929402
 20
197.86724275405845
 40
5
 41
1
 50
0
  1
137.2
  0
TEXT
  8
_0-4_図枠
 62
    7
 10
427.40223320641684
 20
198.66542397415031
 40
5
 41
1
 50
0
  1
２５０ＦＹＫＧ－Ｓ６７５
  0
LINE
  8
_0-4_図枠
  6
CONTINUOUS
 62
    7
 10
422.02562498647399
 20
214.43492983736246
 11
422.02562498647399
 21
196.43492983736246
  0
LINE
  8
_0-4_図枠
  6
CONTINUOUS
 62
    7
 10
497.02562498647399
 20
214.43492983736246
 11
497.02562498647399
 21
196.43492983736246
  0
LINE
  8
_0-4_図枠
  6
CONTINUOUS
 62
    7
 10
527.02562498647399
 20
214.43492983736246
 11
527.02562498647399
 21
196.43492983736246
  0
LINE
  8
_0-4_図枠
  6
CONTINUOUS
 62
    7
 10
557.02562498647285
 20
214.43492983736246
 11
557.02562498647285
 21
196.43492983736246
  0
LINE
  8
_0-4_図枠
  6
CONTINUOUS
 62
    7
 10
587.02562498647399
 20
214.43492983736246
 11
587.02562498647399
 21
196.43492983736246
  0
LINE
  8
_0-4_図枠
  6
CONTINUOUS
 62
    7
 10
617.02562498647399
 20
214.43492983736246
 11
617.02562498647399
 21
196.43492983736246
  0
LINE
  8
_0-4_図枠
  6
CONTINUOUS
 62
    7
 10
647.02562498647399
 20
214.43492983736246
 11
647.02562498647399
 21
196.43492983736246
  0
POINT
  8
_0-2_寸法
 62
    7
 10
21.192327140529812
 20
495.50134898028512
  0
POINT
  8
_0-2_寸法
 62
    7
 10
21.192327140529812
 20
495.50134898028512
  0
TEXT
  8
_0-4_図枠
 62
    7
 10
27.572133695607818
 20
566.48245806947125
 40
5
 41
1
 50
0
  1
◇ステンレス３５０タイプ（３５０ＦＹＫＧ－Ｓ）
  0
TEXT
  8
_0-4_図枠
 62
    7
 10
341.98386162225762
 20
197.93492983736257
 40
5
 41
1
 50
0
  1
２０００
  0
TEXT
  8
_0-4_図枠
 62
    7
 10
341.98386162225762
 20
188.93492983736246
 40
5
 41
1
 50
0
  1
２０００
  0
TEXT
  8
_0-4_図枠
 62
    7
 10
341.98386162225762
 20
179.93492983736246
 40
5
 41
1
 50
0
  1
２０００
  0
TEXT
  8
_0-4_図枠
 62
    7
 10
341.98386162225762
 20
170.93492983736246
 40
5
 41
1
 50
0
  1
２０００
  0
TEXT
  8
_0-4_図枠
 62
    7
 10
341.98386162225762
 20
161.93492983736257
 40
5
 41
1
 50
0
  1
６０００
  0
TEXT
  8
_0-0_0
 62
    7
 10
342.07340971073035
 20
108.32178505495307
 40
5
 41
1
 50
0
  1
２０６０
  0
TEXT
  8
_0-4_図枠
 62
    7
 10
341.98386162225762
 20
98.934929837362461
 40
5
 41
1
 50
0
  1
２１００
  0
TEXT
  8
_0-4_図枠
 62
    7
 10
341.98386162225762
 20
89.934929837362574
 40
5
 41
1
 50
0
  1
２０００
  0
TEXT
  8
_0-4_図枠
 62
    7
 10
342.24708883557992
 20
206.93492983736257
 40
5
 41
1
 50
0
  1
定尺(mm)
  0
TEXT
  8
_0-4_図枠
 62
    7
 10
375.77562498647399
 20
197.93492983736257
 40
5
 41
1
 50
0
  1
１
  0
TEXT
  8
_0-4_図枠
 62
    7
 10
375.77562498647399
 20
188.93492983736246
 40
5
 41
1
 50
0
  1
１
  0
TEXT
  8
_0-4_図枠
 62
    7
 10
375.77562498647399
 20
179.93492983736246
 40
5
 41
1
 50
0
  1
１
  0
TEXT
  8
_0-4_図枠
 62
    7
 10
375.77562498647399
 20
170.93492983736246
 40
5
 41
1
 50
0
  1
１
  0
TEXT
  8
_0-4_図枠
 62
    7
 10
375.77562498647399
 20
161.93492983736257
 40
5
 41
1
 50
0
  1
１
  0
TEXT
  8
_0-4_図枠
 62
    7
 10
375.77562498647399
 20
152.93492983736257
 40
5
 41
1
 50
0
  1
４
  0
TEXT
  8
_0-4_図枠
 62
    7
 10
375.77562498647399
 20
143.93492983736257
 40
5
 41
1
 50
0
  1
４
  0
TEXT
  8
_0-4_図枠
 62
    7
 10
375.77562498647399
 20
134.93492983736246
 40
5
 41
1
 50
0
  1
４
  0
TEXT
  8
_0-4_図枠
 62
    7
 10
375.77562498647399
 20
125.93492983736246
 40
5
 41
1
 50
0
  1
１
  0
TEXT
  8
_0-4_図枠
 62
    7
 10
375.77562498647399
 20
116.93492983736246
 40
5
 41
1
 50
0
  1
１
  0
TEXT
  8
_0-0_0
 62
    7
 10
375.68705275620738
 20
108.46761255081896
 40
5
 41
1
 50
0
  1
１
  0
TEXT
  8
_0-4_図枠
 62
    7
 10
375.77562498647399
 20
98.934929837362461
 40
5
 41
1
 50
0
  1
１
  0
TEXT
  8
_0-4_図枠
 62
    7
 10
375.77562498647399
 20
89.934929837362574
 40
5
 41
1
 50
0
  1
１
  0
TEXT
  8
_0-4_図枠
 62
    7
 10
375.77562498647399
 20
80.934929837362461
 40
5
 41
1
 50
0
  1
４
  0
TEXT
  8
_0-4_図枠
 62
    7
 10
375.77562498647399
 20
71.934929837362461
 40
5
 41
1
 50
0
  1
５
  0
TEXT
  8
_0-4_図枠
 62
    7
 10
375.77562498647399
 20
62.934929837362461
 40
5
 41
1
 50
0
  1
５
  0
TEXT
  8
_0-4_図枠
 62
    7
 10
375.77562498647399
 20
53.934929837362631
 40
5
 41
1
 50
0
  1
５
  0
TEXT
  8
_0-4_図枠
 62
    7
 10
375.77562498647399
 20
44.934929837362517
 40
5
 41
1
 50
0
  1
５
  0
TEXT
  8
_0-4_図枠
 62
    7
 10
375.77562498647399
 20
35.934929837362631
 40
5
 41
1
 50
0
  1
５
  0
TEXT
  8
_0-4_図枠
 62
    7
 10
375.77562498647399
 20
26.934929837362631
 40
5
 41
1
 50
0
  1
５
  0
TEXT
  8
_0-4_図枠
 62
    7
 10
375.77562498647399
 20
17.934929837362517
 40
5
 41
1
 50
0
  1
５
  0
TEXT
  8
_0-4_図枠
 62
    7
 10
244.02562498647399
 20
161.93492983736257
 40
5
 41
1
 50
0
  1
ｔ１．０×ｗ３０
  0
TEXT
  8
_0-4_図枠
 62
    7
 10
244.02562498647399
 20
152.93492983736257
 40
5
 41
1
 50
0
  1
３５０ＦＹＫＨ－６７５
  0
TEXT
  8
_0-4_図枠
 62
    7
 10
244.02562498647399
 20
125.93492983736246
 40
5
 41
1
 50
0
  1
３５０ＦＹＫＪ－６７５
  0
TEXT
  8
_0-0_0
 62
    7
 10
242.48602944192382
 20
108.37039422024162
 40
5
 41
1
 50
0
  1
ＳＰＶＣ
  0
TEXT
  8
_0-4_図枠
 62
    7
 10
244.02562498647399
 20
98.934929837362461
 40
5
 41
1
 50
0
  1
ＦＳ１２００
  0
TEXT
  8
_0-4_図枠
 62
    7
 10
244.02562498647399
 20
80.934929837362461
 40
5
 41
1
 50
0
  1
なべＭ６×３５
  0
TEXT
  8
_0-4_図枠
 62
    7
 10
244.02562498647399
 20
71.934929837362461
 40
5
 41
1
 50
0
  1
なべＭ４×１０
  0
TEXT
  8
_0-4_図枠
 62
    7
 10
244.02562498647399
 20
62.934929837362461
 40
5
 41
1
 50
0
  1
Ｍ６×４０
  0
TEXT
  8
_0-4_図枠
 62
    7
 10
244.02562498647399
 20
53.934929837362631
 40
5
 41
1
 50
0
  1
ＡＧ－６６０
  0
TEXT
  8
_0-4_図枠
 62
    7
 10
244.02562498647399
 20
44.934929837362517
 40
5
 41
1
 50
0
  1
φ８×４０
  0
TEXT
  8
_0-4_図枠
 62
    7
 10
244.02562498647399
 20
35.934929837362631
 40
5
 41
1
 50
0
  1
なべ ５×５０
  0
TEXT
  8
_0-4_図枠
 62
    7
 10
244.02562498647399
 20
26.934929837362631
 40
5
 41
1
 50
0
  1
１．５×１８×６．５穴
  0
TEXT
  8
_0-4_図枠
 62
    7
 10
244.02562498647399
 20
17.934929837362517
 40
5
 41
1
 50
0
  1
１．５×１８×５．５穴
  0
TEXT
  8
_0-4_図枠
 62
    7
 10
244.02562498647399
 20
197.93492983736257
 40
5
 41
1
 50
0
  1
３５０ＦＹＫ－Ｓ６７５
  0
ENDSEC
  0
EOF
