  0
SECTION
  2
HEADER
  9
$ACADVER
  1
AC1009
  9
$INSBASE
 10
0
 20
0
 30
0
  9
$EXTMIN
 10
0
 20
0
  9
$EXTMAX
 10
840
 20
594
  9
$LIMMIN
 10
0
 20
0
  9
$LIMMAX
 10
840
 20
594
  9
$LTSCALE
 40
2
  0
ENDSEC
  0
SECTION
  2
TABLES
  0
TABLE
  2
LTYPE
 70
     9
  0
LTYPE
  2
CONTINUOUS
 70
    64
  3
実線
 72
    65
 73
     0
 40
0.0
  0
LTYPE
  2
DASHED1
 70
    64
  3
--  --  --  --  --  --  --  --  
 72
    65
 73
     2
 40
2.5
 49
1.25
 49
-1.25
  0
LTYPE
  2
DASHED2
 70
    64
  3
----    ----    ----    ----    
 72
    65
 73
     2
 40
5.0
 49
2.5
 49
-2.5
  0
LTYPE
  2
DASHED3
 70
    64
  3
------  ------  ------  ------  
 72
    65
 73
     2
 40
5.0
 49
3.75
 49
-1.25
  0
LTYPE
  2
CENTER1
 70
    64
  3
----- - ----- - ----- - ----- - 
 72
    65
 73
     4
 40
10.0
 49
6.25
 49
-1.25
 49
1.25
 49
-1.25
  0
LTYPE
  2
CENTER2
 70
    64
  3
----------  --  ----------  --  
 72
    65
 73
     4
 40
20.0
 49
12.5
 49
-2.5
 49
2.5
 49
-2.5
  0
LTYPE
  2
PHANTOM1
 70
    64
  3
--- - - --- - - --- - - --- - - 
 72
    65
 73
     6
 40
10.0
 49
3.25
 49
-1.25
 49
1.25
 49
-1.25
 49
1.25
 49
-1.25
  0
LTYPE
  2
PHANTOM2
 70
    64
  3
--------  -  -  --------  -  -  
 72
    65
 73
     6
 40
20.0
 49
10.0
 49
-2.5
 49
1.25
 49
-2.5
 49
1.25
 49
-2.5
  0
LTYPE
  2
DOT
 70
    64
  3
-   -   -   -   -   -   -   -   
 72
    65
 73
     2
 40
2.5
 49
0.625
 49
-1.875
  0
LTYPE
  2
DUMMY
 70
    64
  3
ダミー
 72
    65
 73
     0
 40
0.0
  0
LTYPE
  2
RAND1
 70
    64
  3
ランダム線1
 72
    65
 73
     4
 40
10.0
 49
1.0
 49
-2.0
 49
3.0
 49
-4.0
  0
LTYPE
  2
RAND2
 70
    64
  3
ランダム線2
 72
    65
 73
     4
 40
14.0
 49
2.0
 49
-3.0
 49
4.0
 49
-5.0
  0
LTYPE
  2
RAND3
 70
    64
  3
ランダム線3
 72
    65
 73
     4
 40
18.0
 49
3.0
 49
-4.0
 49
5.0
 49
-6.0
  0
LTYPE
  2
RAND4
 70
    64
  3
ランダム線4
 72
    65
 73
     4
 40
22.0
 49
4.0
 49
-5.0
 49
6.0
 49
-7.0
  0
LTYPE
  2
RAND5
 70
    64
  3
ランダム線5
 72
    65
 73
     4
 40
26.0
 49
5.0
 49
-6.0
 49
7.0
 49
-8.0
  0
LTYPE
  2
LONG1
 70
    64
  3
----------  --  ----------  --  
 72
    65
 73
     4
 40
40.0
 49
32.5
 49
-2.5
 49
2.5
 49
-2.5
  0
LTYPE
  2
LONG2
 70
    64
  3
--------  -  -  --------  -  -  
 72
    65
 73
     6
 40
40.0
 49
30.0
 49
-2.5
 49
1.25
 49
-2.5
 49
1.25
 49
-2.5
  0
LTYPE
  2
LONG3
 70
    64
  3
+++++++++++++++..+++++++++++++++
 72
    65
 73
     2
 40
40.0
 49
37.5
 49
-2.5
  0
LTYPE
  2
LONG4
 70
    64
  3
+++++++++++++++..+++++++++++++++
 72
    65
 73
     2
 40
80.0
 49
75.0
 49
-5.0
  0
LTYPE
  2
LONG5
 70
    64
  3
----------  --  ----------  --  
 72
    65
 73
     4
 40
60.0
 49
37.5
 49
-7.5
 49
7.5
 49
-7.5
  0
LTYPE
  2
dashed
 70
   64
  3
-------   -------------   ------
 72
   65
 73
    2
 40
7.5
 49
6
 49
-1.5
  0
LTYPE
  2
dashed_spaced
 70
   64
  3
----        --------        ----
 72
   65
 73
    2
 40
12
 49
6
 49
-6
  0
LTYPE
  2
long_dashed_dotted
 70
   64
  3
------------- --- --------------
 72
   65
 73
    4
 40
15.25
 49
12
 49
-1.5
 49
0.25
 49
-1.5
  0
LTYPE
  2
long_dashed_double-dotted
 70
   64
  3
----------- --- --- ------------
 72
   65
 73
    6
 40
17
 49
12
 49
-1.5
 49
0.25
 49
-1.5
 49
0.25
 49
-1.5
  0
LTYPE
  2
long_dashed_triplicate-dotted
 70
   64
  3
--------- --- --- --- ----------
 72
   65
 73
    8
 40
18.75
 49
12
 49
-1.5
 49
0.25
 49
-1.5
 49
0.25
 49
-1.5
 49
0.25
 49
-1.5
  0
LTYPE
  2
dotted
 70
   64
  3
   -       -       -       -    
 72
   65
 73
    2
 40
1.75
 49
0.25
 49
-1.5
  0
LTYPE
  2
chain
 70
   64
  3
-------------- -- --------------
 72
   65
 73
    4
 40
18.5
 49
12
 49
-1.5
 49
3.5
 49
-1.5
  0
LTYPE
  2
chain_double_dash
 70
   64
  3
------------ -- -- -------------
 72
   65
 73
    6
 40
23.5
 49
12
 49
-1.5
 49
3.5
 49
-1.5
 49
3.5
 49
-1.5
  0
LTYPE
  2
dashed_dotted
 70
   64
  3
-----------     -     ----------
 72
   65
 73
    4
 40
9.25
 49
6
 49
-1.5
 49
0.25
 49
-1.5
  0
LTYPE
  2
double-dashed_dotted
 70
   64
  3
------   -----------   -   -----
 72
   65
 73
    6
 40
16.75
 49
6
 49
-1.5
 49
6
 49
-1.5
 49
0.25
 49
-1.5
  0
LTYPE
  2
dashed_double-dotted
 70
   64
  3
---------    -    -    ---------
 72
   65
 73
    6
 40
11
 49
6
 49
-1.5
 49
0.25
 49
-1.5
 49
0.25
 49
-1.5
  0
LTYPE
  2
double-dashed_double-dotted
 70
   64
  3
-----   ---------   -   -   ----
 72
   65
 73
    8
 40
18.5
 49
6
 49
-1.5
 49
6
 49
-1.5
 49
0.25
 49
-1.5
 49
0.25
 49
-1.5
  0
LTYPE
  2
dashed_triplicate-dotted
 70
   64
  3
-------    -    -    -    ------
 72
   65
 73
    8
 40
12.75
 49
6
 49
-1.5
 49
0.25
 49
-1.5
 49
0.25
 49
-1.5
 49
0.25
 49
-1.5
  0
LTYPE
  2
double-dashed_triplicate-dotted
 70
   64
  3
-----  ---------  -  -  -  -----
 72
   65
 73
   10
 40
20.25
 49
6
 49
-1.5
 49
6
 49
-1.5
 49
0.25
 49
-1.5
 49
0.25
 49
-1.5
 49
0.25
 49
-1.5
  0
LTYPE
  2
undefined
 70
   64
  3
--------------------------------
 72
   65
 73
    0
 40
0
  0
LTYPE
  2
PLINE2
 70
   64
  3
------     -----------     -----
 72
   65
 73
    2
 40
3
 49
2.1000000000000001
 49
-0.9
  0
LTYPE
  2
PLINE3
 70
   64
  3
------------   ---   -----------
 72
   65
 73
    4
 40
10
 49
7
 49
-1
 49
1
 49
-1
  0
LTYPE
  2
PLINE4
 70
   64
  3
---------   ---   ---   --------
 72
   65
 73
    6
 40
10
 49
5
 49
-1
 49
1
 49
-1
 49
1
 49
-1
  0
LTYPE
  2
PLINE5
 70
   64
  3
------     -----------     -----
 72
   65
 73
    2
 40
5
 49
3.5
 49
-1.5
  0
LTYPE
  2
PLINE6
 70
   64
  3
------------   ---   -----------
 72
   65
 73
    4
 40
15
 49
10.5
 49
-1.5
 49
1.5
 49
-1.5
  0
LTYPE
  2
PLINE7
 70
   64
  3
---------   ---   ---   --------
 72
   65
 73
    6
 40
15
 49
7.5
 49
-1.5
 49
1.5
 49
-1.5
 49
1.5
 49
-1.5
  0
LTYPE
  2
PLINE8
 70
   64
  3
------     -----------     -----
 72
   65
 73
    2
 40
7
 49
4.9000000000000004
 49
-2.1000000000000001
  0
LTYPE
  2
PLINE9
 70
   64
  3
------------   ---   -----------
 72
   65
 73
    4
 40
20
 49
14
 49
-2
 49
2
 49
-2
  0
LTYPE
  2
PLINE10
 70
   64
  3
---------   ---   ---   --------
 72
   65
 73
    6
 40
20
 49
10
 49
-2
 49
2
 49
-2
 49
2
 49
-2
  0
LTYPE
  2
PLINE11
 70
   64
  3
------     -----------     -----
 72
   65
 73
    2
 40
9
 49
6.2999999999999989
 49
-2.7000000000000002
  0
LTYPE
  2
PLINE12
 70
   64
  3
------------   ---   -----------
 72
   65
 73
    4
 40
25
 49
17.5
 49
-2.5
 49
2.5
 49
-2.5
  0
LTYPE
  2
PLINE13
 70
   64
  3
---------   ---   ---   --------
 72
   65
 73
    6
 40
25
 49
12.5
 49
-2.5
 49
2.5
 49
-2.5
 49
2.5
 49
-2.5
  0
LTYPE
  2
PLINE14
 70
   64
  3
------     -----------     -----
 72
   65
 73
    2
 40
11
 49
7.7000000000000002
 49
-3.2999999999999989
  0
LTYPE
  2
PLINE15
 70
   64
  3
------------   ---   -----------
 72
   65
 73
    4
 40
30
 49
21
 49
-3
 49
3
 49
-3
  0
LTYPE
  2
PLINE16
 70
   64
  3
---------   ---   ---   --------
 72
   65
 73
    6
 40
30
 49
15
 49
-3
 49
3
 49
-3
 49
3
 49
-3
  0
ENDTAB
  0
TABLE
  2
STYLE
  5
3
100
AcDbSymbolTable
 70
     1
  0
STYLE
  5
10
100
AcDbSymbolTableRecord
100
AcDbTextStyleTableRecord
  2
STANDARD
 70
     0
 40
0.0
 41
1.0
 50
0.0
 71
     0
 42
0.2
  3
txt
  4
bigfont.shx
  0
STYLE
  5
26
100
AcDbSymbolTableRecord
100
AcDbTextStyleTableRecord
  2
TATEGAKI
 70
    68
 40
0.0
 41
1.0
 50
0.0
 71
     0
 42
1.0
  3
txt
  4
bigfont.shx
  0
ENDTAB
  0
TABLE
  2
LAYER
 70
    7
  0
LAYER
  2
_0-0_0
 70
   64
 62
    7
  6
CONTINUOUS
  0
LAYER
  2
_0-4_図枠
 70
   64
 62
    7
  6
CONTINUOUS
  0
LAYER
  2
_0-5_ADD_LINE
 70
   64
 62
    7
  6
CONTINUOUS
  0
LAYER
  2
_0-7_
 70
   64
 62
    7
  6
CONTINUOUS
  0
LAYER
  2
_0-8_
 70
   64
 62
    7
  6
CONTINUOUS
  0
LAYER
  2
_0-9_
 70
   64
 62
    7
  6
CONTINUOUS
  0
LAYER
  2
ADD_LINE
 70
   64
 62
    7
  6
CONTINUOUS
  0
ENDTAB
  0
ENDSEC
  0
SECTION
  2
BLOCKS
  0
ENDSEC
  0
SECTION
  2
ENTITIES
  0
LINE
  8
_0-9_
  6
CONTINUOUS
 62
    2
 10
773.99879642276233
 20
113.97891901562133
 11
764.74862042276231
 21
113.97891901562133
  0
LINE
  8
_0-9_
  6
CONTINUOUS
 62
    2
 10
764.74862042276231
 20
115.17891901562115
 11
767.14862042276241
 21
115.17891901562115
  0
ARC
  8
_0-9_
  6
CONTINUOUS
 62
    2
 10
764.74862042276231
 20
114.57891901562124
 40
0.5999999999999996
 50
90
 51
270
  0
LINE
  8
_0-4_図枠
  6
CONTINUOUS
 62
    7
 10
714.95906516424793
 20
4.0605693338215474
 11
489.95906516424793
 21
4.0605693338215474
  0
LINE
  8
_0-4_図枠
  6
CONTINUOUS
 62
    7
 10
402.95906516424793
 20
-175.93943066617845
 11
469.95906516424793
 21
-175.93943066617845
  0
LINE
  8
_0-4_図枠
  6
CONTINUOUS
 62
    7
 10
402.95906516424793
 20
-22.939430666178453
 11
469.95906516424793
 21
-22.939430666178453
  0
LINE
  8
_0-4_図枠
  6
CONTINUOUS
 62
    7
 10
714.95906516424793
 20
13.060569333821547
 11
489.95906516424793
 21
13.060569333821547
  0
LINE
  8
_0-4_図枠
  6
CONTINUOUS
 62
    7
 10
831.95906516424793
 20
380.90852972158501
 11
7.9590651642479315
 21
380.90852972158501
  0
TEXT
  8
_0-4_図枠
 62
    7
 10
388.45906516424793
 20
14.560569333821547
 40
5
 41
1
 50
0
  1
単位
  0
TEXT
  8
_0-4_図枠
 62
    7
 10
456.45906516424793
 20
14.560569333821547
 40
5
 41
1
 50
0
  1
単位
  0
TEXT
  8
_0-4_図枠
 62
    7
 10
459.95906516424793
 20
-174.43943066617845
 40
5
 41
1
 50
0
  1
〃
  0
TEXT
  8
_0-4_図枠
 62
    7
 10
459.95906516424793
 20
-165.43943066617823
 40
5
 41
1
 50
0
  1
枚
  0
TEXT
  8
_0-4_図枠
 62
    7
 10
459.95906516424793
 20
-156.43943066617823
 40
5
 41
1
 50
0
  1
〃
  0
TEXT
  8
_0-4_図枠
 62
    7
 10
459.95906516424793
 20
-147.43943066617823
 40
5
 41
1
 50
0
  1
〃
  0
TEXT
  8
_0-4_図枠
 62
    7
 10
459.95906516424793
 20
-138.43943066617823
 40
5
 41
1
 50
0
  1
〃
  0
TEXT
  8
_0-4_図枠
 62
    7
 10
459.95906516424793
 20
-129.43943066617823
 40
5
 41
1
 50
0
  1
〃
  0
TEXT
  8
_0-4_図枠
 62
    7
 10
459.95906516424793
 20
-120.43943066617823
 40
5
 41
1
 50
0
  1
〃
  0
TEXT
  8
_0-4_図枠
 62
    7
 10
459.95906516424793
 20
-111.43943066617823
 40
5
 41
1
 50
0
  1
〃
  0
TEXT
  8
_0-4_図枠
 62
    7
 10
459.95906516424793
 20
-102.43943066617845
 40
5
 41
1
 50
0
  1
本
  0
TEXT
  8
_0-4_図枠
 62
    7
 10
459.95906516424793
 20
-93.439430666178453
 40
5
 41
1
 50
0
  1
〃
  0
TEXT
  8
_0-4_図枠
 62
    7
 10
459.95906516424793
 20
-84.439430666178225
 40
5
 41
1
 50
0
  1
枚
  0
TEXT
  8
_0-4_図枠
 62
    7
 10
459.95906516424793
 20
-75.439430666178453
 40
5
 41
1
 50
0
  1
〃
  0
TEXT
  8
_0-4_図枠
 62
    7
 10
459.95906516424793
 20
-66.439430666178453
 40
5
 41
1
 50
0
  1
〃
  0
TEXT
  8
_0-4_図枠
 62
    7
 10
459.95906516424793
 20
-57.439430666178453
 40
5
 41
1
 50
0
  1
〃
  0
TEXT
  8
_0-4_図枠
 62
    7
 10
459.95906516424793
 20
-48.439430666178453
 40
5
 41
1
 50
0
  1
〃
  0
TEXT
  8
_0-4_図枠
 62
    7
 10
459.95906516424793
 20
-39.439430666178453
 40
5
 41
1
 50
0
  1
〃
  0
TEXT
  8
_0-4_図枠
 62
    7
 10
459.95906516424793
 20
-21.439430666178453
 40
5
 41
1
 50
0
  1
〃
  0
TEXT
  8
_0-4_図枠
 62
    7
 10
459.95906516424793
 20
-12.439430666178453
 40
5
 41
1
 50
0
  1
〃
  0
TEXT
  8
_0-4_図枠
 62
    7
 10
459.95906516424793
 20
-3.4394306661784526
 40
5
 41
1
 50
0
  1
〃
  0
TEXT
  8
_0-4_図枠
 62
    7
 10
459.95906516424793
 20
5.5605693338215474
 40
5
 41
1
 50
0
  1
本
  0
TEXT
  8
_0-4_図枠
 62
    7
 10
391.95906516424793
 20
-174.43943066617845
 40
5
 41
1
 50
0
  1
〃
  0
TEXT
  8
_0-4_図枠
 62
    7
 10
391.95906516424793
 20
-165.43943066617823
 40
5
 41
1
 50
0
  1
枚
  0
TEXT
  8
_0-4_図枠
 62
    7
 10
391.95906516424793
 20
-156.43943066617823
 40
5
 41
1
 50
0
  1
〃
  0
TEXT
  8
_0-4_図枠
 62
    7
 10
391.95906516424793
 20
-147.43943066617823
 40
5
 41
1
 50
0
  1
〃
  0
TEXT
  8
_0-4_図枠
 62
    7
 10
391.95906516424793
 20
-138.43943066617823
 40
5
 41
1
 50
0
  1
〃
  0
TEXT
  8
_0-4_図枠
 62
    7
 10
391.95906516424793
 20
-129.43943066617823
 40
5
 41
1
 50
0
  1
〃
  0
TEXT
  8
_0-4_図枠
 62
    7
 10
391.95906516424793
 20
-120.43943066617823
 40
5
 41
1
 50
0
  1
〃
  0
TEXT
  8
_0-4_図枠
 62
    7
 10
391.95906516424793
 20
-111.43943066617823
 40
5
 41
1
 50
0
  1
〃
  0
TEXT
  8
_0-4_図枠
 62
    7
 10
391.95906516424793
 20
-102.43943066617845
 40
5
 41
1
 50
0
  1
本
  0
TEXT
  8
_0-4_図枠
 62
    7
 10
391.95906516424793
 20
-93.439430666178453
 40
5
 41
1
 50
0
  1
〃
  0
TEXT
  8
_0-4_図枠
 62
    7
 10
391.95906516424793
 20
-84.439430666178225
 40
5
 41
1
 50
0
  1
枚
  0
TEXT
  8
_0-4_図枠
 62
    7
 10
391.95906516424793
 20
-75.439430666178453
 40
5
 41
1
 50
0
  1
〃
  0
TEXT
  8
_0-4_図枠
 62
    7
 10
391.95906516424793
 20
-66.439430666178453
 40
5
 41
1
 50
0
  1
〃
  0
TEXT
  8
_0-4_図枠
 62
    7
 10
391.95906516424793
 20
-57.439430666178453
 40
5
 41
1
 50
0
  1
〃
  0
TEXT
  8
_0-4_図枠
 62
    7
 10
391.95906516424793
 20
-48.439430666178453
 40
5
 41
1
 50
0
  1
〃
  0
TEXT
  8
_0-4_図枠
 62
    7
 10
391.95906516424793
 20
-39.439430666178453
 40
5
 41
1
 50
0
  1
〃
  0
TEXT
  8
_0-4_図枠
 62
    7
 10
391.95906516424793
 20
-21.439430666178453
 40
5
 41
1
 50
0
  1
〃
  0
TEXT
  8
_0-4_図枠
 62
    7
 10
391.95906516424793
 20
-12.439430666178453
 40
5
 41
1
 50
0
  1
〃
  0
TEXT
  8
_0-4_図枠
 62
    7
 10
391.95906516424793
 20
-3.4394306661784526
 40
5
 41
1
 50
0
  1
〃
  0
TEXT
  8
_0-4_図枠
 62
    7
 10
391.95906516424793
 20
5.5605693338215474
 40
5
 41
1
 50
0
  1
本
  0
TEXT
  8
_0-4_図枠
 62
    7
 10
440.45906516424793
 20
14.560569333821547
 40
5
 41
1
 50
0
  1
入数
  0
TEXT
  8
_0-4_図枠
 62
    7
 10
372.45906516424793
 20
14.560569333821547
 40
5
 41
1
 50
0
  1
入数
  0
TEXT
  8
_0-4_図枠
 62
    7
 10
406.70906516424793
 20
14.560569333821547
 40
5
 41
1
 50
0
  1
定尺(mm)
  0
TEXT
  8
_0-4_図枠
 62
    7
 10
338.70906516424793
 20
14.560569333821547
 40
5
 41
1
 50
0
  1
定尺(mm)
  0
LINE
  8
_0-4_図枠
  6
CONTINUOUS
 62
    7
 10
402.95906516424793
 20
-166.93943066617823
 11
469.95906516424793
 21
-166.93943066617823
  0
LINE
  8
_0-4_図枠
  6
CONTINUOUS
 62
    7
 10
402.95906516424793
 20
-157.93943066617823
 11
469.95906516424793
 21
-157.93943066617823
  0
LINE
  8
_0-4_図枠
  6
CONTINUOUS
 62
    7
 10
402.95906516424793
 20
-148.93943066617823
 11
469.95906516424793
 21
-148.93943066617823
  0
LINE
  8
_0-4_図枠
  6
CONTINUOUS
 62
    7
 10
402.95906516424793
 20
-139.93943066617823
 11
469.95906516424793
 21
-139.93943066617823
  0
LINE
  8
_0-4_図枠
  6
CONTINUOUS
 62
    7
 10
402.95906516424793
 20
-130.93943066617823
 11
469.95906516424793
 21
-130.93943066617823
  0
LINE
  8
_0-4_図枠
  6
CONTINUOUS
 62
    7
 10
402.95906516424793
 20
-121.93943066617823
 11
469.95906516424793
 21
-121.93943066617823
  0
LINE
  8
_0-4_図枠
  6
CONTINUOUS
 62
    7
 10
402.95906516424793
 20
-112.93943066617845
 11
469.95906516424793
 21
-112.93943066617845
  0
LINE
  8
_0-4_図枠
  6
CONTINUOUS
 62
    7
 10
402.95906516424793
 20
-103.93943066617845
 11
469.95906516424793
 21
-103.93943066617845
  0
LINE
  8
_0-4_図枠
  6
CONTINUOUS
 62
    7
 10
402.95906516424793
 20
-94.939430666178225
 11
469.95906516424793
 21
-94.939430666178225
  0
LINE
  8
_0-4_図枠
  6
CONTINUOUS
 62
    7
 10
402.95906516424793
 20
-85.939430666178453
 11
469.95906516424793
 21
-85.939430666178453
  0
LINE
  8
_0-4_図枠
  6
CONTINUOUS
 62
    7
 10
402.95906516424793
 20
-76.939430666178453
 11
469.95906516424793
 21
-76.939430666178453
  0
LINE
  8
_0-4_図枠
  6
CONTINUOUS
 62
    7
 10
402.95906516424793
 20
-67.939430666178453
 11
469.95906516424793
 21
-67.939430666178453
  0
LINE
  8
_0-4_図枠
  6
CONTINUOUS
 62
    7
 10
402.95906516424793
 20
-58.939430666178453
 11
469.95906516424793
 21
-58.939430666178453
  0
LINE
  8
_0-4_図枠
  6
CONTINUOUS
 62
    7
 10
402.95906516424793
 20
-49.939430666178453
 11
469.95906516424793
 21
-49.939430666178453
  0
LINE
  8
_0-4_図枠
  6
CONTINUOUS
 62
    7
 10
402.95906516424793
 20
-40.939430666178453
 11
469.95906516424793
 21
-40.939430666178453
  0
LINE
  8
_0-4_図枠
  6
CONTINUOUS
 62
    7
 10
402.95906516424793
 20
-31.939430666178453
 11
469.95906516424793
 21
-31.939430666178453
  0
LINE
  8
_0-4_図枠
  6
CONTINUOUS
 62
    7
 10
402.95906516424793
 20
-13.939430666178566
 11
469.95906516424793
 21
-13.939430666178566
  0
LINE
  8
_0-4_図枠
  6
CONTINUOUS
 62
    7
 10
402.95906516424793
 20
-4.9394306661784526
 11
469.95906516424793
 21
-4.9394306661784526
  0
LINE
  8
_0-4_図枠
  6
CONTINUOUS
 62
    7
 10
402.95906516424793
 20
4.0605693338215474
 11
469.95906516424793
 21
4.0605693338215474
  0
LINE
  8
_0-4_図枠
  6
CONTINUOUS
 62
    7
 10
402.95906516424793
 20
13.060569333821547
 11
469.95906516424793
 21
13.060569333821547
  0
LINE
  8
_0-4_図枠
  6
CONTINUOUS
 62
    7
 10
402.95906516424793
 20
22.060569333821547
 11
469.95906516424793
 21
22.060569333821547
  0
LINE
  8
_0-4_図枠
  6
CONTINUOUS
 62
    7
 10
401.95906516424793
 20
-175.93943066617845
 11
334.95906516424793
 21
-175.93943066617845
  0
LINE
  8
_0-4_図枠
  6
CONTINUOUS
 62
    7
 10
401.95906516424793
 20
-166.93943066617823
 11
334.95906516424793
 21
-166.93943066617823
  0
LINE
  8
_0-4_図枠
  6
CONTINUOUS
 62
    7
 10
401.95906516424793
 20
-157.93943066617823
 11
334.95906516424793
 21
-157.93943066617823
  0
LINE
  8
_0-4_図枠
  6
CONTINUOUS
 62
    7
 10
401.95906516424793
 20
-148.93943066617823
 11
334.95906516424793
 21
-148.93943066617823
  0
LINE
  8
_0-4_図枠
  6
CONTINUOUS
 62
    7
 10
401.95906516424793
 20
-139.93943066617823
 11
334.95906516424793
 21
-139.93943066617823
  0
LINE
  8
_0-4_図枠
  6
CONTINUOUS
 62
    7
 10
401.95906516424793
 20
-130.93943066617823
 11
334.95906516424793
 21
-130.93943066617823
  0
LINE
  8
_0-4_図枠
  6
CONTINUOUS
 62
    7
 10
401.95906516424793
 20
-121.93943066617823
 11
334.95906516424793
 21
-121.93943066617823
  0
LINE
  8
_0-4_図枠
  6
CONTINUOUS
 62
    7
 10
401.95906516424793
 20
-112.93943066617845
 11
334.95906516424793
 21
-112.93943066617845
  0
LINE
  8
_0-4_図枠
  6
CONTINUOUS
 62
    7
 10
401.95906516424793
 20
-103.93943066617845
 11
334.95906516424793
 21
-103.93943066617845
  0
LINE
  8
_0-4_図枠
  6
CONTINUOUS
 62
    7
 10
401.95906516424793
 20
-94.939430666178225
 11
334.95906516424793
 21
-94.939430666178225
  0
LINE
  8
_0-4_図枠
  6
CONTINUOUS
 62
    7
 10
401.95906516424793
 20
-85.939430666178453
 11
334.95906516424793
 21
-85.939430666178453
  0
LINE
  8
_0-4_図枠
  6
CONTINUOUS
 62
    7
 10
401.95906516424793
 20
-76.939430666178453
 11
334.95906516424793
 21
-76.939430666178453
  0
LINE
  8
_0-4_図枠
  6
CONTINUOUS
 62
    7
 10
401.95906516424793
 20
-67.939430666178453
 11
334.95906516424793
 21
-67.939430666178453
  0
LINE
  8
_0-4_図枠
  6
CONTINUOUS
 62
    7
 10
401.95906516424793
 20
-58.939430666178453
 11
334.95906516424793
 21
-58.939430666178453
  0
LINE
  8
_0-4_図枠
  6
CONTINUOUS
 62
    7
 10
401.95906516424793
 20
-49.939430666178453
 11
334.95906516424793
 21
-49.939430666178453
  0
LINE
  8
_0-4_図枠
  6
CONTINUOUS
 62
    7
 10
401.95906516424793
 20
-40.939430666178453
 11
334.95906516424793
 21
-40.939430666178453
  0
LINE
  8
_0-4_図枠
  6
CONTINUOUS
 62
    7
 10
401.95906516424793
 20
-31.939430666178453
 11
334.95906516424793
 21
-31.939430666178453
  0
LINE
  8
_0-4_図枠
  6
CONTINUOUS
 62
    7
 10
401.95906516424793
 20
-22.939430666178453
 11
334.95906516424793
 21
-22.939430666178453
  0
LINE
  8
_0-4_図枠
  6
CONTINUOUS
 62
    7
 10
401.95906516424793
 20
-13.939430666178566
 11
334.95906516424793
 21
-13.939430666178566
  0
LINE
  8
_0-4_図枠
  6
CONTINUOUS
 62
    7
 10
401.95906516424793
 20
-4.9394306661784526
 11
334.95906516424793
 21
-4.9394306661784526
  0
LINE
  8
_0-4_図枠
  6
CONTINUOUS
 62
    7
 10
401.95906516424793
 20
4.0605693338215474
 11
334.95906516424793
 21
4.0605693338215474
  0
LINE
  8
_0-4_図枠
  6
CONTINUOUS
 62
    7
 10
401.95906516424793
 20
13.060569333821547
 11
334.95906516424793
 21
13.060569333821547
  0
LINE
  8
_0-4_図枠
  6
CONTINUOUS
 62
    7
 10
401.95906516424793
 20
22.060569333821547
 11
334.95906516424793
 21
22.060569333821547
  0
TEXT
  8
_0-4_図枠
 62
    7
 10
128.70906516424793
 20
-174.43943066617845
 40
5
 41
1
 50
0
  1
21
  0
TEXT
  8
_0-4_図枠
 62
    7
 10
128.70906516424793
 20
-165.43943066617823
 40
5
 41
1
 50
0
  1
20
  0
TEXT
  8
_0-4_図枠
 62
    7
 10
128.70906516424793
 20
-156.43943066617823
 40
5
 41
1
 50
0
  1
19
  0
TEXT
  8
_0-4_図枠
 62
    7
 10
128.70906516424793
 20
-147.43943066617823
 40
5
 41
1
 50
0
  1
18
  0
TEXT
  8
_0-4_図枠
 62
    7
 10
128.70906516424793
 20
-138.43943066617823
 40
5
 41
1
 50
0
  1
17
  0
TEXT
  8
_0-4_図枠
 62
    7
 10
128.70906516424793
 20
-129.43943066617823
 40
5
 41
1
 50
0
  1
16
  0
TEXT
  8
_0-4_図枠
 62
    7
 10
128.70906516424793
 20
-120.43943066617823
 40
5
 41
1
 50
0
  1
15
  0
TEXT
  8
_0-4_図枠
 62
    7
 10
128.70906516424793
 20
-111.43943066617823
 40
5
 41
1
 50
0
  1
14
  0
TEXT
  8
_0-4_図枠
 62
    7
 10
128.70906516424793
 20
-102.43943066617845
 40
5
 41
1
 50
0
  1
13
  0
TEXT
  8
_0-4_図枠
 62
    7
 10
128.70906516424793
 20
-93.439430666178453
 40
5
 41
1
 50
0
  1
12
  0
TEXT
  8
_0-4_図枠
 62
    7
 10
128.70906516424793
 20
-84.439430666178225
 40
5
 41
1
 50
0
  1
11
  0
TEXT
  8
_0-4_図枠
 62
    7
 10
128.70906516424793
 20
-75.439430666178453
 40
5
 41
1
 50
0
  1
10
  0
TEXT
  8
_0-4_図枠
 62
    7
 10
128.70906516424793
 20
-66.439430666178453
 40
5
 41
1
 50
0
  1
 9
  0
TEXT
  8
_0-4_図枠
 62
    7
 10
128.70906516424793
 20
-57.439430666178453
 40
5
 41
1
 50
0
  1
 8
  0
TEXT
  8
_0-4_図枠
 62
    7
 10
128.70906516424793
 20
-48.439430666178453
 40
5
 41
1
 50
0
  1
 7
  0
TEXT
  8
_0-4_図枠
 62
    7
 10
128.70906516424793
 20
-39.439430666178453
 40
5
 41
1
 50
0
  1
 6
  0
TEXT
  8
_0-4_図枠
 62
    7
 10
128.70906516424793
 20
-30.439430666178453
 40
5
 41
1
 50
0
  1
 5
  0
TEXT
  8
_0-4_図枠
 62
    7
 10
128.70906516424793
 20
-21.439430666178453
 40
5
 41
1
 50
0
  1
 4
  0
TEXT
  8
_0-4_図枠
 62
    7
 10
128.70906516424793
 20
-12.439430666178453
 40
5
 41
1
 50
0
  1
 3
  0
TEXT
  8
_0-4_図枠
 62
    7
 10
128.70906516424793
 20
-3.4394306661784526
 40
5
 41
1
 50
0
  1
 2
  0
TEXT
  8
_0-4_図枠
 62
    7
 10
128.70906516424793
 20
5.5605693338215474
 40
5
 41
1
 50
0
  1
 1
  0
TEXT
  8
_0-4_図枠
 62
    7
 10
126.95906516424793
 20
14.560569333821547
 40
5
 41
1
 50
0
  1
No.
  0
LINE
  8
_0-4_図枠
  6
CONTINUOUS
 62
    7
 10
333.95906516424793
 20
-175.93943066617845
 11
124.95906516424793
 21
-175.93943066617845
  0
LINE
  8
_0-4_図枠
  6
CONTINUOUS
 62
    7
 10
333.95906516424793
 20
-166.93943066617823
 11
124.95906516424793
 21
-166.93943066617823
  0
LINE
  8
_0-4_図枠
  6
CONTINUOUS
 62
    7
 10
333.95906516424793
 20
-157.93943066617823
 11
124.95906516424793
 21
-157.93943066617823
  0
LINE
  8
_0-4_図枠
  6
CONTINUOUS
 62
    7
 10
333.95906516424793
 20
-148.93943066617823
 11
124.95906516424793
 21
-148.93943066617823
  0
LINE
  8
_0-4_図枠
  6
CONTINUOUS
 62
    7
 10
333.95906516424793
 20
-139.93943066617823
 11
124.95906516424793
 21
-139.93943066617823
  0
LINE
  8
_0-4_図枠
  6
CONTINUOUS
 62
    7
 10
333.95906516424793
 20
-130.93943066617823
 11
124.95906516424793
 21
-130.93943066617823
  0
LINE
  8
_0-4_図枠
  6
CONTINUOUS
 62
    7
 10
333.95906516424793
 20
-121.93943066617823
 11
124.95906516424793
 21
-121.93943066617823
  0
LINE
  8
_0-4_図枠
  6
CONTINUOUS
 62
    7
 10
333.95906516424793
 20
-112.93943066617845
 11
124.95906516424793
 21
-112.93943066617845
  0
LINE
  8
_0-4_図枠
  6
CONTINUOUS
 62
    7
 10
333.95906516424793
 20
-103.93943066617845
 11
124.95906516424793
 21
-103.93943066617845
  0
LINE
  8
_0-4_図枠
  6
CONTINUOUS
 62
    7
 10
333.95906516424793
 20
-94.939430666178225
 11
124.95906516424793
 21
-94.939430666178225
  0
LINE
  8
_0-4_図枠
  6
CONTINUOUS
 62
    7
 10
333.95906516424793
 20
-85.939430666178453
 11
124.95906516424793
 21
-85.939430666178453
  0
LINE
  8
_0-4_図枠
  6
CONTINUOUS
 62
    7
 10
333.95906516424793
 20
-76.939430666178453
 11
124.95906516424793
 21
-76.939430666178453
  0
LINE
  8
_0-4_図枠
  6
CONTINUOUS
 62
    7
 10
333.95906516424793
 20
-67.939430666178453
 11
124.95906516424793
 21
-67.939430666178453
  0
LINE
  8
_0-4_図枠
  6
CONTINUOUS
 62
    7
 10
333.95906516424793
 20
-58.939430666178453
 11
124.95906516424793
 21
-58.939430666178453
  0
LINE
  8
_0-4_図枠
  6
CONTINUOUS
 62
    7
 10
333.95906516424793
 20
-49.939430666178453
 11
124.95906516424793
 21
-49.939430666178453
  0
LINE
  8
_0-4_図枠
  6
CONTINUOUS
 62
    7
 10
333.95906516424793
 20
-40.939430666178453
 11
124.95906516424793
 21
-40.939430666178453
  0
LINE
  8
_0-4_図枠
  6
CONTINUOUS
 62
    7
 10
333.95906516424793
 20
-31.939430666178453
 11
124.95906516424793
 21
-31.939430666178453
  0
LINE
  8
_0-4_図枠
  6
CONTINUOUS
 62
    7
 10
333.95906516424793
 20
-22.939430666178453
 11
124.95906516424793
 21
-22.939430666178453
  0
LINE
  8
_0-4_図枠
  6
CONTINUOUS
 62
    7
 10
333.95906516424793
 20
-13.939430666178566
 11
124.95906516424793
 21
-13.939430666178566
  0
LINE
  8
_0-4_図枠
  6
CONTINUOUS
 62
    7
 10
333.95906516424793
 20
-4.9394306661784526
 11
124.95906516424793
 21
-4.9394306661784526
  0
LINE
  8
_0-4_図枠
  6
CONTINUOUS
 62
    7
 10
333.95906516424793
 20
13.060569333821547
 11
124.95906516424793
 21
13.060569333821547
  0
LINE
  8
_0-4_図枠
  6
CONTINUOUS
 62
    7
 10
333.95906516424793
 20
22.060569333821547
 11
124.95906516424793
 21
22.060569333821547
  0
TEXT
  8
_0-4_図枠
 62
    7
 10
143.95906516424793
 20
-174.43943066617845
 40
5
 41
1
 50
0
  1
ステンワッシャー
  0
TEXT
  8
_0-4_図枠
 62
    7
 10
143.95906516424793
 20
-165.43943066617823
 40
5
 41
1
 50
0
  1
ステスワッシャー
  0
TEXT
  8
_0-4_図枠
 62
    7
 10
143.95906516424793
 20
-156.43943066617823
 40
5
 41
1
 50
0
  1
ステンタッピンねじ
  0
TEXT
  8
_0-4_図枠
 62
    7
 10
143.95906516424793
 20
-147.43943066617823
 40
5
 41
1
 50
0
  1
アンカープラグ
  0
TEXT
  8
_0-4_図枠
 62
    7
 10
143.95906516424793
 20
-138.43943066617823
 40
5
 41
1
 50
0
  1
アジャストアンカー
  0
TEXT
  8
_0-4_図枠
 62
    7
 10
143.95906516424793
 20
-129.43943066617823
 40
5
 41
1
 50
0
  1
ステン六角ボルト
  0
TEXT
  8
_0-4_図枠
 62
    7
 10
143.95906516424793
 20
-102.43943066617845
 40
5
 41
1
 50
0
  1
ガスケットＮ
  0
TEXT
  8
_0-4_図枠
 62
    7
 10
143.95906516424793
 20
-93.439430666178453
 40
5
 41
1
 50
0
  1
止水補助板
  0
TEXT
  8
_0-4_図枠
 62
    7
 10
143.95906516424793
 20
-75.439430666178453
 40
5
 41
1
 50
0
  1
ＦＹＫｻｲﾄﾞｷｬｯﾌﾟ ｼﾞｮｲﾝﾄ
  0
TEXT
  8
_0-4_図枠
 62
    7
 10
143.95906516424793
 20
-66.439430666178453
 40
5
 41
1
 50
0
  1
ＦＹＫ水切ジョイント
  0
TEXT
  8
_0-4_図枠
 62
    7
 10
143.95906516424793
 20
-57.439430666178453
 40
5
 41
1
 50
0
  1
ＦＹＹフレームナット
  0
TEXT
  8
_0-4_図枠
 62
    7
 10
143.95906516424793
 20
-48.439430666178453
 40
5
 41
1
 50
0
  1
ＦＹＹホルダースプリング
  0
TEXT
  8
_0-4_図枠
 62
    7
 10
143.95906516424793
 20
-39.439430666178453
 40
5
 41
1
 50
0
  1
ＦＹＫホルダー
  0
TEXT
  8
_0-4_図枠
 62
    7
 10
143.95906516424793
 20
-21.439430666178453
 40
5
 41
1
 50
0
  1
ＦＹＫ壁フレーム
  0
TEXT
  8
_0-4_図枠
 62
    7
 10
143.95906516424793
 20
-12.439430666178453
 40
5
 41
1
 50
0
  1
ＦＹＹフレーム
  0
TEXT
  8
_0-4_図枠
 62
    7
 10
143.95906516424793
 20
-3.4394306661784526
 40
5
 41
1
 50
0
  1
ＦＹＫサイドキャップＡ
  0
TEXT
  8
_0-4_図枠
 62
    7
 10
143.95906516424793
 20
5.5605693338215474
 40
5
 41
1
 50
0
  1
ＦＹＫキャップＡ
  0
TEXT
  8
_0-4_図枠
 62
    7
 10
276.45906516424793
 20
14.560569333821547
 40
5
 41
1
 50
0
  1
規　格
  0
TEXT
  8
_0-4_図枠
 62
    7
 10
175.45906516424793
 20
14.560569333821547
 40
5
 41
1
 50
0
  1
部材名称
  0
LINE
  8
_0-4_図枠
  6
CONTINUOUS
 62
    7
 10
714.95906516424793
 20
22.060569333821434
 11
489.95906516424793
 21
22.060569333821434
  0
TEXT
  8
_0-4_図枠
 62
    7
 10
673.95906516424793
 20
22.639569712921286
 40
5
 41
1
 50
0
  1
（単位：mm）
  0
TEXT
  8
_0-4_図枠
 62
    7
 10
696.95906516424793
 20
14.560569333821547
 40
5
 41
1
 50
0
  1
Ｅ
  0
TEXT
  8
_0-4_図枠
 62
    7
 10
666.95906516424793
 20
14.560569333821547
 40
5
 41
1
 50
0
  1
Ｄ
  0
TEXT
  8
_0-4_図枠
 62
    7
 10
636.95906516424793
 20
14.560569333821547
 40
5
 41
1
 50
0
  1
Ｃ
  0
TEXT
  8
_0-4_図枠
 62
    7
 10
576.95906516424793
 20
14.560569333821547
 40
5
 41
1
 50
0
  1
Ｗ
  0
TEXT
  8
_0-4_図枠
 62
    7
 10
606.95906516424793
 20
14.560569333821547
 40
5
 41
1
 50
0
  1
Ａ
  0
TEXT
  8
_0-4_図枠
 62
    7
 10
510.45906516424793
 20
14.560569333821547
 40
5
 41
1
 50
0
  1
タ　イ　プ
  0
LINE
  8
_0-4_図枠
  6
CONTINUOUS
 62
    7
 10
333.95906516424793
 20
4.0605693338215474
 11
124.95906516424793
 21
4.0605693338215474
  0
TEXT
  8
_0-4_図枠
 62
    7
 10
144.10157160065205
 20
-84.728921634316578
 40
5
 41
1
 50
0
  1
ウォーターガード
  0
TEXT
  8
_0-4_図枠
 62
    7
 10
459.95906516424793
 20
-30.439430666178453
 40
5
 41
1
 50
0
  1
巻
  0
TEXT
  8
_0-4_図枠
 62
    7
 10
391.95906516424793
 20
-30.439430666178453
 40
5
 41
1
 50
0
  1
巻
  0
LINE
  8
_0-4_図枠
  6
CONTINUOUS
 62
    7
 10
402.95906516424793
 20
-31.939430666178453
 11
469.95906516424793
 21
-31.939430666178453
  0
LINE
  8
_0-4_図枠
  6
CONTINUOUS
 62
    7
 10
401.95906516424793
 20
-31.939430666178453
 11
334.95906516424793
 21
-31.939430666178453
  0
TEXT
  8
_0-4_図枠
 62
    7
 10
143.95906516424793
 20
-30.439430666178453
 40
5
 41
1
 50
0
  1
ブチルテープ
  0
LINE
  8
_0-4_図枠
  6
CONTINUOUS
 62
    7
 10
124.95906516424793
 20
-175.93943066617845
 11
124.95906516424793
 21
22.060569333821547
  0
LINE
  8
_0-4_図枠
  6
CONTINUOUS
 62
    7
 10
138.95906516424793
 20
-175.93943066617845
 11
138.95906516424793
 21
22.060569333821547
  0
LINE
  8
_0-4_図枠
  6
CONTINUOUS
 62
    7
 10
238.95906516424793
 20
-175.93943066617845
 11
238.95906516424793
 21
22.060569333821547
  0
LINE
  8
_0-4_図枠
  6
CONTINUOUS
 62
    7
 10
333.95906516424793
 20
-175.93943066617845
 11
333.95906516424793
 21
22.060569333821547
  0
LINE
  8
_0-4_図枠
  6
CONTINUOUS
 62
    7
 10
334.95906516424793
 20
-175.93943066617845
 11
334.95906516424793
 21
22.060569333821547
  0
LINE
  8
_0-4_図枠
  6
CONTINUOUS
 62
    7
 10
369.95906516424793
 20
-175.93943066617845
 11
369.95906516424793
 21
22.060569333821547
  0
LINE
  8
_0-4_図枠
  6
CONTINUOUS
 62
    7
 10
387.95906516424793
 20
-175.93943066617845
 11
387.95906516424793
 21
22.060569333821547
  0
LINE
  8
_0-4_図枠
  6
CONTINUOUS
 62
    7
 10
401.95906516424793
 20
-175.93943066617845
 11
401.95906516424793
 21
22.060569333821547
  0
LINE
  8
_0-4_図枠
  6
CONTINUOUS
 62
    7
 10
402.95906516424793
 20
-175.93943066617845
 11
402.95906516424793
 21
22.060569333821547
  0
LINE
  8
_0-4_図枠
  6
CONTINUOUS
 62
    7
 10
437.95906516424793
 20
-175.93943066617845
 11
437.95906516424793
 21
22.060569333821547
  0
LINE
  8
_0-4_図枠
  6
CONTINUOUS
 62
    7
 10
455.95906516424793
 20
-175.93943066617845
 11
455.95906516424793
 21
22.060569333821547
  0
LINE
  8
_0-4_図枠
  6
CONTINUOUS
 62
    7
 10
469.95906516424793
 20
-175.93943066617845
 11
469.95906516424793
 21
22.060569333821547
  0
LINE
  8
_0-4_図枠
  6
CONTINUOUS
 62
    7
 10
489.95906516424793
 20
22.060569333821434
 11
489.95906516424793
 21
4.0605693338215474
  0
LINE
  8
_0-4_図枠
  6
CONTINUOUS
 62
    7
 10
564.95906516424793
 20
22.060569333821434
 11
564.95906516424793
 21
4.0605693338215474
  0
LINE
  8
_0-4_図枠
  6
CONTINUOUS
 62
    7
 10
594.95906516424793
 20
22.060569333821434
 11
594.95906516424793
 21
4.0605693338215474
  0
LINE
  8
_0-4_図枠
  6
CONTINUOUS
 62
    7
 10
624.95906516424793
 20
22.060569333821434
 11
624.95906516424793
 21
4.0605693338215474
  0
LINE
  8
_0-4_図枠
  6
CONTINUOUS
 62
    7
 10
654.95906516424793
 20
22.060569333821434
 11
654.95906516424793
 21
4.0605693338215474
  0
LINE
  8
_0-4_図枠
  6
CONTINUOUS
 62
    7
 10
684.95906516424793
 20
22.060569333821434
 11
684.95906516424793
 21
4.0605693338215474
  0
LINE
  8
_0-4_図枠
  6
CONTINUOUS
 62
    7
 10
714.95906516424793
 20
22.060569333821434
 11
714.95906516424793
 21
4.0605693338215474
  0
TEXT
  8
_0-4_図枠
 62
    7
 10
143.95906516424793
 20
-111.43943066617823
 40
5
 41
1
 50
0
  1
ステン小ねじ
  0
TEXT
  8
_0-4_図枠
 62
    7
 10
143.95906516424793
 20
-120.43943066617823
 40
5
 41
1
 50
0
  1
ステン小ねじ
  0
TEXT
  8
_0-4_図枠
 62
    7
 10
243.87021153376187
 20
-84.728921634316578
 40
5
 41
1
 50
0
  1
ＳＰＶＣ
  0
LINE
  8
_0-7_
  6
CONTINUOUS
 62
    3
 10
138.73815042276232
 20
280.02928323161018
 11
138.73815042276232
 21
265.02928323161018
  0
LINE
  8
_0-7_
  6
CONTINUOUS
 62
    3
 10
107.91609342276229
 20
280.02928323161018
 11
144.73815042276232
 21
280.02928323161018
  0
LINE
  8
_0-7_
  6
CONTINUOUS
 62
    3
 10
113.91609342276229
 20
265.02928323161018
 11
144.73815042276232
 21
265.02928323161018
  0
LINE
  8
_0-7_
  6
CONTINUOUS
 62
    3
 10
138.73815042276232
 20
280.02928323161018
 11
137.98815042276232
 21
277.02928323161018
  0
LINE
  8
_0-7_
  6
CONTINUOUS
 62
    3
 10
138.73815042276232
 20
280.02928323161018
 11
139.48815042276232
 21
277.02928323161018
  0
LINE
  8
_0-7_
  6
CONTINUOUS
 62
    3
 10
138.73815042276232
 20
265.02928323161018
 11
139.48815042276232
 21
268.02928323161018
  0
LINE
  8
_0-7_
  6
CONTINUOUS
 62
    3
 10
138.73815042276232
 20
265.02928323161018
 11
137.98815042276232
 21
268.02928323161018
  0
LINE
  8
_0-7_
  6
CONTINUOUS
 62
    3
 10
138.73815042276232
 20
265.02928323161018
 11
138.73815042276232
 21
229.02928323161018
  0
LINE
  8
_0-7_
  6
CONTINUOUS
 62
    3
 10
138.73815042276232
 20
265.02928323161018
 11
137.98815042276232
 21
262.02928323161018
  0
LINE
  8
_0-7_
  6
CONTINUOUS
 62
    3
 10
138.73815042276232
 20
265.02928323161018
 11
139.48815042276232
 21
262.02928323161018
  0
LINE
  8
_0-7_
  6
CONTINUOUS
 62
    3
 10
138.73815042276232
 20
229.02928323161018
 11
139.48815042276232
 21
232.02928323161018
  0
LINE
  8
_0-7_
  6
CONTINUOUS
 62
    3
 10
138.73815042276232
 20
229.02928323161018
 11
137.98815042276232
 21
232.02928323161018
  0
LINE
  8
_0-7_
  6
CONTINUOUS
 62
    3
 10
38.333136422762323
 20
221.32928223160997
 11
27.040215422762344
 21
221.32928223160997
  0
LINE
  8
_0-7_
  6
CONTINUOUS
 62
    3
 10
31.040214422762347
 20
221.32928223160997
 11
30.290214422762347
 21
218.32928223160997
  0
LINE
  8
_0-7_
  6
CONTINUOUS
 62
    3
 10
31.040214422762347
 20
221.32928223160997
 11
31.790214422762347
 21
218.32928223160997
  0
LINE
  8
_0-7_
  6
CONTINUOUS
 62
    4
 10
94.116093422762219
 20
309.58458247748712
 11
114.11609142276228
 21
309.58458247748712
  0
LINE
  8
_0-7_
  6
CONTINUOUS
 62
    4
 10
94.116093422762219
 20
309.58458247748712
 11
97.979796727918483
 21
310.61985865789728
  0
LINE
  8
_0-7_
  6
CONTINUOUS
 62
    4
 10
94.116093422762219
 20
309.58458247748712
 11
97.979796727918483
 21
308.54930629707695
  0
LINE
  8
_0-7_
  6
CONTINUOUS
 62
    4
 10
114.11609142276228
 20
309.58458247748712
 11
110.25238811760602
 21
310.61985865789728
  0
LINE
  8
_0-7_
  6
CONTINUOUS
 62
    4
 10
114.11609142276228
 20
309.58458247748712
 11
110.25238811760602
 21
308.54930629707695
  0
LINE
  8
_0-7_
  6
CONTINUOUS
 62
    4
 10
94.116093422762219
 20
311.58458247748712
 11
94.116093422762219
 21
286.02928323161018
  0
LINE
  8
_0-7_
  6
CONTINUOUS
 62
    4
 10
114.11609142276228
 20
311.58458247748712
 11
114.11609142276228
 21
268.82928423161013
  0
LINE
  8
_0-7_
  6
CONTINUOUS
 62
    4
 10
80.916093422762287
 20
331.90090803403115
 11
114.11609142276228
 21
331.90090803403115
  0
LINE
  8
_0-7_
  6
CONTINUOUS
 62
    4
 10
80.916093422762287
 20
331.90090803403115
 11
84.779796727918551
 21
332.9361842144412
  0
LINE
  8
_0-7_
  6
CONTINUOUS
 62
    4
 10
80.916093422762287
 20
331.90090803403115
 11
84.779796727918551
 21
330.8656318536211
  0
LINE
  8
_0-7_
  6
CONTINUOUS
 62
    4
 10
114.11609142276228
 20
331.90090803403115
 11
110.25238811760602
 21
332.9361842144412
  0
LINE
  8
_0-7_
  6
CONTINUOUS
 62
    4
 10
114.11609142276228
 20
331.90090803403115
 11
110.25238811760602
 21
330.8656318536211
  0
LINE
  8
_0-7_
  6
CONTINUOUS
 62
    4
 10
114.11609142276228
 20
333.90090803403115
 11
114.11609142276228
 21
317.58458247748712
  0
CIRCLE
  8
_0-7_
  6
CONTINUOUS
 62
    4
 10
67.339416111182231
 20
311.45727151734303
 40
6
  0
LINE
  8
_0-7_
  6
CONTINUOUS
 62
    4
 10
90.149432328934267
 20
271.9491645067269
 11
70.339416111182231
 21
306.261119094636
  0
CIRCLE
  8
_0-7_
  6
CONTINUOUS
 62
    4
 10
90.149432328934267
 20
271.9491645067269
 40
0.9
  0
CIRCLE
  8
_0-7_
  6
CONTINUOUS
 62
    4
 10
66.565349705725225
 20
290.74165248719021
 40
6
  0
LINE
  8
_0-7_
  6
CONTINUOUS
 62
    4
 10
87.684464948398158
 20
254.16227187597758
 11
69.565349705725225
 21
285.54550006448335
  0
CIRCLE
  8
_0-7_
  6
CONTINUOUS
 62
    4
 10
87.684464948398158
 20
254.16227187597758
 40
0.9
  0
CIRCLE
  8
_0-7_
  6
CONTINUOUS
 62
    4
 10
62.266952042257458
 20
247.74741960776106
 40
6
  0
LINE
  8
_0-7_
  6
CONTINUOUS
 62
    4
 10
85.995415624079556
 20
224.01895602593885
 11
66.50959272937655
 21
243.50477892064185
  0
CIRCLE
  8
_0-7_
  6
CONTINUOUS
 62
    4
 10
85.995415624079556
 20
224.01895602593885
 40
0.9
  0
CIRCLE
  8
_0-7_
  6
CONTINUOUS
 62
    4
 10
64.01182391988209
 20
205.21616759065995
 40
6
  0
LINE
  8
_0-7_
  6
CONTINUOUS
 62
    4
 10
84.437626417575075
 20
217.00901016111749
 11
69.207976342588154
 21
208.21616759065995
  0
CIRCLE
  8
_0-7_
  6
CONTINUOUS
 62
    4
 10
84.437626417575075
 20
217.00901016111749
 40
0.9
  0
CIRCLE
  8
_0-7_
  6
CONTINUOUS
 62
    4
 10
35.79520649812946
 20
245.48037770400003
 40
6
  0
LINE
  8
_0-7_
  6
CONTINUOUS
 62
    4
 10
48.293330605215374
 20
223.83299175122528
 11
38.79520649812946
 21
240.2842252812934
  0
CIRCLE
  8
_0-7_
  6
CONTINUOUS
 62
    4
 10
48.293330605215374
 20
223.83299175122528
 40
0.9
  0
CIRCLE
  8
_0-7_
  6
CONTINUOUS
 62
    4
 10
131.36148253224758
 20
302.85988694903165
 40
6
  0
LINE
  8
_0-7_
  6
CONTINUOUS
 62
    4
 10
110.12466102741666
 20
266.07663311139459
 11
128.36148253224758
 21
297.6637345263249
  0
CIRCLE
  8
_0-7_
  6
CONTINUOUS
 62
    4
 10
110.12466102741666
 20
266.07663311139459
 40
0.9
  0
TEXT
  8
_0-7_
 62
    7
 10
91.09768452939602
 20
332.75155478104824
 40
6
 41
1
 50
0
  1
33.5
  0
TEXT
  8
_0-7_
 62
    7
 10
101.15572247427201
 20
311.1986163277424
 40
6
 41
1
 50
0
  1
20
  0
TEXT
  8
_0-7_
 62
    7
 10
137.09015879212791
 20
265.40807515764863
 40
6
 41
1
 50
90
  1
１５
  0
TEXT
  8
_0-7_
 62
    7
 10
137.42805480371391
 20
242.93799038718083
 40
6
 41
1
 50
90
  1
３６
  0
TEXT
  8
_0-7_
 62
    7
 10
29.218026657653581
 20
182.32455646773843
 40
6
 41
1
 50
90
  1
Ｄ
  0
TEXT
  8
_0-7_
 62
    7
 10
64.089416111182231
 20
308.45727151734303
 40
6
 41
1
 50
0
  1
15
  0
TEXT
  8
_0-7_
 62
    7
 10
128.36148253224758
 20
299.85988694903176
 40
6
 41
1
 50
0
  1
２
  0
CIRCLE
  8
_0-7_
  6
CONTINUOUS
 62
    4
 10
136.85766489895684
 20
289.68370419391221
 40
6
  0
LINE
  8
_0-7_
  6
CONTINUOUS
 62
    4
 10
112.38880851268084
 20
247.30240172977454
 11
133.85766489895798
 21
284.48755177120557
  0
TEXT
  8
_0-7_
 62
    7
 10
133.74066022005786
 20
286.2762030764469
 40
6
 41
1
 50
0
  1
10
  0
TEXT
  8
_0-7_
 62
    7
 10
63.565349705725225
 20
287.74165248719009
 40
6
 41
1
 50
0
  1
４
  0
TEXT
  8
_0-7_
 62
    7
 10
32.54520649812946
 20
242.48037770400026
 40
6
 41
1
 50
0
  1
18
  0
TEXT
  8
_0-7_
 62
    7
 10
59.016952042257458
 20
244.74741960776117
 40
6
 41
1
 50
0
  1
19
  0
TEXT
  8
_0-7_
 62
    7
 10
60.76182391988209
 20
202.21616759065984
 40
6
 41
1
 50
0
  1
21
  0
LINE
  8
_0-7_
  6
CONTINUOUS
 62
    3
 10
113.91609342276229
 20
229.02928323161018
 11
144.73815042276232
 21
229.02928323161018
  0
LINE
  8
_0-7_
  6
CONTINUOUS
 62
    3
 10
95.916093422762287
 20
249.02145423161005
 11
98.916093422762287
 21
249.77145423161005
  0
LINE
  8
_0-7_
  6
CONTINUOUS
 62
    3
 10
95.916093422762287
 20
249.02145423161005
 11
98.916093422762287
 21
248.27145423161005
  0
LINE
  8
_0-7_
  6
CONTINUOUS
 62
    3
 10
95.916093422762287
 20
237.93165723161007
 11
95.916093422762287
 21
253.02145623161016
  0
CIRCLE
  8
_0-7_
  6
CONTINUOUS
 62
    4
 10
133.86776272329996
 20
139.47465922090583
 40
6
  0
TEXT
  8
_0-7_
 62
    7
 10
130.61776272329996
 20
136.47465922090583
 40
6
 41
1
 50
0
  1
12
  0
LINE
  8
_0-7_
  6
CONTINUOUS
 62
    4
 10
116.98447553687913
 20
110.23194801524704
 11
130.8677627233011
 21
134.27850679819943
  0
CIRCLE
  8
_0-7_
  6
CONTINUOUS
 62
    4
 10
116.98447553687913
 20
110.23194801524704
 40
0.9
  0
TEXT
  8
_0-7_
 62
    7
 10
136.44097997800276
 20
176.83015070392906
 40
6
 41
1
 50
0
  1
13
  0
CIRCLE
  8
_0-7_
  6
CONTINUOUS
 62
    4
 10
139.69097997800276
 20
179.83015070392895
 40
6
  0
LINE
  8
_0-7_
  6
CONTINUOUS
 62
    4
 10
112.79937228117268
 20
226.407781532049
 11
136.69097997800276
 21
185.02630312663558
  0
CIRCLE
  8
_0-7_
  6
CONTINUOUS
 62
    4
 10
112.79937228117268
 20
226.407781532049
 40
0.9
  0
LINE
  8
_0-8_
  6
CONTINUOUS
 62
    3
 10
80.916093422762287
 20
41.172232231610053
 11
105.91609242276223
 21
41.172232231610053
  0
LINE
  8
_0-8_
  6
CONTINUOUS
 62
    3
 10
105.91609242276223
 20
57.271537231610125
 11
105.91609242276223
 21
35.172232231610053
  0
LINE
  8
_0-8_
  6
CONTINUOUS
 62
    3
 10
80.916093422762287
 20
41.172232231610053
 11
83.916093422762287
 21
40.422232231610053
  0
LINE
  8
_0-8_
  6
CONTINUOUS
 62
    3
 10
80.916093422762287
 20
41.172232231610053
 11
83.916093422762287
 21
41.922232231610053
  0
LINE
  8
_0-8_
  6
CONTINUOUS
 62
    3
 10
105.91609242276223
 20
41.172232231610053
 11
102.91609242276223
 21
41.922232231610053
  0
LINE
  8
_0-8_
  6
CONTINUOUS
 62
    3
 10
105.91609242276223
 20
41.172232231610053
 11
102.91609242276223
 21
40.422232231610053
  0
LINE
  8
_0-8_
  6
CONTINUOUS
 62
    3
 10
105.91609242276223
 20
41.172232231610053
 11
108.91609242276223
 21
40.422232231610053
  0
LINE
  8
_0-8_
  6
CONTINUOUS
 62
    3
 10
105.91609242276223
 20
41.172232231610053
 11
108.91609242276223
 21
41.922232231610053
  0
TEXT
  8
_0-8_
 62
    7
 10
88.223959402288529
 20
44.660610788526526
 40
6
 41
1
 50
0
  1
２５
  0
LINE
  8
_0-9_
  6
CONTINUOUS
 62
    2
 10
99.116094422761989
 20
282.64967053143613
 11
99.116094422761989
 21
267.64967053143613
  0
LINE
  8
_0-9_
  6
CONTINUOUS
 62
    2
 10
94.116093422762106
 20
282.64967053143613
 11
99.116094422761989
 21
267.64967053143613
  0
LINE
  8
_0-9_
  6
CONTINUOUS
 62
    2
 10
89.416092422761949
 20
255.44967253143608
 11
89.416092422761949
 21
251.64967153143601
  0
LINE
  8
_0-9_
  6
CONTINUOUS
 62
    2
 10
90.916092422761949
 20
250.94967253143608
 11
90.916092422761949
 21
256.94967253143608
  0
LINE
  8
_0-9_
  6
CONTINUOUS
 62
    2
 10
84.416094422762171
 20
244.94967253143608
 11
84.416094422762171
 21
255.44967253143608
  0
LINE
  8
_0-9_
  6
CONTINUOUS
 62
    2
 10
82.416093422762287
 20
255.94967053143608
 11
82.416093422762287
 21
244.44967153143619
  0
LINE
  8
_0-9_
  6
CONTINUOUS
 62
    2
 10
84.916092422761949
 20
249.94967053143608
 11
84.916092422761949
 21
253.19967253143608
  0
LINE
  8
_0-9_
  6
CONTINUOUS
 62
    2
 10
86.416092422761949
 20
253.19967253143608
 11
86.416092422761949
 21
249.94967053143608
  0
LINE
  8
_0-9_
  6
CONTINUOUS
 62
    2
 10
114.11609442276199
 20
233.84967253143594
 11
114.11609442276199
 21
265.44967153143619
  0
LINE
  8
_0-9_
  6
CONTINUOUS
 62
    2
 10
112.91609442276217
 20
233.84967253143594
 11
112.91609442276217
 21
265.44967153143619
  0
LINE
  8
_0-9_
  6
CONTINUOUS
 62
    2
 10
112.61609442276199
 20
264.74967253143603
 11
112.61609442276199
 21
235.24967053143627
  0
LINE
  8
_0-9_
  6
CONTINUOUS
 62
    2
 10
111.61609242276222
 20
264.74967253143603
 11
111.61609242276222
 21
235.24967053143627
  0
LINE
  8
_0-9_
  6
CONTINUOUS
 62
    3
 10
111.62740842276207
 20
236.0496715314361
 11
112.61609442276199
 21
237.03835753143602
  0
LINE
  8
_0-9_
  6
CONTINUOUS
 62
    3
 10
111.61609242276222
 20
238.87809853143625
 11
112.61609442276199
 21
239.87809753143614
  0
LINE
  8
_0-9_
  6
CONTINUOUS
 62
    3
 10
111.61609242276222
 20
241.70652553143617
 11
112.61609442276199
 21
242.70652453143606
  0
LINE
  8
_0-9_
  6
CONTINUOUS
 62
    3
 10
111.61609242276222
 20
244.53495253143609
 11
112.61609442276199
 21
245.53495153143621
  0
LINE
  8
_0-9_
  6
CONTINUOUS
 62
    3
 10
111.61609242276222
 20
247.36337953143601
 11
112.61609442276199
 21
248.36337853143613
  0
LINE
  8
_0-9_
  6
CONTINUOUS
 62
    3
 10
111.61609242276222
 20
250.19180653143616
 11
112.61609442276199
 21
251.19180853143615
  0
LINE
  8
_0-9_
  6
CONTINUOUS
 62
    3
 10
111.61609242276222
 20
253.02023353143608
 11
112.61609442276199
 21
254.02023553143607
  0
LINE
  8
_0-9_
  6
CONTINUOUS
 62
    3
 10
111.61609242276222
 20
255.84866053143622
 11
112.61609442276199
 21
256.84866253143599
  0
LINE
  8
_0-9_
  6
CONTINUOUS
 62
    3
 10
111.61609242276222
 20
258.67708753143614
 11
112.61609442276199
 21
259.67708953143614
  0
LINE
  8
_0-9_
  6
CONTINUOUS
 62
    3
 10
111.61609242276222
 20
261.50551453143606
 11
112.61609442276199
 21
262.50551653143629
  0
LINE
  8
_0-9_
  6
CONTINUOUS
 62
    3
 10
111.61609242276222
 20
264.33394153143598
 11
112.53070242276203
 21
265.24855153143602
  0
LINE
  8
_0-9_
  6
CONTINUOUS
 62
    3
 10
109.70339442276213
 20
265.24967053143627
 11
110.70339642276213
 21
266.24967253143603
  0
LINE
  8
_0-9_
  6
CONTINUOUS
 62
    3
 10
106.87496742276221
 20
265.24967053143627
 11
107.87496942276198
 21
266.24967253143603
  0
LINE
  8
_0-9_
  6
CONTINUOUS
 62
    3
 10
104.04654042276229
 20
265.24967053143627
 11
105.04653942276195
 21
266.24967253143603
  0
LINE
  8
_0-9_
  6
CONTINUOUS
 62
    3
 10
101.21811342276237
 20
265.24967053143627
 11
102.21811242276203
 21
266.24967253143603
  0
LINE
  8
_0-9_
  6
CONTINUOUS
 62
    3
 10
98.389686422762225
 20
265.24967053143627
 11
99.389685422762341
 21
266.24967253143603
  0
LINE
  8
_0-9_
  6
CONTINUOUS
 62
    3
 10
95.561259422762078
 20
265.24967053143627
 11
96.561258422762194
 21
266.24967253143603
  0
LINE
  8
_0-9_
  6
CONTINUOUS
 62
    3
 10
92.772672422762071
 20
265.28951353143628
 11
93.732831422762274
 21
266.24967253143603
  0
LINE
  8
_0-9_
  6
CONTINUOUS
 62
    3
 10
91.616094422761989
 20
266.96135953143602
 11
92.616093422762106
 21
267.96135853143613
  0
ARC
  8
_0-9_
  6
CONTINUOUS
 62
    2
 10
96.207978422761926
 20
273.5496715314361
 40
0.3999989999999998
 50
346.29976699999997
 51
89.999999999999972
  0
ARC
  8
_0-9_
  6
CONTINUOUS
 62
    2
 10
96.207978422761926
 20
275.34967153143617
 40
0.3999989999999998
 50
270
 51
13.700232999999979
  0
LINE
  8
_0-9_
  6
CONTINUOUS
 62
    2
 10
96.181815422762384
 20
274.94967253143608
 11
96.181815422762384
 21
273.94967053143608
  0
ARC
  8
_0-9_
  6
CONTINUOUS
 62
    2
 10
93.986187422761986
 20
273.2459995314361
 40
2.3000009999999995
 50
273.23783700000001
 51
320.69087599999995
  0
ARC
  8
_0-9_
  6
CONTINUOUS
 62
    2
 10
93.983184422762179
 20
275.65701853143611
 40
2.3000009999999995
 50
39.179510999999984
 51
86.687257000000002
  0
ARC
  8
_0-9_
  6
CONTINUOUS
 62
    2
 10
92.516094422762308
 20
274.44967153143619
 40
4.1999999999999993
 50
320.69062899999994
 51
39.303130999999972
  0
ARC
  8
_0-9_
  6
CONTINUOUS
 62
    2
 10
92.316093422762151
 20
277.04967253143622
 40
0.5999999999999996
 50
270
 51
90
  0
ARC
  8
_0-9_
  6
CONTINUOUS
 62
    2
 10
92.316093422762151
 20
271.84967053143617
 40
0.5999999999999996
 50
270
 51
90
  0
LINE
  8
_0-9_
  6
CONTINUOUS
 62
    2
 10
90.916092422761949
 20
277.64967253143612
 11
92.316093422762151
 21
277.64967253143612
  0
LINE
  8
_0-9_
  6
CONTINUOUS
 62
    2
 10
91.616094422761989
 20
265.54967053143599
 11
91.616094422761989
 21
271.24967053143627
  0
LINE
  8
_0-9_
  6
CONTINUOUS
 62
    2
 10
91.616094422761989
 20
271.24967053143627
 11
92.316093422762151
 21
271.24967053143627
  0
LINE
  8
_0-9_
  6
CONTINUOUS
 62
    2
 10
90.916092422761949
 20
278.44967053143608
 11
90.916092422761949
 21
277.64967253143612
  0
ARC
  8
_0-9_
  6
CONTINUOUS
 62
    2
 10
82.416093422762287
 20
277.94967253143608
 40
0.500001
 50
90
 51
180
  0
LINE
  8
_0-9_
  6
CONTINUOUS
 62
    2
 10
85.416093422762287
 20
272.94967153143619
 11
84.916092422761949
 21
272.44967053143608
  0
LINE
  8
_0-9_
  6
CONTINUOUS
 62
    2
 10
85.916094422762171
 20
272.44967053143608
 11
85.416093422762287
 21
272.94967153143619
  0
LINE
  8
_0-9_
  6
CONTINUOUS
 62
    2
 10
86.416092422761949
 20
272.94967153143619
 11
85.916094422762171
 21
272.44967053143608
  0
LINE
  8
_0-9_
  6
CONTINUOUS
 62
    2
 10
86.916093422762287
 20
272.44967053143608
 11
86.416092422761949
 21
272.94967153143619
  0
LINE
  8
_0-9_
  6
CONTINUOUS
 62
    2
 10
87.416094422762171
 20
272.94967153143619
 11
86.916093422762287
 21
272.44967053143608
  0
LINE
  8
_0-9_
  6
CONTINUOUS
 62
    2
 10
87.916092422761949
 20
272.44967053143608
 11
87.416094422762171
 21
272.94967153143619
  0
LINE
  8
_0-9_
  6
CONTINUOUS
 62
    2
 10
88.416093422762287
 20
272.94967153143619
 11
87.916092422761949
 21
272.44967053143608
  0
LINE
  8
_0-9_
  6
CONTINUOUS
 62
    2
 10
88.916094422762171
 20
272.44967053143608
 11
88.416093422762287
 21
272.94967153143619
  0
LINE
  8
_0-9_
  6
CONTINUOUS
 62
    2
 10
89.416092422761949
 20
272.94967153143619
 11
88.916094422762171
 21
272.44967053143608
  0
LINE
  8
_0-9_
  6
CONTINUOUS
 62
    2
 10
89.916093422762287
 20
272.44967053143608
 11
89.416092422761949
 21
272.94967153143619
  0
LINE
  8
_0-9_
  6
CONTINUOUS
 62
    2
 10
85.416093422762287
 20
275.94967153143619
 11
84.916092422761949
 21
276.44967253143608
  0
LINE
  8
_0-9_
  6
CONTINUOUS
 62
    2
 10
85.916094422762171
 20
276.44967253143608
 11
85.416093422762287
 21
275.94967153143619
  0
LINE
  8
_0-9_
  6
CONTINUOUS
 62
    2
 10
86.416092422761949
 20
275.94967153143619
 11
85.916094422762171
 21
276.44967253143608
  0
LINE
  8
_0-9_
  6
CONTINUOUS
 62
    2
 10
86.916093422762287
 20
276.44967253143608
 11
86.416092422761949
 21
275.94967153143619
  0
LINE
  8
_0-9_
  6
CONTINUOUS
 62
    2
 10
87.416094422762171
 20
275.94967153143619
 11
86.916093422762287
 21
276.44967253143608
  0
LINE
  8
_0-9_
  6
CONTINUOUS
 62
    2
 10
87.916092422761949
 20
276.44967253143608
 11
87.416094422762171
 21
275.94967153143619
  0
LINE
  8
_0-9_
  6
CONTINUOUS
 62
    2
 10
88.416093422762287
 20
275.94967153143619
 11
87.916092422761949
 21
276.44967253143608
  0
LINE
  8
_0-9_
  6
CONTINUOUS
 62
    2
 10
88.916094422762171
 20
276.44967253143608
 11
88.416093422762287
 21
275.94967153143619
  0
LINE
  8
_0-9_
  6
CONTINUOUS
 62
    2
 10
89.416092422761949
 20
275.94967153143619
 11
88.916094422762171
 21
276.44967253143608
  0
LINE
  8
_0-9_
  6
CONTINUOUS
 62
    2
 10
89.916093422762287
 20
276.44967253143608
 11
89.416092422761949
 21
275.94967153143619
  0
LINE
  8
_0-9_
  6
CONTINUOUS
 62
    2
 10
89.916093422762287
 20
272.44967053143608
 11
92.416092422761949
 21
272.44967053143608
  0
LINE
  8
_0-9_
  6
CONTINUOUS
 62
    2
 10
89.916093422762287
 20
276.44967253143608
 11
92.416092422761949
 21
276.44967253143608
  0
ARC
  8
_0-9_
  6
CONTINUOUS
 62
    2
 10
83.716092422762131
 20
276.14967253143612
 40
0.2999999999999998
 50
90
 51
180
  0
LINE
  8
_0-9_
  6
CONTINUOUS
 62
    2
 10
83.716092422762131
 20
276.44967253143608
 11
84.916092422761949
 21
276.44967253143608
  0
LINE
  8
_0-9_
  6
CONTINUOUS
 62
    2
 10
83.716092422762131
 20
272.44967053143608
 11
84.916092422761949
 21
272.44967053143608
  0
ARC
  8
_0-9_
  6
CONTINUOUS
 62
    2
 10
83.716092422762131
 20
272.74967053143627
 40
0.2999999999999998
 50
180
 51
270
  0
LINE
  8
_0-9_
  6
CONTINUOUS
 62
    2
 10
83.416092422761949
 20
272.74967053143627
 11
83.416092422761949
 21
276.14967253143612
  0
LINE
  8
_0-9_
  6
CONTINUOUS
 62
    2
 10
88.916094422762171
 20
255.94967053143608
 11
84.916092422761949
 21
255.94967053143608
  0
ARC
  8
_0-9_
  6
CONTINUOUS
 62
    2
 10
88.916094422762171
 20
255.44967253143608
 40
0.500001
 50
0
 51
90
  0
ARC
  8
_0-9_
  6
CONTINUOUS
 62
    2
 10
90.416094422762171
 20
256.94967253143608
 40
0.500001
 50
0
 51
90
  0
LINE
  8
_0-9_
  6
CONTINUOUS
 62
    2
 10
90.416094422762171
 20
257.44967053143608
 11
84.916092422761949
 21
257.44967053143608
  0
ARC
  8
_0-9_
  6
CONTINUOUS
 62
    2
 10
84.916092422761949
 20
257.94967153143619
 40
0.500001
 50
180
 51
270
  0
ARC
  8
_0-9_
  6
CONTINUOUS
 62
    2
 10
84.916092422761949
 20
255.44967253143608
 40
0.500001
 50
90
 51
180
  0
ARC
  8
_0-9_
  6
CONTINUOUS
 62
    2
 10
96.516093422762196
 20
264.64967053143613
 40
0.5999999999999996
 50
270
 51
90
  0
LINE
  8
_0-9_
  6
CONTINUOUS
 62
    2
 10
84.416094422762171
 20
269.94967153143619
 11
84.416094422762171
 21
257.94967153143619
  0
ARC
  8
_0-9_
  6
CONTINUOUS
 62
    2
 10
84.916092422761949
 20
269.94967153143619
 40
0.500001
 50
90
 51
180
  0
LINE
  8
_0-9_
  6
CONTINUOUS
 62
    2
 10
89.916093422762287
 20
270.44967253143608
 11
84.916092422761949
 21
270.44967253143608
  0
ARC
  8
_0-9_
  6
CONTINUOUS
 62
    2
 10
89.916093422762287
 20
269.94967153143619
 40
0.500001
 50
0
 51
90
  0
LINE
  8
_0-9_
  6
CONTINUOUS
 62
    2
 10
91.416093422762287
 20
264.04967053143599
 11
96.516093422762196
 21
264.04967053143599
  0
ARC
  8
_0-9_
  6
CONTINUOUS
 62
    2
 10
91.416093422762287
 20
265.04967253143622
 40
0.9999989999999996
 50
180
 51
270
  0
LINE
  8
_0-9_
  6
CONTINUOUS
 62
    2
 10
90.416094422762171
 20
265.04967253143622
 11
90.416094422762171
 21
269.94967153143619
  0
ARC
  8
_0-9_
  6
CONTINUOUS
 62
    2
 10
91.916094422762171
 20
265.54967053143599
 40
0.2999999999999998
 50
180
 51
270
  0
LINE
  8
_0-9_
  6
CONTINUOUS
 62
    2
 10
81.916092422761949
 20
255.94967053143608
 11
82.416093422762287
 21
255.94967053143608
  0
LINE
  8
_0-9_
  6
CONTINUOUS
 62
    2
 10
82.416093422762287
 20
257.44967053143608
 11
81.916092422761949
 21
257.44967053143608
  0
LINE
  8
_0-9_
  6
CONTINUOUS
 62
    2
 10
82.416093422762287
 20
270.44967253143608
 11
82.416093422762287
 21
257.44967053143608
  0
LINE
  8
_0-9_
  6
CONTINUOUS
 62
    2
 10
81.916092422761949
 20
270.44967253143608
 11
82.416093422762287
 21
270.44967253143608
  0
ARC
  8
_0-9_
  6
CONTINUOUS
 62
    2
 10
85.666092422761949
 20
253.19967253143608
 40
0.75
 50
0
 51
180
  0
LINE
  8
_0-9_
  6
CONTINUOUS
 62
    1
 10
80.916093422762287
 20
282.64967053143613
 11
105.91609242276195
 21
282.64967053143613
  0
LINE
  8
_0-9_
  6
CONTINUOUS
 62
    2
 10
92.916093422762287
 20
268.64967253143612
 11
92.916093422762287
 21
277.44967153143619
  0
ARC
  8
_0-9_
  6
CONTINUOUS
 62
    2
 10
95.116092422762222
 20
268.64967253143612
 40
2.199999
 50
180
 51
270
  0
LINE
  8
_0-9_
  6
CONTINUOUS
 62
    2
 10
95.116092422762222
 20
266.44967053143608
 11
111.91609242276195
 21
266.44967053143608
  0
LINE
  8
_0-9_
  6
CONTINUOUS
 62
    2
 10
91.916094422762171
 20
279.64967053143613
 11
84.116094422761989
 21
279.64967053143613
  0
ARC
  8
_0-9_
  6
CONTINUOUS
 62
    2
 10
91.916094422762171
 20
277.44967153143619
 40
2.199999
 50
0
 51
90
  0
LINE
  8
_0-9_
  6
CONTINUOUS
 62
    2
 10
94.116093422762106
 20
277.44967153143619
 11
94.116093422762106
 21
268.64967253143612
  0
LINE
  8
_0-9_
  6
CONTINUOUS
 62
    2
 10
111.91609242276195
 20
267.64967053143613
 11
95.116092422762222
 21
267.64967053143613
  0
ARC
  8
_0-9_
  6
CONTINUOUS
 62
    2
 10
111.91609242276195
 20
265.44967153143619
 40
2.199999
 50
0
 51
90
  0
ARC
  8
_0-9_
  6
CONTINUOUS
 62
    2
 10
111.91609242276195
 20
265.44967153143619
 40
0.9999989999999996
 50
0
 51
90
  0
ARC
  8
_0-9_
  6
CONTINUOUS
 62
    2
 10
95.116092422762222
 20
268.64967253143612
 40
0.9999989999999996
 50
180
 51
270
  0
LINE
  8
_0-9_
  6
CONTINUOUS
 62
    2
 10
91.916094422762171
 20
278.44967053143608
 11
82.416093422762287
 21
278.44967053143608
  0
ARC
  8
_0-9_
  6
CONTINUOUS
 62
    2
 10
91.916094422762171
 20
277.44967153143619
 40
0.9999989999999996
 50
0
 51
90
  0
LINE
  8
_0-9_
  6
CONTINUOUS
 62
    2
 10
94.116093422762106
 20
282.64967053143613
 11
94.116093422762106
 21
277.44967153143619
  0
LINE
  8
_0-9_
  6
CONTINUOUS
 62
    1
 10
105.91609242276195
 20
303.66251653143621
 11
105.91609242276195
 21
282.64967053143613
  0
LINE
  8
_0-9_
  6
CENTER1
 62
    3
 10
80.618112422762124
 20
274.44967153143619
 11
99.434988422762217
 21
274.44967153143619
  0
LINE
  8
_0-9_
  6
DASHED1
 62
    3
 10
92.916093422762287
 20
272.44967053143608
 11
94.116093422762106
 21
272.44967053143608
  0
LINE
  8
_0-9_
  6
DASHED1
 62
    3
 10
92.916093422762287
 20
276.44967253143608
 11
94.116093422762106
 21
276.44967253143608
  0
LINE
  8
_0-9_
  6
DASHED1
 62
    3
 10
92.916093422762287
 20
272.94967153143619
 11
94.116093422762106
 21
272.94967153143619
  0
LINE
  8
_0-9_
  6
DASHED1
 62
    3
 10
92.916093422762287
 20
275.94967153143619
 11
94.116093422762106
 21
275.94967153143619
  0
LINE
  8
_0-9_
  6
CONTINUOUS
 62
    3
 10
84.116094422761989
 20
272.94967153143619
 11
92.916093422762287
 21
272.94967153143619
  0
LINE
  8
_0-9_
  6
CONTINUOUS
 62
    3
 10
84.116094422761989
 20
275.94967153143619
 11
92.916093422762287
 21
275.94967153143619
  0
LINE
  8
_0-9_
  6
CONTINUOUS
 62
    2
 10
92.316093422762151
 20
272.44967053143608
 11
92.916093422762287
 21
272.44967053143608
  0
LINE
  8
_0-9_
  6
CONTINUOUS
 62
    2
 10
92.316093422762151
 20
276.44967253143608
 11
92.916093422762287
 21
276.44967253143608
  0
LINE
  8
_0-9_
  6
CONTINUOUS
 62
    2
 10
84.116094422761989
 20
275.94967153143619
 11
84.116094422761989
 21
272.94967153143619
  0
LINE
  8
_0-9_
  6
CONTINUOUS
 62
    2
 10
84.116094422761989
 20
272.94967153143619
 11
84.616092422762222
 21
272.44967053143608
  0
LINE
  8
_0-9_
  6
CONTINUOUS
 62
    2
 10
84.616092422762222
 20
276.44967253143608
 11
84.616092422762222
 21
272.44967053143608
  0
LINE
  8
_0-9_
  6
CONTINUOUS
 62
    2
 10
84.116094422761989
 20
275.94967153143619
 11
84.616092422762222
 21
276.44967253143608
  0
LINE
  8
_0-9_
  6
CONTINUOUS
 62
    2
 10
84.116094422761989
 20
279.64967053143613
 11
84.116094422761989
 21
278.44967053143608
  0
LINE
  8
_0-9_
  6
CONTINUOUS
 62
    2
 10
92.616093422762106
 20
270.24967153143615
 11
92.616093422762106
 21
266.74967053143627
  0
LINE
  8
_0-9_
  6
CONTINUOUS
 62
    2
 10
91.616094422761989
 20
270.24967153143615
 11
92.616093422762106
 21
270.24967153143615
  0
ARC
  8
_0-9_
  6
CONTINUOUS
 62
    2
 10
111.11609442276199
 20
264.74967253143603
 40
1.5
 50
0
 51
90
  0
LINE
  8
_0-9_
  6
CONTINUOUS
 62
    2
 10
111.11609442276199
 20
266.24967253143603
 11
93.116094422761989
 21
266.24967253143603
  0
LINE
  8
_0-9_
  6
CONTINUOUS
 62
    2
 10
111.11609442276199
 20
265.24967053143627
 11
91.916094422762171
 21
265.24967053143627
  0
ARC
  8
_0-9_
  6
CONTINUOUS
 62
    2
 10
111.11609442276199
 20
264.74967253143603
 40
0.500001
 50
0
 51
90
  0
ARC
  8
_0-9_
  6
CONTINUOUS
 62
    2
 10
93.116094422761989
 20
266.74967053143627
 40
0.500001
 50
180
 51
270
  0
LINE
  8
_0-9_
  6
CONTINUOUS
 62
    3
 10
92.075979422762202
 20
270.24967153143615
 11
91.616094422761989
 21
269.78978653143616
  0
ARC
  8
_0-9_
  6
CONTINUOUS
 62
    2
 10
93.116094422761989
 20
266.74967053143627
 40
1.5
 50
180
 51
270
  0
LINE
  8
_0-9_
  6
CENTER1
 62
    3
 10
36.948249422762046
 20
223.94967253143608
 11
88.998801422762199
 21
223.94967253143608
  0
LINE
  8
_0-9_
  6
CONTINUOUS
 62
    2
 10
112.27273242276192
 20
224.21828953143603
 11
112.18268742276223
 21
222.50014753143608
  0
LINE
  8
_0-9_
  6
CONTINUOUS
 62
    2
 10
122.2590274227623
 20
223.69493053143623
 11
122.16898542276226
 21
221.97678853143606
  0
LINE
  8
_0-9_
  6
CONTINUOUS
 62
    2
 10
84.916092422761949
 20
204.94967053143608
 11
95.666094422762171
 21
204.94967053143608
  0
ARC
  8
_0-9_
  6
CONTINUOUS
 62
    2
 10
84.916092422761949
 20
205.44967153143619
 40
0.500001
 50
180
 51
270
  0
LINE
  8
_0-9_
  6
CONTINUOUS
 62
    2
 10
84.416094422762171
 20
205.44967153143619
 11
84.416094422762171
 21
242.44967053143608
  0
LINE
  8
_0-9_
  6
CONTINUOUS
 62
    2
 10
112.18268742276223
 20
222.50014753143608
 11
110.71728342276219
 21
194.53852153143606
  0
ARC
  8
_0-9_
  6
CONTINUOUS
 62
    2
 10
82.416093422762287
 20
202.94967253143608
 40
0.500001
 50
0
 51
90
  0
LINE
  8
_0-9_
  6
CONTINUOUS
 62
    2
 10
82.416093422762287
 20
203.44967053143608
 11
81.916092422761949
 21
203.44967053143608
  0
LINE
  8
_0-9_
  6
CONTINUOUS
 62
    2
 10
90.666093422762287
 20
191.44967053143608
 11
81.916092422761949
 21
191.44967053143608
  0
LINE
  8
_0-9_
  6
CONTINUOUS
 62
    2
 10
82.416093422762287
 20
192.94967053143608
 11
81.916092422761949
 21
192.94967053143608
  0
ARC
  8
_0-9_
  6
CONTINUOUS
 62
    2
 10
82.416093422762287
 20
193.44967153143619
 40
0.500001
 50
270
 51
0
  0
LINE
  8
_0-9_
  6
CONTINUOUS
 62
    2
 10
82.916094422762171
 20
193.44967153143619
 11
82.916094422762171
 21
202.94967253143608
  0
LINE
  8
_0-9_
  6
CONTINUOUS
 62
    2
 10
84.416094422762171
 20
193.44967153143619
 11
84.416094422762171
 21
196.44967153143619
  0
LINE
  8
_0-9_
  6
CONTINUOUS
 62
    2
 10
89.416092422761949
 20
192.94967053143608
 11
89.416092422761949
 21
192.44967253143608
  0
LINE
  8
_0-9_
  6
CONTINUOUS
 62
    2
 10
88.416093422762287
 20
192.94967053143608
 11
89.416092422761949
 21
192.44967253143608
  0
LINE
  8
_0-9_
  6
CONTINUOUS
 62
    2
 10
88.416093422762287
 20
192.94967053143608
 11
88.416093422762287
 21
192.44967253143608
  0
LINE
  8
_0-9_
  6
CONTINUOUS
 62
    2
 10
87.416094422762171
 20
192.94967053143608
 11
88.416093422762287
 21
192.44967253143608
  0
ARC
  8
_0-9_
  6
CONTINUOUS
 62
    2
 10
90.666093422762287
 20
192.19967053143608
 40
0.75
 50
270
 51
90
  0
LINE
  8
_0-9_
  6
CONTINUOUS
 62
    2
 10
84.916092422761949
 20
192.94967053143608
 11
87.416094422762171
 21
192.94967053143608
  0
ARC
  8
_0-9_
  6
CONTINUOUS
 62
    2
 10
84.916092422761949
 20
193.44967153143619
 40
0.500001
 50
180
 51
270
  0
ARC
  8
_0-9_
  6
CONTINUOUS
 62
    2
 10
95.666094422762171
 20
204.19967053143608
 40
0.75
 50
270
 51
90
  0
ARC
  8
_0-9_
  6
CONTINUOUS
 62
    2
 10
88.016094422762308
 20
250.54967053143599
 40
0.5999999999999996
 50
90
 51
270
  0
ARC
  8
_0-9_
  6
CONTINUOUS
 62
    2
 10
88.916094422762171
 20
251.64967153143601
 40
0.500001
 50
270
 51
0
  0
LINE
  8
_0-9_
  6
CONTINUOUS
 62
    2
 10
88.916094422762171
 20
251.14967053143613
 11
88.016094422762308
 21
251.14967053143613
  0
LINE
  8
_0-9_
  6
CONTINUOUS
 62
    2
 10
89.916093422762287
 20
249.94967053143608
 11
88.016094422762308
 21
249.94967053143608
  0
ARC
  8
_0-9_
  6
CONTINUOUS
 62
    2
 10
89.916093422762287
 20
250.94967253143608
 40
0.9999989999999996
 50
270
 51
0
  0
LINE
  8
_0-9_
  6
CONTINUOUS
 62
    2
 10
84.916092422761949
 20
203.44967053143608
 11
95.666094422762171
 21
203.44967053143608
  0
ARC
  8
_0-9_
  6
CONTINUOUS
 62
    2
 10
84.916092422761949
 20
202.94967253143608
 40
0.500001
 50
90
 51
180
  0
LINE
  8
_0-9_
  6
CONTINUOUS
 62
    2
 10
84.416094422762171
 20
202.94967253143608
 11
84.416094422762171
 21
198.94967053143608
  0
LINE
  8
_0-9_
  6
CONTINUOUS
 62
    2
 10
94.416093422762287
 20
243.44967253143608
 11
94.416093422762287
 21
243.94967053143608
  0
ARC
  8
_0-9_
  6
CONTINUOUS
 62
    2
 10
93.916092422761949
 20
243.44967253143608
 40
0.500001
 50
270
 51
0
  0
LINE
  8
_0-9_
  6
CONTINUOUS
 62
    2
 10
93.916092422761949
 20
242.94967153143619
 11
84.916092422761949
 21
242.94967153143619
  0
ARC
  8
_0-9_
  6
CONTINUOUS
 62
    2
 10
93.916092422761949
 20
243.94967053143608
 40
0.500001
 50
0
 51
90
  0
ARC
  8
_0-9_
  6
CONTINUOUS
 62
    2
 10
84.916092422761949
 20
242.44967053143608
 40
0.500001
 50
90
 51
180
  0
ARC
  8
_0-9_
  6
CONTINUOUS
 62
    2
 10
90.666093422762287
 20
197.69967253143608
 40
0.75
 50
270
 51
90
  0
LINE
  8
_0-9_
  6
CONTINUOUS
 62
    2
 10
89.416092422761949
 20
197.44967053143608
 11
89.416092422761949
 21
196.94967253143608
  0
LINE
  8
_0-9_
  6
CONTINUOUS
 62
    2
 10
88.416093422762287
 20
196.94967253143608
 11
89.416092422761949
 21
197.44967053143608
  0
LINE
  8
_0-9_
  6
CONTINUOUS
 62
    2
 10
88.416093422762287
 20
197.44967053143608
 11
88.416093422762287
 21
196.94967253143608
  0
LINE
  8
_0-9_
  6
CONTINUOUS
 62
    2
 10
87.416094422762171
 20
196.94967253143608
 11
88.416093422762287
 21
197.44967053143608
  0
LINE
  8
_0-9_
  6
CONTINUOUS
 62
    2
 10
84.916092422761949
 20
196.94967253143608
 11
87.416094422762171
 21
196.94967253143608
  0
ARC
  8
_0-9_
  6
CONTINUOUS
 62
    2
 10
84.916092422761949
 20
196.44967153143619
 40
0.500001
 50
90
 51
180
  0
ARC
  8
_0-9_
  6
CONTINUOUS
 62
    2
 10
84.916092422761949
 20
198.94967053143608
 40
0.500001
 50
180
 51
270
  0
LINE
  8
_0-9_
  6
CONTINUOUS
 62
    2
 10
84.916092422761949
 20
198.44967253143608
 11
90.666093422762287
 21
198.44967253143608
  0
LINE
  8
_0-9_
  6
CONTINUOUS
 62
    2
 10
84.916092422761949
 20
244.44967153143619
 11
93.916092422761949
 21
244.44967153143619
  0
ARC
  8
_0-9_
  6
CONTINUOUS
 62
    2
 10
84.916092422761949
 20
244.94967253143608
 40
0.500001
 50
180
 51
270
  0
LINE
  8
_0-9_
  6
CONTINUOUS
 62
    2
 10
84.416094422762171
 20
223.44967153143619
 11
83.916093422762287
 21
223.94967253143608
  0
LINE
  8
_0-9_
  6
CONTINUOUS
 62
    2
 10
84.416094422762171
 20
224.44967053143608
 11
83.916093422762287
 21
223.94967253143608
  0
LINE
  8
_0-9_
  6
CONTINUOUS
 62
    2
 10
82.416093422762287
 20
204.94967053143608
 11
81.916092422761949
 21
204.94967053143608
  0
LINE
  8
_0-9_
  6
CONTINUOUS
 62
    2
 10
82.416093422762287
 20
218.94967153143619
 11
82.416093422762287
 21
204.94967053143608
  0
LINE
  8
_0-9_
  6
CONTINUOUS
 62
    2
 10
81.916092422761949
 20
218.94967153143619
 11
82.416093422762287
 21
218.94967153143619
  0
LINE
  8
_0-9_
  6
CONTINUOUS
 62
    2
 10
81.916092422761949
 20
228.94967053143608
 11
82.416093422762287
 21
228.94967053143608
  0
LINE
  8
_0-9_
  6
CONTINUOUS
 62
    2
 10
82.416093422762287
 20
242.94967153143619
 11
82.416093422762287
 21
228.94967053143608
  0
LINE
  8
_0-9_
  6
CONTINUOUS
 62
    2
 10
81.916092422761949
 20
242.94967153143619
 11
82.416093422762287
 21
242.94967153143619
  0
LINE
  8
_0-9_
  6
CONTINUOUS
 62
    2
 10
82.416093422762287
 20
244.44967153143619
 11
81.916092422761949
 21
244.44967153143619
  0
LINE
  8
_0-9_
  6
CONTINUOUS
 62
    2
 10
92.016093422762196
 20
211.44967153143619
 11
92.016093422762196
 21
239.44967053143608
  0
LINE
  8
_0-9_
  6
CONTINUOUS
 62
    2
 10
90.016092422762313
 20
209.94967153143619
 11
90.016092422762313
 21
239.94967153143619
  0
LINE
  8
_0-9_
  6
CONTINUOUS
 62
    2
 10
103.96375842276234
 20
200.40000553143608
 11
109.00787142276226
 21
200.13565453143605
  0
ARC
  8
_0-9_
  6
CONTINUOUS
 62
    2
 10
104.0160934227622
 20
201.39863653143601
 40
0.9999989999999996
 50
180
 51
267
  0
LINE
  8
_0-9_
  6
CONTINUOUS
 62
    2
 10
103.01609442276231
 20
201.39863653143601
 11
103.01609442276231
 21
208.44967153143619
  0
LINE
  8
_0-9_
  6
CONTINUOUS
 62
    2
 10
100.51609242276231
 20
199.47450253143614
 11
100.51609242276231
 21
206.94967153143619
  0
ARC
  8
_0-9_
  6
CONTINUOUS
 62
    2
 10
102.5160934227622
 20
199.47450253143614
 40
2.0000010000000001
 50
180
 51
267
  0
LINE
  8
_0-9_
  6
CONTINUOUS
 62
    2
 10
102.41142042276192
 20
197.47724353143616
 11
109.35017742276227
 21
197.11359853143603
  0
LINE
  8
_0-9_
  6
CONTINUOUS
 62
    2
 10
101.0160934227622
 20
210.44967253143608
 11
93.016092422762313
 21
210.44967253143608
  0
ARC
  8
_0-9_
  6
CONTINUOUS
 62
    2
 10
101.0160934227622
 20
208.44967153143619
 40
2.0000010000000001
 50
0
 51
90
  0
LINE
  8
_0-9_
  6
CONTINUOUS
 62
    2
 10
99.516093422762196
 20
207.94967053143608
 11
89.016093422762196
 21
207.94967053143608
  0
ARC
  8
_0-9_
  6
CONTINUOUS
 62
    2
 10
99.516093422762196
 20
206.94967153143619
 40
0.9999989999999996
 50
0
 51
90
  0
ARC
  8
_0-9_
  6
CONTINUOUS
 62
    2
 10
93.016092422762313
 20
211.44967153143619
 40
0.9999989999999996
 50
180
 51
270
  0
LINE
  8
_0-9_
  6
CONTINUOUS
 62
    2
 10
89.516094422762308
 20
209.44967053143608
 11
88.016094422762308
 21
209.44967053143608
  0
ARC
  8
_0-9_
  6
CONTINUOUS
 62
    2
 10
89.516094422762308
 20
209.94967153143619
 40
0.500001
 50
270
 51
0
  0
ARC
  8
_0-9_
  6
CONTINUOUS
 62
    2
 10
89.016093422762196
 20
207.44967253143608
 40
0.500001
 50
90
 51
180
  0
LINE
  8
_0-9_
  6
CONTINUOUS
 62
    2
 10
88.516092422762313
 20
207.44967253143608
 11
88.516092422762313
 21
205.69967053143608
  0
LINE
  8
_0-9_
  6
CONTINUOUS
 62
    2
 10
109.53335442276216
 20
200.60880253143608
 11
109.63412742276228
 21
202.53167053143619
  0
ARC
  8
_0-9_
  6
CONTINUOUS
 62
    2
 10
109.03403742276191
 20
200.63497153143607
 40
0.500001
 50
267
 51
357.00000000000023
  0
LINE
  8
_0-9_
  6
CONTINUOUS
 62
    2
 10
109.35017742276227
 20
197.11359853143603
 11
109.27167342276221
 21
195.61565353143618
  0
ARC
  8
_0-9_
  6
CONTINUOUS
 62
    2
 10
87.766092422762313
 20
205.69967053143608
 40
0.75
 50
180
 51
0
  0
ARC
  8
_0-9_
  6
CONTINUOUS
 62
    2
 10
88.016094422762308
 20
208.44967153143619
 40
0.9999989999999996
 50
90
 51
180
  0
LINE
  8
_0-9_
  6
CONTINUOUS
 62
    2
 10
87.016092422762313
 20
208.44967153143619
 11
87.016092422762313
 21
205.69967053143608
  0
LINE
  8
_0-9_
  6
CONTINUOUS
 62
    2
 10
110.15961042276217
 20
203.00481553143612
 11
110.65892442276231
 21
202.97864653143614
  0
ARC
  8
_0-9_
  6
CONTINUOUS
 62
    2
 10
110.13344142276219
 20
202.50550153143621
 40
0.500001
 50
87
 51
176.99999999999997
  0
ARC
  8
_0-9_
  6
CONTINUOUS
 62
    2
 10
109.77098742276235
 20
195.58948753143608
 40
0.500001
 50
176.99999999999997
 51
267
  0
ARC
  8
_0-9_
  6
CONTINUOUS
 62
    2
 10
110.6327554227621
 20
202.479332531436
 40
0.500001
 50
357.00000000000006
 51
87.000000000000028
  0
LINE
  8
_0-9_
  6
CONTINUOUS
 62
    2
 10
109.74482142276224
 20
195.09017353143616
 11
110.24413542276193
 21
195.06400453143596
  0
ARC
  8
_0-9_
  6
CONTINUOUS
 62
    2
 10
110.27030442276214
 20
195.5633185314361
 40
0.500001
 50
267
 51
357.00000000000023
  0
ARC
  8
_0-9_
  6
DASHED1
 62
    3
 10
139.38756642276235
 20
197.04146353143614
 40
1.5
 50
267
 51
87.000000000000185
  0
LINE
  8
_0-9_
  6
CONTINUOUS
 62
    2
 10
98.016093422762196
 20
232.94967253143608
 11
97.016094422762308
 21
232.94967253143608
  0
ARC
  8
_0-9_
  6
CONTINUOUS
 62
    2
 10
98.016093422762196
 20
233.44967053143608
 40
0.500001
 50
270
 51
0
  0
LINE
  8
_0-9_
  6
CONTINUOUS
 62
    2
 10
98.516094422762308
 20
233.44967053143608
 11
98.516094422762308
 21
246.94967053143608
  0
LINE
  8
_0-9_
  6
CONTINUOUS
 62
    2
 10
91.516092422762313
 20
241.44967153143619
 11
96.014034422762279
 21
241.44967153143619
  0
ARC
  8
_0-9_
  6
CONTINUOUS
 62
    2
 10
91.516092422762313
 20
239.94967153143619
 40
1.5
 50
90
 51
180
  0
LINE
  8
_0-9_
  6
CONTINUOUS
 62
    2
 10
97.516092422762313
 20
247.94967253143608
 11
89.916093422762287
 21
247.94967253143608
  0
ARC
  8
_0-9_
  6
CONTINUOUS
 62
    2
 10
97.516092422762313
 20
246.94967053143608
 40
0.9999989999999996
 50
0
 51
90
  0
LINE
  8
_0-9_
  6
CONTINUOUS
 62
    2
 10
92.516094422762308
 20
239.94967153143619
 11
96.516093422762196
 21
239.94967153143619
  0
ARC
  8
_0-9_
  6
CONTINUOUS
 62
    2
 10
92.516094422762308
 20
239.44967053143608
 40
0.500001
 50
90
 51
180
  0
LINE
  8
_0-9_
  6
CONTINUOUS
 62
    2
 10
89.517747422762341
 20
246.44967253143608
 11
89.517747422762341
 21
245.0496715314361
  0
ARC
  8
_0-9_
  6
CONTINUOUS
 62
    2
 10
96.514035422762163
 20
245.94967153143619
 40
0.500001
 50
0
 51
90
  0
LINE
  8
_0-9_
  6
CONTINUOUS
 62
    2
 10
97.014036422762047
 20
242.44967053143608
 11
97.014036422762047
 21
245.94967153143619
  0
ARC
  8
_0-9_
  6
CONTINUOUS
 62
    2
 10
96.014034422762279
 20
242.44967053143608
 40
0.9999989999999996
 50
270
 51
0
  0
LINE
  8
_0-9_
  6
CONTINUOUS
 62
    2
 10
97.016094422762308
 20
239.44967053143608
 11
97.016094422762308
 21
234.94967053143608
  0
ARC
  8
_0-9_
  6
CONTINUOUS
 62
    2
 10
96.516093422762196
 20
239.44967053143608
 40
0.500001
 50
0
 51
90
  0
ARC
  8
_0-9_
  6
CONTINUOUS
 62
    2
 10
97.016094422762308
 20
233.94967153143619
 40
0.9999989999999996
 50
90
 51
270
  0
ARC
  8
_0-9_
  6
CONTINUOUS
 62
    2
 10
86.416092422761949
 20
249.94967053143608
 40
1.5
 50
180
 51
240.25511899999998
  0
LINE
  8
_0-9_
  6
CONTINUOUS
 62
    2
 10
85.671885422762216
 20
248.64730753143607
 11
89.517747422762341
 21
246.44967253143608
  0
LINE
  8
_0-9_
  6
CONTINUOUS
 62
    2
 10
90.717747422762159
 20
246.44967253143608
 11
96.514035422762163
 21
246.44967253143608
  0
LINE
  8
_0-9_
  6
CONTINUOUS
 62
    2
 10
90.717747422762159
 20
245.0496715314361
 11
90.717747422762159
 21
246.44967253143608
  0
LINE
  8
_0-9_
  6
CONTINUOUS
 62
    2
 10
86.416092422761949
 20
249.94967053143608
 11
89.916093422762287
 21
247.94967253143608
  0
ARC
  8
_0-9_
  6
CONTINUOUS
 62
    2
 10
90.117747422762022
 20
245.0496715314361
 40
0.5999999999999996
 50
180
 51
0
  0
LINE
  8
_0-9_
  6
CONTINUOUS
 62
    2
 10
90.666093422762287
 20
192.94967053143608
 11
89.416092422761949
 21
192.94967053143608
  0
LINE
  8
_0-9_
  6
CONTINUOUS
 62
    2
 10
90.666093422762287
 20
196.94967253143608
 11
89.416092422761949
 21
196.94967253143608
  0
LINE
  8
_0-9_
  6
CONTINUOUS
 62
    2
 10
110.51282742276203
 20
227.36704753143607
 11
109.61681442276245
 21
227.41400653143609
  0
ARC
  8
_0-9_
  6
CONTINUOUS
 62
    2
 10
110.59133142276232
 20
228.86499253143614
 40
1.5
 50
267
 51
0.0000000000001399
  0
LINE
  8
_0-9_
  6
CONTINUOUS
 62
    2
 10
112.09133142276232
 20
228.86499253143614
 11
112.11609342276211
 21
230.64967153143601
  0
LINE
  8
_0-9_
  6
CONTINUOUS
 62
    2
 10
106.09133142276232
 20
229.02221653143596
 11
106.11609342276211
 21
230.64967153143601
  0
ARC
  8
_0-9_
  6
CONTINUOUS
 62
    2
 10
107.59133142276232
 20
229.02221653143596
 40
1.5
 50
180
 51
267
  0
LINE
  8
_0-9_
  6
CONTINUOUS
 62
    2
 10
107.51282742276203
 20
227.52427153143611
 11
108.61818342276206
 21
227.46634153143617
  0
LINE
  8
_0-9_
  6
CONTINUOUS
 62
    2
 10
113.11609242276222
 20
231.64967053143613
 11
113.11609242276222
 21
230.64967153143601
  0
LINE
  8
_0-9_
  6
CONTINUOUS
 62
    2
 10
104.11609242276222
 20
231.64967053143613
 11
113.11609242276222
 21
231.64967053143613
  0
LINE
  8
_0-9_
  6
CONTINUOUS
 62
    2
 10
104.11609242276222
 20
230.64967153143601
 11
113.11609242276222
 21
230.64967153143601
  0
ARC
  8
_0-9_
  6
CONTINUOUS
 62
    2
 10
104.11609242276222
 20
231.64967053143613
 40
0.9999989999999996
 50
180
 51
270
  0
LINE
  8
_0-9_
  6
CONTINUOUS
 62
    2
 10
103.11609342276211
 20
231.64967053143613
 11
103.11609342276211
 21
232.84967053143617
  0
ARC
  8
_0-9_
  6
CONTINUOUS
 62
    2
 10
104.11609242276222
 20
232.84967053143617
 40
0.9999989999999996
 50
90
 51
180
  0
LINE
  8
_0-9_
  6
CONTINUOUS
 62
    2
 10
104.11609242276222
 20
233.84967253143594
 11
109.61609442276199
 21
233.84967253143594
  0
LINE
  8
_0-9_
  6
CONTINUOUS
 62
    2
 10
110.11609242276222
 20
234.34967053143617
 11
110.11609242276222
 21
234.84967153143606
  0
ARC
  8
_0-9_
  6
CONTINUOUS
 62
    2
 10
109.61609442276199
 20
234.34967053143617
 40
0.500001
 50
270
 51
0
  0
ARC
  8
_0-9_
  6
CONTINUOUS
 62
    2
 10
111.91609242276195
 20
233.84967253143594
 40
2.199999
 50
270
 51
0
  0
ARC
  8
_0-9_
  6
CONTINUOUS
 62
    2
 10
111.91609242276195
 20
233.84967253143594
 40
0.9999989999999996
 50
270
 51
0
  0
LINE
  8
_0-9_
  6
CONTINUOUS
 62
    2
 10
111.91609242276195
 20
232.84967053143617
 11
104.11609242276222
 21
232.84967053143617
  0
ARC
  8
_0-9_
  6
CONTINUOUS
 62
    2
 10
110.59133142276232
 20
228.86499253143614
 40
2.4999989999999999
 50
267
 51
0.0000000000001399
  0
ARC
  8
_0-9_
  6
CONTINUOUS
 62
    2
 10
107.59133142276232
 20
229.02221653143596
 40
2.4999989999999999
 50
180
 51
267
  0
ARC
  8
_0-9_
  6
CONTINUOUS
 62
    2
 10
109.59064542276224
 20
226.91468953143607
 40
0.500001
 50
87
 51
267
  0
ARC
  8
_0-9_
  6
CONTINUOUS
 62
    2
 10
108.59201742276196
 20
226.96702753143626
 40
0.500001
 50
267
 51
87.000000000000185
  0
LINE
  8
_0-9_
  6
CONTINUOUS
 62
    2
 10
105.11609442276199
 20
230.64967153143601
 11
105.09132942276233
 21
229.02221653143596
  0
LINE
  8
_0-9_
  6
CONTINUOUS
 62
    2
 10
113.11609242276222
 20
230.64967153143601
 11
113.09133042276221
 21
228.86499253143614
  0
ARC
  8
_0-9_
  6
CONTINUOUS
 62
    2
 10
109.61609442276199
 20
234.34967053143617
 40
1.5
 50
270
 51
0
  0
LINE
  8
_0-9_
  6
CONTINUOUS
 62
    2
 10
111.11609442276199
 20
234.84967153143606
 11
111.11609442276199
 21
234.34967053143617
  0
LINE
  8
_0-9_
  6
CONTINUOUS
 62
    2
 10
104.11609242276222
 20
232.84967053143617
 11
104.11609242276222
 21
231.64967053143613
  0
LINE
  8
_0-9_
  6
DASHED1
 62
    3
 10
84.916092422761949
 20
241.39063753143608
 11
89.416092422761949
 21
241.39063753143608
  0
LINE
  8
_0-9_
  6
DASHED1
 62
    3
 10
68.001450422762218
 20
221.69004853143605
 11
68.916093422762287
 21
219.94967053143608
  0
LINE
  8
_0-9_
  6
DASHED1
 62
    3
 10
68.916093422762287
 20
219.94967053143608
 11
80.916093422762287
 21
219.94967053143608
  0
LINE
  8
_0-9_
  6
DASHED1
 62
    3
 10
61.11571542276215
 20
227.50872853143613
 11
66.115716422762034
 21
229.32857953143611
  0
LINE
  8
_0-9_
  6
DASHED1
 62
    3
 10
61.11571542276215
 20
228.57290653143599
 11
65.77369542276233
 21
230.26827253143614
  0
LINE
  8
_0-9_
  6
DASHED1
 62
    3
 10
61.11571542276215
 20
220.39061353143614
 11
66.115716422762034
 21
218.57076253143617
  0
LINE
  8
_0-9_
  6
DASHED1
 62
    3
 10
65.77369542276233
 20
217.63106953143614
 11
72.577317422762235
 21
216.63871453143605
  0
ARC
  8
_0-9_
  6
DASHED1
 62
    3
 10
72.635049422762222
 20
217.03452853143625
 40
0.3999989999999998
 50
261.70153399999998
 51
351.86989799999998
  0
LINE
  8
_0-9_
  6
DASHED1
 62
    3
 10
73.03102842276212
 20
216.97795753143618
 11
73.059147422761953
 21
217.17478453143616
  0
ARC
  8
_0-9_
  6
DASHED1
 62
    3
 10
72.663165422762177
 20
217.23135253143613
 40
0.3999989999999998
 50
351.86989799999992
 51
81.869897999999949
  0
LINE
  8
_0-9_
  6
DASHED1
 62
    3
 10
72.719736422762253
 20
217.62733153143603
 11
66.115716422762034
 21
218.57076253143617
  0
LINE
  8
_0-9_
  6
DASHED1
 62
    3
 10
65.77369542276233
 20
230.26827253143614
 11
72.577317422762235
 21
231.26062753143623
  0
ARC
  8
_0-9_
  6
DASHED1
 62
    3
 10
72.635049422762222
 20
230.86481653143613
 40
0.3999989999999998
 50
8.1301019999999866
 51
98.298465999999991
  0
LINE
  8
_0-9_
  6
DASHED1
 62
    3
 10
73.03102842276212
 20
230.9213845314361
 11
73.059147422761953
 21
230.72456053143623
  0
ARC
  8
_0-9_
  6
DASHED1
 62
    3
 10
72.663165422762177
 20
230.66798953143615
 40
0.3999989999999998
 50
278.13010200000008
 51
8.1301020000000506
  0
LINE
  8
_0-9_
  6
DASHED1
 62
    3
 10
72.916092422761949
 20
224.44967053143608
 11
72.916092422761949
 21
223.94967253143608
  0
LINE
  8
_0-9_
  6
DASHED1
 62
    3
 10
68.916093422762287
 20
227.94967153143619
 11
68.001450422762218
 21
226.20929653143611
  0
LINE
  8
_0-9_
  6
DASHED1
 62
    3
 10
80.916093422762287
 20
228.94967053143608
 11
75.916092422761949
 21
227.94967153143619
  0
LINE
  8
_0-9_
  6
DASHED1
 62
    3
 10
80.916093422762287
 20
224.94967153143619
 11
75.916092422761949
 21
223.94967253143608
  0
LINE
  8
_0-9_
  6
DASHED1
 62
    3
 10
80.916093422762287
 20
222.94967053143608
 11
75.916092422761949
 21
223.94967253143608
  0
LINE
  8
_0-9_
  6
DASHED1
 62
    3
 10
75.916092422761949
 20
223.94967253143608
 11
80.916093422762287
 21
223.94967253143608
  0
LINE
  8
_0-9_
  6
DASHED1
 62
    3
 10
46.785537422762218
 20
225.81911653143601
 11
44.916093422762287
 21
223.94967253143608
  0
LINE
  8
_0-9_
  6
DASHED1
 62
    3
 10
68.001450422762218
 20
226.20929653143611
 11
66.004191422762233
 21
226.31396653143628
  0
LINE
  8
_0-9_
  6
DASHED1
 62
    3
 10
66.004191422762233
 20
226.31396653143628
 11
66.108861422762175
 21
228.31122553143604
  0
LINE
  8
_0-9_
  6
DASHED1
 62
    3
 10
66.108861422762175
 20
228.31122553143604
 11
64.111602422762417
 21
228.41589853143608
  0
LINE
  8
_0-9_
  6
DASHED1
 62
    3
 10
43.955838422762099
 20
225.96741553143619
 11
44.139012422762107
 21
229.46261653143614
  0
LINE
  8
_0-9_
  6
DASHED1
 62
    3
 10
44.139012422762107
 20
229.46261653143614
 11
42.037080422762074
 21
227.57003053143598
  0
LINE
  8
_0-9_
  6
DASHED1
 62
    3
 10
42.037080422762074
 20
227.57003053143598
 11
41.958576422762007
 21
226.07208553143613
  0
LINE
  8
_0-9_
  6
DASHED1
 62
    3
 10
41.958576422762007
 20
226.07208553143613
 11
72.916092422761949
 21
224.44967053143608
  0
LINE
  8
_0-9_
  6
DASHED1
 62
    3
 10
64.111602422762417
 20
228.41589853143608
 11
63.008301422762088
 21
226.47097453143596
  0
LINE
  8
_0-9_
  6
DASHED1
 62
    3
 10
63.008301422762088
 20
226.47097453143596
 11
61.011042422762102
 21
226.57564753143623
  0
LINE
  8
_0-9_
  6
DASHED1
 62
    3
 10
61.011042422762102
 20
226.57564753143623
 11
61.11571542276215
 21
228.57290653143599
  0
LINE
  8
_0-9_
  6
DASHED1
 62
    3
 10
61.11571542276215
 20
228.57290653143599
 11
59.118456422762165
 21
228.67757953143627
  0
LINE
  8
_0-9_
  6
DASHED1
 62
    3
 10
59.118456422762165
 20
228.67757953143627
 11
58.015155422762291
 21
226.73265553143614
  0
LINE
  8
_0-9_
  6
DASHED1
 62
    3
 10
58.015155422762291
 20
226.73265553143614
 11
56.017896422762306
 21
226.83732853143619
  0
LINE
  8
_0-9_
  6
DASHED1
 62
    3
 10
56.017896422762306
 20
226.83732853143619
 11
56.12256642276202
 21
228.83458753143594
  0
LINE
  8
_0-9_
  6
DASHED1
 62
    3
 10
56.12256642276202
 20
228.83458753143594
 11
54.125307422762035
 21
228.93925753143611
  0
LINE
  8
_0-9_
  6
DASHED1
 62
    3
 10
54.125307422762035
 20
228.93925753143611
 11
53.022006422762161
 21
226.99433353143621
  0
LINE
  8
_0-9_
  6
DASHED1
 62
    3
 10
53.022006422762161
 20
226.99433353143621
 11
51.024747422762175
 21
227.09900653143603
  0
LINE
  8
_0-9_
  6
DASHED1
 62
    3
 10
51.024747422762175
 20
227.09900653143603
 11
51.129420422762223
 21
229.09626553143625
  0
LINE
  8
_0-9_
  6
DASHED1
 62
    3
 10
51.129420422762223
 20
229.09626553143625
 11
49.132161422762238
 21
229.20093853143607
  0
LINE
  8
_0-9_
  6
DASHED1
 62
    3
 10
49.132161422762238
 20
229.20093853143607
 11
48.028860422761909
 21
227.25601453143616
  0
LINE
  8
_0-9_
  6
DASHED1
 62
    3
 10
48.028860422761909
 20
227.25601453143616
 11
46.031601422762151
 21
227.36068753143621
  0
LINE
  8
_0-9_
  6
DASHED1
 62
    3
 10
46.031601422762151
 20
227.36068753143621
 11
46.136271422762093
 21
229.3579465314362
  0
LINE
  8
_0-9_
  6
DASHED1
 62
    3
 10
46.136271422762093
 20
229.3579465314362
 11
44.139012422762107
 21
229.46261653143614
  0
LINE
  8
_0-9_
  6
DASHED1
 62
    3
 10
72.916092422761949
 20
223.44967153143619
 11
72.916092422761949
 21
223.94967253143608
  0
LINE
  8
_0-9_
  6
DASHED1
 62
    3
 10
80.916093422762287
 20
218.94967153143619
 11
75.916092422761949
 21
219.94967053143608
  0
LINE
  8
_0-9_
  6
DASHED1
 62
    3
 10
68.001450422762218
 20
221.69004853143605
 11
66.004191422762233
 21
221.585375531436
  0
LINE
  8
_0-9_
  6
DASHED1
 62
    3
 10
66.004191422762233
 20
221.585375531436
 11
66.108861422762175
 21
219.58811653143601
  0
LINE
  8
_0-9_
  6
DASHED1
 62
    3
 10
66.108861422762175
 20
219.58811653143601
 11
64.111602422762417
 21
219.48344353143619
  0
LINE
  8
_0-9_
  6
DASHED1
 62
    3
 10
43.955838422762099
 20
221.93192953143597
 11
44.139012422762107
 21
218.43672553143614
  0
LINE
  8
_0-9_
  6
DASHED1
 62
    3
 10
44.139012422762107
 20
218.43672553143614
 11
42.037080422762074
 21
220.32931153143608
  0
LINE
  8
_0-9_
  6
DASHED1
 62
    3
 10
42.037080422762074
 20
220.32931153143608
 11
41.958576422762007
 21
221.82725653143615
  0
LINE
  8
_0-9_
  6
DASHED1
 62
    3
 10
41.958576422762007
 20
221.82725653143615
 11
72.916092422761949
 21
223.44967153143619
  0
LINE
  8
_0-9_
  6
DASHED1
 62
    3
 10
64.111602422762417
 20
219.48344353143619
 11
63.008301422762088
 21
221.42836753143609
  0
LINE
  8
_0-9_
  6
DASHED1
 62
    3
 10
63.008301422762088
 20
221.42836753143609
 11
61.011042422762102
 21
221.32369453143605
  0
LINE
  8
_0-9_
  6
DASHED1
 62
    3
 10
61.011042422762102
 20
221.32369453143605
 11
61.11571542276215
 21
219.32643553143606
  0
LINE
  8
_0-9_
  6
DASHED1
 62
    3
 10
61.11571542276215
 20
219.32643553143606
 11
59.118456422762165
 21
219.22176553143612
  0
LINE
  8
_0-9_
  6
DASHED1
 62
    3
 10
59.118456422762165
 20
219.22176553143612
 11
58.015155422762291
 21
221.16668653143614
  0
LINE
  8
_0-9_
  6
DASHED1
 62
    3
 10
58.015155422762291
 20
221.16668653143614
 11
56.017896422762306
 21
221.0620165314362
  0
LINE
  8
_0-9_
  6
DASHED1
 62
    3
 10
56.017896422762306
 20
221.0620165314362
 11
56.12256642276202
 21
219.06475753143621
  0
LINE
  8
_0-9_
  6
DASHED1
 62
    3
 10
56.12256642276202
 20
219.06475753143621
 11
54.125307422762035
 21
218.96008453143617
  0
LINE
  8
_0-9_
  6
DASHED1
 62
    3
 10
54.125307422762035
 20
218.96008453143617
 11
53.022006422762161
 21
220.90500853143607
  0
LINE
  8
_0-9_
  6
DASHED1
 62
    3
 10
53.022006422762161
 20
220.90500853143607
 11
51.024747422762175
 21
220.80033553143602
  0
LINE
  8
_0-9_
  6
DASHED1
 62
    3
 10
51.024747422762175
 20
220.80033553143602
 11
51.129420422762223
 21
218.80307653143626
  0
LINE
  8
_0-9_
  6
DASHED1
 62
    3
 10
51.129420422762223
 20
218.80307653143626
 11
49.132161422762238
 21
218.69840653143609
  0
LINE
  8
_0-9_
  6
DASHED1
 62
    3
 10
49.132161422762238
 20
218.69840653143609
 11
48.028860422761909
 21
220.64332753143611
  0
LINE
  8
_0-9_
  6
DASHED1
 62
    3
 10
48.028860422761909
 20
220.64332753143611
 11
46.031601422762151
 21
220.53865753143617
  0
LINE
  8
_0-9_
  6
DASHED1
 62
    3
 10
46.031601422762151
 20
220.53865753143617
 11
46.136271422762093
 21
218.54139853143596
  0
LINE
  8
_0-9_
  6
DASHED1
 62
    3
 10
46.136271422762093
 20
218.54139853143596
 11
44.139012422762107
 21
218.43672553143614
  0
LINE
  8
_0-9_
  6
DASHED1
 62
    3
 10
46.785537422762218
 20
222.08022853143615
 11
44.916093422762287
 21
223.94967253143608
  0
LINE
  8
_0-9_
  6
DASHED1
 62
    3
 10
72.719736422762253
 20
230.27201053143625
 11
66.115716422762034
 21
229.32857953143611
  0
LINE
  8
_0-9_
  6
DASHED1
 62
    3
 10
61.11571542276215
 20
219.32643553143606
 11
65.77369542276233
 21
217.63106953143614
  0
LINE
  8
_0-9_
  6
DASHED1
 62
    3
 10
68.916093422762287
 20
227.94967153143619
 11
80.916093422762287
 21
227.94967153143619
  0
ARC
  8
_0-9_
  6
CONTINUOUS
 62
    2
 10
84.2873854227621
 20
225.45243253143616
 40
3
 50
38.614638000000006
 51
87.541073999999981
  0
ARC
  8
_0-9_
  6
CONTINUOUS
 62
    2
 10
82.416093422762287
 20
223.94967253143608
 40
5.4000000000000004
 50
0
 51
38.851061999999992
  0
ARC
  8
_0-9_
  6
CONTINUOUS
 62
    2
 10
82.416093422762287
 20
223.94967253143608
 40
5.4000000000000004
 50
321.31781300000006
 51
0.0000000000000445
  0
ARC
  8
_0-9_
  6
CONTINUOUS
 62
    2
 10
84.2873854227621
 20
222.44690953143612
 40
3
 50
272.45892600000002
 51
321.38536199999999
  0
LINE
  8
_0-9_
  6
CONTINUOUS
 62
    2
 10
111.61609242276222
 20
235.24967053143627
 11
112.61609442276199
 21
235.24967053143627
  0
LINE
  8
_0-9_
  6
CONTINUOUS
 62
    3
 10
112.24161942276214
 20
235.24967053143627
 11
112.61609442276199
 21
235.62414553143611
  0
ARC
  8
_0-9_
  6
CONTINUOUS
 62
    2
 10
110.61609342276211
 20
234.84967153143606
 40
0.500001
 50
0
 51
180
  0
ARC
  8
_0-9_
  6
DASHED1
 62
    3
 10
92.416092422761949
 20
228.26304853143614
 40
7.5
 50
180
 51
267
  0
LINE
  8
_0-9_
  6
DASHED1
 62
    3
 10
84.916092422761949
 20
228.26304853143614
 11
84.916092422761949
 21
241.39063753143608
  0
LINE
  8
_0-9_
  6
DASHED1
 62
    3
 10
92.259084422762271
 20
225.2671615314361
 11
96.75908742276215
 21
225.03132553143604
  0
ARC
  8
_0-9_
  6
DASHED1
 62
    3
 10
92.416092422761949
 20
228.26304853143614
 40
3
 50
180
 51
267
  0
LINE
  8
_0-9_
  6
DASHED1
 62
    3
 10
89.416092422761949
 20
228.26304853143614
 11
89.416092422761949
 21
241.39063753143608
  0
LINE
  8
_0-9_
  6
CONTINUOUS
 62
    2
 10
95.916093422762287
 20
228.02721553143618
 11
95.916093422762287
 21
239.07824953143603
  0
ARC
  8
_0-9_
  6
CONTINUOUS
 62
    2
 10
96.916092422761949
 20
228.02721553143618
 40
0.9999989999999996
 50
180
 51
267
  0
LINE
  8
_0-9_
  6
CONTINUOUS
 62
    2
 10
93.916092422761949
 20
228.02721553143618
 11
93.916092422761949
 21
239.07824953143603
  0
ARC
  8
_0-9_
  6
CONTINUOUS
 62
    2
 10
96.916092422761949
 20
228.02721553143618
 40
3
 50
180
 51
267
  0
LINE
  8
_0-9_
  6
CONTINUOUS
 62
    2
 10
93.916092422761949
 20
239.07824953143603
 11
95.916093422762287
 21
239.07824953143603
  0
LINE
  8
_0-9_
  6
CONTINUOUS
 62
    3
 10
115.16354442276202
 20
224.06678953143609
 11
113.5264774227619
 21
222.42972253143597
  0
LINE
  8
_0-9_
  6
CONTINUOUS
 62
    3
 10
116.50733142276226
 20
223.9963645314362
 11
114.87026742276225
 21
222.35929753143608
  0
LINE
  8
_0-9_
  6
CONTINUOUS
 62
    3
 10
117.85112142276216
 20
223.92593953143609
 11
116.21405442276227
 21
222.2888725314362
  0
LINE
  8
_0-9_
  6
CONTINUOUS
 62
    3
 10
119.19490842276218
 20
223.85551453143597
 11
117.55784442276195
 21
222.21844753143608
  0
LINE
  8
_0-9_
  6
CONTINUOUS
 62
    3
 10
120.53869842276231
 20
223.78508953143609
 11
118.90163142276219
 21
222.14802253143597
  0
LINE
  8
_0-9_
  6
CONTINUOUS
 62
    3
 10
121.8824854227621
 20
223.7146645314362
 11
120.24542142276232
 21
222.07759753143608
  0
LINE
  8
_0-9_
  6
CONTINUOUS
 62
    3
 10
121.58920842276211
 20
222.0071725314362
 11
122.2027294227621
 21
222.62069353143596
  0
LINE
  8
_0-9_
  6
CONTINUOUS
 62
    3
 10
113.83050342276215
 20
224.13665053143603
 11
112.19343942276214
 21
222.49958353143614
  0
LINE
  8
_0-9_
  6
CONTINUOUS
 62
    3
 10
112.47596742276232
 20
224.20763953143609
 11
112.26090342276234
 21
223.9925755314361
  0
LINE
  8
_0-9_
  6
CONTINUOUS
 62
    3
 10
105.09597342276197
 20
229.32738253143606
 11
106.10890542276229
 21
230.1773335314362
  0
LINE
  8
_0-9_
  6
CONTINUOUS
 62
    3
 10
105.24844842276229
 20
228.14991553143608
 11
106.09967742276217
 21
228.86418253143614
  0
LINE
  8
_0-9_
  6
CONTINUOUS
 62
    3
 10
105.78454542276245
 20
227.29434853143601
 11
106.55329542276218
 21
227.93940553143619
  0
LINE
  8
_0-9_
  6
CONTINUOUS
 62
    3
 10
106.642836422762
 20
226.70913253143607
 11
107.60831742276218
 21
227.51926753143624
  0
LINE
  8
_0-9_
  6
CONTINUOUS
 62
    3
 10
107.94935142276222
 20
226.50002053143606
 11
108.93710742276221
 21
227.32884553143612
  0
LINE
  8
_0-9_
  6
CONTINUOUS
 62
    3
 10
112.10692242276218
 20
229.98863653143616
 11
112.89471342276215
 21
230.64967153143601
  0
LINE
  8
_0-9_
  6
CONTINUOUS
 62
    3
 10
109.43355642276219
 20
226.44000853143615
 11
110.53707642276208
 21
227.36597353143605
  0
LINE
  8
_0-9_
  6
CONTINUOUS
 62
    3
 10
112.07699742276213
 20
228.65811853143617
 11
113.100375422762
 21
229.51683553143602
  0
LINE
  8
_0-9_
  6
CONTINUOUS
 62
    3
 10
110.92682742276224
 20
226.38760453143612
 11
112.97282142276231
 21
228.10439653143607
  0
LINE
  8
_0-9_
  6
CONTINUOUS
 62
    3
 10
105.12853842276195
 20
230.64967153143601
 11
105.11593242276217
 21
230.63909353143612
  0
LINE
  8
_0-9_
  6
CONTINUOUS
 62
    2
 10
80.916093422762287
 20
278.44967053143608
 11
81.916092422761949
 21
278.44967053143608
  0
LINE
  8
_0-9_
  6
CONTINUOUS
 62
    2
 10
81.916092422761949
 20
278.44967053143608
 11
81.916092422761949
 21
191.41892053143619
  0
ARC
  8
_0-9_
  6
CONTINUOUS
 62
    2
 10
123.91609242276195
 20
275.14967053143613
 40
19.5
 50
157.38013499999997
 51
202.619865
  0
LINE
  8
_0-0_0
  6
CONTINUOUS
 62
    4
 10
99.116094422761989
 20
280.95862323434432
 11
100.80714171985346
 21
282.64967053143567
  0
LINE
  8
_0-0_0
  6
CONTINUOUS
 62
    4
 10
99.116094422761989
 20
278.13019610959753
 11
103.63556884460024
 21
282.64967053143567
  0
LINE
  8
_0-0_0
  6
CONTINUOUS
 62
    4
 10
102.77770446833392
 20
267.64967053143624
 11
105.11259231206117
 21
269.98455837516337
  0
LINE
  8
_0-0_0
  6
CONTINUOUS
 62
    4
 10
99.949277343587028
 20
267.64967053143567
 11
104.62212430574152
 21
272.32251749359023
  0
LINE
  8
_0-0_0
  6
CONTINUOUS
 62
    4
 10
99.116094422761989
 20
269.64491473535753
 11
104.41715632873024
 21
274.94597664132579
  0
LINE
  8
_0-0_0
  6
CONTINUOUS
 62
    4
 10
99.116094422761989
 20
272.47334186010431
 11
104.62256207291216
 21
277.97980951025454
  0
LINE
  8
_0-0_0
  6
CONTINUOUS
 62
    4
 10
99.116094422761989
 20
275.30176898485098
 11
105.56865418645123
 21
281.7543287485405
  0
TEXT
  8
_0-4_図枠
 62
    7
 10
8.8690498590408424
 20
342.29284100190966
 40
9
 41
1
 50
0
  1
　　Ｓ＝１／２
  0
TEXT
  8
_0-4_図枠
 62
    7
 10
1.1443209678639619
 20
357.25950322856488
 40
9
 41
1
 50
0
  1
　　屋根－壁（切欠き壁）
  0
LINE
  8
_0-7_
  6
CONTINUOUS
 62
    3
 10
80.916093422762287
 20
281.02928223160995
 11
80.916093422762287
 21
350.5582598501602
  0
LINE
  8
_0-7_
  6
CONTINUOUS
 62
    3
 10
80.916093422762287
 20
344.5582598501602
 11
83.916093422762287
 21
345.3082598501602
  0
LINE
  8
_0-7_
  6
CONTINUOUS
 62
    3
 10
80.916093422762287
 20
344.5582598501602
 11
83.916093422762287
 21
343.8082598501602
  0
LINE
  8
_0-8_
  6
CONTINUOUS
 62
    3
 10
105.91609242276223
 20
41.172232231610053
 11
455.91609042276275
 21
41.172232231610053
  0
LINE
  8
_0-8_
  6
CONTINUOUS
 62
    3
 10
455.91609042276275
 20
57.271537231610125
 11
455.91609042276275
 21
35.172232231610053
  0
LINE
  8
_0-8_
  6
CONTINUOUS
 62
    3
 10
455.91609042276275
 20
41.172232231610053
 11
452.91609042276275
 21
41.922232231610053
  0
LINE
  8
_0-8_
  6
CONTINUOUS
 62
    3
 10
455.91609042276275
 20
41.172232231610053
 11
452.91609042276275
 21
40.422232231610053
  0
LINE
  8
_0-8_
  6
CONTINUOUS
 62
    3
 10
455.91609042276275
 20
41.172232231610053
 11
458.91609042276275
 21
40.422232231610053
  0
LINE
  8
_0-8_
  6
CONTINUOUS
 62
    3
 10
455.91609042276275
 20
41.172232231610053
 11
458.91609042276275
 21
41.922232231610053
  0
LINE
  8
_0-9_
  6
CONTINUOUS
 62
    2
 10
112.18268742276223
 20
222.50014753143608
 11
751.68102242276223
 21
188.98545901562119
  0
LINE
  8
_0-9_
  6
CONTINUOUS
 62
    2
 10
111.94717842276191
 20
218.0063155314362
 11
751.44551042276203
 21
184.4916270156213
  0
LINE
  8
_0-9_
  6
CONTINUOUS
 62
    2
 10
111.86867442276207
 20
216.50837053143613
 11
751.36700642276196
 21
182.99368201562146
  0
LINE
  8
_0-9_
  6
DASHED1
 62
    3
 10
111.09933342276213
 20
201.82851553143627
 11
750.59766542276225
 21
168.31382701562137
  0
LINE
  8
_0-9_
  6
DASHED1
 62
    3
 10
111.00513042276225
 20
200.0309845314361
 11
750.50346242276214
 21
166.51629601562144
  0
LINE
  8
_0-9_
  6
CONTINUOUS
 62
    2
 10
110.71728342276219
 20
194.53852153143606
 11
750.21561542276208
 21
161.02383301562139
  0
LINE
  8
_0-9_
  6
DASHED1
 62
    3
 10
110.84812242276234
 20
197.03509453143596
 11
750.34645442276201
 21
163.52040601562129
  0
LINE
  8
_0-9_
  6
DASHED1
 62
    3
 10
110.76961842276205
 20
195.53714953143611
 11
750.26795042276194
 21
162.02246101562122
  0
LINE
  8
_0-9_
  6
DASHED1
 62
    3
 10
757.9119384227622
 20
185.87559601562128
 11
92.0235724227623
 21
220.77332653143611
  0
LINE
  8
_0-9_
  6
CONTINUOUS
 62
    2
 10
777.96842942276203
 20
189.3306570156214
 11
96.759084422762271
 21
225.03132553143604
  0
LINE
  8
_0-9_
  6
CONTINUOUS
 62
    2
 10
770.91609242276195
 20
103.17891901562115
 11
770.91609242276195
 21
101.17892101562137
  0
ARC
  8
_0-9_
  6
DASHED1
 62
    3
 10
757.75493042276207
 20
182.87970901562124
 40
7.5
 50
10.124671999999995
 51
87.000000000000014
  0
LINE
  8
_0-9_
  6
CONTINUOUS
 62
    3
 10
744.67558142276198
 20
191.07546001562122
 11
743.03851442276232
 21
189.43839301562133
  0
LINE
  8
_0-9_
  6
CONTINUOUS
 62
    3
 10
746.01936842276223
 20
191.00503501562133
 11
744.38230442276222
 21
189.36796801562122
  0
LINE
  8
_0-9_
  6
CONTINUOUS
 62
    3
 10
747.36315842276213
 20
190.93461001562144
 11
745.72609142276201
 21
189.29754301562133
  0
LINE
  8
_0-9_
  6
CONTINUOUS
 62
    3
 10
748.70694542276237
 20
190.86418501562133
 11
747.06988142276191
 21
189.22711801562144
  0
LINE
  8
_0-9_
  6
CONTINUOUS
 62
    3
 10
750.05073542276227
 20
190.79376001562122
 11
748.41366842276216
 21
189.15669601562121
  0
LINE
  8
_0-9_
  6
CONTINUOUS
 62
    3
 10
751.39452242276207
 20
190.72333501562133
 11
749.75745842276251
 21
189.08627101562132
  0
LINE
  8
_0-9_
  6
CONTINUOUS
 62
    3
 10
751.1012454227623
 20
189.01584601562143
 11
751.71476642276207
 21
189.62936401562132
  0
LINE
  8
_0-9_
  6
CONTINUOUS
 62
    3
 10
743.34254042276211
 20
191.14532101562116
 11
741.7054764227621
 21
189.50825701562115
  0
LINE
  8
_0-9_
  6
CONTINUOUS
 62
    3
 10
741.98800142276218
 20
191.21631001562145
 11
741.7729404227623
 21
191.00124901562134
  0
ARC
  8
_0-9_
  6
CONTINUOUS
 62
    2
 10
777.91609442276217
 20
104.17892101562137
 40
0.9999989999999996
 50
270
 51
0
  0
LINE
  8
_0-9_
  6
CONTINUOUS
 62
    2
 10
777.91609442276217
 20
103.17891901562115
 11
770.91609242276195
 21
103.17891901562115
  0
ARC
  8
_0-9_
  6
CONTINUOUS
 62
    2
 10
777.91609442276217
 20
104.17892101562137
 40
3
 50
270
 51
0
  0
LINE
  8
_0-9_
  6
CONTINUOUS
 62
    2
 10
777.91609442276217
 20
101.17892101562137
 11
770.91609242276195
 21
101.17892101562137
  0
ARC
  8
_0-9_
  6
CONTINUOUS
 62
    2
 10
777.91609442276217
 20
188.33202601562124
 40
3
 50
0
 51
87.000000000000014
  0
LINE
  8
_0-9_
  6
CONTINUOUS
 62
    2
 10
780.91609442276217
 20
188.33202601562124
 11
780.91609442276217
 21
104.17892101562137
  0
LINE
  8
_0-9_
  6
DASHED1
 62
    3
 10
765.13813742276238
 20
184.19813701562128
 11
778.91609342276229
 21
107.04159001562147
  0
LINE
  8
_0-9_
  6
CONTINUOUS
 62
    2
 10
778.91609342276229
 20
188.33202601562124
 11
778.91609342276229
 21
104.17892101562137
  0
ARC
  8
_0-9_
  6
CONTINUOUS
 62
    2
 10
777.91609442276217
 20
188.33202601562124
 40
0.9999989999999996
 50
0
 51
87.000000000000014
  0
LINE
  8
_0-9_
  6
DASHED1
 62
    3
 10
760.70821442276224
 20
183.40707901562126
 11
774.48489842276217
 21
106.25764201562123
  0
ARC
  8
_0-9_
  6
DASHED1
 62
    3
 10
757.75493042276207
 20
182.87970901562124
 40
3
 50
10.124671999999995
 51
87.000000000000014
  0
ARC
  8
_0-9_
  6
CONTINUOUS
 62
    2
 10
773.99879642276233
 20
113.47892101562132
 40
0.500001
 50
12.00000000000003
 51
90
  0
LINE
  8
_0-9_
  6
CONTINUOUS
 62
    2
 10
774.48786842276218
 20
113.58287701562125
 11
775.91609342276229
 21
106.86360601562131
  0
LINE
  8
_0-9_
  6
CONTINUOUS
 62
    2
 10
775.91609342276229
 20
106.86360601562131
 11
775.91609342276229
 21
103.17891901562115
  0
LINE
  8
_0-9_
  6
CONTINUOUS
 62
    2
 10
776.41609442276217
 20
103.17891901562115
 11
775.91609342276229
 21
103.17891901562115
  0
ARC
  8
_0-9_
  6
CONTINUOUS
 62
    2
 10
776.41609442276217
 20
105.67892101562137
 40
2.4999989999999999
 50
270
 51
0
  0
LINE
  8
_0-9_
  6
CONTINUOUS
 62
    2
 10
769.14861842276218
 20
116.17892101562137
 11
769.14861842276218
 21
115.17891901562115
  0
LINE
  8
_0-9_
  6
CONTINUOUS
 62
    2
 10
767.14862042276241
 20
115.17891901562115
 11
769.14861842276218
 21
116.17892101562137
  0
LINE
  8
_0-9_
  6
CONTINUOUS
 62
    2
 10
773.5311714227621
 20
115.17891901562115
 11
769.14861842276218
 21
115.17891901562115
  0
ARC
  8
_0-9_
  6
CONTINUOUS
 62
    2
 10
773.5311714227621
 20
115.67892001562126
 40
0.500001
 50
270
 51
11.999999999999991
  0
ARC
  8
_0-9_
  6
CONTINUOUS
 62
    2
 10
752.31754442276201
 20
162.91641901562133
 40
0.500001
 50
87
 51
176.99999999999997
  0
LINE
  8
_0-9_
  6
CONTINUOUS
 62
    2
 10
751.81823042276233
 20
162.94258801562131
 11
751.76589542276201
 21
161.94395701562115
  0
LINE
  8
_0-9_
  6
CONTINUOUS
 62
    2
 10
751.24041242276212
 20
161.47081201562122
 11
750.74109842276198
 21
161.49698101562143
  0
ARC
  8
_0-9_
  6
CONTINUOUS
 62
    2
 10
750.76726442276208
 20
161.99629501562134
 40
0.500001
 50
176.99999999999997
 51
267
  0
ARC
  8
_0-9_
  6
CONTINUOUS
 62
    2
 10
751.26657842276222
 20
161.97012601562136
 40
0.500001
 50
267
 51
357.00000000000023
  0
LINE
  8
_0-9_
  6
CONTINUOUS
 62
    2
 10
760.01879042276209
 20
163.01350201562144
 11
752.34371342276222
 21
163.41573601562135
  0
ARC
  8
_0-9_
  6
CONTINUOUS
 62
    2
 10
759.99262442276199
 20
162.51418501562119
 40
0.500001
 50
347
 51
87
  0
LINE
  8
_0-9_
  6
CONTINUOUS
 62
    2
 10
760.47980942276195
 20
162.40171201562129
 11
759.89661542276212
 21
159.87562501562132
  0
LINE
  8
_0-9_
  6
CONTINUOUS
 62
    2
 10
762.08207942276226
 20
162.90537001562114
 11
763.25942642276209
 21
162.84366601562141
  0
ARC
  8
_0-9_
  6
CONTINUOUS
 62
    2
 10
762.06637742276212
 20
162.6057810156214
 40
0.2999999999999998
 50
87
 51
167
  0
LINE
  8
_0-9_
  6
CONTINUOUS
 62
    2
 10
761.77406642276242
 20
162.67326601562121
 11
761.06585942276183
 21
159.60568501562142
  0
ARC
  8
_0-9_
  6
CONTINUOUS
 62
    2
 10
763.20708842276213
 20
161.84503801562136
 40
0.9999989999999996
 50
12.000000000000018
 51
87.000000000000014
  0
ARC
  8
_0-9_
  6
CONTINUOUS
 62
    2
 10
760.48123742276243
 20
159.74065501562126
 40
0.5999999999999996
 50
167
 51
347
  0
LINE
  8
_0-9_
  6
CONTINUOUS
 62
    2
 10
766.96014242276237
 20
163.42724401562117
 11
778.91609342276229
 21
107.17892101562137
  0
LINE
  8
_0-9_
  6
CONTINUOUS
 62
    2
 10
764.18523542276239
 20
162.05295001562121
 11
774.02024342276241
 21
115.78287601562141
  0
LINE
  8
_0-9_
  6
DASHED1
 62
    3
 10
774.48489842276217
 20
106.25764201562123
 11
778.91609342276229
 21
107.04159001562147
  0
LINE
  8
_0-9_
  6
CONTINUOUS
 62
    2
 10
751.77106442276204
 20
190.70360101562136
 11
751.68102242276223
 21
188.98545901562119
  0
LINE
  8
_0-9_
  6
CONTINUOUS
 62
    2
 10
741.78476942276234
 20
191.22696001562116
 11
741.69472442276242
 21
189.50881801562144
  0
ARC
  8
_0-9_
  6
CONTINUOUS
 62
    2
 10
751.1336154227622
 20
168.98670001562135
 40
0.500001
 50
87
 51
176.99999999999997
  0
LINE
  8
_0-9_
  6
CONTINUOUS
 62
    2
 10
752.5007214227619
 20
166.41162301562139
 11
764.18270942276217
 21
165.79939501562143
  0
ARC
  8
_0-9_
  6
CONTINUOUS
 62
    2
 10
752.52689042276211
 20
166.9109370156213
 40
0.500001
 50
176.99999999999997
 51
267
  0
LINE
  8
_0-9_
  6
CONTINUOUS
 62
    2
 10
752.02757342276186
 20
166.93710601562128
 11
752.13224642276214
 21
168.93436501562127
  0
ARC
  8
_0-9_
  6
CONTINUOUS
 62
    2
 10
751.632932422762
 20
168.96053401562125
 40
0.500001
 50
357.00000000000006
 51
87.000000000000028
  0
LINE
  8
_0-9_
  6
CONTINUOUS
 62
    2
 10
751.6590984227621
 20
169.45984801562139
 11
751.15978442276196
 21
169.48601701562137
  0
LINE
  8
_0-9_
  6
CONTINUOUS
 62
    2
 10
751.68102242276223
 20
188.98545901562119
 11
750.21561542276208
 21
161.02383301562139
  0
ARC
  8
_0-9_
  6
CONTINUOUS
 62
    2
 10
764.02570142276204
 20
162.80350801562116
 40
3
 50
12.000000000000018
 51
87.000000000000014
  0
CIRCLE
  8
_0-7_
  6
CONTINUOUS
 62
    4
 10
764.56076060417718
 20
191.33777052857744
 40
0.9
  0
CIRCLE
  8
_0-7_
  6
CONTINUOUS
 62
    4
 10
764.91161308993264
 20
171.75729971502113
 40
0.9
  0
LINE
  8
_0-7_
  6
CONTINUOUS
 62
    4
 10
764.91161308993264
 20
171.75729971502113
 11
788.54809423333563
 21
212.69688596753696
  0
LINE
  8
_0-7_
  6
CONTINUOUS
 62
    4
 10
764.56076060417718
 20
191.33777052857744
 11
789.69724174757926
 21
234.87543299244635
  0
CIRCLE
  8
_0-7_
  6
CONTINUOUS
 62
    4
 10
791.54809423333563
 20
217.89303839024382
 40
6
  0
CIRCLE
  8
_0-7_
  6
CONTINUOUS
 62
    4
 10
792.69724174758016
 20
240.07158541515344
 40
6
  0
TEXT
  8
_0-7_
 62
    7
 10
789.69724174757926
 20
237.07158541515332
 40
6
 41
1
 50
0
  1
１
  0
TEXT
  8
_0-7_
 62
    7
 10
788.54809423333563
 20
214.89303839024382
 40
6
 41
1
 50
0
  1
９
  0
LINE
  8
_0-7_
  6
CONTINUOUS
 62
    4
 10
749.58416542727321
 20
180.65267000562181
 11
767.53277348169684
 21
209.46502963887104
  0
CIRCLE
  8
_0-7_
  6
CONTINUOUS
 62
    4
 10
749.58416542727321
 20
180.65267000562181
 40
0.9
  0
CIRCLE
  8
_0-7_
  6
CONTINUOUS
 62
    4
 10
770.53277348169684
 20
214.66118206157779
 40
6
  0
TEXT
  8
_0-7_
 62
    7
 10
767.6501367984323
 20
211.58636959942891
 40
6
 41
1
 50
0
  1
６
  0
ARC
  8
_0-0_0
  6
DASHED1
 62
    3
 10
721.96401842276191
 20
166.50992701562126
 40
1.5
 50
87.000000000000028
 51
267.00000000000006
  0
LINE
  8
_0-9_
  6
CONTINUOUS
 62
    2
 10
778.07310236479771
 20
191.3279160186591
 11
96.863757422762092
 21
227.02858453143625
  0
LINE
  8
_0-7_
  6
CONTINUOUS
 62
    3
 10
95.916093422762287
 20
249.02145423161005
 11
780.91609242276263
 21
249.02145423161005
  0
LINE
  8
_0-8_
  6
CONTINUOUS
 62
    3
 10
780.91609242276263
 20
281.46149523161012
 11
780.91609242276263
 21
294.56344023161
  0
LINE
  8
_0-8_
  6
CONTINUOUS
 62
    3
 10
780.91609242276263
 20
235.91950923161016
 11
780.91609242276263
 21
249.02145423161005
  0
LINE
  8
_0-8_
  6
CONTINUOUS
 62
    3
 10
780.91609242276263
 20
249.02145423161005
 11
777.91609242276263
 21
249.77145423161005
  0
LINE
  8
_0-8_
  6
CONTINUOUS
 62
    3
 10
780.91609242276263
 20
249.02145423161005
 11
777.91609242276263
 21
248.27145423161005
  0
LINE
  8
_0-7_
  6
CONTINUOUS
 62
    3
 10
80.916093422762287
 20
344.5582598501602
 11
780.91609242276263
 21
344.5582598501602
  0
LINE
  8
_0-8_
  6
CONTINUOUS
 62
    3
 10
780.91609242276263
 20
194.57280723161006
 11
780.91609242276263
 21
350.5582598501602
  0
LINE
  8
_0-8_
  6
CONTINUOUS
 62
    3
 10
780.91609242276263
 20
344.5582598501602
 11
777.91609242276263
 21
345.3082598501602
  0
LINE
  8
_0-8_
  6
CONTINUOUS
 62
    3
 10
780.91609242276263
 20
344.5582598501602
 11
777.91609242276263
 21
343.8082598501602
  0
LINE
  8
_0-8_
  6
CONTINUOUS
 62
    3
 10
780.91609242276263
 20
41.172232231610053
 11
777.91609242276263
 21
41.922232231610053
  0
LINE
  8
_0-8_
  6
CONTINUOUS
 62
    3
 10
780.91609242276263
 20
41.172232231610053
 11
777.91609242276263
 21
40.422232231610053
  0
LINE
  8
_0-8_
  6
CONTINUOUS
 62
    3
 10
780.91609242276263
 20
108.41970123161008
 11
780.91609242276263
 21
35.172232231610053
  0
LINE
  8
_0-8_
  6
CONTINUOUS
 62
    3
 10
823.54603437857804
 20
191.17892112649878
 11
823.54603437857804
 21
101.17892112649855
  0
LINE
  8
_0-8_
  6
CONTINUOUS
 62
    3
 10
823.54603437857804
 20
191.17892112649878
 11
822.79603437857804
 21
188.17892112649878
  0
LINE
  8
_0-8_
  6
CONTINUOUS
 62
    3
 10
823.54603437857804
 20
191.17892112649878
 11
824.29603437857804
 21
188.17892112649878
  0
LINE
  8
_0-8_
  6
CONTINUOUS
 62
    3
 10
823.54603437857804
 20
101.17892112649855
 11
824.29603437857804
 21
104.17892112649855
  0
LINE
  8
_0-8_
  6
CONTINUOUS
 62
    3
 10
823.54603437857804
 20
101.17892112649855
 11
822.79603437857804
 21
104.17892112649855
  0
TEXT
  8
_0-8_
 62
    7
 10
821.33691246044668
 20
136.99771523611292
 40
6
 41
1
 50
90
  1
９０
  0
LINE
  8
_0-7_
  6
CONTINUOUS
 62
    3
 10
782.41609242276263
 20
191.17892112649878
 11
826.54603437857804
 21
191.17892112649878
  0
LINE
  8
_0-8_
  6
CONTINUOUS
 62
    3
 10
779.41609242276263
 20
101.17892112649855
 11
826.54603437857804
 21
101.17892112649855
  0
LINE
  8
_0-8_
  6
CONTINUOUS
 62
    3
 10
808.33318829191785
 20
145.04775612649854
 11
808.33318829191785
 21
101.17892112649855
  0
LINE
  8
_0-8_
  6
CONTINUOUS
 62
    3
 10
808.33318829191785
 20
145.04775612649854
 11
807.58318829191785
 21
142.04775612649854
  0
LINE
  8
_0-8_
  6
CONTINUOUS
 62
    3
 10
808.33318829191785
 20
145.04775612649854
 11
809.08318829191785
 21
142.04775612649854
  0
LINE
  8
_0-8_
  6
CONTINUOUS
 62
    3
 10
808.33318829191785
 20
101.17892112649855
 11
809.08318829191785
 21
104.17892112649855
  0
LINE
  8
_0-8_
  6
CONTINUOUS
 62
    3
 10
808.33318829191785
 20
101.17892112649855
 11
807.58318829191785
 21
104.17892112649855
  0
TEXT
  8
_0-8_
 62
    7
 10
804.71844586345344
 20
116.17800403337577
 40
6
 41
1
 50
90
  1
４４
  0
LINE
  8
_0-8_
  6
CONTINUOUS
 62
    3
 10
580.91609042276298
 20
57.271537231610125
 11
580.91609042276298
 21
35.172232231610053
  0
LINE
  8
_0-8_
  6
CONTINUOUS
 62
    3
 10
580.91609042276298
 20
41.172232231610053
 11
577.91609042276298
 21
41.922232231610053
  0
LINE
  8
_0-8_
  6
CONTINUOUS
 62
    3
 10
580.91609042276298
 20
41.172232231610053
 11
577.91609042276298
 21
40.422232231610053
  0
LINE
  8
_0-8_
  6
CONTINUOUS
 62
    3
 10
580.91609042276298
 20
41.172232231610053
 11
583.91609042276298
 21
40.422232231610053
  0
LINE
  8
_0-8_
  6
CONTINUOUS
 62
    3
 10
580.91609042276298
 20
41.172232231610053
 11
583.91609042276298
 21
41.922232231610053
  0
TEXT
  8
_0-8_
 62
    7
 10
522.24466979608087
 20
42.314638493309815
 40
6
 41
1
 50
0
  1
Ｃ
  0
LINE
  8
_0-8_
  6
CONTINUOUS
 62
    3
 10
455.91609042276275
 20
41.172232231610053
 11
580.91609042276298
 21
41.172232231610053
  0
LINE
  8
_0-8_
  6
CONTINUOUS
 62
    3
 10
580.91609042276298
 20
41.172232231610053
 11
780.91609242276263
 21
41.172232231610053
  0
LINE
  8
_0-8_
  6
CONTINUOUS
 62
    3
 10
590.01709778656527
 20
145.04775612649854
 11
814.33318829191785
 21
145.04775612649854
  0
LINE
  8
_0-9_
  6
CONTINUOUS
 62
    1
 10
455.91609142276275
 20
59.581730531435994
 11
455.91609142276275
 21
145.04775612649854
  0
LINE
  8
_0-7_
  6
CONTINUOUS
 62
    2
 10
455.91609142276275
 20
145.04775612649854
 11
434.76237272729651
 21
66.101003185998991
  0
LINE
  8
_0-7_
  6
CONTINUOUS
 62
    2
 10
455.1487641668345
 20
146.0477551264982
 11
433.79644690100747
 21
66.359822231101532
  0
CIRCLE
  8
_0-4_図枠
  6
CONTINUOUS
 62
    4
 10
596.94462982335585
 20
224.52372182166312
 40
6
  0
TEXT
  8
_0-7_
 62
    7
 10
593.94462782335586
 20
221.523721821663
 40
6
 41
1
 50
0
  1
11
  0
LINE
  8
_0-9_
  6
CONTINUOUS
 62
    1
 10
580.91609242276263
 20
59.581730531435994
 11
580.91609242276263
 21
145.04775612649854
  0
LINE
  8
_0-9_
  6
DASHED1
 62
    3
 10
534.96609142276293
 20
136.74775512649825
 11
526.86609142276302
 21
136.74775512649825
  0
LINE
  8
_0-9_
  6
DASHED1
 62
    3
 10
535.66609142276275
 20
136.04775512649843
 11
526.16609142276297
 21
136.04775512649843
  0
LINE
  8
_0-9_
  6
DASHED1
 62
    3
 10
526.16609142276297
 20
117.41958112649871
 11
526.16609142276297
 21
136.04775512649843
  0
LINE
  8
_0-9_
  6
DASHED1
 62
    3
 10
526.86609142276302
 20
146.0477551264982
 11
526.86609142276302
 21
136.74775512649825
  0
LINE
  8
_0-9_
  6
DASHED1
 62
    3
 10
526.16609142276297
 20
136.04775512649843
 11
526.86609142276302
 21
136.74775512649825
  0
LINE
  8
_0-9_
  6
DASHED1
 62
    3
 10
535.66609142276275
 20
117.41958112649871
 11
535.66609142276275
 21
136.04775512649843
  0
LINE
  8
_0-9_
  6
DASHED1
 62
    3
 10
534.96609142276293
 20
146.0477551264982
 11
534.96609142276293
 21
136.74775512649825
  0
LINE
  8
_0-9_
  6
DASHED1
 62
    3
 10
535.66609142276275
 20
136.04775512649843
 11
534.96609142276293
 21
136.74775512649825
  0
ARC
  8
_0-9_
  6
DASHED1
 62
    3
 10
534.41609142276297
 20
105.54775512649866
 40
0.99999999999999
 50
270
 51
0
  0
LINE
  8
_0-9_
  6
DASHED1
 62
    3
 10
537.54111942276268
 20
106.7857591264987
 11
533.35568742276291
 21
106.04775512649866
  0
LINE
  8
_0-9_
  6
DASHED1
 62
    3
 10
524.2910614227626
 20
106.7857591264987
 11
526.16609142276297
 21
117.41958112649871
  0
LINE
  8
_0-9_
  6
DASHED1
 62
    3
 10
530.41609142276275
 20
117.04775512649866
 11
528.47649342276259
 21
106.04775512649866
  0
LINE
  8
_0-9_
  6
DASHED1
 62
    3
 10
531.41609142276297
 20
117.04775512649866
 11
533.35568742276291
 21
106.04775512649866
  0
LINE
  8
_0-9_
  6
DASHED1
 62
    3
 10
524.2910614227626
 20
106.7857591264987
 11
528.47649342276259
 21
106.04775512649866
  0
LINE
  8
_0-9_
  6
DASHED1
 62
    3
 10
526.4160914227632
 20
105.54775512649866
 11
526.4160914227632
 21
106.41105912649863
  0
ARC
  8
_0-9_
  6
DASHED1
 62
    3
 10
527.41609142276275
 20
105.54775512649866
 40
0.99999999999999
 50
180
 51
270
  0
LINE
  8
_0-9_
  6
DASHED1
 62
    3
 10
527.41609142276275
 20
104.54775512649866
 11
534.41609142276297
 21
104.54775512649866
  0
LINE
  8
_0-9_
  6
DASHED1
 62
    3
 10
531.41609142276297
 20
117.04775512649866
 11
530.41609142276275
 21
117.04775512649866
  0
LINE
  8
_0-9_
  6
DASHED1
 62
    3
 10
537.54111942276268
 20
106.7857591264987
 11
535.66609142276275
 21
117.41958112649871
  0
LINE
  8
_0-9_
  6
DASHED1
 62
    3
 10
535.41609142276275
 20
105.54775512649866
 11
535.41609142276275
 21
106.41105912649863
  0
LINE
  8
_0-9_
  6
CENTER1
 62
    3
 10
530.91609142276275
 20
99.61435312649877
 11
530.91609142276275
 21
154.84775512649838
  0
CIRCLE
  8
_0-7_
  6
CONTINUOUS
 62
    4
 10
576.3952380185176
 20
209.67959817853654
 40
6
  0
TEXT
  8
_0-7_
 62
    7
 10
573.80948844155319
 20
207.85924870539162
 40
6
 41
1
 50
0
  1
３
  0
LINE
  8
_0-7_
  6
CONTINUOUS
 62
    4
 10
580.98662202048195
 20
196.08262873505333
 11
593.94462782335586
 21
219.32756939895643
  0
LINE
  8
_0-7_
  6
CONTINUOUS
 62
    4
 10
548.58218376306763
 20
161.50597509442758
 11
573.3952380185176
 21
204.48344575583002
  0
LINE
  8
_0-7_
  6
CONTINUOUS
 62
    4
 10
540.78155688289382
 20
157.74370620030192
 11
552.56324301466191
 21
137.33722722124941
  0
CIRCLE
  8
_0-7_
  6
CONTINUOUS
 62
    4
 10
555.56324301466191
 20
132.14107479854289
 40
6
  0
TEXT
  8
_0-7_
 62
    7
 10
552.56324301466191
 20
129.14107479854289
 40
6
 41
1
 50
0
  1
８
  0
LINE
  8
_0-7_
  6
CONTINUOUS
 62
    4
 10
535.25052887721495
 20
151.97186939462114
 11
551.67291454207202
 21
123.52746304159888
  0
LINE
  8
_0-7_
  6
CONTINUOUS
 62
    4
 10
523.98793244173237
 20
149.12387390364194
 11
514.29067880985224
 21
132.327737919345
  0
CIRCLE
  8
_0-7_
  6
CONTINUOUS
 62
    4
 10
511.29067880985224
 20
127.13158549663848
 40
6
  0
TEXT
  8
_0-7_
 62
    7
 10
508.04067880985224
 20
124.13158549663848
 40
6
 41
1
 50
0
  1
20
  0
CIRCLE
  8
_0-7_
  6
CONTINUOUS
 62
    4
 10
527.92444941348344
 20
124.93444467334911
 40
0.9
  0
LINE
  8
_0-7_
  6
CONTINUOUS
 62
    4
 10
527.92444941348344
 20
124.93444467334911
 11
517.88283521873655
 21
107.54185869804343
  0
TEXT
  8
_0-7_
 62
    7
 10
511.63283521873655
 20
99.345706275336795
 40
6
 41
1
 50
0
  1
17
  0
CIRCLE
  8
_0-7_
  6
CONTINUOUS
 62
    4
 10
514.88283521873655
 20
102.34570627533679
 40
6
  0
CIRCLE
  8
_0-7_
  6
CONTINUOUS
 62
    4
 10
554.67291454207202
 20
118.33131061889213
 40
6
  0
TEXT
  8
_0-7_
 62
    7
 10
551.42291454207202
 20
115.33131061889225
 40
6
 41
1
 50
0
  1
16
  0
LINE
  8
_0-7_
  6
CONTINUOUS
 62
    3
 10
530.91608942276275
 20
100.5307561264986
 11
530.91608942276275
 21
93.160881126498623
  0
LINE
  8
_0-7_
  6
CONTINUOUS
 62
    3
 10
530.91608942276275
 20
97.160883126498618
 11
533.91608942276275
 21
96.410883126498618
  0
LINE
  8
_0-7_
  6
CONTINUOUS
 62
    3
 10
530.91608942276275
 20
97.160883126498618
 11
533.91608942276275
 21
97.910883126498618
  0
LINE
  8
_0-7_
  6
CONTINUOUS
 62
    3
 10
530.91608942276275
 20
97.160883126498618
 11
580.91609042276298
 21
97.160883126498618
  0
LINE
  8
_0-7_
  6
CONTINUOUS
 62
    3
 10
580.91609042276298
 20
97.160883126498618
 11
577.91609042276298
 21
96.410883126498618
  0
LINE
  8
_0-7_
  6
CONTINUOUS
 62
    3
 10
580.91609042276298
 20
97.160883126498618
 11
577.91609042276298
 21
97.910883126498618
  0
TEXT
  8
_0-7_
 62
    7
 10
550.07018366669126
 20
98.331196789117769
 40
6
 41
1
 50
0
  1
５０
  0
CIRCLE
  8
_0-7_
  6
CONTINUOUS
 62
    4
 10
548.58218376306763
 20
161.50597509442758
 40
0.9
  0
CIRCLE
  8
_0-7_
  6
CONTINUOUS
 62
    4
 10
523.98793244173237
 20
149.12387390364194
 40
0.9
  0
CIRCLE
  8
_0-7_
  6
CONTINUOUS
 62
    4
 10
535.25052887721495
 20
151.97186939462114
 40
0.9
  0
CIRCLE
  8
_0-7_
  6
CONTINUOUS
 62
    4
 10
540.78155688289382
 20
157.74370620030192
 40
0.9
  0
LINE
  8
_0-5_ADD_LINE
  6
CONTINUOUS
 62
    2
 10
526.15165970835494
 20
161.62571912649861
 11
535.33905170835487
 21
161.14422812649815
  0
LINE
  8
_0-5_ADD_LINE
  6
CONTINUOUS
 62
    4
 10
515.93376470835392
 20
145.62177859819366
 11
516.3597422366588
 21
146.047756126499
  0
ARC
  8
_0-5_ADD_LINE
  6
CONTINUOUS
 62
    7
 10
515.93376470835392
 20
137.797756126499
 40
8.25
 50
90
 51
108.92464441605439
  0
ARC
  8
_0-5_ADD_LINE
  6
CONTINUOUS
 62
    7
 10
515.93376470835392
 20
137.797756126499
 40
9.25
 50
90
 51
108.92464441605439
  0
ARC
  8
_0-5_ADD_LINE
  6
CONTINUOUS
 62
    7
 10
509.93376470835392
 20
155.29775612649877
 40
9.25
 50
270
 51
288.92464441605443
  0
LINE
  8
_0-5_ADD_LINE
  6
CONTINUOUS
 62
    4
 10
516.77395579903191
 20
145.04775612649854
 11
517.77395579903191
 21
146.047756126499
  0
LINE
  8
_0-5_ADD_LINE
  6
CONTINUOUS
 62
    4
 10
518.18816936140479
 20
145.04775612649854
 11
519.18816936140479
 21
146.04775612649831
  0
LINE
  8
_0-5_ADD_LINE
  6
CONTINUOUS
 62
    4
 10
519.6023829237788
 20
145.04775612649854
 11
520.6023829237788
 21
146.04775612649831
  0
LINE
  8
_0-5_ADD_LINE
  6
CONTINUOUS
 62
    4
 10
521.01659648615203
 20
145.04775612649854
 11
522.01659648615191
 21
146.04775612649831
  0
LINE
  8
_0-5_ADD_LINE
  6
CONTINUOUS
 62
    4
 10
522.43081004852479
 20
145.04775612649854
 11
523.43081004852479
 21
146.04775612649831
  0
LINE
  8
_0-5_ADD_LINE
  6
CONTINUOUS
 62
    4
 10
523.84502361089881
 20
145.04775612649854
 11
524.8450236108979
 21
146.04775612649831
  0
LINE
  8
_0-5_ADD_LINE
  6
CONTINUOUS
 62
    4
 10
525.25923717326998
 20
145.04775612649854
 11
526.25923717326987
 21
146.04775612649831
  0
LINE
  8
_0-5_ADD_LINE
  6
CONTINUOUS
 62
    4
 10
526.67345073564275
 20
145.04775612649786
 11
527.67345073564275
 21
146.04775612649831
  0
LINE
  8
_0-5_ADD_LINE
  6
CONTINUOUS
 62
    4
 10
528.08766429801597
 20
145.04775612649786
 11
529.08766429801585
 21
146.04775612649831
  0
LINE
  8
_0-5_ADD_LINE
  6
CONTINUOUS
 62
    4
 10
529.50187786038873
 20
145.04775612649786
 11
530.50187786038987
 21
146.04775612649831
  0
LINE
  8
_0-5_ADD_LINE
  6
CONTINUOUS
 62
    4
 10
530.91609142276275
 20
145.04775612649854
 11
531.91609142276275
 21
146.04775612649831
  0
LINE
  8
_0-5_ADD_LINE
  6
CONTINUOUS
 62
    4
 10
532.33030498513676
 20
145.04775612649854
 11
533.33030498513585
 21
146.04775612649831
  0
LINE
  8
_0-5_ADD_LINE
  6
CONTINUOUS
 62
    4
 10
533.74451854750998
 20
145.04775612649854
 11
534.74451854750987
 21
146.04775612649831
  0
LINE
  8
_0-5_ADD_LINE
  6
CONTINUOUS
 62
    4
 10
535.15873210988275
 20
145.04775612649786
 11
536.15873210988275
 21
146.04775612649763
  0
LINE
  8
_0-5_ADD_LINE
  6
CONTINUOUS
 62
    4
 10
536.57294567225495
 20
145.04775612649854
 11
537.57294567225506
 21
146.047756126499
  0
LINE
  8
_0-5_ADD_LINE
  6
CONTINUOUS
 62
    4
 10
537.98715923462794
 20
145.04775612649854
 11
538.98715923462782
 21
146.04775612649831
  0
LINE
  8
_0-5_ADD_LINE
  6
CONTINUOUS
 62
    4
 10
539.40137279700093
 20
145.04775612649854
 11
540.40137279700184
 21
146.04775612649831
  0
LINE
  8
_0-5_ADD_LINE
  6
CONTINUOUS
 62
    4
 10
540.81558635937495
 20
145.04775612649854
 11
541.81558635937506
 21
146.04775612649831
  0
LINE
  8
_0-5_ADD_LINE
  6
CONTINUOUS
 62
    4
 10
542.22979992174794
 20
145.04775612649854
 11
543.22979992174783
 21
146.04775612649831
  0
LINE
  8
_0-5_ADD_LINE
  6
CONTINUOUS
 62
    4
 10
543.64401348412196
 20
145.04775612649854
 11
544.64401348412184
 21
146.04775612649831
  0
LINE
  8
_0-5_ADD_LINE
  6
CONTINUOUS
 62
    4
 10
545.05822704649495
 20
145.04775612649854
 11
545.93376470835392
 21
145.92329378835774
  0
LINE
  8
_0-5_ADD_LINE
  6
CONTINUOUS
 62
    3
 10
545.93376470835392
 20
145.04775612649854
 11
515.93376470835392
 21
145.04775612649854
  0
LINE
  8
_0-5_ADD_LINE
  6
CONTINUOUS
 62
    3
 10
515.93376470835392
 20
145.04775612649854
 11
515.93376470835392
 21
146.04775612649831
  0
LINE
  8
_0-5_ADD_LINE
  6
CONTINUOUS
 62
    3
 10
515.93376470835392
 20
146.04775612649831
 11
545.93376470835392
 21
146.04775612649831
  0
LINE
  8
_0-5_ADD_LINE
  6
CONTINUOUS
 62
    3
 10
545.93376470835392
 20
146.04775612649831
 11
545.93376470835392
 21
145.04775612649854
  0
ARC
  8
_0-5_ADD_LINE
  6
CONTINUOUS
 62
    7
 10
509.93376470835392
 20
155.29775612649877
 40
10.25
 50
270
 51
288.92464441605443
  0
LINE
  8
_0-5_ADD_LINE
  6
CONTINUOUS
 62
    2
 10
539.93376470835483
 20
151.15652612649882
 11
539.93376470835483
 21
149.55652712649857
  0
LINE
  8
_0-5_ADD_LINE
  6
CONTINUOUS
 62
    2
 10
539.93376470835483
 20
151.15652612649882
 11
521.93376470835483
 21
151.15652612649882
  0
LINE
  8
_0-5_ADD_LINE
  6
CONTINUOUS
 62
    2
 10
521.93376470835483
 20
151.15652612649882
 11
521.93376470835483
 21
149.55652712649857
  0
LINE
  8
_0-5_ADD_LINE
  6
CONTINUOUS
 62
    2
 10
525.05376470835506
 20
155.41958912649847
 11
525.05376470835506
 21
151.15652612649882
  0
LINE
  8
_0-5_ADD_LINE
  6
CONTINUOUS
 62
    2
 10
525.9837647083549
 20
155.95652612649855
 11
525.05376470835506
 21
155.41958912649847
  0
ARC
  8
_0-5_ADD_LINE
  6
CONTINUOUS
 62
    2
 10
525.9837647083549
 20
152.14713212649843
 40
3.8093940000000002
 50
59.210035999999995
 51
90
  0
ARC
  8
_0-5_ADD_LINE
  6
CONTINUOUS
 62
    2
 10
530.93376470835483
 20
147.30716612649866
 40
8.6493599999999997
 50
69.705444999999997
 51
110.294555
  0
LINE
  8
_0-5_ADD_LINE
  6
CONTINUOUS
 62
    2
 10
527.93376470835483
 20
155.41958912649847
 11
527.93376470835483
 21
151.15652612649882
  0
LINE
  8
_0-5_ADD_LINE
  6
CONTINUOUS
 62
    2
 10
533.93376470835483
 20
155.41958912649847
 11
533.93376470835483
 21
151.15652612649882
  0
LINE
  8
_0-5_ADD_LINE
  6
CONTINUOUS
 62
    2
 10
536.81376470835494
 20
155.41958912649847
 11
536.81376470835494
 21
151.15652612649882
  0
LINE
  8
_0-5_ADD_LINE
  6
CONTINUOUS
 62
    2
 10
535.88376470835487
 20
155.95652612649855
 11
536.81376470835494
 21
155.41958912649847
  0
LINE
  8
_0-5_ADD_LINE
  6
CONTINUOUS
 62
    2
 10
525.9837647083549
 20
155.95652612649855
 11
535.88376470835487
 21
155.95652612649855
  0
ARC
  8
_0-5_ADD_LINE
  6
CONTINUOUS
 62
    2
 10
535.88376470835487
 20
152.14713212649843
 40
3.8093940000000002
 50
90
 51
120.789964
  0
LINE
  8
_0-5_ADD_LINE
  6
CONTINUOUS
 62
    2
 10
526.2039947083548
 20
162.62435012649854
 11
526.15165970835494
 21
161.62571912649861
  0
LINE
  8
_0-5_ADD_LINE
  6
CONTINUOUS
 62
    2
 10
535.39138670835507
 20
162.14285912649854
 11
535.33905170835487
 21
161.14422812649815
  0
ARC
  8
_0-5_ADD_LINE
  6
CONTINUOUS
 62
    2
 10
525.20536670835497
 20
162.6766851264984
 40
0.9999989999999994
 50
356.99999999999994
 51
87
  0
ARC
  8
_0-5_ADD_LINE
  6
CONTINUOUS
 62
    2
 10
536.39001770835489
 20
162.09052112649812
 40
0.9999989999999994
 50
87
 51
176.99999999999997
  0
ARC
  8
_0-5_ADD_LINE
  6
CONTINUOUS
 62
    2
 10
518.93376470835483
 20
156.55652612649868
 40
0.9999989999999994
 50
270
 51
0
  0
LINE
  8
_0-5_ADD_LINE
  6
CONTINUOUS
 62
    2
 10
518.93376470835483
 20
155.55652712649857
 11
514.73376470835478
 21
155.55652712649857
  0
ARC
  8
_0-5_ADD_LINE
  6
CONTINUOUS
 62
    2
 10
522.53376470835497
 20
162.81669812649858
 40
0.9999989999999994
 50
87.000000000000014
 51
180
  0
LINE
  8
_0-5_ADD_LINE
  6
CONTINUOUS
 62
    2
 10
539.386099708355
 20
162.93487712649863
 11
522.58609970835482
 21
163.81532612649841
  0
ARC
  8
_0-5_ADD_LINE
  6
CONTINUOUS
 62
    2
 10
539.33376470835503
 20
161.9362461264987
 40
0.9999989999999994
 50
0
 51
87.000000000000014
  0
LINE
  8
_0-5_ADD_LINE
  6
CONTINUOUS
 62
    2
 10
542.93376470835483
 20
155.55652712649857
 11
547.13376470835487
 21
155.55652712649857
  0
ARC
  8
_0-5_ADD_LINE
  6
CONTINUOUS
 62
    2
 10
542.93376470835483
 20
156.55652612649868
 40
0.9999989999999994
 50
180
 51
270
  0
LINE
  8
_0-5_ADD_LINE
  6
CONTINUOUS
 62
    2
 10
521.53376570835485
 20
156.55652612649868
 11
521.53376570835485
 21
162.81669812649858
  0
ARC
  8
_0-5_ADD_LINE
  6
CONTINUOUS
 62
    2
 10
518.93376470835483
 20
156.55652612649868
 40
2.6000009999999998
 50
270
 51
0
  0
LINE
  8
_0-5_ADD_LINE
  6
CONTINUOUS
 62
    2
 10
518.93376470835483
 20
153.95652512649866
 11
514.43376470835483
 21
153.95652512649866
  0
LINE
  8
_0-5_ADD_LINE
  6
CONTINUOUS
 62
    2
 10
519.93376370835495
 20
162.81669812649858
 11
519.93376370835495
 21
156.55652612649868
  0
ARC
  8
_0-5_ADD_LINE
  6
CONTINUOUS
 62
    2
 10
522.53376470835497
 20
162.81669812649858
 40
2.6000009999999998
 50
87.000000000000014
 51
180
  0
LINE
  8
_0-5_ADD_LINE
  6
CONTINUOUS
 62
    2
 10
541.93376570835505
 20
161.9362461264987
 11
541.93376570835505
 21
156.55652612649868
  0
ARC
  8
_0-5_ADD_LINE
  6
CONTINUOUS
 62
    2
 10
539.33376470835503
 20
161.9362461264987
 40
2.6000009999999998
 50
0
 51
87.000000000000014
  0
LINE
  8
_0-5_ADD_LINE
  6
CONTINUOUS
 62
    2
 10
539.46983870835493
 20
164.53268312649885
 11
522.66983870835497
 21
165.41313512649873
  0
LINE
  8
_0-5_ADD_LINE
  6
CONTINUOUS
 62
    2
 10
540.33376370835481
 20
156.55652612649868
 11
540.33376370835481
 21
161.9362461264987
  0
ARC
  8
_0-5_ADD_LINE
  6
CONTINUOUS
 62
    2
 10
542.93376470835483
 20
156.55652612649868
 40
2.6000009999999998
 50
180
 51
270
  0
LINE
  8
_0-5_ADD_LINE
  6
CONTINUOUS
 62
    2
 10
542.93376470835483
 20
153.95652512649866
 11
547.43376470835483
 21
153.95652512649866
  0
LINE
  8
_0-5_ADD_LINE
  6
CONTINUOUS
 62
    2
 10
547.13376470835487
 20
153.0565251264988
 11
545.18376470835483
 21
153.0565251264988
  0
ARC
  8
_0-5_ADD_LINE
  6
CONTINUOUS
 62
    2
 10
547.13376470835487
 20
153.35652512649852
 40
0.2999999999999998
 50
270
 51
0
  0
ARC
  8
_0-5_ADD_LINE
  6
CONTINUOUS
 62
    2
 10
547.13376470835487
 20
155.25652712649884
 40
0.2999999999999998
 50
0
 51
90
  0
LINE
  8
_0-5_ADD_LINE
  6
CONTINUOUS
 62
    2
 10
530.43376370835495
 20
149.55652712649857
 11
530.93376470835483
 21
149.05652612649868
  0
LINE
  8
_0-5_ADD_LINE
  6
CONTINUOUS
 62
    2
 10
531.43376570835505
 20
149.55652712649857
 11
530.93376470835483
 21
149.05652612649868
  0
LINE
  8
_0-5_ADD_LINE
  6
CONTINUOUS
 62
    2
 10
525.93376370835495
 20
147.55652612649868
 11
525.93376370835495
 21
147.0565251264988
  0
LINE
  8
_0-5_ADD_LINE
  6
CONTINUOUS
 62
    2
 10
546.93376370835495
 20
157.05652712649857
 11
544.18376570835505
 21
157.05652712649857
  0
ARC
  8
_0-5_ADD_LINE
  6
CONTINUOUS
 62
    2
 10
546.93376370835495
 20
157.55652512649891
 40
0.500001
 50
270
 51
0
  0
ARC
  8
_0-5_ADD_LINE
  6
CONTINUOUS
 62
    2
 10
544.18376570835505
 20
156.30652712649857
 40
0.75
 50
90
 51
270
  0
LINE
  8
_0-5_ADD_LINE
  6
CONTINUOUS
 62
    2
 10
535.93376570835505
 20
147.55652612649868
 11
547.43376470835483
 21
147.55652612649868
  0
LINE
  8
_0-5_ADD_LINE
  6
CONTINUOUS
 62
    2
 10
535.93376570835505
 20
147.55652612649868
 11
535.93376570835505
 21
147.0565251264988
  0
ARC
  8
_0-5_ADD_LINE
  6
CONTINUOUS
 62
    2
 10
545.18376470835483
 20
152.3065251264988
 40
0.75
 50
90
 51
270
  0
LINE
  8
_0-5_ADD_LINE
  6
CONTINUOUS
 62
    2
 10
547.13376470835487
 20
151.5565251264988
 11
545.18376470835483
 21
151.5565251264988
  0
ARC
  8
_0-5_ADD_LINE
  6
CONTINUOUS
 62
    2
 10
547.13376470835487
 20
151.25652512649839
 40
0.2999999999999998
 50
0
 51
90
  0
LINE
  8
_0-5_ADD_LINE
  6
CONTINUOUS
 62
    2
 10
514.43376470835483
 20
147.55652612649868
 11
525.93376370835495
 21
147.55652612649868
  0
LINE
  8
_0-5_ADD_LINE
  6
CONTINUOUS
 62
    2
 10
514.73376470835478
 20
153.0565251264988
 11
516.68376470835483
 21
153.0565251264988
  0
ARC
  8
_0-5_ADD_LINE
  6
CONTINUOUS
 62
    2
 10
514.73376470835478
 20
153.35652512649852
 40
0.2999999999999998
 50
180
 51
270
  0
LINE
  8
_0-5_ADD_LINE
  6
CONTINUOUS
 62
    2
 10
514.43376470835483
 20
153.35652512649852
 11
514.43376470835483
 21
155.25652712649884
  0
ARC
  8
_0-5_ADD_LINE
  6
CONTINUOUS
 62
    2
 10
514.73376470835478
 20
155.25652712649884
 40
0.2999999999999998
 50
90
 51
180
  0
LINE
  8
_0-5_ADD_LINE
  6
CONTINUOUS
 62
    2
 10
513.43376570835494
 20
157.05652712649857
 11
517.68376370835495
 21
157.05652712649857
  0
ARC
  8
_0-5_ADD_LINE
  6
CONTINUOUS
 62
    2
 10
513.43376570835494
 20
156.55652612649868
 40
0.500001
 50
90
 51
180
  0
ARC
  8
_0-5_ADD_LINE
  6
CONTINUOUS
 62
    2
 10
517.68376370835495
 20
156.30652712649857
 40
0.75
 50
270
 51
90
  0
LINE
  8
_0-5_ADD_LINE
  6
CONTINUOUS
 62
    2
 10
512.93376470835483
 20
156.55652612649868
 11
512.93376470835483
 21
147.0565251264988
  0
LINE
  8
_0-5_ADD_LINE
  6
CONTINUOUS
 62
    2
 10
514.43376470835483
 20
147.55652612649868
 11
514.43376470835483
 21
147.0565251264988
  0
ARC
  8
_0-5_ADD_LINE
  6
CONTINUOUS
 62
    2
 10
516.68376470835483
 20
152.3065251264988
 40
0.75
 50
270
 51
90
  0
ARC
  8
_0-5_ADD_LINE
  6
CONTINUOUS
 62
    2
 10
514.73376470835478
 20
149.85652712649829
 40
0.2999999999999998
 50
180
 51
270
  0
LINE
  8
_0-5_ADD_LINE
  6
CONTINUOUS
 62
    2
 10
514.43376470835483
 20
149.85652712649829
 11
514.43376470835483
 21
151.25652512649839
  0
ARC
  8
_0-5_ADD_LINE
  6
CONTINUOUS
 62
    2
 10
514.73376470835478
 20
151.25652512649839
 40
0.2999999999999998
 50
90
 51
180
  0
LINE
  8
_0-5_ADD_LINE
  6
CONTINUOUS
 62
    2
 10
514.73376470835478
 20
151.5565251264988
 11
516.68376470835483
 21
151.5565251264988
  0
ARC
  8
_0-5_ADD_LINE
  6
CONTINUOUS
 62
    2
 10
546.93376370835495
 20
150.0565251264988
 40
0.500001
 50
270
 51
0
  0
LINE
  8
_0-5_ADD_LINE
  6
CONTINUOUS
 62
    2
 10
546.93376370835495
 20
149.55652712649857
 11
514.73376470835478
 21
149.55652712649857
  0
LINE
  8
_0-5_ADD_LINE
  6
CONTINUOUS
 62
    2
 10
514.43376470835483
 20
147.0565251264988
 11
512.93376470835483
 21
147.0565251264988
  0
ARC
  8
_0-5_ADD_LINE
  6
CONTINUOUS
 62
    2
 10
548.43376370835495
 20
165.05652512649891
 40
0.9999989999999994
 50
0
 51
180
  0
LINE
  8
_0-5_ADD_LINE
  6
CONTINUOUS
 62
    2
 10
547.43376470835483
 20
157.55652512649891
 11
547.43376470835483
 21
165.05652512649891
  0
LINE
  8
_0-5_ADD_LINE
  6
CONTINUOUS
 62
    2
 10
547.43376470835483
 20
153.35652512649852
 11
547.43376470835483
 21
155.25652712649884
  0
ARC
  8
_0-5_ADD_LINE
  6
CONTINUOUS
 62
    2
 10
549.93376370835495
 20
150.0565251264988
 40
0.500001
 50
180
 51
270
  0
LINE
  8
_0-5_ADD_LINE
  6
CONTINUOUS
 62
    2
 10
549.43376570835505
 20
148.05652712649857
 11
549.43376570835505
 21
147.0565251264988
  0
LINE
  8
_0-5_ADD_LINE
  6
CONTINUOUS
 62
    2
 10
547.43376470835483
 20
147.55652612649868
 11
547.43376470835483
 21
147.0565251264988
  0
LINE
  8
_0-5_ADD_LINE
  6
CONTINUOUS
 62
    2
 10
547.43376470835483
 20
150.0565251264988
 11
547.43376470835483
 21
151.25652512649839
  0
LINE
  8
_0-5_ADD_LINE
  6
CONTINUOUS
 62
    2
 10
559.93376570835505
 20
148.05652712649857
 11
559.93376570835505
 21
147.0565251264988
  0
LINE
  8
_0-5_ADD_LINE
  6
CONTINUOUS
 62
    2
 10
561.43376570835505
 20
147.0565251264988
 11
559.93376570835505
 21
147.0565251264988
  0
LINE
  8
_0-5_ADD_LINE
  6
CONTINUOUS
 62
    2
 10
549.43376570835505
 20
147.0565251264988
 11
547.43376470835483
 21
147.0565251264988
  0
LINE
  8
_0-5_ADD_LINE
  6
CONTINUOUS
 62
    2
 10
561.43376570835505
 20
149.05652712649868
 11
561.43376570835505
 21
147.0565251264988
  0
ARC
  8
_0-5_ADD_LINE
  6
CONTINUOUS
 62
    2
 10
560.93376570835494
 20
149.05652712649868
 40
0.5
 50
0
 51
90
  0
LINE
  8
_0-5_ADD_LINE
  6
CONTINUOUS
 62
    4
 10
549.68376570835585
 20
152.80652712649868
 11
550.93376570843589
 21
152.80652712649868
  0
LINE
  8
_0-5_ADD_LINE
  6
CONTINUOUS
 62
    4
 10
553.93376570843589
 20
152.80652712649868
 11
555.18376570835596
 21
152.80652712649868
  0
LINE
  8
_0-5_ADD_LINE
  6
CONTINUOUS
 62
    4
 10
550.93376570843589
 20
152.80652712649868
 11
550.93376570843589
 21
171.72608298643087
  0
LINE
  8
_0-5_ADD_LINE
  6
CONTINUOUS
 62
    4
 10
553.93376570843589
 20
152.80652712649868
 11
553.93376570843589
 21
173.18934598244465
  0
LINE
  8
_0-5_ADD_LINE
  6
CONTINUOUS
 62
    2
 10
549.43376570835505
 20
148.05652712649857
 11
556.93971458219585
 21
148.05652712649857
  0
LINE
  8
_0-5_ADD_LINE
  6
CONTINUOUS
 62
    2
 10
556.93971458219585
 20
148.05652712649857
 11
559.93376570835505
 21
148.05652712649857
  0
LINE
  8
_0-5_ADD_LINE
  6
CONTINUOUS
 62
    2
 10
554.93376570835494
 20
149.55652712649857
 11
549.93376370835495
 21
149.55652712649857
  0
LINE
  8
_0-5_ADD_LINE
  6
CONTINUOUS
 62
    2
 10
560.93376570835494
 20
149.55652712649857
 11
556.93376570835505
 21
149.55652712649857
  0
ARC
  8
_0-5_ADD_LINE
  6
CONTINUOUS
 62
    4
 10
554.93376570835494
 20
150.05652712649879
 40
0.25
 50
270
 51
0
  0
ARC
  8
_0-5_ADD_LINE
  6
CONTINUOUS
 62
    4
 10
549.93376370835495
 20
150.0565251264988
 40
0.2500009999999999
 50
180
 51
270
  0
LINE
  8
_0-5_ADD_LINE
  6
CONTINUOUS
 62
    4
 10
555.18376570835596
 20
150.05652712649879
 11
555.18376570835596
 21
152.80652712649868
  0
LINE
  8
_0-5_ADD_LINE
  6
CONTINUOUS
 62
    4
 10
549.68376570835585
 20
150.0565251264988
 11
549.68376570835585
 21
152.80652712649868
  0
LINE
  8
_0-5_ADD_LINE
  6
CONTINUOUS
 62
    4
 10
554.93376570835494
 20
149.80652712649868
 11
549.93376370835495
 21
149.80652712649868
  0
LINE
  8
_0-5_ADD_LINE
  6
CONTINUOUS
 62
    2
 10
549.43376570835505
 20
165.05652512649891
 11
549.43376570835505
 21
154.55652712649947
  0
LINE
  8
_0-5_ADD_LINE
  6
CONTINUOUS
 62
    2
 10
549.43376570835505
 20
153.05652712649947
 11
549.43376570835505
 21
150.0565251264988
  0
LINE
  8
_0-5_ADD_LINE
  6
CONTINUOUS
 62
    2
 10
555.43376570835505
 20
150.05652712649879
 11
555.43376570835505
 21
153.05652712649947
  0
LINE
  8
_0-5_ADD_LINE
  6
CONTINUOUS
 62
    2
 10
556.93376570835505
 20
154.05652712649959
 11
556.93376570835505
 21
149.55652712649857
  0
ARC
  8
_0-5_ADD_LINE
  6
CONTINUOUS
 62
    2
 10
556.43376570835494
 20
154.05652712649959
 40
0.5
 50
0
 51
90
  0
ARC
  8
_0-5_ADD_LINE
  6
CONTINUOUS
 62
    2
 10
554.93376570835494
 20
150.05652712649879
 40
0.5
 50
270
 51
0
  0
LINE
  8
_0-5_ADD_LINE
  6
CONTINUOUS
 62
    2
 10
556.43376570835494
 20
154.55652712649947
 11
555.18376570835494
 21
154.55652712649947
  0
ARC
  8
_0-5_ADD_LINE
  6
CONTINUOUS
 62
    2
 10
555.18376570835494
 20
153.5565271264997
 40
1
 50
90
 51
180
  0
LINE
  8
_0-5_ADD_LINE
  6
CONTINUOUS
 62
    2
 10
554.18376570835494
 20
153.5565271264997
 11
554.18376570835494
 21
153.05652712649947
  0
LINE
  8
_0-5_ADD_LINE
  6
CONTINUOUS
 62
    2
 10
554.18376570835494
 20
153.05652712649947
 11
555.43376570835505
 21
153.05652712649947
  0
LINE
  8
_0-5_ADD_LINE
  6
CONTINUOUS
 62
    2
 10
549.43376570835505
 20
153.05652712649947
 11
550.68376570835494
 21
153.05652712649947
  0
LINE
  8
_0-5_ADD_LINE
  6
CONTINUOUS
 62
    2
 10
550.68376570835494
 20
153.5565271264997
 11
550.68376570835494
 21
153.05652712649947
  0
ARC
  8
_0-5_ADD_LINE
  6
CONTINUOUS
 62
    2
 10
549.68376570835494
 20
153.5565271264997
 40
1
 50
0
 51
90
  0
LINE
  8
_0-5_ADD_LINE
  6
CONTINUOUS
 62
    2
 10
549.68376570835494
 20
154.55652712649947
 11
549.43376570835505
 21
154.55652712649947
  0
LINE
  8
_0-5_ADD_LINE
  6
CONTINUOUS
 62
    7
 10
515.93376470835392
 20
147.04775612649877
 11
545.93376470835392
 21
147.04775612649877
  0
LINE
  8
_0-5_ADD_LINE
  6
CONTINUOUS
 62
    7
 10
545.93376470835392
 20
146.047756126499
 11
545.93376470835392
 21
147.04775612649877
  0
ARC
  8
_0-5_ADD_LINE
  6
CONTINUOUS
 62
    4
 10
577.00971130239782
 20
172.45771448443571
 40
23.087541006014401
 50
80.801339104808051
 51
181.81597582067386
  0
ARC
  8
_0-5_ADD_LINE
  6
CONTINUOUS
 62
    4
 10
575.93376570843679
 20
171.72608298643087
 40
24.999999999999996
 50
78.590455650788186
 51
180
  0
ARC
  8
_0-5_ADD_LINE
  6
CONTINUOUS
 62
    4
 10
580.78037118069267
 20
195.74191974879074
 40
0.5
 50
260.801339104806
 51
78.590455650788144
  0
CIRCLE
  8
_0-7_
  6
CONTINUOUS
 62
    4
 10
580.98662202048195
 20
196.08262873505333
 40
0.9
  0
CIRCLE
  8
_0-4_図枠
  6
CONTINUOUS
 62
    4
 10
580.98662402048194
 20
196.08262873505333
 40
0.9
  0
LINE
  8
_0-9_
  6
CONTINUOUS
 62
    2
 10
509.93376470835392
 20
146.0477551264982
 11
455.1487641668345
 21
146.0477551264982
  0
CIRCLE
  8
_0-7_
  6
CONTINUOUS
 62
    4
 10
553.00765106438769
 20
221.82056427351398
 40
6
  0
CIRCLE
  8
_0-7_
  6
CONTINUOUS
 62
    4
 10
568.9866056425484
 20
222.36935665731124
 40
6
  0
TEXT
  8
_0-7_
 62
    7
 10
549.75765106438769
 20
218.82056427351421
 40
6
 41
1
 50
0
  1
14
  0
TEXT
  8
_0-7_
 62
    7
 10
565.9866056425484
 20
219.36935665731147
 40
6
 41
1
 50
0
  1
７
  0
LINE
  8
_0-7_
  6
CONTINUOUS
 62
    4
 10
548.03799758812477
 20
188.36084460135527
 11
565.9866056425484
 21
217.17320423460461
  0
LINE
  8
_0-7_
  6
CONTINUOUS
 62
    4
 10
532.52060024330797
 20
188.61149279631087
 11
550.0076510643886
 21
216.62441185080746
  0
CIRCLE
  8
_0-7_
  6
CONTINUOUS
 62
    4
 10
548.03799758812477
 20
188.36084460135527
 40
0.9
  0
CIRCLE
  8
_0-7_
  6
CONTINUOUS
 62
    4
 10
532.52060024330797
 20
188.61149279631087
 40
0.9
  0
CIRCLE
  8
_0-4_図枠
  6
CONTINUOUS
 62
    4
 10
532.52060224330796
 20
188.61149279631087
 40
0.9
  0
CIRCLE
  8
_0-4_図枠
  6
CONTINUOUS
 62
    4
 10
548.03799958812476
 20
188.36084460135527
 40
0.9
  0
LINE
  8
_0-5_ADD_LINE
  6
DASHED1
 62
    3
 10
520.97552457339077
 20
194.34702675604018
 11
543.94400457339077
 21
193.14330075603988
  0
LINE
  8
_0-5_ADD_LINE
  6
DASHED1
 62
    3
 10
507.52795557339078
 20
182.13011775603985
 11
520.97552457339077
 21
194.34702675604018
  0
LINE
  8
_0-5_ADD_LINE
  6
DASHED1
 62
    3
 10
503.67913257339063
 20
184.33674375604011
 11
504.34036857339066
 21
184.78704375604042
  0
LINE
  8
_0-5_ADD_LINE
  6
DASHED1
 62
    3
 10
504.34036857339066
 20
184.78704375604042
 11
506.02898457339091
 21
182.30741175604038
  0
LINE
  8
_0-5_ADD_LINE
  6
DASHED1
 62
    3
 10
503.67913257339063
 20
184.33674375604011
 11
505.36774857339088
 21
181.85711175604007
  0
ARC
  8
_0-5_ADD_LINE
  6
DASHED1
 62
    3
 10
506.8555265733907
 20
182.87028375604001
 40
0.9999989999999994
 50
214.25465800000001
 51
312.25465199999996
  0
ARC
  8
_0-5_ADD_LINE
  6
DASHED1
 62
    3
 10
506.8555265733907
 20
182.87028375604001
 40
1.7999999999999994
 50
214.25465800000001
 51
312.25465100000002
  0
ARC
  8
_0-5_ADD_LINE
  6
DASHED1
 62
    3
 10
532.38126057339093
 20
192.24721875604024
 40
6.3000000000000007
 50
37.903458000000029
 51
136.096542
  0
LINE
  8
_0-5_ADD_LINE
  6
DASHED1
 62
    3
 10
527.28581157339079
 20
195.33370575603982
 11
527.2169585733908
 21
194.01992775604043
  0
LINE
  8
_0-5_ADD_LINE
  6
DASHED1
 62
    3
 10
537.77142057339063
 20
194.78417775603981
 11
537.70257057339097
 21
193.47039975604042
  0
ARC
  8
_0-5_ADD_LINE
  6
DASHED1
 62
    3
 10
529.28307057339077
 20
195.2290357560401
 40
2.0000010000000001
 50
136.096542
 51
176.99999999999997
  0
LINE
  8
_0-5_ADD_LINE
  6
DASHED1
 62
    3
 10
508.06589457339072
 20
181.53798675603997
 11
521.26665357339073
 21
193.53067275604002
  0
LINE
  8
_0-5_ADD_LINE
  6
DASHED1
 62
    3
 10
521.26665357339073
 20
193.53067275604002
 11
543.60998157339066
 21
192.35970675604
  0
LINE
  8
_0-5_ADD_LINE
  6
DASHED1
 62
    3
 10
555.44400357339066
 20
179.0550067560402
 11
543.56913657339089
 21
192.36184875604016
  0
ARC
  8
_0-5_ADD_LINE
  6
DASHED1
 62
    3
 10
535.77416157339064
 20
194.88885075603997
 40
2.0000010000000001
 50
356.99999999999994
 51
37.903457999999993
  0
LINE
  8
_0-5_ADD_LINE
  6
DASHED1
 62
    3
 10
560.09928657339071
 20
181.37988975604043
 11
559.48874157339071
 21
181.89683775604004
  0
LINE
  8
_0-5_ADD_LINE
  6
DASHED1
 62
    3
 10
559.48874157339071
 20
181.89683775604004
 11
557.55018357339088
 21
179.60729775604028
  0
LINE
  8
_0-5_ADD_LINE
  6
DASHED1
 62
    3
 10
560.09928657339071
 20
181.37988975604043
 11
558.16072857339066
 21
179.09034975603987
  0
ARC
  8
_0-5_ADD_LINE
  6
DASHED1
 62
    3
 10
556.78700457339062
 20
180.25348575603988
 40
0.9999989999999994
 50
221.74534799999995
 51
319.74534199999994
  0
LINE
  8
_0-5_ADD_LINE
  6
DASHED1
 62
    3
 10
556.04089257339081
 20
179.58766275603972
 11
543.94400457339077
 21
193.14330075603988
  0
ARC
  8
_0-5_ADD_LINE
  6
DASHED1
 62
    3
 10
556.78700457339062
 20
180.25348575603988
 40
1.7999999999999994
 50
221.74534899999995
 51
319.74534199999994
  0
LINE
  8
_0-5_ADD_LINE
  6
CENTER1
 62
    3
 10
532.76626257339092
 20
199.59351375603995
 11
530.61999492656469
 21
160.92661682047236
  0
LINE
  8
_0-5_ADD_LINE
  6
DASHED1
 62
    3
 10
534.95633757339067
 20
193.61432475604028
 11
533.22587885415794
 21
163.66384313276586
  0
LINE
  8
_0-5_ADD_LINE
  6
DASHED1
 62
    3
 10
535.45565457339069
 20
193.58815575603973
 11
533.75403293809234
 21
164.13684994562442
  0
LINE
  8
_0-5_ADD_LINE
  6
DASHED1
 62
    3
 10
527.76225686334135
 20
164.45086535488775
 11
533.75403293809234
 21
164.13684994562442
  0
LINE
  8
_0-5_ADD_LINE
  6
DASHED1
 62
    3
 10
528.04823573140879
 20
164.13153302924644
 11
527.76225686334135
 21
164.45086535488775
  0
LINE
  8
_0-5_ADD_LINE
  6
CONTINUOUS
 62
    3
 10
528.23272869253526
 20
163.92552282038349
 11
533.22587885415805
 21
163.66384313276586
  0
LINE
  8
_0-5_ADD_LINE
  6
CONTINUOUS
 62
    3
 10
528.23272869253526
 20
163.92552282038349
 11
528.04823573140879
 21
164.13153302924644
  0
LINE
  8
_0-5_ADD_LINE
  6
CONTINUOUS
 62
    3
 10
533.4329912258371
 20
163.84932984168569
 11
533.22587885415805
 21
163.66384313276586
  0
LINE
  8
_0-5_ADD_LINE
  6
DASHED1
 62
    3
 10
533.75403293809234
 20
164.13684994562442
 11
533.4329912258371
 21
163.84932984168569
  0
LINE
  8
_0-5_ADD_LINE
  6
DASHED1
 62
    3
 10
529.96319157339087
 20
193.87600275603978
 11
528.23272869253526
 21
163.92552282038349
  0
LINE
  8
_0-5_ADD_LINE
  6
DASHED1
 62
    3
 10
529.46387457339063
 20
193.90217175604033
 11
527.76225686334135
 21
164.45086535488775
  0
LINE
  8
_0-7_
  6
CONTINUOUS
 62
    3
 10
31.040214422762347
 20
221.32928223160997
 11
31.040214422762347
 21
145.04775612649854
  0
LINE
  8
_0-7_
  6
CONTINUOUS
 62
    3
 10
31.040214422762347
 20
145.04775612649854
 11
31.790214422762347
 21
148.04775612649854
  0
LINE
  8
_0-7_
  6
CONTINUOUS
 62
    3
 10
31.040214422762347
 20
145.04775612649854
 11
30.290214422762347
 21
148.04775612649854
  0
LINE
  8
_0-8_
  6
CONTINUOUS
 62
    3
 10
80.916093422762287
 20
144.04775712649865
 11
80.916093422762287
 21
35.172232231610053
  0
LINE
  8
_0-9_
  6
CONTINUOUS
 62
    1
 10
80.916093422762287
 20
282.64967053143613
 11
80.916093422762287
 21
145.04775612649854
  0
LINE
  8
_0-9_
  6
CONTINUOUS
 62
    1
 10
80.916093422762287
 20
145.04775612649854
 11
105.91609242276195
 21
145.04775612649854
  0
LINE
  8
_0-9_
  6
CONTINUOUS
 62
    1
 10
105.91609242276195
 20
59.581730531435994
 11
105.91609242276195
 21
145.04775612649854
  0
LINE
  8
_0-7_
  6
CONTINUOUS
 62
    2
 10
80.916093422762287
 20
191.01425353143617
 11
105.91609242276195
 21
145.04775612649854
  0
LINE
  8
_0-7_
  6
CONTINUOUS
 62
    2
 10
105.91609242276195
 20
145.04775612649854
 11
126.17633275934327
 21
74.676288921931985
  0
LINE
  8
_0-7_
  6
CONTINUOUS
 62
    2
 10
81.768330156376805
 20
191.53740986550673
 11
106.76832915637641
 21
145.5709124605691
  0
LINE
  8
_0-7_
  6
CONTINUOUS
 62
    2
 10
106.88201824905099
 20
145.30657517160108
 11
127.14225858563236
 21
74.935107967034526
  0
LINE
  8
_0-0_0
  6
CENTER1
 62
    3
 10
280.91609192276235
 20
207.56445326356828
 11
280.91609192276235
 21
31.393725215463348
  0
TEXT
  8
_0-8_
 62
    7
 10
271.24601851807262
 20
41.828925134689086
 40
6
 41
1
 50
0
  1
３５０
  0
LINE
  8
_0-7_
  6
CONTINUOUS
 62
    3
 10
18.94279251208701
 20
280.02928323161018
 11
18.19279251208701
 21
277.02928323161018
  0
LINE
  8
_0-7_
  6
CONTINUOUS
 62
    3
 10
18.94279251208701
 20
280.02928323161018
 11
19.69279251208701
 21
277.02928323161018
  0
LINE
  8
_0-7_
  6
CONTINUOUS
 62
    3
 10
78.91609242276229
 20
280.02928323161018
 11
12.94279251208701
 21
280.02928323161018
  0
LINE
  8
_0-7_
  6
CONTINUOUS
 62
    3
 10
18.94279251208701
 20
280.02928323161018
 11
18.94279251208701
 21
145.04775612649854
  0
LINE
  8
_0-7_
  6
CONTINUOUS
 62
    3
 10
18.94279251208701
 20
145.04775612649854
 11
19.69279251208701
 21
148.04775612649854
  0
LINE
  8
_0-7_
  6
CONTINUOUS
 62
    3
 10
18.94279251208701
 20
145.04775612649854
 11
18.19279251208701
 21
148.04775612649854
  0
LINE
  8
_0-7_
  6
CONTINUOUS
 62
    3
 10
453.91608942276287
 20
145.04775612649854
 11
12.94279251208701
 21
145.04775612649854
  0
TEXT
  8
_0-4_図枠
 62
    7
 10
15.575046598393385
 20
369.57339022911577
 40
9
 41
1
 50
0
  1
◇アルミ３５０タイプ（３５０ＦＹＫＧ－Ａ）
  0
LINE
  8
_0-9_
  6
CONTINUOUS
 62
    1
 10
455.91609142276275
 20
145.04775612649854
 11
580.91609242276263
 21
145.04775612649854
  0
TEXT
  8
_0-4_図枠
 62
    7
 10
494.77072322612617
 20
5.674814651250756
 40
5
 41
1
 50
0
  1
３５０ＦＹＫＧ－Ａ７００
  0
TEXT
  8
_0-0_0
 62
    7
 10
576.55201798407666
 20
5.4760731215394003
 40
5
 41
1
 50
0
  1
700
  0
TEXT
  8
_0-0_0
 62
    7
 10
606.20274895388502
 20
5.3150968442108137
 40
5
 41
1
 50
0
  1
685
  0
TEXT
  8
_0-0_0
 62
    7
 10
636.10908967343312
 20
5.2204633717996671
 40
5
 41
1
 50
0
  1
125
  0
TEXT
  8
_0-0_0
 62
    7
 10
664.49399192304145
 20
5.0203088462075698
 40
5
 41
1
 50
0
  1
76.3
  0
TEXT
  8
_0-0_0
 62
    7
 10
694.54227768617829
 20
5.5707065939505469
 40
5
 41
1
 50
0
  1
135
  0
TEXT
  8
_0-8_
 62
    7
 10
412.00798590314525
 20
241.79043444371149
 40
6
 41
1
 50
0
  1
（キャップ幅）
  0
TEXT
  8
_0-8_
 62
    7
 10
673.38408771648892
 20
42.334867000727115
 40
6
 41
1
 50
0
  1
２００
  0
TEXT
  8
_0-4_図枠
 62
    7
 10
243.95906516424793
 20
5.5605693338215474
 40
5
 41
1
 50
0
  1
３５０ＦＹＫＧ－Ａ７００
  0
TEXT
  8
_0-4_図枠
 62
    7
 10
243.95906516424793
 20
-39.439430666178453
 40
5
 41
1
 50
0
  1
３５０ＦＹＫＨ－７００
  0
TEXT
  8
_0-4_図枠
 62
    7
 10
243.95906516424793
 20
-66.439430666178453
 40
5
 41
1
 50
0
  1
３５０ＦＹＫＪ－７００
  0
TEXT
  8
_0-4_図枠
 62
    7
 10
243.95906516424793
 20
-93.439430666178453
 40
5
 41
1
 50
0
  1
ＦＳ1２００
  0
TEXT
  8
_0-4_図枠
 62
    7
 10
243.95906516424793
 20
-111.43943066617823
 40
5
 41
1
 50
0
  1
なべＭ６×３５
  0
TEXT
  8
_0-4_図枠
 62
    7
 10
243.95906516424793
 20
-120.43943066617823
 40
5
 41
1
 50
0
  1
なべＭ４×１０
  0
TEXT
  8
_0-4_図枠
 62
    7
 10
243.95906516424793
 20
-129.43943066617823
 40
5
 41
1
 50
0
  1
Ｍ６×４０
  0
TEXT
  8
_0-4_図枠
 62
    7
 10
243.95906516424793
 20
-138.43943066617823
 40
5
 41
1
 50
0
  1
ＡＧ－６６０
  0
TEXT
  8
_0-4_図枠
 62
    7
 10
243.95906516424793
 20
-147.43943066617823
 40
5
 41
1
 50
0
  1
φ８×４０
  0
TEXT
  8
_0-4_図枠
 62
    7
 10
243.95906516424793
 20
-156.43943066617823
 40
5
 41
1
 50
0
  1
なべ ５×５０
  0
TEXT
  8
_0-4_図枠
 62
    7
 10
243.95906516424793
 20
-165.43943066617823
 40
5
 41
1
 50
0
  1
１．５×１８×６．５穴
  0
TEXT
  8
_0-4_図枠
 62
    7
 10
243.95906516424793
 20
-174.43943066617845
 40
5
 41
1
 50
0
  1
１．５×１８×５．５穴
  0
TEXT
  8
_0-4_図枠
 62
    7
 10
340.95906516424793
 20
22.6395697129214
 40
5
 41
1
 50
0
  1
（３０００mmセット）
  0
TEXT
  8
_0-4_図枠
 62
    7
 10
408.95906516424793
 20
22.6395697129214
 40
5
 41
1
 50
0
  1
（２０００mmセット）
  0
TEXT
  8
_0-4_図枠
 62
    7
 10
341.68558397702236
 20
5.5605693338215474
 40
5
 41
1
 50
0
  1
３０００
  0
TEXT
  8
_0-4_図枠
 62
    7
 10
341.68558397702236
 20
-3.4394306661784526
 40
5
 41
1
 50
0
  1
３０００
  0
TEXT
  8
_0-4_図枠
 62
    7
 10
341.68558397702236
 20
-12.439430666178453
 40
5
 41
1
 50
0
  1
３０００
  0
TEXT
  8
_0-4_図枠
 62
    7
 10
341.68558397702236
 20
-21.439430666178453
 40
5
 41
1
 50
0
  1
３０００
  0
TEXT
  8
_0-4_図枠
 62
    7
 10
341.68558397702236
 20
-30.439430666178453
 40
5
 41
1
 50
0
  1
６０００
  0
TEXT
  8
_0-4_図枠
 62
    7
 10
341.68558397702236
 20
-84.439430666178225
 40
5
 41
1
 50
0
  1
３０６０
  0
TEXT
  8
_0-4_図枠
 62
    7
 10
341.68558397702236
 20
-93.439430666178453
 40
5
 41
1
 50
0
  1
３１００
  0
TEXT
  8
_0-4_図枠
 62
    7
 10
341.68558397702236
 20
-102.43943066617845
 40
5
 41
1
 50
0
  1
３０００
  0
TEXT
  8
_0-4_図枠
 62
    7
 10
375.70906516424793
 20
5.5605693338215474
 40
5
 41
1
 50
0
  1
１
  0
TEXT
  8
_0-4_図枠
 62
    7
 10
375.70906516424793
 20
-3.4394306661784526
 40
5
 41
1
 50
0
  1
１
  0
TEXT
  8
_0-4_図枠
 62
    7
 10
375.70906516424793
 20
-12.439430666178453
 40
5
 41
1
 50
0
  1
１
  0
TEXT
  8
_0-4_図枠
 62
    7
 10
375.70906516424793
 20
-21.439430666178453
 40
5
 41
1
 50
0
  1
１
  0
TEXT
  8
_0-4_図枠
 62
    7
 10
375.70906516424793
 20
-30.439430666178453
 40
5
 41
1
 50
0
  1
１
  0
TEXT
  8
_0-4_図枠
 62
    7
 10
375.70906516424793
 20
-39.439430666178453
 40
5
 41
1
 50
0
  1
６
  0
TEXT
  8
_0-4_図枠
 62
    7
 10
375.70906516424793
 20
-48.439430666178453
 40
5
 41
1
 50
0
  1
６
  0
TEXT
  8
_0-4_図枠
 62
    7
 10
375.70906516424793
 20
-57.439430666178453
 40
5
 41
1
 50
0
  1
６
  0
TEXT
  8
_0-4_図枠
 62
    7
 10
375.70906516424793
 20
-66.439430666178453
 40
5
 41
1
 50
0
  1
１
  0
TEXT
  8
_0-4_図枠
 62
    7
 10
375.70906516424793
 20
-75.439430666178453
 40
5
 41
1
 50
0
  1
１
  0
TEXT
  8
_0-4_図枠
 62
    7
 10
375.70906516424793
 20
-84.439430666178225
 40
5
 41
1
 50
0
  1
１
  0
TEXT
  8
_0-4_図枠
 62
    7
 10
375.70906516424793
 20
-93.439430666178453
 40
5
 41
1
 50
0
  1
１
  0
TEXT
  8
_0-4_図枠
 62
    7
 10
375.70906516424793
 20
-102.43943066617845
 40
5
 41
1
 50
0
  1
１
  0
TEXT
  8
_0-4_図枠
 62
    7
 10
375.70906516424793
 20
-111.43943066617823
 40
5
 41
1
 50
0
  1
６
  0
TEXT
  8
_0-4_図枠
 62
    7
 10
375.70906516424793
 20
-120.43943066617823
 40
5
 41
1
 50
0
  1
６
  0
TEXT
  8
_0-4_図枠
 62
    7
 10
375.70906516424793
 20
-129.43943066617823
 40
5
 41
1
 50
0
  1
６
  0
TEXT
  8
_0-4_図枠
 62
    7
 10
375.70906516424793
 20
-138.43943066617823
 40
5
 41
1
 50
0
  1
６
  0
TEXT
  8
_0-4_図枠
 62
    7
 10
375.70906516424793
 20
-147.43943066617823
 40
5
 41
1
 50
0
  1
６
  0
TEXT
  8
_0-4_図枠
 62
    7
 10
375.70906516424793
 20
-156.43943066617823
 40
5
 41
1
 50
0
  1
６
  0
TEXT
  8
_0-4_図枠
 62
    7
 10
375.70906516424793
 20
-165.43943066617823
 40
5
 41
1
 50
0
  1
６
  0
TEXT
  8
_0-4_図枠
 62
    7
 10
375.70906516424793
 20
-174.43943066617845
 40
5
 41
1
 50
0
  1
６
  0
TEXT
  8
_0-4_図枠
 62
    7
 10
408.0151815533568
 20
5.5605693338215474
 40
5
 41
1
 50
0
  1
２０００
  0
TEXT
  8
_0-4_図枠
 62
    7
 10
408.0151815533568
 20
-3.4394306661784526
 40
5
 41
1
 50
0
  1
２０００
  0
TEXT
  8
_0-4_図枠
 62
    7
 10
408.0151815533568
 20
-12.439430666178453
 40
5
 41
1
 50
0
  1
２０００
  0
TEXT
  8
_0-4_図枠
 62
    7
 10
408.0151815533568
 20
-21.439430666178453
 40
5
 41
1
 50
0
  1
２０００
  0
TEXT
  8
_0-4_図枠
 62
    7
 10
408.0151815533568
 20
-30.439430666178453
 40
5
 41
1
 50
0
  1
６０００
  0
TEXT
  8
_0-4_図枠
 62
    7
 10
408.0151815533568
 20
-84.439430666178225
 40
5
 41
1
 50
0
  1
２０６０
  0
TEXT
  8
_0-4_図枠
 62
    7
 10
408.0151815533568
 20
-93.439430666178453
 40
5
 41
1
 50
0
  1
２１００
  0
TEXT
  8
_0-4_図枠
 62
    7
 10
408.0151815533568
 20
-102.43943066617845
 40
5
 41
1
 50
0
  1
２０００
  0
TEXT
  8
_0-4_図枠
 62
    7
 10
445.23835027860093
 20
5.5605693338215474
 40
5
 41
1
 50
0
  1
１
  0
TEXT
  8
_0-4_図枠
 62
    7
 10
445.23835027860093
 20
-3.4394306661784526
 40
5
 41
1
 50
0
  1
１
  0
TEXT
  8
_0-4_図枠
 62
    7
 10
445.23835027860093
 20
-12.439430666178453
 40
5
 41
1
 50
0
  1
１
  0
TEXT
  8
_0-4_図枠
 62
    7
 10
445.23835027860093
 20
-21.439430666178453
 40
5
 41
1
 50
0
  1
１
  0
TEXT
  8
_0-4_図枠
 62
    7
 10
445.23835027860093
 20
-30.439430666178453
 40
5
 41
1
 50
0
  1
１
  0
TEXT
  8
_0-4_図枠
 62
    7
 10
445.23835027860093
 20
-39.439430666178453
 40
5
 41
1
 50
0
  1
４
  0
TEXT
  8
_0-4_図枠
 62
    7
 10
445.23835027860093
 20
-48.439430666178453
 40
5
 41
1
 50
0
  1
４
  0
TEXT
  8
_0-4_図枠
 62
    7
 10
445.23835027860093
 20
-57.439430666178453
 40
5
 41
1
 50
0
  1
４
  0
TEXT
  8
_0-4_図枠
 62
    7
 10
445.23835027860093
 20
-66.439430666178453
 40
5
 41
1
 50
0
  1
１
  0
TEXT
  8
_0-4_図枠
 62
    7
 10
445.23835027860093
 20
-75.439430666178453
 40
5
 41
1
 50
0
  1
１
  0
TEXT
  8
_0-4_図枠
 62
    7
 10
445.23835027860093
 20
-84.439430666178225
 40
5
 41
1
 50
0
  1
１
  0
TEXT
  8
_0-4_図枠
 62
    7
 10
445.23835027860093
 20
-93.439430666178453
 40
5
 41
1
 50
0
  1
１
  0
TEXT
  8
_0-4_図枠
 62
    7
 10
445.23835027860093
 20
-102.43943066617845
 40
5
 41
1
 50
0
  1
１
  0
TEXT
  8
_0-4_図枠
 62
    7
 10
445.23835027860093
 20
-111.43943066617823
 40
5
 41
1
 50
0
  1
４
  0
TEXT
  8
_0-4_図枠
 62
    7
 10
445.23835027860093
 20
-120.43943066617823
 40
5
 41
1
 50
0
  1
５
  0
TEXT
  8
_0-4_図枠
 62
    7
 10
445.23835027860093
 20
-129.43943066617823
 40
5
 41
1
 50
0
  1
５
  0
TEXT
  8
_0-4_図枠
 62
    7
 10
445.23835027860093
 20
-138.43943066617823
 40
5
 41
1
 50
0
  1
５
  0
TEXT
  8
_0-4_図枠
 62
    7
 10
445.23835027860093
 20
-147.43943066617823
 40
5
 41
1
 50
0
  1
５
  0
TEXT
  8
_0-4_図枠
 62
    7
 10
445.23835027860093
 20
-156.43943066617823
 40
5
 41
1
 50
0
  1
５
  0
TEXT
  8
_0-4_図枠
 62
    7
 10
445.23835027860093
 20
-165.43943066617823
 40
5
 41
1
 50
0
  1
５
  0
TEXT
  8
_0-4_図枠
 62
    7
 10
445.23835027860093
 20
-174.43943066617845
 40
5
 41
1
 50
0
  1
５
  0
TEXT
  8
_0-8_
 62
    7
 10
431.72619861323506
 20
251.75115252255108
 40
6
 41
1
 50
0
  1
Ａ
  0
TEXT
  8
_0-8_
 62
    7
 10
429.16719728779537
 20
346.14155186762002
 40
6
 41
1
 50
0
  1
Ｗ
  0
TEXT
  8
_0-7_
 62
    7
 10
17.519459000189102
 20
208.7159847271883
 40
6
 41
1
 50
90
  1
Ｅ
  0
TEXT
  8
_0-4_図枠
 62
    7
 10
243.95906516424793
 20
-30.439430666178453
 40
5
 41
1
 50
0
  1
ｔ１．０×ｗ３０
  0
LINE
  8
_0-4_図枠
  6
CONTINUOUS
 62
    7
 10
7.9590651642479315
 20
380.90852972158501
 11
7.9590651642479315
 21
-188.51081530782028
  0
LINE
  8
_0-4_図枠
  6
CONTINUOUS
 62
    7
 10
831.95906516424793
 20
-188.51081530782028
 11
831.95906516424793
 21
380.90852972158501
  0
LINE
  8
_0-4_図枠
  6
CONTINUOUS
 62
    7
 10
7.9590651642479315
 20
-188.51081530782028
 11
831.95906516424793
 21
-188.51081530782028
  0
ENDSEC
  0
EOF
