  0
SECTION
  2
HEADER
  9
$ACADVER
  1
AC1009
  9
$INSBASE
 10
0
 20
0
 30
0
  9
$EXTMIN
 10
0
 20
0
  9
$EXTMAX
 10
840
 20
594
  9
$LIMMIN
 10
0
 20
0
  9
$LIMMAX
 10
840
 20
594
  9
$LTSCALE
 40
2
  0
ENDSEC
  0
SECTION
  2
TABLES
  0
TABLE
  2
LTYPE
 70
     9
  0
LTYPE
  2
CONTINUOUS
 70
    64
  3
実線
 72
    65
 73
     0
 40
0.0
  0
LTYPE
  2
DASHED1
 70
    64
  3
--  --  --  --  --  --  --  --  
 72
    65
 73
     2
 40
2.5
 49
1.25
 49
-1.25
  0
LTYPE
  2
DASHED2
 70
    64
  3
----    ----    ----    ----    
 72
    65
 73
     2
 40
5.0
 49
2.5
 49
-2.5
  0
LTYPE
  2
DASHED3
 70
    64
  3
------  ------  ------  ------  
 72
    65
 73
     2
 40
5.0
 49
3.75
 49
-1.25
  0
LTYPE
  2
CENTER1
 70
    64
  3
----- - ----- - ----- - ----- - 
 72
    65
 73
     4
 40
10.0
 49
6.25
 49
-1.25
 49
1.25
 49
-1.25
  0
LTYPE
  2
CENTER2
 70
    64
  3
----------  --  ----------  --  
 72
    65
 73
     4
 40
20.0
 49
12.5
 49
-2.5
 49
2.5
 49
-2.5
  0
LTYPE
  2
PHANTOM1
 70
    64
  3
--- - - --- - - --- - - --- - - 
 72
    65
 73
     6
 40
10.0
 49
3.25
 49
-1.25
 49
1.25
 49
-1.25
 49
1.25
 49
-1.25
  0
LTYPE
  2
PHANTOM2
 70
    64
  3
--------  -  -  --------  -  -  
 72
    65
 73
     6
 40
20.0
 49
10.0
 49
-2.5
 49
1.25
 49
-2.5
 49
1.25
 49
-2.5
  0
LTYPE
  2
DOT
 70
    64
  3
-   -   -   -   -   -   -   -   
 72
    65
 73
     2
 40
2.5
 49
0.625
 49
-1.875
  0
LTYPE
  2
DUMMY
 70
    64
  3
ダミー
 72
    65
 73
     0
 40
0.0
  0
LTYPE
  2
RAND1
 70
    64
  3
ランダム線1
 72
    65
 73
     4
 40
10.0
 49
1.0
 49
-2.0
 49
3.0
 49
-4.0
  0
LTYPE
  2
RAND2
 70
    64
  3
ランダム線2
 72
    65
 73
     4
 40
14.0
 49
2.0
 49
-3.0
 49
4.0
 49
-5.0
  0
LTYPE
  2
RAND3
 70
    64
  3
ランダム線3
 72
    65
 73
     4
 40
18.0
 49
3.0
 49
-4.0
 49
5.0
 49
-6.0
  0
LTYPE
  2
RAND4
 70
    64
  3
ランダム線4
 72
    65
 73
     4
 40
22.0
 49
4.0
 49
-5.0
 49
6.0
 49
-7.0
  0
LTYPE
  2
RAND5
 70
    64
  3
ランダム線5
 72
    65
 73
     4
 40
26.0
 49
5.0
 49
-6.0
 49
7.0
 49
-8.0
  0
LTYPE
  2
LONG1
 70
    64
  3
----------  --  ----------  --  
 72
    65
 73
     4
 40
40.0
 49
32.5
 49
-2.5
 49
2.5
 49
-2.5
  0
LTYPE
  2
LONG2
 70
    64
  3
--------  -  -  --------  -  -  
 72
    65
 73
     6
 40
40.0
 49
30.0
 49
-2.5
 49
1.25
 49
-2.5
 49
1.25
 49
-2.5
  0
LTYPE
  2
LONG3
 70
    64
  3
+++++++++++++++..+++++++++++++++
 72
    65
 73
     2
 40
40.0
 49
37.5
 49
-2.5
  0
LTYPE
  2
LONG4
 70
    64
  3
+++++++++++++++..+++++++++++++++
 72
    65
 73
     2
 40
80.0
 49
75.0
 49
-5.0
  0
LTYPE
  2
LONG5
 70
    64
  3
----------  --  ----------  --  
 72
    65
 73
     4
 40
60.0
 49
37.5
 49
-7.5
 49
7.5
 49
-7.5
  0
LTYPE
  2
dashed
 70
   64
  3
-------   -------------   ------
 72
   65
 73
    2
 40
7.5
 49
6
 49
-1.5
  0
LTYPE
  2
dashed_spaced
 70
   64
  3
----        --------        ----
 72
   65
 73
    2
 40
12
 49
6
 49
-6
  0
LTYPE
  2
long_dashed_dotted
 70
   64
  3
------------- --- --------------
 72
   65
 73
    4
 40
15.25
 49
12
 49
-1.5
 49
0.25
 49
-1.5
  0
LTYPE
  2
long_dashed_double-dotted
 70
   64
  3
----------- --- --- ------------
 72
   65
 73
    6
 40
17
 49
12
 49
-1.5
 49
0.25
 49
-1.5
 49
0.25
 49
-1.5
  0
LTYPE
  2
long_dashed_triplicate-dotted
 70
   64
  3
--------- --- --- --- ----------
 72
   65
 73
    8
 40
18.75
 49
12
 49
-1.5
 49
0.25
 49
-1.5
 49
0.25
 49
-1.5
 49
0.25
 49
-1.5
  0
LTYPE
  2
dotted
 70
   64
  3
   -       -       -       -    
 72
   65
 73
    2
 40
1.75
 49
0.25
 49
-1.5
  0
LTYPE
  2
chain
 70
   64
  3
-------------- -- --------------
 72
   65
 73
    4
 40
18.5
 49
12
 49
-1.5
 49
3.5
 49
-1.5
  0
LTYPE
  2
chain_double_dash
 70
   64
  3
------------ -- -- -------------
 72
   65
 73
    6
 40
23.5
 49
12
 49
-1.5
 49
3.5
 49
-1.5
 49
3.5
 49
-1.5
  0
LTYPE
  2
dashed_dotted
 70
   64
  3
-----------     -     ----------
 72
   65
 73
    4
 40
9.25
 49
6
 49
-1.5
 49
0.25
 49
-1.5
  0
LTYPE
  2
double-dashed_dotted
 70
   64
  3
------   -----------   -   -----
 72
   65
 73
    6
 40
16.75
 49
6
 49
-1.5
 49
6
 49
-1.5
 49
0.25
 49
-1.5
  0
LTYPE
  2
dashed_double-dotted
 70
   64
  3
---------    -    -    ---------
 72
   65
 73
    6
 40
11
 49
6
 49
-1.5
 49
0.25
 49
-1.5
 49
0.25
 49
-1.5
  0
LTYPE
  2
double-dashed_double-dotted
 70
   64
  3
-----   ---------   -   -   ----
 72
   65
 73
    8
 40
18.5
 49
6
 49
-1.5
 49
6
 49
-1.5
 49
0.25
 49
-1.5
 49
0.25
 49
-1.5
  0
LTYPE
  2
dashed_triplicate-dotted
 70
   64
  3
-------    -    -    -    ------
 72
   65
 73
    8
 40
12.75
 49
6
 49
-1.5
 49
0.25
 49
-1.5
 49
0.25
 49
-1.5
 49
0.25
 49
-1.5
  0
LTYPE
  2
double-dashed_triplicate-dotted
 70
   64
  3
-----  ---------  -  -  -  -----
 72
   65
 73
   10
 40
20.25
 49
6
 49
-1.5
 49
6
 49
-1.5
 49
0.25
 49
-1.5
 49
0.25
 49
-1.5
 49
0.25
 49
-1.5
  0
LTYPE
  2
undefined
 70
   64
  3
--------------------------------
 72
   65
 73
    0
 40
0
  0
LTYPE
  2
PLINE2
 70
   64
  3
------     -----------     -----
 72
   65
 73
    2
 40
3
 49
2.1000000000000001
 49
-0.9
  0
LTYPE
  2
PLINE3
 70
   64
  3
------------   ---   -----------
 72
   65
 73
    4
 40
10
 49
7
 49
-1
 49
1
 49
-1
  0
LTYPE
  2
PLINE4
 70
   64
  3
---------   ---   ---   --------
 72
   65
 73
    6
 40
10
 49
5
 49
-1
 49
1
 49
-1
 49
1
 49
-1
  0
LTYPE
  2
PLINE5
 70
   64
  3
------     -----------     -----
 72
   65
 73
    2
 40
5
 49
3.5
 49
-1.5
  0
LTYPE
  2
PLINE6
 70
   64
  3
------------   ---   -----------
 72
   65
 73
    4
 40
15
 49
10.5
 49
-1.5
 49
1.5
 49
-1.5
  0
LTYPE
  2
PLINE7
 70
   64
  3
---------   ---   ---   --------
 72
   65
 73
    6
 40
15
 49
7.5
 49
-1.5
 49
1.5
 49
-1.5
 49
1.5
 49
-1.5
  0
LTYPE
  2
PLINE8
 70
   64
  3
------     -----------     -----
 72
   65
 73
    2
 40
7
 49
4.9000000000000004
 49
-2.1000000000000001
  0
LTYPE
  2
PLINE9
 70
   64
  3
------------   ---   -----------
 72
   65
 73
    4
 40
20
 49
14
 49
-2
 49
2
 49
-2
  0
LTYPE
  2
PLINE10
 70
   64
  3
---------   ---   ---   --------
 72
   65
 73
    6
 40
20
 49
10
 49
-2
 49
2
 49
-2
 49
2
 49
-2
  0
LTYPE
  2
PLINE11
 70
   64
  3
------     -----------     -----
 72
   65
 73
    2
 40
9
 49
6.2999999999999989
 49
-2.7000000000000002
  0
LTYPE
  2
PLINE12
 70
   64
  3
------------   ---   -----------
 72
   65
 73
    4
 40
25
 49
17.5
 49
-2.5
 49
2.5
 49
-2.5
  0
LTYPE
  2
PLINE13
 70
   64
  3
---------   ---   ---   --------
 72
   65
 73
    6
 40
25
 49
12.5
 49
-2.5
 49
2.5
 49
-2.5
 49
2.5
 49
-2.5
  0
LTYPE
  2
PLINE14
 70
   64
  3
------     -----------     -----
 72
   65
 73
    2
 40
11
 49
7.7000000000000002
 49
-3.2999999999999989
  0
LTYPE
  2
PLINE15
 70
   64
  3
------------   ---   -----------
 72
   65
 73
    4
 40
30
 49
21
 49
-3
 49
3
 49
-3
  0
LTYPE
  2
PLINE16
 70
   64
  3
---------   ---   ---   --------
 72
   65
 73
    6
 40
30
 49
15
 49
-3
 49
3
 49
-3
 49
3
 49
-3
  0
ENDTAB
  0
TABLE
  2
STYLE
  5
3
100
AcDbSymbolTable
 70
     1
  0
STYLE
  5
10
100
AcDbSymbolTableRecord
100
AcDbTextStyleTableRecord
  2
STANDARD
 70
     0
 40
0.0
 41
1.0
 50
0.0
 71
     0
 42
0.2
  3
txt
  4
bigfont.shx
  0
STYLE
  5
26
100
AcDbSymbolTableRecord
100
AcDbTextStyleTableRecord
  2
TATEGAKI
 70
    68
 40
0.0
 41
1.0
 50
0.0
 71
     0
 42
1.0
  3
txt
  4
bigfont.shx
  0
ENDTAB
  0
TABLE
  2
LAYER
 70
    6
  0
LAYER
  2
_0-0_0
 70
   64
 62
    7
  6
CONTINUOUS
  0
LAYER
  2
_0-2_寸法
 70
   64
 62
    7
  6
CONTINUOUS
  0
LAYER
  2
_0-3_躯体と製品
 70
   64
 62
    7
  6
CONTINUOUS
  0
LAYER
  2
_0-4_図枠
 70
   64
 62
    7
  6
CONTINUOUS
  0
LAYER
  2
_0-5_ADD_LINE
 70
   64
 62
    7
  6
CONTINUOUS
  0
LAYER
  2
ADD_LINE
 70
   64
 62
    7
  6
CONTINUOUS
  0
ENDTAB
  0
ENDSEC
  0
SECTION
  2
BLOCKS
  0
ENDSEC
  0
SECTION
  2
ENTITIES
  0
LINE
  8
_0-0_0
  6
CONTINUOUS
 62
    1
 10
562.63306863858497
 20
197.28195520694089
 11
562.63306863858497
 21
264.70307797048031
  0
LINE
  8
_0-0_0
  6
CONTINUOUS
 62
    3
 10
437.63306763858503
 20
196.281956206941
 11
437.63306763858503
 21
174.18265120694093
  0
LINE
  8
_0-0_0
  6
CONTINUOUS
 62
    3
 10
437.63306763858503
 20
180.18265120694093
 11
434.63306763858503
 21
180.93265120694093
  0
LINE
  8
_0-0_0
  6
CONTINUOUS
 62
    3
 10
437.63306763858503
 20
180.18265120694093
 11
434.63306763858503
 21
179.43265120694093
  0
LINE
  8
_0-0_0
  6
CONTINUOUS
 62
    3
 10
437.63306763858503
 20
180.18265120694093
 11
440.63306763858503
 21
179.43265120694093
  0
LINE
  8
_0-0_0
  6
CONTINUOUS
 62
    3
 10
437.63306763858503
 20
180.18265120694093
 11
440.63306763858503
 21
180.93265120694093
  0
LINE
  8
_0-0_0
  6
CONTINUOUS
 62
    3
 10
87.633068638584916
 20
180.18265120694093
 11
437.63306763858503
 21
180.18265120694093
  0
LINE
  8
_0-0_0
  6
CENTER1
 62
    3
 10
262.63306813858492
 20
293.86841043823165
 11
262.63306813858492
 21
164.7195098000542
  0
TEXT
  8
_0-0_0
 62
    7
 10
253.54551832101509
 20
181.14456951983141
 40
6
 41
1
 50
0
  1
３５０
  0
LINE
  8
_0-4_図枠
  6
CONTINUOUS
 62
    7
 10
7.9590651642479315
 20
527.31193473454573
 11
7.9590651642479315
 21
-48.68806526545427
  0
LINE
  8
_0-4_図枠
  6
CONTINUOUS
 62
    7
 10
831.95906516424793
 20
527.31193473454573
 11
7.9590651642479315
 21
527.31193473454573
  0
LINE
  8
_0-4_図枠
  6
CONTINUOUS
 62
    7
 10
831.95906516424793
 20
-48.68806526545427
 11
831.95906516424793
 21
527.31193473454573
  0
LINE
  8
_0-4_図枠
  6
CONTINUOUS
 62
    7
 10
7.9590651642479315
 20
-48.68806526545427
 11
831.95906516424793
 21
-48.68806526545427
  0
TEXT
  8
_0-4_図枠
 62
    7
 10
17.06311771874897
 20
504.73340241952752
 40
9
 41
1
 50
0
  1
　　屋根－壁（ストレート壁）
  0
TEXT
  8
_0-4_図枠
 62
    7
 10
16.648850481702084
 20
491.8911180710744
 40
9
 41
1
 50
0
  1
　　Ｓ＝１／２
  0
LINE
  8
_0-0_0
  6
CONTINUOUS
 62
    7
 10
714.9590651642477
 20
152.07098830915209
 11
489.95906516424793
 21
152.07098830915209
  0
LINE
  8
_0-4_図枠
  6
CONTINUOUS
 62
    7
 10
402.95906516424793
 20
53.07098830915254
 11
469.95906516424793
 21
53.07098830915254
  0
LINE
  8
_0-4_図枠
  6
CONTINUOUS
 62
    7
 10
402.95906516424793
 20
62.07098830915254
 11
469.95906516424793
 21
62.07098830915254
  0
LINE
  8
_0-4_図枠
  6
CONTINUOUS
 62
    7
 10
401.95906516424793
 20
62.07098830915254
 11
334.95906516424793
 21
62.07098830915254
  0
LINE
  8
_0-4_図枠
  6
CONTINUOUS
 62
    7
 10
333.95906516424793
 20
62.07098830915254
 11
124.95906516424793
 21
62.07098830915254
  0
TEXT
  8
_0-4_図枠
 62
    7
 10
388.45906516424793
 20
153.57098830915254
 40
5
 41
1
 50
0
  1
単位
  0
TEXT
  8
_0-4_図枠
 62
    7
 10
456.45906516424793
 20
153.57098830915254
 40
5
 41
1
 50
0
  1
単位
  0
TEXT
  8
_0-4_図枠
 62
    7
 10
459.95906516424793
 20
-35.42901169084746
 40
5
 41
1
 50
0
  1
〃
  0
TEXT
  8
_0-4_図枠
 62
    7
 10
459.95906516424793
 20
-26.42901169084746
 40
5
 41
1
 50
0
  1
枚
  0
TEXT
  8
_0-4_図枠
 62
    7
 10
459.95906516424793
 20
-17.42901169084746
 40
5
 41
1
 50
0
  1
〃
  0
TEXT
  8
_0-4_図枠
 62
    7
 10
459.95906516424793
 20
-8.4290116908474602
 40
5
 41
1
 50
0
  1
〃
  0
TEXT
  8
_0-4_図枠
 62
    7
 10
459.95906516424793
 20
0.5709883091525398
 40
5
 41
1
 50
0
  1
〃
  0
TEXT
  8
_0-4_図枠
 62
    7
 10
459.95906516424793
 20
9.5709883091525398
 40
5
 41
1
 50
0
  1
〃
  0
TEXT
  8
_0-4_図枠
 62
    7
 10
459.95906516424793
 20
18.57098830915254
 40
5
 41
1
 50
0
  1
〃
  0
TEXT
  8
_0-4_図枠
 62
    7
 10
459.95906516424793
 20
27.57098830915254
 40
5
 41
1
 50
0
  1
〃
  0
TEXT
  8
_0-4_図枠
 62
    7
 10
459.95906516424793
 20
36.57098830915254
 40
5
 41
1
 50
0
  1
本
  0
TEXT
  8
_0-4_図枠
 62
    7
 10
459.95906516424793
 20
45.57098830915254
 40
5
 41
1
 50
0
  1
〃
  0
TEXT
  8
_0-4_図枠
 62
    7
 10
459.95906516424793
 20
63.57098830915254
 40
5
 41
1
 50
0
  1
〃
  0
TEXT
  8
_0-4_図枠
 62
    7
 10
459.95906516424793
 20
72.57098830915254
 40
5
 41
1
 50
0
  1
〃
  0
TEXT
  8
_0-4_図枠
 62
    7
 10
459.95906516424793
 20
81.57098830915254
 40
5
 41
1
 50
0
  1
〃
  0
TEXT
  8
_0-4_図枠
 62
    7
 10
459.95906516424793
 20
90.57098830915254
 40
5
 41
1
 50
0
  1
〃
  0
TEXT
  8
_0-4_図枠
 62
    7
 10
459.95906516424793
 20
99.570988309152426
 40
5
 41
1
 50
0
  1
〃
  0
TEXT
  8
_0-4_図枠
 62
    7
 10
459.95906516424793
 20
117.57098830915243
 40
5
 41
1
 50
0
  1
〃
  0
TEXT
  8
_0-4_図枠
 62
    7
 10
459.95906516424793
 20
126.57098830915243
 40
5
 41
1
 50
0
  1
〃
  0
TEXT
  8
_0-4_図枠
 62
    7
 10
459.95906516424793
 20
135.57098830915243
 40
5
 41
1
 50
0
  1
〃
  0
TEXT
  8
_0-4_図枠
 62
    7
 10
459.95906516424793
 20
144.57098830915243
 40
5
 41
1
 50
0
  1
本
  0
TEXT
  8
_0-4_図枠
 62
    7
 10
391.95906516424793
 20
-35.42901169084746
 40
5
 41
1
 50
0
  1
〃
  0
TEXT
  8
_0-4_図枠
 62
    7
 10
391.95906516424793
 20
-26.42901169084746
 40
5
 41
1
 50
0
  1
枚
  0
TEXT
  8
_0-4_図枠
 62
    7
 10
391.95906516424793
 20
-17.42901169084746
 40
5
 41
1
 50
0
  1
〃
  0
TEXT
  8
_0-4_図枠
 62
    7
 10
391.95906516424793
 20
-8.4290116908474602
 40
5
 41
1
 50
0
  1
〃
  0
TEXT
  8
_0-4_図枠
 62
    7
 10
391.95906516424793
 20
0.5709883091525398
 40
5
 41
1
 50
0
  1
〃
  0
TEXT
  8
_0-4_図枠
 62
    7
 10
391.95906516424793
 20
9.5709883091525398
 40
5
 41
1
 50
0
  1
〃
  0
TEXT
  8
_0-4_図枠
 62
    7
 10
391.95906516424793
 20
18.57098830915254
 40
5
 41
1
 50
0
  1
〃
  0
TEXT
  8
_0-4_図枠
 62
    7
 10
391.95906516424793
 20
27.57098830915254
 40
5
 41
1
 50
0
  1
〃
  0
TEXT
  8
_0-4_図枠
 62
    7
 10
391.95906516424793
 20
36.57098830915254
 40
5
 41
1
 50
0
  1
本
  0
TEXT
  8
_0-4_図枠
 62
    7
 10
391.95906516424793
 20
45.57098830915254
 40
5
 41
1
 50
0
  1
〃
  0
TEXT
  8
_0-4_図枠
 62
    7
 10
391.95906516424793
 20
63.57098830915254
 40
5
 41
1
 50
0
  1
〃
  0
TEXT
  8
_0-4_図枠
 62
    7
 10
391.95906516424793
 20
72.57098830915254
 40
5
 41
1
 50
0
  1
〃
  0
TEXT
  8
_0-4_図枠
 62
    7
 10
391.95906516424793
 20
81.57098830915254
 40
5
 41
1
 50
0
  1
〃
  0
TEXT
  8
_0-4_図枠
 62
    7
 10
391.95906516424793
 20
90.57098830915254
 40
5
 41
1
 50
0
  1
〃
  0
TEXT
  8
_0-4_図枠
 62
    7
 10
391.95906516424793
 20
99.570988309152426
 40
5
 41
1
 50
0
  1
〃
  0
TEXT
  8
_0-4_図枠
 62
    7
 10
391.95906516424793
 20
117.57098830915243
 40
5
 41
1
 50
0
  1
〃
  0
TEXT
  8
_0-4_図枠
 62
    7
 10
391.95906516424793
 20
126.57098830915243
 40
5
 41
1
 50
0
  1
〃
  0
TEXT
  8
_0-4_図枠
 62
    7
 10
391.95906516424793
 20
135.57098830915243
 40
5
 41
1
 50
0
  1
〃
  0
TEXT
  8
_0-4_図枠
 62
    7
 10
391.95906516424793
 20
144.57098830915243
 40
5
 41
1
 50
0
  1
本
  0
TEXT
  8
_0-4_図枠
 62
    7
 10
440.45906516424793
 20
153.57098830915254
 40
5
 41
1
 50
0
  1
入数
  0
TEXT
  8
_0-4_図枠
 62
    7
 10
372.45906516424793
 20
153.57098830915254
 40
5
 41
1
 50
0
  1
入数
  0
TEXT
  8
_0-4_図枠
 62
    7
 10
406.70906516424793
 20
153.57098830915254
 40
5
 41
1
 50
0
  1
定尺(mm)
  0
TEXT
  8
_0-4_図枠
 62
    7
 10
338.70906516424793
 20
153.57098830915254
 40
5
 41
1
 50
0
  1
定尺(mm)
  0
LINE
  8
_0-4_図枠
  6
CONTINUOUS
 62
    7
 10
402.95906516424793
 20
-27.92901169084746
 11
469.95906516424793
 21
-27.92901169084746
  0
LINE
  8
_0-4_図枠
  6
CONTINUOUS
 62
    7
 10
402.95906516424793
 20
-18.929011690847233
 11
469.95906516424793
 21
-18.929011690847233
  0
LINE
  8
_0-4_図枠
  6
CONTINUOUS
 62
    7
 10
402.95906516424793
 20
-9.9290116908474602
 11
469.95906516424793
 21
-9.9290116908474602
  0
LINE
  8
_0-4_図枠
  6
CONTINUOUS
 62
    7
 10
402.95906516424793
 20
-0.9290116908474601
 11
469.95906516424793
 21
-0.9290116908474601
  0
LINE
  8
_0-4_図枠
  6
CONTINUOUS
 62
    7
 10
402.95906516424793
 20
8.0709883091525398
 11
469.95906516424793
 21
8.0709883091525398
  0
LINE
  8
_0-4_図枠
  6
CONTINUOUS
 62
    7
 10
402.95906516424793
 20
17.07098830915254
 11
469.95906516424793
 21
17.07098830915254
  0
LINE
  8
_0-4_図枠
  6
CONTINUOUS
 62
    7
 10
402.95906516424793
 20
26.07098830915254
 11
469.95906516424793
 21
26.07098830915254
  0
LINE
  8
_0-4_図枠
  6
CONTINUOUS
 62
    7
 10
402.95906516424793
 20
35.07098830915254
 11
469.95906516424793
 21
35.07098830915254
  0
LINE
  8
_0-4_図枠
  6
CONTINUOUS
 62
    7
 10
402.95906516424793
 20
44.07098830915254
 11
469.95906516424793
 21
44.07098830915254
  0
LINE
  8
_0-4_図枠
  6
CONTINUOUS
 62
    7
 10
402.95906516424793
 20
71.07098830915254
 11
469.95906516424793
 21
71.07098830915254
  0
LINE
  8
_0-4_図枠
  6
CONTINUOUS
 62
    7
 10
402.95906516424793
 20
80.07098830915254
 11
469.95906516424793
 21
80.07098830915254
  0
LINE
  8
_0-4_図枠
  6
CONTINUOUS
 62
    7
 10
402.95906516424793
 20
89.07098830915254
 11
469.95906516424793
 21
89.07098830915254
  0
LINE
  8
_0-4_図枠
  6
CONTINUOUS
 62
    7
 10
402.95906516424793
 20
98.070988309152426
 11
469.95906516424793
 21
98.070988309152426
  0
LINE
  8
_0-4_図枠
  6
CONTINUOUS
 62
    7
 10
402.95906516424793
 20
107.07098830915243
 11
469.95906516424793
 21
107.07098830915243
  0
LINE
  8
_0-4_図枠
  6
CONTINUOUS
 62
    7
 10
402.95906516424793
 20
116.07098830915243
 11
469.95906516424793
 21
116.07098830915243
  0
LINE
  8
_0-4_図枠
  6
CONTINUOUS
 62
    7
 10
402.95906516424793
 20
125.07098830915231
 11
469.95906516424793
 21
125.07098830915231
  0
LINE
  8
_0-4_図枠
  6
CONTINUOUS
 62
    7
 10
402.95906516424793
 20
134.07098830915243
 11
469.95906516424793
 21
134.07098830915243
  0
LINE
  8
_0-4_図枠
  6
CONTINUOUS
 62
    7
 10
402.95906516424793
 20
143.07098830915254
 11
469.95906516424793
 21
143.07098830915254
  0
LINE
  8
_0-4_図枠
  6
CONTINUOUS
 62
    7
 10
402.95906516424793
 20
152.07098830915243
 11
469.95906516424793
 21
152.07098830915243
  0
LINE
  8
_0-4_図枠
  6
CONTINUOUS
 62
    7
 10
402.95906516424793
 20
161.07098830915243
 11
469.95906516424793
 21
161.07098830915243
  0
LINE
  8
_0-4_図枠
  6
CONTINUOUS
 62
    7
 10
401.95906516424793
 20
-27.92901169084746
 11
334.95906516424793
 21
-27.92901169084746
  0
LINE
  8
_0-4_図枠
  6
CONTINUOUS
 62
    7
 10
401.95906516424793
 20
-18.929011690847233
 11
334.95906516424793
 21
-18.929011690847233
  0
LINE
  8
_0-4_図枠
  6
CONTINUOUS
 62
    7
 10
401.95906516424793
 20
-9.9290116908474602
 11
334.95906516424793
 21
-9.9290116908474602
  0
LINE
  8
_0-4_図枠
  6
CONTINUOUS
 62
    7
 10
401.95906516424793
 20
-0.9290116908474601
 11
334.95906516424793
 21
-0.9290116908474601
  0
LINE
  8
_0-4_図枠
  6
CONTINUOUS
 62
    7
 10
401.95906516424793
 20
8.0709883091525398
 11
334.95906516424793
 21
8.0709883091525398
  0
LINE
  8
_0-4_図枠
  6
CONTINUOUS
 62
    7
 10
401.95906516424793
 20
17.07098830915254
 11
334.95906516424793
 21
17.07098830915254
  0
LINE
  8
_0-4_図枠
  6
CONTINUOUS
 62
    7
 10
401.95906516424793
 20
26.07098830915254
 11
334.95906516424793
 21
26.07098830915254
  0
LINE
  8
_0-4_図枠
  6
CONTINUOUS
 62
    7
 10
401.95906516424793
 20
35.07098830915254
 11
334.95906516424793
 21
35.07098830915254
  0
LINE
  8
_0-4_図枠
  6
CONTINUOUS
 62
    7
 10
401.95906516424793
 20
44.07098830915254
 11
334.95906516424793
 21
44.07098830915254
  0
LINE
  8
_0-4_図枠
  6
CONTINUOUS
 62
    7
 10
401.95906516424793
 20
53.07098830915254
 11
334.95906516424793
 21
53.07098830915254
  0
LINE
  8
_0-4_図枠
  6
CONTINUOUS
 62
    7
 10
401.95906516424793
 20
71.07098830915254
 11
334.95906516424793
 21
71.07098830915254
  0
LINE
  8
_0-4_図枠
  6
CONTINUOUS
 62
    7
 10
401.95906516424793
 20
80.07098830915254
 11
334.95906516424793
 21
80.07098830915254
  0
LINE
  8
_0-4_図枠
  6
CONTINUOUS
 62
    7
 10
401.95906516424793
 20
89.07098830915254
 11
334.95906516424793
 21
89.07098830915254
  0
LINE
  8
_0-4_図枠
  6
CONTINUOUS
 62
    7
 10
401.95906516424793
 20
98.070988309152426
 11
334.95906516424793
 21
98.070988309152426
  0
LINE
  8
_0-4_図枠
  6
CONTINUOUS
 62
    7
 10
401.95906516424793
 20
107.07098830915243
 11
334.95906516424793
 21
107.07098830915243
  0
LINE
  8
_0-4_図枠
  6
CONTINUOUS
 62
    7
 10
401.95906516424793
 20
116.07098830915243
 11
334.95906516424793
 21
116.07098830915243
  0
LINE
  8
_0-4_図枠
  6
CONTINUOUS
 62
    7
 10
401.95906516424793
 20
125.07098830915231
 11
334.95906516424793
 21
125.07098830915231
  0
LINE
  8
_0-4_図枠
  6
CONTINUOUS
 62
    7
 10
401.95906516424793
 20
134.07098830915243
 11
334.95906516424793
 21
134.07098830915243
  0
LINE
  8
_0-4_図枠
  6
CONTINUOUS
 62
    7
 10
401.95906516424793
 20
143.07098830915254
 11
334.95906516424793
 21
143.07098830915254
  0
LINE
  8
_0-4_図枠
  6
CONTINUOUS
 62
    7
 10
401.95906516424793
 20
152.07098830915243
 11
334.95906516424793
 21
152.07098830915243
  0
LINE
  8
_0-4_図枠
  6
CONTINUOUS
 62
    7
 10
401.95906516424793
 20
161.07098830915243
 11
334.95906516424793
 21
161.07098830915243
  0
TEXT
  8
_0-4_図枠
 62
    7
 10
128.70906516424793
 20
-35.42901169084746
 40
5
 41
1
 50
0
  1
21
  0
TEXT
  8
_0-4_図枠
 62
    7
 10
128.70906516424793
 20
-26.42901169084746
 40
5
 41
1
 50
0
  1
20
  0
TEXT
  8
_0-4_図枠
 62
    7
 10
128.70906516424793
 20
-17.42901169084746
 40
5
 41
1
 50
0
  1
19
  0
TEXT
  8
_0-4_図枠
 62
    7
 10
128.70906516424793
 20
-8.4290116908474602
 40
5
 41
1
 50
0
  1
18
  0
TEXT
  8
_0-4_図枠
 62
    7
 10
128.70906516424793
 20
0.5709883091525398
 40
5
 41
1
 50
0
  1
17
  0
TEXT
  8
_0-4_図枠
 62
    7
 10
128.70906516424793
 20
9.5709883091525398
 40
5
 41
1
 50
0
  1
16
  0
TEXT
  8
_0-4_図枠
 62
    7
 10
128.70906516424793
 20
18.57098830915254
 40
5
 41
1
 50
0
  1
15
  0
TEXT
  8
_0-4_図枠
 62
    7
 10
128.70906516424793
 20
27.57098830915254
 40
5
 41
1
 50
0
  1
14
  0
TEXT
  8
_0-4_図枠
 62
    7
 10
128.70906516424793
 20
36.57098830915254
 40
5
 41
1
 50
0
  1
13
  0
TEXT
  8
_0-4_図枠
 62
    7
 10
128.70906516424793
 20
45.57098830915254
 40
5
 41
1
 50
0
  1
12
  0
TEXT
  8
_0-4_図枠
 62
    7
 10
128.70906516424793
 20
54.57098830915254
 40
5
 41
1
 50
0
  1
11
  0
TEXT
  8
_0-4_図枠
 62
    7
 10
128.70906516424793
 20
63.57098830915254
 40
5
 41
1
 50
0
  1
10
  0
TEXT
  8
_0-4_図枠
 62
    7
 10
128.70906516424793
 20
72.57098830915254
 40
5
 41
1
 50
0
  1
 9
  0
TEXT
  8
_0-4_図枠
 62
    7
 10
128.70906516424793
 20
81.57098830915254
 40
5
 41
1
 50
0
  1
 8
  0
TEXT
  8
_0-4_図枠
 62
    7
 10
128.70906516424793
 20
90.57098830915254
 40
5
 41
1
 50
0
  1
 7
  0
TEXT
  8
_0-4_図枠
 62
    7
 10
128.70906516424793
 20
99.570988309152426
 40
5
 41
1
 50
0
  1
 6
  0
TEXT
  8
_0-4_図枠
 62
    7
 10
128.70906516424793
 20
108.57098830915243
 40
5
 41
1
 50
0
  1
 5
  0
TEXT
  8
_0-4_図枠
 62
    7
 10
128.70906516424793
 20
117.57098830915243
 40
5
 41
1
 50
0
  1
 4
  0
TEXT
  8
_0-4_図枠
 62
    7
 10
128.70906516424793
 20
126.57098830915243
 40
5
 41
1
 50
0
  1
 3
  0
TEXT
  8
_0-4_図枠
 62
    7
 10
128.70906516424793
 20
135.57098830915243
 40
5
 41
1
 50
0
  1
 2
  0
TEXT
  8
_0-4_図枠
 62
    7
 10
128.70906516424793
 20
144.57098830915243
 40
5
 41
1
 50
0
  1
 1
  0
TEXT
  8
_0-4_図枠
 62
    7
 10
126.95906516424793
 20
153.57098830915254
 40
5
 41
1
 50
0
  1
No.
  0
LINE
  8
_0-4_図枠
  6
CONTINUOUS
 62
    7
 10
333.95906516424793
 20
-27.92901169084746
 11
124.95906516424793
 21
-27.92901169084746
  0
LINE
  8
_0-4_図枠
  6
CONTINUOUS
 62
    7
 10
333.95906516424793
 20
-18.929011690847233
 11
124.95906516424793
 21
-18.929011690847233
  0
LINE
  8
_0-4_図枠
  6
CONTINUOUS
 62
    7
 10
333.95906516424793
 20
-9.9290116908474602
 11
124.95906516424793
 21
-9.9290116908474602
  0
LINE
  8
_0-4_図枠
  6
CONTINUOUS
 62
    7
 10
333.95906516424793
 20
-0.9290116908474601
 11
124.95906516424793
 21
-0.9290116908474601
  0
LINE
  8
_0-4_図枠
  6
CONTINUOUS
 62
    7
 10
333.95906516424793
 20
8.0709883091525398
 11
124.95906516424793
 21
8.0709883091525398
  0
LINE
  8
_0-4_図枠
  6
CONTINUOUS
 62
    7
 10
333.95906516424793
 20
17.07098830915254
 11
124.95906516424793
 21
17.07098830915254
  0
LINE
  8
_0-4_図枠
  6
CONTINUOUS
 62
    7
 10
333.95906516424793
 20
26.07098830915254
 11
124.95906516424793
 21
26.07098830915254
  0
LINE
  8
_0-4_図枠
  6
CONTINUOUS
 62
    7
 10
333.95906516424793
 20
35.07098830915254
 11
124.95906516424793
 21
35.07098830915254
  0
LINE
  8
_0-4_図枠
  6
CONTINUOUS
 62
    7
 10
333.95906516424793
 20
44.07098830915254
 11
124.95906516424793
 21
44.07098830915254
  0
LINE
  8
_0-4_図枠
  6
CONTINUOUS
 62
    7
 10
333.95906516424793
 20
53.07098830915254
 11
124.95906516424793
 21
53.07098830915254
  0
LINE
  8
_0-4_図枠
  6
CONTINUOUS
 62
    7
 10
333.95906516424793
 20
71.07098830915254
 11
124.95906516424793
 21
71.07098830915254
  0
LINE
  8
_0-4_図枠
  6
CONTINUOUS
 62
    7
 10
333.95906516424793
 20
80.07098830915254
 11
124.95906516424793
 21
80.07098830915254
  0
LINE
  8
_0-4_図枠
  6
CONTINUOUS
 62
    7
 10
333.95906516424793
 20
89.07098830915254
 11
124.95906516424793
 21
89.07098830915254
  0
LINE
  8
_0-4_図枠
  6
CONTINUOUS
 62
    7
 10
333.95906516424793
 20
98.070988309152426
 11
124.95906516424793
 21
98.070988309152426
  0
LINE
  8
_0-4_図枠
  6
CONTINUOUS
 62
    7
 10
333.95906516424793
 20
107.07098830915243
 11
124.95906516424793
 21
107.07098830915243
  0
LINE
  8
_0-4_図枠
  6
CONTINUOUS
 62
    7
 10
333.95906516424793
 20
116.07098830915243
 11
124.95906516424793
 21
116.07098830915243
  0
LINE
  8
_0-4_図枠
  6
CONTINUOUS
 62
    7
 10
333.95906516424793
 20
125.07098830915231
 11
124.95906516424793
 21
125.07098830915231
  0
LINE
  8
_0-4_図枠
  6
CONTINUOUS
 62
    7
 10
333.95906516424793
 20
134.07098830915243
 11
124.95906516424793
 21
134.07098830915243
  0
LINE
  8
_0-4_図枠
  6
CONTINUOUS
 62
    7
 10
333.95906516424793
 20
152.07098830915243
 11
124.95906516424793
 21
152.07098830915243
  0
LINE
  8
_0-4_図枠
  6
CONTINUOUS
 62
    7
 10
333.95906516424793
 20
161.07098830915243
 11
124.95906516424793
 21
161.07098830915243
  0
TEXT
  8
_0-4_図枠
 62
    7
 10
143.95906516424793
 20
-35.42901169084746
 40
5
 41
1
 50
0
  1
ステンワッシャー
  0
TEXT
  8
_0-4_図枠
 62
    7
 10
143.95906516424793
 20
-26.42901169084746
 40
5
 41
1
 50
0
  1
ステスワッシャー
  0
TEXT
  8
_0-4_図枠
 62
    7
 10
143.95906516424793
 20
-17.42901169084746
 40
5
 41
1
 50
0
  1
ステンタッピンねじ
  0
TEXT
  8
_0-4_図枠
 62
    7
 10
143.95906516424793
 20
-8.4290116908474602
 40
5
 41
1
 50
0
  1
アンカープラグ
  0
TEXT
  8
_0-4_図枠
 62
    7
 10
143.95906516424793
 20
0.5709883091525398
 40
5
 41
1
 50
0
  1
アジャストアンカー
  0
TEXT
  8
_0-4_図枠
 62
    7
 10
143.95906516424793
 20
9.5709883091525398
 40
5
 41
1
 50
0
  1
ステン六角ボルト
  0
TEXT
  8
_0-4_図枠
 62
    7
 10
143.95906516424793
 20
36.57098830915254
 40
5
 41
1
 50
0
  1
ガスケットＮ
  0
TEXT
  8
_0-4_図枠
 62
    7
 10
143.95906516424793
 20
45.57098830915254
 40
5
 41
1
 50
0
  1
止水補助板
  0
TEXT
  8
_0-4_図枠
 62
    7
 10
143.95906516424793
 20
63.57098830915254
 40
5
 41
1
 50
0
  1
ＦＹＫｻｲﾄﾞｷｬｯﾌﾟ ｼﾞｮｲﾝﾄ
  0
TEXT
  8
_0-4_図枠
 62
    7
 10
143.95906516424793
 20
72.57098830915254
 40
5
 41
1
 50
0
  1
ＦＹＫ水切ジョイント
  0
TEXT
  8
_0-4_図枠
 62
    7
 10
143.95906516424793
 20
81.57098830915254
 40
5
 41
1
 50
0
  1
ＦＹＹフレームナット
  0
TEXT
  8
_0-4_図枠
 62
    7
 10
143.95906516424793
 20
90.57098830915254
 40
5
 41
1
 50
0
  1
ＦＹＹホルダースプリング
  0
TEXT
  8
_0-4_図枠
 62
    7
 10
143.95906516424793
 20
99.570988309152426
 40
5
 41
1
 50
0
  1
ＦＹＫホルダー
  0
TEXT
  8
_0-4_図枠
 62
    7
 10
143.95906516424793
 20
117.57098830915243
 40
5
 41
1
 50
0
  1
ＦＹＫ壁フレーム
  0
TEXT
  8
_0-4_図枠
 62
    7
 10
143.95906516424793
 20
126.57098830915243
 40
5
 41
1
 50
0
  1
ＦＹＹフレーム
  0
TEXT
  8
_0-4_図枠
 62
    7
 10
143.95906516424793
 20
135.57098830915243
 40
5
 41
1
 50
0
  1
ＦＹＫサイドキャップＡ
  0
TEXT
  8
_0-4_図枠
 62
    7
 10
143.95906516424793
 20
144.57098830915243
 40
5
 41
1
 50
0
  1
ＦＹＫキャップＡ
  0
TEXT
  8
_0-4_図枠
 62
    7
 10
276.45906516424793
 20
153.57098830915254
 40
5
 41
1
 50
0
  1
規　格
  0
TEXT
  8
_0-4_図枠
 62
    7
 10
175.45906516424793
 20
153.57098830915254
 40
5
 41
1
 50
0
  1
部材名称
  0
LINE
  8
_0-4_図枠
  6
CONTINUOUS
 62
    7
 10
714.95906516424793
 20
143.07098830915243
 11
489.95906516424793
 21
143.07098830915243
  0
LINE
  8
_0-0_0
  6
CONTINUOUS
 62
    7
 10
714.9590651642477
 20
161.0709883091522
 11
489.95906516424793
 21
161.0709883091522
  0
TEXT
  8
_0-4_図枠
 62
    7
 10
673.95906516424793
 20
161.64998868825205
 40
5
 41
1
 50
0
  1
（単位：mm）
  0
TEXT
  8
_0-4_図枠
 62
    7
 10
696.95906516424793
 20
153.57098830915231
 40
5
 41
1
 50
0
  1
Ｅ
  0
TEXT
  8
_0-4_図枠
 62
    7
 10
666.95906516424793
 20
153.57098830915231
 40
5
 41
1
 50
0
  1
Ｄ
  0
TEXT
  8
_0-4_図枠
 62
    7
 10
636.95906516424793
 20
153.57098830915231
 40
5
 41
1
 50
0
  1
Ｃ
  0
TEXT
  8
_0-4_図枠
 62
    7
 10
576.95906516424793
 20
153.57098830915231
 40
5
 41
1
 50
0
  1
Ｗ
  0
TEXT
  8
_0-4_図枠
 62
    7
 10
606.95906516424793
 20
153.57098830915231
 40
5
 41
1
 50
0
  1
Ａ
  0
TEXT
  8
_0-4_図枠
 62
    7
 10
510.45906516424793
 20
153.57098830915231
 40
5
 41
1
 50
0
  1
タ　イ　プ
  0
TEXT
  8
_0-4_図枠
 62
    7
 10
459.95906516424793
 20
108.57098830915243
 40
5
 41
1
 50
0
  1
巻
  0
TEXT
  8
_0-4_図枠
 62
    7
 10
391.95906516424793
 20
108.57098830915243
 40
5
 41
1
 50
0
  1
巻
  0
LINE
  8
_0-4_図枠
  6
CONTINUOUS
 62
    7
 10
402.95906516424793
 20
107.07098830915243
 11
469.95906516424793
 21
107.07098830915243
  0
LINE
  8
_0-4_図枠
  6
CONTINUOUS
 62
    7
 10
402.95906516424793
 20
116.07098830915243
 11
469.95906516424793
 21
116.07098830915243
  0
LINE
  8
_0-4_図枠
  6
CONTINUOUS
 62
    7
 10
401.95906516424793
 20
107.07098830915243
 11
334.95906516424793
 21
107.07098830915243
  0
LINE
  8
_0-4_図枠
  6
CONTINUOUS
 62
    7
 10
401.95906516424793
 20
116.07098830915243
 11
334.95906516424793
 21
116.07098830915243
  0
TEXT
  8
_0-4_図枠
 62
    7
 10
143.95906516424793
 20
108.57098830915243
 40
5
 41
1
 50
0
  1
ブチルテープ
  0
LINE
  8
_0-4_図枠
  6
CONTINUOUS
 62
    7
 10
124.95906516424793
 20
-36.92901169084746
 11
124.95906516424793
 21
161.07098830915243
  0
LINE
  8
_0-4_図枠
  6
CONTINUOUS
 62
    7
 10
138.95906516424793
 20
-36.92901169084746
 11
138.95906516424793
 21
161.07098830915243
  0
LINE
  8
_0-4_図枠
  6
CONTINUOUS
 62
    7
 10
238.95906516424793
 20
-36.92901169084746
 11
238.95906516424793
 21
161.07098830915243
  0
LINE
  8
_0-4_図枠
  6
CONTINUOUS
 62
    7
 10
333.95906516424793
 20
-36.92901169084746
 11
333.95906516424793
 21
161.07098830915243
  0
LINE
  8
_0-4_図枠
  6
CONTINUOUS
 62
    7
 10
334.95906516424793
 20
-36.92901169084746
 11
334.95906516424793
 21
161.07098830915243
  0
LINE
  8
_0-4_図枠
  6
CONTINUOUS
 62
    7
 10
369.95906516424793
 20
-36.92901169084746
 11
369.95906516424793
 21
161.07098830915243
  0
LINE
  8
_0-4_図枠
  6
CONTINUOUS
 62
    7
 10
387.95906516424793
 20
-36.92901169084746
 11
387.95906516424793
 21
161.07098830915243
  0
LINE
  8
_0-4_図枠
  6
CONTINUOUS
 62
    7
 10
401.95906516424793
 20
-36.92901169084746
 11
401.95906516424793
 21
161.07098830915243
  0
LINE
  8
_0-4_図枠
  6
CONTINUOUS
 62
    7
 10
402.95906516424793
 20
-36.92901169084746
 11
402.95906516424793
 21
161.07098830915243
  0
LINE
  8
_0-4_図枠
  6
CONTINUOUS
 62
    7
 10
437.95906516424793
 20
-36.92901169084746
 11
437.95906516424793
 21
161.07098830915243
  0
LINE
  8
_0-4_図枠
  6
CONTINUOUS
 62
    7
 10
455.95906516424793
 20
-36.92901169084746
 11
455.95906516424793
 21
161.07098830915243
  0
LINE
  8
_0-4_図枠
  6
CONTINUOUS
 62
    7
 10
469.95906516424793
 20
-36.92901169084746
 11
124.95906516424793
 21
-36.92901169084746
  0
LINE
  8
_0-4_図枠
  6
CONTINUOUS
 62
    7
 10
469.95906516424793
 20
-36.92901169084746
 11
469.95906516424793
 21
161.07098830915243
  0
TEXT
  8
_0-0_0
 62
    7
 10
144.15715113314673
 20
54.716815805018427
 40
5
 41
1
 50
0
  1
ウォーターガード
  0
TEXT
  8
_0-4_図枠
 62
    7
 10
391.95906516424793
 20
54.570988309152312
 40
5
 41
1
 50
0
  1
枚
  0
TEXT
  8
_0-4_図枠
 62
    7
 10
459.95906516424793
 20
54.570988309152312
 40
5
 41
1
 50
0
  1
枚
  0
LINE
  8
_0-4_図枠
  6
CONTINUOUS
 62
    7
 10
489.95906516424793
 20
161.0709883091522
 11
489.95906516424793
 21
143.07098830915243
  0
LINE
  8
_0-4_図枠
  6
CONTINUOUS
 62
    7
 10
564.95906516424793
 20
161.0709883091522
 11
564.95906516424793
 21
143.07098830915243
  0
LINE
  8
_0-4_図枠
  6
CONTINUOUS
 62
    7
 10
594.95906516424793
 20
161.0709883091522
 11
594.95906516424793
 21
143.07098830915243
  0
LINE
  8
_0-4_図枠
  6
CONTINUOUS
 62
    7
 10
624.95906516424793
 20
161.0709883091522
 11
624.95906516424793
 21
143.07098830915243
  0
LINE
  8
_0-4_図枠
  6
CONTINUOUS
 62
    7
 10
654.95906516424793
 20
161.0709883091522
 11
654.95906516424793
 21
143.07098830915243
  0
LINE
  8
_0-4_図枠
  6
CONTINUOUS
 62
    7
 10
684.95906516424793
 20
161.0709883091522
 11
684.95906516424793
 21
143.07098830915243
  0
LINE
  8
_0-4_図枠
  6
CONTINUOUS
 62
    7
 10
714.95906516424793
 20
161.0709883091522
 11
714.95906516424793
 21
143.07098830915243
  0
TEXT
  8
_0-4_図枠
 62
    7
 10
143.95906516424793
 20
27.57098830915254
 40
5
 41
1
 50
0
  1
ステン小ねじ
  0
TEXT
  8
_0-4_図枠
 62
    7
 10
143.95906516424793
 20
18.57098830915254
 40
5
 41
1
 50
0
  1
ステン小ねじ
  0
TEXT
  8
_0-0_0
 62
    7
 10
242.37866547473061
 20
54.716815805018427
 40
5
 41
1
 50
0
  1
ＳＰＶＣ
  0
LINE
  8
_0-0_0
  6
CONTINUOUS
 62
    3
 10
87.633068638584916
 20
180.18265120694093
 11
90.633068638584916
 21
179.43265120694093
  0
LINE
  8
_0-0_0
  6
CONTINUOUS
 62
    3
 10
87.633068638584916
 20
180.18265120694093
 11
90.633068638584916
 21
180.93265120694093
  0
LINE
  8
_0-0_0
  6
CONTINUOUS
 62
    3
 10
87.633068638584916
 20
197.28195520694089
 11
87.633068638584916
 21
174.18265120694093
  0
LINE
  8
_0-0_0
  6
CONTINUOUS
 62
    1
 10
87.633068638584916
 20
400.99479843326839
 11
87.633068638584916
 21
197.28195520694089
  0
LINE
  8
_0-0_0
  6
CONTINUOUS
 62
    7
 10
116.43007419613389
 20
205.75119689180838
 11
88.633067638584919
 21
309.49103766290648
  0
LINE
  8
_0-0_0
  6
CONTINUOUS
 62
    2
 10
105.83306663858497
 20
400.99479843326839
 11
105.83306663858497
 21
385.99479843326839
  0
LINE
  8
_0-0_0
  6
CONTINUOUS
 62
    2
 10
100.83306863858485
 20
400.99479843326839
 11
105.83306663858497
 21
385.99479843326839
  0
LINE
  8
_0-0_0
  6
CONTINUOUS
 62
    3
 10
102.63306863858492
 20
358.89717243326834
 11
102.63306863858492
 21
373.98697143326831
  0
LINE
  8
_0-0_0
  6
CONTINUOUS
 62
    3
 10
102.63306863858492
 20
369.98696943326831
 11
105.63306863858492
 21
369.23696943326831
  0
LINE
  8
_0-0_0
  6
CONTINUOUS
 62
    3
 10
102.63306863858492
 20
369.98696943326831
 11
105.63306863858492
 21
370.73696943326831
  0
LINE
  8
_0-0_0
  6
CONTINUOUS
 62
    3
 10
145.45512563858495
 20
400.99479843326839
 11
145.45512563858495
 21
385.99479843326839
  0
LINE
  8
_0-0_0
  6
CONTINUOUS
 62
    3
 10
114.63306863858497
 20
400.99479843326839
 11
151.455125638585
 21
400.99479843326839
  0
LINE
  8
_0-0_0
  6
CONTINUOUS
 62
    3
 10
120.63306863858497
 20
385.99479843326839
 11
151.455125638585
 21
385.99479843326839
  0
LINE
  8
_0-0_0
  6
CONTINUOUS
 62
    3
 10
145.45512563858495
 20
400.99479843326839
 11
144.70512563858495
 21
397.99479843326839
  0
LINE
  8
_0-0_0
  6
CONTINUOUS
 62
    3
 10
145.45512563858495
 20
400.99479843326839
 11
146.20512563858495
 21
397.99479843326839
  0
LINE
  8
_0-0_0
  6
CONTINUOUS
 62
    3
 10
145.45512563858495
 20
385.99479843326839
 11
146.20512563858495
 21
388.99479843326839
  0
LINE
  8
_0-0_0
  6
CONTINUOUS
 62
    3
 10
145.45512563858495
 20
385.99479843326839
 11
144.70512563858495
 21
388.99479843326839
  0
LINE
  8
_0-0_0
  6
CONTINUOUS
 62
    3
 10
145.45512563858495
 20
385.99479843326839
 11
145.45512563858495
 21
349.99479843326844
  0
LINE
  8
_0-0_0
  6
CONTINUOUS
 62
    3
 10
120.63306863858497
 20
349.99479843326844
 11
151.455125638585
 21
349.99479843326844
  0
LINE
  8
_0-0_0
  6
CONTINUOUS
 62
    3
 10
145.45512563858495
 20
385.99479843326839
 11
144.70512563858495
 21
382.99479843326839
  0
LINE
  8
_0-0_0
  6
CONTINUOUS
 62
    3
 10
145.45512563858495
 20
385.99479843326839
 11
146.20512563858495
 21
382.99479843326839
  0
LINE
  8
_0-0_0
  6
CONTINUOUS
 62
    3
 10
145.45512563858495
 20
349.99479843326844
 11
146.20512563858495
 21
352.99479843326833
  0
LINE
  8
_0-0_0
  6
CONTINUOUS
 62
    3
 10
145.45512563858495
 20
349.99479843326844
 11
144.70512563858495
 21
352.99479843326833
  0
LINE
  8
_0-0_0
  6
CONTINUOUS
 62
    2
 10
96.133067638584919
 20
373.79479743326829
 11
96.133067638584919
 21
369.99479943326833
  0
LINE
  8
_0-0_0
  6
CONTINUOUS
 62
    2
 10
97.633067638584919
 20
369.29479743326829
 11
97.633067638584919
 21
375.29479743326829
  0
LINE
  8
_0-0_0
  6
CONTINUOUS
 62
    2
 10
91.133066638585035
 20
363.29479743326829
 11
91.133066638585035
 21
373.79479743326829
  0
LINE
  8
_0-0_0
  6
CONTINUOUS
 62
    2
 10
89.133068638584916
 20
374.29479843326828
 11
89.133068638584916
 21
362.79479943326828
  0
LINE
  8
_0-0_0
  6
CONTINUOUS
 62
    2
 10
91.633067638584919
 20
368.29479843326828
 11
91.633067638584919
 21
371.54479743326829
  0
LINE
  8
_0-0_0
  6
CONTINUOUS
 62
    2
 10
93.133067638584919
 20
371.54479743326829
 11
93.133067638584919
 21
368.29479843326828
  0
LINE
  8
_0-0_0
  6
CONTINUOUS
 62
    2
 10
120.83306663858491
 20
352.19479743326826
 11
120.83306663858491
 21
383.79479943326834
  0
LINE
  8
_0-0_0
  6
CONTINUOUS
 62
    2
 10
119.63306663858498
 20
352.19479743326826
 11
119.63306663858498
 21
383.79479943326834
  0
LINE
  8
_0-0_0
  6
CONTINUOUS
 62
    2
 10
119.33306663858491
 20
383.0947974332683
 11
119.33306663858491
 21
353.59479843326824
  0
LINE
  8
_0-0_0
  6
CONTINUOUS
 62
    2
 10
118.33306763858502
 20
383.0947974332683
 11
118.33306763858502
 21
353.59479843326824
  0
LINE
  8
_0-0_0
  6
CONTINUOUS
 62
    3
 10
118.34438063858488
 20
354.3947994332683
 11
119.33306663858491
 21
355.38348543326822
  0
LINE
  8
_0-0_0
  6
CONTINUOUS
 62
    3
 10
118.33306763858502
 20
357.22322643326822
 11
119.33306663858491
 21
358.22322543326834
  0
LINE
  8
_0-0_0
  6
CONTINUOUS
 62
    3
 10
118.33306763858502
 20
360.05165343326826
 11
119.33306663858491
 21
361.05165243326837
  0
LINE
  8
_0-0_0
  6
CONTINUOUS
 62
    3
 10
118.33306763858502
 20
362.88008043326818
 11
119.33306663858491
 21
363.88007943326829
  0
LINE
  8
_0-0_0
  6
CONTINUOUS
 62
    3
 10
118.33306763858502
 20
365.70850743326832
 11
119.33306663858491
 21
366.70850643326844
  0
LINE
  8
_0-0_0
  6
CONTINUOUS
 62
    3
 10
118.33306763858502
 20
368.53693443326824
 11
119.33306663858491
 21
369.53693343326825
  0
LINE
  8
_0-0_0
  6
CONTINUOUS
 62
    3
 10
118.33306763858502
 20
371.36536143326839
 11
119.33306663858491
 21
372.36536043326828
  0
LINE
  8
_0-0_0
  6
CONTINUOUS
 62
    3
 10
118.33306763858502
 20
374.19378843326831
 11
119.33306663858491
 21
375.1937874332682
  0
LINE
  8
_0-0_0
  6
CONTINUOUS
 62
    3
 10
118.33306763858502
 20
377.02221543326823
 11
119.33306663858491
 21
378.02221443326818
  0
LINE
  8
_0-0_0
  6
CONTINUOUS
 62
    3
 10
118.33306763858502
 20
379.85064243326826
 11
119.33306663858491
 21
380.85064143326821
  0
LINE
  8
_0-0_0
  6
CONTINUOUS
 62
    3
 10
118.33306763858502
 20
382.6790694332683
 11
119.24767763858495
 21
383.59367943326828
  0
LINE
  8
_0-0_0
  6
CONTINUOUS
 62
    3
 10
116.42036963858504
 20
383.59479843326818
 11
117.42036863858493
 21
384.5947974332683
  0
LINE
  8
_0-0_0
  6
CONTINUOUS
 62
    3
 10
113.59194263858501
 20
383.59479843326818
 11
114.5919416385849
 21
384.5947974332683
  0
LINE
  8
_0-0_0
  6
CONTINUOUS
 62
    3
 10
110.76351563858498
 20
383.59479843326818
 11
111.76351463858487
 21
384.5947974332683
  0
LINE
  8
_0-0_0
  6
CONTINUOUS
 62
    3
 10
107.93508863858494
 20
383.59479843326818
 11
108.93508763858483
 21
384.5947974332683
  0
LINE
  8
_0-0_0
  6
CONTINUOUS
 62
    3
 10
105.10666163858485
 20
383.59479843326818
 11
106.10666063858497
 21
384.5947974332683
  0
LINE
  8
_0-0_0
  6
CONTINUOUS
 62
    3
 10
102.27823463858505
 20
383.59479843326818
 11
103.27823363858494
 21
384.5947974332683
  0
LINE
  8
_0-0_0
  6
CONTINUOUS
 62
    3
 10
99.489647638585041
 20
383.6346414332682
 11
100.4498066385849
 21
384.5947974332683
  0
LINE
  8
_0-0_0
  6
CONTINUOUS
 62
    3
 10
98.333066638584967
 20
385.30648743326816
 11
99.333068638584848
 21
386.30648643326828
  0
ARC
  8
_0-0_0
  6
CONTINUOUS
 62
    2
 10
102.9249506385849
 20
391.8947994332683
 40
0.3999989999999998
 50
346.29976700000003
 51
90.000000000000071
  0
ARC
  8
_0-0_0
  6
CONTINUOUS
 62
    2
 10
102.9249506385849
 20
393.6947994332682
 40
0.3999989999999998
 50
270
 51
13.700232999999979
  0
LINE
  8
_0-0_0
  6
CONTINUOUS
 62
    2
 10
102.89878763858491
 20
393.29479743326823
 11
102.89878763858491
 21
392.29479843326828
  0
ARC
  8
_0-0_0
  6
CONTINUOUS
 62
    2
 10
100.70316263858496
 20
391.5911274332683
 40
2.3000009999999995
 50
273.23783700000001
 51
320.69087599999995
  0
ARC
  8
_0-0_0
  6
CONTINUOUS
 62
    2
 10
100.70015963858503
 20
394.00214643326831
 40
2.3000009999999995
 50
39.179510999999984
 51
86.687257000000002
  0
ARC
  8
_0-0_0
  6
CONTINUOUS
 62
    2
 10
99.233069638584936
 20
392.79479943326834
 40
4.1999999999999993
 50
320.69062899999994
 51
39.303130999999972
  0
ARC
  8
_0-0_0
  6
CONTINUOUS
 62
    2
 10
99.033068638585007
 20
395.39479743326837
 40
0.5999999999999996
 50
270
 51
90
  0
ARC
  8
_0-0_0
  6
CONTINUOUS
 62
    2
 10
99.033068638585007
 20
390.19479843326832
 40
0.5999999999999996
 50
270
 51
90
  0
LINE
  8
_0-0_0
  6
CONTINUOUS
 62
    2
 10
97.633067638584919
 20
395.99479743326816
 11
99.033068638585007
 21
395.99479743326816
  0
LINE
  8
_0-0_0
  6
CONTINUOUS
 62
    2
 10
98.333066638584967
 20
383.89479843326825
 11
98.333066638584967
 21
389.59479843326818
  0
LINE
  8
_0-0_0
  6
CONTINUOUS
 62
    2
 10
98.333066638584967
 20
389.59479843326818
 11
99.033068638585007
 21
389.59479843326818
  0
LINE
  8
_0-0_0
  6
CONTINUOUS
 62
    2
 10
97.633067638584919
 20
396.79479843326828
 11
97.633067638584919
 21
395.99479743326816
  0
ARC
  8
_0-0_0
  6
CONTINUOUS
 62
    2
 10
89.133068638584916
 20
396.29479743326823
 40
0.500001
 50
90
 51
180
  0
LINE
  8
_0-0_0
  6
CONTINUOUS
 62
    2
 10
92.133068638584916
 20
391.29479943326834
 11
91.633067638584919
 21
390.79479843326828
  0
LINE
  8
_0-0_0
  6
CONTINUOUS
 62
    2
 10
92.633066638585035
 20
390.79479843326828
 11
92.133068638584916
 21
391.29479943326834
  0
LINE
  8
_0-0_0
  6
CONTINUOUS
 62
    2
 10
93.133067638584919
 20
391.29479943326834
 11
92.633066638585035
 21
390.79479843326828
  0
LINE
  8
_0-0_0
  6
CONTINUOUS
 62
    2
 10
93.633068638584916
 20
390.79479843326828
 11
93.133067638584919
 21
391.29479943326834
  0
LINE
  8
_0-0_0
  6
CONTINUOUS
 62
    2
 10
94.133066638585035
 20
391.29479943326834
 11
93.633068638584916
 21
390.79479843326828
  0
LINE
  8
_0-0_0
  6
CONTINUOUS
 62
    2
 10
94.633067638584919
 20
390.79479843326828
 11
94.133066638585035
 21
391.29479943326834
  0
LINE
  8
_0-0_0
  6
CONTINUOUS
 62
    2
 10
95.133068638584916
 20
391.29479943326834
 11
94.633067638584919
 21
390.79479843326828
  0
LINE
  8
_0-0_0
  6
CONTINUOUS
 62
    2
 10
95.633066638585035
 20
390.79479843326828
 11
95.133068638584916
 21
391.29479943326834
  0
LINE
  8
_0-0_0
  6
CONTINUOUS
 62
    2
 10
96.133067638584919
 20
391.29479943326834
 11
95.633066638585035
 21
390.79479843326828
  0
LINE
  8
_0-0_0
  6
CONTINUOUS
 62
    2
 10
96.633068638584916
 20
390.79479843326828
 11
96.133067638584919
 21
391.29479943326834
  0
LINE
  8
_0-0_0
  6
CONTINUOUS
 62
    2
 10
92.133068638584916
 20
394.29479943326834
 11
91.633067638584919
 21
394.79479743326823
  0
LINE
  8
_0-0_0
  6
CONTINUOUS
 62
    2
 10
92.633066638585035
 20
394.79479743326823
 11
92.133068638584916
 21
394.29479943326834
  0
LINE
  8
_0-0_0
  6
CONTINUOUS
 62
    2
 10
93.133067638584919
 20
394.29479943326834
 11
92.633066638585035
 21
394.79479743326823
  0
LINE
  8
_0-0_0
  6
CONTINUOUS
 62
    2
 10
93.633068638584916
 20
394.79479743326823
 11
93.133067638584919
 21
394.29479943326834
  0
LINE
  8
_0-0_0
  6
CONTINUOUS
 62
    2
 10
94.133066638585035
 20
394.29479943326834
 11
93.633068638584916
 21
394.79479743326823
  0
LINE
  8
_0-0_0
  6
CONTINUOUS
 62
    2
 10
94.633067638584919
 20
394.79479743326823
 11
94.133066638585035
 21
394.29479943326834
  0
LINE
  8
_0-0_0
  6
CONTINUOUS
 62
    2
 10
95.133068638584916
 20
394.29479943326834
 11
94.633067638584919
 21
394.79479743326823
  0
LINE
  8
_0-0_0
  6
CONTINUOUS
 62
    2
 10
95.633066638585035
 20
394.79479743326823
 11
95.133068638584916
 21
394.29479943326834
  0
LINE
  8
_0-0_0
  6
CONTINUOUS
 62
    2
 10
96.133067638584919
 20
394.29479943326834
 11
95.633066638585035
 21
394.79479743326823
  0
LINE
  8
_0-0_0
  6
CONTINUOUS
 62
    2
 10
96.633068638584916
 20
394.79479743326823
 11
96.133067638584919
 21
394.29479943326834
  0
LINE
  8
_0-0_0
  6
CONTINUOUS
 62
    2
 10
96.633068638584916
 20
390.79479843326828
 11
99.133067638584919
 21
390.79479843326828
  0
LINE
  8
_0-0_0
  6
CONTINUOUS
 62
    2
 10
96.633068638584916
 20
394.79479743326823
 11
99.133067638584919
 21
394.79479743326823
  0
ARC
  8
_0-0_0
  6
CONTINUOUS
 62
    2
 10
90.433067638584987
 20
394.49479743326816
 40
0.2999999999999998
 50
90
 51
180
  0
LINE
  8
_0-0_0
  6
CONTINUOUS
 62
    2
 10
90.433067638584987
 20
394.79479743326823
 11
91.633067638584919
 21
394.79479743326823
  0
LINE
  8
_0-0_0
  6
CONTINUOUS
 62
    2
 10
90.433067638584987
 20
390.79479843326828
 11
91.633067638584919
 21
390.79479843326828
  0
ARC
  8
_0-0_0
  6
CONTINUOUS
 62
    2
 10
90.433067638584987
 20
391.09479843326818
 40
0.2999999999999998
 50
180
 51
270
  0
LINE
  8
_0-0_0
  6
CONTINUOUS
 62
    2
 10
90.133067638584919
 20
391.09479843326818
 11
90.133067638584919
 21
394.49479743326816
  0
LINE
  8
_0-0_0
  6
CONTINUOUS
 62
    2
 10
95.633066638585035
 20
374.29479843326828
 11
91.633067638584919
 21
374.29479843326828
  0
ARC
  8
_0-0_0
  6
CONTINUOUS
 62
    2
 10
95.633066638585035
 20
373.79479743326829
 40
0.500001
 50
0
 51
90
  0
ARC
  8
_0-0_0
  6
CONTINUOUS
 62
    2
 10
97.133066638585035
 20
375.29479743326829
 40
0.500001
 50
0
 51
90
  0
LINE
  8
_0-0_0
  6
CONTINUOUS
 62
    2
 10
97.133066638585035
 20
375.79479843326828
 11
91.633067638584919
 21
375.79479843326828
  0
ARC
  8
_0-0_0
  6
CONTINUOUS
 62
    2
 10
91.633067638584919
 20
376.29479943326828
 40
0.500001
 50
180
 51
270
  0
ARC
  8
_0-0_0
  6
CONTINUOUS
 62
    2
 10
91.633067638584919
 20
373.79479743326829
 40
0.500001
 50
90
 51
180
  0
ARC
  8
_0-0_0
  6
CONTINUOUS
 62
    2
 10
103.23306863858494
 20
382.99479843326839
 40
0.5999999999999996
 50
270
 51
90
  0
LINE
  8
_0-0_0
  6
CONTINUOUS
 62
    2
 10
91.133066638585035
 20
388.29479943326834
 11
91.133066638585035
 21
376.29479943326828
  0
ARC
  8
_0-0_0
  6
CONTINUOUS
 62
    2
 10
91.633067638584919
 20
388.29479943326834
 40
0.500001
 50
90
 51
180
  0
LINE
  8
_0-0_0
  6
CONTINUOUS
 62
    2
 10
96.633068638584916
 20
388.79479743326823
 11
91.633067638584919
 21
388.79479743326823
  0
ARC
  8
_0-0_0
  6
CONTINUOUS
 62
    2
 10
96.633068638584916
 20
388.29479943326834
 40
0.500001
 50
0
 51
90
  0
LINE
  8
_0-0_0
  6
CONTINUOUS
 62
    2
 10
98.133068638584916
 20
382.39479843326825
 11
103.23306863858494
 21
382.39479843326825
  0
ARC
  8
_0-0_0
  6
CONTINUOUS
 62
    2
 10
98.133068638584916
 20
383.39479743326837
 40
0.9999989999999996
 50
180
 51
270
  0
LINE
  8
_0-0_0
  6
CONTINUOUS
 62
    2
 10
97.133066638585035
 20
383.39479743326837
 11
97.133066638585035
 21
388.29479943326834
  0
ARC
  8
_0-0_0
  6
CONTINUOUS
 62
    2
 10
98.633066638585035
 20
383.89479843326825
 40
0.2999999999999998
 50
180
 51
270
  0
LINE
  8
_0-0_0
  6
CONTINUOUS
 62
    2
 10
88.633067638584919
 20
374.29479843326828
 11
89.133068638584916
 21
374.29479843326828
  0
LINE
  8
_0-0_0
  6
CONTINUOUS
 62
    2
 10
89.133068638584916
 20
375.79479843326828
 11
88.633067638584919
 21
375.79479843326828
  0
LINE
  8
_0-0_0
  6
CONTINUOUS
 62
    2
 10
89.133068638584916
 20
388.79479743326823
 11
89.133068638584916
 21
375.79479843326828
  0
LINE
  8
_0-0_0
  6
CONTINUOUS
 62
    2
 10
88.633067638584919
 20
388.79479743326823
 11
89.133068638584916
 21
388.79479743326823
  0
ARC
  8
_0-0_0
  6
CONTINUOUS
 62
    2
 10
92.383067638584919
 20
371.54479743326829
 40
0.75
 50
0
 51
180
  0
LINE
  8
_0-0_0
  6
CONTINUOUS
 62
    1
 10
87.633068638584916
 20
400.99479843326839
 11
112.63306763858486
 21
400.99479843326839
  0
LINE
  8
_0-0_0
  6
CONTINUOUS
 62
    2
 10
99.633068638584916
 20
386.99479743326816
 11
99.633068638584916
 21
395.79479943326834
  0
ARC
  8
_0-0_0
  6
CONTINUOUS
 62
    2
 10
101.83306763858496
 20
386.99479743326816
 40
2.199999
 50
180
 51
270
  0
LINE
  8
_0-0_0
  6
CONTINUOUS
 62
    2
 10
101.83306763858496
 20
384.79479843326828
 11
118.63306763858486
 21
384.79479843326828
  0
LINE
  8
_0-0_0
  6
CONTINUOUS
 62
    2
 10
98.633066638585035
 20
397.99479843326839
 11
90.833066638584967
 21
397.99479843326839
  0
ARC
  8
_0-0_0
  6
CONTINUOUS
 62
    2
 10
98.633066638585035
 20
395.79479943326834
 40
2.199999
 50
0
 51
90
  0
LINE
  8
_0-0_0
  6
CONTINUOUS
 62
    2
 10
100.83306863858485
 20
395.79479943326834
 11
100.83306863858485
 21
386.99479743326816
  0
LINE
  8
_0-0_0
  6
CONTINUOUS
 62
    2
 10
118.63306763858486
 20
385.99479843326839
 11
101.83306763858496
 21
385.99479843326839
  0
ARC
  8
_0-0_0
  6
CONTINUOUS
 62
    2
 10
118.63306763858486
 20
383.79479943326834
 40
2.199999
 50
0
 51
90
  0
ARC
  8
_0-0_0
  6
CONTINUOUS
 62
    2
 10
118.63306763858486
 20
383.79479943326834
 40
0.9999989999999996
 50
0
 51
90
  0
ARC
  8
_0-0_0
  6
CONTINUOUS
 62
    2
 10
101.83306763858496
 20
386.99479743326816
 40
0.9999989999999996
 50
180
 51
270
  0
LINE
  8
_0-0_0
  6
CONTINUOUS
 62
    2
 10
98.633066638585035
 20
396.79479843326828
 11
89.133068638584916
 21
396.79479843326828
  0
ARC
  8
_0-0_0
  6
CONTINUOUS
 62
    2
 10
98.633066638585035
 20
395.79479943326834
 40
0.9999989999999996
 50
0
 51
90
  0
LINE
  8
_0-0_0
  6
CONTINUOUS
 62
    2
 10
100.83306863858485
 20
400.99479843326839
 11
100.83306863858485
 21
395.79479943326834
  0
LINE
  8
_0-0_0
  6
CONTINUOUS
 62
    1
 10
112.63306763858486
 20
422.00764443326835
 11
112.63306763858486
 21
400.99479843326839
  0
LINE
  8
_0-0_0
  6
CENTER1
 62
    3
 10
87.335087638584866
 20
392.79479943326834
 11
106.15196363858485
 21
392.79479943326834
  0
LINE
  8
_0-0_0
  6
DASHED1
 62
    3
 10
99.633068638584916
 20
390.79479843326828
 11
100.83306863858485
 21
390.79479843326828
  0
LINE
  8
_0-0_0
  6
DASHED1
 62
    3
 10
99.633068638584916
 20
394.79479743326823
 11
100.83306863858485
 21
394.79479743326823
  0
LINE
  8
_0-0_0
  6
DASHED1
 62
    3
 10
99.633068638584916
 20
391.29479943326834
 11
100.83306863858485
 21
391.29479943326834
  0
LINE
  8
_0-0_0
  6
DASHED1
 62
    3
 10
99.633068638584916
 20
394.29479943326834
 11
100.83306863858485
 21
394.29479943326834
  0
LINE
  8
_0-0_0
  6
CONTINUOUS
 62
    3
 10
90.833066638584967
 20
391.29479943326834
 11
99.633068638584916
 21
391.29479943326834
  0
LINE
  8
_0-0_0
  6
CONTINUOUS
 62
    3
 10
90.833066638584967
 20
394.29479943326834
 11
99.633068638584916
 21
394.29479943326834
  0
LINE
  8
_0-0_0
  6
CONTINUOUS
 62
    2
 10
99.033068638585007
 20
390.79479843326828
 11
99.633068638584916
 21
390.79479843326828
  0
LINE
  8
_0-0_0
  6
CONTINUOUS
 62
    2
 10
99.033068638585007
 20
394.79479743326823
 11
99.633068638584916
 21
394.79479743326823
  0
LINE
  8
_0-0_0
  6
CONTINUOUS
 62
    2
 10
90.833066638584967
 20
394.29479943326834
 11
90.833066638584967
 21
391.29479943326834
  0
LINE
  8
_0-0_0
  6
CONTINUOUS
 62
    2
 10
90.833066638584967
 20
391.29479943326834
 11
91.333067638584964
 21
390.79479843326828
  0
LINE
  8
_0-0_0
  6
CONTINUOUS
 62
    2
 10
91.333067638584964
 20
394.79479743326823
 11
91.333067638584964
 21
390.79479843326828
  0
LINE
  8
_0-0_0
  6
CONTINUOUS
 62
    2
 10
90.833066638584967
 20
394.29479943326834
 11
91.333067638584964
 21
394.79479743326823
  0
LINE
  8
_0-0_0
  6
CONTINUOUS
 62
    2
 10
90.833066638584967
 20
397.99479843326839
 11
90.833066638584967
 21
396.79479843326828
  0
LINE
  8
_0-0_0
  6
CONTINUOUS
 62
    2
 10
99.333068638584848
 20
388.59479943326824
 11
99.333068638584848
 21
385.09479843326818
  0
LINE
  8
_0-0_0
  6
CONTINUOUS
 62
    2
 10
98.333066638584967
 20
388.59479943326824
 11
99.333068638584848
 21
388.59479943326824
  0
ARC
  8
_0-0_0
  6
CONTINUOUS
 62
    2
 10
117.83306663858491
 20
383.0947974332683
 40
1.5
 50
0
 51
90
  0
LINE
  8
_0-0_0
  6
CONTINUOUS
 62
    2
 10
117.83306663858491
 20
384.5947974332683
 11
99.833066638584967
 21
384.5947974332683
  0
LINE
  8
_0-0_0
  6
CONTINUOUS
 62
    2
 10
117.83306663858491
 20
383.59479843326818
 11
98.633066638585035
 21
383.59479843326818
  0
ARC
  8
_0-0_0
  6
CONTINUOUS
 62
    2
 10
117.83306663858491
 20
383.0947974332683
 40
0.500001
 50
0
 51
90
  0
ARC
  8
_0-0_0
  6
CONTINUOUS
 62
    2
 10
99.833066638584967
 20
385.09479843326818
 40
0.500001
 50
180
 51
270
  0
LINE
  8
_0-0_0
  6
CONTINUOUS
 62
    3
 10
98.792951638584952
 20
388.59479943326824
 11
98.333066638584967
 21
388.13491443326819
  0
ARC
  8
_0-0_0
  6
CONTINUOUS
 62
    2
 10
99.833066638584967
 20
385.09479843326818
 40
1.5
 50
180
 51
270
  0
LINE
  8
_0-0_0
  6
CONTINUOUS
 62
    3
 10
45.050111638584951
 20
342.29479743326817
 11
33.757190638584973
 21
342.29479743326817
  0
LINE
  8
_0-0_0
  6
CONTINUOUS
 62
    3
 10
37.757189638584975
 20
342.29479743326817
 11
37.007189638584975
 21
339.29479743326817
  0
LINE
  8
_0-0_0
  6
CONTINUOUS
 62
    3
 10
37.757189638584975
 20
342.29479743326817
 11
38.507189638584975
 21
339.29479743326817
  0
LINE
  8
_0-0_0
  6
CENTER1
 62
    3
 10
43.66522163858491
 20
342.29479743326817
 11
95.715776638584941
 21
342.29479743326817
  0
LINE
  8
_0-0_0
  6
CONTINUOUS
 62
    2
 10
118.98970763858483
 20
342.56341743326823
 11
118.89966263858491
 21
340.84527543326828
  0
LINE
  8
_0-0_0
  6
CONTINUOUS
 62
    2
 10
128.97600263858499
 20
342.0400584332682
 11
128.88595763858496
 21
340.32191643326826
  0
LINE
  8
_0-0_0
  6
CONTINUOUS
 62
    2
 10
91.633067638584919
 20
323.29479843326828
 11
102.38306663858503
 21
323.29479843326828
  0
ARC
  8
_0-0_0
  6
CONTINUOUS
 62
    2
 10
91.633067638584919
 20
323.79479943326839
 40
0.500001
 50
180
 51
270
  0
LINE
  8
_0-0_0
  6
CONTINUOUS
 62
    2
 10
91.133066638585035
 20
323.79479943326839
 11
91.133066638585035
 21
360.79479843326828
  0
LINE
  8
_0-0_0
  6
CONTINUOUS
 62
    2
 10
118.89966263858491
 20
340.84527543326828
 11
117.43425563858489
 21
312.88364943326826
  0
ARC
  8
_0-0_0
  6
CONTINUOUS
 62
    2
 10
89.133068638584916
 20
321.29479743326817
 40
0.500001
 50
0
 51
90
  0
LINE
  8
_0-0_0
  6
CONTINUOUS
 62
    2
 10
89.133068638584916
 20
321.79479843326828
 11
88.633067638584919
 21
321.79479843326828
  0
LINE
  8
_0-0_0
  6
CONTINUOUS
 62
    2
 10
97.383068638584916
 20
309.79479843326828
 11
88.633067638584919
 21
309.79479843326828
  0
LINE
  8
_0-0_0
  6
CONTINUOUS
 62
    2
 10
89.133068638584916
 20
311.29479843326828
 11
88.633067638584919
 21
311.29479843326828
  0
ARC
  8
_0-0_0
  6
CONTINUOUS
 62
    2
 10
89.133068638584916
 20
311.79479943326839
 40
0.500001
 50
270
 51
0
  0
LINE
  8
_0-0_0
  6
CONTINUOUS
 62
    2
 10
89.633066638585035
 20
311.79479943326839
 11
89.633066638585035
 21
321.29479743326817
  0
LINE
  8
_0-0_0
  6
CONTINUOUS
 62
    2
 10
91.133066638585035
 20
311.79479943326839
 11
91.133066638585035
 21
314.79479943326839
  0
LINE
  8
_0-0_0
  6
CONTINUOUS
 62
    2
 10
96.133067638584919
 20
311.29479843326828
 11
96.133067638584919
 21
310.79479743326817
  0
LINE
  8
_0-0_0
  6
CONTINUOUS
 62
    2
 10
95.133068638584916
 20
311.29479843326828
 11
96.133067638584919
 21
310.79479743326817
  0
LINE
  8
_0-0_0
  6
CONTINUOUS
 62
    2
 10
95.133068638584916
 20
311.29479843326828
 11
95.133068638584916
 21
310.79479743326817
  0
LINE
  8
_0-0_0
  6
CONTINUOUS
 62
    2
 10
94.133066638585035
 20
311.29479843326828
 11
95.133068638584916
 21
310.79479743326817
  0
ARC
  8
_0-0_0
  6
CONTINUOUS
 62
    2
 10
97.383068638584916
 20
310.54479843326828
 40
0.75
 50
270
 51
90
  0
LINE
  8
_0-0_0
  6
CONTINUOUS
 62
    2
 10
91.633067638584919
 20
311.29479843326828
 11
94.133066638585035
 21
311.29479843326828
  0
ARC
  8
_0-0_0
  6
CONTINUOUS
 62
    2
 10
91.633067638584919
 20
311.79479943326839
 40
0.500001
 50
180
 51
270
  0
ARC
  8
_0-0_0
  6
CONTINUOUS
 62
    2
 10
102.38306663858503
 20
322.54479843326828
 40
0.75
 50
270
 51
90
  0
ARC
  8
_0-0_0
  6
CONTINUOUS
 62
    2
 10
94.733066638584944
 20
368.89479843326831
 40
0.5999999999999996
 50
90
 51
270
  0
ARC
  8
_0-0_0
  6
CONTINUOUS
 62
    2
 10
95.633066638585035
 20
369.99479943326833
 40
0.500001
 50
270
 51
0
  0
LINE
  8
_0-0_0
  6
CONTINUOUS
 62
    2
 10
95.633066638585035
 20
369.49479843326844
 11
94.733066638584944
 21
369.49479843326844
  0
LINE
  8
_0-0_0
  6
CONTINUOUS
 62
    2
 10
96.633068638584916
 20
368.29479843326828
 11
94.733066638584944
 21
368.29479843326828
  0
ARC
  8
_0-0_0
  6
CONTINUOUS
 62
    2
 10
96.633068638584916
 20
369.29479743326829
 40
0.9999989999999996
 50
270
 51
0
  0
LINE
  8
_0-0_0
  6
CONTINUOUS
 62
    2
 10
91.633067638584919
 20
321.79479843326828
 11
102.38306663858503
 21
321.79479843326828
  0
ARC
  8
_0-0_0
  6
CONTINUOUS
 62
    2
 10
91.633067638584919
 20
321.29479743326817
 40
0.500001
 50
90
 51
180
  0
LINE
  8
_0-0_0
  6
CONTINUOUS
 62
    2
 10
91.133066638585035
 20
321.29479743326817
 11
91.133066638585035
 21
317.29479843326828
  0
LINE
  8
_0-0_0
  6
CONTINUOUS
 62
    2
 10
101.13306863858492
 20
361.79479743326829
 11
101.13306863858492
 21
362.29479843326828
  0
ARC
  8
_0-0_0
  6
CONTINUOUS
 62
    2
 10
100.63306763858492
 20
361.79479743326829
 40
0.500001
 50
270
 51
0
  0
LINE
  8
_0-0_0
  6
CONTINUOUS
 62
    2
 10
100.63306763858492
 20
361.29479943326828
 11
91.633067638584919
 21
361.29479943326828
  0
ARC
  8
_0-0_0
  6
CONTINUOUS
 62
    2
 10
100.63306763858492
 20
362.29479843326828
 40
0.500001
 50
0
 51
90
  0
ARC
  8
_0-0_0
  6
CONTINUOUS
 62
    2
 10
91.633067638584919
 20
360.79479843326828
 40
0.500001
 50
90
 51
180
  0
ARC
  8
_0-0_0
  6
CONTINUOUS
 62
    2
 10
97.383068638584916
 20
316.04479743326817
 40
0.75
 50
270
 51
90
  0
LINE
  8
_0-0_0
  6
CONTINUOUS
 62
    2
 10
96.133067638584919
 20
315.79479843326828
 11
96.133067638584919
 21
315.29479743326817
  0
LINE
  8
_0-0_0
  6
CONTINUOUS
 62
    2
 10
95.133068638584916
 20
315.29479743326817
 11
96.133067638584919
 21
315.79479843326828
  0
LINE
  8
_0-0_0
  6
CONTINUOUS
 62
    2
 10
95.133068638584916
 20
315.79479843326828
 11
95.133068638584916
 21
315.29479743326817
  0
LINE
  8
_0-0_0
  6
CONTINUOUS
 62
    2
 10
94.133066638585035
 20
315.29479743326817
 11
95.133068638584916
 21
315.79479843326828
  0
LINE
  8
_0-0_0
  6
CONTINUOUS
 62
    2
 10
91.633067638584919
 20
315.29479743326817
 11
94.133066638585035
 21
315.29479743326817
  0
ARC
  8
_0-0_0
  6
CONTINUOUS
 62
    2
 10
91.633067638584919
 20
314.79479943326839
 40
0.500001
 50
90
 51
180
  0
ARC
  8
_0-0_0
  6
CONTINUOUS
 62
    2
 10
91.633067638584919
 20
317.29479843326828
 40
0.500001
 50
180
 51
270
  0
LINE
  8
_0-0_0
  6
CONTINUOUS
 62
    2
 10
91.633067638584919
 20
316.79479743326817
 11
97.383068638584916
 21
316.79479743326817
  0
LINE
  8
_0-0_0
  6
CONTINUOUS
 62
    2
 10
91.633067638584919
 20
362.79479943326828
 11
100.63306763858492
 21
362.79479943326828
  0
ARC
  8
_0-0_0
  6
CONTINUOUS
 62
    2
 10
91.633067638584919
 20
363.29479743326829
 40
0.500001
 50
180
 51
270
  0
LINE
  8
_0-0_0
  6
CONTINUOUS
 62
    2
 10
91.133066638585035
 20
341.79479943326839
 11
90.633068638584916
 21
342.29479743326817
  0
LINE
  8
_0-0_0
  6
CONTINUOUS
 62
    2
 10
91.133066638585035
 20
342.79479843326828
 11
90.633068638584916
 21
342.29479743326817
  0
LINE
  8
_0-0_0
  6
CONTINUOUS
 62
    2
 10
89.133068638584916
 20
323.29479843326828
 11
88.633067638584919
 21
323.29479843326828
  0
LINE
  8
_0-0_0
  6
CONTINUOUS
 62
    2
 10
89.133068638584916
 20
337.29479943326839
 11
89.133068638584916
 21
323.29479843326828
  0
LINE
  8
_0-0_0
  6
CONTINUOUS
 62
    2
 10
88.633067638584919
 20
337.29479943326839
 11
89.133068638584916
 21
337.29479943326839
  0
LINE
  8
_0-0_0
  6
CONTINUOUS
 62
    2
 10
88.633067638584919
 20
347.29479843326828
 11
89.133068638584916
 21
347.29479843326828
  0
LINE
  8
_0-0_0
  6
CONTINUOUS
 62
    2
 10
89.133068638584916
 20
361.29479943326828
 11
89.133068638584916
 21
347.29479843326828
  0
LINE
  8
_0-0_0
  6
CONTINUOUS
 62
    2
 10
88.633067638584919
 20
361.29479943326828
 11
89.133068638584916
 21
361.29479943326828
  0
LINE
  8
_0-0_0
  6
CONTINUOUS
 62
    2
 10
89.133068638584916
 20
362.79479943326828
 11
88.633067638584919
 21
362.79479943326828
  0
LINE
  8
_0-0_0
  6
CONTINUOUS
 62
    2
 10
98.733068638584939
 20
329.79479943326839
 11
98.733068638584939
 21
357.79479843326828
  0
LINE
  8
_0-0_0
  6
CONTINUOUS
 62
    2
 10
96.733067638584828
 20
328.29479943326839
 11
96.733067638584828
 21
358.29479943326839
  0
LINE
  8
_0-0_0
  6
CONTINUOUS
 62
    2
 10
110.68073063858492
 20
318.74513343326828
 11
115.72484663858495
 21
318.48078243326825
  0
ARC
  8
_0-0_0
  6
CONTINUOUS
 62
    2
 10
110.73306863858488
 20
319.74376443326821
 40
0.9999989999999996
 50
180.00000000000006
 51
267.00000000000006
  0
LINE
  8
_0-0_0
  6
CONTINUOUS
 62
    2
 10
109.733066638585
 20
319.74376443326821
 11
109.733066638585
 21
326.79479943326839
  0
LINE
  8
_0-0_0
  6
CONTINUOUS
 62
    2
 10
107.23306763858483
 20
317.81963043326823
 11
107.23306763858483
 21
325.29479943326839
  0
ARC
  8
_0-0_0
  6
CONTINUOUS
 62
    2
 10
109.23306863858488
 20
317.81963043326823
 40
2.0000010000000001
 50
180.00000000000006
 51
267.00000000000006
  0
LINE
  8
_0-0_0
  6
CONTINUOUS
 62
    2
 10
109.12839563858483
 20
315.82237143326824
 11
116.06715263858496
 21
315.45872643326823
  0
LINE
  8
_0-0_0
  6
CONTINUOUS
 62
    2
 10
107.73306863858488
 20
328.79479743326817
 11
99.733067638584828
 21
328.79479743326817
  0
ARC
  8
_0-0_0
  6
CONTINUOUS
 62
    2
 10
107.73306863858488
 20
326.79479943326839
 40
2.0000010000000001
 50
0
 51
90
  0
LINE
  8
_0-0_0
  6
CONTINUOUS
 62
    2
 10
106.23306863858494
 20
326.29479843326828
 11
95.733068638584939
 21
326.29479843326828
  0
ARC
  8
_0-0_0
  6
CONTINUOUS
 62
    2
 10
106.23306863858494
 20
325.29479943326839
 40
0.9999989999999996
 50
0
 51
90
  0
ARC
  8
_0-0_0
  6
CONTINUOUS
 62
    2
 10
99.733067638584828
 20
329.79479943326839
 40
0.9999989999999996
 50
180
 51
270
  0
LINE
  8
_0-0_0
  6
CONTINUOUS
 62
    2
 10
96.233066638584944
 20
327.79479843326828
 11
94.733066638584944
 21
327.79479843326828
  0
ARC
  8
_0-0_0
  6
CONTINUOUS
 62
    2
 10
96.233066638584944
 20
328.29479943326839
 40
0.500001
 50
270
 51
0
  0
ARC
  8
_0-0_0
  6
CONTINUOUS
 62
    2
 10
95.733068638584939
 20
325.79479743326817
 40
0.500001
 50
90
 51
180
  0
LINE
  8
_0-0_0
  6
CONTINUOUS
 62
    2
 10
95.233067638584828
 20
325.79479743326817
 11
95.233067638584828
 21
324.04479843326828
  0
LINE
  8
_0-0_0
  6
CONTINUOUS
 62
    2
 10
116.25032663858497
 20
318.95393043326828
 11
116.35109963858497
 21
320.87679543326828
  0
ARC
  8
_0-0_0
  6
CONTINUOUS
 62
    2
 10
115.75101263858505
 20
318.98009643326816
 40
0.500001
 50
267
 51
357.00000000000023
  0
LINE
  8
_0-0_0
  6
CONTINUOUS
 62
    2
 10
116.06715263858496
 20
315.45872643326823
 11
115.988648638585
 21
313.96078143326838
  0
ARC
  8
_0-0_0
  6
CONTINUOUS
 62
    2
 10
94.483067638584828
 20
324.04479843326828
 40
0.75
 50
180
 51
0
  0
ARC
  8
_0-0_0
  6
CONTINUOUS
 62
    2
 10
94.733066638584944
 20
326.79479943326839
 40
0.9999989999999996
 50
90
 51
180
  0
LINE
  8
_0-0_0
  6
CONTINUOUS
 62
    2
 10
93.733067638584828
 20
326.79479943326839
 11
93.733067638584828
 21
324.04479843326828
  0
LINE
  8
_0-0_0
  6
CONTINUOUS
 62
    2
 10
116.87658263858498
 20
321.34994343326809
 11
117.37589963858488
 21
321.32377443326823
  0
ARC
  8
_0-0_0
  6
CONTINUOUS
 62
    2
 10
116.85041663858499
 20
320.85062943326818
 40
0.500001
 50
87
 51
176.99999999999997
  0
ARC
  8
_0-0_0
  6
CONTINUOUS
 62
    2
 10
116.48796263858492
 20
313.93461543326828
 40
0.500001
 50
177.00000000000003
 51
267.00000000000006
  0
ARC
  8
_0-0_0
  6
CONTINUOUS
 62
    2
 10
117.3497306385849
 20
320.8244604332682
 40
0.500001
 50
357.00000000000006
 51
87.000000000000028
  0
LINE
  8
_0-0_0
  6
CONTINUOUS
 62
    2
 10
116.46179363858494
 20
313.43529843326826
 11
116.96111063858484
 21
313.40913243326816
  0
ARC
  8
_0-0_0
  6
CONTINUOUS
 62
    2
 10
116.98727663858494
 20
313.9084464332683
 40
0.500001
 50
267
 51
357.00000000000023
  0
ARC
  8
_0-0_0
  6
DASHED1
 62
    3
 10
146.10454163858503
 20
315.38659143326834
 40
1.5
 50
267
 51
87.000000000000185
  0
LINE
  8
_0-0_0
  6
CONTINUOUS
 62
    2
 10
104.73306863858494
 20
351.29479743326829
 11
103.73306663858494
 21
351.29479743326829
  0
ARC
  8
_0-0_0
  6
CONTINUOUS
 62
    2
 10
104.73306863858494
 20
351.79479843326828
 40
0.500001
 50
270
 51
0
  0
LINE
  8
_0-0_0
  6
CONTINUOUS
 62
    2
 10
105.23306663858494
 20
351.79479843326828
 11
105.23306663858494
 21
365.29479843326828
  0
LINE
  8
_0-0_0
  6
CONTINUOUS
 62
    2
 10
98.233067638584828
 20
359.79479943326839
 11
102.73100963858491
 21
359.79479943326839
  0
ARC
  8
_0-0_0
  6
CONTINUOUS
 62
    2
 10
98.233067638584828
 20
358.29479943326839
 40
1.5
 50
90
 51
180
  0
LINE
  8
_0-0_0
  6
CONTINUOUS
 62
    2
 10
104.23306763858483
 20
366.29479743326829
 11
96.633068638584916
 21
366.29479743326829
  0
ARC
  8
_0-0_0
  6
CONTINUOUS
 62
    2
 10
104.23306763858483
 20
365.29479843326828
 40
0.9999989999999996
 50
0
 51
90
  0
LINE
  8
_0-0_0
  6
CONTINUOUS
 62
    2
 10
99.233066638584944
 20
358.29479943326839
 11
103.23306863858494
 21
358.29479943326839
  0
ARC
  8
_0-0_0
  6
CONTINUOUS
 62
    2
 10
99.233066638584944
 20
357.79479843326828
 40
0.500001
 50
90
 51
180
  0
LINE
  8
_0-0_0
  6
CONTINUOUS
 62
    2
 10
96.234722638584856
 20
364.79479743326829
 11
96.234722638584856
 21
363.3947994332683
  0
ARC
  8
_0-0_0
  6
CONTINUOUS
 62
    2
 10
103.23101063858502
 20
364.29479943326828
 40
0.500001
 50
0
 51
90
  0
LINE
  8
_0-0_0
  6
CONTINUOUS
 62
    2
 10
103.73100863858491
 20
360.79479843326828
 11
103.73100863858491
 21
364.29479943326828
  0
ARC
  8
_0-0_0
  6
CONTINUOUS
 62
    2
 10
102.73100963858491
 20
360.79479843326828
 40
0.9999989999999996
 50
270
 51
0
  0
LINE
  8
_0-0_0
  6
CONTINUOUS
 62
    2
 10
103.73306663858494
 20
357.79479843326828
 11
103.73306663858494
 21
353.29479843326828
  0
ARC
  8
_0-0_0
  6
CONTINUOUS
 62
    2
 10
103.23306863858494
 20
357.79479843326828
 40
0.500001
 50
0
 51
90
  0
ARC
  8
_0-0_0
  6
CONTINUOUS
 62
    2
 10
103.73306663858494
 20
352.29479943326828
 40
0.9999989999999996
 50
90
 51
270
  0
ARC
  8
_0-0_0
  6
CONTINUOUS
 62
    2
 10
93.133067638584919
 20
368.29479843326828
 40
1.5
 50
180
 51
240.25511899999998
  0
LINE
  8
_0-0_0
  6
CONTINUOUS
 62
    2
 10
92.388860638584958
 20
366.99243543326827
 11
96.234722638584856
 21
364.79479743326829
  0
LINE
  8
_0-0_0
  6
CONTINUOUS
 62
    2
 10
97.434722638585015
 20
364.79479743326829
 11
103.23101063858502
 21
364.79479743326829
  0
LINE
  8
_0-0_0
  6
CONTINUOUS
 62
    2
 10
97.434722638585015
 20
363.3947994332683
 11
97.434722638585015
 21
364.79479743326829
  0
LINE
  8
_0-0_0
  6
CONTINUOUS
 62
    2
 10
93.133067638584919
 20
368.29479843326828
 11
96.633068638584916
 21
366.29479743326829
  0
ARC
  8
_0-0_0
  6
CONTINUOUS
 62
    2
 10
96.834722638584992
 20
363.3947994332683
 40
0.5999999999999996
 50
180
 51
0
  0
LINE
  8
_0-0_0
  6
CONTINUOUS
 62
    2
 10
97.383068638584916
 20
311.29479843326828
 11
96.133067638584919
 21
311.29479843326828
  0
LINE
  8
_0-0_0
  6
CONTINUOUS
 62
    2
 10
97.383068638584916
 20
315.29479743326817
 11
96.133067638584919
 21
315.29479743326817
  0
ARC
  8
_0-0_0
  6
CONTINUOUS
 62
    2
 10
118.63306763858486
 20
352.19479743326826
 40
2.199999
 50
270
 51
0
  0
ARC
  8
_0-0_0
  6
CONTINUOUS
 62
    2
 10
118.63306763858486
 20
352.19479743326826
 40
0.9999989999999996
 50
270
 51
0
  0
LINE
  8
_0-0_0
  6
CONTINUOUS
 62
    2
 10
118.63306763858486
 20
351.19479843326826
 11
110.83306763858502
 21
351.19479843326826
  0
LINE
  8
_0-0_0
  6
DASHED1
 62
    3
 10
91.633067638584919
 20
359.73576543326828
 11
96.133067638584919
 21
359.73576543326828
  0
LINE
  8
_0-0_0
  6
DASHED1
 62
    3
 10
74.718425638584847
 20
340.03517343326837
 11
75.633068638584916
 21
338.29479843326828
  0
LINE
  8
_0-0_0
  6
DASHED1
 62
    3
 10
75.633068638584916
 20
338.29479843326828
 11
87.633068638584916
 21
338.29479843326828
  0
LINE
  8
_0-0_0
  6
DASHED1
 62
    3
 10
67.832690638585007
 20
345.85385643326833
 11
72.832688638584898
 21
347.67370743326831
  0
LINE
  8
_0-0_0
  6
DASHED1
 62
    3
 10
67.832690638585007
 20
346.9180344332683
 11
72.490670638584959
 21
348.61340043326823
  0
LINE
  8
_0-0_0
  6
DASHED1
 62
    3
 10
67.832690638585007
 20
338.73574143326823
 11
72.832688638584898
 21
336.91589043326837
  0
LINE
  8
_0-0_0
  6
DASHED1
 62
    3
 10
72.490670638584959
 20
335.97619743326823
 11
79.294292638584977
 21
334.98384243326825
  0
ARC
  8
_0-0_0
  6
DASHED1
 62
    3
 10
79.352024638584851
 20
335.37965343326823
 40
0.3999989999999998
 50
261.70153399999998
 51
351.86989799999998
  0
LINE
  8
_0-0_0
  6
DASHED1
 62
    3
 10
79.748003638584976
 20
335.32308543326837
 11
79.77611963858493
 21
335.51990943326825
  0
ARC
  8
_0-0_0
  6
DASHED1
 62
    3
 10
79.380140638585033
 20
335.57648043326833
 40
0.3999989999999998
 50
351.86989800000003
 51
81.869898000000049
  0
LINE
  8
_0-0_0
  6
DASHED1
 62
    3
 10
79.436708638584889
 20
335.97245943326823
 11
72.832688638584898
 21
336.91589043326837
  0
LINE
  8
_0-0_0
  6
DASHED1
 62
    3
 10
72.490670638584959
 20
348.61340043326823
 11
79.294292638584977
 21
349.60575543326831
  0
ARC
  8
_0-0_0
  6
DASHED1
 62
    3
 10
79.352024638584851
 20
349.20994143326823
 40
0.3999989999999998
 50
8.1301019999999866
 51
98.298465999999991
  0
LINE
  8
_0-0_0
  6
DASHED1
 62
    3
 10
79.748003638584976
 20
349.2665124332683
 11
79.77611963858493
 21
349.06968543326809
  0
ARC
  8
_0-0_0
  6
DASHED1
 62
    3
 10
79.380140638585033
 20
349.01311743326823
 40
0.3999989999999998
 50
278.13010200000008
 51
8.1301020000000506
  0
LINE
  8
_0-0_0
  6
DASHED1
 62
    3
 10
79.633067638584919
 20
342.79479843326828
 11
79.633067638584919
 21
342.29479743326817
  0
LINE
  8
_0-0_0
  6
DASHED1
 62
    3
 10
75.633068638584916
 20
346.29479943326839
 11
74.718425638584847
 21
344.5544214332682
  0
LINE
  8
_0-0_0
  6
DASHED1
 62
    3
 10
87.633068638584916
 20
347.29479843326828
 11
82.633067638584919
 21
346.29479943326839
  0
LINE
  8
_0-0_0
  6
DASHED1
 62
    3
 10
87.633068638584916
 20
343.29479943326839
 11
82.633067638584919
 21
342.29479743326817
  0
LINE
  8
_0-0_0
  6
DASHED1
 62
    3
 10
87.633068638584916
 20
341.29479843326828
 11
82.633067638584919
 21
342.29479743326817
  0
LINE
  8
_0-0_0
  6
DASHED1
 62
    3
 10
82.633067638584919
 20
342.29479743326817
 11
87.633068638584916
 21
342.29479743326817
  0
LINE
  8
_0-0_0
  6
DASHED1
 62
    3
 10
53.50251263858496
 20
344.16424443326821
 11
51.633068638584916
 21
342.29479743326817
  0
LINE
  8
_0-0_0
  6
DASHED1
 62
    3
 10
74.718425638584847
 20
344.5544214332682
 11
72.721166638584862
 21
344.65909443326825
  0
LINE
  8
_0-0_0
  6
DASHED1
 62
    3
 10
72.721166638584862
 20
344.65909443326825
 11
72.825836638584917
 21
346.65635343326824
  0
LINE
  8
_0-0_0
  6
DASHED1
 62
    3
 10
72.825836638584917
 20
346.65635343326824
 11
70.828577638584932
 21
346.76102643326828
  0
LINE
  8
_0-0_0
  6
DASHED1
 62
    3
 10
50.672810638584963
 20
344.31254043326828
 11
50.855987638584963
 21
347.80774443326823
  0
LINE
  8
_0-0_0
  6
DASHED1
 62
    3
 10
50.855987638584963
 20
347.80774443326823
 11
48.75405563858493
 21
345.91515843326829
  0
LINE
  8
_0-0_0
  6
DASHED1
 62
    3
 10
48.75405563858493
 20
345.91515843326829
 11
48.675551638584977
 21
344.41721343326833
  0
LINE
  8
_0-0_0
  6
DASHED1
 62
    3
 10
48.675551638584977
 20
344.41721343326833
 11
79.633067638584919
 21
342.79479843326828
  0
LINE
  8
_0-0_0
  6
DASHED1
 62
    3
 10
70.828577638584932
 20
346.76102643326828
 11
69.725276638584944
 21
344.81610243326827
  0
LINE
  8
_0-0_0
  6
DASHED1
 62
    3
 10
69.725276638584944
 20
344.81610243326827
 11
67.728017638584959
 21
344.9207754332682
  0
LINE
  8
_0-0_0
  6
DASHED1
 62
    3
 10
67.728017638584959
 20
344.9207754332682
 11
67.832690638585007
 21
346.9180344332683
  0
LINE
  8
_0-0_0
  6
DASHED1
 62
    3
 10
67.832690638585007
 20
346.9180344332683
 11
65.835431638585021
 21
347.02270443326813
  0
LINE
  8
_0-0_0
  6
DASHED1
 62
    3
 10
65.835431638585021
 20
347.02270443326813
 11
64.732127638584927
 21
345.07778343326834
  0
LINE
  8
_0-0_0
  6
DASHED1
 62
    3
 10
64.732127638584927
 20
345.07778343326834
 11
62.734868638584942
 21
345.18245343326828
  0
LINE
  8
_0-0_0
  6
DASHED1
 62
    3
 10
62.734868638584942
 20
345.18245343326828
 11
62.83954163858499
 21
347.17971243326826
  0
LINE
  8
_0-0_0
  6
DASHED1
 62
    3
 10
62.83954163858499
 20
347.17971243326826
 11
60.842282638584891
 21
347.28438543326808
  0
LINE
  8
_0-0_0
  6
DASHED1
 62
    3
 10
60.842282638584891
 20
347.28438543326808
 11
59.738981638585017
 21
345.33946143326841
  0
LINE
  8
_0-0_0
  6
DASHED1
 62
    3
 10
59.738981638585017
 20
345.33946143326841
 11
57.741722638585031
 21
345.44413443326823
  0
LINE
  8
_0-0_0
  6
DASHED1
 62
    3
 10
57.741722638585031
 20
345.44413443326823
 11
57.846392638584859
 21
347.44139343326844
  0
LINE
  8
_0-0_0
  6
DASHED1
 62
    3
 10
57.846392638584859
 20
347.44139343326844
 11
55.849133638584874
 21
347.54606643326827
  0
LINE
  8
_0-0_0
  6
DASHED1
 62
    3
 10
55.849133638584874
 20
347.54606643326827
 11
54.745832638584886
 21
345.60114243326836
  0
LINE
  8
_0-0_0
  6
DASHED1
 62
    3
 10
54.745832638584886
 20
345.60114243326836
 11
52.748573638584901
 21
345.70581243326831
  0
LINE
  8
_0-0_0
  6
DASHED1
 62
    3
 10
52.748573638584901
 20
345.70581243326831
 11
52.853246638584949
 21
347.70307143326829
  0
LINE
  8
_0-0_0
  6
DASHED1
 62
    3
 10
52.853246638584949
 20
347.70307143326829
 11
50.855987638584963
 21
347.80774443326823
  0
LINE
  8
_0-0_0
  6
DASHED1
 62
    3
 10
79.633067638584919
 20
341.79479943326839
 11
79.633067638584919
 21
342.29479743326817
  0
LINE
  8
_0-0_0
  6
DASHED1
 62
    3
 10
87.633068638584916
 20
337.29479943326839
 11
82.633067638584919
 21
338.29479843326828
  0
LINE
  8
_0-0_0
  6
DASHED1
 62
    3
 10
74.718425638584847
 20
340.03517343326837
 11
72.721166638584862
 21
339.9305034332682
  0
LINE
  8
_0-0_0
  6
DASHED1
 62
    3
 10
72.721166638584862
 20
339.9305034332682
 11
72.825836638584917
 21
337.93324443326821
  0
LINE
  8
_0-0_0
  6
DASHED1
 62
    3
 10
72.825836638584917
 20
337.93324443326821
 11
70.828577638584932
 21
337.82857143326817
  0
LINE
  8
_0-0_0
  6
DASHED1
 62
    3
 10
50.672810638584963
 20
340.27705743326828
 11
50.855987638584963
 21
336.78185343326822
  0
LINE
  8
_0-0_0
  6
DASHED1
 62
    3
 10
50.855987638584963
 20
336.78185343326822
 11
48.75405563858493
 21
338.67443943326828
  0
LINE
  8
_0-0_0
  6
DASHED1
 62
    3
 10
48.75405563858493
 20
338.67443943326828
 11
48.675551638584977
 21
340.17238443326823
  0
LINE
  8
_0-0_0
  6
DASHED1
 62
    3
 10
48.675551638584977
 20
340.17238443326823
 11
79.633067638584919
 21
341.79479943326839
  0
LINE
  8
_0-0_0
  6
DASHED1
 62
    3
 10
70.828577638584932
 20
337.82857143326817
 11
69.725276638584944
 21
339.77349543326829
  0
LINE
  8
_0-0_0
  6
DASHED1
 62
    3
 10
69.725276638584944
 20
339.77349543326829
 11
67.728017638584959
 21
339.66882243326825
  0
LINE
  8
_0-0_0
  6
DASHED1
 62
    3
 10
67.728017638584959
 20
339.66882243326825
 11
67.832690638585007
 21
337.67156343326826
  0
LINE
  8
_0-0_0
  6
DASHED1
 62
    3
 10
67.832690638585007
 20
337.67156343326826
 11
65.835431638585021
 21
337.56689343326832
  0
LINE
  8
_0-0_0
  6
DASHED1
 62
    3
 10
65.835431638585021
 20
337.56689343326832
 11
64.732127638584927
 21
339.51181443326823
  0
LINE
  8
_0-0_0
  6
DASHED1
 62
    3
 10
64.732127638584927
 20
339.51181443326823
 11
62.734868638584942
 21
339.4071444332684
  0
LINE
  8
_0-0_0
  6
DASHED1
 62
    3
 10
62.734868638584942
 20
339.4071444332684
 11
62.83954163858499
 21
337.40988543326841
  0
LINE
  8
_0-0_0
  6
DASHED1
 62
    3
 10
62.83954163858499
 20
337.40988543326841
 11
60.842282638584891
 21
337.30521243326837
  0
LINE
  8
_0-0_0
  6
DASHED1
 62
    3
 10
60.842282638584891
 20
337.30521243326837
 11
59.738981638585017
 21
339.25013643326827
  0
LINE
  8
_0-0_0
  6
DASHED1
 62
    3
 10
59.738981638585017
 20
339.25013643326827
 11
57.741722638585031
 21
339.14546343326845
  0
LINE
  8
_0-0_0
  6
DASHED1
 62
    3
 10
57.741722638585031
 20
339.14546343326845
 11
57.846392638584859
 21
337.14820443326823
  0
LINE
  8
_0-0_0
  6
DASHED1
 62
    3
 10
57.846392638584859
 20
337.14820443326823
 11
55.849133638584874
 21
337.04353143326841
  0
LINE
  8
_0-0_0
  6
DASHED1
 62
    3
 10
55.849133638584874
 20
337.04353143326841
 11
54.745832638584886
 21
338.98845543326809
  0
LINE
  8
_0-0_0
  6
DASHED1
 62
    3
 10
54.745832638584886
 20
338.98845543326809
 11
52.748573638584901
 21
338.88378243326827
  0
LINE
  8
_0-0_0
  6
DASHED1
 62
    3
 10
52.748573638584901
 20
338.88378243326827
 11
52.853246638584949
 21
336.88652343326828
  0
LINE
  8
_0-0_0
  6
DASHED1
 62
    3
 10
52.853246638584949
 20
336.88652343326828
 11
50.855987638584963
 21
336.78185343326822
  0
LINE
  8
_0-0_0
  6
DASHED1
 62
    3
 10
53.50251263858496
 20
340.42535343326824
 11
51.633068638584916
 21
342.29479743326817
  0
LINE
  8
_0-0_0
  6
DASHED1
 62
    3
 10
79.436708638584889
 20
348.61713843326822
 11
72.832688638584898
 21
347.67370743326831
  0
LINE
  8
_0-0_0
  6
DASHED1
 62
    3
 10
67.832690638585007
 20
337.67156343326826
 11
72.490670638584959
 21
335.97619743326823
  0
LINE
  8
_0-0_0
  6
DASHED1
 62
    3
 10
75.633068638584916
 20
346.29479943326839
 11
87.633068638584916
 21
346.29479943326839
  0
LINE
  8
_0-0_0
  6
CONTINUOUS
 62
    2
 10
118.33306763858502
 20
353.59479843326824
 11
119.33306663858491
 21
353.59479843326824
  0
LINE
  8
_0-0_0
  6
CONTINUOUS
 62
    3
 10
118.95859463858494
 20
353.59479843326824
 11
119.33306663858491
 21
353.96927043326821
  0
ARC
  8
_0-0_0
  6
DASHED1
 62
    3
 10
99.133067638584919
 20
346.60817643326823
 40
7.5
 50
180.00000000000006
 51
267.00000000000006
  0
LINE
  8
_0-0_0
  6
DASHED1
 62
    3
 10
91.633067638584919
 20
346.60817643326823
 11
91.633067638584919
 21
359.73576543326828
  0
LINE
  8
_0-0_0
  6
DASHED1
 62
    3
 10
98.976059638585014
 20
343.6122894332683
 11
103.47605963858501
 21
343.37645343326824
  0
ARC
  8
_0-0_0
  6
DASHED1
 62
    3
 10
99.133067638584919
 20
346.60817643326823
 40
3
 50
180.00000000000006
 51
267.00000000000006
  0
LINE
  8
_0-0_0
  6
DASHED1
 62
    3
 10
96.133067638584919
 20
346.60817643326823
 11
96.133067638584919
 21
359.73576543326828
  0
LINE
  8
_0-0_0
  6
CONTINUOUS
 62
    2
 10
102.63306863858492
 20
346.37234043326828
 11
102.63306863858492
 21
357.42337743326823
  0
ARC
  8
_0-0_0
  6
CONTINUOUS
 62
    2
 10
103.63306763858492
 20
346.37234043326828
 40
0.9999989999999996
 50
180.00000000000006
 51
267.00000000000006
  0
LINE
  8
_0-0_0
  6
CONTINUOUS
 62
    2
 10
100.63306763858492
 20
346.37234043326828
 11
100.63306763858492
 21
357.42337743326823
  0
ARC
  8
_0-0_0
  6
CONTINUOUS
 62
    2
 10
103.63306763858492
 20
346.37234043326828
 40
3
 50
180.00000000000006
 51
267.00000000000006
  0
LINE
  8
_0-0_0
  6
CONTINUOUS
 62
    2
 10
100.63306763858492
 20
357.42337743326823
 11
102.63306863858492
 21
357.42337743326823
  0
LINE
  8
_0-0_0
  6
CONTINUOUS
 62
    3
 10
121.88051663858494
 20
342.41191743326829
 11
120.24345263858504
 21
340.77485043326828
  0
LINE
  8
_0-0_0
  6
CONTINUOUS
 62
    3
 10
123.22430663858495
 20
342.3414924332684
 11
121.58723963858495
 21
340.70442543326828
  0
LINE
  8
_0-0_0
  6
CONTINUOUS
 62
    3
 10
124.56809363858486
 20
342.27106743326829
 11
122.93102963858496
 21
340.6340004332684
  0
LINE
  8
_0-0_0
  6
CONTINUOUS
 62
    3
 10
125.91188363858498
 20
342.20064243326817
 11
124.27481663858487
 21
340.56357543326828
  0
LINE
  8
_0-0_0
  6
CONTINUOUS
 62
    3
 10
127.255670638585
 20
342.13021743326829
 11
125.61860663858499
 21
340.49315043326817
  0
LINE
  8
_0-0_0
  6
CONTINUOUS
 62
    3
 10
128.5994606385849
 20
342.05979243326829
 11
126.96239363858501
 21
340.42272543326828
  0
LINE
  8
_0-0_0
  6
CONTINUOUS
 62
    3
 10
128.30618363858491
 20
340.35230043326828
 11
128.9197046385849
 21
340.96582143326816
  0
LINE
  8
_0-0_0
  6
CONTINUOUS
 62
    3
 10
120.54747863858495
 20
342.48177843326823
 11
118.91041463858505
 21
340.84471143326823
  0
LINE
  8
_0-0_0
  6
CONTINUOUS
 62
    3
 10
119.1929396385849
 20
342.55276743326829
 11
118.97787863858491
 21
342.3377034332683
  0
LINE
  8
_0-0_0
  6
CONTINUOUS
 62
    3
 10
111.84551363858486
 20
348.99479943326821
 11
111.83290763858497
 21
348.98422143326832
  0
LINE
  8
_0-0_0
  6
CONTINUOUS
 62
    2
 10
87.633068638584916
 20
396.79479843326828
 11
88.633067638584919
 21
396.79479843326828
  0
LINE
  8
_0-0_0
  6
CONTINUOUS
 62
    2
 10
88.633067638584919
 20
396.79479843326828
 11
88.633067638584919
 21
309.79479843326828
  0
ARC
  8
_0-0_0
  6
CONTINUOUS
 62
    2
 10
130.63306763858486
 20
393.49479843326839
 40
19.5
 50
157.38013499999997
 51
202.619865
  0
LINE
  8
_0-0_0
  6
CONTINUOUS
 62
    3
 10
87.633068638584916
 20
401.99479743326816
 11
87.633068638584916
 21
479.30758498526609
  0
LINE
  8
_0-0_0
  6
CONTINUOUS
 62
    3
 10
87.633068638584916
 20
473.30758498526609
 11
90.633068638584916
 21
472.55758498526609
  0
LINE
  8
_0-0_0
  6
CONTINUOUS
 62
    3
 10
87.633068638584916
 20
473.30758498526609
 11
90.633068638584916
 21
474.05758498526609
  0
LINE
  8
_0-0_0
  6
CONTINUOUS
 62
    4
 10
100.83306863858485
 20
430.55009767914532
 11
120.83306663858491
 21
430.55009767914532
  0
LINE
  8
_0-0_0
  6
CONTINUOUS
 62
    4
 10
100.83306863858485
 20
430.55009767914532
 11
104.69677194374111
 21
431.58537385955549
  0
LINE
  8
_0-0_0
  6
CONTINUOUS
 62
    4
 10
100.83306863858485
 20
430.55009767914532
 11
104.69677194374111
 21
429.51482149873516
  0
LINE
  8
_0-0_0
  6
CONTINUOUS
 62
    4
 10
120.83306663858491
 20
430.55009767914532
 11
116.96936333342865
 21
431.58537385955549
  0
LINE
  8
_0-0_0
  6
CONTINUOUS
 62
    4
 10
120.83306663858491
 20
430.55009767914532
 11
116.96936333342865
 21
429.51482149873516
  0
LINE
  8
_0-0_0
  6
CONTINUOUS
 62
    4
 10
100.83306863858485
 20
432.55009767914532
 11
100.83306863858485
 21
406.99479843326839
  0
LINE
  8
_0-0_0
  6
CONTINUOUS
 62
    4
 10
120.83306663858491
 20
432.55009767914532
 11
120.83306663858491
 21
389.79479943326834
  0
LINE
  8
_0-0_0
  6
CONTINUOUS
 62
    4
 10
87.633068638584916
 20
452.86642323568935
 11
120.83306663858491
 21
452.86642323568935
  0
LINE
  8
_0-0_0
  6
CONTINUOUS
 62
    4
 10
87.633068638584916
 20
452.86642323568935
 11
91.49677194374118
 21
453.9016994160994
  0
LINE
  8
_0-0_0
  6
CONTINUOUS
 62
    4
 10
87.633068638584916
 20
452.86642323568935
 11
91.49677194374118
 21
451.8311470552793
  0
LINE
  8
_0-0_0
  6
CONTINUOUS
 62
    4
 10
120.83306663858491
 20
452.86642323568935
 11
116.96936333342865
 21
453.9016994160994
  0
LINE
  8
_0-0_0
  6
CONTINUOUS
 62
    4
 10
120.83306663858491
 20
452.86642323568935
 11
116.96936333342865
 21
451.8311470552793
  0
LINE
  8
_0-0_0
  6
CONTINUOUS
 62
    4
 10
120.83306663858491
 20
454.86642323568935
 11
120.83306663858491
 21
438.55009767914532
  0
CIRCLE
  8
_0-4_図枠
  6
CONTINUOUS
 62
    4
 10
74.05639132700486
 20
432.42278671900124
 40
6
  0
LINE
  8
_0-4_図枠
  6
CONTINUOUS
 62
    4
 10
96.866407544756896
 20
392.91467970838511
 11
77.05639132700486
 21
427.22663429629421
  0
CIRCLE
  8
_0-4_図枠
  6
CONTINUOUS
 62
    4
 10
96.866407544756896
 20
392.91467970838511
 40
0.9
  0
CIRCLE
  8
_0-4_図枠
  6
CONTINUOUS
 62
    4
 10
73.282324921547854
 20
411.70716768884841
 40
6
  0
LINE
  8
_0-4_図枠
  6
CONTINUOUS
 62
    4
 10
94.401440164220787
 20
375.12778707763573
 11
76.282324921547854
 21
406.51101526614156
  0
CIRCLE
  8
_0-4_図枠
  6
CONTINUOUS
 62
    4
 10
94.401440164220787
 20
375.12778707763573
 40
0.9
  0
CIRCLE
  8
_0-4_図枠
  6
CONTINUOUS
 62
    4
 10
68.983927258080087
 20
368.71293480941927
 40
6
  0
LINE
  8
_0-4_図枠
  6
CONTINUOUS
 62
    4
 10
92.712390839902184
 20
344.98447122759706
 11
73.226567945199179
 21
364.47029412230006
  0
CIRCLE
  8
_0-4_図枠
  6
CONTINUOUS
 62
    4
 10
92.712390839902184
 20
344.98447122759706
 40
0.9
  0
CIRCLE
  8
_0-4_図枠
  6
CONTINUOUS
 62
    4
 10
70.728799135704719
 20
326.18168279231816
 40
6
  0
LINE
  8
_0-4_図枠
  6
CONTINUOUS
 62
    4
 10
91.154601633397704
 20
337.97452536277569
 11
75.924951558410783
 21
329.18168279231816
  0
CIRCLE
  8
_0-4_図枠
  6
CONTINUOUS
 62
    4
 10
91.154601633397704
 20
337.97452536277569
 40
0.9
  0
LINE
  8
_0-3_躯体と製品
  6
CONTINUOUS
 62
    7
 10
92.633068638584916
 20
333.29479743326829
 11
92.633068638584916
 21
351.29479743326817
  0
LINE
  8
_0-3_躯体と製品
  6
CONTINUOUS
 62
    7
 10
92.633068638584916
 20
351.29479743326817
 11
91.133068638584916
 21
351.29479743326817
  0
LINE
  8
_0-3_躯体と製品
  6
CONTINUOUS
 62
    7
 10
92.633068638584916
 20
333.29479743326829
 11
91.133068638584916
 21
333.29479743326829
  0
ARC
  8
_0-3_躯体と製品
  6
CONTINUOUS
 62
    7
 10
92.504359092617904
 20
340.79203443326833
 40
3
 50
272.45892599999632
 51
321.38536200000192
  0
ARC
  8
_0-3_躯体と製品
  6
CONTINUOUS
 62
    7
 10
90.63307009261797
 20
342.29479743326817
 40
5.4000000000000004
 50
321.31781300000171
 51
0.0000000000000127
  0
ARC
  8
_0-3_躯体と製品
  6
CONTINUOUS
 62
    7
 10
90.63307009261797
 20
342.29479743326817
 40
5.4000000000000004
 50
0
 51
38.851062000003751
  0
ARC
  8
_0-3_躯体と製品
  6
CONTINUOUS
 62
    7
 10
92.504359092617904
 20
343.79755743326837
 40
3
 50
38.614637999998109
 51
87.541074000003704
  0
CIRCLE
  8
_0-4_図枠
  6
CONTINUOUS
 62
    4
 10
42.512181713952089
 20
366.44589290565818
 40
6
  0
LINE
  8
_0-4_図枠
  6
CONTINUOUS
 62
    4
 10
55.010305821038003
 20
344.79850695288349
 11
45.512181713952089
 21
361.24974048295167
  0
CIRCLE
  8
_0-4_図枠
  6
CONTINUOUS
 62
    4
 10
55.010305821038003
 20
344.79850695288349
 40
0.9
  0
CIRCLE
  8
_0-4_図枠
  6
CONTINUOUS
 62
    4
 10
138.07845774807026
 20
423.82540215068985
 40
6
  0
LINE
  8
_0-4_図枠
  6
CONTINUOUS
 62
    4
 10
116.84163624323935
 20
387.04214831305279
 11
135.07845774807026
 21
418.62924972798311
  0
CIRCLE
  8
_0-4_図枠
  6
CONTINUOUS
 62
    4
 10
116.84163624323935
 20
387.04214831305279
 40
0.9
  0
CIRCLE
  8
_0-4_図枠
  6
CONTINUOUS
 62
    4
 10
146.40795519382539
 20
300.79566590558716
 40
6
  0
LINE
  8
_0-4_図枠
  6
CONTINUOUS
 62
    4
 10
119.51634749699531
 20
347.37329673370721
 11
143.40795519382539
 21
305.99181832829379
  0
CIRCLE
  8
_0-4_図枠
  6
CONTINUOUS
 62
    4
 10
119.51634749699531
 20
347.37329673370721
 40
0.9
  0
TEXT
  8
_0-0_0
 62
    7
 10
97.814659745218648
 20
453.71706998270645
 40
6
 41
1
 50
0
  1
33.5
  0
TEXT
  8
_0-0_0
 62
    7
 10
107.8726976900947
 20
432.16413152940061
 40
6
 41
1
 50
0
  1
20
  0
TEXT
  8
_0-0_0
 62
    7
 10
143.80713400795059
 20
386.37359035930683
 40
6
 41
1
 50
90
  1
１５
  0
TEXT
  8
_0-0_0
 62
    7
 10
144.14503001953653
 20
363.90350558883904
 40
6
 41
1
 50
90
  1
３６
  0
TEXT
  8
_0-0_0
 62
    7
 10
35.93500187347621
 20
303.29007166939664
 40
6
 41
1
 50
90
  1
Ｄ
  0
TEXT
  8
_0-4_図枠
 62
    7
 10
70.80639132700486
 20
429.42278671900124
 40
6
 41
1
 50
0
  1
15
  0
TEXT
  8
_0-4_図枠
 62
    7
 10
135.07845774807026
 20
420.82540215068997
 40
6
 41
1
 50
0
  1
２
  0
CIRCLE
  8
_0-4_図枠
  6
CONTINUOUS
 62
    4
 10
143.57464011477953
 20
410.64921939557041
 40
6
  0
LINE
  8
_0-4_図枠
  6
CONTINUOUS
 62
    4
 10
119.10578372850352
 20
368.26791693143275
 11
140.57464011478066
 21
405.45306697286378
  0
CIRCLE
  8
_0-4_図枠
  6
CONTINUOUS
 62
    4
 10
119.10578372850352
 20
368.26791693143275
 40
0.9
  0
TEXT
  8
_0-4_図枠
 62
    7
 10
140.45763543588055
 20
407.24171827810511
 40
6
 41
1
 50
0
  1
10
  0
TEXT
  8
_0-4_図枠
 62
    7
 10
70.282324921547854
 20
408.7071676888483
 40
6
 41
1
 50
0
  1
４
  0
TEXT
  8
_0-4_図枠
 62
    7
 10
39.262181713952089
 20
363.44589290565841
 40
6
 41
1
 50
0
  1
18
  0
TEXT
  8
_0-4_図枠
 62
    7
 10
65.733927258080087
 20
365.71293480941938
 40
6
 41
1
 50
0
  1
19
  0
TEXT
  8
_0-4_図枠
 62
    7
 10
67.478799135704719
 20
323.18168279231804
 40
6
 41
1
 50
0
  1
21
  0
TEXT
  8
_0-4_図枠
 62
    7
 10
143.15795519382539
 20
297.79566590558727
 40
6
 41
1
 50
0
  1
13
  0
CIRCLE
  8
_0-4_図枠
  6
CONTINUOUS
 62
    4
 10
131.42414056206439
 20
241.05243912481933
 40
6
  0
LINE
  8
_0-4_図枠
  6
CONTINUOUS
 62
    4
 10
114.54085337564356
 20
211.80972791916054
 11
128.42414056206553
 21
235.85628670211293
  0
CIRCLE
  8
_0-4_図枠
  6
CONTINUOUS
 62
    4
 10
114.54085337564356
 20
211.80972791916054
 40
0.9
  0
TEXT
  8
_0-4_図枠
 62
    7
 10
128.17414056206439
 20
238.05243912481933
 40
6
 41
1
 50
0
  1
12
  0
LINE
  8
_0-0_0
  6
CONTINUOUS
 62
    7
 10
115.46414836984479
 20
205.49237784670595
 11
87.633068638584916
 21
309.35938143326814
  0
LINE
  8
_0-0_0
  6
CONTINUOUS
 62
    7
 10
88.633067638584919
 20
309.79479843326828
 11
88.633067638584919
 21
309.49103766290648
  0
ARC
  8
_0-0_0
  6
CONTINUOUS
 62
    7
 10
140.25806764538459
 20
393.49479844959205
 40
28.62499999999828
 50
164.81071326281631
 51
195.18928673718369
  0
LINE
  8
_0-0_0
  6
CONTINUOUS
 62
    4
 10
106.13306764538623
 20
399.60375215249996
 11
107.52411394247792
 21
400.99479844959149
  0
LINE
  8
_0-0_0
  6
CONTINUOUS
 62
    4
 10
106.13306764538623
 20
396.77532502775318
 11
110.35254106722471
 21
400.99479844959149
  0
LINE
  8
_0-0_0
  6
CONTINUOUS
 62
    4
 10
106.13306764538623
 20
393.94689790300663
 11
112.44329538411489
 21
400.25712564173546
  0
LINE
  8
_0-0_0
  6
CONTINUOUS
 62
    4
 10
106.13306764538623
 20
391.11847077825996
 11
111.82583500744988
 21
396.81123814032355
  0
LINE
  8
_0-0_0
  6
CONTINUOUS
 62
    4
 10
106.13306764538623
 20
388.29004365351318
 11
111.63460621261788
 21
393.79158222074477
  0
LINE
  8
_0-0_0
  6
CONTINUOUS
 62
    4
 10
106.66624956621143
 20
385.99479844959149
 11
111.73638496339868
 21
391.06493384677867
  0
LINE
  8
_0-0_0
  6
CONTINUOUS
 62
    4
 10
109.49467669095839
 20
385.99479844959205
 11
112.06137977984451
 21
388.56150153847807
  0
LINE
  8
_0-0_0
  6
CONTINUOUS
 62
    7
 10
110.83306763858502
 20
351.38465566682692
 11
110.83306763858502
 21
350.29479943326828
  0
LINE
  8
_0-0_0
  6
CONTINUOUS
 62
    7
 10
109.83306763858502
 20
351.69479943326837
 11
109.83306763858502
 21
349.99479943326821
  0
ARC
  8
_0-0_0
  6
CONTINUOUS
 62
    7
 10
111.13306763858498
 20
351.38465566682692
 40
0.2999999999999998
 50
88.095067099444307
 51
180
  0
LINE
  8
_0-0_0
  6
CONTINUOUS
 62
    7
 10
111.14304000647201
 20
351.68448987414649
 11
116.82975178503409
 21
351.49535207553743
  0
ARC
  8
_0-0_0
  6
CONTINUOUS
 62
    7
 10
110.83306763858502
 20
351.69479943326837
 40
1
 50
88.095067099444307
 51
180
  0
LINE
  8
_0-0_0
  6
CONTINUOUS
 62
    7
 10
110.86630886487308
 20
352.69424679099916
 11
116.36326933248904
 21
352.51142004641133
  0
LINE
  8
_0-0_0
  6
CONTINUOUS
 62
    7
 10
116.87961362449698
 20
352.9945231121003
 11
116.896234237675
 21
353.49424679099673
  0
ARC
  8
_0-0_0
  6
CONTINUOUS
 62
    7
 10
116.86299301132215
 20
352.49479943326821
 40
1
 50
268.09506709944435
 51
358.09506709574242
  0
LINE
  8
_0-0_0
  6
CONTINUOUS
 62
    7
 10
117.86244036904998
 20
352.46155820691581
 11
117.89568159540511
 21
353.46100556470878
  0
ARC
  8
_0-0_0
  6
CONTINUOUS
 62
    7
 10
117.39595791647514
 20
353.47762617785497
 40
0.4999999999354555
 50
358.09506709944128
 51
178.0950670994412
  0
ARC
  8
_0-0_0
  6
CONTINUOUS
 62
    7
 10
116.37988994563295
 20
353.01114372527672
 40
0.5
 50
268.09506709944435
 51
358.09506709574242
  0
ARC
  8
_0-0_0
  6
CONTINUOUS
 62
    7
 10
111.13306763858498
 20
350.29479943326828
 40
0.2999999999999998
 50
180
 51
270
  0
ARC
  8
_0-0_0
  6
CONTINUOUS
 62
    7
 10
110.83306763858502
 20
349.99479943326821
 40
1
 50
180
 51
270
  0
LINE
  8
_0-0_0
  6
CONTINUOUS
 62
    7
 10
119.83306763858502
 20
349.49479943326833
 11
119.83306763858502
 21
348.99479943326821
  0
ARC
  8
_0-0_0
  6
CONTINUOUS
 62
    7
 10
119.33306763858502
 20
349.49479943326833
 40
0.5
 50
0
 51
90
  0
LINE
  8
_0-0_0
  6
CONTINUOUS
 62
    7
 10
110.83306763858502
 20
348.99479943326821
 11
119.83306763858502
 21
348.99479943326821
  0
LINE
  8
_0-0_0
  6
CONTINUOUS
 62
    7
 10
111.01088234219799
 20
347.26880795119166
 11
112.00044089330402
 21
346.01151964935593
  0
LINE
  8
_0-0_0
  6
CONTINUOUS
 62
    7
 10
111.63952649311511
 20
347.76358722674468
 11
112.62908504422205
 21
346.50629892490895
  0
ARC
  8
_0-0_0
  6
CONTINUOUS
 62
    7
 10
111.32520441765712
 20
347.51619758896811
 40
0.4
 50
38.204790190277691
 51
218.20479019027769
  0
ARC
  8
_0-0_0
  6
CONTINUOUS
 62
    7
 10
115.14366164789305
 20
348.48541602712135
 40
3.2000000000000002
 50
218.20479019027769
 51
334.19402377411382
  0
ARC
  8
_0-0_0
  6
CONTINUOUS
 62
    7
 10
115.14366164789305
 20
348.48541602712135
 40
4
 50
218.20479019027769
 51
334.19402377411382
  0
LINE
  8
_0-0_0
  6
CONTINUOUS
 62
    7
 10
119.83306763858502
 20
348.99479943326821
 11
118.74475512710899
 21
346.74411600875862
  0
LINE
  8
_0-0_0
  6
CONTINUOUS
 62
    7
 10
118.94444866257993
 20
348.99479943326821
 11
118.02453643126603
 21
347.09237601243092
  0
LINE
  8
_0-0_0
  6
CONTINUOUS
 62
    7
 10
110.83306763858502
 20
349.99479943326821
 11
119.33306763858502
 21
349.99479943326821
  0
LINE
  8
_0-0_0
  6
CONTINUOUS
 62
    2
 10
110.83306763858502
 20
351.19479843326826
 11
110.83306763858502
 21
349.99479943326821
  0
LINE
  8
_0-0_0
  6
CONTINUOUS
 62
    3
 10
88.633068638584916
 20
385.99479943326833
 11
87.633068638584916
 21
385.99479943326833
  0
LINE
  8
_0-0_0
  6
CONTINUOUS
 62
    3
 10
88.633068638584916
 20
355.99479943326833
 11
88.633068638584916
 21
385.99479943326833
  0
LINE
  8
_0-0_0
  6
CONTINUOUS
 62
    3
 10
87.633068638584916
 20
355.99479943326833
 11
88.633068638584916
 21
355.99479943326833
  0
LINE
  8
_0-0_0
  6
CONTINUOUS
 62
    3
 10
87.633068638584916
 20
385.99479943326833
 11
87.633068638584916
 21
355.99479943326833
  0
LINE
  8
_0-0_0
  6
CONTINUOUS
 62
    4
 10
87.633068638585826
 20
357.33426223205799
 11
88.633068638584916
 21
356.33426223205811
  0
LINE
  8
_0-0_0
  6
CONTINUOUS
 62
    4
 10
87.633068638585826
 20
358.74847579443099
 11
88.633068638584916
 21
357.74847579443133
  0
LINE
  8
_0-0_0
  6
CONTINUOUS
 62
    4
 10
87.633068638584916
 20
360.16268935680512
 11
88.633068638584916
 21
359.162689356805
  0
LINE
  8
_0-0_0
  6
CONTINUOUS
 62
    4
 10
87.633068638585826
 20
361.57690291917584
 11
88.633068638585826
 21
360.57690291917561
  0
LINE
  8
_0-0_0
  6
CONTINUOUS
 62
    4
 10
87.633068638585826
 20
362.99111648154906
 11
88.633068638585826
 21
361.99111648154894
  0
LINE
  8
_0-0_0
  6
CONTINUOUS
 62
    4
 10
87.633068638585826
 20
364.40533004392262
 11
88.633068638584916
 21
363.40533004392262
  0
LINE
  8
_0-0_0
  6
CONTINUOUS
 62
    4
 10
87.633068638585826
 20
365.81954360629572
 11
88.633068638585826
 21
364.81954360629572
  0
LINE
  8
_0-0_0
  6
CONTINUOUS
 62
    4
 10
87.633068638585826
 20
367.23375716866894
 11
88.633068638585826
 21
366.23375716866917
  0
LINE
  8
_0-0_0
  6
CONTINUOUS
 62
    4
 10
87.633068638585826
 20
368.64797073104205
 11
88.633068638585826
 21
367.64797073104205
  0
LINE
  8
_0-0_0
  6
CONTINUOUS
 62
    4
 10
87.633068638584916
 20
370.06218429341641
 11
88.633068638585826
 21
369.06218429341584
  0
LINE
  8
_0-0_0
  6
CONTINUOUS
 62
    4
 10
87.633068638584916
 20
371.47639785578781
 11
88.633068638584916
 21
370.4763978557877
  0
LINE
  8
_0-0_0
  6
CONTINUOUS
 62
    4
 10
87.633068638584916
 20
372.89061141816103
 11
88.633068638584916
 21
371.89061141816092
  0
LINE
  8
_0-0_0
  6
CONTINUOUS
 62
    4
 10
87.633068638584916
 20
374.30482498053425
 11
88.633068638585826
 21
373.30482498053391
  0
LINE
  8
_0-0_0
  6
CONTINUOUS
 62
    4
 10
87.633068638584916
 20
375.71903854290781
 11
88.633068638584916
 21
374.71903854290827
  0
LINE
  8
_0-0_0
  6
CONTINUOUS
 62
    4
 10
87.633068638584916
 20
377.13325210528103
 11
88.633068638584916
 21
376.13325210528171
  0
LINE
  8
_0-0_0
  6
CONTINUOUS
 62
    4
 10
87.633068638584916
 20
378.54746566765414
 11
88.633068638584916
 21
377.54746566765459
  0
LINE
  8
_0-0_0
  6
CONTINUOUS
 62
    4
 10
87.633068638584916
 20
379.96167923002758
 11
88.633068638584916
 21
378.96167923002781
  0
LINE
  8
_0-0_0
  6
CONTINUOUS
 62
    4
 10
87.633068638584916
 20
381.37589279240149
 11
88.633068638584916
 21
380.37589279240115
  0
LINE
  8
_0-0_0
  6
CONTINUOUS
 62
    4
 10
87.633068638585826
 20
382.79010635477186
 11
88.633068638585826
 21
381.79010635477175
  0
LINE
  8
_0-0_0
  6
CONTINUOUS
 62
    4
 10
87.633068638584916
 20
384.20431991714611
 11
88.633068638585826
 21
383.20431991714543
  0
LINE
  8
_0-0_0
  6
CONTINUOUS
 62
    4
 10
87.633068638584916
 20
385.61853347951921
 11
88.633068638584916
 21
384.61853347951921
  0
TEXT
  8
_0-2_寸法
 62
    7
 10
418.56007845871926
 20
372.71666772420929
 40
6
 41
1
 50
0
  1
A
  0
LINE
  8
_0-0_0
  6
CONTINUOUS
 62
    3
 10
85.633067638584919
 20
400.99479843326839
 11
18.799467697934404
 21
400.99479843326839
  0
LINE
  8
_0-0_0
  6
CONTINUOUS
 62
    3
 10
24.799467697934404
 20
400.99479843326839
 11
24.049467697934404
 21
397.99479843326839
  0
LINE
  8
_0-0_0
  6
CONTINUOUS
 62
    3
 10
24.799467697934404
 20
400.99479843326839
 11
25.549467697934404
 21
397.99479843326839
  0
TEXT
  8
_0-0_0
 62
    7
 10
23.376134186036495
 20
329.68149992884651
 40
6
 41
1
 50
90
  1
Ｅ
  0
LINE
  8
_0-0_0
  6
DASHED1
 62
    3
 10
117.56509763858503
 20
315.38022243326827
 11
732.06342863858458
 21
283.17572797048047
  0
LINE
  8
_0-0_0
  6
CONTINUOUS
 62
    2
 10
750.86559563858486
 20
235.83424297048032
 11
750.86559563858486
 21
234.83424397048043
  0
LINE
  8
_0-0_0
  6
CONTINUOUS
 62
    2
 10
118.89966263858491
 20
340.84527543326828
 11
733.3979966385848
 21
308.64078397048024
  0
LINE
  8
_0-0_0
  6
CONTINUOUS
 62
    2
 10
118.66415063858483
 20
336.35144343326829
 11
733.1624846385846
 21
304.14694897048048
  0
LINE
  8
_0-0_0
  6
CONTINUOUS
 62
    2
 10
118.58564663858488
 20
334.85349843326833
 11
733.08398063858453
 21
302.64900397048041
  0
LINE
  8
_0-0_0
  6
DASHED1
 62
    3
 10
117.81630863858493
 20
320.17364343326824
 11
732.3146426385847
 21
287.96915197048043
  0
LINE
  8
_0-0_0
  6
DASHED1
 62
    3
 10
117.72210563858494
 20
318.3761124332683
 11
732.22043663858449
 21
286.17161797048038
  0
LINE
  8
_0-0_0
  6
CONTINUOUS
 62
    2
 10
117.43425563858489
 20
312.88364943326826
 11
731.93258963858443
 21
280.67915497048057
  0
LINE
  8
_0-0_0
  6
DASHED1
 62
    3
 10
117.48659363858485
 20
313.88227743326831
 11
731.98492463858497
 21
281.67778597048027
  0
LINE
  8
_0-0_0
  6
DASHED1
 62
    3
 10
739.62891563858466
 20
305.53091797048046
 11
98.740547638584928
 21
339.11845443326831
  0
LINE
  8
_0-0_0
  6
CONTINUOUS
 62
    2
 10
759.68540363858483
 20
308.98597897048057
 11
103.47605963858501
 21
343.37645343326824
  0
LINE
  8
_0-0_0
  6
CONTINUOUS
 62
    2
 10
759.79007663858488
 20
310.98323797048056
 11
103.58073263858483
 21
345.37371243326822
  0
LINE
  8
_0-0_0
  6
CONTINUOUS
 62
    3
 10
781.90272863858468
 20
220.83424297048032
 11
796.85891363858445
 21
220.83424297048032
  0
LINE
  8
_0-0_0
  6
CONTINUOUS
 62
    2
 10
752.63306963858486
 20
222.83424397048043
 11
752.63306963858486
 21
220.83424297048032
  0
ARC
  8
_0-0_0
  6
DASHED1
 62
    3
 10
739.47190763858475
 20
302.53503097048042
 40
7.5
 50
10.124672000000007
 51
87.000000000000014
  0
LINE
  8
_0-0_0
  6
CONTINUOUS
 62
    3
 10
726.39255563858478
 20
310.73078197048039
 11
724.75548863858467
 21
309.09371797048038
  0
LINE
  8
_0-0_0
  6
CONTINUOUS
 62
    3
 10
727.73634563858491
 20
310.66035697048039
 11
726.09927863858479
 21
309.0232929704805
  0
LINE
  8
_0-0_0
  6
CONTINUOUS
 62
    3
 10
729.0801326385847
 20
310.58993197048039
 11
727.44306563858459
 21
308.95286797048038
  0
LINE
  8
_0-0_0
  6
CONTINUOUS
 62
    3
 10
730.42392263858483
 20
310.51950697048051
 11
728.78685563858471
 21
308.88244297048027
  0
LINE
  8
_0-0_0
  6
CONTINUOUS
 62
    3
 10
731.76770963858462
 20
310.44908197048039
 11
730.13064563858484
 21
308.81201797048038
  0
LINE
  8
_0-0_0
  6
CONTINUOUS
 62
    3
 10
733.11149963858475
 20
310.37865697048028
 11
731.47443263858463
 21
308.74159297048038
  0
LINE
  8
_0-0_0
  6
CONTINUOUS
 62
    3
 10
732.81822263858476
 20
308.67116797048038
 11
733.43174363858452
 21
309.28468897048037
  0
LINE
  8
_0-0_0
  6
CONTINUOUS
 62
    3
 10
725.05951763858479
 20
310.80064297048034
 11
723.42245063858468
 21
309.16357897048044
  0
LINE
  8
_0-0_0
  6
CONTINUOUS
 62
    3
 10
723.70497863858486
 20
310.87163197048039
 11
723.48991463858488
 21
310.6565709704804
  0
ARC
  8
_0-0_0
  6
CONTINUOUS
 62
    2
 10
759.63306863858497
 20
223.83424297048032
 40
0.9999989999999996
 50
270
 51
0
  0
LINE
  8
_0-0_0
  6
CONTINUOUS
 62
    2
 10
759.63306863858497
 20
222.83424397048043
 11
752.63306963858486
 21
222.83424397048043
  0
ARC
  8
_0-0_0
  6
CONTINUOUS
 62
    2
 10
759.63306863858497
 20
223.83424297048032
 40
3
 50
270
 51
0
  0
LINE
  8
_0-0_0
  6
CONTINUOUS
 62
    2
 10
759.63306863858497
 20
220.83424297048032
 11
752.63306963858486
 21
220.83424297048032
  0
ARC
  8
_0-0_0
  6
CONTINUOUS
 62
    2
 10
759.63306863858497
 20
307.98734797048041
 40
3
 50
0
 51
87.000000000000014
  0
LINE
  8
_0-0_0
  6
CONTINUOUS
 62
    2
 10
762.63306863858497
 20
307.98734797048041
 11
762.63306863858497
 21
223.83424297048032
  0
LINE
  8
_0-0_0
  6
DASHED1
 62
    3
 10
746.85511463858461
 20
303.85345897048023
 11
760.63306763858441
 21
226.69691197048053
  0
LINE
  8
_0-0_0
  6
CONTINUOUS
 62
    2
 10
760.63306763858441
 20
307.98734797048041
 11
760.63306763858441
 21
223.83424297048032
  0
ARC
  8
_0-0_0
  6
CONTINUOUS
 62
    2
 10
759.63306863858497
 20
307.98734797048041
 40
0.9999989999999996
 50
0
 51
87.000000000000014
  0
LINE
  8
_0-0_0
  6
DASHED1
 62
    3
 10
742.42518863858459
 20
303.06240097048044
 11
756.20187563858462
 21
225.91296397048029
  0
ARC
  8
_0-0_0
  6
DASHED1
 62
    3
 10
739.47190763858475
 20
302.53503097048042
 40
3
 50
10.124672000000007
 51
87.000000000000014
  0
LINE
  8
_0-0_0
  6
CONTINUOUS
 62
    2
 10
755.71577063858444
 20
233.63424397048038
 11
746.46559463858443
 21
233.63424397048038
  0
ARC
  8
_0-0_0
  6
CONTINUOUS
 62
    2
 10
755.71577063858444
 20
233.13424297048039
 40
0.500001
 50
12.00000000000003
 51
90
  0
LINE
  8
_0-0_0
  6
CONTINUOUS
 62
    2
 10
756.20484563858463
 20
233.23819897048054
 11
757.63306763858441
 21
226.51893097048037
  0
LINE
  8
_0-0_0
  6
CONTINUOUS
 62
    2
 10
757.63306763858441
 20
226.51893097048037
 11
757.63306763858441
 21
222.83424397048043
  0
LINE
  8
_0-0_0
  6
CONTINUOUS
 62
    2
 10
758.13306863858497
 20
222.83424397048043
 11
757.63306763858441
 21
222.83424397048043
  0
ARC
  8
_0-0_0
  6
CONTINUOUS
 62
    2
 10
758.13306863858497
 20
225.33424297048032
 40
2.4999989999999999
 50
270
 51
0
  0
LINE
  8
_0-0_0
  6
CONTINUOUS
 62
    2
 10
746.46559463858443
 20
234.83424397048043
 11
748.86559463858453
 21
234.83424397048043
  0
LINE
  8
_0-0_0
  6
CONTINUOUS
 62
    2
 10
748.86559463858453
 20
234.83424397048043
 11
750.86559563858486
 21
235.83424297048032
  0
ARC
  8
_0-0_0
  6
CONTINUOUS
 62
    2
 10
746.46559463858443
 20
234.23424397048041
 40
0.5999999999999996
 50
90
 51
270
  0
LINE
  8
_0-0_0
  6
CONTINUOUS
 62
    2
 10
755.24814563858467
 20
234.83424397048043
 11
750.86559563858486
 21
234.83424397048043
  0
ARC
  8
_0-0_0
  6
CONTINUOUS
 62
    2
 10
755.24814563858467
 20
235.33424197048043
 40
0.500001
 50
270
 51
11.999999999999941
  0
ARC
  8
_0-0_0
  6
CONTINUOUS
 62
    2
 10
734.03452163858447
 20
282.57174397048038
 40
0.500001
 50
87
 51
176.99999999999997
  0
LINE
  8
_0-0_0
  6
CONTINUOUS
 62
    2
 10
733.5352046385849
 20
282.59790997048037
 11
733.48286963858459
 21
281.59928197048043
  0
LINE
  8
_0-0_0
  6
CONTINUOUS
 62
    2
 10
732.95738663858469
 20
281.1261339704804
 11
732.45807263858478
 21
281.15230297048038
  0
ARC
  8
_0-0_0
  6
CONTINUOUS
 62
    2
 10
732.48424163858454
 20
281.6516169704804
 40
0.500001
 50
177.00000000000003
 51
267.00000000000006
  0
ARC
  8
_0-0_0
  6
CONTINUOUS
 62
    2
 10
732.98355563858445
 20
281.62544797048054
 40
0.500001
 50
267
 51
357.00000000000023
  0
LINE
  8
_0-0_0
  6
CONTINUOUS
 62
    2
 10
741.73576763858455
 20
282.66882397048039
 11
734.06068763858457
 21
283.0710579704803
  0
ARC
  8
_0-0_0
  6
CONTINUOUS
 62
    2
 10
741.70959863858479
 20
282.16950997048025
 40
0.500001
 50
347
 51
87
  0
LINE
  8
_0-0_0
  6
CONTINUOUS
 62
    2
 10
742.19678363858498
 20
282.05703397048046
 11
741.61359263858458
 21
279.53094997048038
  0
LINE
  8
_0-0_0
  6
CONTINUOUS
 62
    2
 10
743.79905363858461
 20
282.56069197048032
 11
744.97640063858444
 21
282.49898797048036
  0
ARC
  8
_0-0_0
  6
CONTINUOUS
 62
    2
 10
743.78335463858457
 20
282.26110297048035
 40
0.2999999999999998
 50
87
 51
167
  0
LINE
  8
_0-0_0
  6
CONTINUOUS
 62
    2
 10
743.49104363858464
 20
282.32858797048038
 11
742.78283663858451
 21
279.26100697048059
  0
ARC
  8
_0-0_0
  6
CONTINUOUS
 62
    2
 10
744.92406563858458
 20
281.50035997048053
 40
0.9999989999999996
 50
12.00000000000003
 51
87.000000000000014
  0
ARC
  8
_0-0_0
  6
CONTINUOUS
 62
    2
 10
742.19821463858443
 20
279.39597697048043
 40
0.5999999999999996
 50
167
 51
347
  0
LINE
  8
_0-0_0
  6
CONTINUOUS
 62
    2
 10
748.6771196385846
 20
283.08256597048035
 11
760.63306763858441
 21
226.83424297048032
  0
LINE
  8
_0-0_0
  6
CONTINUOUS
 62
    2
 10
745.90221263858461
 20
281.70827197048038
 11
755.73722063858486
 21
235.43819797048036
  0
LINE
  8
_0-0_0
  6
DASHED1
 62
    3
 10
756.20187563858462
 20
225.91296397048029
 11
760.63306763858441
 21
226.69691197048053
  0
LINE
  8
_0-0_0
  6
CONTINUOUS
 62
    2
 10
733.48804163858495
 20
310.35892297048031
 11
733.3979966385848
 21
308.64078397048024
  0
LINE
  8
_0-0_0
  6
CONTINUOUS
 62
    2
 10
723.50174663858456
 20
310.88228497048044
 11
723.41170163858487
 21
309.16414297048038
  0
ARC
  8
_0-0_0
  6
CONTINUOUS
 62
    2
 10
732.85059263858489
 20
288.64202497048041
 40
0.500001
 50
87
 51
176.99999999999997
  0
LINE
  8
_0-0_0
  6
CONTINUOUS
 62
    2
 10
734.21769563858447
 20
286.06694497048056
 11
745.89968363858452
 21
285.45471997048048
  0
ARC
  8
_0-0_0
  6
CONTINUOUS
 62
    2
 10
734.24386463858491
 20
286.56626197048035
 40
0.500001
 50
177.00000000000003
 51
267.00000000000006
  0
LINE
  8
_0-0_0
  6
CONTINUOUS
 62
    2
 10
733.74455063858454
 20
286.59242797048046
 11
733.84922063858471
 21
288.58968697048044
  0
ARC
  8
_0-0_0
  6
CONTINUOUS
 62
    2
 10
733.3499066385848
 20
288.61585597048042
 40
0.500001
 50
357.00000000000006
 51
87.000000000000028
  0
LINE
  8
_0-0_0
  6
CONTINUOUS
 62
    2
 10
733.37607563858455
 20
289.11516997048057
 11
732.87676163858464
 21
289.14133897048043
  0
LINE
  8
_0-0_0
  6
CONTINUOUS
 62
    2
 10
733.3979966385848
 20
308.64078397048024
 11
731.93258963858443
 21
280.67915497048057
  0
ARC
  8
_0-0_0
  6
CONTINUOUS
 62
    2
 10
745.74267563858461
 20
282.45882997048034
 40
3
 50
12.00000000000003
 51
87.000000000000014
  0
ARC
  8
_0-0_0
  6
DASHED1
 62
    3
 10
703.68099263858448
 20
286.16524897048043
 40
1.5
 50
87.000000000000028
 51
267.00000000000006
  0
CIRCLE
  8
_0-4_図枠
  6
CONTINUOUS
 62
    4
 10
773.26507044915797
 20
337.54836023422558
 40
6
  0
LINE
  8
_0-4_図枠
  6
CONTINUOUS
 62
    4
 10
746.62858930575499
 20
291.4126215590029
 11
770.26507044915797
 21
332.35220781151872
  0
CIRCLE
  8
_0-4_図枠
  6
CONTINUOUS
 62
    4
 10
746.62858930575499
 20
291.4126215590029
 40
0.9
  0
CIRCLE
  8
_0-4_図枠
  6
CONTINUOUS
 62
    4
 10
774.41421796340251
 20
359.72690725913515
 40
6
  0
LINE
  8
_0-4_図枠
  6
CONTINUOUS
 62
    4
 10
746.27773681999952
 20
310.9930923725592
 11
771.4142179634016
 21
354.53075483642806
  0
CIRCLE
  8
_0-4_図枠
  6
CONTINUOUS
 62
    4
 10
746.27773681999952
 20
310.9930923725592
 40
0.9
  0
CIRCLE
  8
_0-4_図枠
  6
CONTINUOUS
 62
    4
 10
773.35257552303096
 20
291.13986414817214
 40
6
  0
LINE
  8
_0-4_図枠
  6
CONTINUOUS
 62
    4
 10
745.38456170667382
 20
242.69784323145461
 11
770.35257552303096
 21
285.9437117254655
  0
CIRCLE
  8
_0-4_図枠
  6
CONTINUOUS
 62
    4
 10
745.38456170667382
 20
242.69784323145461
 40
0.9
  0
TEXT
  8
_0-4_図枠
 62
    7
 10
771.4142179634016
 20
356.72690725913515
 40
6
 41
1
 50
0
  1
１
  0
TEXT
  8
_0-4_図枠
 62
    7
 10
770.26507044915797
 20
334.54836023422558
 40
6
 41
1
 50
0
  1
９
  0
TEXT
  8
_0-4_図枠
 62
    7
 10
770.35257552303096
 20
288.13986414817202
 40
6
 41
1
 50
0
  1
５
  0
LINE
  8
_0-0_0
  6
CONTINUOUS
 62
    3
 10
762.63306763858532
 20
402.42701043326832
 11
762.63306763858532
 21
415.52895543326821
  0
LINE
  8
_0-0_0
  6
CONTINUOUS
 62
    3
 10
102.63306863858492
 20
369.98696943326831
 11
762.63306763858532
 21
369.98696943326831
  0
LINE
  8
_0-0_0
  6
CONTINUOUS
 62
    3
 10
762.63306763858532
 20
369.98696943326831
 11
759.63306763858532
 21
370.73696943326831
  0
LINE
  8
_0-0_0
  6
CONTINUOUS
 62
    3
 10
762.63306763858532
 20
369.98696943326831
 11
759.63306763858532
 21
369.23696943326831
  0
LINE
  8
_0-0_0
  6
CONTINUOUS
 62
    3
 10
762.63306763858532
 20
356.88502443326831
 11
762.63306763858532
 21
369.98696943326831
  0
LINE
  8
_0-0_0
  6
CONTINUOUS
 62
    3
 10
87.633068638584916
 20
473.30758498526609
 11
762.63306763858532
 21
473.30758498526609
  0
LINE
  8
_0-0_0
  6
CONTINUOUS
 62
    3
 10
762.63306763858532
 20
315.53832243326826
 11
762.63306763858532
 21
479.30758498526609
  0
LINE
  8
_0-0_0
  6
CONTINUOUS
 62
    3
 10
762.63306763858532
 20
473.30758498526609
 11
759.63306763858532
 21
474.05758498526609
  0
LINE
  8
_0-0_0
  6
CONTINUOUS
 62
    3
 10
762.63306763858532
 20
473.30758498526609
 11
759.63306763858532
 21
472.55758498526609
  0
LINE
  8
_0-0_0
  6
CONTINUOUS
 62
    3
 10
809.31896909700504
 20
310.83424297048055
 11
809.31896909700504
 21
220.83424297048032
  0
LINE
  8
_0-0_0
  6
CONTINUOUS
 62
    3
 10
764.13306863858497
 20
310.83424297048055
 11
812.31896909700504
 21
310.83424297048055
  0
LINE
  8
_0-0_0
  6
CONTINUOUS
 62
    3
 10
761.13306863858497
 20
220.83424297048032
 11
812.31896909700504
 21
220.83424297048032
  0
LINE
  8
_0-0_0
  6
CONTINUOUS
 62
    3
 10
809.31896909700504
 20
310.83424297048055
 11
808.56896909700504
 21
307.83424297048055
  0
LINE
  8
_0-0_0
  6
CONTINUOUS
 62
    3
 10
809.31896909700504
 20
310.83424297048055
 11
810.06896909700504
 21
307.83424297048055
  0
LINE
  8
_0-0_0
  6
CONTINUOUS
 62
    3
 10
809.31896909700504
 20
220.83424297048032
 11
810.06896909700504
 21
223.83424297048032
  0
LINE
  8
_0-0_0
  6
CONTINUOUS
 62
    3
 10
809.31896909700504
 20
220.83424297048032
 11
808.56896909700504
 21
223.83424297048032
  0
TEXT
  8
_0-0_0
 62
    7
 10
807.10984717887368
 20
256.65303708009469
 40
6
 41
1
 50
90
  1
９０
  0
LINE
  8
_0-0_0
  6
CONTINUOUS
 62
    3
 10
786.03165549123719
 20
264.70307797048031
 11
786.03165549123719
 21
220.83424297048032
  0
LINE
  8
_0-0_0
  6
CONTINUOUS
 62
    3
 10
786.03165549123719
 20
264.70307797048031
 11
785.28165549123719
 21
261.70307797048031
  0
LINE
  8
_0-0_0
  6
CONTINUOUS
 62
    3
 10
786.03165549123719
 20
264.70307797048031
 11
786.78165549123719
 21
261.70307797048031
  0
LINE
  8
_0-0_0
  6
CONTINUOUS
 62
    3
 10
786.03165549123719
 20
220.83424297048032
 11
786.78165549123719
 21
223.83424297048032
  0
LINE
  8
_0-0_0
  6
CONTINUOUS
 62
    3
 10
786.03165549123719
 20
220.83424297048032
 11
785.28165549123719
 21
223.83424297048032
  0
TEXT
  8
_0-0_0
 62
    7
 10
783.70775137062867
 20
238.27854425101202
 40
6
 41
1
 50
90
  1
４４
  0
LINE
  8
_0-0_0
  6
CONTINUOUS
 62
    3
 10
762.63306863858497
 20
180.18265120694093
 11
759.63306863858497
 21
180.93265120694093
  0
LINE
  8
_0-0_0
  6
CONTINUOUS
 62
    3
 10
762.63306863858497
 20
180.18265120694093
 11
759.63306863858497
 21
179.43265120694093
  0
LINE
  8
_0-0_0
  6
CONTINUOUS
 62
    3
 10
762.63306863858497
 20
220.83424297048032
 11
762.63306863858497
 21
174.18265120694093
  0
TEXT
  8
_0-0_0
 62
    7
 10
655.37163830365853
 20
180.89222522313776
 40
6
 41
1
 50
0
  1
２００
  0
TEXT
  8
_0-4_図枠
 62
    7
 10
15.575046598393385
 20
515.97679524207649
 40
9
 41
1
 50
0
  1
◇アルミ３５０タイプ（３５０ＦＹＫＧ－Ａ）
  0
LINE
  8
_0-0_0
  6
CONTINUOUS
 62
    3
 10
562.63306863858497
 20
196.281956206941
 11
562.63306863858497
 21
174.18265120694093
  0
LINE
  8
_0-0_0
  6
CONTINUOUS
 62
    3
 10
562.63306863858497
 20
180.18265120694093
 11
559.63306863858497
 21
180.93265120694093
  0
LINE
  8
_0-0_0
  6
CONTINUOUS
 62
    3
 10
562.63306863858497
 20
180.18265120694093
 11
559.63306863858497
 21
179.43265120694093
  0
LINE
  8
_0-0_0
  6
CONTINUOUS
 62
    3
 10
562.63306863858497
 20
180.18265120694093
 11
565.63306863858497
 21
179.43265120694093
  0
LINE
  8
_0-0_0
  6
CONTINUOUS
 62
    3
 10
562.63306863858497
 20
180.18265120694093
 11
565.63306863858497
 21
180.93265120694093
  0
CIRCLE
  8
_0-4_図枠
  6
CONTINUOUS
 62
    4
 10
607.24974969751929
 20
340.8674763683473
 40
6
  0
LINE
  8
_0-4_図枠
  6
CONTINUOUS
 62
    4
 10
586.30114164309566
 20
306.85896431239144
 11
604.24974969751929
 21
335.67132394564078
  0
CIRCLE
  8
_0-4_図枠
  6
CONTINUOUS
 62
    4
 10
586.30114164309566
 20
306.85896431239144
 40
0.9
  0
TEXT
  8
_0-4_図枠
 62
    7
 10
604.36711301425476
 20
337.79266390619853
 40
6
 41
1
 50
0
  1
６
  0
LINE
  8
_0-0_0
  6
CONTINUOUS
 62
    3
 10
562.63306863858497
 20
180.18265120694093
 11
762.63306863858497
 21
180.18265120694093
  0
LINE
  8
_0-0_0
  6
CONTINUOUS
 62
    3
 10
437.63306763858503
 20
180.18265120694093
 11
562.63306863858497
 21
180.18265120694093
  0
TEXT
  8
_0-2_寸法
 62
    7
 10
400.01733105278902
 20
355.43198595994386
 40
6
 41
1
 50
0
  1
（キャップ幅）
  0
LINE
  8
_0-0_0
  6
CONTINUOUS
 62
    7
 10
419.04635474980671
 20
199.20022442902052
 11
436.86574118650452
 21
265.70307997048053
  0
LINE
  8
_0-0_0
  6
CONTINUOUS
 62
    3
 10
437.63306763858503
 20
208.95503797048036
 11
437.63306763858503
 21
216.81620497048038
  0
LINE
  8
_0-0_0
  6
CONTINUOUS
 62
    1
 10
437.63306763858503
 20
197.28195520694089
 11
437.63306763858503
 21
264.70307797048031
  0
LINE
  8
_0-0_0
  6
CONTINUOUS
 62
    7
 10
420.01228057609575
 20
198.9414053839181
 11
437.63306763858503
 21
264.70307797048031
  0
LINE
  8
_0-0_0
  6
CONTINUOUS
 62
    3
 10
512.63306763858463
 20
220.18607797048037
 11
512.63306763858463
 21
212.81620297048039
  0
LINE
  8
_0-0_0
  6
CONTINUOUS
 62
    3
 10
512.63306763858463
 20
216.81620497048038
 11
562.63306863858497
 21
216.81620497048038
  0
LINE
  8
_0-0_0
  6
CONTINUOUS
 62
    3
 10
562.63306863858497
 20
208.95503797048036
 11
562.63306863858497
 21
216.81620497048038
  0
LINE
  8
_0-0_0
  6
CONTINUOUS
 62
    3
 10
512.63306763858463
 20
216.81620497048038
 11
515.63306763858463
 21
216.06620497048038
  0
LINE
  8
_0-0_0
  6
CONTINUOUS
 62
    3
 10
512.63306763858463
 20
216.81620497048038
 11
515.63306763858463
 21
217.56620497048038
  0
LINE
  8
_0-0_0
  6
CONTINUOUS
 62
    3
 10
562.63306863858497
 20
216.81620497048038
 11
559.63306863858497
 21
217.56620497048038
  0
LINE
  8
_0-0_0
  6
CONTINUOUS
 62
    3
 10
562.63306863858497
 20
216.81620497048038
 11
559.63306863858497
 21
216.06620497048038
  0
ARC
  8
_0-0_0
  6
DASHED1
 62
    3
 10
516.13306763875994
 20
225.20307796850557
 40
1.00000000005
 50
270
 51
0
  0
LINE
  8
_0-0_0
  6
DASHED1
 62
    3
 10
519.25809563891585
 20
226.44108196856723
 11
515.07266363870667
 21
225.70307796853035
  0
LINE
  8
_0-0_0
  6
DASHED1
 62
    3
 10
516.68306763878741
 20
256.4030779700654
 11
508.58306763838203
 21
256.4030779700654
  0
LINE
  8
_0-0_0
  6
DASHED1
 62
    3
 10
517.38306763882224
 20
255.70307797003034
 11
507.8830676383472
 21
255.70307797003034
  0
LINE
  8
_0-0_0
  6
DASHED1
 62
    3
 10
506.00803763825348
 20
226.44108196856723
 11
507.8830676383472
 21
237.07490396909895
  0
LINE
  8
_0-0_0
  6
DASHED1
 62
    3
 10
512.13306763855962
 20
236.70307796908037
 11
510.19346963846243
 21
225.70307796853035
  0
LINE
  8
_0-0_0
  6
DASHED1
 62
    3
 10
513.13306763860987
 20
236.70307796908037
 11
515.07266363870667
 21
225.70307796853035
  0
LINE
  8
_0-0_0
  6
DASHED1
 62
    3
 10
506.00803763825348
 20
226.44108196856723
 11
510.19346963846243
 21
225.70307796853035
  0
LINE
  8
_0-0_0
  6
DASHED1
 62
    3
 10
508.13306763835959
 20
225.20307796850557
 11
508.13306763835959
 21
226.06638196854863
  0
ARC
  8
_0-0_0
  6
DASHED1
 62
    3
 10
509.13306763840984
 20
225.20307796850557
 40
1.00000000005
 50
180
 51
270
  0
LINE
  8
_0-0_0
  6
DASHED1
 62
    3
 10
509.13306763840984
 20
224.20307796845555
 11
516.13306763875994
 21
224.20307796845555
  0
LINE
  8
_0-0_0
  6
DASHED1
 62
    3
 10
507.8830676383472
 20
237.07490396909895
 11
507.8830676383472
 21
255.70307797003034
  0
LINE
  8
_0-0_0
  6
DASHED1
 62
    3
 10
508.58306763838203
 20
265.70307797053044
 11
508.58306763838203
 21
256.4030779700654
  0
LINE
  8
_0-0_0
  6
DASHED1
 62
    3
 10
507.8830676383472
 20
255.70307797003034
 11
508.58306763838203
 21
256.4030779700654
  0
LINE
  8
_0-0_0
  6
DASHED1
 62
    3
 10
513.13306763860987
 20
236.70307796908037
 11
512.13306763855962
 21
236.70307796908037
  0
LINE
  8
_0-0_0
  6
DASHED1
 62
    3
 10
519.25809563891585
 20
226.44108196856723
 11
517.38306763882224
 21
237.07490396909895
  0
LINE
  8
_0-0_0
  6
DASHED1
 62
    3
 10
517.13306763880973
 20
225.20307796850557
 11
517.13306763880973
 21
226.06638196854863
  0
LINE
  8
_0-0_0
  6
DASHED1
 62
    3
 10
517.38306763882224
 20
237.07490396909895
 11
517.38306763882224
 21
255.70307797003034
  0
LINE
  8
_0-0_0
  6
DASHED1
 62
    3
 10
516.68306763878741
 20
265.70307797053044
 11
516.68306763878741
 21
256.4030779700654
  0
LINE
  8
_0-0_0
  6
DASHED1
 62
    3
 10
517.38306763882224
 20
255.70307797003034
 11
516.68306763878741
 21
256.4030779700654
  0
LINE
  8
_0-0_0
  6
CENTER1
 62
    3
 10
512.63306763858463
 20
219.26967596820884
 11
512.63306763858463
 21
264.70307797048031
  0
LINE
  8
_0-0_0
  6
CONTINUOUS
 62
    3
 10
562.63306863858497
 20
208.97977094640555
 11
562.63306863858497
 21
215.53074494640555
  0
CIRCLE
  8
_0-4_図枠
  6
CONTINUOUS
 62
    4
 10
530.29916197888952
 20
281.16129693840935
 40
0.9
  0
CIRCLE
  8
_0-4_図枠
  6
CONTINUOUS
 62
    4
 10
537.2802212304839
 20
251.79639664252466
 40
6
  0
LINE
  8
_0-4_図枠
  6
CONTINUOUS
 62
    4
 10
522.49853509871582
 20
277.39902804428368
 11
534.2802212304839
 21
256.99254906523117
  0
CIRCLE
  8
_0-4_図枠
  6
CONTINUOUS
 62
    4
 10
522.49853509871582
 20
277.39902804428368
 40
0.9
  0
CIRCLE
  8
_0-4_図枠
  6
CONTINUOUS
 62
    4
 10
536.3898927578939
 20
237.9866324628739
 40
6
  0
LINE
  8
_0-4_図枠
  6
CONTINUOUS
 62
    4
 10
516.96750709303683
 20
271.6271912386029
 11
533.3898927578939
 21
243.18278488558065
  0
CIRCLE
  8
_0-4_図枠
  6
CONTINUOUS
 62
    4
 10
516.96750709303683
 20
271.6271912386029
 40
0.9
  0
CIRCLE
  8
_0-4_図枠
  6
CONTINUOUS
 62
    4
 10
496.59981343455848
 20
222.00102811931856
 40
6
  0
LINE
  8
_0-4_図枠
  6
CONTINUOUS
 62
    4
 10
509.64142762930538
 20
244.58976651733087
 11
499.59981343455848
 21
227.19718054202519
  0
CIRCLE
  8
_0-4_図枠
  6
CONTINUOUS
 62
    4
 10
509.64142762930538
 20
244.58976651733087
 40
0.9
  0
TEXT
  8
_0-0_0
 62
    7
 10
531.78716188251315
 20
217.98651863309954
 40
6
 41
1
 50
0
  1
５０
  0
TEXT
  8
_0-4_図枠
 62
    7
 10
534.2802212304839
 20
248.79639664252466
 40
6
 41
1
 50
0
  1
８
  0
TEXT
  8
_0-4_図枠
 62
    7
 10
493.34981343455848
 20
219.00102811931856
 40
6
 41
1
 50
0
  1
17
  0
TEXT
  8
_0-4_図枠
 62
    7
 10
533.1398927578939
 20
234.98663246287401
 40
6
 41
1
 50
0
  1
16
  0
LINE
  8
_0-0_0
  6
CONTINUOUS
 62
    2
 10
507.86863592417677
 20
281.28104097048038
 11
517.05602792417676
 21
280.79954997047992
  0
LINE
  8
_0-0_0
  6
CONTINUOUS
 62
    4
 10
497.65074092417586
 20
265.27710044217542
 11
498.07671845248075
 21
265.70307797048076
  0
ARC
  8
_0-0_0
  6
CONTINUOUS
 62
    7
 10
497.65074092417586
 20
257.45307797048076
 40
8.25
 50
90
 51
108.92464441605439
  0
ARC
  8
_0-0_0
  6
CONTINUOUS
 62
    7
 10
497.65074092417586
 20
257.45307797048076
 40
9.25
 50
90
 51
108.92464441605439
  0
ARC
  8
_0-0_0
  6
CONTINUOUS
 62
    7
 10
491.65074092417586
 20
274.95307797048054
 40
9.25
 50
270
 51
288.92464441605443
  0
LINE
  8
_0-0_0
  6
CONTINUOUS
 62
    4
 10
498.49093201485391
 20
264.70307797048031
 11
499.49093201485385
 21
265.70307797048076
  0
LINE
  8
_0-0_0
  6
CONTINUOUS
 62
    4
 10
499.90514557722673
 20
264.70307797048031
 11
500.90514557722673
 21
265.70307797048008
  0
LINE
  8
_0-0_0
  6
CONTINUOUS
 62
    4
 10
501.31935913960075
 20
264.70307797048031
 11
502.31935913960075
 21
265.70307797048008
  0
LINE
  8
_0-0_0
  6
CONTINUOUS
 62
    4
 10
502.73357270197386
 20
264.70307797048031
 11
503.73357270197386
 21
265.70307797048008
  0
LINE
  8
_0-0_0
  6
CONTINUOUS
 62
    4
 10
504.14778626434673
 20
264.70307797048031
 11
505.14778626434673
 21
265.70307797048008
  0
LINE
  8
_0-0_0
  6
CONTINUOUS
 62
    4
 10
505.56199982672075
 20
264.70307797048031
 11
506.56199982671984
 21
265.70307797048008
  0
LINE
  8
_0-0_0
  6
CONTINUOUS
 62
    4
 10
506.97621338909181
 20
264.70307797048031
 11
507.97621338909181
 21
265.70307797048008
  0
LINE
  8
_0-0_0
  6
CONTINUOUS
 62
    4
 10
508.39042695146469
 20
264.70307797047963
 11
509.39042695146469
 21
265.70307797048008
  0
LINE
  8
_0-0_0
  6
CONTINUOUS
 62
    4
 10
509.8046405138378
 20
264.70307797047963
 11
510.8046405138378
 21
265.70307797048008
  0
LINE
  8
_0-0_0
  6
CONTINUOUS
 62
    4
 10
511.21885407621068
 20
264.70307797047963
 11
512.21885407621176
 21
265.70307797048008
  0
LINE
  8
_0-0_0
  6
CONTINUOUS
 62
    4
 10
512.63306763858463
 20
264.70307797048031
 11
513.63306763858463
 21
265.70307797048008
  0
LINE
  8
_0-0_0
  6
CONTINUOUS
 62
    4
 10
514.04728120095865
 20
264.70307797048031
 11
515.04728120095774
 21
265.70307797048008
  0
LINE
  8
_0-0_0
  6
CONTINUOUS
 62
    4
 10
515.46149476333176
 20
264.70307797048031
 11
516.46149476333176
 21
265.70307797048008
  0
LINE
  8
_0-0_0
  6
CONTINUOUS
 62
    4
 10
516.87570832570464
 20
264.70307797047963
 11
517.87570832570464
 21
265.7030779704794
  0
LINE
  8
_0-0_0
  6
CONTINUOUS
 62
    4
 10
518.28992188807683
 20
264.70307797048031
 11
519.28992188807683
 21
265.70307797048076
  0
LINE
  8
_0-0_0
  6
CONTINUOUS
 62
    4
 10
519.70413545044971
 20
264.70307797048031
 11
520.70413545044971
 21
265.70307797048008
  0
LINE
  8
_0-0_0
  6
CONTINUOUS
 62
    4
 10
521.11834901282282
 20
264.70307797048031
 11
522.11834901282373
 21
265.70307797048008
  0
LINE
  8
_0-0_0
  6
CONTINUOUS
 62
    4
 10
522.53256257519683
 20
264.70307797048031
 11
523.53256257519683
 21
265.70307797048008
  0
LINE
  8
_0-0_0
  6
CONTINUOUS
 62
    4
 10
523.94677613756971
 20
264.70307797048031
 11
524.94677613756971
 21
265.70307797048008
  0
LINE
  8
_0-0_0
  6
CONTINUOUS
 62
    4
 10
525.36098969994373
 20
264.70307797048031
 11
526.36098969994373
 21
265.70307797048008
  0
LINE
  8
_0-0_0
  6
CONTINUOUS
 62
    4
 10
526.77520326231684
 20
264.70307797048031
 11
527.65074092417581
 21
265.57861563233951
  0
LINE
  8
_0-0_0
  6
CONTINUOUS
 62
    3
 10
527.65074092417581
 20
264.70307797048031
 11
497.65074092417586
 21
264.70307797048031
  0
LINE
  8
_0-0_0
  6
CONTINUOUS
 62
    3
 10
497.65074092417586
 20
264.70307797048031
 11
497.65074092417586
 21
265.70307797048008
  0
LINE
  8
_0-0_0
  6
CONTINUOUS
 62
    3
 10
497.65074092417586
 20
265.70307797048008
 11
527.65074092417581
 21
265.70307797048008
  0
LINE
  8
_0-0_0
  6
CONTINUOUS
 62
    3
 10
527.65074092417581
 20
265.70307797048008
 11
527.65074092417581
 21
264.70307797048031
  0
ARC
  8
_0-0_0
  6
CONTINUOUS
 62
    7
 10
491.65074092417586
 20
274.95307797048054
 40
10.25
 50
270
 51
288.92464441605443
  0
LINE
  8
_0-0_0
  6
CONTINUOUS
 62
    2
 10
521.65074092417672
 20
270.81184797048058
 11
521.65074092417672
 21
269.21184897048033
  0
LINE
  8
_0-0_0
  6
CONTINUOUS
 62
    2
 10
521.65074092417672
 20
270.81184797048058
 11
503.65074092417677
 21
270.81184797048058
  0
LINE
  8
_0-0_0
  6
CONTINUOUS
 62
    2
 10
503.65074092417677
 20
270.81184797048058
 11
503.65074092417677
 21
269.21184897048033
  0
LINE
  8
_0-0_0
  6
CONTINUOUS
 62
    2
 10
506.77074092417689
 20
275.07491097048023
 11
506.77074092417689
 21
270.81184797048058
  0
LINE
  8
_0-0_0
  6
CONTINUOUS
 62
    2
 10
507.70074092417673
 20
275.61184797048031
 11
506.77074092417689
 21
275.07491097048023
  0
ARC
  8
_0-0_0
  6
CONTINUOUS
 62
    2
 10
507.70074092417673
 20
271.8024539704802
 40
3.8093940000000002
 50
59.210035999999995
 51
90
  0
ARC
  8
_0-0_0
  6
CONTINUOUS
 62
    2
 10
512.65074092417672
 20
266.96248797048042
 40
8.6493599999999997
 50
69.705444999999997
 51
110.294555
  0
LINE
  8
_0-0_0
  6
CONTINUOUS
 62
    2
 10
509.65074092417677
 20
275.07491097048023
 11
509.65074092417677
 21
270.81184797048058
  0
LINE
  8
_0-0_0
  6
CONTINUOUS
 62
    2
 10
515.65074092417672
 20
275.07491097048023
 11
515.65074092417672
 21
270.81184797048058
  0
LINE
  8
_0-0_0
  6
CONTINUOUS
 62
    2
 10
518.53074092417683
 20
275.07491097048023
 11
518.53074092417683
 21
270.81184797048058
  0
LINE
  8
_0-0_0
  6
CONTINUOUS
 62
    2
 10
517.60074092417676
 20
275.61184797048031
 11
518.53074092417683
 21
275.07491097048023
  0
LINE
  8
_0-0_0
  6
CONTINUOUS
 62
    2
 10
507.70074092417673
 20
275.61184797048031
 11
517.60074092417676
 21
275.61184797048031
  0
ARC
  8
_0-0_0
  6
CONTINUOUS
 62
    2
 10
517.60074092417676
 20
271.8024539704802
 40
3.8093940000000002
 50
90
 51
120.789964
  0
LINE
  8
_0-0_0
  6
CONTINUOUS
 62
    2
 10
507.92097092417663
 20
282.27967197048031
 11
507.86863592417677
 21
281.28104097048038
  0
LINE
  8
_0-0_0
  6
CONTINUOUS
 62
    2
 10
517.10836292417684
 20
281.7981809704803
 11
517.05602792417676
 21
280.79954997047992
  0
ARC
  8
_0-0_0
  6
CONTINUOUS
 62
    2
 10
506.9223429241768
 20
282.33200697048017
 40
0.9999989999999994
 50
356.99999999999994
 51
87
  0
ARC
  8
_0-0_0
  6
CONTINUOUS
 62
    2
 10
518.10699392417678
 20
281.74584297047988
 40
0.9999989999999994
 50
87
 51
176.99999999999997
  0
ARC
  8
_0-0_0
  6
CONTINUOUS
 62
    2
 10
500.65074092417677
 20
276.21184797048045
 40
0.9999989999999994
 50
270
 51
0
  0
LINE
  8
_0-0_0
  6
CONTINUOUS
 62
    2
 10
500.65074092417677
 20
275.21184897048033
 11
496.45074092417678
 21
275.21184897048033
  0
ARC
  8
_0-0_0
  6
CONTINUOUS
 62
    2
 10
504.25074092417691
 20
282.47201997048035
 40
0.9999989999999994
 50
87.000000000000014
 51
180
  0
LINE
  8
_0-0_0
  6
CONTINUOUS
 62
    2
 10
521.10307592417689
 20
282.5901989704804
 11
504.30307592417677
 21
283.47064797048017
  0
ARC
  8
_0-0_0
  6
CONTINUOUS
 62
    2
 10
521.05074092417681
 20
281.59156797048047
 40
0.9999989999999994
 50
0
 51
87.000000000000014
  0
LINE
  8
_0-0_0
  6
CONTINUOUS
 62
    2
 10
524.65074092417672
 20
275.21184897048033
 11
528.85074092417676
 21
275.21184897048033
  0
ARC
  8
_0-0_0
  6
CONTINUOUS
 62
    2
 10
524.65074092417672
 20
276.21184797048045
 40
0.9999989999999994
 50
180
 51
270
  0
LINE
  8
_0-0_0
  6
CONTINUOUS
 62
    2
 10
503.25074192417679
 20
276.21184797048045
 11
503.25074192417679
 21
282.47201997048035
  0
ARC
  8
_0-0_0
  6
CONTINUOUS
 62
    2
 10
500.65074092417677
 20
276.21184797048045
 40
2.6000009999999998
 50
270
 51
0
  0
LINE
  8
_0-0_0
  6
CONTINUOUS
 62
    2
 10
500.65074092417677
 20
273.61184697048043
 11
496.15074092417677
 21
273.61184697048043
  0
LINE
  8
_0-0_0
  6
CONTINUOUS
 62
    2
 10
501.65073992417689
 20
282.47201997048035
 11
501.65073992417689
 21
276.21184797048045
  0
ARC
  8
_0-0_0
  6
CONTINUOUS
 62
    2
 10
504.25074092417691
 20
282.47201997048035
 40
2.6000009999999998
 50
87.000000000000014
 51
180
  0
LINE
  8
_0-0_0
  6
CONTINUOUS
 62
    2
 10
523.65074192417683
 20
281.59156797048047
 11
523.65074192417683
 21
276.21184797048045
  0
ARC
  8
_0-0_0
  6
CONTINUOUS
 62
    2
 10
521.05074092417681
 20
281.59156797048047
 40
2.6000009999999998
 50
0
 51
87.000000000000014
  0
LINE
  8
_0-0_0
  6
CONTINUOUS
 62
    2
 10
521.18681492417682
 20
284.18800497048062
 11
504.38681492417692
 21
285.0684569704805
  0
LINE
  8
_0-0_0
  6
CONTINUOUS
 62
    2
 10
522.0507399241767
 20
276.21184797048045
 11
522.0507399241767
 21
281.59156797048047
  0
ARC
  8
_0-0_0
  6
CONTINUOUS
 62
    2
 10
524.65074092417672
 20
276.21184797048045
 40
2.6000009999999998
 50
180
 51
270
  0
LINE
  8
_0-0_0
  6
CONTINUOUS
 62
    2
 10
524.65074092417672
 20
273.61184697048043
 11
529.15074092417672
 21
273.61184697048043
  0
LINE
  8
_0-0_0
  6
CONTINUOUS
 62
    2
 10
528.85074092417676
 20
272.71184697048056
 11
526.90074092417672
 21
272.71184697048056
  0
ARC
  8
_0-0_0
  6
CONTINUOUS
 62
    2
 10
528.85074092417676
 20
273.01184697048029
 40
0.2999999999999998
 50
270
 51
0
  0
ARC
  8
_0-0_0
  6
CONTINUOUS
 62
    2
 10
528.85074092417676
 20
274.91184897048061
 40
0.2999999999999998
 50
0
 51
90
  0
LINE
  8
_0-0_0
  6
CONTINUOUS
 62
    2
 10
512.15073992417683
 20
269.21184897048033
 11
512.65074092417672
 21
268.71184797048045
  0
LINE
  8
_0-0_0
  6
CONTINUOUS
 62
    2
 10
513.15074192417683
 20
269.21184897048033
 11
512.65074092417672
 21
268.71184797048045
  0
LINE
  8
_0-0_0
  6
CONTINUOUS
 62
    2
 10
507.65073992417689
 20
267.21184797048045
 11
507.65073992417689
 21
266.71184697048056
  0
LINE
  8
_0-0_0
  6
CONTINUOUS
 62
    2
 10
528.65073992417683
 20
276.71184897048033
 11
525.90074192417683
 21
276.71184897048033
  0
ARC
  8
_0-0_0
  6
CONTINUOUS
 62
    2
 10
528.65073992417683
 20
277.21184697048068
 40
0.500001
 50
270
 51
0
  0
ARC
  8
_0-0_0
  6
CONTINUOUS
 62
    2
 10
525.90074192417683
 20
275.96184897048033
 40
0.75
 50
90
 51
270
  0
LINE
  8
_0-0_0
  6
CONTINUOUS
 62
    2
 10
517.65074192417683
 20
267.21184797048045
 11
529.15074092417672
 21
267.21184797048045
  0
LINE
  8
_0-0_0
  6
CONTINUOUS
 62
    2
 10
517.65074192417683
 20
267.21184797048045
 11
517.65074192417683
 21
266.71184697048056
  0
ARC
  8
_0-0_0
  6
CONTINUOUS
 62
    2
 10
526.90074092417672
 20
271.96184697048056
 40
0.75
 50
90
 51
270
  0
LINE
  8
_0-0_0
  6
CONTINUOUS
 62
    2
 10
528.85074092417676
 20
271.21184697048056
 11
526.90074092417672
 21
271.21184697048056
  0
ARC
  8
_0-0_0
  6
CONTINUOUS
 62
    2
 10
528.85074092417676
 20
270.91184697048016
 40
0.2999999999999998
 50
0
 51
90
  0
LINE
  8
_0-0_0
  6
CONTINUOUS
 62
    2
 10
496.15074092417677
 20
267.21184797048045
 11
507.65073992417689
 21
267.21184797048045
  0
LINE
  8
_0-0_0
  6
CONTINUOUS
 62
    2
 10
496.45074092417678
 20
272.71184697048056
 11
498.40074092417677
 21
272.71184697048056
  0
ARC
  8
_0-0_0
  6
CONTINUOUS
 62
    2
 10
496.45074092417678
 20
273.01184697048029
 40
0.2999999999999998
 50
180
 51
270
  0
LINE
  8
_0-0_0
  6
CONTINUOUS
 62
    2
 10
496.15074092417677
 20
273.01184697048029
 11
496.15074092417677
 21
274.91184897048061
  0
ARC
  8
_0-0_0
  6
CONTINUOUS
 62
    2
 10
496.45074092417678
 20
274.91184897048061
 40
0.2999999999999998
 50
90
 51
180
  0
LINE
  8
_0-0_0
  6
CONTINUOUS
 62
    2
 10
495.15074192417694
 20
276.71184897048033
 11
499.40073992417689
 21
276.71184897048033
  0
ARC
  8
_0-0_0
  6
CONTINUOUS
 62
    2
 10
495.15074192417694
 20
276.21184797048045
 40
0.500001
 50
90
 51
180
  0
ARC
  8
_0-0_0
  6
CONTINUOUS
 62
    2
 10
499.40073992417689
 20
275.96184897048033
 40
0.75
 50
270
 51
90
  0
LINE
  8
_0-0_0
  6
CONTINUOUS
 62
    2
 10
494.65074092417677
 20
276.21184797048045
 11
494.65074092417677
 21
266.71184697048056
  0
LINE
  8
_0-0_0
  6
CONTINUOUS
 62
    2
 10
496.15074092417677
 20
267.21184797048045
 11
496.15074092417677
 21
266.71184697048056
  0
ARC
  8
_0-0_0
  6
CONTINUOUS
 62
    2
 10
498.40074092417677
 20
271.96184697048056
 40
0.75
 50
270
 51
90
  0
ARC
  8
_0-0_0
  6
CONTINUOUS
 62
    2
 10
496.45074092417678
 20
269.51184897048006
 40
0.2999999999999998
 50
180
 51
270
  0
LINE
  8
_0-0_0
  6
CONTINUOUS
 62
    2
 10
496.15074092417677
 20
269.51184897048006
 11
496.15074092417677
 21
270.91184697048016
  0
ARC
  8
_0-0_0
  6
CONTINUOUS
 62
    2
 10
496.45074092417678
 20
270.91184697048016
 40
0.2999999999999998
 50
90
 51
180
  0
LINE
  8
_0-0_0
  6
CONTINUOUS
 62
    2
 10
496.45074092417678
 20
271.21184697048056
 11
498.40074092417677
 21
271.21184697048056
  0
ARC
  8
_0-0_0
  6
CONTINUOUS
 62
    2
 10
528.65073992417683
 20
269.71184697048056
 40
0.500001
 50
270
 51
0
  0
LINE
  8
_0-0_0
  6
CONTINUOUS
 62
    2
 10
528.65073992417683
 20
269.21184897048033
 11
496.45074092417678
 21
269.21184897048033
  0
LINE
  8
_0-0_0
  6
CONTINUOUS
 62
    2
 10
496.15074092417677
 20
266.71184697048056
 11
494.65074092417677
 21
266.71184697048056
  0
ARC
  8
_0-0_0
  6
CONTINUOUS
 62
    2
 10
530.15073992417683
 20
284.71184697048068
 40
0.9999989999999994
 50
0
 51
180
  0
LINE
  8
_0-0_0
  6
CONTINUOUS
 62
    2
 10
529.15074092417672
 20
277.21184697048068
 11
529.15074092417672
 21
284.71184697048068
  0
LINE
  8
_0-0_0
  6
CONTINUOUS
 62
    2
 10
529.15074092417672
 20
273.01184697048029
 11
529.15074092417672
 21
274.91184897048061
  0
ARC
  8
_0-0_0
  6
CONTINUOUS
 62
    2
 10
531.65073992417683
 20
269.71184697048056
 40
0.500001
 50
180
 51
270
  0
LINE
  8
_0-0_0
  6
CONTINUOUS
 62
    2
 10
531.15074192417683
 20
267.71184897048033
 11
531.15074192417683
 21
266.71184697048056
  0
LINE
  8
_0-0_0
  6
CONTINUOUS
 62
    2
 10
529.15074092417672
 20
267.21184797048045
 11
529.15074092417672
 21
266.71184697048056
  0
LINE
  8
_0-0_0
  6
CONTINUOUS
 62
    2
 10
529.15074092417672
 20
269.71184697048056
 11
529.15074092417672
 21
270.91184697048016
  0
LINE
  8
_0-0_0
  6
CONTINUOUS
 62
    2
 10
541.65074192417683
 20
267.71184897048033
 11
541.65074192417683
 21
266.71184697048056
  0
LINE
  8
_0-0_0
  6
CONTINUOUS
 62
    2
 10
543.15074192417683
 20
266.71184697048056
 11
541.65074192417683
 21
266.71184697048056
  0
LINE
  8
_0-0_0
  6
CONTINUOUS
 62
    2
 10
531.15074192417683
 20
266.71184697048056
 11
529.15074092417672
 21
266.71184697048056
  0
LINE
  8
_0-0_0
  6
CONTINUOUS
 62
    2
 10
543.15074192417683
 20
268.71184897048045
 11
543.15074192417683
 21
266.71184697048056
  0
ARC
  8
_0-0_0
  6
CONTINUOUS
 62
    2
 10
542.65074192417683
 20
268.71184897048045
 40
0.5
 50
0
 51
90
  0
LINE
  8
_0-0_0
  6
CONTINUOUS
 62
    4
 10
531.40074192417774
 20
272.46184897048045
 11
532.65074192425777
 21
272.46184897048045
  0
LINE
  8
_0-0_0
  6
CONTINUOUS
 62
    4
 10
535.65074192425777
 20
272.46184897048045
 11
536.90074192417774
 21
272.46184897048045
  0
LINE
  8
_0-0_0
  6
CONTINUOUS
 62
    4
 10
532.65074192425777
 20
272.46184897048045
 11
532.65074192425777
 21
291.38140483041263
  0
LINE
  8
_0-0_0
  6
CONTINUOUS
 62
    4
 10
535.65074192425777
 20
272.46184897048045
 11
535.65074192425777
 21
292.84466782642642
  0
LINE
  8
_0-0_0
  6
CONTINUOUS
 62
    2
 10
531.15074192417683
 20
267.71184897048033
 11
538.65669079801773
 21
267.71184897048033
  0
LINE
  8
_0-0_0
  6
CONTINUOUS
 62
    2
 10
538.65669079801773
 20
267.71184897048033
 11
541.65074192417683
 21
267.71184897048033
  0
LINE
  8
_0-0_0
  6
CONTINUOUS
 62
    2
 10
536.65074192417683
 20
269.21184897048033
 11
531.65073992417683
 21
269.21184897048033
  0
LINE
  8
_0-0_0
  6
CONTINUOUS
 62
    2
 10
542.65074192417683
 20
269.21184897048033
 11
538.65074192417683
 21
269.21184897048033
  0
ARC
  8
_0-0_0
  6
CONTINUOUS
 62
    4
 10
536.65074192417683
 20
269.71184897048056
 40
0.25
 50
270
 51
0
  0
ARC
  8
_0-0_0
  6
CONTINUOUS
 62
    4
 10
531.65073992417683
 20
269.71184697048056
 40
0.2500009999999999
 50
180
 51
270
  0
LINE
  8
_0-0_0
  6
CONTINUOUS
 62
    4
 10
536.90074192417774
 20
269.71184897048056
 11
536.90074192417774
 21
272.46184897048045
  0
LINE
  8
_0-0_0
  6
CONTINUOUS
 62
    4
 10
531.40074192417774
 20
269.71184697048056
 11
531.40074192417774
 21
272.46184897048045
  0
LINE
  8
_0-0_0
  6
CONTINUOUS
 62
    4
 10
536.65074192417683
 20
269.46184897048045
 11
531.65073992417683
 21
269.46184897048045
  0
LINE
  8
_0-0_0
  6
CONTINUOUS
 62
    2
 10
531.15074192417683
 20
284.71184697048068
 11
531.15074192417683
 21
274.21184897048124
  0
LINE
  8
_0-0_0
  6
CONTINUOUS
 62
    2
 10
531.15074192417683
 20
272.71184897048124
 11
531.15074192417683
 21
269.71184697048056
  0
LINE
  8
_0-0_0
  6
CONTINUOUS
 62
    2
 10
537.15074192417683
 20
269.71184897048056
 11
537.15074192417683
 21
272.71184897048124
  0
LINE
  8
_0-0_0
  6
CONTINUOUS
 62
    2
 10
538.65074192417683
 20
273.71184897048136
 11
538.65074192417683
 21
269.21184897048033
  0
ARC
  8
_0-0_0
  6
CONTINUOUS
 62
    2
 10
538.15074192417683
 20
273.71184897048136
 40
0.5
 50
0
 51
90
  0
ARC
  8
_0-0_0
  6
CONTINUOUS
 62
    2
 10
536.65074192417683
 20
269.71184897048056
 40
0.5
 50
270
 51
0
  0
LINE
  8
_0-0_0
  6
CONTINUOUS
 62
    2
 10
538.15074192417683
 20
274.21184897048124
 11
536.90074192417683
 21
274.21184897048124
  0
ARC
  8
_0-0_0
  6
CONTINUOUS
 62
    2
 10
536.90074192417683
 20
273.21184897048147
 40
1
 50
90
 51
180
  0
LINE
  8
_0-0_0
  6
CONTINUOUS
 62
    2
 10
535.90074192417683
 20
273.21184897048147
 11
535.90074192417683
 21
272.71184897048124
  0
LINE
  8
_0-0_0
  6
CONTINUOUS
 62
    2
 10
535.90074192417683
 20
272.71184897048124
 11
537.15074192417683
 21
272.71184897048124
  0
LINE
  8
_0-0_0
  6
CONTINUOUS
 62
    2
 10
531.15074192417683
 20
272.71184897048124
 11
532.40074192417683
 21
272.71184897048124
  0
LINE
  8
_0-0_0
  6
CONTINUOUS
 62
    2
 10
532.40074192417683
 20
273.21184897048147
 11
532.40074192417683
 21
272.71184897048124
  0
ARC
  8
_0-0_0
  6
CONTINUOUS
 62
    2
 10
531.40074192417683
 20
273.21184897048147
 40
1
 50
0
 51
90
  0
LINE
  8
_0-0_0
  6
CONTINUOUS
 62
    2
 10
531.40074192417683
 20
274.21184897048124
 11
531.15074192417683
 21
274.21184897048124
  0
LINE
  8
_0-0_0
  6
CONTINUOUS
 62
    7
 10
497.65074092417586
 20
266.70307797048054
 11
527.65074092417581
 21
266.70307797048054
  0
LINE
  8
_0-0_0
  6
CONTINUOUS
 62
    7
 10
527.65074092417581
 20
265.70307797048076
 11
527.65074092417581
 21
266.70307797048054
  0
LINE
  8
_0-0_0
  6
CONTINUOUS
 62
    1
 10
497.65074092417586
 20
264.70307797048031
 11
562.63306863858497
 21
264.70307797048031
  0
CIRCLE
  8
_0-4_図枠
  6
CONTINUOUS
 62
    4
 10
497.87804161013815
 20
247.98723548345936
 40
6
  0
TEXT
  8
_0-4_図枠
 62
    7
 10
494.62804161013815
 20
244.98723548345936
 40
6
 41
1
 50
0
  1
20
  0
LINE
  8
_0-4_図枠
  6
CONTINUOUS
 62
    4
 10
510.57529524201829
 20
269.97952389046281
 11
500.87804161013815
 21
253.18338790616588
  0
CIRCLE
  8
_0-4_図枠
  6
CONTINUOUS
 62
    4
 10
510.57529524201829
 20
269.97952389046281
 40
0.9
  0
LINE
  8
_0-4_図枠
  6
CONTINUOUS
 62
    4
 10
498.18799099426008
 20
264.73874132410356
 11
488.49073736237995
 21
247.94260533980662
  0
CIRCLE
  8
_0-4_図枠
  6
CONTINUOUS
 62
    4
 10
498.18799099426008
 20
264.73874132410356
 40
0.9
  0
LINE
  8
_0-4_図枠
  6
CONTINUOUS
 62
    4
 10
530.29916197888952
 20
281.16129693840935
 11
555.11221623433948
 21
326.75915661637157
  0
CIRCLE
  8
_0-4_図枠
  6
CONTINUOUS
 62
    4
 10
558.11221623433948
 20
329.3349200225183
 40
6
  0
TEXT
  8
_0-4_図枠
 62
    7
 10
555.52646665737507
 20
327.51457054937339
 40
6
 41
1
 50
0
  1
３
  0
ARC
  8
_0-0_0
  6
CONTINUOUS
 62
    4
 10
558.7266875182188
 20
292.11303632841748
 40
23.087541006014401
 50
80.801339104808051
 51
181.81597582067386
  0
ARC
  8
_0-0_0
  6
CONTINUOUS
 62
    4
 10
557.65074192425777
 20
291.38140483041263
 40
24.999999999999996
 50
78.590455650788186
 51
180
  0
CIRCLE
  8
_0-4_図枠
  6
CONTINUOUS
 62
    4
 10
561.41838736045952
 20
315.57893165820201
 40
0.9
  0
ARC
  8
_0-0_0
  6
CONTINUOUS
 62
    4
 10
562.49734739651376
 20
315.3972415927725
 40
0.5
 50
260.801339104806
 51
78.590455650788144
  0
LINE
  8
_0-4_図枠
  6
CONTINUOUS
 62
    4
 10
561.41838736045952
 20
315.57893165820201
 11
579.36699541488315
 21
344.39129129145124
  0
TEXT
  8
_0-4_図枠
 62
    7
 10
579.48435873161861
 20
346.5126312520091
 40
6
 41
1
 50
0
  1
11
  0
CIRCLE
  8
_0-4_図枠
  6
CONTINUOUS
 62
    4
 10
582.36699541488315
 20
349.58744371415787
 40
6
  0
LINE
  8
_0-0_0
  6
CONTINUOUS
 62
    2
 10
491.65074092417586
 20
265.70307997048053
 11
436.86574118650452
 21
265.70307997048053
  0
LINE
  8
_0-0_0
  6
CONTINUOUS
 62
    1
 10
437.63306763858503
 20
264.70307797048031
 11
497.65074092417586
 21
264.70307797048031
  0
CIRCLE
  8
_0-4_図枠
  6
CONTINUOUS
 62
    4
 10
485.88156898420624
 20
242.7464529171001
 40
6
  0
TEXT
  8
_0-4_図枠
 62
    7
 10
484.24785885146645
 20
239.81714858082034
 40
6
 41
1
 50
0
  1
5
  0
LINE
  8
_0-5_ADD_LINE
  6
CONTINUOUS
 62
    3
 10
431.88360369173154
 20
264.70307797048031
 11
18.799467697934404
 21
264.70307797048031
  0
LINE
  8
_0-0_0
  6
CONTINUOUS
 62
    3
 10
37.757189638584975
 20
342.29479743326817
 11
37.757189638584975
 21
264.70307797048031
  0
LINE
  8
_0-0_0
  6
CONTINUOUS
 62
    3
 10
37.757189638584975
 20
264.70307797048031
 11
38.507189638584975
 21
267.70307797048031
  0
LINE
  8
_0-0_0
  6
CONTINUOUS
 62
    3
 10
37.757189638584975
 20
264.70307797048031
 11
37.007189638584975
 21
267.70307797048031
  0
LINE
  8
_0-0_0
  6
CONTINUOUS
 62
    3
 10
24.799467697934404
 20
400.99479843326839
 11
24.799467697934404
 21
264.70307797048031
  0
LINE
  8
_0-0_0
  6
CONTINUOUS
 62
    3
 10
24.799467697934404
 20
264.70307797048031
 11
25.549467697934404
 21
267.70307797048031
  0
LINE
  8
_0-0_0
  6
CONTINUOUS
 62
    3
 10
24.799467697934404
 20
264.70307797048031
 11
24.049467697934404
 21
267.70307797048031
  0
LINE
  8
_0-0_0
  6
CONTINUOUS
 62
    3
 10
572.63306863858497
 20
264.70307797048031
 11
792.03165549123719
 21
264.70307797048031
  0
CIRCLE
  8
_0-4_図枠
  6
CONTINUOUS
 62
    4
 10
514.23769258534435
 20
308.2829592971791
 40
0.9
  0
CIRCLE
  8
_0-4_図枠
  6
CONTINUOUS
 62
    4
 10
529.75508993016115
 20
308.03231110222373
 40
0.9
  0
LINE
  8
_0-0_0
  6
DASHED1
 62
    3
 10
502.69261491542727
 20
314.01849325690853
 11
525.66109491542738
 21
312.81476725690823
  0
LINE
  8
_0-0_0
  6
DASHED1
 62
    3
 10
489.24504591542723
 20
301.8015842569082
 11
502.69261491542727
 21
314.01849325690853
  0
LINE
  8
_0-0_0
  6
DASHED1
 62
    3
 10
485.39622291542707
 20
304.00821025690846
 11
486.05745891542711
 21
304.45851025690877
  0
LINE
  8
_0-0_0
  6
DASHED1
 62
    3
 10
486.05745891542711
 20
304.45851025690877
 11
487.74607491542736
 21
301.97887825690873
  0
LINE
  8
_0-0_0
  6
DASHED1
 62
    3
 10
485.39622291542707
 20
304.00821025690846
 11
487.08483891542733
 21
301.52857825690842
  0
ARC
  8
_0-0_0
  6
DASHED1
 62
    3
 10
488.57261691542715
 20
302.54175025690836
 40
0.9999989999999994
 50
214.25465800000001
 51
312.25465199999996
  0
ARC
  8
_0-0_0
  6
DASHED1
 62
    3
 10
488.57261691542715
 20
302.54175025690836
 40
1.7999999999999994
 50
214.25465800000001
 51
312.25465100000002
  0
ARC
  8
_0-0_0
  6
DASHED1
 62
    3
 10
514.09835091542732
 20
311.91868525690859
 40
6.3000000000000007
 50
37.903458000000029
 51
136.096542
  0
LINE
  8
_0-0_0
  6
DASHED1
 62
    3
 10
509.00290191542729
 20
315.00517225690817
 11
508.93404891542718
 21
313.69139425690878
  0
LINE
  8
_0-0_0
  6
DASHED1
 62
    3
 10
519.48851091542724
 20
314.45564425690816
 11
519.41966091542736
 21
313.14186625690877
  0
ARC
  8
_0-0_0
  6
DASHED1
 62
    3
 10
511.00016091542727
 20
314.90050225690845
 40
2.0000010000000001
 50
136.096542
 51
176.99999999999997
  0
LINE
  8
_0-0_0
  6
DASHED1
 62
    3
 10
489.78298491542716
 20
301.20945325690832
 11
502.98374391542723
 21
313.20213925690837
  0
LINE
  8
_0-0_0
  6
DASHED1
 62
    3
 10
502.98374391542723
 20
313.20213925690837
 11
525.32707191542727
 21
312.03117325690835
  0
LINE
  8
_0-0_0
  6
DASHED1
 62
    3
 10
537.16109391542705
 20
298.72647325690855
 11
525.28622691542728
 21
312.03331525690851
  0
ARC
  8
_0-0_0
  6
DASHED1
 62
    3
 10
517.49125191542726
 20
314.56031725690832
 40
2.0000010000000001
 50
356.99999999999994
 51
37.903457999999993
  0
LINE
  8
_0-0_0
  6
DASHED1
 62
    3
 10
541.81637691542733
 20
301.05135625690878
 11
541.2058319154271
 21
301.56830425690839
  0
LINE
  8
_0-0_0
  6
DASHED1
 62
    3
 10
541.2058319154271
 20
301.56830425690839
 11
539.26727391542727
 21
299.27876425690863
  0
LINE
  8
_0-0_0
  6
DASHED1
 62
    3
 10
541.81637691542733
 20
301.05135625690878
 11
539.87781891542704
 21
298.76181625690822
  0
ARC
  8
_0-0_0
  6
DASHED1
 62
    3
 10
538.50409491542723
 20
299.92495225690823
 40
0.9999989999999994
 50
221.74534799999995
 51
319.74534199999994
  0
LINE
  8
_0-0_0
  6
DASHED1
 62
    3
 10
537.75798291542719
 20
299.25912925690807
 11
525.66109491542738
 21
312.81476725690823
  0
ARC
  8
_0-0_0
  6
DASHED1
 62
    3
 10
538.50409491542723
 20
299.92495225690823
 40
1.7999999999999994
 50
221.74534899999995
 51
319.74534199999994
  0
LINE
  8
_0-4_図枠
  6
CONTINUOUS
 62
    4
 10
529.75508993016115
 20
308.03231110222373
 11
547.70369798458478
 21
336.84467073547296
  0
CIRCLE
  8
_0-4_図枠
  6
CONTINUOUS
 62
    4
 10
550.70369798458478
 20
342.04082315817959
 40
6
  0
TEXT
  8
_0-4_図枠
 62
    7
 10
547.70369798458478
 20
339.04082315817982
 40
6
 41
1
 50
0
  1
７
  0
TEXT
  8
_0-4_図枠
 62
    7
 10
531.47474340642407
 20
338.49203077438256
 40
6
 41
1
 50
0
  1
14
  0
CIRCLE
  8
_0-4_図枠
  6
CONTINUOUS
 62
    4
 10
534.72474340642407
 20
341.49203077438233
 40
6
  0
LINE
  8
_0-4_図枠
  6
CONTINUOUS
 62
    4
 10
514.23769258534435
 20
308.2829592971791
 11
531.72474340642498
 21
336.29587835167581
  0
LINE
  8
_0-0_0
  6
CENTER1
 62
    3
 10
514.4833529154273
 20
319.2649802569083
 11
512.33708526860119
 21
280.59808332134071
  0
LINE
  8
_0-0_0
  6
DASHED1
 62
    3
 10
511.18096491542713
 20
313.57363825690868
 11
509.47934720537785
 21
284.1223318557561
  0
LINE
  8
_0-0_0
  6
DASHED1
 62
    3
 10
511.68028191542737
 20
313.54746925690813
 11
509.94981903457165
 21
283.59698932125184
  0
LINE
  8
_0-0_0
  6
DASHED1
 62
    3
 10
516.67342791542728
 20
313.28579125690862
 11
514.94296919619455
 21
283.33530963363432
  0
LINE
  8
_0-0_0
  6
DASHED1
 62
    3
 10
517.17274491542707
 20
313.25962225690807
 11
515.47112328012872
 21
283.80831644649277
  0
LINE
  8
_0-0_0
  6
CONTINUOUS
 62
    3
 10
509.94981903457165
 20
283.59698932125184
 11
509.76532607344518
 21
283.80299953011479
  0
LINE
  8
_0-0_0
  6
DASHED1
 62
    3
 10
509.76532607344518
 20
283.80299953011479
 11
509.47934720537785
 21
284.1223318557561
  0
LINE
  8
_0-0_0
  6
DASHED1
 62
    3
 10
509.47934720537785
 20
284.1223318557561
 11
515.47112328012872
 21
283.80831644649277
  0
LINE
  8
_0-0_0
  6
CONTINUOUS
 62
    3
 10
509.94981903457165
 20
283.59698932125184
 11
514.94296919619455
 21
283.33530963363432
  0
LINE
  8
_0-0_0
  6
DASHED1
 62
    3
 10
515.47112328012872
 20
283.80831644649277
 11
515.15008156787371
 21
283.52079634255404
  0
LINE
  8
_0-0_0
  6
CONTINUOUS
 62
    3
 10
515.15008156787371
 20
283.52079634255404
 11
514.94296919619455
 21
283.33530963363432
  0
TEXT
  8
_0-0_0
 62
    7
 10
666.70906516424793
 20
144.5709883091522
 40
5
 41
1
 50
0
  1
78
  0
TEXT
  8
_0-0_0
 62
    7
 10
694.95906516424793
 20
144.5709883091522
 40
5
 41
1
 50
0
  1
136
  0
TEXT
  8
_0-0_0
 62
    7
 10
574.95906516424793
 20
144.5709883091522
 40
5
 41
1
 50
0
  1
675
  0
TEXT
  8
_0-0_0
 62
    7
 10
604.95906516424793
 20
144.5709883091522
 40
5
 41
1
 50
0
  1
660
  0
TEXT
  8
_0-0_0
 62
    7
 10
634.95906516424793
 20
144.5709883091522
 40
5
 41
1
 50
0
  1
125
  0
LINE
  8
_0-0_0
  6
CONTINUOUS
 62
    7
 10
333.95906516424793
 20
143.07098830915254
 11
124.95906516424793
 21
143.07098830915254
  0
TEXT
  8
_0-4_図枠
 62
    7
 10
243.95906516424793
 20
144.57098830915243
 40
5
 41
1
 50
0
  1
３５０ＦＹＫＧ－Ａ６７５
  0
TEXT
  8
_0-4_図枠
 62
    7
 10
243.95906516424793
 20
108.57098830915243
 40
5
 41
1
 50
0
  1
ｔ１．０×ｗ３０
  0
TEXT
  8
_0-4_図枠
 62
    7
 10
243.95906516424793
 20
99.570988309152426
 40
5
 41
1
 50
0
  1
３５０ＦＹＫＨ－６７５
  0
TEXT
  8
_0-4_図枠
 62
    7
 10
243.95906516424793
 20
72.57098830915254
 40
5
 41
1
 50
0
  1
３５０ＦＹＫＪ－６７５
  0
TEXT
  8
_0-4_図枠
 62
    7
 10
243.95906516424793
 20
27.57098830915254
 40
5
 41
1
 50
0
  1
なべＭ６×３５
  0
TEXT
  8
_0-4_図枠
 62
    7
 10
243.95906516424793
 20
18.57098830915254
 40
5
 41
1
 50
0
  1
なべＭ４×１０
  0
TEXT
  8
_0-4_図枠
 62
    7
 10
243.95906516424793
 20
9.5709883091525398
 40
5
 41
1
 50
0
  1
Ｍ６×４０
  0
TEXT
  8
_0-4_図枠
 62
    7
 10
243.95906516424793
 20
0.5709883091525398
 40
5
 41
1
 50
0
  1
ＡＧ－６６０
  0
TEXT
  8
_0-4_図枠
 62
    7
 10
243.95906516424793
 20
-8.4290116908474602
 40
5
 41
1
 50
0
  1
φ８×４０
  0
TEXT
  8
_0-4_図枠
 62
    7
 10
243.95906516424793
 20
-17.42901169084746
 40
5
 41
1
 50
0
  1
なべ ５×５０
  0
TEXT
  8
_0-4_図枠
 62
    7
 10
243.95906516424793
 20
-26.42901169084746
 40
5
 41
1
 50
0
  1
１．５×１８×６．５穴
  0
TEXT
  8
_0-4_図枠
 62
    7
 10
243.95906516424793
 20
-35.42901169084746
 40
5
 41
1
 50
0
  1
１．５×１８×５．５穴
  0
TEXT
  8
_0-4_図枠
 62
    7
 10
340.95906516424793
 20
161.64998868825228
 40
5
 41
1
 50
0
  1
（３０００mmセット）
  0
TEXT
  8
_0-4_図枠
 62
    7
 10
408.95906516424793
 20
161.64998868825228
 40
5
 41
1
 50
0
  1
（２０００mmセット）
  0
TEXT
  8
_0-4_図枠
 62
    7
 10
494.65056029340047
 20
144.94210259381873
 40
5
 41
1
 50
0
  1
３５０ＦＹＫＧ－Ａ６７５
  0
TEXT
  8
_0-4_図枠
 62
    7
 10
340.32124297445068
 20
144.57098830915243
 40
5
 41
1
 50
0
  1
３０００
  0
TEXT
  8
_0-4_図枠
 62
    7
 10
340.32124297445068
 20
135.57098830915243
 40
5
 41
1
 50
0
  1
３０００
  0
TEXT
  8
_0-4_図枠
 62
    7
 10
340.32124297445068
 20
126.57098830915243
 40
5
 41
1
 50
0
  1
３０００
  0
TEXT
  8
_0-4_図枠
 62
    7
 10
340.32124297445068
 20
117.57098830915243
 40
5
 41
1
 50
0
  1
３０００
  0
TEXT
  8
_0-4_図枠
 62
    7
 10
340.32124297445068
 20
108.57098830915243
 40
5
 41
1
 50
0
  1
６０００
  0
TEXT
  8
_0-4_図枠
 62
    7
 10
340.32124297445068
 20
54.57098830915254
 40
5
 41
1
 50
0
  1
３０６０
  0
TEXT
  8
_0-4_図枠
 62
    7
 10
340.32124297445068
 20
45.57098830915254
 40
5
 41
1
 50
0
  1
３１００
  0
TEXT
  8
_0-4_図枠
 62
    7
 10
340.32124297445068
 20
36.57098830915254
 40
5
 41
1
 50
0
  1
３０００
  0
TEXT
  8
_0-4_図枠
 62
    7
 10
376.56970908275093
 20
144.57098830915243
 40
5
 41
1
 50
0
  1
１
  0
TEXT
  8
_0-4_図枠
 62
    7
 10
376.56970908275093
 20
135.57098830915243
 40
5
 41
1
 50
0
  1
１
  0
TEXT
  8
_0-4_図枠
 62
    7
 10
376.56970908275093
 20
126.57098830915243
 40
5
 41
1
 50
0
  1
１
  0
TEXT
  8
_0-4_図枠
 62
    7
 10
376.56970908275093
 20
117.57098830915243
 40
5
 41
1
 50
0
  1
１
  0
TEXT
  8
_0-4_図枠
 62
    7
 10
376.56970908275093
 20
108.57098830915243
 40
5
 41
1
 50
0
  1
１
  0
TEXT
  8
_0-4_図枠
 62
    7
 10
376.56970908275093
 20
99.570988309152426
 40
5
 41
1
 50
0
  1
６
  0
TEXT
  8
_0-4_図枠
 62
    7
 10
376.56970908275093
 20
90.57098830915254
 40
5
 41
1
 50
0
  1
６
  0
TEXT
  8
_0-4_図枠
 62
    7
 10
376.56970908275093
 20
81.57098830915254
 40
5
 41
1
 50
0
  1
６
  0
TEXT
  8
_0-4_図枠
 62
    7
 10
376.56970908275093
 20
72.57098830915254
 40
5
 41
1
 50
0
  1
１
  0
TEXT
  8
_0-4_図枠
 62
    7
 10
376.56970908275093
 20
63.57098830915254
 40
5
 41
1
 50
0
  1
１
  0
TEXT
  8
_0-4_図枠
 62
    7
 10
376.7802038918939
 20
55.389565903248581
 40
5
 41
1
 50
0
  1
１
  0
TEXT
  8
_0-4_図枠
 62
    7
 10
376.56970908275093
 20
45.57098830915254
 40
5
 41
1
 50
0
  1
１
  0
TEXT
  8
_0-4_図枠
 62
    7
 10
376.56970908275093
 20
36.57098830915254
 40
5
 41
1
 50
0
  1
１
  0
TEXT
  8
_0-4_図枠
 62
    7
 10
376.56970908275093
 20
27.57098830915254
 40
5
 41
1
 50
0
  1
６
  0
TEXT
  8
_0-4_図枠
 62
    7
 10
376.56970908275093
 20
18.57098830915254
 40
5
 41
1
 50
0
  1
６
  0
TEXT
  8
_0-4_図枠
 62
    7
 10
376.56970908275093
 20
9.5709883091525398
 40
5
 41
1
 50
0
  1
６
  0
TEXT
  8
_0-4_図枠
 62
    7
 10
376.56970908275093
 20
0.5709883091525398
 40
5
 41
1
 50
0
  1
６
  0
TEXT
  8
_0-4_図枠
 62
    7
 10
376.56970908275093
 20
-8.4290116908474602
 40
5
 41
1
 50
0
  1
６
  0
TEXT
  8
_0-4_図枠
 62
    7
 10
376.56970908275093
 20
-17.42901169084746
 40
5
 41
1
 50
0
  1
６
  0
TEXT
  8
_0-4_図枠
 62
    7
 10
376.56970908275093
 20
-26.42901169084746
 40
5
 41
1
 50
0
  1
６
  0
TEXT
  8
_0-4_図枠
 62
    7
 10
376.56970908275093
 20
-35.42901169084746
 40
5
 41
1
 50
0
  1
６
  0
TEXT
  8
_0-4_図枠
 62
    7
 10
409.62021483672982
 20
144.57098830915243
 40
5
 41
1
 50
0
  1
２０００
  0
TEXT
  8
_0-4_図枠
 62
    7
 10
409.62021483672982
 20
135.57098830915243
 40
5
 41
1
 50
0
  1
２０００
  0
TEXT
  8
_0-4_図枠
 62
    7
 10
409.62021483672982
 20
126.57098830915243
 40
5
 41
1
 50
0
  1
２０００
  0
TEXT
  8
_0-4_図枠
 62
    7
 10
409.62021483672982
 20
117.57098830915243
 40
5
 41
1
 50
0
  1
２０００
  0
TEXT
  8
_0-4_図枠
 62
    7
 10
409.62021483672982
 20
108.57098830915243
 40
5
 41
1
 50
0
  1
６０００
  0
TEXT
  8
_0-4_図枠
 62
    7
 10
409.62021483672982
 20
54.57098830915254
 40
5
 41
1
 50
0
  1
２０６０
  0
TEXT
  8
_0-4_図枠
 62
    7
 10
409.62021483672982
 20
45.57098830915254
 40
5
 41
1
 50
0
  1
２１００
  0
TEXT
  8
_0-4_図枠
 62
    7
 10
409.62021483672982
 20
36.57098830915254
 40
5
 41
1
 50
0
  1
２０００
  0
TEXT
  8
_0-4_図枠
 62
    7
 10
445.05061826614281
 20
144.57098830915243
 40
5
 41
1
 50
0
  1
１
  0
TEXT
  8
_0-4_図枠
 62
    7
 10
445.05061826614281
 20
135.57098830915243
 40
5
 41
1
 50
0
  1
１
  0
TEXT
  8
_0-4_図枠
 62
    7
 10
445.05061826614281
 20
126.57098830915243
 40
5
 41
1
 50
0
  1
１
  0
TEXT
  8
_0-4_図枠
 62
    7
 10
445.05061826614281
 20
117.57098830915243
 40
5
 41
1
 50
0
  1
１
  0
TEXT
  8
_0-4_図枠
 62
    7
 10
445.05061826614281
 20
108.57098830915243
 40
5
 41
1
 50
0
  1
１
  0
TEXT
  8
_0-4_図枠
 62
    7
 10
445.05061826614281
 20
99.570988309152426
 40
5
 41
1
 50
0
  1
１
  0
TEXT
  8
_0-4_図枠
 62
    7
 10
445.05061826614281
 20
90.57098830915254
 40
5
 41
1
 50
0
  1
１
  0
TEXT
  8
_0-4_図枠
 62
    7
 10
445.05061826614281
 20
81.57098830915254
 40
5
 41
1
 50
0
  1
４
  0
TEXT
  8
_0-4_図枠
 62
    7
 10
445.05061826614281
 20
72.57098830915254
 40
5
 41
1
 50
0
  1
１
  0
TEXT
  8
_0-4_図枠
 62
    7
 10
445.05061826614281
 20
63.57098830915254
 40
5
 41
1
 50
0
  1
１
  0
TEXT
  8
_0-4_図枠
 62
    7
 10
444.87249794740347
 20
54.716815805018427
 40
5
 41
1
 50
0
  1
１
  0
TEXT
  8
_0-4_図枠
 62
    7
 10
445.05061826614281
 20
45.57098830915254
 40
5
 41
1
 50
0
  1
１
  0
TEXT
  8
_0-4_図枠
 62
    7
 10
445.05061826614281
 20
36.57098830915254
 40
5
 41
1
 50
0
  1
１
  0
TEXT
  8
_0-4_図枠
 62
    7
 10
445.05061826614281
 20
27.57098830915254
 40
5
 41
1
 50
0
  1
４
  0
TEXT
  8
_0-4_図枠
 62
    7
 10
445.05061826614281
 20
18.57098830915254
 40
5
 41
1
 50
0
  1
５
  0
TEXT
  8
_0-4_図枠
 62
    7
 10
445.05061826614281
 20
9.5709883091525398
 40
5
 41
1
 50
0
  1
５
  0
TEXT
  8
_0-4_図枠
 62
    7
 10
445.05061826614281
 20
0.5709883091525398
 40
5
 41
1
 50
0
  1
５
  0
TEXT
  8
_0-4_図枠
 62
    7
 10
445.05061826614281
 20
-8.4290116908474602
 40
5
 41
1
 50
0
  1
５
  0
TEXT
  8
_0-4_図枠
 62
    7
 10
445.05061826614281
 20
-17.42901169084746
 40
5
 41
1
 50
0
  1
５
  0
TEXT
  8
_0-4_図枠
 62
    7
 10
445.05061826614281
 20
-26.42901169084746
 40
5
 41
1
 50
0
  1
５
  0
TEXT
  8
_0-4_図枠
 62
    7
 10
445.05061826614281
 20
-35.42901169084746
 40
5
 41
1
 50
0
  1
５
  0
TEXT
  8
_0-4_図枠
 62
    7
 10
243.95906516424793
 20
45.57098830915254
 40
5
 41
1
 50
0
  1
ＦＳ１２００
  0
TEXT
  8
_0-0_0
 62
    7
 10
498.52013145035596
 20
181.26543669591169
 40
6
 41
1
 50
0
  1
Ｃ
  0
TEXT
  8
_0-0_0
 62
    7
 10
418.50406560336216
 20
475.41113396696022
 40
6
 41
1
 50
0
  1
Ｗ
  0
ENDSEC
  0
EOF
