  0
SECTION
  2
HEADER
  9
$ACADVER
  1
AC1015
  9
$DWGCODEPAGE
  3
ANSI_932
  9
$EXTMIN
 10
12
 20
9
  9
$EXTMAX
 10
1248
 20
873
  9
$LIMMIN
 10
0
 20
0
  9
$LIMMAX
 10
1260
 20
882
  9
$LTSCALE
 40
3
  9
$DIMSCALE
 40
3
  9
$DIMSTYLE
  2
M7DIMSTL
  9
$HANDSEED
  5
7FFFFFFF
  9
$MEASUREMENT
 70
     1
  0
ENDSEC
  0
SECTION
  2
CLASSES
  0
CLASS
  1
CSOFTARXCLASS
  2
CSoftArxClass
  3
CSRasterApi
 90
     0
280
     0
281
     0
  0
CLASS
  1
IMAGEDEF
  2
AcDbRasterImageDef
  3
ISM
 90
     0
280
     0
281
     0
  0
CLASS
  1
RASTERVARIABLES
  2
AcDbRasterVariables
  3
ISM
 90
     0
280
     0
281
     0
  0
CLASS
  1
IMAGE
  2
AcDbRasterImage
  3
ISM
 90
   127
280
     0
281
     0
  0
CLASS
  1
IMAGEDEF_REACTOR
  2
AcDbRasterImageDefReactor
  3
ISM
 90
     1
280
     0
281
     0
  0
CLASS
  1
HATCH
  2
AcDbHatch
  3
M7
 90
     0
280
     0
281
     1
  0
ENDSEC
  0
SECTION
  2
TABLES
  0
TABLE
  2
VPORT
  5
FF
100
AcDbSymbolTable
 70
     5
  0
VPORT
  5
100
100
AcDbSymbolTableRecord
100
AcDbViewportTableRecord
  2
*ACTIVE
 70
     0
 10
0
 20
0
 11
1
 21
1
 12
630
 22
441
 13
0
 23
0
 14
0
 24
0
 15
0
 25
0
 16
0
 26
0
 36
1
 17
0
 27
0
 37
0
 40
441
 41
1.428571428571
 42
50
 43
0
 44
0
 50
0
 51
0
 71
     0
 72
   100
 73
     1
 74
     3
 75
     0
 76
     0
 77
     0
 78
     0
  0
ENDTAB
  0
TABLE
  2
LTYPE
  5
101
100
AcDbSymbolTable
 70
     1
  0
LTYPE
  5
102
100
AcDbSymbolTableRecord
100
AcDbLinetypeTableRecord
  2
BYBLOCK
 70
     0
  3

 72
    65
 73
     0
 40
0
  0
LTYPE
  5
103
100
AcDbSymbolTableRecord
100
AcDbLinetypeTableRecord
  2
BYLAYER
 70
     0
  3

 72
    65
 73
     0
 40
0
  0
LTYPE
  5
104
100
AcDbSymbolTableRecord
100
AcDbLinetypeTableRecord
  2
CONTINUOUS
 70
     0
  3
Solid line
 72
    65
 73
     0
 40
0
  0
LTYPE
  5
105
100
AcDbSymbolTableRecord
100
AcDbLinetypeTableRecord
  2
DOT
 70
     0
  3
...............................
 72
    65
 73
     2
 40
2
 49
1
 74
     0
 49
-1
 74
     0
  0
LTYPE
  5
106
100
AcDbSymbolTableRecord
100
AcDbLinetypeTableRecord
  2
DASHED
 70
     0
  3
- - - - - - - - - - - - - - - -
 72
    65
 73
     2
 40
4
 49
2
 74
     0
 49
-2
 74
     0
  0
LTYPE
  5
107
100
AcDbSymbolTableRecord
100
AcDbLinetypeTableRecord
  2
DASHED2
 70
     0
  3
-- -- -- -- -- -- -- -- -- -- -
 72
    65
 73
     2
 40
8
 49
5
 74
     0
 49
-3
 74
     0
  0
LTYPE
  5
108
100
AcDbSymbolTableRecord
100
AcDbLinetypeTableRecord
  2
CENTER
 70
     0
  3
--------- - --------- - -------
 72
    65
 73
     4
 40
23
 49
20
 74
     0
 49
-1
 74
     0
 49
1
 74
     0
 49
-1
 74
     0
  0
LTYPE
  5
109
100
AcDbSymbolTableRecord
100
AcDbLinetypeTableRecord
  2
CENTERX2
 70
     0
  3
-------------- - --------------
 72
    65
 73
     4
 40
43
 49
40
 74
     0
 49
-1
 74
     0
 49
1
 74
     0
 49
-1
 74
     0
  0
LTYPE
  5
10A
100
AcDbSymbolTableRecord
100
AcDbLinetypeTableRecord
  2
CENTER2
 70
     0
  3
------ - ----- - ------ - -----
 72
    65
 73
     4
 40
13
 49
10
 74
     0
 49
-1
 74
     0
 49
1
 74
     0
 49
-1
 74
     0
  0
LTYPE
  5
10B
100
AcDbSymbolTableRecord
100
AcDbLinetypeTableRecord
  2
PHANTOM
 70
     0
  3
-------- - - ------- - - ------
 72
    65
 73
     6
 40
25
 49
20
 74
     0
 49
-1
 74
     0
 49
1
 74
     0
 49
-1
 74
     0
 49
1
 74
     0
 49
-1
 74
     0
  0
LTYPE
  5
10C
100
AcDbSymbolTableRecord
100
AcDbLinetypeTableRecord
  2
PHANTOMX2
 70
     0
  3
------------- - - -------------
 72
    65
 73
     6
 40
45
 49
40
 74
     0
 49
-1
 74
     0
 49
1
 74
     0
 49
-1
 74
     0
 49
1
 74
     0
 49
-1
 74
     0
  0
LTYPE
  5
10D
100
AcDbSymbolTableRecord
100
AcDbLinetypeTableRecord
  2
PHANTOM2
 70
     0
  3
---- - - ---- - - ---- - - ----
 72
    65
 73
     6
 40
15
 49
10
 74
     0
 49
-1
 74
     0
 49
1
 74
     0
 49
-1
 74
     0
 49
1
 74
     0
 49
-1
 74
     0
  0
LTYPE
  5
10E
100
AcDbSymbolTableRecord
100
AcDbLinetypeTableRecord
  2
ACAD_ISO06W100
 70
     0
  3
------------ - - - ------------
 72
    65
 73
     8
 40
47
 49
40
 74
     0
 49
-1
 74
     0
 49
1
 74
     0
 49
-1
 74
     0
 49
1
 74
     0
 49
-1
 74
     0
 49
1
 74
     0
 49
-1
 74
     0
  0
LTYPE
  5
10F
100
AcDbSymbolTableRecord
100
AcDbLinetypeTableRecord
  2
ACAD_ISO14W100
 70
     0
  3
---- - - - -------- - - - -----
 72
    65
 73
     8
 40
27
 49
20
 74
     0
 49
-1
 74
     0
 49
1
 74
     0
 49
-1
 74
     0
 49
1
 74
     0
 49
-1
 74
     0
 49
1
 74
     0
 49
-1
 74
     0
  0
LTYPE
  5
110
100
AcDbSymbolTableRecord
100
AcDbLinetypeTableRecord
  2
ACAD_ISO11W100
 70
     0
  3
------- ------ - ------- ------
 72
    65
 73
     6
 40
44
 49
20
 74
     0
 49
-1
 74
     0
 49
20
 74
     0
 49
-1
 74
     0
 49
1
 74
     0
 49
-1
 74
     0
  0
LTYPE
  5
111
100
AcDbSymbolTableRecord
100
AcDbLinetypeTableRecord
  2
ACAD_ISO13W100
 70
     0
  3
------ ------ - - ------ ------
 72
    65
 73
     8
 40
46
 49
20
 74
     0
 49
-1
 74
     0
 49
20
 74
     0
 49
-1
 74
     0
 49
1
 74
     0
 49
-1
 74
     0
 49
1
 74
     0
 49
-1
 74
     0
  0
LTYPE
  5
112
100
AcDbSymbolTableRecord
100
AcDbLinetypeTableRecord
  2
ACAD_ISO15W100
 70
     0
  3
------ ----- - - - ------ -----
 72
    65
 73
    10
 40
48
 49
20
 74
     0
 49
-1
 74
     0
 49
20
 74
     0
 49
-1
 74
     0
 49
1
 74
     0
 49
-1
 74
     0
 49
1
 74
     0
 49
-1
 74
     0
 49
1
 74
     0
 49
-1
 74
     0
  0
LTYPE
  5
113
100
AcDbSymbolTableRecord
100
AcDbLinetypeTableRecord
  2
HIDDEN
 70
     0
  3
. . . . . . . . . . . . . . . .
 72
    65
 73
     2
 40
1.5
 49
1
 74
     0
 49
-0.5
 74
     0
  0
ENDTAB
  0
TABLE
  2
LAYER
  5
114
100
AcDbSymbolTable
 70
     1
  0
LAYER
  5
115
100
AcDbSymbolTableRecord
100
AcDbLayerTableRecord
  2
0
 70
     0
 62
     7
  6
CONTINUOUS
390
116
  0
LAYER
  5
117
100
AcDbSymbolTableRecord
100
AcDbLayerTableRecord
  2
_0-0_
 70
     0
 62
     7
  6
CONTINUOUS
390
   278
  0
LAYER
  5
118
100
AcDbSymbolTableRecord
100
AcDbLayerTableRecord
  2
_0-1_PRO0
 70
     0
 62
     7
  6
CONTINUOUS
390
   278
  0
LAYER
  5
119
100
AcDbSymbolTableRecord
100
AcDbLayerTableRecord
  2
_0-2_
 70
     0
 62
     7
  6
CONTINUOUS
390
   278
  0
LAYER
  5
11A
100
AcDbSymbolTableRecord
100
AcDbLayerTableRecord
  2
_0-3_
 70
     0
 62
     7
  6
CONTINUOUS
390
   278
  0
ENDTAB
  0
TABLE
  2
STYLE
  5
11B
100
AcDbSymbolTable
 70
     1
  0
STYLE
  5
11C
100
AcDbSymbolTableRecord
100
AcDbTextStyleTableRecord
  2
STANDARD
 70
     0
 40
0
 41
0
 50
0
 71
     0
 42
1
  3
txt
  4
bigfont
  0
STYLE
  5
11D
100
AcDbSymbolTableRecord
100
AcDbTextStyleTableRecord
  2
VSTANDARD
 70
     4
 40
0
 41
0
 50
0
 71
     0
 42
1
  3
txt
  4
bigfont
  0
ENDTAB
  0
TABLE
  2
VIEW
  5
11E
100
AcDbSymbolTable
 70
     0
  0
ENDTAB
  0
TABLE
  2
UCS
  5
11F
100
AcDbSymbolTable
 70
     0
  0
ENDTAB
  0
TABLE
  2
APPID
  5
120
100
AcDbSymbolTable
 70
     1
  0
APPID
  5
121
100
AcDbSymbolTableRecord
100
AcDbRegAppTableRecord
  2
ACAD
 70
     0
  0
ENDTAB
  0
TABLE
  2
DIMSTYLE
  5
122
100
AcDbSymbolTable
 70
     1
100
AcDbDimStyleTable
 71
     0
  0
DIMSTYLE
105
123
100
AcDbSymbolTableRecord
100
AcDbDimStyleTableRecord
  2
M7DIMSTL
 70
     0
  3

  4

  5

  6

  7

 40
3
 41
2.5
 42
0.625
 43
3.75
 44
1.25
 45
0
 46
0
 47
0
 48
0
140
2.5
141
2.5
142
0
143
0.03937007874016
144
1
145
0
146
1
147
0.625
 71
     0
 72
     0
 73
     0
 74
     0
 75
     0
 76
     0
 77
     1
 78
     8
170
     0
171
     3
172
     1
173
     0
174
     0
175
     0
176
     0
177
     0
178
     0
270
     2
271
     2
272
     2
273
     2
274
     3
340
11C
275
     0
280
     0
281
     0
282
     0
283
     0
284
     8
285
     0
286
     0
287
     3
288
     0
  0
ENDTAB
  0
TABLE
  2
BLOCK_RECORD
  5
124
100
AcDbSymbolTable
 70
     2
  0
BLOCK_RECORD
  5
125
100
AcDbSymbolTableRecord
100
AcDbBlockTableRecord
  2
*MODEL_SPACE
  0
BLOCK_RECORD
  5
126
100
AcDbSymbolTableRecord
100
AcDbBlockTableRecord
  2
*PAPER_SPACE
  0
BLOCK_RECORD
  5
127
100
AcDbSymbolTableRecord
100
AcDbBlockTableRecord
  2
_DOT
  0
BLOCK_RECORD
  5
128
100
AcDbSymbolTableRecord
100
AcDbBlockTableRecord
  2
_OPEN30
  0
BLOCK_RECORD
  5
129
100
AcDbSymbolTableRecord
100
AcDbBlockTableRecord
  2
_ClosedBlank
  0
BLOCK_RECORD
  5
12A
100
AcDbSymbolTableRecord
100
AcDbBlockTableRecord
  2
_Origin
  0
BLOCK_RECORD
  5
12B
100
AcDbSymbolTableRecord
100
AcDbBlockTableRecord
  2
_Oblique
  0
BLOCK_RECORD
  5
12C
100
AcDbSymbolTableRecord
100
AcDbBlockTableRecord
  2
_Origin2
  0
BLOCK_RECORD
  5
12D
100
AcDbSymbolTableRecord
100
AcDbBlockTableRecord
  2
_BoxBlank
  0
BLOCK_RECORD
  5
12E
100
AcDbSymbolTableRecord
100
AcDbBlockTableRecord
  2
_BoxFilled
  0
BLOCK_RECORD
  5
12F
100
AcDbSymbolTableRecord
100
AcDbBlockTableRecord
  2
_Integral
  0
ENDTAB
  0
ENDSEC
  0
SECTION
  2
BLOCKS
  0
BLOCK
  5
130
100
AcDbEntity
  8
0
100
AcDbBlockBegin
  2
*MODEL_SPACE
 70
     0
 10
0
 20
0
  3
*MODEL_SPACE
  1

  0
ENDBLK
  5
131
100
AcDbEntity
  8
0
100
AcDbBlockEnd
  0
BLOCK
  5
132
100
AcDbEntity
 67
     1
  8
0
100
AcDbBlockBegin
  2
*PAPER_SPACE
 70
     0
 10
0
 20
0
  3
*PAPER_SPACE
  1

  0
ENDBLK
  5
133
100
AcDbEntity
 67
     1
  8
0
100
AcDbBlockEnd
  0
BLOCK
  5
134
100
AcDbEntity
 67
     1
  8
0
100
AcDbBlockBegin
  2
_DOT
 70
     0
 10
0
 20
0
  3
_DOT
  1

  0
LWPOLYLINE
  5
135
100
AcDbEntity
  8
0
  6
BYBLOCK
 62
     0
100
AcDbPolyline
 90
     2
 70
     1
 43
0.5
 10
-0.25
 20
0
 42
1
 10
0.25
 20
0
 42
1
  0
LINE
  5
136
100
AcDbEntity
  8
0
  6
BYBLOCK
 62
     0
100
AcDbLine
 10
-0.5
 20
0
 11
-1
 21
0
  0
ENDBLK
  5
137
100
AcDbEntity
  8
0
100
AcDbBlockEnd
  0
BLOCK
  5
138
100
AcDbEntity
 67
     1
  8
0
100
AcDbBlockBegin
  2
_OPEN30
 70
     0
 10
0
 20
0
  3
_OPEN30
  1

  0
LINE
  5
139
100
AcDbEntity
  8
0
  6
BYBLOCK
 62
     0
100
AcDbLine
 10
-1
 20
0.26794919
 11
0
 21
0
  0
LINE
  5
13A
100
AcDbEntity
  8
0
  6
BYBLOCK
 62
     0
100
AcDbLine
 10
-1
 20
-0.26794919
 11
0
 21
0
  0
LINE
  5
13B
100
AcDbEntity
  8
0
  6
BYBLOCK
 62
     0
100
AcDbLine
 10
0
 20
0
 11
-1
 21
0
  0
ENDBLK
  5
13C
100
AcDbEntity
  8
0
100
AcDbBlockEnd
  0
BLOCK
  5
13D
100
AcDbEntity
 67
     1
  8
0
100
AcDbBlockBegin
  2
_ClosedBlank
 70
     0
 10
0
 20
0
  3
_ClosedBlank
  1

  0
LINE
  5
13E
100
AcDbEntity
  8
0
  6
BYBLOCK
 62
     0
100
AcDbLine
 10
-1
 20
0.1666666666667
 11
0
 21
0
  0
LINE
  5
13F
100
AcDbEntity
  8
0
  6
BYBLOCK
 62
     0
100
AcDbLine
 10
0
 20
0
 11
-1
 21
-0.1666666666667
  0
LINE
  5
140
100
AcDbEntity
  8
0
  6
BYBLOCK
 62
     0
100
AcDbLine
 10
-1
 20
0.1666666666667
 11
-1
 21
-0.1666666666667
  0
ENDBLK
  5
141
100
AcDbEntity
  8
0
100
AcDbBlockEnd
  0
BLOCK
  5
142
100
AcDbEntity
 67
     1
  8
0
100
AcDbBlockBegin
  2
_Origin
 70
     0
 10
0
 20
0
  3
_Origin
  1

  0
CIRCLE
  5
143
100
AcDbEntity
  8
0
  6
BYBLOCK
 62
     0
100
AcDbCircle
 10
0
 20
0
 40
0.5
  0
LINE
  5
144
100
AcDbEntity
  8
0
  6
BYBLOCK
 62
     0
100
AcDbLine
 10
0
 20
0
 11
-1
 21
0
  0
ENDBLK
  5
145
100
AcDbEntity
  8
0
100
AcDbBlockEnd
  0
BLOCK
  5
146
100
AcDbEntity
 67
     1
  8
0
100
AcDbBlockBegin
  2
_Oblique
 70
     0
 10
0
 20
0
  3
_Oblique
  1

  0
LINE
  5
147
100
AcDbEntity
  8
0
  6
BYBLOCK
 62
     0
100
AcDbLine
 10
-0.5
 20
-0.5
 11
0.5
 21
0.5
  0
ENDBLK
  5
148
100
AcDbEntity
  8
0
100
AcDbBlockEnd
  0
BLOCK
  5
149
100
AcDbEntity
 67
     1
  8
0
100
AcDbBlockBegin
  2
_Origin2
 70
     0
 10
0
 20
0
  3
_Origin2
  1

  0
CIRCLE
  5
14A
100
AcDbEntity
  8
0
  6
BYBLOCK
 62
     0
100
AcDbCircle
 10
0
 20
0
 40
0.5
  0
CIRCLE
  5
14B
100
AcDbEntity
  8
0
  6
BYBLOCK
 62
     0
100
AcDbCircle
 10
0
 20
0
 40
0.25
  0
LINE
  5
14C
100
AcDbEntity
  8
0
  6
BYBLOCK
 62
     0
100
AcDbLine
 10
-0.5
 20
0
 11
-1
 21
0
  0
ENDBLK
  5
14D
100
AcDbEntity
  8
0
100
AcDbBlockEnd
  0
BLOCK
  5
14E
100
AcDbEntity
 67
     1
  8
0
100
AcDbBlockBegin
  2
_BoxBlank
 70
     0
 10
0
 20
0
  3
_BoxBlank
  1

  0
LINE
  5
14F
100
AcDbEntity
  8
0
  6
BYBLOCK
 62
     0
100
AcDbLine
 10
-0.5
 20
-0.5
 11
0.5
 21
-0.5
  0
LINE
  5
150
100
AcDbEntity
  8
0
  6
BYBLOCK
 62
     0
100
AcDbLine
 10
0.5
 20
-0.5
 11
0.5
 21
0.5
  0
LINE
  5
151
100
AcDbEntity
  8
0
  6
BYBLOCK
 62
     0
100
AcDbLine
 10
0.5
 20
0.5
 11
-0.5
 21
0.5
  0
LINE
  5
152
100
AcDbEntity
  8
0
  6
BYBLOCK
 62
     0
100
AcDbLine
 10
-0.5
 20
0.5
 11
-0.5
 21
-0.5
  0
LINE
  5
153
100
AcDbEntity
  8
0
  6
BYBLOCK
 62
     0
100
AcDbLine
 10
-0.5
 20
0
 11
-1
 21
0
  0
ENDBLK
  5
154
100
AcDbEntity
  8
0
100
AcDbBlockEnd
  0
BLOCK
  5
155
100
AcDbEntity
 67
     1
  8
0
100
AcDbBlockBegin
  2
_BoxFilled
 70
     0
 10
0
 20
0
  3
_BoxFilled
  1

  0
SOLID
  5
156
100
AcDbEntity
  8
0
  6
BYBLOCK
 62
     0
100
AcDbTrace
 10
-0.5
 20
0.5
 11
0.5
 21
0.5
 12
-0.5
 22
-0.5
 13
0.5
 23
-0.5
  0
LINE
  5
157
100
AcDbEntity
  8
0
  6
BYBLOCK
 62
     0
100
AcDbLine
 10
-0.5
 20
0
 11
-1
 21
0
  0
ENDBLK
  5
158
100
AcDbEntity
  8
0
100
AcDbBlockEnd
  0
BLOCK
  5
159
100
AcDbEntity
 67
     1
  8
0
100
AcDbBlockBegin
  2
_Integral
 70
     0
 10
0
 20
0
  3
_Integral
  1

  0
ARC
  5
15A
100
AcDbEntity
  8
0
  6
BYBLOCK
 62
     0
100
AcDbCircle
 10
0.44488802
 20
-0.09133463
 40
0.45416667
100
AcDbArc
 50
101.999999998
 51
167.9999999799
  0
ARC
  5
15B
100
AcDbEntity
  8
0
  6
BYBLOCK
 62
     0
100
AcDbCircle
 10
-0.44488802
 20
0.09133463
 40
0.45416667
100
AcDbArc
 50
282.0000000215
 51
348.0000000034
  0
ENDBLK
  5
15C
100
AcDbEntity
  8
0
100
AcDbBlockEnd
  0
ENDSEC
  0
SECTION
  2
ENTITIES
  0
LINE
  5
15D
100
AcDbEntity
  8
_0-0_
  6
CONTINUOUS
 62
     0
100
AcDbLine
 10
556.4984660336
 20
227.464683929
 11
656.9984660336
 21
227.464683929
  0
LINE
  5
15E
100
AcDbEntity
  8
_0-1_PRO0
  6
CONTINUOUS
 62
     0
100
AcDbLine
 10
191.536278
 20
569.6186770227
 11
191.536278
 21
568.6186770227
  0
LINE
  5
15F
100
AcDbEntity
  8
_0-1_PRO0
  6
CONTINUOUS
 62
     0
100
AcDbLine
 10
623.026694
 20
665.8460940227
 11
623.1415
 21
664.1292500227
  0
LINE
  5
160
100
AcDbEntity
  8
_0-1_PRO0
  6
CONTINUOUS
 62
     0
100
AcDbLine
 10
613.040398
 20
665.3227340227
 11
613.155205
 21
663.6058900227
  0
LINE
  5
161
100
AcDbEntity
  8
_0-1_PRO0
  6
CONTINUOUS
 62
     0
100
AcDbLine
 10
616.469197
 20
665.5024300227
 11
614.651051
 21
663.6842840227
  0
LINE
  5
162
100
AcDbEntity
  8
_0-1_PRO0
  6
CONTINUOUS
 62
     0
100
AcDbLine
 10
617.961625
 20
665.5806450227
 11
616.143479
 21
663.7624990227
  0
LINE
  5
163
100
AcDbEntity
  8
_0-1_PRO0
  6
CONTINUOUS
 62
     0
100
AcDbLine
 10
619.454054
 20
665.6588600227
 11
617.635908
 21
663.8407140227
  0
LINE
  5
164
100
AcDbEntity
  8
_0-1_PRO0
  6
CONTINUOUS
 62
     0
100
AcDbLine
 10
620.946482
 20
665.7370750227
 11
619.128336
 21
663.9189290227
  0
LINE
  5
165
100
AcDbEntity
  8
_0-1_PRO0
  6
CONTINUOUS
 62
     0
100
AcDbLine
 10
622.43891
 20
665.8152900227
 11
620.620765
 21
663.9971440227
  0
LINE
  5
166
100
AcDbEntity
  8
_0-1_PRO0
  6
CONTINUOUS
 62
     0
100
AcDbLine
 10
622.113193
 20
664.0753590227
 11
623.080425
 21
665.0425900227
  0
LINE
  5
167
100
AcDbEntity
  8
_0-1_PRO0
  6
CONTINUOUS
 62
     0
100
AcDbLine
 10
614.976768
 20
665.4242150227
 11
613.158623
 21
663.6060700227
  0
LINE
  5
168
100
AcDbEntity
  8
_0-1_PRO0
  6
CONTINUOUS
 62
     0
100
AcDbLine
 10
613.48434
 20
665.3460000227
 11
613.066766
 21
664.9284270227
  0
LINE
  5
169
100
AcDbEntity
  8
_0-1_PRO0
  6
CONTINUOUS
 62
     0
100
AcDbLine
 10
202.974784
 20
639.3259310227
 11
629.794972
 21
661.6946290227
  0
LINE
  5
16A
100
AcDbEntity
  8
_0-1_PRO0
  6
CONTINUOUS
 62
     0
100
AcDbLine
 10
209.003876
 20
642.4252170227
 11
629.768804
 21
664.4765720227
  0
LINE
  5
16B
100
AcDbEntity
  8
_0-1_PRO0
  6
CONTINUOUS
 62
     0
100
AcDbLine
 10
209.239388
 20
637.9313840227
 11
629.768804
 21
659.9703970227
  0
LINE
  5
16C
100
AcDbEntity
  8
_0-1_PRO0
  6
CONTINUOUS
 62
     0
100
AcDbLine
 10
209.317892
 20
636.4334400227
 11
629.768804
 21
658.4683380227
  0
LINE
  5
16D
100
AcDbEntity
  8
_0-1_PRO0
  6
CONTINUOUS
 62
     0
100
AcDbLine
 10
210.08723
 20
621.7535850227
 11
629.768804
 21
643.7481650227
  0
LINE
  5
16E
100
AcDbEntity
  8
_0-1_PRO0
  6
CONTINUOUS
 62
     0
100
AcDbLine
 10
210.181435
 20
619.9560520227
 11
629.768804
 21
641.9456940227
  0
LINE
  5
16F
100
AcDbEntity
  8
_0-1_PRO0
  6
CONTINUOUS
 62
     0
100
AcDbLine
 10
210.338443
 20
616.9601640227
 11
629.768804
 21
638.9415770227
  0
LINE
  5
170
100
AcDbEntity
  8
_0-1_PRO0
  6
CONTINUOUS
 62
     0
100
AcDbLine
 10
210.416947
 20
615.4622190227
 11
629.768804
 21
637.4395190227
  0
LINE
  5
171
100
AcDbEntity
  8
_0-1_PRO0
  6
CONTINUOUS
 62
     0
100
AcDbLine
 10
210.469283
 20
614.4635900227
 11
629.768804
 21
636.4381470227
  0
LINE
  5
172
100
AcDbEntity
  8
_0-1_PRO0
  6
CONTINUOUS
 62
     0
100
AcDbLine
 10
182.611796
 20
644.7676720227
 11
629.768804
 21
668.2021780227
  0
ARC
  5
173
100
AcDbEntity
  8
_0-1_PRO0
  6
CONTINUOUS
 62
     0
100
AcDbCircle
 10
202.929965
 20
636.3194650227
 40
7.5
100
AcDbArc
 50
93
 51
169.875328
  0
LINE
  5
174
100
AcDbEntity
  8
_0-1_PRO0
  6
CONTINUOUS
 62
     0
100
AcDbLine
 10
216.009317
 20
644.5152170227
 11
217.646383
 21
642.8781510227
  0
LINE
  5
175
100
AcDbEntity
  8
_0-1_PRO0
  6
CONTINUOUS
 62
     0
100
AcDbLine
 10
214.665529
 20
644.4447920227
 11
216.302594
 21
642.8077260227
  0
LINE
  5
176
100
AcDbEntity
  8
_0-1_PRO0
  6
CONTINUOUS
 62
     0
100
AcDbLine
 10
213.32174
 20
644.3743670227
 11
214.958806
 21
642.7373010227
  0
LINE
  5
177
100
AcDbEntity
  8
_0-1_PRO0
  6
CONTINUOUS
 62
     0
100
AcDbLine
 10
211.977951
 20
644.3039420227
 11
213.615017
 21
642.6668760227
  0
LINE
  5
178
100
AcDbEntity
  8
_0-1_PRO0
  6
CONTINUOUS
 62
     0
100
AcDbLine
 10
210.634163
 20
644.2335170227
 11
212.271228
 21
642.5964520227
  0
LINE
  5
179
100
AcDbEntity
  8
_0-1_PRO0
  6
CONTINUOUS
 62
     0
100
AcDbLine
 10
209.290374
 20
644.1630920227
 11
210.92744
 21
642.5260270227
  0
LINE
  5
17A
100
AcDbEntity
  8
_0-1_PRO0
  6
CONTINUOUS
 62
     0
100
AcDbLine
 10
209.583651
 20
642.4556020227
 11
208.97013
 21
643.0691220227
  0
LINE
  5
17B
100
AcDbEntity
  8
_0-1_PRO0
  6
CONTINUOUS
 62
     0
100
AcDbLine
 10
217.342355
 20
644.5850790227
 11
218.979421
 21
642.9480130227
  0
LINE
  5
17C
100
AcDbEntity
  8
_0-1_PRO0
  6
CONTINUOUS
 62
     0
100
AcDbLine
 10
218.696894
 20
644.6560670227
 11
218.911957
 21
644.4410050227
  0
ARC
  5
17D
100
AcDbEntity
  8
_0-1_PRO0
  6
CONTINUOUS
 62
     0
100
AcDbCircle
 10
182.768804
 20
557.6186770227
 40
3
100
AcDbArc
 50
180
 51
270
  0
LINE
  5
17E
100
AcDbEntity
  8
_0-1_PRO0
  6
CONTINUOUS
 62
     0
100
AcDbLine
 10
182.768804
 20
554.6186770227
 11
189.768804
 21
554.6186770227
  0
ARC
  5
17F
100
AcDbEntity
  8
_0-1_PRO0
  6
CONTINUOUS
 62
     0
100
AcDbCircle
 10
182.768804
 20
641.7717830227
 40
3
100
AcDbArc
 50
93
 51
180
  0
LINE
  5
180
100
AcDbEntity
  8
_0-1_PRO0
  6
CONTINUOUS
 62
     0
100
AcDbLine
 10
179.768804
 20
641.7717830227
 11
179.768804
 21
557.6186770227
  0
LINE
  5
181
100
AcDbEntity
  8
_0-1_PRO0
  6
CONTINUOUS
 62
     0
100
AcDbLine
 10
195.546759
 20
637.6378950227
 11
181.768804
 21
560.4813470227
  0
LINE
  5
182
100
AcDbEntity
  8
_0-1_PRO0
  6
CONTINUOUS
 62
     0
100
AcDbLine
 10
199.976683
 20
636.8468370227
 11
186.199997
 21
559.6973990227
  0
ARC
  5
183
100
AcDbEntity
  8
_0-1_PRO0
  6
CONTINUOUS
 62
     0
100
AcDbCircle
 10
202.929965
 20
636.3194650227
 40
3
100
AcDbArc
 50
93
 51
169.875328
  0
LINE
  5
184
100
AcDbEntity
  8
_0-1_PRO0
  6
CONTINUOUS
 62
     0
100
AcDbLine
 10
186.686102
 20
567.4186770227
 11
195.936278
 21
567.4186770227
  0
ARC
  5
185
100
AcDbEntity
  8
_0-1_PRO0
  6
CONTINUOUS
 62
     0
100
AcDbCircle
 10
186.686102
 20
566.9186770227
 40
0.5
100
AcDbArc
 50
90
 51
168
  0
LINE
  5
186
100
AcDbEntity
  8
_0-1_PRO0
  6
CONTINUOUS
 62
     0
100
AcDbLine
 10
186.197028
 20
567.0226330227
 11
184.768804
 21
560.3033640227
  0
LINE
  5
187
100
AcDbEntity
  8
_0-1_PRO0
  6
CONTINUOUS
 62
     0
100
AcDbLine
 10
184.768804
 20
560.3033640227
 11
184.768804
 21
556.6186770227
  0
LINE
  5
188
100
AcDbEntity
  8
_0-1_PRO0
  6
CONTINUOUS
 62
     0
100
AcDbLine
 10
184.268804
 20
556.6186770227
 11
184.768804
 21
556.6186770227
  0
ARC
  5
189
100
AcDbEntity
  8
_0-1_PRO0
  6
CONTINUOUS
 62
     0
100
AcDbCircle
 10
184.268804
 20
559.1186770227
 40
2.5
100
AcDbArc
 50
180
 51
270
  0
LINE
  5
18A
100
AcDbEntity
  8
_0-1_PRO0
  6
CONTINUOUS
 62
     0
100
AcDbLine
 10
195.936278
 20
568.6186770227
 11
193.536278
 21
568.6186770227
  0
LINE
  5
18B
100
AcDbEntity
  8
_0-1_PRO0
  6
CONTINUOUS
 62
     0
100
AcDbLine
 10
193.536278
 20
568.6186770227
 11
191.536278
 21
569.6186770227
  0
ARC
  5
18C
100
AcDbEntity
  8
_0-1_PRO0
  6
CONTINUOUS
 62
     0
100
AcDbCircle
 10
195.936278
 20
568.0186770227
 40
0.6
100
AcDbArc
 50
-90
 51
90
  0
LINE
  5
18D
100
AcDbEntity
  8
_0-1_PRO0
  6
CONTINUOUS
 62
     0
100
AcDbLine
 10
187.153727
 20
568.6186770227
 11
191.536278
 21
568.6186770227
  0
ARC
  5
18E
100
AcDbEntity
  8
_0-1_PRO0
  6
CONTINUOUS
 62
     0
100
AcDbCircle
 10
187.153727
 20
569.1186770227
 40
0.5
100
AcDbArc
 50
168
 51
270
  0
ARC
  5
18F
100
AcDbEntity
  8
_0-1_PRO0
  6
CONTINUOUS
 62
     0
100
AcDbCircle
 10
208.367352
 20
616.3561770227
 40
0.5
100
AcDbArc
 50
2.999999999992
 51
93.00000000001
  0
LINE
  5
190
100
AcDbEntity
  8
_0-1_PRO0
  6
CONTINUOUS
 62
     0
100
AcDbLine
 10
208.866667
 20
616.3823450227
 11
208.919003
 21
615.3837150227
  0
LINE
  5
191
100
AcDbEntity
  8
_0-1_PRO0
  6
CONTINUOUS
 62
     0
100
AcDbLine
 10
209.444485
 20
614.9105690227
 11
209.9438
 21
614.9367370227
  0
ARC
  5
192
100
AcDbEntity
  8
_0-1_PRO0
  6
CONTINUOUS
 62
     0
100
AcDbCircle
 10
209.917632
 20
615.4360510227
 40
0.5
100
AcDbArc
 50
-86.99999999999
 51
3.000000000005
  0
ARC
  5
193
100
AcDbEntity
  8
_0-1_PRO0
  6
CONTINUOUS
 62
     0
100
AcDbCircle
 10
209.418317
 20
615.4098830227
 40
0.5
100
AcDbArc
 50
-177
 51
-86.99999999999
  0
LINE
  5
194
100
AcDbEntity
  8
_0-1_PRO0
  6
CONTINUOUS
 62
     0
100
AcDbLine
 10
200.666105
 20
616.4532580227
 11
208.341184
 21
616.8554920227
  0
ARC
  5
195
100
AcDbEntity
  8
_0-1_PRO0
  6
CONTINUOUS
 62
     0
100
AcDbCircle
 10
200.692273
 20
615.9539430227
 40
0.5
100
AcDbArc
 50
93.00000000001
 51
193
  0
LINE
  5
196
100
AcDbEntity
  8
_0-1_PRO0
  6
CONTINUOUS
 62
     0
100
AcDbLine
 10
200.205088
 20
615.8414680227
 11
200.788281
 21
613.3153830227
  0
LINE
  5
197
100
AcDbEntity
  8
_0-1_PRO0
  6
CONTINUOUS
 62
     0
100
AcDbLine
 10
198.602818
 20
616.3451260227
 11
197.425472
 21
616.2834240227
  0
ARC
  5
198
100
AcDbEntity
  8
_0-1_PRO0
  6
CONTINUOUS
 62
     0
100
AcDbCircle
 10
198.618519
 20
616.0455370227
 40
0.3
100
AcDbArc
 50
12.99999999998
 51
93.00000000001
  0
LINE
  5
199
100
AcDbEntity
  8
_0-1_PRO0
  6
CONTINUOUS
 62
     0
100
AcDbLine
 10
198.91083
 20
616.1130220227
 11
199.619037
 21
613.0454420227
  0
ARC
  5
19A
100
AcDbEntity
  8
_0-1_PRO0
  6
CONTINUOUS
 62
     0
100
AcDbCircle
 10
197.477808
 20
615.2847940227
 40
1
100
AcDbArc
 50
93
 51
168
  0
ARC
  5
19B
100
AcDbEntity
  8
_0-1_PRO0
  6
CONTINUOUS
 62
     0
100
AcDbCircle
 10
200.203659
 20
613.1804130227
 40
0.6
100
AcDbArc
 50
-167
 51
13.00000000001
  0
LINE
  5
19C
100
AcDbEntity
  8
_0-1_PRO0
  6
CONTINUOUS
 62
     0
100
AcDbLine
 10
193.724754
 20
616.8670000227
 11
181.768804
 21
560.6186770227
  0
LINE
  5
19D
100
AcDbEntity
  8
_0-1_PRO0
  6
CONTINUOUS
 62
     0
100
AcDbLine
 10
196.49966
 20
615.4927060227
 11
186.664653
 21
569.2226330227
  0
LINE
  5
19E
100
AcDbEntity
  8
_0-1_PRO0
  6
CONTINUOUS
 62
     0
100
AcDbLine
 10
186.199997
 20
559.6973990227
 11
181.768804
 21
560.4813470227
  0
LINE
  5
19F
100
AcDbEntity
  8
_0-1_PRO0
  6
CONTINUOUS
 62
     0
100
AcDbLine
 10
208.913832
 20
644.1433590227
 11
209.003876
 21
642.4252170227
  0
LINE
  5
1A0
100
AcDbEntity
  8
_0-1_PRO0
  6
CONTINUOUS
 62
     0
100
AcDbLine
 10
218.900127
 20
644.6667180227
 11
218.990171
 21
642.9485760227
  0
ARC
  5
1A1
100
AcDbEntity
  8
_0-1_PRO0
  6
CONTINUOUS
 62
     0
100
AcDbCircle
 10
209.55128
 20
622.4264580227
 40
0.5
100
AcDbArc
 50
3.000000000005
 51
93.00000000001
  0
LINE
  5
1A2
100
AcDbEntity
  8
_0-1_PRO0
  6
CONTINUOUS
 62
     0
100
AcDbLine
 10
208.184176
 20
619.8513800227
 11
196.502189
 21
619.2391530227
  0
ARC
  5
1A3
100
AcDbEntity
  8
_0-1_PRO0
  6
CONTINUOUS
 62
     0
100
AcDbCircle
 10
208.158008
 20
620.3506950227
 40
0.5
100
AcDbArc
 50
-86.99999999999
 51
3.000000000005
  0
LINE
  5
1A4
100
AcDbEntity
  8
_0-1_PRO0
  6
CONTINUOUS
 62
     0
100
AcDbLine
 10
208.657323
 20
620.3768630227
 11
208.552651
 21
622.3741220227
  0
ARC
  5
1A5
100
AcDbEntity
  8
_0-1_PRO0
  6
CONTINUOUS
 62
     0
100
AcDbCircle
 10
209.051966
 20
622.4002900227
 40
0.5
100
AcDbArc
 50
93.00000000001
 51
183
  0
LINE
  5
1A6
100
AcDbEntity
  8
_0-1_PRO0
  6
CONTINUOUS
 62
     0
100
AcDbLine
 10
209.025798
 20
622.8996050227
 11
209.525112
 21
622.9257730227
  0
LINE
  5
1A7
100
AcDbEntity
  8
_0-1_PRO0
  6
CONTINUOUS
 62
     0
100
AcDbLine
 10
209.003876
 20
642.4252170227
 11
210.469283
 21
614.4635900227
  0
ARC
  5
1A8
100
AcDbEntity
  8
_0-1_PRO0
  6
CONTINUOUS
 62
     0
100
AcDbCircle
 10
196.659197
 20
616.2432650227
 40
3
100
AcDbArc
 50
93
 51
168
  0
ARC
  5
1A9
100
AcDbEntity
  8
_0-1_PRO0
  6
CONTINUOUS
 62
     0
100
AcDbCircle
 10
238.720881
 20
619.9496830227
 40
1.5
100
AcDbArc
 50
-87
 51
93
  0
LINE
  5
1AA
100
AcDbEntity
  8
_0-1_PRO0
  6
CONTINUOUS
 62
     0
100
AcDbLine
 10
1135.396589
 20
644.6186770227
 11
1135.396589
 21
554.6186770227
  0
LINE
  5
1AB
100
AcDbEntity
  8
_0-1_PRO0
  6
CONTINUOUS
 62
     0
100
AcDbLine
 10
1080.768804
 20
644.6186770227
 11
1141.396589
 21
644.6186770227
  0
LINE
  5
1AC
100
AcDbEntity
  8
_0-1_PRO0
  6
CONTINUOUS
 62
     0
100
AcDbLine
 10
1077.768804
 20
554.6186770227
 11
1141.396589
 21
554.6186770227
  0
LINE
  5
1AD
100
AcDbEntity
  8
_0-1_PRO0
  6
CONTINUOUS
 62
     0
100
AcDbLine
 10
1135.396589
 20
644.6186770227
 11
1136.896589
 21
638.6186770227
  0
LINE
  5
1AE
100
AcDbEntity
  8
_0-1_PRO0
  6
CONTINUOUS
 62
     0
100
AcDbLine
 10
1135.396589
 20
644.6186770227
 11
1133.896589
 21
638.6186770227
  0
LINE
  5
1AF
100
AcDbEntity
  8
_0-1_PRO0
  6
CONTINUOUS
 62
     0
100
AcDbLine
 10
1135.396589
 20
554.6186770227
 11
1133.896589
 21
560.6186770227
  0
LINE
  5
1B0
100
AcDbEntity
  8
_0-1_PRO0
  6
CONTINUOUS
 62
     0
100
AcDbLine
 10
1135.396589
 20
554.6186770227
 11
1136.896589
 21
560.6186770227
  0
TEXT
  5
1B1
100
AcDbEntity
  8
_0-1_PRO0
  6
CONTINUOUS
 62
     0
100
AcDbText
 10
1132.396522
 20
591.8942860227
 40
9
  1
９０
 41
0.7377777777778
 50
90.000003
  7
STANDARD
100
AcDbText
  0
LINE
  5
1B2
100
AcDbEntity
  8
_0-1_PRO0
  6
CONTINUOUS
 62
     0
100
AcDbLine
 10
1107.155848
 20
598.4881250227
 11
1107.155848
 21
554.6186770227
  0
LINE
  5
1B3
100
AcDbEntity
  8
_0-1_PRO0
  6
CONTINUOUS
 62
     0
100
AcDbLine
 10
1101.872896
 20
554.6186770227
 11
1113.155848
 21
554.6186770227
  0
LINE
  5
1B4
100
AcDbEntity
  8
_0-1_PRO0
  6
CONTINUOUS
 62
     0
100
AcDbLine
 10
1107.155848
 20
598.4881250227
 11
1108.655848
 21
592.4881250227
  0
LINE
  5
1B5
100
AcDbEntity
  8
_0-1_PRO0
  6
CONTINUOUS
 62
     0
100
AcDbLine
 10
1107.155848
 20
598.4881250227
 11
1105.655848
 21
592.4881250227
  0
LINE
  5
1B6
100
AcDbEntity
  8
_0-1_PRO0
  6
CONTINUOUS
 62
     0
100
AcDbLine
 10
1107.155848
 20
554.6186770227
 11
1105.655848
 21
560.6186770227
  0
LINE
  5
1B7
100
AcDbEntity
  8
_0-1_PRO0
  6
CONTINUOUS
 62
     0
100
AcDbLine
 10
1107.155848
 20
554.6186770227
 11
1108.655848
 21
560.6186770227
  0
TEXT
  5
1B8
100
AcDbEntity
  8
_0-1_PRO0
  6
CONTINUOUS
 62
     0
100
AcDbText
 10
1104.155799
 20
568.8289930227
 40
9
  1
４４
 41
0.7377777777778
 50
90.000003
  7
STANDARD
100
AcDbText
  0
TEXT
  5
1B9
100
AcDbEntity
  8
_0-0_
  6
CONTINUOUS
 62
     0
100
AcDbText
 10
243.5609660336
 20
357.339683929
 40
7.49
  1
No.
 41
1.001335113485
  7
STANDARD
100
AcDbText
  0
TEXT
  5
1BA
100
AcDbEntity
  8
_0-0_
  6
CONTINUOUS
 62
     0
100
AcDbText
 10
314.7484660336
 20
357.339683929
 40
7.49
  1
部材名称
  7
STANDARD
100
AcDbText
  0
LINE
  5
1BB
100
AcDbEntity
  8
_0-0_
  6
CONTINUOUS
 62
     0
100
AcDbLine
 10
556.4984660336
 20
119.464683929
 11
656.9984660336
 21
119.464683929
  0
LINE
  5
1BC
100
AcDbEntity
  8
_0-0_
  6
CONTINUOUS
 62
     0
100
AcDbLine
 10
556.4984660336
 20
137.464683929
 11
656.9984660336
 21
137.464683929
  0
LINE
  5
1BD
100
AcDbEntity
  8
_0-0_
  6
CONTINUOUS
 62
     0
100
AcDbLine
 10
556.4984660336
 20
173.464683929
 11
656.9984660336
 21
173.464683929
  0
LINE
  5
1BE
100
AcDbEntity
  8
_0-0_
  6
CONTINUOUS
 62
     0
100
AcDbLine
 10
556.4984660336
 20
191.464683929
 11
656.9984660336
 21
191.464683929
  0
LINE
  5
1BF
100
AcDbEntity
  8
_0-0_
  6
CONTINUOUS
 62
     0
100
AcDbLine
 10
556.4984660336
 20
245.464683929
 11
656.9984660336
 21
245.464683929
  0
LINE
  5
1C0
100
AcDbEntity
  8
_0-0_
  6
CONTINUOUS
 62
     0
100
AcDbLine
 10
556.4984660336
 20
263.464683929
 11
656.9984660336
 21
263.464683929
  0
LINE
  5
1C1
100
AcDbEntity
  8
_0-0_
  6
CONTINUOUS
 62
     0
100
AcDbLine
 10
556.4984660336
 20
209.464683929
 11
656.9984660336
 21
209.464683929
  0
LINE
  5
1C2
100
AcDbEntity
  8
_0-0_
  6
CONTINUOUS
 62
     0
100
AcDbLine
 10
556.4984660336
 20
155.464683929
 11
656.9984660336
 21
155.464683929
  0
LINE
  5
1C3
100
AcDbEntity
  8
_0-0_
  6
CONTINUOUS
 62
     0
100
AcDbLine
 10
556.4984660336
 20
281.464683929
 11
656.9984660336
 21
281.464683929
  0
LINE
  5
1C4
100
AcDbEntity
  8
_0-0_
  6
CONTINUOUS
 62
     0
100
AcDbLine
 10
556.4984660336
 20
299.464683929
 11
656.9984660336
 21
299.464683929
  0
LINE
  5
1C5
100
AcDbEntity
  8
_0-0_
  6
CONTINUOUS
 62
     0
100
AcDbLine
 10
556.4984660336
 20
317.464683929
 11
656.9984660336
 21
317.464683929
  0
LINE
  5
1C6
100
AcDbEntity
  8
_0-0_
  6
CONTINUOUS
 62
     0
100
AcDbLine
 10
556.4984660336
 20
335.464683929
 11
656.9984660336
 21
335.464683929
  0
LINE
  5
1C7
100
AcDbEntity
  8
_0-0_
  6
CONTINUOUS
 62
     0
100
AcDbLine
 10
556.4984660336
 20
353.464683929
 11
656.9984660336
 21
353.464683929
  0
LINE
  5
1C8
100
AcDbEntity
  8
_0-0_
  6
CONTINUOUS
 62
     0
100
AcDbLine
 10
556.4984660336
 20
371.464683929
 11
656.9984660336
 21
371.464683929
  0
TEXT
  5
1C9
100
AcDbEntity
  8
_0-0_
  6
CONTINUOUS
 62
     0
100
AcDbText
 10
466.8734660336
 20
357.339683929
 40
7.49
  1
規　格
  7
STANDARD
100
AcDbText
  0
TEXT
  5
1CA
100
AcDbEntity
  8
_0-0_
  6
CONTINUOUS
 62
     0
100
AcDbText
 10
559.6234660336
 20
357.339683929
 40
7.49
  1
定尺(mm)
  7
STANDARD
100
AcDbText
  0
TEXT
  5
1CB
100
AcDbEntity
  8
_0-0_
  6
CONTINUOUS
 62
     0
100
AcDbText
 10
611.4984660336
 20
357.339683929
 40
7.49
  1
入数
  7
STANDARD
100
AcDbText
  0
TEXT
  5
1CC
100
AcDbEntity
  8
_0-0_
  6
CONTINUOUS
 62
     0
100
AcDbText
 10
635.4984660336
 20
357.339683929
 40
7.49
  1
単位
  7
STANDARD
100
AcDbText
  0
TEXT
  5
1CD
100
AcDbEntity
  8
_0-0_
  6
CONTINUOUS
 62
     0
100
AcDbText
 10
246.4984660336
 20
339.339683929
 40
7.49
  1
 1
  7
STANDARD
100
AcDbText
  0
TEXT
  5
1CE
100
AcDbEntity
  8
_0-0_
  6
CONTINUOUS
 62
     0
100
AcDbText
 10
264.9984660336
 20
339.339683929
 40
7.49
  1
ＦＹＹキヤップＳ
 41
1.001335113485
  7
STANDARD
100
AcDbText
  0
TEXT
  5
1CF
100
AcDbEntity
  8
_0-0_
  6
CONTINUOUS
 62
     0
100
AcDbText
 10
571.3734660336
 20
339.339683929
 40
7.49
  1
2000
  7
STANDARD
100
AcDbText
  0
TEXT
  5
1D0
100
AcDbEntity
  8
_0-0_
  6
CONTINUOUS
 62
     0
100
AcDbText
 10
616.9984660336
 20
339.339683929
 40
7.49
  1
 1
 41
1.001335113485
  7
STANDARD
100
AcDbText
  0
TEXT
  5
1D1
100
AcDbEntity
  8
_0-0_
  6
CONTINUOUS
 62
     0
100
AcDbText
 10
641.3734660336
 20
339.339683929
 40
7.49
  1
本
  7
STANDARD
100
AcDbText
  0
LINE
  5
1D2
100
AcDbEntity
  8
_0-0_
  6
CONTINUOUS
 62
     0
100
AcDbLine
 10
554.9984660336
 20
299.464683929
 11
241.4984660336
 21
299.464683929
  0
LINE
  5
1D3
100
AcDbEntity
  8
_0-0_
  6
CONTINUOUS
 62
     0
100
AcDbLine
 10
554.9984660336
 20
317.464683929
 11
241.4984660336
 21
317.464683929
  0
LINE
  5
1D4
100
AcDbEntity
  8
_0-0_
  6
CONTINUOUS
 62
     0
100
AcDbLine
 10
554.9984660336
 20
335.464683929
 11
241.4984660336
 21
335.464683929
  0
LINE
  5
1D5
100
AcDbEntity
  8
_0-0_
  6
CONTINUOUS
 62
     0
100
AcDbLine
 10
554.9984660336
 20
353.464683929
 11
241.4984660336
 21
353.464683929
  0
LINE
  5
1D6
100
AcDbEntity
  8
_0-0_
  6
CONTINUOUS
 62
     0
100
AcDbLine
 10
554.9984660336
 20
173.464683929
 11
241.4984660336
 21
173.464683929
  0
LINE
  5
1D7
100
AcDbEntity
  8
_0-0_
  6
CONTINUOUS
 62
     0
100
AcDbLine
 10
554.9984660336
 20
191.464683929
 11
241.4984660336
 21
191.464683929
  0
LINE
  5
1D8
100
AcDbEntity
  8
_0-0_
  6
CONTINUOUS
 62
     0
100
AcDbLine
 10
554.9984660336
 20
227.464683929
 11
241.4984660336
 21
227.464683929
  0
LINE
  5
1D9
100
AcDbEntity
  8
_0-0_
  6
CONTINUOUS
 62
     0
100
AcDbLine
 10
554.9984660336
 20
245.464683929
 11
241.4984660336
 21
245.464683929
  0
LINE
  5
1DA
100
AcDbEntity
  8
_0-0_
  6
CONTINUOUS
 62
     0
100
AcDbLine
 10
554.9984660336
 20
263.464683929
 11
241.4984660336
 21
263.464683929
  0
LINE
  5
1DB
100
AcDbEntity
  8
_0-0_
  6
CONTINUOUS
 62
     0
100
AcDbLine
 10
554.9984660336
 20
281.464683929
 11
241.4984660336
 21
281.464683929
  0
LINE
  5
1DC
100
AcDbEntity
  8
_0-0_
  6
CONTINUOUS
 62
     0
100
AcDbLine
 10
554.9984660336
 20
209.464683929
 11
241.4984660336
 21
209.464683929
  0
LINE
  5
1DD
100
AcDbEntity
  8
_0-0_
  6
CONTINUOUS
 62
     0
100
AcDbLine
 10
554.9984660336
 20
119.464683929
 11
241.4984660336
 21
119.464683929
  0
LINE
  5
1DE
100
AcDbEntity
  8
_0-0_
  6
CONTINUOUS
 62
     0
100
AcDbLine
 10
554.9984660336
 20
137.464683929
 11
241.4984660336
 21
137.464683929
  0
LINE
  5
1DF
100
AcDbEntity
  8
_0-0_
  6
CONTINUOUS
 62
     0
100
AcDbLine
 10
554.9984660336
 20
155.464683929
 11
241.4984660336
 21
155.464683929
  0
LINE
  5
1E0
100
AcDbEntity
  8
_0-0_
  6
CONTINUOUS
 62
     0
100
AcDbLine
 10
554.9984660336
 20
371.464683929
 11
241.4984660336
 21
371.464683929
  0
TEXT
  5
1E1
100
AcDbEntity
  8
_0-0_
  6
CONTINUOUS
 62
     0
100
AcDbText
 10
246.4984660336
 20
321.339683929
 40
7.49
  1
 2
  7
STANDARD
100
AcDbText
  0
TEXT
  5
1E2
100
AcDbEntity
  8
_0-0_
  6
CONTINUOUS
 62
     0
100
AcDbText
 10
265.6234660336
 20
321.339683929
 40
7.49
  1
ＦＹＹフレーム
  7
STANDARD
100
AcDbText
  0
TEXT
  5
1E3
100
AcDbEntity
  8
_0-0_
  6
CONTINUOUS
 62
     0
100
AcDbText
 10
571.3734660336
 20
321.339683929
 40
7.49
  1
2000
  7
STANDARD
100
AcDbText
  0
TEXT
  5
1E4
100
AcDbEntity
  8
_0-0_
  6
CONTINUOUS
 62
     0
100
AcDbText
 10
616.9984660336
 20
321.339683929
 40
7.49
  1
 2
 41
1.001335113485
  7
STANDARD
100
AcDbText
  0
TEXT
  5
1E5
100
AcDbEntity
  8
_0-0_
  6
CONTINUOUS
 62
     0
100
AcDbText
 10
641.3734660336
 20
321.339683929
 40
7.49
  1
〃
  7
STANDARD
100
AcDbText
  0
TEXT
  5
1E6
100
AcDbEntity
  8
_0-0_
  6
CONTINUOUS
 62
     0
100
AcDbText
 10
246.4984660336
 20
303.339683929
 40
7.49
  1
 3
  7
STANDARD
100
AcDbText
  0
TEXT
  5
1E7
100
AcDbEntity
  8
_0-0_
  6
CONTINUOUS
 62
     0
100
AcDbText
 10
246.4984660336
 20
285.339683929
 40
7.5
  1
 4
  7
STANDARD
100
AcDbText
  0
TEXT
  5
1E8
100
AcDbEntity
  8
_0-0_
  6
CONTINUOUS
 62
     0
100
AcDbText
 10
246.4984660336
 20
267.339683929
 40
7.5
  1
 5
  7
STANDARD
100
AcDbText
  0
TEXT
  5
1E9
100
AcDbEntity
  8
_0-0_
  6
CONTINUOUS
 62
     0
100
AcDbText
 10
246.4984660336
 20
249.339683929
 40
7.5
  1
 6
  7
STANDARD
100
AcDbText
  0
TEXT
  5
1EA
100
AcDbEntity
  8
_0-0_
  6
CONTINUOUS
 62
     0
100
AcDbText
 10
246.4984660336
 20
231.339683929
 40
7.5
  1
 7
  7
STANDARD
100
AcDbText
  0
TEXT
  5
1EB
100
AcDbEntity
  8
_0-0_
  6
CONTINUOUS
 62
     0
100
AcDbText
 10
246.4984660336
 20
213.339683929
 40
7.5
  1
 8
  7
STANDARD
100
AcDbText
  0
TEXT
  5
1EC
100
AcDbEntity
  8
_0-0_
  6
CONTINUOUS
 62
     0
100
AcDbText
 10
246.4984660336
 20
195.339683929
 40
7.5
  1
 9
  7
STANDARD
100
AcDbText
  0
TEXT
  5
1ED
100
AcDbEntity
  8
_0-0_
  6
CONTINUOUS
 62
     0
100
AcDbText
 10
246.4984660336
 20
177.339683929
 40
7.5
  1
10
  7
STANDARD
100
AcDbText
  0
TEXT
  5
1EE
100
AcDbEntity
  8
_0-0_
  6
CONTINUOUS
 62
     0
100
AcDbText
 10
246.4984660336
 20
159.339683929
 40
7.5
  1
11
  7
STANDARD
100
AcDbText
  0
TEXT
  5
1EF
100
AcDbEntity
  8
_0-0_
  6
CONTINUOUS
 62
     0
100
AcDbText
 10
246.4984660336
 20
141.339683929
 40
7.5
  1
12
  7
STANDARD
100
AcDbText
  0
ARC
  5
1F0
100
AcDbEntity
  8
_0-0_
  6
CONTINUOUS
 62
     0
100
AcDbCircle
 10
182.768804
 20
557.6186770227
 40
1.5
100
AcDbArc
 50
180
 51
270
  0
LINE
  5
1F1
100
AcDbEntity
  8
_0-0_
  6
CONTINUOUS
 62
     0
100
AcDbLine
 10
181.268804
 20
641.7717830227
 11
181.268804
 21
557.6186770227
  0
ARC
  5
1F2
100
AcDbEntity
  8
_0-0_
  6
CONTINUOUS
 62
     0
100
AcDbCircle
 10
182.768804
 20
641.7717830227
 40
1.5
100
AcDbArc
 50
93
 51
180
  0
LINE
  5
1F3
100
AcDbEntity
  8
_0-0_
  6
CONTINUOUS
 62
     0
100
AcDbLine
 10
182.6902999351
 20
643.2697277206
 11
629.768804
 21
666.7001195037
  0
LINE
  5
1F4
100
AcDbEntity
  8
_0-0_
  6
CONTINUOUS
 62
     0
100
AcDbLine
 10
182.768804
 20
556.1186770227
 11
189.768804
 21
556.1186770227
  0
LINE
  5
1F5
100
AcDbEntity
  8
_0-1_PRO0
  6
CONTINUOUS
 62
     0
100
AcDbLine
 10
189.768804
 20
556.1186770227
 11
189.768804
 21
554.6186770227
  0
LINE
  5
1F6
100
AcDbEntity
  8
_0-1_PRO0
  6
CONTINUOUS
 62
     0
100
AcDbLine
 10
181.768804
 20
560.6186770227
 11
181.768804
 21
559.1186770227
  0
LINE
  5
1F7
100
AcDbEntity
  8
_0-1_PRO0
  6
CONTINUOUS
 62
     0
100
AcDbLine
 10
202.7392721969
 20
643.8197639291
 11
629.5594601969
 21
666.1884619291
  0
LINE
  5
1F8
100
AcDbEntity
  8
_0-1_PRO0
  6
CONTINUOUS
 62
     0
100
AcDbLine
 10
636.510914
 20
665.8460940227
 11
636.396108
 21
664.1292500227
  0
LINE
  5
1F9
100
AcDbEntity
  8
_0-1_PRO0
  6
CONTINUOUS
 62
     0
100
AcDbLine
 10
646.49721
 20
665.3227340227
 11
646.382403
 21
663.6058900227
  0
LINE
  5
1FA
100
AcDbEntity
  8
_0-1_PRO0
  6
CONTINUOUS
 62
     0
100
AcDbLine
 10
643.068411
 20
665.5024300227
 11
644.886557
 21
663.6842840227
  0
LINE
  5
1FB
100
AcDbEntity
  8
_0-1_PRO0
  6
CONTINUOUS
 62
     0
100
AcDbLine
 10
641.575983
 20
665.5806450227
 11
643.394129
 21
663.7624990227
  0
LINE
  5
1FC
100
AcDbEntity
  8
_0-1_PRO0
  6
CONTINUOUS
 62
     0
100
AcDbLine
 10
640.083554
 20
665.6588600227
 11
641.9017
 21
663.8407140227
  0
LINE
  5
1FD
100
AcDbEntity
  8
_0-1_PRO0
  6
CONTINUOUS
 62
     0
100
AcDbLine
 10
638.591126
 20
665.7370750227
 11
640.409272
 21
663.9189290227
  0
LINE
  5
1FE
100
AcDbEntity
  8
_0-1_PRO0
  6
CONTINUOUS
 62
     0
100
AcDbLine
 10
637.098698
 20
665.8152900227
 11
638.916843
 21
663.9971440227
  0
LINE
  5
1FF
100
AcDbEntity
  8
_0-1_PRO0
  6
CONTINUOUS
 62
     0
100
AcDbLine
 10
637.424415
 20
664.0753590227
 11
636.457183
 21
665.0425900227
  0
LINE
  5
200
100
AcDbEntity
  8
_0-1_PRO0
  6
CONTINUOUS
 62
     0
100
AcDbLine
 10
644.56084
 20
665.4242150227
 11
646.378985
 21
663.6060700227
  0
LINE
  5
201
100
AcDbEntity
  8
_0-1_PRO0
  6
CONTINUOUS
 62
     0
100
AcDbLine
 10
646.053268
 20
665.3460000227
 11
646.470842
 21
664.9284270227
  0
LINE
  5
202
100
AcDbEntity
  8
_0-1_PRO0
  6
CONTINUOUS
 62
     0
100
AcDbLine
 10
1056.562824
 20
639.3259310227
 11
629.742636
 21
661.6946290227
  0
LINE
  5
203
100
AcDbEntity
  8
_0-1_PRO0
  6
CONTINUOUS
 62
     0
100
AcDbLine
 10
1050.533732
 20
642.4252170227
 11
629.768804
 21
664.4765720227
  0
LINE
  5
204
100
AcDbEntity
  8
_0-1_PRO0
  6
CONTINUOUS
 62
     0
100
AcDbLine
 10
1050.29822
 20
637.9313840227
 11
629.768804
 21
659.9703970227
  0
LINE
  5
205
100
AcDbEntity
  8
_0-1_PRO0
  6
CONTINUOUS
 62
     0
100
AcDbLine
 10
1050.219716
 20
636.4334400227
 11
629.768804
 21
658.4683380227
  0
LINE
  5
206
100
AcDbEntity
  8
_0-1_PRO0
  6
CONTINUOUS
 62
     0
100
AcDbLine
 10
1049.450378
 20
621.7535850227
 11
629.768804
 21
643.7481650227
  0
LINE
  5
207
100
AcDbEntity
  8
_0-1_PRO0
  6
CONTINUOUS
 62
     0
100
AcDbLine
 10
1049.356173
 20
619.9560520227
 11
629.768804
 21
641.9456940227
  0
LINE
  5
208
100
AcDbEntity
  8
_0-1_PRO0
  6
CONTINUOUS
 62
     0
100
AcDbLine
 10
1049.199165
 20
616.9601640227
 11
629.768804
 21
638.9415770227
  0
LINE
  5
209
100
AcDbEntity
  8
_0-1_PRO0
  6
CONTINUOUS
 62
     0
100
AcDbLine
 10
1049.120661
 20
615.4622190227
 11
629.768804
 21
637.4395190227
  0
LINE
  5
20A
100
AcDbEntity
  8
_0-1_PRO0
  6
CONTINUOUS
 62
     0
100
AcDbLine
 10
1049.068325
 20
614.4635900227
 11
629.768804
 21
636.4381470227
  0
LINE
  5
20B
100
AcDbEntity
  8
_0-1_PRO0
  6
CONTINUOUS
 62
     0
100
AcDbLine
 10
1076.925812
 20
644.7676720227
 11
629.768804
 21
668.2021780227
  0
ARC
  5
20C
100
AcDbEntity
  8
_0-1_PRO0
  6
CONTINUOUS
 62
     0
100
AcDbCircle
 10
1056.607643
 20
636.3194650227
 40
7.5
100
AcDbArc
 50
10.124672
 51
87
  0
LINE
  5
20D
100
AcDbEntity
  8
_0-1_PRO0
  6
CONTINUOUS
 62
     0
100
AcDbLine
 10
1043.528291
 20
644.5152170227
 11
1041.891225
 21
642.8781510227
  0
LINE
  5
20E
100
AcDbEntity
  8
_0-1_PRO0
  6
CONTINUOUS
 62
     0
100
AcDbLine
 10
1044.872079
 20
644.4447920227
 11
1043.235014
 21
642.8077260227
  0
LINE
  5
20F
100
AcDbEntity
  8
_0-1_PRO0
  6
CONTINUOUS
 62
     0
100
AcDbLine
 10
1046.215868
 20
644.3743670227
 11
1044.578802
 21
642.7373010227
  0
LINE
  5
210
100
AcDbEntity
  8
_0-1_PRO0
  6
CONTINUOUS
 62
     0
100
AcDbLine
 10
1047.559657
 20
644.3039420227
 11
1045.922591
 21
642.6668760227
  0
LINE
  5
211
100
AcDbEntity
  8
_0-1_PRO0
  6
CONTINUOUS
 62
     0
100
AcDbLine
 10
1048.903445
 20
644.2335170227
 11
1047.26638
 21
642.5964520227
  0
LINE
  5
212
100
AcDbEntity
  8
_0-1_PRO0
  6
CONTINUOUS
 62
     0
100
AcDbLine
 10
1050.247234
 20
644.1630920227
 11
1048.610168
 21
642.5260270227
  0
LINE
  5
213
100
AcDbEntity
  8
_0-1_PRO0
  6
CONTINUOUS
 62
     0
100
AcDbLine
 10
1049.953957
 20
642.4556020227
 11
1050.567478
 21
643.0691220227
  0
LINE
  5
214
100
AcDbEntity
  8
_0-1_PRO0
  6
CONTINUOUS
 62
     0
100
AcDbLine
 10
1042.195253
 20
644.5850790227
 11
1040.558187
 21
642.9480130227
  0
LINE
  5
215
100
AcDbEntity
  8
_0-1_PRO0
  6
CONTINUOUS
 62
     0
100
AcDbLine
 10
1040.840714
 20
644.6560670227
 11
1040.625651
 21
644.4410050227
  0
ARC
  5
216
100
AcDbEntity
  8
_0-1_PRO0
  6
CONTINUOUS
 62
     0
100
AcDbCircle
 10
1076.768804
 20
557.6186770227
 40
3
100
AcDbArc
 50
-90
 51
0
  0
LINE
  5
217
100
AcDbEntity
  8
_0-1_PRO0
  6
CONTINUOUS
 62
     0
100
AcDbLine
 10
1076.768804
 20
554.6186770227
 11
1069.768804
 21
554.6186770227
  0
ARC
  5
218
100
AcDbEntity
  8
_0-1_PRO0
  6
CONTINUOUS
 62
     0
100
AcDbCircle
 10
1076.768804
 20
641.7717830227
 40
3
100
AcDbArc
 50
0
 51
87
  0
LINE
  5
219
100
AcDbEntity
  8
_0-1_PRO0
  6
CONTINUOUS
 62
     0
100
AcDbLine
 10
1079.768804
 20
641.7717830227
 11
1079.768804
 21
557.6186770227
  0
LINE
  5
21A
100
AcDbEntity
  8
_0-1_PRO0
  6
CONTINUOUS
 62
     0
100
AcDbLine
 10
1063.990849
 20
637.6378950227
 11
1077.768804
 21
560.4813470227
  0
LINE
  5
21B
100
AcDbEntity
  8
_0-1_PRO0
  6
CONTINUOUS
 62
     0
100
AcDbLine
 10
1059.560925
 20
636.8468370227
 11
1073.337611
 21
559.6973990227
  0
ARC
  5
21C
100
AcDbEntity
  8
_0-1_PRO0
  6
CONTINUOUS
 62
     0
100
AcDbCircle
 10
1056.607643
 20
636.3194650227
 40
3
100
AcDbArc
 50
10.124672
 51
87
  0
LINE
  5
21D
100
AcDbEntity
  8
_0-1_PRO0
  6
CONTINUOUS
 62
     0
100
AcDbLine
 10
1072.851506
 20
567.4186770227
 11
1063.60133
 21
567.4186770227
  0
ARC
  5
21E
100
AcDbEntity
  8
_0-1_PRO0
  6
CONTINUOUS
 62
     0
100
AcDbCircle
 10
1072.851506
 20
566.9186770227
 40
0.5
100
AcDbArc
 50
12
 51
90
  0
LINE
  5
21F
100
AcDbEntity
  8
_0-1_PRO0
  6
CONTINUOUS
 62
     0
100
AcDbLine
 10
1073.34058
 20
567.0226330227
 11
1074.768804
 21
560.3033640227
  0
LINE
  5
220
100
AcDbEntity
  8
_0-1_PRO0
  6
CONTINUOUS
 62
     0
100
AcDbLine
 10
1074.768804
 20
560.3033640227
 11
1074.768804
 21
556.6186770227
  0
LINE
  5
221
100
AcDbEntity
  8
_0-1_PRO0
  6
CONTINUOUS
 62
     0
100
AcDbLine
 10
1075.268804
 20
556.6186770227
 11
1074.768804
 21
556.6186770227
  0
ARC
  5
222
100
AcDbEntity
  8
_0-1_PRO0
  6
CONTINUOUS
 62
     0
100
AcDbCircle
 10
1075.268804
 20
559.1186770227
 40
2.5
100
AcDbArc
 50
-90
 51
0
  0
LINE
  5
223
100
AcDbEntity
  8
_0-1_PRO0
  6
CONTINUOUS
 62
     0
100
AcDbLine
 10
1063.60133
 20
568.6186770227
 11
1066.00133
 21
568.6186770227
  0
LINE
  5
224
100
AcDbEntity
  8
_0-1_PRO0
  6
CONTINUOUS
 62
     0
100
AcDbLine
 10
1068.00133
 20
569.6186770227
 11
1068.00133
 21
568.6186770227
  0
LINE
  5
225
100
AcDbEntity
  8
_0-1_PRO0
  6
CONTINUOUS
 62
     0
100
AcDbLine
 10
1066.00133
 20
568.6186770227
 11
1068.00133
 21
569.6186770227
  0
ARC
  5
226
100
AcDbEntity
  8
_0-1_PRO0
  6
CONTINUOUS
 62
     0
100
AcDbCircle
 10
1063.60133
 20
568.0186770227
 40
0.6
100
AcDbArc
 50
90
 51
270
  0
LINE
  5
227
100
AcDbEntity
  8
_0-1_PRO0
  6
CONTINUOUS
 62
     0
100
AcDbLine
 10
1072.383881
 20
568.6186770227
 11
1068.00133
 21
568.6186770227
  0
ARC
  5
228
100
AcDbEntity
  8
_0-1_PRO0
  6
CONTINUOUS
 62
     0
100
AcDbCircle
 10
1072.383881
 20
569.1186770227
 40
0.5
100
AcDbArc
 50
-90
 51
12
  0
ARC
  5
229
100
AcDbEntity
  8
_0-1_PRO0
  6
CONTINUOUS
 62
     0
100
AcDbCircle
 10
1051.170256
 20
616.3561770227
 40
0.5
100
AcDbArc
 50
86.99999999999
 51
177
  0
LINE
  5
22A
100
AcDbEntity
  8
_0-1_PRO0
  6
CONTINUOUS
 62
     0
100
AcDbLine
 10
1050.670941
 20
616.3823450227
 11
1050.618605
 21
615.3837150227
  0
LINE
  5
22B
100
AcDbEntity
  8
_0-1_PRO0
  6
CONTINUOUS
 62
     0
100
AcDbLine
 10
1050.093123
 20
614.9105690227
 11
1049.593808
 21
614.9367370227
  0
ARC
  5
22C
100
AcDbEntity
  8
_0-1_PRO0
  6
CONTINUOUS
 62
     0
100
AcDbCircle
 10
1049.619976
 20
615.4360510227
 40
0.5
100
AcDbArc
 50
177
 51
267
  0
ARC
  5
22D
100
AcDbEntity
  8
_0-1_PRO0
  6
CONTINUOUS
 62
     0
100
AcDbCircle
 10
1050.119291
 20
615.4098830227
 40
0.5
100
AcDbArc
 50
-93.00000000001
 51
-2.999999999993
  0
LINE
  5
22E
100
AcDbEntity
  8
_0-1_PRO0
  6
CONTINUOUS
 62
     0
100
AcDbLine
 10
1058.871503
 20
616.4532580227
 11
1051.196424
 21
616.8554920227
  0
ARC
  5
22F
100
AcDbEntity
  8
_0-1_PRO0
  6
CONTINUOUS
 62
     0
100
AcDbCircle
 10
1058.845335
 20
615.9539430227
 40
0.5
100
AcDbArc
 50
-13.00000000001
 51
86.99999999999
  0
LINE
  5
230
100
AcDbEntity
  8
_0-1_PRO0
  6
CONTINUOUS
 62
     0
100
AcDbLine
 10
1059.33252
 20
615.8414680227
 11
1058.749327
 21
613.3153830227
  0
LINE
  5
231
100
AcDbEntity
  8
_0-1_PRO0
  6
CONTINUOUS
 62
     0
100
AcDbLine
 10
1060.93479
 20
616.3451260227
 11
1062.112136
 21
616.2834240227
  0
ARC
  5
232
100
AcDbEntity
  8
_0-1_PRO0
  6
CONTINUOUS
 62
     0
100
AcDbCircle
 10
1060.919089
 20
616.0455370227
 40
0.3
100
AcDbArc
 50
86.99999999999
 51
167
  0
LINE
  5
233
100
AcDbEntity
  8
_0-1_PRO0
  6
CONTINUOUS
 62
     0
100
AcDbLine
 10
1060.626778
 20
616.1130220227
 11
1059.918571
 21
613.0454420227
  0
ARC
  5
234
100
AcDbEntity
  8
_0-1_PRO0
  6
CONTINUOUS
 62
     0
100
AcDbCircle
 10
1062.0598
 20
615.2847940227
 40
1
100
AcDbArc
 50
12
 51
86.99999999999
  0
ARC
  5
235
100
AcDbEntity
  8
_0-1_PRO0
  6
CONTINUOUS
 62
     0
100
AcDbCircle
 10
1059.333949
 20
613.1804130227
 40
0.6
100
AcDbArc
 50
167
 51
347
  0
LINE
  5
236
100
AcDbEntity
  8
_0-1_PRO0
  6
CONTINUOUS
 62
     0
100
AcDbLine
 10
1065.812854
 20
616.8670000227
 11
1077.768804
 21
560.6186770227
  0
LINE
  5
237
100
AcDbEntity
  8
_0-1_PRO0
  6
CONTINUOUS
 62
     0
100
AcDbLine
 10
1063.037948
 20
615.4927060227
 11
1072.872955
 21
569.2226330227
  0
LINE
  5
238
100
AcDbEntity
  8
_0-1_PRO0
  6
CONTINUOUS
 62
     0
100
AcDbLine
 10
1073.337611
 20
559.6973990227
 11
1077.768804
 21
560.4813470227
  0
LINE
  5
239
100
AcDbEntity
  8
_0-1_PRO0
  6
CONTINUOUS
 62
     0
100
AcDbLine
 10
1050.623776
 20
644.1433590227
 11
1050.533732
 21
642.4252170227
  0
LINE
  5
23A
100
AcDbEntity
  8
_0-1_PRO0
  6
CONTINUOUS
 62
     0
100
AcDbLine
 10
1040.637481
 20
644.6667180227
 11
1040.547437
 21
642.9485760227
  0
ARC
  5
23B
100
AcDbEntity
  8
_0-1_PRO0
  6
CONTINUOUS
 62
     0
100
AcDbCircle
 10
1049.986328
 20
622.4264580227
 40
0.5
100
AcDbArc
 50
86.99999999999
 51
177
  0
LINE
  5
23C
100
AcDbEntity
  8
_0-1_PRO0
  6
CONTINUOUS
 62
     0
100
AcDbLine
 10
1051.353432
 20
619.8513800227
 11
1063.035419
 21
619.2391530227
  0
ARC
  5
23D
100
AcDbEntity
  8
_0-1_PRO0
  6
CONTINUOUS
 62
     0
100
AcDbCircle
 10
1051.3796
 20
620.3506950227
 40
0.5
100
AcDbArc
 50
177
 51
267
  0
LINE
  5
23E
100
AcDbEntity
  8
_0-1_PRO0
  6
CONTINUOUS
 62
     0
100
AcDbLine
 10
1050.880285
 20
620.3768630227
 11
1050.984957
 21
622.3741220227
  0
ARC
  5
23F
100
AcDbEntity
  8
_0-1_PRO0
  6
CONTINUOUS
 62
     0
100
AcDbCircle
 10
1050.485642
 20
622.4002900227
 40
0.5
100
AcDbArc
 50
-2.999999999993
 51
86.99999999999
  0
LINE
  5
240
100
AcDbEntity
  8
_0-1_PRO0
  6
CONTINUOUS
 62
     0
100
AcDbLine
 10
1050.51181
 20
622.8996050227
 11
1050.012496
 21
622.9257730227
  0
LINE
  5
241
100
AcDbEntity
  8
_0-1_PRO0
  6
CONTINUOUS
 62
     0
100
AcDbLine
 10
1050.533732
 20
642.4252170227
 11
1049.068325
 21
614.4635900227
  0
ARC
  5
242
100
AcDbEntity
  8
_0-1_PRO0
  6
CONTINUOUS
 62
     0
100
AcDbCircle
 10
1062.878411
 20
616.2432650227
 40
3
100
AcDbArc
 50
12
 51
87
  0
ARC
  5
243
100
AcDbEntity
  8
_0-1_PRO0
  6
CONTINUOUS
 62
     0
100
AcDbCircle
 10
1020.816727
 20
619.9496830227
 40
1.5
100
AcDbArc
 50
87
 51
267
  0
LINE
  5
244
100
AcDbEntity
  8
_0-1_PRO0
  6
CONTINUOUS
 62
     0
100
AcDbLine
 10
1070.00133
 20
570.1186770227
 11
1070.00133
 21
570.0090650227
  0
ARC
  5
245
100
AcDbEntity
  8
_0-0_
  6
CONTINUOUS
 62
     0
100
AcDbCircle
 10
1076.768804
 20
557.6186770227
 40
1.5
100
AcDbArc
 50
-90
 51
0
  0
LINE
  5
246
100
AcDbEntity
  8
_0-0_
  6
CONTINUOUS
 62
     0
100
AcDbLine
 10
1078.268804
 20
641.7717830227
 11
1078.268804
 21
557.6186770227
  0
ARC
  5
247
100
AcDbEntity
  8
_0-0_
  6
CONTINUOUS
 62
     0
100
AcDbCircle
 10
1076.768804
 20
641.7717830227
 40
1.5
100
AcDbArc
 50
0
 51
87
  0
LINE
  5
248
100
AcDbEntity
  8
_0-0_
  6
CONTINUOUS
 62
     0
100
AcDbLine
 10
1076.847308065
 20
643.2697277206
 11
629.768804
 21
666.7001195037
  0
LINE
  5
249
100
AcDbEntity
  8
_0-0_
  6
CONTINUOUS
 62
     0
100
AcDbLine
 10
1076.768804
 20
556.1186770227
 11
1069.768804
 21
556.1186770227
  0
LINE
  5
24A
100
AcDbEntity
  8
_0-1_PRO0
  6
CONTINUOUS
 62
     0
100
AcDbLine
 10
1069.768804
 20
556.1186770227
 11
1069.768804
 21
554.6186770227
  0
LINE
  5
24B
100
AcDbEntity
  8
_0-1_PRO0
  6
CONTINUOUS
 62
     0
100
AcDbLine
 10
1077.768804
 20
560.6186770227
 11
1077.768804
 21
559.1186770227
  0
LINE
  5
24C
100
AcDbEntity
  8
_0-1_PRO0
  6
CONTINUOUS
 62
     0
100
AcDbLine
 10
1056.798335803
 20
643.8197639291
 11
629.9781478031
 21
666.1884619291
  0
CIRCLE
  5
24D
100
AcDbEntity
  8
_0-0_
  6
CONTINUOUS
 62
     0
100
AcDbCircle
 10
1063.061974326
 20
627.8312232685
 40
0.9
  0
CIRCLE
  5
24E
100
AcDbEntity
  8
_0-0_
  6
CONTINUOUS
 62
     0
100
AcDbCircle
 10
1089.69845547
 20
673.9669619437
 40
6
  0
LINE
  5
24F
100
AcDbEntity
  8
_0-0_
  6
CONTINUOUS
 62
     0
100
AcDbLine
 10
1063.061974326
 20
627.8312232685
 11
1086.69845547
 21
668.770809521
  0
CIRCLE
  5
250
100
AcDbEntity
  8
_0-0_
  6
CONTINUOUS
 62
     0
100
AcDbCircle
 10
1090.98510126
 20
694.7039530836
 40
6
  0
LINE
  5
251
100
AcDbEntity
  8
_0-1_PRO0
  6
CONTINUOUS
 62
     0
100
AcDbLine
 10
1079.768804
 20
556.1186770227
 11
1079.768804
 21
383.7601458101
  0
LINE
  5
252
100
AcDbEntity
  8
_0-1_PRO0
  6
CONTINUOUS
 62
     0
100
AcDbLine
 10
1079.768804
 20
389.7601458101
 11
1073.768804
 21
388.2601458101
  0
LINE
  5
253
100
AcDbEntity
  8
_0-1_PRO0
  6
CONTINUOUS
 62
     0
100
AcDbLine
 10
1079.768804
 20
389.7601458101
 11
1073.768804
 21
391.2601458101
  0
LINE
  5
254
100
AcDbEntity
  8
_0-1_PRO0
  6
CONTINUOUS
 62
     0
100
AcDbLine
 10
179.768804
 20
556.1186770227
 11
179.768804
 21
383.7601458101
  0
LINE
  5
255
100
AcDbEntity
  8
_0-1_PRO0
  6
CONTINUOUS
 62
     0
100
AcDbLine
 10
179.768804
 20
389.7601458101
 11
185.768804
 21
391.2601458101
  0
LINE
  5
256
100
AcDbEntity
  8
_0-1_PRO0
  6
CONTINUOUS
 62
     0
100
AcDbLine
 10
179.768804
 20
389.7601458101
 11
185.768804
 21
388.2601458101
  0
LINE
  5
257
100
AcDbEntity
  8
_0-1_PRO0
  6
CONTINUOUS
 62
     0
100
AcDbLine
 10
629.768804
 20
413.6865698101
 11
629.768804
 21
680.4710310227
  0
LINE
  5
258
100
AcDbEntity
  8
_0-0_
  6
CONTINUOUS
 62
     0
100
AcDbLine
 10
889.4984660336
 20
371.464683929
 11
686.9984660336
 21
371.464683929
  0
LINE
  5
259
100
AcDbEntity
  8
_0-0_
  6
CONTINUOUS
 62
     0
100
AcDbLine
 10
889.4984660336
 20
353.464683929
 11
686.9984660336
 21
353.464683929
  0
LINE
  5
25A
100
AcDbEntity
  8
_0-0_
  6
CONTINUOUS
 62
     0
100
AcDbLine
 10
889.4984660336
 20
335.464683929
 11
686.9984660336
 21
335.464683929
  0
TEXT
  5
25B
100
AcDbEntity
  8
_0-0_
  6
CONTINUOUS
 62
     0
100
AcDbText
 10
824.2484660336
 20
371.7286018957
 40
7.5
  1
（単位：mm）
  7
STANDARD
100
AcDbText
  0
TEXT
  5
25C
100
AcDbEntity
  8
_0-0_
  6
CONTINUOUS
 62
     0
100
AcDbText
 10
718.3734652836
 20
357.339683929
 40
7.49
  1
タ　イ　プ
  7
STANDARD
100
AcDbText
  0
TEXT
  5
25D
100
AcDbEntity
  8
_0-0_
  6
CONTINUOUS
 62
     0
100
AcDbText
 10
816.8734660336
 20
357.339683929
 40
7.49
  1
Ｗ
  7
STANDARD
100
AcDbText
  0
TEXT
  5
25E
100
AcDbEntity
  8
_0-0_
  6
CONTINUOUS
 62
     0
100
AcDbText
 10
861.8734660336
 20
357.339683929
 40
7.49
  1
Ｃ
  7
STANDARD
100
AcDbText
  0
TEXT
  5
25F
100
AcDbEntity
  8
_0-1_PRO0
  6
CONTINUOUS
 62
     0
100
AcDbText
 10
410.0688238118
 20
390.536833524
 40
8.99
  1
≦Ｃ
 41
0.7385984427141
  7
STANDARD
100
AcDbText
  0
TEXT
  5
260
100
AcDbEntity
  8
_0-1_PRO0
  6
CONTINUOUS
 62
     0
100
AcDbText
 10
839.8113025776
 20
390.7633571699
 40
9
  1
≦Ｃ
 41
0.7377777777778
  7
STANDARD
100
AcDbText
  0
LINE
  5
261
100
AcDbEntity
  8
_0-0_
  6
CONTINUOUS
 62
     0
100
AcDbLine
 10
556.4984660336
 20
299.464683929
 11
656.9984660336
 21
299.464683929
  0
LINE
  5
262
100
AcDbEntity
  8
_0-0_
  6
CONTINUOUS
 62
     0
100
AcDbLine
 10
241.4984660336
 20
119.464683929
 11
241.4984660336
 21
371.464683929
  0
LINE
  5
263
100
AcDbEntity
  8
_0-0_
  6
CONTINUOUS
 62
     0
100
AcDbLine
 10
262.4984660336
 20
119.464683929
 11
262.4984660336
 21
371.464683929
  0
LINE
  5
264
100
AcDbEntity
  8
_0-0_
  6
CONTINUOUS
 62
     0
100
AcDbLine
 10
412.4984660336
 20
119.464683929
 11
412.4984660336
 21
371.464683929
  0
LINE
  5
265
100
AcDbEntity
  8
_0-0_
  6
CONTINUOUS
 62
     0
100
AcDbLine
 10
554.9984660336
 20
119.464683929
 11
554.9984660336
 21
371.464683929
  0
LINE
  5
266
100
AcDbEntity
  8
_0-0_
  6
CONTINUOUS
 62
     0
100
AcDbLine
 10
556.4984660336
 20
119.464683929
 11
556.4984660336
 21
371.464683929
  0
LINE
  5
267
100
AcDbEntity
  8
_0-0_
  6
CONTINUOUS
 62
     0
100
AcDbLine
 10
608.9984660336
 20
119.464683929
 11
608.9984660336
 21
371.464683929
  0
LINE
  5
268
100
AcDbEntity
  8
_0-0_
  6
CONTINUOUS
 62
     0
100
AcDbLine
 10
635.9984660336
 20
119.464683929
 11
635.9984660336
 21
371.464683929
  0
LINE
  5
269
100
AcDbEntity
  8
_0-0_
  6
CONTINUOUS
 62
     0
100
AcDbLine
 10
656.9984660336
 20
119.464683929
 11
656.9984660336
 21
371.464683929
  0
LINE
  5
26A
100
AcDbEntity
  8
_0-1_PRO0
  6
CONTINUOUS
 62
     0
100
AcDbLine
 10
179.768804
 20
739.3612469943
 11
1079.768804
 21
739.3612469943
  0
LINE
  5
26B
100
AcDbEntity
  8
_0-1_PRO0
  6
CONTINUOUS
 62
     0
100
AcDbLine
 10
179.768804
 20
642.7717830227
 11
179.768804
 21
743.3612469943
  0
LINE
  5
26C
100
AcDbEntity
  8
_0-1_PRO0
  6
CONTINUOUS
 62
     0
100
AcDbLine
 10
1079.768804
 20
642.7717830227
 11
1079.768804
 21
743.3612469943
  0
LINE
  5
26D
100
AcDbEntity
  8
_0-1_PRO0
  6
CONTINUOUS
 62
     0
100
AcDbLine
 10
179.768804
 20
739.3612469943
 11
185.768804
 21
740.8612469943
  0
LINE
  5
26E
100
AcDbEntity
  8
_0-1_PRO0
  6
CONTINUOUS
 62
     0
100
AcDbLine
 10
179.768804
 20
739.3612469943
 11
185.768804
 21
737.8612469943
  0
LINE
  5
26F
100
AcDbEntity
  8
_0-1_PRO0
  6
CONTINUOUS
 62
     0
100
AcDbLine
 10
1079.768804
 20
739.3612469943
 11
1073.768804
 21
737.8612469943
  0
LINE
  5
270
100
AcDbEntity
  8
_0-1_PRO0
  6
CONTINUOUS
 62
     0
100
AcDbLine
 10
1079.768804
 20
739.3612469943
 11
1073.768804
 21
740.8612469943
  0
TEXT
  5
271
100
AcDbEntity
  8
_0-1_PRO0
  6
CONTINUOUS
 62
     0
100
AcDbText
 10
625.7584084277
 20
741.7378287071
 40
9
  1
Ｗ
 41
0.7377777777778
  7
STANDARD
100
AcDbText
  0
LINE
  5
272
100
AcDbEntity
  8
_0-0_
  6
CONTINUOUS
 62
     0
100
AcDbLine
 10
512.1539961598
 20
477.6249424696
 11
479.768804
 21
598.4881250227
  0
LINE
  5
273
100
AcDbEntity
  8
_0-0_
  6
CONTINUOUS
 62
     0
100
AcDbLine
 10
513.1199219861
 20
477.8837615147
 11
480.5360701169
 21
599.4883521965
  0
LINE
  5
274
100
AcDbEntity
  8
_0-1_PRO0
  6
CONTINUOUS
 62
     0
100
AcDbLine
 10
479.768804
 20
409.7559858101
 11
479.768804
 21
598.4881250227
  0
LINE
  5
275
100
AcDbEntity
  8
_0-1_PRO0
  6
CONTINUOUS
 62
     0
100
AcDbLine
 10
479.768804
 20
389.7601458101
 11
485.768804
 21
391.2601458101
  0
LINE
  5
276
100
AcDbEntity
  8
_0-1_PRO0
  6
CONTINUOUS
 62
     0
100
AcDbLine
 10
479.768804
 20
389.7601458101
 11
485.768804
 21
388.2601458101
  0
LINE
  5
277
100
AcDbEntity
  8
_0-1_PRO0
  6
CONTINUOUS
 62
     0
100
AcDbLine
 10
479.768804
 20
408.2559858101
 11
479.768804
 21
383.7601458101
  0
LINE
  5
278
100
AcDbEntity
  8
_0-1_PRO0
  6
CONTINUOUS
 62
     0
100
AcDbLine
 10
479.768804
 20
389.7601458101
 11
473.768804
 21
388.2601458101
  0
LINE
  5
279
100
AcDbEntity
  8
_0-1_PRO0
  6
CONTINUOUS
 62
     0
100
AcDbLine
 10
479.768804
 20
389.7601458101
 11
473.768804
 21
391.2601458101
  0
CIRCLE
  5
27A
100
AcDbEntity
  8
_0-0_
  6
CONTINUOUS
 62
     0
100
AcDbCircle
 10
529.7187050662
 20
569.5612836464
 40
6
  0
LINE
  5
27B
100
AcDbEntity
  8
_0-0_
  6
CONTINUOUS
 62
     0
100
AcDbLine
 10
501.7506912499
 20
521.1192627297
 11
526.7187050662
 21
564.3651312237
  0
CIRCLE
  5
27C
100
AcDbEntity
  8
_0-0_
  6
CONTINUOUS
 62
     0
100
AcDbCircle
 10
501.7506912499
 20
521.1192627297
 40
0.9
  0
LINE
  5
27D
100
AcDbEntity
  8
_0-0_
  6
CONTINUOUS
 62
     0
100
AcDbLine
 10
747.3836118402
 20
477.6249424696
 11
779.768804
 21
598.4881250227
  0
LINE
  5
27E
100
AcDbEntity
  8
_0-0_
  6
CONTINUOUS
 62
     0
100
AcDbLine
 10
746.4176860139
 20
477.8837615147
 11
779.0015378831
 21
599.4883521965
  0
LINE
  5
27F
100
AcDbEntity
  8
_0-1_PRO0
  6
CONTINUOUS
 62
     0
100
AcDbLine
 10
779.768804
 20
389.7601458101
 11
785.768804
 21
391.2601458101
  0
LINE
  5
280
100
AcDbEntity
  8
_0-1_PRO0
  6
CONTINUOUS
 62
     0
100
AcDbLine
 10
779.768804
 20
389.7601458101
 11
785.768804
 21
388.2601458101
  0
LINE
  5
281
100
AcDbEntity
  8
_0-1_PRO0
  6
CONTINUOUS
 62
     0
100
AcDbLine
 10
779.768804
 20
408.2559858101
 11
779.768804
 21
383.7601458101
  0
LINE
  5
282
100
AcDbEntity
  8
_0-1_PRO0
  6
CONTINUOUS
 62
     0
100
AcDbLine
 10
779.768804
 20
389.7601458101
 11
773.768804
 21
388.2601458101
  0
LINE
  5
283
100
AcDbEntity
  8
_0-1_PRO0
  6
CONTINUOUS
 62
     0
100
AcDbLine
 10
779.768804
 20
389.7601458101
 11
773.768804
 21
391.2601458101
  0
LINE
  5
284
100
AcDbEntity
  8
_0-1_PRO0
  6
CONTINUOUS
 62
     0
100
AcDbLine
 10
779.768804
 20
409.7559858101
 11
779.768804
 21
598.4881250227
  0
LINE
  5
285
100
AcDbEntity
  8
_0-1_PRO0
  6
CONTINUOUS
 62
     0
100
AcDbLine
 10
479.768804
 20
389.7601458101
 11
779.768804
 21
389.7601458101
  0
TEXT
  5
286
100
AcDbEntity
  8
_0-1_PRO0
  6
CONTINUOUS
 62
     0
100
AcDbText
 10
619.3496677448
 20
392.8778505194
 40
9
  1
３００
 41
0.7377777777778
  7
STANDARD
100
AcDbText
  0
LINE
  5
287
100
AcDbEntity
  8
_0-2_
  6
CONTINUOUS
 62
     0
100
AcDbLine
 10
390.7511317144
 20
604.5968950227
 11
408.7511317144
 21
604.5968950227
  0
LINE
  5
288
100
AcDbEntity
  8
_0-1_PRO0
  6
CONTINUOUS
 62
     0
100
AcDbLine
 10
349.768804
 20
409.7559858101
 11
349.768804
 21
598.4881250227
  0
LINE
  5
289
100
AcDbEntity
  8
_0-1_PRO0
  6
CONTINUOUS
 62
     0
100
AcDbLine
 10
349.768804
 20
389.7601458101
 11
355.768804
 21
391.2601458101
  0
LINE
  5
28A
100
AcDbEntity
  8
_0-1_PRO0
  6
CONTINUOUS
 62
     0
100
AcDbLine
 10
349.768804
 20
389.7601458101
 11
355.768804
 21
388.2601458101
  0
LINE
  5
28B
100
AcDbEntity
  8
_0-1_PRO0
  6
CONTINUOUS
 62
     0
100
AcDbLine
 10
179.768804
 20
389.7601458101
 11
349.768804
 21
389.7601458101
  0
LINE
  5
28C
100
AcDbEntity
  8
_0-1_PRO0
  6
CONTINUOUS
 62
     0
100
AcDbLine
 10
349.768804
 20
408.2559858101
 11
349.768804
 21
383.7601458101
  0
LINE
  5
28D
100
AcDbEntity
  8
_0-1_PRO0
  6
CONTINUOUS
 62
     0
100
AcDbLine
 10
349.768804
 20
389.7601458101
 11
343.768804
 21
388.2601458101
  0
LINE
  5
28E
100
AcDbEntity
  8
_0-1_PRO0
  6
CONTINUOUS
 62
     0
100
AcDbLine
 10
349.768804
 20
389.7601458101
 11
343.768804
 21
391.2601458101
  0
LINE
  5
28F
100
AcDbEntity
  8
_0-2_
  6
CONTINUOUS
 62
     0
100
AcDbLine
 10
404.5332367144
 20
615.0660880227
 11
395.3458447144
 21
614.5845970227
  0
LINE
  5
290
100
AcDbEntity
  8
_0-2_
  6
CONTINUOUS
 62
     0
100
AcDbLine
 10
414.7511317144
 20
599.0621474944
 11
414.3251541861
 21
599.4881250227
  0
ARC
  5
291
100
AcDbEntity
  8
_0-2_
  6
CONTINUOUS
 62
     0
100
AcDbCircle
 10
414.7511317144
 20
591.2381250227
 40
8.25
100
AcDbArc
 50
71.07535558395
 51
90
  0
ARC
  5
292
100
AcDbEntity
  8
_0-2_
  6
CONTINUOUS
 62
     0
100
AcDbCircle
 10
414.7511317144
 20
591.2381250227
 40
9.25
100
AcDbArc
 50
71.07535558395
 51
90
  0
ARC
  5
293
100
AcDbEntity
  8
_0-2_
  6
CONTINUOUS
 62
     0
100
AcDbCircle
 10
420.7511317144
 20
608.7381250227
 40
9.25
100
AcDbArc
 50
-108.9246444161
 51
-90
  0
LINE
  5
294
100
AcDbEntity
  8
_0-2_
  6
CONTINUOUS
 62
     0
100
AcDbLine
 10
399.768805
 20
553.0547240227
 11
399.768805
 21
598.4881250227
  0
LINE
  5
295
100
AcDbEntity
  8
_0-2_
  6
CONTINUOUS
 62
     0
100
AcDbLine
 10
395.018803
 20
589.4881250227
 11
395.718805
 21
590.1881240227
  0
LINE
  5
296
100
AcDbEntity
  8
_0-2_
  6
CONTINUOUS
 62
     0
100
AcDbLine
 10
395.718805
 20
599.4881240227
 11
395.718805
 21
590.1881240227
  0
LINE
  5
297
100
AcDbEntity
  8
_0-2_
  6
CONTINUOUS
 62
     0
100
AcDbLine
 10
395.018803
 20
570.8599520227
 11
395.018803
 21
589.4881250227
  0
LINE
  5
298
100
AcDbEntity
  8
_0-2_
  6
CONTINUOUS
 62
     0
100
AcDbLine
 10
395.268805
 20
558.9881240227
 11
395.268805
 21
559.8514280227
  0
LINE
  5
299
100
AcDbEntity
  8
_0-2_
  6
CONTINUOUS
 62
     0
100
AcDbLine
 10
393.143773
 20
560.2261280227
 11
395.018803
 21
570.8599520227
  0
LINE
  5
29A
100
AcDbEntity
  8
_0-2_
  6
CONTINUOUS
 62
     0
100
AcDbLine
 10
399.268804
 20
570.4881230227
 11
400.268803
 21
570.4881230227
  0
LINE
  5
29B
100
AcDbEntity
  8
_0-2_
  6
CONTINUOUS
 62
     0
100
AcDbLine
 10
404.518804
 20
589.4881250227
 11
403.818805
 21
590.1881240227
  0
LINE
  5
29C
100
AcDbEntity
  8
_0-2_
  6
CONTINUOUS
 62
     0
100
AcDbLine
 10
403.818805
 20
599.4881240227
 11
403.818805
 21
590.1881240227
  0
LINE
  5
29D
100
AcDbEntity
  8
_0-2_
  6
CONTINUOUS
 62
     0
100
AcDbLine
 10
404.518804
 20
570.8599520227
 11
404.518804
 21
589.4881250227
  0
LINE
  5
29E
100
AcDbEntity
  8
_0-2_
  6
CONTINUOUS
 62
     0
100
AcDbLine
 10
403.268803
 20
557.9881250227
 11
396.268804
 21
557.9881250227
  0
ARC
  5
29F
100
AcDbEntity
  8
_0-2_
  6
CONTINUOUS
 62
     0
100
AcDbCircle
 10
403.268803
 20
558.9881240227
 40
0.999999
100
AcDbArc
 50
-90
 51
0
  0
LINE
  5
2A0
100
AcDbEntity
  8
_0-2_
  6
CONTINUOUS
 62
     0
100
AcDbLine
 10
404.268805
 20
558.9881240227
 11
404.268805
 21
559.8514280227
  0
LINE
  5
2A1
100
AcDbEntity
  8
_0-2_
  6
CONTINUOUS
 62
     0
100
AcDbLine
 10
406.393834
 20
560.2261280227
 11
402.208402
 21
559.4881250227
  0
LINE
  5
2A2
100
AcDbEntity
  8
_0-2_
  6
CONTINUOUS
 62
     0
100
AcDbLine
 10
399.268804
 20
570.4881230227
 11
397.329208
 21
559.4881250227
  0
LINE
  5
2A3
100
AcDbEntity
  8
_0-2_
  6
CONTINUOUS
 62
     0
100
AcDbLine
 10
400.268803
 20
570.4881230227
 11
402.208402
 21
559.4881250227
  0
LINE
  5
2A4
100
AcDbEntity
  8
_0-2_
  6
CONTINUOUS
 62
     0
100
AcDbLine
 10
406.393834
 20
560.2261280227
 11
404.518804
 21
570.8599520227
  0
LINE
  5
2A5
100
AcDbEntity
  8
_0-2_
  6
CONTINUOUS
 62
     0
100
AcDbLine
 10
395.018803
 20
589.4881250227
 11
404.518804
 21
589.4881250227
  0
LINE
  5
2A6
100
AcDbEntity
  8
_0-2_
  6
CONTINUOUS
 62
     0
100
AcDbLine
 10
395.718805
 20
590.1881240227
 11
403.818805
 21
590.1881240227
  0
LINE
  5
2A7
100
AcDbEntity
  8
_0-2_
  6
CONTINUOUS
 62
     0
100
AcDbLine
 10
393.143773
 20
560.2261280227
 11
397.329208
 21
559.4881250227
  0
ARC
  5
2A8
100
AcDbEntity
  8
_0-2_
  6
CONTINUOUS
 62
     0
100
AcDbCircle
 10
396.268804
 20
558.9881240227
 40
0.999999
100
AcDbArc
 50
180
 51
270
  0
LINE
  5
2A9
100
AcDbEntity
  8
_0-2_
  6
CONTINUOUS
 62
     0
100
AcDbLine
 10
413.9109406237
 20
598.4881250227
 11
412.9109406237
 21
599.4881250227
  0
LINE
  5
2AA
100
AcDbEntity
  8
_0-2_
  6
CONTINUOUS
 62
     0
100
AcDbLine
 10
412.4967270614
 20
598.4881250227
 11
411.4967270614
 21
599.4881250227
  0
LINE
  5
2AB
100
AcDbEntity
  8
_0-2_
  6
CONTINUOUS
 62
     0
100
AcDbLine
 10
411.082513499
 20
598.4881250227
 11
410.082513499
 21
599.4881250227
  0
LINE
  5
2AC
100
AcDbEntity
  8
_0-2_
  6
CONTINUOUS
 62
     0
100
AcDbLine
 10
409.6682999366
 20
598.4881250227
 11
408.6682999366
 21
599.4881250227
  0
LINE
  5
2AD
100
AcDbEntity
  8
_0-2_
  6
CONTINUOUS
 62
     0
100
AcDbLine
 10
408.2540863742
 20
598.4881250227
 11
407.2540863742
 21
599.4881250227
  0
LINE
  5
2AE
100
AcDbEntity
  8
_0-2_
  6
CONTINUOUS
 62
     0
100
AcDbLine
 10
406.8398728119
 20
598.4881250227
 11
405.8398728119
 21
599.4881250227
  0
LINE
  5
2AF
100
AcDbEntity
  8
_0-2_
  6
CONTINUOUS
 62
     0
100
AcDbLine
 10
405.4256592495
 20
598.4881250227
 11
404.4256592495
 21
599.4881250227
  0
LINE
  5
2B0
100
AcDbEntity
  8
_0-2_
  6
CONTINUOUS
 62
     0
100
AcDbLine
 10
404.0114456871
 20
598.4881250227
 11
403.0114456871
 21
599.4881250227
  0
LINE
  5
2B1
100
AcDbEntity
  8
_0-2_
  6
CONTINUOUS
 62
     0
100
AcDbLine
 10
402.5972321247
 20
598.4881250227
 11
401.5972321247
 21
599.4881250227
  0
LINE
  5
2B2
100
AcDbEntity
  8
_0-2_
  6
CONTINUOUS
 62
     0
100
AcDbLine
 10
401.1830185624
 20
598.4881250227
 11
400.1830185624
 21
599.4881250227
  0
LINE
  5
2B3
100
AcDbEntity
  8
_0-2_
  6
CONTINUOUS
 62
     0
100
AcDbLine
 10
399.768805
 20
598.4881250227
 11
398.768805
 21
599.4881250227
  0
LINE
  5
2B4
100
AcDbEntity
  8
_0-2_
  6
CONTINUOUS
 62
     0
100
AcDbLine
 10
398.3545914376
 20
598.4881250227
 11
397.3545914376
 21
599.4881250227
  0
LINE
  5
2B5
100
AcDbEntity
  8
_0-2_
  6
CONTINUOUS
 62
     0
100
AcDbLine
 10
396.9403778753
 20
598.4881250227
 11
395.9403778753
 21
599.4881250227
  0
LINE
  5
2B6
100
AcDbEntity
  8
_0-2_
  6
CONTINUOUS
 62
     0
100
AcDbLine
 10
395.5261643129
 20
598.4881250227
 11
394.5261643129
 21
599.4881250227
  0
LINE
  5
2B7
100
AcDbEntity
  8
_0-2_
  6
CONTINUOUS
 62
     0
100
AcDbLine
 10
394.1119507505
 20
598.4881250227
 11
393.1119507505
 21
599.4881250227
  0
LINE
  5
2B8
100
AcDbEntity
  8
_0-2_
  6
CONTINUOUS
 62
     0
100
AcDbLine
 10
392.6977371881
 20
598.4881250227
 11
391.6977371881
 21
599.4881250227
  0
LINE
  5
2B9
100
AcDbEntity
  8
_0-2_
  6
CONTINUOUS
 62
     0
100
AcDbLine
 10
391.2835236258
 20
598.4881250227
 11
390.2835236258
 21
599.4881250227
  0
LINE
  5
2BA
100
AcDbEntity
  8
_0-2_
  6
CONTINUOUS
 62
     0
100
AcDbLine
 10
389.8693100634
 20
598.4881250227
 11
388.8693100634
 21
599.4881250227
  0
LINE
  5
2BB
100
AcDbEntity
  8
_0-2_
  6
CONTINUOUS
 62
     0
100
AcDbLine
 10
388.455096501
 20
598.4881250227
 11
387.455096501
 21
599.4881250227
  0
LINE
  5
2BC
100
AcDbEntity
  8
_0-2_
  6
CONTINUOUS
 62
     0
100
AcDbLine
 10
387.0408829386
 20
598.4881250227
 11
386.0408829386
 21
599.4881250227
  0
LINE
  5
2BD
100
AcDbEntity
  8
_0-2_
  6
CONTINUOUS
 62
     0
100
AcDbLine
 10
385.6266693763
 20
598.4881250227
 11
384.7511317144
 21
599.3636626846
  0
LINE
  5
2BE
100
AcDbEntity
  8
_0-2_
  6
CONTINUOUS
 62
     0
100
AcDbLine
 10
384.7511317144
 20
598.4881250227
 11
414.7511317144
 21
598.4881250227
  0
LINE
  5
2BF
100
AcDbEntity
  8
_0-2_
  6
CONTINUOUS
 62
     0
100
AcDbLine
 10
414.7511317144
 20
598.4881250227
 11
414.7511317144
 21
599.4881250227
  0
LINE
  5
2C0
100
AcDbEntity
  8
_0-2_
  6
CONTINUOUS
 62
     0
100
AcDbLine
 10
414.7511317144
 20
599.4881250227
 11
384.7511317144
 21
599.4881250227
  0
LINE
  5
2C1
100
AcDbEntity
  8
_0-2_
  6
CONTINUOUS
 62
     0
100
AcDbLine
 10
384.7511317144
 20
599.4881250227
 11
384.7511317144
 21
598.4881250227
  0
ARC
  5
2C2
100
AcDbEntity
  8
_0-2_
  6
CONTINUOUS
 62
     0
100
AcDbCircle
 10
420.7511317144
 20
608.7381250227
 40
10.25
100
AcDbArc
 50
-108.9246444161
 51
-90
  0
LINE
  5
2C3
100
AcDbEntity
  8
_0-2_
  6
CONTINUOUS
 62
     0
100
AcDbLine
 10
390.7511317144
 20
604.5968950227
 11
390.7511317144
 21
602.9968960227
  0
LINE
  5
2C4
100
AcDbEntity
  8
_0-2_
  6
CONTINUOUS
 62
     0
100
AcDbLine
 10
408.7511317144
 20
604.5968950227
 11
408.7511317144
 21
602.9968960227
  0
LINE
  5
2C5
100
AcDbEntity
  8
_0-2_
  6
CONTINUOUS
 62
     0
100
AcDbLine
 10
405.6311317144
 20
608.8599580227
 11
405.6311317144
 21
604.5968950227
  0
LINE
  5
2C6
100
AcDbEntity
  8
_0-2_
  6
CONTINUOUS
 62
     0
100
AcDbLine
 10
404.7011317144
 20
609.3968950227
 11
405.6311317144
 21
608.8599580227
  0
ARC
  5
2C7
100
AcDbEntity
  8
_0-2_
  6
CONTINUOUS
 62
     0
100
AcDbCircle
 10
404.7011317144
 20
605.5875010227
 40
3.809394
100
AcDbArc
 50
90
 51
120.789964
  0
ARC
  5
2C8
100
AcDbEntity
  8
_0-2_
  6
CONTINUOUS
 62
     0
100
AcDbCircle
 10
399.7511317144
 20
600.7475350227
 40
8.64936
100
AcDbArc
 50
69.705445
 51
110.294555
  0
LINE
  5
2C9
100
AcDbEntity
  8
_0-2_
  6
CONTINUOUS
 62
     0
100
AcDbLine
 10
402.7511317144
 20
608.8599580227
 11
402.7511317144
 21
604.5968950227
  0
LINE
  5
2CA
100
AcDbEntity
  8
_0-2_
  6
CONTINUOUS
 62
     0
100
AcDbLine
 10
396.7511317144
 20
608.8599580227
 11
396.7511317144
 21
604.5968950227
  0
LINE
  5
2CB
100
AcDbEntity
  8
_0-2_
  6
CONTINUOUS
 62
     0
100
AcDbLine
 10
393.8711317144
 20
608.8599580227
 11
393.8711317144
 21
604.5968950227
  0
LINE
  5
2CC
100
AcDbEntity
  8
_0-2_
  6
CONTINUOUS
 62
     0
100
AcDbLine
 10
394.8011317144
 20
609.3968950227
 11
393.8711317144
 21
608.8599580227
  0
LINE
  5
2CD
100
AcDbEntity
  8
_0-2_
  6
CONTINUOUS
 62
     0
100
AcDbLine
 10
404.7011317144
 20
609.3968950227
 11
394.8011317144
 21
609.3968950227
  0
ARC
  5
2CE
100
AcDbEntity
  8
_0-2_
  6
CONTINUOUS
 62
     0
100
AcDbCircle
 10
394.8011317144
 20
605.5875010227
 40
3.809394
100
AcDbArc
 50
59.210036
 51
90
  0
LINE
  5
2CF
100
AcDbEntity
  8
_0-2_
  6
CONTINUOUS
 62
     0
100
AcDbLine
 10
404.4809017144
 20
616.0647190227
 11
404.5332367144
 21
615.0660880227
  0
LINE
  5
2D0
100
AcDbEntity
  8
_0-2_
  6
CONTINUOUS
 62
     0
100
AcDbLine
 10
395.2935097144
 20
615.5832280227
 11
395.3458447144
 21
614.5845970227
  0
ARC
  5
2D1
100
AcDbEntity
  8
_0-2_
  6
CONTINUOUS
 62
     0
100
AcDbCircle
 10
405.4795297144
 20
616.1170540227
 40
0.999999
100
AcDbArc
 50
93.00000000001
 51
183
  0
ARC
  5
2D2
100
AcDbEntity
  8
_0-2_
  6
CONTINUOUS
 62
     0
100
AcDbCircle
 10
394.2948787144
 20
615.5308900227
 40
0.999999
100
AcDbArc
 50
2.999999999999
 51
93.00000000001
  0
ARC
  5
2D3
100
AcDbEntity
  8
_0-2_
  6
CONTINUOUS
 62
     0
100
AcDbCircle
 10
411.7511317144
 20
609.9968950227
 40
0.999999
100
AcDbArc
 50
180
 51
270
  0
LINE
  5
2D4
100
AcDbEntity
  8
_0-2_
  6
CONTINUOUS
 62
     0
100
AcDbLine
 10
411.7511317144
 20
608.9968960227
 11
415.9511317144
 21
608.9968960227
  0
ARC
  5
2D5
100
AcDbEntity
  8
_0-2_
  6
CONTINUOUS
 62
     0
100
AcDbCircle
 10
408.1511317144
 20
616.2570670227
 40
0.999999
100
AcDbArc
 50
0
 51
93.00000000001
  0
LINE
  5
2D6
100
AcDbEntity
  8
_0-2_
  6
CONTINUOUS
 62
     0
100
AcDbLine
 10
391.2987967144
 20
616.3752460227
 11
408.0987967144
 21
617.2556950227
  0
ARC
  5
2D7
100
AcDbEntity
  8
_0-2_
  6
CONTINUOUS
 62
     0
100
AcDbCircle
 10
391.3511317144
 20
615.3766150227
 40
0.999999
100
AcDbArc
 50
93.00000000001
 51
180
  0
LINE
  5
2D8
100
AcDbEntity
  8
_0-2_
  6
CONTINUOUS
 62
     0
100
AcDbLine
 10
387.7511317144
 20
608.9968960227
 11
383.5511317144
 21
608.9968960227
  0
ARC
  5
2D9
100
AcDbEntity
  8
_0-2_
  6
CONTINUOUS
 62
     0
100
AcDbCircle
 10
387.7511317144
 20
609.9968950227
 40
0.999999
100
AcDbArc
 50
-90
 51
0
  0
LINE
  5
2DA
100
AcDbEntity
  8
_0-2_
  6
CONTINUOUS
 62
     0
100
AcDbLine
 10
409.1511307144
 20
609.9968950227
 11
409.1511307144
 21
616.2570670227
  0
ARC
  5
2DB
100
AcDbEntity
  8
_0-2_
  6
CONTINUOUS
 62
     0
100
AcDbCircle
 10
411.7511317144
 20
609.9968950227
 40
2.600001
100
AcDbArc
 50
180
 51
270
  0
LINE
  5
2DC
100
AcDbEntity
  8
_0-2_
  6
CONTINUOUS
 62
     0
100
AcDbLine
 10
411.7511317144
 20
607.3968940227
 11
416.2511317144
 21
607.3968940227
  0
LINE
  5
2DD
100
AcDbEntity
  8
_0-2_
  6
CONTINUOUS
 62
     0
100
AcDbLine
 10
410.7511327144
 20
616.2570670227
 11
410.7511327144
 21
609.9968950227
  0
ARC
  5
2DE
100
AcDbEntity
  8
_0-2_
  6
CONTINUOUS
 62
     0
100
AcDbCircle
 10
408.1511317144
 20
616.2570670227
 40
2.600001
100
AcDbArc
 50
0
 51
93
  0
LINE
  5
2DF
100
AcDbEntity
  8
_0-2_
  6
CONTINUOUS
 62
     0
100
AcDbLine
 10
388.7511307144
 20
615.3766150227
 11
388.7511307144
 21
609.9968950227
  0
ARC
  5
2E0
100
AcDbEntity
  8
_0-2_
  6
CONTINUOUS
 62
     0
100
AcDbCircle
 10
391.3511317144
 20
615.3766150227
 40
2.600001
100
AcDbArc
 50
93
 51
180
  0
LINE
  5
2E1
100
AcDbEntity
  8
_0-2_
  6
CONTINUOUS
 62
     0
100
AcDbLine
 10
391.2150577144
 20
617.9730520227
 11
408.0150577144
 21
618.8535040227
  0
LINE
  5
2E2
100
AcDbEntity
  8
_0-2_
  6
CONTINUOUS
 62
     0
100
AcDbLine
 10
390.3511327144
 20
609.9968950227
 11
390.3511327144
 21
615.3766150227
  0
ARC
  5
2E3
100
AcDbEntity
  8
_0-2_
  6
CONTINUOUS
 62
     0
100
AcDbCircle
 10
387.7511317144
 20
609.9968950227
 40
2.600001
100
AcDbArc
 50
-90
 51
0
  0
LINE
  5
2E4
100
AcDbEntity
  8
_0-2_
  6
CONTINUOUS
 62
     0
100
AcDbLine
 10
387.7511317144
 20
607.3968940227
 11
383.2511317144
 21
607.3968940227
  0
LINE
  5
2E5
100
AcDbEntity
  8
_0-2_
  6
CONTINUOUS
 62
     0
100
AcDbLine
 10
383.5511317144
 20
606.4968940227
 11
385.5011317144
 21
606.4968940227
  0
ARC
  5
2E6
100
AcDbEntity
  8
_0-2_
  6
CONTINUOUS
 62
     0
100
AcDbCircle
 10
383.5511317144
 20
606.7968940227
 40
0.3
100
AcDbArc
 50
180
 51
270
  0
ARC
  5
2E7
100
AcDbEntity
  8
_0-2_
  6
CONTINUOUS
 62
     0
100
AcDbCircle
 10
383.5511317144
 20
608.6968960227
 40
0.3
100
AcDbArc
 50
90
 51
180
  0
LINE
  5
2E8
100
AcDbEntity
  8
_0-2_
  6
CONTINUOUS
 62
     0
100
AcDbLine
 10
400.2511327144
 20
602.9968960227
 11
399.7511317144
 21
602.4968950227
  0
LINE
  5
2E9
100
AcDbEntity
  8
_0-2_
  6
CONTINUOUS
 62
     0
100
AcDbLine
 10
399.2511307144
 20
602.9968960227
 11
399.7511317144
 21
602.4968950227
  0
LINE
  5
2EA
100
AcDbEntity
  8
_0-2_
  6
CONTINUOUS
 62
     0
100
AcDbLine
 10
404.7511327144
 20
600.9968950227
 11
404.7511327144
 21
600.4968940227
  0
LINE
  5
2EB
100
AcDbEntity
  8
_0-2_
  6
CONTINUOUS
 62
     0
100
AcDbLine
 10
383.7511327144
 20
610.4968960227
 11
386.5011307144
 21
610.4968960227
  0
ARC
  5
2EC
100
AcDbEntity
  8
_0-2_
  6
CONTINUOUS
 62
     0
100
AcDbCircle
 10
383.7511327144
 20
610.9968940227
 40
0.500001
100
AcDbArc
 50
180
 51
270
  0
ARC
  5
2ED
100
AcDbEntity
  8
_0-2_
  6
CONTINUOUS
 62
     0
100
AcDbCircle
 10
386.5011307144
 20
609.7468960227
 40
0.75
100
AcDbArc
 50
-90
 51
90
  0
LINE
  5
2EE
100
AcDbEntity
  8
_0-2_
  6
CONTINUOUS
 62
     0
100
AcDbLine
 10
394.7511307144
 20
600.9968950227
 11
383.2511317144
 21
600.9968950227
  0
LINE
  5
2EF
100
AcDbEntity
  8
_0-2_
  6
CONTINUOUS
 62
     0
100
AcDbLine
 10
394.7511307144
 20
600.9968950227
 11
394.7511307144
 21
600.4968940227
  0
ARC
  5
2F0
100
AcDbEntity
  8
_0-2_
  6
CONTINUOUS
 62
     0
100
AcDbCircle
 10
385.5011317144
 20
605.7468940227
 40
0.75
100
AcDbArc
 50
-90
 51
90
  0
LINE
  5
2F1
100
AcDbEntity
  8
_0-2_
  6
CONTINUOUS
 62
     0
100
AcDbLine
 10
383.5511317144
 20
604.9968940227
 11
385.5011317144
 21
604.9968940227
  0
ARC
  5
2F2
100
AcDbEntity
  8
_0-2_
  6
CONTINUOUS
 62
     0
100
AcDbCircle
 10
383.5511317144
 20
604.6968940227
 40
0.3
100
AcDbArc
 50
90
 51
180
  0
LINE
  5
2F3
100
AcDbEntity
  8
_0-2_
  6
CONTINUOUS
 62
     0
100
AcDbLine
 10
416.2511317144
 20
600.9968950227
 11
404.7511327144
 21
600.9968950227
  0
LINE
  5
2F4
100
AcDbEntity
  8
_0-2_
  6
CONTINUOUS
 62
     0
100
AcDbLine
 10
415.9511317144
 20
606.4968940227
 11
414.0011317144
 21
606.4968940227
  0
ARC
  5
2F5
100
AcDbEntity
  8
_0-2_
  6
CONTINUOUS
 62
     0
100
AcDbCircle
 10
415.9511317144
 20
606.7968940227
 40
0.3
100
AcDbArc
 50
-90
 51
0
  0
LINE
  5
2F6
100
AcDbEntity
  8
_0-2_
  6
CONTINUOUS
 62
     0
100
AcDbLine
 10
416.2511317144
 20
606.7968940227
 11
416.2511317144
 21
608.6968960227
  0
ARC
  5
2F7
100
AcDbEntity
  8
_0-2_
  6
CONTINUOUS
 62
     0
100
AcDbCircle
 10
415.9511317144
 20
608.6968960227
 40
0.3
100
AcDbArc
 50
0
 51
90
  0
LINE
  5
2F8
100
AcDbEntity
  8
_0-2_
  6
CONTINUOUS
 62
     0
100
AcDbLine
 10
417.2511307144
 20
610.4968960227
 11
413.0011327144
 21
610.4968960227
  0
ARC
  5
2F9
100
AcDbEntity
  8
_0-2_
  6
CONTINUOUS
 62
     0
100
AcDbCircle
 10
417.2511307144
 20
609.9968950227
 40
0.500001
100
AcDbArc
 50
0
 51
90
  0
ARC
  5
2FA
100
AcDbEntity
  8
_0-2_
  6
CONTINUOUS
 62
     0
100
AcDbCircle
 10
413.0011327144
 20
609.7468960227
 40
0.75
100
AcDbArc
 50
90
 51
270
  0
LINE
  5
2FB
100
AcDbEntity
  8
_0-2_
  6
CONTINUOUS
 62
     0
100
AcDbLine
 10
417.7511317144
 20
609.9968950227
 11
417.7511317144
 21
600.4968940227
  0
LINE
  5
2FC
100
AcDbEntity
  8
_0-2_
  6
CONTINUOUS
 62
     0
100
AcDbLine
 10
416.2511317144
 20
600.9968950227
 11
416.2511317144
 21
600.4968940227
  0
ARC
  5
2FD
100
AcDbEntity
  8
_0-2_
  6
CONTINUOUS
 62
     0
100
AcDbCircle
 10
414.0011317144
 20
605.7468940227
 40
0.75
100
AcDbArc
 50
90
 51
270
  0
ARC
  5
2FE
100
AcDbEntity
  8
_0-2_
  6
CONTINUOUS
 62
     0
100
AcDbCircle
 10
415.9511317144
 20
603.2968960227
 40
0.3
100
AcDbArc
 50
-90
 51
0
  0
LINE
  5
2FF
100
AcDbEntity
  8
_0-2_
  6
CONTINUOUS
 62
     0
100
AcDbLine
 10
416.2511317144
 20
603.2968960227
 11
416.2511317144
 21
604.6968940227
  0
ARC
  5
300
100
AcDbEntity
  8
_0-2_
  6
CONTINUOUS
 62
     0
100
AcDbCircle
 10
415.9511317144
 20
604.6968940227
 40
0.3
100
AcDbArc
 50
0
 51
90
  0
LINE
  5
301
100
AcDbEntity
  8
_0-2_
  6
CONTINUOUS
 62
     0
100
AcDbLine
 10
415.9511317144
 20
604.9968940227
 11
414.0011317144
 21
604.9968940227
  0
ARC
  5
302
100
AcDbEntity
  8
_0-2_
  6
CONTINUOUS
 62
     0
100
AcDbCircle
 10
383.7511327144
 20
603.4968940227
 40
0.500001
100
AcDbArc
 50
180
 51
270
  0
LINE
  5
303
100
AcDbEntity
  8
_0-2_
  6
CONTINUOUS
 62
     0
100
AcDbLine
 10
383.7511327144
 20
602.9968960227
 11
415.9511317144
 21
602.9968960227
  0
LINE
  5
304
100
AcDbEntity
  8
_0-2_
  6
CONTINUOUS
 62
     0
100
AcDbLine
 10
416.2511317144
 20
600.4968940227
 11
417.7511317144
 21
600.4968940227
  0
ARC
  5
305
100
AcDbEntity
  8
_0-2_
  6
CONTINUOUS
 62
     0
100
AcDbCircle
 10
382.2511327144
 20
618.4968940227
 40
0.999999
100
AcDbArc
 50
0
 51
180
  0
LINE
  5
306
100
AcDbEntity
  8
_0-2_
  6
CONTINUOUS
 62
     0
100
AcDbLine
 10
383.2511317144
 20
610.9968940227
 11
383.2511317144
 21
618.4968940227
  0
LINE
  5
307
100
AcDbEntity
  8
_0-2_
  6
CONTINUOUS
 62
     0
100
AcDbLine
 10
383.2511317144
 20
606.7968940227
 11
383.2511317144
 21
608.6968960227
  0
ARC
  5
308
100
AcDbEntity
  8
_0-2_
  6
CONTINUOUS
 62
     0
100
AcDbCircle
 10
380.7511327144
 20
603.4968940227
 40
0.500001
100
AcDbArc
 50
-90
 51
0
  0
LINE
  5
309
100
AcDbEntity
  8
_0-2_
  6
CONTINUOUS
 62
     0
100
AcDbLine
 10
381.2511307144
 20
601.4968960227
 11
381.2511307144
 21
600.4968940227
  0
LINE
  5
30A
100
AcDbEntity
  8
_0-2_
  6
CONTINUOUS
 62
     0
100
AcDbLine
 10
383.2511317144
 20
600.9968950227
 11
383.2511317144
 21
600.4968940227
  0
LINE
  5
30B
100
AcDbEntity
  8
_0-2_
  6
CONTINUOUS
 62
     0
100
AcDbLine
 10
383.2511317144
 20
603.4968940227
 11
383.2511317144
 21
604.6968940227
  0
LINE
  5
30C
100
AcDbEntity
  8
_0-2_
  6
CONTINUOUS
 62
     0
100
AcDbLine
 10
370.7511307144
 20
601.4968960227
 11
370.7511307144
 21
600.4968940227
  0
LINE
  5
30D
100
AcDbEntity
  8
_0-2_
  6
CONTINUOUS
 62
     0
100
AcDbLine
 10
369.2511307144
 20
600.4968940227
 11
370.7511307144
 21
600.4968940227
  0
LINE
  5
30E
100
AcDbEntity
  8
_0-2_
  6
CONTINUOUS
 62
     0
100
AcDbLine
 10
381.2511307144
 20
600.4968940227
 11
383.2511317144
 21
600.4968940227
  0
LINE
  5
30F
100
AcDbEntity
  8
_0-2_
  6
CONTINUOUS
 62
     0
100
AcDbLine
 10
369.2511307144
 20
602.4968960227
 11
369.2511307144
 21
600.4968940227
  0
ARC
  5
310
100
AcDbEntity
  8
_0-2_
  6
CONTINUOUS
 62
     0
100
AcDbCircle
 10
369.7511307144
 20
602.4968960227
 40
0.5
100
AcDbArc
 50
90
 51
180
  0
LINE
  5
311
100
AcDbEntity
  8
_0-2_
  6
CONTINUOUS
 62
     0
100
AcDbLine
 10
381.0011307144
 20
606.2468960227
 11
379.7511307143
 21
606.2468960227
  0
LINE
  5
312
100
AcDbEntity
  8
_0-2_
  6
CONTINUOUS
 62
     0
100
AcDbLine
 10
376.7511307143
 20
606.2468960227
 11
375.5011307144
 21
606.2468960227
  0
ARC
  5
313
100
AcDbEntity
  8
_0-2_
  6
CONTINUOUS
 62
     0
100
AcDbCircle
 10
349.9045252421
 20
649.182288645
 40
0.5
100
AcDbArc
 50
101.4095443492
 51
279.1986608952
  0
ARC
  5
314
100
AcDbEntity
  8
_0-2_
  6
CONTINUOUS
 62
     0
100
AcDbCircle
 10
354.7511307143
 20
625.1664518827
 40
25
100
AcDbArc
 50
0
 51
101.4095443492
  0
ARC
  5
315
100
AcDbEntity
  8
_0-2_
  6
CONTINUOUS
 62
     0
100
AcDbCircle
 10
353.6751851204
 20
625.8980833807
 40
23.08754100601
100
AcDbArc
 50
-1.815975820674
 51
99.19866089519
  0
LINE
  5
316
100
AcDbEntity
  8
_0-2_
  6
CONTINUOUS
 62
     0
100
AcDbLine
 10
381.2511307144
 20
601.4968960227
 11
373.7451818406
 21
601.4968960227
  0
LINE
  5
317
100
AcDbEntity
  8
_0-2_
  6
CONTINUOUS
 62
     0
100
AcDbLine
 10
373.7451818406
 20
601.4968960227
 11
370.7511307144
 21
601.4968960227
  0
LINE
  5
318
100
AcDbEntity
  8
_0-2_
  6
CONTINUOUS
 62
     0
100
AcDbLine
 10
375.7511307144
 20
602.9968960227
 11
380.7511327144
 21
602.9968960227
  0
LINE
  5
319
100
AcDbEntity
  8
_0-2_
  6
CONTINUOUS
 62
     0
100
AcDbLine
 10
369.7511307144
 20
602.9968960227
 11
373.7511307144
 21
602.9968960227
  0
ARC
  5
31A
100
AcDbEntity
  8
_0-2_
  6
CONTINUOUS
 62
     0
100
AcDbCircle
 10
375.7511307144
 20
603.4968960227
 40
0.25
100
AcDbArc
 50
180
 51
270
  0
ARC
  5
31B
100
AcDbEntity
  8
_0-2_
  6
CONTINUOUS
 62
     0
100
AcDbCircle
 10
380.7511327144
 20
603.4968940227
 40
0.250001
100
AcDbArc
 50
-90
 51
0
  0
LINE
  5
31C
100
AcDbEntity
  8
_0-2_
  6
CONTINUOUS
 62
     0
100
AcDbLine
 10
375.5011307144
 20
603.4968960227
 11
375.5011307144
 21
606.2468960227
  0
LINE
  5
31D
100
AcDbEntity
  8
_0-2_
  6
CONTINUOUS
 62
     0
100
AcDbLine
 10
381.0011307144
 20
603.4968940227
 11
381.0011307144
 21
606.2468960227
  0
LINE
  5
31E
100
AcDbEntity
  8
_0-2_
  6
CONTINUOUS
 62
     0
100
AcDbLine
 10
375.7511307144
 20
603.2468960227
 11
380.7511327144
 21
603.2468960227
  0
LINE
  5
31F
100
AcDbEntity
  8
_0-2_
  6
CONTINUOUS
 62
     0
100
AcDbLine
 10
381.2511307144
 20
618.4968940227
 11
381.2511307144
 21
607.9968960227
  0
LINE
  5
320
100
AcDbEntity
  8
_0-2_
  6
CONTINUOUS
 62
     0
100
AcDbLine
 10
381.2511307144
 20
606.4968960227
 11
381.2511307144
 21
603.4968940227
  0
LINE
  5
321
100
AcDbEntity
  8
_0-2_
  6
CONTINUOUS
 62
     0
100
AcDbLine
 10
375.2511307144
 20
603.4968960227
 11
375.2511307144
 21
606.4968960227
  0
LINE
  5
322
100
AcDbEntity
  8
_0-2_
  6
CONTINUOUS
 62
     0
100
AcDbLine
 10
373.7511307144
 20
607.4968960227
 11
373.7511307144
 21
602.9968960227
  0
ARC
  5
323
100
AcDbEntity
  8
_0-2_
  6
CONTINUOUS
 62
     0
100
AcDbCircle
 10
374.2511307144
 20
607.4968960227
 40
0.5
100
AcDbArc
 50
90
 51
180
  0
ARC
  5
324
100
AcDbEntity
  8
_0-2_
  6
CONTINUOUS
 62
     0
100
AcDbCircle
 10
375.7511307144
 20
603.4968960227
 40
0.5
100
AcDbArc
 50
180
 51
270
  0
LINE
  5
325
100
AcDbEntity
  8
_0-2_
  6
CONTINUOUS
 62
     0
100
AcDbLine
 10
374.2511307144
 20
607.9968960227
 11
375.5011307144
 21
607.9968960227
  0
ARC
  5
326
100
AcDbEntity
  8
_0-2_
  6
CONTINUOUS
 62
     0
100
AcDbCircle
 10
375.5011307144
 20
606.9968960227
 40
1
100
AcDbArc
 50
0
 51
90
  0
LINE
  5
327
100
AcDbEntity
  8
_0-2_
  6
CONTINUOUS
 62
     0
100
AcDbLine
 10
376.5011307144
 20
606.9968960227
 11
376.5011307144
 21
606.4968960227
  0
LINE
  5
328
100
AcDbEntity
  8
_0-2_
  6
CONTINUOUS
 62
     0
100
AcDbLine
 10
376.5011307144
 20
606.4968960227
 11
375.2511307144
 21
606.4968960227
  0
LINE
  5
329
100
AcDbEntity
  8
_0-2_
  6
CONTINUOUS
 62
     0
100
AcDbLine
 10
381.2511307144
 20
606.4968960227
 11
380.0011307144
 21
606.4968960227
  0
LINE
  5
32A
100
AcDbEntity
  8
_0-2_
  6
CONTINUOUS
 62
     0
100
AcDbLine
 10
380.0011307144
 20
606.9968960227
 11
380.0011307144
 21
606.4968960227
  0
ARC
  5
32B
100
AcDbEntity
  8
_0-2_
  6
CONTINUOUS
 62
     0
100
AcDbCircle
 10
381.0011307144
 20
606.9968960227
 40
1
100
AcDbArc
 50
90
 51
180
  0
LINE
  5
32C
100
AcDbEntity
  8
_0-2_
  6
CONTINUOUS
 62
     0
100
AcDbLine
 10
381.0011307144
 20
607.9968960227
 11
381.2511307144
 21
607.9968960227
  0
CIRCLE
  5
32D
100
AcDbEntity
  8
_0-2_
  6
CONTINUOUS
 62
     0
100
AcDbCircle
 10
374.7766386424
 20
637.9333992995
 40
0.9
  0
LINE
  5
32E
100
AcDbEntity
  8
_0-2_
  6
CONTINUOUS
 62
     0
100
AcDbLine
 10
384.7511317144
 20
599.3636626846
 11
384.7511317144
 21
600.4881250227
  0
LINE
  5
32F
100
AcDbEntity
  8
_0-2_
  6
CONTINUOUS
 62
     0
100
AcDbLine
 10
414.7511317144
 20
600.4881250227
 11
384.7511317144
 21
600.4881250227
  0
CIRCLE
  5
330
100
AcDbEntity
  8
_0-2_
  6
CONTINUOUS
 62
     0
100
AcDbCircle
 10
359.3115362712
 20
682.1324217641
 40
6
  0
LINE
  5
331
100
AcDbEntity
  8
_0-2_
  6
CONTINUOUS
 62
     0
100
AcDbLine
 10
399.768805
 20
443.8654912089
 11
396.768805
 21
444.6154912089
  0
LINE
  5
332
100
AcDbEntity
  8
_0-2_
  6
CONTINUOUS
 62
     0
100
AcDbLine
 10
399.768805
 20
443.8654912089
 11
396.768805
 21
443.1154912089
  0
LINE
  5
333
100
AcDbEntity
  8
_0-2_
  6
CONTINUOUS
 62
     0
100
AcDbLine
 10
349.768804
 20
443.8654912089
 11
352.768804
 21
443.1154912089
  0
LINE
  5
334
100
AcDbEntity
  8
_0-2_
  6
CONTINUOUS
 62
     0
100
AcDbLine
 10
349.768804
 20
443.8654912089
 11
352.768804
 21
444.6154912089
  0
LINE
  5
335
100
AcDbEntity
  8
_0-2_
  6
CONTINUOUS
 62
     0
100
AcDbLine
 10
399.768805
 20
552.0547220227
 11
399.768805
 21
439.8654892089
  0
LINE
  5
336
100
AcDbEntity
  8
_0-2_
  6
CONTINUOUS
 62
     0
100
AcDbLine
 10
349.768804
 20
443.8654912089
 11
399.768805
 21
443.8654912089
  0
LINE
  5
337
100
AcDbEntity
  8
_0-2_
  6
CONTINUOUS
 62
     0
100
AcDbLine
 10
349.768804
 20
598.4881250227
 11
349.768804
 21
433.2461032089
  0
TEXT
  5
338
100
AcDbEntity
  8
_0-2_
  6
CONTINUOUS
 62
     0
100
AcDbText
 10
371.3485167772
 20
443.6349896691
 40
9
  1
50
  7
STANDARD
100
AcDbText
  0
LINE
  5
339
100
AcDbEntity
  8
_0-2_
  6
CONTINUOUS
 62
     0
100
AcDbLine
 10
379.7511307143
 20
606.2468960227
 11
379.7647759276
 21
626.2153225766
  0
LINE
  5
33A
100
AcDbEntity
  8
_0-2_
  6
CONTINUOUS
 62
     0
100
AcDbLine
 10
376.7511307143
 20
606.2468960227
 11
376.7647759276
 21
627.6785855727
  0
LINE
  5
33B
100
AcDbEntity
  8
_0-2_
  6
CONTINUOUS
 62
     0
100
AcDbLine
 10
371.494822
 20
655.9153585844
 11
431.494822
 21
659.0598235844
  0
LINE
  5
33C
100
AcDbEntity
  8
_0-2_
  6
CONTINUOUS
 62
     0
100
AcDbLine
 10
371.494822
 20
659.0598235844
 11
431.494822
 21
659.0598235844
  0
TEXT
  5
33D
100
AcDbEntity
  8
_0-2_
  6
CONTINUOUS
 62
     0
100
AcDbText
 10
367.1118750704
 20
659.4927508617
 40
9
  1
（勾配３度）
  7
STANDARD
100
AcDbText
  0
LINE
  5
33E
100
AcDbEntity
  8
_0-2_
  6
CONTINUOUS
 62
     0
100
AcDbLine
 10
371.494822
 20
659.0598235844
 11
371.494822
 21
655.9153585844
  0
LINE
  5
33F
100
AcDbEntity
  8
_0-1_PRO0
  6
CONTINUOUS
 62
     0
100
AcDbLine
 10
479.768804
 20
598.4881250227
 11
349.768804
 21
598.4881250227
  0
LINE
  5
340
100
AcDbEntity
  8
_0-1_PRO0
  6
CONTINUOUS
 62
     0
100
AcDbLine
 10
349.768804
 20
389.7601458101
 11
479.768804
 21
389.7601458101
  0
LINE
  5
341
100
AcDbEntity
  8
_0-1_PRO0
  6
CONTINUOUS
 62
     0
100
AcDbLine
 10
420.7511311181
 20
599.4804613907
 11
480.5360701169
 21
599.4883521965
  0
LINE
  5
342
100
AcDbEntity
  8
_0-1_PRO0
  6
CONTINUOUS
 62
     0
100
AcDbLine
 10
915.6019453403
 20
598.4881250227
 11
1113.155848
 21
598.4881250227
  0
LINE
  5
343
100
AcDbEntity
  8
_0-1_PRO0
  6
CONTINUOUS
 62
     0
100
AcDbLine
 10
909.768804
 20
409.7559858101
 11
909.768804
 21
598.4881250227
  0
LINE
  5
344
100
AcDbEntity
  8
_0-1_PRO0
  6
CONTINUOUS
 62
     0
100
AcDbLine
 10
909.768804
 20
408.2559858101
 11
909.768804
 21
383.7601458101
  0
LINE
  5
345
100
AcDbEntity
  8
_0-1_PRO0
  6
CONTINUOUS
 62
     0
100
AcDbLine
 10
909.768804
 20
389.7601458101
 11
903.768804
 21
388.2601458101
  0
LINE
  5
346
100
AcDbEntity
  8
_0-1_PRO0
  6
CONTINUOUS
 62
     0
100
AcDbLine
 10
909.768804
 20
389.7601458101
 11
903.768804
 21
391.2601458101
  0
LINE
  5
347
100
AcDbEntity
  8
_0-1_PRO0
  6
CONTINUOUS
 62
     0
100
AcDbLine
 10
909.768804
 20
389.7601458101
 11
1079.768804
 21
389.7601458101
  0
LINE
  5
348
100
AcDbEntity
  8
_0-1_PRO0
  6
CONTINUOUS
 62
     0
100
AcDbLine
 10
909.768804
 20
389.7601458101
 11
915.768804
 21
391.2601458101
  0
LINE
  5
349
100
AcDbEntity
  8
_0-1_PRO0
  6
CONTINUOUS
 62
     0
100
AcDbLine
 10
909.768804
 20
389.7601458101
 11
915.768804
 21
388.2601458101
  0
CIRCLE
  5
34A
100
AcDbEntity
  8
_0-3_
  6
CONTINUOUS
 62
     0
100
AcDbCircle
 10
898.6597228008
 20
672.5438683845
 40
6
  0
CIRCLE
  5
34B
100
AcDbEntity
  8
_0-3_
  6
CONTINUOUS
 62
     0
100
AcDbCircle
 10
882.6487815765
 20
669.0221751623
 40
6
  0
CIRCLE
  5
34C
100
AcDbEntity
  8
_0-3_
  6
CONTINUOUS
 62
     0
100
AcDbCircle
 10
926.6674598504
 20
660.4018248303
 40
6
  0
CIRCLE
  5
34D
100
AcDbEntity
  8
_0-3_
  6
CONTINUOUS
 62
     0
100
AcDbCircle
 10
905.1322813982
 20
660.3371850868
 40
6
  0
LINE
  5
34E
100
AcDbEntity
  8
_0-3_
  6
CONTINUOUS
 62
     0
100
AcDbLine
 10
909.7421447388
 20
631.0863191228
 11
923.6674598504
 21
655.2056724076
  0
CIRCLE
  5
34F
100
AcDbEntity
  8
_0-3_
  6
CONTINUOUS
 62
     0
100
AcDbCircle
 10
909.7421447388
 20
631.0863191228
 40
0.9
  0
LINE
  5
350
100
AcDbEntity
  8
_0-3_
  6
CONTINUOUS
 62
     0
100
AcDbLine
 10
877.3192271427
 20
612.1635620027
 11
902.1322813982
 21
655.1410326641
  0
LINE
  5
351
100
AcDbEntity
  8
_0-3_
  6
CONTINUOUS
 62
     0
100
AcDbLine
 10
861.8232490374
 20
632.95129471
 11
879.6487815765
 21
663.8260227396
  0
CIRCLE
  5
352
100
AcDbEntity
  8
_0-3_
  6
CONTINUOUS
 62
     0
100
AcDbCircle
 10
861.8232490374
 20
632.95129471
 40
0.9
  0
CIRCLE
  5
353
100
AcDbEntity
  8
_0-3_
  6
CONTINUOUS
 62
     0
100
AcDbCircle
 10
877.2728222986
 20
612.2394620087
 40
0.9
  0
CIRCLE
  5
354
100
AcDbEntity
  8
_0-3_
  6
CONTINUOUS
 62
     0
100
AcDbCircle
 10
869.9286134426
 20
613.9767399344
 40
0.9
  0
LINE
  5
355
100
AcDbEntity
  8
_0-3_
  6
CONTINUOUS
 62
     0
100
AcDbLine
 10
869.9487199767
 20
613.9055207844
 11
881.7304061084
 21
593.4990418054
  0
CIRCLE
  5
356
100
AcDbEntity
  8
_0-3_
  6
CONTINUOUS
 62
     0
100
AcDbCircle
 10
884.7304061084
 20
588.3028893827
 40
6
  0
LINE
  5
357
100
AcDbEntity
  8
_0-3_
  6
CONTINUOUS
 62
     0
100
AcDbLine
 10
864.0660626933
 20
606.7083659034
 11
880.4884483582
 21
578.2639595504
  0
CIRCLE
  5
358
100
AcDbEntity
  8
_0-3_
  6
CONTINUOUS
 62
     0
100
AcDbCircle
 10
864.0885415431
 20
606.58869717
 40
0.9
  0
CIRCLE
  5
359
100
AcDbEntity
  8
_0-3_
  6
CONTINUOUS
 62
     0
100
AcDbCircle
 10
852.6293789614
 20
603.7242819553
 40
0.9
  0
LINE
  5
35A
100
AcDbEntity
  8
_0-3_
  6
CONTINUOUS
 62
     0
100
AcDbLine
 10
852.6806509193
 20
603.672033519
 11
842.9833972874
 21
586.8758975347
  0
CIRCLE
  5
35B
100
AcDbEntity
  8
_0-3_
  6
CONTINUOUS
 62
     0
100
AcDbCircle
 10
839.9833972874
 20
581.679745112
 40
6
  0
CIRCLE
  5
35C
100
AcDbEntity
  8
_0-3_
  6
CONTINUOUS
 62
     0
100
AcDbCircle
 10
883.4884483582
 20
573.0678071277
 40
6
  0
CIRCLE
  5
35D
100
AcDbEntity
  8
_0-3_
  6
CONTINUOUS
 62
     0
100
AcDbCircle
 10
857.642793024
 20
572.4054636246
 40
0.9
  0
LINE
  5
35E
100
AcDbEntity
  8
_0-3_
  6
CONTINUOUS
 62
     0
100
AcDbLine
 10
857.642793024
 20
572.4054636246
 11
847.6011788293
 21
555.0128776493
  0
CIRCLE
  5
35F
100
AcDbEntity
  8
_0-3_
  6
CONTINUOUS
 62
     0
100
AcDbCircle
 10
844.6011788293
 20
549.8167252266
 40
6
  0
LINE
  5
360
100
AcDbEntity
  8
_0-2_
  6
CONTINUOUS
 62
     0
100
AcDbLine
 10
855.0043712856
 20
615.0660880227
 11
864.1917632856
 21
614.5845970227
  0
LINE
  5
361
100
AcDbEntity
  8
_0-2_
  6
CONTINUOUS
 62
     0
100
AcDbLine
 10
844.7864762856
 20
599.0621474944
 11
845.2124538139
 21
599.4881250227
  0
ARC
  5
362
100
AcDbEntity
  8
_0-2_
  6
CONTINUOUS
 62
     0
100
AcDbCircle
 10
844.7864762856
 20
591.2381250227
 40
8.25
100
AcDbArc
 50
90
 51
108.9246444161
  0
ARC
  5
363
100
AcDbEntity
  8
_0-2_
  6
CONTINUOUS
 62
     0
100
AcDbCircle
 10
844.7864762856
 20
591.2381250227
 40
9.25
100
AcDbArc
 50
90
 51
108.9246444161
  0
ARC
  5
364
100
AcDbEntity
  8
_0-2_
  6
CONTINUOUS
 62
     0
100
AcDbCircle
 10
838.7864762856
 20
608.7381250227
 40
9.25
100
AcDbArc
 50
-90
 51
-71.07535558395
  0
LINE
  5
365
100
AcDbEntity
  8
_0-2_
  6
CONTINUOUS
 62
     0
100
AcDbLine
 10
859.768803
 20
553.0547240227
 11
859.768803
 21
598.4881250227
  0
LINE
  5
366
100
AcDbEntity
  8
_0-2_
  6
CONTINUOUS
 62
     0
100
AcDbLine
 10
864.518805
 20
589.4881250227
 11
863.818803
 21
590.1881240227
  0
LINE
  5
367
100
AcDbEntity
  8
_0-2_
  6
CONTINUOUS
 62
     0
100
AcDbLine
 10
863.818803
 20
599.4881240227
 11
863.818803
 21
590.1881240227
  0
LINE
  5
368
100
AcDbEntity
  8
_0-2_
  6
CONTINUOUS
 62
     0
100
AcDbLine
 10
864.518805
 20
570.8599520227
 11
864.518805
 21
589.4881250227
  0
LINE
  5
369
100
AcDbEntity
  8
_0-2_
  6
CONTINUOUS
 62
     0
100
AcDbLine
 10
864.268803
 20
558.9881240227
 11
864.268803
 21
559.8514280227
  0
LINE
  5
36A
100
AcDbEntity
  8
_0-2_
  6
CONTINUOUS
 62
     0
100
AcDbLine
 10
866.393835
 20
560.2261280227
 11
864.518805
 21
570.8599520227
  0
LINE
  5
36B
100
AcDbEntity
  8
_0-2_
  6
CONTINUOUS
 62
     0
100
AcDbLine
 10
860.268804
 20
570.4881230227
 11
859.268805
 21
570.4881230227
  0
LINE
  5
36C
100
AcDbEntity
  8
_0-2_
  6
CONTINUOUS
 62
     0
100
AcDbLine
 10
855.018804
 20
589.4881250227
 11
855.718803
 21
590.1881240227
  0
LINE
  5
36D
100
AcDbEntity
  8
_0-2_
  6
CONTINUOUS
 62
     0
100
AcDbLine
 10
855.718803
 20
599.4881240227
 11
855.718803
 21
590.1881240227
  0
LINE
  5
36E
100
AcDbEntity
  8
_0-2_
  6
CONTINUOUS
 62
     0
100
AcDbLine
 10
855.018804
 20
570.8599520227
 11
855.018804
 21
589.4881250227
  0
LINE
  5
36F
100
AcDbEntity
  8
_0-2_
  6
CONTINUOUS
 62
     0
100
AcDbLine
 10
856.268805
 20
557.9881250227
 11
863.268804
 21
557.9881250227
  0
ARC
  5
370
100
AcDbEntity
  8
_0-2_
  6
CONTINUOUS
 62
     0
100
AcDbCircle
 10
856.268805
 20
558.9881240227
 40
0.999999
100
AcDbArc
 50
180
 51
270
  0
LINE
  5
371
100
AcDbEntity
  8
_0-2_
  6
CONTINUOUS
 62
     0
100
AcDbLine
 10
855.268803
 20
558.9881240227
 11
855.268803
 21
559.8514280227
  0
LINE
  5
372
100
AcDbEntity
  8
_0-2_
  6
CONTINUOUS
 62
     0
100
AcDbLine
 10
853.143774
 20
560.2261280227
 11
857.329206
 21
559.4881250227
  0
LINE
  5
373
100
AcDbEntity
  8
_0-2_
  6
CONTINUOUS
 62
     0
100
AcDbLine
 10
860.268804
 20
570.4881230227
 11
862.2084
 21
559.4881250227
  0
LINE
  5
374
100
AcDbEntity
  8
_0-2_
  6
CONTINUOUS
 62
     0
100
AcDbLine
 10
859.268805
 20
570.4881230227
 11
857.329206
 21
559.4881250227
  0
LINE
  5
375
100
AcDbEntity
  8
_0-2_
  6
CONTINUOUS
 62
     0
100
AcDbLine
 10
853.143774
 20
560.2261280227
 11
855.018804
 21
570.8599520227
  0
LINE
  5
376
100
AcDbEntity
  8
_0-2_
  6
CONTINUOUS
 62
     0
100
AcDbLine
 10
864.518805
 20
589.4881250227
 11
855.018804
 21
589.4881250227
  0
LINE
  5
377
100
AcDbEntity
  8
_0-2_
  6
CONTINUOUS
 62
     0
100
AcDbLine
 10
863.818803
 20
590.1881240227
 11
855.718803
 21
590.1881240227
  0
LINE
  5
378
100
AcDbEntity
  8
_0-2_
  6
CONTINUOUS
 62
     0
100
AcDbLine
 10
866.393835
 20
560.2261280227
 11
862.2084
 21
559.4881250227
  0
ARC
  5
379
100
AcDbEntity
  8
_0-2_
  6
CONTINUOUS
 62
     0
100
AcDbCircle
 10
863.268804
 20
558.9881240227
 40
0.999999
100
AcDbArc
 50
-90
 51
0
  0
LINE
  5
37A
100
AcDbEntity
  8
_0-2_
  6
CONTINUOUS
 62
     0
100
AcDbLine
 10
845.6266673763
 20
598.4881250227
 11
846.6266673763
 21
599.4881250227
  0
LINE
  5
37B
100
AcDbEntity
  8
_0-2_
  6
CONTINUOUS
 62
     0
100
AcDbLine
 10
847.0408809386
 20
598.4881250227
 11
848.0408809386
 21
599.4881250227
  0
LINE
  5
37C
100
AcDbEntity
  8
_0-2_
  6
CONTINUOUS
 62
     0
100
AcDbLine
 10
848.455094501
 20
598.4881250227
 11
849.455094501
 21
599.4881250227
  0
LINE
  5
37D
100
AcDbEntity
  8
_0-2_
  6
CONTINUOUS
 62
     0
100
AcDbLine
 10
849.8693080634
 20
598.4881250227
 11
850.8693080634
 21
599.4881250227
  0
LINE
  5
37E
100
AcDbEntity
  8
_0-2_
  6
CONTINUOUS
 62
     0
100
AcDbLine
 10
851.2835216258
 20
598.4881250227
 11
852.2835216258
 21
599.4881250227
  0
LINE
  5
37F
100
AcDbEntity
  8
_0-2_
  6
CONTINUOUS
 62
     0
100
AcDbLine
 10
852.6977351881
 20
598.4881250227
 11
853.6977351881
 21
599.4881250227
  0
LINE
  5
380
100
AcDbEntity
  8
_0-2_
  6
CONTINUOUS
 62
     0
100
AcDbLine
 10
854.1119487505
 20
598.4881250227
 11
855.1119487505
 21
599.4881250227
  0
LINE
  5
381
100
AcDbEntity
  8
_0-2_
  6
CONTINUOUS
 62
     0
100
AcDbLine
 10
855.5261623129
 20
598.4881250227
 11
856.5261623129
 21
599.4881250227
  0
LINE
  5
382
100
AcDbEntity
  8
_0-2_
  6
CONTINUOUS
 62
     0
100
AcDbLine
 10
856.9403758753
 20
598.4881250227
 11
857.9403758753
 21
599.4881250227
  0
LINE
  5
383
100
AcDbEntity
  8
_0-2_
  6
CONTINUOUS
 62
     0
100
AcDbLine
 10
858.3545894376
 20
598.4881250227
 11
859.3545894376
 21
599.4881250227
  0
LINE
  5
384
100
AcDbEntity
  8
_0-2_
  6
CONTINUOUS
 62
     0
100
AcDbLine
 10
859.768803
 20
598.4881250227
 11
860.768803
 21
599.4881250227
  0
LINE
  5
385
100
AcDbEntity
  8
_0-2_
  6
CONTINUOUS
 62
     0
100
AcDbLine
 10
861.1830165624
 20
598.4881250227
 11
862.1830165624
 21
599.4881250227
  0
LINE
  5
386
100
AcDbEntity
  8
_0-2_
  6
CONTINUOUS
 62
     0
100
AcDbLine
 10
862.5972301247
 20
598.4881250227
 11
863.5972301247
 21
599.4881250227
  0
LINE
  5
387
100
AcDbEntity
  8
_0-2_
  6
CONTINUOUS
 62
     0
100
AcDbLine
 10
864.0114436871
 20
598.4881250227
 11
865.0114436871
 21
599.4881250227
  0
LINE
  5
388
100
AcDbEntity
  8
_0-2_
  6
CONTINUOUS
 62
     0
100
AcDbLine
 10
865.4256572495
 20
598.4881250227
 11
866.4256572495
 21
599.4881250227
  0
LINE
  5
389
100
AcDbEntity
  8
_0-2_
  6
CONTINUOUS
 62
     0
100
AcDbLine
 10
866.8398708119
 20
598.4881250227
 11
867.8398708119
 21
599.4881250227
  0
LINE
  5
38A
100
AcDbEntity
  8
_0-2_
  6
CONTINUOUS
 62
     0
100
AcDbLine
 10
868.2540843742
 20
598.4881250227
 11
869.2540843742
 21
599.4881250227
  0
LINE
  5
38B
100
AcDbEntity
  8
_0-2_
  6
CONTINUOUS
 62
     0
100
AcDbLine
 10
869.6682979366
 20
598.4881250227
 11
870.6682979366
 21
599.4881250227
  0
LINE
  5
38C
100
AcDbEntity
  8
_0-2_
  6
CONTINUOUS
 62
     0
100
AcDbLine
 10
871.082511499
 20
598.4881250227
 11
872.082511499
 21
599.4881250227
  0
LINE
  5
38D
100
AcDbEntity
  8
_0-2_
  6
CONTINUOUS
 62
     0
100
AcDbLine
 10
872.4967250614
 20
598.4881250227
 11
873.4967250614
 21
599.4881250227
  0
LINE
  5
38E
100
AcDbEntity
  8
_0-2_
  6
CONTINUOUS
 62
     0
100
AcDbLine
 10
873.9109386237
 20
598.4881250227
 11
874.7864762856
 21
599.3636626846
  0
LINE
  5
38F
100
AcDbEntity
  8
_0-2_
  6
CONTINUOUS
 62
     0
100
AcDbLine
 10
874.7864762856
 20
598.4881250227
 11
844.7864762856
 21
598.4881250227
  0
LINE
  5
390
100
AcDbEntity
  8
_0-2_
  6
CONTINUOUS
 62
     0
100
AcDbLine
 10
844.7864762856
 20
598.4881250227
 11
844.7864762856
 21
599.4881250227
  0
LINE
  5
391
100
AcDbEntity
  8
_0-2_
  6
CONTINUOUS
 62
     0
100
AcDbLine
 10
844.7864762856
 20
599.4881250227
 11
874.7864762856
 21
599.4881250227
  0
LINE
  5
392
100
AcDbEntity
  8
_0-2_
  6
CONTINUOUS
 62
     0
100
AcDbLine
 10
874.7864762856
 20
599.4881250227
 11
874.7864762856
 21
598.4881250227
  0
ARC
  5
393
100
AcDbEntity
  8
_0-2_
  6
CONTINUOUS
 62
     0
100
AcDbCircle
 10
838.7864762856
 20
608.7381250227
 40
10.25
100
AcDbArc
 50
-90
 51
-71.07535558395
  0
LINE
  5
394
100
AcDbEntity
  8
_0-2_
  6
CONTINUOUS
 62
     0
100
AcDbLine
 10
868.7864762856
 20
604.5968950227
 11
868.7864762856
 21
602.9968960227
  0
LINE
  5
395
100
AcDbEntity
  8
_0-2_
  6
CONTINUOUS
 62
     0
100
AcDbLine
 10
868.7864762856
 20
604.5968950227
 11
850.7864762856
 21
604.5968950227
  0
LINE
  5
396
100
AcDbEntity
  8
_0-2_
  6
CONTINUOUS
 62
     0
100
AcDbLine
 10
850.7864762856
 20
604.5968950227
 11
850.7864762856
 21
602.9968960227
  0
LINE
  5
397
100
AcDbEntity
  8
_0-2_
  6
CONTINUOUS
 62
     0
100
AcDbLine
 10
853.9064762856
 20
608.8599580227
 11
853.9064762856
 21
604.5968950227
  0
LINE
  5
398
100
AcDbEntity
  8
_0-2_
  6
CONTINUOUS
 62
     0
100
AcDbLine
 10
854.8364762856
 20
609.3968950227
 11
853.9064762856
 21
608.8599580227
  0
ARC
  5
399
100
AcDbEntity
  8
_0-2_
  6
CONTINUOUS
 62
     0
100
AcDbCircle
 10
854.8364762856
 20
605.5875010227
 40
3.809394
100
AcDbArc
 50
59.210036
 51
90
  0
ARC
  5
39A
100
AcDbEntity
  8
_0-2_
  6
CONTINUOUS
 62
     0
100
AcDbCircle
 10
859.7864762856
 20
600.7475350227
 40
8.64936
100
AcDbArc
 50
69.705445
 51
110.294555
  0
LINE
  5
39B
100
AcDbEntity
  8
_0-2_
  6
CONTINUOUS
 62
     0
100
AcDbLine
 10
856.7864762856
 20
608.8599580227
 11
856.7864762856
 21
604.5968950227
  0
LINE
  5
39C
100
AcDbEntity
  8
_0-2_
  6
CONTINUOUS
 62
     0
100
AcDbLine
 10
862.7864762856
 20
608.8599580227
 11
862.7864762856
 21
604.5968950227
  0
LINE
  5
39D
100
AcDbEntity
  8
_0-2_
  6
CONTINUOUS
 62
     0
100
AcDbLine
 10
865.6664762856
 20
608.8599580227
 11
865.6664762856
 21
604.5968950227
  0
LINE
  5
39E
100
AcDbEntity
  8
_0-2_
  6
CONTINUOUS
 62
     0
100
AcDbLine
 10
864.7364762856
 20
609.3968950227
 11
865.6664762856
 21
608.8599580227
  0
LINE
  5
39F
100
AcDbEntity
  8
_0-2_
  6
CONTINUOUS
 62
     0
100
AcDbLine
 10
854.8364762856
 20
609.3968950227
 11
864.7364762856
 21
609.3968950227
  0
ARC
  5
3A0
100
AcDbEntity
  8
_0-2_
  6
CONTINUOUS
 62
     0
100
AcDbCircle
 10
864.7364762856
 20
605.5875010227
 40
3.809394
100
AcDbArc
 50
90
 51
120.789964
  0
LINE
  5
3A1
100
AcDbEntity
  8
_0-2_
  6
CONTINUOUS
 62
     0
100
AcDbLine
 10
855.0567062856
 20
616.0647190227
 11
855.0043712856
 21
615.0660880227
  0
LINE
  5
3A2
100
AcDbEntity
  8
_0-2_
  6
CONTINUOUS
 62
     0
100
AcDbLine
 10
864.2440982856
 20
615.5832280227
 11
864.1917632856
 21
614.5845970227
  0
ARC
  5
3A3
100
AcDbEntity
  8
_0-2_
  6
CONTINUOUS
 62
     0
100
AcDbCircle
 10
854.0580782856
 20
616.1170540227
 40
0.999999
100
AcDbArc
 50
-2.999999999999
 51
86.99999999999
  0
ARC
  5
3A4
100
AcDbEntity
  8
_0-2_
  6
CONTINUOUS
 62
     0
100
AcDbCircle
 10
865.2427292856
 20
615.5308900227
 40
0.999999
100
AcDbArc
 50
86.99999999999
 51
177
  0
ARC
  5
3A5
100
AcDbEntity
  8
_0-2_
  6
CONTINUOUS
 62
     0
100
AcDbCircle
 10
847.7864762856
 20
609.9968950227
 40
0.999999
100
AcDbArc
 50
-90
 51
0
  0
LINE
  5
3A6
100
AcDbEntity
  8
_0-2_
  6
CONTINUOUS
 62
     0
100
AcDbLine
 10
847.7864762856
 20
608.9968960227
 11
843.5864762856
 21
608.9968960227
  0
ARC
  5
3A7
100
AcDbEntity
  8
_0-2_
  6
CONTINUOUS
 62
     0
100
AcDbCircle
 10
851.3864762856
 20
616.2570670227
 40
0.999999
100
AcDbArc
 50
86.99999999999
 51
180
  0
LINE
  5
3A8
100
AcDbEntity
  8
_0-2_
  6
CONTINUOUS
 62
     0
100
AcDbLine
 10
868.2388112856
 20
616.3752460227
 11
851.4388112856
 21
617.2556950227
  0
ARC
  5
3A9
100
AcDbEntity
  8
_0-2_
  6
CONTINUOUS
 62
     0
100
AcDbCircle
 10
868.1864762856
 20
615.3766150227
 40
0.999999
100
AcDbArc
 50
0
 51
86.99999999999
  0
LINE
  5
3AA
100
AcDbEntity
  8
_0-2_
  6
CONTINUOUS
 62
     0
100
AcDbLine
 10
871.7864762856
 20
608.9968960227
 11
875.9864762856
 21
608.9968960227
  0
ARC
  5
3AB
100
AcDbEntity
  8
_0-2_
  6
CONTINUOUS
 62
     0
100
AcDbCircle
 10
871.7864762856
 20
609.9968950227
 40
0.999999
100
AcDbArc
 50
180
 51
270
  0
LINE
  5
3AC
100
AcDbEntity
  8
_0-2_
  6
CONTINUOUS
 62
     0
100
AcDbLine
 10
850.3864772856
 20
609.9968950227
 11
850.3864772856
 21
616.2570670227
  0
ARC
  5
3AD
100
AcDbEntity
  8
_0-2_
  6
CONTINUOUS
 62
     0
100
AcDbCircle
 10
847.7864762856
 20
609.9968950227
 40
2.600001
100
AcDbArc
 50
-90
 51
0
  0
LINE
  5
3AE
100
AcDbEntity
  8
_0-2_
  6
CONTINUOUS
 62
     0
100
AcDbLine
 10
847.7864762856
 20
607.3968940227
 11
843.2864762856
 21
607.3968940227
  0
LINE
  5
3AF
100
AcDbEntity
  8
_0-2_
  6
CONTINUOUS
 62
     0
100
AcDbLine
 10
848.7864752856
 20
616.2570670227
 11
848.7864752856
 21
609.9968950227
  0
ARC
  5
3B0
100
AcDbEntity
  8
_0-2_
  6
CONTINUOUS
 62
     0
100
AcDbCircle
 10
851.3864762856
 20
616.2570670227
 40
2.600001
100
AcDbArc
 50
87
 51
180
  0
LINE
  5
3B1
100
AcDbEntity
  8
_0-2_
  6
CONTINUOUS
 62
     0
100
AcDbLine
 10
870.7864772856
 20
615.3766150227
 11
870.7864772856
 21
609.9968950227
  0
ARC
  5
3B2
100
AcDbEntity
  8
_0-2_
  6
CONTINUOUS
 62
     0
100
AcDbCircle
 10
868.1864762856
 20
615.3766150227
 40
2.600001
100
AcDbArc
 50
0
 51
87
  0
LINE
  5
3B3
100
AcDbEntity
  8
_0-2_
  6
CONTINUOUS
 62
     0
100
AcDbLine
 10
868.3225502856
 20
617.9730520227
 11
851.5225502856
 21
618.8535040227
  0
LINE
  5
3B4
100
AcDbEntity
  8
_0-2_
  6
CONTINUOUS
 62
     0
100
AcDbLine
 10
869.1864752856
 20
609.9968950227
 11
869.1864752856
 21
615.3766150227
  0
ARC
  5
3B5
100
AcDbEntity
  8
_0-2_
  6
CONTINUOUS
 62
     0
100
AcDbCircle
 10
871.7864762856
 20
609.9968950227
 40
2.600001
100
AcDbArc
 50
180
 51
270
  0
LINE
  5
3B6
100
AcDbEntity
  8
_0-2_
  6
CONTINUOUS
 62
     0
100
AcDbLine
 10
871.7864762856
 20
607.3968940227
 11
876.2864762856
 21
607.3968940227
  0
LINE
  5
3B7
100
AcDbEntity
  8
_0-2_
  6
CONTINUOUS
 62
     0
100
AcDbLine
 10
875.9864762856
 20
606.4968940227
 11
874.0364762856
 21
606.4968940227
  0
ARC
  5
3B8
100
AcDbEntity
  8
_0-2_
  6
CONTINUOUS
 62
     0
100
AcDbCircle
 10
875.9864762856
 20
606.7968940227
 40
0.3
100
AcDbArc
 50
-90
 51
0
  0
ARC
  5
3B9
100
AcDbEntity
  8
_0-2_
  6
CONTINUOUS
 62
     0
100
AcDbCircle
 10
875.9864762856
 20
608.6968960227
 40
0.3
100
AcDbArc
 50
0
 51
90
  0
LINE
  5
3BA
100
AcDbEntity
  8
_0-2_
  6
CONTINUOUS
 62
     0
100
AcDbLine
 10
859.2864752856
 20
602.9968960227
 11
859.7864762856
 21
602.4968950227
  0
LINE
  5
3BB
100
AcDbEntity
  8
_0-2_
  6
CONTINUOUS
 62
     0
100
AcDbLine
 10
860.2864772856
 20
602.9968960227
 11
859.7864762856
 21
602.4968950227
  0
LINE
  5
3BC
100
AcDbEntity
  8
_0-2_
  6
CONTINUOUS
 62
     0
100
AcDbLine
 10
854.7864752856
 20
600.9968950227
 11
854.7864752856
 21
600.4968940227
  0
LINE
  5
3BD
100
AcDbEntity
  8
_0-2_
  6
CONTINUOUS
 62
     0
100
AcDbLine
 10
875.7864752856
 20
610.4968960227
 11
873.0364772856
 21
610.4968960227
  0
ARC
  5
3BE
100
AcDbEntity
  8
_0-2_
  6
CONTINUOUS
 62
     0
100
AcDbCircle
 10
875.7864752856
 20
610.9968940227
 40
0.500001
100
AcDbArc
 50
-90
 51
0
  0
ARC
  5
3BF
100
AcDbEntity
  8
_0-2_
  6
CONTINUOUS
 62
     0
100
AcDbCircle
 10
873.0364772856
 20
609.7468960227
 40
0.75
100
AcDbArc
 50
90
 51
270
  0
LINE
  5
3C0
100
AcDbEntity
  8
_0-2_
  6
CONTINUOUS
 62
     0
100
AcDbLine
 10
864.7864772856
 20
600.9968950227
 11
876.2864762856
 21
600.9968950227
  0
LINE
  5
3C1
100
AcDbEntity
  8
_0-2_
  6
CONTINUOUS
 62
     0
100
AcDbLine
 10
864.7864772856
 20
600.9968950227
 11
864.7864772856
 21
600.4968940227
  0
ARC
  5
3C2
100
AcDbEntity
  8
_0-2_
  6
CONTINUOUS
 62
     0
100
AcDbCircle
 10
874.0364762856
 20
605.7468940227
 40
0.75
100
AcDbArc
 50
90
 51
270
  0
LINE
  5
3C3
100
AcDbEntity
  8
_0-2_
  6
CONTINUOUS
 62
     0
100
AcDbLine
 10
875.9864762856
 20
604.9968940227
 11
874.0364762856
 21
604.9968940227
  0
ARC
  5
3C4
100
AcDbEntity
  8
_0-2_
  6
CONTINUOUS
 62
     0
100
AcDbCircle
 10
875.9864762856
 20
604.6968940227
 40
0.3
100
AcDbArc
 50
0
 51
90
  0
LINE
  5
3C5
100
AcDbEntity
  8
_0-2_
  6
CONTINUOUS
 62
     0
100
AcDbLine
 10
843.2864762856
 20
600.9968950227
 11
854.7864752856
 21
600.9968950227
  0
LINE
  5
3C6
100
AcDbEntity
  8
_0-2_
  6
CONTINUOUS
 62
     0
100
AcDbLine
 10
843.5864762856
 20
606.4968940227
 11
845.5364762856
 21
606.4968940227
  0
ARC
  5
3C7
100
AcDbEntity
  8
_0-2_
  6
CONTINUOUS
 62
     0
100
AcDbCircle
 10
843.5864762856
 20
606.7968940227
 40
0.3
100
AcDbArc
 50
180
 51
270
  0
LINE
  5
3C8
100
AcDbEntity
  8
_0-2_
  6
CONTINUOUS
 62
     0
100
AcDbLine
 10
843.2864762856
 20
606.7968940227
 11
843.2864762856
 21
608.6968960227
  0
ARC
  5
3C9
100
AcDbEntity
  8
_0-2_
  6
CONTINUOUS
 62
     0
100
AcDbCircle
 10
843.5864762856
 20
608.6968960227
 40
0.3
100
AcDbArc
 50
90
 51
180
  0
LINE
  5
3CA
100
AcDbEntity
  8
_0-2_
  6
CONTINUOUS
 62
     0
100
AcDbLine
 10
842.2864772856
 20
610.4968960227
 11
846.5364752856
 21
610.4968960227
  0
ARC
  5
3CB
100
AcDbEntity
  8
_0-2_
  6
CONTINUOUS
 62
     0
100
AcDbCircle
 10
842.2864772856
 20
609.9968950227
 40
0.500001
100
AcDbArc
 50
90
 51
180
  0
ARC
  5
3CC
100
AcDbEntity
  8
_0-2_
  6
CONTINUOUS
 62
     0
100
AcDbCircle
 10
846.5364752856
 20
609.7468960227
 40
0.75
100
AcDbArc
 50
-90
 51
90
  0
LINE
  5
3CD
100
AcDbEntity
  8
_0-2_
  6
CONTINUOUS
 62
     0
100
AcDbLine
 10
841.7864762856
 20
609.9968950227
 11
841.7864762856
 21
600.4968940227
  0
LINE
  5
3CE
100
AcDbEntity
  8
_0-2_
  6
CONTINUOUS
 62
     0
100
AcDbLine
 10
843.2864762856
 20
600.9968950227
 11
843.2864762856
 21
600.4968940227
  0
ARC
  5
3CF
100
AcDbEntity
  8
_0-2_
  6
CONTINUOUS
 62
     0
100
AcDbCircle
 10
845.5364762856
 20
605.7468940227
 40
0.75
100
AcDbArc
 50
-90
 51
90
  0
ARC
  5
3D0
100
AcDbEntity
  8
_0-2_
  6
CONTINUOUS
 62
     0
100
AcDbCircle
 10
843.5864762856
 20
603.2968960227
 40
0.3
100
AcDbArc
 50
180
 51
270
  0
LINE
  5
3D1
100
AcDbEntity
  8
_0-2_
  6
CONTINUOUS
 62
     0
100
AcDbLine
 10
843.2864762856
 20
603.2968960227
 11
843.2864762856
 21
604.6968940227
  0
ARC
  5
3D2
100
AcDbEntity
  8
_0-2_
  6
CONTINUOUS
 62
     0
100
AcDbCircle
 10
843.5864762856
 20
604.6968940227
 40
0.3
100
AcDbArc
 50
90
 51
180
  0
LINE
  5
3D3
100
AcDbEntity
  8
_0-2_
  6
CONTINUOUS
 62
     0
100
AcDbLine
 10
843.5864762856
 20
604.9968940227
 11
845.5364762856
 21
604.9968940227
  0
ARC
  5
3D4
100
AcDbEntity
  8
_0-2_
  6
CONTINUOUS
 62
     0
100
AcDbCircle
 10
875.7864752856
 20
603.4968940227
 40
0.500001
100
AcDbArc
 50
-90
 51
0
  0
LINE
  5
3D5
100
AcDbEntity
  8
_0-2_
  6
CONTINUOUS
 62
     0
100
AcDbLine
 10
875.7864752856
 20
602.9968960227
 11
843.5864762856
 21
602.9968960227
  0
LINE
  5
3D6
100
AcDbEntity
  8
_0-2_
  6
CONTINUOUS
 62
     0
100
AcDbLine
 10
843.2864762856
 20
600.4968940227
 11
841.7864762856
 21
600.4968940227
  0
ARC
  5
3D7
100
AcDbEntity
  8
_0-2_
  6
CONTINUOUS
 62
     0
100
AcDbCircle
 10
877.2864752856
 20
618.4968940227
 40
0.999999
100
AcDbArc
 50
0
 51
180
  0
LINE
  5
3D8
100
AcDbEntity
  8
_0-2_
  6
CONTINUOUS
 62
     0
100
AcDbLine
 10
876.2864762856
 20
610.9968940227
 11
876.2864762856
 21
618.4968940227
  0
LINE
  5
3D9
100
AcDbEntity
  8
_0-2_
  6
CONTINUOUS
 62
     0
100
AcDbLine
 10
876.2864762856
 20
606.7968940227
 11
876.2864762856
 21
608.6968960227
  0
ARC
  5
3DA
100
AcDbEntity
  8
_0-2_
  6
CONTINUOUS
 62
     0
100
AcDbCircle
 10
878.7864752856
 20
603.4968940227
 40
0.500001
100
AcDbArc
 50
180
 51
270
  0
LINE
  5
3DB
100
AcDbEntity
  8
_0-2_
  6
CONTINUOUS
 62
     0
100
AcDbLine
 10
878.2864772856
 20
601.4968960227
 11
878.2864772856
 21
600.4968940227
  0
LINE
  5
3DC
100
AcDbEntity
  8
_0-2_
  6
CONTINUOUS
 62
     0
100
AcDbLine
 10
876.2864762856
 20
600.9968950227
 11
876.2864762856
 21
600.4968940227
  0
LINE
  5
3DD
100
AcDbEntity
  8
_0-2_
  6
CONTINUOUS
 62
     0
100
AcDbLine
 10
876.2864762856
 20
603.4968940227
 11
876.2864762856
 21
604.6968940227
  0
LINE
  5
3DE
100
AcDbEntity
  8
_0-2_
  6
CONTINUOUS
 62
     0
100
AcDbLine
 10
888.7864772856
 20
601.4968960227
 11
888.7864772856
 21
600.4968940227
  0
LINE
  5
3DF
100
AcDbEntity
  8
_0-2_
  6
CONTINUOUS
 62
     0
100
AcDbLine
 10
890.2864772856
 20
600.4968940227
 11
888.7864772856
 21
600.4968940227
  0
LINE
  5
3E0
100
AcDbEntity
  8
_0-2_
  6
CONTINUOUS
 62
     0
100
AcDbLine
 10
878.2864772856
 20
600.4968940227
 11
876.2864762856
 21
600.4968940227
  0
LINE
  5
3E1
100
AcDbEntity
  8
_0-2_
  6
CONTINUOUS
 62
     0
100
AcDbLine
 10
890.2864772856
 20
602.4968960227
 11
890.2864772856
 21
600.4968940227
  0
ARC
  5
3E2
100
AcDbEntity
  8
_0-2_
  6
CONTINUOUS
 62
     0
100
AcDbCircle
 10
889.7864772856
 20
602.4968960227
 40
0.5
100
AcDbArc
 50
0
 51
90
  0
LINE
  5
3E3
100
AcDbEntity
  8
_0-2_
  6
CONTINUOUS
 62
     0
100
AcDbLine
 10
878.5364772856
 20
606.2468960227
 11
879.7864772857
 21
606.2468960227
  0
LINE
  5
3E4
100
AcDbEntity
  8
_0-2_
  6
CONTINUOUS
 62
     0
100
AcDbLine
 10
882.7864772857
 20
606.2468960227
 11
884.0364772856
 21
606.2468960227
  0
ARC
  5
3E5
100
AcDbEntity
  8
_0-2_
  6
CONTINUOUS
 62
     0
100
AcDbCircle
 10
909.6330827579
 20
649.182288645
 40
0.5
100
AcDbArc
 50
-99.19866089521
 51
78.59045565079
  0
ARC
  5
3E6
100
AcDbEntity
  8
_0-2_
  6
CONTINUOUS
 62
     0
100
AcDbCircle
 10
904.7864772857
 20
625.1664518827
 40
25
100
AcDbArc
 50
78.59045565079
 51
180
  0
ARC
  5
3E7
100
AcDbEntity
  8
_0-2_
  6
CONTINUOUS
 62
     0
100
AcDbCircle
 10
905.8624228796
 20
625.8980833807
 40
23.08754100601
100
AcDbArc
 50
80.80133910481
 51
181.8159758207
  0
LINE
  5
3E8
100
AcDbEntity
  8
_0-2_
  6
CONTINUOUS
 62
     0
100
AcDbLine
 10
878.2864772856
 20
601.4968960227
 11
885.7924261594
 21
601.4968960227
  0
LINE
  5
3E9
100
AcDbEntity
  8
_0-2_
  6
CONTINUOUS
 62
     0
100
AcDbLine
 10
885.7924261594
 20
601.4968960227
 11
888.7864772856
 21
601.4968960227
  0
LINE
  5
3EA
100
AcDbEntity
  8
_0-2_
  6
CONTINUOUS
 62
     0
100
AcDbLine
 10
883.7864772856
 20
602.9968960227
 11
878.7864752856
 21
602.9968960227
  0
LINE
  5
3EB
100
AcDbEntity
  8
_0-2_
  6
CONTINUOUS
 62
     0
100
AcDbLine
 10
889.7864772856
 20
602.9968960227
 11
885.7864772856
 21
602.9968960227
  0
ARC
  5
3EC
100
AcDbEntity
  8
_0-2_
  6
CONTINUOUS
 62
     0
100
AcDbCircle
 10
883.7864772856
 20
603.4968960227
 40
0.25
100
AcDbArc
 50
-90
 51
0
  0
ARC
  5
3ED
100
AcDbEntity
  8
_0-2_
  6
CONTINUOUS
 62
     0
100
AcDbCircle
 10
878.7864752856
 20
603.4968940227
 40
0.250001
100
AcDbArc
 50
180
 51
270
  0
LINE
  5
3EE
100
AcDbEntity
  8
_0-2_
  6
CONTINUOUS
 62
     0
100
AcDbLine
 10
884.0364772856
 20
603.4968960227
 11
884.0364772856
 21
606.2468960227
  0
LINE
  5
3EF
100
AcDbEntity
  8
_0-2_
  6
CONTINUOUS
 62
     0
100
AcDbLine
 10
878.5364772856
 20
603.4968940227
 11
878.5364772856
 21
606.2468960227
  0
LINE
  5
3F0
100
AcDbEntity
  8
_0-2_
  6
CONTINUOUS
 62
     0
100
AcDbLine
 10
883.7864772856
 20
603.2468960227
 11
878.7864752856
 21
603.2468960227
  0
LINE
  5
3F1
100
AcDbEntity
  8
_0-2_
  6
CONTINUOUS
 62
     0
100
AcDbLine
 10
878.2864772856
 20
618.4968940227
 11
878.2864772856
 21
607.9968960227
  0
LINE
  5
3F2
100
AcDbEntity
  8
_0-2_
  6
CONTINUOUS
 62
     0
100
AcDbLine
 10
878.2864772856
 20
606.4968960227
 11
878.2864772856
 21
603.4968940227
  0
LINE
  5
3F3
100
AcDbEntity
  8
_0-2_
  6
CONTINUOUS
 62
     0
100
AcDbLine
 10
884.2864772856
 20
603.4968960227
 11
884.2864772856
 21
606.4968960227
  0
LINE
  5
3F4
100
AcDbEntity
  8
_0-2_
  6
CONTINUOUS
 62
     0
100
AcDbLine
 10
885.7864772856
 20
607.4968960227
 11
885.7864772856
 21
602.9968960227
  0
ARC
  5
3F5
100
AcDbEntity
  8
_0-2_
  6
CONTINUOUS
 62
     0
100
AcDbCircle
 10
885.2864772856
 20
607.4968960227
 40
0.5
100
AcDbArc
 50
0
 51
90
  0
ARC
  5
3F6
100
AcDbEntity
  8
_0-2_
  6
CONTINUOUS
 62
     0
100
AcDbCircle
 10
883.7864772856
 20
603.4968960227
 40
0.5
100
AcDbArc
 50
-90
 51
0
  0
LINE
  5
3F7
100
AcDbEntity
  8
_0-2_
  6
CONTINUOUS
 62
     0
100
AcDbLine
 10
885.2864772856
 20
607.9968960227
 11
884.0364772856
 21
607.9968960227
  0
ARC
  5
3F8
100
AcDbEntity
  8
_0-2_
  6
CONTINUOUS
 62
     0
100
AcDbCircle
 10
884.0364772856
 20
606.9968960227
 40
1
100
AcDbArc
 50
90
 51
180
  0
LINE
  5
3F9
100
AcDbEntity
  8
_0-2_
  6
CONTINUOUS
 62
     0
100
AcDbLine
 10
883.0364772856
 20
606.9968960227
 11
883.0364772856
 21
606.4968960227
  0
LINE
  5
3FA
100
AcDbEntity
  8
_0-2_
  6
CONTINUOUS
 62
     0
100
AcDbLine
 10
883.0364772856
 20
606.4968960227
 11
884.2864772856
 21
606.4968960227
  0
LINE
  5
3FB
100
AcDbEntity
  8
_0-2_
  6
CONTINUOUS
 62
     0
100
AcDbLine
 10
878.2864772856
 20
606.4968960227
 11
879.5364772856
 21
606.4968960227
  0
LINE
  5
3FC
100
AcDbEntity
  8
_0-2_
  6
CONTINUOUS
 62
     0
100
AcDbLine
 10
879.5364772856
 20
606.9968960227
 11
879.5364772856
 21
606.4968960227
  0
ARC
  5
3FD
100
AcDbEntity
  8
_0-2_
  6
CONTINUOUS
 62
     0
100
AcDbCircle
 10
878.5364772856
 20
606.9968960227
 40
1
100
AcDbArc
 50
0
 51
90
  0
LINE
  5
3FE
100
AcDbEntity
  8
_0-2_
  6
CONTINUOUS
 62
     0
100
AcDbLine
 10
878.5364772856
 20
607.9968960227
 11
878.2864772856
 21
607.9968960227
  0
LINE
  5
3FF
100
AcDbEntity
  8
_0-2_
  6
CONTINUOUS
 62
     0
100
AcDbLine
 10
874.7864762856
 20
599.3636626846
 11
874.7864762856
 21
600.4881250227
  0
LINE
  5
400
100
AcDbEntity
  8
_0-2_
  6
CONTINUOUS
 62
     0
100
AcDbLine
 10
844.7864762856
 20
600.4881250227
 11
874.7864762856
 21
600.4881250227
  0
LINE
  5
401
100
AcDbEntity
  8
_0-2_
  6
CONTINUOUS
 62
     0
100
AcDbLine
 10
859.768803
 20
443.8654912089
 11
862.768803
 21
444.6154912089
  0
LINE
  5
402
100
AcDbEntity
  8
_0-2_
  6
CONTINUOUS
 62
     0
100
AcDbLine
 10
859.768803
 20
443.8654912089
 11
862.768803
 21
443.1154912089
  0
LINE
  5
403
100
AcDbEntity
  8
_0-2_
  6
CONTINUOUS
 62
     0
100
AcDbLine
 10
909.768804
 20
443.8654912089
 11
906.768804
 21
443.1154912089
  0
LINE
  5
404
100
AcDbEntity
  8
_0-2_
  6
CONTINUOUS
 62
     0
100
AcDbLine
 10
909.768804
 20
443.8654912089
 11
906.768804
 21
444.6154912089
  0
LINE
  5
405
100
AcDbEntity
  8
_0-2_
  6
CONTINUOUS
 62
     0
100
AcDbLine
 10
859.768803
 20
552.0547220227
 11
859.768803
 21
439.8654892089
  0
LINE
  5
406
100
AcDbEntity
  8
_0-2_
  6
CONTINUOUS
 62
     0
100
AcDbLine
 10
909.768804
 20
443.8654912089
 11
859.768803
 21
443.8654912089
  0
LINE
  5
407
100
AcDbEntity
  8
_0-2_
  6
CONTINUOUS
 62
     0
100
AcDbLine
 10
909.768804
 20
598.4881250227
 11
909.768804
 21
433.2461032089
  0
TEXT
  5
408
100
AcDbEntity
  8
_0-2_
  6
CONTINUOUS
 62
     0
100
AcDbText
 10
879.1890912228
 20
443.6349896691
 40
9
  1
50
  7
STANDARD
100
AcDbText
  0
LINE
  5
409
100
AcDbEntity
  8
_0-1_PRO0
  6
CONTINUOUS
 62
     0
100
AcDbLine
 10
779.768804
 20
598.4881250227
 11
909.768804
 21
598.4881250227
  0
LINE
  5
40A
100
AcDbEntity
  8
_0-1_PRO0
  6
CONTINUOUS
 62
     0
100
AcDbLine
 10
779.768804
 20
389.7601458101
 11
909.768804
 21
389.7601458101
  0
LINE
  5
40B
100
AcDbEntity
  8
_0-1_PRO0
  6
CONTINUOUS
 62
     0
100
AcDbLine
 10
838.7511303108
 20
599.4804632528
 11
779.0015378831
 21
599.4883521965
  0
TEXT
  5
40C
100
AcDbEntity
  8
_0-1_PRO0
  6
CONTINUOUS
 62
     0
100
AcDbText
 10
256.7191801891
 20
390.4205477287
 40
8.99
  1
１７０
 41
0.7385984427141
  7
STANDARD
100
AcDbText
  0
TEXT
  5
40D
100
AcDbEntity
  8
_0-1_PRO0
  6
CONTINUOUS
 62
     0
100
AcDbText
 10
984.5035150174
 20
391.3146316781
 40
9
  1
１７０
 41
0.7377777777778
  7
STANDARD
100
AcDbText
  0
LINE
  5
40E
100
AcDbEntity
  8
_0-2_
  6
CONTINUOUS
 62
     0
100
AcDbLine
 10
409.7230217223
 20
646.231415244
 11
386.7545417223
 21
645.027689244
  0
LINE
  5
40F
100
AcDbEntity
  8
_0-2_
  6
CONTINUOUS
 62
     0
100
AcDbLine
 10
423.1705907223
 20
634.014506244
 11
409.7230217223
 21
646.231415244
  0
LINE
  5
410
100
AcDbEntity
  8
_0-2_
  6
CONTINUOUS
 62
     0
100
AcDbLine
 10
427.0194137223
 20
636.221132244
 11
426.3581777223
 21
636.671432244
  0
LINE
  5
411
100
AcDbEntity
  8
_0-2_
  6
CONTINUOUS
 62
     0
100
AcDbLine
 10
426.3581777223
 20
636.671432244
 11
424.6695617223
 21
634.191800244
  0
LINE
  5
412
100
AcDbEntity
  8
_0-2_
  6
CONTINUOUS
 62
     0
100
AcDbLine
 10
427.0194137223
 20
636.221132244
 11
425.3307977223
 21
633.741500244
  0
ARC
  5
413
100
AcDbEntity
  8
_0-2_
  6
CONTINUOUS
 62
     0
100
AcDbCircle
 10
423.8430197223
 20
634.754672244
 40
0.999999
100
AcDbArc
 50
-132.254652
 51
-34.254658
  0
ARC
  5
414
100
AcDbEntity
  8
_0-2_
  6
CONTINUOUS
 62
     0
100
AcDbCircle
 10
423.8430197223
 20
634.754672244
 40
1.8
100
AcDbArc
 50
-132.254651
 51
-34.254658
  0
ARC
  5
415
100
AcDbEntity
  8
_0-2_
  6
CONTINUOUS
 62
     0
100
AcDbCircle
 10
398.3172857223
 20
644.131607244
 40
6.3
100
AcDbArc
 50
43.903458
 51
142.096542
  0
LINE
  5
416
100
AcDbEntity
  8
_0-2_
  6
CONTINUOUS
 62
     0
100
AcDbLine
 10
403.4127347223
 20
647.218094244
 11
403.4815877223
 21
645.904316244
  0
LINE
  5
417
100
AcDbEntity
  8
_0-2_
  6
CONTINUOUS
 62
     0
100
AcDbLine
 10
392.9271257223
 20
646.668566244
 11
392.9959757223
 21
645.354788244
  0
ARC
  5
418
100
AcDbEntity
  8
_0-2_
  6
CONTINUOUS
 62
     0
100
AcDbCircle
 10
401.4154757223
 20
647.113424244
 40
2.000001
100
AcDbArc
 50
2.999999999999
 51
43.903458
  0
LINE
  5
419
100
AcDbEntity
  8
_0-2_
  6
CONTINUOUS
 62
     0
100
AcDbLine
 10
422.6326517223
 20
633.422375244
 11
409.4318927223
 21
645.415061244
  0
LINE
  5
41A
100
AcDbEntity
  8
_0-2_
  6
CONTINUOUS
 62
     0
100
AcDbLine
 10
409.4318927223
 20
645.415061244
 11
387.0885647223
 21
644.244095244
  0
LINE
  5
41B
100
AcDbEntity
  8
_0-2_
  6
CONTINUOUS
 62
     0
100
AcDbLine
 10
375.2545427223
 20
630.939395244
 11
387.1294097223
 21
644.246237244
  0
ARC
  5
41C
100
AcDbEntity
  8
_0-2_
  6
CONTINUOUS
 62
     0
100
AcDbCircle
 10
394.9243847223
 20
646.773239244
 40
2.000001
100
AcDbArc
 50
142.096542
 51
183
  0
LINE
  5
41D
100
AcDbEntity
  8
_0-2_
  6
CONTINUOUS
 62
     0
100
AcDbLine
 10
370.5992597223
 20
633.264278244
 11
371.2098047223
 21
633.781226244
  0
LINE
  5
41E
100
AcDbEntity
  8
_0-2_
  6
CONTINUOUS
 62
     0
100
AcDbLine
 10
371.2098047223
 20
633.781226244
 11
373.1483627223
 21
631.491686244
  0
LINE
  5
41F
100
AcDbEntity
  8
_0-2_
  6
CONTINUOUS
 62
     0
100
AcDbLine
 10
370.5992597223
 20
633.264278244
 11
372.5378177223
 21
630.974738244
  0
ARC
  5
420
100
AcDbEntity
  8
_0-2_
  6
CONTINUOUS
 62
     0
100
AcDbCircle
 10
373.9115417223
 20
632.137874244
 40
0.999999
100
AcDbArc
 50
-139.745342
 51
-41.745348
  0
LINE
  5
421
100
AcDbEntity
  8
_0-2_
  6
CONTINUOUS
 62
     0
100
AcDbLine
 10
374.6576537223
 20
631.472051244
 11
386.7545417223
 21
645.027689244
  0
ARC
  5
422
100
AcDbEntity
  8
_0-2_
  6
CONTINUOUS
 62
     0
100
AcDbCircle
 10
373.9115417223
 20
632.137874244
 40
1.8
100
AcDbArc
 50
-139.745342
 51
-41.745349
  0
LINE
  5
423
100
AcDbEntity
  8
_0-2_
  6
CONTINUOUS
 62
     0
100
AcDbLine
 10
401.2346717223
 20
645.786560244
 11
402.9362894324
 21
616.3352538429
  0
LINE
  5
424
100
AcDbEntity
  8
_0-2_
  6
CONTINUOUS
 62
     0
100
AcDbLine
 10
400.7353547223
 20
645.760391244
 11
402.4658176032
 21
615.8099113084
  0
LINE
  5
425
100
AcDbEntity
  8
_0-2_
  6
CONTINUOUS
 62
     0
100
AcDbLine
 10
397.9322837223
 20
651.477902244
 11
400.0785513691
 21
612.8110053084
  0
LINE
  5
426
100
AcDbEntity
  8
_0-2_
  6
CONTINUOUS
 62
     0
100
AcDbLine
 10
395.7422087223
 20
645.498713244
 11
397.4726674415
 21
615.5482316207
  0
LINE
  5
427
100
AcDbEntity
  8
_0-2_
  6
CONTINUOUS
 62
     0
100
AcDbLine
 10
395.2428917223
 20
645.472544244
 11
396.9445133576
 21
616.0212384336
  0
LINE
  5
428
100
AcDbEntity
  8
_0-2_
  6
CONTINUOUS
 62
     0
100
AcDbLine
 10
402.9362894324
 20
616.3352538429
 11
396.9445133576
 21
616.0212384336
  0
LINE
  5
429
100
AcDbEntity
  8
_0-2_
  6
CONTINUOUS
 62
     0
100
AcDbLine
 10
402.4658176032
 20
615.8099113084
 11
397.4726674415
 21
615.5482316207
  0
LINE
  5
42A
100
AcDbEntity
  8
_0-2_
  6
CONTINUOUS
 62
     0
100
AcDbLine
 10
397.2655550699
 20
615.7337183297
 11
397.4726674415
 21
615.5482316207
  0
LINE
  5
42B
100
AcDbEntity
  8
_0-2_
  6
CONTINUOUS
 62
     0
100
AcDbLine
 10
396.9445133576
 20
616.0212384336
 11
397.2655550699
 21
615.7337183297
  0
LINE
  5
42C
100
AcDbEntity
  8
_0-2_
  6
CONTINUOUS
 62
     0
100
AcDbLine
 10
402.6503105643
 20
616.0159215172
 11
402.9362894324
 21
616.3352538429
  0
LINE
  5
42D
100
AcDbEntity
  8
_0-2_
  6
CONTINUOUS
 62
     0
100
AcDbLine
 10
402.4658176032
 20
615.8099113084
 11
402.6503105643
 21
616.0159215172
  0
LINE
  5
42E
100
AcDbEntity
  8
_0-2_
  6
CONTINUOUS
 62
     0
100
AcDbLine
 10
849.9514855169
 20
646.2242406765
 11
872.9199655169
 21
645.0205146765
  0
LINE
  5
42F
100
AcDbEntity
  8
_0-2_
  6
CONTINUOUS
 62
     0
100
AcDbLine
 10
836.5039165169
 20
634.0073316765
 11
849.9514855169
 21
646.2242406765
  0
LINE
  5
430
100
AcDbEntity
  8
_0-2_
  6
CONTINUOUS
 62
     0
100
AcDbLine
 10
832.6550935169
 20
636.2139576765
 11
833.3163295169
 21
636.6642576765
  0
LINE
  5
431
100
AcDbEntity
  8
_0-2_
  6
CONTINUOUS
 62
     0
100
AcDbLine
 10
833.3163295169
 20
636.6642576765
 11
835.0049455169
 21
634.1846256765
  0
LINE
  5
432
100
AcDbEntity
  8
_0-2_
  6
CONTINUOUS
 62
     0
100
AcDbLine
 10
832.6550935169
 20
636.2139576765
 11
834.3437095169
 21
633.7343256765
  0
ARC
  5
433
100
AcDbEntity
  8
_0-2_
  6
CONTINUOUS
 62
     0
100
AcDbCircle
 10
835.8314875169
 20
634.7474976765
 40
0.999999
100
AcDbArc
 50
-145.745342
 51
-47.74534800001
  0
ARC
  5
434
100
AcDbEntity
  8
_0-2_
  6
CONTINUOUS
 62
     0
100
AcDbCircle
 10
835.8314875169
 20
634.7474976765
 40
1.8
100
AcDbArc
 50
-145.745342
 51
-47.745349
  0
ARC
  5
435
100
AcDbEntity
  8
_0-2_
  6
CONTINUOUS
 62
     0
100
AcDbCircle
 10
861.3572215169
 20
644.1244326765
 40
6.3
100
AcDbArc
 50
37.903458
 51
136.096542
  0
LINE
  5
436
100
AcDbEntity
  8
_0-2_
  6
CONTINUOUS
 62
     0
100
AcDbLine
 10
856.2617725169
 20
647.2109196765
 11
856.1929195169
 21
645.8971416765
  0
LINE
  5
437
100
AcDbEntity
  8
_0-2_
  6
CONTINUOUS
 62
     0
100
AcDbLine
 10
866.7473815169
 20
646.6613916765
 11
866.6785315169
 21
645.3476136765
  0
ARC
  5
438
100
AcDbEntity
  8
_0-2_
  6
CONTINUOUS
 62
     0
100
AcDbCircle
 10
858.2590315169
 20
647.1062496765
 40
2.000001
100
AcDbArc
 50
136.096542
 51
177
  0
LINE
  5
439
100
AcDbEntity
  8
_0-2_
  6
CONTINUOUS
 62
     0
100
AcDbLine
 10
837.0418555169
 20
633.4152006765
 11
850.2426145169
 21
645.4078866765
  0
LINE
  5
43A
100
AcDbEntity
  8
_0-2_
  6
CONTINUOUS
 62
     0
100
AcDbLine
 10
850.2426145169
 20
645.4078866765
 11
872.5859425169
 21
644.2369206765
  0
LINE
  5
43B
100
AcDbEntity
  8
_0-2_
  6
CONTINUOUS
 62
     0
100
AcDbLine
 10
884.4199645169
 20
630.9322206765
 11
872.5450975169
 21
644.2390626765
  0
ARC
  5
43C
100
AcDbEntity
  8
_0-2_
  6
CONTINUOUS
 62
     0
100
AcDbCircle
 10
864.7501225169
 20
646.7660646765
 40
2.000001
100
AcDbArc
 50
-2.999999999999
 51
37.903458
  0
LINE
  5
43D
100
AcDbEntity
  8
_0-2_
  6
CONTINUOUS
 62
     0
100
AcDbLine
 10
889.0752475169
 20
633.2571036765
 11
888.4647025169
 21
633.7740516765
  0
LINE
  5
43E
100
AcDbEntity
  8
_0-2_
  6
CONTINUOUS
 62
     0
100
AcDbLine
 10
888.4647025169
 20
633.7740516765
 11
886.5261445169
 21
631.4845116765
  0
LINE
  5
43F
100
AcDbEntity
  8
_0-2_
  6
CONTINUOUS
 62
     0
100
AcDbLine
 10
889.0752475169
 20
633.2571036765
 11
887.1366895169
 21
630.9675636765
  0
ARC
  5
440
100
AcDbEntity
  8
_0-2_
  6
CONTINUOUS
 62
     0
100
AcDbCircle
 10
885.7629655169
 20
632.1306996765
 40
0.999999
100
AcDbArc
 50
-138.254652
 51
-40.254658
  0
LINE
  5
441
100
AcDbEntity
  8
_0-2_
  6
CONTINUOUS
 62
     0
100
AcDbLine
 10
885.0168535169
 20
631.4648766765
 11
872.9199655169
 21
645.0205146765
  0
ARC
  5
442
100
AcDbEntity
  8
_0-2_
  6
CONTINUOUS
 62
     0
100
AcDbCircle
 10
885.7629655169
 20
632.1306996765
 40
1.8
100
AcDbArc
 50
-138.254651
 51
-40.254658
  0
LINE
  5
443
100
AcDbEntity
  8
_0-2_
  6
CONTINUOUS
 62
     0
100
AcDbLine
 10
858.4398355169
 20
645.7793856765
 11
856.7382178068
 21
616.3280792753
  0
LINE
  5
444
100
AcDbEntity
  8
_0-2_
  6
CONTINUOUS
 62
     0
100
AcDbLine
 10
861.7422235169
 20
651.4707276765
 11
859.5959558701
 21
612.8038307409
  0
LINE
  5
445
100
AcDbEntity
  8
_0-2_
  6
CONTINUOUS
 62
     0
100
AcDbLine
 10
863.9322985169
 20
645.4915386765
 11
862.2018397977
 21
615.5410570532
  0
LINE
  5
446
100
AcDbEntity
  8
_0-2_
  6
CONTINUOUS
 62
     0
100
AcDbLine
 10
864.4316155169
 20
645.4653696765
 11
862.7299938816
 21
616.0140638661
  0
LINE
  5
447
100
AcDbEntity
  8
_0-2_
  6
CONTINUOUS
 62
     0
100
AcDbLine
 10
858.9391525169
 20
645.7532166765
 11
857.208689636
 21
615.8027367408
  0
LINE
  5
448
100
AcDbEntity
  8
_0-2_
  6
CONTINUOUS
 62
     0
100
AcDbLine
 10
857.208689636
 20
615.8027367408
 11
862.2018397977
 21
615.5410570532
  0
LINE
  5
449
100
AcDbEntity
  8
_0-2_
  6
CONTINUOUS
 62
     0
100
AcDbLine
 10
856.7382178068
 20
616.3280792753
 11
862.7299938816
 21
616.0140638661
  0
LINE
  5
44A
100
AcDbEntity
  8
_0-2_
  6
CONTINUOUS
 62
     0
100
AcDbLine
 10
857.0241966749
 20
616.0087469497
 11
856.7382178068
 21
616.3280792753
  0
LINE
  5
44B
100
AcDbEntity
  8
_0-2_
  6
CONTINUOUS
 62
     0
100
AcDbLine
 10
857.208689636
 20
615.8027367408
 11
857.0241966749
 21
616.0087469497
  0
LINE
  5
44C
100
AcDbEntity
  8
_0-2_
  6
CONTINUOUS
 62
     0
100
AcDbLine
 10
862.4089521693
 20
615.7265437621
 11
862.2018397977
 21
615.5410570532
  0
LINE
  5
44D
100
AcDbEntity
  8
_0-2_
  6
CONTINUOUS
 62
     0
100
AcDbLine
 10
862.7299938816
 20
616.0140638661
 11
862.4089521693
 21
615.7265437621
  0
TEXT
  5
44E
100
AcDbEntity
  8
_0-0_
  6
CONTINUOUS
 62
     0
100
AcDbText
 10
813.5609660336
 20
339.339683929
 40
7.5
  1
900
  7
STANDARD
100
AcDbText
  0
TEXT
  5
44F
100
AcDbEntity
  8
_0-0_
  6
CONTINUOUS
 62
     0
100
AcDbText
 10
858.5609660336
 20
339.339683929
 40
7.5
  1
130
  7
STANDARD
100
AcDbText
  0
LINE
  5
450
100
AcDbEntity
  8
_0-0_
  6
CONTINUOUS
 62
     0
100
AcDbLine
 10
686.9984660336
 20
371.464683929
 11
686.9984660336
 21
335.464683929
  0
LINE
  5
451
100
AcDbEntity
  8
_0-0_
  6
CONTINUOUS
 62
     0
100
AcDbLine
 10
799.4984660336
 20
371.464683929
 11
799.4984660336
 21
335.464683929
  0
LINE
  5
452
100
AcDbEntity
  8
_0-0_
  6
CONTINUOUS
 62
     0
100
AcDbLine
 10
844.4984660336
 20
371.464683929
 11
844.4984660336
 21
335.464683929
  0
LINE
  5
453
100
AcDbEntity
  8
_0-0_
  6
CONTINUOUS
 62
     0
100
AcDbLine
 10
889.4984660336
 20
371.464683929
 11
889.4984660336
 21
335.464683929
  0
TEXT
  5
454
100
AcDbEntity
  8
_0-0_
  6
CONTINUOUS
 62
     0
100
AcDbText
 10
696.6234660336
 20
341.3551779143
 40
7.49
  1
３００ＦＹＹＧ－Ｓ９００
  7
STANDARD
100
AcDbText
  0
TEXT
  5
455
100
AcDbEntity
  8
_0-0_
  6
CONTINUOUS
 62
     0
100
AcDbText
 10
413.4359660336
 20
339.339683929
 40
7.49
  1
３００ＦＹＹＧ－Ｓ９００
 41
1.001335113485
  7
STANDARD
100
AcDbText
  0
LINE
  5
456
100
AcDbEntity
  8
_0-0_
  6
CONTINUOUS
 62
     0
100
AcDbLine
 10
12
 20
9
 11
1248
 21
9
  0
LINE
  5
457
100
AcDbEntity
  8
_0-0_
  6
CONTINUOUS
 62
     0
100
AcDbLine
 10
1248
 20
9
 11
1248
 21
873
  0
LINE
  5
458
100
AcDbEntity
  8
_0-0_
  6
CONTINUOUS
 62
     0
100
AcDbLine
 10
1248
 20
873
 11
12
 21
873
  0
LINE
  5
459
100
AcDbEntity
  8
_0-0_
  6
CONTINUOUS
 62
     0
100
AcDbLine
 10
12
 20
873
 11
12
 21
9
  0
TEXT
  5
45A
100
AcDbEntity
  8
_0-0_
  6
CONTINUOUS
 62
     0
100
AcDbText
 10
26.1122057406
 20
836.0593114545
 40
10
  1
　　屋根－屋根
 41
0.999
  7
STANDARD
100
AcDbText
  0
TEXT
  5
45B
100
AcDbEntity
  8
_0-0_
  6
CONTINUOUS
 62
     0
100
AcDbText
 10
26.1122057406
 20
820.8238042081
 40
10
  1
　　Ｓ＝１／３
 41
0.999
  7
STANDARD
100
AcDbText
  0
TEXT
  5
45C
100
AcDbEntity
  8
_0-0_
  6
CONTINUOUS
 62
     0
100
AcDbText
 10
13.2131753758
 20
853.6362988234
 40
9.99
  1
◇ステンレス３００タイプ（３００ＦＹＹＧ－Ｓ）
 41
1.001001001001
  7
STANDARD
100
AcDbText
  0
LINE
  5
45D
100
AcDbEntity
  8
_0-0_
  6
CONTINUOUS
 62
     0
100
AcDbLine
 10
556.4984660336
 20
245.464683929
 11
656.9984660336
 21
245.464683929
  0
LINE
  5
45E
100
AcDbEntity
  8
_0-0_
  6
CONTINUOUS
 62
     0
100
AcDbLine
 10
556.4984660336
 20
155.464683929
 11
656.9984660336
 21
155.464683929
  0
LINE
  5
45F
100
AcDbEntity
  8
_0-0_
  6
CONTINUOUS
 62
     0
100
AcDbLine
 10
556.4984660336
 20
191.464683929
 11
656.9984660336
 21
191.464683929
  0
LINE
  5
460
100
AcDbEntity
  8
_0-0_
  6
CONTINUOUS
 62
     0
100
AcDbLine
 10
556.4984660336
 20
209.464683929
 11
656.9984660336
 21
209.464683929
  0
LINE
  5
461
100
AcDbEntity
  8
_0-0_
  6
CONTINUOUS
 62
     0
100
AcDbLine
 10
556.4984660336
 20
263.464683929
 11
656.9984660336
 21
263.464683929
  0
LINE
  5
462
100
AcDbEntity
  8
_0-0_
  6
CONTINUOUS
 62
     0
100
AcDbLine
 10
556.4984660336
 20
281.464683929
 11
656.9984660336
 21
281.464683929
  0
LINE
  5
463
100
AcDbEntity
  8
_0-0_
  6
CONTINUOUS
 62
     0
100
AcDbLine
 10
556.4984660336
 20
227.464683929
 11
656.9984660336
 21
227.464683929
  0
LINE
  5
464
100
AcDbEntity
  8
_0-0_
  6
CONTINUOUS
 62
     0
100
AcDbLine
 10
556.4984660336
 20
173.464683929
 11
656.9984660336
 21
173.464683929
  0
LINE
  5
465
100
AcDbEntity
  8
_0-0_
  6
CONTINUOUS
 62
     0
100
AcDbLine
 10
556.4984660336
 20
299.464683929
 11
656.9984660336
 21
299.464683929
  0
TEXT
  5
466
100
AcDbEntity
  8
_0-0_
  6
CONTINUOUS
 62
     0
100
AcDbText
 10
265.6234660336
 20
303.339683929
 40
7.5
  1
ＦＹＹホルダー
 41
0.9986666666667
  7
STANDARD
100
AcDbText
  0
TEXT
  5
467
100
AcDbEntity
  8
_0-0_
  6
CONTINUOUS
 62
     0
100
AcDbText
 10
616.9984660336
 20
303.339683929
 40
7.5
  1
 4
  7
STANDARD
100
AcDbText
  0
TEXT
  5
468
100
AcDbEntity
  8
_0-0_
  6
CONTINUOUS
 62
     0
100
AcDbText
 10
641.3734660336
 20
303.339683929
 40
7.5
  1
個
 41
0.9986666666667
  7
STANDARD
100
AcDbText
  0
TEXT
  5
469
100
AcDbEntity
  8
_0-0_
  6
CONTINUOUS
 62
     0
100
AcDbText
 10
262.4984660336
 20
285.339683929
 40
7.5
  1
ＦＹＹホルダースプリング
 41
0.9986666666667
  7
STANDARD
100
AcDbText
  0
TEXT
  5
46A
100
AcDbEntity
  8
_0-0_
  6
CONTINUOUS
 62
     0
100
AcDbText
 10
616.9984660336
 20
285.339683929
 40
7.5
  1
 8
  7
STANDARD
100
AcDbText
  0
TEXT
  5
46B
100
AcDbEntity
  8
_0-0_
  6
CONTINUOUS
 62
     0
100
AcDbText
 10
641.3734660336
 20
285.339683929
 40
7.5
  1
〃
 41
0.9986666666667
  7
STANDARD
100
AcDbText
  0
TEXT
  5
46C
100
AcDbEntity
  8
_0-0_
  6
CONTINUOUS
 62
     0
100
AcDbText
 10
263.7484660336
 20
267.339683929
 40
7.5
  1
ＦＹＹフレームナット
 41
0.9986666666667
  7
STANDARD
100
AcDbText
  0
TEXT
  5
46D
100
AcDbEntity
  8
_0-0_
  6
CONTINUOUS
 62
     0
100
AcDbText
 10
616.9984660336
 20
267.339683929
 40
7.5
  1
 8
  7
STANDARD
100
AcDbText
  0
TEXT
  5
46E
100
AcDbEntity
  8
_0-0_
  6
CONTINUOUS
 62
     0
100
AcDbText
 10
641.3734660336
 20
267.339683929
 40
7.5
  1
〃
 41
0.9986666666667
  7
STANDARD
100
AcDbText
  0
TEXT
  5
46F
100
AcDbEntity
  8
_0-0_
  6
CONTINUOUS
 62
     0
100
AcDbText
 10
263.7484660336
 20
249.339683929
 40
7.5
  1
ＦＹＹ水切ジョイント
 41
0.9986666666667
  7
STANDARD
100
AcDbText
  0
TEXT
  5
470
100
AcDbEntity
  8
_0-0_
  6
CONTINUOUS
 62
     0
100
AcDbText
 10
616.9984660336
 20
249.339683929
 40
7.5
  1
 1
  7
STANDARD
100
AcDbText
  0
TEXT
  5
471
100
AcDbEntity
  8
_0-0_
  6
CONTINUOUS
 62
     0
100
AcDbText
 10
641.3734660336
 20
249.339683929
 40
7.5
  1
〃
 41
0.9986666666667
  7
STANDARD
100
AcDbText
  0
TEXT
  5
472
100
AcDbEntity
  8
_0-0_
  6
CONTINUOUS
 62
     0
100
AcDbText
 10
266.8734660336
 20
213.339683929
 40
7.5
  1
止水補助板
  7
STANDARD
100
AcDbText
  0
TEXT
  5
473
100
AcDbEntity
  8
_0-0_
  6
CONTINUOUS
 62
     0
100
AcDbText
 10
571.3734660336
 20
213.339683929
 40
7.5
  1
2100
 41
0.9986666666667
  7
STANDARD
100
AcDbText
  0
TEXT
  5
474
100
AcDbEntity
  8
_0-0_
  6
CONTINUOUS
 62
     0
100
AcDbText
 10
616.9984660336
 20
213.339683929
 40
7.5
  1
 1
  7
STANDARD
100
AcDbText
  0
TEXT
  5
475
100
AcDbEntity
  8
_0-0_
  6
CONTINUOUS
 62
     0
100
AcDbText
 10
641.3734660336
 20
213.339683929
 40
7.5
  1
〃
 41
0.9986666666667
  7
STANDARD
100
AcDbText
  0
TEXT
  5
476
100
AcDbEntity
  8
_0-0_
  6
CONTINUOUS
 62
     0
100
AcDbText
 10
616.9984660336
 20
195.339683929
 40
7.5
  1
10
  7
STANDARD
100
AcDbText
  0
TEXT
  5
477
100
AcDbEntity
  8
_0-0_
  6
CONTINUOUS
 62
     0
100
AcDbText
 10
641.3734660336
 20
195.339683929
 40
7.5
  1
本
 41
0.9986666666667
  7
STANDARD
100
AcDbText
  0
TEXT
  5
478
100
AcDbEntity
  8
_0-0_
  6
CONTINUOUS
 62
     0
100
AcDbText
 10
264.9984660336
 20
177.339683929
 40
7.5
  1
ステン六角ボルト
  7
STANDARD
100
AcDbText
  0
TEXT
  5
479
100
AcDbEntity
  8
_0-0_
  6
CONTINUOUS
 62
     0
100
AcDbText
 10
616.9984660336
 20
177.339683929
 40
7.5
  1
10
  7
STANDARD
100
AcDbText
  0
TEXT
  5
47A
100
AcDbEntity
  8
_0-0_
  6
CONTINUOUS
 62
     0
100
AcDbText
 10
641.3734660336
 20
177.339683929
 40
7.5
  1
〃
 41
0.9986666666667
  7
STANDARD
100
AcDbText
  0
TEXT
  5
47B
100
AcDbEntity
  8
_0-0_
  6
CONTINUOUS
 62
     0
100
AcDbText
 10
264.3734660336
 20
159.339683929
 40
7.5
  1
アジャストアンカー
  7
STANDARD
100
AcDbText
  0
TEXT
  5
47C
100
AcDbEntity
  8
_0-0_
  6
CONTINUOUS
 62
     0
100
AcDbText
 10
616.9984660336
 20
159.339683929
 40
7.5
  1
10
  7
STANDARD
100
AcDbText
  0
TEXT
  5
47D
100
AcDbEntity
  8
_0-0_
  6
CONTINUOUS
 62
     0
100
AcDbText
 10
641.3734660336
 20
159.339683929
 40
7.5
  1
〃
 41
0.9986666666667
  7
STANDARD
100
AcDbText
  0
TEXT
  5
47E
100
AcDbEntity
  8
_0-0_
  6
CONTINUOUS
 62
     0
100
AcDbText
 10
264.9984660336
 20
141.339683929
 40
7.5
  1
ステンワッシャー
  7
STANDARD
100
AcDbText
  0
TEXT
  5
47F
100
AcDbEntity
  8
_0-0_
  6
CONTINUOUS
 62
     0
100
AcDbText
 10
616.9984660336
 20
141.339683929
 40
7.5
  1
10
  7
STANDARD
100
AcDbText
  0
TEXT
  5
480
100
AcDbEntity
  8
_0-0_
  6
CONTINUOUS
 62
     0
100
AcDbText
 10
641.3734660336
 20
141.339683929
 40
7.5
  1
枚
 41
0.9986666666667
  7
STANDARD
100
AcDbText
  0
TEXT
  5
481
100
AcDbEntity
  8
_0-0_
  6
CONTINUOUS
 62
     0
100
AcDbText
 10
265.4999885839
 20
232.0439071947
 40
7.49
  1
ウォーターガード
  7
STANDARD
100
AcDbText
  0
TEXT
  5
482
100
AcDbEntity
  8
_0-0_
  6
CONTINUOUS
 62
     0
100
AcDbText
 10
642.2034823477
 20
232.6848790899
 40
7.5
  1
枚
 41
0.9986666666667
  7
STANDARD
100
AcDbText
  0
TEXT
  5
483
100
AcDbEntity
  8
_0-0_
  6
CONTINUOUS
 62
     0
100
AcDbText
 10
571.5784823477
 20
232.6848790899
 40
7.5
  1
2060
 41
0.9986666666667
  7
STANDARD
100
AcDbText
  0
TEXT
  5
484
100
AcDbEntity
  8
_0-0_
  6
CONTINUOUS
 62
     0
100
AcDbText
 10
617.8284823477
 20
232.6848790899
 40
7.5
  1
 2
 41
0.9986666666667
  7
STANDARD
100
AcDbText
  0
TEXT
  5
485
100
AcDbEntity
  8
_0-0_
  6
CONTINUOUS
 62
     0
100
AcDbText
 10
414.0492333924
 20
232.5036661707
 40
7.49
  1
ＳＰＶＣ
 41
1.001335113485
  7
STANDARD
100
AcDbText
  0
TEXT
  5
486
100
AcDbEntity
  8
_0-0_
  6
CONTINUOUS
 62
     0
100
AcDbText
 10
266.2484660336
 20
195.339683929
 40
7.5
  1
ステン小ねじ
 41
0.9986666666667
  7
STANDARD
100
AcDbText
  0
TEXT
  5
487
100
AcDbEntity
  8
_0-0_
  6
CONTINUOUS
 62
     0
100
AcDbText
 10
413.4359660336
 20
303.339683929
 40
7.5
  1
３００ＦＹＹＨ－９００
  7
STANDARD
100
AcDbText
  0
TEXT
  5
488
100
AcDbEntity
  8
_0-0_
  6
CONTINUOUS
 62
     0
100
AcDbText
 10
413.4359660336
 20
249.339683929
 40
7.5
  1
３００ＦＹＹＪ－９００
  7
STANDARD
100
AcDbText
  0
TEXT
  5
489
100
AcDbEntity
  8
_0-0_
  6
CONTINUOUS
 62
     0
100
AcDbText
 10
416.2484660336
 20
213.339683929
 40
7.5
  1
ＦＳ９００
  7
STANDARD
100
AcDbText
  0
TEXT
  5
48A
100
AcDbEntity
  8
_0-0_
  6
CONTINUOUS
 62
     0
100
AcDbText
 10
416.5609660336
 20
195.339683929
 40
7.5
  1
なべＭ６×３５
 41
0.9986666666667
  7
STANDARD
100
AcDbText
  0
TEXT
  5
48B
100
AcDbEntity
  8
_0-0_
  6
CONTINUOUS
 62
     0
100
AcDbText
 10
417.8109660336
 20
177.339683929
 40
7.5
  1
Ｍ６×４０
 41
0.9986666666667
  7
STANDARD
100
AcDbText
  0
TEXT
  5
48C
100
AcDbEntity
  8
_0-0_
  6
CONTINUOUS
 62
     0
100
AcDbText
 10
417.1859660336
 20
159.339683929
 40
7.5
  1
ＡＧ－６６０
  7
STANDARD
100
AcDbText
  0
TEXT
  5
48D
100
AcDbEntity
  8
_0-0_
  6
CONTINUOUS
 62
     0
100
AcDbText
 10
415.6234660336
 20
141.339683929
 40
7.5
  1
１.５×１８×６.５穴
 41
0.9986666666667
  7
STANDARD
100
AcDbText
  0
TEXT
  5
48E
100
AcDbEntity
  8
_0-0_
  6
CONTINUOUS
 62
     0
100
AcDbText
 10
571.3734660336
 20
123.339683929
 40
7.49
  1
2010
  7
STANDARD
100
AcDbText
  0
TEXT
  5
48F
100
AcDbEntity
  8
_0-0_
  6
CONTINUOUS
 62
     0
100
AcDbText
 10
616.9984660336
 20
123.339683929
 40
7.49
  1
 2
 41
1.001335113485
  7
STANDARD
100
AcDbText
  0
TEXT
  5
490
100
AcDbEntity
  8
_0-0_
  6
CONTINUOUS
 62
     0
100
AcDbText
 10
641.3734660336
 20
123.339683929
 40
7.49
  1
〃
  7
STANDARD
100
AcDbText
  0
TEXT
  5
491
100
AcDbEntity
  8
_0-0_
  6
CONTINUOUS
 62
     0
100
AcDbText
 10
266.2484660336
 20
123.339683929
 40
7.5
  1
ブチルテープ
 41
0.9986666666667
  7
STANDARD
100
AcDbText
  0
TEXT
  5
492
100
AcDbEntity
  8
_0-0_
  6
CONTINUOUS
 62
     0
100
AcDbText
 10
571.3734660336
 20
123.339683929
 40
7.5
  1
6000
 41
0.9986666666667
  7
STANDARD
100
AcDbText
  0
TEXT
  5
493
100
AcDbEntity
  8
_0-0_
  6
CONTINUOUS
 62
     0
100
AcDbText
 10
616.9984660336
 20
123.339683929
 40
7.5
  1
 1
  7
STANDARD
100
AcDbText
  0
TEXT
  5
494
100
AcDbEntity
  8
_0-0_
  6
CONTINUOUS
 62
     0
100
AcDbText
 10
641.3734660336
 20
123.339683929
 40
7.5
  1
巻
 41
0.9986666666667
  7
STANDARD
100
AcDbText
  0
TEXT
  5
495
100
AcDbEntity
  8
_0-0_
  6
CONTINUOUS
 62
     0
100
AcDbText
 10
416.5609660336
 20
123.339683929
 40
7.5
  1
ｔ１．０×ｗ３０
 41
0.9986666666667
  7
STANDARD
100
AcDbText
  0
TEXT
  5
496
100
AcDbEntity
  8
_0-0_
  6
CONTINUOUS
 62
     0
100
AcDbText
 10
246.4984660336
 20
123.339683929
 40
7.5
  1
※
  7
STANDARD
100
AcDbText
  0
CIRCLE
  5
497
100
AcDbEntity
  8
_0-0_
  6
CONTINUOUS
 62
     0
100
AcDbCircle
 10
1062.167326042
 20
644.7901022451
 40
0.9
  0
LINE
  5
498
100
AcDbEntity
  8
_0-0_
  6
CONTINUOUS
 62
     0
100
AcDbLine
 10
1062.152762211
 20
644.7648769508
 11
1087.98510126
 21
689.5078006609
  0
TEXT
  5
499
100
AcDbEntity
  8
_0-0_
  6
CONTINUOUS
 62
     0
100
AcDbText
 10
1088.73510126
 20
690.2039530836
 40
9
  1
1
  7
STANDARD
100
AcDbText
  0
TEXT
  5
49A
100
AcDbEntity
  8
_0-0_
  6
CONTINUOUS
 62
     0
100
AcDbText
 10
1087.44845547
 20
669.4669619437
 40
9
  1
6
  7
STANDARD
100
AcDbText
  0
TEXT
  5
49B
100
AcDbEntity
  8
_0-3_
  6
CONTINUOUS
 62
     0
100
AcDbText
 10
902.8822813982
 20
655.8371850868
 40
9
  1
2
  7
STANDARD
100
AcDbText
  0
TEXT
  5
49C
100
AcDbEntity
  8
_0-3_
  6
CONTINUOUS
 62
     0
100
AcDbText
 10
924.4174598504
 20
655.9018248303
 40
9
  1
3
  7
STANDARD
100
AcDbText
  0
CIRCLE
  5
49D
100
AcDbEntity
  8
_0-3_
  6
CONTINUOUS
 62
     0
100
AcDbCircle
 10
878.6913233618
 20
637.9524333182
 40
0.9
  0
LINE
  5
49E
100
AcDbEntity
  8
_0-3_
  6
CONTINUOUS
 62
     0
100
AcDbLine
 10
878.6890921806
 20
637.9537214912
 11
895.6597228008
 21
667.3477159618
  0
LINE
  5
49F
100
AcDbEntity
  8
_0-2_
  6
CONTINUOUS
 62
     0
100
AcDbLine
 10
882.7864772857
 20
606.2468960227
 11
882.7744315126
 21
625.1664442133
  0
LINE
  5
4A0
100
AcDbEntity
  8
_0-2_
  6
CONTINUOUS
 62
     0
100
AcDbLine
 10
879.7864772857
 20
606.2468960227
 11
879.7735488132
 21
625.1664430481
  0
TEXT
  5
4A1
100
AcDbEntity
  8
_0-2_
  6
CONTINUOUS
 62
     0
100
AcDbText
 10
357.0615362712
 20
677.6324217641
 40
9
  1
7
  7
STANDARD
100
AcDbText
  0
LINE
  5
4A2
100
AcDbEntity
  8
_0-2_
  6
CONTINUOUS
 62
     0
100
AcDbLine
 10
374.7766386424
 20
637.9333992995
 11
360.8046319672
 21
676.3211684361
  0
TEXT
  5
4A3
100
AcDbEntity
  8
_0-0_
  6
CONTINUOUS
 62
     0
100
AcDbText
 10
527.4687050662
 20
565.0612836464
 40
9
  1
8
  7
STANDARD
100
AcDbText
  0
TEXT
  5
4A4
100
AcDbEntity
  8
_0-3_
  6
CONTINUOUS
 62
     0
100
AcDbText
 10
840.1011788293
 20
545.3167252266
 40
9
  1
11
  7
STANDARD
100
AcDbText
  0
TEXT
  5
4A5
100
AcDbEntity
  8
_0-3_
  6
CONTINUOUS
 62
     0
100
AcDbText
 10
835.4833972874
 20
577.179745112
 40
9
  1
12
  7
STANDARD
100
AcDbText
  0
TEXT
  5
4A6
100
AcDbEntity
  8
_0-3_
  6
CONTINUOUS
 62
     0
100
AcDbText
 10
878.9884483582
 20
568.5678071277
 40
9
  1
10
  7
STANDARD
100
AcDbText
  0
TEXT
  5
4A7
100
AcDbEntity
  8
_0-3_
  6
CONTINUOUS
 62
     0
100
AcDbText
 10
882.4804061084
 20
583.8028893827
 40
9
  1
5
  7
STANDARD
100
AcDbText
  0
TEXT
  5
4A8
100
AcDbEntity
  8
_0-3_
  6
CONTINUOUS
 62
     0
100
AcDbText
 10
896.4097228008
 20
668.0438683845
 40
9
  1
4
  7
STANDARD
100
AcDbText
  0
TEXT
  5
4A9
100
AcDbEntity
  8
_0-3_
  6
CONTINUOUS
 62
     0
100
AcDbText
 10
880.3987815765
 20
664.5221751623
 40
9
  1
9
  7
STANDARD
100
AcDbText
  0
ENDSEC
  0
SECTION
  2
OBJECTS
  0
DICTIONARY
  5
4AA
100
AcDbDictionary
  3
ACAD_GROUP
350
4AB
  3
ACAD_IMAGE_DICT
350
4AC
  3
ACAD_MLINESTYLE
350
4AD
  0
DICTIONARY
  5
4AB
330
4AA
100
AcDbDictionary
  0
DICTIONARY
  5
4AC
100
AcDbDictionary
  0
DICTIONARY
  5
4AD
100
AcDbDictionary
  3
STANDARD
350
4AE
  0
RASTERVARIABLES
  5
4AF
100
AcDbRasterVariables
 90
     0
 70
     1
 71
     1
 72
     0
  0
MLINESTYLE
  5
4AE
100
AcDbMlineStyle
  2
STANDARD
 70
     0
  3

 62
   256
 51
90
 52
90
 71
     0
  0
ENDSEC
  0
EOF
