  0
SECTION
  2
HEADER
  9
$ACADVER
  1
AC1015
  9
$DWGCODEPAGE
  3
ANSI_932
  9
$EXTMIN
 10
15
 20
16.00000000015
  9
$EXTMAX
 10
1245
 20
865.9999999998
  9
$LIMMIN
 10
0
 20
0
  9
$LIMMAX
 10
1260
 20
882
  9
$LTSCALE
 40
3
  9
$DIMSCALE
 40
3
  9
$DIMSTYLE
  2
M7DIMSTL
  9
$HANDSEED
  5
7FFFFFFF
  9
$MEASUREMENT
 70
     1
  0
ENDSEC
  0
SECTION
  2
CLASSES
  0
CLASS
  1
CSOFTARXCLASS
  2
CSoftArxClass
  3
CSRasterApi
 90
     0
280
     0
281
     0
  0
CLASS
  1
IMAGEDEF
  2
AcDbRasterImageDef
  3
ISM
 90
     0
280
     0
281
     0
  0
CLASS
  1
RASTERVARIABLES
  2
AcDbRasterVariables
  3
ISM
 90
     0
280
     0
281
     0
  0
CLASS
  1
IMAGE
  2
AcDbRasterImage
  3
ISM
 90
   127
280
     0
281
     0
  0
CLASS
  1
IMAGEDEF_REACTOR
  2
AcDbRasterImageDefReactor
  3
ISM
 90
     1
280
     0
281
     0
  0
CLASS
  1
HATCH
  2
AcDbHatch
  3
M7
 90
     0
280
     0
281
     1
  0
ENDSEC
  0
SECTION
  2
TABLES
  0
TABLE
  2
VPORT
  5
FF
100
AcDbSymbolTable
 70
     5
  0
VPORT
  5
100
100
AcDbSymbolTableRecord
100
AcDbViewportTableRecord
  2
*ACTIVE
 70
     0
 10
0
 20
0
 11
1
 21
1
 12
630
 22
441
 13
0
 23
0
 14
0
 24
0
 15
0
 25
0
 16
0
 26
0
 36
1
 17
0
 27
0
 37
0
 40
441
 41
1.428571428571
 42
50
 43
0
 44
0
 50
0
 51
0
 71
     0
 72
   100
 73
     1
 74
     3
 75
     0
 76
     0
 77
     0
 78
     0
  0
ENDTAB
  0
TABLE
  2
LTYPE
  5
101
100
AcDbSymbolTable
 70
     1
  0
LTYPE
  5
102
100
AcDbSymbolTableRecord
100
AcDbLinetypeTableRecord
  2
BYBLOCK
 70
     0
  3

 72
    65
 73
     0
 40
0
  0
LTYPE
  5
103
100
AcDbSymbolTableRecord
100
AcDbLinetypeTableRecord
  2
BYLAYER
 70
     0
  3

 72
    65
 73
     0
 40
0
  0
LTYPE
  5
104
100
AcDbSymbolTableRecord
100
AcDbLinetypeTableRecord
  2
CONTINUOUS
 70
     0
  3
Solid line
 72
    65
 73
     0
 40
0
  0
LTYPE
  5
105
100
AcDbSymbolTableRecord
100
AcDbLinetypeTableRecord
  2
DOT
 70
     0
  3
...............................
 72
    65
 73
     2
 40
2
 49
1
 74
     0
 49
-1
 74
     0
  0
LTYPE
  5
106
100
AcDbSymbolTableRecord
100
AcDbLinetypeTableRecord
  2
DASHED
 70
     0
  3
- - - - - - - - - - - - - - - -
 72
    65
 73
     2
 40
4
 49
2
 74
     0
 49
-2
 74
     0
  0
LTYPE
  5
107
100
AcDbSymbolTableRecord
100
AcDbLinetypeTableRecord
  2
DASHED2
 70
     0
  3
-- -- -- -- -- -- -- -- -- -- -
 72
    65
 73
     2
 40
8
 49
5
 74
     0
 49
-3
 74
     0
  0
LTYPE
  5
108
100
AcDbSymbolTableRecord
100
AcDbLinetypeTableRecord
  2
CENTER
 70
     0
  3
--------- - --------- - -------
 72
    65
 73
     4
 40
23
 49
20
 74
     0
 49
-1
 74
     0
 49
1
 74
     0
 49
-1
 74
     0
  0
LTYPE
  5
109
100
AcDbSymbolTableRecord
100
AcDbLinetypeTableRecord
  2
CENTERX2
 70
     0
  3
-------------- - --------------
 72
    65
 73
     4
 40
43
 49
40
 74
     0
 49
-1
 74
     0
 49
1
 74
     0
 49
-1
 74
     0
  0
LTYPE
  5
10A
100
AcDbSymbolTableRecord
100
AcDbLinetypeTableRecord
  2
CENTER2
 70
     0
  3
------ - ----- - ------ - -----
 72
    65
 73
     4
 40
13
 49
10
 74
     0
 49
-1
 74
     0
 49
1
 74
     0
 49
-1
 74
     0
  0
LTYPE
  5
10B
100
AcDbSymbolTableRecord
100
AcDbLinetypeTableRecord
  2
PHANTOM
 70
     0
  3
-------- - - ------- - - ------
 72
    65
 73
     6
 40
25
 49
20
 74
     0
 49
-1
 74
     0
 49
1
 74
     0
 49
-1
 74
     0
 49
1
 74
     0
 49
-1
 74
     0
  0
LTYPE
  5
10C
100
AcDbSymbolTableRecord
100
AcDbLinetypeTableRecord
  2
PHANTOMX2
 70
     0
  3
------------- - - -------------
 72
    65
 73
     6
 40
45
 49
40
 74
     0
 49
-1
 74
     0
 49
1
 74
     0
 49
-1
 74
     0
 49
1
 74
     0
 49
-1
 74
     0
  0
LTYPE
  5
10D
100
AcDbSymbolTableRecord
100
AcDbLinetypeTableRecord
  2
PHANTOM2
 70
     0
  3
---- - - ---- - - ---- - - ----
 72
    65
 73
     6
 40
15
 49
10
 74
     0
 49
-1
 74
     0
 49
1
 74
     0
 49
-1
 74
     0
 49
1
 74
     0
 49
-1
 74
     0
  0
LTYPE
  5
10E
100
AcDbSymbolTableRecord
100
AcDbLinetypeTableRecord
  2
ACAD_ISO06W100
 70
     0
  3
------------ - - - ------------
 72
    65
 73
     8
 40
47
 49
40
 74
     0
 49
-1
 74
     0
 49
1
 74
     0
 49
-1
 74
     0
 49
1
 74
     0
 49
-1
 74
     0
 49
1
 74
     0
 49
-1
 74
     0
  0
LTYPE
  5
10F
100
AcDbSymbolTableRecord
100
AcDbLinetypeTableRecord
  2
ACAD_ISO14W100
 70
     0
  3
---- - - - -------- - - - -----
 72
    65
 73
     8
 40
27
 49
20
 74
     0
 49
-1
 74
     0
 49
1
 74
     0
 49
-1
 74
     0
 49
1
 74
     0
 49
-1
 74
     0
 49
1
 74
     0
 49
-1
 74
     0
  0
LTYPE
  5
110
100
AcDbSymbolTableRecord
100
AcDbLinetypeTableRecord
  2
ACAD_ISO11W100
 70
     0
  3
------- ------ - ------- ------
 72
    65
 73
     6
 40
44
 49
20
 74
     0
 49
-1
 74
     0
 49
20
 74
     0
 49
-1
 74
     0
 49
1
 74
     0
 49
-1
 74
     0
  0
LTYPE
  5
111
100
AcDbSymbolTableRecord
100
AcDbLinetypeTableRecord
  2
ACAD_ISO13W100
 70
     0
  3
------ ------ - - ------ ------
 72
    65
 73
     8
 40
46
 49
20
 74
     0
 49
-1
 74
     0
 49
20
 74
     0
 49
-1
 74
     0
 49
1
 74
     0
 49
-1
 74
     0
 49
1
 74
     0
 49
-1
 74
     0
  0
LTYPE
  5
112
100
AcDbSymbolTableRecord
100
AcDbLinetypeTableRecord
  2
ACAD_ISO15W100
 70
     0
  3
------ ----- - - - ------ -----
 72
    65
 73
    10
 40
48
 49
20
 74
     0
 49
-1
 74
     0
 49
20
 74
     0
 49
-1
 74
     0
 49
1
 74
     0
 49
-1
 74
     0
 49
1
 74
     0
 49
-1
 74
     0
 49
1
 74
     0
 49
-1
 74
     0
  0
LTYPE
  5
113
100
AcDbSymbolTableRecord
100
AcDbLinetypeTableRecord
  2
HIDDEN
 70
     0
  3
. . . . . . . . . . . . . . . .
 72
    65
 73
     2
 40
1.5
 49
1
 74
     0
 49
-0.5
 74
     0
  0
ENDTAB
  0
TABLE
  2
LAYER
  5
114
100
AcDbSymbolTable
 70
     1
  0
LAYER
  5
115
100
AcDbSymbolTableRecord
100
AcDbLayerTableRecord
  2
0
 70
     0
 62
     7
  6
CONTINUOUS
390
116
  0
LAYER
  5
117
100
AcDbSymbolTableRecord
100
AcDbLayerTableRecord
  2
_0-0_
 70
     0
 62
     7
  6
CONTINUOUS
390
   278
  0
LAYER
  5
118
100
AcDbSymbolTableRecord
100
AcDbLayerTableRecord
  2
_0-1_PRO0
 70
     0
 62
     7
  6
CONTINUOUS
390
   278
  0
LAYER
  5
119
100
AcDbSymbolTableRecord
100
AcDbLayerTableRecord
  2
_0-3_
 70
     0
 62
     7
  6
CONTINUOUS
390
   278
  0
LAYER
  5
11A
100
AcDbSymbolTableRecord
100
AcDbLayerTableRecord
  2
_1-0_
 70
     0
 62
     7
  6
CONTINUOUS
390
   278
  0
LAYER
  5
11B
100
AcDbSymbolTableRecord
100
AcDbLayerTableRecord
  2
_2-0_
 70
     0
 62
     7
  6
CONTINUOUS
390
   278
  0
LAYER
  5
11C
100
AcDbSymbolTableRecord
100
AcDbLayerTableRecord
  2
_a-0_
 70
     0
 62
     7
  6
CONTINUOUS
390
   278
  0
LAYER
  5
11D
100
AcDbSymbolTableRecord
100
AcDbLayerTableRecord
  2
ADD_LINE
 70
     0
 62
     7
  6
CONTINUOUS
390
   278
  0
ENDTAB
  0
TABLE
  2
STYLE
  5
11E
100
AcDbSymbolTable
 70
     1
  0
STYLE
  5
11F
100
AcDbSymbolTableRecord
100
AcDbTextStyleTableRecord
  2
STANDARD
 70
     0
 40
0
 41
0
 50
0
 71
     0
 42
1
  3
txt
  4
bigfont
  0
STYLE
  5
120
100
AcDbSymbolTableRecord
100
AcDbTextStyleTableRecord
  2
VSTANDARD
 70
     4
 40
0
 41
0
 50
0
 71
     0
 42
1
  3
txt
  4
bigfont
  0
ENDTAB
  0
TABLE
  2
VIEW
  5
121
100
AcDbSymbolTable
 70
     0
  0
ENDTAB
  0
TABLE
  2
UCS
  5
122
100
AcDbSymbolTable
 70
     0
  0
ENDTAB
  0
TABLE
  2
APPID
  5
123
100
AcDbSymbolTable
 70
     1
  0
APPID
  5
124
100
AcDbSymbolTableRecord
100
AcDbRegAppTableRecord
  2
ACAD
 70
     0
  0
ENDTAB
  0
TABLE
  2
DIMSTYLE
  5
125
100
AcDbSymbolTable
 70
     1
100
AcDbDimStyleTable
 71
     0
  0
DIMSTYLE
105
126
100
AcDbSymbolTableRecord
100
AcDbDimStyleTableRecord
  2
M7DIMSTL
 70
     0
  3

  4

  5

  6

  7

 40
3
 41
2.5
 42
0.625
 43
3.75
 44
1.25
 45
0
 46
0
 47
0
 48
0
140
2.5
141
2.5
142
0
143
0.03937007874016
144
1
145
0
146
1
147
0.625
 71
     0
 72
     0
 73
     0
 74
     0
 75
     0
 76
     0
 77
     1
 78
     8
170
     0
171
     3
172
     1
173
     0
174
     0
175
     0
176
     0
177
     0
178
     0
270
     2
271
     2
272
     2
273
     2
274
     3
340
11F
275
     0
280
     0
281
     0
282
     0
283
     0
284
     8
285
     0
286
     0
287
     3
288
     0
  0
ENDTAB
  0
TABLE
  2
BLOCK_RECORD
  5
127
100
AcDbSymbolTable
 70
     2
  0
BLOCK_RECORD
  5
128
100
AcDbSymbolTableRecord
100
AcDbBlockTableRecord
  2
*MODEL_SPACE
  0
BLOCK_RECORD
  5
129
100
AcDbSymbolTableRecord
100
AcDbBlockTableRecord
  2
*PAPER_SPACE
  0
BLOCK_RECORD
  5
12A
100
AcDbSymbolTableRecord
100
AcDbBlockTableRecord
  2
_DOT
  0
BLOCK_RECORD
  5
12B
100
AcDbSymbolTableRecord
100
AcDbBlockTableRecord
  2
_OPEN30
  0
BLOCK_RECORD
  5
12C
100
AcDbSymbolTableRecord
100
AcDbBlockTableRecord
  2
_ClosedBlank
  0
BLOCK_RECORD
  5
12D
100
AcDbSymbolTableRecord
100
AcDbBlockTableRecord
  2
_Origin
  0
BLOCK_RECORD
  5
12E
100
AcDbSymbolTableRecord
100
AcDbBlockTableRecord
  2
_Oblique
  0
BLOCK_RECORD
  5
12F
100
AcDbSymbolTableRecord
100
AcDbBlockTableRecord
  2
_Origin2
  0
BLOCK_RECORD
  5
130
100
AcDbSymbolTableRecord
100
AcDbBlockTableRecord
  2
_BoxBlank
  0
BLOCK_RECORD
  5
131
100
AcDbSymbolTableRecord
100
AcDbBlockTableRecord
  2
_BoxFilled
  0
BLOCK_RECORD
  5
132
100
AcDbSymbolTableRecord
100
AcDbBlockTableRecord
  2
_Integral
  0
ENDTAB
  0
ENDSEC
  0
SECTION
  2
BLOCKS
  0
BLOCK
  5
133
100
AcDbEntity
  8
0
100
AcDbBlockBegin
  2
*MODEL_SPACE
 70
     0
 10
0
 20
0
  3
*MODEL_SPACE
  1

  0
ENDBLK
  5
134
100
AcDbEntity
  8
0
100
AcDbBlockEnd
  0
BLOCK
  5
135
100
AcDbEntity
 67
     1
  8
0
100
AcDbBlockBegin
  2
*PAPER_SPACE
 70
     0
 10
0
 20
0
  3
*PAPER_SPACE
  1

  0
ENDBLK
  5
136
100
AcDbEntity
 67
     1
  8
0
100
AcDbBlockEnd
  0
BLOCK
  5
137
100
AcDbEntity
 67
     1
  8
0
100
AcDbBlockBegin
  2
_DOT
 70
     0
 10
0
 20
0
  3
_DOT
  1

  0
LWPOLYLINE
  5
138
100
AcDbEntity
  8
0
  6
BYBLOCK
 62
     0
100
AcDbPolyline
 90
     2
 70
     1
 43
0.5
 10
-0.25
 20
0
 42
1
 10
0.25
 20
0
 42
1
  0
LINE
  5
139
100
AcDbEntity
  8
0
  6
BYBLOCK
 62
     0
100
AcDbLine
 10
-0.5
 20
0
 11
-1
 21
0
  0
ENDBLK
  5
13A
100
AcDbEntity
  8
0
100
AcDbBlockEnd
  0
BLOCK
  5
13B
100
AcDbEntity
 67
     1
  8
0
100
AcDbBlockBegin
  2
_OPEN30
 70
     0
 10
0
 20
0
  3
_OPEN30
  1

  0
LINE
  5
13C
100
AcDbEntity
  8
0
  6
BYBLOCK
 62
     0
100
AcDbLine
 10
-1
 20
0.26794919
 11
0
 21
0
  0
LINE
  5
13D
100
AcDbEntity
  8
0
  6
BYBLOCK
 62
     0
100
AcDbLine
 10
-1
 20
-0.26794919
 11
0
 21
0
  0
LINE
  5
13E
100
AcDbEntity
  8
0
  6
BYBLOCK
 62
     0
100
AcDbLine
 10
0
 20
0
 11
-1
 21
0
  0
ENDBLK
  5
13F
100
AcDbEntity
  8
0
100
AcDbBlockEnd
  0
BLOCK
  5
140
100
AcDbEntity
 67
     1
  8
0
100
AcDbBlockBegin
  2
_ClosedBlank
 70
     0
 10
0
 20
0
  3
_ClosedBlank
  1

  0
LINE
  5
141
100
AcDbEntity
  8
0
  6
BYBLOCK
 62
     0
100
AcDbLine
 10
-1
 20
0.1666666666667
 11
0
 21
0
  0
LINE
  5
142
100
AcDbEntity
  8
0
  6
BYBLOCK
 62
     0
100
AcDbLine
 10
0
 20
0
 11
-1
 21
-0.1666666666667
  0
LINE
  5
143
100
AcDbEntity
  8
0
  6
BYBLOCK
 62
     0
100
AcDbLine
 10
-1
 20
0.1666666666667
 11
-1
 21
-0.1666666666667
  0
ENDBLK
  5
144
100
AcDbEntity
  8
0
100
AcDbBlockEnd
  0
BLOCK
  5
145
100
AcDbEntity
 67
     1
  8
0
100
AcDbBlockBegin
  2
_Origin
 70
     0
 10
0
 20
0
  3
_Origin
  1

  0
CIRCLE
  5
146
100
AcDbEntity
  8
0
  6
BYBLOCK
 62
     0
100
AcDbCircle
 10
0
 20
0
 40
0.5
  0
LINE
  5
147
100
AcDbEntity
  8
0
  6
BYBLOCK
 62
     0
100
AcDbLine
 10
0
 20
0
 11
-1
 21
0
  0
ENDBLK
  5
148
100
AcDbEntity
  8
0
100
AcDbBlockEnd
  0
BLOCK
  5
149
100
AcDbEntity
 67
     1
  8
0
100
AcDbBlockBegin
  2
_Oblique
 70
     0
 10
0
 20
0
  3
_Oblique
  1

  0
LINE
  5
14A
100
AcDbEntity
  8
0
  6
BYBLOCK
 62
     0
100
AcDbLine
 10
-0.5
 20
-0.5
 11
0.5
 21
0.5
  0
ENDBLK
  5
14B
100
AcDbEntity
  8
0
100
AcDbBlockEnd
  0
BLOCK
  5
14C
100
AcDbEntity
 67
     1
  8
0
100
AcDbBlockBegin
  2
_Origin2
 70
     0
 10
0
 20
0
  3
_Origin2
  1

  0
CIRCLE
  5
14D
100
AcDbEntity
  8
0
  6
BYBLOCK
 62
     0
100
AcDbCircle
 10
0
 20
0
 40
0.5
  0
CIRCLE
  5
14E
100
AcDbEntity
  8
0
  6
BYBLOCK
 62
     0
100
AcDbCircle
 10
0
 20
0
 40
0.25
  0
LINE
  5
14F
100
AcDbEntity
  8
0
  6
BYBLOCK
 62
     0
100
AcDbLine
 10
-0.5
 20
0
 11
-1
 21
0
  0
ENDBLK
  5
150
100
AcDbEntity
  8
0
100
AcDbBlockEnd
  0
BLOCK
  5
151
100
AcDbEntity
 67
     1
  8
0
100
AcDbBlockBegin
  2
_BoxBlank
 70
     0
 10
0
 20
0
  3
_BoxBlank
  1

  0
LINE
  5
152
100
AcDbEntity
  8
0
  6
BYBLOCK
 62
     0
100
AcDbLine
 10
-0.5
 20
-0.5
 11
0.5
 21
-0.5
  0
LINE
  5
153
100
AcDbEntity
  8
0
  6
BYBLOCK
 62
     0
100
AcDbLine
 10
0.5
 20
-0.5
 11
0.5
 21
0.5
  0
LINE
  5
154
100
AcDbEntity
  8
0
  6
BYBLOCK
 62
     0
100
AcDbLine
 10
0.5
 20
0.5
 11
-0.5
 21
0.5
  0
LINE
  5
155
100
AcDbEntity
  8
0
  6
BYBLOCK
 62
     0
100
AcDbLine
 10
-0.5
 20
0.5
 11
-0.5
 21
-0.5
  0
LINE
  5
156
100
AcDbEntity
  8
0
  6
BYBLOCK
 62
     0
100
AcDbLine
 10
-0.5
 20
0
 11
-1
 21
0
  0
ENDBLK
  5
157
100
AcDbEntity
  8
0
100
AcDbBlockEnd
  0
BLOCK
  5
158
100
AcDbEntity
 67
     1
  8
0
100
AcDbBlockBegin
  2
_BoxFilled
 70
     0
 10
0
 20
0
  3
_BoxFilled
  1

  0
SOLID
  5
159
100
AcDbEntity
  8
0
  6
BYBLOCK
 62
     0
100
AcDbTrace
 10
-0.5
 20
0.5
 11
0.5
 21
0.5
 12
-0.5
 22
-0.5
 13
0.5
 23
-0.5
  0
LINE
  5
15A
100
AcDbEntity
  8
0
  6
BYBLOCK
 62
     0
100
AcDbLine
 10
-0.5
 20
0
 11
-1
 21
0
  0
ENDBLK
  5
15B
100
AcDbEntity
  8
0
100
AcDbBlockEnd
  0
BLOCK
  5
15C
100
AcDbEntity
 67
     1
  8
0
100
AcDbBlockBegin
  2
_Integral
 70
     0
 10
0
 20
0
  3
_Integral
  1

  0
ARC
  5
15D
100
AcDbEntity
  8
0
  6
BYBLOCK
 62
     0
100
AcDbCircle
 10
0.44488802
 20
-0.09133463
 40
0.45416667
100
AcDbArc
 50
101.999999998
 51
167.9999999799
  0
ARC
  5
15E
100
AcDbEntity
  8
0
  6
BYBLOCK
 62
     0
100
AcDbCircle
 10
-0.44488802
 20
0.09133463
 40
0.45416667
100
AcDbArc
 50
282.0000000215
 51
348.0000000034
  0
ENDBLK
  5
15F
100
AcDbEntity
  8
0
100
AcDbBlockEnd
  0
ENDSEC
  0
SECTION
  2
ENTITIES
  0
LINE
  5
160
100
AcDbEntity
  8
_2-0_
  6
CONTINUOUS
 62
     0
100
AcDbLine
 10
1017.333965626
 20
290.502845354
 11
814.8339656255
 21
290.502845354
  0
LINE
  5
161
100
AcDbEntity
  8
_0-1_PRO0
  6
CONTINUOUS
 62
     0
100
AcDbLine
 10
1042.385731264
 20
696.241436935
 11
621.8563152636
 21
718.2804502495
  0
LINE
  5
162
100
AcDbEntity
  8
_2-0_
  6
CONTINUOUS
 62
     0
100
AcDbLine
 10
15
 20
16.00000000015
 11
1245
 21
16.00000000015
  0
LINE
  5
163
100
AcDbEntity
  8
_2-0_
  6
CONTINUOUS
 62
     0
100
AcDbLine
 10
1245
 20
16.00000000015
 11
1245
 21
865.9999999998
  0
LINE
  5
164
100
AcDbEntity
  8
_2-0_
  6
CONTINUOUS
 62
     0
100
AcDbLine
 10
1245
 20
865.9999999998
 11
15
 21
865.9999999998
  0
LINE
  5
165
100
AcDbEntity
  8
_2-0_
  6
CONTINUOUS
 62
     0
100
AcDbLine
 10
15
 20
865.9999999998
 11
15
 21
16.00000000015
  0
TEXT
  5
166
100
AcDbEntity
  8
_2-0_
  6
CONTINUOUS
 62
     0
100
AcDbText
 10
133.412991829
 20
800.2638896877
 40
12
  1
　　屋根－屋根
  7
STANDARD
100
AcDbText
  0
TEXT
  5
167
100
AcDbEntity
  8
_2-0_
  6
CONTINUOUS
 62
     0
100
AcDbText
 10
133.412991829
 20
783.7180716546
 40
12
  1
　　Ｓ＝１／３
  7
STANDARD
100
AcDbText
  0
TEXT
  5
168
100
AcDbEntity
  8
_2-0_
  6
CONTINUOUS
 62
     0
100
AcDbText
 10
492.7089656255
 20
312.377845354
 40
7.5
  1
規　格
  7
STANDARD
100
AcDbText
  0
TEXT
  5
169
100
AcDbEntity
  8
_2-0_
  6
CONTINUOUS
 62
     0
100
AcDbText
 10
340.5839656255
 20
312.377845354
 40
7.5
  1
部材名称
 41
0.9986666666667
  7
STANDARD
100
AcDbText
  0
TEXT
  5
16A
100
AcDbEntity
  8
_2-0_
  6
CONTINUOUS
 62
     0
100
AcDbText
 10
291.4589656255
 20
276.377845354
 40
7.49
  1
ＦＹＹフレーム
  7
STANDARD
100
AcDbText
  0
TEXT
  5
16B
100
AcDbEntity
  8
_2-0_
  6
CONTINUOUS
 62
     0
100
AcDbText
 10
290.8339656255
 20
294.377845354
 40
7.5
  1
ＦＹＹキヤップＡ
  7
STANDARD
100
AcDbText
  0
LINE
  5
16C
100
AcDbEntity
  8
_2-0_
  6
CONTINUOUS
 62
     0
100
AcDbLine
 10
682.8339656255
 20
254.502845354
 11
582.3339656255
 21
254.502845354
  0
LINE
  5
16D
100
AcDbEntity
  8
_2-0_
  6
CONTINUOUS
 62
     0
100
AcDbLine
 10
682.8339656255
 20
272.502845354
 11
582.3339656255
 21
272.502845354
  0
LINE
  5
16E
100
AcDbEntity
  8
_2-0_
  6
CONTINUOUS
 62
     0
100
AcDbLine
 10
682.8339656255
 20
290.502845354
 11
582.3339656255
 21
290.502845354
  0
LINE
  5
16F
100
AcDbEntity
  8
_2-0_
  6
CONTINUOUS
 62
     0
100
AcDbLine
 10
682.8339656255
 20
308.502845354
 11
582.3339656255
 21
308.502845354
  0
LINE
  5
170
100
AcDbEntity
  8
_2-0_
  6
CONTINUOUS
 62
     0
100
AcDbLine
 10
682.8339656255
 20
128.502845354
 11
582.3339656255
 21
128.502845354
  0
LINE
  5
171
100
AcDbEntity
  8
_2-0_
  6
CONTINUOUS
 62
     0
100
AcDbLine
 10
682.8339656255
 20
146.502845354
 11
582.3339656255
 21
146.502845354
  0
LINE
  5
172
100
AcDbEntity
  8
_2-0_
  6
CONTINUOUS
 62
     0
100
AcDbLine
 10
682.8339656255
 20
182.502845354
 11
582.3339656255
 21
182.502845354
  0
LINE
  5
173
100
AcDbEntity
  8
_2-0_
  6
CONTINUOUS
 62
     0
100
AcDbLine
 10
682.8339656255
 20
200.502845354
 11
582.3339656255
 21
200.502845354
  0
LINE
  5
174
100
AcDbEntity
  8
_2-0_
  6
CONTINUOUS
 62
     0
100
AcDbLine
 10
682.8339656255
 20
218.502845354
 11
582.3339656255
 21
218.502845354
  0
LINE
  5
175
100
AcDbEntity
  8
_2-0_
  6
CONTINUOUS
 62
     0
100
AcDbLine
 10
682.8339656255
 20
236.502845354
 11
582.3339656255
 21
236.502845354
  0
LINE
  5
176
100
AcDbEntity
  8
_2-0_
  6
CONTINUOUS
 62
     0
100
AcDbLine
 10
682.8339656255
 20
164.502845354
 11
582.3339656255
 21
164.502845354
  0
LINE
  5
177
100
AcDbEntity
  8
_2-0_
  6
CONTINUOUS
 62
     0
100
AcDbLine
 10
682.8339656255
 20
74.50284535395
 11
582.3339656255
 21
74.50284535395
  0
LINE
  5
178
100
AcDbEntity
  8
_2-0_
  6
CONTINUOUS
 62
     0
100
AcDbLine
 10
682.8339656255
 20
92.50284535395
 11
582.3339656255
 21
92.50284535395
  0
LINE
  5
179
100
AcDbEntity
  8
_2-0_
  6
CONTINUOUS
 62
     0
100
AcDbLine
 10
682.8339656255
 20
110.502845354
 11
582.3339656255
 21
110.502845354
  0
LINE
  5
17A
100
AcDbEntity
  8
_2-0_
  6
CONTINUOUS
 62
     0
100
AcDbLine
 10
682.8339656255
 20
326.502845354
 11
582.3339656255
 21
326.502845354
  0
LINE
  5
17B
100
AcDbEntity
  8
_2-0_
  6
CONTINUOUS
 62
     0
100
AcDbLine
 10
684.3339656255
 20
74.50284535395
 11
784.8339656255
 21
74.50284535395
  0
LINE
  5
17C
100
AcDbEntity
  8
_2-0_
  6
CONTINUOUS
 62
     0
100
AcDbLine
 10
684.3339656255
 20
92.50284535395
 11
784.8339656255
 21
92.50284535395
  0
LINE
  5
17D
100
AcDbEntity
  8
_2-0_
  6
CONTINUOUS
 62
     0
100
AcDbLine
 10
684.3339656255
 20
128.502845354
 11
784.8339656255
 21
128.502845354
  0
LINE
  5
17E
100
AcDbEntity
  8
_2-0_
  6
CONTINUOUS
 62
     0
100
AcDbLine
 10
684.3339656255
 20
146.502845354
 11
784.8339656255
 21
146.502845354
  0
LINE
  5
17F
100
AcDbEntity
  8
_2-0_
  6
CONTINUOUS
 62
     0
100
AcDbLine
 10
684.3339656255
 20
200.502845354
 11
784.8339656255
 21
200.502845354
  0
LINE
  5
180
100
AcDbEntity
  8
_2-0_
  6
CONTINUOUS
 62
     0
100
AcDbLine
 10
684.3339656255
 20
218.502845354
 11
784.8339656255
 21
218.502845354
  0
LINE
  5
181
100
AcDbEntity
  8
_2-0_
  6
CONTINUOUS
 62
     0
100
AcDbLine
 10
684.3339656255
 20
164.502845354
 11
784.8339656255
 21
164.502845354
  0
LINE
  5
182
100
AcDbEntity
  8
_2-0_
  6
CONTINUOUS
 62
     0
100
AcDbLine
 10
684.3339656255
 20
110.502845354
 11
784.8339656255
 21
110.502845354
  0
LINE
  5
183
100
AcDbEntity
  8
_2-0_
  6
CONTINUOUS
 62
     0
100
AcDbLine
 10
684.3339656255
 20
236.502845354
 11
784.8339656255
 21
236.502845354
  0
LINE
  5
184
100
AcDbEntity
  8
_2-0_
  6
CONTINUOUS
 62
     0
100
AcDbLine
 10
684.3339656255
 20
254.502845354
 11
784.8339656255
 21
254.502845354
  0
LINE
  5
185
100
AcDbEntity
  8
_2-0_
  6
CONTINUOUS
 62
     0
100
AcDbLine
 10
684.3339656255
 20
272.502845354
 11
784.8339656255
 21
272.502845354
  0
LINE
  5
186
100
AcDbEntity
  8
_2-0_
  6
CONTINUOUS
 62
     0
100
AcDbLine
 10
684.3339656255
 20
290.502845354
 11
784.8339656255
 21
290.502845354
  0
LINE
  5
187
100
AcDbEntity
  8
_2-0_
  6
CONTINUOUS
 62
     0
100
AcDbLine
 10
684.3339656255
 20
308.502845354
 11
784.8339656255
 21
308.502845354
  0
LINE
  5
188
100
AcDbEntity
  8
_2-0_
  6
CONTINUOUS
 62
     0
100
AcDbLine
 10
684.3339656255
 20
182.502845354
 11
784.8339656255
 21
182.502845354
  0
LINE
  5
189
100
AcDbEntity
  8
_2-0_
  6
CONTINUOUS
 62
     0
100
AcDbLine
 10
684.3339656255
 20
326.502845354
 11
784.8339656255
 21
326.502845354
  0
TEXT
  5
18A
100
AcDbEntity
  8
_2-0_
  6
CONTINUOUS
 62
     0
100
AcDbText
 10
667.2089656255
 20
276.377845354
 40
7.49
  1
〃
  7
STANDARD
100
AcDbText
  0
TEXT
  5
18B
100
AcDbEntity
  8
_2-0_
  6
CONTINUOUS
 62
     0
100
AcDbText
 10
667.2089656255
 20
294.377845354
 40
7.5
  1
本
 41
0.9986666666667
  7
STANDARD
100
AcDbText
  0
TEXT
  5
18C
100
AcDbEntity
  8
_2-0_
  6
CONTINUOUS
 62
     0
100
AcDbText
 10
769.2089656255
 20
276.377845354
 40
7.49
  1
〃
 41
1.001335113485
  7
STANDARD
100
AcDbText
  0
TEXT
  5
18D
100
AcDbEntity
  8
_2-0_
  6
CONTINUOUS
 62
     0
100
AcDbText
 10
769.2089656255
 20
294.377845354
 40
7.5
  1
本
  7
STANDARD
100
AcDbText
  0
TEXT
  5
18E
100
AcDbEntity
  8
_2-0_
  6
CONTINUOUS
 62
     0
100
AcDbText
 10
763.3339656255
 20
312.377845354
 40
7.5
  1
単位
 41
0.9986666666667
  7
STANDARD
100
AcDbText
  0
TEXT
  5
18F
100
AcDbEntity
  8
_2-0_
  6
CONTINUOUS
 62
     0
100
AcDbText
 10
661.3339656255
 20
312.377845354
 40
7.5
  1
単位
 41
0.9986666666667
  7
STANDARD
100
AcDbText
  0
TEXT
  5
190
100
AcDbEntity
  8
_2-0_
  6
CONTINUOUS
 62
     0
100
AcDbText
 10
597.2089656255
 20
276.377845354
 40
7.49
  1
3000
 41
1.001335113485
  7
STANDARD
100
AcDbText
  0
TEXT
  5
191
100
AcDbEntity
  8
_2-0_
  6
CONTINUOUS
 62
     0
100
AcDbText
 10
699.2089656255
 20
276.377845354
 40
7.49
  1
2000
 41
1.001335113485
  7
STANDARD
100
AcDbText
  0
TEXT
  5
192
100
AcDbEntity
  8
_2-0_
  6
CONTINUOUS
 62
     0
100
AcDbText
 10
699.2089656255
 20
294.377845354
 40
7.5
  1
2000
  7
STANDARD
100
AcDbText
  0
TEXT
  5
193
100
AcDbEntity
  8
_2-0_
  6
CONTINUOUS
 62
     0
100
AcDbText
 10
687.4589656255
 20
312.377845354
 40
7.5
  1
定尺(mm)
 41
0.9986666666667
  7
STANDARD
100
AcDbText
  0
TEXT
  5
194
100
AcDbEntity
  8
_2-0_
  6
CONTINUOUS
 62
     0
100
AcDbText
 10
597.2089656255
 20
294.377845354
 40
7.5
  1
3000
  7
STANDARD
100
AcDbText
  0
TEXT
  5
195
100
AcDbEntity
  8
_2-0_
  6
CONTINUOUS
 62
     0
100
AcDbText
 10
637.3339656255
 20
312.377845354
 40
7.5
  1
入数
  7
STANDARD
100
AcDbText
  0
TEXT
  5
196
100
AcDbEntity
  8
_2-0_
  6
CONTINUOUS
 62
     0
100
AcDbText
 10
642.8339656255
 20
294.377845354
 40
7.5
  1
 1
 41
0.9986666666667
  7
STANDARD
100
AcDbText
  0
TEXT
  5
197
100
AcDbEntity
  8
_2-0_
  6
CONTINUOUS
 62
     0
100
AcDbText
 10
642.8339656255
 20
276.377845354
 40
7.49
  1
 2
  7
STANDARD
100
AcDbText
  0
TEXT
  5
198
100
AcDbEntity
  8
_2-0_
  6
CONTINUOUS
 62
     0
100
AcDbText
 10
744.8339656255
 20
276.377845354
 40
7.49
  1
 2
  7
STANDARD
100
AcDbText
  0
TEXT
  5
199
100
AcDbEntity
  8
_2-0_
  6
CONTINUOUS
 62
     0
100
AcDbText
 10
744.8339656255
 20
294.377845354
 40
7.5
  1
 1
 41
0.9986666666667
  7
STANDARD
100
AcDbText
  0
TEXT
  5
19A
100
AcDbEntity
  8
_2-0_
  6
CONTINUOUS
 62
     0
100
AcDbText
 10
739.3339656255
 20
312.377845354
 40
7.5
  1
入数
  7
STANDARD
100
AcDbText
  0
LINE
  5
19B
100
AcDbEntity
  8
_2-0_
  6
CONTINUOUS
 62
     0
100
AcDbLine
 10
580.8339656255
 20
254.502845354
 11
267.3339656255
 21
254.502845354
  0
LINE
  5
19C
100
AcDbEntity
  8
_2-0_
  6
CONTINUOUS
 62
     0
100
AcDbLine
 10
580.8339656255
 20
272.502845354
 11
267.3339656255
 21
272.502845354
  0
LINE
  5
19D
100
AcDbEntity
  8
_2-0_
  6
CONTINUOUS
 62
     0
100
AcDbLine
 10
580.8339656255
 20
290.502845354
 11
267.3339656255
 21
290.502845354
  0
LINE
  5
19E
100
AcDbEntity
  8
_2-0_
  6
CONTINUOUS
 62
     0
100
AcDbLine
 10
580.8339656255
 20
308.502845354
 11
267.3339656255
 21
308.502845354
  0
LINE
  5
19F
100
AcDbEntity
  8
_2-0_
  6
CONTINUOUS
 62
     0
100
AcDbLine
 10
580.8339656255
 20
128.502845354
 11
267.3339656255
 21
128.502845354
  0
LINE
  5
1A0
100
AcDbEntity
  8
_2-0_
  6
CONTINUOUS
 62
     0
100
AcDbLine
 10
580.8339656255
 20
146.502845354
 11
267.3339656255
 21
146.502845354
  0
LINE
  5
1A1
100
AcDbEntity
  8
_2-0_
  6
CONTINUOUS
 62
     0
100
AcDbLine
 10
580.8339656255
 20
182.502845354
 11
267.3339656255
 21
182.502845354
  0
LINE
  5
1A2
100
AcDbEntity
  8
_2-0_
  6
CONTINUOUS
 62
     0
100
AcDbLine
 10
580.8339656255
 20
200.502845354
 11
267.3339656255
 21
200.502845354
  0
LINE
  5
1A3
100
AcDbEntity
  8
_2-0_
  6
CONTINUOUS
 62
     0
100
AcDbLine
 10
580.8339656255
 20
218.502845354
 11
267.3339656255
 21
218.502845354
  0
LINE
  5
1A4
100
AcDbEntity
  8
_2-0_
  6
CONTINUOUS
 62
     0
100
AcDbLine
 10
580.8339656255
 20
236.502845354
 11
267.3339656255
 21
236.502845354
  0
LINE
  5
1A5
100
AcDbEntity
  8
_2-0_
  6
CONTINUOUS
 62
     0
100
AcDbLine
 10
580.8339656255
 20
164.502845354
 11
267.3339656255
 21
164.502845354
  0
LINE
  5
1A6
100
AcDbEntity
  8
_2-0_
  6
CONTINUOUS
 62
     0
100
AcDbLine
 10
580.8339656255
 20
74.50284535395
 11
267.3339656255
 21
74.50284535395
  0
LINE
  5
1A7
100
AcDbEntity
  8
_2-0_
  6
CONTINUOUS
 62
     0
100
AcDbLine
 10
580.8339656255
 20
92.50284535395
 11
267.3339656255
 21
92.50284535395
  0
LINE
  5
1A8
100
AcDbEntity
  8
_2-0_
  6
CONTINUOUS
 62
     0
100
AcDbLine
 10
580.8339656255
 20
110.502845354
 11
267.3339656255
 21
110.502845354
  0
LINE
  5
1A9
100
AcDbEntity
  8
_2-0_
  6
CONTINUOUS
 62
     0
100
AcDbLine
 10
580.8339656255
 20
326.502845354
 11
267.3339656255
 21
326.502845354
  0
TEXT
  5
1AA
100
AcDbEntity
  8
_2-0_
  6
CONTINUOUS
 62
     0
100
AcDbText
 10
272.3339656255
 20
96.37784535395
 40
7.5
  1
12
 41
0.9986666666667
  7
STANDARD
100
AcDbText
  0
TEXT
  5
1AB
100
AcDbEntity
  8
_2-0_
  6
CONTINUOUS
 62
     0
100
AcDbText
 10
272.3339656255
 20
114.377845354
 40
7.49
  1
11
  7
STANDARD
100
AcDbText
  0
TEXT
  5
1AC
100
AcDbEntity
  8
_2-0_
  6
CONTINUOUS
 62
     0
100
AcDbText
 10
272.3339656255
 20
132.377845354
 40
7.49
  1
10
  7
STANDARD
100
AcDbText
  0
TEXT
  5
1AD
100
AcDbEntity
  8
_2-0_
  6
CONTINUOUS
 62
     0
100
AcDbText
 10
272.3339656255
 20
150.377845354
 40
7.5
  1
 9
 41
0.9986666666667
  7
STANDARD
100
AcDbText
  0
TEXT
  5
1AE
100
AcDbEntity
  8
_2-0_
  6
CONTINUOUS
 62
     0
100
AcDbText
 10
272.3339656255
 20
168.377845354
 40
7.5
  1
 8
 41
0.9986666666667
  7
STANDARD
100
AcDbText
  0
TEXT
  5
1AF
100
AcDbEntity
  8
_2-0_
  6
CONTINUOUS
 62
     0
100
AcDbText
 10
272.3339656255
 20
186.377845354
 40
7.5
  1
 7
 41
0.9986666666667
  7
STANDARD
100
AcDbText
  0
TEXT
  5
1B0
100
AcDbEntity
  8
_2-0_
  6
CONTINUOUS
 62
     0
100
AcDbText
 10
272.3339656255
 20
204.377845354
 40
7.5
  1
 6
 41
0.9986666666667
  7
STANDARD
100
AcDbText
  0
TEXT
  5
1B1
100
AcDbEntity
  8
_2-0_
  6
CONTINUOUS
 62
     0
100
AcDbText
 10
272.3339656255
 20
222.377845354
 40
7.5
  1
 5
 41
0.9986666666667
  7
STANDARD
100
AcDbText
  0
TEXT
  5
1B2
100
AcDbEntity
  8
_2-0_
  6
CONTINUOUS
 62
     0
100
AcDbText
 10
272.3339656255
 20
240.377845354
 40
7.5
  1
 4
 41
0.9986666666667
  7
STANDARD
100
AcDbText
  0
TEXT
  5
1B3
100
AcDbEntity
  8
_2-0_
  6
CONTINUOUS
 62
     0
100
AcDbText
 10
272.3339656255
 20
258.377845354
 40
7.49
  1
 3
  7
STANDARD
100
AcDbText
  0
TEXT
  5
1B4
100
AcDbEntity
  8
_2-0_
  6
CONTINUOUS
 62
     0
100
AcDbText
 10
272.3339656255
 20
276.377845354
 40
7.49
  1
 2
  7
STANDARD
100
AcDbText
  0
TEXT
  5
1B5
100
AcDbEntity
  8
_2-0_
  6
CONTINUOUS
 62
     0
100
AcDbText
 10
269.3964656255
 20
312.377845354
 40
7.5
  1
No.
  7
STANDARD
100
AcDbText
  0
TEXT
  5
1B6
100
AcDbEntity
  8
_2-0_
  6
CONTINUOUS
 62
     0
100
AcDbText
 10
272.3339656255
 20
294.377845354
 40
7.5
  1
 1
 41
0.9986666666667
  7
STANDARD
100
AcDbText
  0
TEXT
  5
1B7
100
AcDbEntity
  8
_2-0_
  6
CONTINUOUS
 62
     0
100
AcDbText
 10
585.4589656255
 20
312.377845354
 40
7.5
  1
定尺(mm)
  7
STANDARD
100
AcDbText
  0
TEXT
  5
1B8
100
AcDbEntity
  8
_2-0_
  6
CONTINUOUS
 62
     0
100
AcDbText
 10
586.3339656255
 20
326.8645263855
 40
7.5
  1
（3000mmセット）
  7
STANDARD
100
AcDbText
  0
TEXT
  5
1B9
100
AcDbEntity
  8
_2-0_
  6
CONTINUOUS
 62
     0
100
AcDbText
 10
688.3339656255
 20
326.8645263855
 40
7.5
  1
（2000mmセット）
 41
0.9986666666667
  7
STANDARD
100
AcDbText
  0
LINE
  5
1BA
100
AcDbEntity
  8
_0-1_PRO0
  6
CONTINUOUS
 62
     0
100
AcDbLine
 10
621.8142582636
 20
725.8672012494
 11
633.0562962636
 21
745.3389802495
  0
CIRCLE
  5
1BB
100
AcDbEntity
  8
_0-1_PRO0
  6
CONTINUOUS
 62
     0
100
AcDbCircle
 10
636.0562962636
 20
750.5351332494
 40
6
  0
CIRCLE
  5
1BC
100
AcDbEntity
  8
_0-1_PRO0
  6
CONTINUOUS
 62
     0
100
AcDbCircle
 10
621.8142582636
 20
725.8672012494
 40
0.9
  0
LINE
  5
1BD
100
AcDbEntity
  8
_0-1_PRO0
  6
CONTINUOUS
 62
     0
100
AcDbLine
 10
615.1142052636
 20
724.1561452494
 11
615.2290122636
 21
722.4393022494
  0
LINE
  5
1BE
100
AcDbEntity
  8
_0-1_PRO0
  6
CONTINUOUS
 62
     0
100
AcDbLine
 10
605.1279102636
 20
723.6327862494
 11
605.2427172636
 21
721.9159432495
  0
LINE
  5
1BF
100
AcDbEntity
  8
_0-1_PRO0
  6
CONTINUOUS
 62
     0
100
AcDbLine
 10
608.5567092636
 20
723.8124832495
 11
606.7385622636
 21
721.9943362494
  0
LINE
  5
1C0
100
AcDbEntity
  8
_0-1_PRO0
  6
CONTINUOUS
 62
     0
100
AcDbLine
 10
610.0491372636
 20
723.8906962495
 11
608.2309902636
 21
722.0725522494
  0
LINE
  5
1C1
100
AcDbEntity
  8
_0-1_PRO0
  6
CONTINUOUS
 62
     0
100
AcDbLine
 10
611.5415652636
 20
723.9689122495
 11
609.7234182636
 21
722.1507652494
  0
LINE
  5
1C2
100
AcDbEntity
  8
_0-1_PRO0
  6
CONTINUOUS
 62
     0
100
AcDbLine
 10
613.0339932636
 20
724.0471282495
 11
611.2158462636
 21
722.2289812494
  0
LINE
  5
1C3
100
AcDbEntity
  8
_0-1_PRO0
  6
CONTINUOUS
 62
     0
100
AcDbLine
 10
614.5264212636
 20
724.1253412495
 11
612.7082772636
 21
722.3071972494
  0
LINE
  5
1C4
100
AcDbEntity
  8
_0-1_PRO0
  6
CONTINUOUS
 62
     0
100
AcDbLine
 10
614.2007052636
 20
722.3854102494
 11
615.1679352636
 21
723.3526432494
  0
LINE
  5
1C5
100
AcDbEntity
  8
_0-1_PRO0
  6
CONTINUOUS
 62
     0
100
AcDbLine
 10
607.0642782636
 20
723.7342672495
 11
605.2461342636
 21
721.9161232494
  0
LINE
  5
1C6
100
AcDbEntity
  8
_0-1_PRO0
  6
CONTINUOUS
 62
     0
100
AcDbLine
 10
605.5718502636
 20
723.6560542494
 11
605.1542772636
 21
723.2384782494
  0
LINE
  5
1C7
100
AcDbEntity
  8
_0-1_PRO0
  6
CONTINUOUS
 62
     0
100
AcDbLine
 10
628.5984252636
 20
724.1561452494
 11
628.4836182636
 21
722.4393022494
  0
LINE
  5
1C8
100
AcDbEntity
  8
_0-1_PRO0
  6
CONTINUOUS
 62
     0
100
AcDbLine
 10
638.5847202636
 20
723.6327862494
 11
638.4699132636
 21
721.9159432495
  0
LINE
  5
1C9
100
AcDbEntity
  8
_0-1_PRO0
  6
CONTINUOUS
 62
     0
100
AcDbLine
 10
635.1559212636
 20
723.8124832495
 11
636.9740682636
 21
721.9943362494
  0
LINE
  5
1CA
100
AcDbEntity
  8
_0-1_PRO0
  6
CONTINUOUS
 62
     0
100
AcDbLine
 10
633.6634932636
 20
723.8906962495
 11
635.4816402636
 21
722.0725522494
  0
LINE
  5
1CB
100
AcDbEntity
  8
_0-1_PRO0
  6
CONTINUOUS
 62
     0
100
AcDbLine
 10
632.1710652636
 20
723.9689122495
 11
633.9892122636
 21
722.1507652494
  0
LINE
  5
1CC
100
AcDbEntity
  8
_0-1_PRO0
  6
CONTINUOUS
 62
     0
100
AcDbLine
 10
630.6786372636
 20
724.0471282495
 11
632.4967812636
 21
722.2289812494
  0
LINE
  5
1CD
100
AcDbEntity
  8
_0-1_PRO0
  6
CONTINUOUS
 62
     0
100
AcDbLine
 10
629.1862092636
 20
724.1253412495
 11
631.0043532636
 21
722.3071972494
  0
LINE
  5
1CE
100
AcDbEntity
  8
_0-1_PRO0
  6
CONTINUOUS
 62
     0
100
AcDbLine
 10
629.5119252636
 20
722.3854102494
 11
628.5446952636
 21
723.3526432494
  0
LINE
  5
1CF
100
AcDbEntity
  8
_0-1_PRO0
  6
CONTINUOUS
 62
     0
100
AcDbLine
 10
636.6483492636
 20
723.7342672495
 11
638.4664962636
 21
721.9161232494
  0
LINE
  5
1D0
100
AcDbEntity
  8
_0-1_PRO0
  6
CONTINUOUS
 62
     0
100
AcDbLine
 10
638.1407802636
 20
723.6560542494
 11
638.5583532636
 21
723.2384782494
  0
LINE
  5
1D1
100
AcDbEntity
  8
ADD_LINE
  6
DOT
 62
     0
100
AcDbLine
 10
171.8563152636
 20
702.928729619
 11
171.8563152636
 21
596.0265172495
  0
LINE
  5
1D2
100
AcDbEntity
  8
_0-1_PRO0
  6
CONTINUOUS
 62
     0
100
AcDbLine
 10
1022.694733264
 20
688.9533839349
 11
1038.472108264
 21
716.2805969349
  0
CIRCLE
  5
1D3
100
AcDbEntity
  8
_0-1_PRO0
  6
CONTINUOUS
 62
     0
100
AcDbCircle
 10
1041.472108264
 20
721.4767469349
 40
6
  0
CIRCLE
  5
1D4
100
AcDbEntity
  8
_0-1_PRO0
  6
CONTINUOUS
 62
     0
100
AcDbCircle
 10
1022.694733264
 20
688.9533839349
 40
0.9
  0
LINE
  5
1D5
100
AcDbEntity
  8
_0-1_PRO0
  6
CONTINUOUS
 62
     0
100
AcDbLine
 10
1055.640655264
 20
688.0922909349
 11
1077.905899264
 21
726.6568229349
  0
CIRCLE
  5
1D6
100
AcDbEntity
  8
_0-1_PRO0
  6
CONTINUOUS
 62
     0
100
AcDbCircle
 10
1080.905899264
 20
731.852975935
 40
6
  0
CIRCLE
  5
1D7
100
AcDbEntity
  8
_0-1_PRO0
  6
CONTINUOUS
 62
     0
100
AcDbCircle
 10
1055.640655264
 20
688.0922909349
 40
0.9
  0
LINE
  5
1D8
100
AcDbEntity
  8
_0-1_PRO0
  6
CONTINUOUS
 62
     0
100
AcDbLine
 10
1118.617273264
 20
702.9287279349
 11
1118.617273264
 21
612.928727935
  0
LINE
  5
1D9
100
AcDbEntity
  8
_0-1_PRO0
  6
CONTINUOUS
 62
     0
100
AcDbLine
 10
1072.856314264
 20
702.9287279349
 11
1122.617272264
 21
702.9287279349
  0
LINE
  5
1DA
100
AcDbEntity
  8
_0-1_PRO0
  6
CONTINUOUS
 62
     0
100
AcDbLine
 10
1069.856314264
 20
612.928727935
 11
1122.617272264
 21
612.928727935
  0
LINE
  5
1DB
100
AcDbEntity
  8
_0-1_PRO0
  6
CONTINUOUS
 62
     0
100
AcDbLine
 10
1118.617273264
 20
702.9287279349
 11
1119.367273264
 21
699.9287279349
  0
LINE
  5
1DC
100
AcDbEntity
  8
_0-1_PRO0
  6
CONTINUOUS
 62
     0
100
AcDbLine
 10
1118.617273264
 20
702.9287279349
 11
1117.867273264
 21
699.9287279349
  0
LINE
  5
1DD
100
AcDbEntity
  8
_0-1_PRO0
  6
CONTINUOUS
 62
     0
100
AcDbLine
 10
1118.617273264
 20
612.928727935
 11
1117.867273264
 21
615.928727935
  0
LINE
  5
1DE
100
AcDbEntity
  8
_0-1_PRO0
  6
CONTINUOUS
 62
     0
100
AcDbLine
 10
1118.617273264
 20
612.928727935
 11
1119.367273264
 21
615.928727935
  0
LINE
  5
1DF
100
AcDbEntity
  8
_0-1_PRO0
  6
CONTINUOUS
 62
     0
100
AcDbLine
 10
1093.960405264
 20
656.798534935
 11
1093.960405264
 21
612.928727935
  0
LINE
  5
1E0
100
AcDbEntity
  8
_0-1_PRO0
  6
CONTINUOUS
 62
     0
100
AcDbLine
 10
1093.960405264
 20
656.798534935
 11
1094.710405264
 21
653.798534935
  0
LINE
  5
1E1
100
AcDbEntity
  8
_0-1_PRO0
  6
CONTINUOUS
 62
     0
100
AcDbLine
 10
1093.960405264
 20
656.798534935
 11
1093.210405264
 21
653.798534935
  0
LINE
  5
1E2
100
AcDbEntity
  8
_0-1_PRO0
  6
CONTINUOUS
 62
     0
100
AcDbLine
 10
1093.960405264
 20
612.928727935
 11
1093.210405264
 21
615.928727935
  0
LINE
  5
1E3
100
AcDbEntity
  8
_0-1_PRO0
  6
CONTINUOUS
 62
     0
100
AcDbLine
 10
1093.960405264
 20
612.928727935
 11
1094.710405264
 21
615.928727935
  0
LINE
  5
1E4
100
AcDbEntity
  8
_0-1_PRO0
  6
CONTINUOUS
 62
     0
100
AcDbLine
 10
1071.856315264
 20
701.0818349349
 11
1071.856315264
 21
767.816762935
  0
LINE
  5
1E5
100
AcDbEntity
  8
_0-1_PRO0
  6
CONTINUOUS
 62
     0
100
AcDbLine
 10
1071.856315264
 20
763.8167639349
 11
1068.856315264
 21
763.0667639349
  0
LINE
  5
1E6
100
AcDbEntity
  8
_0-1_PRO0
  6
CONTINUOUS
 62
     0
100
AcDbLine
 10
1071.856315264
 20
763.8167639349
 11
1068.856315264
 21
764.5667639349
  0
LINE
  5
1E7
100
AcDbEntity
  8
_0-1_PRO0
  6
CONTINUOUS
 62
     0
100
AcDbLine
 10
1048.650334264
 20
697.635980935
 11
621.8301462636
 21
720.0046822494
  0
LINE
  5
1E8
100
AcDbEntity
  8
_0-1_PRO0
  6
CONTINUOUS
 62
     0
100
AcDbLine
 10
1042.621240264
 20
700.735268935
 11
621.8563152636
 21
722.7866242494
  0
LINE
  5
1E9
100
AcDbEntity
  8
_0-1_PRO0
  6
CONTINUOUS
 62
     0
100
AcDbLine
 10
1042.307227264
 20
694.743491935
 11
621.8563152636
 21
716.7783922495
  0
LINE
  5
1EA
100
AcDbEntity
  8
_0-1_PRO0
  6
CONTINUOUS
 62
     0
100
AcDbLine
 10
1041.537886264
 20
680.0636369349
 11
621.8563152636
 21
702.0582172494
  0
LINE
  5
1EB
100
AcDbEntity
  8
_0-1_PRO0
  6
CONTINUOUS
 62
     0
100
AcDbLine
 10
1041.443683264
 20
678.2661029349
 11
621.8563152636
 21
700.2557482494
  0
LINE
  5
1EC
100
AcDbEntity
  8
_0-1_PRO0
  6
CONTINUOUS
 62
     0
100
AcDbLine
 10
1041.286675264
 20
675.2702159349
 11
621.8563152636
 21
697.2516292494
  0
LINE
  5
1ED
100
AcDbEntity
  8
_0-1_PRO0
  6
CONTINUOUS
 62
     0
100
AcDbLine
 10
1041.208171264
 20
673.772270935
 11
621.8563152636
 21
695.7495712494
  0
LINE
  5
1EE
100
AcDbEntity
  8
_0-1_PRO0
  6
CONTINUOUS
 62
     0
100
AcDbLine
 10
1041.155836264
 20
672.7736429349
 11
621.8563152636
 21
694.7481982494
  0
LINE
  5
1EF
100
AcDbEntity
  8
_0-1_PRO0
  6
CONTINUOUS
 62
     0
100
AcDbLine
 10
1069.013323264
 20
703.0777229349
 11
621.8563152636
 21
726.5122312495
  0
LINE
  5
1F0
100
AcDbEntity
  8
_0-1_PRO0
  6
CONTINUOUS
 62
     0
100
AcDbLine
 10
1061.856313264
 20
614.9287289349
 11
1061.856313264
 21
612.928727935
  0
ARC
  5
1F1
100
AcDbEntity
  8
_0-1_PRO0
  6
CONTINUOUS
 62
     0
100
AcDbCircle
 10
1048.695151264
 20
694.6295159349
 40
7.5
100
AcDbArc
 50
10.124672
 51
87
  0
LINE
  5
1F2
100
AcDbEntity
  8
_0-1_PRO0
  6
CONTINUOUS
 62
     0
100
AcDbLine
 10
1035.615799264
 20
702.825269935
 11
1033.978735264
 21
701.1882029349
  0
LINE
  5
1F3
100
AcDbEntity
  8
_0-1_PRO0
  6
CONTINUOUS
 62
     0
100
AcDbLine
 10
1036.959589264
 20
702.7548449349
 11
1035.322522264
 21
701.117777935
  0
LINE
  5
1F4
100
AcDbEntity
  8
_0-1_PRO0
  6
CONTINUOUS
 62
     0
100
AcDbLine
 10
1038.303376264
 20
702.684419935
 11
1036.666312264
 21
701.0473529349
  0
LINE
  5
1F5
100
AcDbEntity
  8
_0-1_PRO0
  6
CONTINUOUS
 62
     0
100
AcDbLine
 10
1039.647166264
 20
702.6139949349
 11
1038.010099264
 21
700.976927935
  0
LINE
  5
1F6
100
AcDbEntity
  8
_0-1_PRO0
  6
CONTINUOUS
 62
     0
100
AcDbLine
 10
1040.990956264
 20
702.543569935
 11
1039.353889264
 21
700.9065029349
  0
LINE
  5
1F7
100
AcDbEntity
  8
_0-1_PRO0
  6
CONTINUOUS
 62
     0
100
AcDbLine
 10
1042.334743264
 20
702.4731449349
 11
1040.697679264
 21
700.836077935
  0
LINE
  5
1F8
100
AcDbEntity
  8
_0-1_PRO0
  6
CONTINUOUS
 62
     0
100
AcDbLine
 10
1042.041466264
 20
700.7656529349
 11
1042.654987264
 21
701.3791739349
  0
LINE
  5
1F9
100
AcDbEntity
  8
_0-1_PRO0
  6
CONTINUOUS
 62
     0
100
AcDbLine
 10
1034.282761264
 20
702.8951309349
 11
1032.645697264
 21
701.2580639349
  0
LINE
  5
1FA
100
AcDbEntity
  8
_0-1_PRO0
  6
CONTINUOUS
 62
     0
100
AcDbLine
 10
1032.928222264
 20
702.966119935
 11
1032.713161264
 21
702.751055935
  0
ARC
  5
1FB
100
AcDbEntity
  8
_0-1_PRO0
  6
CONTINUOUS
 62
     0
100
AcDbCircle
 10
1068.856315264
 20
615.928727935
 40
0.999999
100
AcDbArc
 50
-90
 51
0
  0
LINE
  5
1FC
100
AcDbEntity
  8
_0-1_PRO0
  6
CONTINUOUS
 62
     0
100
AcDbLine
 10
1068.856315264
 20
614.9287289349
 11
1061.856313264
 21
614.9287289349
  0
ARC
  5
1FD
100
AcDbEntity
  8
_0-1_PRO0
  6
CONTINUOUS
 62
     0
100
AcDbCircle
 10
1068.856315264
 20
615.928727935
 40
3
100
AcDbArc
 50
-90
 51
0
  0
LINE
  5
1FE
100
AcDbEntity
  8
_0-1_PRO0
  6
CONTINUOUS
 62
     0
100
AcDbLine
 10
1068.856315264
 20
612.928727935
 11
1061.856313264
 21
612.928727935
  0
ARC
  5
1FF
100
AcDbEntity
  8
_0-1_PRO0
  6
CONTINUOUS
 62
     0
100
AcDbCircle
 10
1068.856315264
 20
700.081835935
 40
3
100
AcDbArc
 50
0
 51
86.99999999999
  0
LINE
  5
200
100
AcDbEntity
  8
_0-1_PRO0
  6
CONTINUOUS
 62
     0
100
AcDbLine
 10
1071.856315264
 20
700.081835935
 11
1071.856315264
 21
615.928727935
  0
LINE
  5
201
100
AcDbEntity
  8
_0-1_PRO0
  6
CONTINUOUS
 62
     0
100
AcDbLine
 10
1056.078358264
 20
695.9479469349
 11
1069.856314264
 21
618.791399935
  0
LINE
  5
202
100
AcDbEntity
  8
_0-1_PRO0
  6
CONTINUOUS
 62
     0
100
AcDbLine
 10
1069.856314264
 20
700.081835935
 11
1069.856314264
 21
615.928727935
  0
ARC
  5
203
100
AcDbEntity
  8
_0-1_PRO0
  6
CONTINUOUS
 62
     0
100
AcDbCircle
 10
1068.856315264
 20
700.081835935
 40
0.999999
100
AcDbArc
 50
0
 51
86.99999999999
  0
LINE
  5
204
100
AcDbEntity
  8
_0-1_PRO0
  6
CONTINUOUS
 62
     0
100
AcDbLine
 10
1051.648435264
 20
695.1568889349
 11
1065.425119264
 21
618.007451935
  0
ARC
  5
205
100
AcDbEntity
  8
_0-1_PRO0
  6
CONTINUOUS
 62
     0
100
AcDbCircle
 10
1048.695151264
 20
694.6295159349
 40
3
100
AcDbArc
 50
10.124672
 51
87
  0
LINE
  5
206
100
AcDbEntity
  8
_0-1_PRO0
  6
CONTINUOUS
 62
     0
100
AcDbLine
 10
1064.939014264
 20
625.7287289349
 11
1055.688838264
 21
625.7287289349
  0
ARC
  5
207
100
AcDbEntity
  8
_0-1_PRO0
  6
CONTINUOUS
 62
     0
100
AcDbCircle
 10
1064.939014264
 20
625.228727935
 40
0.500001
100
AcDbArc
 50
11.99999999998
 51
90
  0
LINE
  5
208
100
AcDbEntity
  8
_0-1_PRO0
  6
CONTINUOUS
 62
     0
100
AcDbLine
 10
1065.428089264
 20
625.3326839349
 11
1066.856314264
 21
618.6134159349
  0
LINE
  5
209
100
AcDbEntity
  8
_0-1_PRO0
  6
CONTINUOUS
 62
     0
100
AcDbLine
 10
1066.856314264
 20
618.6134159349
 11
1066.856314264
 21
614.9287289349
  0
LINE
  5
20A
100
AcDbEntity
  8
_0-1_PRO0
  6
CONTINUOUS
 62
     0
100
AcDbLine
 10
1067.356315264
 20
614.9287289349
 11
1066.856314264
 21
614.9287289349
  0
ARC
  5
20B
100
AcDbEntity
  8
_0-1_PRO0
  6
CONTINUOUS
 62
     0
100
AcDbCircle
 10
1067.356315264
 20
617.428727935
 40
2.499999
100
AcDbArc
 50
-90
 51
0
  0
LINE
  5
20C
100
AcDbEntity
  8
_0-1_PRO0
  6
CONTINUOUS
 62
     0
100
AcDbLine
 10
1055.688838264
 20
626.9287289349
 11
1058.088838264
 21
626.9287289349
  0
LINE
  5
20D
100
AcDbEntity
  8
_0-1_PRO0
  6
CONTINUOUS
 62
     0
100
AcDbLine
 10
1060.088839264
 20
627.928727935
 11
1060.088839264
 21
626.9287289349
  0
LINE
  5
20E
100
AcDbEntity
  8
_0-1_PRO0
  6
CONTINUOUS
 62
     0
100
AcDbLine
 10
1058.088838264
 20
626.9287289349
 11
1060.088839264
 21
627.928727935
  0
ARC
  5
20F
100
AcDbEntity
  8
_0-1_PRO0
  6
CONTINUOUS
 62
     0
100
AcDbCircle
 10
1055.688838264
 20
626.328728935
 40
0.6
100
AcDbArc
 50
90
 51
270
  0
LINE
  5
210
100
AcDbEntity
  8
_0-1_PRO0
  6
CONTINUOUS
 62
     0
100
AcDbLine
 10
1064.471392264
 20
626.9287289349
 11
1060.088839264
 21
626.9287289349
  0
ARC
  5
211
100
AcDbEntity
  8
_0-1_PRO0
  6
CONTINUOUS
 62
     0
100
AcDbCircle
 10
1064.471392264
 20
627.4287299349
 40
0.500001
100
AcDbArc
 50
-90
 51
11.99999999999
  0
ARC
  5
212
100
AcDbEntity
  8
_0-1_PRO0
  6
CONTINUOUS
 62
     0
100
AcDbCircle
 10
1043.257765264
 20
674.6662289349
 40
0.500001
100
AcDbArc
 50
86.99999999999
 51
177
  0
LINE
  5
213
100
AcDbEntity
  8
_0-1_PRO0
  6
CONTINUOUS
 62
     0
100
AcDbLine
 10
1042.758451264
 20
674.692397935
 11
1042.706116264
 21
673.6937669349
  0
LINE
  5
214
100
AcDbEntity
  8
_0-1_PRO0
  6
CONTINUOUS
 62
     0
100
AcDbLine
 10
1042.180633264
 20
673.2206189349
 11
1041.681316264
 21
673.2467879349
  0
ARC
  5
215
100
AcDbEntity
  8
_0-1_PRO0
  6
CONTINUOUS
 62
     0
100
AcDbCircle
 10
1041.707485264
 20
673.746101935
 40
0.500001
100
AcDbArc
 50
177
 51
267
  0
ARC
  5
216
100
AcDbEntity
  8
_0-1_PRO0
  6
CONTINUOUS
 62
     0
100
AcDbCircle
 10
1042.206799264
 20
673.7199359349
 40
0.500001
100
AcDbArc
 50
-93.00000000001
 51
-3.000000000006
  0
LINE
  5
217
100
AcDbEntity
  8
_0-1_PRO0
  6
CONTINUOUS
 62
     0
100
AcDbLine
 10
1050.959011264
 20
674.7633089349
 11
1043.283934264
 21
675.165542935
  0
ARC
  5
218
100
AcDbEntity
  8
_0-1_PRO0
  6
CONTINUOUS
 62
     0
100
AcDbCircle
 10
1050.932845264
 20
674.263994935
 40
0.500001
100
AcDbArc
 50
-13.00000000002
 51
86.99999999999
  0
LINE
  5
219
100
AcDbEntity
  8
_0-1_PRO0
  6
CONTINUOUS
 62
     0
100
AcDbLine
 10
1051.420030264
 20
674.1515189349
 11
1050.836836264
 21
671.6254349349
  0
LINE
  5
21A
100
AcDbEntity
  8
_0-1_PRO0
  6
CONTINUOUS
 62
     0
100
AcDbLine
 10
1053.022300264
 20
674.6551769349
 11
1054.199644264
 21
674.5934759349
  0
ARC
  5
21B
100
AcDbEntity
  8
_0-1_PRO0
  6
CONTINUOUS
 62
     0
100
AcDbCircle
 10
1053.006598264
 20
674.3555879349
 40
0.3
100
AcDbArc
 50
86.99999999999
 51
167
  0
LINE
  5
21C
100
AcDbEntity
  8
_0-1_PRO0
  6
CONTINUOUS
 62
     0
100
AcDbLine
 10
1052.714287264
 20
674.4230729349
 11
1052.006080264
 21
671.355494935
  0
ARC
  5
21D
100
AcDbEntity
  8
_0-1_PRO0
  6
CONTINUOUS
 62
     0
100
AcDbCircle
 10
1054.147309264
 20
673.594844935
 40
0.999999
100
AcDbArc
 50
12
 51
86.99999999999
  0
ARC
  5
21E
100
AcDbEntity
  8
_0-1_PRO0
  6
CONTINUOUS
 62
     0
100
AcDbCircle
 10
1051.421458264
 20
671.4904649349
 40
0.6
100
AcDbArc
 50
167
 51
347
  0
LINE
  5
21F
100
AcDbEntity
  8
_0-1_PRO0
  6
CONTINUOUS
 62
     0
100
AcDbLine
 10
1057.900363264
 20
675.1770509349
 11
1069.856314264
 21
618.928727935
  0
LINE
  5
220
100
AcDbEntity
  8
_0-1_PRO0
  6
CONTINUOUS
 62
     0
100
AcDbLine
 10
1055.125456264
 20
673.8027569349
 11
1064.960464264
 21
627.532685935
  0
LINE
  5
221
100
AcDbEntity
  8
_0-1_PRO0
  6
CONTINUOUS
 62
     0
100
AcDbLine
 10
1065.425119264
 20
618.007451935
 11
1069.856314264
 21
618.791399935
  0
LINE
  5
222
100
AcDbEntity
  8
_0-1_PRO0
  6
CONTINUOUS
 62
     0
100
AcDbLine
 10
1042.711285264
 20
702.4534109349
 11
1042.621240264
 21
700.735268935
  0
LINE
  5
223
100
AcDbEntity
  8
_0-1_PRO0
  6
CONTINUOUS
 62
     0
100
AcDbLine
 10
1032.724990264
 20
702.9767699349
 11
1032.634945264
 21
701.258627935
  0
ARC
  5
224
100
AcDbEntity
  8
_0-1_PRO0
  6
CONTINUOUS
 62
     0
100
AcDbCircle
 10
1042.073836264
 20
680.7365099349
 40
0.500001
100
AcDbArc
 50
86.99999999999
 51
177
  0
LINE
  5
225
100
AcDbEntity
  8
_0-1_PRO0
  6
CONTINUOUS
 62
     0
100
AcDbLine
 10
1043.440942264
 20
678.1614329349
 11
1055.122930264
 21
677.549204935
  0
ARC
  5
226
100
AcDbEntity
  8
_0-1_PRO0
  6
CONTINUOUS
 62
     0
100
AcDbCircle
 10
1043.467108264
 20
678.660746935
 40
0.500001
100
AcDbArc
 50
177
 51
267
  0
LINE
  5
227
100
AcDbEntity
  8
_0-1_PRO0
  6
CONTINUOUS
 62
     0
100
AcDbLine
 10
1042.967794264
 20
678.6869159349
 11
1043.072467264
 21
680.6841749349
  0
ARC
  5
228
100
AcDbEntity
  8
_0-1_PRO0
  6
CONTINUOUS
 62
     0
100
AcDbCircle
 10
1042.573153264
 20
680.7103409349
 40
0.500001
100
AcDbArc
 50
-3.000000000006
 51
86.99999999999
  0
LINE
  5
229
100
AcDbEntity
  8
_0-1_PRO0
  6
CONTINUOUS
 62
     0
100
AcDbLine
 10
1042.599319264
 20
681.2096579349
 11
1042.100005264
 21
681.2358239349
  0
LINE
  5
22A
100
AcDbEntity
  8
_0-1_PRO0
  6
CONTINUOUS
 62
     0
100
AcDbLine
 10
1042.621240264
 20
700.735268935
 11
1041.155836264
 21
672.7736429349
  0
ARC
  5
22B
100
AcDbEntity
  8
_0-1_PRO0
  6
CONTINUOUS
 62
     0
100
AcDbCircle
 10
1054.965922264
 20
674.5533149349
 40
3
100
AcDbArc
 50
12
 51
87
  0
ARC
  5
22C
100
AcDbEntity
  8
_0-1_PRO0
  6
CONTINUOUS
 62
     0
100
AcDbCircle
 10
1012.904236264
 20
678.2597339349
 40
1.5
100
AcDbArc
 50
87
 51
267
  0
LINE
  5
22D
100
AcDbEntity
  8
_0-1_PRO0
  6
CONTINUOUS
 62
     0
100
AcDbLine
 10
171.8563152636
 20
763.8167639349
 11
1071.856315264
 21
763.8167639349
  0
ARC
  5
22E
100
AcDbEntity
  8
_0-1_PRO0
  6
CONTINUOUS
 62
     0
100
AcDbCircle
 10
230.8083942636
 20
678.2597339349
 40
1.5
100
AcDbArc
 50
-87
 51
93
  0
ARC
  5
22F
100
AcDbEntity
  8
_0-1_PRO0
  6
CONTINUOUS
 62
     0
100
AcDbCircle
 10
188.7467082636
 20
674.5533149349
 40
3
100
AcDbArc
 50
93
 51
168
  0
LINE
  5
230
100
AcDbEntity
  8
_0-1_PRO0
  6
CONTINUOUS
 62
     0
100
AcDbLine
 10
201.0913872636
 20
700.735268935
 11
202.5567942636
 21
672.7736429349
  0
LINE
  5
231
100
AcDbEntity
  8
_0-1_PRO0
  6
CONTINUOUS
 62
     0
100
AcDbLine
 10
201.1133112636
 20
681.2096579349
 11
201.6126252636
 21
681.2358239349
  0
ARC
  5
232
100
AcDbEntity
  8
_0-1_PRO0
  6
CONTINUOUS
 62
     0
100
AcDbCircle
 10
201.1394772636
 20
680.7103409349
 40
0.500001
100
AcDbArc
 50
93.00000000001
 51
183
  0
LINE
  5
233
100
AcDbEntity
  8
_0-1_PRO0
  6
CONTINUOUS
 62
     0
100
AcDbLine
 10
200.7448362636
 20
678.6869159349
 11
200.6401632636
 21
680.6841749349
  0
ARC
  5
234
100
AcDbEntity
  8
_0-1_PRO0
  6
CONTINUOUS
 62
     0
100
AcDbCircle
 10
200.2455192636
 20
678.660746935
 40
0.500001
100
AcDbArc
 50
-86.99999999999
 51
3.000000000006
  0
LINE
  5
235
100
AcDbEntity
  8
_0-1_PRO0
  6
CONTINUOUS
 62
     0
100
AcDbLine
 10
200.2716882636
 20
678.1614329349
 11
188.5897002636
 21
677.549204935
  0
ARC
  5
236
100
AcDbEntity
  8
_0-1_PRO0
  6
CONTINUOUS
 62
     0
100
AcDbCircle
 10
201.6387912636
 20
680.7365099349
 40
0.500001
100
AcDbArc
 50
3.000000000006
 51
93.00000000001
  0
LINE
  5
237
100
AcDbEntity
  8
_0-1_PRO0
  6
CONTINUOUS
 62
     0
100
AcDbLine
 10
210.9876402636
 20
702.9767699349
 11
211.0776822636
 21
701.258627935
  0
LINE
  5
238
100
AcDbEntity
  8
_0-1_PRO0
  6
CONTINUOUS
 62
     0
100
AcDbLine
 10
201.0013452636
 20
702.4534109349
 11
201.0913872636
 21
700.735268935
  0
LINE
  5
239
100
AcDbEntity
  8
_0-1_PRO0
  6
CONTINUOUS
 62
     0
100
AcDbLine
 10
178.2875082636
 20
618.007451935
 11
173.8563162636
 21
618.791399935
  0
LINE
  5
23A
100
AcDbEntity
  8
_0-1_PRO0
  6
CONTINUOUS
 62
     0
100
AcDbLine
 10
188.5871712636
 20
673.8027569349
 11
178.7521662636
 21
627.532685935
  0
LINE
  5
23B
100
AcDbEntity
  8
_0-1_PRO0
  6
CONTINUOUS
 62
     0
100
AcDbLine
 10
185.8122672636
 20
675.1770509349
 11
173.8563162636
 21
618.928727935
  0
ARC
  5
23C
100
AcDbEntity
  8
_0-1_PRO0
  6
CONTINUOUS
 62
     0
100
AcDbCircle
 10
192.2911722636
 20
671.4904649349
 40
0.6
100
AcDbArc
 50
-167
 51
13
  0
ARC
  5
23D
100
AcDbEntity
  8
_0-1_PRO0
  6
CONTINUOUS
 62
     0
100
AcDbCircle
 10
189.5653212636
 20
673.594844935
 40
0.999999
100
AcDbArc
 50
93
 51
168
  0
LINE
  5
23E
100
AcDbEntity
  8
_0-1_PRO0
  6
CONTINUOUS
 62
     0
100
AcDbLine
 10
190.9983432636
 20
674.4230729349
 11
191.7065502636
 21
671.355494935
  0
ARC
  5
23F
100
AcDbEntity
  8
_0-1_PRO0
  6
CONTINUOUS
 62
     0
100
AcDbCircle
 10
190.7060322636
 20
674.3555879349
 40
0.3
100
AcDbArc
 50
12.99999999998
 51
93.00000000002
  0
LINE
  5
240
100
AcDbEntity
  8
_0-1_PRO0
  6
CONTINUOUS
 62
     0
100
AcDbLine
 10
190.6903302636
 20
674.6551769349
 11
189.5129832636
 21
674.5934759349
  0
LINE
  5
241
100
AcDbEntity
  8
_0-1_PRO0
  6
CONTINUOUS
 62
     0
100
AcDbLine
 10
192.2926002636
 20
674.1515189349
 11
192.8757942636
 21
671.6254349349
  0
ARC
  5
242
100
AcDbEntity
  8
_0-1_PRO0
  6
CONTINUOUS
 62
     0
100
AcDbCircle
 10
192.7797852636
 20
674.263994935
 40
0.500001
100
AcDbArc
 50
93.00000000001
 51
193
  0
LINE
  5
243
100
AcDbEntity
  8
_0-1_PRO0
  6
CONTINUOUS
 62
     0
100
AcDbLine
 10
192.7536192636
 20
674.7633089349
 11
200.4286962636
 21
675.165542935
  0
ARC
  5
244
100
AcDbEntity
  8
_0-1_PRO0
  6
CONTINUOUS
 62
     0
100
AcDbCircle
 10
201.5058282636
 20
673.7199359349
 40
0.500001
100
AcDbArc
 50
-177
 51
-86.99999999999
  0
ARC
  5
245
100
AcDbEntity
  8
_0-1_PRO0
  6
CONTINUOUS
 62
     0
100
AcDbCircle
 10
202.0051452636
 20
673.746101935
 40
0.500001
100
AcDbArc
 50
-86.99999999999
 51
2.99999999998
  0
LINE
  5
246
100
AcDbEntity
  8
_0-1_PRO0
  6
CONTINUOUS
 62
     0
100
AcDbLine
 10
201.5319972636
 20
673.2206189349
 11
202.0313112636
 21
673.2467879349
  0
LINE
  5
247
100
AcDbEntity
  8
_0-1_PRO0
  6
CONTINUOUS
 62
     0
100
AcDbLine
 10
200.9541792636
 20
674.692397935
 11
201.0065142636
 21
673.6937669349
  0
ARC
  5
248
100
AcDbEntity
  8
_0-1_PRO0
  6
CONTINUOUS
 62
     0
100
AcDbCircle
 10
200.4548652636
 20
674.6662289349
 40
0.500001
100
AcDbArc
 50
3.000000000006
 51
93.00000000001
  0
ARC
  5
249
100
AcDbEntity
  8
_0-1_PRO0
  6
CONTINUOUS
 62
     0
100
AcDbCircle
 10
179.2412382636
 20
627.4287299349
 40
0.500001
100
AcDbArc
 50
168
 51
270
  0
LINE
  5
24A
100
AcDbEntity
  8
_0-1_PRO0
  6
CONTINUOUS
 62
     0
100
AcDbLine
 10
179.2412382636
 20
626.9287289349
 11
183.6237912636
 21
626.9287289349
  0
ARC
  5
24B
100
AcDbEntity
  8
_0-1_PRO0
  6
CONTINUOUS
 62
     0
100
AcDbCircle
 10
188.0237892636
 20
626.328728935
 40
0.6
100
AcDbArc
 50
-90
 51
90
  0
LINE
  5
24C
100
AcDbEntity
  8
_0-1_PRO0
  6
CONTINUOUS
 62
     0
100
AcDbLine
 10
185.6237892636
 20
626.9287289349
 11
183.6237912636
 21
627.928727935
  0
LINE
  5
24D
100
AcDbEntity
  8
_0-1_PRO0
  6
CONTINUOUS
 62
     0
100
AcDbLine
 10
183.6237912636
 20
627.928727935
 11
183.6237912636
 21
626.9287289349
  0
LINE
  5
24E
100
AcDbEntity
  8
_0-1_PRO0
  6
CONTINUOUS
 62
     0
100
AcDbLine
 10
188.0237892636
 20
626.9287289349
 11
185.6237892636
 21
626.9287289349
  0
ARC
  5
24F
100
AcDbEntity
  8
_0-1_PRO0
  6
CONTINUOUS
 62
     0
100
AcDbCircle
 10
176.3563152636
 20
617.428727935
 40
2.499999
100
AcDbArc
 50
180
 51
270
  0
LINE
  5
250
100
AcDbEntity
  8
_0-1_PRO0
  6
CONTINUOUS
 62
     0
100
AcDbLine
 10
176.3563152636
 20
614.9287289349
 11
176.8563162636
 21
614.9287289349
  0
LINE
  5
251
100
AcDbEntity
  8
_0-1_PRO0
  6
CONTINUOUS
 62
     0
100
AcDbLine
 10
176.8563162636
 20
618.6134159349
 11
176.8563162636
 21
614.9287289349
  0
LINE
  5
252
100
AcDbEntity
  8
_0-1_PRO0
  6
CONTINUOUS
 62
     0
100
AcDbLine
 10
178.2845412636
 20
625.3326839349
 11
176.8563162636
 21
618.6134159349
  0
ARC
  5
253
100
AcDbEntity
  8
_0-1_PRO0
  6
CONTINUOUS
 62
     0
100
AcDbCircle
 10
178.7736132636
 20
625.228727935
 40
0.500001
100
AcDbArc
 50
90
 51
168
  0
LINE
  5
254
100
AcDbEntity
  8
_0-1_PRO0
  6
CONTINUOUS
 62
     0
100
AcDbLine
 10
178.7736132636
 20
625.7287289349
 11
188.0237892636
 21
625.7287289349
  0
ARC
  5
255
100
AcDbEntity
  8
_0-1_PRO0
  6
CONTINUOUS
 62
     0
100
AcDbCircle
 10
195.0174762636
 20
694.6295159349
 40
3
100
AcDbArc
 50
93
 51
169.875328
  0
LINE
  5
256
100
AcDbEntity
  8
_0-1_PRO0
  6
CONTINUOUS
 62
     0
100
AcDbLine
 10
192.0641952636
 20
695.1568889349
 11
178.2875082636
 21
618.007451935
  0
ARC
  5
257
100
AcDbEntity
  8
_0-1_PRO0
  6
CONTINUOUS
 62
     0
100
AcDbCircle
 10
174.8563152636
 20
700.081835935
 40
0.999999
100
AcDbArc
 50
93
 51
180
  0
LINE
  5
258
100
AcDbEntity
  8
_0-1_PRO0
  6
CONTINUOUS
 62
     0
100
AcDbLine
 10
173.8563162636
 20
700.081835935
 11
173.8563162636
 21
615.928727935
  0
LINE
  5
259
100
AcDbEntity
  8
_0-1_PRO0
  6
CONTINUOUS
 62
     0
100
AcDbLine
 10
187.6342722636
 20
695.9479469349
 11
173.8563162636
 21
618.791399935
  0
LINE
  5
25A
100
AcDbEntity
  8
_0-1_PRO0
  6
CONTINUOUS
 62
     0
100
AcDbLine
 10
171.8563152636
 20
700.081835935
 11
171.8563152636
 21
615.928727935
  0
ARC
  5
25B
100
AcDbEntity
  8
_0-1_PRO0
  6
CONTINUOUS
 62
     0
100
AcDbCircle
 10
174.8563152636
 20
700.081835935
 40
3
100
AcDbArc
 50
93
 51
180
  0
LINE
  5
25C
100
AcDbEntity
  8
_0-1_PRO0
  6
CONTINUOUS
 62
     0
100
AcDbLine
 10
174.8563152636
 20
612.928727935
 11
181.8563172636
 21
612.928727935
  0
ARC
  5
25D
100
AcDbEntity
  8
_0-1_PRO0
  6
CONTINUOUS
 62
     0
100
AcDbCircle
 10
174.8563152636
 20
615.928727935
 40
3
100
AcDbArc
 50
180
 51
270
  0
LINE
  5
25E
100
AcDbEntity
  8
_0-1_PRO0
  6
CONTINUOUS
 62
     0
100
AcDbLine
 10
174.8563152636
 20
614.9287289349
 11
181.8563172636
 21
614.9287289349
  0
ARC
  5
25F
100
AcDbEntity
  8
_0-1_PRO0
  6
CONTINUOUS
 62
     0
100
AcDbCircle
 10
174.8563152636
 20
615.928727935
 40
0.999999
100
AcDbArc
 50
180
 51
270
  0
LINE
  5
260
100
AcDbEntity
  8
_0-1_PRO0
  6
CONTINUOUS
 62
     0
100
AcDbLine
 10
210.7844052636
 20
702.966119935
 11
210.9994692636
 21
702.751055935
  0
LINE
  5
261
100
AcDbEntity
  8
_0-1_PRO0
  6
CONTINUOUS
 62
     0
100
AcDbLine
 10
209.4298662636
 20
702.8951309349
 11
211.0669332636
 21
701.2580639349
  0
LINE
  5
262
100
AcDbEntity
  8
_0-1_PRO0
  6
CONTINUOUS
 62
     0
100
AcDbLine
 10
201.6711642636
 20
700.7656529349
 11
201.0576432636
 21
701.3791739349
  0
LINE
  5
263
100
AcDbEntity
  8
_0-1_PRO0
  6
CONTINUOUS
 62
     0
100
AcDbLine
 10
201.3778872636
 20
702.4731449349
 11
203.0149512636
 21
700.836077935
  0
LINE
  5
264
100
AcDbEntity
  8
_0-1_PRO0
  6
CONTINUOUS
 62
     0
100
AcDbLine
 10
202.7216742636
 20
702.543569935
 11
204.3587412636
 21
700.9065029349
  0
LINE
  5
265
100
AcDbEntity
  8
_0-1_PRO0
  6
CONTINUOUS
 62
     0
100
AcDbLine
 10
204.0654642636
 20
702.6139949349
 11
205.7025282636
 21
700.976927935
  0
LINE
  5
266
100
AcDbEntity
  8
_0-1_PRO0
  6
CONTINUOUS
 62
     0
100
AcDbLine
 10
205.4092512636
 20
702.684419935
 11
207.0463182636
 21
701.0473529349
  0
LINE
  5
267
100
AcDbEntity
  8
_0-1_PRO0
  6
CONTINUOUS
 62
     0
100
AcDbLine
 10
206.7530412636
 20
702.7548449349
 11
208.3901052636
 21
701.117777935
  0
LINE
  5
268
100
AcDbEntity
  8
_0-1_PRO0
  6
CONTINUOUS
 62
     0
100
AcDbLine
 10
208.0968282636
 20
702.825269935
 11
209.7338952636
 21
701.1882029349
  0
ARC
  5
269
100
AcDbEntity
  8
_0-1_PRO0
  6
CONTINUOUS
 62
     0
100
AcDbCircle
 10
195.0174762636
 20
694.6295159349
 40
7.5
100
AcDbArc
 50
93
 51
169.875328
  0
LINE
  5
26A
100
AcDbEntity
  8
_0-1_PRO0
  6
CONTINUOUS
 62
     0
100
AcDbLine
 10
181.8563172636
 20
614.9287289349
 11
181.8563172636
 21
612.928727935
  0
LINE
  5
26B
100
AcDbEntity
  8
_0-1_PRO0
  6
CONTINUOUS
 62
     0
100
AcDbLine
 10
174.6993072636
 20
703.0777229349
 11
621.8563152636
 21
726.5122312495
  0
LINE
  5
26C
100
AcDbEntity
  8
_0-1_PRO0
  6
CONTINUOUS
 62
     0
100
AcDbLine
 10
202.5567942636
 20
672.7736429349
 11
621.8563152636
 21
694.7481982494
  0
LINE
  5
26D
100
AcDbEntity
  8
_0-1_PRO0
  6
CONTINUOUS
 62
     0
100
AcDbLine
 10
202.5044592636
 20
673.772270935
 11
621.8563152636
 21
695.7495712494
  0
LINE
  5
26E
100
AcDbEntity
  8
_0-1_PRO0
  6
CONTINUOUS
 62
     0
100
AcDbLine
 10
202.4259552636
 20
675.2702159349
 11
621.8563152636
 21
697.2516292494
  0
LINE
  5
26F
100
AcDbEntity
  8
_0-1_PRO0
  6
CONTINUOUS
 62
     0
100
AcDbLine
 10
202.2689472636
 20
678.2661029349
 11
621.8563152636
 21
700.2557482494
  0
LINE
  5
270
100
AcDbEntity
  8
_0-1_PRO0
  6
CONTINUOUS
 62
     0
100
AcDbLine
 10
202.1747412636
 20
680.0636369349
 11
621.8563152636
 21
702.0582172494
  0
LINE
  5
271
100
AcDbEntity
  8
_0-1_PRO0
  6
CONTINUOUS
 62
     0
100
AcDbLine
 10
201.4054032636
 20
694.743491935
 11
621.8563152636
 21
716.7783922495
  0
LINE
  5
272
100
AcDbEntity
  8
_0-1_PRO0
  6
CONTINUOUS
 62
     0
100
AcDbLine
 10
201.3268992636
 20
696.241436935
 11
621.8563152636
 21
718.2804502495
  0
LINE
  5
273
100
AcDbEntity
  8
_0-1_PRO0
  6
CONTINUOUS
 62
     0
100
AcDbLine
 10
201.0913872636
 20
700.735268935
 11
621.8563152636
 21
722.7866242494
  0
LINE
  5
274
100
AcDbEntity
  8
_0-1_PRO0
  6
CONTINUOUS
 62
     0
100
AcDbLine
 10
195.0622962636
 20
697.635980935
 11
621.8824842636
 21
720.0046822494
  0
LINE
  5
275
100
AcDbEntity
  8
_0-1_PRO0
  6
CONTINUOUS
 62
     0
100
AcDbLine
 10
171.8563152636
 20
763.8167639349
 11
174.8563152636
 21
763.0667639349
  0
LINE
  5
276
100
AcDbEntity
  8
_0-1_PRO0
  6
CONTINUOUS
 62
     0
100
AcDbLine
 10
171.8563152636
 20
763.8167639349
 11
174.8563152636
 21
764.5667639349
  0
LINE
  5
277
100
AcDbEntity
  8
_0-1_PRO0
  6
CONTINUOUS
 62
     0
100
AcDbLine
 10
171.8563152636
 20
701.0818349349
 11
171.8563152636
 21
767.816762935
  0
TEXT
  5
278
100
AcDbEntity
  8
_0-1_PRO0
  6
CONTINUOUS
 62
     0
100
AcDbText
 10
619.5680569745
 20
775.6511527414
 40
9
  1
Ｗ
  7
STANDARD
100
AcDbText
  0
TEXT
  5
279
100
AcDbEntity
  8
_0-1_PRO0
  6
CONTINUOUS
 62
     0
100
AcDbText
 10
589.8829128565
 20
765.4316768976
 40
9
  1
（キャップ幅）
  7
STANDARD
100
AcDbText
  0
TEXT
  5
27A
100
AcDbEntity
  8
_0-1_PRO0
  6
CONTINUOUS
 62
     0
100
AcDbText
 10
1094.049051937
 20
629.7168102881
 40
9
  1
44
 50
90.000003
  7
STANDARD
100
AcDbText
  0
TEXT
  5
27B
100
AcDbEntity
  8
_0-1_PRO0
  6
CONTINUOUS
 62
     0
100
AcDbText
 10
1118.780650723
 20
644.8439046913
 40
9
  1
90
 50
90.000003
  7
STANDARD
100
AcDbText
  0
LINE
  5
27C
100
AcDbEntity
  8
_2-0_
  6
CONTINUOUS
 62
     0
100
AcDbLine
 10
1017.333965626
 20
326.502845354
 11
814.8339656255
 21
326.502845354
  0
LINE
  5
27D
100
AcDbEntity
  8
_2-0_
  6
CONTINUOUS
 62
     0
100
AcDbLine
 10
1017.333965626
 20
308.502845354
 11
814.8339656255
 21
308.502845354
  0
TEXT
  5
27E
100
AcDbEntity
  8
_2-0_
  6
CONTINUOUS
 62
     0
100
AcDbText
 10
846.2089648755
 20
312.377845354
 40
7.5
  1
タ　イ　プ
  7
STANDARD
100
AcDbText
  0
TEXT
  5
27F
100
AcDbEntity
  8
_2-0_
  6
CONTINUOUS
 62
     0
100
AcDbText
 10
944.7089656255
 20
312.377845354
 40
7.5
  1
Ｗ
 41
0.9986666666667
  7
STANDARD
100
AcDbText
  0
TEXT
  5
280
100
AcDbEntity
  8
_2-0_
  6
CONTINUOUS
 62
     0
100
AcDbText
 10
989.7089656255
 20
312.377845354
 40
7.5
  1
Ｃ
 41
0.9986666666667
  7
STANDARD
100
AcDbText
  0
TEXT
  5
281
100
AcDbEntity
  8
_2-0_
  6
CONTINUOUS
 62
     0
100
AcDbText
 10
952.0839656255
 20
326.8645263855
 40
7.5
  1
（単位：mm）
  7
STANDARD
100
AcDbText
  0
LINE
  5
282
100
AcDbEntity
  8
_0-1_PRO0
  6
CONTINUOUS
 62
     0
100
AcDbLine
 10
621.8563152636
 20
724.5094847901
 11
174.8039802636
 21
701.0804639349
  0
LINE
  5
283
100
AcDbEntity
  8
_0-1_PRO0
  6
CONTINUOUS
 62
     0
100
AcDbLine
 10
1068.908650264
 20
701.0804639349
 11
621.8563152636
 21
724.5094847901
  0
LINE
  5
284
100
AcDbEntity
  8
_0-1_PRO0
  6
CONTINUOUS
 62
     0
100
AcDbLine
 10
1071.856315264
 20
614.9287289349
 11
1071.856315264
 21
396.4930136136
  0
LINE
  5
285
100
AcDbEntity
  8
_0-1_PRO0
  6
CONTINUOUS
 62
     0
100
AcDbLine
 10
1071.856315264
 20
400.4930126135
 11
1068.856315264
 21
399.7430126135
  0
LINE
  5
286
100
AcDbEntity
  8
_0-1_PRO0
  6
CONTINUOUS
 62
     0
100
AcDbLine
 10
1071.856315264
 20
400.4930126135
 11
1068.856315264
 21
401.2430126135
  0
LINE
  5
287
100
AcDbEntity
  8
_0-1_PRO0
  6
CONTINUOUS
 62
     0
100
AcDbLine
 10
171.8563152636
 20
400.4930126135
 11
174.8563152636
 21
399.7430126135
  0
LINE
  5
288
100
AcDbEntity
  8
_0-1_PRO0
  6
CONTINUOUS
 62
     0
100
AcDbLine
 10
171.8563152636
 20
400.4930126135
 11
174.8563152636
 21
401.2430126135
  0
LINE
  5
289
100
AcDbEntity
  8
_0-1_PRO0
  6
CONTINUOUS
 62
     0
100
AcDbLine
 10
171.8563152636
 20
614.9287289349
 11
171.8563152636
 21
396.4930136136
  0
LINE
  5
28A
100
AcDbEntity
  8
_0-1_PRO0
  6
CONTINUOUS
 62
     0
100
AcDbLine
 10
621.8563152636
 20
738.7810822495
 11
621.8563152636
 21
390.5158328457
  0
LINE
  5
28B
100
AcDbEntity
  8
_2-0_
  6
CONTINUOUS
 62
     0
100
AcDbLine
 10
682.8339656255
 20
254.502845354
 11
582.3339656255
 21
254.502845354
  0
LINE
  5
28C
100
AcDbEntity
  8
_2-0_
  6
CONTINUOUS
 62
     0
100
AcDbLine
 10
684.3339656255
 20
254.502845354
 11
784.8339656255
 21
254.502845354
  0
LINE
  5
28D
100
AcDbEntity
  8
_2-0_
  6
CONTINUOUS
 62
     0
100
AcDbLine
 10
267.3339656255
 20
74.50284535395
 11
267.3339656255
 21
326.502845354
  0
LINE
  5
28E
100
AcDbEntity
  8
_2-0_
  6
CONTINUOUS
 62
     0
100
AcDbLine
 10
288.3339656255
 20
74.50284535395
 11
288.3339656255
 21
326.502845354
  0
LINE
  5
28F
100
AcDbEntity
  8
_2-0_
  6
CONTINUOUS
 62
     0
100
AcDbLine
 10
438.3339656255
 20
74.50284535395
 11
438.3339656255
 21
326.502845354
  0
LINE
  5
290
100
AcDbEntity
  8
_2-0_
  6
CONTINUOUS
 62
     0
100
AcDbLine
 10
582.3339656255
 20
74.50284535395
 11
582.3339656255
 21
326.502845354
  0
LINE
  5
291
100
AcDbEntity
  8
_2-0_
  6
CONTINUOUS
 62
     0
100
AcDbLine
 10
580.8339656255
 20
74.50284535395
 11
580.8339656255
 21
326.502845354
  0
LINE
  5
292
100
AcDbEntity
  8
_2-0_
  6
CONTINUOUS
 62
     0
100
AcDbLine
 10
634.8339656255
 20
74.50284535395
 11
634.8339656255
 21
326.502845354
  0
LINE
  5
293
100
AcDbEntity
  8
_2-0_
  6
CONTINUOUS
 62
     0
100
AcDbLine
 10
661.8339656255
 20
74.50284535395
 11
661.8339656255
 21
326.502845354
  0
LINE
  5
294
100
AcDbEntity
  8
_2-0_
  6
CONTINUOUS
 62
     0
100
AcDbLine
 10
684.3339656255
 20
74.50284535395
 11
684.3339656255
 21
326.502845354
  0
LINE
  5
295
100
AcDbEntity
  8
_2-0_
  6
CONTINUOUS
 62
     0
100
AcDbLine
 10
682.8339656255
 20
74.50284535395
 11
682.8339656255
 21
326.502845354
  0
LINE
  5
296
100
AcDbEntity
  8
_2-0_
  6
CONTINUOUS
 62
     0
100
AcDbLine
 10
736.8339656255
 20
74.50284535395
 11
736.8339656255
 21
326.502845354
  0
LINE
  5
297
100
AcDbEntity
  8
_2-0_
  6
CONTINUOUS
 62
     0
100
AcDbLine
 10
763.8339656255
 20
74.50284535395
 11
763.8339656255
 21
326.502845354
  0
LINE
  5
298
100
AcDbEntity
  8
_2-0_
  6
CONTINUOUS
 62
     0
100
AcDbLine
 10
784.8339656255
 20
74.50284535395
 11
784.8339656255
 21
326.502845354
  0
LINE
  5
299
100
AcDbEntity
  8
_0-1_PRO0
  6
CONTINUOUS
 62
     0
100
AcDbLine
 10
343.5823332636
 20
714.2257684966
 11
403.5823332636
 21
717.3702334966
  0
LINE
  5
29A
100
AcDbEntity
  8
_0-1_PRO0
  6
CONTINUOUS
 62
     0
100
AcDbLine
 10
343.5823332636
 20
717.3702334966
 11
403.5823332636
 21
717.3702334966
  0
TEXT
  5
29B
100
AcDbEntity
  8
_0-1_PRO0
  6
CONTINUOUS
 62
     0
100
AcDbText
 10
343.699386334
 20
718.5531607739
 40
9
  1
（勾配３度）
  7
STANDARD
100
AcDbText
  0
LINE
  5
29C
100
AcDbEntity
  8
_0-3_
  6
CONTINUOUS
 62
     0
100
AcDbLine
 10
343.5823332636
 20
717.3702334966
 11
343.5823332636
 21
714.2257684966
  0
LINE
  5
29D
100
AcDbEntity
  8
_0-1_PRO0
  6
CONTINUOUS
 62
     0
100
AcDbLine
 10
471.8563162636
 20
400.4930126135
 11
474.8563162636
 21
399.7430126135
  0
LINE
  5
29E
100
AcDbEntity
  8
_0-1_PRO0
  6
CONTINUOUS
 62
     0
100
AcDbLine
 10
471.8563162636
 20
400.4930126135
 11
474.8563162636
 21
401.2430126135
  0
LINE
  5
29F
100
AcDbEntity
  8
_0-1_PRO0
  6
CONTINUOUS
 62
     0
100
AcDbLine
 10
471.8563162636
 20
400.4930126135
 11
468.8563162636
 21
401.2430126135
  0
LINE
  5
2A0
100
AcDbEntity
  8
_0-1_PRO0
  6
CONTINUOUS
 62
     0
100
AcDbLine
 10
471.8563162636
 20
400.4930126135
 11
468.8563162636
 21
399.7430126135
  0
LINE
  5
2A1
100
AcDbEntity
  8
_0-1_PRO0
  6
CONTINUOUS
 62
     0
100
AcDbLine
 10
471.8563162636
 20
656.798534935
 11
471.8563162636
 21
498.1074861879
  0
LINE
  5
2A2
100
AcDbEntity
  8
_0-1_PRO0
  6
CONTINUOUS
 62
     0
100
AcDbLine
 10
471.8563162636
 20
490.5565141212
 11
471.8563162636
 21
396.4930136136
  0
LINE
  5
2A3
100
AcDbEntity
  8
_0-1_PRO0
  6
CONTINUOUS
 62
     0
100
AcDbLine
 10
771.8563142636
 20
400.4930126135
 11
768.8563142636
 21
399.7430126135
  0
LINE
  5
2A4
100
AcDbEntity
  8
_0-1_PRO0
  6
CONTINUOUS
 62
     0
100
AcDbLine
 10
771.8563142636
 20
400.4930126135
 11
768.8563142636
 21
401.2430126135
  0
LINE
  5
2A5
100
AcDbEntity
  8
_0-1_PRO0
  6
CONTINUOUS
 62
     0
100
AcDbLine
 10
771.8563142636
 20
400.4930126135
 11
774.8563142636
 21
401.2430126135
  0
LINE
  5
2A6
100
AcDbEntity
  8
_0-1_PRO0
  6
CONTINUOUS
 62
     0
100
AcDbLine
 10
771.8563142636
 20
400.4930126135
 11
774.8563142636
 21
399.7430126135
  0
LINE
  5
2A7
100
AcDbEntity
  8
_0-1_PRO0
  6
CONTINUOUS
 62
     0
100
AcDbLine
 10
771.8563142636
 20
656.798534935
 11
771.8563142636
 21
498.1074861879
  0
LINE
  5
2A8
100
AcDbEntity
  8
_0-1_PRO0
  6
CONTINUOUS
 62
     0
100
AcDbLine
 10
771.8563142636
 20
490.5565141212
 11
771.8563142636
 21
396.4930136136
  0
LINE
  5
2A9
100
AcDbEntity
  8
_0-1_PRO0
  6
CONTINUOUS
 62
     0
100
AcDbLine
 10
471.8563162636
 20
400.4930126135
 11
771.8563142636
 21
400.4930126135
  0
LINE
  5
2AA
100
AcDbEntity
  8
_1-0_
  6
CONTINUOUS
 62
     0
100
AcDbLine
 10
396.620747978
 20
673.376497935
 11
387.433355978
 21
672.895006935
  0
LINE
  5
2AB
100
AcDbEntity
  8
_2-0_
  6
CONTINUOUS
 62
     0
100
AcDbLine
 10
406.838642978
 20
657.3725574067
 11
406.4126654497
 21
657.798534935
  0
ARC
  5
2AC
100
AcDbEntity
  8
_2-0_
  6
CONTINUOUS
 62
     0
100
AcDbCircle
 10
406.838642978
 20
649.548534935
 40
8.25
100
AcDbArc
 50
71.07535558395
 51
90
  0
ARC
  5
2AD
100
AcDbEntity
  8
_2-0_
  6
CONTINUOUS
 62
     0
100
AcDbCircle
 10
406.838642978
 20
649.548534935
 40
9.25
100
AcDbArc
 50
71.07535558395
 51
90
  0
ARC
  5
2AE
100
AcDbEntity
  8
_2-0_
  6
CONTINUOUS
 62
     0
100
AcDbCircle
 10
412.838642978
 20
667.048534935
 40
9.25
100
AcDbArc
 50
-108.9246444161
 51
-90
  0
LINE
  5
2AF
100
AcDbEntity
  8
_1-0_
  6
CONTINUOUS
 62
     0
100
AcDbLine
 10
391.8563162636
 20
611.365133935
 11
391.8563162636
 21
656.798534935
  0
LINE
  5
2B0
100
AcDbEntity
  8
_1-0_
  6
CONTINUOUS
 62
     0
100
AcDbLine
 10
387.1063142636
 20
647.798534935
 11
387.8063162636
 21
648.498533935
  0
LINE
  5
2B1
100
AcDbEntity
  8
_1-0_
  6
CONTINUOUS
 62
     0
100
AcDbLine
 10
387.8063162636
 20
657.798533935
 11
387.8063162636
 21
648.498533935
  0
LINE
  5
2B2
100
AcDbEntity
  8
_1-0_
  6
CONTINUOUS
 62
     0
100
AcDbLine
 10
387.1063142636
 20
629.170361935
 11
387.1063142636
 21
647.798534935
  0
LINE
  5
2B3
100
AcDbEntity
  8
_1-0_
  6
CONTINUOUS
 62
     0
100
AcDbLine
 10
387.3563162636
 20
617.298533935
 11
387.3563162636
 21
618.1618379349
  0
LINE
  5
2B4
100
AcDbEntity
  8
_1-0_
  6
CONTINUOUS
 62
     0
100
AcDbLine
 10
385.2312842636
 20
618.536537935
 11
387.1063142636
 21
629.170361935
  0
LINE
  5
2B5
100
AcDbEntity
  8
_1-0_
  6
CONTINUOUS
 62
     0
100
AcDbLine
 10
391.3563152636
 20
628.798532935
 11
392.3563142636
 21
628.798532935
  0
LINE
  5
2B6
100
AcDbEntity
  8
_1-0_
  6
CONTINUOUS
 62
     0
100
AcDbLine
 10
396.6063152636
 20
647.798534935
 11
395.9063162636
 21
648.498533935
  0
LINE
  5
2B7
100
AcDbEntity
  8
_1-0_
  6
CONTINUOUS
 62
     0
100
AcDbLine
 10
395.9063162636
 20
657.798533935
 11
395.9063162636
 21
648.498533935
  0
LINE
  5
2B8
100
AcDbEntity
  8
_1-0_
  6
CONTINUOUS
 62
     0
100
AcDbLine
 10
396.6063152636
 20
629.170361935
 11
396.6063152636
 21
647.798534935
  0
LINE
  5
2B9
100
AcDbEntity
  8
_1-0_
  6
CONTINUOUS
 62
     0
100
AcDbLine
 10
395.3563142636
 20
616.298534935
 11
388.3563152636
 21
616.298534935
  0
ARC
  5
2BA
100
AcDbEntity
  8
_1-0_
  6
CONTINUOUS
 62
     0
100
AcDbCircle
 10
395.3563142636
 20
617.298533935
 40
0.999999
100
AcDbArc
 50
-90
 51
0
  0
LINE
  5
2BB
100
AcDbEntity
  8
_1-0_
  6
CONTINUOUS
 62
     0
100
AcDbLine
 10
396.3563162636
 20
617.298533935
 11
396.3563162636
 21
618.1618379349
  0
LINE
  5
2BC
100
AcDbEntity
  8
_1-0_
  6
CONTINUOUS
 62
     0
100
AcDbLine
 10
398.4813452636
 20
618.536537935
 11
394.2959132636
 21
617.798534935
  0
LINE
  5
2BD
100
AcDbEntity
  8
_1-0_
  6
CONTINUOUS
 62
     0
100
AcDbLine
 10
391.3563152636
 20
628.798532935
 11
389.4167192636
 21
617.798534935
  0
LINE
  5
2BE
100
AcDbEntity
  8
_1-0_
  6
CONTINUOUS
 62
     0
100
AcDbLine
 10
392.3563142636
 20
628.798532935
 11
394.2959132636
 21
617.798534935
  0
LINE
  5
2BF
100
AcDbEntity
  8
_1-0_
  6
CONTINUOUS
 62
     0
100
AcDbLine
 10
398.4813452636
 20
618.536537935
 11
396.6063152636
 21
629.170361935
  0
LINE
  5
2C0
100
AcDbEntity
  8
_1-0_
  6
CONTINUOUS
 62
     0
100
AcDbLine
 10
387.1063142636
 20
647.798534935
 11
396.6063152636
 21
647.798534935
  0
LINE
  5
2C1
100
AcDbEntity
  8
_1-0_
  6
CONTINUOUS
 62
     0
100
AcDbLine
 10
387.8063162636
 20
648.498533935
 11
395.9063162636
 21
648.498533935
  0
LINE
  5
2C2
100
AcDbEntity
  8
_1-0_
  6
CONTINUOUS
 62
     0
100
AcDbLine
 10
385.2312842636
 20
618.536537935
 11
389.4167192636
 21
617.798534935
  0
ARC
  5
2C3
100
AcDbEntity
  8
_1-0_
  6
CONTINUOUS
 62
     0
100
AcDbCircle
 10
388.3563152636
 20
617.298533935
 40
0.999999
100
AcDbArc
 50
180
 51
270
  0
LINE
  5
2C4
100
AcDbEntity
  8
_2-0_
  6
CONTINUOUS
 62
     0
100
AcDbLine
 10
405.9984518874
 20
656.798534935
 11
404.9984518874
 21
657.798534935
  0
LINE
  5
2C5
100
AcDbEntity
  8
_2-0_
  6
CONTINUOUS
 62
     0
100
AcDbLine
 10
404.584238325
 20
656.798534935
 11
403.584238325
 21
657.798534935
  0
LINE
  5
2C6
100
AcDbEntity
  8
_2-0_
  6
CONTINUOUS
 62
     0
100
AcDbLine
 10
403.1700247626
 20
656.798534935
 11
402.1700247626
 21
657.798534935
  0
LINE
  5
2C7
100
AcDbEntity
  8
_2-0_
  6
CONTINUOUS
 62
     0
100
AcDbLine
 10
401.7558112002
 20
656.798534935
 11
400.7558112002
 21
657.798534935
  0
LINE
  5
2C8
100
AcDbEntity
  8
_2-0_
  6
CONTINUOUS
 62
     0
100
AcDbLine
 10
400.3415976379
 20
656.798534935
 11
399.3415976379
 21
657.798534935
  0
LINE
  5
2C9
100
AcDbEntity
  8
_2-0_
  6
CONTINUOUS
 62
     0
100
AcDbLine
 10
398.9273840755
 20
656.798534935
 11
397.9273840755
 21
657.798534935
  0
LINE
  5
2CA
100
AcDbEntity
  8
_2-0_
  6
CONTINUOUS
 62
     0
100
AcDbLine
 10
397.5131705131
 20
656.798534935
 11
396.5131705131
 21
657.798534935
  0
LINE
  5
2CB
100
AcDbEntity
  8
_2-0_
  6
CONTINUOUS
 62
     0
100
AcDbLine
 10
396.0989569508
 20
656.798534935
 11
395.0989569508
 21
657.798534935
  0
LINE
  5
2CC
100
AcDbEntity
  8
_2-0_
  6
CONTINUOUS
 62
     0
100
AcDbLine
 10
394.6847433884
 20
656.798534935
 11
393.6847433884
 21
657.798534935
  0
LINE
  5
2CD
100
AcDbEntity
  8
_2-0_
  6
CONTINUOUS
 62
     0
100
AcDbLine
 10
393.270529826
 20
656.798534935
 11
392.270529826
 21
657.798534935
  0
LINE
  5
2CE
100
AcDbEntity
  8
_2-0_
  6
CONTINUOUS
 62
     0
100
AcDbLine
 10
391.8563162636
 20
656.798534935
 11
390.8563162636
 21
657.798534935
  0
LINE
  5
2CF
100
AcDbEntity
  8
_2-0_
  6
CONTINUOUS
 62
     0
100
AcDbLine
 10
390.4421027013
 20
656.798534935
 11
389.4421027013
 21
657.798534935
  0
LINE
  5
2D0
100
AcDbEntity
  8
_2-0_
  6
CONTINUOUS
 62
     0
100
AcDbLine
 10
389.0278891389
 20
656.798534935
 11
388.0278891389
 21
657.798534935
  0
LINE
  5
2D1
100
AcDbEntity
  8
_2-0_
  6
CONTINUOUS
 62
     0
100
AcDbLine
 10
387.6136755765
 20
656.798534935
 11
386.6136755765
 21
657.798534935
  0
LINE
  5
2D2
100
AcDbEntity
  8
_2-0_
  6
CONTINUOUS
 62
     0
100
AcDbLine
 10
386.1994620141
 20
656.798534935
 11
385.1994620141
 21
657.798534935
  0
LINE
  5
2D3
100
AcDbEntity
  8
_2-0_
  6
CONTINUOUS
 62
     0
100
AcDbLine
 10
384.7852484518
 20
656.798534935
 11
383.7852484518
 21
657.798534935
  0
LINE
  5
2D4
100
AcDbEntity
  8
_2-0_
  6
CONTINUOUS
 62
     0
100
AcDbLine
 10
383.3710348894
 20
656.798534935
 11
382.3710348894
 21
657.798534935
  0
LINE
  5
2D5
100
AcDbEntity
  8
_2-0_
  6
CONTINUOUS
 62
     0
100
AcDbLine
 10
381.956821327
 20
656.798534935
 11
380.956821327
 21
657.798534935
  0
LINE
  5
2D6
100
AcDbEntity
  8
_2-0_
  6
CONTINUOUS
 62
     0
100
AcDbLine
 10
380.5426077646
 20
656.798534935
 11
379.5426077646
 21
657.798534935
  0
LINE
  5
2D7
100
AcDbEntity
  8
_2-0_
  6
CONTINUOUS
 62
     0
100
AcDbLine
 10
379.1283942023
 20
656.798534935
 11
378.1283942023
 21
657.798534935
  0
LINE
  5
2D8
100
AcDbEntity
  8
_2-0_
  6
CONTINUOUS
 62
     0
100
AcDbLine
 10
377.7141806399
 20
656.798534935
 11
376.838642978
 21
657.6740725969
  0
LINE
  5
2D9
100
AcDbEntity
  8
_2-0_
  6
CONTINUOUS
 62
     0
100
AcDbLine
 10
376.838642978
 20
656.798534935
 11
406.838642978
 21
656.798534935
  0
LINE
  5
2DA
100
AcDbEntity
  8
_2-0_
  6
CONTINUOUS
 62
     0
100
AcDbLine
 10
406.838642978
 20
656.798534935
 11
406.838642978
 21
657.798534935
  0
LINE
  5
2DB
100
AcDbEntity
  8
_2-0_
  6
CONTINUOUS
 62
     0
100
AcDbLine
 10
406.838642978
 20
657.798534935
 11
376.838642978
 21
657.798534935
  0
LINE
  5
2DC
100
AcDbEntity
  8
_2-0_
  6
CONTINUOUS
 62
     0
100
AcDbLine
 10
376.838642978
 20
657.798534935
 11
376.838642978
 21
656.798534935
  0
ARC
  5
2DD
100
AcDbEntity
  8
_2-0_
  6
CONTINUOUS
 62
     0
100
AcDbCircle
 10
412.838642978
 20
667.048534935
 40
10.25
100
AcDbArc
 50
-108.9246444161
 51
-90
  0
LINE
  5
2DE
100
AcDbEntity
  8
_1-0_
  6
CONTINUOUS
 62
     0
100
AcDbLine
 10
382.838642978
 20
662.9073049349
 11
382.838642978
 21
661.3073059349
  0
LINE
  5
2DF
100
AcDbEntity
  8
_1-0_
  6
CONTINUOUS
 62
     0
100
AcDbLine
 10
382.838642978
 20
662.9073049349
 11
400.838642978
 21
662.9073049349
  0
LINE
  5
2E0
100
AcDbEntity
  8
_1-0_
  6
CONTINUOUS
 62
     0
100
AcDbLine
 10
400.838642978
 20
662.9073049349
 11
400.838642978
 21
661.3073059349
  0
LINE
  5
2E1
100
AcDbEntity
  8
_1-0_
  6
CONTINUOUS
 62
     0
100
AcDbLine
 10
397.718642978
 20
667.170367935
 11
397.718642978
 21
662.9073049349
  0
LINE
  5
2E2
100
AcDbEntity
  8
_1-0_
  6
CONTINUOUS
 62
     0
100
AcDbLine
 10
396.788642978
 20
667.707304935
 11
397.718642978
 21
667.170367935
  0
ARC
  5
2E3
100
AcDbEntity
  8
_1-0_
  6
CONTINUOUS
 62
     0
100
AcDbCircle
 10
396.788642978
 20
663.897910935
 40
3.809394
100
AcDbArc
 50
90
 51
120.789964
  0
ARC
  5
2E4
100
AcDbEntity
  8
_1-0_
  6
CONTINUOUS
 62
     0
100
AcDbCircle
 10
391.838642978
 20
659.057944935
 40
8.64936
100
AcDbArc
 50
69.705445
 51
110.294555
  0
LINE
  5
2E5
100
AcDbEntity
  8
_1-0_
  6
CONTINUOUS
 62
     0
100
AcDbLine
 10
394.838642978
 20
667.170367935
 11
394.838642978
 21
662.9073049349
  0
LINE
  5
2E6
100
AcDbEntity
  8
_1-0_
  6
CONTINUOUS
 62
     0
100
AcDbLine
 10
388.838642978
 20
667.170367935
 11
388.838642978
 21
662.9073049349
  0
LINE
  5
2E7
100
AcDbEntity
  8
_1-0_
  6
CONTINUOUS
 62
     0
100
AcDbLine
 10
385.958642978
 20
667.170367935
 11
385.958642978
 21
662.9073049349
  0
LINE
  5
2E8
100
AcDbEntity
  8
_1-0_
  6
CONTINUOUS
 62
     0
100
AcDbLine
 10
386.888642978
 20
667.707304935
 11
385.958642978
 21
667.170367935
  0
LINE
  5
2E9
100
AcDbEntity
  8
_1-0_
  6
CONTINUOUS
 62
     0
100
AcDbLine
 10
396.788642978
 20
667.707304935
 11
386.888642978
 21
667.707304935
  0
ARC
  5
2EA
100
AcDbEntity
  8
_1-0_
  6
CONTINUOUS
 62
     0
100
AcDbCircle
 10
386.888642978
 20
663.897910935
 40
3.809394
100
AcDbArc
 50
59.210036
 51
90
  0
LINE
  5
2EB
100
AcDbEntity
  8
_1-0_
  6
CONTINUOUS
 62
     0
100
AcDbLine
 10
396.568412978
 20
674.375128935
 11
396.620747978
 21
673.376497935
  0
LINE
  5
2EC
100
AcDbEntity
  8
_1-0_
  6
CONTINUOUS
 62
     0
100
AcDbLine
 10
387.381020978
 20
673.8936379349
 11
387.433355978
 21
672.895006935
  0
ARC
  5
2ED
100
AcDbEntity
  8
_1-0_
  6
CONTINUOUS
 62
     0
100
AcDbCircle
 10
397.567040978
 20
674.4274639349
 40
0.999999
100
AcDbArc
 50
93
 51
183
  0
ARC
  5
2EE
100
AcDbEntity
  8
_1-0_
  6
CONTINUOUS
 62
     0
100
AcDbCircle
 10
386.382389978
 20
673.841299935
 40
0.999999
100
AcDbArc
 50
3.000000000005
 51
93
  0
ARC
  5
2EF
100
AcDbEntity
  8
_1-0_
  6
CONTINUOUS
 62
     0
100
AcDbCircle
 10
403.838642978
 20
668.307304935
 40
0.999999
100
AcDbArc
 50
180
 51
270
  0
LINE
  5
2F0
100
AcDbEntity
  8
_1-0_
  6
CONTINUOUS
 62
     0
100
AcDbLine
 10
403.838642978
 20
667.3073059349
 11
408.038642978
 21
667.3073059349
  0
ARC
  5
2F1
100
AcDbEntity
  8
_1-0_
  6
CONTINUOUS
 62
     0
100
AcDbCircle
 10
400.238642978
 20
674.567476935
 40
0.999999
100
AcDbArc
 50
0
 51
93
  0
LINE
  5
2F2
100
AcDbEntity
  8
_1-0_
  6
CONTINUOUS
 62
     0
100
AcDbLine
 10
383.386307978
 20
674.6856559349
 11
400.186307978
 21
675.5661049349
  0
ARC
  5
2F3
100
AcDbEntity
  8
_1-0_
  6
CONTINUOUS
 62
     0
100
AcDbCircle
 10
383.438642978
 20
673.6870249349
 40
0.999999
100
AcDbArc
 50
93
 51
180
  0
LINE
  5
2F4
100
AcDbEntity
  8
_1-0_
  6
CONTINUOUS
 62
     0
100
AcDbLine
 10
379.838642978
 20
667.3073059349
 11
375.638642978
 21
667.3073059349
  0
ARC
  5
2F5
100
AcDbEntity
  8
_1-0_
  6
CONTINUOUS
 62
     0
100
AcDbCircle
 10
379.838642978
 20
668.307304935
 40
0.999999
100
AcDbArc
 50
-90
 51
0
  0
LINE
  5
2F6
100
AcDbEntity
  8
_1-0_
  6
CONTINUOUS
 62
     0
100
AcDbLine
 10
401.238641978
 20
668.307304935
 11
401.238641978
 21
674.567476935
  0
ARC
  5
2F7
100
AcDbEntity
  8
_1-0_
  6
CONTINUOUS
 62
     0
100
AcDbCircle
 10
403.838642978
 20
668.307304935
 40
2.600001
100
AcDbArc
 50
180
 51
270
  0
LINE
  5
2F8
100
AcDbEntity
  8
_1-0_
  6
CONTINUOUS
 62
     0
100
AcDbLine
 10
403.838642978
 20
665.707303935
 11
408.338642978
 21
665.707303935
  0
LINE
  5
2F9
100
AcDbEntity
  8
_1-0_
  6
CONTINUOUS
 62
     0
100
AcDbLine
 10
402.838643978
 20
674.567476935
 11
402.838643978
 21
668.307304935
  0
ARC
  5
2FA
100
AcDbEntity
  8
_1-0_
  6
CONTINUOUS
 62
     0
100
AcDbCircle
 10
400.238642978
 20
674.567476935
 40
2.600001
100
AcDbArc
 50
0
 51
93
  0
LINE
  5
2FB
100
AcDbEntity
  8
_1-0_
  6
CONTINUOUS
 62
     0
100
AcDbLine
 10
380.838641978
 20
673.6870249349
 11
380.838641978
 21
668.307304935
  0
ARC
  5
2FC
100
AcDbEntity
  8
_1-0_
  6
CONTINUOUS
 62
     0
100
AcDbCircle
 10
383.438642978
 20
673.6870249349
 40
2.600001
100
AcDbArc
 50
93
 51
180
  0
LINE
  5
2FD
100
AcDbEntity
  8
_1-0_
  6
CONTINUOUS
 62
     0
100
AcDbLine
 10
383.302568978
 20
676.2834619349
 11
400.102568978
 21
677.1639139349
  0
LINE
  5
2FE
100
AcDbEntity
  8
_1-0_
  6
CONTINUOUS
 62
     0
100
AcDbLine
 10
382.438643978
 20
668.307304935
 11
382.438643978
 21
673.6870249349
  0
ARC
  5
2FF
100
AcDbEntity
  8
_1-0_
  6
CONTINUOUS
 62
     0
100
AcDbCircle
 10
379.838642978
 20
668.307304935
 40
2.600001
100
AcDbArc
 50
-90
 51
0
  0
LINE
  5
300
100
AcDbEntity
  8
_1-0_
  6
CONTINUOUS
 62
     0
100
AcDbLine
 10
379.838642978
 20
665.707303935
 11
375.338642978
 21
665.707303935
  0
LINE
  5
301
100
AcDbEntity
  8
_1-0_
  6
CONTINUOUS
 62
     0
100
AcDbLine
 10
375.638642978
 20
664.8073039349
 11
377.588642978
 21
664.8073039349
  0
ARC
  5
302
100
AcDbEntity
  8
_1-0_
  6
CONTINUOUS
 62
     0
100
AcDbCircle
 10
375.638642978
 20
665.1073039349
 40
0.3
100
AcDbArc
 50
180
 51
270
  0
ARC
  5
303
100
AcDbEntity
  8
_1-0_
  6
CONTINUOUS
 62
     0
100
AcDbCircle
 10
375.638642978
 20
667.0073059349
 40
0.3
100
AcDbArc
 50
90
 51
180
  0
LINE
  5
304
100
AcDbEntity
  8
_1-0_
  6
CONTINUOUS
 62
     0
100
AcDbLine
 10
392.338643978
 20
661.3073059349
 11
391.838642978
 21
660.807304935
  0
LINE
  5
305
100
AcDbEntity
  8
_1-0_
  6
CONTINUOUS
 62
     0
100
AcDbLine
 10
391.338641978
 20
661.3073059349
 11
391.838642978
 21
660.807304935
  0
LINE
  5
306
100
AcDbEntity
  8
_1-0_
  6
CONTINUOUS
 62
     0
100
AcDbLine
 10
396.838643978
 20
659.307304935
 11
396.838643978
 21
658.8073039349
  0
LINE
  5
307
100
AcDbEntity
  8
_1-0_
  6
CONTINUOUS
 62
     0
100
AcDbLine
 10
375.838643978
 20
668.8073059349
 11
378.588641978
 21
668.8073059349
  0
ARC
  5
308
100
AcDbEntity
  8
_1-0_
  6
CONTINUOUS
 62
     0
100
AcDbCircle
 10
375.838643978
 20
669.3073039349
 40
0.500001
100
AcDbArc
 50
180
 51
270
  0
ARC
  5
309
100
AcDbEntity
  8
_1-0_
  6
CONTINUOUS
 62
     0
100
AcDbCircle
 10
378.588641978
 20
668.0573059349
 40
0.75
100
AcDbArc
 50
-90
 51
90
  0
LINE
  5
30A
100
AcDbEntity
  8
_1-0_
  6
CONTINUOUS
 62
     0
100
AcDbLine
 10
386.838641978
 20
659.307304935
 11
375.338642978
 21
659.307304935
  0
LINE
  5
30B
100
AcDbEntity
  8
_1-0_
  6
CONTINUOUS
 62
     0
100
AcDbLine
 10
386.838641978
 20
659.307304935
 11
386.838641978
 21
658.8073039349
  0
ARC
  5
30C
100
AcDbEntity
  8
_1-0_
  6
CONTINUOUS
 62
     0
100
AcDbCircle
 10
377.588642978
 20
664.0573039349
 40
0.75
100
AcDbArc
 50
-90
 51
90
  0
LINE
  5
30D
100
AcDbEntity
  8
_1-0_
  6
CONTINUOUS
 62
     0
100
AcDbLine
 10
375.638642978
 20
663.3073039349
 11
377.588642978
 21
663.3073039349
  0
ARC
  5
30E
100
AcDbEntity
  8
_1-0_
  6
CONTINUOUS
 62
     0
100
AcDbCircle
 10
375.638642978
 20
663.0073039349
 40
0.3
100
AcDbArc
 50
90
 51
180
  0
LINE
  5
30F
100
AcDbEntity
  8
_1-0_
  6
CONTINUOUS
 62
     0
100
AcDbLine
 10
408.338642978
 20
659.307304935
 11
396.838643978
 21
659.307304935
  0
LINE
  5
310
100
AcDbEntity
  8
_1-0_
  6
CONTINUOUS
 62
     0
100
AcDbLine
 10
408.038642978
 20
664.8073039349
 11
406.088642978
 21
664.8073039349
  0
ARC
  5
311
100
AcDbEntity
  8
_1-0_
  6
CONTINUOUS
 62
     0
100
AcDbCircle
 10
408.038642978
 20
665.1073039349
 40
0.3
100
AcDbArc
 50
-90
 51
0
  0
LINE
  5
312
100
AcDbEntity
  8
_1-0_
  6
CONTINUOUS
 62
     0
100
AcDbLine
 10
408.338642978
 20
665.1073039349
 11
408.338642978
 21
667.0073059349
  0
ARC
  5
313
100
AcDbEntity
  8
_1-0_
  6
CONTINUOUS
 62
     0
100
AcDbCircle
 10
408.038642978
 20
667.0073059349
 40
0.3
100
AcDbArc
 50
0
 51
90
  0
LINE
  5
314
100
AcDbEntity
  8
_1-0_
  6
CONTINUOUS
 62
     0
100
AcDbLine
 10
409.338641978
 20
668.8073059349
 11
405.088643978
 21
668.8073059349
  0
ARC
  5
315
100
AcDbEntity
  8
_1-0_
  6
CONTINUOUS
 62
     0
100
AcDbCircle
 10
409.338641978
 20
668.307304935
 40
0.500001
100
AcDbArc
 50
0
 51
90
  0
ARC
  5
316
100
AcDbEntity
  8
_1-0_
  6
CONTINUOUS
 62
     0
100
AcDbCircle
 10
405.088643978
 20
668.0573059349
 40
0.75
100
AcDbArc
 50
90
 51
270
  0
LINE
  5
317
100
AcDbEntity
  8
_1-0_
  6
CONTINUOUS
 62
     0
100
AcDbLine
 10
409.838642978
 20
668.307304935
 11
409.838642978
 21
658.8073039349
  0
LINE
  5
318
100
AcDbEntity
  8
_1-0_
  6
CONTINUOUS
 62
     0
100
AcDbLine
 10
408.338642978
 20
659.307304935
 11
408.338642978
 21
658.8073039349
  0
ARC
  5
319
100
AcDbEntity
  8
_1-0_
  6
CONTINUOUS
 62
     0
100
AcDbCircle
 10
406.088642978
 20
664.0573039349
 40
0.75
100
AcDbArc
 50
90
 51
270
  0
ARC
  5
31A
100
AcDbEntity
  8
_1-0_
  6
CONTINUOUS
 62
     0
100
AcDbCircle
 10
408.038642978
 20
661.6073059349
 40
0.3
100
AcDbArc
 50
-90
 51
0
  0
LINE
  5
31B
100
AcDbEntity
  8
_1-0_
  6
CONTINUOUS
 62
     0
100
AcDbLine
 10
408.338642978
 20
661.6073059349
 11
408.338642978
 21
663.0073039349
  0
ARC
  5
31C
100
AcDbEntity
  8
_1-0_
  6
CONTINUOUS
 62
     0
100
AcDbCircle
 10
408.038642978
 20
663.0073039349
 40
0.3
100
AcDbArc
 50
0
 51
90
  0
LINE
  5
31D
100
AcDbEntity
  8
_1-0_
  6
CONTINUOUS
 62
     0
100
AcDbLine
 10
408.038642978
 20
663.3073039349
 11
406.088642978
 21
663.3073039349
  0
ARC
  5
31E
100
AcDbEntity
  8
_1-0_
  6
CONTINUOUS
 62
     0
100
AcDbCircle
 10
375.838643978
 20
661.8073039349
 40
0.500001
100
AcDbArc
 50
180
 51
270
  0
LINE
  5
31F
100
AcDbEntity
  8
_1-0_
  6
CONTINUOUS
 62
     0
100
AcDbLine
 10
375.838643978
 20
661.3073059349
 11
408.038642978
 21
661.3073059349
  0
LINE
  5
320
100
AcDbEntity
  8
_2-0_
  6
CONTINUOUS
 62
     0
100
AcDbLine
 10
408.338642978
 20
658.8073039349
 11
409.838642978
 21
658.8073039349
  0
ARC
  5
321
100
AcDbEntity
  8
_0-0_
  6
CONTINUOUS
 62
     0
100
AcDbCircle
 10
374.338643978
 20
676.8073039349
 40
0.999999
100
AcDbArc
 50
0
 51
180
  0
LINE
  5
322
100
AcDbEntity
  8
_0-0_
  6
CONTINUOUS
 62
     0
100
AcDbLine
 10
375.338642978
 20
669.3073039349
 11
375.338642978
 21
676.8073039349
  0
LINE
  5
323
100
AcDbEntity
  8
_0-0_
  6
CONTINUOUS
 62
     0
100
AcDbLine
 10
375.338642978
 20
665.1073039349
 11
375.338642978
 21
667.0073059349
  0
ARC
  5
324
100
AcDbEntity
  8
_0-0_
  6
CONTINUOUS
 62
     0
100
AcDbCircle
 10
372.838643978
 20
661.8073039349
 40
0.500001
100
AcDbArc
 50
-90
 51
0
  0
LINE
  5
325
100
AcDbEntity
  8
_0-0_
  6
CONTINUOUS
 62
     0
100
AcDbLine
 10
373.338641978
 20
659.8073059349
 11
373.338641978
 21
658.8073039349
  0
LINE
  5
326
100
AcDbEntity
  8
_0-0_
  6
CONTINUOUS
 62
     0
100
AcDbLine
 10
375.338642978
 20
659.307304935
 11
375.338642978
 21
658.8073039349
  0
LINE
  5
327
100
AcDbEntity
  8
_0-0_
  6
CONTINUOUS
 62
     0
100
AcDbLine
 10
375.338642978
 20
661.8073039349
 11
375.338642978
 21
663.0073039349
  0
LINE
  5
328
100
AcDbEntity
  8
_0-0_
  6
CONTINUOUS
 62
     0
100
AcDbLine
 10
362.838641978
 20
659.8073059349
 11
362.838641978
 21
658.8073039349
  0
LINE
  5
329
100
AcDbEntity
  8
_0-0_
  6
CONTINUOUS
 62
     0
100
AcDbLine
 10
361.338641978
 20
658.8073039349
 11
362.838641978
 21
658.8073039349
  0
LINE
  5
32A
100
AcDbEntity
  8
_0-0_
  6
CONTINUOUS
 62
     0
100
AcDbLine
 10
373.338641978
 20
658.8073039349
 11
375.338642978
 21
658.8073039349
  0
LINE
  5
32B
100
AcDbEntity
  8
_0-0_
  6
CONTINUOUS
 62
     0
100
AcDbLine
 10
361.338641978
 20
660.8073059349
 11
361.338641978
 21
658.8073039349
  0
ARC
  5
32C
100
AcDbEntity
  8
_0-0_
  6
CONTINUOUS
 62
     0
100
AcDbCircle
 10
361.838641978
 20
660.8073059349
 40
0.5
100
AcDbArc
 50
90
 51
180
  0
LINE
  5
32D
100
AcDbEntity
  8
_0-0_
  6
CONTINUOUS
 62
     0
100
AcDbLine
 10
373.088641978
 20
664.5573059349
 11
371.838641978
 21
664.5573059349
  0
LINE
  5
32E
100
AcDbEntity
  8
_0-0_
  6
CONTINUOUS
 62
     0
100
AcDbLine
 10
368.838641978
 20
664.5573059349
 11
367.588641978
 21
664.5573059349
  0
ARC
  5
32F
100
AcDbEntity
  8
_0-0_
  6
CONTINUOUS
 62
     0
100
AcDbCircle
 10
341.9920365057
 20
707.4926985572
 40
0.5
100
AcDbArc
 50
101.4095443492
 51
279.1986608952
  0
ARC
  5
330
100
AcDbEntity
  8
_0-0_
  6
CONTINUOUS
 62
     0
100
AcDbCircle
 10
346.838641978
 20
683.4768617949
 40
25
100
AcDbArc
 50
0
 51
101.4095443492
  0
ARC
  5
331
100
AcDbEntity
  8
_0-0_
  6
CONTINUOUS
 62
     0
100
AcDbCircle
 10
345.762696384
 20
684.2084932929
 40
23.08754100601
100
AcDbArc
 50
-1.815975820674
 51
99.19866089519
  0
LINE
  5
332
100
AcDbEntity
  8
_0-0_
  6
CONTINUOUS
 62
     0
100
AcDbLine
 10
373.338641978
 20
659.8073059349
 11
365.8326931042
 21
659.8073059349
  0
LINE
  5
333
100
AcDbEntity
  8
_0-0_
  6
CONTINUOUS
 62
     0
100
AcDbLine
 10
365.8326931042
 20
659.8073059349
 11
362.838641978
 21
659.8073059349
  0
LINE
  5
334
100
AcDbEntity
  8
_0-0_
  6
CONTINUOUS
 62
     0
100
AcDbLine
 10
367.838641978
 20
661.3073059349
 11
372.838643978
 21
661.3073059349
  0
LINE
  5
335
100
AcDbEntity
  8
_0-0_
  6
CONTINUOUS
 62
     0
100
AcDbLine
 10
361.838641978
 20
661.3073059349
 11
365.838641978
 21
661.3073059349
  0
ARC
  5
336
100
AcDbEntity
  8
_0-0_
  6
CONTINUOUS
 62
     0
100
AcDbCircle
 10
367.838641978
 20
661.8073059349
 40
0.25
100
AcDbArc
 50
180
 51
270
  0
ARC
  5
337
100
AcDbEntity
  8
_0-0_
  6
CONTINUOUS
 62
     0
100
AcDbCircle
 10
372.838643978
 20
661.8073039349
 40
0.250001
100
AcDbArc
 50
-90
 51
0
  0
LINE
  5
338
100
AcDbEntity
  8
_0-0_
  6
CONTINUOUS
 62
     0
100
AcDbLine
 10
367.588641978
 20
661.8073059349
 11
367.588641978
 21
664.5573059349
  0
LINE
  5
339
100
AcDbEntity
  8
_0-0_
  6
CONTINUOUS
 62
     0
100
AcDbLine
 10
373.088641978
 20
661.8073039349
 11
373.088641978
 21
664.5573059349
  0
LINE
  5
33A
100
AcDbEntity
  8
_0-0_
  6
CONTINUOUS
 62
     0
100
AcDbLine
 10
367.838641978
 20
661.5573059349
 11
372.838643978
 21
661.5573059349
  0
LINE
  5
33B
100
AcDbEntity
  8
_0-0_
  6
CONTINUOUS
 62
     0
100
AcDbLine
 10
373.338641978
 20
676.8073039349
 11
373.338641978
 21
666.3073059349
  0
LINE
  5
33C
100
AcDbEntity
  8
_0-0_
  6
CONTINUOUS
 62
     0
100
AcDbLine
 10
373.338641978
 20
664.8073059349
 11
373.338641978
 21
661.8073039349
  0
LINE
  5
33D
100
AcDbEntity
  8
_0-0_
  6
CONTINUOUS
 62
     0
100
AcDbLine
 10
367.338641978
 20
661.8073059349
 11
367.338641978
 21
664.8073059349
  0
LINE
  5
33E
100
AcDbEntity
  8
_0-0_
  6
CONTINUOUS
 62
     0
100
AcDbLine
 10
365.838641978
 20
665.8073059349
 11
365.838641978
 21
661.3073059349
  0
ARC
  5
33F
100
AcDbEntity
  8
_0-0_
  6
CONTINUOUS
 62
     0
100
AcDbCircle
 10
366.338641978
 20
665.8073059349
 40
0.5
100
AcDbArc
 50
90
 51
180
  0
ARC
  5
340
100
AcDbEntity
  8
_0-0_
  6
CONTINUOUS
 62
     0
100
AcDbCircle
 10
367.838641978
 20
661.8073059349
 40
0.5
100
AcDbArc
 50
180
 51
270
  0
LINE
  5
341
100
AcDbEntity
  8
_0-0_
  6
CONTINUOUS
 62
     0
100
AcDbLine
 10
366.338641978
 20
666.3073059349
 11
367.588641978
 21
666.3073059349
  0
ARC
  5
342
100
AcDbEntity
  8
_0-0_
  6
CONTINUOUS
 62
     0
100
AcDbCircle
 10
367.588641978
 20
665.3073059349
 40
1
100
AcDbArc
 50
0
 51
90
  0
LINE
  5
343
100
AcDbEntity
  8
_0-0_
  6
CONTINUOUS
 62
     0
100
AcDbLine
 10
368.588641978
 20
665.3073059349
 11
368.588641978
 21
664.8073059349
  0
LINE
  5
344
100
AcDbEntity
  8
_0-0_
  6
CONTINUOUS
 62
     0
100
AcDbLine
 10
368.588641978
 20
664.8073059349
 11
367.338641978
 21
664.8073059349
  0
LINE
  5
345
100
AcDbEntity
  8
_0-0_
  6
CONTINUOUS
 62
     0
100
AcDbLine
 10
373.338641978
 20
664.8073059349
 11
372.088641978
 21
664.8073059349
  0
LINE
  5
346
100
AcDbEntity
  8
_0-0_
  6
CONTINUOUS
 62
     0
100
AcDbLine
 10
372.088641978
 20
665.3073059349
 11
372.088641978
 21
664.8073059349
  0
ARC
  5
347
100
AcDbEntity
  8
_0-0_
  6
CONTINUOUS
 62
     0
100
AcDbCircle
 10
373.088641978
 20
665.3073059349
 40
1
100
AcDbArc
 50
90
 51
180
  0
LINE
  5
348
100
AcDbEntity
  8
_0-0_
  6
CONTINUOUS
 62
     0
100
AcDbLine
 10
373.088641978
 20
666.3073059349
 11
373.338641978
 21
666.3073059349
  0
CIRCLE
  5
349
100
AcDbEntity
  8
_0-1_PRO0
  6
CONTINUOUS
 62
     0
100
AcDbCircle
 10
366.864149906
 20
696.2438092117
 40
0.9
  0
LINE
  5
34A
100
AcDbEntity
  8
_0-1_PRO0
  6
CONTINUOUS
 62
     0
100
AcDbLine
 10
366.864149906
 20
696.2438092117
 11
352.7755806765
 21
734.9518313031
  0
LINE
  5
34B
100
AcDbEntity
  8
_0-0_
  6
CONTINUOUS
 62
     0
100
AcDbLine
 10
376.838642978
 20
657.6740725969
 11
376.838642978
 21
658.798534935
  0
LINE
  5
34C
100
AcDbEntity
  8
_2-0_
  6
CONTINUOUS
 62
     0
100
AcDbLine
 10
406.838642978
 20
658.798534935
 11
376.838642978
 21
658.798534935
  0
LINE
  5
34D
100
AcDbEntity
  8
_0-1_PRO0
  6
CONTINUOUS
 62
     0
100
AcDbLine
 10
341.8563152636
 20
400.4930126135
 11
344.8563152636
 21
399.7430126135
  0
LINE
  5
34E
100
AcDbEntity
  8
_0-1_PRO0
  6
CONTINUOUS
 62
     0
100
AcDbLine
 10
341.8563152636
 20
400.4930126135
 11
344.8563152636
 21
401.2430126135
  0
LINE
  5
34F
100
AcDbEntity
  8
_0-1_PRO0
  6
CONTINUOUS
 62
     0
100
AcDbLine
 10
341.8563152636
 20
400.4930126135
 11
338.8563152636
 21
401.2430126135
  0
LINE
  5
350
100
AcDbEntity
  8
_0-1_PRO0
  6
CONTINUOUS
 62
     0
100
AcDbLine
 10
341.8563152636
 20
400.4930126135
 11
338.8563152636
 21
399.7430126135
  0
LINE
  5
351
100
AcDbEntity
  8
_0-1_PRO0
  6
CONTINUOUS
 62
     0
100
AcDbLine
 10
171.8563152636
 20
400.4930126135
 11
341.8563152636
 21
400.4930126135
  0
CIRCLE
  5
352
100
AcDbEntity
  8
_0-1_PRO0
  6
CONTINUOUS
 62
     0
100
AcDbCircle
 10
351.3990475348
 20
740.4428316764
 40
6
  0
LINE
  5
353
100
AcDbEntity
  8
_0-1_PRO0
  6
CONTINUOUS
 62
     0
100
AcDbLine
 10
391.8563162636
 20
502.1759011211
 11
388.8563162636
 21
502.9259011211
  0
LINE
  5
354
100
AcDbEntity
  8
_0-1_PRO0
  6
CONTINUOUS
 62
     0
100
AcDbLine
 10
391.8563162636
 20
502.1759011211
 11
388.8563162636
 21
501.4259011211
  0
LINE
  5
355
100
AcDbEntity
  8
_0-1_PRO0
  6
CONTINUOUS
 62
     0
100
AcDbLine
 10
341.8563152636
 20
502.1759011211
 11
344.8563152636
 21
501.4259011211
  0
LINE
  5
356
100
AcDbEntity
  8
_0-1_PRO0
  6
CONTINUOUS
 62
     0
100
AcDbLine
 10
341.8563152636
 20
502.1759011211
 11
344.8563152636
 21
502.9259011211
  0
LINE
  5
357
100
AcDbEntity
  8
_0-1_PRO0
  6
CONTINUOUS
 62
     0
100
AcDbLine
 10
391.8563162636
 20
610.365131935
 11
391.8563162636
 21
498.1758991211
  0
LINE
  5
358
100
AcDbEntity
  8
_0-1_PRO0
  6
CONTINUOUS
 62
     0
100
AcDbLine
 10
341.8563152636
 20
502.1759011211
 11
391.8563162636
 21
502.1759011211
  0
LINE
  5
359
100
AcDbEntity
  8
_0-1_PRO0
  6
CONTINUOUS
 62
     0
100
AcDbLine
 10
341.8563152636
 20
656.798534935
 11
341.8563152636
 21
491.5565131211
  0
TEXT
  5
35A
100
AcDbEntity
  8
_0-1_PRO0
  6
CONTINUOUS
 62
     0
100
AcDbText
 10
364.1860280408
 20
502.6953995813
 40
9
  1
50
  7
STANDARD
100
AcDbText
  0
LINE
  5
35B
100
AcDbEntity
  8
_0-1_PRO0
  6
CONTINUOUS
 62
     0
100
AcDbLine
 10
341.8563152636
 20
490.5565141212
 11
341.8563152636
 21
396.4930136136
  0
LINE
  5
35C
100
AcDbEntity
  8
_0-0_
  6
CONTINUOUS
 62
     0
100
AcDbLine
 10
371.838641978
 20
664.5573059349
 11
371.8522871912
 21
684.5257324889
  0
LINE
  5
35D
100
AcDbEntity
  8
_0-0_
  6
CONTINUOUS
 62
     0
100
AcDbLine
 10
368.838641978
 20
664.5573059349
 11
368.8522871912
 21
685.9889954848
  0
LINE
  5
35E
100
AcDbEntity
  8
_0-1_PRO0
  6
CONTINUOUS
 62
     0
100
AcDbLine
 10
471.8563162636
 20
656.798534935
 11
341.8563152636
 21
656.798534935
  0
LINE
  5
35F
100
AcDbEntity
  8
_0-1_PRO0
  6
CONTINUOUS
 62
     0
100
AcDbLine
 10
412.83864388
 20
657.7936000255
 11
472.6176301312
 21
657.820976206
  0
LINE
  5
360
100
AcDbEntity
  8
_0-1_PRO0
  6
CONTINUOUS
 62
     0
100
AcDbLine
 10
341.8563152636
 20
400.4930126135
 11
471.8563162636
 21
400.4930126135
  0
LINE
  5
361
100
AcDbEntity
  8
_0-1_PRO0
  6
CONTINUOUS
 62
     0
100
AcDbLine
 10
771.8563142636
 20
400.4930126135
 11
901.8563152636
 21
400.4930126135
  0
LINE
  5
362
100
AcDbEntity
  8
_0-1_PRO0
  6
CONTINUOUS
 62
     0
100
AcDbLine
 10
830.8386400772
 20
657.7936064862
 11
771.0950003961
 21
657.820976206
  0
LINE
  5
363
100
AcDbEntity
  8
_0-1_PRO0
  6
CONTINUOUS
 62
     0
100
AcDbLine
 10
771.8563142636
 20
656.798534935
 11
901.8563152636
 21
656.798534935
  0
LINE
  5
364
100
AcDbEntity
  8
_0-1_PRO0
  6
CONTINUOUS
 62
     0
100
AcDbLine
 10
901.8563152636
 20
490.5565141212
 11
901.8563152636
 21
396.4930136136
  0
TEXT
  5
365
100
AcDbEntity
  8
_2-0_
  6
CONTINUOUS
 62
     0
100
AcDbText
 10
871.5435939602
 20
502.452078728
 40
9
  1
50
  7
STANDARD
100
AcDbText
  0
LINE
  5
366
100
AcDbEntity
  8
_0-1_PRO0
  6
CONTINUOUS
 62
     0
100
AcDbLine
 10
901.8563152636
 20
656.798534935
 11
901.8563152636
 21
491.5565131211
  0
LINE
  5
367
100
AcDbEntity
  8
_0-1_PRO0
  6
CONTINUOUS
 62
     0
100
AcDbLine
 10
901.8563152636
 20
502.1759011211
 11
898.8563152636
 21
501.4259011211
  0
LINE
  5
368
100
AcDbEntity
  8
_0-1_PRO0
  6
CONTINUOUS
 62
     0
100
AcDbLine
 10
901.8563152636
 20
502.1759011211
 11
898.8563152636
 21
502.9259011211
  0
LINE
  5
369
100
AcDbEntity
  8
_0-1_PRO0
  6
CONTINUOUS
 62
     0
100
AcDbLine
 10
851.8563142636
 20
502.1759011211
 11
854.8563142636
 21
502.9259011211
  0
LINE
  5
36A
100
AcDbEntity
  8
_0-1_PRO0
  6
CONTINUOUS
 62
     0
100
AcDbLine
 10
851.8563142636
 20
502.1759011211
 11
854.8563142636
 21
501.4259011211
  0
LINE
  5
36B
100
AcDbEntity
  8
_0-1_PRO0
  6
CONTINUOUS
 62
     0
100
AcDbLine
 10
851.8563142636
 20
502.1759011211
 11
901.8563152636
 21
502.1759011211
  0
LINE
  5
36C
100
AcDbEntity
  8
_0-1_PRO0
  6
CONTINUOUS
 62
     0
100
AcDbLine
 10
851.8563142636
 20
610.365131935
 11
851.8563142636
 21
498.1758991211
  0
LINE
  5
36D
100
AcDbEntity
  8
_a-0_
  6
CONTINUOUS
 62
     0
100
AcDbLine
 10
866.8739875492
 20
657.798534935
 11
866.8739875492
 21
658.798534935
  0
LINE
  5
36E
100
AcDbEntity
  8
_2-0_
  6
CONTINUOUS
 62
     0
100
AcDbLine
 10
836.8739875492
 20
658.798534935
 11
866.8739875492
 21
658.798534935
  0
LINE
  5
36F
100
AcDbEntity
  8
_0-1_PRO0
  6
CONTINUOUS
 62
     0
100
AcDbLine
 10
901.8563152636
 20
400.4930126135
 11
904.8563152636
 21
399.7430126135
  0
LINE
  5
370
100
AcDbEntity
  8
_0-1_PRO0
  6
CONTINUOUS
 62
     0
100
AcDbLine
 10
901.8563152636
 20
400.4930126135
 11
904.8563152636
 21
401.2430126135
  0
LINE
  5
371
100
AcDbEntity
  8
_0-1_PRO0
  6
CONTINUOUS
 62
     0
100
AcDbLine
 10
901.8563152636
 20
400.4930126135
 11
1071.856315264
 21
400.4930126135
  0
LINE
  5
372
100
AcDbEntity
  8
_0-1_PRO0
  6
CONTINUOUS
 62
     0
100
AcDbLine
 10
901.8563152636
 20
400.4930126135
 11
898.8563152636
 21
401.2430126135
  0
LINE
  5
373
100
AcDbEntity
  8
_0-1_PRO0
  6
CONTINUOUS
 62
     0
100
AcDbLine
 10
901.8563152636
 20
400.4930126135
 11
898.8563152636
 21
399.7430126135
  0
LINE
  5
374
100
AcDbEntity
  8
_0-0_
  6
CONTINUOUS
 62
     0
100
AcDbLine
 10
870.6239885492
 20
666.3073059349
 11
870.3739885492
 21
666.3073059349
  0
ARC
  5
375
100
AcDbEntity
  8
_0-0_
  6
CONTINUOUS
 62
     0
100
AcDbCircle
 10
870.6239885492
 20
665.3073059349
 40
1
100
AcDbArc
 50
0
 51
90
  0
LINE
  5
376
100
AcDbEntity
  8
_0-0_
  6
CONTINUOUS
 62
     0
100
AcDbLine
 10
871.6239885492
 20
665.3073059349
 11
871.6239885492
 21
664.8073059349
  0
LINE
  5
377
100
AcDbEntity
  8
_0-0_
  6
CONTINUOUS
 62
     0
100
AcDbLine
 10
870.3739885492
 20
664.8073059349
 11
871.6239885492
 21
664.8073059349
  0
LINE
  5
378
100
AcDbEntity
  8
_0-0_
  6
CONTINUOUS
 62
     0
100
AcDbLine
 10
875.1239885492
 20
664.8073059349
 11
876.3739885492
 21
664.8073059349
  0
LINE
  5
379
100
AcDbEntity
  8
_0-0_
  6
CONTINUOUS
 62
     0
100
AcDbLine
 10
875.1239885492
 20
665.3073059349
 11
875.1239885492
 21
664.8073059349
  0
ARC
  5
37A
100
AcDbEntity
  8
_0-0_
  6
CONTINUOUS
 62
     0
100
AcDbCircle
 10
876.1239885492
 20
665.3073059349
 40
1
100
AcDbArc
 50
90
 51
180
  0
LINE
  5
37B
100
AcDbEntity
  8
_0-0_
  6
CONTINUOUS
 62
     0
100
AcDbLine
 10
877.3739885492
 20
666.3073059349
 11
876.1239885492
 21
666.3073059349
  0
ARC
  5
37C
100
AcDbEntity
  8
_0-0_
  6
CONTINUOUS
 62
     0
100
AcDbCircle
 10
875.8739885492
 20
661.8073059349
 40
0.5
100
AcDbArc
 50
-90
 51
0
  0
ARC
  5
37D
100
AcDbEntity
  8
_0-0_
  6
CONTINUOUS
 62
     0
100
AcDbCircle
 10
877.3739885492
 20
665.8073059349
 40
0.5
100
AcDbArc
 50
0
 51
90
  0
LINE
  5
37E
100
AcDbEntity
  8
_0-0_
  6
CONTINUOUS
 62
     0
100
AcDbLine
 10
877.8739885492
 20
665.8073059349
 11
877.8739885492
 21
661.3073059349
  0
LINE
  5
37F
100
AcDbEntity
  8
_0-0_
  6
CONTINUOUS
 62
     0
100
AcDbLine
 10
876.3739885492
 20
661.8073059349
 11
876.3739885492
 21
664.8073059349
  0
LINE
  5
380
100
AcDbEntity
  8
_0-0_
  6
CONTINUOUS
 62
     0
100
AcDbLine
 10
870.3739885492
 20
664.8073059349
 11
870.3739885492
 21
661.8073039349
  0
LINE
  5
381
100
AcDbEntity
  8
_0-0_
  6
CONTINUOUS
 62
     0
100
AcDbLine
 10
870.3739885492
 20
676.8073039349
 11
870.3739885492
 21
666.3073059349
  0
LINE
  5
382
100
AcDbEntity
  8
_0-0_
  6
CONTINUOUS
 62
     0
100
AcDbLine
 10
875.8739885492
 20
661.5573059349
 11
870.8739865492
 21
661.5573059349
  0
LINE
  5
383
100
AcDbEntity
  8
_0-0_
  6
CONTINUOUS
 62
     0
100
AcDbLine
 10
870.6239885492
 20
661.8073039349
 11
870.6239885492
 21
664.5573059349
  0
LINE
  5
384
100
AcDbEntity
  8
_0-0_
  6
CONTINUOUS
 62
     0
100
AcDbLine
 10
876.1239885492
 20
661.8073059349
 11
876.1239885492
 21
664.5573059349
  0
ARC
  5
385
100
AcDbEntity
  8
_0-0_
  6
CONTINUOUS
 62
     0
100
AcDbCircle
 10
870.8739865492
 20
661.8073039349
 40
0.250001
100
AcDbArc
 50
180
 51
270
  0
ARC
  5
386
100
AcDbEntity
  8
_0-0_
  6
CONTINUOUS
 62
     0
100
AcDbCircle
 10
875.8739885492
 20
661.8073059349
 40
0.25
100
AcDbArc
 50
-90
 51
0
  0
LINE
  5
387
100
AcDbEntity
  8
_0-0_
  6
CONTINUOUS
 62
     0
100
AcDbLine
 10
881.8739885492
 20
661.3073059349
 11
877.8739885492
 21
661.3073059349
  0
LINE
  5
388
100
AcDbEntity
  8
_0-0_
  6
CONTINUOUS
 62
     0
100
AcDbLine
 10
875.8739885492
 20
661.3073059349
 11
870.8739865492
 21
661.3073059349
  0
LINE
  5
389
100
AcDbEntity
  8
_0-0_
  6
CONTINUOUS
 62
     0
100
AcDbLine
 10
877.8799374231
 20
659.8073059349
 11
880.8739885492
 21
659.8073059349
  0
LINE
  5
38A
100
AcDbEntity
  8
_0-0_
  6
CONTINUOUS
 62
     0
100
AcDbLine
 10
870.3739885492
 20
659.8073059349
 11
877.8799374231
 21
659.8073059349
  0
LINE
  5
38B
100
AcDbEntity
  8
_0-0_
  6
CONTINUOUS
 62
     0
100
AcDbLine
 10
874.8739885493
 20
664.5573059349
 11
874.8739885493
 21
684.9401247909
  0
LINE
  5
38C
100
AcDbEntity
  8
_0-0_
  6
CONTINUOUS
 62
     0
100
AcDbLine
 10
871.8739885493
 20
664.5573059349
 11
871.8739885493
 21
683.4768617949
  0
ARC
  5
38D
100
AcDbEntity
  8
_0-0_
  6
CONTINUOUS
 62
     0
100
AcDbCircle
 10
897.9499341433
 20
684.2084932929
 40
23.08754100601
100
AcDbArc
 50
80.80133910481
 51
181.8159758207
  0
ARC
  5
38E
100
AcDbEntity
  8
_0-0_
  6
CONTINUOUS
 62
     0
100
AcDbCircle
 10
896.8739885493
 20
683.4768617949
 40
25
100
AcDbArc
 50
78.59045565079
 51
180
  0
ARC
  5
38F
100
AcDbEntity
  8
_0-0_
  6
CONTINUOUS
 62
     0
100
AcDbCircle
 10
901.7205940216
 20
707.4926985572
 40
0.5
100
AcDbArc
 50
-99.19866089521
 51
78.59045565079
  0
LINE
  5
390
100
AcDbEntity
  8
_0-0_
  6
CONTINUOUS
 62
     0
100
AcDbLine
 10
874.8739885493
 20
664.5573059349
 11
876.1239885492
 21
664.5573059349
  0
LINE
  5
391
100
AcDbEntity
  8
_0-0_
  6
CONTINUOUS
 62
     0
100
AcDbLine
 10
870.6239885492
 20
664.5573059349
 11
871.8739885493
 21
664.5573059349
  0
ARC
  5
392
100
AcDbEntity
  8
_0-0_
  6
CONTINUOUS
 62
     0
100
AcDbCircle
 10
881.8739885492
 20
660.8073059349
 40
0.5
100
AcDbArc
 50
0
 51
90
  0
LINE
  5
393
100
AcDbEntity
  8
_0-0_
  6
CONTINUOUS
 62
     0
100
AcDbLine
 10
882.3739885492
 20
660.8073059349
 11
882.3739885492
 21
658.8073039349
  0
LINE
  5
394
100
AcDbEntity
  8
_0-0_
  6
CONTINUOUS
 62
     0
100
AcDbLine
 10
870.3739885492
 20
658.8073039349
 11
868.3739875492
 21
658.8073039349
  0
LINE
  5
395
100
AcDbEntity
  8
_0-0_
  6
CONTINUOUS
 62
     0
100
AcDbLine
 10
882.3739885492
 20
658.8073039349
 11
880.8739885492
 21
658.8073039349
  0
LINE
  5
396
100
AcDbEntity
  8
_0-0_
  6
CONTINUOUS
 62
     0
100
AcDbLine
 10
880.8739885492
 20
659.8073059349
 11
880.8739885492
 21
658.8073039349
  0
LINE
  5
397
100
AcDbEntity
  8
_0-0_
  6
CONTINUOUS
 62
     0
100
AcDbLine
 10
868.3739875492
 20
661.8073039349
 11
868.3739875492
 21
663.0073039349
  0
LINE
  5
398
100
AcDbEntity
  8
_0-0_
  6
CONTINUOUS
 62
     0
100
AcDbLine
 10
868.3739875492
 20
659.307304935
 11
868.3739875492
 21
658.8073039349
  0
LINE
  5
399
100
AcDbEntity
  8
_0-0_
  6
CONTINUOUS
 62
     0
100
AcDbLine
 10
870.3739885492
 20
659.8073059349
 11
870.3739885492
 21
658.8073039349
  0
ARC
  5
39A
100
AcDbEntity
  8
_0-0_
  6
CONTINUOUS
 62
     0
100
AcDbCircle
 10
870.8739865492
 20
661.8073039349
 40
0.500001
100
AcDbArc
 50
180
 51
270
  0
LINE
  5
39B
100
AcDbEntity
  8
_0-0_
  6
CONTINUOUS
 62
     0
100
AcDbLine
 10
868.3739875492
 20
665.1073039349
 11
868.3739875492
 21
667.0073059349
  0
LINE
  5
39C
100
AcDbEntity
  8
_0-0_
  6
CONTINUOUS
 62
     0
100
AcDbLine
 10
868.3739875492
 20
669.3073039349
 11
868.3739875492
 21
676.8073039349
  0
ARC
  5
39D
100
AcDbEntity
  8
_0-0_
  6
CONTINUOUS
 62
     0
100
AcDbCircle
 10
869.3739865492
 20
676.8073039349
 40
0.999999
100
AcDbArc
 50
0
 51
180
  0
LINE
  5
39E
100
AcDbEntity
  8
_2-0_
  6
CONTINUOUS
 62
     0
100
AcDbLine
 10
835.3739875492
 20
658.8073039349
 11
833.8739875492
 21
658.8073039349
  0
LINE
  5
39F
100
AcDbEntity
  8
_1-0_
  6
CONTINUOUS
 62
     0
100
AcDbLine
 10
867.8739865492
 20
661.3073059349
 11
835.6739875492
 21
661.3073059349
  0
ARC
  5
3A0
100
AcDbEntity
  8
_1-0_
  6
CONTINUOUS
 62
     0
100
AcDbCircle
 10
867.8739865492
 20
661.8073039349
 40
0.500001
100
AcDbArc
 50
-90
 51
0
  0
LINE
  5
3A1
100
AcDbEntity
  8
_1-0_
  6
CONTINUOUS
 62
     0
100
AcDbLine
 10
835.6739875492
 20
663.3073039349
 11
837.6239875492
 21
663.3073039349
  0
ARC
  5
3A2
100
AcDbEntity
  8
_1-0_
  6
CONTINUOUS
 62
     0
100
AcDbCircle
 10
835.6739875492
 20
663.0073039349
 40
0.3
100
AcDbArc
 50
90
 51
180
  0
LINE
  5
3A3
100
AcDbEntity
  8
_1-0_
  6
CONTINUOUS
 62
     0
100
AcDbLine
 10
835.3739875492
 20
661.6073059349
 11
835.3739875492
 21
663.0073039349
  0
ARC
  5
3A4
100
AcDbEntity
  8
_1-0_
  6
CONTINUOUS
 62
     0
100
AcDbCircle
 10
835.6739875492
 20
661.6073059349
 40
0.3
100
AcDbArc
 50
180
 51
270
  0
ARC
  5
3A5
100
AcDbEntity
  8
_1-0_
  6
CONTINUOUS
 62
     0
100
AcDbCircle
 10
837.6239875492
 20
664.0573039349
 40
0.75
100
AcDbArc
 50
-90
 51
90
  0
LINE
  5
3A6
100
AcDbEntity
  8
_1-0_
  6
CONTINUOUS
 62
     0
100
AcDbLine
 10
835.3739875492
 20
659.307304935
 11
835.3739875492
 21
658.8073039349
  0
LINE
  5
3A7
100
AcDbEntity
  8
_1-0_
  6
CONTINUOUS
 62
     0
100
AcDbLine
 10
833.8739875492
 20
668.307304935
 11
833.8739875492
 21
658.8073039349
  0
ARC
  5
3A8
100
AcDbEntity
  8
_1-0_
  6
CONTINUOUS
 62
     0
100
AcDbCircle
 10
838.6239865492
 20
668.0573059349
 40
0.75
100
AcDbArc
 50
-90
 51
90
  0
ARC
  5
3A9
100
AcDbEntity
  8
_1-0_
  6
CONTINUOUS
 62
     0
100
AcDbCircle
 10
834.3739885492
 20
668.307304935
 40
0.500001
100
AcDbArc
 50
90
 51
180
  0
LINE
  5
3AA
100
AcDbEntity
  8
_1-0_
  6
CONTINUOUS
 62
     0
100
AcDbLine
 10
834.3739885492
 20
668.8073059349
 11
838.6239865492
 21
668.8073059349
  0
ARC
  5
3AB
100
AcDbEntity
  8
_1-0_
  6
CONTINUOUS
 62
     0
100
AcDbCircle
 10
835.6739875492
 20
667.0073059349
 40
0.3
100
AcDbArc
 50
90
 51
180
  0
LINE
  5
3AC
100
AcDbEntity
  8
_1-0_
  6
CONTINUOUS
 62
     0
100
AcDbLine
 10
835.3739875492
 20
665.1073039349
 11
835.3739875492
 21
667.0073059349
  0
ARC
  5
3AD
100
AcDbEntity
  8
_1-0_
  6
CONTINUOUS
 62
     0
100
AcDbCircle
 10
835.6739875492
 20
665.1073039349
 40
0.3
100
AcDbArc
 50
180
 51
270
  0
LINE
  5
3AE
100
AcDbEntity
  8
_1-0_
  6
CONTINUOUS
 62
     0
100
AcDbLine
 10
835.6739875492
 20
664.8073039349
 11
837.6239875492
 21
664.8073039349
  0
LINE
  5
3AF
100
AcDbEntity
  8
_1-0_
  6
CONTINUOUS
 62
     0
100
AcDbLine
 10
835.3739875492
 20
659.307304935
 11
846.8739865492
 21
659.307304935
  0
ARC
  5
3B0
100
AcDbEntity
  8
_1-0_
  6
CONTINUOUS
 62
     0
100
AcDbCircle
 10
868.0739875492
 20
663.0073039349
 40
0.3
100
AcDbArc
 50
0
 51
90
  0
LINE
  5
3B1
100
AcDbEntity
  8
_1-0_
  6
CONTINUOUS
 62
     0
100
AcDbLine
 10
868.0739875492
 20
663.3073039349
 11
866.1239875492
 21
663.3073039349
  0
ARC
  5
3B2
100
AcDbEntity
  8
_1-0_
  6
CONTINUOUS
 62
     0
100
AcDbCircle
 10
866.1239875492
 20
664.0573039349
 40
0.75
100
AcDbArc
 50
90
 51
270
  0
LINE
  5
3B3
100
AcDbEntity
  8
_1-0_
  6
CONTINUOUS
 62
     0
100
AcDbLine
 10
856.8739885492
 20
659.307304935
 11
856.8739885492
 21
658.8073039349
  0
LINE
  5
3B4
100
AcDbEntity
  8
_1-0_
  6
CONTINUOUS
 62
     0
100
AcDbLine
 10
856.8739885492
 20
659.307304935
 11
868.3739875492
 21
659.307304935
  0
ARC
  5
3B5
100
AcDbEntity
  8
_1-0_
  6
CONTINUOUS
 62
     0
100
AcDbCircle
 10
865.1239885492
 20
668.0573059349
 40
0.75
100
AcDbArc
 50
90
 51
270
  0
ARC
  5
3B6
100
AcDbEntity
  8
_1-0_
  6
CONTINUOUS
 62
     0
100
AcDbCircle
 10
867.8739865492
 20
669.3073039349
 40
0.500001
100
AcDbArc
 50
-90
 51
0
  0
LINE
  5
3B7
100
AcDbEntity
  8
_1-0_
  6
CONTINUOUS
 62
     0
100
AcDbLine
 10
867.8739865492
 20
668.8073059349
 11
865.1239885492
 21
668.8073059349
  0
LINE
  5
3B8
100
AcDbEntity
  8
_1-0_
  6
CONTINUOUS
 62
     0
100
AcDbLine
 10
846.8739865492
 20
659.307304935
 11
846.8739865492
 21
658.8073039349
  0
LINE
  5
3B9
100
AcDbEntity
  8
_1-0_
  6
CONTINUOUS
 62
     0
100
AcDbLine
 10
852.3739885492
 20
661.3073059349
 11
851.8739875492
 21
660.807304935
  0
LINE
  5
3BA
100
AcDbEntity
  8
_1-0_
  6
CONTINUOUS
 62
     0
100
AcDbLine
 10
851.3739865492
 20
661.3073059349
 11
851.8739875492
 21
660.807304935
  0
ARC
  5
3BB
100
AcDbEntity
  8
_1-0_
  6
CONTINUOUS
 62
     0
100
AcDbCircle
 10
868.0739875492
 20
667.0073059349
 40
0.3
100
AcDbArc
 50
0
 51
90
  0
ARC
  5
3BC
100
AcDbEntity
  8
_1-0_
  6
CONTINUOUS
 62
     0
100
AcDbCircle
 10
868.0739875492
 20
665.1073039349
 40
0.3
100
AcDbArc
 50
-90
 51
0
  0
LINE
  5
3BD
100
AcDbEntity
  8
_1-0_
  6
CONTINUOUS
 62
     0
100
AcDbLine
 10
868.0739875492
 20
664.8073039349
 11
866.1239875492
 21
664.8073039349
  0
LINE
  5
3BE
100
AcDbEntity
  8
_1-0_
  6
CONTINUOUS
 62
     0
100
AcDbLine
 10
863.8739875492
 20
665.707303935
 11
868.3739875492
 21
665.707303935
  0
ARC
  5
3BF
100
AcDbEntity
  8
_1-0_
  6
CONTINUOUS
 62
     0
100
AcDbCircle
 10
863.8739875492
 20
668.307304935
 40
2.600001
100
AcDbArc
 50
180
 51
270
  0
LINE
  5
3C0
100
AcDbEntity
  8
_1-0_
  6
CONTINUOUS
 62
     0
100
AcDbLine
 10
861.2739865492
 20
668.307304935
 11
861.2739865492
 21
673.6870249349
  0
LINE
  5
3C1
100
AcDbEntity
  8
_1-0_
  6
CONTINUOUS
 62
     0
100
AcDbLine
 10
860.4100615492
 20
676.2834619349
 11
843.6100615492
 21
677.1639139349
  0
ARC
  5
3C2
100
AcDbEntity
  8
_1-0_
  6
CONTINUOUS
 62
     0
100
AcDbCircle
 10
860.2739875492
 20
673.6870249349
 40
2.600001
100
AcDbArc
 50
0
 51
87
  0
LINE
  5
3C3
100
AcDbEntity
  8
_1-0_
  6
CONTINUOUS
 62
     0
100
AcDbLine
 10
862.8739885492
 20
673.6870249349
 11
862.8739885492
 21
668.307304935
  0
ARC
  5
3C4
100
AcDbEntity
  8
_1-0_
  6
CONTINUOUS
 62
     0
100
AcDbCircle
 10
843.4739875492
 20
674.567476935
 40
2.600001
100
AcDbArc
 50
87
 51
180
  0
LINE
  5
3C5
100
AcDbEntity
  8
_1-0_
  6
CONTINUOUS
 62
     0
100
AcDbLine
 10
840.8739865492
 20
674.567476935
 11
840.8739865492
 21
668.307304935
  0
LINE
  5
3C6
100
AcDbEntity
  8
_1-0_
  6
CONTINUOUS
 62
     0
100
AcDbLine
 10
839.8739875492
 20
665.707303935
 11
835.3739875492
 21
665.707303935
  0
ARC
  5
3C7
100
AcDbEntity
  8
_1-0_
  6
CONTINUOUS
 62
     0
100
AcDbCircle
 10
839.8739875492
 20
668.307304935
 40
2.600001
100
AcDbArc
 50
-90
 51
0
  0
LINE
  5
3C8
100
AcDbEntity
  8
_1-0_
  6
CONTINUOUS
 62
     0
100
AcDbLine
 10
842.4739885492
 20
668.307304935
 11
842.4739885492
 21
674.567476935
  0
ARC
  5
3C9
100
AcDbEntity
  8
_1-0_
  6
CONTINUOUS
 62
     0
100
AcDbCircle
 10
863.8739875492
 20
668.307304935
 40
0.999999
100
AcDbArc
 50
180
 51
270
  0
LINE
  5
3CA
100
AcDbEntity
  8
_1-0_
  6
CONTINUOUS
 62
     0
100
AcDbLine
 10
863.8739875492
 20
667.3073059349
 11
868.0739875492
 21
667.3073059349
  0
ARC
  5
3CB
100
AcDbEntity
  8
_1-0_
  6
CONTINUOUS
 62
     0
100
AcDbCircle
 10
860.2739875492
 20
673.6870249349
 40
0.999999
100
AcDbArc
 50
0
 51
86.99999999999
  0
LINE
  5
3CC
100
AcDbEntity
  8
_1-0_
  6
CONTINUOUS
 62
     0
100
AcDbLine
 10
860.3263225492
 20
674.6856559349
 11
843.5263225492
 21
675.5661049349
  0
ARC
  5
3CD
100
AcDbEntity
  8
_1-0_
  6
CONTINUOUS
 62
     0
100
AcDbCircle
 10
843.4739875492
 20
674.567476935
 40
0.999999
100
AcDbArc
 50
86.99999999999
 51
180
  0
LINE
  5
3CE
100
AcDbEntity
  8
_1-0_
  6
CONTINUOUS
 62
     0
100
AcDbLine
 10
839.8739875492
 20
667.3073059349
 11
835.6739875492
 21
667.3073059349
  0
ARC
  5
3CF
100
AcDbEntity
  8
_1-0_
  6
CONTINUOUS
 62
     0
100
AcDbCircle
 10
839.8739875492
 20
668.307304935
 40
0.999999
100
AcDbArc
 50
-90
 51
0
  0
ARC
  5
3D0
100
AcDbEntity
  8
_1-0_
  6
CONTINUOUS
 62
     0
100
AcDbCircle
 10
857.3302405492
 20
673.841299935
 40
0.999999
100
AcDbArc
 50
86.99999999999
 51
177
  0
ARC
  5
3D1
100
AcDbEntity
  8
_1-0_
  6
CONTINUOUS
 62
     0
100
AcDbCircle
 10
846.1455895492
 20
674.4274639349
 40
0.999999
100
AcDbArc
 50
-2.999999999999
 51
86.99999999999
  0
LINE
  5
3D2
100
AcDbEntity
  8
_1-0_
  6
CONTINUOUS
 62
     0
100
AcDbLine
 10
856.3316095492
 20
673.8936379349
 11
856.2792745492
 21
672.895006935
  0
LINE
  5
3D3
100
AcDbEntity
  8
_1-0_
  6
CONTINUOUS
 62
     0
100
AcDbLine
 10
847.1442175492
 20
674.375128935
 11
847.0918825492
 21
673.376497935
  0
ARC
  5
3D4
100
AcDbEntity
  8
_1-0_
  6
CONTINUOUS
 62
     0
100
AcDbCircle
 10
856.8239875492
 20
663.897910935
 40
3.809394
100
AcDbArc
 50
90
 51
120.789964
  0
LINE
  5
3D5
100
AcDbEntity
  8
_1-0_
  6
CONTINUOUS
 62
     0
100
AcDbLine
 10
846.9239875492
 20
667.707304935
 11
856.8239875492
 21
667.707304935
  0
LINE
  5
3D6
100
AcDbEntity
  8
_1-0_
  6
CONTINUOUS
 62
     0
100
AcDbLine
 10
856.8239875492
 20
667.707304935
 11
857.7539875492
 21
667.170367935
  0
LINE
  5
3D7
100
AcDbEntity
  8
_1-0_
  6
CONTINUOUS
 62
     0
100
AcDbLine
 10
857.7539875492
 20
667.170367935
 11
857.7539875492
 21
662.9073049349
  0
LINE
  5
3D8
100
AcDbEntity
  8
_1-0_
  6
CONTINUOUS
 62
     0
100
AcDbLine
 10
854.8739875492
 20
667.170367935
 11
854.8739875492
 21
662.9073049349
  0
LINE
  5
3D9
100
AcDbEntity
  8
_1-0_
  6
CONTINUOUS
 62
     0
100
AcDbLine
 10
848.8739875492
 20
667.170367935
 11
848.8739875492
 21
662.9073049349
  0
ARC
  5
3DA
100
AcDbEntity
  8
_1-0_
  6
CONTINUOUS
 62
     0
100
AcDbCircle
 10
851.8739875492
 20
659.057944935
 40
8.64936
100
AcDbArc
 50
69.705445
 51
110.294555
  0
ARC
  5
3DB
100
AcDbEntity
  8
_1-0_
  6
CONTINUOUS
 62
     0
100
AcDbCircle
 10
846.9239875492
 20
663.897910935
 40
3.809394
100
AcDbArc
 50
59.210036
 51
90
  0
LINE
  5
3DC
100
AcDbEntity
  8
_1-0_
  6
CONTINUOUS
 62
     0
100
AcDbLine
 10
846.9239875492
 20
667.707304935
 11
845.9939875492
 21
667.170367935
  0
LINE
  5
3DD
100
AcDbEntity
  8
_1-0_
  6
CONTINUOUS
 62
     0
100
AcDbLine
 10
845.9939875492
 20
667.170367935
 11
845.9939875492
 21
662.9073049349
  0
LINE
  5
3DE
100
AcDbEntity
  8
_1-0_
  6
CONTINUOUS
 62
     0
100
AcDbLine
 10
842.8739875492
 20
662.9073049349
 11
842.8739875492
 21
661.3073059349
  0
LINE
  5
3DF
100
AcDbEntity
  8
_1-0_
  6
CONTINUOUS
 62
     0
100
AcDbLine
 10
860.8739875492
 20
662.9073049349
 11
842.8739875492
 21
662.9073049349
  0
LINE
  5
3E0
100
AcDbEntity
  8
_1-0_
  6
CONTINUOUS
 62
     0
100
AcDbLine
 10
860.8739875492
 20
662.9073049349
 11
860.8739875492
 21
661.3073059349
  0
ARC
  5
3E1
100
AcDbEntity
  8
_2-0_
  6
CONTINUOUS
 62
     0
100
AcDbCircle
 10
830.8739875492
 20
667.048534935
 40
10.25
100
AcDbArc
 50
-90
 51
-71.07535558395
  0
LINE
  5
3E2
100
AcDbEntity
  8
_2-0_
  6
CONTINUOUS
 62
     0
100
AcDbLine
 10
866.8739875492
 20
657.798534935
 11
866.8739875492
 21
656.798534935
  0
LINE
  5
3E3
100
AcDbEntity
  8
_2-0_
  6
CONTINUOUS
 62
     0
100
AcDbLine
 10
836.8739875492
 20
657.798534935
 11
866.8739875492
 21
657.798534935
  0
LINE
  5
3E4
100
AcDbEntity
  8
_2-0_
  6
CONTINUOUS
 62
     0
100
AcDbLine
 10
836.8739875492
 20
656.798534935
 11
836.8739875492
 21
657.798534935
  0
LINE
  5
3E5
100
AcDbEntity
  8
_2-0_
  6
CONTINUOUS
 62
     0
100
AcDbLine
 10
866.8739875492
 20
656.798534935
 11
836.8739875492
 21
656.798534935
  0
LINE
  5
3E6
100
AcDbEntity
  8
_2-0_
  6
CONTINUOUS
 62
     0
100
AcDbLine
 10
865.9984498874
 20
656.798534935
 11
866.8739875492
 21
657.6740725969
  0
LINE
  5
3E7
100
AcDbEntity
  8
_2-0_
  6
CONTINUOUS
 62
     0
100
AcDbLine
 10
864.584236325
 20
656.798534935
 11
865.584236325
 21
657.798534935
  0
LINE
  5
3E8
100
AcDbEntity
  8
_2-0_
  6
CONTINUOUS
 62
     0
100
AcDbLine
 10
863.1700227626
 20
656.798534935
 11
864.1700227626
 21
657.798534935
  0
LINE
  5
3E9
100
AcDbEntity
  8
_2-0_
  6
CONTINUOUS
 62
     0
100
AcDbLine
 10
861.7558092002
 20
656.798534935
 11
862.7558092002
 21
657.798534935
  0
LINE
  5
3EA
100
AcDbEntity
  8
_2-0_
  6
CONTINUOUS
 62
     0
100
AcDbLine
 10
860.3415956379
 20
656.798534935
 11
861.3415956379
 21
657.798534935
  0
LINE
  5
3EB
100
AcDbEntity
  8
_2-0_
  6
CONTINUOUS
 62
     0
100
AcDbLine
 10
858.9273820755
 20
656.798534935
 11
859.9273820755
 21
657.798534935
  0
LINE
  5
3EC
100
AcDbEntity
  8
_2-0_
  6
CONTINUOUS
 62
     0
100
AcDbLine
 10
857.5131685131
 20
656.798534935
 11
858.5131685131
 21
657.798534935
  0
LINE
  5
3ED
100
AcDbEntity
  8
_2-0_
  6
CONTINUOUS
 62
     0
100
AcDbLine
 10
856.0989549508
 20
656.798534935
 11
857.0989549508
 21
657.798534935
  0
LINE
  5
3EE
100
AcDbEntity
  8
_2-0_
  6
CONTINUOUS
 62
     0
100
AcDbLine
 10
854.6847413884
 20
656.798534935
 11
855.6847413884
 21
657.798534935
  0
LINE
  5
3EF
100
AcDbEntity
  8
_2-0_
  6
CONTINUOUS
 62
     0
100
AcDbLine
 10
853.270527826
 20
656.798534935
 11
854.270527826
 21
657.798534935
  0
LINE
  5
3F0
100
AcDbEntity
  8
_2-0_
  6
CONTINUOUS
 62
     0
100
AcDbLine
 10
851.8563142636
 20
656.798534935
 11
852.8563142636
 21
657.798534935
  0
LINE
  5
3F1
100
AcDbEntity
  8
_2-0_
  6
CONTINUOUS
 62
     0
100
AcDbLine
 10
850.4421007013
 20
656.798534935
 11
851.4421007013
 21
657.798534935
  0
LINE
  5
3F2
100
AcDbEntity
  8
_2-0_
  6
CONTINUOUS
 62
     0
100
AcDbLine
 10
849.0278871389
 20
656.798534935
 11
850.0278871389
 21
657.798534935
  0
LINE
  5
3F3
100
AcDbEntity
  8
_2-0_
  6
CONTINUOUS
 62
     0
100
AcDbLine
 10
847.6136735765
 20
656.798534935
 11
848.6136735765
 21
657.798534935
  0
LINE
  5
3F4
100
AcDbEntity
  8
_2-0_
  6
CONTINUOUS
 62
     0
100
AcDbLine
 10
846.1994600141
 20
656.798534935
 11
847.1994600141
 21
657.798534935
  0
LINE
  5
3F5
100
AcDbEntity
  8
_2-0_
  6
CONTINUOUS
 62
     0
100
AcDbLine
 10
844.7852464518
 20
656.798534935
 11
845.7852464518
 21
657.798534935
  0
LINE
  5
3F6
100
AcDbEntity
  8
_2-0_
  6
CONTINUOUS
 62
     0
100
AcDbLine
 10
843.3710328894
 20
656.798534935
 11
844.3710328894
 21
657.798534935
  0
LINE
  5
3F7
100
AcDbEntity
  8
_2-0_
  6
CONTINUOUS
 62
     0
100
AcDbLine
 10
841.956819327
 20
656.798534935
 11
842.956819327
 21
657.798534935
  0
LINE
  5
3F8
100
AcDbEntity
  8
_2-0_
  6
CONTINUOUS
 62
     0
100
AcDbLine
 10
840.5426057646
 20
656.798534935
 11
841.5426057646
 21
657.798534935
  0
LINE
  5
3F9
100
AcDbEntity
  8
_2-0_
  6
CONTINUOUS
 62
     0
100
AcDbLine
 10
839.1283922023
 20
656.798534935
 11
840.1283922023
 21
657.798534935
  0
LINE
  5
3FA
100
AcDbEntity
  8
_2-0_
  6
CONTINUOUS
 62
     0
100
AcDbLine
 10
837.7141786399
 20
656.798534935
 11
838.7141786399
 21
657.798534935
  0
ARC
  5
3FB
100
AcDbEntity
  8
_2-0_
  6
CONTINUOUS
 62
     0
100
AcDbCircle
 10
830.8739875492
 20
667.048534935
 40
9.25
100
AcDbArc
 50
-90
 51
-71.07535558395
  0
ARC
  5
3FC
100
AcDbEntity
  8
_2-0_
  6
CONTINUOUS
 62
     0
100
AcDbCircle
 10
836.8739875492
 20
649.548534935
 40
9.25
100
AcDbArc
 50
90
 51
108.9246444161
  0
ARC
  5
3FD
100
AcDbEntity
  8
_2-0_
  6
CONTINUOUS
 62
     0
100
AcDbCircle
 10
836.8739875492
 20
649.548534935
 40
8.25
100
AcDbArc
 50
90
 51
108.9246444161
  0
LINE
  5
3FE
100
AcDbEntity
  8
_2-0_
  6
CONTINUOUS
 62
     0
100
AcDbLine
 10
836.8739875492
 20
657.3725574067
 11
837.2999650775
 21
657.798534935
  0
LINE
  5
3FF
100
AcDbEntity
  8
_1-0_
  6
CONTINUOUS
 62
     0
100
AcDbLine
 10
847.0918825492
 20
673.376497935
 11
856.2792745492
 21
672.895006935
  0
LINE
  5
400
100
AcDbEntity
  8
_0-1_PRO0
  6
CONTINUOUS
 62
     0
100
AcDbLine
 10
841.2443817248
 20
667.3123114286
 11
822.0419607248
 21
720.0705244287
  0
CIRCLE
  5
401
100
AcDbEntity
  8
_0-1_PRO0
  6
CONTINUOUS
 62
     0
100
AcDbCircle
 10
819.9898407248
 20
725.7086794286
 40
6
  0
CIRCLE
  5
402
100
AcDbEntity
  8
_0-1_PRO0
  6
CONTINUOUS
 62
     0
100
AcDbCircle
 10
841.2443817248
 20
667.3123114286
 40
0.9
  0
CIRCLE
  5
403
100
AcDbEntity
  8
_0-1_PRO0
  6
CONTINUOUS
 62
     0
100
AcDbCircle
 10
847.334434978
 20
662.0771839349
 40
0.9
  0
CIRCLE
  5
404
100
AcDbEntity
  8
_0-1_PRO0
  6
CONTINUOUS
 62
     0
100
AcDbCircle
 10
831.688435978
 20
634.977520935
 40
6
  0
LINE
  5
405
100
AcDbEntity
  8
_0-1_PRO0
  6
CONTINUOUS
 62
     0
100
AcDbLine
 10
847.334434978
 20
662.0771839349
 11
834.688435978
 21
640.173670935
  0
CIRCLE
  5
406
100
AcDbEntity
  8
_0-1_PRO0
  6
CONTINUOUS
 62
     0
100
AcDbCircle
 10
856.516966978
 20
664.540789935
 40
0.9
  0
CIRCLE
  5
407
100
AcDbEntity
  8
_0-1_PRO0
  6
CONTINUOUS
 62
     0
100
AcDbCircle
 10
871.128517978
 20
639.232837935
 40
6
  0
LINE
  5
408
100
AcDbEntity
  8
_0-1_PRO0
  6
CONTINUOUS
 62
     0
100
AcDbLine
 10
856.516966978
 20
664.540789935
 11
868.128517978
 21
644.4289909349
  0
CIRCLE
  5
409
100
AcDbEntity
  8
_0-1_PRO0
  6
CONTINUOUS
 62
     0
100
AcDbCircle
 10
869.370205978
 20
661.529926935
 40
0.9
  0
CIRCLE
  5
40A
100
AcDbEntity
  8
_0-1_PRO0
  6
CONTINUOUS
 62
     0
100
AcDbCircle
 10
902.368732978
 20
718.6850509349
 40
6
  0
LINE
  5
40B
100
AcDbEntity
  8
_0-1_PRO0
  6
CONTINUOUS
 62
     0
100
AcDbLine
 10
869.370205978
 20
661.529926935
 11
899.368732978
 21
713.4889009349
  0
CIRCLE
  5
40C
100
AcDbEntity
  8
_0-1_PRO0
  6
CONTINUOUS
 62
     0
100
AcDbCircle
 10
871.3610221238
 20
693.5959992153
 40
0.9
  0
LINE
  5
40D
100
AcDbEntity
  8
_0-1_PRO0
  6
CONTINUOUS
 62
     0
100
AcDbLine
 10
871.3610221238
 20
693.5959992153
 11
895.2714721238
 21
735.0101112152
  0
CIRCLE
  5
40E
100
AcDbEntity
  8
_0-1_PRO0
  6
CONTINUOUS
 62
     0
100
AcDbCircle
 10
898.2714721238
 20
740.2062642153
 40
6
  0
CIRCLE
  5
40F
100
AcDbEntity
  8
_0-1_PRO0
  6
CONTINUOUS
 62
     0
100
AcDbCircle
 10
881.9163850642
 20
733.9540264478
 40
6
  0
LINE
  5
410
100
AcDbEntity
  8
_0-1_PRO0
  6
CONTINUOUS
 62
     0
100
AcDbLine
 10
852.1867942636
 20
679.5154109349
 11
878.9163850642
 21
728.7578734478
  0
LINE
  5
411
100
AcDbEntity
  8
_1-0_
  6
CONTINUOUS
 62
     0
100
AcDbLine
 10
851.8563142636
 20
611.365133935
 11
851.8563142636
 21
656.798534935
  0
LINE
  5
412
100
AcDbEntity
  8
_1-0_
  6
CONTINUOUS
 62
     0
100
AcDbLine
 10
856.6063162636
 20
647.798534935
 11
855.9063142636
 21
648.498533935
  0
LINE
  5
413
100
AcDbEntity
  8
_1-0_
  6
CONTINUOUS
 62
     0
100
AcDbLine
 10
855.9063142636
 20
657.798533935
 11
855.9063142636
 21
648.498533935
  0
LINE
  5
414
100
AcDbEntity
  8
_1-0_
  6
CONTINUOUS
 62
     0
100
AcDbLine
 10
856.6063162636
 20
629.170361935
 11
856.6063162636
 21
647.798534935
  0
LINE
  5
415
100
AcDbEntity
  8
_1-0_
  6
CONTINUOUS
 62
     0
100
AcDbLine
 10
856.3563142636
 20
617.298533935
 11
856.3563142636
 21
618.1618379349
  0
LINE
  5
416
100
AcDbEntity
  8
_1-0_
  6
CONTINUOUS
 62
     0
100
AcDbLine
 10
858.4813462636
 20
618.536537935
 11
856.6063162636
 21
629.170361935
  0
LINE
  5
417
100
AcDbEntity
  8
_1-0_
  6
CONTINUOUS
 62
     0
100
AcDbLine
 10
852.3563152636
 20
628.798532935
 11
851.3563162636
 21
628.798532935
  0
LINE
  5
418
100
AcDbEntity
  8
_1-0_
  6
CONTINUOUS
 62
     0
100
AcDbLine
 10
847.1063152636
 20
647.798534935
 11
847.8063142636
 21
648.498533935
  0
LINE
  5
419
100
AcDbEntity
  8
_1-0_
  6
CONTINUOUS
 62
     0
100
AcDbLine
 10
847.8063142636
 20
657.798533935
 11
847.8063142636
 21
648.498533935
  0
LINE
  5
41A
100
AcDbEntity
  8
_1-0_
  6
CONTINUOUS
 62
     0
100
AcDbLine
 10
847.1063152636
 20
629.170361935
 11
847.1063152636
 21
647.798534935
  0
LINE
  5
41B
100
AcDbEntity
  8
_1-0_
  6
CONTINUOUS
 62
     0
100
AcDbLine
 10
848.3563162636
 20
616.298534935
 11
855.3563152636
 21
616.298534935
  0
ARC
  5
41C
100
AcDbEntity
  8
_1-0_
  6
CONTINUOUS
 62
     0
100
AcDbCircle
 10
848.3563162636
 20
617.298533935
 40
0.999999
100
AcDbArc
 50
180
 51
270
  0
LINE
  5
41D
100
AcDbEntity
  8
_1-0_
  6
CONTINUOUS
 62
     0
100
AcDbLine
 10
847.3563142636
 20
617.298533935
 11
847.3563142636
 21
618.1618379349
  0
LINE
  5
41E
100
AcDbEntity
  8
_1-0_
  6
CONTINUOUS
 62
     0
100
AcDbLine
 10
845.2312852636
 20
618.536537935
 11
849.4167172636
 21
617.798534935
  0
LINE
  5
41F
100
AcDbEntity
  8
_1-0_
  6
CONTINUOUS
 62
     0
100
AcDbLine
 10
852.3563152636
 20
628.798532935
 11
854.2959112636
 21
617.798534935
  0
LINE
  5
420
100
AcDbEntity
  8
_1-0_
  6
CONTINUOUS
 62
     0
100
AcDbLine
 10
851.3563162636
 20
628.798532935
 11
849.4167172636
 21
617.798534935
  0
LINE
  5
421
100
AcDbEntity
  8
_1-0_
  6
CONTINUOUS
 62
     0
100
AcDbLine
 10
845.2312852636
 20
618.536537935
 11
847.1063152636
 21
629.170361935
  0
LINE
  5
422
100
AcDbEntity
  8
_1-0_
  6
CONTINUOUS
 62
     0
100
AcDbLine
 10
856.6063162636
 20
647.798534935
 11
847.1063152636
 21
647.798534935
  0
LINE
  5
423
100
AcDbEntity
  8
_1-0_
  6
CONTINUOUS
 62
     0
100
AcDbLine
 10
855.9063142636
 20
648.498533935
 11
847.8063142636
 21
648.498533935
  0
LINE
  5
424
100
AcDbEntity
  8
_1-0_
  6
CONTINUOUS
 62
     0
100
AcDbLine
 10
858.4813462636
 20
618.536537935
 11
854.2959112636
 21
617.798534935
  0
ARC
  5
425
100
AcDbEntity
  8
_1-0_
  6
CONTINUOUS
 62
     0
100
AcDbCircle
 10
855.3563152636
 20
617.298533935
 40
0.999999
100
AcDbArc
 50
-90
 51
0
  0
LINE
  5
426
100
AcDbEntity
  8
_0-1_PRO0
  6
CONTINUOUS
 62
     0
100
AcDbLine
 10
851.8563142636
 20
611.365133935
 11
851.8563142636
 21
656.798534935
  0
LINE
  5
427
100
AcDbEntity
  8
_0-1_PRO0
  6
CONTINUOUS
 62
     0
100
AcDbLine
 10
845.2312852636
 20
618.536537935
 11
849.4167172636
 21
617.798534935
  0
LINE
  5
428
100
AcDbEntity
  8
_0-1_PRO0
  6
CONTINUOUS
 62
     0
100
AcDbLine
 10
902.8563142636
 20
656.798534935
 11
1097.960407264
 21
656.798534935
  0
CIRCLE
  5
429
100
AcDbEntity
  8
_0-1_PRO0
  6
CONTINUOUS
 62
     0
100
AcDbCircle
 10
851.8313932636
 20
636.432356935
 40
0.9
  0
CIRCLE
  5
42A
100
AcDbEntity
  8
_0-1_PRO0
  6
CONTINUOUS
 62
     0
100
AcDbCircle
 10
835.1509462636
 20
607.540976935
 40
6
  0
LINE
  5
42B
100
AcDbEntity
  8
_0-1_PRO0
  6
CONTINUOUS
 62
     0
100
AcDbLine
 10
851.8313932636
 20
636.432356935
 11
838.1509462636
 21
612.7371299349
  0
CIRCLE
  5
42C
100
AcDbEntity
  8
_0-1_PRO0
  6
CONTINUOUS
 62
     0
100
AcDbCircle
 10
852.1867942636
 20
679.5154109349
 40
0.9
  0
TEXT
  5
42D
100
AcDbEntity
  8
_0-1_PRO0
  6
CONTINUOUS
 62
     0
100
AcDbText
 10
615.8590587454
 20
401.3669495327
 40
9
  1
300
  7
STANDARD
100
AcDbText
  0
TEXT
  5
42E
100
AcDbEntity
  8
_0-1_PRO0
  6
CONTINUOUS
 62
     0
100
AcDbText
 10
405.4941494251
 20
401.3066969482
 40
9
  1
Ｃ
  7
STANDARD
100
AcDbText
  0
TEXT
  5
42F
100
AcDbEntity
  8
_0-1_PRO0
  6
CONTINUOUS
 62
     0
100
AcDbText
 10
833.7057360979
 20
401.3066969482
 40
9
  1
Ｃ
  7
STANDARD
100
AcDbText
  0
TEXT
  5
430
100
AcDbEntity
  8
_0-1_PRO0
  6
CONTINUOUS
 62
     0
100
AcDbText
 10
247.3852558843
 20
400.6479098917
 40
9
  1
170
  7
STANDARD
100
AcDbText
  0
TEXT
  5
431
100
AcDbEntity
  8
_2-0_
  6
CONTINUOUS
 62
     0
100
AcDbText
 10
979.2976755666
 20
401.3066969482
 40
9
  1
170
  7
STANDARD
100
AcDbText
  0
LINE
  5
432
100
AcDbEntity
  8
_2-0_
  6
CONTINUOUS
 62
     0
100
AcDbLine
 10
501.1155869775
 20
551.4651533436
 11
472.6176301312
 21
657.820976206
  0
LINE
  5
433
100
AcDbEntity
  8
_2-0_
  6
CONTINUOUS
 62
     0
100
AcDbLine
 10
742.5970435498
 20
551.4651533436
 11
771.0950003961
 21
657.820976206
  0
ARC
  5
434
100
AcDbEntity
  8
_2-0_
  6
CONTINUOUS
 62
     0
100
AcDbCircle
 10
621.8563152636
 20
583.8175339813
 40
125
100
AcDbArc
 50
-165
 51
-15
  0
LINE
  5
435
100
AcDbEntity
  8
_2-0_
  6
CONTINUOUS
 62
     0
100
AcDbLine
 10
500.1496611512
 20
551.2063342984
 11
471.8563162636
 21
656.798534935
  0
LINE
  5
436
100
AcDbEntity
  8
_2-0_
  6
CONTINUOUS
 62
     0
100
AcDbLine
 10
743.5629693761
 20
551.2063342984
 11
771.8563142636
 21
656.798534935
  0
ARC
  5
437
100
AcDbEntity
  8
_2-0_
  6
CONTINUOUS
 62
     0
100
AcDbCircle
 10
621.8563152636
 20
583.8175339813
 40
126
100
AcDbArc
 50
-165
 51
-15
  0
CIRCLE
  5
438
100
AcDbEntity
  8
_0-1_PRO0
  6
CONTINUOUS
 62
     0
100
AcDbCircle
 10
634.2827583847
 20
458.7960116101
 40
0.9
  0
CIRCLE
  5
439
100
AcDbEntity
  8
_0-1_PRO0
  6
CONTINUOUS
 62
     0
100
AcDbCircle
 10
660.9133092366
 20
507.005257616
 40
6
  0
LINE
  5
43A
100
AcDbEntity
  8
_0-1_PRO0
  6
CONTINUOUS
 62
     0
100
AcDbLine
 10
634.2827583847
 20
458.7960116101
 11
658.8611892366
 21
501.3671026159
  0
LINE
  5
43B
100
AcDbEntity
  8
_1-0_
  6
CONTINUOUS
 62
     0
100
AcDbLine
 10
401.810528327
 20
704.5414670349
 11
378.842048327
 21
703.3377410348
  0
LINE
  5
43C
100
AcDbEntity
  8
_1-0_
  6
CONTINUOUS
 62
     0
100
AcDbLine
 10
415.258097327
 20
692.3245580349
 11
401.810528327
 21
704.5414670349
  0
LINE
  5
43D
100
AcDbEntity
  8
_1-0_
  6
CONTINUOUS
 62
     0
100
AcDbLine
 10
419.106920327
 20
694.5311840348
 11
418.445684327
 21
694.9814840348
  0
LINE
  5
43E
100
AcDbEntity
  8
_1-0_
  6
CONTINUOUS
 62
     0
100
AcDbLine
 10
418.445684327
 20
694.9814840348
 11
416.757068327
 21
692.5018520349
  0
LINE
  5
43F
100
AcDbEntity
  8
_1-0_
  6
CONTINUOUS
 62
     0
100
AcDbLine
 10
419.106920327
 20
694.5311840348
 11
417.418304327
 21
692.0515520348
  0
ARC
  5
440
100
AcDbEntity
  8
_1-0_
  6
CONTINUOUS
 62
     0
100
AcDbCircle
 10
415.930526327
 20
693.0647240348
 40
0.999999
100
AcDbArc
 50
-132.254652
 51
-34.25465800001
  0
ARC
  5
441
100
AcDbEntity
  8
_1-0_
  6
CONTINUOUS
 62
     0
100
AcDbCircle
 10
415.930526327
 20
693.0647240348
 40
1.8
100
AcDbArc
 50
-132.254651
 51
-34.254658
  0
ARC
  5
442
100
AcDbEntity
  8
_1-0_
  6
CONTINUOUS
 62
     0
100
AcDbCircle
 10
390.404792327
 20
702.4416590348
 40
6.3
100
AcDbArc
 50
43.903458
 51
142.096542
  0
LINE
  5
443
100
AcDbEntity
  8
_1-0_
  6
CONTINUOUS
 62
     0
100
AcDbLine
 10
395.500241327
 20
705.5281460349
 11
395.569094327
 21
704.2143680348
  0
LINE
  5
444
100
AcDbEntity
  8
_1-0_
  6
CONTINUOUS
 62
     0
100
AcDbLine
 10
385.014632327
 20
704.9786180349
 11
385.083482327
 21
703.6648400348
  0
ARC
  5
445
100
AcDbEntity
  8
_1-0_
  6
CONTINUOUS
 62
     0
100
AcDbCircle
 10
393.502982327
 20
705.4234760348
 40
2.000001
100
AcDbArc
 50
2.999999999999
 51
43.903458
  0
LINE
  5
446
100
AcDbEntity
  8
_1-0_
  6
CONTINUOUS
 62
     0
100
AcDbLine
 10
414.720158327
 20
691.7324270348
 11
401.519399327
 21
703.7251130348
  0
LINE
  5
447
100
AcDbEntity
  8
_1-0_
  6
CONTINUOUS
 62
     0
100
AcDbLine
 10
401.519399327
 20
703.7251130348
 11
379.176071327
 21
702.5541470348
  0
LINE
  5
448
100
AcDbEntity
  8
_1-0_
  6
CONTINUOUS
 62
     0
100
AcDbLine
 10
367.342049327
 20
689.2494470348
 11
379.216916327
 21
702.5562890349
  0
ARC
  5
449
100
AcDbEntity
  8
_1-0_
  6
CONTINUOUS
 62
     0
100
AcDbCircle
 10
387.011891327
 20
705.0832910348
 40
2.000001
100
AcDbArc
 50
142.096542
 51
183
  0
LINE
  5
44A
100
AcDbEntity
  8
_1-0_
  6
CONTINUOUS
 62
     0
100
AcDbLine
 10
362.686766327
 20
691.5743300348
 11
363.297311327
 21
692.0912780349
  0
LINE
  5
44B
100
AcDbEntity
  8
_1-0_
  6
CONTINUOUS
 62
     0
100
AcDbLine
 10
363.297311327
 20
692.0912780349
 11
365.235869327
 21
689.8017380348
  0
LINE
  5
44C
100
AcDbEntity
  8
_1-0_
  6
CONTINUOUS
 62
     0
100
AcDbLine
 10
362.686766327
 20
691.5743300348
 11
364.625324327
 21
689.2847900348
  0
ARC
  5
44D
100
AcDbEntity
  8
_1-0_
  6
CONTINUOUS
 62
     0
100
AcDbCircle
 10
365.999048327
 20
690.4479260348
 40
0.999999
100
AcDbArc
 50
-139.745342
 51
-41.745348
  0
LINE
  5
44E
100
AcDbEntity
  8
_1-0_
  6
CONTINUOUS
 62
     0
100
AcDbLine
 10
366.745160327
 20
689.7821030349
 11
378.842048327
 21
703.3377410348
  0
ARC
  5
44F
100
AcDbEntity
  8
_1-0_
  6
CONTINUOUS
 62
     0
100
AcDbCircle
 10
365.999048327
 20
690.4479260348
 40
1.8
100
AcDbArc
 50
-139.745342
 51
-41.745349
  0
LINE
  5
450
100
AcDbEntity
  8
_1-0_
  6
CONTINUOUS
 62
     0
100
AcDbLine
 10
393.322178327
 20
704.0966120348
 11
395.023796037
 21
674.6453056336
  0
LINE
  5
451
100
AcDbEntity
  8
_1-0_
  6
CONTINUOUS
 62
     0
100
AcDbLine
 10
390.019790327
 20
709.7879540348
 11
392.1660579738
 21
671.1210570993
  0
LINE
  5
452
100
AcDbEntity
  8
_1-0_
  6
CONTINUOUS
 62
     0
100
AcDbLine
 10
387.829715327
 20
703.8087650349
 11
389.5601740462
 21
673.8582834116
  0
LINE
  5
453
100
AcDbEntity
  8
_1-0_
  6
CONTINUOUS
 62
     0
100
AcDbLine
 10
387.330398327
 20
703.7825960349
 11
389.0320199623
 21
674.3312902243
  0
LINE
  5
454
100
AcDbEntity
  8
_1-0_
  6
CONTINUOUS
 62
     0
100
AcDbLine
 10
392.822861327
 20
704.0704430348
 11
394.5533242078
 21
674.1199630992
  0
LINE
  5
455
100
AcDbEntity
  8
_a-0_
  6
CONTINUOUS
 62
     0
100
AcDbLine
 10
394.5533242078
 20
674.1199630992
 11
389.5601740462
 21
673.8582834116
  0
LINE
  5
456
100
AcDbEntity
  8
_a-0_
  6
CONTINUOUS
 62
     0
100
AcDbLine
 10
394.5533242078
 20
674.1199630992
 11
394.737817169
 21
674.325973308
  0
LINE
  5
457
100
AcDbEntity
  8
_a-0_
  6
CONTINUOUS
 62
     0
100
AcDbLine
 10
394.737817169
 20
674.325973308
 11
395.023796037
 21
674.6453056336
  0
LINE
  5
458
100
AcDbEntity
  8
_a-0_
  6
CONTINUOUS
 62
     0
100
AcDbLine
 10
395.023796037
 20
674.6453056336
 11
389.0320199623
 21
674.3312902243
  0
LINE
  5
459
100
AcDbEntity
  8
_a-0_
  6
CONTINUOUS
 62
     0
100
AcDbLine
 10
389.3530616745
 20
674.0437701205
 11
389.5601740462
 21
673.8582834116
  0
LINE
  5
45A
100
AcDbEntity
  8
_a-0_
  6
CONTINUOUS
 62
     0
100
AcDbLine
 10
389.0320199623
 20
674.3312902243
 11
389.3530616745
 21
674.0437701205
  0
ARC
  5
45B
100
AcDbEntity
  8
_1-0_
  6
CONTINUOUS
 62
     0
100
AcDbCircle
 10
856.8375917086
 20
705.0761188768
 40
2.000001
100
AcDbArc
 50
-3.000000000003
 51
37.903458
  0
LINE
  5
45C
100
AcDbEntity
  8
_1-0_
  6
CONTINUOUS
 62
     0
100
AcDbLine
 10
842.3300837086
 20
703.7179408767
 11
864.6734117086
 21
702.5469748768
  0
LINE
  5
45D
100
AcDbEntity
  8
_1-0_
  6
CONTINUOUS
 62
     0
100
AcDbLine
 10
829.1293247086
 20
691.7252548768
 11
842.3300837086
 21
703.7179408767
  0
ARC
  5
45E
100
AcDbEntity
  8
_1-0_
  6
CONTINUOUS
 62
     0
100
AcDbCircle
 10
850.3465007086
 20
705.4163038767
 40
2.000001
100
AcDbArc
 50
136.096542
 51
177
  0
LINE
  5
45F
100
AcDbEntity
  8
_1-0_
  6
CONTINUOUS
 62
     0
100
AcDbLine
 10
858.8348507086
 20
704.9714458768
 11
858.7660007086
 21
703.6576678768
  0
LINE
  5
460
100
AcDbEntity
  8
_1-0_
  6
CONTINUOUS
 62
     0
100
AcDbLine
 10
848.3492417086
 20
705.5209738767
 11
848.2803887086
 21
704.2071958768
  0
ARC
  5
461
100
AcDbEntity
  8
_1-0_
  6
CONTINUOUS
 62
     0
100
AcDbCircle
 10
853.4446907086
 20
702.4344868768
 40
6.3
100
AcDbArc
 50
37.903458
 51
136.096542
  0
ARC
  5
462
100
AcDbEntity
  8
_1-0_
  6
CONTINUOUS
 62
     0
100
AcDbCircle
 10
827.9189567086
 20
693.0575518768
 40
1.8
100
AcDbArc
 50
-145.745342
 51
-47.745349
  0
ARC
  5
463
100
AcDbEntity
  8
_1-0_
  6
CONTINUOUS
 62
     0
100
AcDbCircle
 10
827.9189567086
 20
693.0575518768
 40
0.999999
100
AcDbArc
 50
-145.745342
 51
-47.74534800002
  0
LINE
  5
464
100
AcDbEntity
  8
_1-0_
  6
CONTINUOUS
 62
     0
100
AcDbLine
 10
824.7425627086
 20
694.5240118767
 11
826.4311787086
 21
692.0443798767
  0
LINE
  5
465
100
AcDbEntity
  8
_1-0_
  6
CONTINUOUS
 62
     0
100
AcDbLine
 10
825.4037987086
 20
694.9743118767
 11
827.0924147086
 21
692.4946798767
  0
LINE
  5
466
100
AcDbEntity
  8
_1-0_
  6
CONTINUOUS
 62
     0
100
AcDbLine
 10
824.7425627086
 20
694.5240118767
 11
825.4037987086
 21
694.9743118767
  0
LINE
  5
467
100
AcDbEntity
  8
_1-0_
  6
CONTINUOUS
 62
     0
100
AcDbLine
 10
828.5913857086
 20
692.3173858768
 11
842.0389547086
 21
704.5342948767
  0
LINE
  5
468
100
AcDbEntity
  8
_1-0_
  6
CONTINUOUS
 62
     0
100
AcDbLine
 10
842.0389547086
 20
704.5342948767
 11
865.0074347086
 21
703.3305688768
  0
LINE
  5
469
100
AcDbEntity
  8
_1-0_
  6
CONTINUOUS
 62
     0
100
AcDbLine
 10
853.8296927086
 20
709.7807818767
 11
851.6834250617
 21
671.1138849411
  0
LINE
  5
46A
100
AcDbEntity
  8
_1-0_
  6
CONTINUOUS
 62
     0
100
AcDbLine
 10
850.5273047086
 20
704.0894398768
 11
848.8256869985
 21
674.6381334755
  0
LINE
  5
46B
100
AcDbEntity
  8
_1-0_
  6
CONTINUOUS
 62
     0
100
AcDbLine
 10
856.0197677086
 20
703.8015928767
 11
854.2893089893
 21
673.8511112534
  0
LINE
  5
46C
100
AcDbEntity
  8
_1-0_
  6
CONTINUOUS
 62
     0
100
AcDbLine
 10
856.5190847086
 20
703.7754238767
 11
854.8174630733
 21
674.3241180663
  0
LINE
  5
46D
100
AcDbEntity
  8
_a-0_
  6
CONTINUOUS
 62
     0
100
AcDbLine
 10
848.8256869985
 20
674.6381334755
 11
854.8174630733
 21
674.3241180663
  0
LINE
  5
46E
100
AcDbEntity
  8
_1-0_
  6
CONTINUOUS
 62
     0
100
AcDbLine
 10
851.0266217086
 20
704.0632708768
 11
849.2961588277
 21
674.112790941
  0
LINE
  5
46F
100
AcDbEntity
  8
_a-0_
  6
CONTINUOUS
 62
     0
100
AcDbLine
 10
849.1116658666
 20
674.3188011499
 11
848.8256869985
 21
674.6381334755
  0
LINE
  5
470
100
AcDbEntity
  8
_a-0_
  6
CONTINUOUS
 62
     0
100
AcDbLine
 10
849.2961588277
 20
674.112790941
 11
849.1116658666
 21
674.3188011499
  0
LINE
  5
471
100
AcDbEntity
  8
_a-0_
  6
CONTINUOUS
 62
     0
100
AcDbLine
 10
849.2961588277
 20
674.112790941
 11
854.2893089893
 21
673.8511112534
  0
LINE
  5
472
100
AcDbEntity
  8
_a-0_
  6
CONTINUOUS
 62
     0
100
AcDbLine
 10
854.496421361
 20
674.0365979624
 11
854.2893089893
 21
673.8511112534
  0
LINE
  5
473
100
AcDbEntity
  8
_a-0_
  6
CONTINUOUS
 62
     0
100
AcDbLine
 10
854.8174630733
 20
674.3241180663
 11
854.496421361
 21
674.0365979624
  0
LINE
  5
474
100
AcDbEntity
  8
_1-0_
  6
CONTINUOUS
 62
     0
100
AcDbLine
 10
876.5074337086
 20
689.2422748768
 11
864.6325667086
 21
702.5491168767
  0
LINE
  5
475
100
AcDbEntity
  8
_1-0_
  6
CONTINUOUS
 62
     0
100
AcDbLine
 10
877.1043227086
 20
689.7749308767
 11
865.0074347086
 21
703.3305688768
  0
LINE
  5
476
100
AcDbEntity
  8
_1-0_
  6
CONTINUOUS
 62
     0
100
AcDbLine
 10
880.5521717086
 20
692.0841058767
 11
878.6136137086
 21
689.7945658767
  0
ARC
  5
477
100
AcDbEntity
  8
_1-0_
  6
CONTINUOUS
 62
     0
100
AcDbCircle
 10
877.8504347086
 20
690.4407538768
 40
0.999999
100
AcDbArc
 50
-138.254652
 51
-40.254658
  0
ARC
  5
478
100
AcDbEntity
  8
_1-0_
  6
CONTINUOUS
 62
     0
100
AcDbCircle
 10
877.8504347086
 20
690.4407538768
 40
1.8
100
AcDbArc
 50
-138.254651
 51
-40.254658
  0
LINE
  5
479
100
AcDbEntity
  8
_1-0_
  6
CONTINUOUS
 62
     0
100
AcDbLine
 10
881.1627167086
 20
691.5671578768
 11
879.2241587086
 21
689.2776178767
  0
LINE
  5
47A
100
AcDbEntity
  8
_1-0_
  6
CONTINUOUS
 62
     0
100
AcDbLine
 10
881.1627167086
 20
691.5671578768
 11
880.5521717086
 21
692.0841058767
  0
TEXT
  5
47B
100
AcDbEntity
  8
_2-0_
  6
CONTINUOUS
 62
     0
100
AcDbText
 10
116.8671737961
 20
823.6226916166
 40
12
  1
◇アルミ３００タイプ（３００ＦＹＹＧ－Ａ）
  7
STANDARD
100
AcDbText
  0
TEXT
  5
47C
100
AcDbEntity
  8
_2-0_
  6
CONTINUOUS
 62
     0
100
AcDbText
 10
986.3964656255
 20
294.377845354
 40
7.5
  1
130
  7
STANDARD
100
AcDbText
  0
TEXT
  5
47D
100
AcDbEntity
  8
_2-0_
  6
CONTINUOUS
 62
     0
100
AcDbText
 10
941.3964656255
 20
294.377845354
 40
7.5
  1
900
  7
STANDARD
100
AcDbText
  0
LINE
  5
47E
100
AcDbEntity
  8
_2-0_
  6
CONTINUOUS
 62
     0
100
AcDbLine
 10
814.8339656255
 20
326.502845354
 11
814.8339656255
 21
290.502845354
  0
LINE
  5
47F
100
AcDbEntity
  8
_2-0_
  6
CONTINUOUS
 62
     0
100
AcDbLine
 10
927.3339656255
 20
326.502845354
 11
927.3339656255
 21
290.502845354
  0
LINE
  5
480
100
AcDbEntity
  8
_2-0_
  6
CONTINUOUS
 62
     0
100
AcDbLine
 10
972.3339656255
 20
326.502845354
 11
972.3339656255
 21
290.502845354
  0
LINE
  5
481
100
AcDbEntity
  8
_2-0_
  6
CONTINUOUS
 62
     0
100
AcDbLine
 10
1017.333965626
 20
326.502845354
 11
1017.333965626
 21
290.502845354
  0
TEXT
  5
482
100
AcDbEntity
  8
_2-0_
  6
CONTINUOUS
 62
     0
100
AcDbText
 10
825.2720516061
 20
294.5611566404
 40
7.5
  1
３００ＦＹＹＧ－Ａ９００
  7
STANDARD
100
AcDbText
  0
TEXT
  5
483
100
AcDbEntity
  8
_2-0_
  6
CONTINUOUS
 62
     0
100
AcDbText
 10
441.7616357512
 20
294.189902859
 40
7.5
  1
３００ＦＹＹＧ－Ａ９００
  7
STANDARD
100
AcDbText
  0
TEXT
  5
484
100
AcDbEntity
  8
_2-0_
  6
CONTINUOUS
 62
     0
100
AcDbText
 10
290.8339656255
 20
96.37784535395
 40
7.5
  1
ステンワッシャー
  7
STANDARD
100
AcDbText
  0
TEXT
  5
485
100
AcDbEntity
  8
_2-0_
  6
CONTINUOUS
 62
     0
100
AcDbText
 10
290.2089656255
 20
114.377845354
 40
7.5
  1
アジャストアンカー
  7
STANDARD
100
AcDbText
  0
TEXT
  5
486
100
AcDbEntity
  8
_2-0_
  6
CONTINUOUS
 62
     0
100
AcDbText
 10
290.8339656255
 20
132.377845354
 40
7.49
  1
ステン六角ボルト
 41
1.001335113485
  7
STANDARD
100
AcDbText
  0
TEXT
  5
487
100
AcDbEntity
  8
_2-0_
  6
CONTINUOUS
 62
     0
100
AcDbText
 10
292.7089656255
 20
168.377845354
 40
7.5
  1
止水補助板
  7
STANDARD
100
AcDbText
  0
TEXT
  5
488
100
AcDbEntity
  8
_2-0_
  6
CONTINUOUS
 62
     0
100
AcDbText
 10
289.5839656255
 20
204.377845354
 40
7.5
  1
ＦＹＹ水切ジョイント
 41
0.9986666666667
  7
STANDARD
100
AcDbText
  0
TEXT
  5
489
100
AcDbEntity
  8
_2-0_
  6
CONTINUOUS
 62
     0
100
AcDbText
 10
289.5839656255
 20
222.377845354
 40
7.5
  1
ＦＹＹフレームナット
 41
0.9986666666667
  7
STANDARD
100
AcDbText
  0
TEXT
  5
48A
100
AcDbEntity
  8
_2-0_
  6
CONTINUOUS
 62
     0
100
AcDbText
 10
291.4589656255
 20
258.377845354
 40
7.5
  1
ＦＹＹホルダー
 41
0.9986666666667
  7
STANDARD
100
AcDbText
  0
TEXT
  5
48B
100
AcDbEntity
  8
_2-0_
  6
CONTINUOUS
 62
     0
100
AcDbText
 10
288.3339656255
 20
240.377845354
 40
7.5
  1
ＦＹＹホルダースプリング
  7
STANDARD
100
AcDbText
  0
TEXT
  5
48C
100
AcDbEntity
  8
_2-0_
  6
CONTINUOUS
 62
     0
100
AcDbText
 10
667.2089656255
 20
96.37784535395
 40
7.5
  1
枚
 41
0.9986666666667
  7
STANDARD
100
AcDbText
  0
TEXT
  5
48D
100
AcDbEntity
  8
_2-0_
  6
CONTINUOUS
 62
     0
100
AcDbText
 10
667.2089656255
 20
114.377845354
 40
7.5
  1
〃
 41
0.9986666666667
  7
STANDARD
100
AcDbText
  0
TEXT
  5
48E
100
AcDbEntity
  8
_2-0_
  6
CONTINUOUS
 62
     0
100
AcDbText
 10
667.2089656255
 20
132.377845354
 40
7.49
  1
〃
  7
STANDARD
100
AcDbText
  0
TEXT
  5
48F
100
AcDbEntity
  8
_2-0_
  6
CONTINUOUS
 62
     0
100
AcDbText
 10
667.2089656255
 20
150.377845354
 40
7.49
  1
本
  7
STANDARD
100
AcDbText
  0
TEXT
  5
490
100
AcDbEntity
  8
_2-0_
  6
CONTINUOUS
 62
     0
100
AcDbText
 10
667.2089656255
 20
168.377845354
 40
7.5
  1
〃
 41
0.9986666666667
  7
STANDARD
100
AcDbText
  0
TEXT
  5
491
100
AcDbEntity
  8
_2-0_
  6
CONTINUOUS
 62
     0
100
AcDbText
 10
667.2089656255
 20
186.377845354
 40
7.5
  1
枚
 41
0.9986666666667
  7
STANDARD
100
AcDbText
  0
TEXT
  5
492
100
AcDbEntity
  8
_2-0_
  6
CONTINUOUS
 62
     0
100
AcDbText
 10
667.2089656255
 20
204.377845354
 40
7.5
  1
〃
 41
0.9986666666667
  7
STANDARD
100
AcDbText
  0
TEXT
  5
493
100
AcDbEntity
  8
_2-0_
  6
CONTINUOUS
 62
     0
100
AcDbText
 10
667.2089656255
 20
222.377845354
 40
7.5
  1
〃
 41
0.9986666666667
  7
STANDARD
100
AcDbText
  0
TEXT
  5
494
100
AcDbEntity
  8
_2-0_
  6
CONTINUOUS
 62
     0
100
AcDbText
 10
667.2089656255
 20
240.377845354
 40
7.5
  1
〃
 41
0.9986666666667
  7
STANDARD
100
AcDbText
  0
TEXT
  5
495
100
AcDbEntity
  8
_2-0_
  6
CONTINUOUS
 62
     0
100
AcDbText
 10
667.2089656255
 20
258.377845354
 40
7.5
  1
個
 41
0.9986666666667
  7
STANDARD
100
AcDbText
  0
TEXT
  5
496
100
AcDbEntity
  8
_2-0_
  6
CONTINUOUS
 62
     0
100
AcDbText
 10
769.2089656255
 20
96.37784535395
 40
7.5
  1
枚
  7
STANDARD
100
AcDbText
  0
TEXT
  5
497
100
AcDbEntity
  8
_2-0_
  6
CONTINUOUS
 62
     0
100
AcDbText
 10
769.2089656255
 20
114.377845354
 40
7.5
  1
〃
  7
STANDARD
100
AcDbText
  0
TEXT
  5
498
100
AcDbEntity
  8
_2-0_
  6
CONTINUOUS
 62
     0
100
AcDbText
 10
769.2089656255
 20
132.377845354
 40
7.49
  1
〃
 41
1.001335113485
  7
STANDARD
100
AcDbText
  0
TEXT
  5
499
100
AcDbEntity
  8
_2-0_
  6
CONTINUOUS
 62
     0
100
AcDbText
 10
769.2089656255
 20
150.377845354
 40
7.49
  1
本
 41
1.001335113485
  7
STANDARD
100
AcDbText
  0
TEXT
  5
49A
100
AcDbEntity
  8
_2-0_
  6
CONTINUOUS
 62
     0
100
AcDbText
 10
769.2089656255
 20
168.377845354
 40
7.5
  1
〃
  7
STANDARD
100
AcDbText
  0
TEXT
  5
49B
100
AcDbEntity
  8
_2-0_
  6
CONTINUOUS
 62
     0
100
AcDbText
 10
769.2089656255
 20
186.377845354
 40
7.5
  1
枚
  7
STANDARD
100
AcDbText
  0
TEXT
  5
49C
100
AcDbEntity
  8
_2-0_
  6
CONTINUOUS
 62
     0
100
AcDbText
 10
769.2089656255
 20
204.377845354
 40
7.5
  1
〃
  7
STANDARD
100
AcDbText
  0
TEXT
  5
49D
100
AcDbEntity
  8
_2-0_
  6
CONTINUOUS
 62
     0
100
AcDbText
 10
769.2089656255
 20
222.377845354
 40
7.5
  1
〃
  7
STANDARD
100
AcDbText
  0
TEXT
  5
49E
100
AcDbEntity
  8
_2-0_
  6
CONTINUOUS
 62
     0
100
AcDbText
 10
769.2089656255
 20
240.377845354
 40
7.5
  1
〃
  7
STANDARD
100
AcDbText
  0
TEXT
  5
49F
100
AcDbEntity
  8
_2-0_
  6
CONTINUOUS
 62
     0
100
AcDbText
 10
769.2089656255
 20
258.377845354
 40
7.5
  1
個
  7
STANDARD
100
AcDbText
  0
TEXT
  5
4A0
100
AcDbEntity
  8
_2-0_
  6
CONTINUOUS
 62
     0
100
AcDbText
 10
597.2089656255
 20
168.377845354
 40
7.5
  1
3100
  7
STANDARD
100
AcDbText
  0
TEXT
  5
4A1
100
AcDbEntity
  8
_2-0_
  6
CONTINUOUS
 62
     0
100
AcDbText
 10
699.2089656255
 20
168.377845354
 40
7.5
  1
2100
  7
STANDARD
100
AcDbText
  0
TEXT
  5
4A2
100
AcDbEntity
  8
_2-0_
  6
CONTINUOUS
 62
     0
100
AcDbText
 10
699.2089656255
 20
186.377845354
 40
7.5
  1
2060
  7
STANDARD
100
AcDbText
  0
TEXT
  5
4A3
100
AcDbEntity
  8
_2-0_
  6
CONTINUOUS
 62
     0
100
AcDbText
 10
642.8339656255
 20
258.377845354
 40
7.5
  1
 6
 41
0.9986666666667
  7
STANDARD
100
AcDbText
  0
TEXT
  5
4A4
100
AcDbEntity
  8
_2-0_
  6
CONTINUOUS
 62
     0
100
AcDbText
 10
642.8339656255
 20
240.377845354
 40
7.5
  1
12
 41
0.9986666666667
  7
STANDARD
100
AcDbText
  0
TEXT
  5
4A5
100
AcDbEntity
  8
_2-0_
  6
CONTINUOUS
 62
     0
100
AcDbText
 10
642.8339656255
 20
222.377845354
 40
7.5
  1
12
 41
0.9986666666667
  7
STANDARD
100
AcDbText
  0
TEXT
  5
4A6
100
AcDbEntity
  8
_2-0_
  6
CONTINUOUS
 62
     0
100
AcDbText
 10
642.8339656255
 20
204.377845354
 40
7.5
  1
 1
 41
0.9986666666667
  7
STANDARD
100
AcDbText
  0
TEXT
  5
4A7
100
AcDbEntity
  8
_2-0_
  6
CONTINUOUS
 62
     0
100
AcDbText
 10
642.8339656255
 20
186.377845354
 40
7.5
  1
 2
 41
0.9986666666667
  7
STANDARD
100
AcDbText
  0
TEXT
  5
4A8
100
AcDbEntity
  8
_2-0_
  6
CONTINUOUS
 62
     0
100
AcDbText
 10
642.8339656255
 20
150.377845354
 40
7.49
  1
12
  7
STANDARD
100
AcDbText
  0
TEXT
  5
4A9
100
AcDbEntity
  8
_2-0_
  6
CONTINUOUS
 62
     0
100
AcDbText
 10
642.8339656255
 20
132.377845354
 40
7.49
  1
12
  7
STANDARD
100
AcDbText
  0
TEXT
  5
4AA
100
AcDbEntity
  8
_2-0_
  6
CONTINUOUS
 62
     0
100
AcDbText
 10
642.8339656255
 20
114.377845354
 40
7.5
  1
12
 41
0.9986666666667
  7
STANDARD
100
AcDbText
  0
TEXT
  5
4AB
100
AcDbEntity
  8
_2-0_
  6
CONTINUOUS
 62
     0
100
AcDbText
 10
642.8339656255
 20
96.37784535395
 40
7.5
  1
12
 41
0.9986666666667
  7
STANDARD
100
AcDbText
  0
TEXT
  5
4AC
100
AcDbEntity
  8
_2-0_
  6
CONTINUOUS
 62
     0
100
AcDbText
 10
744.8339656255
 20
96.37784535395
 40
7.5
  1
10
 41
0.9986666666667
  7
STANDARD
100
AcDbText
  0
TEXT
  5
4AD
100
AcDbEntity
  8
_2-0_
  6
CONTINUOUS
 62
     0
100
AcDbText
 10
744.8339656255
 20
114.377845354
 40
7.5
  1
10
 41
0.9986666666667
  7
STANDARD
100
AcDbText
  0
TEXT
  5
4AE
100
AcDbEntity
  8
_2-0_
  6
CONTINUOUS
 62
     0
100
AcDbText
 10
744.8339656255
 20
132.377845354
 40
7.49
  1
10
  7
STANDARD
100
AcDbText
  0
TEXT
  5
4AF
100
AcDbEntity
  8
_2-0_
  6
CONTINUOUS
 62
     0
100
AcDbText
 10
744.8339656255
 20
150.377845354
 40
7.49
  1
 8
  7
STANDARD
100
AcDbText
  0
TEXT
  5
4B0
100
AcDbEntity
  8
_2-0_
  6
CONTINUOUS
 62
     0
100
AcDbText
 10
744.8339656255
 20
168.377845354
 40
7.5
  1
 1
 41
0.9986666666667
  7
STANDARD
100
AcDbText
  0
TEXT
  5
4B1
100
AcDbEntity
  8
_2-0_
  6
CONTINUOUS
 62
     0
100
AcDbText
 10
744.8339656255
 20
186.377845354
 40
7.5
  1
 2
 41
0.9986666666667
  7
STANDARD
100
AcDbText
  0
TEXT
  5
4B2
100
AcDbEntity
  8
_2-0_
  6
CONTINUOUS
 62
     0
100
AcDbText
 10
744.8339656255
 20
204.377845354
 40
7.5
  1
 1
 41
0.9986666666667
  7
STANDARD
100
AcDbText
  0
TEXT
  5
4B3
100
AcDbEntity
  8
_2-0_
  6
CONTINUOUS
 62
     0
100
AcDbText
 10
744.8339656255
 20
222.377845354
 40
7.5
  1
 8
 41
0.9986666666667
  7
STANDARD
100
AcDbText
  0
TEXT
  5
4B4
100
AcDbEntity
  8
_2-0_
  6
CONTINUOUS
 62
     0
100
AcDbText
 10
744.8339656255
 20
240.377845354
 40
7.5
  1
 8
 41
0.9986666666667
  7
STANDARD
100
AcDbText
  0
TEXT
  5
4B5
100
AcDbEntity
  8
_2-0_
  6
CONTINUOUS
 62
     0
100
AcDbText
 10
744.8339656255
 20
258.377845354
 40
7.5
  1
 4
 41
0.9986666666667
  7
STANDARD
100
AcDbText
  0
TEXT
  5
4B6
100
AcDbEntity
  8
_2-0_
  6
CONTINUOUS
 62
     0
100
AcDbText
 10
642.8339656255
 20
168.377845354
 40
7.5
  1
 1
 41
0.9986666666667
  7
STANDARD
100
AcDbText
  0
TEXT
  5
4B7
100
AcDbEntity
  8
_2-0_
  6
CONTINUOUS
 62
     0
100
AcDbText
 10
290.605361227
 20
186.712609669
 40
7.5
  1
ウフォーターガード
 41
0.9986666666667
  7
STANDARD
100
AcDbText
  0
TEXT
  5
4B8
100
AcDbEntity
  8
_2-0_
  6
CONTINUOUS
 62
     0
100
AcDbText
 10
596.7305112384
 20
187.3054380975
 40
7.49
  1
3060
 41
1.001335113485
  7
STANDARD
100
AcDbText
  0
TEXT
  5
4B9
100
AcDbEntity
  8
_0-0_
  6
CONTINUOUS
 62
     0
100
AcDbText
 10
441.6546060355
 20
187.1723686449
 40
7.5
  1
ＳＰＶＣ
  7
STANDARD
100
AcDbText
  0
TEXT
  5
4BA
100
AcDbEntity
  8
_2-0_
  6
CONTINUOUS
 62
     0
100
AcDbText
 10
292.0839656255
 20
150.377845354
 40
7.49
  1
ステン小ねじ
 41
1.001335113485
  7
STANDARD
100
AcDbText
  0
TEXT
  5
4BB
100
AcDbEntity
  8
_2-0_
  6
CONTINUOUS
 62
     0
100
AcDbText
 10
443.092749526
 20
204.2501455552
 40
7.5
  1
３００ＦＹＹＪ－９００
 41
0.9986666666667
  7
STANDARD
100
AcDbText
  0
TEXT
  5
4BC
100
AcDbEntity
  8
_2-0_
  6
CONTINUOUS
 62
     0
100
AcDbText
 10
442.3964656255
 20
150.377845354
 40
7.49
  1
なべＭ６×３５
 41
1.001335113485
  7
STANDARD
100
AcDbText
  0
TEXT
  5
4BD
100
AcDbEntity
  8
_2-0_
  6
CONTINUOUS
 62
     0
100
AcDbText
 10
443.6464656255
 20
132.377845354
 40
7.49
  1
Ｍ６×４０
 41
1.001335113485
  7
STANDARD
100
AcDbText
  0
TEXT
  5
4BE
100
AcDbEntity
  8
_2-0_
  6
CONTINUOUS
 62
     0
100
AcDbText
 10
443.0214656255
 20
114.377845354
 40
7.5
  1
ＡＧ－６６０
  7
STANDARD
100
AcDbText
  0
TEXT
  5
4BF
100
AcDbEntity
  8
_2-0_
  6
CONTINUOUS
 62
     0
100
AcDbText
 10
441.4589656255
 20
96.37784535395
 40
7.5
  1
１.５×１８×６.５穴
  7
STANDARD
100
AcDbText
  0
TEXT
  5
4C0
100
AcDbEntity
  8
_2-0_
  6
CONTINUOUS
 62
     0
100
AcDbText
 10
441.7616357512
 20
258.2970329765
 40
7.5
  1
３００ＦＹＹＨ－９００
  7
STANDARD
100
AcDbText
  0
TEXT
  5
4C1
100
AcDbEntity
  8
_2-0_
  6
CONTINUOUS
 62
     0
100
AcDbText
 10
442.0839656255
 20
168.377845354
 40
7.5
  1
ＦＳ１０００
  7
STANDARD
100
AcDbText
  0
TEXT
  5
4C2
100
AcDbEntity
  8
_2-0_
  6
CONTINUOUS
 62
     0
100
AcDbText
 10
292.0839656255
 20
78.37784535395
 40
7.5
  1
ブチルテープ
  7
STANDARD
100
AcDbText
  0
TEXT
  5
4C3
100
AcDbEntity
  8
_2-0_
  6
CONTINUOUS
 62
     0
100
AcDbText
 10
667.2089656255
 20
78.37784535395
 40
7.5
  1
巻
 41
0.9986666666667
  7
STANDARD
100
AcDbText
  0
TEXT
  5
4C4
100
AcDbEntity
  8
_2-0_
  6
CONTINUOUS
 62
     0
100
AcDbText
 10
769.2089656255
 20
78.37784535395
 40
7.5
  1
巻
  7
STANDARD
100
AcDbText
  0
TEXT
  5
4C5
100
AcDbEntity
  8
_2-0_
  6
CONTINUOUS
 62
     0
100
AcDbText
 10
597.2089656255
 20
78.37784535395
 40
7.5
  1
6000
  7
STANDARD
100
AcDbText
  0
TEXT
  5
4C6
100
AcDbEntity
  8
_2-0_
  6
CONTINUOUS
 62
     0
100
AcDbText
 10
699.2089656255
 20
78.37784535395
 40
7.5
  1
6000
  7
STANDARD
100
AcDbText
  0
TEXT
  5
4C7
100
AcDbEntity
  8
_2-0_
  6
CONTINUOUS
 62
     0
100
AcDbText
 10
642.8339656255
 20
78.37784535395
 40
7.5
  1
 1
 41
0.9986666666667
  7
STANDARD
100
AcDbText
  0
TEXT
  5
4C8
100
AcDbEntity
  8
_2-0_
  6
CONTINUOUS
 62
     0
100
AcDbText
 10
744.8339656255
 20
78.37784535395
 40
7.5
  1
 1
 41
0.9986666666667
  7
STANDARD
100
AcDbText
  0
TEXT
  5
4C9
100
AcDbEntity
  8
_2-0_
  6
CONTINUOUS
 62
     0
100
AcDbText
 10
442.3964656255
 20
78.37784535395
 40
7.5
  1
ｔ１．０×ｗ３０
  7
STANDARD
100
AcDbText
  0
TEXT
  5
4CA
100
AcDbEntity
  8
_0-1_PRO0
  6
CONTINUOUS
 62
     0
100
AcDbText
 10
900.118732978
 20
714.1850509349
 40
9
  1
2
  7
STANDARD
100
AcDbText
  0
TEXT
  5
4CB
100
AcDbEntity
  8
_0-1_PRO0
  6
CONTINUOUS
 62
     0
100
AcDbText
 10
633.8062962636
 20
746.0351332494
 40
9
  1
1
  7
STANDARD
100
AcDbText
  0
TEXT
  5
4CC
100
AcDbEntity
  8
_0-1_PRO0
  6
CONTINUOUS
 62
     0
100
AcDbText
 10
1039.222108264
 20
716.9767469349
 40
9
  1
3
  7
STANDARD
100
AcDbText
  0
TEXT
  5
4CD
100
AcDbEntity
  8
_0-1_PRO0
  6
CONTINUOUS
 62
     0
100
AcDbText
 10
896.0214721238
 20
735.7062642153
 40
9
  1
4
  7
STANDARD
100
AcDbText
  0
TEXT
  5
4CE
100
AcDbEntity
  8
_0-1_PRO0
  6
CONTINUOUS
 62
     0
100
AcDbText
 10
817.7398407248
 20
721.2086794286
 40
9
  1
5
  7
STANDARD
100
AcDbText
  0
TEXT
  5
4CF
100
AcDbEntity
  8
_0-1_PRO0
  6
CONTINUOUS
 62
     0
100
AcDbText
 10
349.1490475348
 20
735.9428316764
 40
9
  1
7
  7
STANDARD
100
AcDbText
  0
TEXT
  5
4D0
100
AcDbEntity
  8
_0-1_PRO0
  6
CONTINUOUS
 62
     0
100
AcDbText
 10
658.6633092366
 20
502.505257616
 40
9
  1
8
  7
STANDARD
100
AcDbText
  0
TEXT
  5
4D1
100
AcDbEntity
  8
_0-1_PRO0
  6
CONTINUOUS
 62
     0
100
AcDbText
 10
1079.017940562
 20
727.7169446164
 40
9
  1
8
  7
STANDARD
100
AcDbText
  0
TEXT
  5
4D2
100
AcDbEntity
  8
_0-1_PRO0
  6
CONTINUOUS
 62
     0
100
AcDbText
 10
879.3524993896
 20
728.8942391555
 40
9
  1
9
  7
STANDARD
100
AcDbText
  0
TEXT
  5
4D3
100
AcDbEntity
  8
_0-1_PRO0
  6
CONTINUOUS
 62
     0
100
AcDbText
 10
866.628517978
 20
634.732837935
 40
9
  1
10
  7
STANDARD
100
AcDbText
  0
TEXT
  5
4D4
100
AcDbEntity
  8
_0-1_PRO0
  6
CONTINUOUS
 62
     0
100
AcDbText
 10
830.6509462636
 20
603.040976935
 40
9
  1
11
  7
STANDARD
100
AcDbText
  0
TEXT
  5
4D5
100
AcDbEntity
  8
_0-1_PRO0
  6
CONTINUOUS
 62
     0
100
AcDbText
 10
827.188435978
 20
630.477520935
 40
9
  1
12
  7
STANDARD
100
AcDbText
  0
TEXT
  5
4D6
100
AcDbEntity
  8
_2-0_
  6
CONTINUOUS
 62
     0
100
AcDbText
 10
272.3339656255
 20
78.37784535395
 40
7.5
  1
※
 41
0.9986666666667
  7
STANDARD
100
AcDbText
  0
ENDSEC
  0
SECTION
  2
OBJECTS
  0
DICTIONARY
  5
4D7
100
AcDbDictionary
  3
ACAD_GROUP
350
4D8
  3
ACAD_IMAGE_DICT
350
4D9
  3
ACAD_MLINESTYLE
350
4DA
  0
DICTIONARY
  5
4D8
330
4D7
100
AcDbDictionary
  0
DICTIONARY
  5
4D9
100
AcDbDictionary
  0
DICTIONARY
  5
4DA
100
AcDbDictionary
  3
STANDARD
350
4DB
  0
RASTERVARIABLES
  5
4DC
100
AcDbRasterVariables
 90
     0
 70
     1
 71
     1
 72
     0
  0
MLINESTYLE
  5
4DB
100
AcDbMlineStyle
  2
STANDARD
 70
     0
  3

 62
   256
 51
90
 52
90
 71
     0
  0
ENDSEC
  0
EOF
