  0
SECTION
  2
HEADER
  9
$ACADVER
  1
AC1015
  9
$DWGCODEPAGE
  3
ANSI_932
  9
$EXTMIN
 10
15
 20
16
  9
$EXTMAX
 10
1245
 20
866
  9
$LIMMIN
 10
0
 20
0
  9
$LIMMAX
 10
1260
 20
882
  9
$LTSCALE
 40
3
  9
$DIMSCALE
 40
3
  9
$DIMSTYLE
  2
M7DIMSTL
  9
$HANDSEED
  5
7FFFFFFF
  9
$MEASUREMENT
 70
     1
  0
ENDSEC
  0
SECTION
  2
CLASSES
  0
CLASS
  1
CSOFTARXCLASS
  2
CSoftArxClass
  3
CSRasterApi
 90
     0
280
     0
281
     0
  0
CLASS
  1
IMAGEDEF
  2
AcDbRasterImageDef
  3
ISM
 90
     0
280
     0
281
     0
  0
CLASS
  1
RASTERVARIABLES
  2
AcDbRasterVariables
  3
ISM
 90
     0
280
     0
281
     0
  0
CLASS
  1
IMAGE
  2
AcDbRasterImage
  3
ISM
 90
   127
280
     0
281
     0
  0
CLASS
  1
IMAGEDEF_REACTOR
  2
AcDbRasterImageDefReactor
  3
ISM
 90
     1
280
     0
281
     0
  0
CLASS
  1
HATCH
  2
AcDbHatch
  3
M7
 90
     0
280
     0
281
     1
  0
ENDSEC
  0
SECTION
  2
TABLES
  0
TABLE
  2
VPORT
  5
FF
100
AcDbSymbolTable
 70
     5
  0
VPORT
  5
100
100
AcDbSymbolTableRecord
100
AcDbViewportTableRecord
  2
*ACTIVE
 70
     0
 10
0
 20
0
 11
1
 21
1
 12
630
 22
441
 13
0
 23
0
 14
0
 24
0
 15
0
 25
0
 16
0
 26
0
 36
1
 17
0
 27
0
 37
0
 40
441
 41
1.428571428571
 42
50
 43
0
 44
0
 50
0
 51
0
 71
     0
 72
   100
 73
     1
 74
     3
 75
     0
 76
     0
 77
     0
 78
     0
  0
ENDTAB
  0
TABLE
  2
LTYPE
  5
101
100
AcDbSymbolTable
 70
     1
  0
LTYPE
  5
102
100
AcDbSymbolTableRecord
100
AcDbLinetypeTableRecord
  2
BYBLOCK
 70
     0
  3

 72
    65
 73
     0
 40
0
  0
LTYPE
  5
103
100
AcDbSymbolTableRecord
100
AcDbLinetypeTableRecord
  2
BYLAYER
 70
     0
  3

 72
    65
 73
     0
 40
0
  0
LTYPE
  5
104
100
AcDbSymbolTableRecord
100
AcDbLinetypeTableRecord
  2
CONTINUOUS
 70
     0
  3
Solid line
 72
    65
 73
     0
 40
0
  0
LTYPE
  5
105
100
AcDbSymbolTableRecord
100
AcDbLinetypeTableRecord
  2
DOT
 70
     0
  3
...............................
 72
    65
 73
     2
 40
2
 49
1
 74
     0
 49
-1
 74
     0
  0
LTYPE
  5
106
100
AcDbSymbolTableRecord
100
AcDbLinetypeTableRecord
  2
DASHED
 70
     0
  3
- - - - - - - - - - - - - - - -
 72
    65
 73
     2
 40
4
 49
2
 74
     0
 49
-2
 74
     0
  0
LTYPE
  5
107
100
AcDbSymbolTableRecord
100
AcDbLinetypeTableRecord
  2
DASHED2
 70
     0
  3
-- -- -- -- -- -- -- -- -- -- -
 72
    65
 73
     2
 40
8
 49
5
 74
     0
 49
-3
 74
     0
  0
LTYPE
  5
108
100
AcDbSymbolTableRecord
100
AcDbLinetypeTableRecord
  2
CENTER
 70
     0
  3
--------- - --------- - -------
 72
    65
 73
     4
 40
23
 49
20
 74
     0
 49
-1
 74
     0
 49
1
 74
     0
 49
-1
 74
     0
  0
LTYPE
  5
109
100
AcDbSymbolTableRecord
100
AcDbLinetypeTableRecord
  2
CENTERX2
 70
     0
  3
-------------- - --------------
 72
    65
 73
     4
 40
43
 49
40
 74
     0
 49
-1
 74
     0
 49
1
 74
     0
 49
-1
 74
     0
  0
LTYPE
  5
10A
100
AcDbSymbolTableRecord
100
AcDbLinetypeTableRecord
  2
CENTER2
 70
     0
  3
------ - ----- - ------ - -----
 72
    65
 73
     4
 40
13
 49
10
 74
     0
 49
-1
 74
     0
 49
1
 74
     0
 49
-1
 74
     0
  0
LTYPE
  5
10B
100
AcDbSymbolTableRecord
100
AcDbLinetypeTableRecord
  2
PHANTOM
 70
     0
  3
-------- - - ------- - - ------
 72
    65
 73
     6
 40
25
 49
20
 74
     0
 49
-1
 74
     0
 49
1
 74
     0
 49
-1
 74
     0
 49
1
 74
     0
 49
-1
 74
     0
  0
LTYPE
  5
10C
100
AcDbSymbolTableRecord
100
AcDbLinetypeTableRecord
  2
PHANTOMX2
 70
     0
  3
------------- - - -------------
 72
    65
 73
     6
 40
45
 49
40
 74
     0
 49
-1
 74
     0
 49
1
 74
     0
 49
-1
 74
     0
 49
1
 74
     0
 49
-1
 74
     0
  0
LTYPE
  5
10D
100
AcDbSymbolTableRecord
100
AcDbLinetypeTableRecord
  2
PHANTOM2
 70
     0
  3
---- - - ---- - - ---- - - ----
 72
    65
 73
     6
 40
15
 49
10
 74
     0
 49
-1
 74
     0
 49
1
 74
     0
 49
-1
 74
     0
 49
1
 74
     0
 49
-1
 74
     0
  0
LTYPE
  5
10E
100
AcDbSymbolTableRecord
100
AcDbLinetypeTableRecord
  2
ACAD_ISO06W100
 70
     0
  3
------------ - - - ------------
 72
    65
 73
     8
 40
47
 49
40
 74
     0
 49
-1
 74
     0
 49
1
 74
     0
 49
-1
 74
     0
 49
1
 74
     0
 49
-1
 74
     0
 49
1
 74
     0
 49
-1
 74
     0
  0
LTYPE
  5
10F
100
AcDbSymbolTableRecord
100
AcDbLinetypeTableRecord
  2
ACAD_ISO14W100
 70
     0
  3
---- - - - -------- - - - -----
 72
    65
 73
     8
 40
27
 49
20
 74
     0
 49
-1
 74
     0
 49
1
 74
     0
 49
-1
 74
     0
 49
1
 74
     0
 49
-1
 74
     0
 49
1
 74
     0
 49
-1
 74
     0
  0
LTYPE
  5
110
100
AcDbSymbolTableRecord
100
AcDbLinetypeTableRecord
  2
ACAD_ISO11W100
 70
     0
  3
------- ------ - ------- ------
 72
    65
 73
     6
 40
44
 49
20
 74
     0
 49
-1
 74
     0
 49
20
 74
     0
 49
-1
 74
     0
 49
1
 74
     0
 49
-1
 74
     0
  0
LTYPE
  5
111
100
AcDbSymbolTableRecord
100
AcDbLinetypeTableRecord
  2
ACAD_ISO13W100
 70
     0
  3
------ ------ - - ------ ------
 72
    65
 73
     8
 40
46
 49
20
 74
     0
 49
-1
 74
     0
 49
20
 74
     0
 49
-1
 74
     0
 49
1
 74
     0
 49
-1
 74
     0
 49
1
 74
     0
 49
-1
 74
     0
  0
LTYPE
  5
112
100
AcDbSymbolTableRecord
100
AcDbLinetypeTableRecord
  2
ACAD_ISO15W100
 70
     0
  3
------ ----- - - - ------ -----
 72
    65
 73
    10
 40
48
 49
20
 74
     0
 49
-1
 74
     0
 49
20
 74
     0
 49
-1
 74
     0
 49
1
 74
     0
 49
-1
 74
     0
 49
1
 74
     0
 49
-1
 74
     0
 49
1
 74
     0
 49
-1
 74
     0
  0
LTYPE
  5
113
100
AcDbSymbolTableRecord
100
AcDbLinetypeTableRecord
  2
HIDDEN
 70
     0
  3
. . . . . . . . . . . . . . . .
 72
    65
 73
     2
 40
1.5
 49
1
 74
     0
 49
-0.5
 74
     0
  0
ENDTAB
  0
TABLE
  2
LAYER
  5
114
100
AcDbSymbolTable
 70
     1
  0
LAYER
  5
115
100
AcDbSymbolTableRecord
100
AcDbLayerTableRecord
  2
0
 70
     0
 62
     7
  6
CONTINUOUS
390
116
  0
LAYER
  5
117
100
AcDbSymbolTableRecord
100
AcDbLayerTableRecord
  2
_0-0_
 70
     0
 62
     7
  6
CONTINUOUS
390
   278
  0
LAYER
  5
118
100
AcDbSymbolTableRecord
100
AcDbLayerTableRecord
  2
_0-1_PRO0
 70
     0
 62
     7
  6
CONTINUOUS
390
   278
  0
LAYER
  5
119
100
AcDbSymbolTableRecord
100
AcDbLayerTableRecord
  2
_0-3_
 70
     0
 62
     7
  6
CONTINUOUS
390
   278
  0
LAYER
  5
11A
100
AcDbSymbolTableRecord
100
AcDbLayerTableRecord
  2
_1-0_
 70
     0
 62
     7
  6
CONTINUOUS
390
   278
  0
LAYER
  5
11B
100
AcDbSymbolTableRecord
100
AcDbLayerTableRecord
  2
_2-0_
 70
     0
 62
     7
  6
CONTINUOUS
390
   278
  0
LAYER
  5
11C
100
AcDbSymbolTableRecord
100
AcDbLayerTableRecord
  2
_a-0_
 70
     0
 62
     7
  6
CONTINUOUS
390
   278
  0
LAYER
  5
11D
100
AcDbSymbolTableRecord
100
AcDbLayerTableRecord
  2
ADD_LINE
 70
     0
 62
     7
  6
CONTINUOUS
390
   278
  0
ENDTAB
  0
TABLE
  2
STYLE
  5
11E
100
AcDbSymbolTable
 70
     1
  0
STYLE
  5
11F
100
AcDbSymbolTableRecord
100
AcDbTextStyleTableRecord
  2
STANDARD
 70
     0
 40
0
 41
0
 50
0
 71
     0
 42
1
  3
txt
  4
bigfont
  0
STYLE
  5
120
100
AcDbSymbolTableRecord
100
AcDbTextStyleTableRecord
  2
VSTANDARD
 70
     4
 40
0
 41
0
 50
0
 71
     0
 42
1
  3
txt
  4
bigfont
  0
ENDTAB
  0
TABLE
  2
VIEW
  5
121
100
AcDbSymbolTable
 70
     0
  0
ENDTAB
  0
TABLE
  2
UCS
  5
122
100
AcDbSymbolTable
 70
     0
  0
ENDTAB
  0
TABLE
  2
APPID
  5
123
100
AcDbSymbolTable
 70
     1
  0
APPID
  5
124
100
AcDbSymbolTableRecord
100
AcDbRegAppTableRecord
  2
ACAD
 70
     0
  0
ENDTAB
  0
TABLE
  2
DIMSTYLE
  5
125
100
AcDbSymbolTable
 70
     1
100
AcDbDimStyleTable
 71
     0
  0
DIMSTYLE
105
126
100
AcDbSymbolTableRecord
100
AcDbDimStyleTableRecord
  2
M7DIMSTL
 70
     0
  3

  4

  5

  6

  7

 40
3
 41
2.5
 42
0.625
 43
3.75
 44
1.25
 45
0
 46
0
 47
0
 48
0
140
2.5
141
2.5
142
0
143
0.03937007874016
144
1
145
0
146
1
147
0.625
 71
     0
 72
     0
 73
     0
 74
     0
 75
     0
 76
     0
 77
     1
 78
     8
170
     0
171
     3
172
     1
173
     0
174
     0
175
     0
176
     0
177
     0
178
     0
270
     2
271
     2
272
     2
273
     2
274
     3
340
11F
275
     0
280
     0
281
     0
282
     0
283
     0
284
     8
285
     0
286
     0
287
     3
288
     0
  0
ENDTAB
  0
TABLE
  2
BLOCK_RECORD
  5
127
100
AcDbSymbolTable
 70
     2
  0
BLOCK_RECORD
  5
128
100
AcDbSymbolTableRecord
100
AcDbBlockTableRecord
  2
*MODEL_SPACE
  0
BLOCK_RECORD
  5
129
100
AcDbSymbolTableRecord
100
AcDbBlockTableRecord
  2
*PAPER_SPACE
  0
BLOCK_RECORD
  5
12A
100
AcDbSymbolTableRecord
100
AcDbBlockTableRecord
  2
_DOT
  0
BLOCK_RECORD
  5
12B
100
AcDbSymbolTableRecord
100
AcDbBlockTableRecord
  2
_OPEN30
  0
BLOCK_RECORD
  5
12C
100
AcDbSymbolTableRecord
100
AcDbBlockTableRecord
  2
_ClosedBlank
  0
BLOCK_RECORD
  5
12D
100
AcDbSymbolTableRecord
100
AcDbBlockTableRecord
  2
_Origin
  0
BLOCK_RECORD
  5
12E
100
AcDbSymbolTableRecord
100
AcDbBlockTableRecord
  2
_Oblique
  0
BLOCK_RECORD
  5
12F
100
AcDbSymbolTableRecord
100
AcDbBlockTableRecord
  2
_Origin2
  0
BLOCK_RECORD
  5
130
100
AcDbSymbolTableRecord
100
AcDbBlockTableRecord
  2
_BoxBlank
  0
BLOCK_RECORD
  5
131
100
AcDbSymbolTableRecord
100
AcDbBlockTableRecord
  2
_BoxFilled
  0
BLOCK_RECORD
  5
132
100
AcDbSymbolTableRecord
100
AcDbBlockTableRecord
  2
_Integral
  0
ENDTAB
  0
ENDSEC
  0
SECTION
  2
BLOCKS
  0
BLOCK
  5
133
100
AcDbEntity
  8
0
100
AcDbBlockBegin
  2
*MODEL_SPACE
 70
     0
 10
0
 20
0
  3
*MODEL_SPACE
  1

  0
ENDBLK
  5
134
100
AcDbEntity
  8
0
100
AcDbBlockEnd
  0
BLOCK
  5
135
100
AcDbEntity
 67
     1
  8
0
100
AcDbBlockBegin
  2
*PAPER_SPACE
 70
     0
 10
0
 20
0
  3
*PAPER_SPACE
  1

  0
ENDBLK
  5
136
100
AcDbEntity
 67
     1
  8
0
100
AcDbBlockEnd
  0
BLOCK
  5
137
100
AcDbEntity
 67
     1
  8
0
100
AcDbBlockBegin
  2
_DOT
 70
     0
 10
0
 20
0
  3
_DOT
  1

  0
LWPOLYLINE
  5
138
100
AcDbEntity
  8
0
  6
BYBLOCK
 62
     0
100
AcDbPolyline
 90
     2
 70
     1
 43
0.5
 10
-0.25
 20
0
 42
1
 10
0.25
 20
0
 42
1
  0
LINE
  5
139
100
AcDbEntity
  8
0
  6
BYBLOCK
 62
     0
100
AcDbLine
 10
-0.5
 20
0
 11
-1
 21
0
  0
ENDBLK
  5
13A
100
AcDbEntity
  8
0
100
AcDbBlockEnd
  0
BLOCK
  5
13B
100
AcDbEntity
 67
     1
  8
0
100
AcDbBlockBegin
  2
_OPEN30
 70
     0
 10
0
 20
0
  3
_OPEN30
  1

  0
LINE
  5
13C
100
AcDbEntity
  8
0
  6
BYBLOCK
 62
     0
100
AcDbLine
 10
-1
 20
0.26794919
 11
0
 21
0
  0
LINE
  5
13D
100
AcDbEntity
  8
0
  6
BYBLOCK
 62
     0
100
AcDbLine
 10
-1
 20
-0.26794919
 11
0
 21
0
  0
LINE
  5
13E
100
AcDbEntity
  8
0
  6
BYBLOCK
 62
     0
100
AcDbLine
 10
0
 20
0
 11
-1
 21
0
  0
ENDBLK
  5
13F
100
AcDbEntity
  8
0
100
AcDbBlockEnd
  0
BLOCK
  5
140
100
AcDbEntity
 67
     1
  8
0
100
AcDbBlockBegin
  2
_ClosedBlank
 70
     0
 10
0
 20
0
  3
_ClosedBlank
  1

  0
LINE
  5
141
100
AcDbEntity
  8
0
  6
BYBLOCK
 62
     0
100
AcDbLine
 10
-1
 20
0.1666666666667
 11
0
 21
0
  0
LINE
  5
142
100
AcDbEntity
  8
0
  6
BYBLOCK
 62
     0
100
AcDbLine
 10
0
 20
0
 11
-1
 21
-0.1666666666667
  0
LINE
  5
143
100
AcDbEntity
  8
0
  6
BYBLOCK
 62
     0
100
AcDbLine
 10
-1
 20
0.1666666666667
 11
-1
 21
-0.1666666666667
  0
ENDBLK
  5
144
100
AcDbEntity
  8
0
100
AcDbBlockEnd
  0
BLOCK
  5
145
100
AcDbEntity
 67
     1
  8
0
100
AcDbBlockBegin
  2
_Origin
 70
     0
 10
0
 20
0
  3
_Origin
  1

  0
CIRCLE
  5
146
100
AcDbEntity
  8
0
  6
BYBLOCK
 62
     0
100
AcDbCircle
 10
0
 20
0
 40
0.5
  0
LINE
  5
147
100
AcDbEntity
  8
0
  6
BYBLOCK
 62
     0
100
AcDbLine
 10
0
 20
0
 11
-1
 21
0
  0
ENDBLK
  5
148
100
AcDbEntity
  8
0
100
AcDbBlockEnd
  0
BLOCK
  5
149
100
AcDbEntity
 67
     1
  8
0
100
AcDbBlockBegin
  2
_Oblique
 70
     0
 10
0
 20
0
  3
_Oblique
  1

  0
LINE
  5
14A
100
AcDbEntity
  8
0
  6
BYBLOCK
 62
     0
100
AcDbLine
 10
-0.5
 20
-0.5
 11
0.5
 21
0.5
  0
ENDBLK
  5
14B
100
AcDbEntity
  8
0
100
AcDbBlockEnd
  0
BLOCK
  5
14C
100
AcDbEntity
 67
     1
  8
0
100
AcDbBlockBegin
  2
_Origin2
 70
     0
 10
0
 20
0
  3
_Origin2
  1

  0
CIRCLE
  5
14D
100
AcDbEntity
  8
0
  6
BYBLOCK
 62
     0
100
AcDbCircle
 10
0
 20
0
 40
0.5
  0
CIRCLE
  5
14E
100
AcDbEntity
  8
0
  6
BYBLOCK
 62
     0
100
AcDbCircle
 10
0
 20
0
 40
0.25
  0
LINE
  5
14F
100
AcDbEntity
  8
0
  6
BYBLOCK
 62
     0
100
AcDbLine
 10
-0.5
 20
0
 11
-1
 21
0
  0
ENDBLK
  5
150
100
AcDbEntity
  8
0
100
AcDbBlockEnd
  0
BLOCK
  5
151
100
AcDbEntity
 67
     1
  8
0
100
AcDbBlockBegin
  2
_BoxBlank
 70
     0
 10
0
 20
0
  3
_BoxBlank
  1

  0
LINE
  5
152
100
AcDbEntity
  8
0
  6
BYBLOCK
 62
     0
100
AcDbLine
 10
-0.5
 20
-0.5
 11
0.5
 21
-0.5
  0
LINE
  5
153
100
AcDbEntity
  8
0
  6
BYBLOCK
 62
     0
100
AcDbLine
 10
0.5
 20
-0.5
 11
0.5
 21
0.5
  0
LINE
  5
154
100
AcDbEntity
  8
0
  6
BYBLOCK
 62
     0
100
AcDbLine
 10
0.5
 20
0.5
 11
-0.5
 21
0.5
  0
LINE
  5
155
100
AcDbEntity
  8
0
  6
BYBLOCK
 62
     0
100
AcDbLine
 10
-0.5
 20
0.5
 11
-0.5
 21
-0.5
  0
LINE
  5
156
100
AcDbEntity
  8
0
  6
BYBLOCK
 62
     0
100
AcDbLine
 10
-0.5
 20
0
 11
-1
 21
0
  0
ENDBLK
  5
157
100
AcDbEntity
  8
0
100
AcDbBlockEnd
  0
BLOCK
  5
158
100
AcDbEntity
 67
     1
  8
0
100
AcDbBlockBegin
  2
_BoxFilled
 70
     0
 10
0
 20
0
  3
_BoxFilled
  1

  0
SOLID
  5
159
100
AcDbEntity
  8
0
  6
BYBLOCK
 62
     0
100
AcDbTrace
 10
-0.5
 20
0.5
 11
0.5
 21
0.5
 12
-0.5
 22
-0.5
 13
0.5
 23
-0.5
  0
LINE
  5
15A
100
AcDbEntity
  8
0
  6
BYBLOCK
 62
     0
100
AcDbLine
 10
-0.5
 20
0
 11
-1
 21
0
  0
ENDBLK
  5
15B
100
AcDbEntity
  8
0
100
AcDbBlockEnd
  0
BLOCK
  5
15C
100
AcDbEntity
 67
     1
  8
0
100
AcDbBlockBegin
  2
_Integral
 70
     0
 10
0
 20
0
  3
_Integral
  1

  0
ARC
  5
15D
100
AcDbEntity
  8
0
  6
BYBLOCK
 62
     0
100
AcDbCircle
 10
0.44488802
 20
-0.09133463
 40
0.45416667
100
AcDbArc
 50
101.999999998
 51
167.9999999799
  0
ARC
  5
15E
100
AcDbEntity
  8
0
  6
BYBLOCK
 62
     0
100
AcDbCircle
 10
-0.44488802
 20
0.09133463
 40
0.45416667
100
AcDbArc
 50
282.0000000215
 51
348.0000000034
  0
ENDBLK
  5
15F
100
AcDbEntity
  8
0
100
AcDbBlockEnd
  0
ENDSEC
  0
SECTION
  2
ENTITIES
  0
LINE
  5
160
100
AcDbEntity
  8
_0-1_PRO0
  6
CONTINUOUS
 62
     0
100
AcDbLine
 10
1042.385731264
 20
696.2414369351
 11
621.8563152636
 21
718.2804502496
  0
LINE
  5
161
100
AcDbEntity
  8
_2-0_
  6
CONTINUOUS
 62
     0
100
AcDbLine
 10
15
 20
16
 11
1245
 21
16
  0
LINE
  5
162
100
AcDbEntity
  8
_2-0_
  6
CONTINUOUS
 62
     0
100
AcDbLine
 10
1245
 20
16
 11
1245
 21
866
  0
LINE
  5
163
100
AcDbEntity
  8
_2-0_
  6
CONTINUOUS
 62
     0
100
AcDbLine
 10
1245
 20
866
 11
15
 21
866
  0
LINE
  5
164
100
AcDbEntity
  8
_2-0_
  6
CONTINUOUS
 62
     0
100
AcDbLine
 10
15
 20
866
 11
15
 21
16
  0
TEXT
  5
165
100
AcDbEntity
  8
_2-0_
  6
CONTINUOUS
 62
     0
100
AcDbText
 10
133.412991829
 20
800.2638896878
 40
12
  1
　　屋根－屋根
  7
STANDARD
100
AcDbText
  0
TEXT
  5
166
100
AcDbEntity
  8
_2-0_
  6
CONTINUOUS
 62
     0
100
AcDbText
 10
133.412991829
 20
783.7180716548
 40
12
  1
　　Ｓ＝１／３
  7
STANDARD
100
AcDbText
  0
TEXT
  5
167
100
AcDbEntity
  8
_2-0_
  6
CONTINUOUS
 62
     0
100
AcDbText
 10
492.7089656255
 20
312.3778453541
 40
7.5
  1
規　格
  7
STANDARD
100
AcDbText
  0
TEXT
  5
168
100
AcDbEntity
  8
_2-0_
  6
CONTINUOUS
 62
     0
100
AcDbText
 10
340.5839656255
 20
312.3778453541
 40
7.5
  1
部材名称
 41
0.9986666666667
  7
STANDARD
100
AcDbText
  0
TEXT
  5
169
100
AcDbEntity
  8
_2-0_
  6
CONTINUOUS
 62
     0
100
AcDbText
 10
291.4589656255
 20
276.3778453541
 40
7.49
  1
ＦＹＹフレーム
  7
STANDARD
100
AcDbText
  0
TEXT
  5
16A
100
AcDbEntity
  8
_2-0_
  6
CONTINUOUS
 62
     0
100
AcDbText
 10
290.8339656255
 20
294.3778453541
 40
7.5
  1
ＦＹＹキヤップＡ
  7
STANDARD
100
AcDbText
  0
LINE
  5
16B
100
AcDbEntity
  8
_2-0_
  6
CONTINUOUS
 62
     0
100
AcDbLine
 10
682.8339656255
 20
254.5028453541
 11
582.3339656255
 21
254.5028453541
  0
LINE
  5
16C
100
AcDbEntity
  8
_2-0_
  6
CONTINUOUS
 62
     0
100
AcDbLine
 10
682.8339656255
 20
272.5028453541
 11
582.3339656255
 21
272.5028453541
  0
LINE
  5
16D
100
AcDbEntity
  8
_2-0_
  6
CONTINUOUS
 62
     0
100
AcDbLine
 10
682.8339656255
 20
290.5028453541
 11
582.3339656255
 21
290.5028453541
  0
LINE
  5
16E
100
AcDbEntity
  8
_2-0_
  6
CONTINUOUS
 62
     0
100
AcDbLine
 10
682.8339656255
 20
308.5028453541
 11
582.3339656255
 21
308.5028453541
  0
LINE
  5
16F
100
AcDbEntity
  8
_2-0_
  6
CONTINUOUS
 62
     0
100
AcDbLine
 10
682.8339656255
 20
128.5028453541
 11
582.3339656255
 21
128.5028453541
  0
LINE
  5
170
100
AcDbEntity
  8
_2-0_
  6
CONTINUOUS
 62
     0
100
AcDbLine
 10
682.8339656255
 20
146.5028453541
 11
582.3339656255
 21
146.5028453541
  0
LINE
  5
171
100
AcDbEntity
  8
_2-0_
  6
CONTINUOUS
 62
     0
100
AcDbLine
 10
682.8339656255
 20
182.5028453541
 11
582.3339656255
 21
182.5028453541
  0
LINE
  5
172
100
AcDbEntity
  8
_2-0_
  6
CONTINUOUS
 62
     0
100
AcDbLine
 10
682.8339656255
 20
200.5028453541
 11
582.3339656255
 21
200.5028453541
  0
LINE
  5
173
100
AcDbEntity
  8
_2-0_
  6
CONTINUOUS
 62
     0
100
AcDbLine
 10
682.8339656255
 20
218.5028453541
 11
582.3339656255
 21
218.5028453541
  0
LINE
  5
174
100
AcDbEntity
  8
_2-0_
  6
CONTINUOUS
 62
     0
100
AcDbLine
 10
682.8339656255
 20
236.5028453541
 11
582.3339656255
 21
236.5028453541
  0
LINE
  5
175
100
AcDbEntity
  8
_2-0_
  6
CONTINUOUS
 62
     0
100
AcDbLine
 10
682.8339656255
 20
164.5028453541
 11
582.3339656255
 21
164.5028453541
  0
LINE
  5
176
100
AcDbEntity
  8
_2-0_
  6
CONTINUOUS
 62
     0
100
AcDbLine
 10
682.8339656255
 20
74.50284535411
 11
582.3339656255
 21
74.50284535411
  0
LINE
  5
177
100
AcDbEntity
  8
_2-0_
  6
CONTINUOUS
 62
     0
100
AcDbLine
 10
682.8339656255
 20
92.50284535411
 11
582.3339656255
 21
92.50284535411
  0
LINE
  5
178
100
AcDbEntity
  8
_2-0_
  6
CONTINUOUS
 62
     0
100
AcDbLine
 10
682.8339656255
 20
110.5028453541
 11
582.3339656255
 21
110.5028453541
  0
LINE
  5
179
100
AcDbEntity
  8
_2-0_
  6
CONTINUOUS
 62
     0
100
AcDbLine
 10
682.8339656255
 20
326.5028453541
 11
582.3339656255
 21
326.5028453541
  0
LINE
  5
17A
100
AcDbEntity
  8
_2-0_
  6
CONTINUOUS
 62
     0
100
AcDbLine
 10
684.3339656255
 20
74.50284535411
 11
784.8339656255
 21
74.50284535411
  0
LINE
  5
17B
100
AcDbEntity
  8
_2-0_
  6
CONTINUOUS
 62
     0
100
AcDbLine
 10
684.3339656255
 20
92.50284535411
 11
784.8339656255
 21
92.50284535411
  0
LINE
  5
17C
100
AcDbEntity
  8
_2-0_
  6
CONTINUOUS
 62
     0
100
AcDbLine
 10
684.3339656255
 20
128.5028453541
 11
784.8339656255
 21
128.5028453541
  0
LINE
  5
17D
100
AcDbEntity
  8
_2-0_
  6
CONTINUOUS
 62
     0
100
AcDbLine
 10
684.3339656255
 20
146.5028453541
 11
784.8339656255
 21
146.5028453541
  0
LINE
  5
17E
100
AcDbEntity
  8
_2-0_
  6
CONTINUOUS
 62
     0
100
AcDbLine
 10
684.3339656255
 20
200.5028453541
 11
784.8339656255
 21
200.5028453541
  0
LINE
  5
17F
100
AcDbEntity
  8
_2-0_
  6
CONTINUOUS
 62
     0
100
AcDbLine
 10
684.3339656255
 20
218.5028453541
 11
784.8339656255
 21
218.5028453541
  0
LINE
  5
180
100
AcDbEntity
  8
_2-0_
  6
CONTINUOUS
 62
     0
100
AcDbLine
 10
684.3339656255
 20
164.5028453541
 11
784.8339656255
 21
164.5028453541
  0
LINE
  5
181
100
AcDbEntity
  8
_2-0_
  6
CONTINUOUS
 62
     0
100
AcDbLine
 10
684.3339656255
 20
110.5028453541
 11
784.8339656255
 21
110.5028453541
  0
LINE
  5
182
100
AcDbEntity
  8
_2-0_
  6
CONTINUOUS
 62
     0
100
AcDbLine
 10
684.3339656255
 20
236.5028453541
 11
784.8339656255
 21
236.5028453541
  0
LINE
  5
183
100
AcDbEntity
  8
_2-0_
  6
CONTINUOUS
 62
     0
100
AcDbLine
 10
684.3339656255
 20
254.5028453541
 11
784.8339656255
 21
254.5028453541
  0
LINE
  5
184
100
AcDbEntity
  8
_2-0_
  6
CONTINUOUS
 62
     0
100
AcDbLine
 10
684.3339656255
 20
272.5028453541
 11
784.8339656255
 21
272.5028453541
  0
LINE
  5
185
100
AcDbEntity
  8
_2-0_
  6
CONTINUOUS
 62
     0
100
AcDbLine
 10
684.3339656255
 20
290.5028453541
 11
784.8339656255
 21
290.5028453541
  0
LINE
  5
186
100
AcDbEntity
  8
_2-0_
  6
CONTINUOUS
 62
     0
100
AcDbLine
 10
684.3339656255
 20
308.5028453541
 11
784.8339656255
 21
308.5028453541
  0
LINE
  5
187
100
AcDbEntity
  8
_2-0_
  6
CONTINUOUS
 62
     0
100
AcDbLine
 10
684.3339656255
 20
182.5028453541
 11
784.8339656255
 21
182.5028453541
  0
LINE
  5
188
100
AcDbEntity
  8
_2-0_
  6
CONTINUOUS
 62
     0
100
AcDbLine
 10
684.3339656255
 20
326.5028453541
 11
784.8339656255
 21
326.5028453541
  0
TEXT
  5
189
100
AcDbEntity
  8
_2-0_
  6
CONTINUOUS
 62
     0
100
AcDbText
 10
667.2089656255
 20
276.3778453541
 40
7.49
  1
〃
  7
STANDARD
100
AcDbText
  0
TEXT
  5
18A
100
AcDbEntity
  8
_2-0_
  6
CONTINUOUS
 62
     0
100
AcDbText
 10
667.2089656255
 20
294.3778453541
 40
7.5
  1
本
 41
0.9986666666667
  7
STANDARD
100
AcDbText
  0
TEXT
  5
18B
100
AcDbEntity
  8
_2-0_
  6
CONTINUOUS
 62
     0
100
AcDbText
 10
769.2089656255
 20
276.3778453541
 40
7.49
  1
〃
 41
1.001335113485
  7
STANDARD
100
AcDbText
  0
TEXT
  5
18C
100
AcDbEntity
  8
_2-0_
  6
CONTINUOUS
 62
     0
100
AcDbText
 10
769.2089656255
 20
294.3778453541
 40
7.5
  1
本
  7
STANDARD
100
AcDbText
  0
TEXT
  5
18D
100
AcDbEntity
  8
_2-0_
  6
CONTINUOUS
 62
     0
100
AcDbText
 10
763.3339656255
 20
312.3778453541
 40
7.5
  1
単位
 41
0.9986666666667
  7
STANDARD
100
AcDbText
  0
TEXT
  5
18E
100
AcDbEntity
  8
_2-0_
  6
CONTINUOUS
 62
     0
100
AcDbText
 10
661.3339656255
 20
312.3778453541
 40
7.5
  1
単位
 41
0.9986666666667
  7
STANDARD
100
AcDbText
  0
TEXT
  5
18F
100
AcDbEntity
  8
_2-0_
  6
CONTINUOUS
 62
     0
100
AcDbText
 10
597.2089656255
 20
276.3778453541
 40
7.49
  1
3000
 41
1.001335113485
  7
STANDARD
100
AcDbText
  0
TEXT
  5
190
100
AcDbEntity
  8
_2-0_
  6
CONTINUOUS
 62
     0
100
AcDbText
 10
699.2089656255
 20
276.3778453541
 40
7.49
  1
2000
 41
1.001335113485
  7
STANDARD
100
AcDbText
  0
TEXT
  5
191
100
AcDbEntity
  8
_2-0_
  6
CONTINUOUS
 62
     0
100
AcDbText
 10
699.2089656255
 20
294.3778453541
 40
7.5
  1
2000
  7
STANDARD
100
AcDbText
  0
TEXT
  5
192
100
AcDbEntity
  8
_2-0_
  6
CONTINUOUS
 62
     0
100
AcDbText
 10
687.4589656255
 20
312.3778453541
 40
7.5
  1
定尺(mm)
 41
0.9986666666667
  7
STANDARD
100
AcDbText
  0
TEXT
  5
193
100
AcDbEntity
  8
_2-0_
  6
CONTINUOUS
 62
     0
100
AcDbText
 10
597.2089656255
 20
294.3778453541
 40
7.5
  1
3000
  7
STANDARD
100
AcDbText
  0
TEXT
  5
194
100
AcDbEntity
  8
_2-0_
  6
CONTINUOUS
 62
     0
100
AcDbText
 10
637.3339656255
 20
312.3778453541
 40
7.5
  1
入数
  7
STANDARD
100
AcDbText
  0
TEXT
  5
195
100
AcDbEntity
  8
_2-0_
  6
CONTINUOUS
 62
     0
100
AcDbText
 10
642.8339656255
 20
294.3778453541
 40
7.5
  1
 1
 41
0.9986666666667
  7
STANDARD
100
AcDbText
  0
TEXT
  5
196
100
AcDbEntity
  8
_2-0_
  6
CONTINUOUS
 62
     0
100
AcDbText
 10
642.8339656255
 20
276.3778453541
 40
7.49
  1
 2
  7
STANDARD
100
AcDbText
  0
TEXT
  5
197
100
AcDbEntity
  8
_2-0_
  6
CONTINUOUS
 62
     0
100
AcDbText
 10
744.8339656255
 20
276.3778453541
 40
7.49
  1
 2
  7
STANDARD
100
AcDbText
  0
TEXT
  5
198
100
AcDbEntity
  8
_2-0_
  6
CONTINUOUS
 62
     0
100
AcDbText
 10
744.8339656255
 20
294.3778453541
 40
7.5
  1
 1
 41
0.9986666666667
  7
STANDARD
100
AcDbText
  0
TEXT
  5
199
100
AcDbEntity
  8
_2-0_
  6
CONTINUOUS
 62
     0
100
AcDbText
 10
739.3339656255
 20
312.3778453541
 40
7.5
  1
入数
  7
STANDARD
100
AcDbText
  0
LINE
  5
19A
100
AcDbEntity
  8
_2-0_
  6
CONTINUOUS
 62
     0
100
AcDbLine
 10
580.8339656255
 20
254.5028453541
 11
267.3339656255
 21
254.5028453541
  0
LINE
  5
19B
100
AcDbEntity
  8
_2-0_
  6
CONTINUOUS
 62
     0
100
AcDbLine
 10
580.8339656255
 20
272.5028453541
 11
267.3339656255
 21
272.5028453541
  0
LINE
  5
19C
100
AcDbEntity
  8
_2-0_
  6
CONTINUOUS
 62
     0
100
AcDbLine
 10
580.8339656255
 20
290.5028453541
 11
267.3339656255
 21
290.5028453541
  0
LINE
  5
19D
100
AcDbEntity
  8
_2-0_
  6
CONTINUOUS
 62
     0
100
AcDbLine
 10
580.8339656255
 20
308.5028453541
 11
267.3339656255
 21
308.5028453541
  0
LINE
  5
19E
100
AcDbEntity
  8
_2-0_
  6
CONTINUOUS
 62
     0
100
AcDbLine
 10
580.8339656255
 20
128.5028453541
 11
267.3339656255
 21
128.5028453541
  0
LINE
  5
19F
100
AcDbEntity
  8
_2-0_
  6
CONTINUOUS
 62
     0
100
AcDbLine
 10
580.8339656255
 20
146.5028453541
 11
267.3339656255
 21
146.5028453541
  0
LINE
  5
1A0
100
AcDbEntity
  8
_2-0_
  6
CONTINUOUS
 62
     0
100
AcDbLine
 10
580.8339656255
 20
182.5028453541
 11
267.3339656255
 21
182.5028453541
  0
LINE
  5
1A1
100
AcDbEntity
  8
_2-0_
  6
CONTINUOUS
 62
     0
100
AcDbLine
 10
580.8339656255
 20
200.5028453541
 11
267.3339656255
 21
200.5028453541
  0
LINE
  5
1A2
100
AcDbEntity
  8
_2-0_
  6
CONTINUOUS
 62
     0
100
AcDbLine
 10
580.8339656255
 20
218.5028453541
 11
267.3339656255
 21
218.5028453541
  0
LINE
  5
1A3
100
AcDbEntity
  8
_2-0_
  6
CONTINUOUS
 62
     0
100
AcDbLine
 10
580.8339656255
 20
236.5028453541
 11
267.3339656255
 21
236.5028453541
  0
LINE
  5
1A4
100
AcDbEntity
  8
_2-0_
  6
CONTINUOUS
 62
     0
100
AcDbLine
 10
580.8339656255
 20
164.5028453541
 11
267.3339656255
 21
164.5028453541
  0
LINE
  5
1A5
100
AcDbEntity
  8
_2-0_
  6
CONTINUOUS
 62
     0
100
AcDbLine
 10
580.8339656255
 20
74.50284535411
 11
267.3339656255
 21
74.50284535411
  0
LINE
  5
1A6
100
AcDbEntity
  8
_2-0_
  6
CONTINUOUS
 62
     0
100
AcDbLine
 10
580.8339656255
 20
92.50284535411
 11
267.3339656255
 21
92.50284535411
  0
LINE
  5
1A7
100
AcDbEntity
  8
_2-0_
  6
CONTINUOUS
 62
     0
100
AcDbLine
 10
580.8339656255
 20
110.5028453541
 11
267.3339656255
 21
110.5028453541
  0
LINE
  5
1A8
100
AcDbEntity
  8
_2-0_
  6
CONTINUOUS
 62
     0
100
AcDbLine
 10
580.8339656255
 20
326.5028453541
 11
267.3339656255
 21
326.5028453541
  0
TEXT
  5
1A9
100
AcDbEntity
  8
_2-0_
  6
CONTINUOUS
 62
     0
100
AcDbText
 10
272.3339656255
 20
96.37784535411
 40
7.5
  1
12
 41
0.9986666666667
  7
STANDARD
100
AcDbText
  0
TEXT
  5
1AA
100
AcDbEntity
  8
_2-0_
  6
CONTINUOUS
 62
     0
100
AcDbText
 10
272.3339656255
 20
114.3778453541
 40
7.49
  1
11
  7
STANDARD
100
AcDbText
  0
TEXT
  5
1AB
100
AcDbEntity
  8
_2-0_
  6
CONTINUOUS
 62
     0
100
AcDbText
 10
272.3339656255
 20
132.3778453541
 40
7.49
  1
10
  7
STANDARD
100
AcDbText
  0
TEXT
  5
1AC
100
AcDbEntity
  8
_2-0_
  6
CONTINUOUS
 62
     0
100
AcDbText
 10
272.3339656255
 20
150.3778453541
 40
7.5
  1
 9
 41
0.9986666666667
  7
STANDARD
100
AcDbText
  0
TEXT
  5
1AD
100
AcDbEntity
  8
_2-0_
  6
CONTINUOUS
 62
     0
100
AcDbText
 10
272.3339656255
 20
168.3778453541
 40
7.5
  1
 8
 41
0.9986666666667
  7
STANDARD
100
AcDbText
  0
TEXT
  5
1AE
100
AcDbEntity
  8
_2-0_
  6
CONTINUOUS
 62
     0
100
AcDbText
 10
272.3339656255
 20
186.3778453541
 40
7.5
  1
 7
 41
0.9986666666667
  7
STANDARD
100
AcDbText
  0
TEXT
  5
1AF
100
AcDbEntity
  8
_2-0_
  6
CONTINUOUS
 62
     0
100
AcDbText
 10
272.3339656255
 20
204.3778453541
 40
7.5
  1
 6
 41
0.9986666666667
  7
STANDARD
100
AcDbText
  0
TEXT
  5
1B0
100
AcDbEntity
  8
_2-0_
  6
CONTINUOUS
 62
     0
100
AcDbText
 10
272.3339656255
 20
222.3778453541
 40
7.5
  1
 5
 41
0.9986666666667
  7
STANDARD
100
AcDbText
  0
TEXT
  5
1B1
100
AcDbEntity
  8
_2-0_
  6
CONTINUOUS
 62
     0
100
AcDbText
 10
272.3339656255
 20
240.3778453541
 40
7.5
  1
 4
 41
0.9986666666667
  7
STANDARD
100
AcDbText
  0
TEXT
  5
1B2
100
AcDbEntity
  8
_2-0_
  6
CONTINUOUS
 62
     0
100
AcDbText
 10
272.3339656255
 20
258.3778453541
 40
7.49
  1
 3
  7
STANDARD
100
AcDbText
  0
TEXT
  5
1B3
100
AcDbEntity
  8
_2-0_
  6
CONTINUOUS
 62
     0
100
AcDbText
 10
272.3339656255
 20
276.3778453541
 40
7.49
  1
 2
  7
STANDARD
100
AcDbText
  0
TEXT
  5
1B4
100
AcDbEntity
  8
_2-0_
  6
CONTINUOUS
 62
     0
100
AcDbText
 10
269.3964656255
 20
312.3778453541
 40
7.5
  1
No.
  7
STANDARD
100
AcDbText
  0
TEXT
  5
1B5
100
AcDbEntity
  8
_2-0_
  6
CONTINUOUS
 62
     0
100
AcDbText
 10
272.3339656255
 20
294.3778453541
 40
7.5
  1
 1
 41
0.9986666666667
  7
STANDARD
100
AcDbText
  0
TEXT
  5
1B6
100
AcDbEntity
  8
_2-0_
  6
CONTINUOUS
 62
     0
100
AcDbText
 10
585.4589656255
 20
312.3778453541
 40
7.5
  1
定尺(mm)
  7
STANDARD
100
AcDbText
  0
TEXT
  5
1B7
100
AcDbEntity
  8
_2-0_
  6
CONTINUOUS
 62
     0
100
AcDbText
 10
586.3339656255
 20
326.8645263858
 40
7.5
  1
（3000mmセット）
  7
STANDARD
100
AcDbText
  0
TEXT
  5
1B8
100
AcDbEntity
  8
_2-0_
  6
CONTINUOUS
 62
     0
100
AcDbText
 10
688.3339656255
 20
326.8645263858
 40
7.5
  1
（2000mmセット）
 41
0.9986666666667
  7
STANDARD
100
AcDbText
  0
LINE
  5
1B9
100
AcDbEntity
  8
_0-1_PRO0
  6
CONTINUOUS
 62
     0
100
AcDbLine
 10
621.8142582636
 20
725.8672012496
 11
633.0562962636
 21
745.3389802496
  0
CIRCLE
  5
1BA
100
AcDbEntity
  8
_0-1_PRO0
  6
CONTINUOUS
 62
     0
100
AcDbCircle
 10
636.0562962636
 20
750.5351332496
 40
6
  0
CIRCLE
  5
1BB
100
AcDbEntity
  8
_0-1_PRO0
  6
CONTINUOUS
 62
     0
100
AcDbCircle
 10
621.8142582636
 20
725.8672012496
 40
0.9
  0
LINE
  5
1BC
100
AcDbEntity
  8
_0-1_PRO0
  6
CONTINUOUS
 62
     0
100
AcDbLine
 10
615.1142052636
 20
724.1561452496
 11
615.2290122636
 21
722.4393022496
  0
LINE
  5
1BD
100
AcDbEntity
  8
_0-1_PRO0
  6
CONTINUOUS
 62
     0
100
AcDbLine
 10
605.1279102636
 20
723.6327862496
 11
605.2427172636
 21
721.9159432496
  0
LINE
  5
1BE
100
AcDbEntity
  8
_0-1_PRO0
  6
CONTINUOUS
 62
     0
100
AcDbLine
 10
608.5567092636
 20
723.8124832496
 11
606.7385622636
 21
721.9943362496
  0
LINE
  5
1BF
100
AcDbEntity
  8
_0-1_PRO0
  6
CONTINUOUS
 62
     0
100
AcDbLine
 10
610.0491372636
 20
723.8906962496
 11
608.2309902636
 21
722.0725522496
  0
LINE
  5
1C0
100
AcDbEntity
  8
_0-1_PRO0
  6
CONTINUOUS
 62
     0
100
AcDbLine
 10
611.5415652636
 20
723.9689122496
 11
609.7234182636
 21
722.1507652496
  0
LINE
  5
1C1
100
AcDbEntity
  8
_0-1_PRO0
  6
CONTINUOUS
 62
     0
100
AcDbLine
 10
613.0339932636
 20
724.0471282496
 11
611.2158462636
 21
722.2289812496
  0
LINE
  5
1C2
100
AcDbEntity
  8
_0-1_PRO0
  6
CONTINUOUS
 62
     0
100
AcDbLine
 10
614.5264212636
 20
724.1253412496
 11
612.7082772636
 21
722.3071972496
  0
LINE
  5
1C3
100
AcDbEntity
  8
_0-1_PRO0
  6
CONTINUOUS
 62
     0
100
AcDbLine
 10
614.2007052636
 20
722.3854102496
 11
615.1679352636
 21
723.3526432496
  0
LINE
  5
1C4
100
AcDbEntity
  8
_0-1_PRO0
  6
CONTINUOUS
 62
     0
100
AcDbLine
 10
607.0642782636
 20
723.7342672496
 11
605.2461342636
 21
721.9161232496
  0
LINE
  5
1C5
100
AcDbEntity
  8
_0-1_PRO0
  6
CONTINUOUS
 62
     0
100
AcDbLine
 10
605.5718502636
 20
723.6560542496
 11
605.1542772636
 21
723.2384782496
  0
LINE
  5
1C6
100
AcDbEntity
  8
_0-1_PRO0
  6
CONTINUOUS
 62
     0
100
AcDbLine
 10
628.5984252636
 20
724.1561452496
 11
628.4836182636
 21
722.4393022496
  0
LINE
  5
1C7
100
AcDbEntity
  8
_0-1_PRO0
  6
CONTINUOUS
 62
     0
100
AcDbLine
 10
638.5847202636
 20
723.6327862496
 11
638.4699132636
 21
721.9159432496
  0
LINE
  5
1C8
100
AcDbEntity
  8
_0-1_PRO0
  6
CONTINUOUS
 62
     0
100
AcDbLine
 10
635.1559212636
 20
723.8124832496
 11
636.9740682636
 21
721.9943362496
  0
LINE
  5
1C9
100
AcDbEntity
  8
_0-1_PRO0
  6
CONTINUOUS
 62
     0
100
AcDbLine
 10
633.6634932636
 20
723.8906962496
 11
635.4816402636
 21
722.0725522496
  0
LINE
  5
1CA
100
AcDbEntity
  8
_0-1_PRO0
  6
CONTINUOUS
 62
     0
100
AcDbLine
 10
632.1710652636
 20
723.9689122496
 11
633.9892122636
 21
722.1507652496
  0
LINE
  5
1CB
100
AcDbEntity
  8
_0-1_PRO0
  6
CONTINUOUS
 62
     0
100
AcDbLine
 10
630.6786372636
 20
724.0471282496
 11
632.4967812636
 21
722.2289812496
  0
LINE
  5
1CC
100
AcDbEntity
  8
_0-1_PRO0
  6
CONTINUOUS
 62
     0
100
AcDbLine
 10
629.1862092636
 20
724.1253412496
 11
631.0043532636
 21
722.3071972496
  0
LINE
  5
1CD
100
AcDbEntity
  8
_0-1_PRO0
  6
CONTINUOUS
 62
     0
100
AcDbLine
 10
629.5119252636
 20
722.3854102496
 11
628.5446952636
 21
723.3526432496
  0
LINE
  5
1CE
100
AcDbEntity
  8
_0-1_PRO0
  6
CONTINUOUS
 62
     0
100
AcDbLine
 10
636.6483492636
 20
723.7342672496
 11
638.4664962636
 21
721.9161232496
  0
LINE
  5
1CF
100
AcDbEntity
  8
_0-1_PRO0
  6
CONTINUOUS
 62
     0
100
AcDbLine
 10
638.1407802636
 20
723.6560542496
 11
638.5583532636
 21
723.2384782496
  0
LINE
  5
1D0
100
AcDbEntity
  8
ADD_LINE
  6
DOT
 62
     0
100
AcDbLine
 10
171.8563152636
 20
702.9287296192
 11
171.8563152636
 21
596.0265172496
  0
LINE
  5
1D1
100
AcDbEntity
  8
_0-1_PRO0
  6
CONTINUOUS
 62
     0
100
AcDbLine
 10
1022.694733264
 20
688.9533839351
 11
1038.472108264
 21
716.2805969351
  0
CIRCLE
  5
1D2
100
AcDbEntity
  8
_0-1_PRO0
  6
CONTINUOUS
 62
     0
100
AcDbCircle
 10
1041.472108264
 20
721.4767469351
 40
6
  0
CIRCLE
  5
1D3
100
AcDbEntity
  8
_0-1_PRO0
  6
CONTINUOUS
 62
     0
100
AcDbCircle
 10
1022.694733264
 20
688.9533839351
 40
0.9
  0
LINE
  5
1D4
100
AcDbEntity
  8
_0-1_PRO0
  6
CONTINUOUS
 62
     0
100
AcDbLine
 10
1055.640655264
 20
688.0922909351
 11
1077.905899264
 21
726.6568229351
  0
CIRCLE
  5
1D5
100
AcDbEntity
  8
_0-1_PRO0
  6
CONTINUOUS
 62
     0
100
AcDbCircle
 10
1080.905899264
 20
731.8529759351
 40
6
  0
CIRCLE
  5
1D6
100
AcDbEntity
  8
_0-1_PRO0
  6
CONTINUOUS
 62
     0
100
AcDbCircle
 10
1055.640655264
 20
688.0922909351
 40
0.9
  0
LINE
  5
1D7
100
AcDbEntity
  8
_0-1_PRO0
  6
CONTINUOUS
 62
     0
100
AcDbLine
 10
1118.617273264
 20
702.9287279351
 11
1118.617273264
 21
612.9287279351
  0
LINE
  5
1D8
100
AcDbEntity
  8
_0-1_PRO0
  6
CONTINUOUS
 62
     0
100
AcDbLine
 10
1072.856314264
 20
702.9287279351
 11
1122.617272264
 21
702.9287279351
  0
LINE
  5
1D9
100
AcDbEntity
  8
_0-1_PRO0
  6
CONTINUOUS
 62
     0
100
AcDbLine
 10
1069.856314264
 20
612.9287279351
 11
1122.617272264
 21
612.9287279351
  0
LINE
  5
1DA
100
AcDbEntity
  8
_0-1_PRO0
  6
CONTINUOUS
 62
     0
100
AcDbLine
 10
1118.617273264
 20
702.9287279351
 11
1119.367273264
 21
699.9287279351
  0
LINE
  5
1DB
100
AcDbEntity
  8
_0-1_PRO0
  6
CONTINUOUS
 62
     0
100
AcDbLine
 10
1118.617273264
 20
702.9287279351
 11
1117.867273264
 21
699.9287279351
  0
LINE
  5
1DC
100
AcDbEntity
  8
_0-1_PRO0
  6
CONTINUOUS
 62
     0
100
AcDbLine
 10
1118.617273264
 20
612.9287279351
 11
1117.867273264
 21
615.9287279351
  0
LINE
  5
1DD
100
AcDbEntity
  8
_0-1_PRO0
  6
CONTINUOUS
 62
     0
100
AcDbLine
 10
1118.617273264
 20
612.9287279351
 11
1119.367273264
 21
615.9287279351
  0
LINE
  5
1DE
100
AcDbEntity
  8
_0-1_PRO0
  6
CONTINUOUS
 62
     0
100
AcDbLine
 10
1093.960405264
 20
656.7985349351
 11
1093.960405264
 21
612.9287279351
  0
LINE
  5
1DF
100
AcDbEntity
  8
_0-1_PRO0
  6
CONTINUOUS
 62
     0
100
AcDbLine
 10
1093.960405264
 20
656.7985349351
 11
1094.710405264
 21
653.7985349351
  0
LINE
  5
1E0
100
AcDbEntity
  8
_0-1_PRO0
  6
CONTINUOUS
 62
     0
100
AcDbLine
 10
1093.960405264
 20
656.7985349351
 11
1093.210405264
 21
653.7985349351
  0
LINE
  5
1E1
100
AcDbEntity
  8
_0-1_PRO0
  6
CONTINUOUS
 62
     0
100
AcDbLine
 10
1093.960405264
 20
612.9287279351
 11
1093.210405264
 21
615.9287279351
  0
LINE
  5
1E2
100
AcDbEntity
  8
_0-1_PRO0
  6
CONTINUOUS
 62
     0
100
AcDbLine
 10
1093.960405264
 20
612.9287279351
 11
1094.710405264
 21
615.9287279351
  0
LINE
  5
1E3
100
AcDbEntity
  8
_0-1_PRO0
  6
CONTINUOUS
 62
     0
100
AcDbLine
 10
1071.856315264
 20
701.0818349351
 11
1071.856315264
 21
767.8167629351
  0
LINE
  5
1E4
100
AcDbEntity
  8
_0-1_PRO0
  6
CONTINUOUS
 62
     0
100
AcDbLine
 10
1071.856315264
 20
763.8167639351
 11
1068.856315264
 21
763.0667639351
  0
LINE
  5
1E5
100
AcDbEntity
  8
_0-1_PRO0
  6
CONTINUOUS
 62
     0
100
AcDbLine
 10
1071.856315264
 20
763.8167639351
 11
1068.856315264
 21
764.5667639351
  0
LINE
  5
1E6
100
AcDbEntity
  8
_0-1_PRO0
  6
CONTINUOUS
 62
     0
100
AcDbLine
 10
1048.650334264
 20
697.6359809351
 11
621.8301462636
 21
720.0046822496
  0
LINE
  5
1E7
100
AcDbEntity
  8
_0-1_PRO0
  6
CONTINUOUS
 62
     0
100
AcDbLine
 10
1042.621240264
 20
700.7352689351
 11
621.8563152636
 21
722.7866242496
  0
LINE
  5
1E8
100
AcDbEntity
  8
_0-1_PRO0
  6
CONTINUOUS
 62
     0
100
AcDbLine
 10
1042.307227264
 20
694.7434919351
 11
621.8563152636
 21
716.7783922496
  0
LINE
  5
1E9
100
AcDbEntity
  8
_0-1_PRO0
  6
CONTINUOUS
 62
     0
100
AcDbLine
 10
1041.537886264
 20
680.0636369351
 11
621.8563152636
 21
702.0582172496
  0
LINE
  5
1EA
100
AcDbEntity
  8
_0-1_PRO0
  6
CONTINUOUS
 62
     0
100
AcDbLine
 10
1041.443683264
 20
678.2661029351
 11
621.8563152636
 21
700.2557482496
  0
LINE
  5
1EB
100
AcDbEntity
  8
_0-1_PRO0
  6
CONTINUOUS
 62
     0
100
AcDbLine
 10
1041.286675264
 20
675.2702159351
 11
621.8563152636
 21
697.2516292496
  0
LINE
  5
1EC
100
AcDbEntity
  8
_0-1_PRO0
  6
CONTINUOUS
 62
     0
100
AcDbLine
 10
1041.208171264
 20
673.7722709351
 11
621.8563152636
 21
695.7495712496
  0
LINE
  5
1ED
100
AcDbEntity
  8
_0-1_PRO0
  6
CONTINUOUS
 62
     0
100
AcDbLine
 10
1041.155836264
 20
672.7736429351
 11
621.8563152636
 21
694.7481982496
  0
LINE
  5
1EE
100
AcDbEntity
  8
_0-1_PRO0
  6
CONTINUOUS
 62
     0
100
AcDbLine
 10
1069.013323264
 20
703.0777229351
 11
621.8563152636
 21
726.5122312496
  0
LINE
  5
1EF
100
AcDbEntity
  8
_0-1_PRO0
  6
CONTINUOUS
 62
     0
100
AcDbLine
 10
1061.856313264
 20
614.9287289351
 11
1061.856313264
 21
612.9287279351
  0
ARC
  5
1F0
100
AcDbEntity
  8
_0-1_PRO0
  6
CONTINUOUS
 62
     0
100
AcDbCircle
 10
1048.695151264
 20
694.6295159351
 40
7.5
100
AcDbArc
 50
10.124672
 51
87
  0
LINE
  5
1F1
100
AcDbEntity
  8
_0-1_PRO0
  6
CONTINUOUS
 62
     0
100
AcDbLine
 10
1035.615799264
 20
702.8252699351
 11
1033.978735264
 21
701.1882029351
  0
LINE
  5
1F2
100
AcDbEntity
  8
_0-1_PRO0
  6
CONTINUOUS
 62
     0
100
AcDbLine
 10
1036.959589264
 20
702.7548449351
 11
1035.322522264
 21
701.1177779351
  0
LINE
  5
1F3
100
AcDbEntity
  8
_0-1_PRO0
  6
CONTINUOUS
 62
     0
100
AcDbLine
 10
1038.303376264
 20
702.6844199351
 11
1036.666312264
 21
701.0473529351
  0
LINE
  5
1F4
100
AcDbEntity
  8
_0-1_PRO0
  6
CONTINUOUS
 62
     0
100
AcDbLine
 10
1039.647166264
 20
702.6139949351
 11
1038.010099264
 21
700.9769279351
  0
LINE
  5
1F5
100
AcDbEntity
  8
_0-1_PRO0
  6
CONTINUOUS
 62
     0
100
AcDbLine
 10
1040.990956264
 20
702.5435699351
 11
1039.353889264
 21
700.9065029351
  0
LINE
  5
1F6
100
AcDbEntity
  8
_0-1_PRO0
  6
CONTINUOUS
 62
     0
100
AcDbLine
 10
1042.334743264
 20
702.4731449351
 11
1040.697679264
 21
700.8360779351
  0
LINE
  5
1F7
100
AcDbEntity
  8
_0-1_PRO0
  6
CONTINUOUS
 62
     0
100
AcDbLine
 10
1042.041466264
 20
700.7656529351
 11
1042.654987264
 21
701.3791739351
  0
LINE
  5
1F8
100
AcDbEntity
  8
_0-1_PRO0
  6
CONTINUOUS
 62
     0
100
AcDbLine
 10
1034.282761264
 20
702.8951309351
 11
1032.645697264
 21
701.2580639351
  0
LINE
  5
1F9
100
AcDbEntity
  8
_0-1_PRO0
  6
CONTINUOUS
 62
     0
100
AcDbLine
 10
1032.928222264
 20
702.9661199351
 11
1032.713161264
 21
702.7510559351
  0
ARC
  5
1FA
100
AcDbEntity
  8
_0-1_PRO0
  6
CONTINUOUS
 62
     0
100
AcDbCircle
 10
1068.856315264
 20
615.9287279351
 40
0.999999
100
AcDbArc
 50
-90
 51
0
  0
LINE
  5
1FB
100
AcDbEntity
  8
_0-1_PRO0
  6
CONTINUOUS
 62
     0
100
AcDbLine
 10
1068.856315264
 20
614.9287289351
 11
1061.856313264
 21
614.9287289351
  0
ARC
  5
1FC
100
AcDbEntity
  8
_0-1_PRO0
  6
CONTINUOUS
 62
     0
100
AcDbCircle
 10
1068.856315264
 20
615.9287279351
 40
3
100
AcDbArc
 50
-90
 51
0
  0
LINE
  5
1FD
100
AcDbEntity
  8
_0-1_PRO0
  6
CONTINUOUS
 62
     0
100
AcDbLine
 10
1068.856315264
 20
612.9287279351
 11
1061.856313264
 21
612.9287279351
  0
ARC
  5
1FE
100
AcDbEntity
  8
_0-1_PRO0
  6
CONTINUOUS
 62
     0
100
AcDbCircle
 10
1068.856315264
 20
700.0818359351
 40
3
100
AcDbArc
 50
0
 51
86.99999999999
  0
LINE
  5
1FF
100
AcDbEntity
  8
_0-1_PRO0
  6
CONTINUOUS
 62
     0
100
AcDbLine
 10
1071.856315264
 20
700.0818359351
 11
1071.856315264
 21
615.9287279351
  0
LINE
  5
200
100
AcDbEntity
  8
_0-1_PRO0
  6
CONTINUOUS
 62
     0
100
AcDbLine
 10
1056.078358264
 20
695.9479469351
 11
1069.856314264
 21
618.7913999351
  0
LINE
  5
201
100
AcDbEntity
  8
_0-1_PRO0
  6
CONTINUOUS
 62
     0
100
AcDbLine
 10
1069.856314264
 20
700.0818359351
 11
1069.856314264
 21
615.9287279351
  0
ARC
  5
202
100
AcDbEntity
  8
_0-1_PRO0
  6
CONTINUOUS
 62
     0
100
AcDbCircle
 10
1068.856315264
 20
700.0818359351
 40
0.999999
100
AcDbArc
 50
0
 51
87
  0
LINE
  5
203
100
AcDbEntity
  8
_0-1_PRO0
  6
CONTINUOUS
 62
     0
100
AcDbLine
 10
1051.648435264
 20
695.1568889351
 11
1065.425119264
 21
618.0074519351
  0
ARC
  5
204
100
AcDbEntity
  8
_0-1_PRO0
  6
CONTINUOUS
 62
     0
100
AcDbCircle
 10
1048.695151264
 20
694.6295159351
 40
3
100
AcDbArc
 50
10.124672
 51
87
  0
LINE
  5
205
100
AcDbEntity
  8
_0-1_PRO0
  6
CONTINUOUS
 62
     0
100
AcDbLine
 10
1064.939014264
 20
625.7287289351
 11
1055.688838264
 21
625.7287289351
  0
ARC
  5
206
100
AcDbEntity
  8
_0-1_PRO0
  6
CONTINUOUS
 62
     0
100
AcDbCircle
 10
1064.939014264
 20
625.2287279351
 40
0.500001
100
AcDbArc
 50
11.99999999998
 51
90
  0
LINE
  5
207
100
AcDbEntity
  8
_0-1_PRO0
  6
CONTINUOUS
 62
     0
100
AcDbLine
 10
1065.428089264
 20
625.3326839351
 11
1066.856314264
 21
618.6134159351
  0
LINE
  5
208
100
AcDbEntity
  8
_0-1_PRO0
  6
CONTINUOUS
 62
     0
100
AcDbLine
 10
1066.856314264
 20
618.6134159351
 11
1066.856314264
 21
614.9287289351
  0
LINE
  5
209
100
AcDbEntity
  8
_0-1_PRO0
  6
CONTINUOUS
 62
     0
100
AcDbLine
 10
1067.356315264
 20
614.9287289351
 11
1066.856314264
 21
614.9287289351
  0
ARC
  5
20A
100
AcDbEntity
  8
_0-1_PRO0
  6
CONTINUOUS
 62
     0
100
AcDbCircle
 10
1067.356315264
 20
617.4287279351
 40
2.499999
100
AcDbArc
 50
-90
 51
0
  0
LINE
  5
20B
100
AcDbEntity
  8
_0-1_PRO0
  6
CONTINUOUS
 62
     0
100
AcDbLine
 10
1055.688838264
 20
626.9287289351
 11
1058.088838264
 21
626.9287289351
  0
LINE
  5
20C
100
AcDbEntity
  8
_0-1_PRO0
  6
CONTINUOUS
 62
     0
100
AcDbLine
 10
1060.088839264
 20
627.9287279351
 11
1060.088839264
 21
626.9287289351
  0
LINE
  5
20D
100
AcDbEntity
  8
_0-1_PRO0
  6
CONTINUOUS
 62
     0
100
AcDbLine
 10
1058.088838264
 20
626.9287289351
 11
1060.088839264
 21
627.9287279351
  0
ARC
  5
20E
100
AcDbEntity
  8
_0-1_PRO0
  6
CONTINUOUS
 62
     0
100
AcDbCircle
 10
1055.688838264
 20
626.3287289351
 40
0.6
100
AcDbArc
 50
90
 51
270
  0
LINE
  5
20F
100
AcDbEntity
  8
_0-1_PRO0
  6
CONTINUOUS
 62
     0
100
AcDbLine
 10
1064.471392264
 20
626.9287289351
 11
1060.088839264
 21
626.9287289351
  0
ARC
  5
210
100
AcDbEntity
  8
_0-1_PRO0
  6
CONTINUOUS
 62
     0
100
AcDbCircle
 10
1064.471392264
 20
627.4287299351
 40
0.500001
100
AcDbArc
 50
-90
 51
12.00000000001
  0
ARC
  5
211
100
AcDbEntity
  8
_0-1_PRO0
  6
CONTINUOUS
 62
     0
100
AcDbCircle
 10
1043.257765264
 20
674.6662289351
 40
0.500001
100
AcDbArc
 50
86.99999999999
 51
177
  0
LINE
  5
212
100
AcDbEntity
  8
_0-1_PRO0
  6
CONTINUOUS
 62
     0
100
AcDbLine
 10
1042.758451264
 20
674.6923979351
 11
1042.706116264
 21
673.6937669351
  0
LINE
  5
213
100
AcDbEntity
  8
_0-1_PRO0
  6
CONTINUOUS
 62
     0
100
AcDbLine
 10
1042.180633264
 20
673.2206189351
 11
1041.681316264
 21
673.2467879351
  0
ARC
  5
214
100
AcDbEntity
  8
_0-1_PRO0
  6
CONTINUOUS
 62
     0
100
AcDbCircle
 10
1041.707485264
 20
673.7461019351
 40
0.500001
100
AcDbArc
 50
177
 51
267
  0
ARC
  5
215
100
AcDbEntity
  8
_0-1_PRO0
  6
CONTINUOUS
 62
     0
100
AcDbCircle
 10
1042.206799264
 20
673.7199359351
 40
0.500001
100
AcDbArc
 50
-93.00000000001
 51
-3.000000000006
  0
LINE
  5
216
100
AcDbEntity
  8
_0-1_PRO0
  6
CONTINUOUS
 62
     0
100
AcDbLine
 10
1050.959011264
 20
674.7633089351
 11
1043.283934264
 21
675.1655429351
  0
ARC
  5
217
100
AcDbEntity
  8
_0-1_PRO0
  6
CONTINUOUS
 62
     0
100
AcDbCircle
 10
1050.932845264
 20
674.2639949351
 40
0.500001
100
AcDbArc
 50
-12.99999999999
 51
86.99999999999
  0
LINE
  5
218
100
AcDbEntity
  8
_0-1_PRO0
  6
CONTINUOUS
 62
     0
100
AcDbLine
 10
1051.420030264
 20
674.1515189351
 11
1050.836836264
 21
671.6254349351
  0
LINE
  5
219
100
AcDbEntity
  8
_0-1_PRO0
  6
CONTINUOUS
 62
     0
100
AcDbLine
 10
1053.022300264
 20
674.6551769351
 11
1054.199644264
 21
674.5934759351
  0
ARC
  5
21A
100
AcDbEntity
  8
_0-1_PRO0
  6
CONTINUOUS
 62
     0
100
AcDbCircle
 10
1053.006598264
 20
674.3555879351
 40
0.3
100
AcDbArc
 50
86.99999999999
 51
167
  0
LINE
  5
21B
100
AcDbEntity
  8
_0-1_PRO0
  6
CONTINUOUS
 62
     0
100
AcDbLine
 10
1052.714287264
 20
674.4230729351
 11
1052.006080264
 21
671.3554949351
  0
ARC
  5
21C
100
AcDbEntity
  8
_0-1_PRO0
  6
CONTINUOUS
 62
     0
100
AcDbCircle
 10
1054.147309264
 20
673.5948449351
 40
0.999999
100
AcDbArc
 50
11.99999999999
 51
87
  0
ARC
  5
21D
100
AcDbEntity
  8
_0-1_PRO0
  6
CONTINUOUS
 62
     0
100
AcDbCircle
 10
1051.421458264
 20
671.4904649351
 40
0.6
100
AcDbArc
 50
167
 51
347
  0
LINE
  5
21E
100
AcDbEntity
  8
_0-1_PRO0
  6
CONTINUOUS
 62
     0
100
AcDbLine
 10
1057.900363264
 20
675.1770509351
 11
1069.856314264
 21
618.9287279351
  0
LINE
  5
21F
100
AcDbEntity
  8
_0-1_PRO0
  6
CONTINUOUS
 62
     0
100
AcDbLine
 10
1055.125456264
 20
673.8027569351
 11
1064.960464264
 21
627.5326859351
  0
LINE
  5
220
100
AcDbEntity
  8
_0-1_PRO0
  6
CONTINUOUS
 62
     0
100
AcDbLine
 10
1065.425119264
 20
618.0074519351
 11
1069.856314264
 21
618.7913999351
  0
LINE
  5
221
100
AcDbEntity
  8
_0-1_PRO0
  6
CONTINUOUS
 62
     0
100
AcDbLine
 10
1042.711285264
 20
702.4534109351
 11
1042.621240264
 21
700.7352689351
  0
LINE
  5
222
100
AcDbEntity
  8
_0-1_PRO0
  6
CONTINUOUS
 62
     0
100
AcDbLine
 10
1032.724990264
 20
702.9767699351
 11
1032.634945264
 21
701.2586279351
  0
ARC
  5
223
100
AcDbEntity
  8
_0-1_PRO0
  6
CONTINUOUS
 62
     0
100
AcDbCircle
 10
1042.073836264
 20
680.7365099351
 40
0.500001
100
AcDbArc
 50
86.99999999999
 51
177
  0
LINE
  5
224
100
AcDbEntity
  8
_0-1_PRO0
  6
CONTINUOUS
 62
     0
100
AcDbLine
 10
1043.440942264
 20
678.1614329351
 11
1055.122930264
 21
677.5492049351
  0
ARC
  5
225
100
AcDbEntity
  8
_0-1_PRO0
  6
CONTINUOUS
 62
     0
100
AcDbCircle
 10
1043.467108264
 20
678.6607469351
 40
0.500001
100
AcDbArc
 50
177
 51
267
  0
LINE
  5
226
100
AcDbEntity
  8
_0-1_PRO0
  6
CONTINUOUS
 62
     0
100
AcDbLine
 10
1042.967794264
 20
678.6869159351
 11
1043.072467264
 21
680.6841749351
  0
ARC
  5
227
100
AcDbEntity
  8
_0-1_PRO0
  6
CONTINUOUS
 62
     0
100
AcDbCircle
 10
1042.573153264
 20
680.7103409351
 40
0.500001
100
AcDbArc
 50
-3.000000000006
 51
86.99999999999
  0
LINE
  5
228
100
AcDbEntity
  8
_0-1_PRO0
  6
CONTINUOUS
 62
     0
100
AcDbLine
 10
1042.599319264
 20
681.2096579351
 11
1042.100005264
 21
681.2358239351
  0
LINE
  5
229
100
AcDbEntity
  8
_0-1_PRO0
  6
CONTINUOUS
 62
     0
100
AcDbLine
 10
1042.621240264
 20
700.7352689351
 11
1041.155836264
 21
672.7736429351
  0
ARC
  5
22A
100
AcDbEntity
  8
_0-1_PRO0
  6
CONTINUOUS
 62
     0
100
AcDbCircle
 10
1054.965922264
 20
674.5533149351
 40
3
100
AcDbArc
 50
12
 51
87
  0
ARC
  5
22B
100
AcDbEntity
  8
_0-1_PRO0
  6
CONTINUOUS
 62
     0
100
AcDbCircle
 10
1012.904236264
 20
678.2597339351
 40
1.5
100
AcDbArc
 50
87
 51
267
  0
LINE
  5
22C
100
AcDbEntity
  8
_0-1_PRO0
  6
CONTINUOUS
 62
     0
100
AcDbLine
 10
171.8563152636
 20
763.8167639351
 11
1071.856315264
 21
763.8167639351
  0
ARC
  5
22D
100
AcDbEntity
  8
_0-1_PRO0
  6
CONTINUOUS
 62
     0
100
AcDbCircle
 10
230.8083942636
 20
678.2597339351
 40
1.5
100
AcDbArc
 50
-87
 51
93
  0
ARC
  5
22E
100
AcDbEntity
  8
_0-1_PRO0
  6
CONTINUOUS
 62
     0
100
AcDbCircle
 10
188.7467082636
 20
674.5533149351
 40
3
100
AcDbArc
 50
93
 51
168
  0
LINE
  5
22F
100
AcDbEntity
  8
_0-1_PRO0
  6
CONTINUOUS
 62
     0
100
AcDbLine
 10
201.0913872636
 20
700.7352689351
 11
202.5567942636
 21
672.7736429351
  0
LINE
  5
230
100
AcDbEntity
  8
_0-1_PRO0
  6
CONTINUOUS
 62
     0
100
AcDbLine
 10
201.1133112636
 20
681.2096579351
 11
201.6126252636
 21
681.2358239351
  0
ARC
  5
231
100
AcDbEntity
  8
_0-1_PRO0
  6
CONTINUOUS
 62
     0
100
AcDbCircle
 10
201.1394772636
 20
680.7103409351
 40
0.500001
100
AcDbArc
 50
93.00000000001
 51
183
  0
LINE
  5
232
100
AcDbEntity
  8
_0-1_PRO0
  6
CONTINUOUS
 62
     0
100
AcDbLine
 10
200.7448362636
 20
678.6869159351
 11
200.6401632636
 21
680.6841749351
  0
ARC
  5
233
100
AcDbEntity
  8
_0-1_PRO0
  6
CONTINUOUS
 62
     0
100
AcDbCircle
 10
200.2455192636
 20
678.6607469351
 40
0.500001
100
AcDbArc
 50
-86.99999999999
 51
3.000000000006
  0
LINE
  5
234
100
AcDbEntity
  8
_0-1_PRO0
  6
CONTINUOUS
 62
     0
100
AcDbLine
 10
200.2716882636
 20
678.1614329351
 11
188.5897002636
 21
677.5492049351
  0
ARC
  5
235
100
AcDbEntity
  8
_0-1_PRO0
  6
CONTINUOUS
 62
     0
100
AcDbCircle
 10
201.6387912636
 20
680.7365099351
 40
0.500001
100
AcDbArc
 50
3.000000000006
 51
93.00000000001
  0
LINE
  5
236
100
AcDbEntity
  8
_0-1_PRO0
  6
CONTINUOUS
 62
     0
100
AcDbLine
 10
210.9876402636
 20
702.9767699351
 11
211.0776822636
 21
701.2586279351
  0
LINE
  5
237
100
AcDbEntity
  8
_0-1_PRO0
  6
CONTINUOUS
 62
     0
100
AcDbLine
 10
201.0013452636
 20
702.4534109351
 11
201.0913872636
 21
700.7352689351
  0
LINE
  5
238
100
AcDbEntity
  8
_0-1_PRO0
  6
CONTINUOUS
 62
     0
100
AcDbLine
 10
178.2875082636
 20
618.0074519351
 11
173.8563162636
 21
618.7913999351
  0
LINE
  5
239
100
AcDbEntity
  8
_0-1_PRO0
  6
CONTINUOUS
 62
     0
100
AcDbLine
 10
188.5871712636
 20
673.8027569351
 11
178.7521662636
 21
627.5326859351
  0
LINE
  5
23A
100
AcDbEntity
  8
_0-1_PRO0
  6
CONTINUOUS
 62
     0
100
AcDbLine
 10
185.8122672636
 20
675.1770509351
 11
173.8563162636
 21
618.9287279351
  0
ARC
  5
23B
100
AcDbEntity
  8
_0-1_PRO0
  6
CONTINUOUS
 62
     0
100
AcDbCircle
 10
192.2911722636
 20
671.4904649351
 40
0.6
100
AcDbArc
 50
-167
 51
13.00000000001
  0
ARC
  5
23C
100
AcDbEntity
  8
_0-1_PRO0
  6
CONTINUOUS
 62
     0
100
AcDbCircle
 10
189.5653212636
 20
673.5948449351
 40
0.999999
100
AcDbArc
 50
93
 51
168
  0
LINE
  5
23D
100
AcDbEntity
  8
_0-1_PRO0
  6
CONTINUOUS
 62
     0
100
AcDbLine
 10
190.9983432636
 20
674.4230729351
 11
191.7065502636
 21
671.3554949351
  0
ARC
  5
23E
100
AcDbEntity
  8
_0-1_PRO0
  6
CONTINUOUS
 62
     0
100
AcDbCircle
 10
190.7060322636
 20
674.3555879351
 40
0.3
100
AcDbArc
 50
13
 51
93.00000000002
  0
LINE
  5
23F
100
AcDbEntity
  8
_0-1_PRO0
  6
CONTINUOUS
 62
     0
100
AcDbLine
 10
190.6903302636
 20
674.6551769351
 11
189.5129832636
 21
674.5934759351
  0
LINE
  5
240
100
AcDbEntity
  8
_0-1_PRO0
  6
CONTINUOUS
 62
     0
100
AcDbLine
 10
192.2926002636
 20
674.1515189351
 11
192.8757942636
 21
671.6254349351
  0
ARC
  5
241
100
AcDbEntity
  8
_0-1_PRO0
  6
CONTINUOUS
 62
     0
100
AcDbCircle
 10
192.7797852636
 20
674.2639949351
 40
0.500001
100
AcDbArc
 50
93.00000000001
 51
193
  0
LINE
  5
242
100
AcDbEntity
  8
_0-1_PRO0
  6
CONTINUOUS
 62
     0
100
AcDbLine
 10
192.7536192636
 20
674.7633089351
 11
200.4286962636
 21
675.1655429351
  0
ARC
  5
243
100
AcDbEntity
  8
_0-1_PRO0
  6
CONTINUOUS
 62
     0
100
AcDbCircle
 10
201.5058282636
 20
673.7199359351
 40
0.500001
100
AcDbArc
 50
-177
 51
-86.99999999999
  0
ARC
  5
244
100
AcDbEntity
  8
_0-1_PRO0
  6
CONTINUOUS
 62
     0
100
AcDbCircle
 10
202.0051452636
 20
673.7461019351
 40
0.500001
100
AcDbArc
 50
-86.99999999999
 51
3.000000000006
  0
LINE
  5
245
100
AcDbEntity
  8
_0-1_PRO0
  6
CONTINUOUS
 62
     0
100
AcDbLine
 10
201.5319972636
 20
673.2206189351
 11
202.0313112636
 21
673.2467879351
  0
LINE
  5
246
100
AcDbEntity
  8
_0-1_PRO0
  6
CONTINUOUS
 62
     0
100
AcDbLine
 10
200.9541792636
 20
674.6923979351
 11
201.0065142636
 21
673.6937669351
  0
ARC
  5
247
100
AcDbEntity
  8
_0-1_PRO0
  6
CONTINUOUS
 62
     0
100
AcDbCircle
 10
200.4548652636
 20
674.6662289351
 40
0.500001
100
AcDbArc
 50
3.000000000006
 51
93.00000000001
  0
ARC
  5
248
100
AcDbEntity
  8
_0-1_PRO0
  6
CONTINUOUS
 62
     0
100
AcDbCircle
 10
179.2412382636
 20
627.4287299351
 40
0.500001
100
AcDbArc
 50
168
 51
270
  0
LINE
  5
249
100
AcDbEntity
  8
_0-1_PRO0
  6
CONTINUOUS
 62
     0
100
AcDbLine
 10
179.2412382636
 20
626.9287289351
 11
183.6237912636
 21
626.9287289351
  0
ARC
  5
24A
100
AcDbEntity
  8
_0-1_PRO0
  6
CONTINUOUS
 62
     0
100
AcDbCircle
 10
188.0237892636
 20
626.3287289351
 40
0.6
100
AcDbArc
 50
-90
 51
90
  0
LINE
  5
24B
100
AcDbEntity
  8
_0-1_PRO0
  6
CONTINUOUS
 62
     0
100
AcDbLine
 10
185.6237892636
 20
626.9287289351
 11
183.6237912636
 21
627.9287279351
  0
LINE
  5
24C
100
AcDbEntity
  8
_0-1_PRO0
  6
CONTINUOUS
 62
     0
100
AcDbLine
 10
183.6237912636
 20
627.9287279351
 11
183.6237912636
 21
626.9287289351
  0
LINE
  5
24D
100
AcDbEntity
  8
_0-1_PRO0
  6
CONTINUOUS
 62
     0
100
AcDbLine
 10
188.0237892636
 20
626.9287289351
 11
185.6237892636
 21
626.9287289351
  0
ARC
  5
24E
100
AcDbEntity
  8
_0-1_PRO0
  6
CONTINUOUS
 62
     0
100
AcDbCircle
 10
176.3563152636
 20
617.4287279351
 40
2.499999
100
AcDbArc
 50
180
 51
270
  0
LINE
  5
24F
100
AcDbEntity
  8
_0-1_PRO0
  6
CONTINUOUS
 62
     0
100
AcDbLine
 10
176.3563152636
 20
614.9287289351
 11
176.8563162636
 21
614.9287289351
  0
LINE
  5
250
100
AcDbEntity
  8
_0-1_PRO0
  6
CONTINUOUS
 62
     0
100
AcDbLine
 10
176.8563162636
 20
618.6134159351
 11
176.8563162636
 21
614.9287289351
  0
LINE
  5
251
100
AcDbEntity
  8
_0-1_PRO0
  6
CONTINUOUS
 62
     0
100
AcDbLine
 10
178.2845412636
 20
625.3326839351
 11
176.8563162636
 21
618.6134159351
  0
ARC
  5
252
100
AcDbEntity
  8
_0-1_PRO0
  6
CONTINUOUS
 62
     0
100
AcDbCircle
 10
178.7736132636
 20
625.2287279351
 40
0.500001
100
AcDbArc
 50
90
 51
168
  0
LINE
  5
253
100
AcDbEntity
  8
_0-1_PRO0
  6
CONTINUOUS
 62
     0
100
AcDbLine
 10
178.7736132636
 20
625.7287289351
 11
188.0237892636
 21
625.7287289351
  0
ARC
  5
254
100
AcDbEntity
  8
_0-1_PRO0
  6
CONTINUOUS
 62
     0
100
AcDbCircle
 10
195.0174762636
 20
694.6295159351
 40
3
100
AcDbArc
 50
93
 51
169.875328
  0
LINE
  5
255
100
AcDbEntity
  8
_0-1_PRO0
  6
CONTINUOUS
 62
     0
100
AcDbLine
 10
192.0641952636
 20
695.1568889351
 11
178.2875082636
 21
618.0074519351
  0
ARC
  5
256
100
AcDbEntity
  8
_0-1_PRO0
  6
CONTINUOUS
 62
     0
100
AcDbCircle
 10
174.8563152636
 20
700.0818359351
 40
0.999999
100
AcDbArc
 50
93
 51
180
  0
LINE
  5
257
100
AcDbEntity
  8
_0-1_PRO0
  6
CONTINUOUS
 62
     0
100
AcDbLine
 10
173.8563162636
 20
700.0818359351
 11
173.8563162636
 21
615.9287279351
  0
LINE
  5
258
100
AcDbEntity
  8
_0-1_PRO0
  6
CONTINUOUS
 62
     0
100
AcDbLine
 10
187.6342722636
 20
695.9479469351
 11
173.8563162636
 21
618.7913999351
  0
LINE
  5
259
100
AcDbEntity
  8
_0-1_PRO0
  6
CONTINUOUS
 62
     0
100
AcDbLine
 10
171.8563152636
 20
700.0818359351
 11
171.8563152636
 21
615.9287279351
  0
ARC
  5
25A
100
AcDbEntity
  8
_0-1_PRO0
  6
CONTINUOUS
 62
     0
100
AcDbCircle
 10
174.8563152636
 20
700.0818359351
 40
3
100
AcDbArc
 50
93
 51
180
  0
LINE
  5
25B
100
AcDbEntity
  8
_0-1_PRO0
  6
CONTINUOUS
 62
     0
100
AcDbLine
 10
174.8563152636
 20
612.9287279351
 11
181.8563172636
 21
612.9287279351
  0
ARC
  5
25C
100
AcDbEntity
  8
_0-1_PRO0
  6
CONTINUOUS
 62
     0
100
AcDbCircle
 10
174.8563152636
 20
615.9287279351
 40
3
100
AcDbArc
 50
180
 51
270
  0
LINE
  5
25D
100
AcDbEntity
  8
_0-1_PRO0
  6
CONTINUOUS
 62
     0
100
AcDbLine
 10
174.8563152636
 20
614.9287289351
 11
181.8563172636
 21
614.9287289351
  0
ARC
  5
25E
100
AcDbEntity
  8
_0-1_PRO0
  6
CONTINUOUS
 62
     0
100
AcDbCircle
 10
174.8563152636
 20
615.9287279351
 40
0.999999
100
AcDbArc
 50
180
 51
270
  0
LINE
  5
25F
100
AcDbEntity
  8
_0-1_PRO0
  6
CONTINUOUS
 62
     0
100
AcDbLine
 10
210.7844052636
 20
702.9661199351
 11
210.9994692636
 21
702.7510559351
  0
LINE
  5
260
100
AcDbEntity
  8
_0-1_PRO0
  6
CONTINUOUS
 62
     0
100
AcDbLine
 10
209.4298662636
 20
702.8951309351
 11
211.0669332636
 21
701.2580639351
  0
LINE
  5
261
100
AcDbEntity
  8
_0-1_PRO0
  6
CONTINUOUS
 62
     0
100
AcDbLine
 10
201.6711642636
 20
700.7656529351
 11
201.0576432636
 21
701.3791739351
  0
LINE
  5
262
100
AcDbEntity
  8
_0-1_PRO0
  6
CONTINUOUS
 62
     0
100
AcDbLine
 10
201.3778872636
 20
702.4731449351
 11
203.0149512636
 21
700.8360779351
  0
LINE
  5
263
100
AcDbEntity
  8
_0-1_PRO0
  6
CONTINUOUS
 62
     0
100
AcDbLine
 10
202.7216742636
 20
702.5435699351
 11
204.3587412636
 21
700.9065029351
  0
LINE
  5
264
100
AcDbEntity
  8
_0-1_PRO0
  6
CONTINUOUS
 62
     0
100
AcDbLine
 10
204.0654642636
 20
702.6139949351
 11
205.7025282636
 21
700.9769279351
  0
LINE
  5
265
100
AcDbEntity
  8
_0-1_PRO0
  6
CONTINUOUS
 62
     0
100
AcDbLine
 10
205.4092512636
 20
702.6844199351
 11
207.0463182636
 21
701.0473529351
  0
LINE
  5
266
100
AcDbEntity
  8
_0-1_PRO0
  6
CONTINUOUS
 62
     0
100
AcDbLine
 10
206.7530412636
 20
702.7548449351
 11
208.3901052636
 21
701.1177779351
  0
LINE
  5
267
100
AcDbEntity
  8
_0-1_PRO0
  6
CONTINUOUS
 62
     0
100
AcDbLine
 10
208.0968282636
 20
702.8252699351
 11
209.7338952636
 21
701.1882029351
  0
ARC
  5
268
100
AcDbEntity
  8
_0-1_PRO0
  6
CONTINUOUS
 62
     0
100
AcDbCircle
 10
195.0174762636
 20
694.6295159351
 40
7.5
100
AcDbArc
 50
93
 51
169.875328
  0
LINE
  5
269
100
AcDbEntity
  8
_0-1_PRO0
  6
CONTINUOUS
 62
     0
100
AcDbLine
 10
181.8563172636
 20
614.9287289351
 11
181.8563172636
 21
612.9287279351
  0
LINE
  5
26A
100
AcDbEntity
  8
_0-1_PRO0
  6
CONTINUOUS
 62
     0
100
AcDbLine
 10
174.6993072636
 20
703.0777229351
 11
621.8563152636
 21
726.5122312496
  0
LINE
  5
26B
100
AcDbEntity
  8
_0-1_PRO0
  6
CONTINUOUS
 62
     0
100
AcDbLine
 10
202.5567942636
 20
672.7736429351
 11
621.8563152636
 21
694.7481982496
  0
LINE
  5
26C
100
AcDbEntity
  8
_0-1_PRO0
  6
CONTINUOUS
 62
     0
100
AcDbLine
 10
202.5044592636
 20
673.7722709351
 11
621.8563152636
 21
695.7495712496
  0
LINE
  5
26D
100
AcDbEntity
  8
_0-1_PRO0
  6
CONTINUOUS
 62
     0
100
AcDbLine
 10
202.4259552636
 20
675.2702159351
 11
621.8563152636
 21
697.2516292496
  0
LINE
  5
26E
100
AcDbEntity
  8
_0-1_PRO0
  6
CONTINUOUS
 62
     0
100
AcDbLine
 10
202.2689472636
 20
678.2661029351
 11
621.8563152636
 21
700.2557482496
  0
LINE
  5
26F
100
AcDbEntity
  8
_0-1_PRO0
  6
CONTINUOUS
 62
     0
100
AcDbLine
 10
202.1747412636
 20
680.0636369351
 11
621.8563152636
 21
702.0582172496
  0
LINE
  5
270
100
AcDbEntity
  8
_0-1_PRO0
  6
CONTINUOUS
 62
     0
100
AcDbLine
 10
201.4054032636
 20
694.7434919351
 11
621.8563152636
 21
716.7783922496
  0
LINE
  5
271
100
AcDbEntity
  8
_0-1_PRO0
  6
CONTINUOUS
 62
     0
100
AcDbLine
 10
201.3268992636
 20
696.2414369351
 11
621.8563152636
 21
718.2804502496
  0
LINE
  5
272
100
AcDbEntity
  8
_0-1_PRO0
  6
CONTINUOUS
 62
     0
100
AcDbLine
 10
201.0913872636
 20
700.7352689351
 11
621.8563152636
 21
722.7866242496
  0
LINE
  5
273
100
AcDbEntity
  8
_0-1_PRO0
  6
CONTINUOUS
 62
     0
100
AcDbLine
 10
195.0622962636
 20
697.6359809351
 11
621.8824842636
 21
720.0046822496
  0
LINE
  5
274
100
AcDbEntity
  8
_0-1_PRO0
  6
CONTINUOUS
 62
     0
100
AcDbLine
 10
171.8563152636
 20
763.8167639351
 11
174.8563152636
 21
763.0667639351
  0
LINE
  5
275
100
AcDbEntity
  8
_0-1_PRO0
  6
CONTINUOUS
 62
     0
100
AcDbLine
 10
171.8563152636
 20
763.8167639351
 11
174.8563152636
 21
764.5667639351
  0
LINE
  5
276
100
AcDbEntity
  8
_0-1_PRO0
  6
CONTINUOUS
 62
     0
100
AcDbLine
 10
171.8563152636
 20
701.0818349351
 11
171.8563152636
 21
767.8167629351
  0
TEXT
  5
277
100
AcDbEntity
  8
_0-1_PRO0
  6
CONTINUOUS
 62
     0
100
AcDbText
 10
619.5680569745
 20
775.6511527416
 40
9
  1
Ｗ
  7
STANDARD
100
AcDbText
  0
TEXT
  5
278
100
AcDbEntity
  8
_0-1_PRO0
  6
CONTINUOUS
 62
     0
100
AcDbText
 10
589.8829128565
 20
765.4316768977
 40
9
  1
（キャップ幅）
  7
STANDARD
100
AcDbText
  0
TEXT
  5
279
100
AcDbEntity
  8
_0-1_PRO0
  6
CONTINUOUS
 62
     0
100
AcDbText
 10
1094.049051937
 20
629.7168102882
 40
9
  1
44
 50
90.000003
  7
STANDARD
100
AcDbText
  0
TEXT
  5
27A
100
AcDbEntity
  8
_0-1_PRO0
  6
CONTINUOUS
 62
     0
100
AcDbText
 10
1118.780650723
 20
644.8439046915
 40
9
  1
90
 50
90.000003
  7
STANDARD
100
AcDbText
  0
LINE
  5
27B
100
AcDbEntity
  8
_2-0_
  6
CONTINUOUS
 62
     0
100
AcDbLine
 10
1017.333965626
 20
326.5028453541
 11
814.8339656255
 21
326.5028453541
  0
LINE
  5
27C
100
AcDbEntity
  8
_2-0_
  6
CONTINUOUS
 62
     0
100
AcDbLine
 10
1017.333965626
 20
290.5028453541
 11
814.8339656255
 21
290.5028453541
  0
LINE
  5
27D
100
AcDbEntity
  8
_2-0_
  6
CONTINUOUS
 62
     0
100
AcDbLine
 10
1017.333965626
 20
272.5028453541
 11
814.8339656255
 21
272.5028453541
  0
LINE
  5
27E
100
AcDbEntity
  8
_2-0_
  6
CONTINUOUS
 62
     0
100
AcDbLine
 10
1017.333965626
 20
254.5028453541
 11
814.8339656255
 21
254.5028453541
  0
LINE
  5
27F
100
AcDbEntity
  8
_2-0_
  6
CONTINUOUS
 62
     0
100
AcDbLine
 10
1017.333965626
 20
308.5028453541
 11
814.8339656255
 21
308.5028453541
  0
TEXT
  5
280
100
AcDbEntity
  8
_2-0_
  6
CONTINUOUS
 62
     0
100
AcDbText
 10
846.2089648755
 20
312.3778453541
 40
7.5
  1
タ　イ　プ
  7
STANDARD
100
AcDbText
  0
TEXT
  5
281
100
AcDbEntity
  8
_2-0_
  6
CONTINUOUS
 62
     0
100
AcDbText
 10
944.7089656255
 20
312.3778453541
 40
7.5
  1
Ｗ
 41
0.9986666666667
  7
STANDARD
100
AcDbText
  0
TEXT
  5
282
100
AcDbEntity
  8
_2-0_
  6
CONTINUOUS
 62
     0
100
AcDbText
 10
989.7089656255
 20
312.3778453541
 40
7.5
  1
Ｃ
 41
0.9986666666667
  7
STANDARD
100
AcDbText
  0
TEXT
  5
283
100
AcDbEntity
  8
_2-0_
  6
CONTINUOUS
 62
     0
100
AcDbText
 10
952.0839656255
 20
326.8645263858
 40
7.5
  1
（単位：mm）
  7
STANDARD
100
AcDbText
  0
LINE
  5
284
100
AcDbEntity
  8
_0-1_PRO0
  6
CONTINUOUS
 62
     0
100
AcDbLine
 10
621.8563152636
 20
724.5094847904
 11
174.8039802636
 21
701.0804639351
  0
LINE
  5
285
100
AcDbEntity
  8
_0-1_PRO0
  6
CONTINUOUS
 62
     0
100
AcDbLine
 10
1068.908650264
 20
701.0804639351
 11
621.8563152636
 21
724.5094847904
  0
LINE
  5
286
100
AcDbEntity
  8
_2-0_
  6
CONTINUOUS
 62
     0
100
AcDbLine
 10
525.2637326347
 20
554.6443170316
 11
497.6176301312
 21
657.8209762061
  0
LINE
  5
287
100
AcDbEntity
  8
_2-0_
  6
CONTINUOUS
 62
     0
100
AcDbLine
 10
718.4488978925
 20
554.6443170316
 11
746.0950003961
 21
657.8209762061
  0
ARC
  5
288
100
AcDbEntity
  8
_2-0_
  6
CONTINUOUS
 62
     0
100
AcDbCircle
 10
621.8563152636
 20
580.5262215419
 40
100
100
AcDbArc
 50
-165
 51
-15
  0
LINE
  5
289
100
AcDbEntity
  8
_2-0_
  6
CONTINUOUS
 62
     0
100
AcDbLine
 10
524.2978068084
 20
554.3854979865
 11
496.8563162636
 21
656.7985349351
  0
LINE
  5
28A
100
AcDbEntity
  8
_2-0_
  6
CONTINUOUS
 62
     0
100
AcDbLine
 10
719.4148237188
 20
554.3854979865
 11
746.8563142636
 21
656.7985349351
  0
ARC
  5
28B
100
AcDbEntity
  8
_2-0_
  6
CONTINUOUS
 62
     0
100
AcDbCircle
 10
621.8563152636
 20
580.5262215419
 40
101
100
AcDbArc
 50
-165
 51
-15
  0
LINE
  5
28C
100
AcDbEntity
  8
_0-1_PRO0
  6
CONTINUOUS
 62
     0
100
AcDbLine
 10
1071.856315264
 20
614.9287289351
 11
1071.856315264
 21
396.4930136137
  0
LINE
  5
28D
100
AcDbEntity
  8
_0-1_PRO0
  6
CONTINUOUS
 62
     0
100
AcDbLine
 10
1071.856315264
 20
400.4930126137
 11
1068.856315264
 21
399.7430126137
  0
LINE
  5
28E
100
AcDbEntity
  8
_0-1_PRO0
  6
CONTINUOUS
 62
     0
100
AcDbLine
 10
1071.856315264
 20
400.4930126137
 11
1068.856315264
 21
401.2430126137
  0
LINE
  5
28F
100
AcDbEntity
  8
_0-1_PRO0
  6
CONTINUOUS
 62
     0
100
AcDbLine
 10
171.8563152636
 20
400.4930126137
 11
174.8563152636
 21
399.7430126137
  0
LINE
  5
290
100
AcDbEntity
  8
_0-1_PRO0
  6
CONTINUOUS
 62
     0
100
AcDbLine
 10
171.8563152636
 20
400.4930126137
 11
174.8563152636
 21
401.2430126137
  0
LINE
  5
291
100
AcDbEntity
  8
_0-1_PRO0
  6
CONTINUOUS
 62
     0
100
AcDbLine
 10
171.8563152636
 20
614.9287289351
 11
171.8563152636
 21
396.4930136137
  0
LINE
  5
292
100
AcDbEntity
  8
_0-1_PRO0
  6
CONTINUOUS
 62
     0
100
AcDbLine
 10
621.8563152636
 20
738.7810822496
 11
621.8563152636
 21
390.515832846
  0
LINE
  5
293
100
AcDbEntity
  8
_0-1_PRO0
  6
CONTINUOUS
 62
     0
100
AcDbLine
 10
496.8563162636
 20
400.4930126137
 11
499.8563162636
 21
399.7430126137
  0
LINE
  5
294
100
AcDbEntity
  8
_0-1_PRO0
  6
CONTINUOUS
 62
     0
100
AcDbLine
 10
496.8563162636
 20
400.4930126137
 11
499.8563162636
 21
401.2430126137
  0
LINE
  5
295
100
AcDbEntity
  8
_0-1_PRO0
  6
CONTINUOUS
 62
     0
100
AcDbLine
 10
496.8563162636
 20
400.4930126137
 11
493.8563162636
 21
401.2430126137
  0
LINE
  5
296
100
AcDbEntity
  8
_0-1_PRO0
  6
CONTINUOUS
 62
     0
100
AcDbLine
 10
496.8563162636
 20
400.4930126137
 11
493.8563162636
 21
399.7430126137
  0
LINE
  5
297
100
AcDbEntity
  8
_0-1_PRO0
  6
CONTINUOUS
 62
     0
100
AcDbLine
 10
746.8563142636
 20
400.4930126137
 11
743.8563142636
 21
399.7430126137
  0
LINE
  5
298
100
AcDbEntity
  8
_0-1_PRO0
  6
CONTINUOUS
 62
     0
100
AcDbLine
 10
746.8563142636
 20
400.4930126137
 11
743.8563142636
 21
401.2430126137
  0
LINE
  5
299
100
AcDbEntity
  8
_0-1_PRO0
  6
CONTINUOUS
 62
     0
100
AcDbLine
 10
746.8563142636
 20
400.4930126137
 11
749.8563142636
 21
401.2430126137
  0
LINE
  5
29A
100
AcDbEntity
  8
_0-1_PRO0
  6
CONTINUOUS
 62
     0
100
AcDbLine
 10
746.8563142636
 20
400.4930126137
 11
749.8563142636
 21
399.7430126137
  0
LINE
  5
29B
100
AcDbEntity
  8
_0-1_PRO0
  6
CONTINUOUS
 62
     0
100
AcDbLine
 10
496.8563162636
 20
400.4930126137
 11
746.8563142636
 21
400.4930126137
  0
TEXT
  5
29C
100
AcDbEntity
  8
_0-1_PRO0
  6
CONTINUOUS
 62
     0
100
AcDbText
 10
615.8590587454
 20
401.3669495328
 40
9
  1
250
  7
STANDARD
100
AcDbText
  0
CIRCLE
  5
29D
100
AcDbEntity
  8
_0-1_PRO0
  6
CONTINUOUS
 62
     0
100
AcDbCircle
 10
872.1867942636
 20
679.5154109351
 40
0.9
  0
LINE
  5
29E
100
AcDbEntity
  8
_0-1_PRO0
  6
CONTINUOUS
 62
     0
100
AcDbLine
 10
871.8313932636
 20
636.4323569351
 11
858.1509462636
 21
612.7371299351
  0
CIRCLE
  5
29F
100
AcDbEntity
  8
_0-1_PRO0
  6
CONTINUOUS
 62
     0
100
AcDbCircle
 10
855.1509462636
 20
607.5409769351
 40
6
  0
CIRCLE
  5
2A0
100
AcDbEntity
  8
_0-1_PRO0
  6
CONTINUOUS
 62
     0
100
AcDbCircle
 10
871.8313932636
 20
636.4323569351
 40
0.9
  0
LINE
  5
2A1
100
AcDbEntity
  8
_0-1_PRO0
  6
CONTINUOUS
 62
     0
100
AcDbLine
 10
922.8563142636
 20
656.7985349351
 11
1097.960407264
 21
656.7985349351
  0
LINE
  5
2A2
100
AcDbEntity
  8
_0-1_PRO0
  6
CONTINUOUS
 62
     0
100
AcDbLine
 10
865.2312852636
 20
618.5365379351
 11
869.4167172636
 21
617.7985349351
  0
LINE
  5
2A3
100
AcDbEntity
  8
_0-1_PRO0
  6
CONTINUOUS
 62
     0
100
AcDbLine
 10
871.8563142636
 20
611.3651339351
 11
871.8563142636
 21
656.7985349351
  0
ARC
  5
2A4
100
AcDbEntity
  8
_1-0_
  6
CONTINUOUS
 62
     0
100
AcDbCircle
 10
875.3563152636
 20
617.2985339351
 40
0.999999
100
AcDbArc
 50
-90
 51
0
  0
LINE
  5
2A5
100
AcDbEntity
  8
_1-0_
  6
CONTINUOUS
 62
     0
100
AcDbLine
 10
878.4813462636
 20
618.5365379351
 11
874.2959112636
 21
617.7985349351
  0
LINE
  5
2A6
100
AcDbEntity
  8
_1-0_
  6
CONTINUOUS
 62
     0
100
AcDbLine
 10
875.9063142636
 20
648.4985339351
 11
867.8063142636
 21
648.4985339351
  0
LINE
  5
2A7
100
AcDbEntity
  8
_1-0_
  6
CONTINUOUS
 62
     0
100
AcDbLine
 10
876.6063162636
 20
647.7985349351
 11
867.1063152636
 21
647.7985349351
  0
LINE
  5
2A8
100
AcDbEntity
  8
_1-0_
  6
CONTINUOUS
 62
     0
100
AcDbLine
 10
865.2312852636
 20
618.5365379351
 11
867.1063152636
 21
629.1703619351
  0
LINE
  5
2A9
100
AcDbEntity
  8
_1-0_
  6
CONTINUOUS
 62
     0
100
AcDbLine
 10
871.3563162636
 20
628.7985329351
 11
869.4167172636
 21
617.7985349351
  0
LINE
  5
2AA
100
AcDbEntity
  8
_1-0_
  6
CONTINUOUS
 62
     0
100
AcDbLine
 10
872.3563152636
 20
628.7985329351
 11
874.2959112636
 21
617.7985349351
  0
LINE
  5
2AB
100
AcDbEntity
  8
_1-0_
  6
CONTINUOUS
 62
     0
100
AcDbLine
 10
865.2312852636
 20
618.5365379351
 11
869.4167172636
 21
617.7985349351
  0
LINE
  5
2AC
100
AcDbEntity
  8
_1-0_
  6
CONTINUOUS
 62
     0
100
AcDbLine
 10
867.3563142636
 20
617.2985339351
 11
867.3563142636
 21
618.1618379351
  0
ARC
  5
2AD
100
AcDbEntity
  8
_1-0_
  6
CONTINUOUS
 62
     0
100
AcDbCircle
 10
868.3563162636
 20
617.2985339351
 40
0.999999
100
AcDbArc
 50
180
 51
270
  0
LINE
  5
2AE
100
AcDbEntity
  8
_1-0_
  6
CONTINUOUS
 62
     0
100
AcDbLine
 10
868.3563162636
 20
616.2985349351
 11
875.3563152636
 21
616.2985349351
  0
LINE
  5
2AF
100
AcDbEntity
  8
_1-0_
  6
CONTINUOUS
 62
     0
100
AcDbLine
 10
867.1063152636
 20
629.1703619351
 11
867.1063152636
 21
647.7985349351
  0
LINE
  5
2B0
100
AcDbEntity
  8
_1-0_
  6
CONTINUOUS
 62
     0
100
AcDbLine
 10
867.8063142636
 20
657.7985339351
 11
867.8063142636
 21
648.4985339351
  0
LINE
  5
2B1
100
AcDbEntity
  8
_1-0_
  6
CONTINUOUS
 62
     0
100
AcDbLine
 10
867.1063152636
 20
647.7985349351
 11
867.8063142636
 21
648.4985339351
  0
LINE
  5
2B2
100
AcDbEntity
  8
_1-0_
  6
CONTINUOUS
 62
     0
100
AcDbLine
 10
872.3563152636
 20
628.7985329351
 11
871.3563162636
 21
628.7985329351
  0
LINE
  5
2B3
100
AcDbEntity
  8
_1-0_
  6
CONTINUOUS
 62
     0
100
AcDbLine
 10
878.4813462636
 20
618.5365379351
 11
876.6063162636
 21
629.1703619351
  0
LINE
  5
2B4
100
AcDbEntity
  8
_1-0_
  6
CONTINUOUS
 62
     0
100
AcDbLine
 10
876.3563142636
 20
617.2985339351
 11
876.3563142636
 21
618.1618379351
  0
LINE
  5
2B5
100
AcDbEntity
  8
_1-0_
  6
CONTINUOUS
 62
     0
100
AcDbLine
 10
876.6063162636
 20
629.1703619351
 11
876.6063162636
 21
647.7985349351
  0
LINE
  5
2B6
100
AcDbEntity
  8
_1-0_
  6
CONTINUOUS
 62
     0
100
AcDbLine
 10
875.9063142636
 20
657.7985339351
 11
875.9063142636
 21
648.4985339351
  0
LINE
  5
2B7
100
AcDbEntity
  8
_1-0_
  6
CONTINUOUS
 62
     0
100
AcDbLine
 10
876.6063162636
 20
647.7985349351
 11
875.9063142636
 21
648.4985339351
  0
LINE
  5
2B8
100
AcDbEntity
  8
_1-0_
  6
CONTINUOUS
 62
     0
100
AcDbLine
 10
871.8563142636
 20
611.3651339351
 11
871.8563142636
 21
656.7985349351
  0
LINE
  5
2B9
100
AcDbEntity
  8
_0-1_PRO0
  6
CONTINUOUS
 62
     0
100
AcDbLine
 10
872.1867942636
 20
679.5154109351
 11
898.9163850642
 21
728.757873448
  0
CIRCLE
  5
2BA
100
AcDbEntity
  8
_0-1_PRO0
  6
CONTINUOUS
 62
     0
100
AcDbCircle
 10
901.9163850642
 20
733.954026448
 40
6
  0
CIRCLE
  5
2BB
100
AcDbEntity
  8
_0-1_PRO0
  6
CONTINUOUS
 62
     0
100
AcDbCircle
 10
918.2714721238
 20
740.2062642154
 40
6
  0
LINE
  5
2BC
100
AcDbEntity
  8
_0-1_PRO0
  6
CONTINUOUS
 62
     0
100
AcDbLine
 10
891.3610221238
 20
693.5959992154
 11
915.2714721238
 21
735.0101112154
  0
CIRCLE
  5
2BD
100
AcDbEntity
  8
_0-1_PRO0
  6
CONTINUOUS
 62
     0
100
AcDbCircle
 10
891.3610221238
 20
693.5959992154
 40
0.9
  0
LINE
  5
2BE
100
AcDbEntity
  8
_0-1_PRO0
  6
CONTINUOUS
 62
     0
100
AcDbLine
 10
889.370205978
 20
661.5299269351
 11
919.368732978
 21
713.4889009351
  0
CIRCLE
  5
2BF
100
AcDbEntity
  8
_0-1_PRO0
  6
CONTINUOUS
 62
     0
100
AcDbCircle
 10
922.368732978
 20
718.6850509351
 40
6
  0
CIRCLE
  5
2C0
100
AcDbEntity
  8
_0-1_PRO0
  6
CONTINUOUS
 62
     0
100
AcDbCircle
 10
889.370205978
 20
661.5299269351
 40
0.9
  0
LINE
  5
2C1
100
AcDbEntity
  8
_0-1_PRO0
  6
CONTINUOUS
 62
     0
100
AcDbLine
 10
876.516966978
 20
664.5407899351
 11
888.128517978
 21
644.4289909351
  0
CIRCLE
  5
2C2
100
AcDbEntity
  8
_0-1_PRO0
  6
CONTINUOUS
 62
     0
100
AcDbCircle
 10
891.128517978
 20
639.2328379351
 40
6
  0
CIRCLE
  5
2C3
100
AcDbEntity
  8
_0-1_PRO0
  6
CONTINUOUS
 62
     0
100
AcDbCircle
 10
876.516966978
 20
664.5407899351
 40
0.9
  0
LINE
  5
2C4
100
AcDbEntity
  8
_0-1_PRO0
  6
CONTINUOUS
 62
     0
100
AcDbLine
 10
867.334434978
 20
662.0771839351
 11
854.688435978
 21
640.1736709351
  0
CIRCLE
  5
2C5
100
AcDbEntity
  8
_0-1_PRO0
  6
CONTINUOUS
 62
     0
100
AcDbCircle
 10
851.688435978
 20
634.9775209351
 40
6
  0
CIRCLE
  5
2C6
100
AcDbEntity
  8
_0-1_PRO0
  6
CONTINUOUS
 62
     0
100
AcDbCircle
 10
867.334434978
 20
662.0771839351
 40
0.9
  0
CIRCLE
  5
2C7
100
AcDbEntity
  8
_0-1_PRO0
  6
CONTINUOUS
 62
     0
100
AcDbCircle
 10
861.2443817248
 20
667.3123114288
 40
0.9
  0
CIRCLE
  5
2C8
100
AcDbEntity
  8
_0-1_PRO0
  6
CONTINUOUS
 62
     0
100
AcDbCircle
 10
839.9898407248
 20
725.7086794288
 40
6
  0
LINE
  5
2C9
100
AcDbEntity
  8
_0-1_PRO0
  6
CONTINUOUS
 62
     0
100
AcDbLine
 10
861.2443817248
 20
667.3123114288
 11
842.0419607248
 21
720.0705244288
  0
LINE
  5
2CA
100
AcDbEntity
  8
_1-0_
  6
CONTINUOUS
 62
     0
100
AcDbLine
 10
867.0918825492
 20
673.3764979351
 11
876.2792745492
 21
672.8950069351
  0
LINE
  5
2CB
100
AcDbEntity
  8
_2-0_
  6
CONTINUOUS
 62
     0
100
AcDbLine
 10
856.8739875492
 20
657.3725574068
 11
857.2999650775
 21
657.7985349351
  0
ARC
  5
2CC
100
AcDbEntity
  8
_2-0_
  6
CONTINUOUS
 62
     0
100
AcDbCircle
 10
856.8739875492
 20
649.5485349351
 40
8.25
100
AcDbArc
 50
90
 51
108.9246444161
  0
ARC
  5
2CD
100
AcDbEntity
  8
_2-0_
  6
CONTINUOUS
 62
     0
100
AcDbCircle
 10
856.8739875492
 20
649.5485349351
 40
9.25
100
AcDbArc
 50
90
 51
108.9246444161
  0
ARC
  5
2CE
100
AcDbEntity
  8
_2-0_
  6
CONTINUOUS
 62
     0
100
AcDbCircle
 10
850.8739875492
 20
667.0485349351
 40
9.25
100
AcDbArc
 50
-90
 51
-71.07535558395
  0
LINE
  5
2CF
100
AcDbEntity
  8
_2-0_
  6
CONTINUOUS
 62
     0
100
AcDbLine
 10
857.7141786399
 20
656.7985349351
 11
858.7141786399
 21
657.7985349351
  0
LINE
  5
2D0
100
AcDbEntity
  8
_2-0_
  6
CONTINUOUS
 62
     0
100
AcDbLine
 10
859.1283922023
 20
656.7985349351
 11
860.1283922023
 21
657.7985349351
  0
LINE
  5
2D1
100
AcDbEntity
  8
_2-0_
  6
CONTINUOUS
 62
     0
100
AcDbLine
 10
860.5426057646
 20
656.7985349351
 11
861.5426057646
 21
657.7985349351
  0
LINE
  5
2D2
100
AcDbEntity
  8
_2-0_
  6
CONTINUOUS
 62
     0
100
AcDbLine
 10
861.956819327
 20
656.7985349351
 11
862.956819327
 21
657.7985349351
  0
LINE
  5
2D3
100
AcDbEntity
  8
_2-0_
  6
CONTINUOUS
 62
     0
100
AcDbLine
 10
863.3710328894
 20
656.7985349351
 11
864.3710328894
 21
657.7985349351
  0
LINE
  5
2D4
100
AcDbEntity
  8
_2-0_
  6
CONTINUOUS
 62
     0
100
AcDbLine
 10
864.7852464518
 20
656.7985349351
 11
865.7852464518
 21
657.7985349351
  0
LINE
  5
2D5
100
AcDbEntity
  8
_2-0_
  6
CONTINUOUS
 62
     0
100
AcDbLine
 10
866.1994600141
 20
656.7985349351
 11
867.1994600141
 21
657.7985349351
  0
LINE
  5
2D6
100
AcDbEntity
  8
_2-0_
  6
CONTINUOUS
 62
     0
100
AcDbLine
 10
867.6136735765
 20
656.7985349351
 11
868.6136735765
 21
657.7985349351
  0
LINE
  5
2D7
100
AcDbEntity
  8
_2-0_
  6
CONTINUOUS
 62
     0
100
AcDbLine
 10
869.0278871389
 20
656.7985349351
 11
870.0278871389
 21
657.7985349351
  0
LINE
  5
2D8
100
AcDbEntity
  8
_2-0_
  6
CONTINUOUS
 62
     0
100
AcDbLine
 10
870.4421007013
 20
656.7985349351
 11
871.4421007013
 21
657.7985349351
  0
LINE
  5
2D9
100
AcDbEntity
  8
_2-0_
  6
CONTINUOUS
 62
     0
100
AcDbLine
 10
871.8563142636
 20
656.7985349351
 11
872.8563142636
 21
657.7985349351
  0
LINE
  5
2DA
100
AcDbEntity
  8
_2-0_
  6
CONTINUOUS
 62
     0
100
AcDbLine
 10
873.270527826
 20
656.7985349351
 11
874.270527826
 21
657.7985349351
  0
LINE
  5
2DB
100
AcDbEntity
  8
_2-0_
  6
CONTINUOUS
 62
     0
100
AcDbLine
 10
874.6847413884
 20
656.7985349351
 11
875.6847413884
 21
657.7985349351
  0
LINE
  5
2DC
100
AcDbEntity
  8
_2-0_
  6
CONTINUOUS
 62
     0
100
AcDbLine
 10
876.0989549508
 20
656.7985349351
 11
877.0989549508
 21
657.7985349351
  0
LINE
  5
2DD
100
AcDbEntity
  8
_2-0_
  6
CONTINUOUS
 62
     0
100
AcDbLine
 10
877.5131685131
 20
656.7985349351
 11
878.5131685131
 21
657.7985349351
  0
LINE
  5
2DE
100
AcDbEntity
  8
_2-0_
  6
CONTINUOUS
 62
     0
100
AcDbLine
 10
878.9273820755
 20
656.7985349351
 11
879.9273820755
 21
657.7985349351
  0
LINE
  5
2DF
100
AcDbEntity
  8
_2-0_
  6
CONTINUOUS
 62
     0
100
AcDbLine
 10
880.3415956379
 20
656.7985349351
 11
881.3415956379
 21
657.7985349351
  0
LINE
  5
2E0
100
AcDbEntity
  8
_2-0_
  6
CONTINUOUS
 62
     0
100
AcDbLine
 10
881.7558092002
 20
656.7985349351
 11
882.7558092002
 21
657.7985349351
  0
LINE
  5
2E1
100
AcDbEntity
  8
_2-0_
  6
CONTINUOUS
 62
     0
100
AcDbLine
 10
883.1700227626
 20
656.7985349351
 11
884.1700227626
 21
657.7985349351
  0
LINE
  5
2E2
100
AcDbEntity
  8
_2-0_
  6
CONTINUOUS
 62
     0
100
AcDbLine
 10
884.584236325
 20
656.7985349351
 11
885.584236325
 21
657.7985349351
  0
LINE
  5
2E3
100
AcDbEntity
  8
_2-0_
  6
CONTINUOUS
 62
     0
100
AcDbLine
 10
885.9984498874
 20
656.7985349351
 11
886.8739875492
 21
657.674072597
  0
LINE
  5
2E4
100
AcDbEntity
  8
_2-0_
  6
CONTINUOUS
 62
     0
100
AcDbLine
 10
886.8739875492
 20
656.7985349351
 11
856.8739875492
 21
656.7985349351
  0
LINE
  5
2E5
100
AcDbEntity
  8
_2-0_
  6
CONTINUOUS
 62
     0
100
AcDbLine
 10
856.8739875492
 20
656.7985349351
 11
856.8739875492
 21
657.7985349351
  0
LINE
  5
2E6
100
AcDbEntity
  8
_2-0_
  6
CONTINUOUS
 62
     0
100
AcDbLine
 10
856.8739875492
 20
657.7985349351
 11
886.8739875492
 21
657.7985349351
  0
LINE
  5
2E7
100
AcDbEntity
  8
_2-0_
  6
CONTINUOUS
 62
     0
100
AcDbLine
 10
886.8739875492
 20
657.7985349351
 11
886.8739875492
 21
656.7985349351
  0
ARC
  5
2E8
100
AcDbEntity
  8
_2-0_
  6
CONTINUOUS
 62
     0
100
AcDbCircle
 10
850.8739875492
 20
667.0485349351
 40
10.25
100
AcDbArc
 50
-90
 51
-71.07535558395
  0
LINE
  5
2E9
100
AcDbEntity
  8
_1-0_
  6
CONTINUOUS
 62
     0
100
AcDbLine
 10
880.8739875492
 20
662.9073049351
 11
880.8739875492
 21
661.3073059351
  0
LINE
  5
2EA
100
AcDbEntity
  8
_1-0_
  6
CONTINUOUS
 62
     0
100
AcDbLine
 10
880.8739875492
 20
662.9073049351
 11
862.8739875492
 21
662.9073049351
  0
LINE
  5
2EB
100
AcDbEntity
  8
_1-0_
  6
CONTINUOUS
 62
     0
100
AcDbLine
 10
862.8739875492
 20
662.9073049351
 11
862.8739875492
 21
661.3073059351
  0
LINE
  5
2EC
100
AcDbEntity
  8
_1-0_
  6
CONTINUOUS
 62
     0
100
AcDbLine
 10
865.9939875492
 20
667.1703679351
 11
865.9939875492
 21
662.9073049351
  0
LINE
  5
2ED
100
AcDbEntity
  8
_1-0_
  6
CONTINUOUS
 62
     0
100
AcDbLine
 10
866.9239875492
 20
667.7073049351
 11
865.9939875492
 21
667.1703679351
  0
ARC
  5
2EE
100
AcDbEntity
  8
_1-0_
  6
CONTINUOUS
 62
     0
100
AcDbCircle
 10
866.9239875492
 20
663.8979109351
 40
3.809394
100
AcDbArc
 50
59.210036
 51
90
  0
ARC
  5
2EF
100
AcDbEntity
  8
_1-0_
  6
CONTINUOUS
 62
     0
100
AcDbCircle
 10
871.8739875492
 20
659.0579449351
 40
8.64936
100
AcDbArc
 50
69.705445
 51
110.294555
  0
LINE
  5
2F0
100
AcDbEntity
  8
_1-0_
  6
CONTINUOUS
 62
     0
100
AcDbLine
 10
868.8739875492
 20
667.1703679351
 11
868.8739875492
 21
662.9073049351
  0
LINE
  5
2F1
100
AcDbEntity
  8
_1-0_
  6
CONTINUOUS
 62
     0
100
AcDbLine
 10
874.8739875492
 20
667.1703679351
 11
874.8739875492
 21
662.9073049351
  0
LINE
  5
2F2
100
AcDbEntity
  8
_1-0_
  6
CONTINUOUS
 62
     0
100
AcDbLine
 10
877.7539875492
 20
667.1703679351
 11
877.7539875492
 21
662.9073049351
  0
LINE
  5
2F3
100
AcDbEntity
  8
_1-0_
  6
CONTINUOUS
 62
     0
100
AcDbLine
 10
876.8239875492
 20
667.7073049351
 11
877.7539875492
 21
667.1703679351
  0
LINE
  5
2F4
100
AcDbEntity
  8
_1-0_
  6
CONTINUOUS
 62
     0
100
AcDbLine
 10
866.9239875492
 20
667.7073049351
 11
876.8239875492
 21
667.7073049351
  0
ARC
  5
2F5
100
AcDbEntity
  8
_1-0_
  6
CONTINUOUS
 62
     0
100
AcDbCircle
 10
876.8239875492
 20
663.8979109351
 40
3.809394
100
AcDbArc
 50
90
 51
120.789964
  0
LINE
  5
2F6
100
AcDbEntity
  8
_1-0_
  6
CONTINUOUS
 62
     0
100
AcDbLine
 10
867.1442175492
 20
674.3751289351
 11
867.0918825492
 21
673.3764979351
  0
LINE
  5
2F7
100
AcDbEntity
  8
_1-0_
  6
CONTINUOUS
 62
     0
100
AcDbLine
 10
876.3316095492
 20
673.8936379351
 11
876.2792745492
 21
672.8950069351
  0
ARC
  5
2F8
100
AcDbEntity
  8
_1-0_
  6
CONTINUOUS
 62
     0
100
AcDbCircle
 10
866.1455895492
 20
674.4274639351
 40
0.999999
100
AcDbArc
 50
-3.000000000005
 51
87
  0
ARC
  5
2F9
100
AcDbEntity
  8
_1-0_
  6
CONTINUOUS
 62
     0
100
AcDbCircle
 10
877.3302405492
 20
673.8412999351
 40
0.999999
100
AcDbArc
 50
87
 51
177
  0
ARC
  5
2FA
100
AcDbEntity
  8
_1-0_
  6
CONTINUOUS
 62
     0
100
AcDbCircle
 10
859.8739875492
 20
668.3073049351
 40
0.999999
100
AcDbArc
 50
-90
 51
0
  0
LINE
  5
2FB
100
AcDbEntity
  8
_1-0_
  6
CONTINUOUS
 62
     0
100
AcDbLine
 10
859.8739875492
 20
667.3073059351
 11
855.6739875492
 21
667.3073059351
  0
ARC
  5
2FC
100
AcDbEntity
  8
_1-0_
  6
CONTINUOUS
 62
     0
100
AcDbCircle
 10
863.4739875492
 20
674.5674769351
 40
0.999999
100
AcDbArc
 50
87
 51
180
  0
LINE
  5
2FD
100
AcDbEntity
  8
_1-0_
  6
CONTINUOUS
 62
     0
100
AcDbLine
 10
880.3263225492
 20
674.6856559351
 11
863.5263225492
 21
675.5661049351
  0
ARC
  5
2FE
100
AcDbEntity
  8
_1-0_
  6
CONTINUOUS
 62
     0
100
AcDbCircle
 10
880.2739875492
 20
673.6870249351
 40
0.999999
100
AcDbArc
 50
0
 51
87
  0
LINE
  5
2FF
100
AcDbEntity
  8
_1-0_
  6
CONTINUOUS
 62
     0
100
AcDbLine
 10
883.8739875492
 20
667.3073059351
 11
888.0739875492
 21
667.3073059351
  0
ARC
  5
300
100
AcDbEntity
  8
_1-0_
  6
CONTINUOUS
 62
     0
100
AcDbCircle
 10
883.8739875492
 20
668.3073049351
 40
0.999999
100
AcDbArc
 50
180
 51
270
  0
LINE
  5
301
100
AcDbEntity
  8
_1-0_
  6
CONTINUOUS
 62
     0
100
AcDbLine
 10
862.4739885492
 20
668.3073049351
 11
862.4739885492
 21
674.5674769351
  0
ARC
  5
302
100
AcDbEntity
  8
_1-0_
  6
CONTINUOUS
 62
     0
100
AcDbCircle
 10
859.8739875492
 20
668.3073049351
 40
2.600001
100
AcDbArc
 50
-90
 51
0
  0
LINE
  5
303
100
AcDbEntity
  8
_1-0_
  6
CONTINUOUS
 62
     0
100
AcDbLine
 10
859.8739875492
 20
665.7073039351
 11
855.3739875492
 21
665.7073039351
  0
LINE
  5
304
100
AcDbEntity
  8
_1-0_
  6
CONTINUOUS
 62
     0
100
AcDbLine
 10
860.8739865492
 20
674.5674769351
 11
860.8739865492
 21
668.3073049351
  0
ARC
  5
305
100
AcDbEntity
  8
_1-0_
  6
CONTINUOUS
 62
     0
100
AcDbCircle
 10
863.4739875492
 20
674.5674769351
 40
2.600001
100
AcDbArc
 50
87
 51
180
  0
LINE
  5
306
100
AcDbEntity
  8
_1-0_
  6
CONTINUOUS
 62
     0
100
AcDbLine
 10
882.8739885492
 20
673.6870249351
 11
882.8739885492
 21
668.3073049351
  0
ARC
  5
307
100
AcDbEntity
  8
_1-0_
  6
CONTINUOUS
 62
     0
100
AcDbCircle
 10
880.2739875492
 20
673.6870249351
 40
2.600001
100
AcDbArc
 50
0
 51
87
  0
LINE
  5
308
100
AcDbEntity
  8
_1-0_
  6
CONTINUOUS
 62
     0
100
AcDbLine
 10
880.4100615492
 20
676.2834619351
 11
863.6100615492
 21
677.1639139351
  0
LINE
  5
309
100
AcDbEntity
  8
_1-0_
  6
CONTINUOUS
 62
     0
100
AcDbLine
 10
881.2739865492
 20
668.3073049351
 11
881.2739865492
 21
673.6870249351
  0
ARC
  5
30A
100
AcDbEntity
  8
_1-0_
  6
CONTINUOUS
 62
     0
100
AcDbCircle
 10
883.8739875492
 20
668.3073049351
 40
2.600001
100
AcDbArc
 50
180
 51
270
  0
LINE
  5
30B
100
AcDbEntity
  8
_1-0_
  6
CONTINUOUS
 62
     0
100
AcDbLine
 10
883.8739875492
 20
665.7073039351
 11
888.3739875492
 21
665.7073039351
  0
LINE
  5
30C
100
AcDbEntity
  8
_1-0_
  6
CONTINUOUS
 62
     0
100
AcDbLine
 10
888.0739875492
 20
664.8073039351
 11
886.1239875492
 21
664.8073039351
  0
ARC
  5
30D
100
AcDbEntity
  8
_1-0_
  6
CONTINUOUS
 62
     0
100
AcDbCircle
 10
888.0739875492
 20
665.1073039351
 40
0.3
100
AcDbArc
 50
-90
 51
0
  0
ARC
  5
30E
100
AcDbEntity
  8
_1-0_
  6
CONTINUOUS
 62
     0
100
AcDbCircle
 10
888.0739875492
 20
667.0073059351
 40
0.3
100
AcDbArc
 50
0
 51
90
  0
LINE
  5
30F
100
AcDbEntity
  8
_1-0_
  6
CONTINUOUS
 62
     0
100
AcDbLine
 10
871.3739865492
 20
661.3073059351
 11
871.8739875492
 21
660.8073049351
  0
LINE
  5
310
100
AcDbEntity
  8
_1-0_
  6
CONTINUOUS
 62
     0
100
AcDbLine
 10
872.3739885492
 20
661.3073059351
 11
871.8739875492
 21
660.8073049351
  0
LINE
  5
311
100
AcDbEntity
  8
_1-0_
  6
CONTINUOUS
 62
     0
100
AcDbLine
 10
866.8739865492
 20
659.3073049351
 11
866.8739865492
 21
658.8073039351
  0
LINE
  5
312
100
AcDbEntity
  8
_1-0_
  6
CONTINUOUS
 62
     0
100
AcDbLine
 10
887.8739865492
 20
668.8073059351
 11
885.1239885492
 21
668.8073059351
  0
ARC
  5
313
100
AcDbEntity
  8
_1-0_
  6
CONTINUOUS
 62
     0
100
AcDbCircle
 10
887.8739865492
 20
669.3073039351
 40
0.500001
100
AcDbArc
 50
-90
 51
0
  0
ARC
  5
314
100
AcDbEntity
  8
_1-0_
  6
CONTINUOUS
 62
     0
100
AcDbCircle
 10
885.1239885492
 20
668.0573059351
 40
0.75
100
AcDbArc
 50
90
 51
270
  0
LINE
  5
315
100
AcDbEntity
  8
_1-0_
  6
CONTINUOUS
 62
     0
100
AcDbLine
 10
876.8739885492
 20
659.3073049351
 11
888.3739875492
 21
659.3073049351
  0
LINE
  5
316
100
AcDbEntity
  8
_1-0_
  6
CONTINUOUS
 62
     0
100
AcDbLine
 10
876.8739885492
 20
659.3073049351
 11
876.8739885492
 21
658.8073039351
  0
ARC
  5
317
100
AcDbEntity
  8
_1-0_
  6
CONTINUOUS
 62
     0
100
AcDbCircle
 10
886.1239875492
 20
664.0573039351
 40
0.75
100
AcDbArc
 50
90
 51
270
  0
LINE
  5
318
100
AcDbEntity
  8
_1-0_
  6
CONTINUOUS
 62
     0
100
AcDbLine
 10
888.0739875492
 20
663.3073039351
 11
886.1239875492
 21
663.3073039351
  0
ARC
  5
319
100
AcDbEntity
  8
_1-0_
  6
CONTINUOUS
 62
     0
100
AcDbCircle
 10
888.0739875492
 20
663.0073039351
 40
0.3
100
AcDbArc
 50
0
 51
90
  0
LINE
  5
31A
100
AcDbEntity
  8
_1-0_
  6
CONTINUOUS
 62
     0
100
AcDbLine
 10
855.3739875492
 20
659.3073049351
 11
866.8739865492
 21
659.3073049351
  0
LINE
  5
31B
100
AcDbEntity
  8
_1-0_
  6
CONTINUOUS
 62
     0
100
AcDbLine
 10
855.6739875492
 20
664.8073039351
 11
857.6239875492
 21
664.8073039351
  0
ARC
  5
31C
100
AcDbEntity
  8
_1-0_
  6
CONTINUOUS
 62
     0
100
AcDbCircle
 10
855.6739875492
 20
665.1073039351
 40
0.3
100
AcDbArc
 50
180
 51
270
  0
LINE
  5
31D
100
AcDbEntity
  8
_1-0_
  6
CONTINUOUS
 62
     0
100
AcDbLine
 10
855.3739875492
 20
665.1073039351
 11
855.3739875492
 21
667.0073059351
  0
ARC
  5
31E
100
AcDbEntity
  8
_1-0_
  6
CONTINUOUS
 62
     0
100
AcDbCircle
 10
855.6739875492
 20
667.0073059351
 40
0.3
100
AcDbArc
 50
90
 51
180
  0
LINE
  5
31F
100
AcDbEntity
  8
_1-0_
  6
CONTINUOUS
 62
     0
100
AcDbLine
 10
854.3739885492
 20
668.8073059351
 11
858.6239865492
 21
668.8073059351
  0
ARC
  5
320
100
AcDbEntity
  8
_1-0_
  6
CONTINUOUS
 62
     0
100
AcDbCircle
 10
854.3739885492
 20
668.3073049351
 40
0.500001
100
AcDbArc
 50
90
 51
180
  0
ARC
  5
321
100
AcDbEntity
  8
_1-0_
  6
CONTINUOUS
 62
     0
100
AcDbCircle
 10
858.6239865492
 20
668.0573059351
 40
0.75
100
AcDbArc
 50
-90
 51
90
  0
LINE
  5
322
100
AcDbEntity
  8
_1-0_
  6
CONTINUOUS
 62
     0
100
AcDbLine
 10
853.8739875492
 20
668.3073049351
 11
853.8739875492
 21
658.8073039351
  0
LINE
  5
323
100
AcDbEntity
  8
_1-0_
  6
CONTINUOUS
 62
     0
100
AcDbLine
 10
855.3739875492
 20
659.3073049351
 11
855.3739875492
 21
658.8073039351
  0
ARC
  5
324
100
AcDbEntity
  8
_1-0_
  6
CONTINUOUS
 62
     0
100
AcDbCircle
 10
857.6239875492
 20
664.0573039351
 40
0.75
100
AcDbArc
 50
-90
 51
90
  0
ARC
  5
325
100
AcDbEntity
  8
_1-0_
  6
CONTINUOUS
 62
     0
100
AcDbCircle
 10
855.6739875492
 20
661.6073059351
 40
0.3
100
AcDbArc
 50
180
 51
270
  0
LINE
  5
326
100
AcDbEntity
  8
_1-0_
  6
CONTINUOUS
 62
     0
100
AcDbLine
 10
855.3739875492
 20
661.6073059351
 11
855.3739875492
 21
663.0073039351
  0
ARC
  5
327
100
AcDbEntity
  8
_1-0_
  6
CONTINUOUS
 62
     0
100
AcDbCircle
 10
855.6739875492
 20
663.0073039351
 40
0.3
100
AcDbArc
 50
90
 51
180
  0
LINE
  5
328
100
AcDbEntity
  8
_1-0_
  6
CONTINUOUS
 62
     0
100
AcDbLine
 10
855.6739875492
 20
663.3073039351
 11
857.6239875492
 21
663.3073039351
  0
ARC
  5
329
100
AcDbEntity
  8
_1-0_
  6
CONTINUOUS
 62
     0
100
AcDbCircle
 10
887.8739865492
 20
661.8073039351
 40
0.500001
100
AcDbArc
 50
-90
 51
0
  0
LINE
  5
32A
100
AcDbEntity
  8
_1-0_
  6
CONTINUOUS
 62
     0
100
AcDbLine
 10
887.8739865492
 20
661.3073059351
 11
855.6739875492
 21
661.3073059351
  0
LINE
  5
32B
100
AcDbEntity
  8
_2-0_
  6
CONTINUOUS
 62
     0
100
AcDbLine
 10
855.3739875492
 20
658.8073039351
 11
853.8739875492
 21
658.8073039351
  0
ARC
  5
32C
100
AcDbEntity
  8
_0-0_
  6
CONTINUOUS
 62
     0
100
AcDbCircle
 10
889.3739865492
 20
676.8073039351
 40
0.999999
100
AcDbArc
 50
0
 51
180
  0
LINE
  5
32D
100
AcDbEntity
  8
_0-0_
  6
CONTINUOUS
 62
     0
100
AcDbLine
 10
888.3739875492
 20
669.3073039351
 11
888.3739875492
 21
676.8073039351
  0
LINE
  5
32E
100
AcDbEntity
  8
_0-0_
  6
CONTINUOUS
 62
     0
100
AcDbLine
 10
888.3739875492
 20
665.1073039351
 11
888.3739875492
 21
667.0073059351
  0
ARC
  5
32F
100
AcDbEntity
  8
_0-0_
  6
CONTINUOUS
 62
     0
100
AcDbCircle
 10
890.8739865492
 20
661.8073039351
 40
0.500001
100
AcDbArc
 50
180
 51
270
  0
LINE
  5
330
100
AcDbEntity
  8
_0-0_
  6
CONTINUOUS
 62
     0
100
AcDbLine
 10
890.3739885492
 20
659.8073059351
 11
890.3739885492
 21
658.8073039351
  0
LINE
  5
331
100
AcDbEntity
  8
_0-0_
  6
CONTINUOUS
 62
     0
100
AcDbLine
 10
888.3739875492
 20
659.3073049351
 11
888.3739875492
 21
658.8073039351
  0
LINE
  5
332
100
AcDbEntity
  8
_0-0_
  6
CONTINUOUS
 62
     0
100
AcDbLine
 10
888.3739875492
 20
661.8073039351
 11
888.3739875492
 21
663.0073039351
  0
LINE
  5
333
100
AcDbEntity
  8
_0-0_
  6
CONTINUOUS
 62
     0
100
AcDbLine
 10
900.8739885492
 20
659.8073059351
 11
900.8739885492
 21
658.8073039351
  0
LINE
  5
334
100
AcDbEntity
  8
_0-0_
  6
CONTINUOUS
 62
     0
100
AcDbLine
 10
902.3739885492
 20
658.8073039351
 11
900.8739885492
 21
658.8073039351
  0
LINE
  5
335
100
AcDbEntity
  8
_0-0_
  6
CONTINUOUS
 62
     0
100
AcDbLine
 10
890.3739885492
 20
658.8073039351
 11
888.3739875492
 21
658.8073039351
  0
LINE
  5
336
100
AcDbEntity
  8
_0-0_
  6
CONTINUOUS
 62
     0
100
AcDbLine
 10
902.3739885492
 20
660.8073059351
 11
902.3739885492
 21
658.8073039351
  0
ARC
  5
337
100
AcDbEntity
  8
_0-0_
  6
CONTINUOUS
 62
     0
100
AcDbCircle
 10
901.8739885492
 20
660.8073059351
 40
0.5
100
AcDbArc
 50
0
 51
90
  0
LINE
  5
338
100
AcDbEntity
  8
_0-0_
  6
CONTINUOUS
 62
     0
100
AcDbLine
 10
890.6239885492
 20
664.5573059351
 11
891.8739885493
 21
664.5573059351
  0
LINE
  5
339
100
AcDbEntity
  8
_0-0_
  6
CONTINUOUS
 62
     0
100
AcDbLine
 10
894.8739885493
 20
664.5573059351
 11
896.1239885492
 21
664.5573059351
  0
ARC
  5
33A
100
AcDbEntity
  8
_0-0_
  6
CONTINUOUS
 62
     0
100
AcDbCircle
 10
921.7205940216
 20
707.4926985574
 40
0.5
100
AcDbArc
 50
-99.19866089521
 51
78.59045565078
  0
ARC
  5
33B
100
AcDbEntity
  8
_0-0_
  6
CONTINUOUS
 62
     0
100
AcDbCircle
 10
916.8739885493
 20
683.4768617951
 40
25
100
AcDbArc
 50
78.59045565079
 51
180
  0
ARC
  5
33C
100
AcDbEntity
  8
_0-0_
  6
CONTINUOUS
 62
     0
100
AcDbCircle
 10
917.9499341433
 20
684.2084932931
 40
23.08754100601
100
AcDbArc
 50
80.80133910481
 51
181.8159758207
  0
LINE
  5
33D
100
AcDbEntity
  8
_0-0_
  6
CONTINUOUS
 62
     0
100
AcDbLine
 10
891.8739885493
 20
664.5573059351
 11
891.8739885493
 21
683.4768617951
  0
LINE
  5
33E
100
AcDbEntity
  8
_0-0_
  6
CONTINUOUS
 62
     0
100
AcDbLine
 10
894.8739885493
 20
664.5573059351
 11
894.8739885493
 21
684.9401247911
  0
LINE
  5
33F
100
AcDbEntity
  8
_0-0_
  6
CONTINUOUS
 62
     0
100
AcDbLine
 10
890.3739885492
 20
659.8073059351
 11
897.8799374231
 21
659.8073059351
  0
LINE
  5
340
100
AcDbEntity
  8
_0-0_
  6
CONTINUOUS
 62
     0
100
AcDbLine
 10
897.8799374231
 20
659.8073059351
 11
900.8739885492
 21
659.8073059351
  0
LINE
  5
341
100
AcDbEntity
  8
_0-0_
  6
CONTINUOUS
 62
     0
100
AcDbLine
 10
895.8739885492
 20
661.3073059351
 11
890.8739865492
 21
661.3073059351
  0
LINE
  5
342
100
AcDbEntity
  8
_0-0_
  6
CONTINUOUS
 62
     0
100
AcDbLine
 10
901.8739885492
 20
661.3073059351
 11
897.8739885492
 21
661.3073059351
  0
ARC
  5
343
100
AcDbEntity
  8
_0-0_
  6
CONTINUOUS
 62
     0
100
AcDbCircle
 10
895.8739885492
 20
661.8073059351
 40
0.25
100
AcDbArc
 50
-90
 51
0
  0
ARC
  5
344
100
AcDbEntity
  8
_0-0_
  6
CONTINUOUS
 62
     0
100
AcDbCircle
 10
890.8739865492
 20
661.8073039351
 40
0.250001
100
AcDbArc
 50
180
 51
270
  0
LINE
  5
345
100
AcDbEntity
  8
_0-0_
  6
CONTINUOUS
 62
     0
100
AcDbLine
 10
896.1239885492
 20
661.8073059351
 11
896.1239885492
 21
664.5573059351
  0
LINE
  5
346
100
AcDbEntity
  8
_0-0_
  6
CONTINUOUS
 62
     0
100
AcDbLine
 10
890.6239885492
 20
661.8073039351
 11
890.6239885492
 21
664.5573059351
  0
LINE
  5
347
100
AcDbEntity
  8
_0-0_
  6
CONTINUOUS
 62
     0
100
AcDbLine
 10
895.8739885492
 20
661.5573059351
 11
890.8739865492
 21
661.5573059351
  0
LINE
  5
348
100
AcDbEntity
  8
_0-0_
  6
CONTINUOUS
 62
     0
100
AcDbLine
 10
890.3739885492
 20
676.8073039351
 11
890.3739885492
 21
666.3073059351
  0
LINE
  5
349
100
AcDbEntity
  8
_0-0_
  6
CONTINUOUS
 62
     0
100
AcDbLine
 10
890.3739885492
 20
664.8073059351
 11
890.3739885492
 21
661.8073039351
  0
LINE
  5
34A
100
AcDbEntity
  8
_0-0_
  6
CONTINUOUS
 62
     0
100
AcDbLine
 10
896.3739885492
 20
661.8073059351
 11
896.3739885492
 21
664.8073059351
  0
LINE
  5
34B
100
AcDbEntity
  8
_0-0_
  6
CONTINUOUS
 62
     0
100
AcDbLine
 10
897.8739885492
 20
665.8073059351
 11
897.8739885492
 21
661.3073059351
  0
ARC
  5
34C
100
AcDbEntity
  8
_0-0_
  6
CONTINUOUS
 62
     0
100
AcDbCircle
 10
897.3739885492
 20
665.8073059351
 40
0.5
100
AcDbArc
 50
0
 51
90
  0
ARC
  5
34D
100
AcDbEntity
  8
_0-0_
  6
CONTINUOUS
 62
     0
100
AcDbCircle
 10
895.8739885492
 20
661.8073059351
 40
0.5
100
AcDbArc
 50
-90
 51
0
  0
LINE
  5
34E
100
AcDbEntity
  8
_0-0_
  6
CONTINUOUS
 62
     0
100
AcDbLine
 10
897.3739885492
 20
666.3073059351
 11
896.1239885492
 21
666.3073059351
  0
ARC
  5
34F
100
AcDbEntity
  8
_0-0_
  6
CONTINUOUS
 62
     0
100
AcDbCircle
 10
896.1239885492
 20
665.3073059351
 40
1
100
AcDbArc
 50
90
 51
180
  0
LINE
  5
350
100
AcDbEntity
  8
_0-0_
  6
CONTINUOUS
 62
     0
100
AcDbLine
 10
895.1239885492
 20
665.3073059351
 11
895.1239885492
 21
664.8073059351
  0
LINE
  5
351
100
AcDbEntity
  8
_0-0_
  6
CONTINUOUS
 62
     0
100
AcDbLine
 10
895.1239885492
 20
664.8073059351
 11
896.3739885492
 21
664.8073059351
  0
LINE
  5
352
100
AcDbEntity
  8
_0-0_
  6
CONTINUOUS
 62
     0
100
AcDbLine
 10
890.3739885492
 20
664.8073059351
 11
891.6239885492
 21
664.8073059351
  0
LINE
  5
353
100
AcDbEntity
  8
_0-0_
  6
CONTINUOUS
 62
     0
100
AcDbLine
 10
891.6239885492
 20
665.3073059351
 11
891.6239885492
 21
664.8073059351
  0
ARC
  5
354
100
AcDbEntity
  8
_0-0_
  6
CONTINUOUS
 62
     0
100
AcDbCircle
 10
890.6239885492
 20
665.3073059351
 40
1
100
AcDbArc
 50
0
 51
90
  0
LINE
  5
355
100
AcDbEntity
  8
_0-0_
  6
CONTINUOUS
 62
     0
100
AcDbLine
 10
890.6239885492
 20
666.3073059351
 11
890.3739885492
 21
666.3073059351
  0
LINE
  5
356
100
AcDbEntity
  8
_0-1_PRO0
  6
CONTINUOUS
 62
     0
100
AcDbLine
 10
746.8563142636
 20
656.7985349351
 11
921.8563152636
 21
656.7985349351
  0
LINE
  5
357
100
AcDbEntity
  8
_0-1_PRO0
  6
CONTINUOUS
 62
     0
100
AcDbLine
 10
850.8386400772
 20
657.7936064863
 11
746.0950003961
 21
657.8209762061
  0
LINE
  5
358
100
AcDbEntity
  8
_0-1_PRO0
  6
CONTINUOUS
 62
     0
100
AcDbLine
 10
921.8563152636
 20
400.4930126137
 11
918.8563152636
 21
399.7430126137
  0
LINE
  5
359
100
AcDbEntity
  8
_0-1_PRO0
  6
CONTINUOUS
 62
     0
100
AcDbLine
 10
921.8563152636
 20
400.4930126137
 11
918.8563152636
 21
401.2430126137
  0
LINE
  5
35A
100
AcDbEntity
  8
_0-1_PRO0
  6
CONTINUOUS
 62
     0
100
AcDbLine
 10
921.8563152636
 20
400.4930126137
 11
1071.856315264
 21
400.4930126137
  0
LINE
  5
35B
100
AcDbEntity
  8
_0-1_PRO0
  6
CONTINUOUS
 62
     0
100
AcDbLine
 10
921.8563152636
 20
400.4930126137
 11
924.8563152636
 21
401.2430126137
  0
LINE
  5
35C
100
AcDbEntity
  8
_0-1_PRO0
  6
CONTINUOUS
 62
     0
100
AcDbLine
 10
921.8563152636
 20
400.4930126137
 11
924.8563152636
 21
399.7430126137
  0
LINE
  5
35D
100
AcDbEntity
  8
_0-1_PRO0
  6
CONTINUOUS
 62
     0
100
AcDbLine
 10
746.8563142636
 20
400.4930126137
 11
921.8563152636
 21
400.4930126137
  0
LINE
  5
35E
100
AcDbEntity
  8
_2-0_
  6
CONTINUOUS
 62
     0
100
AcDbLine
 10
856.8739875492
 20
658.7985349351
 11
886.8739875492
 21
658.7985349351
  0
LINE
  5
35F
100
AcDbEntity
  8
_a-0_
  6
CONTINUOUS
 62
     0
100
AcDbLine
 10
886.8739875492
 20
657.7985349351
 11
886.8739875492
 21
658.7985349351
  0
LINE
  5
360
100
AcDbEntity
  8
_1-0_
  6
CONTINUOUS
 62
     0
100
AcDbLine
 10
376.620747978
 20
673.3764979351
 11
367.433355978
 21
672.8950069351
  0
LINE
  5
361
100
AcDbEntity
  8
_2-0_
  6
CONTINUOUS
 62
     0
100
AcDbLine
 10
386.838642978
 20
657.3725574068
 11
386.4126654497
 21
657.7985349351
  0
ARC
  5
362
100
AcDbEntity
  8
_2-0_
  6
CONTINUOUS
 62
     0
100
AcDbCircle
 10
386.838642978
 20
649.5485349351
 40
8.25
100
AcDbArc
 50
71.07535558395
 51
90
  0
ARC
  5
363
100
AcDbEntity
  8
_2-0_
  6
CONTINUOUS
 62
     0
100
AcDbCircle
 10
386.838642978
 20
649.5485349351
 40
9.25
100
AcDbArc
 50
71.07535558395
 51
90
  0
ARC
  5
364
100
AcDbEntity
  8
_2-0_
  6
CONTINUOUS
 62
     0
100
AcDbCircle
 10
392.838642978
 20
667.0485349351
 40
9.25
100
AcDbArc
 50
-108.9246444161
 51
-90
  0
LINE
  5
365
100
AcDbEntity
  8
_1-0_
  6
CONTINUOUS
 62
     0
100
AcDbLine
 10
371.8563162636
 20
611.3651339351
 11
371.8563162636
 21
656.7985349351
  0
LINE
  5
366
100
AcDbEntity
  8
_1-0_
  6
CONTINUOUS
 62
     0
100
AcDbLine
 10
367.1063142636
 20
647.7985349351
 11
367.8063162636
 21
648.4985339351
  0
LINE
  5
367
100
AcDbEntity
  8
_1-0_
  6
CONTINUOUS
 62
     0
100
AcDbLine
 10
367.8063162636
 20
657.7985339351
 11
367.8063162636
 21
648.4985339351
  0
LINE
  5
368
100
AcDbEntity
  8
_1-0_
  6
CONTINUOUS
 62
     0
100
AcDbLine
 10
367.1063142636
 20
629.1703619351
 11
367.1063142636
 21
647.7985349351
  0
LINE
  5
369
100
AcDbEntity
  8
_1-0_
  6
CONTINUOUS
 62
     0
100
AcDbLine
 10
367.3563162636
 20
617.2985339351
 11
367.3563162636
 21
618.1618379351
  0
LINE
  5
36A
100
AcDbEntity
  8
_1-0_
  6
CONTINUOUS
 62
     0
100
AcDbLine
 10
365.2312842636
 20
618.5365379351
 11
367.1063142636
 21
629.1703619351
  0
LINE
  5
36B
100
AcDbEntity
  8
_1-0_
  6
CONTINUOUS
 62
     0
100
AcDbLine
 10
371.3563152636
 20
628.7985329351
 11
372.3563142636
 21
628.7985329351
  0
LINE
  5
36C
100
AcDbEntity
  8
_1-0_
  6
CONTINUOUS
 62
     0
100
AcDbLine
 10
376.6063152636
 20
647.7985349351
 11
375.9063162636
 21
648.4985339351
  0
LINE
  5
36D
100
AcDbEntity
  8
_1-0_
  6
CONTINUOUS
 62
     0
100
AcDbLine
 10
375.9063162636
 20
657.7985339351
 11
375.9063162636
 21
648.4985339351
  0
LINE
  5
36E
100
AcDbEntity
  8
_1-0_
  6
CONTINUOUS
 62
     0
100
AcDbLine
 10
376.6063152636
 20
629.1703619351
 11
376.6063152636
 21
647.7985349351
  0
LINE
  5
36F
100
AcDbEntity
  8
_1-0_
  6
CONTINUOUS
 62
     0
100
AcDbLine
 10
375.3563142636
 20
616.2985349351
 11
368.3563152636
 21
616.2985349351
  0
ARC
  5
370
100
AcDbEntity
  8
_1-0_
  6
CONTINUOUS
 62
     0
100
AcDbCircle
 10
375.3563142636
 20
617.2985339351
 40
0.999999
100
AcDbArc
 50
-90
 51
0
  0
LINE
  5
371
100
AcDbEntity
  8
_1-0_
  6
CONTINUOUS
 62
     0
100
AcDbLine
 10
376.3563162636
 20
617.2985339351
 11
376.3563162636
 21
618.1618379351
  0
LINE
  5
372
100
AcDbEntity
  8
_1-0_
  6
CONTINUOUS
 62
     0
100
AcDbLine
 10
378.4813452636
 20
618.5365379351
 11
374.2959132636
 21
617.7985349351
  0
LINE
  5
373
100
AcDbEntity
  8
_1-0_
  6
CONTINUOUS
 62
     0
100
AcDbLine
 10
371.3563152636
 20
628.7985329351
 11
369.4167192636
 21
617.7985349351
  0
LINE
  5
374
100
AcDbEntity
  8
_1-0_
  6
CONTINUOUS
 62
     0
100
AcDbLine
 10
372.3563142636
 20
628.7985329351
 11
374.2959132636
 21
617.7985349351
  0
LINE
  5
375
100
AcDbEntity
  8
_1-0_
  6
CONTINUOUS
 62
     0
100
AcDbLine
 10
378.4813452636
 20
618.5365379351
 11
376.6063152636
 21
629.1703619351
  0
LINE
  5
376
100
AcDbEntity
  8
_1-0_
  6
CONTINUOUS
 62
     0
100
AcDbLine
 10
367.1063142636
 20
647.7985349351
 11
376.6063152636
 21
647.7985349351
  0
LINE
  5
377
100
AcDbEntity
  8
_1-0_
  6
CONTINUOUS
 62
     0
100
AcDbLine
 10
367.8063162636
 20
648.4985339351
 11
375.9063162636
 21
648.4985339351
  0
LINE
  5
378
100
AcDbEntity
  8
_1-0_
  6
CONTINUOUS
 62
     0
100
AcDbLine
 10
365.2312842636
 20
618.5365379351
 11
369.4167192636
 21
617.7985349351
  0
ARC
  5
379
100
AcDbEntity
  8
_1-0_
  6
CONTINUOUS
 62
     0
100
AcDbCircle
 10
368.3563152636
 20
617.2985339351
 40
0.999999
100
AcDbArc
 50
180
 51
270
  0
LINE
  5
37A
100
AcDbEntity
  8
_2-0_
  6
CONTINUOUS
 62
     0
100
AcDbLine
 10
385.9984518874
 20
656.7985349351
 11
384.9984518874
 21
657.7985349351
  0
LINE
  5
37B
100
AcDbEntity
  8
_2-0_
  6
CONTINUOUS
 62
     0
100
AcDbLine
 10
384.584238325
 20
656.7985349351
 11
383.584238325
 21
657.7985349351
  0
LINE
  5
37C
100
AcDbEntity
  8
_2-0_
  6
CONTINUOUS
 62
     0
100
AcDbLine
 10
383.1700247626
 20
656.7985349351
 11
382.1700247626
 21
657.7985349351
  0
LINE
  5
37D
100
AcDbEntity
  8
_2-0_
  6
CONTINUOUS
 62
     0
100
AcDbLine
 10
381.7558112002
 20
656.7985349351
 11
380.7558112002
 21
657.7985349351
  0
LINE
  5
37E
100
AcDbEntity
  8
_2-0_
  6
CONTINUOUS
 62
     0
100
AcDbLine
 10
380.3415976379
 20
656.7985349351
 11
379.3415976379
 21
657.7985349351
  0
LINE
  5
37F
100
AcDbEntity
  8
_2-0_
  6
CONTINUOUS
 62
     0
100
AcDbLine
 10
378.9273840755
 20
656.7985349351
 11
377.9273840755
 21
657.7985349351
  0
LINE
  5
380
100
AcDbEntity
  8
_2-0_
  6
CONTINUOUS
 62
     0
100
AcDbLine
 10
377.5131705131
 20
656.7985349351
 11
376.5131705131
 21
657.7985349351
  0
LINE
  5
381
100
AcDbEntity
  8
_2-0_
  6
CONTINUOUS
 62
     0
100
AcDbLine
 10
376.0989569508
 20
656.7985349351
 11
375.0989569508
 21
657.7985349351
  0
LINE
  5
382
100
AcDbEntity
  8
_2-0_
  6
CONTINUOUS
 62
     0
100
AcDbLine
 10
374.6847433884
 20
656.7985349351
 11
373.6847433884
 21
657.7985349351
  0
LINE
  5
383
100
AcDbEntity
  8
_2-0_
  6
CONTINUOUS
 62
     0
100
AcDbLine
 10
373.270529826
 20
656.7985349351
 11
372.270529826
 21
657.7985349351
  0
LINE
  5
384
100
AcDbEntity
  8
_2-0_
  6
CONTINUOUS
 62
     0
100
AcDbLine
 10
371.8563162636
 20
656.7985349351
 11
370.8563162636
 21
657.7985349351
  0
LINE
  5
385
100
AcDbEntity
  8
_2-0_
  6
CONTINUOUS
 62
     0
100
AcDbLine
 10
370.4421027013
 20
656.7985349351
 11
369.4421027013
 21
657.7985349351
  0
LINE
  5
386
100
AcDbEntity
  8
_2-0_
  6
CONTINUOUS
 62
     0
100
AcDbLine
 10
369.0278891389
 20
656.7985349351
 11
368.0278891389
 21
657.7985349351
  0
LINE
  5
387
100
AcDbEntity
  8
_2-0_
  6
CONTINUOUS
 62
     0
100
AcDbLine
 10
367.6136755765
 20
656.7985349351
 11
366.6136755765
 21
657.7985349351
  0
LINE
  5
388
100
AcDbEntity
  8
_2-0_
  6
CONTINUOUS
 62
     0
100
AcDbLine
 10
366.1994620141
 20
656.7985349351
 11
365.1994620141
 21
657.7985349351
  0
LINE
  5
389
100
AcDbEntity
  8
_2-0_
  6
CONTINUOUS
 62
     0
100
AcDbLine
 10
364.7852484518
 20
656.7985349351
 11
363.7852484518
 21
657.7985349351
  0
LINE
  5
38A
100
AcDbEntity
  8
_2-0_
  6
CONTINUOUS
 62
     0
100
AcDbLine
 10
363.3710348894
 20
656.7985349351
 11
362.3710348894
 21
657.7985349351
  0
LINE
  5
38B
100
AcDbEntity
  8
_2-0_
  6
CONTINUOUS
 62
     0
100
AcDbLine
 10
361.956821327
 20
656.7985349351
 11
360.956821327
 21
657.7985349351
  0
LINE
  5
38C
100
AcDbEntity
  8
_2-0_
  6
CONTINUOUS
 62
     0
100
AcDbLine
 10
360.5426077646
 20
656.7985349351
 11
359.5426077646
 21
657.7985349351
  0
LINE
  5
38D
100
AcDbEntity
  8
_2-0_
  6
CONTINUOUS
 62
     0
100
AcDbLine
 10
359.1283942023
 20
656.7985349351
 11
358.1283942023
 21
657.7985349351
  0
LINE
  5
38E
100
AcDbEntity
  8
_2-0_
  6
CONTINUOUS
 62
     0
100
AcDbLine
 10
357.7141806399
 20
656.7985349351
 11
356.838642978
 21
657.674072597
  0
LINE
  5
38F
100
AcDbEntity
  8
_2-0_
  6
CONTINUOUS
 62
     0
100
AcDbLine
 10
356.838642978
 20
656.7985349351
 11
386.838642978
 21
656.7985349351
  0
LINE
  5
390
100
AcDbEntity
  8
_2-0_
  6
CONTINUOUS
 62
     0
100
AcDbLine
 10
386.838642978
 20
656.7985349351
 11
386.838642978
 21
657.7985349351
  0
LINE
  5
391
100
AcDbEntity
  8
_2-0_
  6
CONTINUOUS
 62
     0
100
AcDbLine
 10
386.838642978
 20
657.7985349351
 11
356.838642978
 21
657.7985349351
  0
LINE
  5
392
100
AcDbEntity
  8
_2-0_
  6
CONTINUOUS
 62
     0
100
AcDbLine
 10
356.838642978
 20
657.7985349351
 11
356.838642978
 21
656.7985349351
  0
ARC
  5
393
100
AcDbEntity
  8
_2-0_
  6
CONTINUOUS
 62
     0
100
AcDbCircle
 10
392.838642978
 20
667.0485349351
 40
10.25
100
AcDbArc
 50
-108.9246444161
 51
-90
  0
LINE
  5
394
100
AcDbEntity
  8
_1-0_
  6
CONTINUOUS
 62
     0
100
AcDbLine
 10
362.838642978
 20
662.9073049351
 11
362.838642978
 21
661.3073059351
  0
LINE
  5
395
100
AcDbEntity
  8
_1-0_
  6
CONTINUOUS
 62
     0
100
AcDbLine
 10
362.838642978
 20
662.9073049351
 11
380.838642978
 21
662.9073049351
  0
LINE
  5
396
100
AcDbEntity
  8
_1-0_
  6
CONTINUOUS
 62
     0
100
AcDbLine
 10
380.838642978
 20
662.9073049351
 11
380.838642978
 21
661.3073059351
  0
LINE
  5
397
100
AcDbEntity
  8
_1-0_
  6
CONTINUOUS
 62
     0
100
AcDbLine
 10
377.718642978
 20
667.1703679351
 11
377.718642978
 21
662.9073049351
  0
LINE
  5
398
100
AcDbEntity
  8
_1-0_
  6
CONTINUOUS
 62
     0
100
AcDbLine
 10
376.788642978
 20
667.7073049351
 11
377.718642978
 21
667.1703679351
  0
ARC
  5
399
100
AcDbEntity
  8
_1-0_
  6
CONTINUOUS
 62
     0
100
AcDbCircle
 10
376.788642978
 20
663.8979109351
 40
3.809394
100
AcDbArc
 50
90
 51
120.789964
  0
ARC
  5
39A
100
AcDbEntity
  8
_1-0_
  6
CONTINUOUS
 62
     0
100
AcDbCircle
 10
371.838642978
 20
659.0579449351
 40
8.64936
100
AcDbArc
 50
69.705445
 51
110.294555
  0
LINE
  5
39B
100
AcDbEntity
  8
_1-0_
  6
CONTINUOUS
 62
     0
100
AcDbLine
 10
374.838642978
 20
667.1703679351
 11
374.838642978
 21
662.9073049351
  0
LINE
  5
39C
100
AcDbEntity
  8
_1-0_
  6
CONTINUOUS
 62
     0
100
AcDbLine
 10
368.838642978
 20
667.1703679351
 11
368.838642978
 21
662.9073049351
  0
LINE
  5
39D
100
AcDbEntity
  8
_1-0_
  6
CONTINUOUS
 62
     0
100
AcDbLine
 10
365.958642978
 20
667.1703679351
 11
365.958642978
 21
662.9073049351
  0
LINE
  5
39E
100
AcDbEntity
  8
_1-0_
  6
CONTINUOUS
 62
     0
100
AcDbLine
 10
366.888642978
 20
667.7073049351
 11
365.958642978
 21
667.1703679351
  0
LINE
  5
39F
100
AcDbEntity
  8
_1-0_
  6
CONTINUOUS
 62
     0
100
AcDbLine
 10
376.788642978
 20
667.7073049351
 11
366.888642978
 21
667.7073049351
  0
ARC
  5
3A0
100
AcDbEntity
  8
_1-0_
  6
CONTINUOUS
 62
     0
100
AcDbCircle
 10
366.888642978
 20
663.8979109351
 40
3.809394
100
AcDbArc
 50
59.210036
 51
90
  0
LINE
  5
3A1
100
AcDbEntity
  8
_1-0_
  6
CONTINUOUS
 62
     0
100
AcDbLine
 10
376.568412978
 20
674.3751289351
 11
376.620747978
 21
673.3764979351
  0
LINE
  5
3A2
100
AcDbEntity
  8
_1-0_
  6
CONTINUOUS
 62
     0
100
AcDbLine
 10
367.381020978
 20
673.8936379351
 11
367.433355978
 21
672.8950069351
  0
ARC
  5
3A3
100
AcDbEntity
  8
_1-0_
  6
CONTINUOUS
 62
     0
100
AcDbCircle
 10
377.567040978
 20
674.4274639351
 40
0.999999
100
AcDbArc
 50
93
 51
183
  0
ARC
  5
3A4
100
AcDbEntity
  8
_1-0_
  6
CONTINUOUS
 62
     0
100
AcDbCircle
 10
366.382389978
 20
673.8412999351
 40
0.999999
100
AcDbArc
 50
3.000000000005
 51
93
  0
ARC
  5
3A5
100
AcDbEntity
  8
_1-0_
  6
CONTINUOUS
 62
     0
100
AcDbCircle
 10
383.838642978
 20
668.3073049351
 40
0.999999
100
AcDbArc
 50
180
 51
270
  0
LINE
  5
3A6
100
AcDbEntity
  8
_1-0_
  6
CONTINUOUS
 62
     0
100
AcDbLine
 10
383.838642978
 20
667.3073059351
 11
388.038642978
 21
667.3073059351
  0
ARC
  5
3A7
100
AcDbEntity
  8
_1-0_
  6
CONTINUOUS
 62
     0
100
AcDbCircle
 10
380.238642978
 20
674.5674769351
 40
0.999999
100
AcDbArc
 50
0
 51
93
  0
LINE
  5
3A8
100
AcDbEntity
  8
_1-0_
  6
CONTINUOUS
 62
     0
100
AcDbLine
 10
363.386307978
 20
674.6856559351
 11
380.186307978
 21
675.5661049351
  0
ARC
  5
3A9
100
AcDbEntity
  8
_1-0_
  6
CONTINUOUS
 62
     0
100
AcDbCircle
 10
363.438642978
 20
673.6870249351
 40
0.999999
100
AcDbArc
 50
93
 51
180
  0
LINE
  5
3AA
100
AcDbEntity
  8
_1-0_
  6
CONTINUOUS
 62
     0
100
AcDbLine
 10
359.838642978
 20
667.3073059351
 11
355.638642978
 21
667.3073059351
  0
ARC
  5
3AB
100
AcDbEntity
  8
_1-0_
  6
CONTINUOUS
 62
     0
100
AcDbCircle
 10
359.838642978
 20
668.3073049351
 40
0.999999
100
AcDbArc
 50
-90
 51
0
  0
LINE
  5
3AC
100
AcDbEntity
  8
_1-0_
  6
CONTINUOUS
 62
     0
100
AcDbLine
 10
381.238641978
 20
668.3073049351
 11
381.238641978
 21
674.5674769351
  0
ARC
  5
3AD
100
AcDbEntity
  8
_1-0_
  6
CONTINUOUS
 62
     0
100
AcDbCircle
 10
383.838642978
 20
668.3073049351
 40
2.600001
100
AcDbArc
 50
180
 51
270
  0
LINE
  5
3AE
100
AcDbEntity
  8
_1-0_
  6
CONTINUOUS
 62
     0
100
AcDbLine
 10
383.838642978
 20
665.7073039351
 11
388.338642978
 21
665.7073039351
  0
LINE
  5
3AF
100
AcDbEntity
  8
_1-0_
  6
CONTINUOUS
 62
     0
100
AcDbLine
 10
382.838643978
 20
674.5674769351
 11
382.838643978
 21
668.3073049351
  0
ARC
  5
3B0
100
AcDbEntity
  8
_1-0_
  6
CONTINUOUS
 62
     0
100
AcDbCircle
 10
380.238642978
 20
674.5674769351
 40
2.600001
100
AcDbArc
 50
0
 51
93
  0
LINE
  5
3B1
100
AcDbEntity
  8
_1-0_
  6
CONTINUOUS
 62
     0
100
AcDbLine
 10
360.838641978
 20
673.6870249351
 11
360.838641978
 21
668.3073049351
  0
ARC
  5
3B2
100
AcDbEntity
  8
_1-0_
  6
CONTINUOUS
 62
     0
100
AcDbCircle
 10
363.438642978
 20
673.6870249351
 40
2.600001
100
AcDbArc
 50
93
 51
180
  0
LINE
  5
3B3
100
AcDbEntity
  8
_1-0_
  6
CONTINUOUS
 62
     0
100
AcDbLine
 10
363.302568978
 20
676.2834619351
 11
380.102568978
 21
677.1639139351
  0
LINE
  5
3B4
100
AcDbEntity
  8
_1-0_
  6
CONTINUOUS
 62
     0
100
AcDbLine
 10
362.438643978
 20
668.3073049351
 11
362.438643978
 21
673.6870249351
  0
ARC
  5
3B5
100
AcDbEntity
  8
_1-0_
  6
CONTINUOUS
 62
     0
100
AcDbCircle
 10
359.838642978
 20
668.3073049351
 40
2.600001
100
AcDbArc
 50
-90
 51
0
  0
LINE
  5
3B6
100
AcDbEntity
  8
_1-0_
  6
CONTINUOUS
 62
     0
100
AcDbLine
 10
359.838642978
 20
665.7073039351
 11
355.338642978
 21
665.7073039351
  0
LINE
  5
3B7
100
AcDbEntity
  8
_1-0_
  6
CONTINUOUS
 62
     0
100
AcDbLine
 10
355.638642978
 20
664.8073039351
 11
357.588642978
 21
664.8073039351
  0
ARC
  5
3B8
100
AcDbEntity
  8
_1-0_
  6
CONTINUOUS
 62
     0
100
AcDbCircle
 10
355.638642978
 20
665.1073039351
 40
0.3
100
AcDbArc
 50
180
 51
270
  0
ARC
  5
3B9
100
AcDbEntity
  8
_1-0_
  6
CONTINUOUS
 62
     0
100
AcDbCircle
 10
355.638642978
 20
667.0073059351
 40
0.3
100
AcDbArc
 50
90
 51
180
  0
LINE
  5
3BA
100
AcDbEntity
  8
_1-0_
  6
CONTINUOUS
 62
     0
100
AcDbLine
 10
372.338643978
 20
661.3073059351
 11
371.838642978
 21
660.8073049351
  0
LINE
  5
3BB
100
AcDbEntity
  8
_1-0_
  6
CONTINUOUS
 62
     0
100
AcDbLine
 10
371.338641978
 20
661.3073059351
 11
371.838642978
 21
660.8073049351
  0
LINE
  5
3BC
100
AcDbEntity
  8
_1-0_
  6
CONTINUOUS
 62
     0
100
AcDbLine
 10
376.838643978
 20
659.3073049351
 11
376.838643978
 21
658.8073039351
  0
LINE
  5
3BD
100
AcDbEntity
  8
_1-0_
  6
CONTINUOUS
 62
     0
100
AcDbLine
 10
355.838643978
 20
668.8073059351
 11
358.588641978
 21
668.8073059351
  0
ARC
  5
3BE
100
AcDbEntity
  8
_1-0_
  6
CONTINUOUS
 62
     0
100
AcDbCircle
 10
355.838643978
 20
669.3073039351
 40
0.500001
100
AcDbArc
 50
180
 51
270
  0
ARC
  5
3BF
100
AcDbEntity
  8
_1-0_
  6
CONTINUOUS
 62
     0
100
AcDbCircle
 10
358.588641978
 20
668.0573059351
 40
0.75
100
AcDbArc
 50
-90
 51
90
  0
LINE
  5
3C0
100
AcDbEntity
  8
_1-0_
  6
CONTINUOUS
 62
     0
100
AcDbLine
 10
366.838641978
 20
659.3073049351
 11
355.338642978
 21
659.3073049351
  0
LINE
  5
3C1
100
AcDbEntity
  8
_1-0_
  6
CONTINUOUS
 62
     0
100
AcDbLine
 10
366.838641978
 20
659.3073049351
 11
366.838641978
 21
658.8073039351
  0
ARC
  5
3C2
100
AcDbEntity
  8
_1-0_
  6
CONTINUOUS
 62
     0
100
AcDbCircle
 10
357.588642978
 20
664.0573039351
 40
0.75
100
AcDbArc
 50
-90
 51
90
  0
LINE
  5
3C3
100
AcDbEntity
  8
_1-0_
  6
CONTINUOUS
 62
     0
100
AcDbLine
 10
355.638642978
 20
663.3073039351
 11
357.588642978
 21
663.3073039351
  0
ARC
  5
3C4
100
AcDbEntity
  8
_1-0_
  6
CONTINUOUS
 62
     0
100
AcDbCircle
 10
355.638642978
 20
663.0073039351
 40
0.3
100
AcDbArc
 50
90
 51
180
  0
LINE
  5
3C5
100
AcDbEntity
  8
_1-0_
  6
CONTINUOUS
 62
     0
100
AcDbLine
 10
388.338642978
 20
659.3073049351
 11
376.838643978
 21
659.3073049351
  0
LINE
  5
3C6
100
AcDbEntity
  8
_1-0_
  6
CONTINUOUS
 62
     0
100
AcDbLine
 10
388.038642978
 20
664.8073039351
 11
386.088642978
 21
664.8073039351
  0
ARC
  5
3C7
100
AcDbEntity
  8
_1-0_
  6
CONTINUOUS
 62
     0
100
AcDbCircle
 10
388.038642978
 20
665.1073039351
 40
0.3
100
AcDbArc
 50
-90
 51
0
  0
LINE
  5
3C8
100
AcDbEntity
  8
_1-0_
  6
CONTINUOUS
 62
     0
100
AcDbLine
 10
388.338642978
 20
665.1073039351
 11
388.338642978
 21
667.0073059351
  0
ARC
  5
3C9
100
AcDbEntity
  8
_1-0_
  6
CONTINUOUS
 62
     0
100
AcDbCircle
 10
388.038642978
 20
667.0073059351
 40
0.3
100
AcDbArc
 50
0
 51
90
  0
LINE
  5
3CA
100
AcDbEntity
  8
_1-0_
  6
CONTINUOUS
 62
     0
100
AcDbLine
 10
389.338641978
 20
668.8073059351
 11
385.088643978
 21
668.8073059351
  0
ARC
  5
3CB
100
AcDbEntity
  8
_1-0_
  6
CONTINUOUS
 62
     0
100
AcDbCircle
 10
389.338641978
 20
668.3073049351
 40
0.500001
100
AcDbArc
 50
0
 51
90
  0
ARC
  5
3CC
100
AcDbEntity
  8
_1-0_
  6
CONTINUOUS
 62
     0
100
AcDbCircle
 10
385.088643978
 20
668.0573059351
 40
0.75
100
AcDbArc
 50
90
 51
270
  0
LINE
  5
3CD
100
AcDbEntity
  8
_1-0_
  6
CONTINUOUS
 62
     0
100
AcDbLine
 10
389.838642978
 20
668.3073049351
 11
389.838642978
 21
658.8073039351
  0
LINE
  5
3CE
100
AcDbEntity
  8
_1-0_
  6
CONTINUOUS
 62
     0
100
AcDbLine
 10
388.338642978
 20
659.3073049351
 11
388.338642978
 21
658.8073039351
  0
ARC
  5
3CF
100
AcDbEntity
  8
_1-0_
  6
CONTINUOUS
 62
     0
100
AcDbCircle
 10
386.088642978
 20
664.0573039351
 40
0.75
100
AcDbArc
 50
90
 51
270
  0
ARC
  5
3D0
100
AcDbEntity
  8
_1-0_
  6
CONTINUOUS
 62
     0
100
AcDbCircle
 10
388.038642978
 20
661.6073059351
 40
0.3
100
AcDbArc
 50
-90
 51
0
  0
LINE
  5
3D1
100
AcDbEntity
  8
_1-0_
  6
CONTINUOUS
 62
     0
100
AcDbLine
 10
388.338642978
 20
661.6073059351
 11
388.338642978
 21
663.0073039351
  0
ARC
  5
3D2
100
AcDbEntity
  8
_1-0_
  6
CONTINUOUS
 62
     0
100
AcDbCircle
 10
388.038642978
 20
663.0073039351
 40
0.3
100
AcDbArc
 50
0
 51
90
  0
LINE
  5
3D3
100
AcDbEntity
  8
_1-0_
  6
CONTINUOUS
 62
     0
100
AcDbLine
 10
388.038642978
 20
663.3073039351
 11
386.088642978
 21
663.3073039351
  0
ARC
  5
3D4
100
AcDbEntity
  8
_1-0_
  6
CONTINUOUS
 62
     0
100
AcDbCircle
 10
355.838643978
 20
661.8073039351
 40
0.500001
100
AcDbArc
 50
180
 51
270
  0
LINE
  5
3D5
100
AcDbEntity
  8
_1-0_
  6
CONTINUOUS
 62
     0
100
AcDbLine
 10
355.838643978
 20
661.3073059351
 11
388.038642978
 21
661.3073059351
  0
LINE
  5
3D6
100
AcDbEntity
  8
_2-0_
  6
CONTINUOUS
 62
     0
100
AcDbLine
 10
388.338642978
 20
658.8073039351
 11
389.838642978
 21
658.8073039351
  0
ARC
  5
3D7
100
AcDbEntity
  8
_0-0_
  6
CONTINUOUS
 62
     0
100
AcDbCircle
 10
354.338643978
 20
676.8073039351
 40
0.999999
100
AcDbArc
 50
0
 51
180
  0
LINE
  5
3D8
100
AcDbEntity
  8
_0-0_
  6
CONTINUOUS
 62
     0
100
AcDbLine
 10
355.338642978
 20
669.3073039351
 11
355.338642978
 21
676.8073039351
  0
LINE
  5
3D9
100
AcDbEntity
  8
_0-0_
  6
CONTINUOUS
 62
     0
100
AcDbLine
 10
355.338642978
 20
665.1073039351
 11
355.338642978
 21
667.0073059351
  0
ARC
  5
3DA
100
AcDbEntity
  8
_0-0_
  6
CONTINUOUS
 62
     0
100
AcDbCircle
 10
352.838643978
 20
661.8073039351
 40
0.500001
100
AcDbArc
 50
-90
 51
0
  0
LINE
  5
3DB
100
AcDbEntity
  8
_0-0_
  6
CONTINUOUS
 62
     0
100
AcDbLine
 10
353.338641978
 20
659.8073059351
 11
353.338641978
 21
658.8073039351
  0
LINE
  5
3DC
100
AcDbEntity
  8
_0-0_
  6
CONTINUOUS
 62
     0
100
AcDbLine
 10
355.338642978
 20
659.3073049351
 11
355.338642978
 21
658.8073039351
  0
LINE
  5
3DD
100
AcDbEntity
  8
_0-0_
  6
CONTINUOUS
 62
     0
100
AcDbLine
 10
355.338642978
 20
661.8073039351
 11
355.338642978
 21
663.0073039351
  0
LINE
  5
3DE
100
AcDbEntity
  8
_0-0_
  6
CONTINUOUS
 62
     0
100
AcDbLine
 10
342.838641978
 20
659.8073059351
 11
342.838641978
 21
658.8073039351
  0
LINE
  5
3DF
100
AcDbEntity
  8
_0-0_
  6
CONTINUOUS
 62
     0
100
AcDbLine
 10
341.338641978
 20
658.8073039351
 11
342.838641978
 21
658.8073039351
  0
LINE
  5
3E0
100
AcDbEntity
  8
_0-0_
  6
CONTINUOUS
 62
     0
100
AcDbLine
 10
353.338641978
 20
658.8073039351
 11
355.338642978
 21
658.8073039351
  0
LINE
  5
3E1
100
AcDbEntity
  8
_0-0_
  6
CONTINUOUS
 62
     0
100
AcDbLine
 10
341.338641978
 20
660.8073059351
 11
341.338641978
 21
658.8073039351
  0
ARC
  5
3E2
100
AcDbEntity
  8
_0-0_
  6
CONTINUOUS
 62
     0
100
AcDbCircle
 10
341.838641978
 20
660.8073059351
 40
0.5
100
AcDbArc
 50
90
 51
180
  0
LINE
  5
3E3
100
AcDbEntity
  8
_0-0_
  6
CONTINUOUS
 62
     0
100
AcDbLine
 10
353.088641978
 20
664.5573059351
 11
351.838641978
 21
664.5573059351
  0
LINE
  5
3E4
100
AcDbEntity
  8
_0-0_
  6
CONTINUOUS
 62
     0
100
AcDbLine
 10
348.838641978
 20
664.5573059351
 11
347.588641978
 21
664.5573059351
  0
ARC
  5
3E5
100
AcDbEntity
  8
_0-0_
  6
CONTINUOUS
 62
     0
100
AcDbCircle
 10
321.9920365057
 20
707.4926985574
 40
0.5
100
AcDbArc
 50
101.4095443492
 51
279.1986608952
  0
ARC
  5
3E6
100
AcDbEntity
  8
_0-0_
  6
CONTINUOUS
 62
     0
100
AcDbCircle
 10
326.838641978
 20
683.4768617951
 40
25
100
AcDbArc
 50
0
 51
101.4095443492
  0
ARC
  5
3E7
100
AcDbEntity
  8
_0-0_
  6
CONTINUOUS
 62
     0
100
AcDbCircle
 10
325.762696384
 20
684.2084932931
 40
23.08754100601
100
AcDbArc
 50
-1.815975820674
 51
99.19866089519
  0
LINE
  5
3E8
100
AcDbEntity
  8
_0-0_
  6
CONTINUOUS
 62
     0
100
AcDbLine
 10
353.338641978
 20
659.8073059351
 11
345.8326931042
 21
659.8073059351
  0
LINE
  5
3E9
100
AcDbEntity
  8
_0-0_
  6
CONTINUOUS
 62
     0
100
AcDbLine
 10
345.8326931042
 20
659.8073059351
 11
342.838641978
 21
659.8073059351
  0
LINE
  5
3EA
100
AcDbEntity
  8
_0-0_
  6
CONTINUOUS
 62
     0
100
AcDbLine
 10
347.838641978
 20
661.3073059351
 11
352.838643978
 21
661.3073059351
  0
LINE
  5
3EB
100
AcDbEntity
  8
_0-0_
  6
CONTINUOUS
 62
     0
100
AcDbLine
 10
341.838641978
 20
661.3073059351
 11
345.838641978
 21
661.3073059351
  0
ARC
  5
3EC
100
AcDbEntity
  8
_0-0_
  6
CONTINUOUS
 62
     0
100
AcDbCircle
 10
347.838641978
 20
661.8073059351
 40
0.25
100
AcDbArc
 50
180
 51
270
  0
ARC
  5
3ED
100
AcDbEntity
  8
_0-0_
  6
CONTINUOUS
 62
     0
100
AcDbCircle
 10
352.838643978
 20
661.8073039351
 40
0.250001
100
AcDbArc
 50
-90
 51
0
  0
LINE
  5
3EE
100
AcDbEntity
  8
_0-0_
  6
CONTINUOUS
 62
     0
100
AcDbLine
 10
347.588641978
 20
661.8073059351
 11
347.588641978
 21
664.5573059351
  0
LINE
  5
3EF
100
AcDbEntity
  8
_0-0_
  6
CONTINUOUS
 62
     0
100
AcDbLine
 10
353.088641978
 20
661.8073039351
 11
353.088641978
 21
664.5573059351
  0
LINE
  5
3F0
100
AcDbEntity
  8
_0-0_
  6
CONTINUOUS
 62
     0
100
AcDbLine
 10
347.838641978
 20
661.5573059351
 11
352.838643978
 21
661.5573059351
  0
LINE
  5
3F1
100
AcDbEntity
  8
_0-0_
  6
CONTINUOUS
 62
     0
100
AcDbLine
 10
353.338641978
 20
676.8073039351
 11
353.338641978
 21
666.3073059351
  0
LINE
  5
3F2
100
AcDbEntity
  8
_0-0_
  6
CONTINUOUS
 62
     0
100
AcDbLine
 10
353.338641978
 20
664.8073059351
 11
353.338641978
 21
661.8073039351
  0
LINE
  5
3F3
100
AcDbEntity
  8
_0-0_
  6
CONTINUOUS
 62
     0
100
AcDbLine
 10
347.338641978
 20
661.8073059351
 11
347.338641978
 21
664.8073059351
  0
LINE
  5
3F4
100
AcDbEntity
  8
_0-0_
  6
CONTINUOUS
 62
     0
100
AcDbLine
 10
345.838641978
 20
665.8073059351
 11
345.838641978
 21
661.3073059351
  0
ARC
  5
3F5
100
AcDbEntity
  8
_0-0_
  6
CONTINUOUS
 62
     0
100
AcDbCircle
 10
346.338641978
 20
665.8073059351
 40
0.5
100
AcDbArc
 50
90
 51
180
  0
ARC
  5
3F6
100
AcDbEntity
  8
_0-0_
  6
CONTINUOUS
 62
     0
100
AcDbCircle
 10
347.838641978
 20
661.8073059351
 40
0.5
100
AcDbArc
 50
180
 51
270
  0
LINE
  5
3F7
100
AcDbEntity
  8
_0-0_
  6
CONTINUOUS
 62
     0
100
AcDbLine
 10
346.338641978
 20
666.3073059351
 11
347.588641978
 21
666.3073059351
  0
ARC
  5
3F8
100
AcDbEntity
  8
_0-0_
  6
CONTINUOUS
 62
     0
100
AcDbCircle
 10
347.588641978
 20
665.3073059351
 40
1
100
AcDbArc
 50
0
 51
90
  0
LINE
  5
3F9
100
AcDbEntity
  8
_0-0_
  6
CONTINUOUS
 62
     0
100
AcDbLine
 10
348.588641978
 20
665.3073059351
 11
348.588641978
 21
664.8073059351
  0
LINE
  5
3FA
100
AcDbEntity
  8
_0-0_
  6
CONTINUOUS
 62
     0
100
AcDbLine
 10
348.588641978
 20
664.8073059351
 11
347.338641978
 21
664.8073059351
  0
LINE
  5
3FB
100
AcDbEntity
  8
_0-0_
  6
CONTINUOUS
 62
     0
100
AcDbLine
 10
353.338641978
 20
664.8073059351
 11
352.088641978
 21
664.8073059351
  0
LINE
  5
3FC
100
AcDbEntity
  8
_0-0_
  6
CONTINUOUS
 62
     0
100
AcDbLine
 10
352.088641978
 20
665.3073059351
 11
352.088641978
 21
664.8073059351
  0
ARC
  5
3FD
100
AcDbEntity
  8
_0-0_
  6
CONTINUOUS
 62
     0
100
AcDbCircle
 10
353.088641978
 20
665.3073059351
 40
1
100
AcDbArc
 50
90
 51
180
  0
LINE
  5
3FE
100
AcDbEntity
  8
_0-0_
  6
CONTINUOUS
 62
     0
100
AcDbLine
 10
353.088641978
 20
666.3073059351
 11
353.338641978
 21
666.3073059351
  0
CIRCLE
  5
3FF
100
AcDbEntity
  8
_0-1_PRO0
  6
CONTINUOUS
 62
     0
100
AcDbCircle
 10
346.864149906
 20
696.2438092119
 40
0.9
  0
LINE
  5
400
100
AcDbEntity
  8
_0-1_PRO0
  6
CONTINUOUS
 62
     0
100
AcDbLine
 10
346.864149906
 20
696.2438092119
 11
332.7755806765
 21
734.9518313033
  0
LINE
  5
401
100
AcDbEntity
  8
_0-1_PRO0
  6
CONTINUOUS
 62
     0
100
AcDbLine
 10
496.8563162636
 20
656.7985349351
 11
321.8563152636
 21
656.7985349351
  0
LINE
  5
402
100
AcDbEntity
  8
_0-1_PRO0
  6
CONTINUOUS
 62
     0
100
AcDbLine
 10
392.83864388
 20
657.7936000258
 11
497.6176301312
 21
657.8209762061
  0
LINE
  5
403
100
AcDbEntity
  8
_0-0_
  6
CONTINUOUS
 62
     0
100
AcDbLine
 10
356.838642978
 20
657.674072597
 11
356.838642978
 21
658.7985349351
  0
LINE
  5
404
100
AcDbEntity
  8
_2-0_
  6
CONTINUOUS
 62
     0
100
AcDbLine
 10
386.838642978
 20
658.7985349351
 11
356.838642978
 21
658.7985349351
  0
LINE
  5
405
100
AcDbEntity
  8
_0-1_PRO0
  6
CONTINUOUS
 62
     0
100
AcDbLine
 10
321.8563152636
 20
400.4930126137
 11
324.8563152636
 21
399.7430126137
  0
LINE
  5
406
100
AcDbEntity
  8
_0-1_PRO0
  6
CONTINUOUS
 62
     0
100
AcDbLine
 10
321.8563152636
 20
400.4930126137
 11
324.8563152636
 21
401.2430126137
  0
LINE
  5
407
100
AcDbEntity
  8
_0-1_PRO0
  6
CONTINUOUS
 62
     0
100
AcDbLine
 10
321.8563152636
 20
400.4930126137
 11
318.8563152636
 21
401.2430126137
  0
LINE
  5
408
100
AcDbEntity
  8
_0-1_PRO0
  6
CONTINUOUS
 62
     0
100
AcDbLine
 10
321.8563152636
 20
400.4930126137
 11
318.8563152636
 21
399.7430126137
  0
LINE
  5
409
100
AcDbEntity
  8
_0-1_PRO0
  6
CONTINUOUS
 62
     0
100
AcDbLine
 10
171.8563152636
 20
400.4930126137
 11
321.8563152636
 21
400.4930126137
  0
LINE
  5
40A
100
AcDbEntity
  8
_0-1_PRO0
  6
CONTINUOUS
 62
     0
100
AcDbLine
 10
321.8563152636
 20
400.4930126137
 11
496.8563162636
 21
400.4930126137
  0
CIRCLE
  5
40B
100
AcDbEntity
  8
_0-1_PRO0
  6
CONTINUOUS
 62
     0
100
AcDbCircle
 10
331.3990475348
 20
740.4428316765
 40
6
  0
TEXT
  5
40C
100
AcDbEntity
  8
_0-1_PRO0
  6
CONTINUOUS
 62
     0
100
AcDbText
 10
412.5894727927
 20
401.4560645632
 40
9
  1
Ｃ
  7
STANDARD
100
AcDbText
  0
TEXT
  5
40D
100
AcDbEntity
  8
_0-1_PRO0
  6
CONTINUOUS
 62
     0
100
AcDbText
 10
239.7076276319
 20
400.8642506827
 40
9
  1
150
  7
STANDARD
100
AcDbText
  0
TEXT
  5
40E
100
AcDbEntity
  8
_2-0_
  6
CONTINUOUS
 62
     0
100
AcDbText
 10
993.2102532843
 20
399.784734027
 40
9
  1
150
  7
STANDARD
100
AcDbText
  0
LINE
  5
40F
100
AcDbEntity
  8
_0-1_PRO0
  6
CONTINUOUS
 62
     0
100
AcDbLine
 10
496.8563162636
 20
656.7985349351
 11
496.8563162636
 21
498.1074861881
  0
LINE
  5
410
100
AcDbEntity
  8
_0-1_PRO0
  6
CONTINUOUS
 62
     0
100
AcDbLine
 10
746.8563142636
 20
656.7985349351
 11
746.8563142636
 21
498.1074861881
  0
LINE
  5
411
100
AcDbEntity
  8
_0-1_PRO0
  6
CONTINUOUS
 62
     0
100
AcDbLine
 10
496.8563162636
 20
490.5565141213
 11
496.8563162636
 21
396.4930136137
  0
LINE
  5
412
100
AcDbEntity
  8
_0-1_PRO0
  6
CONTINUOUS
 62
     0
100
AcDbLine
 10
746.8563142636
 20
490.5565141213
 11
746.8563142636
 21
396.4930136137
  0
LINE
  5
413
100
AcDbEntity
  8
_0-1_PRO0
  6
CONTINUOUS
 62
     0
100
AcDbLine
 10
871.8563142636
 20
610.3651319351
 11
871.8563142636
 21
498.1758991213
  0
LINE
  5
414
100
AcDbEntity
  8
_0-1_PRO0
  6
CONTINUOUS
 62
     0
100
AcDbLine
 10
871.8563142636
 20
502.1759011213
 11
921.8563152636
 21
502.1759011213
  0
LINE
  5
415
100
AcDbEntity
  8
_0-1_PRO0
  6
CONTINUOUS
 62
     0
100
AcDbLine
 10
871.8563142636
 20
502.1759011213
 11
874.8563142636
 21
501.4259011213
  0
LINE
  5
416
100
AcDbEntity
  8
_0-1_PRO0
  6
CONTINUOUS
 62
     0
100
AcDbLine
 10
871.8563142636
 20
502.1759011213
 11
874.8563142636
 21
502.9259011213
  0
LINE
  5
417
100
AcDbEntity
  8
_0-1_PRO0
  6
CONTINUOUS
 62
     0
100
AcDbLine
 10
921.8563152636
 20
502.1759011213
 11
918.8563152636
 21
502.9259011213
  0
LINE
  5
418
100
AcDbEntity
  8
_0-1_PRO0
  6
CONTINUOUS
 62
     0
100
AcDbLine
 10
921.8563152636
 20
502.1759011213
 11
918.8563152636
 21
501.4259011213
  0
LINE
  5
419
100
AcDbEntity
  8
_0-1_PRO0
  6
CONTINUOUS
 62
     0
100
AcDbLine
 10
921.8563152636
 20
656.7985349351
 11
921.8563152636
 21
491.5565131213
  0
TEXT
  5
41A
100
AcDbEntity
  8
_2-0_
  6
CONTINUOUS
 62
     0
100
AcDbText
 10
891.5435939602
 20
502.4520787281
 40
9
  1
50
  7
STANDARD
100
AcDbText
  0
LINE
  5
41B
100
AcDbEntity
  8
_0-1_PRO0
  6
CONTINUOUS
 62
     0
100
AcDbLine
 10
921.8563152636
 20
490.5565141213
 11
921.8563152636
 21
396.4930136137
  0
LINE
  5
41C
100
AcDbEntity
  8
_0-1_PRO0
  6
CONTINUOUS
 62
     0
100
AcDbLine
 10
371.8563162636
 20
502.1759011213
 11
368.8563162636
 21
502.9259011213
  0
LINE
  5
41D
100
AcDbEntity
  8
_0-1_PRO0
  6
CONTINUOUS
 62
     0
100
AcDbLine
 10
371.8563162636
 20
502.1759011213
 11
368.8563162636
 21
501.4259011213
  0
LINE
  5
41E
100
AcDbEntity
  8
_0-1_PRO0
  6
CONTINUOUS
 62
     0
100
AcDbLine
 10
321.8563152636
 20
502.1759011213
 11
324.8563152636
 21
501.4259011213
  0
LINE
  5
41F
100
AcDbEntity
  8
_0-1_PRO0
  6
CONTINUOUS
 62
     0
100
AcDbLine
 10
321.8563152636
 20
502.1759011213
 11
324.8563152636
 21
502.9259011213
  0
LINE
  5
420
100
AcDbEntity
  8
_0-1_PRO0
  6
CONTINUOUS
 62
     0
100
AcDbLine
 10
371.8563162636
 20
610.3651319351
 11
371.8563162636
 21
498.1758991213
  0
LINE
  5
421
100
AcDbEntity
  8
_0-1_PRO0
  6
CONTINUOUS
 62
     0
100
AcDbLine
 10
321.8563152636
 20
502.1759011213
 11
371.8563162636
 21
502.1759011213
  0
LINE
  5
422
100
AcDbEntity
  8
_0-1_PRO0
  6
CONTINUOUS
 62
     0
100
AcDbLine
 10
321.8563152636
 20
656.7985349351
 11
321.8563152636
 21
491.5565131213
  0
TEXT
  5
423
100
AcDbEntity
  8
_0-1_PRO0
  6
CONTINUOUS
 62
     0
100
AcDbText
 10
344.1860280408
 20
502.6953995815
 40
9
  1
50
  7
STANDARD
100
AcDbText
  0
LINE
  5
424
100
AcDbEntity
  8
_0-1_PRO0
  6
CONTINUOUS
 62
     0
100
AcDbLine
 10
321.8563152636
 20
490.5565141213
 11
321.8563152636
 21
396.4930136137
  0
CIRCLE
  5
425
100
AcDbEntity
  8
_0-1_PRO0
  6
CONTINUOUS
 62
     0
100
AcDbCircle
 10
634.2827583847
 20
481.1041060716
 40
0.9
  0
CIRCLE
  5
426
100
AcDbEntity
  8
_0-1_PRO0
  6
CONTINUOUS
 62
     0
100
AcDbCircle
 10
660.9133092366
 20
529.3133520775
 40
6
  0
LINE
  5
427
100
AcDbEntity
  8
_0-1_PRO0
  6
CONTINUOUS
 62
     0
100
AcDbLine
 10
634.2827583847
 20
481.1041060716
 11
658.8611892366
 21
523.6751970775
  0
LINE
  5
428
100
AcDbEntity
  8
_2-0_
  6
CONTINUOUS
 62
     0
100
AcDbLine
 10
682.8339656255
 20
254.5028453541
 11
582.3339656255
 21
254.5028453541
  0
LINE
  5
429
100
AcDbEntity
  8
_2-0_
  6
CONTINUOUS
 62
     0
100
AcDbLine
 10
684.3339656255
 20
254.5028453541
 11
784.8339656255
 21
254.5028453541
  0
LINE
  5
42A
100
AcDbEntity
  8
_2-0_
  6
CONTINUOUS
 62
     0
100
AcDbLine
 10
267.3339656255
 20
74.50284535411
 11
267.3339656255
 21
326.5028453541
  0
LINE
  5
42B
100
AcDbEntity
  8
_2-0_
  6
CONTINUOUS
 62
     0
100
AcDbLine
 10
288.3339656255
 20
74.50284535411
 11
288.3339656255
 21
326.5028453541
  0
LINE
  5
42C
100
AcDbEntity
  8
_2-0_
  6
CONTINUOUS
 62
     0
100
AcDbLine
 10
438.3339656255
 20
74.50284535411
 11
438.3339656255
 21
326.5028453541
  0
LINE
  5
42D
100
AcDbEntity
  8
_2-0_
  6
CONTINUOUS
 62
     0
100
AcDbLine
 10
582.3339656255
 20
74.50284535411
 11
582.3339656255
 21
326.5028453541
  0
LINE
  5
42E
100
AcDbEntity
  8
_2-0_
  6
CONTINUOUS
 62
     0
100
AcDbLine
 10
580.8339656255
 20
74.50284535411
 11
580.8339656255
 21
326.5028453541
  0
LINE
  5
42F
100
AcDbEntity
  8
_2-0_
  6
CONTINUOUS
 62
     0
100
AcDbLine
 10
634.8339656255
 20
74.50284535411
 11
634.8339656255
 21
326.5028453541
  0
LINE
  5
430
100
AcDbEntity
  8
_2-0_
  6
CONTINUOUS
 62
     0
100
AcDbLine
 10
661.8339656255
 20
74.50284535411
 11
661.8339656255
 21
326.5028453541
  0
LINE
  5
431
100
AcDbEntity
  8
_2-0_
  6
CONTINUOUS
 62
     0
100
AcDbLine
 10
684.3339656255
 20
74.50284535411
 11
684.3339656255
 21
326.5028453541
  0
LINE
  5
432
100
AcDbEntity
  8
_2-0_
  6
CONTINUOUS
 62
     0
100
AcDbLine
 10
682.8339656255
 20
74.50284535411
 11
682.8339656255
 21
326.5028453541
  0
LINE
  5
433
100
AcDbEntity
  8
_2-0_
  6
CONTINUOUS
 62
     0
100
AcDbLine
 10
736.8339656255
 20
74.50284535411
 11
736.8339656255
 21
326.5028453541
  0
LINE
  5
434
100
AcDbEntity
  8
_2-0_
  6
CONTINUOUS
 62
     0
100
AcDbLine
 10
763.8339656255
 20
74.50284535411
 11
763.8339656255
 21
326.5028453541
  0
LINE
  5
435
100
AcDbEntity
  8
_2-0_
  6
CONTINUOUS
 62
     0
100
AcDbLine
 10
784.8339656255
 20
74.50284535411
 11
784.8339656255
 21
326.5028453541
  0
TEXT
  5
436
100
AcDbEntity
  8
_0-1_PRO0
  6
CONTINUOUS
 62
     0
100
AcDbText
 10
836.76219643
 20
401.9967005254
 40
9
  1
Ｃ
  7
STANDARD
100
AcDbText
  0
LINE
  5
437
100
AcDbEntity
  8
_1-0_
  6
CONTINUOUS
 62
     0
100
AcDbLine
 10
381.796883113
 20
703.4925962855
 11
358.828403113
 21
702.2888702855
  0
LINE
  5
438
100
AcDbEntity
  8
_1-0_
  6
CONTINUOUS
 62
     0
100
AcDbLine
 10
395.244452113
 20
691.2756872855
 11
381.796883113
 21
703.4925962855
  0
LINE
  5
439
100
AcDbEntity
  8
_1-0_
  6
CONTINUOUS
 62
     0
100
AcDbLine
 10
399.093275113
 20
693.4823132855
 11
398.432039113
 21
693.9326132855
  0
LINE
  5
43A
100
AcDbEntity
  8
_1-0_
  6
CONTINUOUS
 62
     0
100
AcDbLine
 10
398.432039113
 20
693.9326132855
 11
396.743423113
 21
691.4529812855
  0
LINE
  5
43B
100
AcDbEntity
  8
_1-0_
  6
CONTINUOUS
 62
     0
100
AcDbLine
 10
399.093275113
 20
693.4823132855
 11
397.404659113
 21
691.0026812855
  0
ARC
  5
43C
100
AcDbEntity
  8
_1-0_
  6
CONTINUOUS
 62
     0
100
AcDbCircle
 10
395.916881113
 20
692.0158532855
 40
0.999999
100
AcDbArc
 50
-132.254652
 51
-34.25465800002
  0
ARC
  5
43D
100
AcDbEntity
  8
_1-0_
  6
CONTINUOUS
 62
     0
100
AcDbCircle
 10
395.916881113
 20
692.0158532855
 40
1.8
100
AcDbArc
 50
-132.254651
 51
-34.254658
  0
ARC
  5
43E
100
AcDbEntity
  8
_1-0_
  6
CONTINUOUS
 62
     0
100
AcDbCircle
 10
370.391147113
 20
701.3927882855
 40
6.3
100
AcDbArc
 50
43.903458
 51
142.096542
  0
LINE
  5
43F
100
AcDbEntity
  8
_1-0_
  6
CONTINUOUS
 62
     0
100
AcDbLine
 10
375.486596113
 20
704.4792752855
 11
375.555449113
 21
703.1654972855
  0
LINE
  5
440
100
AcDbEntity
  8
_1-0_
  6
CONTINUOUS
 62
     0
100
AcDbLine
 10
365.000987113
 20
703.9297472855
 11
365.069837113
 21
702.6159692855
  0
ARC
  5
441
100
AcDbEntity
  8
_1-0_
  6
CONTINUOUS
 62
     0
100
AcDbCircle
 10
373.489337113
 20
704.3746052855
 40
2.000001
100
AcDbArc
 50
2.999999999999
 51
43.903458
  0
LINE
  5
442
100
AcDbEntity
  8
_1-0_
  6
CONTINUOUS
 62
     0
100
AcDbLine
 10
394.706513113
 20
690.6835562855
 11
381.505754113
 21
702.6762422855
  0
LINE
  5
443
100
AcDbEntity
  8
_1-0_
  6
CONTINUOUS
 62
     0
100
AcDbLine
 10
381.505754113
 20
702.6762422855
 11
359.162426113
 21
701.5052762855
  0
LINE
  5
444
100
AcDbEntity
  8
_1-0_
  6
CONTINUOUS
 62
     0
100
AcDbLine
 10
347.328404113
 20
688.2005762855
 11
359.203271113
 21
701.5074182855
  0
ARC
  5
445
100
AcDbEntity
  8
_1-0_
  6
CONTINUOUS
 62
     0
100
AcDbCircle
 10
366.998246113
 20
704.0344202855
 40
2.000001
100
AcDbArc
 50
142.096542
 51
183
  0
LINE
  5
446
100
AcDbEntity
  8
_1-0_
  6
CONTINUOUS
 62
     0
100
AcDbLine
 10
342.673121113
 20
690.5254592855
 11
343.283666113
 21
691.0424072855
  0
LINE
  5
447
100
AcDbEntity
  8
_1-0_
  6
CONTINUOUS
 62
     0
100
AcDbLine
 10
343.283666113
 20
691.0424072855
 11
345.222224113
 21
688.7528672855
  0
LINE
  5
448
100
AcDbEntity
  8
_1-0_
  6
CONTINUOUS
 62
     0
100
AcDbLine
 10
342.673121113
 20
690.5254592855
 11
344.611679113
 21
688.2359192855
  0
ARC
  5
449
100
AcDbEntity
  8
_1-0_
  6
CONTINUOUS
 62
     0
100
AcDbCircle
 10
345.985403113
 20
689.3990552855
 40
0.999999
100
AcDbArc
 50
-139.745342
 51
-41.745348
  0
LINE
  5
44A
100
AcDbEntity
  8
_1-0_
  6
CONTINUOUS
 62
     0
100
AcDbLine
 10
346.731515113
 20
688.7332322855
 11
358.828403113
 21
702.2888702855
  0
ARC
  5
44B
100
AcDbEntity
  8
_1-0_
  6
CONTINUOUS
 62
     0
100
AcDbCircle
 10
345.985403113
 20
689.3990552855
 40
1.8
100
AcDbArc
 50
-139.745342
 51
-41.74534900001
  0
LINE
  5
44C
100
AcDbEntity
  8
_1-0_
  6
CONTINUOUS
 62
     0
100
AcDbLine
 10
370.006145113
 20
708.7390832855
 11
372.1524127598
 21
670.07218635
  0
LINE
  5
44D
100
AcDbEntity
  8
_0-0_
  6
CONTINUOUS
 62
     0
100
AcDbLine
 10
351.838641978
 20
664.5573059351
 11
351.8522871912
 21
684.5257324891
  0
LINE
  5
44E
100
AcDbEntity
  8
_0-0_
  6
CONTINUOUS
 62
     0
100
AcDbLine
 10
348.838641978
 20
664.5573059351
 11
348.8522871912
 21
685.9889954851
  0
LINE
  5
44F
100
AcDbEntity
  8
_1-0_
  6
CONTINUOUS
 62
     0
100
AcDbLine
 10
367.316753113
 20
702.7337252855
 11
369.0183747483
 21
673.2824194751
  0
LINE
  5
450
100
AcDbEntity
  8
_1-0_
  6
CONTINUOUS
 62
     0
100
AcDbLine
 10
373.308533113
 20
703.0477412855
 11
375.0101508231
 21
673.5964348844
  0
LINE
  5
451
100
AcDbEntity
  8
_a-0_
  6
CONTINUOUS
 62
     0
100
AcDbLine
 10
375.0101508231
 20
673.5964348844
 11
369.0183747483
 21
673.2824194751
  0
LINE
  5
452
100
AcDbEntity
  8
_1-0_
  6
CONTINUOUS
 62
     0
100
AcDbLine
 10
367.816070113
 20
702.7598942855
 11
369.5465288322
 21
672.8094126623
  0
LINE
  5
453
100
AcDbEntity
  8
_1-0_
  6
CONTINUOUS
 62
     0
100
AcDbLine
 10
372.809216113
 20
703.0215722855
 11
374.5396789939
 21
673.0710923499
  0
LINE
  5
454
100
AcDbEntity
  8
_a-0_
  6
CONTINUOUS
 62
     0
100
AcDbLine
 10
374.5396789939
 20
673.0710923499
 11
369.5465288322
 21
672.8094126623
  0
LINE
  5
455
100
AcDbEntity
  8
_a-0_
  6
CONTINUOUS
 62
     0
100
AcDbLine
 10
369.3394164606
 20
672.9948993712
 11
369.5465288322
 21
672.8094126623
  0
LINE
  5
456
100
AcDbEntity
  8
_a-0_
  6
CONTINUOUS
 62
     0
100
AcDbLine
 10
374.5396789939
 20
673.0710923499
 11
374.724171955
 21
673.2771025587
  0
LINE
  5
457
100
AcDbEntity
  8
_a-0_
  6
CONTINUOUS
 62
     0
100
AcDbLine
 10
369.0183747483
 20
673.2824194751
 11
369.3394164606
 21
672.9948993712
  0
LINE
  5
458
100
AcDbEntity
  8
_a-0_
  6
CONTINUOUS
 62
     0
100
AcDbLine
 10
374.724171955
 20
673.2771025587
 11
375.0101508231
 21
673.5964348844
  0
LINE
  5
459
100
AcDbEntity
  8
_1-0_
  6
CONTINUOUS
 62
     0
100
AcDbLine
 10
861.9157474143
 20
703.4925962855
 11
884.8842274143
 21
702.2888702855
  0
LINE
  5
45A
100
AcDbEntity
  8
_1-0_
  6
CONTINUOUS
 62
     0
100
AcDbLine
 10
848.4681784143
 20
691.2756872855
 11
861.9157474143
 21
703.4925962855
  0
LINE
  5
45B
100
AcDbEntity
  8
_1-0_
  6
CONTINUOUS
 62
     0
100
AcDbLine
 10
844.6193554143
 20
693.4823132855
 11
845.2805914143
 21
693.9326132855
  0
LINE
  5
45C
100
AcDbEntity
  8
_1-0_
  6
CONTINUOUS
 62
     0
100
AcDbLine
 10
845.2805914143
 20
693.9326132855
 11
846.9692074143
 21
691.4529812855
  0
LINE
  5
45D
100
AcDbEntity
  8
_1-0_
  6
CONTINUOUS
 62
     0
100
AcDbLine
 10
844.6193554143
 20
693.4823132855
 11
846.3079714143
 21
691.0026812855
  0
ARC
  5
45E
100
AcDbEntity
  8
_1-0_
  6
CONTINUOUS
 62
     0
100
AcDbCircle
 10
847.7957494143
 20
692.0158532855
 40
0.999999
100
AcDbArc
 50
-145.745342
 51
-47.74534800001
  0
ARC
  5
45F
100
AcDbEntity
  8
_1-0_
  6
CONTINUOUS
 62
     0
100
AcDbCircle
 10
847.7957494143
 20
692.0158532855
 40
1.8
100
AcDbArc
 50
-145.745342
 51
-47.745349
  0
ARC
  5
460
100
AcDbEntity
  8
_1-0_
  6
CONTINUOUS
 62
     0
100
AcDbCircle
 10
873.3214834143
 20
701.3927882855
 40
6.3
100
AcDbArc
 50
37.903458
 51
136.096542
  0
LINE
  5
461
100
AcDbEntity
  8
_1-0_
  6
CONTINUOUS
 62
     0
100
AcDbLine
 10
868.2260344143
 20
704.4792752855
 11
868.1571814143
 21
703.1654972855
  0
LINE
  5
462
100
AcDbEntity
  8
_1-0_
  6
CONTINUOUS
 62
     0
100
AcDbLine
 10
878.7116434143
 20
703.9297472855
 11
878.6427934143
 21
702.6159692855
  0
ARC
  5
463
100
AcDbEntity
  8
_1-0_
  6
CONTINUOUS
 62
     0
100
AcDbCircle
 10
870.2232934143
 20
704.3746052855
 40
2.000001
100
AcDbArc
 50
136.096542
 51
177
  0
LINE
  5
464
100
AcDbEntity
  8
_1-0_
  6
CONTINUOUS
 62
     0
100
AcDbLine
 10
849.0061174143
 20
690.6835562855
 11
862.2068764143
 21
702.6762422855
  0
LINE
  5
465
100
AcDbEntity
  8
_1-0_
  6
CONTINUOUS
 62
     0
100
AcDbLine
 10
862.2068764143
 20
702.6762422855
 11
884.5502044143
 21
701.5052762855
  0
LINE
  5
466
100
AcDbEntity
  8
_1-0_
  6
CONTINUOUS
 62
     0
100
AcDbLine
 10
896.3842264143
 20
688.2005762855
 11
884.5093594143
 21
701.5074182855
  0
ARC
  5
467
100
AcDbEntity
  8
_1-0_
  6
CONTINUOUS
 62
     0
100
AcDbCircle
 10
876.7143844143
 20
704.0344202855
 40
2.000001
100
AcDbArc
 50
-2.999999999999
 51
37.903458
  0
LINE
  5
468
100
AcDbEntity
  8
_1-0_
  6
CONTINUOUS
 62
     0
100
AcDbLine
 10
901.0395094143
 20
690.5254592855
 11
900.4289644143
 21
691.0424072855
  0
LINE
  5
469
100
AcDbEntity
  8
_1-0_
  6
CONTINUOUS
 62
     0
100
AcDbLine
 10
900.4289644143
 20
691.0424072855
 11
898.4904064143
 21
688.7528672855
  0
LINE
  5
46A
100
AcDbEntity
  8
_1-0_
  6
CONTINUOUS
 62
     0
100
AcDbLine
 10
901.0395094143
 20
690.5254592855
 11
899.1009514143
 21
688.2359192855
  0
ARC
  5
46B
100
AcDbEntity
  8
_1-0_
  6
CONTINUOUS
 62
     0
100
AcDbCircle
 10
897.7272274143
 20
689.3990552855
 40
0.999999
100
AcDbArc
 50
-138.254652
 51
-40.254658
  0
LINE
  5
46C
100
AcDbEntity
  8
_1-0_
  6
CONTINUOUS
 62
     0
100
AcDbLine
 10
896.9811154143
 20
688.7332322855
 11
884.8842274143
 21
702.2888702855
  0
ARC
  5
46D
100
AcDbEntity
  8
_1-0_
  6
CONTINUOUS
 62
     0
100
AcDbCircle
 10
897.7272274143
 20
689.3990552855
 40
1.8
100
AcDbArc
 50
-138.254651
 51
-40.254658
  0
LINE
  5
46E
100
AcDbEntity
  8
_1-0_
  6
CONTINUOUS
 62
     0
100
AcDbLine
 10
873.7064854143
 20
708.7390832855
 11
871.5602177674
 21
670.07218635
  0
LINE
  5
46F
100
AcDbEntity
  8
_1-0_
  6
CONTINUOUS
 62
     0
100
AcDbLine
 10
870.9034144143
 20
703.0215722855
 11
869.1729515334
 21
673.0710923499
  0
LINE
  5
470
100
AcDbEntity
  8
_1-0_
  6
CONTINUOUS
 62
     0
100
AcDbLine
 10
870.4040974143
 20
703.0477412855
 11
868.7024797042
 21
673.5964348844
  0
LINE
  5
471
100
AcDbEntity
  8
_1-0_
  6
CONTINUOUS
 62
     0
100
AcDbLine
 10
875.8965604143
 20
702.7598942855
 11
874.166101695
 21
672.8094126623
  0
LINE
  5
472
100
AcDbEntity
  8
_1-0_
  6
CONTINUOUS
 62
     0
100
AcDbLine
 10
876.3958774143
 20
702.7337252855
 11
874.694255779
 21
673.2824194751
  0
LINE
  5
473
100
AcDbEntity
  8
_a-0_
  6
CONTINUOUS
 62
     0
100
AcDbLine
 10
868.7024797042
 20
673.5964348844
 11
874.694255779
 21
673.2824194751
  0
LINE
  5
474
100
AcDbEntity
  8
_a-0_
  6
CONTINUOUS
 62
     0
100
AcDbLine
 10
868.9884585723
 20
673.2771025587
 11
868.7024797042
 21
673.5964348844
  0
LINE
  5
475
100
AcDbEntity
  8
_a-0_
  6
CONTINUOUS
 62
     0
100
AcDbLine
 10
869.1729515334
 20
673.0710923499
 11
874.166101695
 21
672.8094126623
  0
LINE
  5
476
100
AcDbEntity
  8
_a-0_
  6
CONTINUOUS
 62
     0
100
AcDbLine
 10
869.1729515334
 20
673.0710923499
 11
868.9884585723
 21
673.2771025587
  0
LINE
  5
477
100
AcDbEntity
  8
_a-0_
  6
CONTINUOUS
 62
     0
100
AcDbLine
 10
874.3732140667
 20
672.9948993712
 11
874.166101695
 21
672.8094126623
  0
LINE
  5
478
100
AcDbEntity
  8
_a-0_
  6
CONTINUOUS
 62
     0
100
AcDbLine
 10
874.694255779
 20
673.2824194751
 11
874.3732140667
 21
672.9948993712
  0
LINE
  5
479
100
AcDbEntity
  8
_0-1_PRO0
  6
CONTINUOUS
 62
     0
100
AcDbLine
 10
343.5823332636
 20
714.2257684968
 11
403.5823332636
 21
717.3702334968
  0
LINE
  5
47A
100
AcDbEntity
  8
_0-1_PRO0
  6
CONTINUOUS
 62
     0
100
AcDbLine
 10
343.5823332636
 20
717.3702334968
 11
403.5823332636
 21
717.3702334968
  0
TEXT
  5
47B
100
AcDbEntity
  8
_0-1_PRO0
  6
CONTINUOUS
 62
     0
100
AcDbText
 10
343.699386334
 20
718.5531607741
 40
9
  1
（勾配３度）
  7
STANDARD
100
AcDbText
  0
LINE
  5
47C
100
AcDbEntity
  8
_0-3_
  6
CONTINUOUS
 62
     0
100
AcDbLine
 10
343.5823332636
 20
717.3702334968
 11
343.5823332636
 21
714.2257684968
  0
TEXT
  5
47D
100
AcDbEntity
  8
_2-0_
  6
CONTINUOUS
 62
     0
100
AcDbText
 10
116.8671737961
 20
823.6226916167
 40
12
  1
◇アルミ２５０タイプ（２５０ＦＹＹＧ－Ａ）
  7
STANDARD
100
AcDbText
  0
TEXT
  5
47E
100
AcDbEntity
  8
_2-0_
  6
CONTINUOUS
 62
     0
100
AcDbText
 10
941.3964656255
 20
294.3778453541
 40
7.5
  1
800
 41
0.9986666666667
  7
STANDARD
100
AcDbText
  0
TEXT
  5
47F
100
AcDbEntity
  8
_2-0_
  6
CONTINUOUS
 62
     0
100
AcDbText
 10
941.3964656255
 20
276.3778453541
 40
7.5
  1
850
  7
STANDARD
100
AcDbText
  0
TEXT
  5
480
100
AcDbEntity
  8
_2-0_
  6
CONTINUOUS
 62
     0
100
AcDbText
 10
941.3964656255
 20
258.3778453541
 40
7.5
  1
900
  7
STANDARD
100
AcDbText
  0
TEXT
  5
481
100
AcDbEntity
  8
_2-0_
  6
CONTINUOUS
 62
     0
100
AcDbText
 10
986.3964656255
 20
258.3778453541
 40
7.5
  1
175
  7
STANDARD
100
AcDbText
  0
TEXT
  5
482
100
AcDbEntity
  8
_2-0_
  6
CONTINUOUS
 62
     0
100
AcDbText
 10
986.3964656255
 20
276.3778453541
 40
7.5
  1
150
  7
STANDARD
100
AcDbText
  0
TEXT
  5
483
100
AcDbEntity
  8
_2-0_
  6
CONTINUOUS
 62
     0
100
AcDbText
 10
986.3964656255
 20
294.3778453541
 40
7.5
  1
125
 41
0.9986666666667
  7
STANDARD
100
AcDbText
  0
LINE
  5
484
100
AcDbEntity
  8
_2-0_
  6
CONTINUOUS
 62
     0
100
AcDbLine
 10
814.8339656255
 20
326.5028453541
 11
814.8339656255
 21
254.5028453541
  0
LINE
  5
485
100
AcDbEntity
  8
_2-0_
  6
CONTINUOUS
 62
     0
100
AcDbLine
 10
927.3339656255
 20
326.5028453541
 11
927.3339656255
 21
254.5028453541
  0
LINE
  5
486
100
AcDbEntity
  8
_2-0_
  6
CONTINUOUS
 62
     0
100
AcDbLine
 10
972.3339656255
 20
326.5028453541
 11
972.3339656255
 21
254.5028453541
  0
LINE
  5
487
100
AcDbEntity
  8
_2-0_
  6
CONTINUOUS
 62
     0
100
AcDbLine
 10
1017.333965626
 20
326.5028453541
 11
1017.333965626
 21
254.5028453541
  0
TEXT
  5
488
100
AcDbEntity
  8
_2-0_
  6
CONTINUOUS
 62
     0
100
AcDbText
 10
441.7616357512
 20
294.1899028592
 40
7.5
  1
２５０ＦＹＹＧ－Ａ８００～９００
  7
STANDARD
100
AcDbText
  0
TEXT
  5
489
100
AcDbEntity
  8
_2-0_
  6
CONTINUOUS
 62
     0
100
AcDbText
 10
824.5920770798
 20
293.8927764114
 40
7.5
  1
２５０ＦＹＹ－Ａ８００
  7
STANDARD
100
AcDbText
  0
TEXT
  5
48A
100
AcDbEntity
  8
_2-0_
  6
CONTINUOUS
 62
     0
100
AcDbText
 10
824.4589656255
 20
276.3778453541
 40
7.5
  1
 　　〃　　　８５０
  7
STANDARD
100
AcDbText
  0
TEXT
  5
48B
100
AcDbEntity
  8
_2-0_
  6
CONTINUOUS
 62
     0
100
AcDbText
 10
824.4589656255
 20
258.3778453541
 40
7.5
  1
 　　〃　　　９００
  7
STANDARD
100
AcDbText
  0
TEXT
  5
48C
100
AcDbEntity
  8
_2-0_
  6
CONTINUOUS
 62
     0
100
AcDbText
 10
272.3339656255
 20
78.37784535411
 40
7.5
  1
※
 41
0.9986666666667
  7
STANDARD
100
AcDbText
  0
TEXT
  5
48D
100
AcDbEntity
  8
_2-0_
  6
CONTINUOUS
 62
     0
100
AcDbText
 10
290.8339656255
 20
96.37784535411
 40
7.5
  1
ステンワッシャー
  7
STANDARD
100
AcDbText
  0
TEXT
  5
48E
100
AcDbEntity
  8
_2-0_
  6
CONTINUOUS
 62
     0
100
AcDbText
 10
290.2089656255
 20
114.3778453541
 40
7.5
  1
アジャストアンカー
  7
STANDARD
100
AcDbText
  0
TEXT
  5
48F
100
AcDbEntity
  8
_2-0_
  6
CONTINUOUS
 62
     0
100
AcDbText
 10
290.8339656255
 20
132.3778453541
 40
7.49
  1
ステン六角ボルト
 41
1.001335113485
  7
STANDARD
100
AcDbText
  0
TEXT
  5
490
100
AcDbEntity
  8
_2-0_
  6
CONTINUOUS
 62
     0
100
AcDbText
 10
292.7089656255
 20
168.3778453541
 40
7.5
  1
止水補助板
  7
STANDARD
100
AcDbText
  0
TEXT
  5
491
100
AcDbEntity
  8
_2-0_
  6
CONTINUOUS
 62
     0
100
AcDbText
 10
289.5839656255
 20
204.3778453541
 40
7.5
  1
ＦＹＹ水切ジョイント
 41
0.9986666666667
  7
STANDARD
100
AcDbText
  0
TEXT
  5
492
100
AcDbEntity
  8
_2-0_
  6
CONTINUOUS
 62
     0
100
AcDbText
 10
289.5839656255
 20
222.3778453541
 40
7.5
  1
ＦＹＹフレームナット
 41
0.9986666666667
  7
STANDARD
100
AcDbText
  0
TEXT
  5
493
100
AcDbEntity
  8
_2-0_
  6
CONTINUOUS
 62
     0
100
AcDbText
 10
291.4589656255
 20
258.3778453541
 40
7.5
  1
ＦＹＹホルダー
 41
0.9986666666667
  7
STANDARD
100
AcDbText
  0
TEXT
  5
494
100
AcDbEntity
  8
_2-0_
  6
CONTINUOUS
 62
     0
100
AcDbText
 10
288.3339656255
 20
240.3778453541
 40
7.5
  1
ＦＹＹホルダースプリング
  7
STANDARD
100
AcDbText
  0
TEXT
  5
495
100
AcDbEntity
  8
_2-0_
  6
CONTINUOUS
 62
     0
100
AcDbText
 10
667.2089656255
 20
96.37784535411
 40
7.5
  1
枚
 41
0.9986666666667
  7
STANDARD
100
AcDbText
  0
TEXT
  5
496
100
AcDbEntity
  8
_2-0_
  6
CONTINUOUS
 62
     0
100
AcDbText
 10
667.2089656255
 20
114.3778453541
 40
7.5
  1
〃
 41
0.9986666666667
  7
STANDARD
100
AcDbText
  0
TEXT
  5
497
100
AcDbEntity
  8
_2-0_
  6
CONTINUOUS
 62
     0
100
AcDbText
 10
667.2089656255
 20
132.3778453541
 40
7.49
  1
〃
  7
STANDARD
100
AcDbText
  0
TEXT
  5
498
100
AcDbEntity
  8
_2-0_
  6
CONTINUOUS
 62
     0
100
AcDbText
 10
667.2089656255
 20
150.3778453541
 40
7.49
  1
本
  7
STANDARD
100
AcDbText
  0
TEXT
  5
499
100
AcDbEntity
  8
_2-0_
  6
CONTINUOUS
 62
     0
100
AcDbText
 10
667.2089656255
 20
168.3778453541
 40
7.5
  1
〃
 41
0.9986666666667
  7
STANDARD
100
AcDbText
  0
TEXT
  5
49A
100
AcDbEntity
  8
_2-0_
  6
CONTINUOUS
 62
     0
100
AcDbText
 10
667.2089656255
 20
186.3778453541
 40
7.5
  1
枚
 41
0.9986666666667
  7
STANDARD
100
AcDbText
  0
TEXT
  5
49B
100
AcDbEntity
  8
_2-0_
  6
CONTINUOUS
 62
     0
100
AcDbText
 10
667.2089656255
 20
204.3778453541
 40
7.5
  1
〃
 41
0.9986666666667
  7
STANDARD
100
AcDbText
  0
TEXT
  5
49C
100
AcDbEntity
  8
_2-0_
  6
CONTINUOUS
 62
     0
100
AcDbText
 10
667.2089656255
 20
222.3778453541
 40
7.5
  1
〃
 41
0.9986666666667
  7
STANDARD
100
AcDbText
  0
TEXT
  5
49D
100
AcDbEntity
  8
_2-0_
  6
CONTINUOUS
 62
     0
100
AcDbText
 10
667.2089656255
 20
240.3778453541
 40
7.5
  1
〃
 41
0.9986666666667
  7
STANDARD
100
AcDbText
  0
TEXT
  5
49E
100
AcDbEntity
  8
_2-0_
  6
CONTINUOUS
 62
     0
100
AcDbText
 10
667.2089656255
 20
258.3778453541
 40
7.5
  1
個
 41
0.9986666666667
  7
STANDARD
100
AcDbText
  0
TEXT
  5
49F
100
AcDbEntity
  8
_2-0_
  6
CONTINUOUS
 62
     0
100
AcDbText
 10
769.2089656255
 20
96.37784535411
 40
7.5
  1
枚
  7
STANDARD
100
AcDbText
  0
TEXT
  5
4A0
100
AcDbEntity
  8
_2-0_
  6
CONTINUOUS
 62
     0
100
AcDbText
 10
769.2089656255
 20
114.3778453541
 40
7.5
  1
〃
  7
STANDARD
100
AcDbText
  0
TEXT
  5
4A1
100
AcDbEntity
  8
_2-0_
  6
CONTINUOUS
 62
     0
100
AcDbText
 10
769.2089656255
 20
132.3778453541
 40
7.49
  1
〃
 41
1.001335113485
  7
STANDARD
100
AcDbText
  0
TEXT
  5
4A2
100
AcDbEntity
  8
_2-0_
  6
CONTINUOUS
 62
     0
100
AcDbText
 10
769.2089656255
 20
150.3778453541
 40
7.49
  1
本
 41
1.001335113485
  7
STANDARD
100
AcDbText
  0
TEXT
  5
4A3
100
AcDbEntity
  8
_2-0_
  6
CONTINUOUS
 62
     0
100
AcDbText
 10
769.2089656255
 20
168.3778453541
 40
7.5
  1
〃
  7
STANDARD
100
AcDbText
  0
TEXT
  5
4A4
100
AcDbEntity
  8
_2-0_
  6
CONTINUOUS
 62
     0
100
AcDbText
 10
769.2089656255
 20
186.3778453541
 40
7.5
  1
枚
  7
STANDARD
100
AcDbText
  0
TEXT
  5
4A5
100
AcDbEntity
  8
_2-0_
  6
CONTINUOUS
 62
     0
100
AcDbText
 10
769.2089656255
 20
204.3778453541
 40
7.5
  1
〃
  7
STANDARD
100
AcDbText
  0
TEXT
  5
4A6
100
AcDbEntity
  8
_2-0_
  6
CONTINUOUS
 62
     0
100
AcDbText
 10
769.2089656255
 20
222.3778453541
 40
7.5
  1
〃
  7
STANDARD
100
AcDbText
  0
TEXT
  5
4A7
100
AcDbEntity
  8
_2-0_
  6
CONTINUOUS
 62
     0
100
AcDbText
 10
769.2089656255
 20
240.3778453541
 40
7.5
  1
〃
  7
STANDARD
100
AcDbText
  0
TEXT
  5
4A8
100
AcDbEntity
  8
_2-0_
  6
CONTINUOUS
 62
     0
100
AcDbText
 10
769.2089656255
 20
258.3778453541
 40
7.5
  1
個
  7
STANDARD
100
AcDbText
  0
TEXT
  5
4A9
100
AcDbEntity
  8
_2-0_
  6
CONTINUOUS
 62
     0
100
AcDbText
 10
597.2089656255
 20
168.3778453541
 40
7.5
  1
3100
  7
STANDARD
100
AcDbText
  0
TEXT
  5
4AA
100
AcDbEntity
  8
_2-0_
  6
CONTINUOUS
 62
     0
100
AcDbText
 10
699.2089656255
 20
168.3778453541
 40
7.5
  1
2100
  7
STANDARD
100
AcDbText
  0
TEXT
  5
4AB
100
AcDbEntity
  8
_2-0_
  6
CONTINUOUS
 62
     0
100
AcDbText
 10
699.2089656255
 20
186.3778453541
 40
7.5
  1
2060
  7
STANDARD
100
AcDbText
  0
TEXT
  5
4AC
100
AcDbEntity
  8
_2-0_
  6
CONTINUOUS
 62
     0
100
AcDbText
 10
642.8339656255
 20
258.3778453541
 40
7.5
  1
 6
 41
0.9986666666667
  7
STANDARD
100
AcDbText
  0
TEXT
  5
4AD
100
AcDbEntity
  8
_2-0_
  6
CONTINUOUS
 62
     0
100
AcDbText
 10
642.8339656255
 20
240.3778453541
 40
7.5
  1
12
 41
0.9986666666667
  7
STANDARD
100
AcDbText
  0
TEXT
  5
4AE
100
AcDbEntity
  8
_2-0_
  6
CONTINUOUS
 62
     0
100
AcDbText
 10
642.8339656255
 20
222.3778453541
 40
7.5
  1
12
 41
0.9986666666667
  7
STANDARD
100
AcDbText
  0
TEXT
  5
4AF
100
AcDbEntity
  8
_2-0_
  6
CONTINUOUS
 62
     0
100
AcDbText
 10
642.8339656255
 20
204.3778453541
 40
7.5
  1
 1
 41
0.9986666666667
  7
STANDARD
100
AcDbText
  0
TEXT
  5
4B0
100
AcDbEntity
  8
_2-0_
  6
CONTINUOUS
 62
     0
100
AcDbText
 10
642.8339656255
 20
186.3778453541
 40
7.5
  1
 2
 41
0.9986666666667
  7
STANDARD
100
AcDbText
  0
TEXT
  5
4B1
100
AcDbEntity
  8
_2-0_
  6
CONTINUOUS
 62
     0
100
AcDbText
 10
642.8339656255
 20
150.3778453541
 40
7.49
  1
12
  7
STANDARD
100
AcDbText
  0
TEXT
  5
4B2
100
AcDbEntity
  8
_2-0_
  6
CONTINUOUS
 62
     0
100
AcDbText
 10
642.8339656255
 20
132.3778453541
 40
7.49
  1
12
  7
STANDARD
100
AcDbText
  0
TEXT
  5
4B3
100
AcDbEntity
  8
_2-0_
  6
CONTINUOUS
 62
     0
100
AcDbText
 10
642.8339656255
 20
114.3778453541
 40
7.5
  1
12
 41
0.9986666666667
  7
STANDARD
100
AcDbText
  0
TEXT
  5
4B4
100
AcDbEntity
  8
_2-0_
  6
CONTINUOUS
 62
     0
100
AcDbText
 10
642.8339656255
 20
96.37784535411
 40
7.5
  1
12
 41
0.9986666666667
  7
STANDARD
100
AcDbText
  0
TEXT
  5
4B5
100
AcDbEntity
  8
_2-0_
  6
CONTINUOUS
 62
     0
100
AcDbText
 10
744.8339656255
 20
96.37784535411
 40
7.5
  1
10
 41
0.9986666666667
  7
STANDARD
100
AcDbText
  0
TEXT
  5
4B6
100
AcDbEntity
  8
_2-0_
  6
CONTINUOUS
 62
     0
100
AcDbText
 10
744.8339656255
 20
114.3778453541
 40
7.5
  1
10
 41
0.9986666666667
  7
STANDARD
100
AcDbText
  0
TEXT
  5
4B7
100
AcDbEntity
  8
_2-0_
  6
CONTINUOUS
 62
     0
100
AcDbText
 10
744.8339656255
 20
132.3778453541
 40
7.49
  1
10
  7
STANDARD
100
AcDbText
  0
TEXT
  5
4B8
100
AcDbEntity
  8
_2-0_
  6
CONTINUOUS
 62
     0
100
AcDbText
 10
744.8339656255
 20
150.3778453541
 40
7.49
  1
 8
  7
STANDARD
100
AcDbText
  0
TEXT
  5
4B9
100
AcDbEntity
  8
_2-0_
  6
CONTINUOUS
 62
     0
100
AcDbText
 10
744.8339656255
 20
168.3778453541
 40
7.5
  1
 1
 41
0.9986666666667
  7
STANDARD
100
AcDbText
  0
TEXT
  5
4BA
100
AcDbEntity
  8
_2-0_
  6
CONTINUOUS
 62
     0
100
AcDbText
 10
744.8339656255
 20
186.3778453541
 40
7.5
  1
 2
 41
0.9986666666667
  7
STANDARD
100
AcDbText
  0
TEXT
  5
4BB
100
AcDbEntity
  8
_2-0_
  6
CONTINUOUS
 62
     0
100
AcDbText
 10
744.8339656255
 20
204.3778453541
 40
7.5
  1
 1
 41
0.9986666666667
  7
STANDARD
100
AcDbText
  0
TEXT
  5
4BC
100
AcDbEntity
  8
_2-0_
  6
CONTINUOUS
 62
     0
100
AcDbText
 10
744.8339656255
 20
222.3778453541
 40
7.5
  1
 8
 41
0.9986666666667
  7
STANDARD
100
AcDbText
  0
TEXT
  5
4BD
100
AcDbEntity
  8
_2-0_
  6
CONTINUOUS
 62
     0
100
AcDbText
 10
744.8339656255
 20
240.3778453541
 40
7.5
  1
 8
 41
0.9986666666667
  7
STANDARD
100
AcDbText
  0
TEXT
  5
4BE
100
AcDbEntity
  8
_2-0_
  6
CONTINUOUS
 62
     0
100
AcDbText
 10
744.8339656255
 20
258.3778453541
 40
7.5
  1
 4
 41
0.9986666666667
  7
STANDARD
100
AcDbText
  0
TEXT
  5
4BF
100
AcDbEntity
  8
_2-0_
  6
CONTINUOUS
 62
     0
100
AcDbText
 10
642.8339656255
 20
168.3778453541
 40
7.5
  1
 1
 41
0.9986666666667
  7
STANDARD
100
AcDbText
  0
TEXT
  5
4C0
100
AcDbEntity
  8
_2-0_
  6
CONTINUOUS
 62
     0
100
AcDbText
 10
596.7305112384
 20
187.3054380977
 40
7.49
  1
3060
 41
1.001335113485
  7
STANDARD
100
AcDbText
  0
TEXT
  5
4C1
100
AcDbEntity
  8
_2-0_
  6
CONTINUOUS
 62
     0
100
AcDbText
 10
290.605361227
 20
186.7126096692
 40
7.5
  1
ウォーターガード
 41
0.9986666666667
  7
STANDARD
100
AcDbText
  0
TEXT
  5
4C2
100
AcDbEntity
  8
_0-0_
  6
CONTINUOUS
 62
     0
100
AcDbText
 10
441.6546060355
 20
187.1723686452
 40
7.5
  1
ＳＰＶＣ
  7
STANDARD
100
AcDbText
  0
TEXT
  5
4C3
100
AcDbEntity
  8
_2-0_
  6
CONTINUOUS
 62
     0
100
AcDbText
 10
292.0839656255
 20
150.3778453541
 40
7.49
  1
ステン小ねじ
 41
1.001335113485
  7
STANDARD
100
AcDbText
  0
TEXT
  5
4C4
100
AcDbEntity
  8
_2-0_
  6
CONTINUOUS
 62
     0
100
AcDbText
 10
441.7616357512
 20
258.2970329766
 40
7.5
  1
２５０ＦＹＹＨ－８００～９００
  7
STANDARD
100
AcDbText
  0
TEXT
  5
4C5
100
AcDbEntity
  8
_2-0_
  6
CONTINUOUS
 62
     0
100
AcDbText
 10
443.092749526
 20
204.2501455554
 40
7.5
  1
２５０ＦＹＹＪ－８００～９００
 41
0.9986666666667
  7
STANDARD
100
AcDbText
  0
TEXT
  5
4C6
100
AcDbEntity
  8
_2-0_
  6
CONTINUOUS
 62
     0
100
AcDbText
 10
442.0839656255
 20
168.3778453541
 40
7.5
  1
ＦＳ８００～９００
  7
STANDARD
100
AcDbText
  0
TEXT
  5
4C7
100
AcDbEntity
  8
_2-0_
  6
CONTINUOUS
 62
     0
100
AcDbText
 10
442.3964656255
 20
150.3778453541
 40
7.49
  1
なべＭ６×３５
 41
1.001335113485
  7
STANDARD
100
AcDbText
  0
TEXT
  5
4C8
100
AcDbEntity
  8
_2-0_
  6
CONTINUOUS
 62
     0
100
AcDbText
 10
443.6464656255
 20
132.3778453541
 40
7.49
  1
Ｍ６×４０
 41
1.001335113485
  7
STANDARD
100
AcDbText
  0
TEXT
  5
4C9
100
AcDbEntity
  8
_2-0_
  6
CONTINUOUS
 62
     0
100
AcDbText
 10
443.0214656255
 20
114.3778453541
 40
7.5
  1
ＡＧ－６６０
  7
STANDARD
100
AcDbText
  0
TEXT
  5
4CA
100
AcDbEntity
  8
_2-0_
  6
CONTINUOUS
 62
     0
100
AcDbText
 10
441.4589656255
 20
96.37784535411
 40
7.5
  1
１.５×１８×６.５穴
  7
STANDARD
100
AcDbText
  0
TEXT
  5
4CB
100
AcDbEntity
  8
_2-0_
  6
CONTINUOUS
 62
     0
100
AcDbText
 10
292.0839656255
 20
78.37784535411
 40
7.5
  1
ブチルテープ
  7
STANDARD
100
AcDbText
  0
TEXT
  5
4CC
100
AcDbEntity
  8
_2-0_
  6
CONTINUOUS
 62
     0
100
AcDbText
 10
667.2089656255
 20
78.37784535411
 40
7.5
  1
巻
 41
0.9986666666667
  7
STANDARD
100
AcDbText
  0
TEXT
  5
4CD
100
AcDbEntity
  8
_2-0_
  6
CONTINUOUS
 62
     0
100
AcDbText
 10
769.2089656255
 20
78.37784535411
 40
7.5
  1
巻
  7
STANDARD
100
AcDbText
  0
TEXT
  5
4CE
100
AcDbEntity
  8
_2-0_
  6
CONTINUOUS
 62
     0
100
AcDbText
 10
597.2089656255
 20
78.37784535411
 40
7.5
  1
6000
  7
STANDARD
100
AcDbText
  0
TEXT
  5
4CF
100
AcDbEntity
  8
_2-0_
  6
CONTINUOUS
 62
     0
100
AcDbText
 10
699.2089656255
 20
78.37784535411
 40
7.5
  1
6000
  7
STANDARD
100
AcDbText
  0
TEXT
  5
4D0
100
AcDbEntity
  8
_2-0_
  6
CONTINUOUS
 62
     0
100
AcDbText
 10
642.8339656255
 20
78.37784535411
 40
7.5
  1
 1
 41
0.9986666666667
  7
STANDARD
100
AcDbText
  0
TEXT
  5
4D1
100
AcDbEntity
  8
_2-0_
  6
CONTINUOUS
 62
     0
100
AcDbText
 10
744.8339656255
 20
78.37784535411
 40
7.5
  1
 1
 41
0.9986666666667
  7
STANDARD
100
AcDbText
  0
TEXT
  5
4D2
100
AcDbEntity
  8
_2-0_
  6
CONTINUOUS
 62
     0
100
AcDbText
 10
442.3964656255
 20
78.37784535411
 40
7.5
  1
ｔ１．０×ｗ３０
  7
STANDARD
100
AcDbText
  0
TEXT
  5
4D3
100
AcDbEntity
  8
_0-1_PRO0
  6
CONTINUOUS
 62
     0
100
AcDbText
 10
326.8387802688
 20
736.4912689476
 40
9
  1
７
  7
STANDARD
100
AcDbText
  0
TEXT
  5
4D4
100
AcDbEntity
  8
_0-1_PRO0
  6
CONTINUOUS
 62
     0
100
AcDbText
 10
657.2324417914
 20
525.316106879
 40
9
  1
８
  7
STANDARD
100
AcDbText
  0
TEXT
  5
4D5
100
AcDbEntity
  8
_0-1_PRO0
  6
CONTINUOUS
 62
     0
100
AcDbText
 10
633.8062962636
 20
746.0351332496
 40
9
  1
1
  7
STANDARD
100
AcDbText
  0
TEXT
  5
4D6
100
AcDbEntity
  8
_0-1_PRO0
  6
CONTINUOUS
 62
     0
100
AcDbText
 10
920.118732978
 20
714.1850509351
 40
9
  1
2
  7
STANDARD
100
AcDbText
  0
TEXT
  5
4D7
100
AcDbEntity
  8
_0-1_PRO0
  6
CONTINUOUS
 62
     0
100
AcDbText
 10
1039.222108264
 20
716.9767469351
 40
9
  1
3
  7
STANDARD
100
AcDbText
  0
TEXT
  5
4D8
100
AcDbEntity
  8
_0-1_PRO0
  6
CONTINUOUS
 62
     0
100
AcDbText
 10
1078.655899264
 20
727.3529759351
 40
9
  1
6
  7
STANDARD
100
AcDbText
  0
TEXT
  5
4D9
100
AcDbEntity
  8
_0-1_PRO0
  6
CONTINUOUS
 62
     0
100
AcDbText
 10
899.6663850642
 20
729.454026448
 40
9
  1
9
  7
STANDARD
100
AcDbText
  0
TEXT
  5
4DA
100
AcDbEntity
  8
_0-1_PRO0
  6
CONTINUOUS
 62
     0
100
AcDbText
 10
916.0214721238
 20
735.7062642154
 40
9
  1
4
  7
STANDARD
100
AcDbText
  0
TEXT
  5
4DB
100
AcDbEntity
  8
_0-1_PRO0
  6
CONTINUOUS
 62
     0
100
AcDbText
 10
837.7398407248
 20
721.2086794288
 40
9
  1
5
  7
STANDARD
100
AcDbText
  0
TEXT
  5
4DC
100
AcDbEntity
  8
_0-1_PRO0
  6
CONTINUOUS
 62
     0
100
AcDbText
 10
886.628517978
 20
634.7328379351
 40
9
  1
10
  7
STANDARD
100
AcDbText
  0
TEXT
  5
4DD
100
AcDbEntity
  8
_0-1_PRO0
  6
CONTINUOUS
 62
     0
100
AcDbText
 10
847.188435978
 20
630.4775209351
 40
9
  1
12
  7
STANDARD
100
AcDbText
  0
TEXT
  5
4DE
100
AcDbEntity
  8
_0-1_PRO0
  6
CONTINUOUS
 62
     0
100
AcDbText
 10
850.6509462636
 20
603.0409769351
 40
9
  1
11
  7
STANDARD
100
AcDbText
  0
ENDSEC
  0
SECTION
  2
OBJECTS
  0
DICTIONARY
  5
4DF
100
AcDbDictionary
  3
ACAD_GROUP
350
4E0
  3
ACAD_IMAGE_DICT
350
4E1
  3
ACAD_MLINESTYLE
350
4E2
  0
DICTIONARY
  5
4E0
330
4DF
100
AcDbDictionary
  0
DICTIONARY
  5
4E1
100
AcDbDictionary
  0
DICTIONARY
  5
4E2
100
AcDbDictionary
  3
STANDARD
350
4E3
  0
RASTERVARIABLES
  5
4E4
100
AcDbRasterVariables
 90
     0
 70
     1
 71
     1
 72
     0
  0
MLINESTYLE
  5
4E3
100
AcDbMlineStyle
  2
STANDARD
 70
     0
  3

 62
   256
 51
90
 52
90
 71
     0
  0
ENDSEC
  0
EOF
