  0
SECTION
  2
HEADER
  9
$ACADVER
  1
AC1015
  9
$DWGCODEPAGE
  3
ANSI_932
  9
$EXTMIN
 10
8
 20
6
  9
$EXTMAX
 10
832
 20
582
  9
$LIMMIN
 10
0
 20
0
  9
$LIMMAX
 10
840
 20
588
  9
$LTSCALE
 40
2
  9
$DIMSCALE
 40
2
  9
$DIMSTYLE
  2
M7DIMSTL
  9
$HANDSEED
  5
7FFFFFFF
  9
$MEASUREMENT
 70
     1
  0
ENDSEC
  0
SECTION
  2
CLASSES
  0
CLASS
  1
CSOFTARXCLASS
  2
CSoftArxClass
  3
CSRasterApi
 90
     0
280
     0
281
     0
  0
CLASS
  1
IMAGEDEF
  2
AcDbRasterImageDef
  3
ISM
 90
     0
280
     0
281
     0
  0
CLASS
  1
RASTERVARIABLES
  2
AcDbRasterVariables
  3
ISM
 90
     0
280
     0
281
     0
  0
CLASS
  1
IMAGE
  2
AcDbRasterImage
  3
ISM
 90
   127
280
     0
281
     0
  0
CLASS
  1
IMAGEDEF_REACTOR
  2
AcDbRasterImageDefReactor
  3
ISM
 90
     1
280
     0
281
     0
  0
CLASS
  1
HATCH
  2
AcDbHatch
  3
M7
 90
     0
280
     0
281
     1
  0
ENDSEC
  0
SECTION
  2
TABLES
  0
TABLE
  2
VPORT
  5
FF
100
AcDbSymbolTable
 70
     5
  0
VPORT
  5
100
100
AcDbSymbolTableRecord
100
AcDbViewportTableRecord
  2
*ACTIVE
 70
     0
 10
0
 20
0
 11
1
 21
1
 12
420
 22
294
 13
0
 23
0
 14
0
 24
0
 15
0
 25
0
 16
0
 26
0
 36
1
 17
0
 27
0
 37
0
 40
294
 41
1.428571428571
 42
50
 43
0
 44
0
 50
0
 51
0
 71
     0
 72
   100
 73
     1
 74
     3
 75
     0
 76
     0
 77
     0
 78
     0
  0
ENDTAB
  0
TABLE
  2
LTYPE
  5
101
100
AcDbSymbolTable
 70
     1
  0
LTYPE
  5
102
100
AcDbSymbolTableRecord
100
AcDbLinetypeTableRecord
  2
BYBLOCK
 70
     0
  3

 72
    65
 73
     0
 40
0
  0
LTYPE
  5
103
100
AcDbSymbolTableRecord
100
AcDbLinetypeTableRecord
  2
BYLAYER
 70
     0
  3

 72
    65
 73
     0
 40
0
  0
LTYPE
  5
104
100
AcDbSymbolTableRecord
100
AcDbLinetypeTableRecord
  2
CONTINUOUS
 70
     0
  3
Solid line
 72
    65
 73
     0
 40
0
  0
LTYPE
  5
105
100
AcDbSymbolTableRecord
100
AcDbLinetypeTableRecord
  2
DOT
 70
     0
  3
...............................
 72
    65
 73
     2
 40
2
 49
1
 74
     0
 49
-1
 74
     0
  0
LTYPE
  5
106
100
AcDbSymbolTableRecord
100
AcDbLinetypeTableRecord
  2
DASHED
 70
     0
  3
- - - - - - - - - - - - - - - -
 72
    65
 73
     2
 40
4
 49
2
 74
     0
 49
-2
 74
     0
  0
LTYPE
  5
107
100
AcDbSymbolTableRecord
100
AcDbLinetypeTableRecord
  2
DASHED2
 70
     0
  3
-- -- -- -- -- -- -- -- -- -- -
 72
    65
 73
     2
 40
8
 49
5
 74
     0
 49
-3
 74
     0
  0
LTYPE
  5
108
100
AcDbSymbolTableRecord
100
AcDbLinetypeTableRecord
  2
CENTER
 70
     0
  3
--------- - --------- - -------
 72
    65
 73
     4
 40
23
 49
20
 74
     0
 49
-1
 74
     0
 49
1
 74
     0
 49
-1
 74
     0
  0
LTYPE
  5
109
100
AcDbSymbolTableRecord
100
AcDbLinetypeTableRecord
  2
CENTERX2
 70
     0
  3
-------------- - --------------
 72
    65
 73
     4
 40
43
 49
40
 74
     0
 49
-1
 74
     0
 49
1
 74
     0
 49
-1
 74
     0
  0
LTYPE
  5
10A
100
AcDbSymbolTableRecord
100
AcDbLinetypeTableRecord
  2
CENTER2
 70
     0
  3
------ - ----- - ------ - -----
 72
    65
 73
     4
 40
13
 49
10
 74
     0
 49
-1
 74
     0
 49
1
 74
     0
 49
-1
 74
     0
  0
LTYPE
  5
10B
100
AcDbSymbolTableRecord
100
AcDbLinetypeTableRecord
  2
PHANTOM
 70
     0
  3
-------- - - ------- - - ------
 72
    65
 73
     6
 40
25
 49
20
 74
     0
 49
-1
 74
     0
 49
1
 74
     0
 49
-1
 74
     0
 49
1
 74
     0
 49
-1
 74
     0
  0
LTYPE
  5
10C
100
AcDbSymbolTableRecord
100
AcDbLinetypeTableRecord
  2
PHANTOMX2
 70
     0
  3
------------- - - -------------
 72
    65
 73
     6
 40
45
 49
40
 74
     0
 49
-1
 74
     0
 49
1
 74
     0
 49
-1
 74
     0
 49
1
 74
     0
 49
-1
 74
     0
  0
LTYPE
  5
10D
100
AcDbSymbolTableRecord
100
AcDbLinetypeTableRecord
  2
PHANTOM2
 70
     0
  3
---- - - ---- - - ---- - - ----
 72
    65
 73
     6
 40
15
 49
10
 74
     0
 49
-1
 74
     0
 49
1
 74
     0
 49
-1
 74
     0
 49
1
 74
     0
 49
-1
 74
     0
  0
LTYPE
  5
10E
100
AcDbSymbolTableRecord
100
AcDbLinetypeTableRecord
  2
ACAD_ISO06W100
 70
     0
  3
------------ - - - ------------
 72
    65
 73
     8
 40
47
 49
40
 74
     0
 49
-1
 74
     0
 49
1
 74
     0
 49
-1
 74
     0
 49
1
 74
     0
 49
-1
 74
     0
 49
1
 74
     0
 49
-1
 74
     0
  0
LTYPE
  5
10F
100
AcDbSymbolTableRecord
100
AcDbLinetypeTableRecord
  2
ACAD_ISO14W100
 70
     0
  3
---- - - - -------- - - - -----
 72
    65
 73
     8
 40
27
 49
20
 74
     0
 49
-1
 74
     0
 49
1
 74
     0
 49
-1
 74
     0
 49
1
 74
     0
 49
-1
 74
     0
 49
1
 74
     0
 49
-1
 74
     0
  0
LTYPE
  5
110
100
AcDbSymbolTableRecord
100
AcDbLinetypeTableRecord
  2
ACAD_ISO11W100
 70
     0
  3
------- ------ - ------- ------
 72
    65
 73
     6
 40
44
 49
20
 74
     0
 49
-1
 74
     0
 49
20
 74
     0
 49
-1
 74
     0
 49
1
 74
     0
 49
-1
 74
     0
  0
LTYPE
  5
111
100
AcDbSymbolTableRecord
100
AcDbLinetypeTableRecord
  2
ACAD_ISO13W100
 70
     0
  3
------ ------ - - ------ ------
 72
    65
 73
     8
 40
46
 49
20
 74
     0
 49
-1
 74
     0
 49
20
 74
     0
 49
-1
 74
     0
 49
1
 74
     0
 49
-1
 74
     0
 49
1
 74
     0
 49
-1
 74
     0
  0
LTYPE
  5
112
100
AcDbSymbolTableRecord
100
AcDbLinetypeTableRecord
  2
ACAD_ISO15W100
 70
     0
  3
------ ----- - - - ------ -----
 72
    65
 73
    10
 40
48
 49
20
 74
     0
 49
-1
 74
     0
 49
20
 74
     0
 49
-1
 74
     0
 49
1
 74
     0
 49
-1
 74
     0
 49
1
 74
     0
 49
-1
 74
     0
 49
1
 74
     0
 49
-1
 74
     0
  0
LTYPE
  5
113
100
AcDbSymbolTableRecord
100
AcDbLinetypeTableRecord
  2
HIDDEN
 70
     0
  3
. . . . . . . . . . . . . . . .
 72
    65
 73
     2
 40
1.5
 49
1
 74
     0
 49
-0.5
 74
     0
  0
ENDTAB
  0
TABLE
  2
LAYER
  5
114
100
AcDbSymbolTable
 70
     1
  0
LAYER
  5
115
100
AcDbSymbolTableRecord
100
AcDbLayerTableRecord
  2
0
 70
     0
 62
     7
  6
CONTINUOUS
390
116
  0
LAYER
  5
117
100
AcDbSymbolTableRecord
100
AcDbLayerTableRecord
  2
_0-0_0
 70
     0
 62
     7
  6
CONTINUOUS
390
   278
  0
LAYER
  5
118
100
AcDbSymbolTableRecord
100
AcDbLayerTableRecord
  2
_0-2_寸法
 70
     0
 62
     7
  6
CONTINUOUS
390
   278
  0
LAYER
  5
119
100
AcDbSymbolTableRecord
100
AcDbLayerTableRecord
  2
_0-3_躯体と製品
 70
     0
 62
     7
  6
CONTINUOUS
390
   278
  0
LAYER
  5
11A
100
AcDbSymbolTableRecord
100
AcDbLayerTableRecord
  2
_0-4_図枠
 70
     0
 62
     7
  6
CONTINUOUS
390
   278
  0
LAYER
  5
11B
100
AcDbSymbolTableRecord
100
AcDbLayerTableRecord
  2
_0-5_ADD_LINE
 70
     0
 62
     7
  6
CONTINUOUS
390
   278
  0
LAYER
  5
11C
100
AcDbSymbolTableRecord
100
AcDbLayerTableRecord
  2
_0-6_
 70
     0
 62
     7
  6
CONTINUOUS
390
   278
  0
ENDTAB
  0
TABLE
  2
STYLE
  5
11D
100
AcDbSymbolTable
 70
     1
  0
STYLE
  5
11E
100
AcDbSymbolTableRecord
100
AcDbTextStyleTableRecord
  2
STANDARD
 70
     0
 40
0
 41
0
 50
0
 71
     0
 42
1
  3
txt
  4
bigfont
  0
STYLE
  5
11F
100
AcDbSymbolTableRecord
100
AcDbTextStyleTableRecord
  2
VSTANDARD
 70
     4
 40
0
 41
0
 50
0
 71
     0
 42
1
  3
txt
  4
bigfont
  0
ENDTAB
  0
TABLE
  2
VIEW
  5
120
100
AcDbSymbolTable
 70
     0
  0
ENDTAB
  0
TABLE
  2
UCS
  5
121
100
AcDbSymbolTable
 70
     0
  0
ENDTAB
  0
TABLE
  2
APPID
  5
122
100
AcDbSymbolTable
 70
     1
  0
APPID
  5
123
100
AcDbSymbolTableRecord
100
AcDbRegAppTableRecord
  2
ACAD
 70
     0
  0
ENDTAB
  0
TABLE
  2
DIMSTYLE
  5
124
100
AcDbSymbolTable
 70
     1
100
AcDbDimStyleTable
 71
     0
  0
DIMSTYLE
105
125
100
AcDbSymbolTableRecord
100
AcDbDimStyleTableRecord
  2
M7DIMSTL
 70
     0
  3

  4

  5

  6

  7

 40
2
 41
2.5
 42
0.625
 43
3.75
 44
1.25
 45
0
 46
0
 47
0
 48
0
140
2.5
141
2.5
142
0
143
0.03937007874016
144
1
145
0
146
1
147
0.625
 71
     0
 72
     0
 73
     0
 74
     0
 75
     0
 76
     0
 77
     1
 78
     8
170
     0
171
     3
172
     1
173
     0
174
     0
175
     0
176
     0
177
     0
178
     0
270
     2
271
     2
272
     2
273
     2
274
     3
340
11E
275
     0
280
     0
281
     0
282
     0
283
     0
284
     8
285
     0
286
     0
287
     3
288
     0
  0
ENDTAB
  0
TABLE
  2
BLOCK_RECORD
  5
126
100
AcDbSymbolTable
 70
     2
  0
BLOCK_RECORD
  5
127
100
AcDbSymbolTableRecord
100
AcDbBlockTableRecord
  2
*MODEL_SPACE
  0
BLOCK_RECORD
  5
128
100
AcDbSymbolTableRecord
100
AcDbBlockTableRecord
  2
*PAPER_SPACE
  0
BLOCK_RECORD
  5
129
100
AcDbSymbolTableRecord
100
AcDbBlockTableRecord
  2
_DOT
  0
BLOCK_RECORD
  5
12A
100
AcDbSymbolTableRecord
100
AcDbBlockTableRecord
  2
_OPEN30
  0
BLOCK_RECORD
  5
12B
100
AcDbSymbolTableRecord
100
AcDbBlockTableRecord
  2
_ClosedBlank
  0
BLOCK_RECORD
  5
12C
100
AcDbSymbolTableRecord
100
AcDbBlockTableRecord
  2
_Origin
  0
BLOCK_RECORD
  5
12D
100
AcDbSymbolTableRecord
100
AcDbBlockTableRecord
  2
_Oblique
  0
BLOCK_RECORD
  5
12E
100
AcDbSymbolTableRecord
100
AcDbBlockTableRecord
  2
_Origin2
  0
BLOCK_RECORD
  5
12F
100
AcDbSymbolTableRecord
100
AcDbBlockTableRecord
  2
_BoxBlank
  0
BLOCK_RECORD
  5
130
100
AcDbSymbolTableRecord
100
AcDbBlockTableRecord
  2
_BoxFilled
  0
BLOCK_RECORD
  5
131
100
AcDbSymbolTableRecord
100
AcDbBlockTableRecord
  2
_Integral
  0
BLOCK_RECORD
  5
132
100
AcDbSymbolTableRecord
100
AcDbBlockTableRecord
  2
BK2
  0
BLOCK_RECORD
  5
133
100
AcDbSymbolTableRecord
100
AcDbBlockTableRecord
  2
BK3
  0
BLOCK_RECORD
  5
134
100
AcDbSymbolTableRecord
100
AcDbBlockTableRecord
  2
BK4
  0
BLOCK_RECORD
  5
135
100
AcDbSymbolTableRecord
100
AcDbBlockTableRecord
  2
BK5
  0
BLOCK_RECORD
  5
136
100
AcDbSymbolTableRecord
100
AcDbBlockTableRecord
  2
BK6
  0
BLOCK_RECORD
  5
137
100
AcDbSymbolTableRecord
100
AcDbBlockTableRecord
  2
BK7
  0
BLOCK_RECORD
  5
138
100
AcDbSymbolTableRecord
100
AcDbBlockTableRecord
  2
BK8
  0
BLOCK_RECORD
  5
139
100
AcDbSymbolTableRecord
100
AcDbBlockTableRecord
  2
BK9
  0
BLOCK_RECORD
  5
13A
100
AcDbSymbolTableRecord
100
AcDbBlockTableRecord
  2
BK10
  0
BLOCK_RECORD
  5
13B
100
AcDbSymbolTableRecord
100
AcDbBlockTableRecord
  2
BK11
  0
BLOCK_RECORD
  5
13C
100
AcDbSymbolTableRecord
100
AcDbBlockTableRecord
  2
BK12
  0
BLOCK_RECORD
  5
13D
100
AcDbSymbolTableRecord
100
AcDbBlockTableRecord
  2
BK13
  0
BLOCK_RECORD
  5
13E
100
AcDbSymbolTableRecord
100
AcDbBlockTableRecord
  2
BK14
  0
BLOCK_RECORD
  5
13F
100
AcDbSymbolTableRecord
100
AcDbBlockTableRecord
  2
BK15
  0
BLOCK_RECORD
  5
140
100
AcDbSymbolTableRecord
100
AcDbBlockTableRecord
  2
BK16
  0
BLOCK_RECORD
  5
141
100
AcDbSymbolTableRecord
100
AcDbBlockTableRecord
  2
BK17
  0
BLOCK_RECORD
  5
142
100
AcDbSymbolTableRecord
100
AcDbBlockTableRecord
  2
BK18
  0
BLOCK_RECORD
  5
143
100
AcDbSymbolTableRecord
100
AcDbBlockTableRecord
  2
BK19
  0
BLOCK_RECORD
  5
144
100
AcDbSymbolTableRecord
100
AcDbBlockTableRecord
  2
BK20
  0
BLOCK_RECORD
  5
145
100
AcDbSymbolTableRecord
100
AcDbBlockTableRecord
  2
BK21
  0
BLOCK_RECORD
  5
146
100
AcDbSymbolTableRecord
100
AcDbBlockTableRecord
  2
BK22
  0
BLOCK_RECORD
  5
147
100
AcDbSymbolTableRecord
100
AcDbBlockTableRecord
  2
BK23
  0
BLOCK_RECORD
  5
148
100
AcDbSymbolTableRecord
100
AcDbBlockTableRecord
  2
BK24
  0
BLOCK_RECORD
  5
149
100
AcDbSymbolTableRecord
100
AcDbBlockTableRecord
  2
BK25
  0
BLOCK_RECORD
  5
14A
100
AcDbSymbolTableRecord
100
AcDbBlockTableRecord
  2
BK26
  0
BLOCK_RECORD
  5
14B
100
AcDbSymbolTableRecord
100
AcDbBlockTableRecord
  2
BK27
  0
BLOCK_RECORD
  5
14C
100
AcDbSymbolTableRecord
100
AcDbBlockTableRecord
  2
BK28
  0
BLOCK_RECORD
  5
14D
100
AcDbSymbolTableRecord
100
AcDbBlockTableRecord
  2
BK29
  0
BLOCK_RECORD
  5
14E
100
AcDbSymbolTableRecord
100
AcDbBlockTableRecord
  2
BK30
  0
ENDTAB
  0
ENDSEC
  0
SECTION
  2
BLOCKS
  0
BLOCK
  5
14F
100
AcDbEntity
  8
0
100
AcDbBlockBegin
  2
*MODEL_SPACE
 70
     0
 10
0
 20
0
  3
*MODEL_SPACE
  1

  0
ENDBLK
  5
150
100
AcDbEntity
  8
0
100
AcDbBlockEnd
  0
BLOCK
  5
151
100
AcDbEntity
 67
     1
  8
0
100
AcDbBlockBegin
  2
*PAPER_SPACE
 70
     0
 10
0
 20
0
  3
*PAPER_SPACE
  1

  0
ENDBLK
  5
152
100
AcDbEntity
 67
     1
  8
0
100
AcDbBlockEnd
  0
BLOCK
  5
153
100
AcDbEntity
 67
     1
  8
0
100
AcDbBlockBegin
  2
_DOT
 70
     0
 10
0
 20
0
  3
_DOT
  1

  0
LWPOLYLINE
  5
154
100
AcDbEntity
  8
0
  6
BYBLOCK
 62
     0
100
AcDbPolyline
 90
     2
 70
     1
 43
0.5
 10
-0.25
 20
0
 42
1
 10
0.25
 20
0
 42
1
  0
LINE
  5
155
100
AcDbEntity
  8
0
  6
BYBLOCK
 62
     0
100
AcDbLine
 10
-0.5
 20
0
 11
-1
 21
0
  0
ENDBLK
  5
156
100
AcDbEntity
  8
0
100
AcDbBlockEnd
  0
BLOCK
  5
157
100
AcDbEntity
 67
     1
  8
0
100
AcDbBlockBegin
  2
_OPEN30
 70
     0
 10
0
 20
0
  3
_OPEN30
  1

  0
LINE
  5
158
100
AcDbEntity
  8
0
  6
BYBLOCK
 62
     0
100
AcDbLine
 10
-1
 20
0.26794919
 11
0
 21
0
  0
LINE
  5
159
100
AcDbEntity
  8
0
  6
BYBLOCK
 62
     0
100
AcDbLine
 10
-1
 20
-0.26794919
 11
0
 21
0
  0
LINE
  5
15A
100
AcDbEntity
  8
0
  6
BYBLOCK
 62
     0
100
AcDbLine
 10
0
 20
0
 11
-1
 21
0
  0
ENDBLK
  5
15B
100
AcDbEntity
  8
0
100
AcDbBlockEnd
  0
BLOCK
  5
15C
100
AcDbEntity
 67
     1
  8
0
100
AcDbBlockBegin
  2
_ClosedBlank
 70
     0
 10
0
 20
0
  3
_ClosedBlank
  1

  0
LINE
  5
15D
100
AcDbEntity
  8
0
  6
BYBLOCK
 62
     0
100
AcDbLine
 10
-1
 20
0.1666666666667
 11
0
 21
0
  0
LINE
  5
15E
100
AcDbEntity
  8
0
  6
BYBLOCK
 62
     0
100
AcDbLine
 10
0
 20
0
 11
-1
 21
-0.1666666666667
  0
LINE
  5
15F
100
AcDbEntity
  8
0
  6
BYBLOCK
 62
     0
100
AcDbLine
 10
-1
 20
0.1666666666667
 11
-1
 21
-0.1666666666667
  0
ENDBLK
  5
160
100
AcDbEntity
  8
0
100
AcDbBlockEnd
  0
BLOCK
  5
161
100
AcDbEntity
 67
     1
  8
0
100
AcDbBlockBegin
  2
_Origin
 70
     0
 10
0
 20
0
  3
_Origin
  1

  0
CIRCLE
  5
162
100
AcDbEntity
  8
0
  6
BYBLOCK
 62
     0
100
AcDbCircle
 10
0
 20
0
 40
0.5
  0
LINE
  5
163
100
AcDbEntity
  8
0
  6
BYBLOCK
 62
     0
100
AcDbLine
 10
0
 20
0
 11
-1
 21
0
  0
ENDBLK
  5
164
100
AcDbEntity
  8
0
100
AcDbBlockEnd
  0
BLOCK
  5
165
100
AcDbEntity
 67
     1
  8
0
100
AcDbBlockBegin
  2
_Oblique
 70
     0
 10
0
 20
0
  3
_Oblique
  1

  0
LINE
  5
166
100
AcDbEntity
  8
0
  6
BYBLOCK
 62
     0
100
AcDbLine
 10
-0.5
 20
-0.5
 11
0.5
 21
0.5
  0
ENDBLK
  5
167
100
AcDbEntity
  8
0
100
AcDbBlockEnd
  0
BLOCK
  5
168
100
AcDbEntity
 67
     1
  8
0
100
AcDbBlockBegin
  2
_Origin2
 70
     0
 10
0
 20
0
  3
_Origin2
  1

  0
CIRCLE
  5
169
100
AcDbEntity
  8
0
  6
BYBLOCK
 62
     0
100
AcDbCircle
 10
0
 20
0
 40
0.5
  0
CIRCLE
  5
16A
100
AcDbEntity
  8
0
  6
BYBLOCK
 62
     0
100
AcDbCircle
 10
0
 20
0
 40
0.25
  0
LINE
  5
16B
100
AcDbEntity
  8
0
  6
BYBLOCK
 62
     0
100
AcDbLine
 10
-0.5
 20
0
 11
-1
 21
0
  0
ENDBLK
  5
16C
100
AcDbEntity
  8
0
100
AcDbBlockEnd
  0
BLOCK
  5
16D
100
AcDbEntity
 67
     1
  8
0
100
AcDbBlockBegin
  2
_BoxBlank
 70
     0
 10
0
 20
0
  3
_BoxBlank
  1

  0
LINE
  5
16E
100
AcDbEntity
  8
0
  6
BYBLOCK
 62
     0
100
AcDbLine
 10
-0.5
 20
-0.5
 11
0.5
 21
-0.5
  0
LINE
  5
16F
100
AcDbEntity
  8
0
  6
BYBLOCK
 62
     0
100
AcDbLine
 10
0.5
 20
-0.5
 11
0.5
 21
0.5
  0
LINE
  5
170
100
AcDbEntity
  8
0
  6
BYBLOCK
 62
     0
100
AcDbLine
 10
0.5
 20
0.5
 11
-0.5
 21
0.5
  0
LINE
  5
171
100
AcDbEntity
  8
0
  6
BYBLOCK
 62
     0
100
AcDbLine
 10
-0.5
 20
0.5
 11
-0.5
 21
-0.5
  0
LINE
  5
172
100
AcDbEntity
  8
0
  6
BYBLOCK
 62
     0
100
AcDbLine
 10
-0.5
 20
0
 11
-1
 21
0
  0
ENDBLK
  5
173
100
AcDbEntity
  8
0
100
AcDbBlockEnd
  0
BLOCK
  5
174
100
AcDbEntity
 67
     1
  8
0
100
AcDbBlockBegin
  2
_BoxFilled
 70
     0
 10
0
 20
0
  3
_BoxFilled
  1

  0
SOLID
  5
175
100
AcDbEntity
  8
0
  6
BYBLOCK
 62
     0
100
AcDbTrace
 10
-0.5
 20
0.5
 11
0.5
 21
0.5
 12
-0.5
 22
-0.5
 13
0.5
 23
-0.5
  0
LINE
  5
176
100
AcDbEntity
  8
0
  6
BYBLOCK
 62
     0
100
AcDbLine
 10
-0.5
 20
0
 11
-1
 21
0
  0
ENDBLK
  5
177
100
AcDbEntity
  8
0
100
AcDbBlockEnd
  0
BLOCK
  5
178
100
AcDbEntity
 67
     1
  8
0
100
AcDbBlockBegin
  2
_Integral
 70
     0
 10
0
 20
0
  3
_Integral
  1

  0
ARC
  5
179
100
AcDbEntity
  8
0
  6
BYBLOCK
 62
     0
100
AcDbCircle
 10
0.44488802
 20
-0.09133463
 40
0.45416667
100
AcDbArc
 50
101.999999998
 51
167.9999999799
  0
ARC
  5
17A
100
AcDbEntity
  8
0
  6
BYBLOCK
 62
     0
100
AcDbCircle
 10
-0.44488802
 20
0.09133463
 40
0.45416667
100
AcDbArc
 50
282.0000000215
 51
348.0000000034
  0
ENDBLK
  5
17B
100
AcDbEntity
  8
0
100
AcDbBlockEnd
  0
BLOCK
  5
17C
100
AcDbEntity
  8
_0-2_寸法
100
AcDbBlockBegin
  2
BK2
 70
    64
 10
0
 20
0
  3
BK2
  1

  0
CIRCLE
  5
17D
100
AcDbEntity
  8
_0-2_寸法
  6
CONTINUOUS
 62
     0
100
AcDbCircle
 10
166.8502170626
 20
484.8328167658
 40
0.25
  0
LINE
  5
17E
100
AcDbEntity
  8
_0-2_寸法
  6
CONTINUOUS
 62
     0
100
AcDbLine
 10
166.6002170626
 20
484.8328167658
 11
167.1002170626
 21
484.8328167658
  0
LINE
  5
17F
100
AcDbEntity
  8
_0-2_寸法
  6
CONTINUOUS
 62
     0
100
AcDbLine
 10
167.3502170626
 20
484.8328167658
 11
167.8502170626
 21
484.8328167658
  0
ENDBLK
  5
180
100
AcDbEntity
 67
     1
  8
_0-2_寸法
100
AcDbBlockEnd
  0
BLOCK
  5
181
100
AcDbEntity
  8
_0-2_寸法
100
AcDbBlockBegin
  2
BK3
 70
    64
 10
0
 20
0
  3
BK3
  1

  0
CIRCLE
  5
182
100
AcDbEntity
  8
_0-2_寸法
  6
CONTINUOUS
 62
     0
100
AcDbCircle
 10
151.8502170626
 20
556.8328167658
 40
0.25
  0
LINE
  5
183
100
AcDbEntity
  8
_0-2_寸法
  6
CONTINUOUS
 62
     0
100
AcDbLine
 10
151.6002170626
 20
556.8328167658
 11
152.1002170626
 21
556.8328167658
  0
LINE
  5
184
100
AcDbEntity
  8
_0-2_寸法
  6
CONTINUOUS
 62
     0
100
AcDbLine
 10
152.3502170626
 20
556.8328167658
 11
152.8502170626
 21
556.8328167658
  0
ENDBLK
  5
185
100
AcDbEntity
 67
     1
  8
_0-2_寸法
100
AcDbBlockEnd
  0
BLOCK
  5
186
100
AcDbEntity
  8
_0-2_寸法
100
AcDbBlockBegin
  2
BK4
 70
    64
 10
0
 20
0
  3
BK4
  1

  0
CIRCLE
  5
187
100
AcDbEntity
  8
_0-2_寸法
  6
CONTINUOUS
 62
     0
100
AcDbCircle
 10
75.85021706258
 20
506.8328167658
 40
0.25
  0
LINE
  5
188
100
AcDbEntity
  8
_0-2_寸法
  6
CONTINUOUS
 62
     0
100
AcDbLine
 10
75.85021706258
 20
507.0828167658
 11
75.85021706258
 21
506.5828167658
  0
LINE
  5
189
100
AcDbEntity
  8
_0-2_寸法
  6
CONTINUOUS
 62
     0
100
AcDbLine
 10
75.85021706258
 20
506.3328167658
 11
75.85021706258
 21
505.8328167658
  0
ENDBLK
  5
18A
100
AcDbEntity
 67
     1
  8
_0-2_寸法
100
AcDbBlockEnd
  0
BLOCK
  5
18B
100
AcDbEntity
  8
_0-2_寸法
100
AcDbBlockBegin
  2
BK5
 70
    64
 10
0
 20
0
  3
BK5
  1

  0
CIRCLE
  5
18C
100
AcDbEntity
  8
_0-2_寸法
  6
CONTINUOUS
 62
     0
100
AcDbCircle
 10
95.85021706258
 20
448.1328167658
 40
0.25
  0
LINE
  5
18D
100
AcDbEntity
  8
_0-2_寸法
  6
CONTINUOUS
 62
     0
100
AcDbLine
 10
95.85021706258
 20
448.3828167658
 11
95.85021706258
 21
447.8828167658
  0
LINE
  5
18E
100
AcDbEntity
  8
_0-2_寸法
  6
CONTINUOUS
 62
     0
100
AcDbLine
 10
95.85021706258
 20
447.6328167658
 11
95.85021706258
 21
447.1328167658
  0
ENDBLK
  5
18F
100
AcDbEntity
 67
     1
  8
_0-2_寸法
100
AcDbBlockEnd
  0
BLOCK
  5
190
100
AcDbEntity
  8
_0-2_寸法
100
AcDbBlockBegin
  2
BK6
 70
    64
 10
0
 20
0
  3
BK6
  1

  0
CIRCLE
  5
191
100
AcDbEntity
  8
_0-2_寸法
  6
CONTINUOUS
 62
     0
100
AcDbCircle
 10
220.0502170626
 20
491.8328167658
 40
0.25
  0
LINE
  5
192
100
AcDbEntity
  8
_0-2_寸法
  6
CONTINUOUS
 62
     0
100
AcDbLine
 10
220.0502170626
 20
492.0828167658
 11
220.0502170626
 21
491.5828167658
  0
LINE
  5
193
100
AcDbEntity
  8
_0-2_寸法
  6
CONTINUOUS
 62
     0
100
AcDbLine
 10
220.0502170626
 20
491.3328167658
 11
220.0502170626
 21
490.8328167658
  0
ENDBLK
  5
194
100
AcDbEntity
 67
     1
  8
_0-2_寸法
100
AcDbBlockEnd
  0
BLOCK
  5
195
100
AcDbEntity
  8
_0-2_寸法
100
AcDbBlockBegin
  2
BK7
 70
    64
 10
0
 20
0
  3
BK7
  1

  0
CIRCLE
  5
196
100
AcDbEntity
  8
_0-2_寸法
  6
CONTINUOUS
 62
     0
100
AcDbCircle
 10
220.0502170626
 20
455.8328167658
 40
0.25
  0
LINE
  5
197
100
AcDbEntity
  8
_0-2_寸法
  6
CONTINUOUS
 62
     0
100
AcDbLine
 10
220.0502170626
 20
455.5828167658
 11
220.0502170626
 21
456.0828167658
  0
LINE
  5
198
100
AcDbEntity
  8
_0-2_寸法
  6
CONTINUOUS
 62
     0
100
AcDbLine
 10
220.0502170626
 20
456.3328167658
 11
220.0502170626
 21
456.8328167658
  0
ENDBLK
  5
199
100
AcDbEntity
 67
     1
  8
_0-2_寸法
100
AcDbBlockEnd
  0
BLOCK
  5
19A
100
AcDbEntity
  8
_0-2_寸法
100
AcDbBlockBegin
  2
BK8
 70
    64
 10
0
 20
0
  3
BK8
  1

  0
CIRCLE
  5
19B
100
AcDbEntity
  8
_0-2_寸法
  6
CONTINUOUS
 62
     0
100
AcDbCircle
 10
220.0502170626
 20
506.8328167658
 40
0.25
  0
LINE
  5
19C
100
AcDbEntity
  8
_0-2_寸法
  6
CONTINUOUS
 62
     0
100
AcDbLine
 10
220.0502170626
 20
507.0828167658
 11
220.0502170626
 21
506.5828167658
  0
LINE
  5
19D
100
AcDbEntity
  8
_0-2_寸法
  6
CONTINUOUS
 62
     0
100
AcDbLine
 10
220.0502170626
 20
506.3328167658
 11
220.0502170626
 21
505.8328167658
  0
ENDBLK
  5
19E
100
AcDbEntity
 67
     1
  8
_0-2_寸法
100
AcDbBlockEnd
  0
BLOCK
  5
19F
100
AcDbEntity
  8
_0-2_寸法
100
AcDbBlockBegin
  2
BK9
 70
    64
 10
0
 20
0
  3
BK9
  1

  0
CIRCLE
  5
1A0
100
AcDbEntity
  8
_0-2_寸法
  6
CONTINUOUS
 62
     0
100
AcDbCircle
 10
220.0502170626
 20
491.8328167658
 40
0.25
  0
LINE
  5
1A1
100
AcDbEntity
  8
_0-2_寸法
  6
CONTINUOUS
 62
     0
100
AcDbLine
 10
220.0502170626
 20
491.5828167658
 11
220.0502170626
 21
492.0828167658
  0
LINE
  5
1A2
100
AcDbEntity
  8
_0-2_寸法
  6
CONTINUOUS
 62
     0
100
AcDbLine
 10
220.0502170626
 20
492.3328167658
 11
220.0502170626
 21
492.8328167658
  0
ENDBLK
  5
1A3
100
AcDbEntity
 67
     1
  8
_0-2_寸法
100
AcDbBlockEnd
  0
BLOCK
  5
1A4
100
AcDbEntity
  8
_0-2_寸法
100
AcDbBlockBegin
  2
BK10
 70
    64
 10
0
 20
0
  3
BK10
  1

  0
CIRCLE
  5
1A5
100
AcDbEntity
  8
_0-2_寸法
  6
CONTINUOUS
 62
     0
100
AcDbCircle
 10
165.0502170626
 20
531.8328167658
 40
0.25
  0
LINE
  5
1A6
100
AcDbEntity
  8
_0-2_寸法
  6
CONTINUOUS
 62
     0
100
AcDbLine
 10
164.8002170626
 20
531.8328167658
 11
165.3002170626
 21
531.8328167658
  0
LINE
  5
1A7
100
AcDbEntity
  8
_0-2_寸法
  6
CONTINUOUS
 62
     0
100
AcDbLine
 10
165.5502170626
 20
531.8328167658
 11
166.0502170626
 21
531.8328167658
  0
ENDBLK
  5
1A8
100
AcDbEntity
 67
     1
  8
_0-2_寸法
100
AcDbBlockEnd
  0
BLOCK
  5
1A9
100
AcDbEntity
  8
_0-2_寸法
100
AcDbBlockBegin
  2
BK11
 70
    64
 10
0
 20
0
  3
BK11
  1

  0
CIRCLE
  5
1AA
100
AcDbEntity
  8
_0-2_寸法
  6
CONTINUOUS
 62
     0
100
AcDbCircle
 10
185.0502170626
 20
531.8328167658
 40
0.25
  0
LINE
  5
1AB
100
AcDbEntity
  8
_0-2_寸法
  6
CONTINUOUS
 62
     0
100
AcDbLine
 10
185.3002170626
 20
531.8328167658
 11
184.8002170626
 21
531.8328167658
  0
LINE
  5
1AC
100
AcDbEntity
  8
_0-2_寸法
  6
CONTINUOUS
 62
     0
100
AcDbLine
 10
184.5502170626
 20
531.8328167658
 11
184.0502170626
 21
531.8328167658
  0
ENDBLK
  5
1AD
100
AcDbEntity
 67
     1
  8
_0-2_寸法
100
AcDbBlockEnd
  0
BLOCK
  5
1AE
100
AcDbEntity
  8
_0-2_寸法
100
AcDbBlockBegin
  2
BK12
 70
    64
 10
0
 20
0
  3
BK12
  1

  0
CIRCLE
  5
1AF
100
AcDbEntity
  8
_0-2_寸法
  6
CONTINUOUS
 62
     0
100
AcDbCircle
 10
151.8502170626
 20
541.8328167658
 40
0.25
  0
LINE
  5
1B0
100
AcDbEntity
  8
_0-2_寸法
  6
CONTINUOUS
 62
     0
100
AcDbLine
 10
151.6002170626
 20
541.8328167658
 11
152.1002170626
 21
541.8328167658
  0
LINE
  5
1B1
100
AcDbEntity
  8
_0-2_寸法
  6
CONTINUOUS
 62
     0
100
AcDbLine
 10
152.3502170626
 20
541.8328167658
 11
152.8502170626
 21
541.8328167658
  0
ENDBLK
  5
1B2
100
AcDbEntity
 67
     1
  8
_0-2_寸法
100
AcDbBlockEnd
  0
BLOCK
  5
1B3
100
AcDbEntity
  8
_0-2_寸法
100
AcDbBlockBegin
  2
BK13
 70
    64
 10
0
 20
0
  3
BK13
  1

  0
CIRCLE
  5
1B4
100
AcDbEntity
  8
_0-2_寸法
  6
CONTINUOUS
 62
     0
100
AcDbCircle
 10
185.0502170626
 20
541.8328167658
 40
0.25
  0
LINE
  5
1B5
100
AcDbEntity
  8
_0-2_寸法
  6
CONTINUOUS
 62
     0
100
AcDbLine
 10
185.3002170626
 20
541.8328167658
 11
184.8002170626
 21
541.8328167658
  0
LINE
  5
1B6
100
AcDbEntity
  8
_0-2_寸法
  6
CONTINUOUS
 62
     0
100
AcDbLine
 10
184.5502170626
 20
541.8328167658
 11
184.0502170626
 21
541.8328167658
  0
ENDBLK
  5
1B7
100
AcDbEntity
 67
     1
  8
_0-2_寸法
100
AcDbBlockEnd
  0
BLOCK
  5
1B8
100
AcDbEntity
  8
_0-2_寸法
100
AcDbBlockBegin
  2
BK14
 70
    64
 10
0
 20
0
  3
BK14
  1

  0
CIRCLE
  5
1B9
100
AcDbEntity
  8
_0-2_寸法
  6
CONTINUOUS
 62
     0
100
AcDbCircle
 10
726.8502170626
 20
484.8328167658
 40
0.25
  0
LINE
  5
1BA
100
AcDbEntity
  8
_0-2_寸法
  6
CONTINUOUS
 62
     0
100
AcDbLine
 10
727.1002170626
 20
484.8328167658
 11
726.6002170626
 21
484.8328167658
  0
LINE
  5
1BB
100
AcDbEntity
  8
_0-2_寸法
  6
CONTINUOUS
 62
     0
100
AcDbLine
 10
726.3502170626
 20
484.8328167658
 11
725.8502170626
 21
484.8328167658
  0
ENDBLK
  5
1BC
100
AcDbEntity
 67
     1
  8
_0-2_寸法
100
AcDbBlockEnd
  0
BLOCK
  5
1BD
100
AcDbEntity
  8
_0-2_寸法
100
AcDbBlockBegin
  2
BK15
 70
    64
 10
0
 20
0
  3
BK15
  1

  0
CIRCLE
  5
1BE
100
AcDbEntity
  8
_0-2_寸法
  6
CONTINUOUS
 62
     0
100
AcDbCircle
 10
726.8502170626
 20
556.8328167658
 40
0.25
  0
LINE
  5
1BF
100
AcDbEntity
  8
_0-2_寸法
  6
CONTINUOUS
 62
     0
100
AcDbLine
 10
727.1002170626
 20
556.8328167658
 11
726.6002170626
 21
556.8328167658
  0
LINE
  5
1C0
100
AcDbEntity
  8
_0-2_寸法
  6
CONTINUOUS
 62
     0
100
AcDbLine
 10
726.3502170626
 20
556.8328167658
 11
725.8502170626
 21
556.8328167658
  0
ENDBLK
  5
1C1
100
AcDbEntity
 67
     1
  8
_0-2_寸法
100
AcDbBlockEnd
  0
BLOCK
  5
1C2
100
AcDbEntity
  8
_0-2_寸法
100
AcDbBlockBegin
  2
BK16
 70
    64
 10
0
 20
0
  3
BK16
  1

  0
CIRCLE
  5
1C3
100
AcDbEntity
  8
_0-2_寸法
  6
CONTINUOUS
 62
     0
100
AcDbCircle
 10
726.8502170626
 20
259.8286386255
 40
0.25
  0
LINE
  5
1C4
100
AcDbEntity
  8
_0-2_寸法
  6
CONTINUOUS
 62
     0
100
AcDbLine
 10
727.1002170626
 20
259.8286386255
 11
726.6002170626
 21
259.8286386255
  0
LINE
  5
1C5
100
AcDbEntity
  8
_0-2_寸法
  6
CONTINUOUS
 62
     0
100
AcDbLine
 10
726.3502170626
 20
259.8286386255
 11
725.8502170626
 21
259.8286386255
  0
ENDBLK
  5
1C6
100
AcDbEntity
 67
     1
  8
_0-2_寸法
100
AcDbBlockEnd
  0
BLOCK
  5
1C7
100
AcDbEntity
  8
_0-2_寸法
100
AcDbBlockBegin
  2
BK17
 70
    64
 10
0
 20
0
  3
BK17
  1

  0
CIRCLE
  5
1C8
100
AcDbEntity
  8
_0-2_寸法
  6
CONTINUOUS
 62
     0
100
AcDbCircle
 10
766.8502170626
 20
374.8286386255
 40
0.25
  0
LINE
  5
1C9
100
AcDbEntity
  8
_0-2_寸法
  6
CONTINUOUS
 62
     0
100
AcDbLine
 10
766.8502170626
 20
375.0786386255
 11
766.8502170626
 21
374.5786386255
  0
LINE
  5
1CA
100
AcDbEntity
  8
_0-2_寸法
  6
CONTINUOUS
 62
     0
100
AcDbLine
 10
766.8502170626
 20
374.3286386255
 11
766.8502170626
 21
373.8286386255
  0
ENDBLK
  5
1CB
100
AcDbEntity
 67
     1
  8
_0-2_寸法
100
AcDbBlockEnd
  0
BLOCK
  5
1CC
100
AcDbEntity
  8
_0-2_寸法
100
AcDbBlockBegin
  2
BK18
 70
    64
 10
0
 20
0
  3
BK18
  1

  0
CIRCLE
  5
1CD
100
AcDbEntity
  8
_0-2_寸法
  6
CONTINUOUS
 62
     0
100
AcDbCircle
 10
766.8502170626
 20
332.4147584708
 40
0.25
  0
LINE
  5
1CE
100
AcDbEntity
  8
_0-2_寸法
  6
CONTINUOUS
 62
     0
100
AcDbLine
 10
766.8502170626
 20
332.1647584708
 11
766.8502170626
 21
332.6647584708
  0
LINE
  5
1CF
100
AcDbEntity
  8
_0-2_寸法
  6
CONTINUOUS
 62
     0
100
AcDbLine
 10
766.8502170626
 20
332.9147584708
 11
766.8502170626
 21
333.4147584708
  0
ENDBLK
  5
1D0
100
AcDbEntity
 67
     1
  8
_0-2_寸法
100
AcDbBlockEnd
  0
BLOCK
  5
1D1
100
AcDbEntity
  8
_0-2_寸法
100
AcDbBlockBegin
  2
BK19
 70
    64
 10
0
 20
0
  3
BK19
  1

  0
CIRCLE
  5
1D2
100
AcDbEntity
  8
_0-2_寸法
  6
CONTINUOUS
 62
     0
100
AcDbCircle
 10
786.8502170626
 20
422.4147584708
 40
0.25
  0
LINE
  5
1D3
100
AcDbEntity
  8
_0-2_寸法
  6
CONTINUOUS
 62
     0
100
AcDbLine
 10
786.8502170626
 20
422.6647584708
 11
786.8502170626
 21
422.1647584708
  0
LINE
  5
1D4
100
AcDbEntity
  8
_0-2_寸法
  6
CONTINUOUS
 62
     0
100
AcDbLine
 10
786.8502170626
 20
421.9147584708
 11
786.8502170626
 21
421.4147584708
  0
ENDBLK
  5
1D5
100
AcDbEntity
 67
     1
  8
_0-2_寸法
100
AcDbBlockEnd
  0
BLOCK
  5
1D6
100
AcDbEntity
  8
_0-2_寸法
100
AcDbBlockBegin
  2
BK20
 70
    64
 10
0
 20
0
  3
BK20
  1

  0
CIRCLE
  5
1D7
100
AcDbEntity
  8
_0-2_寸法
  6
CONTINUOUS
 62
     0
100
AcDbCircle
 10
786.8502170626
 20
332.4147584708
 40
0.25
  0
LINE
  5
1D8
100
AcDbEntity
  8
_0-2_寸法
  6
CONTINUOUS
 62
     0
100
AcDbLine
 10
786.8502170626
 20
332.1647584708
 11
786.8502170626
 21
332.6647584708
  0
LINE
  5
1D9
100
AcDbEntity
  8
_0-2_寸法
  6
CONTINUOUS
 62
     0
100
AcDbLine
 10
786.8502170626
 20
332.9147584708
 11
786.8502170626
 21
333.4147584708
  0
ENDBLK
  5
1DA
100
AcDbEntity
 67
     1
  8
_0-2_寸法
100
AcDbBlockEnd
  0
BLOCK
  5
1DB
100
AcDbEntity
  8
_0-2_寸法
100
AcDbBlockBegin
  2
BK21
 70
    64
 10
0
 20
0
  3
BK21
  1

  0
CIRCLE
  5
1DC
100
AcDbEntity
  8
_0-2_寸法
  6
CONTINUOUS
 62
     0
100
AcDbCircle
 10
75.85021706258
 20
374.8286386255
 40
0.25
  0
LINE
  5
1DD
100
AcDbEntity
  8
_0-2_寸法
  6
CONTINUOUS
 62
     0
100
AcDbLine
 10
75.85021706258
 20
374.5786386255
 11
75.85021706258
 21
375.0786386255
  0
LINE
  5
1DE
100
AcDbEntity
  8
_0-2_寸法
  6
CONTINUOUS
 62
     0
100
AcDbLine
 10
75.85021706258
 20
375.3286386255
 11
75.85021706258
 21
375.8286386255
  0
ENDBLK
  5
1DF
100
AcDbEntity
 67
     1
  8
_0-2_寸法
100
AcDbBlockEnd
  0
BLOCK
  5
1E0
100
AcDbEntity
  8
_0-2_寸法
100
AcDbBlockBegin
  2
BK22
 70
    64
 10
0
 20
0
  3
BK22
  1

  0
CIRCLE
  5
1E1
100
AcDbEntity
  8
_0-2_寸法
  6
CONTINUOUS
 62
     0
100
AcDbCircle
 10
95.85021706258
 20
374.8286386255
 40
0.25
  0
LINE
  5
1E2
100
AcDbEntity
  8
_0-2_寸法
  6
CONTINUOUS
 62
     0
100
AcDbLine
 10
95.85021706258
 20
374.5786386255
 11
95.85021706258
 21
375.0786386255
  0
LINE
  5
1E3
100
AcDbEntity
  8
_0-2_寸法
  6
CONTINUOUS
 62
     0
100
AcDbLine
 10
95.85021706258
 20
375.3286386255
 11
95.85021706258
 21
375.8286386255
  0
ENDBLK
  5
1E4
100
AcDbEntity
 67
     1
  8
_0-2_寸法
100
AcDbBlockEnd
  0
BLOCK
  5
1E5
100
AcDbEntity
  8
_0-2_寸法
100
AcDbBlockBegin
  2
BK23
 70
    64
 10
0
 20
0
  3
BK23
  1

  0
CIRCLE
  5
1E6
100
AcDbEntity
  8
_0-2_寸法
  6
CONTINUOUS
 62
     0
100
AcDbCircle
 10
150.8502170626
 20
259.8286386255
 40
0.25
  0
LINE
  5
1E7
100
AcDbEntity
  8
_0-2_寸法
  6
CONTINUOUS
 62
     0
100
AcDbLine
 10
150.6002170626
 20
259.8286386255
 11
151.1002170626
 21
259.8286386255
  0
LINE
  5
1E8
100
AcDbEntity
  8
_0-2_寸法
  6
CONTINUOUS
 62
     0
100
AcDbLine
 10
151.3502170626
 20
259.8286386255
 11
151.8502170626
 21
259.8286386255
  0
ENDBLK
  5
1E9
100
AcDbEntity
 67
     1
  8
_0-2_寸法
100
AcDbBlockEnd
  0
BLOCK
  5
1EA
100
AcDbEntity
  8
_0-2_寸法
100
AcDbBlockBegin
  2
BK24
 70
    64
 10
0
 20
0
  3
BK24
  1

  0
CIRCLE
  5
1EB
100
AcDbEntity
  8
_0-2_寸法
  6
CONTINUOUS
 62
     0
100
AcDbCircle
 10
576.8502170626
 20
259.8286386255
 40
0.25
  0
LINE
  5
1EC
100
AcDbEntity
  8
_0-2_寸法
  6
CONTINUOUS
 62
     0
100
AcDbLine
 10
577.1002170626
 20
259.8286386255
 11
576.6002170626
 21
259.8286386255
  0
LINE
  5
1ED
100
AcDbEntity
  8
_0-2_寸法
  6
CONTINUOUS
 62
     0
100
AcDbLine
 10
576.3502170626
 20
259.8286386255
 11
575.8502170626
 21
259.8286386255
  0
ENDBLK
  5
1EE
100
AcDbEntity
 67
     1
  8
_0-2_寸法
100
AcDbBlockEnd
  0
BLOCK
  5
1EF
100
AcDbEntity
  8
_0-2_寸法
100
AcDbBlockBegin
  2
BK25
 70
    64
 10
0
 20
0
  3
BK25
  1

  0
CIRCLE
  5
1F0
100
AcDbEntity
  8
_0-2_寸法
  6
CONTINUOUS
 62
     0
100
AcDbCircle
 10
576.8502170626
 20
259.8286386255
 40
0.25
  0
LINE
  5
1F1
100
AcDbEntity
  8
_0-2_寸法
  6
CONTINUOUS
 62
     0
100
AcDbLine
 10
576.6002170626
 20
259.8286386255
 11
577.1002170626
 21
259.8286386255
  0
LINE
  5
1F2
100
AcDbEntity
  8
_0-2_寸法
  6
CONTINUOUS
 62
     0
100
AcDbLine
 10
577.3502170626
 20
259.8286386255
 11
577.8502170626
 21
259.8286386255
  0
ENDBLK
  5
1F3
100
AcDbEntity
 67
     1
  8
_0-2_寸法
100
AcDbBlockEnd
  0
BLOCK
  5
1F4
100
AcDbEntity
  8
_0-5_ADD_LINE
100
AcDbBlockBegin
  2
BK26
 70
    64
 10
0
 20
0
  3
BK26
  1

  0
CIRCLE
  5
1F5
100
AcDbEntity
  8
_0-5_ADD_LINE
  6
CONTINUOUS
 62
     0
100
AcDbCircle
 10
576.7816938003
 20
314.8322297775
 40
0.25
  0
LINE
  5
1F6
100
AcDbEntity
  8
_0-5_ADD_LINE
  6
CONTINUOUS
 62
     0
100
AcDbLine
 10
577.0316938003
 20
314.8322297775
 11
576.5316938003
 21
314.8322297775
  0
LINE
  5
1F7
100
AcDbEntity
  8
_0-5_ADD_LINE
  6
CONTINUOUS
 62
     0
100
AcDbLine
 10
576.2816938003
 20
314.8322297775
 11
575.7816938003
 21
314.8322297775
  0
ENDBLK
  5
1F8
100
AcDbEntity
 67
     1
  8
_0-5_ADD_LINE
100
AcDbBlockEnd
  0
BLOCK
  5
1F9
100
AcDbEntity
  8
_0-5_ADD_LINE
100
AcDbBlockBegin
  2
BK27
 70
    64
 10
0
 20
0
  3
BK27
  1

  0
CIRCLE
  5
1FA
100
AcDbEntity
  8
_0-5_ADD_LINE
  6
CONTINUOUS
 62
     0
100
AcDbCircle
 10
576.8502170626
 20
314.8286386255
 40
0.25
  0
LINE
  5
1FB
100
AcDbEntity
  8
_0-5_ADD_LINE
  6
CONTINUOUS
 62
     0
100
AcDbLine
 10
577.1002170626
 20
314.8286386255
 11
576.6002170626
 21
314.8286386255
  0
LINE
  5
1FC
100
AcDbEntity
  8
_0-5_ADD_LINE
  6
CONTINUOUS
 62
     0
100
AcDbLine
 10
576.3502170626
 20
314.8286386255
 11
575.8502170626
 21
314.8286386255
  0
ENDBLK
  5
1FD
100
AcDbEntity
 67
     1
  8
_0-5_ADD_LINE
100
AcDbBlockEnd
  0
BLOCK
  5
1FE
100
AcDbEntity
  8
_0-2_寸法
100
AcDbBlockBegin
  2
BK28
 70
    64
 10
0
 20
0
  3
BK28
  1

  0
CIRCLE
  5
1FF
100
AcDbEntity
  8
_0-2_寸法
  6
CONTINUOUS
 62
     0
100
AcDbCircle
 10
175.8502170626
 20
259.8286386255
 40
0.25
  0
LINE
  5
200
100
AcDbEntity
  8
_0-2_寸法
  6
CONTINUOUS
 62
     0
100
AcDbLine
 10
175.6002170626
 20
259.8286386255
 11
176.1002170626
 21
259.8286386255
  0
LINE
  5
201
100
AcDbEntity
  8
_0-2_寸法
  6
CONTINUOUS
 62
     0
100
AcDbLine
 10
176.3502170626
 20
259.8286386255
 11
176.8502170626
 21
259.8286386255
  0
ENDBLK
  5
202
100
AcDbEntity
 67
     1
  8
_0-2_寸法
100
AcDbBlockEnd
  0
BLOCK
  5
203
100
AcDbEntity
  8
_0-2_寸法
100
AcDbBlockBegin
  2
BK29
 70
    64
 10
0
 20
0
  3
BK29
  1

  0
CIRCLE
  5
204
100
AcDbEntity
  8
_0-2_寸法
  6
CONTINUOUS
 62
     0
100
AcDbCircle
 10
425.8502170626
 20
259.8286386255
 40
0.25
  0
LINE
  5
205
100
AcDbEntity
  8
_0-2_寸法
  6
CONTINUOUS
 62
     0
100
AcDbLine
 10
426.1002170626
 20
259.8286386255
 11
425.6002170626
 21
259.8286386255
  0
LINE
  5
206
100
AcDbEntity
  8
_0-2_寸法
  6
CONTINUOUS
 62
     0
100
AcDbLine
 10
425.3502170626
 20
259.8286386255
 11
424.8502170626
 21
259.8286386255
  0
ENDBLK
  5
207
100
AcDbEntity
 67
     1
  8
_0-2_寸法
100
AcDbBlockEnd
  0
BLOCK
  5
208
100
AcDbEntity
  8
_0-2_寸法
100
AcDbBlockBegin
  2
BK30
 70
    64
 10
0
 20
0
  3
BK30
  1

  0
CIRCLE
  5
209
100
AcDbEntity
  8
_0-2_寸法
  6
CONTINUOUS
 62
     0
100
AcDbCircle
 10
425.8502170626
 20
259.8286386255
 40
0.25
  0
LINE
  5
20A
100
AcDbEntity
  8
_0-2_寸法
  6
CONTINUOUS
 62
     0
100
AcDbLine
 10
425.6002170626
 20
259.8286386255
 11
426.1002170626
 21
259.8286386255
  0
LINE
  5
20B
100
AcDbEntity
  8
_0-2_寸法
  6
CONTINUOUS
 62
     0
100
AcDbLine
 10
426.3502170626
 20
259.8286386255
 11
426.8502170626
 21
259.8286386255
  0
ENDBLK
  5
20C
100
AcDbEntity
 67
     1
  8
_0-2_寸法
100
AcDbBlockEnd
  0
ENDSEC
  0
SECTION
  2
ENTITIES
  0
LINE
  5
20D
100
AcDbEntity
  8
_0-4_図枠
  6
CONTINUOUS
 62
     0
100
AcDbLine
 10
334
 20
135
 11
125
 21
135
  0
LINE
  5
20E
100
AcDbEntity
  8
_0-4_図枠
  6
CONTINUOUS
 62
     0
100
AcDbLine
 10
334
 20
180
 11
125
 21
180
  0
LINE
  5
20F
100
AcDbEntity
  8
_0-4_図枠
  6
CONTINUOUS
 62
     0
100
AcDbLine
 10
647
 20
207
 11
422
 21
207
  0
LINE
  5
210
100
AcDbEntity
  8
_0-4_図枠
  6
CONTINUOUS
 62
     0
100
AcDbLine
 10
8
 20
6
 11
832
 21
6
  0
LINE
  5
211
100
AcDbEntity
  8
_0-4_図枠
  6
CONTINUOUS
 62
     0
100
AcDbLine
 10
832
 20
6
 11
832
 21
582
  0
LINE
  5
212
100
AcDbEntity
  8
_0-4_図枠
  6
CONTINUOUS
 62
     0
100
AcDbLine
 10
832
 20
582
 11
8
 21
582
  0
LINE
  5
213
100
AcDbEntity
  8
_0-4_図枠
  6
CONTINUOUS
 62
     0
100
AcDbLine
 10
8
 20
582
 11
8
 21
6
  0
TEXT
  5
214
100
AcDbEntity
  8
_0-4_図枠
  6
CONTINUOUS
 62
     0
100
AcDbText
 10
27.54650870913
 20
543.4696321568
 40
5
  1
　　Ｓ＝１／２
  7
STANDARD
100
AcDbText
  0
TEXT
  5
215
100
AcDbEntity
  8
_0-4_図枠
  6
CONTINUOUS
 62
     0
100
AcDbText
 10
175.5
 20
226.5
 40
5
  1
部材名称
  7
STANDARD
100
AcDbText
  0
TEXT
  5
216
100
AcDbEntity
  8
_0-4_図枠
  6
CONTINUOUS
 62
     0
100
AcDbText
 10
276.5
 20
226.5
 40
5
  1
規　格
  7
STANDARD
100
AcDbText
  0
TEXT
  5
217
100
AcDbEntity
  8
_0-4_図枠
  6
CONTINUOUS
 62
     0
100
AcDbText
 10
144
 20
199.5
 40
5
  1
ＦＹＹフレーム
  7
STANDARD
100
AcDbText
  0
TEXT
  5
218
100
AcDbEntity
  8
_0-4_図枠
  6
CONTINUOUS
 62
     0
100
AcDbText
 10
144
 20
190.5
 40
5
  1
ＦＹＫ壁フレーム
  7
STANDARD
100
AcDbText
  0
LINE
  5
219
100
AcDbEntity
  8
_0-4_図枠
  6
CONTINUOUS
 62
     0
100
AcDbLine
 10
334
 20
234
 11
125
 21
234
  0
LINE
  5
21A
100
AcDbEntity
  8
_0-4_図枠
  6
CONTINUOUS
 62
     0
100
AcDbLine
 10
334
 20
225
 11
125
 21
225
  0
LINE
  5
21B
100
AcDbEntity
  8
_0-4_図枠
  6
CONTINUOUS
 62
     0
100
AcDbLine
 10
334
 20
216
 11
125
 21
216
  0
LINE
  5
21C
100
AcDbEntity
  8
_0-4_図枠
  6
CONTINUOUS
 62
     0
100
AcDbLine
 10
334
 20
207
 11
125
 21
207
  0
LINE
  5
21D
100
AcDbEntity
  8
_0-4_図枠
  6
CONTINUOUS
 62
     0
100
AcDbLine
 10
334
 20
198
 11
125
 21
198
  0
LINE
  5
21E
100
AcDbEntity
  8
_0-4_図枠
  6
CONTINUOUS
 62
     0
100
AcDbLine
 10
334
 20
189
 11
125
 21
189
  0
LINE
  5
21F
100
AcDbEntity
  8
_0-4_図枠
  6
CONTINUOUS
 62
     0
100
AcDbLine
 10
334
 20
171
 11
125
 21
171
  0
LINE
  5
220
100
AcDbEntity
  8
_0-4_図枠
  6
CONTINUOUS
 62
     0
100
AcDbLine
 10
334
 20
162
 11
125
 21
162
  0
LINE
  5
221
100
AcDbEntity
  8
_0-4_図枠
  6
CONTINUOUS
 62
     0
100
AcDbLine
 10
334
 20
153
 11
125
 21
153
  0
LINE
  5
222
100
AcDbEntity
  8
_0-4_図枠
  6
CONTINUOUS
 62
     0
100
AcDbLine
 10
334
 20
144
 11
125
 21
144
  0
LINE
  5
223
100
AcDbEntity
  8
_0-4_図枠
  6
CONTINUOUS
 62
     0
100
AcDbLine
 10
334
 20
126
 11
125
 21
126
  0
LINE
  5
224
100
AcDbEntity
  8
_0-4_図枠
  6
CONTINUOUS
 62
     0
100
AcDbLine
 10
334
 20
117
 11
125
 21
117
  0
LINE
  5
225
100
AcDbEntity
  8
_0-4_図枠
  6
CONTINUOUS
 62
     0
100
AcDbLine
 10
334
 20
108
 11
125
 21
108
  0
LINE
  5
226
100
AcDbEntity
  8
_0-4_図枠
  6
CONTINUOUS
 62
     0
100
AcDbLine
 10
334
 20
99
 11
125
 21
99
  0
LINE
  5
227
100
AcDbEntity
  8
_0-4_図枠
  6
CONTINUOUS
 62
     0
100
AcDbLine
 10
334
 20
90
 11
125
 21
90
  0
LINE
  5
228
100
AcDbEntity
  8
_0-4_図枠
  6
CONTINUOUS
 62
     0
100
AcDbLine
 10
334
 20
81
 11
125
 21
81
  0
LINE
  5
229
100
AcDbEntity
  8
_0-4_図枠
  6
CONTINUOUS
 62
     0
100
AcDbLine
 10
334
 20
72
 11
125
 21
72
  0
LINE
  5
22A
100
AcDbEntity
  8
_0-4_図枠
  6
CONTINUOUS
 62
     0
100
AcDbLine
 10
334
 20
63
 11
125
 21
63
  0
LINE
  5
22B
100
AcDbEntity
  8
_0-4_図枠
  6
CONTINUOUS
 62
     0
100
AcDbLine
 10
334
 20
54
 11
125
 21
54
  0
LINE
  5
22C
100
AcDbEntity
  8
_0-4_図枠
  6
CONTINUOUS
 62
     0
100
AcDbLine
 10
334
 20
45
 11
125
 21
45
  0
LINE
  5
22D
100
AcDbEntity
  8
_0-4_図枠
  6
CONTINUOUS
 62
     0
100
AcDbLine
 10
334
 20
36
 11
125
 21
36
  0
TEXT
  5
22E
100
AcDbEntity
  8
_0-4_図枠
  6
CONTINUOUS
 62
     0
100
AcDbText
 10
127
 20
226.5
 40
5
  1
No.
  7
STANDARD
100
AcDbText
  0
TEXT
  5
22F
100
AcDbEntity
  8
_0-4_図枠
  6
CONTINUOUS
 62
     0
100
AcDbText
 10
128.75
 20
217.5
 40
5
  1
 1
  7
STANDARD
100
AcDbText
  0
TEXT
  5
230
100
AcDbEntity
  8
_0-4_図枠
  6
CONTINUOUS
 62
     0
100
AcDbText
 10
128.75
 20
208.5
 40
5
  1
 2
  7
STANDARD
100
AcDbText
  0
TEXT
  5
231
100
AcDbEntity
  8
_0-4_図枠
  6
CONTINUOUS
 62
     0
100
AcDbText
 10
128.75
 20
199.5
 40
5
  1
 3
  7
STANDARD
100
AcDbText
  0
TEXT
  5
232
100
AcDbEntity
  8
_0-4_図枠
  6
CONTINUOUS
 62
     0
100
AcDbText
 10
128.75
 20
190.5
 40
5
  1
 4
  7
STANDARD
100
AcDbText
  0
TEXT
  5
233
100
AcDbEntity
  8
_0-4_図枠
  6
CONTINUOUS
 62
     0
100
AcDbText
 10
128.75
 20
181.5
 40
5
  1
 5
  7
STANDARD
100
AcDbText
  0
TEXT
  5
234
100
AcDbEntity
  8
_0-4_図枠
  6
CONTINUOUS
 62
     0
100
AcDbText
 10
128.75
 20
172.5
 40
5
  1
 6
  7
STANDARD
100
AcDbText
  0
TEXT
  5
235
100
AcDbEntity
  8
_0-4_図枠
  6
CONTINUOUS
 62
     0
100
AcDbText
 10
128.75
 20
163.5
 40
5
  1
 7
  7
STANDARD
100
AcDbText
  0
TEXT
  5
236
100
AcDbEntity
  8
_0-4_図枠
  6
CONTINUOUS
 62
     0
100
AcDbText
 10
128.75
 20
154.5
 40
5
  1
 8
  7
STANDARD
100
AcDbText
  0
TEXT
  5
237
100
AcDbEntity
  8
_0-4_図枠
  6
CONTINUOUS
 62
     0
100
AcDbText
 10
128.75
 20
145.5
 40
5
  1
 9
  7
STANDARD
100
AcDbText
  0
TEXT
  5
238
100
AcDbEntity
  8
_0-4_図枠
  6
CONTINUOUS
 62
     0
100
AcDbText
 10
128.75
 20
136.5
 40
5
  1
10
  7
STANDARD
100
AcDbText
  0
TEXT
  5
239
100
AcDbEntity
  8
_0-4_図枠
  6
CONTINUOUS
 62
     0
100
AcDbText
 10
128.75
 20
127.5
 40
5
  1
11
  7
STANDARD
100
AcDbText
  0
TEXT
  5
23A
100
AcDbEntity
  8
_0-4_図枠
  6
CONTINUOUS
 62
     0
100
AcDbText
 10
128.75
 20
118.5
 40
5
  1
12
  7
STANDARD
100
AcDbText
  0
TEXT
  5
23B
100
AcDbEntity
  8
_0-4_図枠
  6
CONTINUOUS
 62
     0
100
AcDbText
 10
128.75
 20
109.5
 40
5
  1
13
  7
STANDARD
100
AcDbText
  0
TEXT
  5
23C
100
AcDbEntity
  8
_0-4_図枠
  6
CONTINUOUS
 62
     0
100
AcDbText
 10
128.75
 20
100.5
 40
5
  1
14
  7
STANDARD
100
AcDbText
  0
TEXT
  5
23D
100
AcDbEntity
  8
_0-4_図枠
  6
CONTINUOUS
 62
     0
100
AcDbText
 10
128.75
 20
91.5
 40
5
  1
15
  7
STANDARD
100
AcDbText
  0
TEXT
  5
23E
100
AcDbEntity
  8
_0-4_図枠
  6
CONTINUOUS
 62
     0
100
AcDbText
 10
128.75
 20
82.5
 40
5
  1
16
  7
STANDARD
100
AcDbText
  0
TEXT
  5
23F
100
AcDbEntity
  8
_0-4_図枠
  6
CONTINUOUS
 62
     0
100
AcDbText
 10
128.75
 20
73.5
 40
5
  1
17
  7
STANDARD
100
AcDbText
  0
TEXT
  5
240
100
AcDbEntity
  8
_0-4_図枠
  6
CONTINUOUS
 62
     0
100
AcDbText
 10
128.75
 20
64.5
 40
5
  1
18
  7
STANDARD
100
AcDbText
  0
TEXT
  5
241
100
AcDbEntity
  8
_0-4_図枠
  6
CONTINUOUS
 62
     0
100
AcDbText
 10
128.75
 20
55.5
 40
5
  1
19
  7
STANDARD
100
AcDbText
  0
TEXT
  5
242
100
AcDbEntity
  8
_0-4_図枠
  6
CONTINUOUS
 62
     0
100
AcDbText
 10
128.75
 20
46.5
 40
5
  1
20
  7
STANDARD
100
AcDbText
  0
TEXT
  5
243
100
AcDbEntity
  8
_0-4_図枠
  6
CONTINUOUS
 62
     0
100
AcDbText
 10
27.54650870913
 20
553.4696321568
 40
5
  1
　　屋根－壁（ストレート壁）
  7
STANDARD
100
AcDbText
  0
TEXT
  5
244
100
AcDbEntity
  8
_0-4_図枠
  6
CONTINUOUS
 62
     0
100
AcDbText
 10
144
 20
217.5
 40
5
  1
ＦＹＫキャップＳ
  7
STANDARD
100
AcDbText
  0
TEXT
  5
245
100
AcDbEntity
  8
_0-4_図枠
  6
CONTINUOUS
 62
     0
100
AcDbText
 10
144
 20
208.5
 40
5
  1
ＦＹＫサイドキャップＳ
  7
STANDARD
100
AcDbText
  0
LINE
  5
246
100
AcDbEntity
  8
_0-4_図枠
  6
CONTINUOUS
 62
     0
100
AcDbLine
 10
335
 20
234
 11
402
 21
234
  0
LINE
  5
247
100
AcDbEntity
  8
_0-4_図枠
  6
CONTINUOUS
 62
     0
100
AcDbLine
 10
335
 20
225
 11
402
 21
225
  0
LINE
  5
248
100
AcDbEntity
  8
_0-4_図枠
  6
CONTINUOUS
 62
     0
100
AcDbLine
 10
335
 20
216
 11
402
 21
216
  0
LINE
  5
249
100
AcDbEntity
  8
_0-4_図枠
  6
CONTINUOUS
 62
     0
100
AcDbLine
 10
335
 20
207
 11
402
 21
207
  0
LINE
  5
24A
100
AcDbEntity
  8
_0-4_図枠
  6
CONTINUOUS
 62
     0
100
AcDbLine
 10
335
 20
198
 11
402
 21
198
  0
LINE
  5
24B
100
AcDbEntity
  8
_0-4_図枠
  6
CONTINUOUS
 62
     0
100
AcDbLine
 10
335
 20
189
 11
402
 21
189
  0
LINE
  5
24C
100
AcDbEntity
  8
_0-4_図枠
  6
CONTINUOUS
 62
     0
100
AcDbLine
 10
335
 20
180
 11
402
 21
180
  0
LINE
  5
24D
100
AcDbEntity
  8
_0-4_図枠
  6
CONTINUOUS
 62
     0
100
AcDbLine
 10
335
 20
171
 11
402
 21
171
  0
LINE
  5
24E
100
AcDbEntity
  8
_0-4_図枠
  6
CONTINUOUS
 62
     0
100
AcDbLine
 10
335
 20
162
 11
402
 21
162
  0
LINE
  5
24F
100
AcDbEntity
  8
_0-4_図枠
  6
CONTINUOUS
 62
     0
100
AcDbLine
 10
335
 20
153
 11
402
 21
153
  0
LINE
  5
250
100
AcDbEntity
  8
_0-4_図枠
  6
CONTINUOUS
 62
     0
100
AcDbLine
 10
335
 20
144
 11
402
 21
144
  0
LINE
  5
251
100
AcDbEntity
  8
_0-4_図枠
  6
CONTINUOUS
 62
     0
100
AcDbLine
 10
335
 20
135
 11
402
 21
135
  0
LINE
  5
252
100
AcDbEntity
  8
_0-4_図枠
  6
CONTINUOUS
 62
     0
100
AcDbLine
 10
335
 20
126
 11
402
 21
126
  0
LINE
  5
253
100
AcDbEntity
  8
_0-4_図枠
  6
CONTINUOUS
 62
     0
100
AcDbLine
 10
335
 20
117
 11
402
 21
117
  0
LINE
  5
254
100
AcDbEntity
  8
_0-4_図枠
  6
CONTINUOUS
 62
     0
100
AcDbLine
 10
335
 20
108
 11
402
 21
108
  0
LINE
  5
255
100
AcDbEntity
  8
_0-4_図枠
  6
CONTINUOUS
 62
     0
100
AcDbLine
 10
335
 20
99
 11
402
 21
99
  0
LINE
  5
256
100
AcDbEntity
  8
_0-4_図枠
  6
CONTINUOUS
 62
     0
100
AcDbLine
 10
335
 20
90
 11
402
 21
90
  0
LINE
  5
257
100
AcDbEntity
  8
_0-4_図枠
  6
CONTINUOUS
 62
     0
100
AcDbLine
 10
335
 20
81
 11
402
 21
81
  0
LINE
  5
258
100
AcDbEntity
  8
_0-4_図枠
  6
CONTINUOUS
 62
     0
100
AcDbLine
 10
335
 20
72
 11
402
 21
72
  0
LINE
  5
259
100
AcDbEntity
  8
_0-4_図枠
  6
CONTINUOUS
 62
     0
100
AcDbLine
 10
335
 20
63
 11
402
 21
63
  0
LINE
  5
25A
100
AcDbEntity
  8
_0-4_図枠
  6
CONTINUOUS
 62
     0
100
AcDbLine
 10
335
 20
54
 11
402
 21
54
  0
LINE
  5
25B
100
AcDbEntity
  8
_0-4_図枠
  6
CONTINUOUS
 62
     0
100
AcDbLine
 10
335
 20
45
 11
402
 21
45
  0
LINE
  5
25C
100
AcDbEntity
  8
_0-4_図枠
  6
CONTINUOUS
 62
     0
100
AcDbLine
 10
335
 20
36
 11
402
 21
36
  0
TEXT
  5
25D
100
AcDbEntity
  8
_0-4_図枠
  6
CONTINUOUS
 62
     0
100
AcDbText
 10
338.75
 20
226.5
 40
5
  1
定尺(mm)
  7
STANDARD
100
AcDbText
  0
TEXT
  5
25E
100
AcDbEntity
  8
_0-4_図枠
  6
CONTINUOUS
 62
     0
100
AcDbText
 10
345.75
 20
217.5
 40
5
  1
2000
  7
STANDARD
100
AcDbText
  0
TEXT
  5
25F
100
AcDbEntity
  8
_0-4_図枠
  6
CONTINUOUS
 62
     0
100
AcDbText
 10
345.75
 20
208.5
 40
5
  1
2000
  7
STANDARD
100
AcDbText
  0
TEXT
  5
260
100
AcDbEntity
  8
_0-4_図枠
  6
CONTINUOUS
 62
     0
100
AcDbText
 10
345.75
 20
199.5
 40
5
  1
2000
  7
STANDARD
100
AcDbText
  0
TEXT
  5
261
100
AcDbEntity
  8
_0-4_図枠
  6
CONTINUOUS
 62
     0
100
AcDbText
 10
345.75
 20
190.5
 40
5
  1
2000
  7
STANDARD
100
AcDbText
  0
TEXT
  5
262
100
AcDbEntity
  8
_0-4_図枠
  6
CONTINUOUS
 62
     0
100
AcDbText
 10
372.5
 20
226.5
 40
5
  1
入数
  7
STANDARD
100
AcDbText
  0
TEXT
  5
263
100
AcDbEntity
  8
_0-4_図枠
  6
CONTINUOUS
 62
     0
100
AcDbText
 10
375.75
 20
217.5
 40
5
  1
 1
  7
STANDARD
100
AcDbText
  0
TEXT
  5
264
100
AcDbEntity
  8
_0-4_図枠
  6
CONTINUOUS
 62
     0
100
AcDbText
 10
375.75
 20
208.5
 40
5
  1
 1
  7
STANDARD
100
AcDbText
  0
TEXT
  5
265
100
AcDbEntity
  8
_0-4_図枠
  6
CONTINUOUS
 62
     0
100
AcDbText
 10
375.75
 20
199.5
 40
5
  1
 1
  7
STANDARD
100
AcDbText
  0
TEXT
  5
266
100
AcDbEntity
  8
_0-4_図枠
  6
CONTINUOUS
 62
     0
100
AcDbText
 10
375.75
 20
190.5
 40
5
  1
 1
  7
STANDARD
100
AcDbText
  0
TEXT
  5
267
100
AcDbEntity
  8
_0-4_図枠
  6
CONTINUOUS
 62
     0
100
AcDbText
 10
392
 20
217.5
 40
5
  1
本
  7
STANDARD
100
AcDbText
  0
TEXT
  5
268
100
AcDbEntity
  8
_0-4_図枠
  6
CONTINUOUS
 62
     0
100
AcDbText
 10
392
 20
208.5
 40
5
  1
〃
  7
STANDARD
100
AcDbText
  0
TEXT
  5
269
100
AcDbEntity
  8
_0-4_図枠
  6
CONTINUOUS
 62
     0
100
AcDbText
 10
392
 20
199.5
 40
5
  1
〃
  7
STANDARD
100
AcDbText
  0
TEXT
  5
26A
100
AcDbEntity
  8
_0-4_図枠
  6
CONTINUOUS
 62
     0
100
AcDbText
 10
392
 20
190.5
 40
5
  1
〃
  7
STANDARD
100
AcDbText
  0
TEXT
  5
26B
100
AcDbEntity
  8
_0-4_図枠
  6
CONTINUOUS
 62
     0
100
AcDbText
 10
388.5
 20
226.5
 40
5
  1
単位
  7
STANDARD
100
AcDbText
  0
LINE
  5
26C
100
AcDbEntity
  8
_0-4_図枠
  6
CONTINUOUS
 62
     0
100
AcDbLine
 10
647
 20
216
 11
422
 21
216
  0
LINE
  5
26D
100
AcDbEntity
  8
_0-4_図枠
  6
CONTINUOUS
 62
     0
100
AcDbLine
 10
647
 20
234
 11
422
 21
234
  0
LINE
  5
26E
100
AcDbEntity
  8
_0-4_図枠
  6
CONTINUOUS
 62
     0
100
AcDbLine
 10
647
 20
225
 11
422
 21
225
  0
TEXT
  5
26F
100
AcDbEntity
  8
_0-4_図枠
  6
CONTINUOUS
 62
     0
100
AcDbText
 10
442.5
 20
226.5
 40
5
  1
タ　イ　プ
  7
STANDARD
100
AcDbText
  0
TEXT
  5
270
100
AcDbEntity
  8
_0-4_図枠
  6
CONTINUOUS
 62
     0
100
AcDbText
 10
539
 20
226.5
 40
5
  1
Ａ
  7
STANDARD
100
AcDbText
  0
TEXT
  5
271
100
AcDbEntity
  8
_0-4_図枠
  6
CONTINUOUS
 62
     0
100
AcDbText
 10
509
 20
226.5
 40
5
  1
Ｗ
  7
STANDARD
100
AcDbText
  0
TEXT
  5
272
100
AcDbEntity
  8
_0-4_図枠
  6
CONTINUOUS
 62
     0
100
AcDbText
 10
569
 20
226.5
 40
5
  1
Ｃ
  7
STANDARD
100
AcDbText
  0
TEXT
  5
273
100
AcDbEntity
  8
_0-4_図枠
  6
CONTINUOUS
 62
     0
100
AcDbText
 10
599
 20
226.5
 40
5
  1
Ｄ
  7
STANDARD
100
AcDbText
  0
TEXT
  5
274
100
AcDbEntity
  8
_0-4_図枠
  6
CONTINUOUS
 62
     0
100
AcDbText
 10
629
 20
226.5
 40
5
  1
Ｅ
  7
STANDARD
100
AcDbText
  0
TEXT
  5
275
100
AcDbEntity
  8
_0-4_図枠
  6
CONTINUOUS
 62
     0
100
AcDbText
 10
606
 20
234
 40
5
  1
（単位：mm）
  7
STANDARD
100
AcDbText
  0
LINE
  5
276
100
AcDbEntity
  8
_0-4_図枠
  6
CONTINUOUS
 62
     0
100
AcDbLine
 10
647
 20
216
 11
422
 21
216
  0
LINE
  5
277
100
AcDbEntity
  8
_0-3_躯体と製品
  6
CONTINUOUS
 62
     0
100
AcDbLine
 10
175.7062000184
 20
453.2889326438
 11
174.5328655328
 21
454.1375963189
  0
ARC
  5
278
100
AcDbEntity
  8
_0-3_躯体と製品
  6
CONTINUOUS
 62
     0
100
AcDbCircle
 10
179.3416122139
 20
455.1139579733
 40
4
100
AcDbArc
 50
-149.403994629
 51
-35.42234085471
  0
LINE
  5
279
100
AcDbEntity
  8
_0-3_躯体と製品
  6
CONTINUOUS
 62
     0
100
AcDbLine
 10
181.5514055813
 20
418.7216666747
 11
183.0168123561
 21
446.6832936478
  0
LINE
  5
27A
100
AcDbEntity
  8
_0-3_躯体と製品
  6
CONTINUOUS
 62
     0
100
AcDbLine
 10
182.990644378
 20
446.1839788804
 11
197.9700873993
 21
445.3989395368
  0
LINE
  5
27B
100
AcDbEntity
  8
_0-3_躯体と製品
  6
CONTINUOUS
 62
     0
100
AcDbLine
 10
197.7607435743
 20
441.4044213978
 11
197.9700873993
 21
445.3989395368
  0
LINE
  5
27C
100
AcDbEntity
  8
_0-3_躯体と製品
  6
CONTINUOUS
 62
     0
100
AcDbLine
 10
157.8502170626
 20
432.6328167658
 11
157.8502170626
 21
430.3828167658
  0
ARC
  5
27D
100
AcDbEntity
  8
_0-3_躯体と製品
  6
CONTINUOUS
 62
     0
100
AcDbCircle
 10
158.8502170626
 20
432.6328167658
 40
1
100
AcDbArc
 50
90
 51
180
  0
ARC
  5
27E
100
AcDbEntity
  8
_0-3_躯体と製品
  6
CONTINUOUS
 62
     0
100
AcDbCircle
 10
158.6002170626
 20
430.3828167658
 40
0.75
100
AcDbArc
 50
180
 51
360
  0
LINE
  5
27F
100
AcDbEntity
  8
_0-3_躯体と製品
  6
CONTINUOUS
 62
     0
100
AcDbLine
 10
159.3502170626
 20
431.6328167658
 11
159.3502170626
 21
430.3828167658
  0
ARC
  5
280
100
AcDbEntity
  8
_0-3_躯体と製品
  6
CONTINUOUS
 62
     0
100
AcDbCircle
 10
159.8502170626
 20
431.6328167658
 40
0.5
100
AcDbArc
 50
90
 51
180
  0
ARC
  5
281
100
AcDbEntity
  8
_0-3_躯体と製品
  6
CONTINUOUS
 62
     0
100
AcDbCircle
 10
162.3502170626
 20
464.1328167658
 40
1.5
100
AcDbArc
 50
90
 51
180
  0
LINE
  5
282
100
AcDbEntity
  8
_0-3_躯体と製品
  6
CONTINUOUS
 62
     0
100
AcDbLine
 10
160.8502170626
 20
434.1328167658
 11
160.8502170626
 21
464.1328167658
  0
ARC
  5
283
100
AcDbEntity
  8
_0-3_躯体と製品
  6
CONTINUOUS
 62
     0
100
AcDbCircle
 10
160.3502170626
 20
434.1328167658
 40
0.5
100
AcDbArc
 50
-90
 51
0
  0
LINE
  5
284
100
AcDbEntity
  8
_0-3_躯体と製品
  6
CONTINUOUS
 62
     0
100
AcDbLine
 10
160.3502170626
 20
433.6328167658
 11
158.8502170626
 21
433.6328167658
  0
LINE
  5
285
100
AcDbEntity
  8
_0-3_躯体と製品
  6
CONTINUOUS
 62
     0
100
AcDbLine
 10
162.8502170626
 20
435.6328167658
 11
162.8502170626
 21
463.6328167658
  0
ARC
  5
286
100
AcDbEntity
  8
_0-3_躯体と製品
  6
CONTINUOUS
 62
     0
100
AcDbCircle
 10
163.3502170626
 20
463.6328167658
 40
0.5
100
AcDbArc
 50
90
 51
180
  0
ARC
  5
287
100
AcDbEntity
  8
_0-3_躯体と製品
  6
CONTINUOUS
 62
     0
100
AcDbCircle
 10
163.8502170626
 20
435.6328167658
 40
1
100
AcDbArc
 50
180
 51
270
  0
ARC
  5
288
100
AcDbEntity
  8
_0-3_躯体と製品
  6
CONTINUOUS
 62
     0
100
AcDbCircle
 10
167.3502170626
 20
470.1328167658
 40
0.5
100
AcDbArc
 50
0
 51
90
  0
LINE
  5
289
100
AcDbEntity
  8
_0-3_躯体と製品
  6
CONTINUOUS
 62
     0
100
AcDbLine
 10
167.8502170626
 20
466.6328167658
 11
167.8502170626
 21
470.1328167658
  0
ARC
  5
28A
100
AcDbEntity
  8
_0-3_躯体と製品
  6
CONTINUOUS
 62
     0
100
AcDbCircle
 10
168.3502170626
 20
471.1328167658
 40
1
100
AcDbArc
 50
0
 51
90
  0
ARC
  5
28B
100
AcDbEntity
  8
_0-3_躯体と製品
  6
CONTINUOUS
 62
     0
100
AcDbCircle
 10
167.8502170626
 20
458.1328167658
 40
1
100
AcDbArc
 50
90
 51
270
  0
ARC
  5
28C
100
AcDbEntity
  8
_0-3_躯体と製品
  6
CONTINUOUS
 62
     0
100
AcDbCircle
 10
167.3502170626
 20
463.6328167658
 40
0.5
100
AcDbArc
 50
0
 51
90
  0
LINE
  5
28D
100
AcDbEntity
  8
_0-3_躯体と製品
  6
CONTINUOUS
 62
     0
100
AcDbLine
 10
167.8502170626
 20
463.6328167658
 11
167.8502170626
 21
459.1328167658
  0
ARC
  5
28E
100
AcDbEntity
  8
_0-3_躯体と製品
  6
CONTINUOUS
 62
     0
100
AcDbCircle
 10
168.8502170626
 20
457.6328167658
 40
0.5
100
AcDbArc
 50
-90
 51
0
  0
LINE
  5
28F
100
AcDbEntity
  8
_0-3_躯体と製品
  6
CONTINUOUS
 62
     0
100
AcDbLine
 10
168.8502170626
 20
457.1328167658
 11
167.8502170626
 21
457.1328167658
  0
ARC
  5
290
100
AcDbEntity
  8
_0-3_躯体と製品
  6
CONTINUOUS
 62
     0
100
AcDbCircle
 10
170.3502170626
 20
431.1328167658
 40
1
100
AcDbArc
 50
0
 51
90
  0
ARC
  5
291
100
AcDbEntity
  8
_0-3_躯体と製品
  6
CONTINUOUS
 62
     0
100
AcDbCircle
 10
171.8502170626
 20
432.6328167658
 40
2
100
AcDbArc
 50
0
 51
90
  0
LINE
  5
292
100
AcDbEntity
  8
_0-3_躯体と製品
  6
CONTINUOUS
 62
     0
100
AcDbLine
 10
163.3502170626
 20
464.1328167658
 11
167.3502170626
 21
464.1328167658
  0
LINE
  5
293
100
AcDbEntity
  8
_0-3_躯体と製品
  6
CONTINUOUS
 62
     0
100
AcDbLine
 10
171.8502170626
 20
434.6328167658
 11
163.8502170626
 21
434.6328167658
  0
LINE
  5
294
100
AcDbEntity
  8
_0-3_躯体と製品
  6
CONTINUOUS
 62
     0
100
AcDbLine
 10
166.8502170626
 20
465.6328167658
 11
162.3502170626
 21
465.6328167658
  0
LINE
  5
295
100
AcDbEntity
  8
_0-3_躯体と製品
  6
CONTINUOUS
 62
     0
100
AcDbLine
 10
170.3502170626
 20
432.1328167658
 11
159.8502170626
 21
432.1328167658
  0
ARC
  5
296
100
AcDbEntity
  8
_0-3_躯体と製品
  6
CONTINUOUS
 62
     0
100
AcDbCircle
 10
166.8502170626
 20
466.6328167658
 40
1
100
AcDbArc
 50
-90
 51
0
  0
LINE
  5
297
100
AcDbEntity
  8
_0-3_躯体と製品
  6
CONTINUOUS
 62
     0
100
AcDbLine
 10
169.3502170626
 20
457.6328167658
 11
169.3502170626
 21
471.1328167658
  0
ARC
  5
298
100
AcDbEntity
  8
_0-3_躯体と製品
  6
CONTINUOUS
 62
     0
100
AcDbCircle
 10
160.7502170626
 20
469.2328167658
 40
0.6
100
AcDbArc
 50
180
 51
360
  0
ARC
  5
299
100
AcDbEntity
  8
_0-3_躯体と製品
  6
CONTINUOUS
 62
     0
100
AcDbCircle
 10
156.5002170626
 20
477.3828167658
 40
0.75
100
AcDbArc
 50
0
 51
180
  0
LINE
  5
29A
100
AcDbEntity
  8
_0-3_躯体と製品
  6
CONTINUOUS
 62
     0
100
AcDbLine
 10
157.2502170626
 20
477.3828167658
 11
157.2502170626
 21
474.1328167658
  0
LINE
  5
29B
100
AcDbEntity
  8
_0-3_躯体と製品
  6
CONTINUOUS
 62
     0
100
AcDbLine
 10
157.2502170626
 20
474.1328167658
 11
160.7502170626
 21
472.1328167658
  0
LINE
  5
29C
100
AcDbEntity
  8
_0-3_躯体と製品
  6
CONTINUOUS
 62
     0
100
AcDbLine
 10
161.3502170626
 20
470.1328167658
 11
161.3502170626
 21
469.2328167658
  0
ARC
  5
29D
100
AcDbEntity
  8
_0-3_躯体と製品
  6
CONTINUOUS
 62
     0
100
AcDbCircle
 10
161.8502170626
 20
470.1328167658
 40
0.5
100
AcDbArc
 50
90
 51
180
  0
LINE
  5
29E
100
AcDbEntity
  8
_0-3_躯体と製品
  6
CONTINUOUS
 62
     0
100
AcDbLine
 10
168.3502170626
 20
472.1328167658
 11
160.7502170626
 21
472.1328167658
  0
LINE
  5
29F
100
AcDbEntity
  8
_0-3_躯体と製品
  6
CONTINUOUS
 62
     0
100
AcDbLine
 10
161.8502170626
 20
470.6328167658
 11
167.3502170626
 21
470.6328167658
  0
ARC
  5
2A0
100
AcDbEntity
  8
_0-3_躯体と製品
  6
CONTINUOUS
 62
     0
100
AcDbCircle
 10
181.4707784638
 20
426.7368709308
 40
0.5
100
AcDbArc
 50
-3.000000000006
 51
86.99999999999
  0
LINE
  5
2A1
100
AcDbEntity
  8
_0-3_躯体と製品
  6
CONTINUOUS
 62
     0
100
AcDbLine
 10
180.9976316746
 20
427.2623536763
 11
181.496946442
 21
427.2361856982
  0
ARC
  5
2A2
100
AcDbEntity
  8
_0-3_躯体と製品
  6
CONTINUOUS
 62
     0
100
AcDbCircle
 10
180.9714636965
 20
426.763038909
 40
0.5
100
AcDbArc
 50
86.99999999999
 51
177
  0
LINE
  5
2A3
100
AcDbEntity
  8
_0-3_躯体と製品
  6
CONTINUOUS
 62
     0
100
AcDbLine
 10
180.3674770166
 20
424.7919478176
 11
180.4721489291
 21
426.7892068871
  0
ARC
  5
2A4
100
AcDbEntity
  8
_0-3_躯体と製品
  6
CONTINUOUS
 62
     0
100
AcDbCircle
 10
179.8681622492
 20
424.8181157957
 40
0.5
100
AcDbArc
 50
-93.00000000001
 51
-3.000000000006
  0
ARC
  5
2A5
100
AcDbEntity
  8
_0-3_躯体と製品
  6
CONTINUOUS
 62
     0
100
AcDbCircle
 10
181.1044267701
 20
419.7464641875
 40
0.5
100
AcDbArc
 50
-93.00000000001
 51
-2.999999999993
  0
LINE
  5
2A6
100
AcDbEntity
  8
_0-3_躯体と製品
  6
CONTINUOUS
 62
     0
100
AcDbLine
 10
180.5789440246
 20
419.2733173983
 11
181.078258792
 21
419.2471494202
  0
ARC
  5
2A7
100
AcDbEntity
  8
_0-3_躯体と製品
  6
CONTINUOUS
 62
     0
100
AcDbCircle
 10
180.6051120028
 20
419.7726321657
 40
0.5
100
AcDbArc
 50
177
 51
267
  0
LINE
  5
2A8
100
AcDbEntity
  8
_0-3_躯体と製品
  6
CONTINUOUS
 62
     0
100
AcDbLine
 10
180.1581331916
 20
420.7974296785
 11
180.1057972354
 21
419.7988001438
  0
ARC
  5
2A9
100
AcDbEntity
  8
_0-3_躯体と製品
  6
CONTINUOUS
 62
     0
100
AcDbCircle
 10
179.6588184243
 20
420.8235976567
 40
0.5
100
AcDbArc
 50
-3.000000000006
 51
86.99999999999
  0
LINE
  5
2AA
100
AcDbEntity
  8
_0-3_躯体と製品
  6
CONTINUOUS
 62
     0
100
AcDbLine
 10
173.8502170626
 20
425.5817813325
 11
173.8502170626
 21
432.6328167658
  0
LINE
  5
2AB
100
AcDbEntity
  8
_0-3_躯体と製品
  6
CONTINUOUS
 62
     0
100
AcDbLine
 10
174.7978811063
 20
424.5831517977
 11
179.8419942711
 21
424.3188010283
  0
ARC
  5
2AC
100
AcDbEntity
  8
_0-3_躯体と製品
  6
CONTINUOUS
 62
     0
100
AcDbCircle
 10
174.8502170626
 20
425.5817813325
 40
1
100
AcDbArc
 50
180
 51
267
  0
LINE
  5
2AD
100
AcDbEntity
  8
_0-3_躯体と製品
  6
CONTINUOUS
 62
     0
100
AcDbLine
 10
171.3502170626
 20
423.6576483094
 11
171.3502170626
 21
431.1328167658
  0
LINE
  5
2AE
100
AcDbEntity
  8
_0-3_躯体と製品
  6
CONTINUOUS
 62
     0
100
AcDbLine
 10
173.2455451501
 20
421.6603892399
 11
179.6849864024
 21
421.322912424
  0
ARC
  5
2AF
100
AcDbEntity
  8
_0-3_躯体と製品
  6
CONTINUOUS
 62
     0
100
AcDbCircle
 10
173.3502170626
 20
423.6576483094
 40
2
100
AcDbArc
 50
180
 51
267
  0
LINE
  5
2B0
100
AcDbEntity
  8
_0-3_躯体と製品
  6
CONTINUOUS
 62
     0
100
AcDbLine
 10
155.7502170626
 20
474.1328167658
 11
155.7502170626
 21
477.3828167658
  0
ARC
  5
2B1
100
AcDbEntity
  8
_0-3_躯体と製品
  6
CONTINUOUS
 62
     0
100
AcDbCircle
 10
157.2502170626
 20
474.1328167658
 40
1.5
100
AcDbArc
 50
180
 51
240.2551187031
  0
LINE
  5
2B2
100
AcDbEntity
  8
_0-3_躯体と製品
  6
CONTINUOUS
 62
     0
100
AcDbLine
 10
156.506008655
 20
472.8304520526
 11
160.1502170626
 21
470.7480472483
  0
LINE
  5
2B3
100
AcDbEntity
  8
_0-3_躯体と製品
  6
CONTINUOUS
 62
     0
100
AcDbLine
 10
160.1502170626
 20
470.7480472483
 11
160.1502170626
 21
469.2328167658
  0
LINE
  5
2B4
100
AcDbEntity
  8
_0-3_躯体と製品
  6
CONTINUOUS
 62
     0
100
AcDbLine
 10
181.8392533406
 20
424.2141291158
 11
210.3001950811
 21
422.7225543629
  0
ARC
  5
2B5
100
AcDbEntity
  8
_0-3_躯体と製品
  6
CONTINUOUS
 62
     0
100
AcDbCircle
 10
210.2216911468
 20
421.2246100608
 40
1.5
100
AcDbArc
 50
-93.00000000001
 51
86.99999999999
  0
LINE
  5
2B6
100
AcDbEntity
  8
_0-3_躯体と製品
  6
CONTINUOUS
 62
     0
100
AcDbLine
 10
206.6479838408
 20
419.9098416055
 11
210.1431872124
 21
419.7266657586
  0
LINE
  5
2B7
100
AcDbEntity
  8
_0-3_躯体と製品
  6
CONTINUOUS
 62
     0
100
AcDbLine
 10
206.6479838408
 20
419.9098416055
 11
206.700319797
 21
420.9084711402
  0
LINE
  5
2B8
100
AcDbEntity
  8
_0-3_躯体と製品
  6
CONTINUOUS
 62
     0
100
AcDbLine
 10
186.7277291019
 20
421.9551902651
 11
206.700319797
 21
420.9084711402
  0
LINE
  5
2B9
100
AcDbEntity
  8
_0-3_躯体と製品
  6
CONTINUOUS
 62
     0
100
AcDbLine
 10
186.6753931457
 20
420.9565607303
 11
186.7277291019
 21
421.9551902651
  0
LINE
  5
2BA
100
AcDbEntity
  8
_0-3_躯体と製品
  6
CONTINUOUS
 62
     0
100
AcDbLine
 10
181.6822454719
 20
421.2182405116
 11
186.6753931457
 21
420.9565607303
  0
LINE
  5
2BB
100
AcDbEntity
  8
_0-3_躯体と製品
  6
CONTINUOUS
 62
     0
100
AcDbLine
 10
183.5567809767
 20
446.6549950915
 11
183.0422924906
 21
447.1694835776
  0
LINE
  5
2BC
100
AcDbEntity
  8
_0-3_躯体と製品
  6
CONTINUOUS
 62
     0
100
AcDbLine
 10
183.3212691736
 20
442.1611621851
 11
182.8067806875
 21
442.6756506712
  0
LINE
  5
2BD
100
AcDbEntity
  8
_0-3_躯体と製品
  6
CONTINUOUS
 62
     0
100
AcDbLine
 10
184.8136975953
 20
442.0829473258
 11
182.8772056632
 21
444.0194392579
  0
LINE
  5
2BE
100
AcDbEntity
  8
_0-3_躯体と製品
  6
CONTINUOUS
 62
     0
100
AcDbLine
 10
186.306126017
 20
442.0047324665
 11
182.9476306388
 21
445.3632278446
  0
LINE
  5
2BF
100
AcDbEntity
  8
_0-3_躯体と製品
  6
CONTINUOUS
 62
     0
100
AcDbLine
 10
187.7985544387
 20
441.9265176072
 11
183.5715364277
 21
446.1535356181
  0
LINE
  5
2C0
100
AcDbEntity
  8
_0-3_躯体と製品
  6
CONTINUOUS
 62
     0
100
AcDbLine
 10
189.2909828604
 20
441.8483027478
 11
185.0639648494
 21
446.0753207588
  0
LINE
  5
2C1
100
AcDbEntity
  8
_0-3_躯体と製品
  6
CONTINUOUS
 62
     0
100
AcDbLine
 10
190.7834112821
 20
441.7700878885
 11
186.5563932711
 21
445.9971058995
  0
LINE
  5
2C2
100
AcDbEntity
  8
_0-3_躯体と製品
  6
CONTINUOUS
 62
     0
100
AcDbLine
 10
192.2758397038
 20
441.6918730292
 11
188.0488216928
 21
445.9188910401
  0
LINE
  5
2C3
100
AcDbEntity
  8
_0-3_躯体と製品
  6
CONTINUOUS
 62
     0
100
AcDbLine
 10
193.7682681254
 20
441.6136581699
 11
189.5412501145
 21
445.8406761808
  0
LINE
  5
2C4
100
AcDbEntity
  8
_0-3_躯体と製品
  6
CONTINUOUS
 62
     0
100
AcDbLine
 10
195.2606965471
 20
441.5354433106
 11
191.0336785362
 21
445.7624613215
  0
LINE
  5
2C5
100
AcDbEntity
  8
_0-3_躯体と製品
  6
CONTINUOUS
 62
     0
100
AcDbLine
 10
196.7531249688
 20
441.4572284512
 11
192.5261069579
 21
445.6842464622
  0
LINE
  5
2C6
100
AcDbEntity
  8
_0-3_躯体と製品
  6
CONTINUOUS
 62
     0
100
AcDbLine
 10
197.7836208654
 20
441.840946117
 11
194.0185353796
 21
445.6060316029
  0
LINE
  5
2C7
100
AcDbEntity
  8
_0-3_躯体と製品
  6
CONTINUOUS
 62
     0
100
AcDbLine
 10
197.9244708168
 20
444.5285232904
 11
197.003392223
 21
445.4496018842
  0
LINE
  5
2C8
100
AcDbEntity
  8
_0-3_躯体と製品
  6
CONTINUOUS
 62
     0
100
AcDbLine
 10
197.8540458411
 20
443.1847347037
 11
195.5109638013
 21
445.5278167435
  0
LINE
  5
2C9
100
AcDbEntity
  8
_0-3_躯体と製品
  6
CONTINUOUS
 62
     0
100
AcDbLine
 10
120.9588710626
 20
451.2821507658
 11
121.0635410626
 21
453.2794097658
  0
LINE
  5
2CA
100
AcDbEntity
  8
_0-3_躯体と製品
  6
CONTINUOUS
 62
     0
100
AcDbLine
 10
138.8502170626
 20
452.1328157658
 11
150.8502170626
 21
452.1328157658
  0
LINE
  5
2CB
100
AcDbEntity
  8
_0-3_躯体と製品
  6
CONTINUOUS
 62
     0
100
AcDbLine
 10
131.0498360626
 20
443.5095797658
 11
135.7078160626
 21
441.8142137658
  0
LINE
  5
2CC
100
AcDbEntity
  8
_0-3_躯体と製品
  6
CONTINUOUS
 62
     0
100
AcDbLine
 10
142.6538570626
 20
454.4551547658
 11
136.0498370626
 21
453.5117237658
  0
LINE
  5
2CD
100
AcDbEntity
  8
_0-3_躯体と製品
  6
CONTINUOUS
 62
     0
100
AcDbLine
 10
116.7196610626
 20
446.2633697658
 11
114.8502170626
 21
448.1328167658
  0
LINE
  5
2CE
100
AcDbEntity
  8
_0-3_躯体と製品
  6
CONTINUOUS
 62
     0
100
AcDbLine
 10
116.0703950626
 20
442.7245397658
 11
114.0731360626
 21
442.6198697658
  0
LINE
  5
2CF
100
AcDbEntity
  8
_0-3_躯体と製品
  6
CONTINUOUS
 62
     0
100
AcDbLine
 10
115.9657220626
 20
444.7217987658
 11
116.0703950626
 21
442.7245397658
  0
LINE
  5
2D0
100
AcDbEntity
  8
_0-3_躯体と製品
  6
CONTINUOUS
 62
     0
100
AcDbLine
 10
117.9629810626
 20
444.8264717658
 11
115.9657220626
 21
444.7217987658
  0
LINE
  5
2D1
100
AcDbEntity
  8
_0-3_躯体と製品
  6
CONTINUOUS
 62
     0
100
AcDbLine
 10
119.0662820626
 20
442.8815477658
 11
117.9629810626
 21
444.8264717658
  0
LINE
  5
2D2
100
AcDbEntity
  8
_0-3_躯体と製品
  6
CONTINUOUS
 62
     0
100
AcDbLine
 10
121.0635410626
 20
442.9862207658
 11
119.0662820626
 21
442.8815477658
  0
LINE
  5
2D3
100
AcDbEntity
  8
_0-3_躯体と製品
  6
CONTINUOUS
 62
     0
100
AcDbLine
 10
120.9588710626
 20
444.9834797658
 11
121.0635410626
 21
442.9862207658
  0
LINE
  5
2D4
100
AcDbEntity
  8
_0-3_躯体と製品
  6
CONTINUOUS
 62
     0
100
AcDbLine
 10
122.9561300626
 20
445.0881527658
 11
120.9588710626
 21
444.9834797658
  0
LINE
  5
2D5
100
AcDbEntity
  8
_0-3_躯体と製品
  6
CONTINUOUS
 62
     0
100
AcDbLine
 10
124.0594310626
 20
443.1432287658
 11
122.9561300626
 21
445.0881527658
  0
LINE
  5
2D6
100
AcDbEntity
  8
_0-3_躯体と製品
  6
CONTINUOUS
 62
     0
100
AcDbLine
 10
126.0566900626
 20
443.2479017658
 11
124.0594310626
 21
443.1432287658
  0
LINE
  5
2D7
100
AcDbEntity
  8
_0-3_躯体と製品
  6
CONTINUOUS
 62
     0
100
AcDbLine
 10
125.9520170626
 20
445.2451607658
 11
126.0566900626
 21
443.2479017658
  0
LINE
  5
2D8
100
AcDbEntity
  8
_0-3_躯体と製品
  6
CONTINUOUS
 62
     0
100
AcDbLine
 10
127.9492760626
 20
445.3498307658
 11
125.9520170626
 21
445.2451607658
  0
LINE
  5
2D9
100
AcDbEntity
  8
_0-3_躯体と製品
  6
CONTINUOUS
 62
     0
100
AcDbLine
 10
129.0525770626
 20
443.4049097658
 11
127.9492760626
 21
445.3498307658
  0
LINE
  5
2DA
100
AcDbEntity
  8
_0-3_躯体と製品
  6
CONTINUOUS
 62
     0
100
AcDbLine
 10
131.0498360626
 20
443.5095797658
 11
129.0525770626
 21
443.4049097658
  0
LINE
  5
2DB
100
AcDbEntity
  8
_0-3_躯体と製品
  6
CONTINUOUS
 62
     0
100
AcDbLine
 10
130.9451660626
 20
445.5068387658
 11
131.0498360626
 21
443.5095797658
  0
LINE
  5
2DC
100
AcDbEntity
  8
_0-3_躯体と製品
  6
CONTINUOUS
 62
     0
100
AcDbLine
 10
132.9424250626
 20
445.6115117658
 11
130.9451660626
 21
445.5068387658
  0
LINE
  5
2DD
100
AcDbEntity
  8
_0-3_躯体と製品
  6
CONTINUOUS
 62
     0
100
AcDbLine
 10
134.0457260626
 20
443.6665877658
 11
132.9424250626
 21
445.6115117658
  0
LINE
  5
2DE
100
AcDbEntity
  8
_0-3_躯体と製品
  6
CONTINUOUS
 62
     0
100
AcDbLine
 10
111.8927000626
 20
446.0104007658
 11
142.8502160626
 21
447.6328157658
  0
LINE
  5
2DF
100
AcDbEntity
  8
_0-3_躯体と製品
  6
CONTINUOUS
 62
     0
100
AcDbLine
 10
111.9712040626
 20
444.5124557658
 11
111.8927000626
 21
446.0104007658
  0
LINE
  5
2E0
100
AcDbEntity
  8
_0-3_躯体と製品
  6
CONTINUOUS
 62
     0
100
AcDbLine
 10
114.0731360626
 20
442.6198697658
 11
111.9712040626
 21
444.5124557658
  0
LINE
  5
2E1
100
AcDbEntity
  8
_0-3_躯体と製品
  6
CONTINUOUS
 62
     0
100
AcDbLine
 10
113.8899590626
 20
446.1150737658
 11
114.0731360626
 21
442.6198697658
  0
LINE
  5
2E2
100
AcDbEntity
  8
_0-3_躯体と製品
  6
CONTINUOUS
 62
     0
100
AcDbLine
 10
136.0429850626
 20
443.7712607658
 11
134.0457260626
 21
443.6665877658
  0
LINE
  5
2E3
100
AcDbEntity
  8
_0-3_躯体と製品
  6
CONTINUOUS
 62
     0
100
AcDbLine
 10
135.9383120626
 20
445.7685197658
 11
136.0429850626
 21
443.7712607658
  0
LINE
  5
2E4
100
AcDbEntity
  8
_0-3_躯体と製品
  6
CONTINUOUS
 62
     0
100
AcDbLine
 10
137.9355710626
 20
445.8731897658
 11
135.9383120626
 21
445.7685197658
  0
LINE
  5
2E5
100
AcDbEntity
  8
_0-3_躯体と製品
  6
CONTINUOUS
 62
     0
100
AcDbLine
 10
150.8502170626
 20
443.1328157658
 11
145.8502160626
 21
444.1328147658
  0
LINE
  5
2E6
100
AcDbEntity
  8
_0-3_躯体と製品
  6
CONTINUOUS
 62
     0
100
AcDbLine
 10
142.8502160626
 20
447.6328157658
 11
142.8502160626
 21
448.6328147658
  0
LINE
  5
2E7
100
AcDbEntity
  8
_0-3_躯体と製品
  6
CONTINUOUS
 62
     0
100
AcDbLine
 10
116.0703950626
 20
453.5410907658
 11
114.0731360626
 21
453.6457607658
  0
LINE
  5
2E8
100
AcDbEntity
  8
_0-3_躯体と製品
  6
CONTINUOUS
 62
     0
100
AcDbLine
 10
115.9657220626
 20
451.5438317658
 11
116.0703950626
 21
453.5410907658
  0
LINE
  5
2E9
100
AcDbEntity
  8
_0-3_躯体と製品
  6
CONTINUOUS
 62
     0
100
AcDbLine
 10
117.9629810626
 20
451.4391587658
 11
115.9657220626
 21
451.5438317658
  0
LINE
  5
2EA
100
AcDbEntity
  8
_0-3_躯体と製品
  6
CONTINUOUS
 62
     0
100
AcDbLine
 10
119.0662820626
 20
453.3840827658
 11
117.9629810626
 21
451.4391587658
  0
LINE
  5
2EB
100
AcDbEntity
  8
_0-3_躯体と製品
  6
CONTINUOUS
 62
     0
100
AcDbLine
 10
121.0635410626
 20
453.2794097658
 11
119.0662820626
 21
453.3840827658
  0
LINE
  5
2EC
100
AcDbEntity
  8
_0-3_躯体と製品
  6
CONTINUOUS
 62
     0
100
AcDbLine
 10
122.9561300626
 20
451.1774777658
 11
120.9588710626
 21
451.2821507658
  0
LINE
  5
2ED
100
AcDbEntity
  8
_0-3_躯体と製品
  6
CONTINUOUS
 62
     0
100
AcDbLine
 10
124.0594310626
 20
453.1224017658
 11
122.9561300626
 21
451.1774777658
  0
LINE
  5
2EE
100
AcDbEntity
  8
_0-3_躯体と製品
  6
CONTINUOUS
 62
     0
100
AcDbLine
 10
126.0566900626
 20
453.0177287658
 11
124.0594310626
 21
453.1224017658
  0
LINE
  5
2EF
100
AcDbEntity
  8
_0-3_躯体と製品
  6
CONTINUOUS
 62
     0
100
AcDbLine
 10
125.9520170626
 20
451.0204697658
 11
126.0566900626
 21
453.0177287658
  0
LINE
  5
2F0
100
AcDbEntity
  8
_0-3_躯体と製品
  6
CONTINUOUS
 62
     0
100
AcDbLine
 10
127.9492760626
 20
450.9157997658
 11
125.9520170626
 21
451.0204697658
  0
LINE
  5
2F1
100
AcDbEntity
  8
_0-3_躯体と製品
  6
CONTINUOUS
 62
     0
100
AcDbLine
 10
129.0525770626
 20
452.8607207658
 11
127.9492760626
 21
450.9157997658
  0
LINE
  5
2F2
100
AcDbEntity
  8
_0-3_躯体と製品
  6
CONTINUOUS
 62
     0
100
AcDbLine
 10
131.0498360626
 20
452.7560507658
 11
129.0525770626
 21
452.8607207658
  0
LINE
  5
2F3
100
AcDbEntity
  8
_0-3_躯体と製品
  6
CONTINUOUS
 62
     0
100
AcDbLine
 10
130.9451660626
 20
450.7587917658
 11
131.0498360626
 21
452.7560507658
  0
LINE
  5
2F4
100
AcDbEntity
  8
_0-3_躯体と製品
  6
CONTINUOUS
 62
     0
100
AcDbLine
 10
132.9424250626
 20
450.6541187658
 11
130.9451660626
 21
450.7587917658
  0
LINE
  5
2F5
100
AcDbEntity
  8
_0-3_躯体と製品
  6
CONTINUOUS
 62
     0
100
AcDbLine
 10
134.0457260626
 20
452.5990427658
 11
132.9424250626
 21
450.6541187658
  0
LINE
  5
2F6
100
AcDbEntity
  8
_0-3_躯体と製品
  6
CONTINUOUS
 62
     0
100
AcDbLine
 10
111.8927000626
 20
450.2552297658
 11
142.8502160626
 21
448.6328147658
  0
LINE
  5
2F7
100
AcDbEntity
  8
_0-3_躯体と製品
  6
CONTINUOUS
 62
     0
100
AcDbLine
 10
111.9712040626
 20
451.7531747658
 11
111.8927000626
 21
450.2552297658
  0
LINE
  5
2F8
100
AcDbEntity
  8
_0-3_躯体と製品
  6
CONTINUOUS
 62
     0
100
AcDbLine
 10
114.0731360626
 20
453.6457607658
 11
111.9712040626
 21
451.7531747658
  0
LINE
  5
2F9
100
AcDbEntity
  8
_0-3_躯体と製品
  6
CONTINUOUS
 62
     0
100
AcDbLine
 10
113.8899590626
 20
450.1505567658
 11
114.0731360626
 21
453.6457607658
  0
LINE
  5
2FA
100
AcDbEntity
  8
_0-3_躯体と製品
  6
CONTINUOUS
 62
     0
100
AcDbLine
 10
136.0429850626
 20
452.4943697658
 11
134.0457260626
 21
452.5990427658
  0
LINE
  5
2FB
100
AcDbEntity
  8
_0-3_躯体と製品
  6
CONTINUOUS
 62
     0
100
AcDbLine
 10
135.9383120626
 20
450.4971107658
 11
136.0429850626
 21
452.4943697658
  0
LINE
  5
2FC
100
AcDbEntity
  8
_0-3_躯体と製品
  6
CONTINUOUS
 62
     0
100
AcDbLine
 10
137.9355710626
 20
450.3924407658
 11
135.9383120626
 21
450.4971107658
  0
LINE
  5
2FD
100
AcDbEntity
  8
_0-3_躯体と製品
  6
CONTINUOUS
 62
     0
100
AcDbLine
 10
116.7196610626
 20
450.0022607658
 11
114.8502170626
 21
448.1328167658
  0
LINE
  5
2FE
100
AcDbEntity
  8
_0-3_躯体と製品
  6
CONTINUOUS
 62
     0
100
AcDbLine
 10
145.8502160626
 20
448.1328167658
 11
150.8502170626
 21
448.1328167658
  0
LINE
  5
2FF
100
AcDbEntity
  8
_0-3_躯体と製品
  6
CONTINUOUS
 62
     0
100
AcDbLine
 10
150.8502170626
 20
447.1328147658
 11
145.8502160626
 21
448.1328167658
  0
LINE
  5
300
100
AcDbEntity
  8
_0-3_躯体と製品
  6
CONTINUOUS
 62
     0
100
AcDbLine
 10
150.8502170626
 20
449.1328157658
 11
145.8502160626
 21
448.1328167658
  0
LINE
  5
301
100
AcDbEntity
  8
_0-3_躯体と製品
  6
CONTINUOUS
 62
     0
100
AcDbLine
 10
150.8502170626
 20
453.1328147658
 11
145.8502160626
 21
452.1328157658
  0
LINE
  5
302
100
AcDbEntity
  8
_0-3_躯体と製品
  6
CONTINUOUS
 62
     0
100
AcDbLine
 10
138.8502170626
 20
452.1328157658
 11
137.9355710626
 21
450.3924407658
  0
ARC
  5
303
100
AcDbEntity
  8
_0-3_躯体と製品
  6
CONTINUOUS
 62
     0
100
AcDbCircle
 10
142.5972890626
 20
454.8511337658
 40
0.399999
100
AcDbArc
 50
-81.869898
 51
8.130101999997
  0
LINE
  5
304
100
AcDbEntity
  8
_0-3_躯体と製品
  6
CONTINUOUS
 62
     0
100
AcDbLine
 10
142.9651520626
 20
455.1045287658
 11
142.9932680626
 21
454.9077047658
  0
ARC
  5
305
100
AcDbEntity
  8
_0-3_躯体と製品
  6
CONTINUOUS
 62
     0
100
AcDbCircle
 10
142.5691700626
 20
455.0479607658
 40
0.399999
100
AcDbArc
 50
8.130102000013
 51
98.298466
  0
LINE
  5
306
100
AcDbEntity
  8
_0-3_躯体と製品
  6
CONTINUOUS
 62
     0
100
AcDbLine
 10
135.7078160626
 20
454.4514167658
 11
142.5114380626
 21
455.4437717658
  0
LINE
  5
307
100
AcDbEntity
  8
_0-3_躯体と製品
  6
CONTINUOUS
 62
     0
100
AcDbLine
 10
142.6538570626
 20
441.8104757658
 11
136.0498370626
 21
442.7539067658
  0
ARC
  5
308
100
AcDbEntity
  8
_0-3_躯体と製品
  6
CONTINUOUS
 62
     0
100
AcDbCircle
 10
142.5972890626
 20
441.4144967658
 40
0.399999
100
AcDbArc
 50
-8.130101999997
 51
81.869898
  0
LINE
  5
309
100
AcDbEntity
  8
_0-3_躯体と製品
  6
CONTINUOUS
 62
     0
100
AcDbLine
 10
142.9651520626
 20
441.1611017658
 11
142.9932680626
 21
441.3579287658
  0
ARC
  5
30A
100
AcDbEntity
  8
_0-3_躯体と製品
  6
CONTINUOUS
 62
     0
100
AcDbCircle
 10
142.5691700626
 20
441.2176697658
 40
0.399999
100
AcDbArc
 50
-98.298466
 51
-8.130101999997
  0
LINE
  5
30B
100
AcDbEntity
  8
_0-3_躯体と製品
  6
CONTINUOUS
 62
     0
100
AcDbLine
 10
135.7078160626
 20
441.8142137658
 11
142.5114380626
 21
440.8218587658
  0
LINE
  5
30C
100
AcDbEntity
  8
_0-3_躯体と製品
  6
CONTINUOUS
 62
     0
100
AcDbLine
 10
131.0498360626
 20
444.5737577658
 11
136.0498370626
 21
442.7539067658
  0
LINE
  5
30D
100
AcDbEntity
  8
_0-3_躯体と製品
  6
CONTINUOUS
 62
     0
100
AcDbLine
 10
131.0498360626
 20
452.7560507658
 11
135.7078160626
 21
454.4514167658
  0
LINE
  5
30E
100
AcDbEntity
  8
_0-3_躯体と製品
  6
CONTINUOUS
 62
     0
100
AcDbLine
 10
131.0498360626
 20
451.6918727658
 11
136.0498370626
 21
453.5117237658
  0
LINE
  5
30F
100
AcDbEntity
  8
_0-3_躯体と製品
  6
CONTINUOUS
 62
     0
100
AcDbLine
 10
138.8502170626
 20
444.1328147658
 11
150.8502170626
 21
444.1328147658
  0
LINE
  5
310
100
AcDbEntity
  8
_0-3_躯体と製品
  6
CONTINUOUS
 62
     0
100
AcDbLine
 10
137.9355710626
 20
445.8731897658
 11
138.8502170626
 21
444.1328147658
  0
LINE
  5
311
100
AcDbEntity
  8
_0-3_躯体と製品
  6
CONTINUOUS
 62
     0
100
AcDbLine
 10
152.8502170626
 20
453.1328167658
 11
153.3502170626
 21
453.1328167658
  0
LINE
  5
312
100
AcDbEntity
  8
_0-3_躯体と製品
  6
CONTINUOUS
 62
     0
100
AcDbLine
 10
152.8502170626
 20
443.1328167658
 11
153.3502170626
 21
443.1328167658
  0
LINE
  5
313
100
AcDbEntity
  8
_0-3_躯体と製品
  6
CONTINUOUS
 62
     0
100
AcDbLine
 10
155.3502170626
 20
448.6328167658
 11
154.8502170626
 21
448.1328167658
  0
LINE
  5
314
100
AcDbEntity
  8
_0-3_躯体と製品
  6
CONTINUOUS
 62
     0
100
AcDbLine
 10
155.3502170626
 20
447.6328167658
 11
154.8502170626
 21
448.1328167658
  0
LINE
  5
315
100
AcDbEntity
  8
_0-3_躯体と製品
  6
CONTINUOUS
 62
     0
100
AcDbLine
 10
152.8502170626
 20
453.1328167658
 11
152.8502170626
 21
443.1328167658
  0
LINE
  5
316
100
AcDbEntity
  8
_0-3_躯体と製品
  6
CONTINUOUS
 62
     0
100
AcDbLine
 10
152.8502170626
 20
494.6328167658
 11
153.3502170626
 21
494.6328167658
  0
LINE
  5
317
100
AcDbEntity
  8
_0-3_躯体と製品
  6
CONTINUOUS
 62
     0
100
AcDbLine
 10
153.3502170626
 20
494.6328167658
 11
153.3502170626
 21
481.6328167658
  0
LINE
  5
318
100
AcDbEntity
  8
_0-3_躯体と製品
  6
CONTINUOUS
 62
     0
100
AcDbLine
 10
153.3502170626
 20
481.6328167658
 11
152.8502170626
 21
481.6328167658
  0
LINE
  5
319
100
AcDbEntity
  8
_0-3_躯体と製品
  6
CONTINUOUS
 62
     0
100
AcDbLine
 10
152.8502170626
 20
480.1328167658
 11
153.3502170626
 21
480.1328167658
  0
ARC
  5
31A
100
AcDbEntity
  8
_0-3_躯体と製品
  6
CONTINUOUS
 62
     0
100
AcDbCircle
 10
162.8502170626
 20
489.9328167658
 40
0.3
100
AcDbArc
 50
180
 51
270
  0
LINE
  5
31B
100
AcDbEntity
  8
_0-3_躯体と製品
  6
CONTINUOUS
 62
     0
100
AcDbLine
 10
162.8502170626
 20
489.6328167658
 11
167.4502170626
 21
489.6328167658
  0
LINE
  5
31C
100
AcDbEntity
  8
_0-3_躯体と製品
  6
CONTINUOUS
 62
     0
100
AcDbLine
 10
161.3502170626
 20
489.4328167658
 11
161.3502170626
 21
494.1328167658
  0
ARC
  5
31D
100
AcDbEntity
  8
_0-3_躯体と製品
  6
CONTINUOUS
 62
     0
100
AcDbCircle
 10
162.3502170626
 20
489.4328167658
 40
1
100
AcDbArc
 50
180
 51
270
  0
LINE
  5
31E
100
AcDbEntity
  8
_0-3_躯体と製品
  6
CONTINUOUS
 62
     0
100
AcDbLine
 10
162.3502170626
 20
488.4328167658
 11
167.4502170626
 21
488.4328167658
  0
ARC
  5
31F
100
AcDbEntity
  8
_0-3_躯体と製品
  6
CONTINUOUS
 62
     0
100
AcDbCircle
 10
160.8502170626
 20
494.1328167658
 40
0.5
100
AcDbArc
 50
0
 51
90
  0
LINE
  5
320
100
AcDbEntity
  8
_0-3_躯体と製品
  6
CONTINUOUS
 62
     0
100
AcDbLine
 10
160.8502170626
 20
494.6328167658
 11
155.8502170626
 21
494.6328167658
  0
ARC
  5
321
100
AcDbEntity
  8
_0-3_躯体と製品
  6
CONTINUOUS
 62
     0
100
AcDbCircle
 10
155.8502170626
 20
494.1328167658
 40
0.5
100
AcDbArc
 50
90
 51
180
  0
LINE
  5
322
100
AcDbEntity
  8
_0-3_躯体と製品
  6
CONTINUOUS
 62
     0
100
AcDbLine
 10
155.3502170626
 20
494.1328167658
 11
155.3502170626
 21
482.1328167658
  0
ARC
  5
323
100
AcDbEntity
  8
_0-3_躯体と製品
  6
CONTINUOUS
 62
     0
100
AcDbCircle
 10
167.4502170626
 20
489.0328167658
 40
0.6
100
AcDbArc
 50
-90
 51
90
  0
ARC
  5
324
100
AcDbEntity
  8
_0-3_躯体と製品
  6
CONTINUOUS
 62
     0
100
AcDbCircle
 10
155.8502170626
 20
479.6328167658
 40
0.5
100
AcDbArc
 50
90
 51
180
  0
ARC
  5
325
100
AcDbEntity
  8
_0-3_躯体と製品
  6
CONTINUOUS
 62
     0
100
AcDbCircle
 10
155.8502170626
 20
482.1328167658
 40
0.5
100
AcDbArc
 50
180
 51
270
  0
LINE
  5
326
100
AcDbEntity
  8
_0-3_躯体と製品
  6
CONTINUOUS
 62
     0
100
AcDbLine
 10
161.3502170626
 20
481.6328167658
 11
155.8502170626
 21
481.6328167658
  0
ARC
  5
327
100
AcDbEntity
  8
_0-3_躯体と製品
  6
CONTINUOUS
 62
     0
100
AcDbCircle
 10
161.3502170626
 20
481.1328167658
 40
0.5
100
AcDbArc
 50
0
 51
90
  0
LINE
  5
328
100
AcDbEntity
  8
_0-3_躯体と製品
  6
CONTINUOUS
 62
     0
100
AcDbLine
 10
161.8502170626
 20
475.1328167658
 11
161.8502170626
 21
481.1328167658
  0
ARC
  5
329
100
AcDbEntity
  8
_0-3_躯体と製品
  6
CONTINUOUS
 62
     0
100
AcDbCircle
 10
160.8502170626
 20
475.1328167658
 40
1
100
AcDbArc
 50
-90
 51
0
  0
LINE
  5
32A
100
AcDbEntity
  8
_0-3_躯体と製品
  6
CONTINUOUS
 62
     0
100
AcDbLine
 10
160.8502170626
 20
474.1328167658
 11
158.9502170626
 21
474.1328167658
  0
LINE
  5
32B
100
AcDbEntity
  8
_0-3_躯体と製品
  6
CONTINUOUS
 62
     0
100
AcDbLine
 10
160.3502170626
 20
479.6328167658
 11
160.3502170626
 21
475.8328167658
  0
ARC
  5
32C
100
AcDbEntity
  8
_0-3_躯体と製品
  6
CONTINUOUS
 62
     0
100
AcDbCircle
 10
159.8502170626
 20
479.6328167658
 40
0.5
100
AcDbArc
 50
0
 51
90
  0
LINE
  5
32D
100
AcDbEntity
  8
_0-3_躯体と製品
  6
CONTINUOUS
 62
     0
100
AcDbLine
 10
159.8502170626
 20
480.1328167658
 11
155.8502170626
 21
480.1328167658
  0
LINE
  5
32E
100
AcDbEntity
  8
_0-3_躯体と製品
  6
CONTINUOUS
 62
     0
100
AcDbLine
 10
159.8502170626
 20
475.3328167658
 11
158.9502170626
 21
475.3328167658
  0
ARC
  5
32F
100
AcDbEntity
  8
_0-3_躯体と製品
  6
CONTINUOUS
 62
     0
100
AcDbCircle
 10
159.8502170626
 20
475.8328167658
 40
0.5
100
AcDbArc
 50
-90
 51
0
  0
ARC
  5
330
100
AcDbEntity
  8
_0-3_躯体と製品
  6
CONTINUOUS
 62
     0
100
AcDbCircle
 10
158.9502170626
 20
474.7328167658
 40
0.6
100
AcDbArc
 50
90
 51
270
  0
LINE
  5
331
100
AcDbEntity
  8
_0-3_躯体と製品
  6
CONTINUOUS
 62
     0
100
AcDbLine
 10
154.3502170626
 20
496.9328167658
 11
154.3502170626
 21
500.3328167658
  0
ARC
  5
332
100
AcDbEntity
  8
_0-3_躯体と製品
  6
CONTINUOUS
 62
     0
100
AcDbCircle
 10
154.6502170626
 20
496.9328167658
 40
0.3
100
AcDbArc
 50
180
 51
270
  0
LINE
  5
333
100
AcDbEntity
  8
_0-3_躯体と製品
  6
CONTINUOUS
 62
     0
100
AcDbLine
 10
154.6502170626
 20
496.6328167658
 11
155.8502170626
 21
496.6328167658
  0
LINE
  5
334
100
AcDbEntity
  8
_0-3_躯体と製品
  6
CONTINUOUS
 62
     0
100
AcDbLine
 10
154.6502170626
 20
500.6328167658
 11
155.8502170626
 21
500.6328167658
  0
ARC
  5
335
100
AcDbEntity
  8
_0-3_躯体と製品
  6
CONTINUOUS
 62
     0
100
AcDbCircle
 10
154.6502170626
 20
500.3328167658
 40
0.3
100
AcDbArc
 50
90
 51
180
  0
LINE
  5
336
100
AcDbEntity
  8
_0-3_躯体と製品
  6
CONTINUOUS
 62
     0
100
AcDbLine
 10
160.8502170626
 20
500.6328167658
 11
163.3502170626
 21
500.6328167658
  0
LINE
  5
337
100
AcDbEntity
  8
_0-3_躯体と製品
  6
CONTINUOUS
 62
     0
100
AcDbLine
 10
160.8502170626
 20
496.6328167658
 11
163.3502170626
 21
496.6328167658
  0
LINE
  5
338
100
AcDbEntity
  8
_0-3_躯体と製品
  6
CONTINUOUS
 62
     0
100
AcDbLine
 10
160.8502170626
 20
500.6328167658
 11
160.3502170626
 21
500.1328167658
  0
LINE
  5
339
100
AcDbEntity
  8
_0-3_躯体と製品
  6
CONTINUOUS
 62
     0
100
AcDbLine
 10
160.3502170626
 20
500.1328167658
 11
159.8502170626
 21
500.6328167658
  0
LINE
  5
33A
100
AcDbEntity
  8
_0-3_躯体と製品
  6
CONTINUOUS
 62
     0
100
AcDbLine
 10
159.8502170626
 20
500.6328167658
 11
159.3502170626
 21
500.1328167658
  0
LINE
  5
33B
100
AcDbEntity
  8
_0-3_躯体と製品
  6
CONTINUOUS
 62
     0
100
AcDbLine
 10
159.3502170626
 20
500.1328167658
 11
158.8502170626
 21
500.6328167658
  0
LINE
  5
33C
100
AcDbEntity
  8
_0-3_躯体と製品
  6
CONTINUOUS
 62
     0
100
AcDbLine
 10
158.8502170626
 20
500.6328167658
 11
158.3502170626
 21
500.1328167658
  0
LINE
  5
33D
100
AcDbEntity
  8
_0-3_躯体と製品
  6
CONTINUOUS
 62
     0
100
AcDbLine
 10
158.3502170626
 20
500.1328167658
 11
157.8502170626
 21
500.6328167658
  0
LINE
  5
33E
100
AcDbEntity
  8
_0-3_躯体と製品
  6
CONTINUOUS
 62
     0
100
AcDbLine
 10
157.8502170626
 20
500.6328167658
 11
157.3502170626
 21
500.1328167658
  0
LINE
  5
33F
100
AcDbEntity
  8
_0-3_躯体と製品
  6
CONTINUOUS
 62
     0
100
AcDbLine
 10
157.3502170626
 20
500.1328167658
 11
156.8502170626
 21
500.6328167658
  0
LINE
  5
340
100
AcDbEntity
  8
_0-3_躯体と製品
  6
CONTINUOUS
 62
     0
100
AcDbLine
 10
156.8502170626
 20
500.6328167658
 11
156.3502170626
 21
500.1328167658
  0
LINE
  5
341
100
AcDbEntity
  8
_0-3_躯体と製品
  6
CONTINUOUS
 62
     0
100
AcDbLine
 10
156.3502170626
 20
500.1328167658
 11
155.8502170626
 21
500.6328167658
  0
LINE
  5
342
100
AcDbEntity
  8
_0-3_躯体と製品
  6
CONTINUOUS
 62
     0
100
AcDbLine
 10
160.8502170626
 20
496.6328167658
 11
160.3502170626
 21
497.1328167658
  0
LINE
  5
343
100
AcDbEntity
  8
_0-3_躯体と製品
  6
CONTINUOUS
 62
     0
100
AcDbLine
 10
160.3502170626
 20
497.1328167658
 11
159.8502170626
 21
496.6328167658
  0
LINE
  5
344
100
AcDbEntity
  8
_0-3_躯体と製品
  6
CONTINUOUS
 62
     0
100
AcDbLine
 10
159.8502170626
 20
496.6328167658
 11
159.3502170626
 21
497.1328167658
  0
LINE
  5
345
100
AcDbEntity
  8
_0-3_躯体と製品
  6
CONTINUOUS
 62
     0
100
AcDbLine
 10
159.3502170626
 20
497.1328167658
 11
158.8502170626
 21
496.6328167658
  0
LINE
  5
346
100
AcDbEntity
  8
_0-3_躯体と製品
  6
CONTINUOUS
 62
     0
100
AcDbLine
 10
158.8502170626
 20
496.6328167658
 11
158.3502170626
 21
497.1328167658
  0
LINE
  5
347
100
AcDbEntity
  8
_0-3_躯体と製品
  6
CONTINUOUS
 62
     0
100
AcDbLine
 10
158.3502170626
 20
497.1328167658
 11
157.8502170626
 21
496.6328167658
  0
LINE
  5
348
100
AcDbEntity
  8
_0-3_躯体と製品
  6
CONTINUOUS
 62
     0
100
AcDbLine
 10
157.8502170626
 20
496.6328167658
 11
157.3502170626
 21
497.1328167658
  0
LINE
  5
349
100
AcDbEntity
  8
_0-3_躯体と製品
  6
CONTINUOUS
 62
     0
100
AcDbLine
 10
157.3502170626
 20
497.1328167658
 11
156.8502170626
 21
496.6328167658
  0
LINE
  5
34A
100
AcDbEntity
  8
_0-3_躯体と製品
  6
CONTINUOUS
 62
     0
100
AcDbLine
 10
156.8502170626
 20
496.6328167658
 11
156.3502170626
 21
497.1328167658
  0
LINE
  5
34B
100
AcDbEntity
  8
_0-3_躯体と製品
  6
CONTINUOUS
 62
     0
100
AcDbLine
 10
156.3502170626
 20
497.1328167658
 11
155.8502170626
 21
496.6328167658
  0
LINE
  5
34C
100
AcDbEntity
  8
_0-3_躯体と製品
  6
CONTINUOUS
 62
     0
100
AcDbLine
 10
153.3502170626
 20
502.6328167658
 11
161.8502170626
 21
502.6328167658
  0
ARC
  5
34D
100
AcDbEntity
  8
_0-3_躯体と製品
  6
CONTINUOUS
 62
     0
100
AcDbCircle
 10
153.3502170626
 20
502.1328167658
 40
0.5
100
AcDbArc
 50
90
 51
180
  0
LINE
  5
34E
100
AcDbEntity
  8
_0-3_躯体と製品
  6
CONTINUOUS
 62
     0
100
AcDbLine
 10
152.8502170626
 20
502.1328167658
 11
152.8502170626
 21
494.6328167658
  0
LINE
  5
34F
100
AcDbEntity
  8
_0-3_躯体と製品
  6
CONTINUOUS
 62
     0
100
AcDbLine
 10
161.8502170626
 20
502.6328167658
 11
161.8502170626
 21
501.8328167658
  0
LINE
  5
350
100
AcDbEntity
  8
_0-3_躯体と製品
  6
CONTINUOUS
 62
     0
100
AcDbLine
 10
162.5502170626
 20
495.4328167658
 11
163.2502170626
 21
495.4328167658
  0
LINE
  5
351
100
AcDbEntity
  8
_0-3_躯体と製品
  6
CONTINUOUS
 62
     0
100
AcDbLine
 10
162.5502170626
 20
489.9328167658
 11
162.5502170626
 21
495.4328167658
  0
LINE
  5
352
100
AcDbEntity
  8
_0-3_躯体と製品
  6
CONTINUOUS
 62
     0
100
AcDbLine
 10
161.8502170626
 20
501.8328167658
 11
163.2502170626
 21
501.8328167658
  0
LINE
  5
353
100
AcDbEntity
  8
_0-3_躯体と製品
  6
CONTINUOUS
 62
     0
100
AcDbLine
 10
152.8502170626
 20
481.6328167658
 11
152.8502170626
 21
480.1328167658
  0
ARC
  5
354
100
AcDbEntity
  8
_0-3_躯体と製品
  6
CONTINUOUS
 62
     0
100
AcDbCircle
 10
163.2502170626
 20
496.0328167658
 40
0.6
100
AcDbArc
 50
-90
 51
90
  0
ARC
  5
355
100
AcDbEntity
  8
_0-3_躯体と製品
  6
CONTINUOUS
 62
     0
100
AcDbCircle
 10
163.2502170626
 20
501.2328167658
 40
0.6
100
AcDbArc
 50
-90
 51
90
  0
LINE
  5
356
100
AcDbEntity
  8
_0-3_躯体と製品
  6
CONTINUOUS
 62
     0
100
AcDbLine
 10
153.3502170626
 20
480.1328167658
 11
153.3502170626
 21
468.6328167658
  0
LINE
  5
357
100
AcDbEntity
  8
_0-3_躯体と製品
  6
CONTINUOUS
 62
     0
100
AcDbLine
 10
155.3502170626
 20
469.1328167658
 11
155.3502170626
 21
479.6328167658
  0
LINE
  5
358
100
AcDbEntity
  8
_0-3_躯体と製品
  6
CONTINUOUS
 62
     0
100
AcDbLine
 10
153.3502170626
 20
468.6328167658
 11
152.8502170626
 21
468.6328167658
  0
LINE
  5
359
100
AcDbEntity
  8
_0-3_躯体と製品
  6
CONTINUOUS
 62
     0
100
AcDbLine
 10
152.8502170626
 20
467.1328167658
 11
153.3502170626
 21
467.1328167658
  0
LINE
  5
35A
100
AcDbEntity
  8
_0-3_躯体と製品
  6
CONTINUOUS
 62
     0
100
AcDbLine
 10
153.3502170626
 20
467.1328167658
 11
153.3502170626
 21
453.1328167658
  0
LINE
  5
35B
100
AcDbEntity
  8
_0-3_躯体と製品
  6
CONTINUOUS
 62
     0
100
AcDbLine
 10
153.3502170626
 20
443.1328167658
 11
153.3502170626
 21
429.1328167658
  0
LINE
  5
35C
100
AcDbEntity
  8
_0-3_躯体と製品
  6
CONTINUOUS
 62
     0
100
AcDbLine
 10
153.3502170626
 20
429.1328167658
 11
152.8502170626
 21
429.1328167658
  0
ARC
  5
35D
100
AcDbEntity
  8
_0-3_躯体と製品
  6
CONTINUOUS
 62
     0
100
AcDbCircle
 10
155.8502170626
 20
469.1328167658
 40
0.5
100
AcDbArc
 50
180
 51
270
  0
LINE
  5
35E
100
AcDbEntity
  8
_0-3_躯体と製品
  6
CONTINUOUS
 62
     0
100
AcDbLine
 10
155.8502170626
 20
468.6328167658
 11
164.8502170626
 21
468.6328167658
  0
LINE
  5
35F
100
AcDbEntity
  8
_0-3_躯体と製品
  6
CONTINUOUS
 62
     0
100
AcDbLine
 10
155.8502170626
 20
422.6328167658
 11
161.6002170626
 21
422.6328167658
  0
ARC
  5
360
100
AcDbEntity
  8
_0-3_躯体と製品
  6
CONTINUOUS
 62
     0
100
AcDbCircle
 10
155.8502170626
 20
423.1328167658
 40
0.5
100
AcDbArc
 50
180
 51
270
  0
ARC
  5
361
100
AcDbEntity
  8
_0-3_躯体と製品
  6
CONTINUOUS
 62
     0
100
AcDbCircle
 10
155.8502170626
 20
420.6328167658
 40
0.5
100
AcDbArc
 50
90
 51
180
  0
LINE
  5
362
100
AcDbEntity
  8
_0-3_躯体と製品
  6
CONTINUOUS
 62
     0
100
AcDbLine
 10
155.8502170626
 20
421.1328167658
 11
158.3502170626
 21
421.1328167658
  0
LINE
  5
363
100
AcDbEntity
  8
_0-3_躯体と製品
  6
CONTINUOUS
 62
     0
100
AcDbLine
 10
158.3502170626
 20
421.1328167658
 11
159.3502170626
 21
421.6328167658
  0
LINE
  5
364
100
AcDbEntity
  8
_0-3_躯体と製品
  6
CONTINUOUS
 62
     0
100
AcDbLine
 10
159.3502170626
 20
421.6328167658
 11
159.3502170626
 21
421.1328167658
  0
LINE
  5
365
100
AcDbEntity
  8
_0-3_躯体と製品
  6
CONTINUOUS
 62
     0
100
AcDbLine
 10
159.3502170626
 20
421.1328167658
 11
160.3502170626
 21
421.6328167658
  0
LINE
  5
366
100
AcDbEntity
  8
_0-3_躯体と製品
  6
CONTINUOUS
 62
     0
100
AcDbLine
 10
160.3502170626
 20
421.6328167658
 11
160.3502170626
 21
421.1328167658
  0
ARC
  5
367
100
AcDbEntity
  8
_0-3_躯体と製品
  6
CONTINUOUS
 62
     0
100
AcDbCircle
 10
161.6002170626
 20
421.8828167658
 40
0.75
100
AcDbArc
 50
-90
 51
90
  0
ARC
  5
368
100
AcDbEntity
  8
_0-3_躯体と製品
  6
CONTINUOUS
 62
     0
100
AcDbCircle
 10
155.8502170626
 20
466.6328167658
 40
0.5
100
AcDbArc
 50
90
 51
180
  0
ARC
  5
369
100
AcDbEntity
  8
_0-3_躯体と製品
  6
CONTINUOUS
 62
     0
100
AcDbCircle
 10
164.8502170626
 20
468.1328167658
 40
0.5
100
AcDbArc
 50
0
 51
90
  0
LINE
  5
36A
100
AcDbEntity
  8
_0-3_躯体と製品
  6
CONTINUOUS
 62
     0
100
AcDbLine
 10
164.8502170626
 20
467.1328167658
 11
155.8502170626
 21
467.1328167658
  0
ARC
  5
36B
100
AcDbEntity
  8
_0-3_躯体と製品
  6
CONTINUOUS
 62
     0
100
AcDbCircle
 10
164.8502170626
 20
467.6328167658
 40
0.5
100
AcDbArc
 50
-90
 51
0
  0
LINE
  5
36C
100
AcDbEntity
  8
_0-3_躯体と製品
  6
CONTINUOUS
 62
     0
100
AcDbLine
 10
165.3502170626
 20
467.6328167658
 11
165.3502170626
 21
468.1328167658
  0
LINE
  5
36D
100
AcDbEntity
  8
_0-3_躯体と製品
  6
CONTINUOUS
 62
     0
100
AcDbLine
 10
155.3502170626
 20
427.1328167658
 11
155.3502170626
 21
423.1328167658
  0
ARC
  5
36E
100
AcDbEntity
  8
_0-3_躯体と製品
  6
CONTINUOUS
 62
     0
100
AcDbCircle
 10
155.8502170626
 20
427.1328167658
 40
0.5
100
AcDbArc
 50
90
 51
180
  0
LINE
  5
36F
100
AcDbEntity
  8
_0-3_躯体と製品
  6
CONTINUOUS
 62
     0
100
AcDbLine
 10
155.8502170626
 20
427.6328167658
 11
166.6002170626
 21
427.6328167658
  0
LINE
  5
370
100
AcDbEntity
  8
_0-3_躯体と製品
  6
CONTINUOUS
 62
     0
100
AcDbLine
 10
155.3502170626
 20
429.6328167658
 11
155.3502170626
 21
447.6328167658
  0
ARC
  5
371
100
AcDbEntity
  8
_0-3_躯体と製品
  6
CONTINUOUS
 62
     0
100
AcDbCircle
 10
155.8502170626
 20
429.6328167658
 40
0.5
100
AcDbArc
 50
180
 51
270
  0
LINE
  5
372
100
AcDbEntity
  8
_0-3_躯体と製品
  6
CONTINUOUS
 62
     0
100
AcDbLine
 10
155.8502170626
 20
429.1328167658
 11
166.6002170626
 21
429.1328167658
  0
ARC
  5
373
100
AcDbEntity
  8
_0-3_躯体と製品
  6
CONTINUOUS
 62
     0
100
AcDbCircle
 10
166.6002170626
 20
428.3828167658
 40
0.75
100
AcDbArc
 50
-90
 51
90
  0
ARC
  5
374
100
AcDbEntity
  8
_0-3_躯体と製品
  6
CONTINUOUS
 62
     0
100
AcDbCircle
 10
155.8502170626
 20
417.6328167658
 40
0.5
100
AcDbArc
 50
180
 51
270
  0
LINE
  5
375
100
AcDbEntity
  8
_0-3_躯体と製品
  6
CONTINUOUS
 62
     0
100
AcDbLine
 10
155.8502170626
 20
417.1328167658
 11
158.3502170626
 21
417.1328167658
  0
ARC
  5
376
100
AcDbEntity
  8
_0-3_躯体と製品
  6
CONTINUOUS
 62
     0
100
AcDbCircle
 10
161.6002170626
 20
416.3828167658
 40
0.75
100
AcDbArc
 50
-90
 51
90
  0
LINE
  5
377
100
AcDbEntity
  8
_0-3_躯体と製品
  6
CONTINUOUS
 62
     0
100
AcDbLine
 10
158.3502170626
 20
417.1328167658
 11
159.3502170626
 21
416.6328167658
  0
LINE
  5
378
100
AcDbEntity
  8
_0-3_躯体と製品
  6
CONTINUOUS
 62
     0
100
AcDbLine
 10
159.3502170626
 20
417.1328167658
 11
159.3502170626
 21
416.6328167658
  0
LINE
  5
379
100
AcDbEntity
  8
_0-3_躯体と製品
  6
CONTINUOUS
 62
     0
100
AcDbLine
 10
159.3502170626
 20
417.1328167658
 11
160.3502170626
 21
416.6328167658
  0
LINE
  5
37A
100
AcDbEntity
  8
_0-3_躯体と製品
  6
CONTINUOUS
 62
     0
100
AcDbLine
 10
160.3502170626
 20
417.1328167658
 11
160.3502170626
 21
416.6328167658
  0
LINE
  5
37B
100
AcDbEntity
  8
_0-3_躯体と製品
  6
CONTINUOUS
 62
     0
100
AcDbLine
 10
155.3502170626
 20
417.6328167658
 11
155.3502170626
 21
420.6328167658
  0
LINE
  5
37C
100
AcDbEntity
  8
_0-3_躯体と製品
  6
CONTINUOUS
 62
     0
100
AcDbLine
 10
153.8502170626
 20
417.6328167658
 11
153.8502170626
 21
427.1328167658
  0
ARC
  5
37D
100
AcDbEntity
  8
_0-3_躯体と製品
  6
CONTINUOUS
 62
     0
100
AcDbCircle
 10
153.3502170626
 20
417.6328167658
 40
0.5
100
AcDbArc
 50
-90
 51
0
  0
LINE
  5
37E
100
AcDbEntity
  8
_0-3_躯体と製品
  6
CONTINUOUS
 62
     0
100
AcDbLine
 10
153.3502170626
 20
417.1328167658
 11
152.8502170626
 21
417.1328167658
  0
LINE
  5
37F
100
AcDbEntity
  8
_0-3_躯体と製品
  6
CONTINUOUS
 62
     0
100
AcDbLine
 10
152.8502170626
 20
415.6328167658
 11
152.8502170626
 21
417.1328167658
  0
LINE
  5
380
100
AcDbEntity
  8
_0-3_躯体と製品
  6
CONTINUOUS
 62
     0
100
AcDbLine
 10
161.6002170626
 20
415.6328167658
 11
152.8502170626
 21
415.6328167658
  0
LINE
  5
381
100
AcDbEntity
  8
_0-3_躯体と製品
  6
CONTINUOUS
 62
     0
100
AcDbLine
 10
153.3502170626
 20
427.6328167658
 11
152.8502170626
 21
427.6328167658
  0
ARC
  5
382
100
AcDbEntity
  8
_0-3_躯体と製品
  6
CONTINUOUS
 62
     0
100
AcDbCircle
 10
153.3502170626
 20
427.1328167658
 40
0.5
100
AcDbArc
 50
0
 51
90
  0
LINE
  5
383
100
AcDbEntity
  8
_0-3_躯体と製品
  6
CONTINUOUS
 62
     0
100
AcDbLine
 10
161.6002170626
 20
417.1328167658
 11
160.3502170626
 21
417.1328167658
  0
LINE
  5
384
100
AcDbEntity
  8
_0-3_躯体と製品
  6
CONTINUOUS
 62
     0
100
AcDbLine
 10
161.6002170626
 20
421.1328167658
 11
160.3502170626
 21
421.1328167658
  0
LINE
  5
385
100
AcDbEntity
  8
_0-3_躯体と製品
  6
CONTINUOUS
 62
     0
100
AcDbLine
 10
152.8502170626
 20
429.1328167658
 11
152.8502170626
 21
427.6328167658
  0
LINE
  5
386
100
AcDbEntity
  8
_0-3_躯体と製品
  6
CONTINUOUS
 62
     0
100
AcDbLine
 10
152.8502170626
 20
468.6328167658
 11
152.8502170626
 21
467.1328167658
  0
LINE
  5
387
100
AcDbEntity
  8
_0-3_躯体と製品
  6
CONTINUOUS
 62
     0
100
AcDbLine
 10
155.3502170626
 20
448.6328167658
 11
155.3502170626
 21
466.6328167658
  0
ARC
  5
388
100
AcDbEntity
  8
_0-3_躯体と製品
  6
CONTINUOUS
 62
     0
100
AcDbCircle
 10
165.0502170626
 20
500.1113881943
 40
2.021428571429
100
AcDbArc
 50
42.74124453868
 51
90
  0
LINE
  5
389
100
AcDbEntity
  8
_0-3_躯体と製品
  6
CONTINUOUS
 62
     0
100
AcDbLine
 10
182.8502170626
 20
455.8328167658
 11
175.0502170626
 21
455.8328167658
  0
LINE
  5
38A
100
AcDbEntity
  8
_0-3_躯体と製品
  6
CONTINUOUS
 62
     0
100
AcDbLine
 10
185.0502170626
 20
458.0328167658
 11
185.0502170626
 21
489.6328167658
  0
LINE
  5
38B
100
AcDbEntity
  8
_0-3_躯体と製品
  6
CONTINUOUS
 62
     0
100
AcDbLine
 10
182.8502170626
 20
491.8328167658
 11
166.0502170626
 21
491.8328167658
  0
CIRCLE
  5
38C
100
AcDbEntity
  8
_0-3_躯体と製品
  6
CONTINUOUS
 62
     0
100
AcDbCircle
 10
185.0502170626
 20
455.8328167658
 40
1.4
  0
LINE
  5
38D
100
AcDbEntity
  8
_0-3_躯体と製品
  6
CONTINUOUS
 62
     0
100
AcDbLine
 10
163.3502180626
 20
490.9328187658
 11
163.3502180626
 21
494.4328167658
  0
ARC
  5
38E
100
AcDbEntity
  8
_0-3_躯体と製品
  6
CONTINUOUS
 62
     0
100
AcDbCircle
 10
163.8502190626
 20
490.9328187658
 40
0.500001
100
AcDbArc
 50
180
 51
270
  0
ARC
  5
38F
100
AcDbEntity
  8
_0-3_躯体と製品
  6
CONTINUOUS
 62
     0
100
AcDbCircle
 10
163.8502190626
 20
490.9328187658
 40
1.299999
100
AcDbArc
 50
180
 51
270
  0
LINE
  5
390
100
AcDbEntity
  8
_0-3_躯体と製品
  6
CONTINUOUS
 62
     0
100
AcDbLine
 10
162.5502170626
 20
494.4328167658
 11
163.3502180626
 21
494.4328167658
  0
LINE
  5
391
100
AcDbEntity
  8
_0-3_躯体と製品
  6
CONTINUOUS
 62
     0
100
AcDbLine
 10
182.2502180626
 20
490.4328177658
 11
163.8502190626
 21
490.4328177658
  0
ARC
  5
392
100
AcDbEntity
  8
_0-3_躯体と製品
  6
CONTINUOUS
 62
     0
100
AcDbCircle
 10
182.2502180626
 20
489.1328187658
 40
1.299999
100
AcDbArc
 50
0
 51
90
  0
ARC
  5
393
100
AcDbEntity
  8
_0-3_躯体と製品
  6
CONTINUOUS
 62
     0
100
AcDbCircle
 10
182.2502180626
 20
489.1328187658
 40
0.500001
100
AcDbArc
 50
0
 51
90
  0
LINE
  5
394
100
AcDbEntity
  8
_0-3_躯体と製品
  6
CONTINUOUS
 62
     0
100
AcDbLine
 10
182.7502190626
 20
489.1328187658
 11
182.7502190626
 21
460.4328177658
  0
LINE
  5
395
100
AcDbEntity
  8
_0-3_躯体と製品
  6
CONTINUOUS
 62
     0
100
AcDbLine
 10
183.5502170626
 20
489.1328187658
 11
183.5502170626
 21
460.4328177658
  0
LINE
  5
396
100
AcDbEntity
  8
_0-3_躯体と製品
  6
CONTINUOUS
 62
     0
100
AcDbLine
 10
182.7502190626
 20
460.4328177658
 11
183.5502170626
 21
460.4328177658
  0
LINE
  5
397
100
AcDbEntity
  8
_0-3_躯体と製品
  6
CONTINUOUS
 62
     0
100
AcDbLine
 10
182.2502180626
 20
489.6328167658
 11
163.8502190626
 21
489.6328167658
  0
LINE
  5
398
100
AcDbEntity
  8
_0-3_躯体と製品
  6
CONTINUOUS
 62
     0
100
AcDbLine
 10
162.5502170626
 20
494.4328167658
 11
162.5502200626
 21
490.9328187658
  0
LINE
  5
399
100
AcDbEntity
  8
_0-3_躯体と製品
  6
CONTINUOUS
 62
     0
100
AcDbLine
 10
182.7502190626
 20
460.6823609278
 11
183.5502170626
 21
461.4823589278
  0
LINE
  5
39A
100
AcDbEntity
  8
_0-3_躯体と製品
  6
CONTINUOUS
 62
     0
100
AcDbLine
 10
182.7502190626
 20
462.0965744902
 11
183.5502170626
 21
462.8965724902
  0
LINE
  5
39B
100
AcDbEntity
  8
_0-3_躯体と製品
  6
CONTINUOUS
 62
     0
100
AcDbLine
 10
182.7502190626
 20
463.5107880525
 11
183.5502170626
 21
464.3107860525
  0
LINE
  5
39C
100
AcDbEntity
  8
_0-3_躯体と製品
  6
CONTINUOUS
 62
     0
100
AcDbLine
 10
182.7502190626
 20
464.9250016149
 11
183.5502170626
 21
465.7249996149
  0
LINE
  5
39D
100
AcDbEntity
  8
_0-3_躯体と製品
  6
CONTINUOUS
 62
     0
100
AcDbLine
 10
182.7502190626
 20
466.3392151773
 11
183.5502170626
 21
467.1392131773
  0
LINE
  5
39E
100
AcDbEntity
  8
_0-3_躯体と製品
  6
CONTINUOUS
 62
     0
100
AcDbLine
 10
182.7502190626
 20
467.7534287396
 11
183.5502170626
 21
468.5534267396
  0
LINE
  5
39F
100
AcDbEntity
  8
_0-3_躯体と製品
  6
CONTINUOUS
 62
     0
100
AcDbLine
 10
182.7502190626
 20
469.167642302
 11
183.5502170626
 21
469.967640302
  0
LINE
  5
3A0
100
AcDbEntity
  8
_0-3_躯体と製品
  6
CONTINUOUS
 62
     0
100
AcDbLine
 10
182.7502190626
 20
470.5818558644
 11
183.5502170626
 21
471.3818538644
  0
LINE
  5
3A1
100
AcDbEntity
  8
_0-3_躯体と製品
  6
CONTINUOUS
 62
     0
100
AcDbLine
 10
182.7502190626
 20
471.9960694268
 11
183.5502170626
 21
472.7960674268
  0
LINE
  5
3A2
100
AcDbEntity
  8
_0-3_躯体と製品
  6
CONTINUOUS
 62
     0
100
AcDbLine
 10
182.7502190626
 20
473.4102829891
 11
183.5502170626
 21
474.2102809891
  0
LINE
  5
3A3
100
AcDbEntity
  8
_0-3_躯体と製品
  6
CONTINUOUS
 62
     0
100
AcDbLine
 10
182.7502190626
 20
474.8244965515
 11
183.5502170626
 21
475.6244945515
  0
LINE
  5
3A4
100
AcDbEntity
  8
_0-3_躯体と製品
  6
CONTINUOUS
 62
     0
100
AcDbLine
 10
182.7502190626
 20
476.2387101139
 11
183.5502170626
 21
477.0387081139
  0
LINE
  5
3A5
100
AcDbEntity
  8
_0-3_躯体と製品
  6
CONTINUOUS
 62
     0
100
AcDbLine
 10
182.7502190626
 20
477.6529236763
 11
183.5502170626
 21
478.4529216763
  0
LINE
  5
3A6
100
AcDbEntity
  8
_0-3_躯体と製品
  6
CONTINUOUS
 62
     0
100
AcDbLine
 10
182.7502190626
 20
479.0671372386
 11
183.5502170626
 21
479.8671352386
  0
LINE
  5
3A7
100
AcDbEntity
  8
_0-3_躯体と製品
  6
CONTINUOUS
 62
     0
100
AcDbLine
 10
182.7502190626
 20
480.481350801
 11
183.5502170626
 21
481.281348801
  0
LINE
  5
3A8
100
AcDbEntity
  8
_0-3_躯体と製品
  6
CONTINUOUS
 62
     0
100
AcDbLine
 10
182.7502190626
 20
481.8955643634
 11
183.5502170626
 21
482.6955623634
  0
LINE
  5
3A9
100
AcDbEntity
  8
_0-3_躯体と製品
  6
CONTINUOUS
 62
     0
100
AcDbLine
 10
182.7502190626
 20
483.3097779257
 11
183.5502170626
 21
484.1097759257
  0
LINE
  5
3AA
100
AcDbEntity
  8
_0-3_躯体と製品
  6
CONTINUOUS
 62
     0
100
AcDbLine
 10
182.7502190626
 20
484.7239914881
 11
183.5502170626
 21
485.5239894881
  0
LINE
  5
3AB
100
AcDbEntity
  8
_0-3_躯体と製品
  6
CONTINUOUS
 62
     0
100
AcDbLine
 10
182.7502190626
 20
486.1382050505
 11
183.5502170626
 21
486.9382030505
  0
LINE
  5
3AC
100
AcDbEntity
  8
_0-3_躯体と製品
  6
CONTINUOUS
 62
     0
100
AcDbLine
 10
182.7502190626
 20
487.5524186129
 11
183.5502170626
 21
488.3524166129
  0
LINE
  5
3AD
100
AcDbEntity
  8
_0-3_躯体と製品
  6
CONTINUOUS
 62
     0
100
AcDbLine
 10
182.7502190626
 20
488.9666321752
 11
183.4400774171
 21
489.6564905298
  0
LINE
  5
3AE
100
AcDbEntity
  8
_0-3_躯体と製品
  6
CONTINUOUS
 62
     0
100
AcDbLine
 10
182.0021900907
 20
489.6328167658
 11
182.7159151375
 21
490.3465418126
  0
LINE
  5
3AF
100
AcDbEntity
  8
_0-3_躯体と製品
  6
CONTINUOUS
 62
     0
100
AcDbLine
 10
180.5879765284
 20
489.6328167658
 11
181.3879775284
 21
490.4328177658
  0
LINE
  5
3B0
100
AcDbEntity
  8
_0-3_躯体と製品
  6
CONTINUOUS
 62
     0
100
AcDbLine
 10
179.173762966
 20
489.6328167658
 11
179.973763966
 21
490.4328177658
  0
LINE
  5
3B1
100
AcDbEntity
  8
_0-3_躯体と製品
  6
CONTINUOUS
 62
     0
100
AcDbLine
 10
177.7595494036
 20
489.6328167658
 11
178.5595504036
 21
490.4328177658
  0
LINE
  5
3B2
100
AcDbEntity
  8
_0-3_躯体と製品
  6
CONTINUOUS
 62
     0
100
AcDbLine
 10
176.3453358412
 20
489.6328167658
 11
177.1453368412
 21
490.4328177658
  0
LINE
  5
3B3
100
AcDbEntity
  8
_0-3_躯体と製品
  6
CONTINUOUS
 62
     0
100
AcDbLine
 10
174.9311222789
 20
489.6328167658
 11
175.7311232789
 21
490.4328177658
  0
LINE
  5
3B4
100
AcDbEntity
  8
_0-3_躯体と製品
  6
CONTINUOUS
 62
     0
100
AcDbLine
 10
173.5169087165
 20
489.6328167658
 11
174.3169097165
 21
490.4328177658
  0
LINE
  5
3B5
100
AcDbEntity
  8
_0-3_躯体と製品
  6
CONTINUOUS
 62
     0
100
AcDbLine
 10
172.1026951541
 20
489.6328167658
 11
172.9026961541
 21
490.4328177658
  0
LINE
  5
3B6
100
AcDbEntity
  8
_0-3_躯体と製品
  6
CONTINUOUS
 62
     0
100
AcDbLine
 10
170.6884815917
 20
489.6328167658
 11
171.4884825917
 21
490.4328177658
  0
LINE
  5
3B7
100
AcDbEntity
  8
_0-3_躯体と製品
  6
CONTINUOUS
 62
     0
100
AcDbLine
 10
169.2742680294
 20
489.6328167658
 11
170.0742690294
 21
490.4328177658
  0
LINE
  5
3B8
100
AcDbEntity
  8
_0-3_躯体と製品
  6
CONTINUOUS
 62
     0
100
AcDbLine
 10
167.860054467
 20
489.6328167658
 11
168.660055467
 21
490.4328177658
  0
LINE
  5
3B9
100
AcDbEntity
  8
_0-3_躯体と製品
  6
CONTINUOUS
 62
     0
100
AcDbLine
 10
166.4458409046
 20
489.6328167658
 11
167.2458419046
 21
490.4328177658
  0
LINE
  5
3BA
100
AcDbEntity
  8
_0-3_躯体と製品
  6
CONTINUOUS
 62
     0
100
AcDbLine
 10
165.0316273423
 20
489.6328167658
 11
165.8316283423
 21
490.4328177658
  0
LINE
  5
3BB
100
AcDbEntity
  8
_0-3_躯体と製品
  6
CONTINUOUS
 62
     0
100
AcDbLine
 10
163.6353045679
 20
489.6507075537
 11
164.4174147799
 21
490.4328177658
  0
LINE
  5
3BC
100
AcDbEntity
  8
_0-3_躯体と製品
  6
CONTINUOUS
 62
     0
100
AcDbLine
 10
162.7739961075
 20
490.2036126557
 11
163.3686597882
 21
490.7982763365
  0
LINE
  5
3BD
100
AcDbEntity
  8
_0-3_躯体と製品
  6
CONTINUOUS
 62
     0
100
AcDbLine
 10
162.5502196672
 20
491.3940497779
 11
163.3502180626
 21
492.1940481732
  0
LINE
  5
3BE
100
AcDbEntity
  8
_0-3_躯体と製品
  6
CONTINUOUS
 62
     0
100
AcDbLine
 10
162.5502184551
 20
492.8082621281
 11
163.3502180626
 21
493.6082617356
  0
LINE
  5
3BF
100
AcDbEntity
  8
_0-3_躯体と製品
  6
CONTINUOUS
 62
     0
100
AcDbLine
 10
162.5502172429
 20
494.2224744783
 11
162.7605595304
 21
494.4328167658
  0
LINE
  5
3C0
100
AcDbEntity
  8
_0-3_躯体と製品
  6
CONTINUOUS
 62
     0
100
AcDbLine
 10
155.3502170626
 20
497.1328167658
 11
155.8502170626
 21
496.6328167658
  0
LINE
  5
3C1
100
AcDbEntity
  8
_0-3_躯体と製品
  6
CONTINUOUS
 62
     0
100
AcDbLine
 10
155.3502170626
 20
500.1328167658
 11
155.8502170626
 21
500.6328167658
  0
LINE
  5
3C2
100
AcDbEntity
  8
_0-3_躯体と製品
  6
CONTINUOUS
 62
     0
100
AcDbLine
 10
155.3502170626
 20
500.1328167658
 11
155.3502170626
 21
497.1328167658
  0
LINE
  5
3C3
100
AcDbEntity
  8
_0-3_躯体と製品
  6
CONTINUOUS
 62
     0
100
AcDbLine
 10
155.8502170626
 20
500.6328167658
 11
155.8502170626
 21
496.6328167658
  0
LINE
  5
3C4
100
AcDbEntity
  8
_0-3_躯体と製品
  6
CONTINUOUS
 62
     0
100
AcDbLine
 10
163.8502170626
 20
500.6328167658
 11
160.8502170626
 21
500.6328167658
  0
LINE
  5
3C5
100
AcDbEntity
  8
_0-3_躯体と製品
  6
CONTINUOUS
 62
     0
100
AcDbLine
 10
163.8502170626
 20
500.1328167658
 11
155.3502170626
 21
500.1328167658
  0
LINE
  5
3C6
100
AcDbEntity
  8
_0-3_躯体と製品
  6
CONTINUOUS
 62
     0
100
AcDbLine
 10
163.8502170626
 20
497.1328167658
 11
155.3502170626
 21
497.1328167658
  0
LINE
  5
3C7
100
AcDbEntity
  8
_0-3_躯体と製品
  6
CONTINUOUS
 62
     0
100
AcDbLine
 10
163.8502170626
 20
496.6328167658
 11
160.8502170626
 21
496.6328167658
  0
LINE
  5
3C8
100
AcDbEntity
  8
_0-3_躯体と製品
  6
CONTINUOUS
 62
     0
100
AcDbLine
 10
155.0502170626
 20
503.8204727658
 11
155.0625610626
 21
503.8328167658
  0
ARC
  5
3C9
100
AcDbEntity
  8
_0-3_躯体と製品
  6
CONTINUOUS
 62
     0
100
AcDbCircle
 10
162.8502170626
 20
501.6328167658
 40
1
100
AcDbArc
 50
0
 51
90
  0
LINE
  5
3CA
100
AcDbEntity
  8
_0-3_躯体と製品
  6
CONTINUOUS
 62
     0
100
AcDbLine
 10
162.8502170626
 20
503.8328167658
 11
155.0502170626
 21
503.8328167658
  0
ARC
  5
3CB
100
AcDbEntity
  8
_0-3_躯体と製品
  6
CONTINUOUS
 62
     0
100
AcDbCircle
 10
162.8502170626
 20
501.6328167658
 40
2.2
100
AcDbArc
 50
0
 51
90
  0
LINE
  5
3CC
100
AcDbEntity
  8
_0-3_躯体と製品
  6
CONTINUOUS
 62
     0
100
AcDbLine
 10
163.8502170626
 20
492.8328167658
 11
163.8502170626
 21
501.6328167658
  0
ARC
  5
3CD
100
AcDbEntity
  8
_0-3_躯体と製品
  6
CONTINUOUS
 62
     0
100
AcDbCircle
 10
166.0502170626
 20
492.8328167658
 40
1
100
AcDbArc
 50
180
 51
270
  0
ARC
  5
3CE
100
AcDbEntity
  8
_0-3_躯体と製品
  6
CONTINUOUS
 62
     0
100
AcDbCircle
 10
182.8502170626
 20
489.6328167658
 40
1
100
AcDbArc
 50
0
 51
90
  0
ARC
  5
3CF
100
AcDbEntity
  8
_0-3_躯体と製品
  6
CONTINUOUS
 62
     0
100
AcDbCircle
 10
166.0502170626
 20
492.8328167658
 40
2.2
100
AcDbArc
 50
180
 51
270
  0
ARC
  5
3D0
100
AcDbEntity
  8
_0-3_躯体と製品
  6
CONTINUOUS
 62
     0
100
AcDbCircle
 10
182.8502170626
 20
489.6328167658
 40
2.2
100
AcDbArc
 50
0
 51
90
  0
LINE
  5
3D1
100
AcDbEntity
  8
_0-3_躯体と製品
  6
CONTINUOUS
 62
     0
100
AcDbLine
 10
155.0502170626
 20
502.6328167658
 11
162.8502170626
 21
502.6328167658
  0
LINE
  5
3D2
100
AcDbEntity
  8
_0-3_躯体と製品
  6
CONTINUOUS
 62
     0
100
AcDbLine
 10
155.0502170626
 20
503.8328167658
 11
155.0502170626
 21
502.6328167658
  0
LINE
  5
3D3
100
AcDbEntity
  8
_0-3_躯体と製品
  6
CONTINUOUS
 62
     0
100
AcDbLine
 10
166.0502170626
 20
490.6328167658
 11
182.8502170626
 21
490.6328167658
  0
LINE
  5
3D4
100
AcDbEntity
  8
_0-3_躯体と製品
  6
CONTINUOUS
 62
     0
100
AcDbLine
 10
175.0502170626
 20
457.0328167658
 11
175.0502170626
 21
455.8328167658
  0
ARC
  5
3D5
100
AcDbEntity
  8
_0-3_躯体と製品
  6
CONTINUOUS
 62
     0
100
AcDbCircle
 10
182.8502170626
 20
458.0328167658
 40
2.2
100
AcDbArc
 50
-90
 51
0
  0
LINE
  5
3D6
100
AcDbEntity
  8
_0-3_躯体と製品
  6
CONTINUOUS
 62
     0
100
AcDbLine
 10
182.8502170626
 20
457.0328167658
 11
175.0502170626
 21
457.0328167658
  0
ARC
  5
3D7
100
AcDbEntity
  8
_0-3_躯体と製品
  6
CONTINUOUS
 62
     0
100
AcDbCircle
 10
182.8502170626
 20
458.0328167658
 40
1
100
AcDbArc
 50
-90
 51
0
  0
LINE
  5
3D8
100
AcDbEntity
  8
_0-3_躯体と製品
  6
CONTINUOUS
 62
     0
100
AcDbLine
 10
183.8502170626
 20
458.0328167658
 11
183.8502170626
 21
489.6328167658
  0
LINE
  5
3D9
100
AcDbEntity
  8
_0-3_躯体と製品
  6
CONTINUOUS
 62
     0
100
AcDbLine
 10
163.8502170626
 20
500.6328167658
 11
165.0502170626
 21
500.6328167658
  0
LINE
  5
3DA
100
AcDbEntity
  8
_0-3_躯体と製品
  6
CONTINUOUS
 62
     0
100
AcDbLine
 10
163.8502170626
 20
496.6328167658
 11
165.0502170626
 21
496.6328167658
  0
CIRCLE
  5
3DB
100
AcDbEntity
  8
_0-3_躯体と製品
  6
CONTINUOUS
 62
     0
100
AcDbCircle
 10
185.0502170626
 20
491.8328167658
 40
1.4
  0
LINE
  5
3DC
100
AcDbEntity
  8
_0-3_躯体と製品
  6
CONTINUOUS
 62
     0
100
AcDbLine
 10
175.0502170626
 20
454.8328167658
 11
184.0502170626
 21
454.8328167658
  0
ARC
  5
3DD
100
AcDbEntity
  8
_0-3_躯体と製品
  6
CONTINUOUS
 62
     0
100
AcDbCircle
 10
183.5502170626
 20
455.3328167658
 40
0.5
100
AcDbArc
 50
0
 51
90
  0
LINE
  5
3DE
100
AcDbEntity
  8
_0-3_躯体と製品
  6
CONTINUOUS
 62
     0
100
AcDbLine
 10
184.0502170626
 20
455.3328167658
 11
184.0502170626
 21
454.8328167658
  0
LINE
  5
3DF
100
AcDbEntity
  8
_0-3_躯体と製品
  6
CONTINUOUS
 62
     0
100
AcDbLine
 10
175.3502170626
 20
455.8328167658
 11
183.5502170626
 21
455.8328167658
  0
ARC
  5
3E0
100
AcDbEntity
  8
_0-3_躯体と製品
  6
CONTINUOUS
 62
     0
100
AcDbCircle
 10
175.0502170626
 20
455.8328167658
 40
1
100
AcDbArc
 50
180
 51
270
  0
ARC
  5
3E1
100
AcDbEntity
  8
_0-3_躯体と製品
  6
CONTINUOUS
 62
     0
100
AcDbCircle
 10
180.655490982
 20
458.5724822358
 40
0.5
100
AcDbArc
 50
-94.74731825403
 51
-4.747318257716
  0
ARC
  5
3E2
100
AcDbEntity
  8
_0-3_躯体と製品
  6
CONTINUOUS
 62
     0
100
AcDbCircle
 10
181.6934411406
 20
458.9880053616
 40
0.4999999999355
100
AcDbArc
 50
-4.747318254016
 51
175.252681746
  0
LINE
  5
3E3
100
AcDbEntity
  8
_0-3_躯体と製品
  6
CONTINUOUS
 62
     0
100
AcDbLine
 10
182.1089642664
 20
457.9500552028
 11
182.1917258293
 21
458.9466245802
  0
ARC
  5
3E4
100
AcDbEntity
  8
_0-3_躯体と製品
  6
CONTINUOUS
 62
     0
100
AcDbCircle
 10
181.1123948891
 20
458.0328167658
 40
1
100
AcDbArc
 50
-94.74731825403
 51
-4.747318257728
  0
LINE
  5
3E5
100
AcDbEntity
  8
_0-3_躯体と製品
  6
CONTINUOUS
 62
     0
100
AcDbLine
 10
181.1537756706
 20
458.5311014544
 11
181.1951564521
 21
459.029386143
  0
LINE
  5
3E6
100
AcDbEntity
  8
_0-3_躯体と製品
  6
CONTINUOUS
 62
     0
100
AcDbLine
 10
174.0502170626
 20
457.5328167658
 11
174.0502170626
 21
455.8328167658
  0
LINE
  5
3E7
100
AcDbEntity
  8
_0-3_躯体と製品
  6
CONTINUOUS
 62
     0
100
AcDbLine
 10
175.1329786255
 20
458.529386143
 11
180.6141102005
 21
458.0741975472
  0
ARC
  5
3E8
100
AcDbEntity
  8
_0-3_躯体と製品
  6
CONTINUOUS
 62
     0
100
AcDbCircle
 10
175.0502170626
 20
457.5328167658
 40
1
100
AcDbArc
 50
85.25268174597
 51
180
  0
LINE
  5
3E9
100
AcDbEntity
  8
_0-3_躯体と製品
  6
CONTINUOUS
 62
     0
100
AcDbLine
 10
175.0502170626
 20
457.2068700969
 11
175.0502170626
 21
456.1328167658
  0
LINE
  5
3EA
100
AcDbEntity
  8
_0-3_躯体と製品
  6
CONTINUOUS
 62
     0
100
AcDbLine
 10
175.3750455314
 20
457.50584091
 11
181.0296333263
 21
457.0362473885
  0
ARC
  5
3EB
100
AcDbEntity
  8
_0-3_躯体と製品
  6
CONTINUOUS
 62
     0
100
AcDbCircle
 10
175.3502170626
 20
457.2068700969
 40
0.3
100
AcDbArc
 50
85.25268174597
 51
180
  0
ARC
  5
3EC
100
AcDbEntity
  8
_0-3_躯体と製品
  6
CONTINUOUS
 62
     0
100
AcDbCircle
 10
167.1159366372
 20
497.7123380424
 40
0.4204787234043
100
AcDbArc
 50
-14.09578924418
 51
90
  0
ARC
  5
3ED
100
AcDbEntity
  8
_0-3_躯体と製品
  6
CONTINUOUS
 62
     0
100
AcDbCircle
 10
165.0502170626
 20
497.1542453372
 40
2.021428571429
100
AcDbArc
 50
-90
 51
-42.74124453868
  0
LINE
  5
3EE
100
AcDbEntity
  8
_0-3_躯体と製品
  6
CONTINUOUS
 62
     0
100
AcDbLine
 10
165.0502170626
 20
495.1328167658
 11
165.0502170626
 21
502.1328167658
  0
ARC
  5
3EF
100
AcDbEntity
  8
_0-3_躯体と製品
  6
CONTINUOUS
 62
     0
100
AcDbCircle
 10
167.1159366372
 20
499.5532954892
 40
0.4204787234043
100
AcDbArc
 50
-90
 51
14.09578924417
  0
LINE
  5
3F0
100
AcDbEntity
  8
_0-3_躯体と製品
  6
CONTINUOUS
 62
     0
100
AcDbLine
 10
167.1159366372
 20
499.1328167658
 11
167.1159366372
 21
498.1328167658
  0
ARC
  5
3F1
100
AcDbEntity
  8
_0-3_躯体と製品
  6
CONTINUOUS
 62
     0
100
AcDbCircle
 10
163.4502170626
 20
498.6328167658
 40
4.2
100
AcDbArc
 50
-42.74124453868
 51
-14.09578924417
  0
ARC
  5
3F2
100
AcDbEntity
  8
_0-3_躯体と製品
  6
CONTINUOUS
 62
     0
100
AcDbCircle
 10
163.4502170626
 20
498.6328167658
 40
4.2
100
AcDbArc
 50
14.09578924417
 51
42.74124453868
  0
LINE
  5
3F3
100
AcDbEntity
  8
_0-3_躯体と製品
  6
CONTINUOUS
 62
     0
100
AcDbLine
 10
166.0502170626
 20
491.8328167658
 11
168.0502170626
 21
491.8328167658
  0
ARC
  5
3F4
100
AcDbEntity
  8
_0-3_躯体と製品
  6
CONTINUOUS
 62
     0
100
AcDbCircle
 10
168.0502170626
 20
492.8328167658
 40
1
100
AcDbArc
 50
-90
 51
0
  0
ARC
  5
3F5
100
AcDbEntity
  8
_0-3_躯体と製品
  6
CONTINUOUS
 62
     0
100
AcDbCircle
 10
166.0502170626
 20
492.8328167658
 40
1
100
AcDbArc
 50
180
 51
270
  0
LINE
  5
3F6
100
AcDbEntity
  8
_0-3_躯体と製品
  6
CONTINUOUS
 62
     0
100
AcDbLine
 10
165.0502170626
 20
501.6328167658
 11
165.0502170626
 21
492.8328167658
  0
LINE
  5
3F7
100
AcDbEntity
  8
_0-3_躯体と製品
  6
CONTINUOUS
 62
     0
100
AcDbLine
 10
166.8502170626
 20
452.712079436
 11
166.8502170626
 21
463.7631148693
  0
ARC
  5
3F8
100
AcDbEntity
  8
_0-3_躯体と製品
  6
CONTINUOUS
 62
     0
100
AcDbCircle
 10
167.8502170626
 20
452.712079436
 40
1
100
AcDbArc
 50
180
 51
267
  0
ARC
  5
3F9
100
AcDbEntity
  8
_0-3_躯体と製品
  6
CONTINUOUS
 62
     0
100
AcDbCircle
 10
167.8502170626
 20
452.712079436
 40
2.5
100
AcDbArc
 50
180
 51
267
  0
LINE
  5
3FA
100
AcDbEntity
  8
_0-3_躯体と製品
  6
CONTINUOUS
 62
     0
100
AcDbLine
 10
165.3502170626
 20
463.7631148693
 11
166.8502170626
 21
463.7631148693
  0
LINE
  5
3FB
100
AcDbEntity
  8
_0-3_躯体と製品
  6
CONTINUOUS
 62
     0
100
AcDbLine
 10
165.3502170626
 20
452.712079436
 11
165.3502170626
 21
463.7631148693
  0
LINE
  5
3FC
100
AcDbEntity
  8
_0-3_躯体と製品
  6
CONTINUOUS
 62
     0
100
AcDbLine
 10
183.0168123561
 20
446.6832936478
 11
183.1595202244
 21
449.4063219899
  0
LINE
  5
3FD
100
AcDbEntity
  8
_0-3_躯体と製品
  6
CONTINUOUS
 62
     0
100
AcDbLine
 10
197.9962553774
 20
445.8982543042
 11
198.1389632457
 21
448.6212826463
  0
LINE
  5
3FE
100
AcDbEntity
  8
_0-3_躯体と製品
  6
CONTINUOUS
 62
     0
100
AcDbLine
 10
186.5416378201
 20
446.4985653729
 11
183.6601163334
 21
449.3800868596
  0
LINE
  5
3FF
100
AcDbEntity
  8
_0-3_躯体と製品
  6
CONTINUOUS
 62
     0
100
AcDbLine
 10
188.0340662418
 20
446.4203505136
 11
185.1525447551
 21
449.3018720002
  0
LINE
  5
400
100
AcDbEntity
  8
_0-3_躯体と製品
  6
CONTINUOUS
 62
     0
100
AcDbLine
 10
189.5264946635
 20
446.3421356542
 11
186.6449731768
 21
449.2236571409
  0
LINE
  5
401
100
AcDbEntity
  8
_0-3_躯体と製品
  6
CONTINUOUS
 62
     0
100
AcDbLine
 10
191.0189230852
 20
446.2639207949
 11
188.1374015985
 21
449.1454422816
  0
LINE
  5
402
100
AcDbEntity
  8
_0-3_躯体と製品
  6
CONTINUOUS
 62
     0
100
AcDbLine
 10
192.5113515068
 20
446.1857059356
 11
189.6298300202
 21
449.0672274223
  0
LINE
  5
403
100
AcDbEntity
  8
_0-3_躯体と製品
  6
CONTINUOUS
 62
     0
100
AcDbLine
 10
194.0037799285
 20
446.1074910763
 11
191.1222584419
 21
448.989012563
  0
LINE
  5
404
100
AcDbEntity
  8
_0-3_躯体と製品
  6
CONTINUOUS
 62
     0
100
AcDbLine
 10
195.4962083502
 20
446.029276217
 11
192.6146868635
 21
448.9107977036
  0
LINE
  5
405
100
AcDbEntity
  8
_0-3_躯体と製品
  6
CONTINUOUS
 62
     0
100
AcDbLine
 10
196.9886367719
 20
445.9510613576
 11
194.1071152852
 21
448.8325828443
  0
LINE
  5
406
100
AcDbEntity
  8
_0-3_躯体と製品
  6
CONTINUOUS
 62
     0
100
AcDbLine
 10
198.0191326685
 20
446.3347790234
 11
195.5995437069
 21
448.754367985
  0
LINE
  5
407
100
AcDbEntity
  8
_0-3_躯体と製品
  6
CONTINUOUS
 62
     0
100
AcDbLine
 10
185.0492093984
 20
446.5767802322
 11
183.1127174663
 21
448.5132721643
  0
LINE
  5
408
100
AcDbEntity
  8
_0-3_躯体と製品
  6
CONTINUOUS
 62
     0
100
AcDbLine
 10
198.0895576442
 20
447.6785676101
 11
197.0919721286
 21
448.6761531257
  0
ARC
  5
409
100
AcDbEntity
  8
_0-3_躯体と製品
  6
CONTINUOUS
 62
     0
100
AcDbCircle
 10
162.8502170626
 20
453.4748045054
 40
7.5
100
AcDbArc
 50
180
 51
267
  0
ARC
  5
40A
100
AcDbEntity
  8
_0-3_躯体と製品
  6
CONTINUOUS
 62
     0
100
AcDbCircle
 10
162.8502170626
 20
453.4748045054
 40
3
100
AcDbArc
 50
180
 51
267
  0
LINE
  5
40B
100
AcDbEntity
  8
_0-3_躯体と製品
  6
CONTINUOUS
 62
     0
100
AcDbLine
 10
155.3502170626
 20
453.4748045054
 11
155.3502170626
 21
465.6279108053
  0
LINE
  5
40C
100
AcDbEntity
  8
_0-3_躯体と製品
  6
CONTINUOUS
 62
     0
100
AcDbLine
 10
159.8502170626
 20
465.6279108053
 11
155.3502170626
 21
465.6279108053
  0
LINE
  5
40D
100
AcDbEntity
  8
_0-3_躯体と製品
  6
CONTINUOUS
 62
     0
100
AcDbLine
 10
159.8502170626
 20
453.4748045054
 11
159.8502170626
 21
465.6279108053
  0
LINE
  5
40E
100
AcDbEntity
  8
_0-3_躯体と製品
  6
CONTINUOUS
 62
     0
100
AcDbLine
 10
162.4576973908
 20
445.9850829948
 11
182.9240084213
 21
444.9124890836
  0
LINE
  5
40F
100
AcDbEntity
  8
_0-3_躯体と製品
  6
CONTINUOUS
 62
     0
100
AcDbLine
 10
162.6932091939
 20
450.4789159012
 11
183.1595202244
 21
449.4063219899
  0
LINE
  5
410
100
AcDbEntity
  8
_0-3_躯体と製品
  6
CONTINUOUS
 62
     0
100
AcDbLine
 10
184.0502170626
 20
454.8328167658
 11
182.6012196523
 21
452.7955621168
  0
LINE
  5
411
100
AcDbEntity
  8
_0-3_躯体と製品
  6
CONTINUOUS
 62
     0
100
AcDbLine
 10
183.0692994181
 20
454.8339354486
 11
181.9492981646
 21
453.2592412881
  0
LINE
  5
412
100
AcDbEntity
  8
_0-3_躯体と製品
  6
CONTINUOUS
 62
     0
100
AcDbLine
 10
176.1750481613
 20
453.9371466663
 11
175.0017136756
 21
454.7858103414
  0
ARC
  5
413
100
AcDbEntity
  8
_0-3_躯体と製品
  6
CONTINUOUS
 62
     0
100
AcDbCircle
 10
179.3416122139
 20
455.1139579733
 40
3.2
100
AcDbArc
 50
-149.403994629
 51
-35.42234085471
  0
ARC
  5
414
100
AcDbEntity
  8
_0-3_躯体と製品
  6
CONTINUOUS
 62
     0
100
AcDbCircle
 10
175.2959578934
 20
452.7217453741
 40
1.5
100
AcDbArc
 50
30.59600537097
 51
54.12207787282
  0
ARC
  5
415
100
AcDbEntity
  8
_0-3_躯体と製品
  6
CONTINUOUS
 62
     0
100
AcDbCircle
 10
175.2959578934
 20
452.7217453741
 40
0.7
100
AcDbArc
 50
30.59600537095
 51
54.12207787282
  0
ARC
  5
416
100
AcDbEntity
  8
_0-3_躯体と製品
  6
CONTINUOUS
 62
     0
100
AcDbCircle
 10
174.7672896042
 20
454.4617033302
 40
0.4
100
AcDbArc
 50
54.12207787283
 51
234.1220778728
  0
LINE
  5
417
100
AcDbEntity
  8
_0-3_躯体と製品
  6
CONTINUOUS
 62
     0
100
AcDbLine
 10
151.8502170626
 20
450.6328167658
 11
150.8502170626
 21
450.6328167658
  0
LINE
  5
418
100
AcDbEntity
  8
_0-3_躯体と製品
  6
CONTINUOUS
 62
     0
100
AcDbLine
 10
151.8502170626
 20
445.6328167658
 11
150.8502170626
 21
445.6328167658
  0
LINE
  5
419
100
AcDbEntity
  8
_0-4_図枠
  6
CONTINUOUS
 62
     0
100
AcDbLine
 10
235.0502170626
 20
453.1957660522
 11
285.0502170626
 21
453.1957660522
  0
LINE
  5
41A
100
AcDbEntity
  8
_0-4_図枠
  6
CONTINUOUS
 62
     0
100
AcDbLine
 10
285.0502170626
 20
450.575377088
 11
285.0502170626
 21
453.1957660522
  0
LINE
  5
41B
100
AcDbEntity
  8
_0-4_図枠
  6
CONTINUOUS
 62
     0
100
AcDbLine
 10
235.0502170626
 20
453.1957660522
 11
285.0502170626
 21
450.575377088
  0
TEXT
  5
41C
100
AcDbEntity
  8
_0-4_図枠
  6
CONTINUOUS
 62
     0
100
AcDbText
 10
246.5502170626
 20
453.1800430876
 40
5
  1
勾配３度
  7
STANDARD
100
AcDbText
  0
LINE
  5
41D
100
AcDbEntity
  8
_0-3_躯体と製品
  6
CONTINUOUS
 62
     0
100
AcDbLine
 10
165.5502190626
 20
448.1328167658
 11
91.85021706258
 21
448.1328167658
  0
LINE
  5
41E
100
AcDbEntity
  8
_0-3_躯体と製品
  6
CONTINUOUS
 62
     0
100
AcDbLine
 10
153.72749438
 20
498.6328167658
 11
170.5955280626
 21
498.6328167658
  0
ARC
  5
41F
100
AcDbEntity
  8
_0-3_躯体と製品
  6
CONTINUOUS
 62
     0
100
AcDbCircle
 10
156.7215080626
 20
446.6300537658
 40
3
100
AcDbArc
 50
-87.541074
 51
-38.614638
  0
ARC
  5
420
100
AcDbEntity
  8
_0-3_躯体と製品
  6
CONTINUOUS
 62
     0
100
AcDbCircle
 10
154.8502190626
 20
448.1328167658
 40
5.4
100
AcDbArc
 50
-38.682187
 51
0
  0
ARC
  5
421
100
AcDbEntity
  8
_0-3_躯体と製品
  6
CONTINUOUS
 62
     0
100
AcDbCircle
 10
154.8502190626
 20
448.1328167658
 40
5.4
100
AcDbArc
 50
0
 51
38.851062
  0
ARC
  5
422
100
AcDbEntity
  8
_0-3_躯体と製品
  6
CONTINUOUS
 62
     0
100
AcDbCircle
 10
156.7215080626
 20
449.6355767658
 40
3
100
AcDbArc
 50
38.614638
 51
87.541074
  0
LINE
  5
423
100
AcDbEntity
  8
_0-3_躯体と製品
  6
CONTINUOUS
 62
     0
100
AcDbLine
 10
156.8502170626
 20
439.1328167658
 11
156.8502170626
 21
457.1328167658
  0
LINE
  5
424
100
AcDbEntity
  8
_0-3_躯体と製品
  6
CONTINUOUS
 62
     0
100
AcDbLine
 10
156.8502170626
 20
457.1328167658
 11
155.3502170626
 21
457.1328167658
  0
LINE
  5
425
100
AcDbEntity
  8
_0-3_躯体と製品
  6
CONTINUOUS
 62
     0
100
AcDbLine
 10
156.8502170626
 20
439.1328167658
 11
155.3502170626
 21
439.1328167658
  0
CIRCLE
  5
426
100
AcDbEntity
  8
_0-4_図枠
  6
CONTINUOUS
 62
     0
100
AcDbCircle
 10
157.8206295286
 20
480.8702037379
 40
0.9
  0
CIRCLE
  5
427
100
AcDbEntity
  8
_0-4_図枠
  6
CONTINUOUS
 62
     0
100
AcDbCircle
 10
183.0679162007
 20
472.5925095019
 40
0.9
  0
CIRCLE
  5
428
100
AcDbEntity
  8
_0-4_図枠
  6
CONTINUOUS
 62
     0
100
AcDbCircle
 10
182.5711113112
 20
453.5342832929
 40
0.9
  0
CIRCLE
  5
429
100
AcDbEntity
  8
_0-4_図枠
  6
CONTINUOUS
 62
     0
100
AcDbCircle
 10
161.992126836
 20
499.3890461558
 40
0.9
  0
CIRCLE
  5
42A
100
AcDbEntity
  8
_0-4_図枠
  6
CONTINUOUS
 62
     0
100
AcDbCircle
 10
209.462719008
 20
406.9566524648
 40
6
  0
LINE
  5
42B
100
AcDbEntity
  8
_0-4_図枠
  6
CONTINUOUS
 62
     0
100
AcDbLine
 10
182.5711113112
 20
453.5342832929
 11
206.462719008
 21
412.1528048875
  0
CIRCLE
  5
42C
100
AcDbEntity
  8
_0-4_図枠
  6
CONTINUOUS
 62
     0
100
AcDbCircle
 10
207.536772587
 20
514.9738119661
 40
6
  0
LINE
  5
42D
100
AcDbEntity
  8
_0-4_図枠
  6
CONTINUOUS
 62
     0
100
AcDbLine
 10
183.0679162007
 20
472.5925095019
 11
204.536772587
 21
509.7776595434
  0
CIRCLE
  5
42E
100
AcDbEntity
  8
_0-4_図枠
  6
CONTINUOUS
 62
     0
100
AcDbCircle
 10
139.1821106182
 20
538.8971531665
 40
6
  0
LINE
  5
42F
100
AcDbEntity
  8
_0-4_図枠
  6
CONTINUOUS
 62
     0
100
AcDbLine
 10
161.992126836
 20
499.3890461558
 11
142.1821106182
 21
533.7010007437
  0
CIRCLE
  5
430
100
AcDbEntity
  8
_0-4_図枠
  6
CONTINUOUS
 62
     0
100
AcDbCircle
 10
136.7015142859
 20
517.4495843492
 40
6
  0
LINE
  5
431
100
AcDbEntity
  8
_0-4_図枠
  6
CONTINUOUS
 62
     0
100
AcDbLine
 10
157.8206295286
 20
480.8702037379
 11
139.7015142859
 21
512.2534319264
  0
CIRCLE
  5
432
100
AcDbEntity
  8
_0-4_図枠
  6
CONTINUOUS
 62
     0
100
AcDbCircle
 10
158.2132209068
 20
450.0520511703
 40
0.9
  0
CIRCLE
  5
433
100
AcDbEntity
  8
_0-4_図枠
  6
CONTINUOUS
 62
     0
100
AcDbCircle
 10
118.9165774197
 20
451.0343885866
 40
0.9
  0
LINE
  5
434
100
AcDbEntity
  8
_0-4_図枠
  6
CONTINUOUS
 62
     0
100
AcDbLine
 10
118.9165774197
 20
451.0343885866
 11
109.4184533127
 21
467.4856221166
  0
CIRCLE
  5
435
100
AcDbEntity
  8
_0-4_図枠
  6
CONTINUOUS
 62
     0
100
AcDbCircle
 10
106.4184533127
 20
472.6817745393
 40
6
  0
CIRCLE
  5
436
100
AcDbEntity
  8
_0-4_図枠
  6
CONTINUOUS
 62
     0
100
AcDbCircle
 10
134.484757325
 20
473.7805147521
 40
6
  0
LINE
  5
437
100
AcDbEntity
  8
_0-4_図枠
  6
CONTINUOUS
 62
     0
100
AcDbLine
 10
158.2132209068
 20
450.0520511703
 11
138.7273980121
 21
469.537874065
  0
CIRCLE
  5
438
100
AcDbEntity
  8
_0-4_図枠
  6
CONTINUOUS
 62
     0
100
AcDbCircle
 10
156.1340199504
 20
441.5164885376
 40
0.9
  0
LINE
  5
439
100
AcDbEntity
  8
_0-4_図枠
  6
CONTINUOUS
 62
     0
100
AcDbLine
 10
156.1340199504
 20
441.5164885376
 11
140.9043698754
 21
432.7236459671
  0
CIRCLE
  5
43A
100
AcDbEntity
  8
_0-4_図枠
  6
CONTINUOUS
 62
     0
100
AcDbCircle
 10
135.7082174527
 20
429.7236459671
 40
6
  0
CIRCLE
  5
43B
100
AcDbEntity
  8
_0-4_図枠
  6
CONTINUOUS
 62
     0
100
AcDbCircle
 10
178.3713599419
 20
491.2697011414
 40
0.9
  0
LINE
  5
43C
100
AcDbEntity
  8
_0-4_図枠
  6
CONTINUOUS
 62
     0
100
AcDbLine
 10
178.3713599419
 20
491.2697011414
 11
196.6081814467
 21
522.8568025563
  0
CIRCLE
  5
43D
100
AcDbEntity
  8
_0-4_図枠
  6
CONTINUOUS
 62
     0
100
AcDbCircle
 10
199.6081814467
 20
528.052954979
 40
6
  0
LINE
  5
43E
100
AcDbEntity
  8
_0-3_躯体と製品
  6
CONTINUOUS
 62
     0
100
AcDbLine
 10
150.8502170626
 20
506.8328167658
 11
175.8502170626
 21
506.8328167658
  0
LINE
  5
43F
100
AcDbEntity
  8
_0-3_躯体と製品
  6
CONTINUOUS
 62
     0
100
AcDbLine
 10
168.0502170626
 20
506.8328167658
 11
166.0502170626
 21
506.8328167658
  0
ARC
  5
440
100
AcDbEntity
  8
_0-3_躯体と製品
  6
CONTINUOUS
 62
     0
100
AcDbCircle
 10
168.0502170626
 20
505.8328167658
 40
1
100
AcDbArc
 50
0
 51
90
  0
LINE
  5
441
100
AcDbEntity
  8
_0-3_躯体と製品
  6
CONTINUOUS
 62
     0
100
AcDbLine
 10
169.0502170626
 20
492.8328167658
 11
169.0502170626
 21
505.8328167658
  0
ARC
  5
442
100
AcDbEntity
  8
_0-3_躯体と製品
  6
CONTINUOUS
 62
     0
100
AcDbCircle
 10
166.0502170626
 20
505.8328167658
 40
1
100
AcDbArc
 50
90
 51
180
  0
LINE
  5
443
100
AcDbEntity
  8
_0-3_躯体と製品
  6
CONTINUOUS
 62
     0
100
AcDbLine
 10
165.0502170626
 20
502.1328167658
 11
165.0502170626
 21
505.8328167658
  0
LINE
  5
444
100
AcDbEntity
  8
_0-3_躯体と製品
  6
CONTINUOUS
 62
     0
100
AcDbLine
 10
151.8502170626
 20
491.8328167658
 11
150.8502170626
 21
491.8328167658
  0
LINE
  5
445
100
AcDbEntity
  8
_0-3_躯体と製品
  6
CONTINUOUS
 62
     0
100
AcDbLine
 10
151.8502170626
 20
461.8328167658
 11
151.8502170626
 21
491.8328167658
  0
LINE
  5
446
100
AcDbEntity
  8
_0-3_躯体と製品
  6
CONTINUOUS
 62
     0
100
AcDbLine
 10
150.8502170626
 20
461.8328167658
 11
151.8502170626
 21
461.8328167658
  0
LINE
  5
447
100
AcDbEntity
  8
_0-3_躯体と製品
  6
CONTINUOUS
 62
     0
100
AcDbLine
 10
150.8502170626
 20
491.8328167658
 11
150.8502170626
 21
461.8328167658
  0
LINE
  5
448
100
AcDbEntity
  8
_0-3_躯体と製品
  6
CONTINUOUS
 62
     0
100
AcDbLine
 10
150.8502170626
 20
463.1722795646
 11
151.8502170626
 21
462.1722795646
  0
LINE
  5
449
100
AcDbEntity
  8
_0-3_躯体と製品
  6
CONTINUOUS
 62
     0
100
AcDbLine
 10
150.8502170626
 20
464.5864931269
 11
151.8502170626
 21
463.5864931269
  0
LINE
  5
44A
100
AcDbEntity
  8
_0-3_躯体と製品
  6
CONTINUOUS
 62
     0
100
AcDbLine
 10
150.8502170626
 20
466.0007066893
 11
151.8502170626
 21
465.0007066893
  0
LINE
  5
44B
100
AcDbEntity
  8
_0-3_躯体と製品
  6
CONTINUOUS
 62
     0
100
AcDbLine
 10
150.8502170626
 20
467.4149202517
 11
151.8502170626
 21
466.4149202517
  0
LINE
  5
44C
100
AcDbEntity
  8
_0-3_躯体と製品
  6
CONTINUOUS
 62
     0
100
AcDbLine
 10
150.8502170626
 20
468.829133814
 11
151.8502170626
 21
467.829133814
  0
LINE
  5
44D
100
AcDbEntity
  8
_0-3_躯体と製品
  6
CONTINUOUS
 62
     0
100
AcDbLine
 10
150.8502170626
 20
470.2433473764
 11
151.8502170626
 21
469.2433473764
  0
LINE
  5
44E
100
AcDbEntity
  8
_0-3_躯体と製品
  6
CONTINUOUS
 62
     0
100
AcDbLine
 10
150.8502170626
 20
471.6575609388
 11
151.8502170626
 21
470.6575609388
  0
LINE
  5
44F
100
AcDbEntity
  8
_0-3_躯体と製品
  6
CONTINUOUS
 62
     0
100
AcDbLine
 10
150.8502170626
 20
473.0717745012
 11
151.8502170626
 21
472.0717745012
  0
LINE
  5
450
100
AcDbEntity
  8
_0-3_躯体と製品
  6
CONTINUOUS
 62
     0
100
AcDbLine
 10
150.8502170626
 20
474.4859880635
 11
151.8502170626
 21
473.4859880635
  0
LINE
  5
451
100
AcDbEntity
  8
_0-3_躯体と製品
  6
CONTINUOUS
 62
     0
100
AcDbLine
 10
150.8502170626
 20
475.9002016259
 11
151.8502170626
 21
474.9002016259
  0
LINE
  5
452
100
AcDbEntity
  8
_0-3_躯体と製品
  6
CONTINUOUS
 62
     0
100
AcDbLine
 10
150.8502170626
 20
477.3144151883
 11
151.8502170626
 21
476.3144151883
  0
LINE
  5
453
100
AcDbEntity
  8
_0-3_躯体と製品
  6
CONTINUOUS
 62
     0
100
AcDbLine
 10
150.8502170626
 20
478.7286287507
 11
151.8502170626
 21
477.7286287507
  0
LINE
  5
454
100
AcDbEntity
  8
_0-3_躯体と製品
  6
CONTINUOUS
 62
     0
100
AcDbLine
 10
150.8502170626
 20
480.142842313
 11
151.8502170626
 21
479.142842313
  0
LINE
  5
455
100
AcDbEntity
  8
_0-3_躯体と製品
  6
CONTINUOUS
 62
     0
100
AcDbLine
 10
150.8502170626
 20
481.5570558754
 11
151.8502170626
 21
480.5570558754
  0
LINE
  5
456
100
AcDbEntity
  8
_0-3_躯体と製品
  6
CONTINUOUS
 62
     0
100
AcDbLine
 10
150.8502170626
 20
482.9712694378
 11
151.8502170626
 21
481.9712694378
  0
LINE
  5
457
100
AcDbEntity
  8
_0-3_躯体と製品
  6
CONTINUOUS
 62
     0
100
AcDbLine
 10
150.8502170626
 20
484.3854830002
 11
151.8502170626
 21
483.3854830002
  0
LINE
  5
458
100
AcDbEntity
  8
_0-3_躯体と製品
  6
CONTINUOUS
 62
     0
100
AcDbLine
 10
150.8502170626
 20
485.7996965625
 11
151.8502170626
 21
484.7996965625
  0
LINE
  5
459
100
AcDbEntity
  8
_0-3_躯体と製品
  6
CONTINUOUS
 62
     0
100
AcDbLine
 10
150.8502170626
 20
487.2139101249
 11
151.8502170626
 21
486.2139101249
  0
LINE
  5
45A
100
AcDbEntity
  8
_0-3_躯体と製品
  6
CONTINUOUS
 62
     0
100
AcDbLine
 10
150.8502170626
 20
488.6281236873
 11
151.8502170626
 21
487.6281236873
  0
LINE
  5
45B
100
AcDbEntity
  8
_0-3_躯体と製品
  6
CONTINUOUS
 62
     0
100
AcDbLine
 10
150.8502170626
 20
490.0423372496
 11
151.8502170626
 21
489.0423372496
  0
LINE
  5
45C
100
AcDbEntity
  8
_0-3_躯体と製品
  6
CONTINUOUS
 62
     0
100
AcDbLine
 10
150.8502170626
 20
491.456550812
 11
151.8502170626
 21
490.456550812
  0
LINE
  5
45D
100
AcDbEntity
  8
_0-3_躯体と製品
  6
CONTINUOUS
 62
     0
100
AcDbLine
 10
151.8502170626
 20
491.8328167658
 11
152.8502170626
 21
491.8328167658
  0
LINE
  5
45E
100
AcDbEntity
  8
_0-3_躯体と製品
  6
CONTINUOUS
 62
     0
100
AcDbLine
 10
152.8502170626
 20
415.6328167658
 11
152.8502170626
 21
491.8328167658
  0
LINE
  5
45F
100
AcDbEntity
  8
_0-3_躯体と製品
  6
CONTINUOUS
 62
     0
100
AcDbLine
 10
175.8502170626
 20
571.8328167658
 11
175.8502170626
 21
506.8328167658
  0
LINE
  5
460
100
AcDbEntity
  8
_0-3_躯体と製品
  6
CONTINUOUS
 62
     0
100
AcDbLine
 10
165.1906070164
 20
506.3437674174
 11
166.459261081
 21
501.560790976
  0
LINE
  5
461
100
AcDbEntity
  8
_0-3_躯体と製品
  6
CONTINUOUS
 62
     0
100
AcDbLine
 10
167.5156365691
 20
497.5781299705
 11
168.9098271088
 21
492.3218661141
  0
LINE
  5
462
100
AcDbEntity
  8
_0-3_躯体と製品
  6
CONTINUOUS
 62
     0
100
AcDbLine
 10
169.0502170626
 20
505.4417704687
 11
170.4412633597
 21
506.8328167658
  0
LINE
  5
463
100
AcDbEntity
  8
_0-3_躯体と製品
  6
CONTINUOUS
 62
     0
100
AcDbLine
 10
169.0502170626
 20
502.6133433439
 11
173.2696904844
 21
506.8328167658
  0
LINE
  5
464
100
AcDbEntity
  8
_0-3_躯体と製品
  6
CONTINUOUS
 62
     0
100
AcDbLine
 10
169.0502170626
 20
499.7849162192
 11
175.7608561305
 21
506.4955552871
  0
LINE
  5
465
100
AcDbEntity
  8
_0-3_躯体と製品
  6
CONTINUOUS
 62
     0
100
AcDbLine
 10
169.0502170626
 20
496.9564890944
 11
175.0849614827
 21
502.9912335145
  0
LINE
  5
466
100
AcDbEntity
  8
_0-3_躯体と製品
  6
CONTINUOUS
 62
     0
100
AcDbLine
 10
169.0502170626
 20
494.1280619697
 11
174.8565388586
 21
499.9343837657
  0
LINE
  5
467
100
AcDbEntity
  8
_0-3_躯体と製品
  6
CONTINUOUS
 62
     0
100
AcDbLine
 10
169.5833989834
 20
491.8328167658
 11
174.9312365768
 21
497.1806543591
  0
LINE
  5
468
100
AcDbEntity
  8
_0-3_躯体と製品
  6
CONTINUOUS
 62
     0
100
AcDbLine
 10
172.4118261082
 20
491.8328167658
 11
175.2348775288
 21
494.6558681864
  0
ARC
  5
469
100
AcDbEntity
  8
_0-3_躯体と製品
  6
CONTINUOUS
 62
     0
100
AcDbCircle
 10
203.4752170626
 20
499.3328167658
 40
28.625
100
AcDbArc
 50
164.8107132628
 51
195.1892867372
  0
LINE
  5
46A
100
AcDbEntity
  8
_0-2_寸法
  6
CONTINUOUS
 62
     0
100
AcDbLine
 10
166.8502170626
 20
465.7631148693
 11
166.8502170626
 21
484.8328167658
  0
CIRCLE
  5
46B
100
AcDbEntity
  8
_0-2_寸法
  6
CONTINUOUS
 62
     0
100
AcDbCircle
 10
166.8502170626
 20
465.7631148693
 40
1.4
  0
LINE
  5
46C
100
AcDbEntity
  8
_0-2_寸法
  6
CONTINUOUS
 62
     0
100
AcDbLine
 10
151.8502170626
 20
493.8328167658
 11
151.8502170626
 21
556.8328167658
  0
CIRCLE
  5
46D
100
AcDbEntity
  8
_0-2_寸法
  6
CONTINUOUS
 62
     0
100
AcDbCircle
 10
151.8502170626
 20
493.8328167658
 40
1.4
  0
LINE
  5
46E
100
AcDbEntity
  8
_0-2_寸法
  6
CONTINUOUS
 62
     0
100
AcDbLine
 10
148.8502170626
 20
506.8328167658
 11
75.85021706258
 21
506.8328167658
  0
TEXT
  5
46F
100
AcDbEntity
  8
_0-2_寸法
  6
CONTINUOUS
 62
     0
100
AcDbText
 10
74.85021706258
 20
442.8562139008
 40
5
  1
E
 50
90
  7
STANDARD
100
AcDbText
  0
CIRCLE
  5
470
100
AcDbEntity
  8
_0-2_寸法
  6
CONTINUOUS
 62
     0
100
AcDbCircle
 10
148.8502170626
 20
506.8328167658
 40
1.4
  0
TEXT
  5
471
100
AcDbEntity
  8
_0-2_寸法
  6
CONTINUOUS
 62
     0
100
AcDbText
 10
94.85021706258
 20
413.5062139008
 40
5
  1
D
 50
90
  7
STANDARD
100
AcDbText
  0
CIRCLE
  5
472
100
AcDbEntity
  8
_0-2_寸法
  6
CONTINUOUS
 62
     0
100
AcDbCircle
 10
95.85021706258
 20
448.1328167658
 40
1.4
  0
CIRCLE
  5
473
100
AcDbEntity
  8
_0-2_寸法
  6
CONTINUOUS
 62
     0
100
AcDbCircle
 10
95.85021706258
 20
448.1328167658
 40
1.4
  0
LINE
  5
474
100
AcDbEntity
  8
_0-2_寸法
  6
CONTINUOUS
 62
     0
100
AcDbLine
 10
187.0502170626
 20
491.8328167658
 11
220.0502170626
 21
491.8328167658
  0
LINE
  5
475
100
AcDbEntity
  8
_0-2_寸法
  6
CONTINUOUS
 62
     0
100
AcDbLine
 10
187.0502170626
 20
455.8328167658
 11
220.0502170626
 21
455.8328167658
  0
LINE
  5
476
100
AcDbEntity
  8
_0-2_寸法
  6
CONTINUOUS
 62
     0
100
AcDbLine
 10
220.0502170626
 20
490.8328167658
 11
220.0502170626
 21
456.8328167658
  0
TEXT
  5
477
100
AcDbEntity
  8
_0-2_寸法
  6
CONTINUOUS
 62
     0
100
AcDbText
 10
219.0502170626
 20
471.3328167658
 40
5
  1
36
 50
90
  7
STANDARD
100
AcDbText
  0
CIRCLE
  5
478
100
AcDbEntity
  8
_0-2_寸法
  6
CONTINUOUS
 62
     0
100
AcDbCircle
 10
187.0502170626
 20
491.8328167658
 40
1.4
  0
CIRCLE
  5
479
100
AcDbEntity
  8
_0-2_寸法
  6
CONTINUOUS
 62
     0
100
AcDbCircle
 10
187.0502170626
 20
455.8328167658
 40
1.4
  0
CIRCLE
  5
47A
100
AcDbEntity
  8
_0-2_寸法
  6
CONTINUOUS
 62
     0
100
AcDbCircle
 10
220.0502170626
 20
455.8328167658
 40
1.4
  0
LINE
  5
47B
100
AcDbEntity
  8
_0-2_寸法
  6
CONTINUOUS
 62
     0
100
AcDbLine
 10
177.8502170626
 20
506.8328167658
 11
220.0502170626
 21
506.8328167658
  0
LINE
  5
47C
100
AcDbEntity
  8
_0-2_寸法
  6
CONTINUOUS
 62
     0
100
AcDbLine
 10
187.0502170626
 20
491.8328167658
 11
220.0502170626
 21
491.8328167658
  0
LINE
  5
47D
100
AcDbEntity
  8
_0-2_寸法
  6
CONTINUOUS
 62
     0
100
AcDbLine
 10
220.0502170626
 20
505.8328167658
 11
220.0502170626
 21
492.8328167658
  0
TEXT
  5
47E
100
AcDbEntity
  8
_0-2_寸法
  6
CONTINUOUS
 62
     0
100
AcDbText
 10
219.0502170626
 20
496.8328167658
 40
5
  1
15
 50
90
  7
STANDARD
100
AcDbText
  0
CIRCLE
  5
47F
100
AcDbEntity
  8
_0-2_寸法
  6
CONTINUOUS
 62
     0
100
AcDbCircle
 10
177.8502170626
 20
506.8328167658
 40
1.4
  0
CIRCLE
  5
480
100
AcDbEntity
  8
_0-2_寸法
  6
CONTINUOUS
 62
     0
100
AcDbCircle
 10
187.0502170626
 20
491.8328167658
 40
1.4
  0
CIRCLE
  5
481
100
AcDbEntity
  8
_0-2_寸法
  6
CONTINUOUS
 62
     0
100
AcDbCircle
 10
220.0502170626
 20
491.8328167658
 40
1.4
  0
LINE
  5
482
100
AcDbEntity
  8
_0-2_寸法
  6
CONTINUOUS
 62
     0
100
AcDbLine
 10
165.0502170626
 20
508.8328167658
 11
165.0502170626
 21
531.8328167658
  0
LINE
  5
483
100
AcDbEntity
  8
_0-2_寸法
  6
CONTINUOUS
 62
     0
100
AcDbLine
 10
185.0502170626
 20
494.2860224957
 11
185.0502170626
 21
531.8328167658
  0
LINE
  5
484
100
AcDbEntity
  8
_0-2_寸法
  6
CONTINUOUS
 62
     0
100
AcDbLine
 10
166.0502170626
 20
531.8328167658
 11
184.0502170626
 21
531.8328167658
  0
TEXT
  5
485
100
AcDbEntity
  8
_0-2_寸法
  6
CONTINUOUS
 62
     0
100
AcDbText
 10
172.5502170626
 20
532.8328167658
 40
5
  1
20
  7
STANDARD
100
AcDbText
  0
CIRCLE
  5
486
100
AcDbEntity
  8
_0-2_寸法
  6
CONTINUOUS
 62
     0
100
AcDbCircle
 10
165.0502170626
 20
508.8328167658
 40
1.4
  0
CIRCLE
  5
487
100
AcDbEntity
  8
_0-2_寸法
  6
CONTINUOUS
 62
     0
100
AcDbCircle
 10
185.0502170626
 20
494.2860224957
 40
1.4
  0
CIRCLE
  5
488
100
AcDbEntity
  8
_0-2_寸法
  6
CONTINUOUS
 62
     0
100
AcDbCircle
 10
185.0502170626
 20
531.8328167658
 40
1.4
  0
LINE
  5
489
100
AcDbEntity
  8
_0-2_寸法
  6
CONTINUOUS
 62
     0
100
AcDbLine
 10
151.8502170626
 20
493.8328167658
 11
151.8502170626
 21
541.8328167658
  0
LINE
  5
48A
100
AcDbEntity
  8
_0-2_寸法
  6
CONTINUOUS
 62
     0
100
AcDbLine
 10
185.0502170626
 20
494.2860224957
 11
185.0502170626
 21
541.8328167658
  0
LINE
  5
48B
100
AcDbEntity
  8
_0-2_寸法
  6
CONTINUOUS
 62
     0
100
AcDbLine
 10
152.8502170626
 20
541.8328167658
 11
184.0502170626
 21
541.8328167658
  0
TEXT
  5
48C
100
AcDbEntity
  8
_0-2_寸法
  6
CONTINUOUS
 62
     0
100
AcDbText
 10
163.4502170626
 20
542.8328167658
 40
5
  1
33.2
  7
STANDARD
100
AcDbText
  0
CIRCLE
  5
48D
100
AcDbEntity
  8
_0-2_寸法
  6
CONTINUOUS
 62
     0
100
AcDbCircle
 10
151.8502170626
 20
493.8328167658
 40
1.4
  0
CIRCLE
  5
48E
100
AcDbEntity
  8
_0-2_寸法
  6
CONTINUOUS
 62
     0
100
AcDbCircle
 10
185.0502170626
 20
494.2860224957
 40
1.4
  0
CIRCLE
  5
48F
100
AcDbEntity
  8
_0-2_寸法
  6
CONTINUOUS
 62
     0
100
AcDbCircle
 10
185.0502170626
 20
541.8328167658
 40
1.4
  0
LINE
  5
490
100
AcDbEntity
  8
_0-0_0
  6
CONTINUOUS
 62
     0
100
AcDbLine
 10
311.7815987087
 20
419.707295756
 11
311.6873939875
 21
417.9097625935
  0
LINE
  5
491
100
AcDbEntity
  8
_0-2_寸法
  6
CONTINUOUS
 62
     0
100
AcDbLine
 10
726.8502170626
 20
465.7631148693
 11
726.8502170626
 21
484.8328167658
  0
LINE
  5
492
100
AcDbEntity
  8
_0-2_寸法
  6
CONTINUOUS
 62
     0
100
AcDbLine
 10
167.8502170626
 20
484.8328167658
 11
725.8502170626
 21
484.8328167658
  0
CIRCLE
  5
493
100
AcDbEntity
  8
_0-2_寸法
  6
CONTINUOUS
 62
     0
100
AcDbCircle
 10
726.8502170626
 20
484.8328167658
 40
1.4
  0
LINE
  5
494
100
AcDbEntity
  8
_0-2_寸法
  6
CONTINUOUS
 62
     0
100
AcDbLine
 10
726.8502170626
 20
430.9657308812
 11
726.8502170626
 21
556.8328167658
  0
LINE
  5
495
100
AcDbEntity
  8
_0-2_寸法
  6
CONTINUOUS
 62
     0
100
AcDbLine
 10
152.8502170626
 20
556.8328167658
 11
725.8502170626
 21
556.8328167658
  0
CIRCLE
  5
496
100
AcDbEntity
  8
_0-2_寸法
  6
CONTINUOUS
 62
     0
100
AcDbCircle
 10
726.8502170626
 20
556.8328167658
 40
1.4
  0
LINE
  5
497
100
AcDbEntity
  8
_0-2_寸法
  6
CONTINUOUS
 62
     0
100
AcDbLine
 10
728.8502170626
 20
422.4147584708
 11
786.8502170626
 21
422.4147584708
  0
LINE
  5
498
100
AcDbEntity
  8
_0-3_躯体と製品
  6
CONTINUOUS
 62
     0
100
AcDbLine
 10
696.330939873
 20
397.7514485381
 11
181.8654213187
 21
424.7134438832
  0
LINE
  5
499
100
AcDbEntity
  8
_0-3_躯体と製品
  6
CONTINUOUS
 62
     0
100
AcDbLine
 10
696.4251445943
 20
399.5489817006
 11
181.95962604
 21
426.5109770458
  0
LINE
  5
49A
100
AcDbEntity
  8
_0-3_躯体と製品
  6
CONTINUOUS
 62
     0
100
AcDbLine
 10
696.0169241356
 20
391.7596713295
 11
697.4823309104
 21
419.7212983027
  0
LINE
  5
49B
100
AcDbEntity
  8
_0-3_躯体と製品
  6
CONTINUOUS
 62
     0
100
AcDbLine
 10
696.0169241356
 20
391.7596713295
 11
181.5514055813
 21
418.7216666747
  0
LINE
  5
49C
100
AcDbEntity
  8
_0-3_躯体と製品
  6
CONTINUOUS
 62
     0
100
AcDbLine
 10
683.0428565097
 20
420.47803909
 11
682.5283680236
 21
420.9925275761
  0
LINE
  5
49D
100
AcDbEntity
  8
_0-3_躯体と製品
  6
CONTINUOUS
 62
     0
100
AcDbLine
 10
691.1546163524
 20
394.5179249476
 11
696.1477640262
 21
394.2562451664
  0
LINE
  5
49E
100
AcDbEntity
  8
_0-3_躯体と製品
  6
CONTINUOUS
 62
     0
100
AcDbLine
 10
691.2069523086
 20
395.5165544824
 11
691.1546163524
 21
394.5179249476
  0
LINE
  5
49F
100
AcDbEntity
  8
_0-3_躯体と製品
  6
CONTINUOUS
 62
     0
100
AcDbLine
 10
671.2343616136
 20
396.5632736073
 11
691.2069523086
 21
395.5165544824
  0
LINE
  5
4A0
100
AcDbEntity
  8
_0-3_躯体と製品
  6
CONTINUOUS
 62
     0
100
AcDbLine
 10
671.2343616136
 20
396.5632736073
 11
671.1820256573
 21
395.5646440725
  0
LINE
  5
4A1
100
AcDbEntity
  8
_0-3_躯体と製品
  6
CONTINUOUS
 62
     0
100
AcDbLine
 10
667.6868222857
 20
395.7478199194
 11
671.1820256573
 21
395.5646440725
  0
ARC
  5
4A2
100
AcDbEntity
  8
_0-3_躯体と製品
  6
CONTINUOUS
 62
     0
100
AcDbCircle
 10
667.76532622
 20
397.2457642215
 40
1.5
100
AcDbArc
 50
86.99999999999
 51
267
  0
LINE
  5
4A3
100
AcDbEntity
  8
_0-3_躯体と製品
  6
CONTINUOUS
 62
     0
100
AcDbLine
 10
667.8438301544
 20
398.7437085236
 11
696.3047718949
 21
397.2521337707
  0
LINE
  5
4A4
100
AcDbEntity
  8
_0-3_躯体と製品
  6
CONTINUOUS
 62
     0
100
AcDbLine
 10
706.2811185563
 20
393.1375491443
 11
705.6979260133
 21
390.6114647146
  0
LINE
  5
4A5
100
AcDbEntity
  8
_0-3_躯体と製品
  6
CONTINUOUS
 62
     0
100
AcDbLine
 10
698.1450230957
 20
394.1515732539
 11
705.820101502
 21
393.7493394388
  0
LINE
  5
4A6
100
AcDbEntity
  8
_0-3_躯体と製品
  6
CONTINUOUS
 62
     0
100
AcDbLine
 10
709.0607350102
 20
393.5795050332
 11
707.8833885781
 21
393.6412071452
  0
LINE
  5
4A7
100
AcDbEntity
  8
_0-3_躯体と製品
  6
CONTINUOUS
 62
     0
100
AcDbLine
 10
707.5753767718
 20
393.409103601
 11
706.8671700911
 21
390.3415234494
  0
ARC
  5
4A8
100
AcDbEntity
  8
_0-3_躯体と製品
  6
CONTINUOUS
 62
     0
100
AcDbCircle
 10
698.1188551176
 20
393.6522584866
 40
0.5
100
AcDbArc
 50
86.99999999999
 51
177
  0
LINE
  5
4A9
100
AcDbEntity
  8
_0-3_躯体と製品
  6
CONTINUOUS
 62
     0
100
AcDbLine
 10
697.6195403502
 20
393.6784264647
 11
697.5672043939
 21
392.6797969299
  0
ARC
  5
4AA
100
AcDbEntity
  8
_0-3_躯体と製品
  6
CONTINUOUS
 62
     0
100
AcDbCircle
 10
698.3281989425
 20
397.6467766256
 40
0.5
100
AcDbArc
 50
177
 51
267
  0
LINE
  5
4AB
100
AcDbEntity
  8
_0-3_躯体と製品
  6
CONTINUOUS
 62
     0
100
AcDbLine
 10
698.3020309644
 20
397.1474618582
 11
709.9840182719
 21
396.5352348458
  0
LINE
  5
4AC
100
AcDbEntity
  8
_0-3_躯体と製品
  6
CONTINUOUS
 62
     0
100
AcDbLine
 10
697.8288841752
 20
397.6729446037
 11
697.9335560876
 21
399.6702036732
  0
LINE
  5
4AD
100
AcDbEntity
  8
_0-3_躯体と製品
  6
CONTINUOUS
 62
     0
100
AcDbLine
 10
719.3324804524
 20
345.9147584708
 11
714.9499290307
 21
345.9147584708
  0
LINE
  5
4AE
100
AcDbEntity
  8
_0-3_躯体と製品
  6
CONTINUOUS
 62
     0
100
AcDbLine
 10
709.9865466547
 20
392.7887871893
 11
719.8215542528
 21
346.5187143162
  0
LINE
  5
4AF
100
AcDbEntity
  8
_0-3_躯体と製品
  6
CONTINUOUS
 62
     0
100
AcDbLine
 10
712.7614532054
 20
394.163081314
 11
724.7174033087
 21
337.9147584708
  0
ARC
  5
4B0
100
AcDbEntity
  8
_0-3_躯体と製品
  6
CONTINUOUS
 62
     0
100
AcDbCircle
 10
697.4342413203
 20
399.6963716513
 40
0.5
100
AcDbArc
 50
-3.000000000005
 51
86.99999999999
  0
LINE
  5
4B1
100
AcDbEntity
  8
_0-3_躯体と製品
  6
CONTINUOUS
 62
     0
100
AcDbLine
 10
697.4604092984
 20
400.1956864187
 11
696.961094531
 21
400.2218543968
  0
ARC
  5
4B2
100
AcDbEntity
  8
_0-3_躯体と製品
  6
CONTINUOUS
 62
     0
100
AcDbCircle
 10
696.9349265529
 20
399.7225396295
 40
0.5
100
AcDbArc
 50
86.99999999999
 51
177
  0
ARC
  5
4B3
100
AcDbEntity
  8
_0-3_躯体と製品
  6
CONTINUOUS
 62
     0
100
AcDbCircle
 10
709.8270104032
 20
393.5393462415
 40
3
100
AcDbArc
 50
12
 51
86.99999999999
  0
ARC
  5
4B4
100
AcDbEntity
  8
_0-3_躯体と製品
  6
CONTINUOUS
 62
     0
100
AcDbCircle
 10
709.008399054
 20
392.5808754985
 40
1
100
AcDbArc
 50
12
 51
86.99999999999
  0
ARC
  5
4B5
100
AcDbEntity
  8
_0-3_躯体と製品
  6
CONTINUOUS
 62
     0
100
AcDbCircle
 10
697.0678896266
 20
392.7059649081
 40
0.5
100
AcDbArc
 50
-93.00000000001
 51
-3.000000000005
  0
LINE
  5
4B6
100
AcDbEntity
  8
_0-3_躯体と製品
  6
CONTINUOUS
 62
     0
100
AcDbLine
 10
697.0417216484
 20
392.2066501407
 11
696.5424068811
 21
392.2328181188
  0
ARC
  5
4B7
100
AcDbEntity
  8
_0-3_躯体と製品
  6
CONTINUOUS
 62
     0
100
AcDbCircle
 10
696.5685748592
 20
392.7321328862
 40
0.5
100
AcDbArc
 50
177
 51
267
  0
ARC
  5
4B8
100
AcDbEntity
  8
_0-3_躯体と製品
  6
CONTINUOUS
 62
     0
100
AcDbCircle
 10
719.8001048881
 20
344.2147584708
 40
0.5
100
AcDbArc
 50
11.99999999999
 51
90
  0
LINE
  5
4B9
100
AcDbEntity
  8
_0-3_躯体と製品
  6
CONTINUOUS
 62
     0
100
AcDbLine
 10
720.2891786885
 20
344.3187143162
 11
721.7174033087
 21
337.599445765
  0
LINE
  5
4BA
100
AcDbEntity
  8
_0-3_躯体と製品
  6
CONTINUOUS
 62
     0
100
AcDbLine
 10
719.8001048881
 20
344.7147584708
 11
710.5499290307
 21
344.7147584708
  0
ARC
  5
4BB
100
AcDbEntity
  8
_0-3_躯体と製品
  6
CONTINUOUS
 62
     0
100
AcDbCircle
 10
719.3324804524
 20
346.4147584708
 40
0.5
100
AcDbArc
 50
-90
 51
11.99999999999
  0
LINE
  5
4BC
100
AcDbEntity
  8
_0-3_躯体と製品
  6
CONTINUOUS
 62
     0
100
AcDbLine
 10
710.5499290307
 20
345.9147584708
 11
712.9499290307
 21
345.9147584708
  0
LINE
  5
4BD
100
AcDbEntity
  8
_0-3_躯体と製品
  6
CONTINUOUS
 62
     0
100
AcDbLine
 10
714.9499290307
 20
346.9147584708
 11
712.9499290307
 21
345.9147584708
  0
LINE
  5
4BE
100
AcDbEntity
  8
_0-3_躯体と製品
  6
CONTINUOUS
 62
     0
100
AcDbLine
 10
714.9499290307
 20
345.9147584708
 11
714.9499290307
 21
346.9147584708
  0
ARC
  5
4BF
100
AcDbEntity
  8
_0-3_躯体と製品
  6
CONTINUOUS
 62
     0
100
AcDbCircle
 10
722.2174033087
 20
336.4147584708
 40
2.5
100
AcDbArc
 50
-90
 51
0
  0
LINE
  5
4C0
100
AcDbEntity
  8
_0-3_躯体と製品
  6
CONTINUOUS
 62
     0
100
AcDbLine
 10
722.2174033087
 20
333.9147584708
 11
721.7174033087
 21
333.9147584708
  0
LINE
  5
4C1
100
AcDbEntity
  8
_0-3_躯体と製品
  6
CONTINUOUS
 62
     0
100
AcDbLine
 10
724.7174033087
 20
336.4147584708
 11
724.7174033087
 21
337.9147584708
  0
LINE
  5
4C2
100
AcDbEntity
  8
_0-3_躯体と製品
  6
CONTINUOUS
 62
     0
100
AcDbLine
 10
721.7174033087
 20
337.599445765
 11
721.7174033087
 21
333.9147584708
  0
ARC
  5
4C3
100
AcDbEntity
  8
_0-3_躯体と製品
  6
CONTINUOUS
 62
     0
100
AcDbCircle
 10
710.5499290307
 20
345.3147584708
 40
0.6
100
AcDbArc
 50
90
 51
270
  0
ARC
  5
4C4
100
AcDbEntity
  8
_0-3_躯体と製品
  6
CONTINUOUS
 62
     0
100
AcDbCircle
 10
707.8676877913
 20
393.3416182847
 40
0.3
100
AcDbArc
 50
86.99999999999
 51
167
  0
ARC
  5
4C5
100
AcDbEntity
  8
_0-3_躯体と製品
  6
CONTINUOUS
 62
     0
100
AcDbCircle
 10
705.7939335239
 20
393.2500246715
 40
0.5
100
AcDbArc
 50
-13
 51
86.99999999999
  0
ARC
  5
4C6
100
AcDbEntity
  8
_0-3_躯体と製品
  6
CONTINUOUS
 62
     0
100
AcDbCircle
 10
706.2825480522
 20
390.476494082
 40
0.6
100
AcDbArc
 50
167
 51
347
  0
LINE
  5
4C7
100
AcDbEntity
  8
_0-3_躯体と製品
  6
CONTINUOUS
 62
     0
100
AcDbLine
 10
682.8073447066
 20
415.9842061836
 11
682.2928562205
 21
416.4986946697
  0
LINE
  5
4C8
100
AcDbEntity
  8
_0-3_躯体と製品
  6
CONTINUOUS
 62
     0
100
AcDbLine
 10
697.4561629322
 20
419.2219835353
 11
682.4767199109
 21
420.0070228789
  0
LINE
  5
4C9
100
AcDbEntity
  8
_0-3_躯体と製品
  6
CONTINUOUS
 62
     0
100
AcDbLine
 10
682.267376086
 20
416.0125047399
 11
682.4767199109
 21
420.0070228789
  0
LINE
  5
4CA
100
AcDbEntity
  8
_0-3_躯体と製品
  6
CONTINUOUS
 62
     0
100
AcDbLine
 10
684.2997731283
 20
415.9059913243
 11
682.3632811961
 21
417.8424832564
  0
LINE
  5
4CB
100
AcDbEntity
  8
_0-3_躯体と製品
  6
CONTINUOUS
 62
     0
100
AcDbLine
 10
685.7922015499
 20
415.827776465
 11
682.4337061718
 21
419.1862718431
  0
LINE
  5
4CC
100
AcDbEntity
  8
_0-3_躯体と製品
  6
CONTINUOUS
 62
     0
100
AcDbLine
 10
687.2846299716
 20
415.7495616057
 11
683.0576119607
 21
419.9765796166
  0
LINE
  5
4CD
100
AcDbEntity
  8
_0-3_躯体と製品
  6
CONTINUOUS
 62
     0
100
AcDbLine
 10
688.7770583933
 20
415.6713467464
 11
684.5500403824
 21
419.8983647573
  0
LINE
  5
4CE
100
AcDbEntity
  8
_0-3_躯体と製品
  6
CONTINUOUS
 62
     0
100
AcDbLine
 10
690.269486815
 20
415.593131887
 11
686.0424688041
 21
419.820149898
  0
LINE
  5
4CF
100
AcDbEntity
  8
_0-3_躯体と製品
  6
CONTINUOUS
 62
     0
100
AcDbLine
 10
691.7619152367
 20
415.5149170277
 11
687.5348972258
 21
419.7419350386
  0
LINE
  5
4D0
100
AcDbEntity
  8
_0-3_躯体と製品
  6
CONTINUOUS
 62
     0
100
AcDbLine
 10
693.2543436584
 20
415.4367021684
 11
689.0273256475
 21
419.6637201793
  0
LINE
  5
4D1
100
AcDbEntity
  8
_0-3_躯体と製品
  6
CONTINUOUS
 62
     0
100
AcDbLine
 10
694.7467720801
 20
415.3584873091
 11
690.5197540692
 21
419.58550532
  0
LINE
  5
4D2
100
AcDbEntity
  8
_0-3_躯体と製品
  6
CONTINUOUS
 62
     0
100
AcDbLine
 10
696.2392005018
 20
415.2802724498
 11
692.0121824909
 21
419.5072904607
  0
LINE
  5
4D3
100
AcDbEntity
  8
_0-3_躯体と製品
  6
CONTINUOUS
 62
     0
100
AcDbLine
 10
697.2696963984
 20
415.6639901155
 11
693.5046109126
 21
419.4290756014
  0
LINE
  5
4D4
100
AcDbEntity
  8
_0-3_躯体と製品
  6
CONTINUOUS
 62
     0
100
AcDbLine
 10
697.4105463497
 20
418.3515672889
 11
696.4894677559
 21
419.2726458827
  0
LINE
  5
4D5
100
AcDbEntity
  8
_0-3_躯体と製品
  6
CONTINUOUS
 62
     0
100
AcDbLine
 10
697.3401213741
 20
417.0077787022
 11
694.9970393342
 21
419.350860742
  0
LINE
  5
4D6
100
AcDbEntity
  8
_0-3_躯体と製品
  6
CONTINUOUS
 62
     0
100
AcDbLine
 10
714.9499290307
 20
346.9147584708
 11
714.9499290307
 21
346.4147584708
  0
LINE
  5
4D7
100
AcDbEntity
  8
_0-3_躯体と製品
  6
CONTINUOUS
 62
     0
100
AcDbLine
 10
697.4823309104
 20
419.7212983027
 11
183.0168123561
 21
446.6832936478
  0
LINE
  5
4D8
100
AcDbEntity
  8
_0-3_躯体と製品
  6
CONTINUOUS
 62
     0
100
AcDbLine
 10
697.2468191073
 20
415.2274653963
 11
182.781300553
 21
442.1894607414
  0
LINE
  5
4D9
100
AcDbEntity
  8
_0-3_躯体と製品
  6
CONTINUOUS
 62
     0
100
AcDbLine
 10
697.1683151729
 20
413.7295210941
 11
182.7027966186
 21
440.6915164393
  0
LINE
  5
4DA
100
AcDbEntity
  8
_0-3_躯体と製品
  6
CONTINUOUS
 62
     0
100
AcDbLine
 10
696.1477640262
 20
394.2562451664
 11
181.6822454719
 21
421.2182405116
  0
LINE
  5
4DB
100
AcDbEntity
  8
_0-3_躯体と製品
  6
CONTINUOUS
 62
     0
100
AcDbLine
 10
696.0692600918
 20
392.7583008643
 11
181.6037415375
 21
419.7202962094
  0
LINE
  5
4DC
100
AcDbEntity
  8
_0-3_躯体と製品
  6
CONTINUOUS
 62
     0
100
AcDbLine
 10
682.4243839547
 20
419.0083933442
 11
197.917751443
 21
444.400310002
  0
LINE
  5
4DD
100
AcDbEntity
  8
_0-3_躯体と製品
  6
CONTINUOUS
 62
     0
100
AcDbLine
 10
723.8502170626
 20
332.4147584708
 11
716.8502170626
 21
332.4147584708
  0
ARC
  5
4DE
100
AcDbEntity
  8
_0-3_躯体と製品
  6
CONTINUOUS
 62
     0
100
AcDbCircle
 10
723.8502170626
 20
419.5678647707
 40
3
100
AcDbArc
 50
0
 51
86.99999999999
  0
ARC
  5
4DF
100
AcDbEntity
  8
_0-3_躯体と製品
  6
CONTINUOUS
 62
     0
100
AcDbCircle
 10
723.8502170626
 20
335.4147584708
 40
3
100
AcDbArc
 50
-90
 51
0
  0
LINE
  5
4E0
100
AcDbEntity
  8
_0-3_躯体と製品
  6
CONTINUOUS
 62
     0
100
AcDbLine
 10
726.8502170626
 20
419.5678647707
 11
726.8502170626
 21
335.4147584708
  0
CIRCLE
  5
4E1
100
AcDbEntity
  8
_0-3_躯体と製品
  6
CONTINUOUS
 62
     0
100
AcDbCircle
 10
726.8502170626
 20
422.4147584708
 40
1.4
  0
CIRCLE
  5
4E2
100
AcDbEntity
  8
_0-3_躯体と製品
  6
CONTINUOUS
 62
     0
100
AcDbCircle
 10
726.8502170626
 20
332.4147584708
 40
1.4
  0
LINE
  5
4E3
100
AcDbEntity
  8
_0-3_躯体と製品
  6
CONTINUOUS
 62
     0
100
AcDbLine
 10
167.7978811063
 20
451.7134499013
 11
724.0072249313
 21
422.5637533749
  0
LINE
  5
4E4
100
AcDbEntity
  8
_0-3_躯体と製品
  6
CONTINUOUS
 62
     0
100
AcDbLine
 10
167.719377172
 20
450.2155055991
 11
723.9287209969
 21
421.0658090728
  0
ARC
  5
4E5
100
AcDbEntity
  8
_0-3_躯体と製品
  6
CONTINUOUS
 62
     0
100
AcDbCircle
 10
723.8502170626
 20
419.5678647707
 40
1.5
100
AcDbArc
 50
0
 51
86.99999999999
  0
LINE
  5
4E6
100
AcDbEntity
  8
_0-3_躯体と製品
  6
CONTINUOUS
 62
     0
100
AcDbLine
 10
725.3502170626
 20
335.4147584708
 11
725.3502170626
 21
419.5678647707
  0
ARC
  5
4E7
100
AcDbEntity
  8
_0-3_躯体と製品
  6
CONTINUOUS
 62
     0
100
AcDbCircle
 10
723.8502170626
 20
335.4147584708
 40
1.5
100
AcDbArc
 50
-90
 51
0
  0
LINE
  5
4E8
100
AcDbEntity
  8
_0-3_躯体と製品
  6
CONTINUOUS
 62
     0
100
AcDbLine
 10
716.8502170626
 20
332.4147584708
 11
716.8502170626
 21
333.9147584708
  0
LINE
  5
4E9
100
AcDbEntity
  8
_0-3_躯体と製品
  6
CONTINUOUS
 62
     0
100
AcDbLine
 10
723.8502170626
 20
333.9147584708
 11
716.8502170626
 21
333.9147584708
  0
LINE
  5
4EA
100
AcDbEntity
  8
_0-3_躯体と製品
  6
CONTINUOUS
 62
     0
100
AcDbLine
 10
697.4823309104
 20
419.7212983027
 11
697.6250387787
 21
422.4443266448
  0
LINE
  5
4EB
100
AcDbEntity
  8
_0-3_躯体と製品
  6
CONTINUOUS
 62
     0
100
AcDbLine
 10
682.5028878891
 20
420.5063376463
 11
682.6455957574
 21
423.2293659885
  0
LINE
  5
4EC
100
AcDbEntity
  8
_0-3_躯体と製品
  6
CONTINUOUS
 62
     0
100
AcDbLine
 10
686.027713353
 20
420.3216093714
 11
683.1461918664
 21
423.2031308581
  0
LINE
  5
4ED
100
AcDbEntity
  8
_0-3_躯体と製品
  6
CONTINUOUS
 62
     0
100
AcDbLine
 10
687.5201417747
 20
420.2433945121
 11
684.638620288
 21
423.1249159988
  0
LINE
  5
4EE
100
AcDbEntity
  8
_0-3_躯体と製品
  6
CONTINUOUS
 62
     0
100
AcDbLine
 10
689.0125701964
 20
420.1651796527
 11
686.1310487097
 21
423.0467011394
  0
LINE
  5
4EF
100
AcDbEntity
  8
_0-3_躯体と製品
  6
CONTINUOUS
 62
     0
100
AcDbLine
 10
690.5049986181
 20
420.0869647934
 11
687.6234771314
 21
422.9684862801
  0
LINE
  5
4F0
100
AcDbEntity
  8
_0-3_躯体と製品
  6
CONTINUOUS
 62
     0
100
AcDbLine
 10
691.9974270398
 20
420.0087499341
 11
689.1159055531
 21
422.8902714208
  0
LINE
  5
4F1
100
AcDbEntity
  8
_0-3_躯体と製品
  6
CONTINUOUS
 62
     0
100
AcDbLine
 10
693.4898554615
 20
419.9305350748
 11
690.6083339748
 21
422.8120565615
  0
LINE
  5
4F2
100
AcDbEntity
  8
_0-3_躯体と製品
  6
CONTINUOUS
 62
     0
100
AcDbLine
 10
694.9822838832
 20
419.8523202155
 11
692.1007623965
 21
422.7338417022
  0
LINE
  5
4F3
100
AcDbEntity
  8
_0-3_躯体と製品
  6
CONTINUOUS
 62
     0
100
AcDbLine
 10
696.4747123049
 20
419.7741053562
 11
693.5931908182
 21
422.6556268428
  0
LINE
  5
4F4
100
AcDbEntity
  8
_0-3_躯体と製品
  6
CONTINUOUS
 62
     0
100
AcDbLine
 10
697.5052082015
 20
420.1578230219
 11
695.0856192399
 21
422.5774119835
  0
LINE
  5
4F5
100
AcDbEntity
  8
_0-3_躯体と製品
  6
CONTINUOUS
 62
     0
100
AcDbLine
 10
684.5352849313
 20
420.3998242307
 11
682.5987929992
 21
422.3363161628
  0
LINE
  5
4F6
100
AcDbEntity
  8
_0-3_躯体と製品
  6
CONTINUOUS
 62
     0
100
AcDbLine
 10
697.5756331772
 20
421.5016116086
 11
696.5780476616
 21
422.4991971242
  0
ARC
  5
4F7
100
AcDbEntity
  8
_0-3_躯体と製品
  6
CONTINUOUS
 62
     0
100
AcDbCircle
 10
703.5133966969
 20
414.6254382877
 40
3
100
AcDbArc
 50
10.1246716554
 51
86.99999999999
  0
LINE
  5
4F8
100
AcDbEntity
  8
_0-3_躯体と製品
  6
CONTINUOUS
 62
     0
100
AcDbLine
 10
706.4666794234
 20
415.1528102032
 11
720.4202929728
 21
337.0125743264
  0
LINE
  5
4F9
100
AcDbEntity
  8
_0-3_躯体と製品
  6
CONTINUOUS
 62
     0
100
AcDbLine
 10
724.8502170626
 20
337.8036321996
 11
720.4202929729
 21
337.0125743261
  0
LINE
  5
4FA
100
AcDbEntity
  8
_0-3_躯体と製品
  6
CONTINUOUS
 62
     0
100
AcDbLine
 10
710.8966035132
 20
415.9438680763
 11
724.8502170626
 21
337.8036321996
  0
ARC
  5
4FB
100
AcDbEntity
  8
_0-3_躯体と製品
  6
CONTINUOUS
 62
     0
100
AcDbCircle
 10
703.5133966969
 20
414.6254382877
 40
7.5
100
AcDbArc
 50
10.1246716554
 51
86.99999999999
  0
LINE
  5
4FC
100
AcDbEntity
  8
_0-3_躯体と製品
  6
CONTINUOUS
 62
     0
100
AcDbLine
 10
697.6250387787
 20
422.4443266448
 11
703.9059163687
 21
422.1151597984
  0
LINE
  5
4FD
100
AcDbEntity
  8
_0-3_躯体と製品
  6
CONTINUOUS
 62
     0
100
AcDbLine
 10
697.3895269756
 20
417.9504937384
 11
703.6704045656
 21
417.621326892
  0
CIRCLE
  5
4FE
100
AcDbEntity
  8
_0-4_図枠
  6
CONTINUOUS
 62
     0
100
AcDbCircle
 10
710.6037997728
 20
404.3567852772
 40
0.9
  0
CIRCLE
  5
4FF
100
AcDbEntity
  8
_0-4_図枠
  6
CONTINUOUS
 62
     0
100
AcDbCircle
 10
737.2402809162
 20
450.4925239525
 40
6
  0
LINE
  5
500
100
AcDbEntity
  8
_0-4_図枠
  6
CONTINUOUS
 62
     0
100
AcDbLine
 10
710.6037997728
 20
404.3567852772
 11
734.2402809162
 21
445.2963715298
  0
CIRCLE
  5
501
100
AcDbEntity
  8
_0-4_図枠
  6
CONTINUOUS
 62
     0
100
AcDbCircle
 10
710.0595730345
 20
422.5373912367
 40
0.9
  0
LINE
  5
502
100
AcDbEntity
  8
_0-4_図枠
  6
CONTINUOUS
 62
     0
100
AcDbLine
 10
710.0595730345
 20
422.5373912367
 11
735.1960541779
 21
466.0750537006
  0
CIRCLE
  5
503
100
AcDbEntity
  8
_0-4_図枠
  6
CONTINUOUS
 62
     0
100
AcDbCircle
 10
738.1960541779
 20
471.2712061233
 40
6
  0
LINE
  5
504
100
AcDbEntity
  8
_0-2_寸法
  6
CONTINUOUS
 62
     0
100
AcDbLine
 10
726.8502170626
 20
330.4147584708
 11
726.8502170626
 21
259.8286386255
  0
CIRCLE
  5
505
100
AcDbEntity
  8
_0-2_寸法
  6
CONTINUOUS
 62
     0
100
AcDbCircle
 10
726.8502170626
 20
330.4147584708
 40
1.4
  0
LINE
  5
506
100
AcDbEntity
  8
_0-2_寸法
  6
CONTINUOUS
 62
     0
100
AcDbLine
 10
728.8502170626
 20
332.4147584708
 11
766.8502170626
 21
332.4147584708
  0
LINE
  5
507
100
AcDbEntity
  8
_0-2_寸法
  6
CONTINUOUS
 62
     0
100
AcDbLine
 10
766.8502170626
 20
373.8286386255
 11
766.8502170626
 21
333.4147584708
  0
TEXT
  5
508
100
AcDbEntity
  8
_0-2_寸法
  6
CONTINUOUS
 62
     0
100
AcDbText
 10
765.8502170626
 20
351.1216985481
 40
5
  1
44
 50
90
  7
STANDARD
100
AcDbText
  0
CIRCLE
  5
509
100
AcDbEntity
  8
_0-2_寸法
  6
CONTINUOUS
 62
     0
100
AcDbCircle
 10
728.8502170626
 20
332.4147584708
 40
1.4
  0
CIRCLE
  5
50A
100
AcDbEntity
  8
_0-2_寸法
  6
CONTINUOUS
 62
     0
100
AcDbCircle
 10
766.8502170626
 20
332.4147584708
 40
1.4
  0
LINE
  5
50B
100
AcDbEntity
  8
_0-2_寸法
  6
CONTINUOUS
 62
     0
100
AcDbLine
 10
728.8502170626
 20
332.4147584708
 11
786.8502170626
 21
332.4147584708
  0
LINE
  5
50C
100
AcDbEntity
  8
_0-2_寸法
  6
CONTINUOUS
 62
     0
100
AcDbLine
 10
786.8502170626
 20
421.4147584708
 11
786.8502170626
 21
333.4147584708
  0
TEXT
  5
50D
100
AcDbEntity
  8
_0-2_寸法
  6
CONTINUOUS
 62
     0
100
AcDbText
 10
785.8502170626
 20
374.9147584708
 40
5
  1
90
 50
90
  7
STANDARD
100
AcDbText
  0
CIRCLE
  5
50E
100
AcDbEntity
  8
_0-2_寸法
  6
CONTINUOUS
 62
     0
100
AcDbCircle
 10
728.8502170626
 20
332.4147584708
 40
1.4
  0
CIRCLE
  5
50F
100
AcDbEntity
  8
_0-2_寸法
  6
CONTINUOUS
 62
     0
100
AcDbCircle
 10
786.8502170626
 20
332.4147584708
 40
1.4
  0
LINE
  5
510
100
AcDbEntity
  8
_0-0_0
  6
CONTINUOUS
 62
     0
100
AcDbLine
 10
656.4800963547
 20
401.6424129722
 11
656.3858916335
 21
399.8448798097
  0
LINE
  5
511
100
AcDbEntity
  8
_0-2_寸法
  6
CONTINUOUS
 62
     0
100
AcDbLine
 10
75.85021706258
 20
505.8328167658
 11
75.85021706258
 21
375.8286386255
  0
CIRCLE
  5
512
100
AcDbEntity
  8
_0-2_寸法
  6
CONTINUOUS
 62
     0
100
AcDbCircle
 10
75.85021706258
 20
374.8286386255
 40
1.4
  0
LINE
  5
513
100
AcDbEntity
  8
_0-2_寸法
  6
CONTINUOUS
 62
     0
100
AcDbLine
 10
95.85021706258
 20
375.8286386255
 11
95.85021706258
 21
447.1328167658
  0
CIRCLE
  5
514
100
AcDbEntity
  8
_0-2_寸法
  6
CONTINUOUS
 62
     0
100
AcDbCircle
 10
150.8502170626
 20
259.8286386255
 40
1.4
  0
CIRCLE
  5
515
100
AcDbEntity
  8
_0-2_寸法
  6
CONTINUOUS
 62
     0
100
AcDbCircle
 10
150.8502170626
 20
259.8286386255
 40
1.4
  0
CIRCLE
  5
516
100
AcDbEntity
  8
_0-2_寸法
  6
CONTINUOUS
 62
     0
100
AcDbCircle
 10
576.8502170626
 20
259.8286386255
 40
1.4
  0
CIRCLE
  5
517
100
AcDbEntity
  8
_0-2_寸法
  6
CONTINUOUS
 62
     0
100
AcDbCircle
 10
576.8502170626
 20
259.8286386255
 40
1.4
  0
CIRCLE
  5
518
100
AcDbEntity
  8
_0-2_寸法
  6
CONTINUOUS
 62
     0
100
AcDbCircle
 10
576.8502170626
 20
259.8286386255
 40
1.4
  0
LINE
  5
519
100
AcDbEntity
  8
_0-2_寸法
  6
CONTINUOUS
 62
     0
100
AcDbLine
 10
579.8152943153
 20
374.8286386255
 11
766.8502170626
 21
374.8286386255
  0
CIRCLE
  5
51A
100
AcDbEntity
  8
_0-2_寸法
  6
CONTINUOUS
 62
     0
100
AcDbCircle
 10
579.8152943153
 20
374.8286386255
 40
1.4
  0
LINE
  5
51B
100
AcDbEntity
  8
_0-2_寸法
  6
CONTINUOUS
 62
     0
100
AcDbLine
 10
725.8502170626
 20
259.8286386255
 11
576.8502170626
 21
259.8286386255
  0
CIRCLE
  5
51C
100
AcDbEntity
  8
_0-0_0
  6
CONTINUOUS
 62
     0
100
AcDbCircle
 10
579.746771053
 20
374.8322297775
 40
1.4
  0
LINE
  5
51D
100
AcDbEntity
  8
_0-2_寸法
  6
CONTINUOUS
 62
     0
100
AcDbLine
 10
576.8502170626
 20
259.8286386255
 11
150.8502170626
 21
259.8286386255
  0
CIRCLE
  5
51E
100
AcDbEntity
  8
_0-5_ADD_LINE
  6
CONTINUOUS
 62
     0
100
AcDbCircle
 10
593.748872913
 20
437.742338433
 40
6
  0
CIRCLE
  5
51F
100
AcDbEntity
  8
_0-5_ADD_LINE
  6
CONTINUOUS
 62
     0
100
AcDbCircle
 10
572.1849629022
 20
436.7535986955
 40
6
  0
CIRCLE
  5
520
100
AcDbEntity
  8
_0-5_ADD_LINE
  6
CONTINUOUS
 62
     0
100
AcDbCircle
 10
565.8890446884
 20
452.7066504954
 40
6
  0
CIRCLE
  5
521
100
AcDbEntity
  8
_0-5_ADD_LINE
  6
CONTINUOUS
 62
     0
100
AcDbCircle
 10
549.8781034641
 20
449.1849572732
 40
6
  0
LINE
  5
522
100
AcDbEntity
  8
_0-5_ADD_LINE
  6
CONTINUOUS
 62
     0
100
AcDbLine
 10
576.8235578013
 20
408.4268327256
 11
590.748872913
 21
432.5461860103
  0
CIRCLE
  5
523
100
AcDbEntity
  8
_0-5_ADD_LINE
  6
CONTINUOUS
 62
     0
100
AcDbCircle
 10
576.8235578013
 20
408.4268327256
 40
0.9
  0
LINE
  5
524
100
AcDbEntity
  8
_0-5_ADD_LINE
  6
CONTINUOUS
 62
     0
100
AcDbLine
 10
544.3719086468
 20
388.5799756114
 11
569.1849629022
 21
431.5574462728
  0
LINE
  5
525
100
AcDbEntity
  8
_0-5_ADD_LINE
  6
CONTINUOUS
 62
     0
100
AcDbLine
 10
544.601954916
 20
415.8363294644
 11
562.8890446884
 21
447.5104980727
  0
CIRCLE
  5
526
100
AcDbEntity
  8
_0-5_ADD_LINE
  6
CONTINUOUS
 62
     0
100
AcDbCircle
 10
544.601954916
 20
415.8363294644
 40
0.9
  0
LINE
  5
527
100
AcDbEntity
  8
_0-5_ADD_LINE
  6
CONTINUOUS
 62
     0
100
AcDbLine
 10
529.0525709251
 20
413.114076821
 11
546.8781034641
 21
443.9888048505
  0
CIRCLE
  5
528
100
AcDbEntity
  8
_0-5_ADD_LINE
  6
CONTINUOUS
 62
     0
100
AcDbCircle
 10
529.0525709251
 20
413.114076821
 40
0.9
  0
CIRCLE
  5
529
100
AcDbEntity
  8
_0-5_ADD_LINE
  6
CONTINUOUS
 62
     0
100
AcDbCircle
 10
551.8093859225
 20
364.7146221353
 40
6
  0
LINE
  5
52A
100
AcDbEntity
  8
_0-5_ADD_LINE
  6
CONTINUOUS
 62
     0
100
AcDbLine
 10
537.0276997907
 20
390.3172535371
 11
548.8093859225
 21
369.910774558
  0
CIRCLE
  5
52B
100
AcDbEntity
  8
_0-5_ADD_LINE
  6
CONTINUOUS
 62
     0
100
AcDbCircle
 10
537.0276997907
 20
390.3172535371
 40
0.9
  0
CIRCLE
  5
52C
100
AcDbEntity
  8
_0-5_ADD_LINE
  6
CONTINUOUS
 62
     0
100
AcDbCircle
 10
544.3719086468
 20
388.5799756114
 40
0.9
  0
CIRCLE
  5
52D
100
AcDbEntity
  8
_0-5_ADD_LINE
  6
CONTINUOUS
 62
     0
100
AcDbCircle
 10
531.1876278913
 20
382.9292107727
 40
0.9
  0
LINE
  5
52E
100
AcDbEntity
  8
_0-5_ADD_LINE
  6
CONTINUOUS
 62
     0
100
AcDbLine
 10
531.1876278913
 20
382.9292107727
 11
547.6100135561
 21
354.4848044197
  0
CIRCLE
  5
52F
100
AcDbEntity
  8
_0-5_ADD_LINE
  6
CONTINUOUS
 62
     0
100
AcDbCircle
 10
550.6100135561
 20
349.288651997
 40
6
  0
LINE
  5
530
100
AcDbEntity
  8
_0-5_ADD_LINE
  6
CONTINUOUS
 62
     0
100
AcDbLine
 10
519.7284653096
 20
380.064795558
 11
510.0312116777
 21
363.2686595737
  0
CIRCLE
  5
531
100
AcDbEntity
  8
_0-5_ADD_LINE
  6
CONTINUOUS
 62
     0
100
AcDbCircle
 10
519.7284653096
 20
380.064795558
 40
0.9
  0
CIRCLE
  5
532
100
AcDbEntity
  8
_0-5_ADD_LINE
  6
CONTINUOUS
 62
     0
100
AcDbCircle
 10
507.0312116777
 20
358.072507151
 40
6
  0
CIRCLE
  5
533
100
AcDbEntity
  8
_0-5_ADD_LINE
  6
CONTINUOUS
 62
     0
100
AcDbCircle
 10
524.7242060866
 20
349.7459772273
 40
0.9
  0
LINE
  5
534
100
AcDbEntity
  8
_0-5_ADD_LINE
  6
CONTINUOUS
 62
     0
100
AcDbLine
 10
524.7242060866
 20
349.7459772273
 11
514.6825918918
 21
332.353391252
  0
CIRCLE
  5
535
100
AcDbEntity
  8
_0-5_ADD_LINE
  6
CONTINUOUS
 62
     0
100
AcDbCircle
 10
511.6825918918
 20
327.1572388293
 40
6
  0
LINE
  5
536
100
AcDbEntity
  8
_0-5_ADD_LINE
  6
CONTINUOUS
 62
     0
100
AcDbLine
 10
527.8502170626
 20
314.8286386255
 11
575.8502170626
 21
314.8286386255
  0
TEXT
  5
537
100
AcDbEntity
  8
_0-5_ADD_LINE
  6
CONTINUOUS
 62
     0
100
AcDbText
 10
549.3502170626
 20
315.8286386255
 40
5
  1
50
  7
STANDARD
100
AcDbText
  0
CIRCLE
  5
538
100
AcDbEntity
  8
_0-5_ADD_LINE
  6
CONTINUOUS
 62
     0
100
AcDbCircle
 10
526.8502170626
 20
314.8286386255
 40
1.4
  0
CIRCLE
  5
539
100
AcDbEntity
  8
_0-5_ADD_LINE
  6
CONTINUOUS
 62
     0
100
AcDbCircle
 10
576.8502170626
 20
314.8286386255
 40
1.4
  0
CIRCLE
  5
53A
100
AcDbEntity
  8
_0-5_ADD_LINE
  6
CONTINUOUS
 62
     0
100
AcDbCircle
 10
576.7816938003
 20
314.8322297775
 40
1.4
  0
LINE
  5
53B
100
AcDbEntity
  8
_0-6_
  6
CONTINUOUS
 62
     0
100
AcDbLine
 10
522.0857843482
 20
391.4066016255
 11
531.2731763482
 21
390.9251106255
  0
LINE
  5
53C
100
AcDbEntity
  8
_0-6_
  6
CONTINUOUS
 62
     0
100
AcDbLine
 10
511.8678893482
 20
375.4026610972
 11
512.2938668765
 21
375.8286386255
  0
ARC
  5
53D
100
AcDbEntity
  8
_0-6_
  6
CONTINUOUS
 62
     0
100
AcDbCircle
 10
511.8678893482
 20
367.5786386255
 40
8.25
100
AcDbArc
 50
90
 51
108.9246444161
  0
ARC
  5
53E
100
AcDbEntity
  8
_0-6_
  6
CONTINUOUS
 62
     0
100
AcDbCircle
 10
511.8678893482
 20
367.5786386255
 40
9.25
100
AcDbArc
 50
90
 51
108.9246444161
  0
ARC
  5
53F
100
AcDbEntity
  8
_0-6_
  6
CONTINUOUS
 62
     0
100
AcDbCircle
 10
505.8678893482
 20
385.0786386255
 40
9.25
100
AcDbArc
 50
-90
 51
-71.07535558395
  0
LINE
  5
540
100
AcDbEntity
  8
_0-6_
  6
CONTINUOUS
 62
     0
100
AcDbLine
 10
531.6002180626
 20
365.8286386255
 11
530.9002160626
 21
366.5286376255
  0
LINE
  5
541
100
AcDbEntity
  8
_0-6_
  6
CONTINUOUS
 62
     0
100
AcDbLine
 10
530.9002160626
 20
375.8286376255
 11
530.9002160626
 21
366.5286376255
  0
LINE
  5
542
100
AcDbEntity
  8
_0-6_
  6
CONTINUOUS
 62
     0
100
AcDbLine
 10
531.6002180626
 20
347.2004656255
 11
531.6002180626
 21
365.8286386255
  0
LINE
  5
543
100
AcDbEntity
  8
_0-6_
  6
CONTINUOUS
 62
     0
100
AcDbLine
 10
531.3502160626
 20
335.3286376255
 11
531.3502160626
 21
336.1919416255
  0
LINE
  5
544
100
AcDbEntity
  8
_0-6_
  6
CONTINUOUS
 62
     0
100
AcDbLine
 10
533.4752480626
 20
336.5666416255
 11
531.6002180626
 21
347.2004656255
  0
LINE
  5
545
100
AcDbEntity
  8
_0-6_
  6
CONTINUOUS
 62
     0
100
AcDbLine
 10
527.3502170626
 20
346.8286366255
 11
526.3502180626
 21
346.8286366255
  0
LINE
  5
546
100
AcDbEntity
  8
_0-6_
  6
CONTINUOUS
 62
     0
100
AcDbLine
 10
522.1002170626
 20
365.8286386255
 11
522.8002160626
 21
366.5286376255
  0
LINE
  5
547
100
AcDbEntity
  8
_0-6_
  6
CONTINUOUS
 62
     0
100
AcDbLine
 10
522.8002160626
 20
375.8286376255
 11
522.8002160626
 21
366.5286376255
  0
LINE
  5
548
100
AcDbEntity
  8
_0-6_
  6
CONTINUOUS
 62
     0
100
AcDbLine
 10
522.1002170626
 20
347.2004656255
 11
522.1002170626
 21
365.8286386255
  0
LINE
  5
549
100
AcDbEntity
  8
_0-6_
  6
CONTINUOUS
 62
     0
100
AcDbLine
 10
523.3502180626
 20
334.3286386255
 11
530.3502170626
 21
334.3286386255
  0
ARC
  5
54A
100
AcDbEntity
  8
_0-6_
  6
CONTINUOUS
 62
     0
100
AcDbCircle
 10
523.3502180626
 20
335.3286376255
 40
0.999999
100
AcDbArc
 50
180
 51
270
  0
LINE
  5
54B
100
AcDbEntity
  8
_0-6_
  6
CONTINUOUS
 62
     0
100
AcDbLine
 10
522.3502160626
 20
335.3286376255
 11
522.3502160626
 21
336.1919416255
  0
LINE
  5
54C
100
AcDbEntity
  8
_0-6_
  6
CONTINUOUS
 62
     0
100
AcDbLine
 10
520.2251870626
 20
336.5666416255
 11
524.4106190626
 21
335.8286386255
  0
LINE
  5
54D
100
AcDbEntity
  8
_0-6_
  6
CONTINUOUS
 62
     0
100
AcDbLine
 10
527.3502170626
 20
346.8286366255
 11
529.2898130626
 21
335.8286386255
  0
LINE
  5
54E
100
AcDbEntity
  8
_0-6_
  6
CONTINUOUS
 62
     0
100
AcDbLine
 10
526.3502180626
 20
346.8286366255
 11
524.4106190626
 21
335.8286386255
  0
LINE
  5
54F
100
AcDbEntity
  8
_0-6_
  6
CONTINUOUS
 62
     0
100
AcDbLine
 10
520.2251870626
 20
336.5666416255
 11
522.1002170626
 21
347.2004656255
  0
LINE
  5
550
100
AcDbEntity
  8
_0-6_
  6
CONTINUOUS
 62
     0
100
AcDbLine
 10
531.6002180626
 20
365.8286386255
 11
522.1002170626
 21
365.8286386255
  0
LINE
  5
551
100
AcDbEntity
  8
_0-6_
  6
CONTINUOUS
 62
     0
100
AcDbLine
 10
530.9002160626
 20
366.5286376255
 11
522.8002160626
 21
366.5286376255
  0
LINE
  5
552
100
AcDbEntity
  8
_0-6_
  6
CONTINUOUS
 62
     0
100
AcDbLine
 10
533.4752480626
 20
336.5666416255
 11
529.2898130626
 21
335.8286386255
  0
ARC
  5
553
100
AcDbEntity
  8
_0-6_
  6
CONTINUOUS
 62
     0
100
AcDbCircle
 10
530.3502170626
 20
335.3286376255
 40
0.999999
100
AcDbArc
 50
-90
 51
0
  0
LINE
  5
554
100
AcDbEntity
  8
_0-6_
  6
CONTINUOUS
 62
     0
100
AcDbLine
 10
512.7080804389
 20
374.8286386255
 11
513.7080804389
 21
375.8286386255
  0
LINE
  5
555
100
AcDbEntity
  8
_0-6_
  6
CONTINUOUS
 62
     0
100
AcDbLine
 10
514.1222940012
 20
374.8286386255
 11
515.1222940012
 21
375.8286386255
  0
LINE
  5
556
100
AcDbEntity
  8
_0-6_
  6
CONTINUOUS
 62
     0
100
AcDbLine
 10
515.5365075636
 20
374.8286386255
 11
516.5365075636
 21
375.8286386255
  0
LINE
  5
557
100
AcDbEntity
  8
_0-6_
  6
CONTINUOUS
 62
     0
100
AcDbLine
 10
516.950721126
 20
374.8286386255
 11
517.950721126
 21
375.8286386255
  0
LINE
  5
558
100
AcDbEntity
  8
_0-6_
  6
CONTINUOUS
 62
     0
100
AcDbLine
 10
518.3649346883
 20
374.8286386255
 11
519.3649346883
 21
375.8286386255
  0
LINE
  5
559
100
AcDbEntity
  8
_0-6_
  6
CONTINUOUS
 62
     0
100
AcDbLine
 10
519.7791482507
 20
374.8286386255
 11
520.7791482507
 21
375.8286386255
  0
LINE
  5
55A
100
AcDbEntity
  8
_0-6_
  6
CONTINUOUS
 62
     0
100
AcDbLine
 10
521.1933618131
 20
374.8286386255
 11
522.1933618131
 21
375.8286386255
  0
LINE
  5
55B
100
AcDbEntity
  8
_0-6_
  6
CONTINUOUS
 62
     0
100
AcDbLine
 10
522.6075753755
 20
374.8286386255
 11
523.6075753755
 21
375.8286386255
  0
LINE
  5
55C
100
AcDbEntity
  8
_0-6_
  6
CONTINUOUS
 62
     0
100
AcDbLine
 10
524.0217889378
 20
374.8286386255
 11
525.0217889378
 21
375.8286386255
  0
LINE
  5
55D
100
AcDbEntity
  8
_0-6_
  6
CONTINUOUS
 62
     0
100
AcDbLine
 10
525.4360025002
 20
374.8286386255
 11
526.4360025002
 21
375.8286386255
  0
LINE
  5
55E
100
AcDbEntity
  8
_0-6_
  6
CONTINUOUS
 62
     0
100
AcDbLine
 10
526.8502160626
 20
374.8286386255
 11
527.8502160626
 21
375.8286386255
  0
LINE
  5
55F
100
AcDbEntity
  8
_0-6_
  6
CONTINUOUS
 62
     0
100
AcDbLine
 10
528.264429625
 20
374.8286386255
 11
529.264429625
 21
375.8286386255
  0
LINE
  5
560
100
AcDbEntity
  8
_0-6_
  6
CONTINUOUS
 62
     0
100
AcDbLine
 10
529.6786431873
 20
374.8286386255
 11
530.6786431873
 21
375.8286386255
  0
LINE
  5
561
100
AcDbEntity
  8
_0-6_
  6
CONTINUOUS
 62
     0
100
AcDbLine
 10
531.0928567497
 20
374.8286386255
 11
532.0928567497
 21
375.8286386255
  0
LINE
  5
562
100
AcDbEntity
  8
_0-6_
  6
CONTINUOUS
 62
     0
100
AcDbLine
 10
532.5070703121
 20
374.8286386255
 11
533.5070703121
 21
375.8286386255
  0
LINE
  5
563
100
AcDbEntity
  8
_0-6_
  6
CONTINUOUS
 62
     0
100
AcDbLine
 10
533.9212838744
 20
374.8286386255
 11
534.9212838744
 21
375.8286386255
  0
LINE
  5
564
100
AcDbEntity
  8
_0-6_
  6
CONTINUOUS
 62
     0
100
AcDbLine
 10
535.3354974368
 20
374.8286386255
 11
536.3354974368
 21
375.8286386255
  0
LINE
  5
565
100
AcDbEntity
  8
_0-6_
  6
CONTINUOUS
 62
     0
100
AcDbLine
 10
536.7497109992
 20
374.8286386255
 11
537.7497109992
 21
375.8286386255
  0
LINE
  5
566
100
AcDbEntity
  8
_0-6_
  6
CONTINUOUS
 62
     0
100
AcDbLine
 10
538.1639245616
 20
374.8286386255
 11
539.1639245616
 21
375.8286386255
  0
LINE
  5
567
100
AcDbEntity
  8
_0-6_
  6
CONTINUOUS
 62
     0
100
AcDbLine
 10
539.5781381239
 20
374.8286386255
 11
540.5781381239
 21
375.8286386255
  0
LINE
  5
568
100
AcDbEntity
  8
_0-6_
  6
CONTINUOUS
 62
     0
100
AcDbLine
 10
540.9923516863
 20
374.8286386255
 11
541.8678893482
 21
375.7041762873
  0
LINE
  5
569
100
AcDbEntity
  8
_0-6_
  6
CONTINUOUS
 62
     0
100
AcDbLine
 10
541.8678893482
 20
374.8286386255
 11
511.8678893482
 21
374.8286386255
  0
LINE
  5
56A
100
AcDbEntity
  8
_0-6_
  6
CONTINUOUS
 62
     0
100
AcDbLine
 10
511.8678893482
 20
374.8286386255
 11
511.8678893482
 21
375.8286386255
  0
LINE
  5
56B
100
AcDbEntity
  8
_0-6_
  6
CONTINUOUS
 62
     0
100
AcDbLine
 10
511.8678893482
 20
375.8286386255
 11
541.8678893482
 21
375.8286386255
  0
LINE
  5
56C
100
AcDbEntity
  8
_0-6_
  6
CONTINUOUS
 62
     0
100
AcDbLine
 10
541.8678893482
 20
375.8286386255
 11
541.8678893482
 21
374.8286386255
  0
ARC
  5
56D
100
AcDbEntity
  8
_0-6_
  6
CONTINUOUS
 62
     0
100
AcDbCircle
 10
505.8678893482
 20
385.0786386255
 40
10.25
100
AcDbArc
 50
-90
 51
-71.07535558395
  0
LINE
  5
56E
100
AcDbEntity
  8
_0-6_
  6
CONTINUOUS
 62
     0
100
AcDbLine
 10
535.8678893482
 20
380.9374086255
 11
535.8678893482
 21
379.3374096255
  0
LINE
  5
56F
100
AcDbEntity
  8
_0-6_
  6
CONTINUOUS
 62
     0
100
AcDbLine
 10
535.8678893482
 20
380.9374086255
 11
517.8678893482
 21
380.9374086255
  0
LINE
  5
570
100
AcDbEntity
  8
_0-6_
  6
CONTINUOUS
 62
     0
100
AcDbLine
 10
517.8678893482
 20
380.9374086255
 11
517.8678893482
 21
379.3374096255
  0
LINE
  5
571
100
AcDbEntity
  8
_0-6_
  6
CONTINUOUS
 62
     0
100
AcDbLine
 10
520.9878893482
 20
385.2004716255
 11
520.9878893482
 21
380.9374086255
  0
LINE
  5
572
100
AcDbEntity
  8
_0-6_
  6
CONTINUOUS
 62
     0
100
AcDbLine
 10
521.9178893482
 20
385.7374086255
 11
520.9878893482
 21
385.2004716255
  0
ARC
  5
573
100
AcDbEntity
  8
_0-6_
  6
CONTINUOUS
 62
     0
100
AcDbCircle
 10
521.9178893482
 20
381.9280146255
 40
3.809394
100
AcDbArc
 50
59.210036
 51
90
  0
ARC
  5
574
100
AcDbEntity
  8
_0-6_
  6
CONTINUOUS
 62
     0
100
AcDbCircle
 10
526.8678893482
 20
377.0880486255
 40
8.64936
100
AcDbArc
 50
69.705445
 51
110.294555
  0
LINE
  5
575
100
AcDbEntity
  8
_0-6_
  6
CONTINUOUS
 62
     0
100
AcDbLine
 10
523.8678893482
 20
385.2004716255
 11
523.8678893482
 21
380.9374086255
  0
LINE
  5
576
100
AcDbEntity
  8
_0-6_
  6
CONTINUOUS
 62
     0
100
AcDbLine
 10
529.8678893482
 20
385.2004716255
 11
529.8678893482
 21
380.9374086255
  0
LINE
  5
577
100
AcDbEntity
  8
_0-6_
  6
CONTINUOUS
 62
     0
100
AcDbLine
 10
532.7478893482
 20
385.2004716255
 11
532.7478893482
 21
380.9374086255
  0
LINE
  5
578
100
AcDbEntity
  8
_0-6_
  6
CONTINUOUS
 62
     0
100
AcDbLine
 10
531.8178893482
 20
385.7374086255
 11
532.7478893482
 21
385.2004716255
  0
LINE
  5
579
100
AcDbEntity
  8
_0-6_
  6
CONTINUOUS
 62
     0
100
AcDbLine
 10
521.9178893482
 20
385.7374086255
 11
531.8178893482
 21
385.7374086255
  0
ARC
  5
57A
100
AcDbEntity
  8
_0-6_
  6
CONTINUOUS
 62
     0
100
AcDbCircle
 10
531.8178893482
 20
381.9280146255
 40
3.809394
100
AcDbArc
 50
90
 51
120.789964
  0
LINE
  5
57B
100
AcDbEntity
  8
_0-6_
  6
CONTINUOUS
 62
     0
100
AcDbLine
 10
522.1381193482
 20
392.4052326255
 11
522.0857843482
 21
391.4066016255
  0
LINE
  5
57C
100
AcDbEntity
  8
_0-6_
  6
CONTINUOUS
 62
     0
100
AcDbLine
 10
531.3255113482
 20
391.9237416255
 11
531.2731763482
 21
390.9251106255
  0
ARC
  5
57D
100
AcDbEntity
  8
_0-6_
  6
CONTINUOUS
 62
     0
100
AcDbCircle
 10
521.1394913482
 20
392.4575676255
 40
0.999999
100
AcDbArc
 50
-3.000000000005
 51
87
  0
ARC
  5
57E
100
AcDbEntity
  8
_0-6_
  6
CONTINUOUS
 62
     0
100
AcDbCircle
 10
532.3241423482
 20
391.8714036255
 40
0.999999
100
AcDbArc
 50
87
 51
177
  0
ARC
  5
57F
100
AcDbEntity
  8
_0-6_
  6
CONTINUOUS
 62
     0
100
AcDbCircle
 10
514.8678893482
 20
386.3374086255
 40
0.999999
100
AcDbArc
 50
-90
 51
0
  0
LINE
  5
580
100
AcDbEntity
  8
_0-6_
  6
CONTINUOUS
 62
     0
100
AcDbLine
 10
514.8678893482
 20
385.3374096255
 11
510.6678893482
 21
385.3374096255
  0
ARC
  5
581
100
AcDbEntity
  8
_0-6_
  6
CONTINUOUS
 62
     0
100
AcDbCircle
 10
518.4678893482
 20
392.5975806255
 40
0.999999
100
AcDbArc
 50
87
 51
180
  0
LINE
  5
582
100
AcDbEntity
  8
_0-6_
  6
CONTINUOUS
 62
     0
100
AcDbLine
 10
535.3202243482
 20
392.7157596255
 11
518.5202243482
 21
393.5962086255
  0
ARC
  5
583
100
AcDbEntity
  8
_0-6_
  6
CONTINUOUS
 62
     0
100
AcDbCircle
 10
535.2678893482
 20
391.7171286255
 40
0.999999
100
AcDbArc
 50
0
 51
87
  0
LINE
  5
584
100
AcDbEntity
  8
_0-6_
  6
CONTINUOUS
 62
     0
100
AcDbLine
 10
538.8678893482
 20
385.3374096255
 11
543.0678893482
 21
385.3374096255
  0
ARC
  5
585
100
AcDbEntity
  8
_0-6_
  6
CONTINUOUS
 62
     0
100
AcDbCircle
 10
538.8678893482
 20
386.3374086255
 40
0.999999
100
AcDbArc
 50
180
 51
270
  0
LINE
  5
586
100
AcDbEntity
  8
_0-6_
  6
CONTINUOUS
 62
     0
100
AcDbLine
 10
517.4678903482
 20
386.3374086255
 11
517.4678903482
 21
392.5975806255
  0
ARC
  5
587
100
AcDbEntity
  8
_0-6_
  6
CONTINUOUS
 62
     0
100
AcDbCircle
 10
514.8678893482
 20
386.3374086255
 40
2.600001
100
AcDbArc
 50
-90
 51
0
  0
LINE
  5
588
100
AcDbEntity
  8
_0-6_
  6
CONTINUOUS
 62
     0
100
AcDbLine
 10
514.8678893482
 20
383.7374076255
 11
510.3678893482
 21
383.7374076255
  0
LINE
  5
589
100
AcDbEntity
  8
_0-6_
  6
CONTINUOUS
 62
     0
100
AcDbLine
 10
515.8678883482
 20
392.5975806255
 11
515.8678883482
 21
386.3374086255
  0
ARC
  5
58A
100
AcDbEntity
  8
_0-6_
  6
CONTINUOUS
 62
     0
100
AcDbCircle
 10
518.4678893482
 20
392.5975806255
 40
2.600001
100
AcDbArc
 50
87
 51
180
  0
LINE
  5
58B
100
AcDbEntity
  8
_0-6_
  6
CONTINUOUS
 62
     0
100
AcDbLine
 10
537.8678903482
 20
391.7171286255
 11
537.8678903482
 21
386.3374086255
  0
ARC
  5
58C
100
AcDbEntity
  8
_0-6_
  6
CONTINUOUS
 62
     0
100
AcDbCircle
 10
535.2678893482
 20
391.7171286255
 40
2.600001
100
AcDbArc
 50
0
 51
87
  0
LINE
  5
58D
100
AcDbEntity
  8
_0-6_
  6
CONTINUOUS
 62
     0
100
AcDbLine
 10
535.4039633482
 20
394.3135656255
 11
518.6039633482
 21
395.1940176255
  0
LINE
  5
58E
100
AcDbEntity
  8
_0-6_
  6
CONTINUOUS
 62
     0
100
AcDbLine
 10
536.2678883482
 20
386.3374086255
 11
536.2678883482
 21
391.7171286255
  0
ARC
  5
58F
100
AcDbEntity
  8
_0-6_
  6
CONTINUOUS
 62
     0
100
AcDbCircle
 10
538.8678893482
 20
386.3374086255
 40
2.600001
100
AcDbArc
 50
180
 51
270
  0
LINE
  5
590
100
AcDbEntity
  8
_0-6_
  6
CONTINUOUS
 62
     0
100
AcDbLine
 10
538.8678893482
 20
383.7374076255
 11
543.3678893482
 21
383.7374076255
  0
LINE
  5
591
100
AcDbEntity
  8
_0-6_
  6
CONTINUOUS
 62
     0
100
AcDbLine
 10
543.0678893482
 20
382.8374076255
 11
541.1178893482
 21
382.8374076255
  0
ARC
  5
592
100
AcDbEntity
  8
_0-6_
  6
CONTINUOUS
 62
     0
100
AcDbCircle
 10
543.0678893482
 20
383.1374076255
 40
0.3
100
AcDbArc
 50
-90
 51
0
  0
ARC
  5
593
100
AcDbEntity
  8
_0-6_
  6
CONTINUOUS
 62
     0
100
AcDbCircle
 10
543.0678893482
 20
385.0374096255
 40
0.3
100
AcDbArc
 50
0
 51
90
  0
LINE
  5
594
100
AcDbEntity
  8
_0-6_
  6
CONTINUOUS
 62
     0
100
AcDbLine
 10
526.3678883482
 20
379.3374096255
 11
526.8678893482
 21
378.8374086255
  0
LINE
  5
595
100
AcDbEntity
  8
_0-6_
  6
CONTINUOUS
 62
     0
100
AcDbLine
 10
527.3678903482
 20
379.3374096255
 11
526.8678893482
 21
378.8374086255
  0
LINE
  5
596
100
AcDbEntity
  8
_0-6_
  6
CONTINUOUS
 62
     0
100
AcDbLine
 10
521.8678883482
 20
377.3374086255
 11
521.8678883482
 21
376.8374076255
  0
LINE
  5
597
100
AcDbEntity
  8
_0-6_
  6
CONTINUOUS
 62
     0
100
AcDbLine
 10
542.8678883482
 20
386.8374096255
 11
540.1178903482
 21
386.8374096255
  0
ARC
  5
598
100
AcDbEntity
  8
_0-6_
  6
CONTINUOUS
 62
     0
100
AcDbCircle
 10
542.8678883482
 20
387.3374076255
 40
0.500001
100
AcDbArc
 50
-90
 51
0
  0
ARC
  5
599
100
AcDbEntity
  8
_0-6_
  6
CONTINUOUS
 62
     0
100
AcDbCircle
 10
540.1178903482
 20
386.0874096255
 40
0.75
100
AcDbArc
 50
90
 51
270
  0
LINE
  5
59A
100
AcDbEntity
  8
_0-6_
  6
CONTINUOUS
 62
     0
100
AcDbLine
 10
531.8678903482
 20
377.3374086255
 11
543.3678893482
 21
377.3374086255
  0
LINE
  5
59B
100
AcDbEntity
  8
_0-6_
  6
CONTINUOUS
 62
     0
100
AcDbLine
 10
531.8678903482
 20
377.3374086255
 11
531.8678903482
 21
376.8374076255
  0
ARC
  5
59C
100
AcDbEntity
  8
_0-6_
  6
CONTINUOUS
 62
     0
100
AcDbCircle
 10
541.1178893482
 20
382.0874076255
 40
0.75
100
AcDbArc
 50
90
 51
270
  0
LINE
  5
59D
100
AcDbEntity
  8
_0-6_
  6
CONTINUOUS
 62
     0
100
AcDbLine
 10
543.0678893482
 20
381.3374076255
 11
541.1178893482
 21
381.3374076255
  0
ARC
  5
59E
100
AcDbEntity
  8
_0-6_
  6
CONTINUOUS
 62
     0
100
AcDbCircle
 10
543.0678893482
 20
381.0374076255
 40
0.3
100
AcDbArc
 50
0
 51
90
  0
LINE
  5
59F
100
AcDbEntity
  8
_0-6_
  6
CONTINUOUS
 62
     0
100
AcDbLine
 10
510.3678893482
 20
377.3374086255
 11
521.8678883482
 21
377.3374086255
  0
LINE
  5
5A0
100
AcDbEntity
  8
_0-6_
  6
CONTINUOUS
 62
     0
100
AcDbLine
 10
510.6678893482
 20
382.8374076255
 11
512.6178893482
 21
382.8374076255
  0
ARC
  5
5A1
100
AcDbEntity
  8
_0-6_
  6
CONTINUOUS
 62
     0
100
AcDbCircle
 10
510.6678893482
 20
383.1374076255
 40
0.3
100
AcDbArc
 50
180
 51
270
  0
LINE
  5
5A2
100
AcDbEntity
  8
_0-6_
  6
CONTINUOUS
 62
     0
100
AcDbLine
 10
510.3678893482
 20
383.1374076255
 11
510.3678893482
 21
385.0374096255
  0
ARC
  5
5A3
100
AcDbEntity
  8
_0-6_
  6
CONTINUOUS
 62
     0
100
AcDbCircle
 10
510.6678893482
 20
385.0374096255
 40
0.3
100
AcDbArc
 50
90
 51
180
  0
LINE
  5
5A4
100
AcDbEntity
  8
_0-6_
  6
CONTINUOUS
 62
     0
100
AcDbLine
 10
509.3678903482
 20
386.8374096255
 11
513.6178883482
 21
386.8374096255
  0
ARC
  5
5A5
100
AcDbEntity
  8
_0-6_
  6
CONTINUOUS
 62
     0
100
AcDbCircle
 10
509.3678903482
 20
386.3374086255
 40
0.500001
100
AcDbArc
 50
90
 51
180
  0
ARC
  5
5A6
100
AcDbEntity
  8
_0-6_
  6
CONTINUOUS
 62
     0
100
AcDbCircle
 10
513.6178883482
 20
386.0874096255
 40
0.75
100
AcDbArc
 50
-90
 51
90
  0
LINE
  5
5A7
100
AcDbEntity
  8
_0-6_
  6
CONTINUOUS
 62
     0
100
AcDbLine
 10
508.8678893482
 20
386.3374086255
 11
508.8678893482
 21
376.8374076255
  0
LINE
  5
5A8
100
AcDbEntity
  8
_0-6_
  6
CONTINUOUS
 62
     0
100
AcDbLine
 10
510.3678893482
 20
377.3374086255
 11
510.3678893482
 21
376.8374076255
  0
ARC
  5
5A9
100
AcDbEntity
  8
_0-6_
  6
CONTINUOUS
 62
     0
100
AcDbCircle
 10
512.6178893482
 20
382.0874076255
 40
0.75
100
AcDbArc
 50
-90
 51
90
  0
ARC
  5
5AA
100
AcDbEntity
  8
_0-6_
  6
CONTINUOUS
 62
     0
100
AcDbCircle
 10
510.6678893482
 20
379.6374096255
 40
0.3
100
AcDbArc
 50
180
 51
270
  0
LINE
  5
5AB
100
AcDbEntity
  8
_0-6_
  6
CONTINUOUS
 62
     0
100
AcDbLine
 10
510.3678893482
 20
379.6374096255
 11
510.3678893482
 21
381.0374076255
  0
ARC
  5
5AC
100
AcDbEntity
  8
_0-6_
  6
CONTINUOUS
 62
     0
100
AcDbCircle
 10
510.6678893482
 20
381.0374076255
 40
0.3
100
AcDbArc
 50
90
 51
180
  0
LINE
  5
5AD
100
AcDbEntity
  8
_0-6_
  6
CONTINUOUS
 62
     0
100
AcDbLine
 10
510.6678893482
 20
381.3374076255
 11
512.6178893482
 21
381.3374076255
  0
ARC
  5
5AE
100
AcDbEntity
  8
_0-6_
  6
CONTINUOUS
 62
     0
100
AcDbCircle
 10
542.8678883482
 20
379.8374076255
 40
0.500001
100
AcDbArc
 50
-90
 51
0
  0
LINE
  5
5AF
100
AcDbEntity
  8
_0-6_
  6
CONTINUOUS
 62
     0
100
AcDbLine
 10
542.8678883482
 20
379.3374096255
 11
510.6678893482
 21
379.3374096255
  0
LINE
  5
5B0
100
AcDbEntity
  8
_0-6_
  6
CONTINUOUS
 62
     0
100
AcDbLine
 10
510.3678893482
 20
376.8374076255
 11
508.8678893482
 21
376.8374076255
  0
ARC
  5
5B1
100
AcDbEntity
  8
_0-6_
  6
CONTINUOUS
 62
     0
100
AcDbCircle
 10
544.3678883482
 20
394.8374076255
 40
0.999999
100
AcDbArc
 50
0
 51
180
  0
LINE
  5
5B2
100
AcDbEntity
  8
_0-6_
  6
CONTINUOUS
 62
     0
100
AcDbLine
 10
543.3678893482
 20
387.3374076255
 11
543.3678893482
 21
394.8374076255
  0
LINE
  5
5B3
100
AcDbEntity
  8
_0-6_
  6
CONTINUOUS
 62
     0
100
AcDbLine
 10
543.3678893482
 20
383.1374076255
 11
543.3678893482
 21
385.0374096255
  0
ARC
  5
5B4
100
AcDbEntity
  8
_0-6_
  6
CONTINUOUS
 62
     0
100
AcDbCircle
 10
545.8678883482
 20
379.8374076255
 40
0.500001
100
AcDbArc
 50
180
 51
270
  0
LINE
  5
5B5
100
AcDbEntity
  8
_0-6_
  6
CONTINUOUS
 62
     0
100
AcDbLine
 10
545.3678903482
 20
377.8374096255
 11
545.3678903482
 21
376.8374076255
  0
LINE
  5
5B6
100
AcDbEntity
  8
_0-6_
  6
CONTINUOUS
 62
     0
100
AcDbLine
 10
543.3678893482
 20
377.3374086255
 11
543.3678893482
 21
376.8374076255
  0
LINE
  5
5B7
100
AcDbEntity
  8
_0-6_
  6
CONTINUOUS
 62
     0
100
AcDbLine
 10
543.3678893482
 20
379.8374076255
 11
543.3678893482
 21
381.0374076255
  0
LINE
  5
5B8
100
AcDbEntity
  8
_0-6_
  6
CONTINUOUS
 62
     0
100
AcDbLine
 10
555.8678903482
 20
377.8374096255
 11
555.8678903482
 21
376.8374076255
  0
LINE
  5
5B9
100
AcDbEntity
  8
_0-6_
  6
CONTINUOUS
 62
     0
100
AcDbLine
 10
557.3678903482
 20
376.8374076255
 11
555.8678903482
 21
376.8374076255
  0
LINE
  5
5BA
100
AcDbEntity
  8
_0-6_
  6
CONTINUOUS
 62
     0
100
AcDbLine
 10
545.3678903482
 20
376.8374076255
 11
543.3678893482
 21
376.8374076255
  0
LINE
  5
5BB
100
AcDbEntity
  8
_0-6_
  6
CONTINUOUS
 62
     0
100
AcDbLine
 10
557.3678903482
 20
378.8374096255
 11
557.3678903482
 21
376.8374076255
  0
ARC
  5
5BC
100
AcDbEntity
  8
_0-6_
  6
CONTINUOUS
 62
     0
100
AcDbCircle
 10
556.8678903482
 20
378.8374096255
 40
0.5
100
AcDbArc
 50
0
 51
90
  0
LINE
  5
5BD
100
AcDbEntity
  8
_0-6_
  6
CONTINUOUS
 62
     0
100
AcDbLine
 10
545.6178903482
 20
382.5874096255
 11
546.8678903483
 21
382.5874096255
  0
LINE
  5
5BE
100
AcDbEntity
  8
_0-6_
  6
CONTINUOUS
 62
     0
100
AcDbLine
 10
549.8678903483
 20
382.5874096255
 11
551.1178903482
 21
382.5874096255
  0
ARC
  5
5BF
100
AcDbEntity
  8
_0-6_
  6
CONTINUOUS
 62
     0
100
AcDbCircle
 10
576.7144958205
 20
425.5228022478
 40
0.5
100
AcDbArc
 50
-99.19866089519
 51
78.59045565079
  0
ARC
  5
5C0
100
AcDbEntity
  8
_0-6_
  6
CONTINUOUS
 62
     0
100
AcDbCircle
 10
571.8678903483
 20
401.5069654854
 40
25
100
AcDbArc
 50
78.59045565079
 51
180
  0
ARC
  5
5C1
100
AcDbEntity
  8
_0-6_
  6
CONTINUOUS
 62
     0
100
AcDbCircle
 10
572.9438359422
 20
402.2385969834
 40
23.08754100601
100
AcDbArc
 50
80.80133910481
 51
181.8159758207
  0
LINE
  5
5C2
100
AcDbEntity
  8
_0-6_
  6
CONTINUOUS
 62
     0
100
AcDbLine
 10
545.3678903482
 20
377.8374096255
 11
552.873839222
 21
377.8374096255
  0
LINE
  5
5C3
100
AcDbEntity
  8
_0-6_
  6
CONTINUOUS
 62
     0
100
AcDbLine
 10
552.873839222
 20
377.8374096255
 11
555.8678903482
 21
377.8374096255
  0
LINE
  5
5C4
100
AcDbEntity
  8
_0-6_
  6
CONTINUOUS
 62
     0
100
AcDbLine
 10
550.8678903482
 20
379.3374096255
 11
545.8678883482
 21
379.3374096255
  0
LINE
  5
5C5
100
AcDbEntity
  8
_0-6_
  6
CONTINUOUS
 62
     0
100
AcDbLine
 10
556.8678903482
 20
379.3374096255
 11
552.8678903482
 21
379.3374096255
  0
ARC
  5
5C6
100
AcDbEntity
  8
_0-6_
  6
CONTINUOUS
 62
     0
100
AcDbCircle
 10
550.8678903482
 20
379.8374096255
 40
0.25
100
AcDbArc
 50
-90
 51
0
  0
ARC
  5
5C7
100
AcDbEntity
  8
_0-6_
  6
CONTINUOUS
 62
     0
100
AcDbCircle
 10
545.8678883482
 20
379.8374076255
 40
0.250001
100
AcDbArc
 50
180
 51
270
  0
LINE
  5
5C8
100
AcDbEntity
  8
_0-6_
  6
CONTINUOUS
 62
     0
100
AcDbLine
 10
551.1178903482
 20
379.8374096255
 11
551.1178903482
 21
382.5874096255
  0
LINE
  5
5C9
100
AcDbEntity
  8
_0-6_
  6
CONTINUOUS
 62
     0
100
AcDbLine
 10
545.6178903482
 20
379.8374076255
 11
545.6178903482
 21
382.5874096255
  0
LINE
  5
5CA
100
AcDbEntity
  8
_0-6_
  6
CONTINUOUS
 62
     0
100
AcDbLine
 10
550.8678903482
 20
379.5874096255
 11
545.8678883482
 21
379.5874096255
  0
LINE
  5
5CB
100
AcDbEntity
  8
_0-6_
  6
CONTINUOUS
 62
     0
100
AcDbLine
 10
545.3678903482
 20
394.8374076255
 11
545.3678903482
 21
384.3374096255
  0
LINE
  5
5CC
100
AcDbEntity
  8
_0-6_
  6
CONTINUOUS
 62
     0
100
AcDbLine
 10
545.3678903482
 20
382.8374096255
 11
545.3678903482
 21
379.8374076255
  0
LINE
  5
5CD
100
AcDbEntity
  8
_0-6_
  6
CONTINUOUS
 62
     0
100
AcDbLine
 10
551.3678903482
 20
379.8374096255
 11
551.3678903482
 21
382.8374096255
  0
LINE
  5
5CE
100
AcDbEntity
  8
_0-6_
  6
CONTINUOUS
 62
     0
100
AcDbLine
 10
552.8678903482
 20
383.8374096255
 11
552.8678903482
 21
379.3374096255
  0
ARC
  5
5CF
100
AcDbEntity
  8
_0-6_
  6
CONTINUOUS
 62
     0
100
AcDbCircle
 10
552.3678903482
 20
383.8374096255
 40
0.5
100
AcDbArc
 50
0
 51
90
  0
ARC
  5
5D0
100
AcDbEntity
  8
_0-6_
  6
CONTINUOUS
 62
     0
100
AcDbCircle
 10
550.8678903482
 20
379.8374096255
 40
0.5
100
AcDbArc
 50
-90
 51
0
  0
LINE
  5
5D1
100
AcDbEntity
  8
_0-6_
  6
CONTINUOUS
 62
     0
100
AcDbLine
 10
552.3678903482
 20
384.3374096255
 11
551.1178903482
 21
384.3374096255
  0
ARC
  5
5D2
100
AcDbEntity
  8
_0-6_
  6
CONTINUOUS
 62
     0
100
AcDbCircle
 10
551.1178903482
 20
383.3374096255
 40
1
100
AcDbArc
 50
90
 51
180
  0
LINE
  5
5D3
100
AcDbEntity
  8
_0-6_
  6
CONTINUOUS
 62
     0
100
AcDbLine
 10
550.1178903482
 20
383.3374096255
 11
550.1178903482
 21
382.8374096255
  0
LINE
  5
5D4
100
AcDbEntity
  8
_0-6_
  6
CONTINUOUS
 62
     0
100
AcDbLine
 10
550.1178903482
 20
382.8374096255
 11
551.3678903482
 21
382.8374096255
  0
LINE
  5
5D5
100
AcDbEntity
  8
_0-6_
  6
CONTINUOUS
 62
     0
100
AcDbLine
 10
545.3678903482
 20
382.8374096255
 11
546.6178903482
 21
382.8374096255
  0
LINE
  5
5D6
100
AcDbEntity
  8
_0-6_
  6
CONTINUOUS
 62
     0
100
AcDbLine
 10
546.6178903482
 20
383.3374096255
 11
546.6178903482
 21
382.8374096255
  0
ARC
  5
5D7
100
AcDbEntity
  8
_0-6_
  6
CONTINUOUS
 62
     0
100
AcDbCircle
 10
545.6178903482
 20
383.3374096255
 40
1
100
AcDbArc
 50
0
 51
90
  0
LINE
  5
5D8
100
AcDbEntity
  8
_0-6_
  6
CONTINUOUS
 62
     0
100
AcDbLine
 10
545.6178903482
 20
384.3374096255
 11
545.3678903482
 21
384.3374096255
  0
LINE
  5
5D9
100
AcDbEntity
  8
_0-6_
  6
CONTINUOUS
 62
     0
100
AcDbLine
 10
541.8678893482
 20
375.7041762873
 11
541.8678893482
 21
376.8286386255
  0
LINE
  5
5DA
100
AcDbEntity
  8
_0-6_
  6
CONTINUOUS
 62
     0
100
AcDbLine
 10
511.8678893482
 20
376.8286386255
 11
541.8678893482
 21
376.8286386255
  0
LINE
  5
5DB
100
AcDbEntity
  8
_0-6_
  6
CONTINUOUS
 62
     0
100
AcDbLine
 10
516.9096492132
 20
421.5226999759
 11
539.8781292132
 21
420.3189739759
  0
LINE
  5
5DC
100
AcDbEntity
  8
_0-6_
  6
CONTINUOUS
 62
     0
100
AcDbLine
 10
503.4620802132
 20
409.3057909759
 11
516.9096492132
 21
421.5226999759
  0
LINE
  5
5DD
100
AcDbEntity
  8
_0-6_
  6
CONTINUOUS
 62
     0
100
AcDbLine
 10
499.6132572132
 20
411.5124169759
 11
500.2744932132
 21
411.9627169759
  0
LINE
  5
5DE
100
AcDbEntity
  8
_0-6_
  6
CONTINUOUS
 62
     0
100
AcDbLine
 10
500.2744932132
 20
411.9627169759
 11
501.9631092132
 21
409.4830849759
  0
LINE
  5
5DF
100
AcDbEntity
  8
_0-6_
  6
CONTINUOUS
 62
     0
100
AcDbLine
 10
499.6132572132
 20
411.5124169759
 11
501.3018732132
 21
409.0327849759
  0
ARC
  5
5E0
100
AcDbEntity
  8
_0-6_
  6
CONTINUOUS
 62
     0
100
AcDbCircle
 10
502.7896512132
 20
410.0459569759
 40
0.999999
100
AcDbArc
 50
-145.745342
 51
-47.74534800001
  0
ARC
  5
5E1
100
AcDbEntity
  8
_0-6_
  6
CONTINUOUS
 62
     0
100
AcDbCircle
 10
502.7896512132
 20
410.0459569759
 40
1.8
100
AcDbArc
 50
-145.745342
 51
-47.745349
  0
ARC
  5
5E2
100
AcDbEntity
  8
_0-6_
  6
CONTINUOUS
 62
     0
100
AcDbCircle
 10
528.3153852132
 20
419.4228919759
 40
6.3
100
AcDbArc
 50
37.903458
 51
136.096542
  0
LINE
  5
5E3
100
AcDbEntity
  8
_0-6_
  6
CONTINUOUS
 62
     0
100
AcDbLine
 10
523.2199362132
 20
422.5093789759
 11
523.1510832132
 21
421.1956009759
  0
LINE
  5
5E4
100
AcDbEntity
  8
_0-6_
  6
CONTINUOUS
 62
     0
100
AcDbLine
 10
533.7055452132
 20
421.9598509759
 11
533.6366952132
 21
420.6460729759
  0
ARC
  5
5E5
100
AcDbEntity
  8
_0-6_
  6
CONTINUOUS
 62
     0
100
AcDbCircle
 10
525.2171952132
 20
422.4047089759
 40
2.000001
100
AcDbArc
 50
136.096542
 51
177
  0
LINE
  5
5E6
100
AcDbEntity
  8
_0-6_
  6
CONTINUOUS
 62
     0
100
AcDbLine
 10
504.0000192132
 20
408.7136599759
 11
517.2007782132
 21
420.7063459759
  0
LINE
  5
5E7
100
AcDbEntity
  8
_0-6_
  6
CONTINUOUS
 62
     0
100
AcDbLine
 10
517.2007782132
 20
420.7063459759
 11
539.5441062132
 21
419.5353799759
  0
LINE
  5
5E8
100
AcDbEntity
  8
_0-6_
  6
CONTINUOUS
 62
     0
100
AcDbLine
 10
551.3781282132
 20
406.2306799759
 11
539.5032612132
 21
419.5375219759
  0
ARC
  5
5E9
100
AcDbEntity
  8
_0-6_
  6
CONTINUOUS
 62
     0
100
AcDbCircle
 10
531.7082862132
 20
422.0645239759
 40
2.000001
100
AcDbArc
 50
-2.999999999999
 51
37.903458
  0
LINE
  5
5EA
100
AcDbEntity
  8
_0-6_
  6
CONTINUOUS
 62
     0
100
AcDbLine
 10
556.0334112132
 20
408.5555629759
 11
555.4228662132
 21
409.0725109759
  0
LINE
  5
5EB
100
AcDbEntity
  8
_0-6_
  6
CONTINUOUS
 62
     0
100
AcDbLine
 10
555.4228662132
 20
409.0725109759
 11
553.4843082132
 21
406.7829709759
  0
LINE
  5
5EC
100
AcDbEntity
  8
_0-6_
  6
CONTINUOUS
 62
     0
100
AcDbLine
 10
556.0334112132
 20
408.5555629759
 11
554.0948532132
 21
406.2660229759
  0
ARC
  5
5ED
100
AcDbEntity
  8
_0-6_
  6
CONTINUOUS
 62
     0
100
AcDbCircle
 10
552.7211292132
 20
407.4291589759
 40
0.999999
100
AcDbArc
 50
-138.254652
 51
-40.254658
  0
LINE
  5
5EE
100
AcDbEntity
  8
_0-6_
  6
CONTINUOUS
 62
     0
100
AcDbLine
 10
551.9750172132
 20
406.7633359759
 11
539.8781292132
 21
420.3189739759
  0
ARC
  5
5EF
100
AcDbEntity
  8
_0-6_
  6
CONTINUOUS
 62
     0
100
AcDbCircle
 10
552.7211292132
 20
407.4291589759
 40
1.8
100
AcDbArc
 50
-138.254651
 51
-40.254658
  0
LINE
  5
5F0
100
AcDbEntity
  8
_0-6_
  6
CONTINUOUS
 62
     0
100
AcDbLine
 10
528.7003872132
 20
426.7691869759
 11
526.5541195664
 21
388.1022900403
  0
LINE
  5
5F1
100
AcDbEntity
  8
_0-6_
  6
CONTINUOUS
 62
     0
100
AcDbLine
 10
546.8678903483
 20
382.5874096255
 11
546.854245135
 21
402.5558361794
  0
LINE
  5
5F2
100
AcDbEntity
  8
_0-6_
  6
CONTINUOUS
 62
     0
100
AcDbLine
 10
549.8678903483
 20
382.5874096255
 11
549.854245135
 21
404.0190991754
  0
LINE
  5
5F3
100
AcDbEntity
  8
_0-6_
  6
CONTINUOUS
 62
     0
100
AcDbLine
 10
531.3897792132
 20
420.7638289759
 11
529.6881575779
 21
391.3125231655
  0
LINE
  5
5F4
100
AcDbEntity
  8
_0-6_
  6
CONTINUOUS
 62
     0
100
AcDbLine
 10
525.3979992132
 20
421.0778449759
 11
523.6963815032
 21
391.6265385747
  0
LINE
  5
5F5
100
AcDbEntity
  8
_0-6_
  6
CONTINUOUS
 62
     0
100
AcDbLine
 10
523.6963815032
 20
391.6265385747
 11
529.6881575779
 21
391.3125231655
  0
LINE
  5
5F6
100
AcDbEntity
  8
_0-6_
  6
CONTINUOUS
 62
     0
100
AcDbLine
 10
530.8904622132
 20
420.7899979759
 11
529.160003494
 21
390.8395163526
  0
LINE
  5
5F7
100
AcDbEntity
  8
_0-6_
  6
CONTINUOUS
 62
     0
100
AcDbLine
 10
525.8973162132
 20
421.0516759759
 11
524.1668533324
 21
391.1011960402
  0
LINE
  5
5F8
100
AcDbEntity
  8
_0-6_
  6
CONTINUOUS
 62
     0
100
AcDbLine
 10
524.1668533324
 20
391.1011960402
 11
529.160003494
 21
390.8395163526
  0
LINE
  5
5F9
100
AcDbEntity
  8
_0-6_
  6
CONTINUOUS
 62
     0
100
AcDbLine
 10
529.3671158657
 20
391.0250030615
 11
529.160003494
 21
390.8395163526
  0
LINE
  5
5FA
100
AcDbEntity
  8
_0-6_
  6
CONTINUOUS
 62
     0
100
AcDbLine
 10
524.1668533324
 20
391.1011960402
 11
523.9823603712
 21
391.3072062491
  0
LINE
  5
5FB
100
AcDbEntity
  8
_0-6_
  6
CONTINUOUS
 62
     0
100
AcDbLine
 10
529.6881575779
 20
391.3125231655
 11
529.3671158657
 21
391.0250030615
  0
LINE
  5
5FC
100
AcDbEntity
  8
_0-6_
  6
CONTINUOUS
 62
     0
100
AcDbLine
 10
523.9823603712
 20
391.3072062491
 11
523.6963815032
 21
391.6265385747
  0
LINE
  5
5FD
100
AcDbEntity
  8
_0-6_
  6
CONTINUOUS
 62
     0
100
AcDbLine
 10
526.8502160626
 20
297.3076797469
 11
529.8502160626
 21
298.0576797469
  0
LINE
  5
5FE
100
AcDbEntity
  8
_0-6_
  6
CONTINUOUS
 62
     0
100
AcDbLine
 10
526.8502160626
 20
297.3076797469
 11
529.8502160626
 21
296.5576797469
  0
LINE
  5
5FF
100
AcDbEntity
  8
_0-6_
  6
CONTINUOUS
 62
     0
100
AcDbLine
 10
576.8502170626
 20
297.3076797469
 11
573.8502170626
 21
296.5576797469
  0
LINE
  5
600
100
AcDbEntity
  8
_0-6_
  6
CONTINUOUS
 62
     0
100
AcDbLine
 10
576.8502170626
 20
297.3076797469
 11
573.8502170626
 21
298.0576797469
  0
LINE
  5
601
100
AcDbEntity
  8
_0-6_
  6
CONTINUOUS
 62
     0
100
AcDbLine
 10
576.8502170626
 20
297.3076797469
 11
526.8502160626
 21
297.3076797469
  0
LINE
  5
602
100
AcDbEntity
  8
_0-6_
  6
CONTINUOUS
 62
     0
100
AcDbLine
 10
526.8502160626
 20
297.3076797469
 11
526.8502160626
 21
374.8286386255
  0
TEXT
  5
603
100
AcDbEntity
  8
_0-2_寸法
  6
CONTINUOUS
 62
     0
100
AcDbText
 10
546.9955877428
 20
298.7796413241
 40
5
  1
５０
  7
STANDARD
100
AcDbText
  0
LINE
  5
604
100
AcDbEntity
  8
_0-0_0
  6
CONTINUOUS
 62
     0
100
AcDbLine
 10
576.8502170626
 20
374.8286386255
 11
576.8502170626
 21
243.125793641
  0
TEXT
  5
605
100
AcDbEntity
  8
_0-2_寸法
  6
CONTINUOUS
 62
     0
100
AcDbText
 10
431.3606545559
 20
557.1553560351
 40
5
  1
W
  7
STANDARD
100
AcDbText
  0
TEXT
  5
606
100
AcDbEntity
  8
_0-2_寸法
  6
CONTINUOUS
 62
     0
100
AcDbText
 10
416.2224659986
 20
478.6797691219
 40
5
  1
（キャップ幅）
  7
STANDARD
100
AcDbText
  0
TEXT
  5
607
100
AcDbEntity
  8
_0-2_寸法
  6
CONTINUOUS
 62
     0
100
AcDbText
 10
433.5613393441
 20
486.4245143118
 40
5
  1
A
  7
STANDARD
100
AcDbText
  0
TEXT
  5
608
100
AcDbEntity
  8
_0-4_図枠
  6
CONTINUOUS
 62
     0
100
AcDbText
 10
27.54650870913
 20
563.4696321568
 40
5
  1
◇ステンレス２５０タイプ（２５０ＦＹＫＧ－Ｓ）
  7
STANDARD
100
AcDbText
  0
CIRCLE
  5
609
100
AcDbEntity
  8
_0-4_図枠
  6
CONTINUOUS
 62
     0
100
AcDbCircle
 10
596.822644142
 20
461.72816477
 40
6
  0
CIRCLE
  5
60A
100
AcDbEntity
  8
_0-4_図枠
  6
CONTINUOUS
 62
     0
100
AcDbCircle
 10
576.6877076866
 20
426.3163050084
 40
0.9
  0
LINE
  5
60B
100
AcDbEntity
  8
_0-4_図枠
  6
CONTINUOUS
 62
     0
100
AcDbLine
 10
576.6877076866
 20
426.3163050084
 11
594.0582336442
 21
456.4029385213
  0
LINE
  5
60C
100
AcDbEntity
  8
_0-4_図枠
  6
CONTINUOUS
 62
     0
100
AcDbLine
 10
125
 20
36
 11
125
 21
234
  0
LINE
  5
60D
100
AcDbEntity
  8
_0-4_図枠
  6
CONTINUOUS
 62
     0
100
AcDbLine
 10
139
 20
36
 11
139
 21
234
  0
LINE
  5
60E
100
AcDbEntity
  8
_0-4_図枠
  6
CONTINUOUS
 62
     0
100
AcDbLine
 10
239
 20
36
 11
239
 21
234
  0
LINE
  5
60F
100
AcDbEntity
  8
_0-4_図枠
  6
CONTINUOUS
 62
     0
100
AcDbLine
 10
334
 20
36
 11
334
 21
234
  0
LINE
  5
610
100
AcDbEntity
  8
_0-4_図枠
  6
CONTINUOUS
 62
     0
100
AcDbLine
 10
335
 20
36
 11
335
 21
234
  0
LINE
  5
611
100
AcDbEntity
  8
_0-4_図枠
  6
CONTINUOUS
 62
     0
100
AcDbLine
 10
370
 20
36
 11
370
 21
234
  0
LINE
  5
612
100
AcDbEntity
  8
_0-4_図枠
  6
CONTINUOUS
 62
     0
100
AcDbLine
 10
388
 20
36
 11
388
 21
234
  0
LINE
  5
613
100
AcDbEntity
  8
_0-4_図枠
  6
CONTINUOUS
 62
     0
100
AcDbLine
 10
402
 20
36
 11
402
 21
234
  0
LINE
  5
614
100
AcDbEntity
  8
_0-3_躯体と製品
  6
CONTINUOUS
 62
     0
100
AcDbLine
 10
150.8502170626
 20
506.8328167658
 11
150.8502170626
 21
374.8286386255
  0
LINE
  5
615
100
AcDbEntity
  8
_0-0_0
  6
CONTINUOUS
 62
     0
100
AcDbLine
 10
175.8502170626
 20
374.8286386255
 11
175.8502170626
 21
241.3796110358
  0
LINE
  5
616
100
AcDbEntity
  8
_0-0_0
  6
CONTINUOUS
 62
     0
100
AcDbLine
 10
150.8502170626
 20
374.8286386255
 11
175.8502170626
 21
374.8286386255
  0
LINE
  5
617
100
AcDbEntity
  8
_0-0_0
  6
CONTINUOUS
 62
     0
100
AcDbLine
 10
150.8502170626
 20
374.8286386255
 11
75.85021706258
 21
374.8286386255
  0
LINE
  5
618
100
AcDbEntity
  8
_0-0_0
  6
CONTINUOUS
 62
     0
100
AcDbLine
 10
175.8502170626
 20
374.8286386255
 11
200.9335105871
 21
281.216512771
  0
LINE
  5
619
100
AcDbEntity
  8
_0-3_躯体と製品
  6
CONTINUOUS
 62
     0
100
AcDbLine
 10
151.8502170626
 20
399.8286386255
 11
151.8502170626
 21
461.8328167658
  0
ARC
  5
61A
100
AcDbEntity
  8
_0-0_0
  6
CONTINUOUS
 62
     0
100
AcDbCircle
 10
175.8502170626
 20
399.8286386255
 40
25
100
AcDbArc
 50
180
 51
270
  0
LINE
  5
61B
100
AcDbEntity
  8
_0-0_0
  6
CONTINUOUS
 62
     0
100
AcDbLine
 10
176.8161428889
 20
375.0874576706
 11
201.8994364133
 21
281.4753318161
  0
ARC
  5
61C
100
AcDbEntity
  8
_0-0_0
  6
CONTINUOUS
 62
     0
100
AcDbCircle
 10
175.8502170626
 20
399.8286386255
 40
24
100
AcDbArc
 50
180
 51
270
  0
ARC
  5
61D
100
AcDbEntity
  8
_0-0_0
  6
CONTINUOUS
 62
     0
100
AcDbCircle
 10
175.8502170626
 20
374.8286386255
 40
1
100
AcDbArc
 50
14.99999999999
 51
90
  0
CIRCLE
  5
61E
100
AcDbEntity
  8
_0-4_図枠
  6
CONTINUOUS
 62
     0
100
AcDbCircle
 10
192.8739173384
 20
315.0438513863
 40
0.9
  0
LINE
  5
61F
100
AcDbEntity
  8
_0-4_図枠
  6
CONTINUOUS
 62
     0
100
AcDbLine
 10
192.8739173384
 20
315.0438513863
 11
206.7572045248
 21
339.0904101692
  0
CIRCLE
  5
620
100
AcDbEntity
  8
_0-4_図枠
  6
CONTINUOUS
 62
     0
100
AcDbCircle
 10
209.7572045248
 20
344.2865625919
 40
6
  0
CIRCLE
  5
621
100
AcDbEntity
  8
_0-2_寸法
  6
CONTINUOUS
 62
     0
100
AcDbCircle
 10
175.8502170626
 20
259.8286386255
 40
1.4
  0
CIRCLE
  5
622
100
AcDbEntity
  8
_0-2_寸法
  6
CONTINUOUS
 62
     0
100
AcDbCircle
 10
175.8502170626
 20
259.8286386255
 40
1.4
  0
LINE
  5
623
100
AcDbEntity
  8
_0-0_0
  6
CONTINUOUS
 62
     0
100
AcDbLine
 10
150.8502170626
 20
374.8286386255
 11
150.8502170626
 21
259.8286386255
  0
TEXT
  5
624
100
AcDbEntity
  8
_0-2_寸法
  6
CONTINUOUS
 62
     0
100
AcDbText
 10
160.4169573458
 20
260.4450793838
 40
5
  1
25
  7
STANDARD
100
AcDbText
  0
ARC
  5
625
100
AcDbEntity
  8
_0-3_躯体と製品
  6
CONTINUOUS
 62
     0
100
AcDbCircle
 10
425.8502170626
 20
373.8286386255
 40
1
100
AcDbArc
 50
90
 51
175
  0
ARC
  5
626
100
AcDbEntity
  8
_0-3_躯体と製品
  6
CONTINUOUS
 62
     0
100
AcDbCircle
 10
425.8502170626
 20
373.8286386255
 40
2
100
AcDbArc
 50
90
 51
175
  0
CIRCLE
  5
627
100
AcDbEntity
  8
_0-2_寸法
  6
CONTINUOUS
 62
     0
100
AcDbCircle
 10
425.8502170626
 20
259.8286386255
 40
1.4
  0
CIRCLE
  5
628
100
AcDbEntity
  8
_0-2_寸法
  6
CONTINUOUS
 62
     0
100
AcDbCircle
 10
425.8502170626
 20
259.8286386255
 40
1.4
  0
CIRCLE
  5
629
100
AcDbEntity
  8
_0-2_寸法
  6
CONTINUOUS
 62
     0
100
AcDbCircle
 10
425.8502170626
 20
259.8286386255
 40
1.4
  0
LINE
  5
62A
100
AcDbEntity
  8
_0-3_躯体と製品
  6
CONTINUOUS
 62
     0
100
AcDbLine
 10
425.8502170626
 20
374.8286386255
 11
576.8502170626
 21
374.8286386255
  0
LINE
  5
62B
100
AcDbEntity
  8
_0-3_躯体と製品
  6
CONTINUOUS
 62
     0
100
AcDbLine
 10
425.8502170626
 20
375.8286386255
 11
505.8502170626
 21
375.8286386255
  0
LINE
  5
62C
100
AcDbEntity
  8
_0-3_躯体と製品
  6
CONTINUOUS
 62
     0
100
AcDbLine
 10
425.8502170626
 20
374.8286386255
 11
425.8502170626
 21
243.125793641
  0
LINE
  5
62D
100
AcDbEntity
  8
_0-0_0
  6
CONTINUOUS
 62
     0
100
AcDbLine
 10
420.4171239451
 20
374.8286386255
 11
175.8502170626
 21
374.8286386255
  0
TEXT
  5
62E
100
AcDbEntity
  8
_0-0_0
  6
CONTINUOUS
 62
     0
100
AcDbText
 10
289.9667836962
 20
259.832550654
 40
5
  1
250
  7
STANDARD
100
AcDbText
  0
LINE
  5
62F
100
AcDbEntity
  8
_0-0_0
  6
CONTINUOUS
 62
     0
100
AcDbLine
 10
424.8540223645
 20
373.9157943682
 11
400.3515688837
 21
282.4713930678
  0
LINE
  5
630
100
AcDbEntity
  8
_0-0_0
  6
CONTINUOUS
 62
     0
100
AcDbLine
 10
423.8578276664
 20
374.002950111
 11
399.3989895088
 21
282.7213234127
  0
TEXT
  5
631
100
AcDbEntity
  8
_0-4_図枠
  6
CONTINUOUS
 62
     0
100
AcDbText
 10
507
 20
217.5
 40
5
  1
550
  7
STANDARD
100
AcDbText
  0
TEXT
  5
632
100
AcDbEntity
  8
_0-4_図枠
  6
CONTINUOUS
 62
     0
100
AcDbText
 10
537
 20
217.5
 40
5
  1
535
  7
STANDARD
100
AcDbText
  0
TEXT
  5
633
100
AcDbEntity
  8
_0-4_図枠
  6
CONTINUOUS
 62
     0
100
AcDbText
 10
598.75
 20
217.5
 40
5
  1
71
  7
STANDARD
100
AcDbText
  0
TEXT
  5
634
100
AcDbEntity
  8
_0-4_図枠
  6
CONTINUOUS
 62
     0
100
AcDbText
 10
627
 20
217.5
 40
5
  1
130
  7
STANDARD
100
AcDbText
  0
TEXT
  5
635
100
AcDbEntity
  8
_0-0_0
  6
CONTINUOUS
 62
     0
100
AcDbText
 10
627
 20
208.5
 40
5
  1
131
  7
STANDARD
100
AcDbText
  0
TEXT
  5
636
100
AcDbEntity
  8
_0-0_0
  6
CONTINUOUS
 62
     0
100
AcDbText
 10
598.75
 20
208.5
 40
5
  1
72
  7
STANDARD
100
AcDbText
  0
TEXT
  5
637
100
AcDbEntity
  8
_0-0_0
  6
CONTINUOUS
 62
     0
100
AcDbText
 10
537
 20
208.5
 40
5
  1
560
  7
STANDARD
100
AcDbText
  0
TEXT
  5
638
100
AcDbEntity
  8
_0-0_0
  6
CONTINUOUS
 62
     0
100
AcDbText
 10
507
 20
208.5
 40
5
  1
575
  7
STANDARD
100
AcDbText
  0
TEXT
  5
639
100
AcDbEntity
  8
_0-4_図枠
  6
CONTINUOUS
 62
     0
100
AcDbText
 10
567
 20
217.5
 40
5
  1
125
  7
STANDARD
100
AcDbText
  0
TEXT
  5
63A
100
AcDbEntity
  8
_0-4_図枠
  6
CONTINUOUS
 62
     0
100
AcDbText
 10
567
 20
208.5
 40
5
  1
150
  7
STANDARD
100
AcDbText
  0
LINE
  5
63B
100
AcDbEntity
  8
_0-4_図枠
  6
CONTINUOUS
 62
     0
100
AcDbLine
 10
422
 20
234
 11
422
 21
207
  0
LINE
  5
63C
100
AcDbEntity
  8
_0-4_図枠
  6
CONTINUOUS
 62
     0
100
AcDbLine
 10
497
 20
234
 11
497
 21
207
  0
LINE
  5
63D
100
AcDbEntity
  8
_0-4_図枠
  6
CONTINUOUS
 62
     0
100
AcDbLine
 10
527
 20
234
 11
527
 21
207
  0
LINE
  5
63E
100
AcDbEntity
  8
_0-4_図枠
  6
CONTINUOUS
 62
     0
100
AcDbLine
 10
557
 20
234
 11
557
 21
207
  0
LINE
  5
63F
100
AcDbEntity
  8
_0-4_図枠
  6
CONTINUOUS
 62
     0
100
AcDbLine
 10
587
 20
234
 11
587
 21
207
  0
LINE
  5
640
100
AcDbEntity
  8
_0-4_図枠
  6
CONTINUOUS
 62
     0
100
AcDbLine
 10
617
 20
234
 11
617
 21
207
  0
LINE
  5
641
100
AcDbEntity
  8
_0-4_図枠
  6
CONTINUOUS
 62
     0
100
AcDbLine
 10
647
 20
234
 11
647
 21
207
  0
TEXT
  5
642
100
AcDbEntity
  8
_0-2_寸法
  6
CONTINUOUS
 62
     0
100
AcDbText
 10
500.7211476186
 20
260.9582542088
 40
5
  1
Ｃ
  7
STANDARD
100
AcDbText
  0
TEXT
  5
643
100
AcDbEntity
  8
_0-2_寸法
  6
CONTINUOUS
 62
     0
100
AcDbText
 10
647.4490215578
 20
260.4294183722
 40
5
  1
150
  7
STANDARD
100
AcDbText
  0
INSERT
  5
644
100
AcDbEntity
  8
_0-2_寸法
100
AcDbBlockReference
  2
BK2
 10
0
 20
0
  0
INSERT
  5
645
100
AcDbEntity
  8
_0-2_寸法
100
AcDbBlockReference
  2
BK3
 10
0
 20
0
  0
INSERT
  5
646
100
AcDbEntity
  8
_0-2_寸法
100
AcDbBlockReference
  2
BK4
 10
0
 20
0
  0
INSERT
  5
647
100
AcDbEntity
  8
_0-2_寸法
100
AcDbBlockReference
  2
BK5
 10
0
 20
0
  0
INSERT
  5
648
100
AcDbEntity
  8
_0-2_寸法
100
AcDbBlockReference
  2
BK6
 10
0
 20
0
  0
INSERT
  5
649
100
AcDbEntity
  8
_0-2_寸法
100
AcDbBlockReference
  2
BK7
 10
0
 20
0
  0
INSERT
  5
64A
100
AcDbEntity
  8
_0-2_寸法
100
AcDbBlockReference
  2
BK8
 10
0
 20
0
  0
INSERT
  5
64B
100
AcDbEntity
  8
_0-2_寸法
100
AcDbBlockReference
  2
BK9
 10
0
 20
0
  0
INSERT
  5
64C
100
AcDbEntity
  8
_0-2_寸法
100
AcDbBlockReference
  2
BK10
 10
0
 20
0
  0
INSERT
  5
64D
100
AcDbEntity
  8
_0-2_寸法
100
AcDbBlockReference
  2
BK11
 10
0
 20
0
  0
INSERT
  5
64E
100
AcDbEntity
  8
_0-2_寸法
100
AcDbBlockReference
  2
BK12
 10
0
 20
0
  0
INSERT
  5
64F
100
AcDbEntity
  8
_0-2_寸法
100
AcDbBlockReference
  2
BK13
 10
0
 20
0
  0
INSERT
  5
650
100
AcDbEntity
  8
_0-2_寸法
100
AcDbBlockReference
  2
BK14
 10
0
 20
0
  0
INSERT
  5
651
100
AcDbEntity
  8
_0-2_寸法
100
AcDbBlockReference
  2
BK15
 10
0
 20
0
  0
INSERT
  5
652
100
AcDbEntity
  8
_0-2_寸法
100
AcDbBlockReference
  2
BK16
 10
0
 20
0
  0
INSERT
  5
653
100
AcDbEntity
  8
_0-2_寸法
100
AcDbBlockReference
  2
BK17
 10
0
 20
0
  0
INSERT
  5
654
100
AcDbEntity
  8
_0-2_寸法
100
AcDbBlockReference
  2
BK18
 10
0
 20
0
  0
INSERT
  5
655
100
AcDbEntity
  8
_0-2_寸法
100
AcDbBlockReference
  2
BK19
 10
0
 20
0
  0
INSERT
  5
656
100
AcDbEntity
  8
_0-2_寸法
100
AcDbBlockReference
  2
BK20
 10
0
 20
0
  0
INSERT
  5
657
100
AcDbEntity
  8
_0-2_寸法
100
AcDbBlockReference
  2
BK21
 10
0
 20
0
  0
INSERT
  5
658
100
AcDbEntity
  8
_0-2_寸法
100
AcDbBlockReference
  2
BK22
 10
0
 20
0
  0
INSERT
  5
659
100
AcDbEntity
  8
_0-2_寸法
100
AcDbBlockReference
  2
BK23
 10
0
 20
0
  0
INSERT
  5
65A
100
AcDbEntity
  8
_0-2_寸法
100
AcDbBlockReference
  2
BK24
 10
0
 20
0
  0
INSERT
  5
65B
100
AcDbEntity
  8
_0-2_寸法
100
AcDbBlockReference
  2
BK25
 10
0
 20
0
  0
INSERT
  5
65C
100
AcDbEntity
  8
_0-5_ADD_LINE
100
AcDbBlockReference
  2
BK26
 10
0
 20
0
  0
INSERT
  5
65D
100
AcDbEntity
  8
_0-5_ADD_LINE
100
AcDbBlockReference
  2
BK27
 10
0
 20
0
  0
INSERT
  5
65E
100
AcDbEntity
  8
_0-2_寸法
100
AcDbBlockReference
  2
BK28
 10
0
 20
0
  0
INSERT
  5
65F
100
AcDbEntity
  8
_0-2_寸法
100
AcDbBlockReference
  2
BK29
 10
0
 20
0
  0
INSERT
  5
660
100
AcDbEntity
  8
_0-2_寸法
100
AcDbBlockReference
  2
BK30
 10
0
 20
0
  0
TEXT
  5
661
100
AcDbEntity
  8
_0-4_図枠
  6
CONTINUOUS
 62
     0
100
AcDbText
 10
426.3022471437
 20
217.0594762692
 40
5
  1
２５０ＦＹＫＧ－Ｓ５５０
  7
STANDARD
100
AcDbText
  0
TEXT
  5
662
100
AcDbEntity
  8
_0-0_0
  6
CONTINUOUS
 62
     0
100
AcDbText
 10
431.75
 20
208.5
 40
5
  1
　　  〃　 　５７５
  7
STANDARD
100
AcDbText
  0
TEXT
  5
663
100
AcDbEntity
  8
_0-4_図枠
  6
CONTINUOUS
 62
     0
100
AcDbText
 10
244
 20
217.5
 40
5
  1
２５０ＦＹＫ－Ｓ５５０～５７５
  7
STANDARD
100
AcDbText
  0
TEXT
  5
664
100
AcDbEntity
  8
_0-4_図枠
  6
CONTINUOUS
 62
     0
100
AcDbText
 10
144
 20
181.5
 40
5
  1
ＦＹＫホルダー
  7
STANDARD
100
AcDbText
  0
TEXT
  5
665
100
AcDbEntity
  8
_0-4_図枠
  6
CONTINUOUS
 62
     0
100
AcDbText
 10
144
 20
172.5
 40
5
  1
ＦＹＹホルダースプリング
  7
STANDARD
100
AcDbText
  0
TEXT
  5
666
100
AcDbEntity
  8
_0-4_図枠
  6
CONTINUOUS
 62
     0
100
AcDbText
 10
144
 20
163.5
 40
5
  1
ＦＹＹフレームナット
  7
STANDARD
100
AcDbText
  0
TEXT
  5
667
100
AcDbEntity
  8
_0-4_図枠
  6
CONTINUOUS
 62
     0
100
AcDbText
 10
144
 20
154.5
 40
5
  1
ＦＹＫ水切ジョイント
  7
STANDARD
100
AcDbText
  0
TEXT
  5
668
100
AcDbEntity
  8
_0-4_図枠
  6
CONTINUOUS
 62
     0
100
AcDbText
 10
144
 20
145.5
 40
5
  1
ＦＹＫｻｲﾄﾞｷｬｯﾌﾟ ｼﾞｮｲﾝﾄ
  7
STANDARD
100
AcDbText
  0
TEXT
  5
669
100
AcDbEntity
  8
_0-4_図枠
  6
CONTINUOUS
 62
     0
100
AcDbText
 10
144
 20
127.5
 40
5
  1
止水補助板
  7
STANDARD
100
AcDbText
  0
TEXT
  5
66A
100
AcDbEntity
  8
_0-4_図枠
  6
CONTINUOUS
 62
     0
100
AcDbText
 10
144
 20
118.5
 40
5
  1
ガスケットＮ
  7
STANDARD
100
AcDbText
  0
TEXT
  5
66B
100
AcDbEntity
  8
_0-4_図枠
  6
CONTINUOUS
 62
     0
100
AcDbText
 10
144
 20
91.5
 40
5
  1
ステン六角ボルト
  7
STANDARD
100
AcDbText
  0
TEXT
  5
66C
100
AcDbEntity
  8
_0-4_図枠
  6
CONTINUOUS
 62
     0
100
AcDbText
 10
144
 20
82.5
 40
5
  1
アジャストアンカー
  7
STANDARD
100
AcDbText
  0
TEXT
  5
66D
100
AcDbEntity
  8
_0-4_図枠
  6
CONTINUOUS
 62
     0
100
AcDbText
 10
144
 20
73.5
 40
5
  1
アンカープラグ
  7
STANDARD
100
AcDbText
  0
TEXT
  5
66E
100
AcDbEntity
  8
_0-4_図枠
  6
CONTINUOUS
 62
     0
100
AcDbText
 10
144
 20
64.5
 40
5
  1
ステンタッピンねじ
  7
STANDARD
100
AcDbText
  0
TEXT
  5
66F
100
AcDbEntity
  8
_0-4_図枠
  6
CONTINUOUS
 62
     0
100
AcDbText
 10
144
 20
55.5
 40
5
  1
ステスワッシャー
  7
STANDARD
100
AcDbText
  0
TEXT
  5
670
100
AcDbEntity
  8
_0-4_図枠
  6
CONTINUOUS
 62
     0
100
AcDbText
 10
144
 20
46.5
 40
5
  1
ステンワッシャー
  7
STANDARD
100
AcDbText
  0
TEXT
  5
671
100
AcDbEntity
  8
_0-4_図枠
  6
CONTINUOUS
 62
     0
100
AcDbText
 10
345.75
 20
127.5
 40
5
  1
2100
  7
STANDARD
100
AcDbText
  0
TEXT
  5
672
100
AcDbEntity
  8
_0-4_図枠
  6
CONTINUOUS
 62
     0
100
AcDbText
 10
345.75
 20
118.5
 40
5
  1
2000
  7
STANDARD
100
AcDbText
  0
TEXT
  5
673
100
AcDbEntity
  8
_0-4_図枠
  6
CONTINUOUS
 62
     0
100
AcDbText
 10
375.75
 20
181.5
 40
5
  1
 4
  7
STANDARD
100
AcDbText
  0
TEXT
  5
674
100
AcDbEntity
  8
_0-4_図枠
  6
CONTINUOUS
 62
     0
100
AcDbText
 10
375.75
 20
172.5
 40
5
  1
 4
  7
STANDARD
100
AcDbText
  0
TEXT
  5
675
100
AcDbEntity
  8
_0-4_図枠
  6
CONTINUOUS
 62
     0
100
AcDbText
 10
375.75
 20
163.5
 40
5
  1
 4
  7
STANDARD
100
AcDbText
  0
TEXT
  5
676
100
AcDbEntity
  8
_0-4_図枠
  6
CONTINUOUS
 62
     0
100
AcDbText
 10
375.75
 20
154.5
 40
5
  1
 1
  7
STANDARD
100
AcDbText
  0
TEXT
  5
677
100
AcDbEntity
  8
_0-4_図枠
  6
CONTINUOUS
 62
     0
100
AcDbText
 10
375.75
 20
145.5
 40
5
  1
 1
  7
STANDARD
100
AcDbText
  0
TEXT
  5
678
100
AcDbEntity
  8
_0-4_図枠
  6
CONTINUOUS
 62
     0
100
AcDbText
 10
375.75
 20
127.5
 40
5
  1
 1
  7
STANDARD
100
AcDbText
  0
TEXT
  5
679
100
AcDbEntity
  8
_0-4_図枠
  6
CONTINUOUS
 62
     0
100
AcDbText
 10
375.75
 20
118.5
 40
5
  1
 1
  7
STANDARD
100
AcDbText
  0
TEXT
  5
67A
100
AcDbEntity
  8
_0-4_図枠
  6
CONTINUOUS
 62
     0
100
AcDbText
 10
375.75
 20
109.5
 40
5
  1
 4
  7
STANDARD
100
AcDbText
  0
TEXT
  5
67B
100
AcDbEntity
  8
_0-4_図枠
  6
CONTINUOUS
 62
     0
100
AcDbText
 10
375.75
 20
100.5
 40
5
  1
 5
  7
STANDARD
100
AcDbText
  0
TEXT
  5
67C
100
AcDbEntity
  8
_0-4_図枠
  6
CONTINUOUS
 62
     0
100
AcDbText
 10
375.75
 20
91.5
 40
5
  1
 5
  7
STANDARD
100
AcDbText
  0
TEXT
  5
67D
100
AcDbEntity
  8
_0-4_図枠
  6
CONTINUOUS
 62
     0
100
AcDbText
 10
375.75
 20
82.5
 40
5
  1
 5
  7
STANDARD
100
AcDbText
  0
TEXT
  5
67E
100
AcDbEntity
  8
_0-4_図枠
  6
CONTINUOUS
 62
     0
100
AcDbText
 10
375.75
 20
73.5
 40
5
  1
 5
  7
STANDARD
100
AcDbText
  0
TEXT
  5
67F
100
AcDbEntity
  8
_0-4_図枠
  6
CONTINUOUS
 62
     0
100
AcDbText
 10
375.75
 20
64.5
 40
5
  1
 5
  7
STANDARD
100
AcDbText
  0
TEXT
  5
680
100
AcDbEntity
  8
_0-4_図枠
  6
CONTINUOUS
 62
     0
100
AcDbText
 10
375.75
 20
55.5
 40
5
  1
 5
  7
STANDARD
100
AcDbText
  0
TEXT
  5
681
100
AcDbEntity
  8
_0-4_図枠
  6
CONTINUOUS
 62
     0
100
AcDbText
 10
375.75
 20
46.5
 40
5
  1
 5
  7
STANDARD
100
AcDbText
  0
TEXT
  5
682
100
AcDbEntity
  8
_0-4_図枠
  6
CONTINUOUS
 62
     0
100
AcDbText
 10
392
 20
181.5
 40
5
  1
〃
  7
STANDARD
100
AcDbText
  0
TEXT
  5
683
100
AcDbEntity
  8
_0-4_図枠
  6
CONTINUOUS
 62
     0
100
AcDbText
 10
392
 20
172.5
 40
5
  1
〃
  7
STANDARD
100
AcDbText
  0
TEXT
  5
684
100
AcDbEntity
  8
_0-4_図枠
  6
CONTINUOUS
 62
     0
100
AcDbText
 10
392
 20
163.5
 40
5
  1
〃
  7
STANDARD
100
AcDbText
  0
TEXT
  5
685
100
AcDbEntity
  8
_0-4_図枠
  6
CONTINUOUS
 62
     0
100
AcDbText
 10
392
 20
154.5
 40
5
  1
〃
  7
STANDARD
100
AcDbText
  0
TEXT
  5
686
100
AcDbEntity
  8
_0-4_図枠
  6
CONTINUOUS
 62
     0
100
AcDbText
 10
392
 20
145.5
 40
5
  1
〃
  7
STANDARD
100
AcDbText
  0
TEXT
  5
687
100
AcDbEntity
  8
_0-4_図枠
  6
CONTINUOUS
 62
     0
100
AcDbText
 10
392
 20
127.5
 40
5
  1
〃
  7
STANDARD
100
AcDbText
  0
TEXT
  5
688
100
AcDbEntity
  8
_0-4_図枠
  6
CONTINUOUS
 62
     0
100
AcDbText
 10
392
 20
118.5
 40
5
  1
本
  7
STANDARD
100
AcDbText
  0
TEXT
  5
689
100
AcDbEntity
  8
_0-4_図枠
  6
CONTINUOUS
 62
     0
100
AcDbText
 10
392
 20
109.5
 40
5
  1
〃
  7
STANDARD
100
AcDbText
  0
TEXT
  5
68A
100
AcDbEntity
  8
_0-4_図枠
  6
CONTINUOUS
 62
     0
100
AcDbText
 10
392
 20
100.5
 40
5
  1
〃
  7
STANDARD
100
AcDbText
  0
TEXT
  5
68B
100
AcDbEntity
  8
_0-4_図枠
  6
CONTINUOUS
 62
     0
100
AcDbText
 10
392
 20
91.5
 40
5
  1
〃
  7
STANDARD
100
AcDbText
  0
TEXT
  5
68C
100
AcDbEntity
  8
_0-4_図枠
  6
CONTINUOUS
 62
     0
100
AcDbText
 10
392
 20
82.5
 40
5
  1
〃
  7
STANDARD
100
AcDbText
  0
TEXT
  5
68D
100
AcDbEntity
  8
_0-4_図枠
  6
CONTINUOUS
 62
     0
100
AcDbText
 10
392
 20
73.5
 40
5
  1
〃
  7
STANDARD
100
AcDbText
  0
TEXT
  5
68E
100
AcDbEntity
  8
_0-4_図枠
  6
CONTINUOUS
 62
     0
100
AcDbText
 10
392
 20
64.5
 40
5
  1
〃
  7
STANDARD
100
AcDbText
  0
TEXT
  5
68F
100
AcDbEntity
  8
_0-4_図枠
  6
CONTINUOUS
 62
     0
100
AcDbText
 10
392
 20
55.5
 40
5
  1
枚
  7
STANDARD
100
AcDbText
  0
TEXT
  5
690
100
AcDbEntity
  8
_0-4_図枠
  6
CONTINUOUS
 62
     0
100
AcDbText
 10
392
 20
46.5
 40
5
  1
〃
  7
STANDARD
100
AcDbText
  0
TEXT
  5
691
100
AcDbEntity
  8
_0-0_0
  6
CONTINUOUS
 62
     0
100
AcDbText
 10
144.2388901139
 20
136.9354643829
 40
5
  1
ウォーターガード
  7
STANDARD
100
AcDbText
  0
TEXT
  5
692
100
AcDbEntity
  8
_0-0_0
  6
CONTINUOUS
 62
     0
100
AcDbText
 10
345.8395480885
 20
136.8868552176
 40
5
  1
2060
  7
STANDARD
100
AcDbText
  0
TEXT
  5
693
100
AcDbEntity
  8
_0-0_0
  6
CONTINUOUS
 62
     0
100
AcDbText
 10
375.6614277697
 20
137.0326827135
 40
5
  1
 1
  7
STANDARD
100
AcDbText
  0
TEXT
  5
694
100
AcDbEntity
  8
_0-0_0
  6
CONTINUOUS
 62
     0
100
AcDbText
 10
392.0895480885
 20
136.8868552176
 40
5
  1
枚
  7
STANDARD
100
AcDbText
  0
TEXT
  5
695
100
AcDbEntity
  8
_0-4_図枠
  6
CONTINUOUS
 62
     0
100
AcDbText
 10
144
 20
109.5
 40
5
  1
ステン小ねじ
  7
STANDARD
100
AcDbText
  0
TEXT
  5
696
100
AcDbEntity
  8
_0-4_図枠
  6
CONTINUOUS
 62
     0
100
AcDbText
 10
144
 20
100.5
 40
5
  1
ステン小ねじ
  7
STANDARD
100
AcDbText
  0
TEXT
  5
697
100
AcDbEntity
  8
_0-4_図枠
  6
CONTINUOUS
 62
     0
100
AcDbText
 10
244
 20
127.5
 40
5
  1
ＦＳ９００
  7
STANDARD
100
AcDbText
  0
TEXT
  5
698
100
AcDbEntity
  8
_0-0_0
  6
CONTINUOUS
 62
     0
100
AcDbText
 10
242.4604044554
 20
136.9354643829
 40
5
  1
ＳＰＶＣ
  7
STANDARD
100
AcDbText
  0
TEXT
  5
699
100
AcDbEntity
  8
_0-4_図枠
  6
CONTINUOUS
 62
     0
100
AcDbText
 10
244
 20
181.5
 40
5
  1
２５０ＦＹＫＨ－５５０～５７５
  7
STANDARD
100
AcDbText
  0
TEXT
  5
69A
100
AcDbEntity
  8
_0-4_図枠
  6
CONTINUOUS
 62
     0
100
AcDbText
 10
244
 20
154.5
 40
5
  1
２５０ＦＹＫＪ－５５０～５７５
  7
STANDARD
100
AcDbText
  0
TEXT
  5
69B
100
AcDbEntity
  8
_0-4_図枠
  6
CONTINUOUS
 62
     0
100
AcDbText
 10
244
 20
109.5
 40
5
  1
なべＭ６×３５
  7
STANDARD
100
AcDbText
  0
TEXT
  5
69C
100
AcDbEntity
  8
_0-4_図枠
  6
CONTINUOUS
 62
     0
100
AcDbText
 10
244
 20
100.5
 40
5
  1
なべＭ４×１０
  7
STANDARD
100
AcDbText
  0
TEXT
  5
69D
100
AcDbEntity
  8
_0-4_図枠
  6
CONTINUOUS
 62
     0
100
AcDbText
 10
244
 20
91.5
 40
5
  1
Ｍ６×４０
  7
STANDARD
100
AcDbText
  0
TEXT
  5
69E
100
AcDbEntity
  8
_0-4_図枠
  6
CONTINUOUS
 62
     0
100
AcDbText
 10
244
 20
82.5
 40
5
  1
ＡＧ－６６０
  7
STANDARD
100
AcDbText
  0
TEXT
  5
69F
100
AcDbEntity
  8
_0-4_図枠
  6
CONTINUOUS
 62
     0
100
AcDbText
 10
244
 20
73.5
 40
5
  1
φ８×４０
  7
STANDARD
100
AcDbText
  0
TEXT
  5
6A0
100
AcDbEntity
  8
_0-4_図枠
  6
CONTINUOUS
 62
     0
100
AcDbText
 10
244
 20
64.5
 40
5
  1
なべ５×５０
  7
STANDARD
100
AcDbText
  0
TEXT
  5
6A1
100
AcDbEntity
  8
_0-4_図枠
  6
CONTINUOUS
 62
     0
100
AcDbText
 10
244
 20
55.5
 40
5
  1
１.５×１８×６.５穴
  7
STANDARD
100
AcDbText
  0
TEXT
  5
6A2
100
AcDbEntity
  8
_0-4_図枠
  6
CONTINUOUS
 62
     0
100
AcDbText
 10
244
 20
46.5
 40
5
  1
１.５×１８×５.５穴
  7
STANDARD
100
AcDbText
  0
TEXT
  5
6A3
100
AcDbEntity
  8
_0-4_図枠
  6
CONTINUOUS
 62
     0
100
AcDbText
 10
144
 20
37.5
 40
5
  1
ブチルテープ
  7
STANDARD
100
AcDbText
  0
TEXT
  5
6A4
100
AcDbEntity
  8
_0-4_図枠
  6
CONTINUOUS
 62
     0
100
AcDbText
 10
345.75
 20
37.5
 40
5
  1
6000
  7
STANDARD
100
AcDbText
  0
TEXT
  5
6A5
100
AcDbEntity
  8
_0-4_図枠
  6
CONTINUOUS
 62
     0
100
AcDbText
 10
375.75
 20
37.5
 40
5
  1
 1
  7
STANDARD
100
AcDbText
  0
TEXT
  5
6A6
100
AcDbEntity
  8
_0-4_図枠
  6
CONTINUOUS
 62
     0
100
AcDbText
 10
392
 20
37.5
 40
5
  1
巻
  7
STANDARD
100
AcDbText
  0
TEXT
  5
6A7
100
AcDbEntity
  8
_0-4_図枠
  6
CONTINUOUS
 62
     0
100
AcDbText
 10
244
 20
37.5
 40
5
  1
ｔ１．０×ｗ３０
  7
STANDARD
100
AcDbText
  0
TEXT
  5
6A8
100
AcDbEntity
  8
_0-4_図枠
  6
CONTINUOUS
 62
     0
100
AcDbText
 10
736.9460541779
 20
468.7712061233
 40
5
  1
1
  7
STANDARD
100
AcDbText
  0
TEXT
  5
6A9
100
AcDbEntity
  8
_0-4_図枠
  6
CONTINUOUS
 62
     0
100
AcDbText
 10
735.9902809162
 20
447.9925239525
 40
5
  1
8
  7
STANDARD
100
AcDbText
  0
TEXT
  5
6AA
100
AcDbEntity
  8
_0-4_図枠
  6
CONTINUOUS
 62
     0
100
AcDbText
 10
594.322644142
 20
459.22816477
 40
5
  1
10
  7
STANDARD
100
AcDbText
  0
TEXT
  5
6AB
100
AcDbEntity
  8
_0-5_ADD_LINE
  6
CONTINUOUS
 62
     0
100
AcDbText
 10
570.9349629022
 20
434.2535986955
 40
5
  1
3
  7
STANDARD
100
AcDbText
  0
TEXT
  5
6AC
100
AcDbEntity
  8
_0-5_ADD_LINE
  6
CONTINUOUS
 62
     0
100
AcDbText
 10
548.1100135561
 20
346.788651997
 40
5
  1
15
  7
STANDARD
100
AcDbText
  0
TEXT
  5
6AD
100
AcDbEntity
  8
_0-5_ADD_LINE
  6
CONTINUOUS
 62
     0
100
AcDbText
 10
509.1825918918
 20
324.6572388293
 40
5
  1
16
  7
STANDARD
100
AcDbText
  0
TEXT
  5
6AE
100
AcDbEntity
  8
_0-5_ADD_LINE
  6
CONTINUOUS
 62
     0
100
AcDbText
 10
504.5312116777
 20
355.572507151
 40
5
  1
19
  7
STANDARD
100
AcDbText
  0
TEXT
  5
6AF
100
AcDbEntity
  8
_0-5_ADD_LINE
  6
CONTINUOUS
 62
     0
100
AcDbText
 10
550.5593859225
 20
362.2146221353
 40
5
  1
7
  7
STANDARD
100
AcDbText
  0
TEXT
  5
6B0
100
AcDbEntity
  8
_0-5_ADD_LINE
  6
CONTINUOUS
 62
     0
100
AcDbText
 10
547.3781034641
 20
446.6849572732
 40
5
  1
13
  7
STANDARD
100
AcDbText
  0
TEXT
  5
6B1
100
AcDbEntity
  8
_0-5_ADD_LINE
  6
CONTINUOUS
 62
     0
100
AcDbText
 10
564.6390446884
 20
450.2066504954
 40
5
  1
6
  7
STANDARD
100
AcDbText
  0
TEXT
  5
6B2
100
AcDbEntity
  8
_0-5_ADD_LINE
  6
CONTINUOUS
 62
     0
100
AcDbText
 10
592.498872913
 20
435.242338433
 40
5
  1
5
  7
STANDARD
100
AcDbText
  0
TEXT
  5
6B3
100
AcDbEntity
  8
_0-4_図枠
  6
CONTINUOUS
 62
     0
100
AcDbText
 10
198.3581814467
 20
525.552954979
 40
5
  1
2
  7
STANDARD
100
AcDbText
  0
TEXT
  5
6B4
100
AcDbEntity
  8
_0-4_図枠
  6
CONTINUOUS
 62
     0
100
AcDbText
 10
206.286772587
 20
512.4738119661
 40
5
  1
9
  7
STANDARD
100
AcDbText
  0
TEXT
  5
6B5
100
AcDbEntity
  8
_0-4_図枠
  6
CONTINUOUS
 62
     0
100
AcDbText
 10
136.6821106182
 20
536.3971531665
 40
5
  1
14
  7
STANDARD
100
AcDbText
  0
TEXT
  5
6B6
100
AcDbEntity
  8
_0-4_図枠
  6
CONTINUOUS
 62
     0
100
AcDbText
 10
135.4515142859
 20
514.9495843492
 40
5
  1
4
  7
STANDARD
100
AcDbText
  0
TEXT
  5
6B7
100
AcDbEntity
  8
_0-4_図枠
  6
CONTINUOUS
 62
     0
100
AcDbText
 10
206.962719008
 20
404.4566524648
 40
5
  1
12
  7
STANDARD
100
AcDbText
  0
TEXT
  5
6B8
100
AcDbEntity
  8
_0-4_図枠
  6
CONTINUOUS
 62
     0
100
AcDbText
 10
207.2572045248
 20
341.7865625919
 40
5
  1
11
  7
STANDARD
100
AcDbText
  0
TEXT
  5
6B9
100
AcDbEntity
  8
_0-4_図枠
  6
CONTINUOUS
 62
     0
100
AcDbText
 10
131.984757325
 20
471.2805147521
 40
5
  1
18
  7
STANDARD
100
AcDbText
  0
TEXT
  5
6BA
100
AcDbEntity
  8
_0-4_図枠
  6
CONTINUOUS
 62
     0
100
AcDbText
 10
103.9184533127
 20
470.1817745393
 40
5
  1
17
  7
STANDARD
100
AcDbText
  0
TEXT
  5
6BB
100
AcDbEntity
  8
_0-4_図枠
  6
CONTINUOUS
 62
     0
100
AcDbText
 10
133.2082174527
 20
427.2236459671
 40
5
  1
20
  7
STANDARD
100
AcDbText
  0
TEXT
  5
6BC
100
AcDbEntity
  8
_0-4_図枠
  6
CONTINUOUS
 62
     0
100
AcDbText
 10
128.75
 20
37.5
 40
5
  1
※
  7
STANDARD
100
AcDbText
  0
ENDSEC
  0
SECTION
  2
OBJECTS
  0
DICTIONARY
  5
6BD
100
AcDbDictionary
  3
ACAD_GROUP
350
6BE
  3
ACAD_IMAGE_DICT
350
6BF
  3
ACAD_MLINESTYLE
350
6C0
  0
DICTIONARY
  5
6BE
330
6BD
100
AcDbDictionary
  0
DICTIONARY
  5
6BF
100
AcDbDictionary
  0
DICTIONARY
  5
6C0
100
AcDbDictionary
  3
STANDARD
350
6C1
  0
RASTERVARIABLES
  5
6C2
100
AcDbRasterVariables
 90
     0
 70
     1
 71
     1
 72
     0
  0
MLINESTYLE
  5
6C1
100
AcDbMlineStyle
  2
STANDARD
 70
     0
  3

 62
   256
 51
90
 52
90
 71
     0
  0
ENDSEC
  0
EOF
