  0
SECTION
  2
HEADER
  9
$ACADVER
  1
AC1015
  9
$DWGCODEPAGE
  3
ANSI_932
  9
$EXTMIN
 10
8
 20
6
  9
$EXTMAX
 10
832
 20
582
  9
$LIMMIN
 10
0
 20
0
  9
$LIMMAX
 10
840
 20
588
  9
$LTSCALE
 40
2
  9
$DIMSCALE
 40
2
  9
$DIMSTYLE
  2
M7DIMSTL
  9
$HANDSEED
  5
7FFFFFFF
  9
$MEASUREMENT
 70
     1
  0
ENDSEC
  0
SECTION
  2
CLASSES
  0
CLASS
  1
CSOFTARXCLASS
  2
CSoftArxClass
  3
CSRasterApi
 90
     0
280
     0
281
     0
  0
CLASS
  1
IMAGEDEF
  2
AcDbRasterImageDef
  3
ISM
 90
     0
280
     0
281
     0
  0
CLASS
  1
RASTERVARIABLES
  2
AcDbRasterVariables
  3
ISM
 90
     0
280
     0
281
     0
  0
CLASS
  1
IMAGE
  2
AcDbRasterImage
  3
ISM
 90
   127
280
     0
281
     0
  0
CLASS
  1
IMAGEDEF_REACTOR
  2
AcDbRasterImageDefReactor
  3
ISM
 90
     1
280
     0
281
     0
  0
CLASS
  1
HATCH
  2
AcDbHatch
  3
M7
 90
     0
280
     0
281
     1
  0
ENDSEC
  0
SECTION
  2
TABLES
  0
TABLE
  2
VPORT
  5
FF
100
AcDbSymbolTable
 70
     5
  0
VPORT
  5
100
100
AcDbSymbolTableRecord
100
AcDbViewportTableRecord
  2
*ACTIVE
 70
     0
 10
0
 20
0
 11
1
 21
1
 12
420
 22
294
 13
0
 23
0
 14
0
 24
0
 15
0
 25
0
 16
0
 26
0
 36
1
 17
0
 27
0
 37
0
 40
294
 41
1.428571428571
 42
50
 43
0
 44
0
 50
0
 51
0
 71
     0
 72
   100
 73
     1
 74
     3
 75
     0
 76
     0
 77
     0
 78
     0
  0
ENDTAB
  0
TABLE
  2
LTYPE
  5
101
100
AcDbSymbolTable
 70
     1
  0
LTYPE
  5
102
100
AcDbSymbolTableRecord
100
AcDbLinetypeTableRecord
  2
BYBLOCK
 70
     0
  3

 72
    65
 73
     0
 40
0
  0
LTYPE
  5
103
100
AcDbSymbolTableRecord
100
AcDbLinetypeTableRecord
  2
BYLAYER
 70
     0
  3

 72
    65
 73
     0
 40
0
  0
LTYPE
  5
104
100
AcDbSymbolTableRecord
100
AcDbLinetypeTableRecord
  2
CONTINUOUS
 70
     0
  3
Solid line
 72
    65
 73
     0
 40
0
  0
LTYPE
  5
105
100
AcDbSymbolTableRecord
100
AcDbLinetypeTableRecord
  2
DOT
 70
     0
  3
...............................
 72
    65
 73
     2
 40
2
 49
1
 74
     0
 49
-1
 74
     0
  0
LTYPE
  5
106
100
AcDbSymbolTableRecord
100
AcDbLinetypeTableRecord
  2
DASHED
 70
     0
  3
- - - - - - - - - - - - - - - -
 72
    65
 73
     2
 40
4
 49
2
 74
     0
 49
-2
 74
     0
  0
LTYPE
  5
107
100
AcDbSymbolTableRecord
100
AcDbLinetypeTableRecord
  2
DASHED2
 70
     0
  3
-- -- -- -- -- -- -- -- -- -- -
 72
    65
 73
     2
 40
8
 49
5
 74
     0
 49
-3
 74
     0
  0
LTYPE
  5
108
100
AcDbSymbolTableRecord
100
AcDbLinetypeTableRecord
  2
CENTER
 70
     0
  3
--------- - --------- - -------
 72
    65
 73
     4
 40
23
 49
20
 74
     0
 49
-1
 74
     0
 49
1
 74
     0
 49
-1
 74
     0
  0
LTYPE
  5
109
100
AcDbSymbolTableRecord
100
AcDbLinetypeTableRecord
  2
CENTERX2
 70
     0
  3
-------------- - --------------
 72
    65
 73
     4
 40
43
 49
40
 74
     0
 49
-1
 74
     0
 49
1
 74
     0
 49
-1
 74
     0
  0
LTYPE
  5
10A
100
AcDbSymbolTableRecord
100
AcDbLinetypeTableRecord
  2
CENTER2
 70
     0
  3
------ - ----- - ------ - -----
 72
    65
 73
     4
 40
13
 49
10
 74
     0
 49
-1
 74
     0
 49
1
 74
     0
 49
-1
 74
     0
  0
LTYPE
  5
10B
100
AcDbSymbolTableRecord
100
AcDbLinetypeTableRecord
  2
PHANTOM
 70
     0
  3
-------- - - ------- - - ------
 72
    65
 73
     6
 40
25
 49
20
 74
     0
 49
-1
 74
     0
 49
1
 74
     0
 49
-1
 74
     0
 49
1
 74
     0
 49
-1
 74
     0
  0
LTYPE
  5
10C
100
AcDbSymbolTableRecord
100
AcDbLinetypeTableRecord
  2
PHANTOMX2
 70
     0
  3
------------- - - -------------
 72
    65
 73
     6
 40
45
 49
40
 74
     0
 49
-1
 74
     0
 49
1
 74
     0
 49
-1
 74
     0
 49
1
 74
     0
 49
-1
 74
     0
  0
LTYPE
  5
10D
100
AcDbSymbolTableRecord
100
AcDbLinetypeTableRecord
  2
PHANTOM2
 70
     0
  3
---- - - ---- - - ---- - - ----
 72
    65
 73
     6
 40
15
 49
10
 74
     0
 49
-1
 74
     0
 49
1
 74
     0
 49
-1
 74
     0
 49
1
 74
     0
 49
-1
 74
     0
  0
LTYPE
  5
10E
100
AcDbSymbolTableRecord
100
AcDbLinetypeTableRecord
  2
ACAD_ISO06W100
 70
     0
  3
------------ - - - ------------
 72
    65
 73
     8
 40
47
 49
40
 74
     0
 49
-1
 74
     0
 49
1
 74
     0
 49
-1
 74
     0
 49
1
 74
     0
 49
-1
 74
     0
 49
1
 74
     0
 49
-1
 74
     0
  0
LTYPE
  5
10F
100
AcDbSymbolTableRecord
100
AcDbLinetypeTableRecord
  2
ACAD_ISO14W100
 70
     0
  3
---- - - - -------- - - - -----
 72
    65
 73
     8
 40
27
 49
20
 74
     0
 49
-1
 74
     0
 49
1
 74
     0
 49
-1
 74
     0
 49
1
 74
     0
 49
-1
 74
     0
 49
1
 74
     0
 49
-1
 74
     0
  0
LTYPE
  5
110
100
AcDbSymbolTableRecord
100
AcDbLinetypeTableRecord
  2
ACAD_ISO11W100
 70
     0
  3
------- ------ - ------- ------
 72
    65
 73
     6
 40
44
 49
20
 74
     0
 49
-1
 74
     0
 49
20
 74
     0
 49
-1
 74
     0
 49
1
 74
     0
 49
-1
 74
     0
  0
LTYPE
  5
111
100
AcDbSymbolTableRecord
100
AcDbLinetypeTableRecord
  2
ACAD_ISO13W100
 70
     0
  3
------ ------ - - ------ ------
 72
    65
 73
     8
 40
46
 49
20
 74
     0
 49
-1
 74
     0
 49
20
 74
     0
 49
-1
 74
     0
 49
1
 74
     0
 49
-1
 74
     0
 49
1
 74
     0
 49
-1
 74
     0
  0
LTYPE
  5
112
100
AcDbSymbolTableRecord
100
AcDbLinetypeTableRecord
  2
ACAD_ISO15W100
 70
     0
  3
------ ----- - - - ------ -----
 72
    65
 73
    10
 40
48
 49
20
 74
     0
 49
-1
 74
     0
 49
20
 74
     0
 49
-1
 74
     0
 49
1
 74
     0
 49
-1
 74
     0
 49
1
 74
     0
 49
-1
 74
     0
 49
1
 74
     0
 49
-1
 74
     0
  0
LTYPE
  5
113
100
AcDbSymbolTableRecord
100
AcDbLinetypeTableRecord
  2
HIDDEN
 70
     0
  3
. . . . . . . . . . . . . . . .
 72
    65
 73
     2
 40
1.5
 49
1
 74
     0
 49
-0.5
 74
     0
  0
ENDTAB
  0
TABLE
  2
LAYER
  5
114
100
AcDbSymbolTable
 70
     1
  0
LAYER
  5
115
100
AcDbSymbolTableRecord
100
AcDbLayerTableRecord
  2
0
 70
     0
 62
     7
  6
CONTINUOUS
390
116
  0
LAYER
  5
117
100
AcDbSymbolTableRecord
100
AcDbLayerTableRecord
  2
_0-0_0
 70
     0
 62
     7
  6
CONTINUOUS
390
   278
  0
LAYER
  5
118
100
AcDbSymbolTableRecord
100
AcDbLayerTableRecord
  2
_0-2_寸法
 70
     0
 62
     7
  6
CONTINUOUS
390
   278
  0
LAYER
  5
119
100
AcDbSymbolTableRecord
100
AcDbLayerTableRecord
  2
_0-3_躯体と製品
 70
     0
 62
     7
  6
CONTINUOUS
390
   278
  0
LAYER
  5
11A
100
AcDbSymbolTableRecord
100
AcDbLayerTableRecord
  2
_0-4_図枠
 70
     0
 62
     7
  6
CONTINUOUS
390
   278
  0
LAYER
  5
11B
100
AcDbSymbolTableRecord
100
AcDbLayerTableRecord
  2
_0-5_ADD_LINE
 70
     0
 62
     7
  6
CONTINUOUS
390
   278
  0
ENDTAB
  0
TABLE
  2
STYLE
  5
11C
100
AcDbSymbolTable
 70
     1
  0
STYLE
  5
11D
100
AcDbSymbolTableRecord
100
AcDbTextStyleTableRecord
  2
STANDARD
 70
     0
 40
0
 41
0
 50
0
 71
     0
 42
1
  3
txt
  4
bigfont
  0
STYLE
  5
11E
100
AcDbSymbolTableRecord
100
AcDbTextStyleTableRecord
  2
VSTANDARD
 70
     4
 40
0
 41
0
 50
0
 71
     0
 42
1
  3
txt
  4
bigfont
  0
ENDTAB
  0
TABLE
  2
VIEW
  5
11F
100
AcDbSymbolTable
 70
     0
  0
ENDTAB
  0
TABLE
  2
UCS
  5
120
100
AcDbSymbolTable
 70
     0
  0
ENDTAB
  0
TABLE
  2
APPID
  5
121
100
AcDbSymbolTable
 70
     1
  0
APPID
  5
122
100
AcDbSymbolTableRecord
100
AcDbRegAppTableRecord
  2
ACAD
 70
     0
  0
ENDTAB
  0
TABLE
  2
DIMSTYLE
  5
123
100
AcDbSymbolTable
 70
     1
100
AcDbDimStyleTable
 71
     0
  0
DIMSTYLE
105
124
100
AcDbSymbolTableRecord
100
AcDbDimStyleTableRecord
  2
M7DIMSTL
 70
     0
  3

  4

  5

  6

  7

 40
2
 41
2.5
 42
0.625
 43
3.75
 44
1.25
 45
0
 46
0
 47
0
 48
0
140
2.5
141
2.5
142
0
143
0.03937007874016
144
1
145
0
146
1
147
0.625
 71
     0
 72
     0
 73
     0
 74
     0
 75
     0
 76
     0
 77
     1
 78
     8
170
     0
171
     3
172
     1
173
     0
174
     0
175
     0
176
     0
177
     0
178
     0
270
     2
271
     2
272
     2
273
     2
274
     3
340
11D
275
     0
280
     0
281
     0
282
     0
283
     0
284
     8
285
     0
286
     0
287
     3
288
     0
  0
ENDTAB
  0
TABLE
  2
BLOCK_RECORD
  5
125
100
AcDbSymbolTable
 70
     2
  0
BLOCK_RECORD
  5
126
100
AcDbSymbolTableRecord
100
AcDbBlockTableRecord
  2
*MODEL_SPACE
  0
BLOCK_RECORD
  5
127
100
AcDbSymbolTableRecord
100
AcDbBlockTableRecord
  2
*PAPER_SPACE
  0
BLOCK_RECORD
  5
128
100
AcDbSymbolTableRecord
100
AcDbBlockTableRecord
  2
_DOT
  0
BLOCK_RECORD
  5
129
100
AcDbSymbolTableRecord
100
AcDbBlockTableRecord
  2
_OPEN30
  0
BLOCK_RECORD
  5
12A
100
AcDbSymbolTableRecord
100
AcDbBlockTableRecord
  2
_ClosedBlank
  0
BLOCK_RECORD
  5
12B
100
AcDbSymbolTableRecord
100
AcDbBlockTableRecord
  2
_Origin
  0
BLOCK_RECORD
  5
12C
100
AcDbSymbolTableRecord
100
AcDbBlockTableRecord
  2
_Oblique
  0
BLOCK_RECORD
  5
12D
100
AcDbSymbolTableRecord
100
AcDbBlockTableRecord
  2
_Origin2
  0
BLOCK_RECORD
  5
12E
100
AcDbSymbolTableRecord
100
AcDbBlockTableRecord
  2
_BoxBlank
  0
BLOCK_RECORD
  5
12F
100
AcDbSymbolTableRecord
100
AcDbBlockTableRecord
  2
_BoxFilled
  0
BLOCK_RECORD
  5
130
100
AcDbSymbolTableRecord
100
AcDbBlockTableRecord
  2
_Integral
  0
ENDTAB
  0
ENDSEC
  0
SECTION
  2
BLOCKS
  0
BLOCK
  5
131
100
AcDbEntity
  8
0
100
AcDbBlockBegin
  2
*MODEL_SPACE
 70
     0
 10
0
 20
0
  3
*MODEL_SPACE
  1

  0
ENDBLK
  5
132
100
AcDbEntity
  8
0
100
AcDbBlockEnd
  0
BLOCK
  5
133
100
AcDbEntity
 67
     1
  8
0
100
AcDbBlockBegin
  2
*PAPER_SPACE
 70
     0
 10
0
 20
0
  3
*PAPER_SPACE
  1

  0
ENDBLK
  5
134
100
AcDbEntity
 67
     1
  8
0
100
AcDbBlockEnd
  0
BLOCK
  5
135
100
AcDbEntity
 67
     1
  8
0
100
AcDbBlockBegin
  2
_DOT
 70
     0
 10
0
 20
0
  3
_DOT
  1

  0
LWPOLYLINE
  5
136
100
AcDbEntity
  8
0
  6
BYBLOCK
 62
     0
100
AcDbPolyline
 90
     2
 70
     1
 43
0.5
 10
-0.25
 20
0
 42
1
 10
0.25
 20
0
 42
1
  0
LINE
  5
137
100
AcDbEntity
  8
0
  6
BYBLOCK
 62
     0
100
AcDbLine
 10
-0.5
 20
0
 11
-1
 21
0
  0
ENDBLK
  5
138
100
AcDbEntity
  8
0
100
AcDbBlockEnd
  0
BLOCK
  5
139
100
AcDbEntity
 67
     1
  8
0
100
AcDbBlockBegin
  2
_OPEN30
 70
     0
 10
0
 20
0
  3
_OPEN30
  1

  0
LINE
  5
13A
100
AcDbEntity
  8
0
  6
BYBLOCK
 62
     0
100
AcDbLine
 10
-1
 20
0.26794919
 11
0
 21
0
  0
LINE
  5
13B
100
AcDbEntity
  8
0
  6
BYBLOCK
 62
     0
100
AcDbLine
 10
-1
 20
-0.26794919
 11
0
 21
0
  0
LINE
  5
13C
100
AcDbEntity
  8
0
  6
BYBLOCK
 62
     0
100
AcDbLine
 10
0
 20
0
 11
-1
 21
0
  0
ENDBLK
  5
13D
100
AcDbEntity
  8
0
100
AcDbBlockEnd
  0
BLOCK
  5
13E
100
AcDbEntity
 67
     1
  8
0
100
AcDbBlockBegin
  2
_ClosedBlank
 70
     0
 10
0
 20
0
  3
_ClosedBlank
  1

  0
LINE
  5
13F
100
AcDbEntity
  8
0
  6
BYBLOCK
 62
     0
100
AcDbLine
 10
-1
 20
0.1666666666667
 11
0
 21
0
  0
LINE
  5
140
100
AcDbEntity
  8
0
  6
BYBLOCK
 62
     0
100
AcDbLine
 10
0
 20
0
 11
-1
 21
-0.1666666666667
  0
LINE
  5
141
100
AcDbEntity
  8
0
  6
BYBLOCK
 62
     0
100
AcDbLine
 10
-1
 20
0.1666666666667
 11
-1
 21
-0.1666666666667
  0
ENDBLK
  5
142
100
AcDbEntity
  8
0
100
AcDbBlockEnd
  0
BLOCK
  5
143
100
AcDbEntity
 67
     1
  8
0
100
AcDbBlockBegin
  2
_Origin
 70
     0
 10
0
 20
0
  3
_Origin
  1

  0
CIRCLE
  5
144
100
AcDbEntity
  8
0
  6
BYBLOCK
 62
     0
100
AcDbCircle
 10
0
 20
0
 40
0.5
  0
LINE
  5
145
100
AcDbEntity
  8
0
  6
BYBLOCK
 62
     0
100
AcDbLine
 10
0
 20
0
 11
-1
 21
0
  0
ENDBLK
  5
146
100
AcDbEntity
  8
0
100
AcDbBlockEnd
  0
BLOCK
  5
147
100
AcDbEntity
 67
     1
  8
0
100
AcDbBlockBegin
  2
_Oblique
 70
     0
 10
0
 20
0
  3
_Oblique
  1

  0
LINE
  5
148
100
AcDbEntity
  8
0
  6
BYBLOCK
 62
     0
100
AcDbLine
 10
-0.5
 20
-0.5
 11
0.5
 21
0.5
  0
ENDBLK
  5
149
100
AcDbEntity
  8
0
100
AcDbBlockEnd
  0
BLOCK
  5
14A
100
AcDbEntity
 67
     1
  8
0
100
AcDbBlockBegin
  2
_Origin2
 70
     0
 10
0
 20
0
  3
_Origin2
  1

  0
CIRCLE
  5
14B
100
AcDbEntity
  8
0
  6
BYBLOCK
 62
     0
100
AcDbCircle
 10
0
 20
0
 40
0.5
  0
CIRCLE
  5
14C
100
AcDbEntity
  8
0
  6
BYBLOCK
 62
     0
100
AcDbCircle
 10
0
 20
0
 40
0.25
  0
LINE
  5
14D
100
AcDbEntity
  8
0
  6
BYBLOCK
 62
     0
100
AcDbLine
 10
-0.5
 20
0
 11
-1
 21
0
  0
ENDBLK
  5
14E
100
AcDbEntity
  8
0
100
AcDbBlockEnd
  0
BLOCK
  5
14F
100
AcDbEntity
 67
     1
  8
0
100
AcDbBlockBegin
  2
_BoxBlank
 70
     0
 10
0
 20
0
  3
_BoxBlank
  1

  0
LINE
  5
150
100
AcDbEntity
  8
0
  6
BYBLOCK
 62
     0
100
AcDbLine
 10
-0.5
 20
-0.5
 11
0.5
 21
-0.5
  0
LINE
  5
151
100
AcDbEntity
  8
0
  6
BYBLOCK
 62
     0
100
AcDbLine
 10
0.5
 20
-0.5
 11
0.5
 21
0.5
  0
LINE
  5
152
100
AcDbEntity
  8
0
  6
BYBLOCK
 62
     0
100
AcDbLine
 10
0.5
 20
0.5
 11
-0.5
 21
0.5
  0
LINE
  5
153
100
AcDbEntity
  8
0
  6
BYBLOCK
 62
     0
100
AcDbLine
 10
-0.5
 20
0.5
 11
-0.5
 21
-0.5
  0
LINE
  5
154
100
AcDbEntity
  8
0
  6
BYBLOCK
 62
     0
100
AcDbLine
 10
-0.5
 20
0
 11
-1
 21
0
  0
ENDBLK
  5
155
100
AcDbEntity
  8
0
100
AcDbBlockEnd
  0
BLOCK
  5
156
100
AcDbEntity
 67
     1
  8
0
100
AcDbBlockBegin
  2
_BoxFilled
 70
     0
 10
0
 20
0
  3
_BoxFilled
  1

  0
SOLID
  5
157
100
AcDbEntity
  8
0
  6
BYBLOCK
 62
     0
100
AcDbTrace
 10
-0.5
 20
0.5
 11
0.5
 21
0.5
 12
-0.5
 22
-0.5
 13
0.5
 23
-0.5
  0
LINE
  5
158
100
AcDbEntity
  8
0
  6
BYBLOCK
 62
     0
100
AcDbLine
 10
-0.5
 20
0
 11
-1
 21
0
  0
ENDBLK
  5
159
100
AcDbEntity
  8
0
100
AcDbBlockEnd
  0
BLOCK
  5
15A
100
AcDbEntity
 67
     1
  8
0
100
AcDbBlockBegin
  2
_Integral
 70
     0
 10
0
 20
0
  3
_Integral
  1

  0
ARC
  5
15B
100
AcDbEntity
  8
0
  6
BYBLOCK
 62
     0
100
AcDbCircle
 10
0.44488802
 20
-0.09133463
 40
0.45416667
100
AcDbArc
 50
101.999999998
 51
167.9999999799
  0
ARC
  5
15C
100
AcDbEntity
  8
0
  6
BYBLOCK
 62
     0
100
AcDbCircle
 10
-0.44488802
 20
0.09133463
 40
0.45416667
100
AcDbArc
 50
282.0000000215
 51
348.0000000034
  0
ENDBLK
  5
15D
100
AcDbEntity
  8
0
100
AcDbBlockEnd
  0
ENDSEC
  0
SECTION
  2
ENTITIES
  0
LINE
  5
15E
100
AcDbEntity
  8
_0-4_図枠
  6
CONTINUOUS
 62
     0
100
AcDbLine
 10
403
 20
25.15203961224
 11
470
 21
25.15203961224
  0
LINE
  5
15F
100
AcDbEntity
  8
_0-4_図枠
  6
CONTINUOUS
 62
     0
100
AcDbLine
 10
403
 20
178.1520396122
 11
470
 21
178.1520396122
  0
LINE
  5
160
100
AcDbEntity
  8
_0-0_0
  6
CONTINUOUS
 62
     0
100
AcDbLine
 10
174.3879885848
 20
400.29959851
 11
663.8863215848
 21
374.64607951
  0
LINE
  5
161
100
AcDbEntity
  8
_0-4_図枠
  6
CONTINUOUS
 62
     0
100
AcDbLine
 10
715
 20
214.1520396122
 11
490
 21
214.1520396122
  0
LINE
  5
162
100
AcDbEntity
  8
_0-0_0
  6
CONTINUOUS
 62
     0
100
AcDbLine
 10
177.2047485848
 20
430.12075351
 11
208.0268055848
 21
430.12075351
  0
LINE
  5
163
100
AcDbEntity
  8
_0-4_図枠
  6
CONTINUOUS
 62
     0
100
AcDbLine
 10
8
 20
582
 11
8
 21
6
  0
LINE
  5
164
100
AcDbEntity
  8
_0-4_図枠
  6
CONTINUOUS
 62
     0
100
AcDbLine
 10
832
 20
582
 11
8
 21
582
  0
LINE
  5
165
100
AcDbEntity
  8
_0-4_図枠
  6
CONTINUOUS
 62
     0
100
AcDbLine
 10
832
 20
6
 11
832
 21
582
  0
LINE
  5
166
100
AcDbEntity
  8
_0-4_図枠
  6
CONTINUOUS
 62
     0
100
AcDbLine
 10
8
 20
6
 11
832
 21
6
  0
TEXT
  5
167
100
AcDbEntity
  8
_0-4_図枠
  6
CONTINUOUS
 62
     0
100
AcDbText
 10
16.63168191724
 20
553.397952295
 40
9
  1
　　屋根－壁（切欠き壁）
  7
STANDARD
100
AcDbText
  0
TEXT
  5
168
100
AcDbEntity
  8
_0-4_図枠
  6
CONTINUOUS
 62
     0
100
AcDbText
 10
16.63168191724
 20
534.0996431162
 40
9
  1
　　Ｓ＝１／２
  7
STANDARD
100
AcDbText
  0
TEXT
  5
169
100
AcDbEntity
  8
_0-4_図枠
  6
CONTINUOUS
 62
     0
100
AcDbText
 10
409
 20
223.7310399913
 40
5
  1
（2000mmセット）
  7
STANDARD
100
AcDbText
  0
TEXT
  5
16A
100
AcDbEntity
  8
_0-4_図枠
  6
CONTINUOUS
 62
     0
100
AcDbText
 10
341
 20
223.7310399913
 40
5
  1
（3000mmセット）
  7
STANDARD
100
AcDbText
  0
TEXT
  5
16B
100
AcDbEntity
  8
_0-4_図枠
  6
CONTINUOUS
 62
     0
100
AcDbText
 10
388.5
 20
215.6520396122
 40
5
  1
単位
  7
STANDARD
100
AcDbText
  0
TEXT
  5
16C
100
AcDbEntity
  8
_0-4_図枠
  6
CONTINUOUS
 62
     0
100
AcDbText
 10
456.5
 20
215.6520396122
 40
5
  1
単位
  7
STANDARD
100
AcDbText
  0
TEXT
  5
16D
100
AcDbEntity
  8
_0-4_図枠
  6
CONTINUOUS
 62
     0
100
AcDbText
 10
460
 20
179.6520396122
 40
5
  1
〃
  7
STANDARD
100
AcDbText
  0
TEXT
  5
16E
100
AcDbEntity
  8
_0-4_図枠
  6
CONTINUOUS
 62
     0
100
AcDbText
 10
460
 20
188.6520396122
 40
5
  1
〃
  7
STANDARD
100
AcDbText
  0
TEXT
  5
16F
100
AcDbEntity
  8
_0-4_図枠
  6
CONTINUOUS
 62
     0
100
AcDbText
 10
460
 20
197.6520396122
 40
5
  1
〃
  7
STANDARD
100
AcDbText
  0
TEXT
  5
170
100
AcDbEntity
  8
_0-4_図枠
  6
CONTINUOUS
 62
     0
100
AcDbText
 10
460
 20
206.6520396122
 40
5
  1
本
  7
STANDARD
100
AcDbText
  0
TEXT
  5
171
100
AcDbEntity
  8
_0-4_図枠
  6
CONTINUOUS
 62
     0
100
AcDbText
 10
392
 20
179.6520396122
 40
5
  1
〃
  7
STANDARD
100
AcDbText
  0
TEXT
  5
172
100
AcDbEntity
  8
_0-4_図枠
  6
CONTINUOUS
 62
     0
100
AcDbText
 10
392
 20
188.6520396122
 40
5
  1
〃
  7
STANDARD
100
AcDbText
  0
TEXT
  5
173
100
AcDbEntity
  8
_0-4_図枠
  6
CONTINUOUS
 62
     0
100
AcDbText
 10
392
 20
197.6520396122
 40
5
  1
〃
  7
STANDARD
100
AcDbText
  0
TEXT
  5
174
100
AcDbEntity
  8
_0-4_図枠
  6
CONTINUOUS
 62
     0
100
AcDbText
 10
392
 20
206.6520396122
 40
5
  1
本
  7
STANDARD
100
AcDbText
  0
TEXT
  5
175
100
AcDbEntity
  8
_0-4_図枠
  6
CONTINUOUS
 62
     0
100
AcDbText
 10
443.75
 20
179.6520396122
 40
5
  1
 1
  7
STANDARD
100
AcDbText
  0
TEXT
  5
176
100
AcDbEntity
  8
_0-4_図枠
  6
CONTINUOUS
 62
     0
100
AcDbText
 10
443.75
 20
188.6520396122
 40
5
  1
 1
  7
STANDARD
100
AcDbText
  0
TEXT
  5
177
100
AcDbEntity
  8
_0-4_図枠
  6
CONTINUOUS
 62
     0
100
AcDbText
 10
443.75
 20
197.6520396122
 40
5
  1
 1
  7
STANDARD
100
AcDbText
  0
TEXT
  5
178
100
AcDbEntity
  8
_0-4_図枠
  6
CONTINUOUS
 62
     0
100
AcDbText
 10
443.75
 20
206.6520396122
 40
5
  1
 1
  7
STANDARD
100
AcDbText
  0
TEXT
  5
179
100
AcDbEntity
  8
_0-4_図枠
  6
CONTINUOUS
 62
     0
100
AcDbText
 10
440.5
 20
215.6520396122
 40
5
  1
入数
  7
STANDARD
100
AcDbText
  0
TEXT
  5
17A
100
AcDbEntity
  8
_0-4_図枠
  6
CONTINUOUS
 62
     0
100
AcDbText
 10
375.75
 20
179.6520396122
 40
5
  1
 1
  7
STANDARD
100
AcDbText
  0
TEXT
  5
17B
100
AcDbEntity
  8
_0-4_図枠
  6
CONTINUOUS
 62
     0
100
AcDbText
 10
375.75
 20
188.6520396122
 40
5
  1
 1
  7
STANDARD
100
AcDbText
  0
TEXT
  5
17C
100
AcDbEntity
  8
_0-4_図枠
  6
CONTINUOUS
 62
     0
100
AcDbText
 10
375.75
 20
197.6520396122
 40
5
  1
 1
  7
STANDARD
100
AcDbText
  0
TEXT
  5
17D
100
AcDbEntity
  8
_0-4_図枠
  6
CONTINUOUS
 62
     0
100
AcDbText
 10
375.75
 20
206.6520396122
 40
5
  1
 1
  7
STANDARD
100
AcDbText
  0
TEXT
  5
17E
100
AcDbEntity
  8
_0-4_図枠
  6
CONTINUOUS
 62
     0
100
AcDbText
 10
372.5
 20
215.6520396122
 40
5
  1
入数
  7
STANDARD
100
AcDbText
  0
TEXT
  5
17F
100
AcDbEntity
  8
_0-4_図枠
  6
CONTINUOUS
 62
     0
100
AcDbText
 10
413.75
 20
179.6520396122
 40
5
  1
2000
  7
STANDARD
100
AcDbText
  0
TEXT
  5
180
100
AcDbEntity
  8
_0-4_図枠
  6
CONTINUOUS
 62
     0
100
AcDbText
 10
413.75
 20
188.6520396122
 40
5
  1
2000
  7
STANDARD
100
AcDbText
  0
TEXT
  5
181
100
AcDbEntity
  8
_0-4_図枠
  6
CONTINUOUS
 62
     0
100
AcDbText
 10
413.75
 20
197.6520396122
 40
5
  1
2000
  7
STANDARD
100
AcDbText
  0
TEXT
  5
182
100
AcDbEntity
  8
_0-4_図枠
  6
CONTINUOUS
 62
     0
100
AcDbText
 10
413.75
 20
206.6520396122
 40
5
  1
2000
  7
STANDARD
100
AcDbText
  0
TEXT
  5
183
100
AcDbEntity
  8
_0-4_図枠
  6
CONTINUOUS
 62
     0
100
AcDbText
 10
406.75
 20
215.6520396122
 40
5
  1
定尺(mm)
  7
STANDARD
100
AcDbText
  0
TEXT
  5
184
100
AcDbEntity
  8
_0-4_図枠
  6
CONTINUOUS
 62
     0
100
AcDbText
 10
345.75
 20
179.6520396122
 40
5
  1
3000
  7
STANDARD
100
AcDbText
  0
TEXT
  5
185
100
AcDbEntity
  8
_0-4_図枠
  6
CONTINUOUS
 62
     0
100
AcDbText
 10
345.75
 20
188.6520396122
 40
5
  1
3000
  7
STANDARD
100
AcDbText
  0
TEXT
  5
186
100
AcDbEntity
  8
_0-4_図枠
  6
CONTINUOUS
 62
     0
100
AcDbText
 10
345.75
 20
197.6520396122
 40
5
  1
3000
  7
STANDARD
100
AcDbText
  0
TEXT
  5
187
100
AcDbEntity
  8
_0-4_図枠
  6
CONTINUOUS
 62
     0
100
AcDbText
 10
345.75
 20
206.6520396122
 40
5
  1
3000
  7
STANDARD
100
AcDbText
  0
TEXT
  5
188
100
AcDbEntity
  8
_0-4_図枠
  6
CONTINUOUS
 62
     0
100
AcDbText
 10
338.75
 20
215.6520396122
 40
5
  1
定尺(mm)
  7
STANDARD
100
AcDbText
  0
LINE
  5
189
100
AcDbEntity
  8
_0-4_図枠
  6
CONTINUOUS
 62
     0
100
AcDbLine
 10
403
 20
34.15203961224
 11
470
 21
34.15203961224
  0
LINE
  5
18A
100
AcDbEntity
  8
_0-4_図枠
  6
CONTINUOUS
 62
     0
100
AcDbLine
 10
403
 20
43.15203961224
 11
470
 21
43.15203961224
  0
LINE
  5
18B
100
AcDbEntity
  8
_0-4_図枠
  6
CONTINUOUS
 62
     0
100
AcDbLine
 10
403
 20
52.15203961224
 11
470
 21
52.15203961224
  0
LINE
  5
18C
100
AcDbEntity
  8
_0-4_図枠
  6
CONTINUOUS
 62
     0
100
AcDbLine
 10
403
 20
61.15203961224
 11
470
 21
61.15203961224
  0
LINE
  5
18D
100
AcDbEntity
  8
_0-4_図枠
  6
CONTINUOUS
 62
     0
100
AcDbLine
 10
403
 20
70.15203961224
 11
470
 21
70.15203961224
  0
LINE
  5
18E
100
AcDbEntity
  8
_0-4_図枠
  6
CONTINUOUS
 62
     0
100
AcDbLine
 10
403
 20
79.15203961224
 11
470
 21
79.15203961224
  0
LINE
  5
18F
100
AcDbEntity
  8
_0-4_図枠
  6
CONTINUOUS
 62
     0
100
AcDbLine
 10
403
 20
88.15203961224
 11
470
 21
88.15203961224
  0
LINE
  5
190
100
AcDbEntity
  8
_0-4_図枠
  6
CONTINUOUS
 62
     0
100
AcDbLine
 10
403
 20
97.15203961224
 11
470
 21
97.15203961224
  0
LINE
  5
191
100
AcDbEntity
  8
_0-4_図枠
  6
CONTINUOUS
 62
     0
100
AcDbLine
 10
403
 20
106.1520396122
 11
470
 21
106.1520396122
  0
LINE
  5
192
100
AcDbEntity
  8
_0-4_図枠
  6
CONTINUOUS
 62
     0
100
AcDbLine
 10
403
 20
115.1520396122
 11
470
 21
115.1520396122
  0
LINE
  5
193
100
AcDbEntity
  8
_0-4_図枠
  6
CONTINUOUS
 62
     0
100
AcDbLine
 10
403
 20
124.1520396122
 11
470
 21
124.1520396122
  0
LINE
  5
194
100
AcDbEntity
  8
_0-4_図枠
  6
CONTINUOUS
 62
     0
100
AcDbLine
 10
403
 20
133.1520396122
 11
470
 21
133.1520396122
  0
LINE
  5
195
100
AcDbEntity
  8
_0-4_図枠
  6
CONTINUOUS
 62
     0
100
AcDbLine
 10
403
 20
142.1520396122
 11
470
 21
142.1520396122
  0
LINE
  5
196
100
AcDbEntity
  8
_0-4_図枠
  6
CONTINUOUS
 62
     0
100
AcDbLine
 10
403
 20
151.1520396122
 11
470
 21
151.1520396122
  0
LINE
  5
197
100
AcDbEntity
  8
_0-4_図枠
  6
CONTINUOUS
 62
     0
100
AcDbLine
 10
403
 20
160.1520396122
 11
470
 21
160.1520396122
  0
LINE
  5
198
100
AcDbEntity
  8
_0-4_図枠
  6
CONTINUOUS
 62
     0
100
AcDbLine
 10
403
 20
169.1520396122
 11
470
 21
169.1520396122
  0
LINE
  5
199
100
AcDbEntity
  8
_0-4_図枠
  6
CONTINUOUS
 62
     0
100
AcDbLine
 10
403
 20
187.1520396122
 11
470
 21
187.1520396122
  0
LINE
  5
19A
100
AcDbEntity
  8
_0-4_図枠
  6
CONTINUOUS
 62
     0
100
AcDbLine
 10
403
 20
196.1520396122
 11
470
 21
196.1520396122
  0
LINE
  5
19B
100
AcDbEntity
  8
_0-4_図枠
  6
CONTINUOUS
 62
     0
100
AcDbLine
 10
403
 20
205.1520396122
 11
470
 21
205.1520396122
  0
LINE
  5
19C
100
AcDbEntity
  8
_0-4_図枠
  6
CONTINUOUS
 62
     0
100
AcDbLine
 10
403
 20
214.1520396122
 11
470
 21
214.1520396122
  0
LINE
  5
19D
100
AcDbEntity
  8
_0-4_図枠
  6
CONTINUOUS
 62
     0
100
AcDbLine
 10
403
 20
223.1520396122
 11
470
 21
223.1520396122
  0
LINE
  5
19E
100
AcDbEntity
  8
_0-4_図枠
  6
CONTINUOUS
 62
     0
100
AcDbLine
 10
402
 20
25.15203961224
 11
335
 21
25.15203961224
  0
LINE
  5
19F
100
AcDbEntity
  8
_0-4_図枠
  6
CONTINUOUS
 62
     0
100
AcDbLine
 10
402
 20
34.15203961224
 11
335
 21
34.15203961224
  0
LINE
  5
1A0
100
AcDbEntity
  8
_0-4_図枠
  6
CONTINUOUS
 62
     0
100
AcDbLine
 10
402
 20
43.15203961224
 11
335
 21
43.15203961224
  0
LINE
  5
1A1
100
AcDbEntity
  8
_0-4_図枠
  6
CONTINUOUS
 62
     0
100
AcDbLine
 10
402
 20
52.15203961224
 11
335
 21
52.15203961224
  0
LINE
  5
1A2
100
AcDbEntity
  8
_0-4_図枠
  6
CONTINUOUS
 62
     0
100
AcDbLine
 10
402
 20
61.15203961224
 11
335
 21
61.15203961224
  0
LINE
  5
1A3
100
AcDbEntity
  8
_0-4_図枠
  6
CONTINUOUS
 62
     0
100
AcDbLine
 10
402
 20
70.15203961224
 11
335
 21
70.15203961224
  0
LINE
  5
1A4
100
AcDbEntity
  8
_0-4_図枠
  6
CONTINUOUS
 62
     0
100
AcDbLine
 10
402
 20
79.15203961224
 11
335
 21
79.15203961224
  0
LINE
  5
1A5
100
AcDbEntity
  8
_0-4_図枠
  6
CONTINUOUS
 62
     0
100
AcDbLine
 10
402
 20
88.15203961224
 11
335
 21
88.15203961224
  0
LINE
  5
1A6
100
AcDbEntity
  8
_0-4_図枠
  6
CONTINUOUS
 62
     0
100
AcDbLine
 10
402
 20
97.15203961224
 11
335
 21
97.15203961224
  0
LINE
  5
1A7
100
AcDbEntity
  8
_0-4_図枠
  6
CONTINUOUS
 62
     0
100
AcDbLine
 10
402
 20
106.1520396122
 11
335
 21
106.1520396122
  0
LINE
  5
1A8
100
AcDbEntity
  8
_0-4_図枠
  6
CONTINUOUS
 62
     0
100
AcDbLine
 10
402
 20
115.1520396122
 11
335
 21
115.1520396122
  0
LINE
  5
1A9
100
AcDbEntity
  8
_0-4_図枠
  6
CONTINUOUS
 62
     0
100
AcDbLine
 10
402
 20
124.1520396122
 11
335
 21
124.1520396122
  0
LINE
  5
1AA
100
AcDbEntity
  8
_0-4_図枠
  6
CONTINUOUS
 62
     0
100
AcDbLine
 10
402
 20
133.1520396122
 11
335
 21
133.1520396122
  0
LINE
  5
1AB
100
AcDbEntity
  8
_0-4_図枠
  6
CONTINUOUS
 62
     0
100
AcDbLine
 10
402
 20
142.1520396122
 11
335
 21
142.1520396122
  0
LINE
  5
1AC
100
AcDbEntity
  8
_0-4_図枠
  6
CONTINUOUS
 62
     0
100
AcDbLine
 10
402
 20
151.1520396122
 11
335
 21
151.1520396122
  0
LINE
  5
1AD
100
AcDbEntity
  8
_0-4_図枠
  6
CONTINUOUS
 62
     0
100
AcDbLine
 10
402
 20
160.1520396122
 11
335
 21
160.1520396122
  0
LINE
  5
1AE
100
AcDbEntity
  8
_0-4_図枠
  6
CONTINUOUS
 62
     0
100
AcDbLine
 10
402
 20
169.1520396122
 11
335
 21
169.1520396122
  0
LINE
  5
1AF
100
AcDbEntity
  8
_0-4_図枠
  6
CONTINUOUS
 62
     0
100
AcDbLine
 10
402
 20
178.1520396122
 11
335
 21
178.1520396122
  0
LINE
  5
1B0
100
AcDbEntity
  8
_0-4_図枠
  6
CONTINUOUS
 62
     0
100
AcDbLine
 10
402
 20
187.1520396122
 11
335
 21
187.1520396122
  0
LINE
  5
1B1
100
AcDbEntity
  8
_0-4_図枠
  6
CONTINUOUS
 62
     0
100
AcDbLine
 10
402
 20
196.1520396122
 11
335
 21
196.1520396122
  0
LINE
  5
1B2
100
AcDbEntity
  8
_0-4_図枠
  6
CONTINUOUS
 62
     0
100
AcDbLine
 10
402
 20
205.1520396122
 11
335
 21
205.1520396122
  0
LINE
  5
1B3
100
AcDbEntity
  8
_0-4_図枠
  6
CONTINUOUS
 62
     0
100
AcDbLine
 10
402
 20
214.1520396122
 11
335
 21
214.1520396122
  0
LINE
  5
1B4
100
AcDbEntity
  8
_0-4_図枠
  6
CONTINUOUS
 62
     0
100
AcDbLine
 10
402
 20
223.1520396122
 11
335
 21
223.1520396122
  0
TEXT
  5
1B5
100
AcDbEntity
  8
_0-4_図枠
  6
CONTINUOUS
 62
     0
100
AcDbText
 10
128.75
 20
35.65203961224
 40
5
  1
20
  7
STANDARD
100
AcDbText
  0
TEXT
  5
1B6
100
AcDbEntity
  8
_0-4_図枠
  6
CONTINUOUS
 62
     0
100
AcDbText
 10
128.75
 20
44.65203961224
 40
5
  1
19
  7
STANDARD
100
AcDbText
  0
TEXT
  5
1B7
100
AcDbEntity
  8
_0-4_図枠
  6
CONTINUOUS
 62
     0
100
AcDbText
 10
128.75
 20
53.65203961224
 40
5
  1
18
  7
STANDARD
100
AcDbText
  0
TEXT
  5
1B8
100
AcDbEntity
  8
_0-4_図枠
  6
CONTINUOUS
 62
     0
100
AcDbText
 10
128.75
 20
62.65203961224
 40
5
  1
17
  7
STANDARD
100
AcDbText
  0
TEXT
  5
1B9
100
AcDbEntity
  8
_0-4_図枠
  6
CONTINUOUS
 62
     0
100
AcDbText
 10
128.75
 20
71.65203961224
 40
5
  1
16
  7
STANDARD
100
AcDbText
  0
TEXT
  5
1BA
100
AcDbEntity
  8
_0-4_図枠
  6
CONTINUOUS
 62
     0
100
AcDbText
 10
128.75
 20
80.65203961224
 40
5
  1
15
  7
STANDARD
100
AcDbText
  0
TEXT
  5
1BB
100
AcDbEntity
  8
_0-4_図枠
  6
CONTINUOUS
 62
     0
100
AcDbText
 10
128.75
 20
89.65203961224
 40
5
  1
14
  7
STANDARD
100
AcDbText
  0
TEXT
  5
1BC
100
AcDbEntity
  8
_0-4_図枠
  6
CONTINUOUS
 62
     0
100
AcDbText
 10
128.75
 20
98.65203961224
 40
5
  1
13
  7
STANDARD
100
AcDbText
  0
TEXT
  5
1BD
100
AcDbEntity
  8
_0-4_図枠
  6
CONTINUOUS
 62
     0
100
AcDbText
 10
128.75
 20
107.6520396122
 40
5
  1
12
  7
STANDARD
100
AcDbText
  0
TEXT
  5
1BE
100
AcDbEntity
  8
_0-4_図枠
  6
CONTINUOUS
 62
     0
100
AcDbText
 10
128.75
 20
116.6520396122
 40
5
  1
11
  7
STANDARD
100
AcDbText
  0
TEXT
  5
1BF
100
AcDbEntity
  8
_0-4_図枠
  6
CONTINUOUS
 62
     0
100
AcDbText
 10
128.75
 20
125.6520396122
 40
5
  1
10
  7
STANDARD
100
AcDbText
  0
TEXT
  5
1C0
100
AcDbEntity
  8
_0-4_図枠
  6
CONTINUOUS
 62
     0
100
AcDbText
 10
128.75
 20
134.6520396122
 40
5
  1
 9
  7
STANDARD
100
AcDbText
  0
TEXT
  5
1C1
100
AcDbEntity
  8
_0-4_図枠
  6
CONTINUOUS
 62
     0
100
AcDbText
 10
128.75
 20
143.6520396122
 40
5
  1
 8
  7
STANDARD
100
AcDbText
  0
TEXT
  5
1C2
100
AcDbEntity
  8
_0-4_図枠
  6
CONTINUOUS
 62
     0
100
AcDbText
 10
128.75
 20
152.6520396122
 40
5
  1
 7
  7
STANDARD
100
AcDbText
  0
TEXT
  5
1C3
100
AcDbEntity
  8
_0-4_図枠
  6
CONTINUOUS
 62
     0
100
AcDbText
 10
128.75
 20
161.6520396122
 40
5
  1
 6
  7
STANDARD
100
AcDbText
  0
TEXT
  5
1C4
100
AcDbEntity
  8
_0-4_図枠
  6
CONTINUOUS
 62
     0
100
AcDbText
 10
128.75
 20
170.6520396122
 40
5
  1
 5
  7
STANDARD
100
AcDbText
  0
TEXT
  5
1C5
100
AcDbEntity
  8
_0-4_図枠
  6
CONTINUOUS
 62
     0
100
AcDbText
 10
128.75
 20
179.6520396122
 40
5
  1
 4
  7
STANDARD
100
AcDbText
  0
TEXT
  5
1C6
100
AcDbEntity
  8
_0-4_図枠
  6
CONTINUOUS
 62
     0
100
AcDbText
 10
128.75
 20
188.6520396122
 40
5
  1
 3
  7
STANDARD
100
AcDbText
  0
TEXT
  5
1C7
100
AcDbEntity
  8
_0-4_図枠
  6
CONTINUOUS
 62
     0
100
AcDbText
 10
128.75
 20
197.6520396122
 40
5
  1
 2
  7
STANDARD
100
AcDbText
  0
TEXT
  5
1C8
100
AcDbEntity
  8
_0-4_図枠
  6
CONTINUOUS
 62
     0
100
AcDbText
 10
128.75
 20
206.6520396122
 40
5
  1
 1
  7
STANDARD
100
AcDbText
  0
TEXT
  5
1C9
100
AcDbEntity
  8
_0-4_図枠
  6
CONTINUOUS
 62
     0
100
AcDbText
 10
127
 20
215.6520396122
 40
5
  1
No.
  7
STANDARD
100
AcDbText
  0
LINE
  5
1CA
100
AcDbEntity
  8
_0-4_図枠
  6
CONTINUOUS
 62
     0
100
AcDbLine
 10
334
 20
25.15203961224
 11
125
 21
25.15203961224
  0
LINE
  5
1CB
100
AcDbEntity
  8
_0-4_図枠
  6
CONTINUOUS
 62
     0
100
AcDbLine
 10
334
 20
34.15203961224
 11
125
 21
34.15203961224
  0
LINE
  5
1CC
100
AcDbEntity
  8
_0-4_図枠
  6
CONTINUOUS
 62
     0
100
AcDbLine
 10
334
 20
43.15203961224
 11
125
 21
43.15203961224
  0
LINE
  5
1CD
100
AcDbEntity
  8
_0-4_図枠
  6
CONTINUOUS
 62
     0
100
AcDbLine
 10
334
 20
52.15203961224
 11
125
 21
52.15203961224
  0
LINE
  5
1CE
100
AcDbEntity
  8
_0-4_図枠
  6
CONTINUOUS
 62
     0
100
AcDbLine
 10
334
 20
61.15203961224
 11
125
 21
61.15203961224
  0
LINE
  5
1CF
100
AcDbEntity
  8
_0-4_図枠
  6
CONTINUOUS
 62
     0
100
AcDbLine
 10
334
 20
70.15203961224
 11
125
 21
70.15203961224
  0
LINE
  5
1D0
100
AcDbEntity
  8
_0-4_図枠
  6
CONTINUOUS
 62
     0
100
AcDbLine
 10
334
 20
79.15203961224
 11
125
 21
79.15203961224
  0
LINE
  5
1D1
100
AcDbEntity
  8
_0-4_図枠
  6
CONTINUOUS
 62
     0
100
AcDbLine
 10
334
 20
88.15203961224
 11
125
 21
88.15203961224
  0
LINE
  5
1D2
100
AcDbEntity
  8
_0-4_図枠
  6
CONTINUOUS
 62
     0
100
AcDbLine
 10
334
 20
97.15203961224
 11
125
 21
97.15203961224
  0
LINE
  5
1D3
100
AcDbEntity
  8
_0-4_図枠
  6
CONTINUOUS
 62
     0
100
AcDbLine
 10
334
 20
106.1520396122
 11
125
 21
106.1520396122
  0
LINE
  5
1D4
100
AcDbEntity
  8
_0-4_図枠
  6
CONTINUOUS
 62
     0
100
AcDbLine
 10
334
 20
115.1520396122
 11
125
 21
115.1520396122
  0
LINE
  5
1D5
100
AcDbEntity
  8
_0-4_図枠
  6
CONTINUOUS
 62
     0
100
AcDbLine
 10
334
 20
124.1520396122
 11
125
 21
124.1520396122
  0
LINE
  5
1D6
100
AcDbEntity
  8
_0-4_図枠
  6
CONTINUOUS
 62
     0
100
AcDbLine
 10
334
 20
133.1520396122
 11
125
 21
133.1520396122
  0
LINE
  5
1D7
100
AcDbEntity
  8
_0-4_図枠
  6
CONTINUOUS
 62
     0
100
AcDbLine
 10
334
 20
142.1520396122
 11
125
 21
142.1520396122
  0
LINE
  5
1D8
100
AcDbEntity
  8
_0-4_図枠
  6
CONTINUOUS
 62
     0
100
AcDbLine
 10
334
 20
151.1520396122
 11
125
 21
151.1520396122
  0
LINE
  5
1D9
100
AcDbEntity
  8
_0-4_図枠
  6
CONTINUOUS
 62
     0
100
AcDbLine
 10
334
 20
160.1520396122
 11
125
 21
160.1520396122
  0
LINE
  5
1DA
100
AcDbEntity
  8
_0-4_図枠
  6
CONTINUOUS
 62
     0
100
AcDbLine
 10
334
 20
169.1520396122
 11
125
 21
169.1520396122
  0
LINE
  5
1DB
100
AcDbEntity
  8
_0-4_図枠
  6
CONTINUOUS
 62
     0
100
AcDbLine
 10
334
 20
178.1520396122
 11
125
 21
178.1520396122
  0
LINE
  5
1DC
100
AcDbEntity
  8
_0-4_図枠
  6
CONTINUOUS
 62
     0
100
AcDbLine
 10
334
 20
187.1520396122
 11
125
 21
187.1520396122
  0
LINE
  5
1DD
100
AcDbEntity
  8
_0-4_図枠
  6
CONTINUOUS
 62
     0
100
AcDbLine
 10
334
 20
196.1520396122
 11
125
 21
196.1520396122
  0
LINE
  5
1DE
100
AcDbEntity
  8
_0-4_図枠
  6
CONTINUOUS
 62
     0
100
AcDbLine
 10
334
 20
214.1520396122
 11
125
 21
214.1520396122
  0
LINE
  5
1DF
100
AcDbEntity
  8
_0-4_図枠
  6
CONTINUOUS
 62
     0
100
AcDbLine
 10
334
 20
223.1520396122
 11
125
 21
223.1520396122
  0
TEXT
  5
1E0
100
AcDbEntity
  8
_0-4_図枠
  6
CONTINUOUS
 62
     0
100
AcDbText
 10
144
 20
179.6520396122
 40
5
  1
ＦＹＫ壁フレーム
  7
STANDARD
100
AcDbText
  0
TEXT
  5
1E1
100
AcDbEntity
  8
_0-4_図枠
  6
CONTINUOUS
 62
     0
100
AcDbText
 10
144
 20
188.6520396122
 40
5
  1
ＦＹＹフレーム
  7
STANDARD
100
AcDbText
  0
TEXT
  5
1E2
100
AcDbEntity
  8
_0-4_図枠
  6
CONTINUOUS
 62
     0
100
AcDbText
 10
144
 20
197.6520396122
 40
5
  1
ＦＹＫサイドキャップＡ
  7
STANDARD
100
AcDbText
  0
TEXT
  5
1E3
100
AcDbEntity
  8
_0-4_図枠
  6
CONTINUOUS
 62
     0
100
AcDbText
 10
144
 20
206.6520396122
 40
5
  1
ＦＹＫキャップＡ
  7
STANDARD
100
AcDbText
  0
TEXT
  5
1E4
100
AcDbEntity
  8
_0-4_図枠
  6
CONTINUOUS
 62
     0
100
AcDbText
 10
276.5
 20
215.6520396122
 40
5
  1
規　格
  7
STANDARD
100
AcDbText
  0
TEXT
  5
1E5
100
AcDbEntity
  8
_0-4_図枠
  6
CONTINUOUS
 62
     0
100
AcDbText
 10
175.5
 20
215.6520396122
 40
5
  1
部材名称
  7
STANDARD
100
AcDbText
  0
LINE
  5
1E6
100
AcDbEntity
  8
_0-0_0
  6
CONTINUOUS
 62
     0
100
AcDbLine
 10
162.4047465848
 20
481.12075351
 11
162.4047465848
 21
466.12075351
  0
LINE
  5
1E7
100
AcDbEntity
  8
_0-0_0
  6
CONTINUOUS
 62
     0
100
AcDbLine
 10
157.4047485848
 20
481.12075351
 11
162.4047465848
 21
466.12075351
  0
LINE
  5
1E8
100
AcDbEntity
  8
_0-0_0
  6
CONTINUOUS
 62
     0
100
AcDbLine
 10
694.2047475848
 20
482.55296551
 11
694.2047475848
 21
495.65491051
  0
LINE
  5
1E9
100
AcDbEntity
  8
_0-0_0
  6
CONTINUOUS
 62
     0
100
AcDbLine
 10
159.2047485848
 20
450.11292451
 11
694.2047475848
 21
450.11292451
  0
LINE
  5
1EA
100
AcDbEntity
  8
_0-0_0
  6
CONTINUOUS
 62
     0
100
AcDbLine
 10
159.2047485848
 20
439.02312751
 11
159.2047485848
 21
454.11292651
  0
LINE
  5
1EB
100
AcDbEntity
  8
_0-0_0
  6
CONTINUOUS
 62
     0
100
AcDbLine
 10
694.2047475848
 20
437.01097951
 11
694.2047475848
 21
450.11292451
  0
LINE
  5
1EC
100
AcDbEntity
  8
_0-0_0
  6
CONTINUOUS
 62
     0
100
AcDbLine
 10
159.2047485848
 20
450.11292451
 11
162.2047485848
 21
449.36292451
  0
LINE
  5
1ED
100
AcDbEntity
  8
_0-0_0
  6
CONTINUOUS
 62
     0
100
AcDbLine
 10
159.2047485848
 20
450.11292451
 11
162.2047485848
 21
450.86292451
  0
LINE
  5
1EE
100
AcDbEntity
  8
_0-0_0
  6
CONTINUOUS
 62
     0
100
AcDbLine
 10
694.2047475848
 20
450.11292451
 11
691.2047475848
 21
450.86292451
  0
LINE
  5
1EF
100
AcDbEntity
  8
_0-0_0
  6
CONTINUOUS
 62
     0
100
AcDbLine
 10
694.2047475848
 20
450.11292451
 11
691.2047475848
 21
449.36292451
  0
LINE
  5
1F0
100
AcDbEntity
  8
_0-0_0
  6
CONTINUOUS
 62
     0
100
AcDbLine
 10
66.79055558477
 20
481.12075351
 11
66.79055558477
 21
351.38000551
  0
LINE
  5
1F1
100
AcDbEntity
  8
_0-0_0
  6
CONTINUOUS
 62
     0
100
AcDbLine
 10
142.2047475848
 20
481.12075351
 11
60.79055558477
 21
481.12075351
  0
LINE
  5
1F2
100
AcDbEntity
  8
_0-0_0
  6
CONTINUOUS
 62
     0
100
AcDbLine
 10
66.79055558477
 20
481.12075351
 11
66.04055558477
 21
478.12075351
  0
LINE
  5
1F3
100
AcDbEntity
  8
_0-0_0
  6
CONTINUOUS
 62
     0
100
AcDbLine
 10
66.79055558477
 20
481.12075351
 11
67.54055558477
 21
478.12075351
  0
LINE
  5
1F4
100
AcDbEntity
  8
_0-0_0
  6
CONTINUOUS
 62
     0
100
AcDbLine
 10
66.79055558477
 20
351.38000551
 11
67.54055558477
 21
354.38000551
  0
LINE
  5
1F5
100
AcDbEntity
  8
_0-0_0
  6
CONTINUOUS
 62
     0
100
AcDbLine
 10
66.79055558477
 20
351.38000551
 11
66.04055558477
 21
354.38000551
  0
LINE
  5
1F6
100
AcDbEntity
  8
_0-0_0
  6
CONTINUOUS
 62
     0
100
AcDbLine
 10
144.2047485848
 20
481.12075351
 11
144.2047485848
 21
351.38000551
  0
LINE
  5
1F7
100
AcDbEntity
  8
_0-0_0
  6
CONTINUOUS
 62
     0
100
AcDbLine
 10
202.0268055848
 20
481.12075351
 11
202.0268055848
 21
466.12075351
  0
LINE
  5
1F8
100
AcDbEntity
  8
_0-0_0
  6
CONTINUOUS
 62
     0
100
AcDbLine
 10
171.2047485848
 20
481.12075351
 11
208.0268055848
 21
481.12075351
  0
LINE
  5
1F9
100
AcDbEntity
  8
_0-0_0
  6
CONTINUOUS
 62
     0
100
AcDbLine
 10
177.2047485848
 20
466.12075351
 11
208.0268055848
 21
466.12075351
  0
LINE
  5
1FA
100
AcDbEntity
  8
_0-0_0
  6
CONTINUOUS
 62
     0
100
AcDbLine
 10
202.0268055848
 20
481.12075351
 11
201.2768055848
 21
478.12075351
  0
LINE
  5
1FB
100
AcDbEntity
  8
_0-0_0
  6
CONTINUOUS
 62
     0
100
AcDbLine
 10
202.0268055848
 20
481.12075351
 11
202.7768055848
 21
478.12075351
  0
LINE
  5
1FC
100
AcDbEntity
  8
_0-0_0
  6
CONTINUOUS
 62
     0
100
AcDbLine
 10
202.0268055848
 20
466.12075351
 11
202.7768055848
 21
469.12075351
  0
LINE
  5
1FD
100
AcDbEntity
  8
_0-0_0
  6
CONTINUOUS
 62
     0
100
AcDbLine
 10
202.0268055848
 20
466.12075351
 11
201.2768055848
 21
469.12075351
  0
LINE
  5
1FE
100
AcDbEntity
  8
_0-0_0
  6
CONTINUOUS
 62
     0
100
AcDbLine
 10
202.0268055848
 20
466.12075351
 11
202.0268055848
 21
430.12075351
  0
LINE
  5
1FF
100
AcDbEntity
  8
_0-0_0
  6
CONTINUOUS
 62
     0
100
AcDbLine
 10
202.0268055848
 20
466.12075351
 11
201.2768055848
 21
463.12075351
  0
LINE
  5
200
100
AcDbEntity
  8
_0-0_0
  6
CONTINUOUS
 62
     0
100
AcDbLine
 10
202.0268055848
 20
466.12075351
 11
202.7768055848
 21
463.12075351
  0
LINE
  5
201
100
AcDbEntity
  8
_0-0_0
  6
CONTINUOUS
 62
     0
100
AcDbLine
 10
202.0268055848
 20
430.12075351
 11
202.7768055848
 21
433.12075351
  0
LINE
  5
202
100
AcDbEntity
  8
_0-0_0
  6
CONTINUOUS
 62
     0
100
AcDbLine
 10
202.0268055848
 20
430.12075351
 11
201.2768055848
 21
433.12075351
  0
LINE
  5
203
100
AcDbEntity
  8
_0-0_0
  6
CONTINUOUS
 62
     0
100
AcDbLine
 10
152.7047475848
 20
453.92075251
 11
152.7047475848
 21
450.12075451
  0
LINE
  5
204
100
AcDbEntity
  8
_0-0_0
  6
CONTINUOUS
 62
     0
100
AcDbLine
 10
154.2047475848
 20
449.42075251
 11
154.2047475848
 21
455.42075251
  0
LINE
  5
205
100
AcDbEntity
  8
_0-0_0
  6
CONTINUOUS
 62
     0
100
AcDbLine
 10
147.7047465848
 20
443.42075251
 11
147.7047465848
 21
453.92075251
  0
LINE
  5
206
100
AcDbEntity
  8
_0-0_0
  6
CONTINUOUS
 62
     0
100
AcDbLine
 10
145.7047485848
 20
454.42075351
 11
145.7047485848
 21
442.92075451
  0
LINE
  5
207
100
AcDbEntity
  8
_0-0_0
  6
CONTINUOUS
 62
     0
100
AcDbLine
 10
148.2047475848
 20
448.42075351
 11
148.2047475848
 21
451.67075251
  0
LINE
  5
208
100
AcDbEntity
  8
_0-0_0
  6
CONTINUOUS
 62
     0
100
AcDbLine
 10
149.7047475848
 20
451.67075251
 11
149.7047475848
 21
448.42075351
  0
LINE
  5
209
100
AcDbEntity
  8
_0-0_0
  6
CONTINUOUS
 62
     0
100
AcDbLine
 10
177.4047465848
 20
432.32075251
 11
177.4047465848
 21
463.92075451
  0
LINE
  5
20A
100
AcDbEntity
  8
_0-0_0
  6
CONTINUOUS
 62
     0
100
AcDbLine
 10
176.2047465848
 20
432.32075251
 11
176.2047465848
 21
463.92075451
  0
LINE
  5
20B
100
AcDbEntity
  8
_0-0_0
  6
CONTINUOUS
 62
     0
100
AcDbLine
 10
175.9047465848
 20
463.22075251
 11
175.9047465848
 21
433.72075351
  0
LINE
  5
20C
100
AcDbEntity
  8
_0-0_0
  6
CONTINUOUS
 62
     0
100
AcDbLine
 10
174.9047475848
 20
463.22075251
 11
174.9047475848
 21
433.72075351
  0
LINE
  5
20D
100
AcDbEntity
  8
_0-0_0
  6
CONTINUOUS
 62
     0
100
AcDbLine
 10
174.9160605848
 20
434.52075451
 11
175.9047465848
 21
435.50944051
  0
LINE
  5
20E
100
AcDbEntity
  8
_0-0_0
  6
CONTINUOUS
 62
     0
100
AcDbLine
 10
174.9047475848
 20
437.34918151
 11
175.9047465848
 21
438.34918051
  0
LINE
  5
20F
100
AcDbEntity
  8
_0-0_0
  6
CONTINUOUS
 62
     0
100
AcDbLine
 10
174.9047475848
 20
440.17760851
 11
175.9047465848
 21
441.17760751
  0
LINE
  5
210
100
AcDbEntity
  8
_0-0_0
  6
CONTINUOUS
 62
     0
100
AcDbLine
 10
174.9047475848
 20
443.00603551
 11
175.9047465848
 21
444.00603451
  0
LINE
  5
211
100
AcDbEntity
  8
_0-0_0
  6
CONTINUOUS
 62
     0
100
AcDbLine
 10
174.9047475848
 20
445.83446251
 11
175.9047465848
 21
446.83446151
  0
LINE
  5
212
100
AcDbEntity
  8
_0-0_0
  6
CONTINUOUS
 62
     0
100
AcDbLine
 10
174.9047475848
 20
448.66288951
 11
175.9047465848
 21
449.66288851
  0
LINE
  5
213
100
AcDbEntity
  8
_0-0_0
  6
CONTINUOUS
 62
     0
100
AcDbLine
 10
174.9047475848
 20
451.49131651
 11
175.9047465848
 21
452.49131551
  0
LINE
  5
214
100
AcDbEntity
  8
_0-0_0
  6
CONTINUOUS
 62
     0
100
AcDbLine
 10
174.9047475848
 20
454.31974351
 11
175.9047465848
 21
455.31974251
  0
LINE
  5
215
100
AcDbEntity
  8
_0-0_0
  6
CONTINUOUS
 62
     0
100
AcDbLine
 10
174.9047475848
 20
457.14817051
 11
175.9047465848
 21
458.14816951
  0
LINE
  5
216
100
AcDbEntity
  8
_0-0_0
  6
CONTINUOUS
 62
     0
100
AcDbLine
 10
174.9047475848
 20
459.97659751
 11
175.9047465848
 21
460.97659651
  0
LINE
  5
217
100
AcDbEntity
  8
_0-0_0
  6
CONTINUOUS
 62
     0
100
AcDbLine
 10
174.9047475848
 20
462.80502451
 11
175.8193575848
 21
463.71963451
  0
LINE
  5
218
100
AcDbEntity
  8
_0-0_0
  6
CONTINUOUS
 62
     0
100
AcDbLine
 10
172.9920495848
 20
463.72075351
 11
173.9920485848
 21
464.72075251
  0
LINE
  5
219
100
AcDbEntity
  8
_0-0_0
  6
CONTINUOUS
 62
     0
100
AcDbLine
 10
170.1636225848
 20
463.72075351
 11
171.1636215848
 21
464.72075251
  0
LINE
  5
21A
100
AcDbEntity
  8
_0-0_0
  6
CONTINUOUS
 62
     0
100
AcDbLine
 10
167.3351955848
 20
463.72075351
 11
168.3351945848
 21
464.72075251
  0
LINE
  5
21B
100
AcDbEntity
  8
_0-0_0
  6
CONTINUOUS
 62
     0
100
AcDbLine
 10
164.5067685848
 20
463.72075351
 11
165.5067675848
 21
464.72075251
  0
LINE
  5
21C
100
AcDbEntity
  8
_0-0_0
  6
CONTINUOUS
 62
     0
100
AcDbLine
 10
161.6783415848
 20
463.72075351
 11
162.6783405848
 21
464.72075251
  0
LINE
  5
21D
100
AcDbEntity
  8
_0-0_0
  6
CONTINUOUS
 62
     0
100
AcDbLine
 10
158.8499145848
 20
463.72075351
 11
159.8499135848
 21
464.72075251
  0
LINE
  5
21E
100
AcDbEntity
  8
_0-0_0
  6
CONTINUOUS
 62
     0
100
AcDbLine
 10
156.0613275848
 20
463.76059651
 11
157.0214865848
 21
464.72075251
  0
LINE
  5
21F
100
AcDbEntity
  8
_0-0_0
  6
CONTINUOUS
 62
     0
100
AcDbLine
 10
154.9047465848
 20
465.43244251
 11
155.9047485848
 21
466.43244151
  0
LINE
  5
220
100
AcDbEntity
  8
_0-0_0
  6
CONTINUOUS
 62
     0
100
AcDbLine
 10
175.4713425848
 20
420.97123051
 11
664.9696755848
 21
395.31771151
  0
LINE
  5
221
100
AcDbEntity
  8
_0-0_0
  6
CONTINUOUS
 62
     0
100
AcDbLine
 10
175.2358305848
 20
416.47739851
 11
664.7341635848
 21
390.82387651
  0
LINE
  5
222
100
AcDbEntity
  8
_0-0_0
  6
CONTINUOUS
 62
     0
100
AcDbLine
 10
175.1573265848
 20
414.97945351
 11
664.6556595848
 21
389.32593151
  0
LINE
  5
223
100
AcDbEntity
  8
_0-0_0
  6
CONTINUOUS
 62
     0
100
AcDbLine
 10
174.2937855848
 20
398.50206751
 11
663.7921155848
 21
372.84854551
  0
LINE
  5
224
100
AcDbEntity
  8
_0-0_0
  6
CONTINUOUS
 62
     0
100
AcDbLine
 10
174.0059355848
 20
393.00960451
 11
663.5042685848
 21
367.35608251
  0
LINE
  5
225
100
AcDbEntity
  8
_0-0_0
  6
CONTINUOUS
 62
     0
100
AcDbLine
 10
174.1367775848
 20
395.50617751
 11
663.6351075848
 21
369.85265551
  0
LINE
  5
226
100
AcDbEntity
  8
_0-0_0
  6
CONTINUOUS
 62
     0
100
AcDbLine
 10
174.0582735848
 20
394.00823251
 11
663.5566035848
 21
368.35471351
  0
LINE
  5
227
100
AcDbEntity
  8
_0-0_0
  6
CONTINUOUS
 62
     0
100
AcDbLine
 10
671.2005945848
 20
392.20784551
 11
155.3122275848
 21
419.24440951
  0
LINE
  5
228
100
AcDbEntity
  8
_0-0_0
  6
CONTINUOUS
 62
     0
100
AcDbLine
 10
691.2570825848
 20
395.66290651
 11
160.0477395848
 21
423.50240851
  0
LINE
  5
229
100
AcDbEntity
  8
_0-0_0
  6
CONTINUOUS
 62
     0
100
AcDbLine
 10
691.3617555848
 20
397.66016551
 11
160.1524125848
 21
425.49966751
  0
ARC
  5
22A
100
AcDbEntity
  8
_0-0_0
  6
CONTINUOUS
 62
     0
100
AcDbCircle
 10
159.4966305848
 20
472.02075451
 40
0.399999
100
AcDbArc
 50
-13.700233
 51
90
  0
ARC
  5
22B
100
AcDbEntity
  8
_0-0_0
  6
CONTINUOUS
 62
     0
100
AcDbCircle
 10
159.4966305848
 20
473.82075451
 40
0.399999
100
AcDbArc
 50
-90
 51
13.700233
  0
LINE
  5
22C
100
AcDbEntity
  8
_0-0_0
  6
CONTINUOUS
 62
     0
100
AcDbLine
 10
159.4704675848
 20
473.42075251
 11
159.4704675848
 21
472.42075351
  0
ARC
  5
22D
100
AcDbEntity
  8
_0-0_0
  6
CONTINUOUS
 62
     0
100
AcDbCircle
 10
157.2748425848
 20
471.71708251
 40
2.300001
100
AcDbArc
 50
-86.762163
 51
-39.309124
  0
ARC
  5
22E
100
AcDbEntity
  8
_0-0_0
  6
CONTINUOUS
 62
     0
100
AcDbCircle
 10
157.2718395848
 20
474.12810151
 40
2.300001
100
AcDbArc
 50
39.179511
 51
86.687257
  0
ARC
  5
22F
100
AcDbEntity
  8
_0-0_0
  6
CONTINUOUS
 62
     0
100
AcDbCircle
 10
155.8047495848
 20
472.92075451
 40
4.2
100
AcDbArc
 50
-39.309371
 51
39.303131
  0
ARC
  5
230
100
AcDbEntity
  8
_0-0_0
  6
CONTINUOUS
 62
     0
100
AcDbCircle
 10
155.6047485848
 20
475.52075251
 40
0.6
100
AcDbArc
 50
-90
 51
90
  0
ARC
  5
231
100
AcDbEntity
  8
_0-0_0
  6
CONTINUOUS
 62
     0
100
AcDbCircle
 10
155.6047485848
 20
470.32075351
 40
0.6
100
AcDbArc
 50
-90
 51
90
  0
LINE
  5
232
100
AcDbEntity
  8
_0-0_0
  6
CONTINUOUS
 62
     0
100
AcDbLine
 10
154.2047475848
 20
476.12075251
 11
155.6047485848
 21
476.12075251
  0
LINE
  5
233
100
AcDbEntity
  8
_0-0_0
  6
CONTINUOUS
 62
     0
100
AcDbLine
 10
154.9047465848
 20
464.02075351
 11
154.9047465848
 21
469.72075351
  0
LINE
  5
234
100
AcDbEntity
  8
_0-0_0
  6
CONTINUOUS
 62
     0
100
AcDbLine
 10
154.9047465848
 20
469.72075351
 11
155.6047485848
 21
469.72075351
  0
LINE
  5
235
100
AcDbEntity
  8
_0-0_0
  6
CONTINUOUS
 62
     0
100
AcDbLine
 10
154.2047475848
 20
476.92075351
 11
154.2047475848
 21
476.12075251
  0
ARC
  5
236
100
AcDbEntity
  8
_0-0_0
  6
CONTINUOUS
 62
     0
100
AcDbCircle
 10
145.7047485848
 20
476.42075251
 40
0.500001
100
AcDbArc
 50
90
 51
180
  0
LINE
  5
237
100
AcDbEntity
  8
_0-0_0
  6
CONTINUOUS
 62
     0
100
AcDbLine
 10
148.7047485848
 20
471.42075451
 11
148.2047475848
 21
470.92075351
  0
LINE
  5
238
100
AcDbEntity
  8
_0-0_0
  6
CONTINUOUS
 62
     0
100
AcDbLine
 10
149.2047465848
 20
470.92075351
 11
148.7047485848
 21
471.42075451
  0
LINE
  5
239
100
AcDbEntity
  8
_0-0_0
  6
CONTINUOUS
 62
     0
100
AcDbLine
 10
149.7047475848
 20
471.42075451
 11
149.2047465848
 21
470.92075351
  0
LINE
  5
23A
100
AcDbEntity
  8
_0-0_0
  6
CONTINUOUS
 62
     0
100
AcDbLine
 10
150.2047485848
 20
470.92075351
 11
149.7047475848
 21
471.42075451
  0
LINE
  5
23B
100
AcDbEntity
  8
_0-0_0
  6
CONTINUOUS
 62
     0
100
AcDbLine
 10
150.7047465848
 20
471.42075451
 11
150.2047485848
 21
470.92075351
  0
LINE
  5
23C
100
AcDbEntity
  8
_0-0_0
  6
CONTINUOUS
 62
     0
100
AcDbLine
 10
151.2047475848
 20
470.92075351
 11
150.7047465848
 21
471.42075451
  0
LINE
  5
23D
100
AcDbEntity
  8
_0-0_0
  6
CONTINUOUS
 62
     0
100
AcDbLine
 10
151.7047485848
 20
471.42075451
 11
151.2047475848
 21
470.92075351
  0
LINE
  5
23E
100
AcDbEntity
  8
_0-0_0
  6
CONTINUOUS
 62
     0
100
AcDbLine
 10
152.2047465848
 20
470.92075351
 11
151.7047485848
 21
471.42075451
  0
LINE
  5
23F
100
AcDbEntity
  8
_0-0_0
  6
CONTINUOUS
 62
     0
100
AcDbLine
 10
152.7047475848
 20
471.42075451
 11
152.2047465848
 21
470.92075351
  0
LINE
  5
240
100
AcDbEntity
  8
_0-0_0
  6
CONTINUOUS
 62
     0
100
AcDbLine
 10
153.2047485848
 20
470.92075351
 11
152.7047475848
 21
471.42075451
  0
LINE
  5
241
100
AcDbEntity
  8
_0-0_0
  6
CONTINUOUS
 62
     0
100
AcDbLine
 10
148.7047485848
 20
474.42075451
 11
148.2047475848
 21
474.92075251
  0
LINE
  5
242
100
AcDbEntity
  8
_0-0_0
  6
CONTINUOUS
 62
     0
100
AcDbLine
 10
149.2047465848
 20
474.92075251
 11
148.7047485848
 21
474.42075451
  0
LINE
  5
243
100
AcDbEntity
  8
_0-0_0
  6
CONTINUOUS
 62
     0
100
AcDbLine
 10
149.7047475848
 20
474.42075451
 11
149.2047465848
 21
474.92075251
  0
LINE
  5
244
100
AcDbEntity
  8
_0-0_0
  6
CONTINUOUS
 62
     0
100
AcDbLine
 10
150.2047485848
 20
474.92075251
 11
149.7047475848
 21
474.42075451
  0
LINE
  5
245
100
AcDbEntity
  8
_0-0_0
  6
CONTINUOUS
 62
     0
100
AcDbLine
 10
150.7047465848
 20
474.42075451
 11
150.2047485848
 21
474.92075251
  0
LINE
  5
246
100
AcDbEntity
  8
_0-0_0
  6
CONTINUOUS
 62
     0
100
AcDbLine
 10
151.2047475848
 20
474.92075251
 11
150.7047465848
 21
474.42075451
  0
LINE
  5
247
100
AcDbEntity
  8
_0-0_0
  6
CONTINUOUS
 62
     0
100
AcDbLine
 10
151.7047485848
 20
474.42075451
 11
151.2047475848
 21
474.92075251
  0
LINE
  5
248
100
AcDbEntity
  8
_0-0_0
  6
CONTINUOUS
 62
     0
100
AcDbLine
 10
152.2047465848
 20
474.92075251
 11
151.7047485848
 21
474.42075451
  0
LINE
  5
249
100
AcDbEntity
  8
_0-0_0
  6
CONTINUOUS
 62
     0
100
AcDbLine
 10
152.7047475848
 20
474.42075451
 11
152.2047465848
 21
474.92075251
  0
LINE
  5
24A
100
AcDbEntity
  8
_0-0_0
  6
CONTINUOUS
 62
     0
100
AcDbLine
 10
153.2047485848
 20
474.92075251
 11
152.7047475848
 21
474.42075451
  0
LINE
  5
24B
100
AcDbEntity
  8
_0-0_0
  6
CONTINUOUS
 62
     0
100
AcDbLine
 10
153.2047485848
 20
470.92075351
 11
155.7047475848
 21
470.92075351
  0
LINE
  5
24C
100
AcDbEntity
  8
_0-0_0
  6
CONTINUOUS
 62
     0
100
AcDbLine
 10
153.2047485848
 20
474.92075251
 11
155.7047475848
 21
474.92075251
  0
ARC
  5
24D
100
AcDbEntity
  8
_0-0_0
  6
CONTINUOUS
 62
     0
100
AcDbCircle
 10
147.0047475848
 20
474.62075251
 40
0.3
100
AcDbArc
 50
90
 51
180
  0
LINE
  5
24E
100
AcDbEntity
  8
_0-0_0
  6
CONTINUOUS
 62
     0
100
AcDbLine
 10
147.0047475848
 20
474.92075251
 11
148.2047475848
 21
474.92075251
  0
LINE
  5
24F
100
AcDbEntity
  8
_0-0_0
  6
CONTINUOUS
 62
     0
100
AcDbLine
 10
147.0047475848
 20
470.92075351
 11
148.2047475848
 21
470.92075351
  0
ARC
  5
250
100
AcDbEntity
  8
_0-0_0
  6
CONTINUOUS
 62
     0
100
AcDbCircle
 10
147.0047475848
 20
471.22075351
 40
0.3
100
AcDbArc
 50
180
 51
270
  0
LINE
  5
251
100
AcDbEntity
  8
_0-0_0
  6
CONTINUOUS
 62
     0
100
AcDbLine
 10
146.7047475848
 20
471.22075351
 11
146.7047475848
 21
474.62075251
  0
LINE
  5
252
100
AcDbEntity
  8
_0-0_0
  6
CONTINUOUS
 62
     0
100
AcDbLine
 10
152.2047465848
 20
454.42075351
 11
148.2047475848
 21
454.42075351
  0
ARC
  5
253
100
AcDbEntity
  8
_0-0_0
  6
CONTINUOUS
 62
     0
100
AcDbCircle
 10
152.2047465848
 20
453.92075251
 40
0.500001
100
AcDbArc
 50
0
 51
90
  0
ARC
  5
254
100
AcDbEntity
  8
_0-0_0
  6
CONTINUOUS
 62
     0
100
AcDbCircle
 10
153.7047465848
 20
455.42075251
 40
0.500001
100
AcDbArc
 50
0
 51
90
  0
LINE
  5
255
100
AcDbEntity
  8
_0-0_0
  6
CONTINUOUS
 62
     0
100
AcDbLine
 10
153.7047465848
 20
455.92075351
 11
148.2047475848
 21
455.92075351
  0
ARC
  5
256
100
AcDbEntity
  8
_0-0_0
  6
CONTINUOUS
 62
     0
100
AcDbCircle
 10
148.2047475848
 20
456.42075451
 40
0.500001
100
AcDbArc
 50
180
 51
270
  0
ARC
  5
257
100
AcDbEntity
  8
_0-0_0
  6
CONTINUOUS
 62
     0
100
AcDbCircle
 10
148.2047475848
 20
453.92075251
 40
0.500001
100
AcDbArc
 50
90
 51
180
  0
ARC
  5
258
100
AcDbEntity
  8
_0-0_0
  6
CONTINUOUS
 62
     0
100
AcDbCircle
 10
159.8047485848
 20
463.12075351
 40
0.6
100
AcDbArc
 50
-90
 51
90
  0
LINE
  5
259
100
AcDbEntity
  8
_0-0_0
  6
CONTINUOUS
 62
     0
100
AcDbLine
 10
147.7047465848
 20
468.42075451
 11
147.7047465848
 21
456.42075451
  0
ARC
  5
25A
100
AcDbEntity
  8
_0-0_0
  6
CONTINUOUS
 62
     0
100
AcDbCircle
 10
148.2047475848
 20
468.42075451
 40
0.500001
100
AcDbArc
 50
90
 51
180
  0
LINE
  5
25B
100
AcDbEntity
  8
_0-0_0
  6
CONTINUOUS
 62
     0
100
AcDbLine
 10
153.2047485848
 20
468.92075251
 11
148.2047475848
 21
468.92075251
  0
ARC
  5
25C
100
AcDbEntity
  8
_0-0_0
  6
CONTINUOUS
 62
     0
100
AcDbCircle
 10
153.2047485848
 20
468.42075451
 40
0.500001
100
AcDbArc
 50
0
 51
90
  0
LINE
  5
25D
100
AcDbEntity
  8
_0-0_0
  6
CONTINUOUS
 62
     0
100
AcDbLine
 10
154.7047485848
 20
462.52075351
 11
159.8047485848
 21
462.52075351
  0
ARC
  5
25E
100
AcDbEntity
  8
_0-0_0
  6
CONTINUOUS
 62
     0
100
AcDbCircle
 10
154.7047485848
 20
463.52075251
 40
0.999999
100
AcDbArc
 50
180
 51
270
  0
LINE
  5
25F
100
AcDbEntity
  8
_0-0_0
  6
CONTINUOUS
 62
     0
100
AcDbLine
 10
153.7047465848
 20
463.52075251
 11
153.7047465848
 21
468.42075451
  0
ARC
  5
260
100
AcDbEntity
  8
_0-0_0
  6
CONTINUOUS
 62
     0
100
AcDbCircle
 10
155.2047465848
 20
464.02075351
 40
0.3
100
AcDbArc
 50
180
 51
270
  0
LINE
  5
261
100
AcDbEntity
  8
_0-0_0
  6
CONTINUOUS
 62
     0
100
AcDbLine
 10
145.2047475848
 20
454.42075351
 11
145.7047485848
 21
454.42075351
  0
LINE
  5
262
100
AcDbEntity
  8
_0-0_0
  6
CONTINUOUS
 62
     0
100
AcDbLine
 10
145.7047485848
 20
455.92075351
 11
145.2047475848
 21
455.92075351
  0
LINE
  5
263
100
AcDbEntity
  8
_0-0_0
  6
CONTINUOUS
 62
     0
100
AcDbLine
 10
145.7047485848
 20
468.92075251
 11
145.7047485848
 21
455.92075351
  0
LINE
  5
264
100
AcDbEntity
  8
_0-0_0
  6
CONTINUOUS
 62
     0
100
AcDbLine
 10
145.2047475848
 20
468.92075251
 11
145.7047485848
 21
468.92075251
  0
ARC
  5
265
100
AcDbEntity
  8
_0-0_0
  6
CONTINUOUS
 62
     0
100
AcDbCircle
 10
148.9547475848
 20
451.67075251
 40
0.75
100
AcDbArc
 50
0
 51
180
  0
LINE
  5
266
100
AcDbEntity
  8
_0-0_0
  6
CONTINUOUS
 62
     0
100
AcDbLine
 10
144.2047485848
 20
481.12075351
 11
169.2047475848
 21
481.12075351
  0
LINE
  5
267
100
AcDbEntity
  8
_0-0_0
  6
CONTINUOUS
 62
     0
100
AcDbLine
 10
156.2047485848
 20
467.12075251
 11
156.2047485848
 21
475.92075451
  0
ARC
  5
268
100
AcDbEntity
  8
_0-0_0
  6
CONTINUOUS
 62
     0
100
AcDbCircle
 10
158.4047475848
 20
467.12075251
 40
2.199999
100
AcDbArc
 50
180
 51
270
  0
LINE
  5
269
100
AcDbEntity
  8
_0-0_0
  6
CONTINUOUS
 62
     0
100
AcDbLine
 10
158.4047475848
 20
464.92075351
 11
175.2047475848
 21
464.92075351
  0
LINE
  5
26A
100
AcDbEntity
  8
_0-0_0
  6
CONTINUOUS
 62
     0
100
AcDbLine
 10
155.2047465848
 20
478.12075351
 11
147.4047465848
 21
478.12075351
  0
ARC
  5
26B
100
AcDbEntity
  8
_0-0_0
  6
CONTINUOUS
 62
     0
100
AcDbCircle
 10
155.2047465848
 20
475.92075451
 40
2.199999
100
AcDbArc
 50
0
 51
90
  0
LINE
  5
26C
100
AcDbEntity
  8
_0-0_0
  6
CONTINUOUS
 62
     0
100
AcDbLine
 10
157.4047485848
 20
475.92075451
 11
157.4047485848
 21
467.12075251
  0
LINE
  5
26D
100
AcDbEntity
  8
_0-0_0
  6
CONTINUOUS
 62
     0
100
AcDbLine
 10
175.2047475848
 20
466.12075351
 11
158.4047475848
 21
466.12075351
  0
ARC
  5
26E
100
AcDbEntity
  8
_0-0_0
  6
CONTINUOUS
 62
     0
100
AcDbCircle
 10
175.2047475848
 20
463.92075451
 40
2.199999
100
AcDbArc
 50
0
 51
90
  0
ARC
  5
26F
100
AcDbEntity
  8
_0-0_0
  6
CONTINUOUS
 62
     0
100
AcDbCircle
 10
175.2047475848
 20
463.92075451
 40
0.999999
100
AcDbArc
 50
0
 51
90
  0
ARC
  5
270
100
AcDbEntity
  8
_0-0_0
  6
CONTINUOUS
 62
     0
100
AcDbCircle
 10
158.4047475848
 20
467.12075251
 40
0.999999
100
AcDbArc
 50
180
 51
270
  0
LINE
  5
271
100
AcDbEntity
  8
_0-0_0
  6
CONTINUOUS
 62
     0
100
AcDbLine
 10
155.2047465848
 20
476.92075351
 11
145.7047485848
 21
476.92075351
  0
ARC
  5
272
100
AcDbEntity
  8
_0-0_0
  6
CONTINUOUS
 62
     0
100
AcDbCircle
 10
155.2047465848
 20
475.92075451
 40
0.999999
100
AcDbArc
 50
0
 51
90
  0
LINE
  5
273
100
AcDbEntity
  8
_0-0_0
  6
CONTINUOUS
 62
     0
100
AcDbLine
 10
157.4047485848
 20
481.12075351
 11
157.4047485848
 21
475.92075451
  0
LINE
  5
274
100
AcDbEntity
  8
_0-0_0
  6
CONTINUOUS
 62
     0
100
AcDbLine
 10
169.2047475848
 20
502.13359951
 11
169.2047475848
 21
481.12075351
  0
LINE
  5
275
100
AcDbEntity
  8
_0-0_0
  6
CONTINUOUS
 62
     0
100
AcDbLine
 10
143.9067675848
 20
472.92075451
 11
162.7236435848
 21
472.92075451
  0
LINE
  5
276
100
AcDbEntity
  8
_0-0_0
  6
CONTINUOUS
 62
     0
100
AcDbLine
 10
156.2047485848
 20
470.92075351
 11
157.4047485848
 21
470.92075351
  0
LINE
  5
277
100
AcDbEntity
  8
_0-0_0
  6
CONTINUOUS
 62
     0
100
AcDbLine
 10
156.2047485848
 20
474.92075251
 11
157.4047485848
 21
474.92075251
  0
LINE
  5
278
100
AcDbEntity
  8
_0-0_0
  6
CONTINUOUS
 62
     0
100
AcDbLine
 10
156.2047485848
 20
471.42075451
 11
157.4047485848
 21
471.42075451
  0
LINE
  5
279
100
AcDbEntity
  8
_0-0_0
  6
CONTINUOUS
 62
     0
100
AcDbLine
 10
156.2047485848
 20
474.42075451
 11
157.4047485848
 21
474.42075451
  0
LINE
  5
27A
100
AcDbEntity
  8
_0-0_0
  6
CONTINUOUS
 62
     0
100
AcDbLine
 10
147.4047465848
 20
471.42075451
 11
156.2047485848
 21
471.42075451
  0
LINE
  5
27B
100
AcDbEntity
  8
_0-0_0
  6
CONTINUOUS
 62
     0
100
AcDbLine
 10
147.4047465848
 20
474.42075451
 11
156.2047485848
 21
474.42075451
  0
LINE
  5
27C
100
AcDbEntity
  8
_0-0_0
  6
CONTINUOUS
 62
     0
100
AcDbLine
 10
155.6047485848
 20
470.92075351
 11
156.2047485848
 21
470.92075351
  0
LINE
  5
27D
100
AcDbEntity
  8
_0-0_0
  6
CONTINUOUS
 62
     0
100
AcDbLine
 10
155.6047485848
 20
474.92075251
 11
156.2047485848
 21
474.92075251
  0
LINE
  5
27E
100
AcDbEntity
  8
_0-0_0
  6
CONTINUOUS
 62
     0
100
AcDbLine
 10
147.4047465848
 20
474.42075451
 11
147.4047465848
 21
471.42075451
  0
LINE
  5
27F
100
AcDbEntity
  8
_0-0_0
  6
CONTINUOUS
 62
     0
100
AcDbLine
 10
147.4047465848
 20
471.42075451
 11
147.9047475848
 21
470.92075351
  0
LINE
  5
280
100
AcDbEntity
  8
_0-0_0
  6
CONTINUOUS
 62
     0
100
AcDbLine
 10
147.9047475848
 20
474.92075251
 11
147.9047475848
 21
470.92075351
  0
LINE
  5
281
100
AcDbEntity
  8
_0-0_0
  6
CONTINUOUS
 62
     0
100
AcDbLine
 10
147.4047465848
 20
474.42075451
 11
147.9047475848
 21
474.92075251
  0
LINE
  5
282
100
AcDbEntity
  8
_0-0_0
  6
CONTINUOUS
 62
     0
100
AcDbLine
 10
147.4047465848
 20
478.12075351
 11
147.4047465848
 21
476.92075351
  0
LINE
  5
283
100
AcDbEntity
  8
_0-0_0
  6
CONTINUOUS
 62
     0
100
AcDbLine
 10
155.9047485848
 20
468.72075451
 11
155.9047485848
 21
465.22075351
  0
LINE
  5
284
100
AcDbEntity
  8
_0-0_0
  6
CONTINUOUS
 62
     0
100
AcDbLine
 10
154.9047465848
 20
468.72075451
 11
155.9047485848
 21
468.72075451
  0
ARC
  5
285
100
AcDbEntity
  8
_0-0_0
  6
CONTINUOUS
 62
     0
100
AcDbCircle
 10
174.4047465848
 20
463.22075251
 40
1.5
100
AcDbArc
 50
0
 51
90
  0
LINE
  5
286
100
AcDbEntity
  8
_0-0_0
  6
CONTINUOUS
 62
     0
100
AcDbLine
 10
174.4047465848
 20
464.72075251
 11
156.4047465848
 21
464.72075251
  0
LINE
  5
287
100
AcDbEntity
  8
_0-0_0
  6
CONTINUOUS
 62
     0
100
AcDbLine
 10
174.4047465848
 20
463.72075351
 11
155.2047465848
 21
463.72075351
  0
ARC
  5
288
100
AcDbEntity
  8
_0-0_0
  6
CONTINUOUS
 62
     0
100
AcDbCircle
 10
174.4047465848
 20
463.22075251
 40
0.500001
100
AcDbArc
 50
0
 51
90
  0
ARC
  5
289
100
AcDbEntity
  8
_0-0_0
  6
CONTINUOUS
 62
     0
100
AcDbCircle
 10
156.4047465848
 20
465.22075351
 40
0.500001
100
AcDbArc
 50
180
 51
270
  0
LINE
  5
28A
100
AcDbEntity
  8
_0-0_0
  6
CONTINUOUS
 62
     0
100
AcDbLine
 10
155.3646315848
 20
468.72075451
 11
154.9047465848
 21
468.26086951
  0
ARC
  5
28B
100
AcDbEntity
  8
_0-0_0
  6
CONTINUOUS
 62
     0
100
AcDbCircle
 10
156.4047465848
 20
465.22075351
 40
1.5
100
AcDbArc
 50
180
 51
270
  0
LINE
  5
28C
100
AcDbEntity
  8
_0-0_0
  6
CONTINUOUS
 62
     0
100
AcDbLine
 10
94.32886958477
 20
422.42075251
 11
94.32886958477
 21
351.38000551
  0
LINE
  5
28D
100
AcDbEntity
  8
_0-0_0
  6
CONTINUOUS
 62
     0
100
AcDbLine
 10
101.6217915848
 20
422.42075251
 11
90.32887058477
 21
422.42075251
  0
LINE
  5
28E
100
AcDbEntity
  8
_0-0_0
  6
CONTINUOUS
 62
     0
100
AcDbLine
 10
94.32886958477
 20
422.42075251
 11
93.57886958477
 21
419.42075251
  0
LINE
  5
28F
100
AcDbEntity
  8
_0-0_0
  6
CONTINUOUS
 62
     0
100
AcDbLine
 10
94.32886958477
 20
422.42075251
 11
95.07886958477
 21
419.42075251
  0
LINE
  5
290
100
AcDbEntity
  8
_0-0_0
  6
CONTINUOUS
 62
     0
100
AcDbLine
 10
94.32886958477
 20
351.38000551
 11
95.07886958477
 21
354.38000551
  0
LINE
  5
291
100
AcDbEntity
  8
_0-0_0
  6
CONTINUOUS
 62
     0
100
AcDbLine
 10
94.32886958477
 20
351.38000551
 11
93.57886958477
 21
354.38000551
  0
LINE
  5
292
100
AcDbEntity
  8
_0-0_0
  6
CONTINUOUS
 62
     0
100
AcDbLine
 10
100.2369015848
 20
422.42075251
 11
152.2874565848
 21
422.42075251
  0
LINE
  5
293
100
AcDbEntity
  8
_0-0_0
  6
CONTINUOUS
 62
     0
100
AcDbLine
 10
175.5613875848
 20
422.68937251
 11
175.4713425848
 21
420.97123051
  0
LINE
  5
294
100
AcDbEntity
  8
_0-0_0
  6
CONTINUOUS
 62
     0
100
AcDbLine
 10
185.5476825848
 20
422.16601351
 11
185.4576375848
 21
420.44787151
  0
LINE
  5
295
100
AcDbEntity
  8
_0-0_0
  6
CONTINUOUS
 62
     0
100
AcDbLine
 10
148.2047475848
 20
403.42075351
 11
158.9547465848
 21
403.42075351
  0
ARC
  5
296
100
AcDbEntity
  8
_0-0_0
  6
CONTINUOUS
 62
     0
100
AcDbCircle
 10
148.2047475848
 20
403.92075451
 40
0.500001
100
AcDbArc
 50
180
 51
270
  0
LINE
  5
297
100
AcDbEntity
  8
_0-0_0
  6
CONTINUOUS
 62
     0
100
AcDbLine
 10
147.7047465848
 20
403.92075451
 11
147.7047465848
 21
440.92075351
  0
LINE
  5
298
100
AcDbEntity
  8
_0-0_0
  6
CONTINUOUS
 62
     0
100
AcDbLine
 10
175.4713425848
 20
420.97123051
 11
174.0059355848
 21
393.00960451
  0
ARC
  5
299
100
AcDbEntity
  8
_0-0_0
  6
CONTINUOUS
 62
     0
100
AcDbCircle
 10
145.7047485848
 20
401.42075251
 40
0.500001
100
AcDbArc
 50
0
 51
90
  0
LINE
  5
29A
100
AcDbEntity
  8
_0-0_0
  6
CONTINUOUS
 62
     0
100
AcDbLine
 10
145.7047485848
 20
401.92075351
 11
145.2047475848
 21
401.92075351
  0
LINE
  5
29B
100
AcDbEntity
  8
_0-0_0
  6
CONTINUOUS
 62
     0
100
AcDbLine
 10
153.9547485848
 20
389.92075351
 11
145.2047475848
 21
389.92075351
  0
LINE
  5
29C
100
AcDbEntity
  8
_0-0_0
  6
CONTINUOUS
 62
     0
100
AcDbLine
 10
145.7047485848
 20
391.42075351
 11
145.2047475848
 21
391.42075351
  0
ARC
  5
29D
100
AcDbEntity
  8
_0-0_0
  6
CONTINUOUS
 62
     0
100
AcDbCircle
 10
145.7047485848
 20
391.92075451
 40
0.500001
100
AcDbArc
 50
-90
 51
0
  0
LINE
  5
29E
100
AcDbEntity
  8
_0-0_0
  6
CONTINUOUS
 62
     0
100
AcDbLine
 10
146.2047465848
 20
391.92075451
 11
146.2047465848
 21
401.42075251
  0
LINE
  5
29F
100
AcDbEntity
  8
_0-0_0
  6
CONTINUOUS
 62
     0
100
AcDbLine
 10
147.7047465848
 20
391.92075451
 11
147.7047465848
 21
394.92075451
  0
LINE
  5
2A0
100
AcDbEntity
  8
_0-0_0
  6
CONTINUOUS
 62
     0
100
AcDbLine
 10
152.7047475848
 20
391.42075351
 11
152.7047475848
 21
390.92075251
  0
LINE
  5
2A1
100
AcDbEntity
  8
_0-0_0
  6
CONTINUOUS
 62
     0
100
AcDbLine
 10
151.7047485848
 20
391.42075351
 11
152.7047475848
 21
390.92075251
  0
LINE
  5
2A2
100
AcDbEntity
  8
_0-0_0
  6
CONTINUOUS
 62
     0
100
AcDbLine
 10
151.7047485848
 20
391.42075351
 11
151.7047485848
 21
390.92075251
  0
LINE
  5
2A3
100
AcDbEntity
  8
_0-0_0
  6
CONTINUOUS
 62
     0
100
AcDbLine
 10
150.7047465848
 20
391.42075351
 11
151.7047485848
 21
390.92075251
  0
ARC
  5
2A4
100
AcDbEntity
  8
_0-0_0
  6
CONTINUOUS
 62
     0
100
AcDbCircle
 10
153.9547485848
 20
390.67075351
 40
0.75
100
AcDbArc
 50
-90
 51
90
  0
LINE
  5
2A5
100
AcDbEntity
  8
_0-0_0
  6
CONTINUOUS
 62
     0
100
AcDbLine
 10
148.2047475848
 20
391.42075351
 11
150.7047465848
 21
391.42075351
  0
ARC
  5
2A6
100
AcDbEntity
  8
_0-0_0
  6
CONTINUOUS
 62
     0
100
AcDbCircle
 10
148.2047475848
 20
391.92075451
 40
0.500001
100
AcDbArc
 50
180
 51
270
  0
ARC
  5
2A7
100
AcDbEntity
  8
_0-0_0
  6
CONTINUOUS
 62
     0
100
AcDbCircle
 10
158.9547465848
 20
402.67075351
 40
0.75
100
AcDbArc
 50
-90
 51
90
  0
ARC
  5
2A8
100
AcDbEntity
  8
_0-0_0
  6
CONTINUOUS
 62
     0
100
AcDbCircle
 10
151.3047465848
 20
449.02075351
 40
0.6
100
AcDbArc
 50
90
 51
270
  0
ARC
  5
2A9
100
AcDbEntity
  8
_0-0_0
  6
CONTINUOUS
 62
     0
100
AcDbCircle
 10
152.2047465848
 20
450.12075451
 40
0.500001
100
AcDbArc
 50
-90
 51
0
  0
LINE
  5
2AA
100
AcDbEntity
  8
_0-0_0
  6
CONTINUOUS
 62
     0
100
AcDbLine
 10
152.2047465848
 20
449.62075351
 11
151.3047465848
 21
449.62075351
  0
LINE
  5
2AB
100
AcDbEntity
  8
_0-0_0
  6
CONTINUOUS
 62
     0
100
AcDbLine
 10
153.2047485848
 20
448.42075351
 11
151.3047465848
 21
448.42075351
  0
ARC
  5
2AC
100
AcDbEntity
  8
_0-0_0
  6
CONTINUOUS
 62
     0
100
AcDbCircle
 10
153.2047485848
 20
449.42075251
 40
0.999999
100
AcDbArc
 50
-90
 51
0
  0
LINE
  5
2AD
100
AcDbEntity
  8
_0-0_0
  6
CONTINUOUS
 62
     0
100
AcDbLine
 10
148.2047475848
 20
401.92075351
 11
158.9547465848
 21
401.92075351
  0
ARC
  5
2AE
100
AcDbEntity
  8
_0-0_0
  6
CONTINUOUS
 62
     0
100
AcDbCircle
 10
148.2047475848
 20
401.42075251
 40
0.500001
100
AcDbArc
 50
90
 51
180
  0
LINE
  5
2AF
100
AcDbEntity
  8
_0-0_0
  6
CONTINUOUS
 62
     0
100
AcDbLine
 10
147.7047465848
 20
401.42075251
 11
147.7047465848
 21
397.42075351
  0
LINE
  5
2B0
100
AcDbEntity
  8
_0-0_0
  6
CONTINUOUS
 62
     0
100
AcDbLine
 10
157.7047485848
 20
441.92075251
 11
157.7047485848
 21
442.42075351
  0
ARC
  5
2B1
100
AcDbEntity
  8
_0-0_0
  6
CONTINUOUS
 62
     0
100
AcDbCircle
 10
157.2047475848
 20
441.92075251
 40
0.500001
100
AcDbArc
 50
-90
 51
0
  0
LINE
  5
2B2
100
AcDbEntity
  8
_0-0_0
  6
CONTINUOUS
 62
     0
100
AcDbLine
 10
157.2047475848
 20
441.42075451
 11
148.2047475848
 21
441.42075451
  0
ARC
  5
2B3
100
AcDbEntity
  8
_0-0_0
  6
CONTINUOUS
 62
     0
100
AcDbCircle
 10
157.2047475848
 20
442.42075351
 40
0.500001
100
AcDbArc
 50
0
 51
90
  0
ARC
  5
2B4
100
AcDbEntity
  8
_0-0_0
  6
CONTINUOUS
 62
     0
100
AcDbCircle
 10
148.2047475848
 20
440.92075351
 40
0.500001
100
AcDbArc
 50
90
 51
180
  0
ARC
  5
2B5
100
AcDbEntity
  8
_0-0_0
  6
CONTINUOUS
 62
     0
100
AcDbCircle
 10
153.9547485848
 20
396.17075251
 40
0.75
100
AcDbArc
 50
-90
 51
90
  0
LINE
  5
2B6
100
AcDbEntity
  8
_0-0_0
  6
CONTINUOUS
 62
     0
100
AcDbLine
 10
152.7047475848
 20
395.92075351
 11
152.7047475848
 21
395.42075251
  0
LINE
  5
2B7
100
AcDbEntity
  8
_0-0_0
  6
CONTINUOUS
 62
     0
100
AcDbLine
 10
151.7047485848
 20
395.42075251
 11
152.7047475848
 21
395.92075351
  0
LINE
  5
2B8
100
AcDbEntity
  8
_0-0_0
  6
CONTINUOUS
 62
     0
100
AcDbLine
 10
151.7047485848
 20
395.92075351
 11
151.7047485848
 21
395.42075251
  0
LINE
  5
2B9
100
AcDbEntity
  8
_0-0_0
  6
CONTINUOUS
 62
     0
100
AcDbLine
 10
150.7047465848
 20
395.42075251
 11
151.7047485848
 21
395.92075351
  0
LINE
  5
2BA
100
AcDbEntity
  8
_0-0_0
  6
CONTINUOUS
 62
     0
100
AcDbLine
 10
148.2047475848
 20
395.42075251
 11
150.7047465848
 21
395.42075251
  0
ARC
  5
2BB
100
AcDbEntity
  8
_0-0_0
  6
CONTINUOUS
 62
     0
100
AcDbCircle
 10
148.2047475848
 20
394.92075451
 40
0.500001
100
AcDbArc
 50
90
 51
180
  0
ARC
  5
2BC
100
AcDbEntity
  8
_0-0_0
  6
CONTINUOUS
 62
     0
100
AcDbCircle
 10
148.2047475848
 20
397.42075351
 40
0.500001
100
AcDbArc
 50
180
 51
270
  0
LINE
  5
2BD
100
AcDbEntity
  8
_0-0_0
  6
CONTINUOUS
 62
     0
100
AcDbLine
 10
148.2047475848
 20
396.92075251
 11
153.9547485848
 21
396.92075251
  0
LINE
  5
2BE
100
AcDbEntity
  8
_0-0_0
  6
CONTINUOUS
 62
     0
100
AcDbLine
 10
148.2047475848
 20
442.92075451
 11
157.2047475848
 21
442.92075451
  0
ARC
  5
2BF
100
AcDbEntity
  8
_0-0_0
  6
CONTINUOUS
 62
     0
100
AcDbCircle
 10
148.2047475848
 20
443.42075251
 40
0.500001
100
AcDbArc
 50
180
 51
270
  0
LINE
  5
2C0
100
AcDbEntity
  8
_0-0_0
  6
CONTINUOUS
 62
     0
100
AcDbLine
 10
147.7047465848
 20
421.92075451
 11
147.2047485848
 21
422.42075251
  0
LINE
  5
2C1
100
AcDbEntity
  8
_0-0_0
  6
CONTINUOUS
 62
     0
100
AcDbLine
 10
147.7047465848
 20
422.92075351
 11
147.2047485848
 21
422.42075251
  0
LINE
  5
2C2
100
AcDbEntity
  8
_0-0_0
  6
CONTINUOUS
 62
     0
100
AcDbLine
 10
145.7047485848
 20
403.42075351
 11
145.2047475848
 21
403.42075351
  0
LINE
  5
2C3
100
AcDbEntity
  8
_0-0_0
  6
CONTINUOUS
 62
     0
100
AcDbLine
 10
145.7047485848
 20
417.42075451
 11
145.7047485848
 21
403.42075351
  0
LINE
  5
2C4
100
AcDbEntity
  8
_0-0_0
  6
CONTINUOUS
 62
     0
100
AcDbLine
 10
145.2047475848
 20
417.42075451
 11
145.7047485848
 21
417.42075451
  0
LINE
  5
2C5
100
AcDbEntity
  8
_0-0_0
  6
CONTINUOUS
 62
     0
100
AcDbLine
 10
145.2047475848
 20
427.42075351
 11
145.7047485848
 21
427.42075351
  0
LINE
  5
2C6
100
AcDbEntity
  8
_0-0_0
  6
CONTINUOUS
 62
     0
100
AcDbLine
 10
145.7047485848
 20
441.42075451
 11
145.7047485848
 21
427.42075351
  0
LINE
  5
2C7
100
AcDbEntity
  8
_0-0_0
  6
CONTINUOUS
 62
     0
100
AcDbLine
 10
145.2047475848
 20
441.42075451
 11
145.7047485848
 21
441.42075451
  0
LINE
  5
2C8
100
AcDbEntity
  8
_0-0_0
  6
CONTINUOUS
 62
     0
100
AcDbLine
 10
145.7047485848
 20
442.92075451
 11
145.2047475848
 21
442.92075451
  0
LINE
  5
2C9
100
AcDbEntity
  8
_0-0_0
  6
CONTINUOUS
 62
     0
100
AcDbLine
 10
155.3047485848
 20
409.92075451
 11
155.3047485848
 21
437.92075351
  0
LINE
  5
2CA
100
AcDbEntity
  8
_0-0_0
  6
CONTINUOUS
 62
     0
100
AcDbLine
 10
153.3047475848
 20
408.42075451
 11
153.3047475848
 21
438.42075451
  0
LINE
  5
2CB
100
AcDbEntity
  8
_0-0_0
  6
CONTINUOUS
 62
     0
100
AcDbLine
 10
167.2524105848
 20
398.87108851
 11
172.2965265848
 21
398.60673751
  0
ARC
  5
2CC
100
AcDbEntity
  8
_0-0_0
  6
CONTINUOUS
 62
     0
100
AcDbCircle
 10
167.3047485848
 20
399.86971951
 40
0.999999
100
AcDbArc
 50
180
 51
267
  0
LINE
  5
2CD
100
AcDbEntity
  8
_0-0_0
  6
CONTINUOUS
 62
     0
100
AcDbLine
 10
166.3047465848
 20
399.86971951
 11
166.3047465848
 21
406.92075451
  0
LINE
  5
2CE
100
AcDbEntity
  8
_0-0_0
  6
CONTINUOUS
 62
     0
100
AcDbLine
 10
163.8047475848
 20
397.94558551
 11
163.8047475848
 21
405.42075451
  0
ARC
  5
2CF
100
AcDbEntity
  8
_0-0_0
  6
CONTINUOUS
 62
     0
100
AcDbCircle
 10
165.8047485848
 20
397.94558551
 40
2.000001
100
AcDbArc
 50
180
 51
267
  0
LINE
  5
2D0
100
AcDbEntity
  8
_0-0_0
  6
CONTINUOUS
 62
     0
100
AcDbLine
 10
165.7000755848
 20
395.94832651
 11
172.6388325848
 21
395.58468151
  0
LINE
  5
2D1
100
AcDbEntity
  8
_0-0_0
  6
CONTINUOUS
 62
     0
100
AcDbLine
 10
164.3047485848
 20
408.92075251
 11
156.3047475848
 21
408.92075251
  0
ARC
  5
2D2
100
AcDbEntity
  8
_0-0_0
  6
CONTINUOUS
 62
     0
100
AcDbCircle
 10
164.3047485848
 20
406.92075451
 40
2.000001
100
AcDbArc
 50
0
 51
90
  0
LINE
  5
2D3
100
AcDbEntity
  8
_0-0_0
  6
CONTINUOUS
 62
     0
100
AcDbLine
 10
162.8047485848
 20
406.42075351
 11
152.3047485848
 21
406.42075351
  0
ARC
  5
2D4
100
AcDbEntity
  8
_0-0_0
  6
CONTINUOUS
 62
     0
100
AcDbCircle
 10
162.8047485848
 20
405.42075451
 40
0.999999
100
AcDbArc
 50
0
 51
90
  0
ARC
  5
2D5
100
AcDbEntity
  8
_0-0_0
  6
CONTINUOUS
 62
     0
100
AcDbCircle
 10
156.3047475848
 20
409.92075451
 40
0.999999
100
AcDbArc
 50
180
 51
270
  0
LINE
  5
2D6
100
AcDbEntity
  8
_0-0_0
  6
CONTINUOUS
 62
     0
100
AcDbLine
 10
152.8047465848
 20
407.92075351
 11
151.3047465848
 21
407.92075351
  0
ARC
  5
2D7
100
AcDbEntity
  8
_0-0_0
  6
CONTINUOUS
 62
     0
100
AcDbCircle
 10
152.8047465848
 20
408.42075451
 40
0.500001
100
AcDbArc
 50
-90
 51
0
  0
ARC
  5
2D8
100
AcDbEntity
  8
_0-0_0
  6
CONTINUOUS
 62
     0
100
AcDbCircle
 10
152.3047485848
 20
405.92075251
 40
0.500001
100
AcDbArc
 50
90
 51
180
  0
LINE
  5
2D9
100
AcDbEntity
  8
_0-0_0
  6
CONTINUOUS
 62
     0
100
AcDbLine
 10
151.8047475848
 20
405.92075251
 11
151.8047475848
 21
404.17075351
  0
LINE
  5
2DA
100
AcDbEntity
  8
_0-0_0
  6
CONTINUOUS
 62
     0
100
AcDbLine
 10
172.8220065848
 20
399.07988551
 11
172.9227795848
 21
401.00275051
  0
ARC
  5
2DB
100
AcDbEntity
  8
_0-0_0
  6
CONTINUOUS
 62
     0
100
AcDbCircle
 10
172.3226925848
 20
399.10605151
 40
0.500001
100
AcDbArc
 50
-92.99999999999
 51
-2.999999999993
  0
LINE
  5
2DC
100
AcDbEntity
  8
_0-0_0
  6
CONTINUOUS
 62
     0
100
AcDbLine
 10
172.6388325848
 20
395.58468151
 11
172.5603285848
 21
394.08673651
  0
ARC
  5
2DD
100
AcDbEntity
  8
_0-0_0
  6
CONTINUOUS
 62
     0
100
AcDbCircle
 10
151.0547475848
 20
404.17075351
 40
0.75
100
AcDbArc
 50
180
 51
360
  0
ARC
  5
2DE
100
AcDbEntity
  8
_0-0_0
  6
CONTINUOUS
 62
     0
100
AcDbCircle
 10
151.3047465848
 20
406.92075451
 40
0.999999
100
AcDbArc
 50
90
 51
180
  0
LINE
  5
2DF
100
AcDbEntity
  8
_0-0_0
  6
CONTINUOUS
 62
     0
100
AcDbLine
 10
150.3047475848
 20
406.92075451
 11
150.3047475848
 21
404.17075351
  0
LINE
  5
2E0
100
AcDbEntity
  8
_0-0_0
  6
CONTINUOUS
 62
     0
100
AcDbLine
 10
173.4482625848
 20
401.47589851
 11
173.9475795848
 21
401.44972951
  0
ARC
  5
2E1
100
AcDbEntity
  8
_0-0_0
  6
CONTINUOUS
 62
     0
100
AcDbCircle
 10
173.4220965848
 20
400.97658451
 40
0.500001
100
AcDbArc
 50
87.00000000001
 51
177
  0
ARC
  5
2E2
100
AcDbEntity
  8
_0-0_0
  6
CONTINUOUS
 62
     0
100
AcDbCircle
 10
173.0596425848
 20
394.06057051
 40
0.500001
100
AcDbArc
 50
177
 51
267
  0
ARC
  5
2E3
100
AcDbEntity
  8
_0-0_0
  6
CONTINUOUS
 62
     0
100
AcDbCircle
 10
173.9214105848
 20
400.95041551
 40
0.500001
100
AcDbArc
 50
-2.999999999993
 51
87.00000000001
  0
LINE
  5
2E4
100
AcDbEntity
  8
_0-0_0
  6
CONTINUOUS
 62
     0
100
AcDbLine
 10
173.0334735848
 20
393.56125351
 11
173.5327905848
 21
393.53508751
  0
ARC
  5
2E5
100
AcDbEntity
  8
_0-0_0
  6
CONTINUOUS
 62
     0
100
AcDbCircle
 10
173.5589565848
 20
394.03440151
 40
0.500001
100
AcDbArc
 50
-93.00000000001
 51
-2.999999999993
  0
ARC
  5
2E6
100
AcDbEntity
  8
_0-0_0
  6
CONTINUOUS
 62
     0
100
AcDbCircle
 10
202.6762215848
 20
395.51254651
 40
1.5
100
AcDbArc
 50
-93
 51
87
  0
LINE
  5
2E7
100
AcDbEntity
  8
_0-0_0
  6
CONTINUOUS
 62
     0
100
AcDbLine
 10
161.3047485848
 20
431.42075251
 11
160.3047465848
 21
431.42075251
  0
ARC
  5
2E8
100
AcDbEntity
  8
_0-0_0
  6
CONTINUOUS
 62
     0
100
AcDbCircle
 10
161.3047485848
 20
431.92075351
 40
0.500001
100
AcDbArc
 50
-90
 51
0
  0
LINE
  5
2E9
100
AcDbEntity
  8
_0-0_0
  6
CONTINUOUS
 62
     0
100
AcDbLine
 10
161.8047465848
 20
431.92075351
 11
161.8047465848
 21
445.42075351
  0
LINE
  5
2EA
100
AcDbEntity
  8
_0-0_0
  6
CONTINUOUS
 62
     0
100
AcDbLine
 10
154.8047475848
 20
439.92075451
 11
159.3026895848
 21
439.92075451
  0
ARC
  5
2EB
100
AcDbEntity
  8
_0-0_0
  6
CONTINUOUS
 62
     0
100
AcDbCircle
 10
154.8047475848
 20
438.42075451
 40
1.5
100
AcDbArc
 50
90
 51
180
  0
LINE
  5
2EC
100
AcDbEntity
  8
_0-0_0
  6
CONTINUOUS
 62
     0
100
AcDbLine
 10
160.8047475848
 20
446.42075251
 11
153.2047485848
 21
446.42075251
  0
ARC
  5
2ED
100
AcDbEntity
  8
_0-0_0
  6
CONTINUOUS
 62
     0
100
AcDbCircle
 10
160.8047475848
 20
445.42075351
 40
0.999999
100
AcDbArc
 50
0
 51
90
  0
LINE
  5
2EE
100
AcDbEntity
  8
_0-0_0
  6
CONTINUOUS
 62
     0
100
AcDbLine
 10
155.8047465848
 20
438.42075451
 11
159.8047485848
 21
438.42075451
  0
ARC
  5
2EF
100
AcDbEntity
  8
_0-0_0
  6
CONTINUOUS
 62
     0
100
AcDbCircle
 10
155.8047465848
 20
437.92075351
 40
0.500001
100
AcDbArc
 50
90
 51
180
  0
LINE
  5
2F0
100
AcDbEntity
  8
_0-0_0
  6
CONTINUOUS
 62
     0
100
AcDbLine
 10
152.8064025848
 20
444.92075251
 11
152.8064025848
 21
443.52075451
  0
ARC
  5
2F1
100
AcDbEntity
  8
_0-0_0
  6
CONTINUOUS
 62
     0
100
AcDbCircle
 10
159.8026905848
 20
444.42075451
 40
0.500001
100
AcDbArc
 50
0
 51
90
  0
LINE
  5
2F2
100
AcDbEntity
  8
_0-0_0
  6
CONTINUOUS
 62
     0
100
AcDbLine
 10
160.3026885848
 20
440.92075351
 11
160.3026885848
 21
444.42075451
  0
ARC
  5
2F3
100
AcDbEntity
  8
_0-0_0
  6
CONTINUOUS
 62
     0
100
AcDbCircle
 10
159.3026895848
 20
440.92075351
 40
0.999999
100
AcDbArc
 50
-90
 51
0
  0
LINE
  5
2F4
100
AcDbEntity
  8
_0-0_0
  6
CONTINUOUS
 62
     0
100
AcDbLine
 10
160.3047465848
 20
437.92075351
 11
160.3047465848
 21
433.42075351
  0
ARC
  5
2F5
100
AcDbEntity
  8
_0-0_0
  6
CONTINUOUS
 62
     0
100
AcDbCircle
 10
159.8047485848
 20
437.92075351
 40
0.500001
100
AcDbArc
 50
0
 51
90
  0
ARC
  5
2F6
100
AcDbEntity
  8
_0-0_0
  6
CONTINUOUS
 62
     0
100
AcDbCircle
 10
160.3047465848
 20
432.42075451
 40
0.999999
100
AcDbArc
 50
90
 51
270
  0
ARC
  5
2F7
100
AcDbEntity
  8
_0-0_0
  6
CONTINUOUS
 62
     0
100
AcDbCircle
 10
149.7047475848
 20
448.42075351
 40
1.5
100
AcDbArc
 50
180
 51
240.255119
  0
LINE
  5
2F8
100
AcDbEntity
  8
_0-0_0
  6
CONTINUOUS
 62
     0
100
AcDbLine
 10
148.9605405848
 20
447.11839051
 11
152.8064025848
 21
444.92075251
  0
LINE
  5
2F9
100
AcDbEntity
  8
_0-0_0
  6
CONTINUOUS
 62
     0
100
AcDbLine
 10
154.0064025848
 20
444.92075251
 11
159.8026905848
 21
444.92075251
  0
LINE
  5
2FA
100
AcDbEntity
  8
_0-0_0
  6
CONTINUOUS
 62
     0
100
AcDbLine
 10
154.0064025848
 20
443.52075451
 11
154.0064025848
 21
444.92075251
  0
LINE
  5
2FB
100
AcDbEntity
  8
_0-0_0
  6
CONTINUOUS
 62
     0
100
AcDbLine
 10
149.7047475848
 20
448.42075351
 11
153.2047485848
 21
446.42075251
  0
ARC
  5
2FC
100
AcDbEntity
  8
_0-0_0
  6
CONTINUOUS
 62
     0
100
AcDbCircle
 10
153.4064025848
 20
443.52075451
 40
0.6
100
AcDbArc
 50
180
 51
360
  0
LINE
  5
2FD
100
AcDbEntity
  8
_0-0_0
  6
CONTINUOUS
 62
     0
100
AcDbLine
 10
153.9547485848
 20
391.42075351
 11
152.7047475848
 21
391.42075351
  0
LINE
  5
2FE
100
AcDbEntity
  8
_0-0_0
  6
CONTINUOUS
 62
     0
100
AcDbLine
 10
153.9547485848
 20
395.42075251
 11
152.7047475848
 21
395.42075251
  0
ARC
  5
2FF
100
AcDbEntity
  8
_0-0_0
  6
CONTINUOUS
 62
     0
100
AcDbCircle
 10
175.2047475848
 20
432.32075251
 40
2.199999
100
AcDbArc
 50
-90
 51
0
  0
ARC
  5
300
100
AcDbEntity
  8
_0-0_0
  6
CONTINUOUS
 62
     0
100
AcDbCircle
 10
175.2047475848
 20
432.32075251
 40
0.999999
100
AcDbArc
 50
-90
 51
0
  0
LINE
  5
301
100
AcDbEntity
  8
_0-0_0
  6
CONTINUOUS
 62
     0
100
AcDbLine
 10
175.2047475848
 20
431.32075351
 11
167.4047475848
 21
431.32075351
  0
LINE
  5
302
100
AcDbEntity
  8
_0-0_0
  6
CONTINUOUS
 62
     0
100
AcDbLine
 10
167.4047475848
 20
431.32075351
 11
167.4047475848
 21
430.12075351
  0
LINE
  5
303
100
AcDbEntity
  8
_0-0_0
  6
CONTINUOUS
 62
     0
100
AcDbLine
 10
148.2047475848
 20
439.86172051
 11
152.7047475848
 21
439.86172051
  0
LINE
  5
304
100
AcDbEntity
  8
_0-0_0
  6
CONTINUOUS
 62
     0
100
AcDbLine
 10
131.2901055848
 20
420.16112851
 11
132.2047485848
 21
418.42075351
  0
LINE
  5
305
100
AcDbEntity
  8
_0-0_0
  6
CONTINUOUS
 62
     0
100
AcDbLine
 10
132.2047485848
 20
418.42075351
 11
144.2047485848
 21
418.42075351
  0
LINE
  5
306
100
AcDbEntity
  8
_0-0_0
  6
CONTINUOUS
 62
     0
100
AcDbLine
 10
124.4043705848
 20
425.97981151
 11
129.4043685848
 21
427.79966251
  0
LINE
  5
307
100
AcDbEntity
  8
_0-0_0
  6
CONTINUOUS
 62
     0
100
AcDbLine
 10
124.4043705848
 20
427.04398951
 11
129.0623505848
 21
428.73935551
  0
LINE
  5
308
100
AcDbEntity
  8
_0-0_0
  6
CONTINUOUS
 62
     0
100
AcDbLine
 10
124.4043705848
 20
418.86169651
 11
129.4043685848
 21
417.04184551
  0
LINE
  5
309
100
AcDbEntity
  8
_0-0_0
  6
CONTINUOUS
 62
     0
100
AcDbLine
 10
129.0623505848
 20
416.10215251
 11
135.8659725848
 21
415.10979751
  0
ARC
  5
30A
100
AcDbEntity
  8
_0-0_0
  6
CONTINUOUS
 62
     0
100
AcDbCircle
 10
135.9237045848
 20
415.50560851
 40
0.399999
100
AcDbArc
 50
-98.298466
 51
-8.130102000013
  0
LINE
  5
30B
100
AcDbEntity
  8
_0-0_0
  6
CONTINUOUS
 62
     0
100
AcDbLine
 10
136.3196835848
 20
415.44904051
 11
136.3477995848
 21
415.64586451
  0
ARC
  5
30C
100
AcDbEntity
  8
_0-0_0
  6
CONTINUOUS
 62
     0
100
AcDbCircle
 10
135.9518205848
 20
415.70243551
 40
0.399999
100
AcDbArc
 50
-8.130101999981
 51
81.869898
  0
LINE
  5
30D
100
AcDbEntity
  8
_0-0_0
  6
CONTINUOUS
 62
     0
100
AcDbLine
 10
136.0083885848
 20
416.09841451
 11
129.4043685848
 21
417.04184551
  0
LINE
  5
30E
100
AcDbEntity
  8
_0-0_0
  6
CONTINUOUS
 62
     0
100
AcDbLine
 10
129.0623505848
 20
428.73935551
 11
135.8659725848
 21
429.73171051
  0
ARC
  5
30F
100
AcDbEntity
  8
_0-0_0
  6
CONTINUOUS
 62
     0
100
AcDbCircle
 10
135.9237045848
 20
429.33589651
 40
0.399999
100
AcDbArc
 50
8.130102000013
 51
98.298466
  0
LINE
  5
310
100
AcDbEntity
  8
_0-0_0
  6
CONTINUOUS
 62
     0
100
AcDbLine
 10
136.3196835848
 20
429.39246751
 11
136.3477995848
 21
429.19564051
  0
ARC
  5
311
100
AcDbEntity
  8
_0-0_0
  6
CONTINUOUS
 62
     0
100
AcDbCircle
 10
135.9518205848
 20
429.13907251
 40
0.399999
100
AcDbArc
 50
-81.869898
 51
8.130101999981
  0
LINE
  5
312
100
AcDbEntity
  8
_0-0_0
  6
CONTINUOUS
 62
     0
100
AcDbLine
 10
136.2047475848
 20
422.92075351
 11
136.2047475848
 21
422.42075251
  0
LINE
  5
313
100
AcDbEntity
  8
_0-0_0
  6
CONTINUOUS
 62
     0
100
AcDbLine
 10
132.2047485848
 20
426.42075451
 11
131.2901055848
 21
424.68037651
  0
LINE
  5
314
100
AcDbEntity
  8
_0-0_0
  6
CONTINUOUS
 62
     0
100
AcDbLine
 10
144.2047485848
 20
427.42075351
 11
139.2047475848
 21
426.42075451
  0
LINE
  5
315
100
AcDbEntity
  8
_0-0_0
  6
CONTINUOUS
 62
     0
100
AcDbLine
 10
144.2047485848
 20
423.42075451
 11
139.2047475848
 21
422.42075251
  0
LINE
  5
316
100
AcDbEntity
  8
_0-0_0
  6
CONTINUOUS
 62
     0
100
AcDbLine
 10
144.2047485848
 20
421.42075351
 11
139.2047475848
 21
422.42075251
  0
LINE
  5
317
100
AcDbEntity
  8
_0-0_0
  6
CONTINUOUS
 62
     0
100
AcDbLine
 10
139.2047475848
 20
422.42075251
 11
144.2047485848
 21
422.42075251
  0
LINE
  5
318
100
AcDbEntity
  8
_0-0_0
  6
CONTINUOUS
 62
     0
100
AcDbLine
 10
110.0741925848
 20
424.29019951
 11
108.2047485848
 21
422.42075251
  0
LINE
  5
319
100
AcDbEntity
  8
_0-0_0
  6
CONTINUOUS
 62
     0
100
AcDbLine
 10
131.2901055848
 20
424.68037651
 11
129.2928465848
 21
424.78504951
  0
LINE
  5
31A
100
AcDbEntity
  8
_0-0_0
  6
CONTINUOUS
 62
     0
100
AcDbLine
 10
129.2928465848
 20
424.78504951
 11
129.3975165848
 21
426.78230851
  0
LINE
  5
31B
100
AcDbEntity
  8
_0-0_0
  6
CONTINUOUS
 62
     0
100
AcDbLine
 10
129.3975165848
 20
426.78230851
 11
127.4002575848
 21
426.88698151
  0
LINE
  5
31C
100
AcDbEntity
  8
_0-0_0
  6
CONTINUOUS
 62
     0
100
AcDbLine
 10
107.2444905848
 20
424.43849551
 11
107.4276675848
 21
427.93369951
  0
LINE
  5
31D
100
AcDbEntity
  8
_0-0_0
  6
CONTINUOUS
 62
     0
100
AcDbLine
 10
107.4276675848
 20
427.93369951
 11
105.3257355848
 21
426.04111351
  0
LINE
  5
31E
100
AcDbEntity
  8
_0-0_0
  6
CONTINUOUS
 62
     0
100
AcDbLine
 10
105.3257355848
 20
426.04111351
 11
105.2472315848
 21
424.54316851
  0
LINE
  5
31F
100
AcDbEntity
  8
_0-0_0
  6
CONTINUOUS
 62
     0
100
AcDbLine
 10
105.2472315848
 20
424.54316851
 11
136.2047475848
 21
422.92075351
  0
LINE
  5
320
100
AcDbEntity
  8
_0-0_0
  6
CONTINUOUS
 62
     0
100
AcDbLine
 10
127.4002575848
 20
426.88698151
 11
126.2969565848
 21
424.94205751
  0
LINE
  5
321
100
AcDbEntity
  8
_0-0_0
  6
CONTINUOUS
 62
     0
100
AcDbLine
 10
126.2969565848
 20
424.94205751
 11
124.2996975848
 21
425.04673051
  0
LINE
  5
322
100
AcDbEntity
  8
_0-0_0
  6
CONTINUOUS
 62
     0
100
AcDbLine
 10
124.2996975848
 20
425.04673051
 11
124.4043705848
 21
427.04398951
  0
LINE
  5
323
100
AcDbEntity
  8
_0-0_0
  6
CONTINUOUS
 62
     0
100
AcDbLine
 10
124.4043705848
 20
427.04398951
 11
122.4071115848
 21
427.14865951
  0
LINE
  5
324
100
AcDbEntity
  8
_0-0_0
  6
CONTINUOUS
 62
     0
100
AcDbLine
 10
122.4071115848
 20
427.14865951
 11
121.3038075848
 21
425.20373851
  0
LINE
  5
325
100
AcDbEntity
  8
_0-0_0
  6
CONTINUOUS
 62
     0
100
AcDbLine
 10
121.3038075848
 20
425.20373851
 11
119.3065485848
 21
425.30840851
  0
LINE
  5
326
100
AcDbEntity
  8
_0-0_0
  6
CONTINUOUS
 62
     0
100
AcDbLine
 10
119.3065485848
 20
425.30840851
 11
119.4112215848
 21
427.30566751
  0
LINE
  5
327
100
AcDbEntity
  8
_0-0_0
  6
CONTINUOUS
 62
     0
100
AcDbLine
 10
119.4112215848
 20
427.30566751
 11
117.4139625848
 21
427.41034051
  0
LINE
  5
328
100
AcDbEntity
  8
_0-0_0
  6
CONTINUOUS
 62
     0
100
AcDbLine
 10
117.4139625848
 20
427.41034051
 11
116.3106615848
 21
425.46541651
  0
LINE
  5
329
100
AcDbEntity
  8
_0-0_0
  6
CONTINUOUS
 62
     0
100
AcDbLine
 10
116.3106615848
 20
425.46541651
 11
114.3134025848
 21
425.57008951
  0
LINE
  5
32A
100
AcDbEntity
  8
_0-0_0
  6
CONTINUOUS
 62
     0
100
AcDbLine
 10
114.3134025848
 20
425.57008951
 11
114.4180725848
 21
427.56734851
  0
LINE
  5
32B
100
AcDbEntity
  8
_0-0_0
  6
CONTINUOUS
 62
     0
100
AcDbLine
 10
114.4180725848
 20
427.56734851
 11
112.4208135848
 21
427.67202151
  0
LINE
  5
32C
100
AcDbEntity
  8
_0-0_0
  6
CONTINUOUS
 62
     0
100
AcDbLine
 10
112.4208135848
 20
427.67202151
 11
111.3175125848
 21
425.72709751
  0
LINE
  5
32D
100
AcDbEntity
  8
_0-0_0
  6
CONTINUOUS
 62
     0
100
AcDbLine
 10
111.3175125848
 20
425.72709751
 11
109.3202535848
 21
425.83176751
  0
LINE
  5
32E
100
AcDbEntity
  8
_0-0_0
  6
CONTINUOUS
 62
     0
100
AcDbLine
 10
109.3202535848
 20
425.83176751
 11
109.4249265848
 21
427.82902651
  0
LINE
  5
32F
100
AcDbEntity
  8
_0-0_0
  6
CONTINUOUS
 62
     0
100
AcDbLine
 10
109.4249265848
 20
427.82902651
 11
107.4276675848
 21
427.93369951
  0
LINE
  5
330
100
AcDbEntity
  8
_0-0_0
  6
CONTINUOUS
 62
     0
100
AcDbLine
 10
136.2047475848
 20
421.92075451
 11
136.2047475848
 21
422.42075251
  0
LINE
  5
331
100
AcDbEntity
  8
_0-0_0
  6
CONTINUOUS
 62
     0
100
AcDbLine
 10
144.2047485848
 20
417.42075451
 11
139.2047475848
 21
418.42075351
  0
LINE
  5
332
100
AcDbEntity
  8
_0-0_0
  6
CONTINUOUS
 62
     0
100
AcDbLine
 10
131.2901055848
 20
420.16112851
 11
129.2928465848
 21
420.05645851
  0
LINE
  5
333
100
AcDbEntity
  8
_0-0_0
  6
CONTINUOUS
 62
     0
100
AcDbLine
 10
129.2928465848
 20
420.05645851
 11
129.3975165848
 21
418.05919951
  0
LINE
  5
334
100
AcDbEntity
  8
_0-0_0
  6
CONTINUOUS
 62
     0
100
AcDbLine
 10
129.3975165848
 20
418.05919951
 11
127.4002575848
 21
417.95452651
  0
LINE
  5
335
100
AcDbEntity
  8
_0-0_0
  6
CONTINUOUS
 62
     0
100
AcDbLine
 10
107.2444905848
 20
420.40301251
 11
107.4276675848
 21
416.90780851
  0
LINE
  5
336
100
AcDbEntity
  8
_0-0_0
  6
CONTINUOUS
 62
     0
100
AcDbLine
 10
107.4276675848
 20
416.90780851
 11
105.3257355848
 21
418.80039451
  0
LINE
  5
337
100
AcDbEntity
  8
_0-0_0
  6
CONTINUOUS
 62
     0
100
AcDbLine
 10
105.3257355848
 20
418.80039451
 11
105.2472315848
 21
420.29833951
  0
LINE
  5
338
100
AcDbEntity
  8
_0-0_0
  6
CONTINUOUS
 62
     0
100
AcDbLine
 10
105.2472315848
 20
420.29833951
 11
136.2047475848
 21
421.92075451
  0
LINE
  5
339
100
AcDbEntity
  8
_0-0_0
  6
CONTINUOUS
 62
     0
100
AcDbLine
 10
127.4002575848
 20
417.95452651
 11
126.2969565848
 21
419.89945051
  0
LINE
  5
33A
100
AcDbEntity
  8
_0-0_0
  6
CONTINUOUS
 62
     0
100
AcDbLine
 10
126.2969565848
 20
419.89945051
 11
124.2996975848
 21
419.79477751
  0
LINE
  5
33B
100
AcDbEntity
  8
_0-0_0
  6
CONTINUOUS
 62
     0
100
AcDbLine
 10
124.2996975848
 20
419.79477751
 11
124.4043705848
 21
417.79751851
  0
LINE
  5
33C
100
AcDbEntity
  8
_0-0_0
  6
CONTINUOUS
 62
     0
100
AcDbLine
 10
124.4043705848
 20
417.79751851
 11
122.4071115848
 21
417.69284851
  0
LINE
  5
33D
100
AcDbEntity
  8
_0-0_0
  6
CONTINUOUS
 62
     0
100
AcDbLine
 10
122.4071115848
 20
417.69284851
 11
121.3038075848
 21
419.63776951
  0
LINE
  5
33E
100
AcDbEntity
  8
_0-0_0
  6
CONTINUOUS
 62
     0
100
AcDbLine
 10
121.3038075848
 20
419.63776951
 11
119.3065485848
 21
419.53309951
  0
LINE
  5
33F
100
AcDbEntity
  8
_0-0_0
  6
CONTINUOUS
 62
     0
100
AcDbLine
 10
119.3065485848
 20
419.53309951
 11
119.4112215848
 21
417.53584051
  0
LINE
  5
340
100
AcDbEntity
  8
_0-0_0
  6
CONTINUOUS
 62
     0
100
AcDbLine
 10
119.4112215848
 20
417.53584051
 11
117.4139625848
 21
417.43116751
  0
LINE
  5
341
100
AcDbEntity
  8
_0-0_0
  6
CONTINUOUS
 62
     0
100
AcDbLine
 10
117.4139625848
 20
417.43116751
 11
116.3106615848
 21
419.37609151
  0
LINE
  5
342
100
AcDbEntity
  8
_0-0_0
  6
CONTINUOUS
 62
     0
100
AcDbLine
 10
116.3106615848
 20
419.37609151
 11
114.3134025848
 21
419.27141851
  0
LINE
  5
343
100
AcDbEntity
  8
_0-0_0
  6
CONTINUOUS
 62
     0
100
AcDbLine
 10
114.3134025848
 20
419.27141851
 11
114.4180725848
 21
417.27415951
  0
LINE
  5
344
100
AcDbEntity
  8
_0-0_0
  6
CONTINUOUS
 62
     0
100
AcDbLine
 10
114.4180725848
 20
417.27415951
 11
112.4208135848
 21
417.16948651
  0
LINE
  5
345
100
AcDbEntity
  8
_0-0_0
  6
CONTINUOUS
 62
     0
100
AcDbLine
 10
112.4208135848
 20
417.16948651
 11
111.3175125848
 21
419.11441051
  0
LINE
  5
346
100
AcDbEntity
  8
_0-0_0
  6
CONTINUOUS
 62
     0
100
AcDbLine
 10
111.3175125848
 20
419.11441051
 11
109.3202535848
 21
419.00973751
  0
LINE
  5
347
100
AcDbEntity
  8
_0-0_0
  6
CONTINUOUS
 62
     0
100
AcDbLine
 10
109.3202535848
 20
419.00973751
 11
109.4249265848
 21
417.01247851
  0
LINE
  5
348
100
AcDbEntity
  8
_0-0_0
  6
CONTINUOUS
 62
     0
100
AcDbLine
 10
109.4249265848
 20
417.01247851
 11
107.4276675848
 21
416.90780851
  0
LINE
  5
349
100
AcDbEntity
  8
_0-0_0
  6
CONTINUOUS
 62
     0
100
AcDbLine
 10
110.0741925848
 20
420.55130851
 11
108.2047485848
 21
422.42075251
  0
LINE
  5
34A
100
AcDbEntity
  8
_0-0_0
  6
CONTINUOUS
 62
     0
100
AcDbLine
 10
136.0083885848
 20
428.74309351
 11
129.4043685848
 21
427.79966251
  0
LINE
  5
34B
100
AcDbEntity
  8
_0-0_0
  6
CONTINUOUS
 62
     0
100
AcDbLine
 10
124.4043705848
 20
417.79751851
 11
129.0623505848
 21
416.10215251
  0
LINE
  5
34C
100
AcDbEntity
  8
_0-0_0
  6
CONTINUOUS
 62
     0
100
AcDbLine
 10
132.2047485848
 20
426.42075451
 11
144.2047485848
 21
426.42075451
  0
LINE
  5
34D
100
AcDbEntity
  8
_0-0_0
  6
CONTINUOUS
 62
     0
100
AcDbLine
 10
174.9047475848
 20
433.72075351
 11
175.9047465848
 21
433.72075351
  0
LINE
  5
34E
100
AcDbEntity
  8
_0-0_0
  6
CONTINUOUS
 62
     0
100
AcDbLine
 10
175.5302745848
 20
433.72075351
 11
175.9047465848
 21
434.09522551
  0
ARC
  5
34F
100
AcDbEntity
  8
_0-0_0
  6
CONTINUOUS
 62
     0
100
AcDbCircle
 10
155.7047475848
 20
426.73413151
 40
7.5
100
AcDbArc
 50
180
 51
267
  0
LINE
  5
350
100
AcDbEntity
  8
_0-0_0
  6
CONTINUOUS
 62
     0
100
AcDbLine
 10
148.2047475848
 20
426.73413151
 11
148.2047475848
 21
439.86172051
  0
LINE
  5
351
100
AcDbEntity
  8
_0-0_0
  6
CONTINUOUS
 62
     0
100
AcDbLine
 10
155.5477395848
 20
423.73824451
 11
160.0477395848
 21
423.50240851
  0
ARC
  5
352
100
AcDbEntity
  8
_0-0_0
  6
CONTINUOUS
 62
     0
100
AcDbCircle
 10
155.7047475848
 20
426.73413151
 40
3
100
AcDbArc
 50
180
 51
267
  0
LINE
  5
353
100
AcDbEntity
  8
_0-0_0
  6
CONTINUOUS
 62
     0
100
AcDbLine
 10
152.7047475848
 20
426.73413151
 11
152.7047475848
 21
439.86172051
  0
LINE
  5
354
100
AcDbEntity
  8
_0-0_0
  6
CONTINUOUS
 62
     0
100
AcDbLine
 10
159.2047485848
 20
426.49829551
 11
159.2047485848
 21
437.54933251
  0
ARC
  5
355
100
AcDbEntity
  8
_0-0_0
  6
CONTINUOUS
 62
     0
100
AcDbCircle
 10
160.2047475848
 20
426.49829551
 40
0.999999
100
AcDbArc
 50
180
 51
267
  0
LINE
  5
356
100
AcDbEntity
  8
_0-0_0
  6
CONTINUOUS
 62
     0
100
AcDbLine
 10
157.2047475848
 20
426.49829551
 11
157.2047475848
 21
437.54933251
  0
ARC
  5
357
100
AcDbEntity
  8
_0-0_0
  6
CONTINUOUS
 62
     0
100
AcDbCircle
 10
160.2047475848
 20
426.49829551
 40
3
100
AcDbArc
 50
180
 51
267
  0
LINE
  5
358
100
AcDbEntity
  8
_0-0_0
  6
CONTINUOUS
 62
     0
100
AcDbLine
 10
157.2047475848
 20
437.54933251
 11
159.2047485848
 21
437.54933251
  0
LINE
  5
359
100
AcDbEntity
  8
_0-0_0
  6
CONTINUOUS
 62
     0
100
AcDbLine
 10
178.4521965848
 20
422.53787251
 11
176.8151325848
 21
420.90080551
  0
LINE
  5
35A
100
AcDbEntity
  8
_0-0_0
  6
CONTINUOUS
 62
     0
100
AcDbLine
 10
179.7959865848
 20
422.46744751
 11
178.1589195848
 21
420.83038051
  0
LINE
  5
35B
100
AcDbEntity
  8
_0-0_0
  6
CONTINUOUS
 62
     0
100
AcDbLine
 10
181.1397735848
 20
422.39702251
 11
179.5027095848
 21
420.75995551
  0
LINE
  5
35C
100
AcDbEntity
  8
_0-0_0
  6
CONTINUOUS
 62
     0
100
AcDbLine
 10
182.4835635848
 20
422.32659751
 11
180.8464965848
 21
420.68953051
  0
LINE
  5
35D
100
AcDbEntity
  8
_0-0_0
  6
CONTINUOUS
 62
     0
100
AcDbLine
 10
183.8273505848
 20
422.25617251
 11
182.1902865848
 21
420.61910551
  0
LINE
  5
35E
100
AcDbEntity
  8
_0-0_0
  6
CONTINUOUS
 62
     0
100
AcDbLine
 10
185.1711405848
 20
422.18574751
 11
183.5340735848
 21
420.54868051
  0
LINE
  5
35F
100
AcDbEntity
  8
_0-0_0
  6
CONTINUOUS
 62
     0
100
AcDbLine
 10
184.8778635848
 20
420.47825551
 11
185.4913845848
 21
421.09177651
  0
LINE
  5
360
100
AcDbEntity
  8
_0-0_0
  6
CONTINUOUS
 62
     0
100
AcDbLine
 10
177.1191585848
 20
422.60773351
 11
175.4820945848
 21
420.97066651
  0
LINE
  5
361
100
AcDbEntity
  8
_0-0_0
  6
CONTINUOUS
 62
     0
100
AcDbLine
 10
175.7646195848
 20
422.67872251
 11
175.5495585848
 21
422.46365851
  0
LINE
  5
362
100
AcDbEntity
  8
_0-0_0
  6
CONTINUOUS
 62
     0
100
AcDbLine
 10
722.4305925848
 20
351.38000551
 11
722.4305925848
 21
307.51117051
  0
LINE
  5
363
100
AcDbEntity
  8
_0-0_0
  6
CONTINUOUS
 62
     0
100
AcDbLine
 10
713.4744075848
 20
307.51117051
 11
728.4305925848
 21
307.51117051
  0
LINE
  5
364
100
AcDbEntity
  8
_0-0_0
  6
CONTINUOUS
 62
     0
100
AcDbLine
 10
722.4305925848
 20
351.38000551
 11
721.6805925848
 21
348.38000551
  0
LINE
  5
365
100
AcDbEntity
  8
_0-0_0
  6
CONTINUOUS
 62
     0
100
AcDbLine
 10
722.4305925848
 20
351.38000551
 11
723.1805925848
 21
348.38000551
  0
LINE
  5
366
100
AcDbEntity
  8
_0-0_0
  6
CONTINUOUS
 62
     0
100
AcDbLine
 10
722.4305925848
 20
307.51117051
 11
723.1805925848
 21
310.51117051
  0
LINE
  5
367
100
AcDbEntity
  8
_0-0_0
  6
CONTINUOUS
 62
     0
100
AcDbLine
 10
722.4305925848
 20
307.51117051
 11
721.6805925848
 21
310.51117051
  0
LINE
  5
368
100
AcDbEntity
  8
_0-0_0
  6
CONTINUOUS
 62
     0
100
AcDbLine
 10
144.2047485848
 20
476.92075351
 11
145.2047475848
 21
476.92075351
  0
LINE
  5
369
100
AcDbEntity
  8
_0-0_0
  6
CONTINUOUS
 62
     0
100
AcDbLine
 10
145.2047475848
 20
476.92075351
 11
145.2047475848
 21
389.92075351
  0
LINE
  5
36A
100
AcDbEntity
  8
_0-0_0
  6
CONTINUOUS
 62
     0
100
AcDbLine
 10
684.2047485848
 20
309.51117151
 11
684.2047485848
 21
307.51117051
  0
ARC
  5
36B
100
AcDbEntity
  8
_0-0_0
  6
CONTINUOUS
 62
     0
100
AcDbCircle
 10
671.0435865848
 20
389.21195851
 40
7.5
100
AcDbArc
 50
10.124672
 51
87
  0
LINE
  5
36C
100
AcDbEntity
  8
_0-0_0
  6
CONTINUOUS
 62
     0
100
AcDbLine
 10
657.9642345848
 20
397.40770951
 11
656.3271675848
 21
395.77064551
  0
LINE
  5
36D
100
AcDbEntity
  8
_0-0_0
  6
CONTINUOUS
 62
     0
100
AcDbLine
 10
659.3080245848
 20
397.33728451
 11
657.6709575848
 21
395.70022051
  0
LINE
  5
36E
100
AcDbEntity
  8
_0-0_0
  6
CONTINUOUS
 62
     0
100
AcDbLine
 10
660.6518115848
 20
397.26685951
 11
659.0147445848
 21
395.62979551
  0
LINE
  5
36F
100
AcDbEntity
  8
_0-0_0
  6
CONTINUOUS
 62
     0
100
AcDbLine
 10
661.9956015848
 20
397.19643451
 11
660.3585345848
 21
395.55937051
  0
LINE
  5
370
100
AcDbEntity
  8
_0-0_0
  6
CONTINUOUS
 62
     0
100
AcDbLine
 10
663.3393885848
 20
397.12600951
 11
661.7023245848
 21
395.48894551
  0
LINE
  5
371
100
AcDbEntity
  8
_0-0_0
  6
CONTINUOUS
 62
     0
100
AcDbLine
 10
664.6831785848
 20
397.05558451
 11
663.0461115848
 21
395.41852051
  0
LINE
  5
372
100
AcDbEntity
  8
_0-0_0
  6
CONTINUOUS
 62
     0
100
AcDbLine
 10
664.3899015848
 20
395.34809551
 11
665.0034225848
 21
395.96161651
  0
LINE
  5
373
100
AcDbEntity
  8
_0-0_0
  6
CONTINUOUS
 62
     0
100
AcDbLine
 10
656.6311965848
 20
397.47757051
 11
654.9941295848
 21
395.84050651
  0
LINE
  5
374
100
AcDbEntity
  8
_0-0_0
  6
CONTINUOUS
 62
     0
100
AcDbLine
 10
655.2766575848
 20
397.54855951
 11
655.0615935848
 21
397.33349851
  0
ARC
  5
375
100
AcDbEntity
  8
_0-0_0
  6
CONTINUOUS
 62
     0
100
AcDbCircle
 10
691.2047475848
 20
310.51117051
 40
0.999999
100
AcDbArc
 50
-90
 51
0
  0
LINE
  5
376
100
AcDbEntity
  8
_0-0_0
  6
CONTINUOUS
 62
     0
100
AcDbLine
 10
691.2047475848
 20
309.51117151
 11
684.2047485848
 21
309.51117151
  0
ARC
  5
377
100
AcDbEntity
  8
_0-0_0
  6
CONTINUOUS
 62
     0
100
AcDbCircle
 10
691.2047475848
 20
310.51117051
 40
3
100
AcDbArc
 50
-90
 51
0
  0
LINE
  5
378
100
AcDbEntity
  8
_0-0_0
  6
CONTINUOUS
 62
     0
100
AcDbLine
 10
691.2047475848
 20
307.51117051
 11
684.2047485848
 21
307.51117051
  0
ARC
  5
379
100
AcDbEntity
  8
_0-0_0
  6
CONTINUOUS
 62
     0
100
AcDbCircle
 10
691.2047475848
 20
394.66427551
 40
3
100
AcDbArc
 50
0
 51
87
  0
LINE
  5
37A
100
AcDbEntity
  8
_0-0_0
  6
CONTINUOUS
 62
     0
100
AcDbLine
 10
694.2047475848
 20
394.66427551
 11
694.2047475848
 21
310.51117051
  0
LINE
  5
37B
100
AcDbEntity
  8
_0-0_0
  6
CONTINUOUS
 62
     0
100
AcDbLine
 10
678.4267935848
 20
390.53038651
 11
692.2047465848
 21
313.37383951
  0
LINE
  5
37C
100
AcDbEntity
  8
_0-0_0
  6
CONTINUOUS
 62
     0
100
AcDbLine
 10
692.2047465848
 20
394.66427551
 11
692.2047465848
 21
310.51117051
  0
ARC
  5
37D
100
AcDbEntity
  8
_0-0_0
  6
CONTINUOUS
 62
     0
100
AcDbCircle
 10
691.2047475848
 20
394.66427551
 40
0.999999
100
AcDbArc
 50
0
 51
87
  0
LINE
  5
37E
100
AcDbEntity
  8
_0-0_0
  6
CONTINUOUS
 62
     0
100
AcDbLine
 10
673.9968675848
 20
389.73932851
 11
687.7735545848
 21
312.58989151
  0
ARC
  5
37F
100
AcDbEntity
  8
_0-0_0
  6
CONTINUOUS
 62
     0
100
AcDbCircle
 10
671.0435865848
 20
389.21195851
 40
3
100
AcDbArc
 50
10.124672
 51
87
  0
LINE
  5
380
100
AcDbEntity
  8
_0-0_0
  6
CONTINUOUS
 62
     0
100
AcDbLine
 10
687.2874495848
 20
320.31117151
 11
678.0372735848
 21
320.31117151
  0
ARC
  5
381
100
AcDbEntity
  8
_0-0_0
  6
CONTINUOUS
 62
     0
100
AcDbCircle
 10
687.2874495848
 20
319.81117051
 40
0.500001
100
AcDbArc
 50
12
 51
90
  0
LINE
  5
382
100
AcDbEntity
  8
_0-0_0
  6
CONTINUOUS
 62
     0
100
AcDbLine
 10
687.7765245848
 20
319.91512651
 11
689.2047465848
 21
313.19585851
  0
LINE
  5
383
100
AcDbEntity
  8
_0-0_0
  6
CONTINUOUS
 62
     0
100
AcDbLine
 10
689.2047465848
 20
313.19585851
 11
689.2047465848
 21
309.51117151
  0
LINE
  5
384
100
AcDbEntity
  8
_0-0_0
  6
CONTINUOUS
 62
     0
100
AcDbLine
 10
689.7047475848
 20
309.51117151
 11
689.2047465848
 21
309.51117151
  0
ARC
  5
385
100
AcDbEntity
  8
_0-0_0
  6
CONTINUOUS
 62
     0
100
AcDbCircle
 10
689.7047475848
 20
312.01117051
 40
2.499999
100
AcDbArc
 50
-90
 51
0
  0
LINE
  5
386
100
AcDbEntity
  8
_0-0_0
  6
CONTINUOUS
 62
     0
100
AcDbLine
 10
678.0372735848
 20
321.51117151
 11
680.4372735848
 21
321.51117151
  0
LINE
  5
387
100
AcDbEntity
  8
_0-0_0
  6
CONTINUOUS
 62
     0
100
AcDbLine
 10
682.4372745848
 20
322.51117051
 11
682.4372745848
 21
321.51117151
  0
LINE
  5
388
100
AcDbEntity
  8
_0-0_0
  6
CONTINUOUS
 62
     0
100
AcDbLine
 10
680.4372735848
 20
321.51117151
 11
682.4372745848
 21
322.51117051
  0
ARC
  5
389
100
AcDbEntity
  8
_0-0_0
  6
CONTINUOUS
 62
     0
100
AcDbCircle
 10
678.0372735848
 20
320.91117151
 40
0.6
100
AcDbArc
 50
90
 51
270
  0
LINE
  5
38A
100
AcDbEntity
  8
_0-0_0
  6
CONTINUOUS
 62
     0
100
AcDbLine
 10
686.8198245848
 20
321.51117151
 11
682.4372745848
 21
321.51117151
  0
ARC
  5
38B
100
AcDbEntity
  8
_0-0_0
  6
CONTINUOUS
 62
     0
100
AcDbCircle
 10
686.8198245848
 20
322.01116951
 40
0.500001
100
AcDbArc
 50
-90
 51
12.00000000001
  0
ARC
  5
38C
100
AcDbEntity
  8
_0-0_0
  6
CONTINUOUS
 62
     0
100
AcDbCircle
 10
665.6062005848
 20
369.24867151
 40
0.500001
100
AcDbArc
 50
86.99999999999
 51
177
  0
LINE
  5
38D
100
AcDbEntity
  8
_0-0_0
  6
CONTINUOUS
 62
     0
100
AcDbLine
 10
665.1068835848
 20
369.27483751
 11
665.0545485848
 21
368.27620951
  0
LINE
  5
38E
100
AcDbEntity
  8
_0-0_0
  6
CONTINUOUS
 62
     0
100
AcDbLine
 10
664.5290655848
 20
367.80306151
 11
664.0297515848
 21
367.82923051
  0
ARC
  5
38F
100
AcDbEntity
  8
_0-0_0
  6
CONTINUOUS
 62
     0
100
AcDbCircle
 10
664.0559205848
 20
368.32854451
 40
0.500001
100
AcDbArc
 50
177
 51
267
  0
ARC
  5
390
100
AcDbEntity
  8
_0-0_0
  6
CONTINUOUS
 62
     0
100
AcDbCircle
 10
664.5552345848
 20
368.30237551
 40
0.500001
100
AcDbArc
 50
-93.00000000001
 51
-2.999999999993
  0
LINE
  5
391
100
AcDbEntity
  8
_0-0_0
  6
CONTINUOUS
 62
     0
100
AcDbLine
 10
673.3074465848
 20
369.34575151
 11
665.6323665848
 21
369.74798551
  0
ARC
  5
392
100
AcDbEntity
  8
_0-0_0
  6
CONTINUOUS
 62
     0
100
AcDbCircle
 10
673.2812775848
 20
368.84643751
 40
0.500001
100
AcDbArc
 50
-12.99999999999
 51
86.99999999999
  0
LINE
  5
393
100
AcDbEntity
  8
_0-0_0
  6
CONTINUOUS
 62
     0
100
AcDbLine
 10
673.7684625848
 20
368.73396151
 11
673.1852715848
 21
366.20787751
  0
LINE
  5
394
100
AcDbEntity
  8
_0-0_0
  6
CONTINUOUS
 62
     0
100
AcDbLine
 10
675.3707325848
 20
369.23761951
 11
676.5480795848
 21
369.17591551
  0
ARC
  5
395
100
AcDbEntity
  8
_0-0_0
  6
CONTINUOUS
 62
     0
100
AcDbCircle
 10
675.3550335848
 20
368.93803051
 40
0.3
100
AcDbArc
 50
86.99999999999
 51
167
  0
LINE
  5
396
100
AcDbEntity
  8
_0-0_0
  6
CONTINUOUS
 62
     0
100
AcDbLine
 10
675.0627225848
 20
369.00551551
 11
674.3545155848
 21
365.93793451
  0
ARC
  5
397
100
AcDbEntity
  8
_0-0_0
  6
CONTINUOUS
 62
     0
100
AcDbCircle
 10
676.4957445848
 20
368.17728751
 40
0.999999
100
AcDbArc
 50
12.00000000001
 51
87
  0
ARC
  5
398
100
AcDbEntity
  8
_0-0_0
  6
CONTINUOUS
 62
     0
100
AcDbCircle
 10
673.7698935848
 20
366.07290451
 40
0.6
100
AcDbArc
 50
167
 51
347
  0
LINE
  5
399
100
AcDbEntity
  8
_0-0_0
  6
CONTINUOUS
 62
     0
100
AcDbLine
 10
680.2487985848
 20
369.75949351
 11
692.2047465848
 21
313.51117051
  0
LINE
  5
39A
100
AcDbEntity
  8
_0-0_0
  6
CONTINUOUS
 62
     0
100
AcDbLine
 10
677.4738915848
 20
368.38519951
 11
687.3088995848
 21
322.11512551
  0
LINE
  5
39B
100
AcDbEntity
  8
_0-0_0
  6
CONTINUOUS
 62
     0
100
AcDbLine
 10
687.7735545848
 20
312.58989151
 11
692.2047465848
 21
313.37383951
  0
LINE
  5
39C
100
AcDbEntity
  8
_0-0_0
  6
CONTINUOUS
 62
     0
100
AcDbLine
 10
665.0597205848
 20
397.03585051
 11
664.9696755848
 21
395.31771151
  0
LINE
  5
39D
100
AcDbEntity
  8
_0-0_0
  6
CONTINUOUS
 62
     0
100
AcDbLine
 10
655.0734255848
 20
397.55921251
 11
654.9833805848
 21
395.84107051
  0
ARC
  5
39E
100
AcDbEntity
  8
_0-0_0
  6
CONTINUOUS
 62
     0
100
AcDbCircle
 10
664.4222715848
 20
375.31895251
 40
0.500001
100
AcDbArc
 50
86.99999999999
 51
177
  0
LINE
  5
39F
100
AcDbEntity
  8
_0-0_0
  6
CONTINUOUS
 62
     0
100
AcDbLine
 10
665.7893745848
 20
372.74387251
 11
677.4713625848
 21
372.13164751
  0
ARC
  5
3A0
100
AcDbEntity
  8
_0-0_0
  6
CONTINUOUS
 62
     0
100
AcDbCircle
 10
665.8155435848
 20
373.24318951
 40
0.500001
100
AcDbArc
 50
177
 51
267
  0
LINE
  5
3A1
100
AcDbEntity
  8
_0-0_0
  6
CONTINUOUS
 62
     0
100
AcDbLine
 10
665.3162295848
 20
373.26935551
 11
665.4208995848
 21
375.26661451
  0
ARC
  5
3A2
100
AcDbEntity
  8
_0-0_0
  6
CONTINUOUS
 62
     0
100
AcDbCircle
 10
664.9215855848
 20
375.29278351
 40
0.500001
100
AcDbArc
 50
-2.999999999993
 51
86.99999999999
  0
LINE
  5
3A3
100
AcDbEntity
  8
_0-0_0
  6
CONTINUOUS
 62
     0
100
AcDbLine
 10
664.9477545848
 20
375.79209751
 11
664.4484405848
 21
375.81826651
  0
LINE
  5
3A4
100
AcDbEntity
  8
_0-0_0
  6
CONTINUOUS
 62
     0
100
AcDbLine
 10
664.9696755848
 20
395.31771151
 11
663.5042685848
 21
367.35608251
  0
ARC
  5
3A5
100
AcDbEntity
  8
_0-0_0
  6
CONTINUOUS
 62
     0
100
AcDbCircle
 10
677.3143545848
 20
369.13575751
 40
3
100
AcDbArc
 50
12
 51
87
  0
ARC
  5
3A6
100
AcDbEntity
  8
_0-0_0
  6
CONTINUOUS
 62
     0
100
AcDbCircle
 10
635.2526715848
 20
372.84217651
 40
1.5
100
AcDbArc
 50
87
 51
267
  0
LINE
  5
3A7
100
AcDbEntity
  8
_0-0_0
  6
CONTINUOUS
 62
     0
100
AcDbLine
 10
144.2047485848
 20
351.38000551
 11
169.2047475848
 21
351.38000551
  0
LINE
  5
3A8
100
AcDbEntity
  8
_0-0_0
  6
CONTINUOUS
 62
     0
100
AcDbLine
 10
169.2047475848
 20
259.36300651
 11
169.2047475848
 21
351.38000551
  0
LINE
  5
3A9
100
AcDbEntity
  8
_0-0_0
  6
CONTINUOUS
 62
     0
100
AcDbLine
 10
144.2047485848
 20
389.48533651
 11
169.2047475848
 21
351.38000551
  0
LINE
  5
3AA
100
AcDbEntity
  8
_0-0_0
  6
CONTINUOUS
 62
     0
100
AcDbLine
 10
144.2047485848
 20
242.26370251
 11
169.2047475848
 21
242.26370251
  0
LINE
  5
3AB
100
AcDbEntity
  8
_0-0_0
  6
CONTINUOUS
 62
     0
100
AcDbLine
 10
144.2047485848
 20
350.38000651
 11
144.2047485848
 21
236.26370251
  0
LINE
  5
3AC
100
AcDbEntity
  8
_0-0_0
  6
CONTINUOUS
 62
     0
100
AcDbLine
 10
169.2047475848
 20
258.36300751
 11
169.2047475848
 21
236.26370251
  0
LINE
  5
3AD
100
AcDbEntity
  8
_0-0_0
  6
CONTINUOUS
 62
     0
100
AcDbLine
 10
144.2047485848
 20
242.26370251
 11
147.2047485848
 21
241.51370251
  0
LINE
  5
3AE
100
AcDbEntity
  8
_0-0_0
  6
CONTINUOUS
 62
     0
100
AcDbLine
 10
144.2047485848
 20
242.26370251
 11
147.2047485848
 21
243.01370251
  0
LINE
  5
3AF
100
AcDbEntity
  8
_0-0_0
  6
CONTINUOUS
 62
     0
100
AcDbLine
 10
169.2047475848
 20
242.26370251
 11
166.2047475848
 21
243.01370251
  0
LINE
  5
3B0
100
AcDbEntity
  8
_0-0_0
  6
CONTINUOUS
 62
     0
100
AcDbLine
 10
169.2047475848
 20
242.26370251
 11
166.2047475848
 21
241.51370251
  0
LINE
  5
3B1
100
AcDbEntity
  8
_0-0_0
  6
CONTINUOUS
 62
     0
100
AcDbLine
 10
169.2047475848
 20
242.26370251
 11
172.2047475848
 21
241.51370251
  0
LINE
  5
3B2
100
AcDbEntity
  8
_0-0_0
  6
CONTINUOUS
 62
     0
100
AcDbLine
 10
169.2047475848
 20
242.26370251
 11
172.2047475848
 21
243.01370251
  0
LINE
  5
3B3
100
AcDbEntity
  8
_0-0_0
  6
CONTINUOUS
 62
     0
100
AcDbLine
 10
694.2047475848
 20
309.51117151
 11
694.2047475848
 21
236.26370251
  0
LINE
  5
3B4
100
AcDbEntity
  8
_0-0_0
  6
CONTINUOUS
 62
     0
100
AcDbLine
 10
694.2047475848
 20
242.26370251
 11
691.2047475848
 21
243.01370251
  0
LINE
  5
3B5
100
AcDbEntity
  8
_0-0_0
  6
CONTINUOUS
 62
     0
100
AcDbLine
 10
694.2047475848
 20
242.26370251
 11
691.2047475848
 21
241.51370251
  0
LINE
  5
3B6
100
AcDbEntity
  8
_0-0_0
  6
CONTINUOUS
 62
     0
100
AcDbLine
 10
754.2046755848
 20
397.51117051
 11
754.2046755848
 21
307.51117051
  0
LINE
  5
3B7
100
AcDbEntity
  8
_0-0_0
  6
CONTINUOUS
 62
     0
100
AcDbLine
 10
695.7047475848
 20
397.51117051
 11
757.2046755848
 21
397.51117051
  0
LINE
  5
3B8
100
AcDbEntity
  8
_0-0_0
  6
CONTINUOUS
 62
     0
100
AcDbLine
 10
692.7047475848
 20
307.51117051
 11
757.2046755848
 21
307.51117051
  0
LINE
  5
3B9
100
AcDbEntity
  8
_0-0_0
  6
CONTINUOUS
 62
     0
100
AcDbLine
 10
754.2046755848
 20
397.51117051
 11
753.4546755848
 21
394.51117051
  0
LINE
  5
3BA
100
AcDbEntity
  8
_0-0_0
  6
CONTINUOUS
 62
     0
100
AcDbLine
 10
754.2046755848
 20
397.51117051
 11
754.9546755848
 21
394.51117051
  0
LINE
  5
3BB
100
AcDbEntity
  8
_0-0_0
  6
CONTINUOUS
 62
     0
100
AcDbLine
 10
754.2046755848
 20
307.51117051
 11
754.9546755848
 21
310.51117051
  0
LINE
  5
3BC
100
AcDbEntity
  8
_0-0_0
  6
CONTINUOUS
 62
     0
100
AcDbLine
 10
754.2046755848
 20
307.51117051
 11
753.4546755848
 21
310.51117051
  0
LINE
  5
3BD
100
AcDbEntity
  8
_0-0_0
  6
CONTINUOUS
 62
     0
100
AcDbLine
 10
144.2047485848
 20
553.433540062
 11
694.2047475848
 21
553.433540062
  0
LINE
  5
3BE
100
AcDbEntity
  8
_0-0_0
  6
CONTINUOUS
 62
     0
100
AcDbLine
 10
144.2047485848
 20
482.12075251
 11
144.2047485848
 21
559.433540062
  0
LINE
  5
3BF
100
AcDbEntity
  8
_0-0_0
  6
CONTINUOUS
 62
     0
100
AcDbLine
 10
694.2047475848
 20
395.66427751
 11
694.2047475848
 21
559.433540062
  0
LINE
  5
3C0
100
AcDbEntity
  8
_0-0_0
  6
CONTINUOUS
 62
     0
100
AcDbLine
 10
144.2047485848
 20
553.433540062
 11
147.2047485848
 21
552.683540062
  0
LINE
  5
3C1
100
AcDbEntity
  8
_0-0_0
  6
CONTINUOUS
 62
     0
100
AcDbLine
 10
144.2047485848
 20
553.433540062
 11
147.2047485848
 21
554.183540062
  0
LINE
  5
3C2
100
AcDbEntity
  8
_0-0_0
  6
CONTINUOUS
 62
     0
100
AcDbLine
 10
694.2047475848
 20
553.433540062
 11
691.2047475848
 21
554.183540062
  0
LINE
  5
3C3
100
AcDbEntity
  8
_0-0_0
  6
CONTINUOUS
 62
     0
100
AcDbLine
 10
694.2047475848
 20
553.433540062
 11
691.2047475848
 21
552.683540062
  0
TEXT
  5
3C4
100
AcDbEntity
  8
_0-0_0
  6
CONTINUOUS
 62
     0
100
AcDbText
 10
422.5727570795
 20
555.0168320795
 40
6
  1
Ｗ
  7
STANDARD
100
AcDbText
  0
LINE
  5
3C5
100
AcDbEntity
  8
_0-0_0
  6
CONTINUOUS
 62
     0
100
AcDbLine
 10
157.4047485848
 20
510.6760527559
 11
177.4047465848
 21
510.6760527559
  0
LINE
  5
3C6
100
AcDbEntity
  8
_0-0_0
  6
CONTINUOUS
 62
     0
100
AcDbLine
 10
157.4047485848
 20
510.6760527559
 11
161.2684518899
 21
511.7113289363
  0
LINE
  5
3C7
100
AcDbEntity
  8
_0-0_0
  6
CONTINUOUS
 62
     0
100
AcDbLine
 10
157.4047485848
 20
510.6760527559
 11
161.2684518899
 21
509.6407765755
  0
LINE
  5
3C8
100
AcDbEntity
  8
_0-0_0
  6
CONTINUOUS
 62
     0
100
AcDbLine
 10
177.4047465848
 20
510.6760527559
 11
173.5410432796
 21
511.7113289363
  0
LINE
  5
3C9
100
AcDbEntity
  8
_0-0_0
  6
CONTINUOUS
 62
     0
100
AcDbLine
 10
177.4047465848
 20
510.6760527559
 11
173.5410432796
 21
509.6407765755
  0
LINE
  5
3CA
100
AcDbEntity
  8
_0-0_0
  6
CONTINUOUS
 62
     0
100
AcDbLine
 10
157.4047485848
 20
512.6760527559
 11
157.4047485848
 21
487.12075351
  0
LINE
  5
3CB
100
AcDbEntity
  8
_0-0_0
  6
CONTINUOUS
 62
     0
100
AcDbLine
 10
177.4047465848
 20
512.6760527559
 11
177.4047465848
 21
469.92075451
  0
LINE
  5
3CC
100
AcDbEntity
  8
_0-0_0
  6
CONTINUOUS
 62
     0
100
AcDbLine
 10
144.2047485848
 20
532.9923783124
 11
177.4047465848
 21
532.9923783124
  0
LINE
  5
3CD
100
AcDbEntity
  8
_0-0_0
  6
CONTINUOUS
 62
     0
100
AcDbLine
 10
144.2047485848
 20
532.9923783124
 11
148.0684518899
 21
534.0276544929
  0
LINE
  5
3CE
100
AcDbEntity
  8
_0-0_0
  6
CONTINUOUS
 62
     0
100
AcDbLine
 10
144.2047485848
 20
532.9923783124
 11
148.0684518899
 21
531.957102132
  0
LINE
  5
3CF
100
AcDbEntity
  8
_0-0_0
  6
CONTINUOUS
 62
     0
100
AcDbLine
 10
177.4047465848
 20
532.9923783124
 11
173.5410432796
 21
534.0276544929
  0
LINE
  5
3D0
100
AcDbEntity
  8
_0-0_0
  6
CONTINUOUS
 62
     0
100
AcDbLine
 10
177.4047465848
 20
532.9923783124
 11
173.5410432796
 21
531.957102132
  0
LINE
  5
3D1
100
AcDbEntity
  8
_0-0_0
  6
CONTINUOUS
 62
     0
100
AcDbLine
 10
177.4047465848
 20
534.9923783124
 11
177.4047465848
 21
518.6760527559
  0
CIRCLE
  5
3D2
100
AcDbEntity
  8
_0-4_図枠
  6
CONTINUOUS
 62
     0
100
AcDbCircle
 10
130.6280712732
 20
512.5487417958
 40
6
  0
LINE
  5
3D3
100
AcDbEntity
  8
_0-4_図枠
  6
CONTINUOUS
 62
     0
100
AcDbLine
 10
153.4380874909
 20
473.0406347851
 11
133.6280712732
 21
507.3525893731
  0
CIRCLE
  5
3D4
100
AcDbEntity
  8
_0-4_図枠
  6
CONTINUOUS
 62
     0
100
AcDbCircle
 10
153.4380874909
 20
473.0406347851
 40
0.9
  0
CIRCLE
  5
3D5
100
AcDbEntity
  8
_0-4_図枠
  6
CONTINUOUS
 62
     0
100
AcDbCircle
 10
129.8540048677
 20
491.8331227656
 40
6
  0
LINE
  5
3D6
100
AcDbEntity
  8
_0-4_図枠
  6
CONTINUOUS
 62
     0
100
AcDbLine
 10
150.9731201104
 20
455.2537421544
 11
132.8540048677
 21
486.6369703429
  0
CIRCLE
  5
3D7
100
AcDbEntity
  8
_0-4_図枠
  6
CONTINUOUS
 62
     0
100
AcDbCircle
 10
150.9731201104
 20
455.2537421544
 40
0.9
  0
LINE
  5
3D8
100
AcDbEntity
  8
_0-3_躯体と製品
  6
CONTINUOUS
 62
     0
100
AcDbLine
 10
149.2047485848
 20
413.42075251
 11
149.2047485848
 21
431.42075251
  0
LINE
  5
3D9
100
AcDbEntity
  8
_0-3_躯体と製品
  6
CONTINUOUS
 62
     0
100
AcDbLine
 10
149.2047485848
 20
431.42075251
 11
147.7047485848
 21
431.42075251
  0
LINE
  5
3DA
100
AcDbEntity
  8
_0-3_躯体と製品
  6
CONTINUOUS
 62
     0
100
AcDbLine
 10
149.2047485848
 20
413.42075251
 11
147.7047485848
 21
413.42075251
  0
ARC
  5
3DB
100
AcDbEntity
  8
_0-3_躯体と製品
  6
CONTINUOUS
 62
     0
100
AcDbCircle
 10
149.0760390388
 20
420.91798951
 40
3
100
AcDbArc
 50
-87.541074
 51
-38.614638
  0
ARC
  5
3DC
100
AcDbEntity
  8
_0-3_躯体と製品
  6
CONTINUOUS
 62
     0
100
AcDbCircle
 10
147.2047500388
 20
422.42075251
 40
5.4
100
AcDbArc
 50
-38.682187
 51
0
  0
ARC
  5
3DD
100
AcDbEntity
  8
_0-3_躯体と製品
  6
CONTINUOUS
 62
     0
100
AcDbCircle
 10
147.2047500388
 20
422.42075251
 40
5.4
100
AcDbArc
 50
0
 51
38.851062
  0
ARC
  5
3DE
100
AcDbEntity
  8
_0-3_躯体と製品
  6
CONTINUOUS
 62
     0
100
AcDbCircle
 10
149.0760390388
 20
423.92351251
 40
3
100
AcDbArc
 50
38.614638
 51
87.541074
  0
CIRCLE
  5
3DF
100
AcDbEntity
  8
_0-4_図枠
  6
CONTINUOUS
 62
     0
100
AcDbCircle
 10
99.08386166013
 20
446.5718479824
 40
6
  0
LINE
  5
3E0
100
AcDbEntity
  8
_0-4_図枠
  6
CONTINUOUS
 62
     0
100
AcDbLine
 10
111.5819857672
 20
424.9244620296
 11
102.0838616601
 21
441.3756955597
  0
CIRCLE
  5
3E1
100
AcDbEntity
  8
_0-4_図枠
  6
CONTINUOUS
 62
     0
100
AcDbCircle
 10
111.5819857672
 20
424.9244620296
 40
0.9
  0
CIRCLE
  5
3E2
100
AcDbEntity
  8
_0-4_図枠
  6
CONTINUOUS
 62
     0
100
AcDbCircle
 10
194.6501376943
 20
503.9513572274
 40
6
  0
LINE
  5
3E3
100
AcDbEntity
  8
_0-4_図枠
  6
CONTINUOUS
 62
     0
100
AcDbLine
 10
173.4133161894
 20
467.1681033898
 11
191.6501376943
 21
498.7552048047
  0
CIRCLE
  5
3E4
100
AcDbEntity
  8
_0-4_図枠
  6
CONTINUOUS
 62
     0
100
AcDbCircle
 10
173.4133161894
 20
467.1681033898
 40
0.9
  0
CIRCLE
  5
3E5
100
AcDbEntity
  8
_0-4_図枠
  6
CONTINUOUS
 62
     0
100
AcDbCircle
 10
202.97963514
 20
380.9216209823
 40
6
  0
LINE
  5
3E6
100
AcDbEntity
  8
_0-4_図枠
  6
CONTINUOUS
 62
     0
100
AcDbLine
 10
176.0880274432
 20
427.4992518105
 11
199.97963514
 21
386.1177734051
  0
CIRCLE
  5
3E7
100
AcDbEntity
  8
_0-4_図枠
  6
CONTINUOUS
 62
     0
100
AcDbCircle
 10
176.0880274432
 20
427.4992518105
 40
0.9
  0
TEXT
  5
3E8
100
AcDbEntity
  8
_0-0_0
  6
CONTINUOUS
 62
     0
100
AcDbText
 10
151.5126145643
 20
245.7520810669
 40
6
  1
２５
  7
STANDARD
100
AcDbText
  0
TEXT
  5
3E9
100
AcDbEntity
  8
_0-0_0
  6
CONTINUOUS
 62
     0
100
AcDbText
 10
154.3863396914
 20
533.8430250595
 40
6
  1
33.5
  7
STANDARD
100
AcDbText
  0
TEXT
  5
3EA
100
AcDbEntity
  8
_0-0_0
  6
CONTINUOUS
 62
     0
100
AcDbText
 10
164.4443776363
 20
512.2900866062
 40
6
  1
20
  7
STANDARD
100
AcDbText
  0
TEXT
  5
3EB
100
AcDbEntity
  8
_0-0_0
  6
CONTINUOUS
 62
     0
100
AcDbText
 10
200.3788139541
 20
466.4995454361
 40
6
  1
１５
 50
90
  7
STANDARD
100
AcDbText
  0
TEXT
  5
3EC
100
AcDbEntity
  8
_0-0_0
  6
CONTINUOUS
 62
     0
100
AcDbText
 10
200.7167099657
 20
444.0294606656
 40
6
  1
３６
 50
90
  7
STANDARD
100
AcDbText
  0
TEXT
  5
3ED
100
AcDbEntity
  8
_0-0_0
  6
CONTINUOUS
 62
     0
100
AcDbText
 10
65.36722207287
 20
409.8074550056
 40
6
  1
Ｅ
 50
90
  7
STANDARD
100
AcDbText
  0
TEXT
  5
3EE
100
AcDbEntity
  8
_0-0_0
  6
CONTINUOUS
 62
     0
100
AcDbText
 10
92.50668181966
 20
383.4160267462
 40
6
  1
Ｄ
 50
90
  7
STANDARD
100
AcDbText
  0
TEXT
  5
3EF
100
AcDbEntity
  8
_0-2_寸法
  6
CONTINUOUS
 62
     0
100
AcDbText
 10
399.5417451505
 20
439.5358159087
 40
6
  1
（キャップ幅）
  7
STANDARD
100
AcDbText
  0
TEXT
  5
3F0
100
AcDbEntity
  8
_0-2_寸法
  6
CONTINUOUS
 62
     0
100
AcDbText
 10
425.1317584049
 20
452.842622801
 40
6
  1
A
  7
STANDARD
100
AcDbText
  0
CIRCLE
  5
3F1
100
AcDbEntity
  8
_0-4_図枠
  6
CONTINUOUS
 62
     0
100
AcDbCircle
 10
200.146320061
 20
490.7751744723
 40
6
  0
LINE
  5
3F2
100
AcDbEntity
  8
_0-4_図枠
  6
CONTINUOUS
 62
     0
100
AcDbLine
 10
175.6774636747
 20
448.3938720082
 11
197.146320061
 21
485.5790220496
  0
CIRCLE
  5
3F3
100
AcDbEntity
  8
_0-4_図枠
  6
CONTINUOUS
 62
     0
100
AcDbCircle
 10
175.6774636747
 20
448.3938720082
 40
0.9
  0
CIRCLE
  5
3F4
100
AcDbEntity
  8
_0-4_図枠
  6
CONTINUOUS
 62
     0
100
AcDbCircle
 10
704.8367493953
 20
424.2252877738
 40
6
  0
LINE
  5
3F5
100
AcDbEntity
  8
_0-4_図枠
  6
CONTINUOUS
 62
     0
100
AcDbLine
 10
678.2002682519
 20
378.0895490985
 11
701.8367493953
 21
419.0291353511
  0
CIRCLE
  5
3F6
100
AcDbEntity
  8
_0-4_図枠
  6
CONTINUOUS
 62
     0
100
AcDbCircle
 10
678.2002682519
 20
378.0895490985
 40
0.9
  0
CIRCLE
  5
3F7
100
AcDbEntity
  8
_0-4_図枠
  6
CONTINUOUS
 62
     0
100
AcDbCircle
 10
705.9858969096
 20
446.4038347987
 40
6
  0
LINE
  5
3F8
100
AcDbEntity
  8
_0-4_図枠
  6
CONTINUOUS
 62
     0
100
AcDbLine
 10
677.8494157662
 20
397.6700199121
 11
702.9858969096
 21
441.207682376
  0
CIRCLE
  5
3F9
100
AcDbEntity
  8
_0-4_図枠
  6
CONTINUOUS
 62
     0
100
AcDbCircle
 10
677.8494157662
 20
397.6700199121
 40
0.9
  0
TEXT
  5
3FA
100
AcDbEntity
  8
_0-0_0
  6
CONTINUOUS
 62
     0
100
AcDbText
 10
751.9955536666
 20
343.3299646196
 40
6
  1
９０
 50
90
  7
STANDARD
100
AcDbText
  0
TEXT
  5
3FB
100
AcDbEntity
  8
_0-0_0
  6
CONTINUOUS
 62
     0
100
AcDbText
 10
720.1066884642
 20
324.9554717906
 40
6
  1
４４
 50
90
  7
STANDARD
100
AcDbText
  0
CIRCLE
  5
3FC
100
AcDbEntity
  8
_0-4_図枠
  6
CONTINUOUS
 62
     0
100
AcDbCircle
 10
608.8214286437
 20
420.9934314451
 40
6
  0
LINE
  5
3FD
100
AcDbEntity
  8
_0-4_図枠
  6
CONTINUOUS
 62
     0
100
AcDbLine
 10
587.8728205893
 20
386.9849193891
 11
605.8214286437
 21
415.7972790224
  0
CIRCLE
  5
3FE
100
AcDbEntity
  8
_0-4_図枠
  6
CONTINUOUS
 62
     0
100
AcDbCircle
 10
587.8728205893
 20
386.9849193891
 40
0.9
  0
ARC
  5
3FF
100
AcDbEntity
  8
_0-0_0
  6
CONTINUOUS
 62
     0
100
AcDbCircle
 10
196.8297475848
 20
473.62075351
 40
28.625
100
AcDbArc
 50
164.8107132628
 51
195.1892867372
  0
LINE
  5
400
100
AcDbEntity
  8
_0-0_0
  6
CONTINUOUS
 62
     0
100
AcDbLine
 10
163.2379295056
 20
466.12075351
 11
168.3080649028
 21
471.1908889072
  0
LINE
  5
401
100
AcDbEntity
  8
_0-0_0
  6
CONTINUOUS
 62
     0
100
AcDbLine
 10
166.0663566303
 20
466.12075351
 11
168.6330597192
 21
468.6874565989
  0
LINE
  5
402
100
AcDbEntity
  8
_0-0_0
  6
CONTINUOUS
 62
     0
100
AcDbLine
 10
170.1201868429
 20
351.8272429924
 11
145.2047475848
 21
389.92075351
  0
LINE
  5
403
100
AcDbEntity
  8
_0-4_図枠
  6
CONTINUOUS
 62
     0
100
AcDbLine
 10
715
 20
196.1520396122
 11
490
 21
196.1520396122
  0
LINE
  5
404
100
AcDbEntity
  8
_0-4_図枠
  6
CONTINUOUS
 62
     0
100
AcDbLine
 10
715
 20
205.1520396122
 11
490
 21
205.1520396122
  0
LINE
  5
405
100
AcDbEntity
  8
_0-4_図枠
  6
CONTINUOUS
 62
     0
100
AcDbLine
 10
715
 20
223.1520396122
 11
490
 21
223.1520396122
  0
TEXT
  5
406
100
AcDbEntity
  8
_0-4_図枠
  6
CONTINUOUS
 62
     0
100
AcDbText
 10
674
 20
223.7310399913
 40
5
  1
（単位：mm）
  7
STANDARD
100
AcDbText
  0
TEXT
  5
407
100
AcDbEntity
  8
_0-4_図枠
  6
CONTINUOUS
 62
     0
100
AcDbText
 10
697
 20
215.6520396122
 40
5
  1
Ｅ
  7
STANDARD
100
AcDbText
  0
TEXT
  5
408
100
AcDbEntity
  8
_0-4_図枠
  6
CONTINUOUS
 62
     0
100
AcDbText
 10
667
 20
215.6520396122
 40
5
  1
Ｄ
  7
STANDARD
100
AcDbText
  0
TEXT
  5
409
100
AcDbEntity
  8
_0-4_図枠
  6
CONTINUOUS
 62
     0
100
AcDbText
 10
637
 20
215.6520396122
 40
5
  1
Ｃ
  7
STANDARD
100
AcDbText
  0
TEXT
  5
40A
100
AcDbEntity
  8
_0-4_図枠
  6
CONTINUOUS
 62
     0
100
AcDbText
 10
577
 20
215.6520396122
 40
5
  1
Ｗ
  7
STANDARD
100
AcDbText
  0
TEXT
  5
40B
100
AcDbEntity
  8
_0-4_図枠
  6
CONTINUOUS
 62
     0
100
AcDbText
 10
607
 20
215.6520396122
 40
5
  1
Ａ
  7
STANDARD
100
AcDbText
  0
TEXT
  5
40C
100
AcDbEntity
  8
_0-4_図枠
  6
CONTINUOUS
 62
     0
100
AcDbText
 10
510.5
 20
215.6520396122
 40
5
  1
タ　イ　プ
  7
STANDARD
100
AcDbText
  0
LINE
  5
40D
100
AcDbEntity
  8
_0-4_図枠
  6
CONTINUOUS
 62
     0
100
AcDbLine
 10
334
 20
205.1520396122
 11
125
 21
205.1520396122
  0
LINE
  5
40E
100
AcDbEntity
  8
_0-0_0
  6
CONTINUOUS
 62
     0
100
AcDbLine
 10
167.4047475848
 20
431.5106107436
 11
167.4047475848
 21
430.42075451
  0
LINE
  5
40F
100
AcDbEntity
  8
_0-0_0
  6
CONTINUOUS
 62
     0
100
AcDbLine
 10
166.4047475848
 20
431.82075451
 11
166.4047475848
 21
430.12075451
  0
ARC
  5
410
100
AcDbEntity
  8
_0-0_0
  6
CONTINUOUS
 62
     0
100
AcDbCircle
 10
167.7047475848
 20
431.5106107436
 40
0.3
100
AcDbArc
 50
88.09506709944
 51
180
  0
LINE
  5
411
100
AcDbEntity
  8
_0-0_0
  6
CONTINUOUS
 62
     0
100
AcDbLine
 10
167.7147199527
 20
431.8104449509
 11
173.4014317312
 21
431.6213071523
  0
ARC
  5
412
100
AcDbEntity
  8
_0-0_0
  6
CONTINUOUS
 62
     0
100
AcDbCircle
 10
167.4047475848
 20
431.82075451
 40
1
100
AcDbArc
 50
88.09506709944
 51
180
  0
LINE
  5
413
100
AcDbEntity
  8
_0-0_0
  6
CONTINUOUS
 62
     0
100
AcDbLine
 10
167.4379888111
 20
432.8202018678
 11
172.9349492787
 21
432.6373751232
  0
LINE
  5
414
100
AcDbEntity
  8
_0-0_0
  6
CONTINUOUS
 62
     0
100
AcDbLine
 10
173.4512935707
 20
433.1204781889
 11
173.4679141839
 21
433.6202018678
  0
ARC
  5
415
100
AcDbEntity
  8
_0-0_0
  6
CONTINUOUS
 62
     0
100
AcDbCircle
 10
173.4346729575
 20
432.62075451
 40
1
100
AcDbArc
 50
-91.90493290056
 51
-1.904932904258
  0
LINE
  5
416
100
AcDbEntity
  8
_0-0_0
  6
CONTINUOUS
 62
     0
100
AcDbLine
 10
174.4341203152
 20
432.5875132837
 11
174.4673615416
 21
433.5869606415
  0
ARC
  5
417
100
AcDbEntity
  8
_0-0_0
  6
CONTINUOUS
 62
     0
100
AcDbCircle
 10
173.9676378627
 20
433.6035812546
 40
0.4999999999355
100
AcDbArc
 50
-1.904932900554
 51
178.0950670994
  0
ARC
  5
418
100
AcDbEntity
  8
_0-0_0
  6
CONTINUOUS
 62
     0
100
AcDbCircle
 10
172.9515698918
 20
433.137098802
 40
0.5
100
AcDbArc
 50
-91.90493290056
 51
-1.904932904271
  0
ARC
  5
419
100
AcDbEntity
  8
_0-0_0
  6
CONTINUOUS
 62
     0
100
AcDbCircle
 10
167.7047475848
 20
430.42075451
 40
0.3
100
AcDbArc
 50
180
 51
270
  0
ARC
  5
41A
100
AcDbEntity
  8
_0-0_0
  6
CONTINUOUS
 62
     0
100
AcDbCircle
 10
167.4047475848
 20
430.12075451
 40
1
100
AcDbArc
 50
180
 51
270
  0
LINE
  5
41B
100
AcDbEntity
  8
_0-0_0
  6
CONTINUOUS
 62
     0
100
AcDbLine
 10
167.7047475848
 20
430.12075451
 11
175.9047475848
 21
430.12075451
  0
LINE
  5
41C
100
AcDbEntity
  8
_0-0_0
  6
CONTINUOUS
 62
     0
100
AcDbLine
 10
176.4047475848
 20
429.62075451
 11
176.4047475848
 21
429.12075451
  0
ARC
  5
41D
100
AcDbEntity
  8
_0-0_0
  6
CONTINUOUS
 62
     0
100
AcDbCircle
 10
175.9047475848
 20
429.62075451
 40
0.5
100
AcDbArc
 50
0
 51
90
  0
LINE
  5
41E
100
AcDbEntity
  8
_0-0_0
  6
CONTINUOUS
 62
     0
100
AcDbLine
 10
167.4047475848
 20
429.12075451
 11
176.4047475848
 21
429.12075451
  0
ARC
  5
41F
100
AcDbEntity
  8
_0-0_0
  6
CONTINUOUS
 62
     0
100
AcDbCircle
 10
171.7157353293
 20
428.6077593171
 40
4
100
AcDbArc
 50
-141.7510786729
 51
-25.76184508904
  0
LINE
  5
420
100
AcDbEntity
  8
_0-0_0
  6
CONTINUOUS
 62
     0
100
AcDbLine
 10
167.5838943219
 20
427.3879683967
 11
168.5744209851
 21
426.131442659
  0
LINE
  5
421
100
AcDbEntity
  8
_0-0_0
  6
CONTINUOUS
 62
     0
100
AcDbLine
 10
168.2121571907
 20
427.8832317283
 11
169.2026838539
 21
426.6267059906
  0
ARC
  5
422
100
AcDbEntity
  8
_0-0_0
  6
CONTINUOUS
 62
     0
100
AcDbCircle
 10
167.8980257563
 20
427.6356000625
 40
0.4
100
AcDbArc
 50
38.24892132712
 51
218.2489213271
  0
LINE
  5
423
100
AcDbEntity
  8
_0-0_0
  6
CONTINUOUS
 62
     0
100
AcDbLine
 10
176.4047475848
 20
429.12075451
 11
175.318168948
 21
426.8692334983
  0
ARC
  5
424
100
AcDbEntity
  8
_0-0_0
  6
CONTINUOUS
 62
     0
100
AcDbCircle
 10
171.7157353293
 20
428.6077593171
 40
3.2
100
AcDbArc
 50
-141.7510786729
 51
-25.76184508904
  0
LINE
  5
425
100
AcDbEntity
  8
_0-0_0
  6
CONTINUOUS
 62
     0
100
AcDbLine
 10
175.5164591835
 20
429.12075451
 11
174.5976822243
 21
427.2169386621
  0
LINE
  5
426
100
AcDbEntity
  8
_0-0_0
  6
CONTINUOUS
 62
     0
100
AcDbLine
 10
144.4047475848
 20
466.12075451
 11
143.4047475848
 21
466.12075451
  0
LINE
  5
427
100
AcDbEntity
  8
_0-0_0
  6
CONTINUOUS
 62
     0
100
AcDbLine
 10
144.4047475848
 20
436.12075451
 11
144.4047475848
 21
466.12075451
  0
LINE
  5
428
100
AcDbEntity
  8
_0-0_0
  6
CONTINUOUS
 62
     0
100
AcDbLine
 10
143.4047475848
 20
436.12075451
 11
144.4047475848
 21
436.12075451
  0
LINE
  5
429
100
AcDbEntity
  8
_0-0_0
  6
CONTINUOUS
 62
     0
100
AcDbLine
 10
143.4047475848
 20
466.12075451
 11
143.4047475848
 21
436.12075451
  0
LINE
  5
42A
100
AcDbEntity
  8
_0-0_0
  6
CONTINUOUS
 62
     0
100
AcDbLine
 10
143.4047475848
 20
437.4602173088
 11
144.4047475848
 21
436.4602173088
  0
LINE
  5
42B
100
AcDbEntity
  8
_0-0_0
  6
CONTINUOUS
 62
     0
100
AcDbLine
 10
143.4047475848
 20
438.8744308712
 11
144.4047475848
 21
437.8744308712
  0
LINE
  5
42C
100
AcDbEntity
  8
_0-0_0
  6
CONTINUOUS
 62
     0
100
AcDbLine
 10
143.4047475848
 20
440.2886444336
 11
144.4047475848
 21
439.2886444336
  0
LINE
  5
42D
100
AcDbEntity
  8
_0-0_0
  6
CONTINUOUS
 62
     0
100
AcDbLine
 10
143.4047475848
 20
441.7028579959
 11
144.4047475848
 21
440.7028579959
  0
LINE
  5
42E
100
AcDbEntity
  8
_0-0_0
  6
CONTINUOUS
 62
     0
100
AcDbLine
 10
143.4047475848
 20
443.1170715583
 11
144.4047475848
 21
442.1170715583
  0
LINE
  5
42F
100
AcDbEntity
  8
_0-0_0
  6
CONTINUOUS
 62
     0
100
AcDbLine
 10
143.4047475848
 20
444.5312851207
 11
144.4047475848
 21
443.5312851207
  0
LINE
  5
430
100
AcDbEntity
  8
_0-0_0
  6
CONTINUOUS
 62
     0
100
AcDbLine
 10
143.4047475848
 20
445.9454986831
 11
144.4047475848
 21
444.9454986831
  0
LINE
  5
431
100
AcDbEntity
  8
_0-0_0
  6
CONTINUOUS
 62
     0
100
AcDbLine
 10
143.4047475848
 20
447.3597122454
 11
144.4047475848
 21
446.3597122454
  0
LINE
  5
432
100
AcDbEntity
  8
_0-0_0
  6
CONTINUOUS
 62
     0
100
AcDbLine
 10
143.4047475848
 20
448.7739258078
 11
144.4047475848
 21
447.7739258078
  0
LINE
  5
433
100
AcDbEntity
  8
_0-0_0
  6
CONTINUOUS
 62
     0
100
AcDbLine
 10
143.4047475848
 20
450.1881393702
 11
144.4047475848
 21
449.1881393702
  0
LINE
  5
434
100
AcDbEntity
  8
_0-0_0
  6
CONTINUOUS
 62
     0
100
AcDbLine
 10
143.4047475848
 20
451.6023529325
 11
144.4047475848
 21
450.6023529325
  0
LINE
  5
435
100
AcDbEntity
  8
_0-0_0
  6
CONTINUOUS
 62
     0
100
AcDbLine
 10
143.4047475848
 20
453.0165664949
 11
144.4047475848
 21
452.0165664949
  0
LINE
  5
436
100
AcDbEntity
  8
_0-0_0
  6
CONTINUOUS
 62
     0
100
AcDbLine
 10
143.4047475848
 20
454.4307800573
 11
144.4047475848
 21
453.4307800573
  0
LINE
  5
437
100
AcDbEntity
  8
_0-0_0
  6
CONTINUOUS
 62
     0
100
AcDbLine
 10
143.4047475848
 20
455.8449936197
 11
144.4047475848
 21
454.8449936197
  0
LINE
  5
438
100
AcDbEntity
  8
_0-0_0
  6
CONTINUOUS
 62
     0
100
AcDbLine
 10
143.4047475848
 20
457.259207182
 11
144.4047475848
 21
456.259207182
  0
LINE
  5
439
100
AcDbEntity
  8
_0-0_0
  6
CONTINUOUS
 62
     0
100
AcDbLine
 10
143.4047475848
 20
458.6734207444
 11
144.4047475848
 21
457.6734207444
  0
LINE
  5
43A
100
AcDbEntity
  8
_0-0_0
  6
CONTINUOUS
 62
     0
100
AcDbLine
 10
143.4047475848
 20
460.0876343068
 11
144.4047475848
 21
459.0876343068
  0
LINE
  5
43B
100
AcDbEntity
  8
_0-0_0
  6
CONTINUOUS
 62
     0
100
AcDbLine
 10
143.4047475848
 20
461.5018478692
 11
144.4047475848
 21
460.5018478692
  0
LINE
  5
43C
100
AcDbEntity
  8
_0-0_0
  6
CONTINUOUS
 62
     0
100
AcDbLine
 10
143.4047475848
 20
462.9160614315
 11
144.4047475848
 21
461.9160614315
  0
LINE
  5
43D
100
AcDbEntity
  8
_0-0_0
  6
CONTINUOUS
 62
     0
100
AcDbLine
 10
143.4047475848
 20
464.3302749939
 11
144.4047475848
 21
463.3302749939
  0
LINE
  5
43E
100
AcDbEntity
  8
_0-0_0
  6
CONTINUOUS
 62
     0
100
AcDbLine
 10
143.4047475848
 20
465.7444885563
 11
144.4047475848
 21
464.7444885563
  0
LINE
  5
43F
100
AcDbEntity
  8
_0-0_0
  6
CONTINUOUS
 62
     0
100
AcDbLine
 10
167.4047475848
 20
430.12075351
 11
167.7047475848
 21
430.12075451
  0
LINE
  5
440
100
AcDbEntity
  8
_0-0_0
  6
CONTINUOUS
 62
     0
100
AcDbLine
 10
417.2047465848
 20
351.38000551
 11
60.79055558477
 21
351.38000551
  0
LINE
  5
441
100
AcDbEntity
  8
_0-0_0
  6
CONTINUOUS
 62
     0
100
AcDbLine
 10
419.2047475848
 20
295.63196551
 11
419.2047475848
 21
303.49313251
  0
LINE
  5
442
100
AcDbEntity
  8
_0-0_0
  6
CONTINUOUS
 62
     0
100
AcDbLine
 10
419.2047475848
 20
259.36300651
 11
419.2047475848
 21
351.38000551
  0
LINE
  5
443
100
AcDbEntity
  8
_0-0_0
  6
CONTINUOUS
 62
     0
100
AcDbLine
 10
169.2047475848
 20
242.26370251
 11
419.2047475848
 21
242.26370251
  0
LINE
  5
444
100
AcDbEntity
  8
_0-0_0
  6
CONTINUOUS
 62
     0
100
AcDbLine
 10
419.2047475848
 20
258.36300751
 11
419.2047475848
 21
236.26370251
  0
LINE
  5
445
100
AcDbEntity
  8
_0-0_0
  6
CONTINUOUS
 62
     0
100
AcDbLine
 10
419.2047475848
 20
242.26370251
 11
416.2047475848
 21
243.01370251
  0
LINE
  5
446
100
AcDbEntity
  8
_0-0_0
  6
CONTINUOUS
 62
     0
100
AcDbLine
 10
419.2047475848
 20
242.26370251
 11
416.2047475848
 21
241.51370251
  0
LINE
  5
447
100
AcDbEntity
  8
_0-0_0
  6
CONTINUOUS
 62
     0
100
AcDbLine
 10
419.2047475848
 20
242.26370251
 11
422.2047475848
 21
241.51370251
  0
LINE
  5
448
100
AcDbEntity
  8
_0-0_0
  6
CONTINUOUS
 62
     0
100
AcDbLine
 10
419.2047475848
 20
242.26370251
 11
422.2047475848
 21
243.01370251
  0
LINE
  5
449
100
AcDbEntity
  8
_0-0_0
  6
CONTINUOUS
 62
     0
100
AcDbLine
 10
494.2047465848
 20
306.86300551
 11
494.2047465848
 21
299.49313051
  0
LINE
  5
44A
100
AcDbEntity
  8
_0-0_0
  6
CONTINUOUS
 62
     0
100
AcDbLine
 10
494.2047465848
 20
303.49313251
 11
544.2047475848
 21
303.49313251
  0
LINE
  5
44B
100
AcDbEntity
  8
_0-0_0
  6
CONTINUOUS
 62
     0
100
AcDbLine
 10
544.2047475848
 20
295.63196551
 11
544.2047475848
 21
303.49313251
  0
LINE
  5
44C
100
AcDbEntity
  8
_0-0_0
  6
CONTINUOUS
 62
     0
100
AcDbLine
 10
494.2047465848
 20
303.49313251
 11
497.2047465848
 21
302.74313251
  0
LINE
  5
44D
100
AcDbEntity
  8
_0-0_0
  6
CONTINUOUS
 62
     0
100
AcDbLine
 10
494.2047465848
 20
303.49313251
 11
497.2047465848
 21
304.24313251
  0
LINE
  5
44E
100
AcDbEntity
  8
_0-0_0
  6
CONTINUOUS
 62
     0
100
AcDbLine
 10
544.2047475848
 20
303.49313251
 11
541.2047475848
 21
304.24313251
  0
LINE
  5
44F
100
AcDbEntity
  8
_0-0_0
  6
CONTINUOUS
 62
     0
100
AcDbLine
 10
544.2047475848
 20
303.49313251
 11
541.2047475848
 21
302.74313251
  0
LINE
  5
450
100
AcDbEntity
  8
_0-0_0
  6
CONTINUOUS
 62
     0
100
AcDbLine
 10
544.2047475848
 20
259.36300651
 11
544.2047475848
 21
351.38000551
  0
LINE
  5
451
100
AcDbEntity
  8
_0-0_0
  6
CONTINUOUS
 62
     0
100
AcDbLine
 10
546.2047485848
 20
351.38000551
 11
728.4305925848
 21
351.38000551
  0
LINE
  5
452
100
AcDbEntity
  8
_0-0_0
  6
CONTINUOUS
 62
     0
100
AcDbLine
 10
544.2047475848
 20
258.36300751
 11
544.2047475848
 21
236.26370251
  0
LINE
  5
453
100
AcDbEntity
  8
_0-0_0
  6
CONTINUOUS
 62
     0
100
AcDbLine
 10
544.2047475848
 20
242.26370251
 11
541.2047475848
 21
243.01370251
  0
LINE
  5
454
100
AcDbEntity
  8
_0-0_0
  6
CONTINUOUS
 62
     0
100
AcDbLine
 10
544.2047475848
 20
242.26370251
 11
541.2047475848
 21
241.51370251
  0
LINE
  5
455
100
AcDbEntity
  8
_0-0_0
  6
CONTINUOUS
 62
     0
100
AcDbLine
 10
544.2047475848
 20
242.26370251
 11
694.2047475848
 21
242.26370251
  0
LINE
  5
456
100
AcDbEntity
  8
_0-0_0
  6
CONTINUOUS
 62
     0
100
AcDbLine
 10
544.2047475848
 20
242.26370251
 11
547.2047475848
 21
241.51370251
  0
LINE
  5
457
100
AcDbEntity
  8
_0-0_0
  6
CONTINUOUS
 62
     0
100
AcDbLine
 10
544.2047475848
 20
242.26370251
 11
547.2047475848
 21
243.01370251
  0
ARC
  5
458
100
AcDbEntity
  8
_0-0_0
  6
CONTINUOUS
 62
     0
100
AcDbCircle
 10
497.7047465849
 20
311.8800055081
 40
1.00000000005
100
AcDbArc
 50
-90
 51
0
  0
LINE
  5
459
100
AcDbEntity
  8
_0-0_0
  6
CONTINUOUS
 62
     0
100
AcDbLine
 10
500.8297745851
 20
313.1180095081
 11
496.6443425849
 21
312.3800055081
  0
LINE
  5
45A
100
AcDbEntity
  8
_0-0_0
  6
CONTINUOUS
 62
     0
100
AcDbLine
 10
498.254746585
 20
343.0800055096
 11
490.1547465846
 21
343.0800055096
  0
LINE
  5
45B
100
AcDbEntity
  8
_0-0_0
  6
CONTINUOUS
 62
     0
100
AcDbLine
 10
498.954746585
 20
342.3800055096
 11
489.4547465845
 21
342.3800055096
  0
LINE
  5
45C
100
AcDbEntity
  8
_0-0_0
  6
CONTINUOUS
 62
     0
100
AcDbLine
 10
487.5797165844
 20
313.1180095081
 11
489.4547465845
 21
323.7518315086
  0
LINE
  5
45D
100
AcDbEntity
  8
_0-0_0
  6
CONTINUOUS
 62
     0
100
AcDbLine
 10
493.7047465847
 20
323.3800055086
 11
491.7651485846
 21
312.3800055081
  0
LINE
  5
45E
100
AcDbEntity
  8
_0-0_0
  6
CONTINUOUS
 62
     0
100
AcDbLine
 10
494.7047465848
 20
323.3800055086
 11
496.6443425849
 21
312.3800055081
  0
LINE
  5
45F
100
AcDbEntity
  8
_0-0_0
  6
CONTINUOUS
 62
     0
100
AcDbLine
 10
487.5797165844
 20
313.1180095081
 11
491.7651485846
 21
312.3800055081
  0
LINE
  5
460
100
AcDbEntity
  8
_0-0_0
  6
CONTINUOUS
 62
     0
100
AcDbLine
 10
489.7047465845
 20
311.8800055081
 11
489.7047465845
 21
312.7433095081
  0
ARC
  5
461
100
AcDbEntity
  8
_0-0_0
  6
CONTINUOUS
 62
     0
100
AcDbCircle
 10
490.7047465846
 20
311.8800055081
 40
1.00000000005
100
AcDbArc
 50
180
 51
270
  0
LINE
  5
462
100
AcDbEntity
  8
_0-0_0
  6
CONTINUOUS
 62
     0
100
AcDbLine
 10
490.7047465846
 20
310.880005508
 11
497.7047465849
 21
310.880005508
  0
LINE
  5
463
100
AcDbEntity
  8
_0-0_0
  6
CONTINUOUS
 62
     0
100
AcDbLine
 10
489.4547465845
 20
323.7518315086
 11
489.4547465845
 21
342.3800055096
  0
LINE
  5
464
100
AcDbEntity
  8
_0-0_0
  6
CONTINUOUS
 62
     0
100
AcDbLine
 10
490.1547465846
 20
352.3800055101
 11
490.1547465846
 21
343.0800055096
  0
LINE
  5
465
100
AcDbEntity
  8
_0-0_0
  6
CONTINUOUS
 62
     0
100
AcDbLine
 10
489.4547465845
 20
342.3800055096
 11
490.1547465846
 21
343.0800055096
  0
LINE
  5
466
100
AcDbEntity
  8
_0-0_0
  6
CONTINUOUS
 62
     0
100
AcDbLine
 10
494.7047465848
 20
323.3800055086
 11
493.7047465847
 21
323.3800055086
  0
LINE
  5
467
100
AcDbEntity
  8
_0-0_0
  6
CONTINUOUS
 62
     0
100
AcDbLine
 10
500.8297745851
 20
313.1180095081
 11
498.954746585
 21
323.7518315086
  0
LINE
  5
468
100
AcDbEntity
  8
_0-0_0
  6
CONTINUOUS
 62
     0
100
AcDbLine
 10
498.704746585
 20
311.8800055081
 11
498.704746585
 21
312.7433095081
  0
LINE
  5
469
100
AcDbEntity
  8
_0-0_0
  6
CONTINUOUS
 62
     0
100
AcDbLine
 10
498.954746585
 20
323.7518315086
 11
498.954746585
 21
342.3800055096
  0
LINE
  5
46A
100
AcDbEntity
  8
_0-0_0
  6
CONTINUOUS
 62
     0
100
AcDbLine
 10
498.254746585
 20
352.3800055101
 11
498.254746585
 21
343.0800055096
  0
LINE
  5
46B
100
AcDbEntity
  8
_0-0_0
  6
CONTINUOUS
 62
     0
100
AcDbLine
 10
498.954746585
 20
342.3800055096
 11
498.254746585
 21
343.0800055096
  0
LINE
  5
46C
100
AcDbEntity
  8
_0-0_0
  6
CONTINUOUS
 62
     0
100
AcDbLine
 10
494.2047465848
 20
305.9466035078
 11
494.2047465848
 21
351.38000551
  0
LINE
  5
46D
100
AcDbEntity
  8
_0-0_0
  6
CONTINUOUS
 62
     0
100
AcDbLine
 10
544.2047475848
 20
295.656698486
 11
544.2047475848
 21
302.207672486
  0
CIRCLE
  5
46E
100
AcDbEntity
  8
_0-4_図枠
  6
CONTINUOUS
 62
     0
100
AcDbCircle
 10
516.2963082264
 20
425.5476043779
 40
6
  0
CIRCLE
  5
46F
100
AcDbEntity
  8
_0-4_図枠
  6
CONTINUOUS
 62
     0
100
AcDbCircle
 10
532.2752628046
 20
426.0963967617
 40
6
  0
CIRCLE
  5
470
100
AcDbEntity
  8
_0-4_図枠
  6
CONTINUOUS
 62
     0
100
AcDbCircle
 10
539.6838951805
 20
416.0118475621
 40
6
  0
LINE
  5
471
100
AcDbEntity
  8
_0-4_図枠
  6
CONTINUOUS
 62
     0
100
AcDbLine
 10
511.8708409251
 20
367.838224478
 11
536.6838951805
 21
410.8156951394
  0
CIRCLE
  5
472
100
AcDbEntity
  8
_0-4_図枠
  6
CONTINUOUS
 62
     0
100
AcDbCircle
 10
511.8708409251
 20
367.838224478
 40
0.9
  0
CIRCLE
  5
473
100
AcDbEntity
  8
_0-4_図枠
  6
CONTINUOUS
 62
     0
100
AcDbCircle
 10
518.8519001767
 20
338.4733241821
 40
6
  0
LINE
  5
474
100
AcDbEntity
  8
_0-4_図枠
  6
CONTINUOUS
 62
     0
100
AcDbLine
 10
504.0702140449
 20
364.0759555838
 11
515.8519001767
 21
343.6694766048
  0
CIRCLE
  5
475
100
AcDbEntity
  8
_0-4_図枠
  6
CONTINUOUS
 62
     0
100
AcDbCircle
 10
504.0702140449
 20
364.0759555838
 40
0.9
  0
CIRCLE
  5
476
100
AcDbEntity
  8
_0-4_図枠
  6
CONTINUOUS
 62
     0
100
AcDbCircle
 10
517.9615717041
 20
324.6635600024
 40
6
  0
LINE
  5
477
100
AcDbEntity
  8
_0-4_図枠
  6
CONTINUOUS
 62
     0
100
AcDbLine
 10
498.5391860392
 20
358.3041187781
 11
514.9615717041
 21
329.8597124251
  0
CIRCLE
  5
478
100
AcDbEntity
  8
_0-4_図枠
  6
CONTINUOUS
 62
     0
100
AcDbCircle
 10
498.5391860392
 20
358.3041187781
 40
0.9
  0
CIRCLE
  5
479
100
AcDbEntity
  8
_0-4_図枠
  6
CONTINUOUS
 62
     0
100
AcDbCircle
 10
478.1714923807
 20
308.6779556589
 40
6
  0
LINE
  5
47A
100
AcDbEntity
  8
_0-4_図枠
  6
CONTINUOUS
 62
     0
100
AcDbLine
 10
491.2131065755
 20
331.2666940569
 11
481.1714923807
 21
313.8741080816
  0
CIRCLE
  5
47B
100
AcDbEntity
  8
_0-4_図枠
  6
CONTINUOUS
 62
     0
100
AcDbCircle
 10
491.2131065755
 20
331.2666940569
 40
0.9
  0
TEXT
  5
47C
100
AcDbEntity
  8
_0-0_0
  6
CONTINUOUS
 62
     0
100
AcDbText
 10
513.3588408287
 20
304.6634461726
 40
6
  1
５０
  7
STANDARD
100
AcDbText
  0
LINE
  5
47D
100
AcDbEntity
  8
_0-4_図枠
  6
CONTINUOUS
 62
     0
100
AcDbLine
 10
495.8092574053
 20
392.3385329007
 11
513.2963082264
 21
420.3514519552
  0
CIRCLE
  5
47E
100
AcDbEntity
  8
_0-4_図枠
  6
CONTINUOUS
 62
     0
100
AcDbCircle
 10
495.8092574053
 20
392.3385329007
 40
0.9
  0
LINE
  5
47F
100
AcDbEntity
  8
_0-4_図枠
  6
CONTINUOUS
 62
     0
100
AcDbLine
 10
511.3266547501
 20
392.0878847057
 11
529.2752628046
 21
420.900244339
  0
CIRCLE
  5
480
100
AcDbEntity
  8
_0-4_図枠
  6
CONTINUOUS
 62
     0
100
AcDbCircle
 10
511.3266547501
 20
392.0878847057
 40
0.9
  0
LINE
  5
481
100
AcDbEntity
  8
_0-0_0
  6
CONTINUOUS
 62
     0
100
AcDbLine
 10
419.2047475848
 20
351.38000551
 11
544.2047475848
 21
351.38000551
  0
LINE
  5
482
100
AcDbEntity
  8
_0-0_0
  6
CONTINUOUS
 62
     0
100
AcDbLine
 10
419.2047475848
 20
242.26370251
 11
544.2047475848
 21
242.26370251
  0
LINE
  5
483
100
AcDbEntity
  8
_0-0_0
  6
CONTINUOUS
 62
     0
100
AcDbLine
 10
494.2047465848
 20
352.38000751
 11
418.4374211327
 21
352.38000751
  0
LINE
  5
484
100
AcDbEntity
  8
_0-5_ADD_LINE
  6
CONTINUOUS
 62
     0
100
AcDbLine
 10
489.4403148704
 20
367.95796851
 11
498.6277068704
 21
367.47647751
  0
LINE
  5
485
100
AcDbEntity
  8
_0-5_ADD_LINE
  6
CONTINUOUS
 62
     0
100
AcDbLine
 10
479.2224198704
 20
351.9540279817
 11
479.6483973987
 21
352.38000551
  0
ARC
  5
486
100
AcDbEntity
  8
_0-5_ADD_LINE
  6
CONTINUOUS
 62
     0
100
AcDbCircle
 10
479.2224198704
 20
344.13000551
 40
8.25
100
AcDbArc
 50
90
 51
108.9246444161
  0
ARC
  5
487
100
AcDbEntity
  8
_0-5_ADD_LINE
  6
CONTINUOUS
 62
     0
100
AcDbCircle
 10
479.2224198704
 20
344.13000551
 40
9.25
100
AcDbArc
 50
90
 51
108.9246444161
  0
ARC
  5
488
100
AcDbEntity
  8
_0-5_ADD_LINE
  6
CONTINUOUS
 62
     0
100
AcDbCircle
 10
473.2224198704
 20
361.63000551
 40
9.25
100
AcDbArc
 50
-90
 51
-71.07535558395
  0
LINE
  5
489
100
AcDbEntity
  8
_0-5_ADD_LINE
  6
CONTINUOUS
 62
     0
100
AcDbLine
 10
480.062610961
 20
351.38000551
 11
481.062610961
 21
352.38000551
  0
LINE
  5
48A
100
AcDbEntity
  8
_0-5_ADD_LINE
  6
CONTINUOUS
 62
     0
100
AcDbLine
 10
481.4768245234
 20
351.38000551
 11
482.4768245234
 21
352.38000551
  0
LINE
  5
48B
100
AcDbEntity
  8
_0-5_ADD_LINE
  6
CONTINUOUS
 62
     0
100
AcDbLine
 10
482.8910380858
 20
351.38000551
 11
483.8910380858
 21
352.38000551
  0
LINE
  5
48C
100
AcDbEntity
  8
_0-5_ADD_LINE
  6
CONTINUOUS
 62
     0
100
AcDbLine
 10
484.3052516482
 20
351.38000551
 11
485.3052516482
 21
352.38000551
  0
LINE
  5
48D
100
AcDbEntity
  8
_0-5_ADD_LINE
  6
CONTINUOUS
 62
     0
100
AcDbLine
 10
485.7194652105
 20
351.38000551
 11
486.7194652105
 21
352.38000551
  0
LINE
  5
48E
100
AcDbEntity
  8
_0-5_ADD_LINE
  6
CONTINUOUS
 62
     0
100
AcDbLine
 10
487.1336787729
 20
351.38000551
 11
488.1336787729
 21
352.38000551
  0
LINE
  5
48F
100
AcDbEntity
  8
_0-5_ADD_LINE
  6
CONTINUOUS
 62
     0
100
AcDbLine
 10
488.5478923353
 20
351.38000551
 11
489.5478923353
 21
352.38000551
  0
LINE
  5
490
100
AcDbEntity
  8
_0-5_ADD_LINE
  6
CONTINUOUS
 62
     0
100
AcDbLine
 10
489.9621058976
 20
351.38000551
 11
490.9621058976
 21
352.38000551
  0
LINE
  5
491
100
AcDbEntity
  8
_0-5_ADD_LINE
  6
CONTINUOUS
 62
     0
100
AcDbLine
 10
491.37631946
 20
351.38000551
 11
492.37631946
 21
352.38000551
  0
LINE
  5
492
100
AcDbEntity
  8
_0-5_ADD_LINE
  6
CONTINUOUS
 62
     0
100
AcDbLine
 10
492.7905330224
 20
351.38000551
 11
493.7905330224
 21
352.38000551
  0
LINE
  5
493
100
AcDbEntity
  8
_0-5_ADD_LINE
  6
CONTINUOUS
 62
     0
100
AcDbLine
 10
494.2047465848
 20
351.38000551
 11
495.2047465848
 21
352.38000551
  0
LINE
  5
494
100
AcDbEntity
  8
_0-5_ADD_LINE
  6
CONTINUOUS
 62
     0
100
AcDbLine
 10
495.6189601471
 20
351.38000551
 11
496.6189601471
 21
352.38000551
  0
LINE
  5
495
100
AcDbEntity
  8
_0-5_ADD_LINE
  6
CONTINUOUS
 62
     0
100
AcDbLine
 10
497.0331737095
 20
351.38000551
 11
498.0331737095
 21
352.38000551
  0
LINE
  5
496
100
AcDbEntity
  8
_0-5_ADD_LINE
  6
CONTINUOUS
 62
     0
100
AcDbLine
 10
498.4473872719
 20
351.38000551
 11
499.4473872719
 21
352.38000551
  0
LINE
  5
497
100
AcDbEntity
  8
_0-5_ADD_LINE
  6
CONTINUOUS
 62
     0
100
AcDbLine
 10
499.8616008343
 20
351.38000551
 11
500.8616008343
 21
352.38000551
  0
LINE
  5
498
100
AcDbEntity
  8
_0-5_ADD_LINE
  6
CONTINUOUS
 62
     0
100
AcDbLine
 10
501.2758143966
 20
351.38000551
 11
502.2758143966
 21
352.38000551
  0
LINE
  5
499
100
AcDbEntity
  8
_0-5_ADD_LINE
  6
CONTINUOUS
 62
     0
100
AcDbLine
 10
502.690027959
 20
351.38000551
 11
503.690027959
 21
352.38000551
  0
LINE
  5
49A
100
AcDbEntity
  8
_0-5_ADD_LINE
  6
CONTINUOUS
 62
     0
100
AcDbLine
 10
504.1042415214
 20
351.38000551
 11
505.1042415214
 21
352.38000551
  0
LINE
  5
49B
100
AcDbEntity
  8
_0-5_ADD_LINE
  6
CONTINUOUS
 62
     0
100
AcDbLine
 10
505.5184550838
 20
351.38000551
 11
506.5184550838
 21
352.38000551
  0
LINE
  5
49C
100
AcDbEntity
  8
_0-5_ADD_LINE
  6
CONTINUOUS
 62
     0
100
AcDbLine
 10
506.9326686461
 20
351.38000551
 11
507.9326686461
 21
352.38000551
  0
LINE
  5
49D
100
AcDbEntity
  8
_0-5_ADD_LINE
  6
CONTINUOUS
 62
     0
100
AcDbLine
 10
508.3468822085
 20
351.38000551
 11
509.2224198704
 21
352.2555431719
  0
LINE
  5
49E
100
AcDbEntity
  8
_0-5_ADD_LINE
  6
CONTINUOUS
 62
     0
100
AcDbLine
 10
509.2224198704
 20
351.38000551
 11
479.2224198704
 21
351.38000551
  0
LINE
  5
49F
100
AcDbEntity
  8
_0-5_ADD_LINE
  6
CONTINUOUS
 62
     0
100
AcDbLine
 10
479.2224198704
 20
351.38000551
 11
479.2224198704
 21
352.38000551
  0
LINE
  5
4A0
100
AcDbEntity
  8
_0-5_ADD_LINE
  6
CONTINUOUS
 62
     0
100
AcDbLine
 10
479.2224198704
 20
352.38000551
 11
509.2224198704
 21
352.38000551
  0
LINE
  5
4A1
100
AcDbEntity
  8
_0-5_ADD_LINE
  6
CONTINUOUS
 62
     0
100
AcDbLine
 10
509.2224198704
 20
352.38000551
 11
509.2224198704
 21
351.38000551
  0
ARC
  5
4A2
100
AcDbEntity
  8
_0-5_ADD_LINE
  6
CONTINUOUS
 62
     0
100
AcDbCircle
 10
473.2224198704
 20
361.63000551
 40
10.25
100
AcDbArc
 50
-90
 51
-71.07535558395
  0
LINE
  5
4A3
100
AcDbEntity
  8
_0-5_ADD_LINE
  6
CONTINUOUS
 62
     0
100
AcDbLine
 10
503.2224198704
 20
357.48877551
 11
503.2224198704
 21
355.88877651
  0
LINE
  5
4A4
100
AcDbEntity
  8
_0-5_ADD_LINE
  6
CONTINUOUS
 62
     0
100
AcDbLine
 10
503.2224198704
 20
357.48877551
 11
485.2224198704
 21
357.48877551
  0
LINE
  5
4A5
100
AcDbEntity
  8
_0-5_ADD_LINE
  6
CONTINUOUS
 62
     0
100
AcDbLine
 10
485.2224198704
 20
357.48877551
 11
485.2224198704
 21
355.88877651
  0
LINE
  5
4A6
100
AcDbEntity
  8
_0-5_ADD_LINE
  6
CONTINUOUS
 62
     0
100
AcDbLine
 10
488.3424198704
 20
361.75183851
 11
488.3424198704
 21
357.48877551
  0
LINE
  5
4A7
100
AcDbEntity
  8
_0-5_ADD_LINE
  6
CONTINUOUS
 62
     0
100
AcDbLine
 10
489.2724198704
 20
362.28877551
 11
488.3424198704
 21
361.75183851
  0
ARC
  5
4A8
100
AcDbEntity
  8
_0-5_ADD_LINE
  6
CONTINUOUS
 62
     0
100
AcDbCircle
 10
489.2724198704
 20
358.47938151
 40
3.809394
100
AcDbArc
 50
59.210036
 51
90
  0
ARC
  5
4A9
100
AcDbEntity
  8
_0-5_ADD_LINE
  6
CONTINUOUS
 62
     0
100
AcDbCircle
 10
494.2224198704
 20
353.63941551
 40
8.64936
100
AcDbArc
 50
69.705445
 51
110.294555
  0
LINE
  5
4AA
100
AcDbEntity
  8
_0-5_ADD_LINE
  6
CONTINUOUS
 62
     0
100
AcDbLine
 10
491.2224198704
 20
361.75183851
 11
491.2224198704
 21
357.48877551
  0
LINE
  5
4AB
100
AcDbEntity
  8
_0-5_ADD_LINE
  6
CONTINUOUS
 62
     0
100
AcDbLine
 10
497.2224198704
 20
361.75183851
 11
497.2224198704
 21
357.48877551
  0
LINE
  5
4AC
100
AcDbEntity
  8
_0-5_ADD_LINE
  6
CONTINUOUS
 62
     0
100
AcDbLine
 10
500.1024198704
 20
361.75183851
 11
500.1024198704
 21
357.48877551
  0
LINE
  5
4AD
100
AcDbEntity
  8
_0-5_ADD_LINE
  6
CONTINUOUS
 62
     0
100
AcDbLine
 10
499.1724198704
 20
362.28877551
 11
500.1024198704
 21
361.75183851
  0
LINE
  5
4AE
100
AcDbEntity
  8
_0-5_ADD_LINE
  6
CONTINUOUS
 62
     0
100
AcDbLine
 10
489.2724198704
 20
362.28877551
 11
499.1724198704
 21
362.28877551
  0
ARC
  5
4AF
100
AcDbEntity
  8
_0-5_ADD_LINE
  6
CONTINUOUS
 62
     0
100
AcDbCircle
 10
499.1724198704
 20
358.47938151
 40
3.809394
100
AcDbArc
 50
90
 51
120.789964
  0
LINE
  5
4B0
100
AcDbEntity
  8
_0-5_ADD_LINE
  6
CONTINUOUS
 62
     0
100
AcDbLine
 10
489.4926498704
 20
368.95659951
 11
489.4403148704
 21
367.95796851
  0
LINE
  5
4B1
100
AcDbEntity
  8
_0-5_ADD_LINE
  6
CONTINUOUS
 62
     0
100
AcDbLine
 10
498.6800418704
 20
368.47510851
 11
498.6277068704
 21
367.47647751
  0
ARC
  5
4B2
100
AcDbEntity
  8
_0-5_ADD_LINE
  6
CONTINUOUS
 62
     0
100
AcDbCircle
 10
488.4940218704
 20
369.00893451
 40
0.999999
100
AcDbArc
 50
-3.000000000005
 51
87
  0
ARC
  5
4B3
100
AcDbEntity
  8
_0-5_ADD_LINE
  6
CONTINUOUS
 62
     0
100
AcDbCircle
 10
499.6786728704
 20
368.42277051
 40
0.999999
100
AcDbArc
 50
87
 51
177
  0
ARC
  5
4B4
100
AcDbEntity
  8
_0-5_ADD_LINE
  6
CONTINUOUS
 62
     0
100
AcDbCircle
 10
482.2224198704
 20
362.88877551
 40
0.999999
100
AcDbArc
 50
-90
 51
0
  0
LINE
  5
4B5
100
AcDbEntity
  8
_0-5_ADD_LINE
  6
CONTINUOUS
 62
     0
100
AcDbLine
 10
482.2224198704
 20
361.88877651
 11
478.0224198704
 21
361.88877651
  0
ARC
  5
4B6
100
AcDbEntity
  8
_0-5_ADD_LINE
  6
CONTINUOUS
 62
     0
100
AcDbCircle
 10
485.8224198704
 20
369.14894751
 40
0.999999
100
AcDbArc
 50
87
 51
180
  0
LINE
  5
4B7
100
AcDbEntity
  8
_0-5_ADD_LINE
  6
CONTINUOUS
 62
     0
100
AcDbLine
 10
502.6747548704
 20
369.26712651
 11
485.8747548704
 21
370.14757551
  0
ARC
  5
4B8
100
AcDbEntity
  8
_0-5_ADD_LINE
  6
CONTINUOUS
 62
     0
100
AcDbCircle
 10
502.6224198704
 20
368.26849551
 40
0.999999
100
AcDbArc
 50
0
 51
87
  0
LINE
  5
4B9
100
AcDbEntity
  8
_0-5_ADD_LINE
  6
CONTINUOUS
 62
     0
100
AcDbLine
 10
506.2224198704
 20
361.88877651
 11
510.4224198704
 21
361.88877651
  0
ARC
  5
4BA
100
AcDbEntity
  8
_0-5_ADD_LINE
  6
CONTINUOUS
 62
     0
100
AcDbCircle
 10
506.2224198704
 20
362.88877551
 40
0.999999
100
AcDbArc
 50
180
 51
270
  0
LINE
  5
4BB
100
AcDbEntity
  8
_0-5_ADD_LINE
  6
CONTINUOUS
 62
     0
100
AcDbLine
 10
484.8224208704
 20
362.88877551
 11
484.8224208704
 21
369.14894751
  0
ARC
  5
4BC
100
AcDbEntity
  8
_0-5_ADD_LINE
  6
CONTINUOUS
 62
     0
100
AcDbCircle
 10
482.2224198704
 20
362.88877551
 40
2.600001
100
AcDbArc
 50
-90
 51
0
  0
LINE
  5
4BD
100
AcDbEntity
  8
_0-5_ADD_LINE
  6
CONTINUOUS
 62
     0
100
AcDbLine
 10
482.2224198704
 20
360.28877451
 11
477.7224198704
 21
360.28877451
  0
LINE
  5
4BE
100
AcDbEntity
  8
_0-5_ADD_LINE
  6
CONTINUOUS
 62
     0
100
AcDbLine
 10
483.2224188704
 20
369.14894751
 11
483.2224188704
 21
362.88877551
  0
ARC
  5
4BF
100
AcDbEntity
  8
_0-5_ADD_LINE
  6
CONTINUOUS
 62
     0
100
AcDbCircle
 10
485.8224198704
 20
369.14894751
 40
2.600001
100
AcDbArc
 50
87
 51
180
  0
LINE
  5
4C0
100
AcDbEntity
  8
_0-5_ADD_LINE
  6
CONTINUOUS
 62
     0
100
AcDbLine
 10
505.2224208704
 20
368.26849551
 11
505.2224208704
 21
362.88877551
  0
ARC
  5
4C1
100
AcDbEntity
  8
_0-5_ADD_LINE
  6
CONTINUOUS
 62
     0
100
AcDbCircle
 10
502.6224198704
 20
368.26849551
 40
2.600001
100
AcDbArc
 50
0
 51
87
  0
LINE
  5
4C2
100
AcDbEntity
  8
_0-5_ADD_LINE
  6
CONTINUOUS
 62
     0
100
AcDbLine
 10
502.7584938704
 20
370.86493251
 11
485.9584938704
 21
371.74538451
  0
LINE
  5
4C3
100
AcDbEntity
  8
_0-5_ADD_LINE
  6
CONTINUOUS
 62
     0
100
AcDbLine
 10
503.6224188704
 20
362.88877551
 11
503.6224188704
 21
368.26849551
  0
ARC
  5
4C4
100
AcDbEntity
  8
_0-5_ADD_LINE
  6
CONTINUOUS
 62
     0
100
AcDbCircle
 10
506.2224198704
 20
362.88877551
 40
2.600001
100
AcDbArc
 50
180
 51
270
  0
LINE
  5
4C5
100
AcDbEntity
  8
_0-5_ADD_LINE
  6
CONTINUOUS
 62
     0
100
AcDbLine
 10
506.2224198704
 20
360.28877451
 11
510.7224198704
 21
360.28877451
  0
LINE
  5
4C6
100
AcDbEntity
  8
_0-5_ADD_LINE
  6
CONTINUOUS
 62
     0
100
AcDbLine
 10
510.4224198704
 20
359.38877451
 11
508.4724198704
 21
359.38877451
  0
ARC
  5
4C7
100
AcDbEntity
  8
_0-5_ADD_LINE
  6
CONTINUOUS
 62
     0
100
AcDbCircle
 10
510.4224198704
 20
359.68877451
 40
0.3
100
AcDbArc
 50
-90
 51
0
  0
ARC
  5
4C8
100
AcDbEntity
  8
_0-5_ADD_LINE
  6
CONTINUOUS
 62
     0
100
AcDbCircle
 10
510.4224198704
 20
361.58877651
 40
0.3
100
AcDbArc
 50
0
 51
90
  0
LINE
  5
4C9
100
AcDbEntity
  8
_0-5_ADD_LINE
  6
CONTINUOUS
 62
     0
100
AcDbLine
 10
493.7224188704
 20
355.88877651
 11
494.2224198704
 21
355.38877551
  0
LINE
  5
4CA
100
AcDbEntity
  8
_0-5_ADD_LINE
  6
CONTINUOUS
 62
     0
100
AcDbLine
 10
494.7224208704
 20
355.88877651
 11
494.2224198704
 21
355.38877551
  0
LINE
  5
4CB
100
AcDbEntity
  8
_0-5_ADD_LINE
  6
CONTINUOUS
 62
     0
100
AcDbLine
 10
489.2224188704
 20
353.88877551
 11
489.2224188704
 21
353.38877451
  0
LINE
  5
4CC
100
AcDbEntity
  8
_0-5_ADD_LINE
  6
CONTINUOUS
 62
     0
100
AcDbLine
 10
510.2224188704
 20
363.38877651
 11
507.4724208704
 21
363.38877651
  0
ARC
  5
4CD
100
AcDbEntity
  8
_0-5_ADD_LINE
  6
CONTINUOUS
 62
     0
100
AcDbCircle
 10
510.2224188704
 20
363.88877451
 40
0.500001
100
AcDbArc
 50
-90
 51
0
  0
ARC
  5
4CE
100
AcDbEntity
  8
_0-5_ADD_LINE
  6
CONTINUOUS
 62
     0
100
AcDbCircle
 10
507.4724208704
 20
362.63877651
 40
0.75
100
AcDbArc
 50
90
 51
270
  0
LINE
  5
4CF
100
AcDbEntity
  8
_0-5_ADD_LINE
  6
CONTINUOUS
 62
     0
100
AcDbLine
 10
499.2224208704
 20
353.88877551
 11
510.7224198704
 21
353.88877551
  0
LINE
  5
4D0
100
AcDbEntity
  8
_0-5_ADD_LINE
  6
CONTINUOUS
 62
     0
100
AcDbLine
 10
499.2224208704
 20
353.88877551
 11
499.2224208704
 21
353.38877451
  0
ARC
  5
4D1
100
AcDbEntity
  8
_0-5_ADD_LINE
  6
CONTINUOUS
 62
     0
100
AcDbCircle
 10
508.4724198704
 20
358.63877451
 40
0.75
100
AcDbArc
 50
90
 51
270
  0
LINE
  5
4D2
100
AcDbEntity
  8
_0-5_ADD_LINE
  6
CONTINUOUS
 62
     0
100
AcDbLine
 10
510.4224198704
 20
357.88877451
 11
508.4724198704
 21
357.88877451
  0
ARC
  5
4D3
100
AcDbEntity
  8
_0-5_ADD_LINE
  6
CONTINUOUS
 62
     0
100
AcDbCircle
 10
510.4224198704
 20
357.58877451
 40
0.3
100
AcDbArc
 50
0
 51
90
  0
LINE
  5
4D4
100
AcDbEntity
  8
_0-5_ADD_LINE
  6
CONTINUOUS
 62
     0
100
AcDbLine
 10
477.7224198704
 20
353.88877551
 11
489.2224188704
 21
353.88877551
  0
LINE
  5
4D5
100
AcDbEntity
  8
_0-5_ADD_LINE
  6
CONTINUOUS
 62
     0
100
AcDbLine
 10
478.0224198704
 20
359.38877451
 11
479.9724198704
 21
359.38877451
  0
ARC
  5
4D6
100
AcDbEntity
  8
_0-5_ADD_LINE
  6
CONTINUOUS
 62
     0
100
AcDbCircle
 10
478.0224198704
 20
359.68877451
 40
0.3
100
AcDbArc
 50
180
 51
270
  0
LINE
  5
4D7
100
AcDbEntity
  8
_0-5_ADD_LINE
  6
CONTINUOUS
 62
     0
100
AcDbLine
 10
477.7224198704
 20
359.68877451
 11
477.7224198704
 21
361.58877651
  0
ARC
  5
4D8
100
AcDbEntity
  8
_0-5_ADD_LINE
  6
CONTINUOUS
 62
     0
100
AcDbCircle
 10
478.0224198704
 20
361.58877651
 40
0.3
100
AcDbArc
 50
90
 51
180
  0
LINE
  5
4D9
100
AcDbEntity
  8
_0-5_ADD_LINE
  6
CONTINUOUS
 62
     0
100
AcDbLine
 10
476.7224208704
 20
363.38877651
 11
480.9724188704
 21
363.38877651
  0
ARC
  5
4DA
100
AcDbEntity
  8
_0-5_ADD_LINE
  6
CONTINUOUS
 62
     0
100
AcDbCircle
 10
476.7224208704
 20
362.88877551
 40
0.500001
100
AcDbArc
 50
90
 51
180
  0
ARC
  5
4DB
100
AcDbEntity
  8
_0-5_ADD_LINE
  6
CONTINUOUS
 62
     0
100
AcDbCircle
 10
480.9724188704
 20
362.63877651
 40
0.75
100
AcDbArc
 50
-90
 51
90
  0
LINE
  5
4DC
100
AcDbEntity
  8
_0-5_ADD_LINE
  6
CONTINUOUS
 62
     0
100
AcDbLine
 10
476.2224198704
 20
362.88877551
 11
476.2224198704
 21
353.38877451
  0
LINE
  5
4DD
100
AcDbEntity
  8
_0-5_ADD_LINE
  6
CONTINUOUS
 62
     0
100
AcDbLine
 10
477.7224198704
 20
353.88877551
 11
477.7224198704
 21
353.38877451
  0
ARC
  5
4DE
100
AcDbEntity
  8
_0-5_ADD_LINE
  6
CONTINUOUS
 62
     0
100
AcDbCircle
 10
479.9724198704
 20
358.63877451
 40
0.75
100
AcDbArc
 50
-90
 51
90
  0
ARC
  5
4DF
100
AcDbEntity
  8
_0-5_ADD_LINE
  6
CONTINUOUS
 62
     0
100
AcDbCircle
 10
478.0224198704
 20
356.18877651
 40
0.3
100
AcDbArc
 50
180
 51
270
  0
LINE
  5
4E0
100
AcDbEntity
  8
_0-5_ADD_LINE
  6
CONTINUOUS
 62
     0
100
AcDbLine
 10
477.7224198704
 20
356.18877651
 11
477.7224198704
 21
357.58877451
  0
ARC
  5
4E1
100
AcDbEntity
  8
_0-5_ADD_LINE
  6
CONTINUOUS
 62
     0
100
AcDbCircle
 10
478.0224198704
 20
357.58877451
 40
0.3
100
AcDbArc
 50
90
 51
180
  0
LINE
  5
4E2
100
AcDbEntity
  8
_0-5_ADD_LINE
  6
CONTINUOUS
 62
     0
100
AcDbLine
 10
478.0224198704
 20
357.88877451
 11
479.9724198704
 21
357.88877451
  0
ARC
  5
4E3
100
AcDbEntity
  8
_0-5_ADD_LINE
  6
CONTINUOUS
 62
     0
100
AcDbCircle
 10
510.2224188704
 20
356.38877451
 40
0.500001
100
AcDbArc
 50
-90
 51
0
  0
LINE
  5
4E4
100
AcDbEntity
  8
_0-5_ADD_LINE
  6
CONTINUOUS
 62
     0
100
AcDbLine
 10
510.2224188704
 20
355.88877651
 11
478.0224198704
 21
355.88877651
  0
LINE
  5
4E5
100
AcDbEntity
  8
_0-5_ADD_LINE
  6
CONTINUOUS
 62
     0
100
AcDbLine
 10
477.7224198704
 20
353.38877451
 11
476.2224198704
 21
353.38877451
  0
ARC
  5
4E6
100
AcDbEntity
  8
_0-5_ADD_LINE
  6
CONTINUOUS
 62
     0
100
AcDbCircle
 10
511.7224188704
 20
371.38877451
 40
0.999999
100
AcDbArc
 50
0
 51
180
  0
LINE
  5
4E7
100
AcDbEntity
  8
_0-5_ADD_LINE
  6
CONTINUOUS
 62
     0
100
AcDbLine
 10
510.7224198704
 20
363.88877451
 11
510.7224198704
 21
371.38877451
  0
LINE
  5
4E8
100
AcDbEntity
  8
_0-5_ADD_LINE
  6
CONTINUOUS
 62
     0
100
AcDbLine
 10
510.7224198704
 20
359.68877451
 11
510.7224198704
 21
361.58877651
  0
ARC
  5
4E9
100
AcDbEntity
  8
_0-5_ADD_LINE
  6
CONTINUOUS
 62
     0
100
AcDbCircle
 10
513.2224188704
 20
356.38877451
 40
0.500001
100
AcDbArc
 50
180
 51
270
  0
LINE
  5
4EA
100
AcDbEntity
  8
_0-5_ADD_LINE
  6
CONTINUOUS
 62
     0
100
AcDbLine
 10
512.7224208704
 20
354.38877651
 11
512.7224208704
 21
353.38877451
  0
LINE
  5
4EB
100
AcDbEntity
  8
_0-5_ADD_LINE
  6
CONTINUOUS
 62
     0
100
AcDbLine
 10
510.7224198704
 20
353.88877551
 11
510.7224198704
 21
353.38877451
  0
LINE
  5
4EC
100
AcDbEntity
  8
_0-5_ADD_LINE
  6
CONTINUOUS
 62
     0
100
AcDbLine
 10
510.7224198704
 20
356.38877451
 11
510.7224198704
 21
357.58877451
  0
LINE
  5
4ED
100
AcDbEntity
  8
_0-5_ADD_LINE
  6
CONTINUOUS
 62
     0
100
AcDbLine
 10
523.2224208704
 20
354.38877651
 11
523.2224208704
 21
353.38877451
  0
LINE
  5
4EE
100
AcDbEntity
  8
_0-5_ADD_LINE
  6
CONTINUOUS
 62
     0
100
AcDbLine
 10
524.7224208704
 20
353.38877451
 11
523.2224208704
 21
353.38877451
  0
LINE
  5
4EF
100
AcDbEntity
  8
_0-5_ADD_LINE
  6
CONTINUOUS
 62
     0
100
AcDbLine
 10
512.7224208704
 20
353.38877451
 11
510.7224198704
 21
353.38877451
  0
LINE
  5
4F0
100
AcDbEntity
  8
_0-5_ADD_LINE
  6
CONTINUOUS
 62
     0
100
AcDbLine
 10
524.7224208704
 20
355.38877651
 11
524.7224208704
 21
353.38877451
  0
ARC
  5
4F1
100
AcDbEntity
  8
_0-5_ADD_LINE
  6
CONTINUOUS
 62
     0
100
AcDbCircle
 10
524.2224208704
 20
355.38877651
 40
0.5
100
AcDbArc
 50
0
 51
90
  0
LINE
  5
4F2
100
AcDbEntity
  8
_0-5_ADD_LINE
  6
CONTINUOUS
 62
     0
100
AcDbLine
 10
512.9724208704
 20
359.13877651
 11
514.2224208704
 21
359.13877651
  0
LINE
  5
4F3
100
AcDbEntity
  8
_0-5_ADD_LINE
  6
CONTINUOUS
 62
     0
100
AcDbLine
 10
517.2224208704
 20
359.13877651
 11
518.4724208704
 21
359.13877651
  0
LINE
  5
4F4
100
AcDbEntity
  8
_0-5_ADD_LINE
  6
CONTINUOUS
 62
     0
100
AcDbLine
 10
514.2224208704
 20
359.13877651
 11
514.2224208704
 21
378.05833237
  0
LINE
  5
4F5
100
AcDbEntity
  8
_0-5_ADD_LINE
  6
CONTINUOUS
 62
     0
100
AcDbLine
 10
517.2224208704
 20
359.13877651
 11
517.2224208704
 21
379.521595366
  0
LINE
  5
4F6
100
AcDbEntity
  8
_0-5_ADD_LINE
  6
CONTINUOUS
 62
     0
100
AcDbLine
 10
512.7224208704
 20
354.38877651
 11
520.2283697442
 21
354.38877651
  0
LINE
  5
4F7
100
AcDbEntity
  8
_0-5_ADD_LINE
  6
CONTINUOUS
 62
     0
100
AcDbLine
 10
520.2283697442
 20
354.38877651
 11
523.2224208704
 21
354.38877651
  0
LINE
  5
4F8
100
AcDbEntity
  8
_0-5_ADD_LINE
  6
CONTINUOUS
 62
     0
100
AcDbLine
 10
518.2224208704
 20
355.88877651
 11
513.2224188704
 21
355.88877651
  0
LINE
  5
4F9
100
AcDbEntity
  8
_0-5_ADD_LINE
  6
CONTINUOUS
 62
     0
100
AcDbLine
 10
524.2224208704
 20
355.88877651
 11
520.2224208704
 21
355.88877651
  0
ARC
  5
4FA
100
AcDbEntity
  8
_0-5_ADD_LINE
  6
CONTINUOUS
 62
     0
100
AcDbCircle
 10
518.2224208704
 20
356.38877651
 40
0.25
100
AcDbArc
 50
-90
 51
0
  0
ARC
  5
4FB
100
AcDbEntity
  8
_0-5_ADD_LINE
  6
CONTINUOUS
 62
     0
100
AcDbCircle
 10
513.2224188704
 20
356.38877451
 40
0.250001
100
AcDbArc
 50
180
 51
270
  0
LINE
  5
4FC
100
AcDbEntity
  8
_0-5_ADD_LINE
  6
CONTINUOUS
 62
     0
100
AcDbLine
 10
518.4724208704
 20
356.38877651
 11
518.4724208704
 21
359.13877651
  0
LINE
  5
4FD
100
AcDbEntity
  8
_0-5_ADD_LINE
  6
CONTINUOUS
 62
     0
100
AcDbLine
 10
512.9724208704
 20
356.38877451
 11
512.9724208704
 21
359.13877651
  0
LINE
  5
4FE
100
AcDbEntity
  8
_0-5_ADD_LINE
  6
CONTINUOUS
 62
     0
100
AcDbLine
 10
518.2224208704
 20
356.13877651
 11
513.2224188704
 21
356.13877651
  0
LINE
  5
4FF
100
AcDbEntity
  8
_0-5_ADD_LINE
  6
CONTINUOUS
 62
     0
100
AcDbLine
 10
512.7224208704
 20
371.38877451
 11
512.7224208704
 21
360.88877651
  0
LINE
  5
500
100
AcDbEntity
  8
_0-5_ADD_LINE
  6
CONTINUOUS
 62
     0
100
AcDbLine
 10
512.7224208704
 20
359.38877651
 11
512.7224208704
 21
356.38877451
  0
LINE
  5
501
100
AcDbEntity
  8
_0-5_ADD_LINE
  6
CONTINUOUS
 62
     0
100
AcDbLine
 10
518.7224208704
 20
356.38877651
 11
518.7224208704
 21
359.38877651
  0
LINE
  5
502
100
AcDbEntity
  8
_0-5_ADD_LINE
  6
CONTINUOUS
 62
     0
100
AcDbLine
 10
520.2224208704
 20
360.38877651
 11
520.2224208704
 21
355.88877651
  0
ARC
  5
503
100
AcDbEntity
  8
_0-5_ADD_LINE
  6
CONTINUOUS
 62
     0
100
AcDbCircle
 10
519.7224208704
 20
360.38877651
 40
0.5
100
AcDbArc
 50
0
 51
90
  0
ARC
  5
504
100
AcDbEntity
  8
_0-5_ADD_LINE
  6
CONTINUOUS
 62
     0
100
AcDbCircle
 10
518.2224208704
 20
356.38877651
 40
0.5
100
AcDbArc
 50
-90
 51
0
  0
LINE
  5
505
100
AcDbEntity
  8
_0-5_ADD_LINE
  6
CONTINUOUS
 62
     0
100
AcDbLine
 10
519.7224208704
 20
360.88877651
 11
518.4724208704
 21
360.88877651
  0
ARC
  5
506
100
AcDbEntity
  8
_0-5_ADD_LINE
  6
CONTINUOUS
 62
     0
100
AcDbCircle
 10
518.4724208704
 20
359.88877651
 40
1
100
AcDbArc
 50
90
 51
180
  0
LINE
  5
507
100
AcDbEntity
  8
_0-5_ADD_LINE
  6
CONTINUOUS
 62
     0
100
AcDbLine
 10
517.4724208704
 20
359.88877651
 11
517.4724208704
 21
359.38877651
  0
LINE
  5
508
100
AcDbEntity
  8
_0-5_ADD_LINE
  6
CONTINUOUS
 62
     0
100
AcDbLine
 10
517.4724208704
 20
359.38877651
 11
518.7224208704
 21
359.38877651
  0
LINE
  5
509
100
AcDbEntity
  8
_0-5_ADD_LINE
  6
CONTINUOUS
 62
     0
100
AcDbLine
 10
512.7224208704
 20
359.38877651
 11
513.9724208704
 21
359.38877651
  0
LINE
  5
50A
100
AcDbEntity
  8
_0-5_ADD_LINE
  6
CONTINUOUS
 62
     0
100
AcDbLine
 10
513.9724208704
 20
359.88877651
 11
513.9724208704
 21
359.38877651
  0
ARC
  5
50B
100
AcDbEntity
  8
_0-5_ADD_LINE
  6
CONTINUOUS
 62
     0
100
AcDbCircle
 10
512.9724208704
 20
359.88877651
 40
1
100
AcDbArc
 50
0
 51
90
  0
LINE
  5
50C
100
AcDbEntity
  8
_0-5_ADD_LINE
  6
CONTINUOUS
 62
     0
100
AcDbLine
 10
512.9724208704
 20
360.88877651
 11
512.7224208704
 21
360.88877651
  0
LINE
  5
50D
100
AcDbEntity
  8
_0-5_ADD_LINE
  6
CONTINUOUS
 62
     0
100
AcDbLine
 10
479.2224198704
 20
353.38000551
 11
509.2224198704
 21
353.38000551
  0
LINE
  5
50E
100
AcDbEntity
  8
_0-5_ADD_LINE
  6
CONTINUOUS
 62
     0
100
AcDbLine
 10
509.2224198704
 20
352.38000551
 11
509.2224198704
 21
353.38000551
  0
LINE
  5
50F
100
AcDbEntity
  8
_0-5_ADD_LINE
  6
CONTINUOUS
 62
     0
100
AcDbLine
 10
484.2641797354
 20
398.0740668604
 11
507.2326597354
 21
396.8703408604
  0
LINE
  5
510
100
AcDbEntity
  8
_0-5_ADD_LINE
  6
CONTINUOUS
 62
     0
100
AcDbLine
 10
470.8166107354
 20
385.8571578604
 11
484.2641797354
 21
398.0740668604
  0
LINE
  5
511
100
AcDbEntity
  8
_0-5_ADD_LINE
  6
CONTINUOUS
 62
     0
100
AcDbLine
 10
466.9677877354
 20
388.0637838604
 11
467.6290237354
 21
388.5140838604
  0
LINE
  5
512
100
AcDbEntity
  8
_0-5_ADD_LINE
  6
CONTINUOUS
 62
     0
100
AcDbLine
 10
467.6290237354
 20
388.5140838604
 11
469.3176397354
 21
386.0344518604
  0
LINE
  5
513
100
AcDbEntity
  8
_0-5_ADD_LINE
  6
CONTINUOUS
 62
     0
100
AcDbLine
 10
466.9677877354
 20
388.0637838604
 11
468.6564037354
 21
385.5841518604
  0
ARC
  5
514
100
AcDbEntity
  8
_0-5_ADD_LINE
  6
CONTINUOUS
 62
     0
100
AcDbCircle
 10
470.1441817354
 20
386.5973238604
 40
0.999999
100
AcDbArc
 50
-145.745342
 51
-47.745348
  0
ARC
  5
515
100
AcDbEntity
  8
_0-5_ADD_LINE
  6
CONTINUOUS
 62
     0
100
AcDbCircle
 10
470.1441817354
 20
386.5973238604
 40
1.8
100
AcDbArc
 50
-145.745342
 51
-47.745349
  0
ARC
  5
516
100
AcDbEntity
  8
_0-5_ADD_LINE
  6
CONTINUOUS
 62
     0
100
AcDbCircle
 10
495.6699157354
 20
395.9742588604
 40
6.3
100
AcDbArc
 50
37.903458
 51
136.096542
  0
LINE
  5
517
100
AcDbEntity
  8
_0-5_ADD_LINE
  6
CONTINUOUS
 62
     0
100
AcDbLine
 10
490.5744667354
 20
399.0607458604
 11
490.5056137354
 21
397.7469678604
  0
LINE
  5
518
100
AcDbEntity
  8
_0-5_ADD_LINE
  6
CONTINUOUS
 62
     0
100
AcDbLine
 10
501.0600757354
 20
398.5112178604
 11
500.9912257354
 21
397.1974398604
  0
ARC
  5
519
100
AcDbEntity
  8
_0-5_ADD_LINE
  6
CONTINUOUS
 62
     0
100
AcDbCircle
 10
492.5717257354
 20
398.9560758604
 40
2.000001
100
AcDbArc
 50
136.096542
 51
177
  0
LINE
  5
51A
100
AcDbEntity
  8
_0-5_ADD_LINE
  6
CONTINUOUS
 62
     0
100
AcDbLine
 10
471.3545497354
 20
385.2650268604
 11
484.5553087354
 21
397.2577128604
  0
LINE
  5
51B
100
AcDbEntity
  8
_0-5_ADD_LINE
  6
CONTINUOUS
 62
     0
100
AcDbLine
 10
484.5553087354
 20
397.2577128604
 11
506.8986367354
 21
396.0867468604
  0
LINE
  5
51C
100
AcDbEntity
  8
_0-5_ADD_LINE
  6
CONTINUOUS
 62
     0
100
AcDbLine
 10
518.7326587354
 20
382.7820468604
 11
506.8577917354
 21
396.0888888604
  0
ARC
  5
51D
100
AcDbEntity
  8
_0-5_ADD_LINE
  6
CONTINUOUS
 62
     0
100
AcDbCircle
 10
499.0628167354
 20
398.6158908604
 40
2.000001
100
AcDbArc
 50
-2.999999999999
 51
37.903458
  0
LINE
  5
51E
100
AcDbEntity
  8
_0-5_ADD_LINE
  6
CONTINUOUS
 62
     0
100
AcDbLine
 10
523.3879417354
 20
385.1069298604
 11
522.7773967354
 21
385.6238778604
  0
LINE
  5
51F
100
AcDbEntity
  8
_0-5_ADD_LINE
  6
CONTINUOUS
 62
     0
100
AcDbLine
 10
522.7773967354
 20
385.6238778604
 11
520.8388387354
 21
383.3343378604
  0
LINE
  5
520
100
AcDbEntity
  8
_0-5_ADD_LINE
  6
CONTINUOUS
 62
     0
100
AcDbLine
 10
523.3879417354
 20
385.1069298604
 11
521.4493837354
 21
382.8173898604
  0
ARC
  5
521
100
AcDbEntity
  8
_0-5_ADD_LINE
  6
CONTINUOUS
 62
     0
100
AcDbCircle
 10
520.0756597354
 20
383.9805258604
 40
0.999999
100
AcDbArc
 50
-138.254652
 51
-40.254658
  0
LINE
  5
522
100
AcDbEntity
  8
_0-5_ADD_LINE
  6
CONTINUOUS
 62
     0
100
AcDbLine
 10
519.3295477354
 20
383.3147028604
 11
507.2326597354
 21
396.8703408604
  0
ARC
  5
523
100
AcDbEntity
  8
_0-5_ADD_LINE
  6
CONTINUOUS
 62
     0
100
AcDbCircle
 10
520.0756597354
 20
383.9805258604
 40
1.8
100
AcDbArc
 50
-138.254651
 51
-40.254658
  0
LINE
  5
524
100
AcDbEntity
  8
_0-5_ADD_LINE
  6
CONTINUOUS
 62
     0
100
AcDbLine
 10
496.0549177354
 20
403.3205538604
 11
493.9086500886
 21
364.6536569249
  0
LINE
  5
525
100
AcDbEntity
  8
_0-5_ADD_LINE
  6
CONTINUOUS
 62
     0
100
AcDbLine
 10
498.2449927354
 20
397.3413648604
 11
496.5145340162
 21
367.3908832372
  0
LINE
  5
526
100
AcDbEntity
  8
_0-5_ADD_LINE
  6
CONTINUOUS
 62
     0
100
AcDbLine
 10
498.7443097354
 20
397.3151958604
 11
497.0426881001
 21
367.86389005
  0
LINE
  5
527
100
AcDbEntity
  8
_0-5_ADD_LINE
  6
CONTINUOUS
 62
     0
100
AcDbLine
 10
491.0509120253
 20
368.1779054593
 11
497.0426881001
 21
367.86389005
  0
LINE
  5
528
100
AcDbEntity
  8
_0-5_ADD_LINE
  6
CONTINUOUS
 62
     0
100
AcDbLine
 10
491.3368908934
 20
367.8585731336
 11
491.0509120253
 21
368.1779054593
  0
LINE
  5
529
100
AcDbEntity
  8
_0-5_ADD_LINE
  6
CONTINUOUS
 62
     0
100
AcDbLine
 10
491.5213838545
 20
367.6525629248
 11
496.5145340162
 21
367.3908832372
  0
LINE
  5
52A
100
AcDbEntity
  8
_0-5_ADD_LINE
  6
CONTINUOUS
 62
     0
100
AcDbLine
 10
491.5213838545
 20
367.6525629248
 11
491.3368908934
 21
367.8585731336
  0
LINE
  5
52B
100
AcDbEntity
  8
_0-5_ADD_LINE
  6
CONTINUOUS
 62
     0
100
AcDbLine
 10
496.7216463878
 20
367.5763699461
 11
496.5145340162
 21
367.3908832372
  0
LINE
  5
52C
100
AcDbEntity
  8
_0-5_ADD_LINE
  6
CONTINUOUS
 62
     0
100
AcDbLine
 10
497.0426881001
 20
367.86389005
 11
496.7216463878
 21
367.5763699461
  0
LINE
  5
52D
100
AcDbEntity
  8
_0-5_ADD_LINE
  6
CONTINUOUS
 62
     0
100
AcDbLine
 10
493.2518467354
 20
397.6030428604
 11
491.5213838545
 21
367.6525629248
  0
LINE
  5
52E
100
AcDbEntity
  8
_0-5_ADD_LINE
  6
CONTINUOUS
 62
     0
100
AcDbLine
 10
492.7525297354
 20
397.6292118604
 11
491.0509120253
 21
368.1779054593
  0
ARC
  5
52F
100
AcDbEntity
  8
_0-5_ADD_LINE
  6
CONTINUOUS
 62
     0
100
AcDbCircle
 10
540.2983664644
 20
378.789963868
 40
23.08754100601
100
AcDbArc
 50
80.80133910481
 51
181.8159758207
  0
ARC
  5
530
100
AcDbEntity
  8
_0-5_ADD_LINE
  6
CONTINUOUS
 62
     0
100
AcDbCircle
 10
539.2224208704
 20
378.05833237
 40
25
100
AcDbArc
 50
78.59045565079
 51
180
  0
ARC
  5
531
100
AcDbEntity
  8
_0-5_ADD_LINE
  6
CONTINUOUS
 62
     0
100
AcDbCircle
 10
544.0690263427
 20
402.0741691323
 40
0.5
100
AcDbArc
 50
-99.19866089519
 51
78.59045565079
  0
CIRCLE
  5
532
100
AcDbEntity
  8
_0-4_図枠
  6
CONTINUOUS
 62
     0
100
AcDbCircle
 10
544.2752791825
 20
402.4148781186
 40
0.9
  0
LINE
  5
533
100
AcDbEntity
  8
_0-4_図枠
  6
CONTINUOUS
 62
     0
100
AcDbLine
 10
544.2752791825
 20
402.4148781186
 11
557.2332849854
 21
425.6598187825
  0
CIRCLE
  5
534
100
AcDbEntity
  8
_0-4_図枠
  6
CONTINUOUS
 62
     0
100
AcDbCircle
 10
560.2332849854
 20
430.8559712052
 40
6
  0
CIRCLE
  5
535
100
AcDbEntity
  8
_0-4_図枠
  6
CONTINUOUS
 62
     0
100
AcDbCircle
 10
197.1564178853
 20
340.5661294993
 40
6
  0
LINE
  5
536
100
AcDbEntity
  8
_0-4_図枠
  6
CONTINUOUS
 62
     0
100
AcDbLine
 10
180.2731306989
 20
311.3234182937
 11
194.1564178853
 21
335.3699770766
  0
CIRCLE
  5
537
100
AcDbEntity
  8
_0-4_図枠
  6
CONTINUOUS
 62
     0
100
AcDbCircle
 10
180.2731306989
 20
311.3234182937
 40
0.9
  0
TEXT
  5
538
100
AcDbEntity
  8
_0-0_0
  6
CONTINUOUS
 62
     0
100
AcDbText
 10
274.0273334594
 20
243.0852452549
 40
6
  1
２５０
  7
STANDARD
100
AcDbText
  0
TEXT
  5
539
100
AcDbEntity
  8
_0-4_図枠
  6
CONTINUOUS
 62
     0
100
AcDbText
 10
15.61598143415
 20
570.6648605075
 40
9
  1
◇アルミ２５０タイプ（２５０ＦＹＫＧ－Ａ）
  7
STANDARD
100
AcDbText
  0
LINE
  5
53A
100
AcDbEntity
  8
_0-4_図枠
  6
CONTINUOUS
 62
     0
100
AcDbLine
 10
403
 20
169.1520396122
 11
470
 21
169.1520396122
  0
LINE
  5
53B
100
AcDbEntity
  8
_0-4_図枠
  6
CONTINUOUS
 62
     0
100
AcDbLine
 10
402
 20
169.1520396122
 11
335
 21
169.1520396122
  0
LINE
  5
53C
100
AcDbEntity
  8
_0-4_図枠
  6
CONTINUOUS
 62
     0
100
AcDbLine
 10
125
 20
25.15203961224
 11
125
 21
223.1520396122
  0
LINE
  5
53D
100
AcDbEntity
  8
_0-4_図枠
  6
CONTINUOUS
 62
     0
100
AcDbLine
 10
139
 20
25.15203961224
 11
139
 21
223.1520396122
  0
LINE
  5
53E
100
AcDbEntity
  8
_0-4_図枠
  6
CONTINUOUS
 62
     0
100
AcDbLine
 10
239
 20
25.15203961224
 11
239
 21
223.1520396122
  0
LINE
  5
53F
100
AcDbEntity
  8
_0-4_図枠
  6
CONTINUOUS
 62
     0
100
AcDbLine
 10
334
 20
25.15203961224
 11
334
 21
223.1520396122
  0
LINE
  5
540
100
AcDbEntity
  8
_0-4_図枠
  6
CONTINUOUS
 62
     0
100
AcDbLine
 10
335
 20
25.15203961224
 11
335
 21
223.1520396122
  0
LINE
  5
541
100
AcDbEntity
  8
_0-4_図枠
  6
CONTINUOUS
 62
     0
100
AcDbLine
 10
370
 20
25.15203961224
 11
370
 21
223.1520396122
  0
LINE
  5
542
100
AcDbEntity
  8
_0-4_図枠
  6
CONTINUOUS
 62
     0
100
AcDbLine
 10
388
 20
25.15203961224
 11
388
 21
223.1520396122
  0
LINE
  5
543
100
AcDbEntity
  8
_0-4_図枠
  6
CONTINUOUS
 62
     0
100
AcDbLine
 10
402
 20
25.15203961224
 11
402
 21
223.1520396122
  0
LINE
  5
544
100
AcDbEntity
  8
_0-4_図枠
  6
CONTINUOUS
 62
     0
100
AcDbLine
 10
403
 20
25.15203961224
 11
403
 21
223.1520396122
  0
LINE
  5
545
100
AcDbEntity
  8
_0-4_図枠
  6
CONTINUOUS
 62
     0
100
AcDbLine
 10
438
 20
25.15203961224
 11
438
 21
223.1520396122
  0
LINE
  5
546
100
AcDbEntity
  8
_0-4_図枠
  6
CONTINUOUS
 62
     0
100
AcDbLine
 10
456
 20
25.15203961224
 11
456
 21
223.1520396122
  0
LINE
  5
547
100
AcDbEntity
  8
_0-4_図枠
  6
CONTINUOUS
 62
     0
100
AcDbLine
 10
470
 20
25.15203961224
 11
470
 21
223.1520396122
  0
LINE
  5
548
100
AcDbEntity
  8
_0-0_0
  6
CONTINUOUS
 62
     0
100
AcDbLine
 10
162.4047465848
 20
479.4297062129
 11
164.0957938819
 21
481.12075351
  0
LINE
  5
549
100
AcDbEntity
  8
_0-0_0
  6
CONTINUOUS
 62
     0
100
AcDbLine
 10
162.4047465848
 20
476.6012790882
 11
166.9242210066
 21
481.12075351
  0
LINE
  5
54A
100
AcDbEntity
  8
_0-0_0
  6
CONTINUOUS
 62
     0
100
AcDbLine
 10
162.4047465848
 20
473.7728519634
 11
169.0149753235
 21
480.3830807022
  0
LINE
  5
54B
100
AcDbEntity
  8
_0-0_0
  6
CONTINUOUS
 62
     0
100
AcDbLine
 10
162.4047465848
 20
470.9444248387
 11
168.3975149468
 21
476.9371932008
  0
LINE
  5
54C
100
AcDbEntity
  8
_0-0_0
  6
CONTINUOUS
 62
     0
100
AcDbLine
 10
162.4047465848
 20
468.1159977139
 11
168.206286152
 21
473.9175372812
  0
LINE
  5
54D
100
AcDbEntity
  8
_0-0_0
  6
CONTINUOUS
 62
     0
100
AcDbLine
 10
191.6001347082
 20
271.6629862153
 11
170.1201868429
 21
351.8272429924
  0
LINE
  5
54E
100
AcDbEntity
  8
_0-0_0
  6
CONTINUOUS
 62
     0
100
AcDbLine
 10
190.5648585278
 20
271.6629862153
 11
169.2047475848
 21
351.38000551
  0
LINE
  5
54F
100
AcDbEntity
  8
_0-0_0
  6
CONTINUOUS
 62
     0
100
AcDbLine
 10
396.8093604613
 20
271.6629862153
 11
418.4374211327
 21
352.38000751
  0
LINE
  5
550
100
AcDbEntity
  8
_0-0_0
  6
CONTINUOUS
 62
     0
100
AcDbLine
 10
397.8446366417
 20
271.6629862153
 11
419.2047475848
 21
351.38000551
  0
TEXT
  5
551
100
AcDbEntity
  8
_0-0_0
  6
CONTINUOUS
 62
     0
100
AcDbText
 10
608.7239167543
 20
242.5481646774
 40
6
  1
１５０
  7
STANDARD
100
AcDbText
  0
TEXT
  5
552
100
AcDbEntity
  8
_0-0_0
  6
CONTINUOUS
 62
     0
100
AcDbText
 10
480.5692556322
 20
243.1568818549
 40
6
  1
Ｃ
  7
STANDARD
100
AcDbText
  0
TEXT
  5
553
100
AcDbEntity
  8
_0-4_図枠
  6
CONTINUOUS
 62
     0
100
AcDbText
 10
575
 20
206.6520396122
 40
5
  1
550
  7
STANDARD
100
AcDbText
  0
TEXT
  5
554
100
AcDbEntity
  8
_0-4_図枠
  6
CONTINUOUS
 62
     0
100
AcDbText
 10
605
 20
206.6520396122
 40
5
  1
535
  7
STANDARD
100
AcDbText
  0
TEXT
  5
555
100
AcDbEntity
  8
_0-4_図枠
  6
CONTINUOUS
 62
     0
100
AcDbText
 10
666.75
 20
206.6520396122
 40
5
  1
71
  7
STANDARD
100
AcDbText
  0
TEXT
  5
556
100
AcDbEntity
  8
_0-4_図枠
  6
CONTINUOUS
 62
     0
100
AcDbText
 10
695
 20
206.6520396122
 40
5
  1
130
  7
STANDARD
100
AcDbText
  0
TEXT
  5
557
100
AcDbEntity
  8
_0-0_0
  6
CONTINUOUS
 62
     0
100
AcDbText
 10
575
 20
197.6520396122
 40
5
  1
575
  7
STANDARD
100
AcDbText
  0
TEXT
  5
558
100
AcDbEntity
  8
_0-0_0
  6
CONTINUOUS
 62
     0
100
AcDbText
 10
605
 20
197.6520396122
 40
5
  1
560
  7
STANDARD
100
AcDbText
  0
TEXT
  5
559
100
AcDbEntity
  8
_0-0_0
  6
CONTINUOUS
 62
     0
100
AcDbText
 10
666.75
 20
197.6520396122
 40
5
  1
72
  7
STANDARD
100
AcDbText
  0
TEXT
  5
55A
100
AcDbEntity
  8
_0-0_0
  6
CONTINUOUS
 62
     0
100
AcDbText
 10
695
 20
197.6520396122
 40
5
  1
131
  7
STANDARD
100
AcDbText
  0
TEXT
  5
55B
100
AcDbEntity
  8
_0-4_図枠
  6
CONTINUOUS
 62
     0
100
AcDbText
 10
635
 20
206.6520396122
 40
5
  1
125
  7
STANDARD
100
AcDbText
  0
TEXT
  5
55C
100
AcDbEntity
  8
_0-0_0
  6
CONTINUOUS
 62
     0
100
AcDbText
 10
635
 20
197.6520396122
 40
5
  1
150
  7
STANDARD
100
AcDbText
  0
LINE
  5
55D
100
AcDbEntity
  8
_0-4_図枠
  6
CONTINUOUS
 62
     0
100
AcDbLine
 10
490
 20
223.1520396122
 11
490
 21
196.1520396122
  0
LINE
  5
55E
100
AcDbEntity
  8
_0-4_図枠
  6
CONTINUOUS
 62
     0
100
AcDbLine
 10
565
 20
223.1520396122
 11
565
 21
196.1520396122
  0
LINE
  5
55F
100
AcDbEntity
  8
_0-4_図枠
  6
CONTINUOUS
 62
     0
100
AcDbLine
 10
595
 20
223.1520396122
 11
595
 21
196.1520396122
  0
LINE
  5
560
100
AcDbEntity
  8
_0-4_図枠
  6
CONTINUOUS
 62
     0
100
AcDbLine
 10
625
 20
223.1520396122
 11
625
 21
196.1520396122
  0
LINE
  5
561
100
AcDbEntity
  8
_0-4_図枠
  6
CONTINUOUS
 62
     0
100
AcDbLine
 10
655
 20
223.1520396122
 11
655
 21
196.1520396122
  0
LINE
  5
562
100
AcDbEntity
  8
_0-4_図枠
  6
CONTINUOUS
 62
     0
100
AcDbLine
 10
685
 20
223.1520396122
 11
685
 21
196.1520396122
  0
LINE
  5
563
100
AcDbEntity
  8
_0-4_図枠
  6
CONTINUOUS
 62
     0
100
AcDbLine
 10
715
 20
223.1520396122
 11
715
 21
196.1520396122
  0
TEXT
  5
564
100
AcDbEntity
  8
_0-4_図枠
  6
CONTINUOUS
 62
     0
100
AcDbText
 10
494.8116580619
 20
206.7662849297
 40
5
  1
２５０ＦＹＫＧ－Ａ５５０
  7
STANDARD
100
AcDbText
  0
TEXT
  5
565
100
AcDbEntity
  8
_0-0_0
  6
CONTINUOUS
 62
     0
100
AcDbText
 10
499.75
 20
197.6520396122
 40
5
  1
　　  〃　 　５７５
  7
STANDARD
100
AcDbText
  0
TEXT
  5
566
100
AcDbEntity
  8
_0-4_図枠
  6
CONTINUOUS
 62
     0
100
AcDbText
 10
244
 20
206.6520396122
 40
5
  1
２５０ＦＹＫＧ－Ａ５５０～５７５
  7
STANDARD
100
AcDbText
  0
TEXT
  5
567
100
AcDbEntity
  8
_0-4_図枠
  6
CONTINUOUS
 62
     0
100
AcDbText
 10
460
 20
35.65203961224
 40
5
  1
〃
  7
STANDARD
100
AcDbText
  0
TEXT
  5
568
100
AcDbEntity
  8
_0-4_図枠
  6
CONTINUOUS
 62
     0
100
AcDbText
 10
460
 20
44.65203961224
 40
5
  1
枚
  7
STANDARD
100
AcDbText
  0
TEXT
  5
569
100
AcDbEntity
  8
_0-4_図枠
  6
CONTINUOUS
 62
     0
100
AcDbText
 10
460
 20
53.65203961224
 40
5
  1
〃
  7
STANDARD
100
AcDbText
  0
TEXT
  5
56A
100
AcDbEntity
  8
_0-4_図枠
  6
CONTINUOUS
 62
     0
100
AcDbText
 10
460
 20
62.65203961224
 40
5
  1
〃
  7
STANDARD
100
AcDbText
  0
TEXT
  5
56B
100
AcDbEntity
  8
_0-4_図枠
  6
CONTINUOUS
 62
     0
100
AcDbText
 10
460
 20
71.65203961224
 40
5
  1
〃
  7
STANDARD
100
AcDbText
  0
TEXT
  5
56C
100
AcDbEntity
  8
_0-4_図枠
  6
CONTINUOUS
 62
     0
100
AcDbText
 10
460
 20
80.65203961224
 40
5
  1
〃
  7
STANDARD
100
AcDbText
  0
TEXT
  5
56D
100
AcDbEntity
  8
_0-4_図枠
  6
CONTINUOUS
 62
     0
100
AcDbText
 10
460
 20
89.65203961224
 40
5
  1
〃
  7
STANDARD
100
AcDbText
  0
TEXT
  5
56E
100
AcDbEntity
  8
_0-4_図枠
  6
CONTINUOUS
 62
     0
100
AcDbText
 10
460
 20
98.65203961224
 40
5
  1
〃
  7
STANDARD
100
AcDbText
  0
TEXT
  5
56F
100
AcDbEntity
  8
_0-4_図枠
  6
CONTINUOUS
 62
     0
100
AcDbText
 10
460
 20
107.6520396122
 40
5
  1
本
  7
STANDARD
100
AcDbText
  0
TEXT
  5
570
100
AcDbEntity
  8
_0-4_図枠
  6
CONTINUOUS
 62
     0
100
AcDbText
 10
460
 20
116.6520396122
 40
5
  1
〃
  7
STANDARD
100
AcDbText
  0
TEXT
  5
571
100
AcDbEntity
  8
_0-4_図枠
  6
CONTINUOUS
 62
     0
100
AcDbText
 10
460
 20
125.6520396122
 40
5
  1
枚
  7
STANDARD
100
AcDbText
  0
TEXT
  5
572
100
AcDbEntity
  8
_0-4_図枠
  6
CONTINUOUS
 62
     0
100
AcDbText
 10
460
 20
134.6520396122
 40
5
  1
〃
  7
STANDARD
100
AcDbText
  0
TEXT
  5
573
100
AcDbEntity
  8
_0-4_図枠
  6
CONTINUOUS
 62
     0
100
AcDbText
 10
460
 20
143.6520396122
 40
5
  1
〃
  7
STANDARD
100
AcDbText
  0
TEXT
  5
574
100
AcDbEntity
  8
_0-4_図枠
  6
CONTINUOUS
 62
     0
100
AcDbText
 10
460
 20
152.6520396122
 40
5
  1
〃
  7
STANDARD
100
AcDbText
  0
TEXT
  5
575
100
AcDbEntity
  8
_0-4_図枠
  6
CONTINUOUS
 62
     0
100
AcDbText
 10
460
 20
161.6520396122
 40
5
  1
〃
  7
STANDARD
100
AcDbText
  0
TEXT
  5
576
100
AcDbEntity
  8
_0-4_図枠
  6
CONTINUOUS
 62
     0
100
AcDbText
 10
460
 20
170.6520396122
 40
5
  1
〃
  7
STANDARD
100
AcDbText
  0
TEXT
  5
577
100
AcDbEntity
  8
_0-4_図枠
  6
CONTINUOUS
 62
     0
100
AcDbText
 10
392
 20
35.65203961224
 40
5
  1
〃
  7
STANDARD
100
AcDbText
  0
TEXT
  5
578
100
AcDbEntity
  8
_0-4_図枠
  6
CONTINUOUS
 62
     0
100
AcDbText
 10
392
 20
44.65203961224
 40
5
  1
枚
  7
STANDARD
100
AcDbText
  0
TEXT
  5
579
100
AcDbEntity
  8
_0-4_図枠
  6
CONTINUOUS
 62
     0
100
AcDbText
 10
392
 20
53.65203961224
 40
5
  1
〃
  7
STANDARD
100
AcDbText
  0
TEXT
  5
57A
100
AcDbEntity
  8
_0-4_図枠
  6
CONTINUOUS
 62
     0
100
AcDbText
 10
392
 20
62.65203961224
 40
5
  1
〃
  7
STANDARD
100
AcDbText
  0
TEXT
  5
57B
100
AcDbEntity
  8
_0-4_図枠
  6
CONTINUOUS
 62
     0
100
AcDbText
 10
392
 20
71.65203961224
 40
5
  1
〃
  7
STANDARD
100
AcDbText
  0
TEXT
  5
57C
100
AcDbEntity
  8
_0-4_図枠
  6
CONTINUOUS
 62
     0
100
AcDbText
 10
392
 20
80.65203961224
 40
5
  1
〃
  7
STANDARD
100
AcDbText
  0
TEXT
  5
57D
100
AcDbEntity
  8
_0-4_図枠
  6
CONTINUOUS
 62
     0
100
AcDbText
 10
392
 20
89.65203961224
 40
5
  1
〃
  7
STANDARD
100
AcDbText
  0
TEXT
  5
57E
100
AcDbEntity
  8
_0-4_図枠
  6
CONTINUOUS
 62
     0
100
AcDbText
 10
392
 20
98.65203961224
 40
5
  1
〃
  7
STANDARD
100
AcDbText
  0
TEXT
  5
57F
100
AcDbEntity
  8
_0-4_図枠
  6
CONTINUOUS
 62
     0
100
AcDbText
 10
392
 20
107.6520396122
 40
5
  1
本
  7
STANDARD
100
AcDbText
  0
TEXT
  5
580
100
AcDbEntity
  8
_0-4_図枠
  6
CONTINUOUS
 62
     0
100
AcDbText
 10
392
 20
116.6520396122
 40
5
  1
〃
  7
STANDARD
100
AcDbText
  0
TEXT
  5
581
100
AcDbEntity
  8
_0-4_図枠
  6
CONTINUOUS
 62
     0
100
AcDbText
 10
392
 20
125.6520396122
 40
5
  1
枚
  7
STANDARD
100
AcDbText
  0
TEXT
  5
582
100
AcDbEntity
  8
_0-4_図枠
  6
CONTINUOUS
 62
     0
100
AcDbText
 10
392
 20
134.6520396122
 40
5
  1
〃
  7
STANDARD
100
AcDbText
  0
TEXT
  5
583
100
AcDbEntity
  8
_0-4_図枠
  6
CONTINUOUS
 62
     0
100
AcDbText
 10
392
 20
143.6520396122
 40
5
  1
〃
  7
STANDARD
100
AcDbText
  0
TEXT
  5
584
100
AcDbEntity
  8
_0-4_図枠
  6
CONTINUOUS
 62
     0
100
AcDbText
 10
392
 20
152.6520396122
 40
5
  1
〃
  7
STANDARD
100
AcDbText
  0
TEXT
  5
585
100
AcDbEntity
  8
_0-4_図枠
  6
CONTINUOUS
 62
     0
100
AcDbText
 10
392
 20
161.6520396122
 40
5
  1
〃
  7
STANDARD
100
AcDbText
  0
TEXT
  5
586
100
AcDbEntity
  8
_0-4_図枠
  6
CONTINUOUS
 62
     0
100
AcDbText
 10
392
 20
170.6520396122
 40
5
  1
〃
  7
STANDARD
100
AcDbText
  0
TEXT
  5
587
100
AcDbEntity
  8
_0-4_図枠
  6
CONTINUOUS
 62
     0
100
AcDbText
 10
443.75
 20
35.65203961224
 40
5
  1
 5
  7
STANDARD
100
AcDbText
  0
TEXT
  5
588
100
AcDbEntity
  8
_0-4_図枠
  6
CONTINUOUS
 62
     0
100
AcDbText
 10
443.75
 20
44.65203961224
 40
5
  1
 5
  7
STANDARD
100
AcDbText
  0
TEXT
  5
589
100
AcDbEntity
  8
_0-4_図枠
  6
CONTINUOUS
 62
     0
100
AcDbText
 10
443.75
 20
53.65203961224
 40
5
  1
 5
  7
STANDARD
100
AcDbText
  0
TEXT
  5
58A
100
AcDbEntity
  8
_0-4_図枠
  6
CONTINUOUS
 62
     0
100
AcDbText
 10
443.75
 20
62.65203961224
 40
5
  1
 5
  7
STANDARD
100
AcDbText
  0
TEXT
  5
58B
100
AcDbEntity
  8
_0-4_図枠
  6
CONTINUOUS
 62
     0
100
AcDbText
 10
443.75
 20
71.65203961224
 40
5
  1
 5
  7
STANDARD
100
AcDbText
  0
TEXT
  5
58C
100
AcDbEntity
  8
_0-4_図枠
  6
CONTINUOUS
 62
     0
100
AcDbText
 10
443.75
 20
80.65203961224
 40
5
  1
 5
  7
STANDARD
100
AcDbText
  0
TEXT
  5
58D
100
AcDbEntity
  8
_0-4_図枠
  6
CONTINUOUS
 62
     0
100
AcDbText
 10
443.75
 20
89.65203961224
 40
5
  1
 5
  7
STANDARD
100
AcDbText
  0
TEXT
  5
58E
100
AcDbEntity
  8
_0-4_図枠
  6
CONTINUOUS
 62
     0
100
AcDbText
 10
443.75
 20
98.65203961224
 40
5
  1
 4
  7
STANDARD
100
AcDbText
  0
TEXT
  5
58F
100
AcDbEntity
  8
_0-4_図枠
  6
CONTINUOUS
 62
     0
100
AcDbText
 10
443.75
 20
107.6520396122
 40
5
  1
 1
  7
STANDARD
100
AcDbText
  0
TEXT
  5
590
100
AcDbEntity
  8
_0-4_図枠
  6
CONTINUOUS
 62
     0
100
AcDbText
 10
443.75
 20
116.6520396122
 40
5
  1
 1
  7
STANDARD
100
AcDbText
  0
TEXT
  5
591
100
AcDbEntity
  8
_0-4_図枠
  6
CONTINUOUS
 62
     0
100
AcDbText
 10
443.75
 20
125.6520396122
 40
5
  1
 1
  7
STANDARD
100
AcDbText
  0
TEXT
  5
592
100
AcDbEntity
  8
_0-4_図枠
  6
CONTINUOUS
 62
     0
100
AcDbText
 10
443.75
 20
134.6520396122
 40
5
  1
 1
  7
STANDARD
100
AcDbText
  0
TEXT
  5
593
100
AcDbEntity
  8
_0-4_図枠
  6
CONTINUOUS
 62
     0
100
AcDbText
 10
443.75
 20
143.6520396122
 40
5
  1
 1
  7
STANDARD
100
AcDbText
  0
TEXT
  5
594
100
AcDbEntity
  8
_0-4_図枠
  6
CONTINUOUS
 62
     0
100
AcDbText
 10
443.75
 20
152.6520396122
 40
5
  1
 4
  7
STANDARD
100
AcDbText
  0
TEXT
  5
595
100
AcDbEntity
  8
_0-4_図枠
  6
CONTINUOUS
 62
     0
100
AcDbText
 10
443.75
 20
161.6520396122
 40
5
  1
 4
  7
STANDARD
100
AcDbText
  0
TEXT
  5
596
100
AcDbEntity
  8
_0-4_図枠
  6
CONTINUOUS
 62
     0
100
AcDbText
 10
443.75
 20
170.6520396122
 40
5
  1
 4
  7
STANDARD
100
AcDbText
  0
TEXT
  5
597
100
AcDbEntity
  8
_0-4_図枠
  6
CONTINUOUS
 62
     0
100
AcDbText
 10
375.75
 20
35.65203961224
 40
5
  1
 6
  7
STANDARD
100
AcDbText
  0
TEXT
  5
598
100
AcDbEntity
  8
_0-4_図枠
  6
CONTINUOUS
 62
     0
100
AcDbText
 10
375.75
 20
44.65203961224
 40
5
  1
 6
  7
STANDARD
100
AcDbText
  0
TEXT
  5
599
100
AcDbEntity
  8
_0-4_図枠
  6
CONTINUOUS
 62
     0
100
AcDbText
 10
375.75
 20
53.65203961224
 40
5
  1
 6
  7
STANDARD
100
AcDbText
  0
TEXT
  5
59A
100
AcDbEntity
  8
_0-4_図枠
  6
CONTINUOUS
 62
     0
100
AcDbText
 10
375.75
 20
62.65203961224
 40
5
  1
 6
  7
STANDARD
100
AcDbText
  0
TEXT
  5
59B
100
AcDbEntity
  8
_0-4_図枠
  6
CONTINUOUS
 62
     0
100
AcDbText
 10
375.75
 20
71.65203961224
 40
5
  1
 6
  7
STANDARD
100
AcDbText
  0
TEXT
  5
59C
100
AcDbEntity
  8
_0-4_図枠
  6
CONTINUOUS
 62
     0
100
AcDbText
 10
375.75
 20
80.65203961224
 40
5
  1
 6
  7
STANDARD
100
AcDbText
  0
TEXT
  5
59D
100
AcDbEntity
  8
_0-4_図枠
  6
CONTINUOUS
 62
     0
100
AcDbText
 10
375.75
 20
89.65203961224
 40
5
  1
 6
  7
STANDARD
100
AcDbText
  0
TEXT
  5
59E
100
AcDbEntity
  8
_0-4_図枠
  6
CONTINUOUS
 62
     0
100
AcDbText
 10
375.75
 20
98.65203961224
 40
5
  1
 6
  7
STANDARD
100
AcDbText
  0
TEXT
  5
59F
100
AcDbEntity
  8
_0-4_図枠
  6
CONTINUOUS
 62
     0
100
AcDbText
 10
375.75
 20
107.6520396122
 40
5
  1
 1
  7
STANDARD
100
AcDbText
  0
TEXT
  5
5A0
100
AcDbEntity
  8
_0-4_図枠
  6
CONTINUOUS
 62
     0
100
AcDbText
 10
375.75
 20
116.6520396122
 40
5
  1
 1
  7
STANDARD
100
AcDbText
  0
TEXT
  5
5A1
100
AcDbEntity
  8
_0-4_図枠
  6
CONTINUOUS
 62
     0
100
AcDbText
 10
375.75
 20
125.6520396122
 40
5
  1
 1
  7
STANDARD
100
AcDbText
  0
TEXT
  5
5A2
100
AcDbEntity
  8
_0-4_図枠
  6
CONTINUOUS
 62
     0
100
AcDbText
 10
375.75
 20
134.6520396122
 40
5
  1
 1
  7
STANDARD
100
AcDbText
  0
TEXT
  5
5A3
100
AcDbEntity
  8
_0-4_図枠
  6
CONTINUOUS
 62
     0
100
AcDbText
 10
375.75
 20
143.6520396122
 40
5
  1
 1
  7
STANDARD
100
AcDbText
  0
TEXT
  5
5A4
100
AcDbEntity
  8
_0-4_図枠
  6
CONTINUOUS
 62
     0
100
AcDbText
 10
375.75
 20
152.6520396122
 40
5
  1
 6
  7
STANDARD
100
AcDbText
  0
TEXT
  5
5A5
100
AcDbEntity
  8
_0-4_図枠
  6
CONTINUOUS
 62
     0
100
AcDbText
 10
375.75
 20
161.6520396122
 40
5
  1
 6
  7
STANDARD
100
AcDbText
  0
TEXT
  5
5A6
100
AcDbEntity
  8
_0-4_図枠
  6
CONTINUOUS
 62
     0
100
AcDbText
 10
375.75
 20
170.6520396122
 40
5
  1
 6
  7
STANDARD
100
AcDbText
  0
TEXT
  5
5A7
100
AcDbEntity
  8
_0-4_図枠
  6
CONTINUOUS
 62
     0
100
AcDbText
 10
413.75
 20
107.6520396122
 40
5
  1
2000
  7
STANDARD
100
AcDbText
  0
TEXT
  5
5A8
100
AcDbEntity
  8
_0-4_図枠
  6
CONTINUOUS
 62
     0
100
AcDbText
 10
413.75
 20
116.6520396122
 40
5
  1
2100
  7
STANDARD
100
AcDbText
  0
TEXT
  5
5A9
100
AcDbEntity
  8
_0-4_図枠
  6
CONTINUOUS
 62
     0
100
AcDbText
 10
413.75
 20
125.6520396122
 40
5
  1
2060
  7
STANDARD
100
AcDbText
  0
TEXT
  5
5AA
100
AcDbEntity
  8
_0-4_図枠
  6
CONTINUOUS
 62
     0
100
AcDbText
 10
345.75
 20
107.6520396122
 40
5
  1
3000
  7
STANDARD
100
AcDbText
  0
TEXT
  5
5AB
100
AcDbEntity
  8
_0-4_図枠
  6
CONTINUOUS
 62
     0
100
AcDbText
 10
345.75
 20
116.6520396122
 40
5
  1
3100
  7
STANDARD
100
AcDbText
  0
TEXT
  5
5AC
100
AcDbEntity
  8
_0-4_図枠
  6
CONTINUOUS
 62
     0
100
AcDbText
 10
345.75
 20
125.6520396122
 40
5
  1
3060
  7
STANDARD
100
AcDbText
  0
TEXT
  5
5AD
100
AcDbEntity
  8
_0-4_図枠
  6
CONTINUOUS
 62
     0
100
AcDbText
 10
144
 20
35.65203961224
 40
5
  1
ステンワッシャー
  7
STANDARD
100
AcDbText
  0
TEXT
  5
5AE
100
AcDbEntity
  8
_0-4_図枠
  6
CONTINUOUS
 62
     0
100
AcDbText
 10
144
 20
44.65203961224
 40
5
  1
ステスワッシャー
  7
STANDARD
100
AcDbText
  0
TEXT
  5
5AF
100
AcDbEntity
  8
_0-4_図枠
  6
CONTINUOUS
 62
     0
100
AcDbText
 10
144
 20
53.65203961224
 40
5
  1
ステンタッピンねじ
  7
STANDARD
100
AcDbText
  0
TEXT
  5
5B0
100
AcDbEntity
  8
_0-4_図枠
  6
CONTINUOUS
 62
     0
100
AcDbText
 10
144
 20
62.65203961224
 40
5
  1
アンカープラグ
  7
STANDARD
100
AcDbText
  0
TEXT
  5
5B1
100
AcDbEntity
  8
_0-4_図枠
  6
CONTINUOUS
 62
     0
100
AcDbText
 10
144
 20
71.65203961224
 40
5
  1
アジャストアンカー
  7
STANDARD
100
AcDbText
  0
TEXT
  5
5B2
100
AcDbEntity
  8
_0-4_図枠
  6
CONTINUOUS
 62
     0
100
AcDbText
 10
144
 20
80.65203961224
 40
5
  1
ステン六角ボルト
  7
STANDARD
100
AcDbText
  0
TEXT
  5
5B3
100
AcDbEntity
  8
_0-4_図枠
  6
CONTINUOUS
 62
     0
100
AcDbText
 10
144
 20
107.6520396122
 40
5
  1
ガスケットＮ
  7
STANDARD
100
AcDbText
  0
TEXT
  5
5B4
100
AcDbEntity
  8
_0-4_図枠
  6
CONTINUOUS
 62
     0
100
AcDbText
 10
144
 20
116.6520396122
 40
5
  1
止水補助板
  7
STANDARD
100
AcDbText
  0
TEXT
  5
5B5
100
AcDbEntity
  8
_0-4_図枠
  6
CONTINUOUS
 62
     0
100
AcDbText
 10
144
 20
134.6520396122
 40
5
  1
ＦＹＫｻｲﾄﾞｷｬｯﾌﾟ ｼﾞｮｲﾝﾄ
  7
STANDARD
100
AcDbText
  0
TEXT
  5
5B6
100
AcDbEntity
  8
_0-4_図枠
  6
CONTINUOUS
 62
     0
100
AcDbText
 10
144
 20
143.6520396122
 40
5
  1
ＦＹＫ水切ジョイント
  7
STANDARD
100
AcDbText
  0
TEXT
  5
5B7
100
AcDbEntity
  8
_0-4_図枠
  6
CONTINUOUS
 62
     0
100
AcDbText
 10
144
 20
152.6520396122
 40
5
  1
ＦＹＹフレームナット
  7
STANDARD
100
AcDbText
  0
TEXT
  5
5B8
100
AcDbEntity
  8
_0-4_図枠
  6
CONTINUOUS
 62
     0
100
AcDbText
 10
144
 20
161.6520396122
 40
5
  1
ＦＹＹホルダースプリング
  7
STANDARD
100
AcDbText
  0
TEXT
  5
5B9
100
AcDbEntity
  8
_0-4_図枠
  6
CONTINUOUS
 62
     0
100
AcDbText
 10
144
 20
170.6520396122
 40
5
  1
ＦＹＫホルダー
  7
STANDARD
100
AcDbText
  0
TEXT
  5
5BA
100
AcDbEntity
  8
_0-4_図枠
  6
CONTINUOUS
 62
     0
100
AcDbText
 10
144.1425064364
 20
125.3625486441
 40
5
  1
ウォーターガード
  7
STANDARD
100
AcDbText
  0
TEXT
  5
5BB
100
AcDbEntity
  8
_0-4_図枠
  6
CONTINUOUS
 62
     0
100
AcDbText
 10
144
 20
98.65203961224
 40
5
  1
ステン小ねじ
  7
STANDARD
100
AcDbText
  0
TEXT
  5
5BC
100
AcDbEntity
  8
_0-4_図枠
  6
CONTINUOUS
 62
     0
100
AcDbText
 10
144
 20
89.65203961224
 40
5
  1
ステン小ねじ
  7
STANDARD
100
AcDbText
  0
TEXT
  5
5BD
100
AcDbEntity
  8
_0-4_図枠
  6
CONTINUOUS
 62
     0
100
AcDbText
 10
243.9111463695
 20
125.3625486441
 40
5
  1
ＳＰＶＣ
  7
STANDARD
100
AcDbText
  0
TEXT
  5
5BE
100
AcDbEntity
  8
_0-4_図枠
  6
CONTINUOUS
 62
     0
100
AcDbText
 10
244
 20
170.6520396122
 40
5
  1
２５０ＦＹＫＨ－５５０～５７５
  7
STANDARD
100
AcDbText
  0
TEXT
  5
5BF
100
AcDbEntity
  8
_0-4_図枠
  6
CONTINUOUS
 62
     0
100
AcDbText
 10
244
 20
143.6520396122
 40
5
  1
２５０ＦＹＫＪ－５５０～５７５
  7
STANDARD
100
AcDbText
  0
TEXT
  5
5C0
100
AcDbEntity
  8
_0-4_図枠
  6
CONTINUOUS
 62
     0
100
AcDbText
 10
244
 20
98.65203961224
 40
5
  1
なべＭ６×３５
  7
STANDARD
100
AcDbText
  0
TEXT
  5
5C1
100
AcDbEntity
  8
_0-4_図枠
  6
CONTINUOUS
 62
     0
100
AcDbText
 10
244
 20
89.65203961224
 40
5
  1
ねべＭ４×１０
  7
STANDARD
100
AcDbText
  0
TEXT
  5
5C2
100
AcDbEntity
  8
_0-4_図枠
  6
CONTINUOUS
 62
     0
100
AcDbText
 10
244
 20
80.65203961224
 40
5
  1
Ｍ６×４０
  7
STANDARD
100
AcDbText
  0
TEXT
  5
5C3
100
AcDbEntity
  8
_0-4_図枠
  6
CONTINUOUS
 62
     0
100
AcDbText
 10
244
 20
71.65203961224
 40
5
  1
ＡＧ－６６０
  7
STANDARD
100
AcDbText
  0
TEXT
  5
5C4
100
AcDbEntity
  8
_0-4_図枠
  6
CONTINUOUS
 62
     0
100
AcDbText
 10
244
 20
62.65203961224
 40
5
  1
φ８×４０
  7
STANDARD
100
AcDbText
  0
TEXT
  5
5C5
100
AcDbEntity
  8
_0-4_図枠
  6
CONTINUOUS
 62
     0
100
AcDbText
 10
244
 20
53.65203961224
 40
5
  1
なべ５×５０
  7
STANDARD
100
AcDbText
  0
TEXT
  5
5C6
100
AcDbEntity
  8
_0-4_図枠
  6
CONTINUOUS
 62
     0
100
AcDbText
 10
244
 20
44.65203961224
 40
5
  1
１.５×１８×６.５穴
  7
STANDARD
100
AcDbText
  0
TEXT
  5
5C7
100
AcDbEntity
  8
_0-4_図枠
  6
CONTINUOUS
 62
     0
100
AcDbText
 10
244
 20
35.65203961224
 40
5
  1
１.５×１８×５.５穴
  7
STANDARD
100
AcDbText
  0
TEXT
  5
5C8
100
AcDbEntity
  8
_0-4_図枠
  6
CONTINUOUS
 62
     0
100
AcDbText
 10
244
 20
116.6520396122
 40
5
  1
ＦＳ９００
  7
STANDARD
100
AcDbText
  0
TEXT
  5
5C9
100
AcDbEntity
  8
_0-4_図枠
  6
CONTINUOUS
 62
     0
100
AcDbText
 10
460
 20
26.65203961224
 40
5
  1
巻
  7
STANDARD
100
AcDbText
  0
TEXT
  5
5CA
100
AcDbEntity
  8
_0-4_図枠
  6
CONTINUOUS
 62
     0
100
AcDbText
 10
392
 20
26.65203961224
 40
5
  1
巻
  7
STANDARD
100
AcDbText
  0
TEXT
  5
5CB
100
AcDbEntity
  8
_0-4_図枠
  6
CONTINUOUS
 62
     0
100
AcDbText
 10
443.75
 20
26.65203961224
 40
5
  1
 1
  7
STANDARD
100
AcDbText
  0
TEXT
  5
5CC
100
AcDbEntity
  8
_0-4_図枠
  6
CONTINUOUS
 62
     0
100
AcDbText
 10
375.75
 20
26.65203961224
 40
5
  1
 1
  7
STANDARD
100
AcDbText
  0
TEXT
  5
5CD
100
AcDbEntity
  8
_0-4_図枠
  6
CONTINUOUS
 62
     0
100
AcDbText
 10
413.75
 20
26.65203961224
 40
5
  1
6000
  7
STANDARD
100
AcDbText
  0
TEXT
  5
5CE
100
AcDbEntity
  8
_0-4_図枠
  6
CONTINUOUS
 62
     0
100
AcDbText
 10
345.75
 20
26.65203961224
 40
5
  1
6000
  7
STANDARD
100
AcDbText
  0
TEXT
  5
5CF
100
AcDbEntity
  8
_0-4_図枠
  6
CONTINUOUS
 62
     0
100
AcDbText
 10
144
 20
26.65203961224
 40
5
  1
ブチルテープ
  7
STANDARD
100
AcDbText
  0
TEXT
  5
5D0
100
AcDbEntity
  8
_0-4_図枠
  6
CONTINUOUS
 62
     0
100
AcDbText
 10
244
 20
26.65203961224
 40
5
  1
ｔ１．０×ｗ３０
  7
STANDARD
100
AcDbText
  0
TEXT
  5
5D1
100
AcDbEntity
  8
_0-4_図枠
  6
CONTINUOUS
 62
     0
100
AcDbText
 10
128.75
 20
26.65203961224
 40
5
  1
※
  7
STANDARD
100
AcDbText
  0
TEXT
  5
5D2
100
AcDbEntity
  8
_0-4_図枠
  6
CONTINUOUS
 62
     0
100
AcDbText
 10
704.4858969096
 20
443.4038347987
 40
6
  1
1
  7
STANDARD
100
AcDbText
  0
TEXT
  5
5D3
100
AcDbEntity
  8
_0-4_図枠
  6
CONTINUOUS
 62
     0
100
AcDbText
 10
193.1501376943
 20
500.9513572274
 40
6
  1
2
  7
STANDARD
100
AcDbText
  0
TEXT
  5
5D4
100
AcDbEntity
  8
_0-4_図枠
  6
CONTINUOUS
 62
     0
100
AcDbText
 10
538.1838951805
 20
413.0118475621
 40
6
  1
3
  7
STANDARD
100
AcDbText
  0
TEXT
  5
5D5
100
AcDbEntity
  8
_0-4_図枠
  6
CONTINUOUS
 62
     0
100
AcDbText
 10
128.3540048677
 20
488.8331227656
 40
6
  1
4
  7
STANDARD
100
AcDbText
  0
TEXT
  5
5D6
100
AcDbEntity
  8
_0-4_図枠
  6
CONTINUOUS
 62
     0
100
AcDbText
 10
607.3214286437
 20
417.9934314451
 40
6
  1
5
  7
STANDARD
100
AcDbText
  0
TEXT
  5
5D7
100
AcDbEntity
  8
_0-4_図枠
  6
CONTINUOUS
 62
     0
100
AcDbText
 10
530.7752628046
 20
423.0963967617
 40
6
  1
6
  7
STANDARD
100
AcDbText
  0
TEXT
  5
5D8
100
AcDbEntity
  8
_0-4_図枠
  6
CONTINUOUS
 62
     0
100
AcDbText
 10
517.3519001767
 20
335.4733241821
 40
6
  1
7
  7
STANDARD
100
AcDbText
  0
TEXT
  5
5D9
100
AcDbEntity
  8
_0-4_図枠
  6
CONTINUOUS
 62
     0
100
AcDbText
 10
703.3367493953
 20
421.2252877738
 40
6
  1
8
  7
STANDARD
100
AcDbText
  0
TEXT
  5
5DA
100
AcDbEntity
  8
_0-4_図枠
  6
CONTINUOUS
 62
     0
100
AcDbText
 10
198.646320061
 20
487.7751744723
 40
6
  1
9
  7
STANDARD
100
AcDbText
  0
TEXT
  5
5DB
100
AcDbEntity
  8
_0-4_図枠
  6
CONTINUOUS
 62
     0
100
AcDbText
 10
557.2332849854
 20
427.8559712052
 40
6
  1
10
  7
STANDARD
100
AcDbText
  0
TEXT
  5
5DC
100
AcDbEntity
  8
_0-4_図枠
  6
CONTINUOUS
 62
     0
100
AcDbText
 10
194.1564178853
 20
337.5661294993
 40
6
  1
11
  7
STANDARD
100
AcDbText
  0
TEXT
  5
5DD
100
AcDbEntity
  8
_0-4_図枠
  6
CONTINUOUS
 62
     0
100
AcDbText
 10
199.97963514
 20
377.9216209823
 40
6
  1
12
  7
STANDARD
100
AcDbText
  0
TEXT
  5
5DE
100
AcDbEntity
  8
_0-4_図枠
  6
CONTINUOUS
 62
     0
100
AcDbText
 10
513.2963082264
 20
422.5476043779
 40
6
  1
13
  7
STANDARD
100
AcDbText
  0
TEXT
  5
5DF
100
AcDbEntity
  8
_0-4_図枠
  6
CONTINUOUS
 62
     0
100
AcDbText
 10
127.6280712732
 20
509.5487417958
 40
6
  1
14
  7
STANDARD
100
AcDbText
  0
TEXT
  5
5E0
100
AcDbEntity
  8
_0-4_図枠
  6
CONTINUOUS
 62
     0
100
AcDbText
 10
514.9615717041
 20
321.6635600024
 40
6
  1
15
  7
STANDARD
100
AcDbText
  0
TEXT
  5
5E1
100
AcDbEntity
  8
_0-4_図枠
  6
CONTINUOUS
 62
     0
100
AcDbText
 10
475.1714923807
 20
305.6779556589
 40
6
  1
16
  7
STANDARD
100
AcDbText
  0
CIRCLE
  5
5E2
100
AcDbEntity
  8
_0-4_図枠
  6
CONTINUOUS
 62
     0
100
AcDbCircle
 10
474.5793359719
 20
334.696487603
 40
6
  0
LINE
  5
5E3
100
AcDbEntity
  8
_0-4_図枠
  6
CONTINUOUS
 62
     0
100
AcDbLine
 10
487.2765896037
 20
356.68877601
 11
477.5793359719
 21
339.8926400257
  0
CIRCLE
  5
5E4
100
AcDbEntity
  8
_0-4_図枠
  6
CONTINUOUS
 62
     0
100
AcDbCircle
 10
487.2765896037
 20
356.68877601
 40
0.9
  0
TEXT
  5
5E5
100
AcDbEntity
  8
_0-4_図枠
  6
CONTINUOUS
 62
     0
100
AcDbText
 10
471.5793359719
 20
331.696487603
 40
6
  1
19
  7
STANDARD
100
AcDbText
  0
TEXT
  5
5E6
100
AcDbEntity
  8
_0-4_図枠
  6
CONTINUOUS
 62
     0
100
AcDbText
 10
96.08386166013
 20
443.5718479824
 40
6
  1
17
  7
STANDARD
100
AcDbText
  0
CIRCLE
  5
5E7
100
AcDbEntity
  8
_0-4_図枠
  6
CONTINUOUS
 62
     0
100
AcDbCircle
 10
128.0504810819
 20
406.3076378691
 40
6
  0
LINE
  5
5E8
100
AcDbEntity
  8
_0-4_図枠
  6
CONTINUOUS
 62
     0
100
AcDbLine
 10
148.4762835796
 20
418.1004804395
 11
133.2466335046
 21
409.3076378691
  0
CIRCLE
  5
5E9
100
AcDbEntity
  8
_0-4_図枠
  6
CONTINUOUS
 62
     0
100
AcDbCircle
 10
148.4762835796
 20
418.1004804395
 40
0.9
  0
TEXT
  5
5EA
100
AcDbEntity
  8
_0-4_図枠
  6
CONTINUOUS
 62
     0
100
AcDbText
 10
125.0504810819
 20
403.3076378691
 40
6
  1
20
  7
STANDARD
100
AcDbText
  0
CIRCLE
  5
5EB
100
AcDbEntity
  8
_0-4_図枠
  6
CONTINUOUS
 62
     0
100
AcDbCircle
 10
127.17628573
 20
448.8388898862
 40
6
  0
LINE
  5
5EC
100
AcDbEntity
  8
_0-4_図枠
  6
CONTINUOUS
 62
     0
100
AcDbLine
 10
150.9047493118
 20
425.1104263044
 11
131.4189264171
 21
444.5962491991
  0
CIRCLE
  5
5ED
100
AcDbEntity
  8
_0-4_図枠
  6
CONTINUOUS
 62
     0
100
AcDbCircle
 10
150.9047493118
 20
425.1104263044
 40
0.9
  0
TEXT
  5
5EE
100
AcDbEntity
  8
_0-4_図枠
  6
CONTINUOUS
 62
     0
100
AcDbText
 10
124.17628573
 20
445.8388898862
 40
6
  1
18
  7
STANDARD
100
AcDbText
  0
ENDSEC
  0
SECTION
  2
OBJECTS
  0
DICTIONARY
  5
5EF
100
AcDbDictionary
  3
ACAD_GROUP
350
5F0
  3
ACAD_IMAGE_DICT
350
5F1
  3
ACAD_MLINESTYLE
350
5F2
  0
DICTIONARY
  5
5F0
330
5EF
100
AcDbDictionary
  0
DICTIONARY
  5
5F1
100
AcDbDictionary
  0
DICTIONARY
  5
5F2
100
AcDbDictionary
  3
STANDARD
350
5F3
  0
RASTERVARIABLES
  5
5F4
100
AcDbRasterVariables
 90
     0
 70
     1
 71
     1
 72
     0
  0
MLINESTYLE
  5
5F3
100
AcDbMlineStyle
  2
STANDARD
 70
     0
  3

 62
   256
 51
90
 52
90
 71
     0
  0
ENDSEC
  0
EOF
