  0
SECTION
  2
HEADER
  9
$ACADVER
  1
AC1015
  9
$DWGCODEPAGE
  3
ANSI_932
  9
$EXTMIN
 10
-21
 20
-5
  9
$EXTMAX
 10
1209
 20
845
  9
$LIMMIN
 10
0
 20
0
  9
$LIMMAX
 10
1188
 20
840
  9
$LTSCALE
 40
4
  9
$DIMSCALE
 40
4
  9
$DIMSTYLE
  2
M7DIMSTL
  9
$HANDSEED
  5
7FFFFFFF
  9
$MEASUREMENT
 70
     1
  0
ENDSEC
  0
SECTION
  2
CLASSES
  0
CLASS
  1
CSOFTARXCLASS
  2
CSoftArxClass
  3
CSRasterApi
 90
     0
280
     0
281
     0
  0
CLASS
  1
IMAGEDEF
  2
AcDbRasterImageDef
  3
ISM
 90
     0
280
     0
281
     0
  0
CLASS
  1
RASTERVARIABLES
  2
AcDbRasterVariables
  3
ISM
 90
     0
280
     0
281
     0
  0
CLASS
  1
IMAGE
  2
AcDbRasterImage
  3
ISM
 90
   127
280
     0
281
     0
  0
CLASS
  1
IMAGEDEF_REACTOR
  2
AcDbRasterImageDefReactor
  3
ISM
 90
     1
280
     0
281
     0
  0
CLASS
  1
HATCH
  2
AcDbHatch
  3
M7
 90
     0
280
     0
281
     1
  0
ENDSEC
  0
SECTION
  2
TABLES
  0
TABLE
  2
VPORT
  5
FF
100
AcDbSymbolTable
 70
     5
  0
VPORT
  5
100
100
AcDbSymbolTableRecord
100
AcDbViewportTableRecord
  2
*ACTIVE
 70
     0
 10
0
 20
0
 11
1
 21
1
 12
594
 22
420
 13
0
 23
0
 14
0
 24
0
 15
0
 25
0
 16
0
 26
0
 36
1
 17
0
 27
0
 37
0
 40
420
 41
1.414285714286
 42
50
 43
0
 44
0
 50
0
 51
0
 71
     0
 72
   100
 73
     1
 74
     3
 75
     0
 76
     0
 77
     0
 78
     0
  0
ENDTAB
  0
TABLE
  2
LTYPE
  5
101
100
AcDbSymbolTable
 70
     1
  0
LTYPE
  5
102
100
AcDbSymbolTableRecord
100
AcDbLinetypeTableRecord
  2
BYBLOCK
 70
     0
  3

 72
    65
 73
     0
 40
0
  0
LTYPE
  5
103
100
AcDbSymbolTableRecord
100
AcDbLinetypeTableRecord
  2
BYLAYER
 70
     0
  3

 72
    65
 73
     0
 40
0
  0
LTYPE
  5
104
100
AcDbSymbolTableRecord
100
AcDbLinetypeTableRecord
  2
CONTINUOUS
 70
     0
  3
Solid line
 72
    65
 73
     0
 40
0
  0
LTYPE
  5
105
100
AcDbSymbolTableRecord
100
AcDbLinetypeTableRecord
  2
DOT
 70
     0
  3
...............................
 72
    65
 73
     2
 40
4
 49
1
 74
     0
 49
-1
 74
     0
  0
LTYPE
  5
106
100
AcDbSymbolTableRecord
100
AcDbLinetypeTableRecord
  2
DASHED
 70
     0
  3
- - - - - - - - - - - - - - - -
 72
    65
 73
     2
 40
8
 49
2
 74
     0
 49
-2
 74
     0
  0
LTYPE
  5
107
100
AcDbSymbolTableRecord
100
AcDbLinetypeTableRecord
  2
DASHED2
 70
     0
  3
-- -- -- -- -- -- -- -- -- -- -
 72
    65
 73
     2
 40
16
 49
5
 74
     0
 49
-3
 74
     0
  0
LTYPE
  5
108
100
AcDbSymbolTableRecord
100
AcDbLinetypeTableRecord
  2
CENTER
 70
     0
  3
--------- - --------- - -------
 72
    65
 73
     4
 40
46
 49
20
 74
     0
 49
-1
 74
     0
 49
1
 74
     0
 49
-1
 74
     0
  0
LTYPE
  5
109
100
AcDbSymbolTableRecord
100
AcDbLinetypeTableRecord
  2
CENTERX2
 70
     0
  3
-------------- - --------------
 72
    65
 73
     4
 40
86
 49
40
 74
     0
 49
-1
 74
     0
 49
1
 74
     0
 49
-1
 74
     0
  0
LTYPE
  5
10A
100
AcDbSymbolTableRecord
100
AcDbLinetypeTableRecord
  2
CENTER2
 70
     0
  3
------ - ----- - ------ - -----
 72
    65
 73
     4
 40
26
 49
10
 74
     0
 49
-1
 74
     0
 49
1
 74
     0
 49
-1
 74
     0
  0
LTYPE
  5
10B
100
AcDbSymbolTableRecord
100
AcDbLinetypeTableRecord
  2
PHANTOM
 70
     0
  3
-------- - - ------- - - ------
 72
    65
 73
     6
 40
50
 49
20
 74
     0
 49
-1
 74
     0
 49
1
 74
     0
 49
-1
 74
     0
 49
1
 74
     0
 49
-1
 74
     0
  0
LTYPE
  5
10C
100
AcDbSymbolTableRecord
100
AcDbLinetypeTableRecord
  2
PHANTOMX2
 70
     0
  3
------------- - - -------------
 72
    65
 73
     6
 40
90
 49
40
 74
     0
 49
-1
 74
     0
 49
1
 74
     0
 49
-1
 74
     0
 49
1
 74
     0
 49
-1
 74
     0
  0
LTYPE
  5
10D
100
AcDbSymbolTableRecord
100
AcDbLinetypeTableRecord
  2
PHANTOM2
 70
     0
  3
---- - - ---- - - ---- - - ----
 72
    65
 73
     6
 40
30
 49
10
 74
     0
 49
-1
 74
     0
 49
1
 74
     0
 49
-1
 74
     0
 49
1
 74
     0
 49
-1
 74
     0
  0
LTYPE
  5
10E
100
AcDbSymbolTableRecord
100
AcDbLinetypeTableRecord
  2
ACAD_ISO06W100
 70
     0
  3
------------ - - - ------------
 72
    65
 73
     8
 40
94
 49
40
 74
     0
 49
-1
 74
     0
 49
1
 74
     0
 49
-1
 74
     0
 49
1
 74
     0
 49
-1
 74
     0
 49
1
 74
     0
 49
-1
 74
     0
  0
LTYPE
  5
10F
100
AcDbSymbolTableRecord
100
AcDbLinetypeTableRecord
  2
ACAD_ISO14W100
 70
     0
  3
---- - - - -------- - - - -----
 72
    65
 73
     8
 40
54
 49
20
 74
     0
 49
-1
 74
     0
 49
1
 74
     0
 49
-1
 74
     0
 49
1
 74
     0
 49
-1
 74
     0
 49
1
 74
     0
 49
-1
 74
     0
  0
LTYPE
  5
110
100
AcDbSymbolTableRecord
100
AcDbLinetypeTableRecord
  2
ACAD_ISO11W100
 70
     0
  3
------- ------ - ------- ------
 72
    65
 73
     6
 40
88
 49
20
 74
     0
 49
-1
 74
     0
 49
20
 74
     0
 49
-1
 74
     0
 49
1
 74
     0
 49
-1
 74
     0
  0
LTYPE
  5
111
100
AcDbSymbolTableRecord
100
AcDbLinetypeTableRecord
  2
ACAD_ISO13W100
 70
     0
  3
------ ------ - - ------ ------
 72
    65
 73
     8
 40
92
 49
20
 74
     0
 49
-1
 74
     0
 49
20
 74
     0
 49
-1
 74
     0
 49
1
 74
     0
 49
-1
 74
     0
 49
1
 74
     0
 49
-1
 74
     0
  0
LTYPE
  5
112
100
AcDbSymbolTableRecord
100
AcDbLinetypeTableRecord
  2
ACAD_ISO15W100
 70
     0
  3
------ ----- - - - ------ -----
 72
    65
 73
    10
 40
96
 49
20
 74
     0
 49
-1
 74
     0
 49
20
 74
     0
 49
-1
 74
     0
 49
1
 74
     0
 49
-1
 74
     0
 49
1
 74
     0
 49
-1
 74
     0
 49
1
 74
     0
 49
-1
 74
     0
  0
LTYPE
  5
113
100
AcDbSymbolTableRecord
100
AcDbLinetypeTableRecord
  2
HIDDEN
 70
     0
  3
. . . . . . . . . . . . . . . .
 72
    65
 73
     2
 40
3
 49
1
 74
     0
 49
-0.5
 74
     0
  0
ENDTAB
  0
TABLE
  2
LAYER
  5
114
100
AcDbSymbolTable
 70
     1
  0
LAYER
  5
115
100
AcDbSymbolTableRecord
100
AcDbLayerTableRecord
  2
0
 70
     0
 62
     7
  6
CONTINUOUS
390
116
  0
LAYER
  5
117
100
AcDbSymbolTableRecord
100
AcDbLayerTableRecord
  2
_0-0_
 70
     0
 62
     7
  6
CONTINUOUS
390
   278
  0
LAYER
  5
118
100
AcDbSymbolTableRecord
100
AcDbLayerTableRecord
  2
_0-1_PRO0
 70
     0
 62
     7
  6
CONTINUOUS
390
   278
  0
LAYER
  5
119
100
AcDbSymbolTableRecord
100
AcDbLayerTableRecord
  2
_1-0_
 70
     0
 62
     7
  6
CONTINUOUS
390
   278
  0
LAYER
  5
11A
100
AcDbSymbolTableRecord
100
AcDbLayerTableRecord
  2
_2-0_
 70
     0
 62
     7
  6
CONTINUOUS
390
   278
  0
LAYER
  5
11B
100
AcDbSymbolTableRecord
100
AcDbLayerTableRecord
  2
_2-1_ADD_LINE
 70
     0
 62
     7
  6
CONTINUOUS
390
   278
  0
ENDTAB
  0
TABLE
  2
STYLE
  5
11C
100
AcDbSymbolTable
 70
     1
  0
STYLE
  5
11D
100
AcDbSymbolTableRecord
100
AcDbTextStyleTableRecord
  2
STANDARD
 70
     0
 40
0
 41
0
 50
0
 71
     0
 42
1
  3
txt
  4
bigfont
  0
STYLE
  5
11E
100
AcDbSymbolTableRecord
100
AcDbTextStyleTableRecord
  2
VSTANDARD
 70
     4
 40
0
 41
0
 50
0
 71
     0
 42
1
  3
txt
  4
bigfont
  0
ENDTAB
  0
TABLE
  2
VIEW
  5
11F
100
AcDbSymbolTable
 70
     0
  0
ENDTAB
  0
TABLE
  2
UCS
  5
120
100
AcDbSymbolTable
 70
     0
  0
ENDTAB
  0
TABLE
  2
APPID
  5
121
100
AcDbSymbolTable
 70
     1
  0
APPID
  5
122
100
AcDbSymbolTableRecord
100
AcDbRegAppTableRecord
  2
ACAD
 70
     0
  0
ENDTAB
  0
TABLE
  2
DIMSTYLE
  5
123
100
AcDbSymbolTable
 70
     1
100
AcDbDimStyleTable
 71
     0
  0
DIMSTYLE
105
124
100
AcDbSymbolTableRecord
100
AcDbDimStyleTableRecord
  2
M7DIMSTL
 70
     0
  3

  4

  5

  6

  7

 40
4
 41
2.5
 42
0.625
 43
3.75
 44
1.25
 45
0
 46
0
 47
0
 48
0
140
2.5
141
2.5
142
0
143
0.03937007874016
144
1
145
0
146
1
147
0.625
 71
     0
 72
     0
 73
     0
 74
     0
 75
     0
 76
     0
 77
     1
 78
     8
170
     0
171
     3
172
     1
173
     0
174
     0
175
     0
176
     0
177
     0
178
     0
270
     2
271
     2
272
     2
273
     2
274
     3
340
11D
275
     0
280
     0
281
     0
282
     0
283
     0
284
     8
285
     0
286
     0
287
     3
288
     0
  0
ENDTAB
  0
TABLE
  2
BLOCK_RECORD
  5
125
100
AcDbSymbolTable
 70
     2
  0
BLOCK_RECORD
  5
126
100
AcDbSymbolTableRecord
100
AcDbBlockTableRecord
  2
*MODEL_SPACE
  0
BLOCK_RECORD
  5
127
100
AcDbSymbolTableRecord
100
AcDbBlockTableRecord
  2
*PAPER_SPACE
  0
BLOCK_RECORD
  5
128
100
AcDbSymbolTableRecord
100
AcDbBlockTableRecord
  2
_DOT
  0
BLOCK_RECORD
  5
129
100
AcDbSymbolTableRecord
100
AcDbBlockTableRecord
  2
_OPEN30
  0
BLOCK_RECORD
  5
12A
100
AcDbSymbolTableRecord
100
AcDbBlockTableRecord
  2
_ClosedBlank
  0
BLOCK_RECORD
  5
12B
100
AcDbSymbolTableRecord
100
AcDbBlockTableRecord
  2
_Origin
  0
BLOCK_RECORD
  5
12C
100
AcDbSymbolTableRecord
100
AcDbBlockTableRecord
  2
_Oblique
  0
BLOCK_RECORD
  5
12D
100
AcDbSymbolTableRecord
100
AcDbBlockTableRecord
  2
_Origin2
  0
BLOCK_RECORD
  5
12E
100
AcDbSymbolTableRecord
100
AcDbBlockTableRecord
  2
_BoxBlank
  0
BLOCK_RECORD
  5
12F
100
AcDbSymbolTableRecord
100
AcDbBlockTableRecord
  2
_BoxFilled
  0
BLOCK_RECORD
  5
130
100
AcDbSymbolTableRecord
100
AcDbBlockTableRecord
  2
_Integral
  0
ENDTAB
  0
ENDSEC
  0
SECTION
  2
BLOCKS
  0
BLOCK
  5
131
100
AcDbEntity
  8
0
100
AcDbBlockBegin
  2
*MODEL_SPACE
 70
     0
 10
0
 20
0
  3
*MODEL_SPACE
  1

  0
ENDBLK
  5
132
100
AcDbEntity
  8
0
100
AcDbBlockEnd
  0
BLOCK
  5
133
100
AcDbEntity
 67
     1
  8
0
100
AcDbBlockBegin
  2
*PAPER_SPACE
 70
     0
 10
0
 20
0
  3
*PAPER_SPACE
  1

  0
ENDBLK
  5
134
100
AcDbEntity
 67
     1
  8
0
100
AcDbBlockEnd
  0
BLOCK
  5
135
100
AcDbEntity
 67
     1
  8
0
100
AcDbBlockBegin
  2
_DOT
 70
     0
 10
0
 20
0
  3
_DOT
  1

  0
LWPOLYLINE
  5
136
100
AcDbEntity
  8
0
  6
BYBLOCK
 62
     0
100
AcDbPolyline
 90
     2
 70
     1
 43
0.5
 10
-0.25
 20
0
 42
1
 10
0.25
 20
0
 42
1
  0
LINE
  5
137
100
AcDbEntity
  8
0
  6
BYBLOCK
 62
     0
100
AcDbLine
 10
-0.5
 20
0
 11
-1
 21
0
  0
ENDBLK
  5
138
100
AcDbEntity
  8
0
100
AcDbBlockEnd
  0
BLOCK
  5
139
100
AcDbEntity
 67
     1
  8
0
100
AcDbBlockBegin
  2
_OPEN30
 70
     0
 10
0
 20
0
  3
_OPEN30
  1

  0
LINE
  5
13A
100
AcDbEntity
  8
0
  6
BYBLOCK
 62
     0
100
AcDbLine
 10
-1
 20
0.26794919
 11
0
 21
0
  0
LINE
  5
13B
100
AcDbEntity
  8
0
  6
BYBLOCK
 62
     0
100
AcDbLine
 10
-1
 20
-0.26794919
 11
0
 21
0
  0
LINE
  5
13C
100
AcDbEntity
  8
0
  6
BYBLOCK
 62
     0
100
AcDbLine
 10
0
 20
0
 11
-1
 21
0
  0
ENDBLK
  5
13D
100
AcDbEntity
  8
0
100
AcDbBlockEnd
  0
BLOCK
  5
13E
100
AcDbEntity
 67
     1
  8
0
100
AcDbBlockBegin
  2
_ClosedBlank
 70
     0
 10
0
 20
0
  3
_ClosedBlank
  1

  0
LINE
  5
13F
100
AcDbEntity
  8
0
  6
BYBLOCK
 62
     0
100
AcDbLine
 10
-1
 20
0.1666666666667
 11
0
 21
0
  0
LINE
  5
140
100
AcDbEntity
  8
0
  6
BYBLOCK
 62
     0
100
AcDbLine
 10
0
 20
0
 11
-1
 21
-0.1666666666667
  0
LINE
  5
141
100
AcDbEntity
  8
0
  6
BYBLOCK
 62
     0
100
AcDbLine
 10
-1
 20
0.1666666666667
 11
-1
 21
-0.1666666666667
  0
ENDBLK
  5
142
100
AcDbEntity
  8
0
100
AcDbBlockEnd
  0
BLOCK
  5
143
100
AcDbEntity
 67
     1
  8
0
100
AcDbBlockBegin
  2
_Origin
 70
     0
 10
0
 20
0
  3
_Origin
  1

  0
CIRCLE
  5
144
100
AcDbEntity
  8
0
  6
BYBLOCK
 62
     0
100
AcDbCircle
 10
0
 20
0
 40
0.5
  0
LINE
  5
145
100
AcDbEntity
  8
0
  6
BYBLOCK
 62
     0
100
AcDbLine
 10
0
 20
0
 11
-1
 21
0
  0
ENDBLK
  5
146
100
AcDbEntity
  8
0
100
AcDbBlockEnd
  0
BLOCK
  5
147
100
AcDbEntity
 67
     1
  8
0
100
AcDbBlockBegin
  2
_Oblique
 70
     0
 10
0
 20
0
  3
_Oblique
  1

  0
LINE
  5
148
100
AcDbEntity
  8
0
  6
BYBLOCK
 62
     0
100
AcDbLine
 10
-0.5
 20
-0.5
 11
0.5
 21
0.5
  0
ENDBLK
  5
149
100
AcDbEntity
  8
0
100
AcDbBlockEnd
  0
BLOCK
  5
14A
100
AcDbEntity
 67
     1
  8
0
100
AcDbBlockBegin
  2
_Origin2
 70
     0
 10
0
 20
0
  3
_Origin2
  1

  0
CIRCLE
  5
14B
100
AcDbEntity
  8
0
  6
BYBLOCK
 62
     0
100
AcDbCircle
 10
0
 20
0
 40
0.5
  0
CIRCLE
  5
14C
100
AcDbEntity
  8
0
  6
BYBLOCK
 62
     0
100
AcDbCircle
 10
0
 20
0
 40
0.25
  0
LINE
  5
14D
100
AcDbEntity
  8
0
  6
BYBLOCK
 62
     0
100
AcDbLine
 10
-0.5
 20
0
 11
-1
 21
0
  0
ENDBLK
  5
14E
100
AcDbEntity
  8
0
100
AcDbBlockEnd
  0
BLOCK
  5
14F
100
AcDbEntity
 67
     1
  8
0
100
AcDbBlockBegin
  2
_BoxBlank
 70
     0
 10
0
 20
0
  3
_BoxBlank
  1

  0
LINE
  5
150
100
AcDbEntity
  8
0
  6
BYBLOCK
 62
     0
100
AcDbLine
 10
-0.5
 20
-0.5
 11
0.5
 21
-0.5
  0
LINE
  5
151
100
AcDbEntity
  8
0
  6
BYBLOCK
 62
     0
100
AcDbLine
 10
0.5
 20
-0.5
 11
0.5
 21
0.5
  0
LINE
  5
152
100
AcDbEntity
  8
0
  6
BYBLOCK
 62
     0
100
AcDbLine
 10
0.5
 20
0.5
 11
-0.5
 21
0.5
  0
LINE
  5
153
100
AcDbEntity
  8
0
  6
BYBLOCK
 62
     0
100
AcDbLine
 10
-0.5
 20
0.5
 11
-0.5
 21
-0.5
  0
LINE
  5
154
100
AcDbEntity
  8
0
  6
BYBLOCK
 62
     0
100
AcDbLine
 10
-0.5
 20
0
 11
-1
 21
0
  0
ENDBLK
  5
155
100
AcDbEntity
  8
0
100
AcDbBlockEnd
  0
BLOCK
  5
156
100
AcDbEntity
 67
     1
  8
0
100
AcDbBlockBegin
  2
_BoxFilled
 70
     0
 10
0
 20
0
  3
_BoxFilled
  1

  0
SOLID
  5
157
100
AcDbEntity
  8
0
  6
BYBLOCK
 62
     0
100
AcDbTrace
 10
-0.5
 20
0.5
 11
0.5
 21
0.5
 12
-0.5
 22
-0.5
 13
0.5
 23
-0.5
  0
LINE
  5
158
100
AcDbEntity
  8
0
  6
BYBLOCK
 62
     0
100
AcDbLine
 10
-0.5
 20
0
 11
-1
 21
0
  0
ENDBLK
  5
159
100
AcDbEntity
  8
0
100
AcDbBlockEnd
  0
BLOCK
  5
15A
100
AcDbEntity
 67
     1
  8
0
100
AcDbBlockBegin
  2
_Integral
 70
     0
 10
0
 20
0
  3
_Integral
  1

  0
ARC
  5
15B
100
AcDbEntity
  8
0
  6
BYBLOCK
 62
     0
100
AcDbCircle
 10
0.44488802
 20
-0.09133463
 40
0.45416667
100
AcDbArc
 50
101.999999998
 51
167.9999999799
  0
ARC
  5
15C
100
AcDbEntity
  8
0
  6
BYBLOCK
 62
     0
100
AcDbCircle
 10
-0.44488802
 20
0.09133463
 40
0.45416667
100
AcDbArc
 50
282.0000000215
 51
348.0000000034
  0
ENDBLK
  5
15D
100
AcDbEntity
  8
0
100
AcDbBlockEnd
  0
ENDSEC
  0
SECTION
  2
ENTITIES
  0
LINE
  5
15E
100
AcDbEntity
  8
_2-0_
  6
CONTINUOUS
 62
     0
100
AcDbLine
 10
-21
 20
-5
 11
1209
 21
-5
  0
LINE
  5
15F
100
AcDbEntity
  8
_2-0_
  6
CONTINUOUS
 62
     0
100
AcDbLine
 10
1209
 20
-5
 11
1209
 21
845
  0
LINE
  5
160
100
AcDbEntity
  8
_2-0_
  6
CONTINUOUS
 62
     0
100
AcDbLine
 10
1209
 20
845
 11
-21
 21
845
  0
LINE
  5
161
100
AcDbEntity
  8
_2-0_
  6
CONTINUOUS
 62
     0
100
AcDbLine
 10
-21
 20
845
 11
-21
 21
-5
  0
LINE
  5
162
100
AcDbEntity
  8
_2-0_
  6
CONTINUOUS
 62
     0
100
AcDbLine
 10
648.3339656255
 20
305.5028453541
 11
748.8339656255
 21
305.5028453541
  0
LINE
  5
163
100
AcDbEntity
  8
_2-0_
  6
CONTINUOUS
 62
     0
100
AcDbLine
 10
981.333965626
 20
305.5028453541
 11
778.8339656255
 21
305.5028453541
  0
LINE
  5
164
100
AcDbEntity
  8
_2-0_
  6
CONTINUOUS
 62
     0
100
AcDbLine
 10
981.333965626
 20
197.5028453541
 11
778.8339656255
 21
197.5028453541
  0
LINE
  5
165
100
AcDbEntity
  8
_2-0_
  6
CONTINUOUS
 62
     0
100
AcDbLine
 10
981.333965626
 20
269.5028453541
 11
778.8339656255
 21
269.5028453541
  0
LINE
  5
166
100
AcDbEntity
  8
_2-0_
  6
CONTINUOUS
 62
     0
100
AcDbLine
 10
981.333965626
 20
251.5028453541
 11
778.8339656255
 21
251.5028453541
  0
LINE
  5
167
100
AcDbEntity
  8
_2-0_
  6
CONTINUOUS
 62
     0
100
AcDbLine
 10
981.333965626
 20
233.5028453541
 11
778.8339656255
 21
233.5028453541
  0
LINE
  5
168
100
AcDbEntity
  8
_2-0_
  6
CONTINUOUS
 62
     0
100
AcDbLine
 10
981.333965626
 20
215.5028453541
 11
778.8339656255
 21
215.5028453541
  0
TEXT
  5
169
100
AcDbEntity
  8
_2-0_
  6
CONTINUOUS
 62
     0
100
AcDbText
 10
905.3964656255
 20
273.3778453541
 40
7.5
  1
700
  7
STANDARD
100
AcDbText
  0
TEXT
  5
16A
100
AcDbEntity
  8
_2-0_
  6
CONTINUOUS
 62
     0
100
AcDbText
 10
905.3964656255
 20
255.3778453541
 40
7.5
  1
750
 41
0.9986666666667
  7
STANDARD
100
AcDbText
  0
TEXT
  5
16B
100
AcDbEntity
  8
_2-0_
  6
CONTINUOUS
 62
     0
100
AcDbText
 10
905.3964656255
 20
237.3778453541
 40
7.5
  1
800
 41
0.9986666666667
  7
STANDARD
100
AcDbText
  0
TEXT
  5
16C
100
AcDbEntity
  8
_2-0_
  6
CONTINUOUS
 62
     0
100
AcDbText
 10
905.3964656255
 20
219.3778453541
 40
7.5
  1
850
  7
STANDARD
100
AcDbText
  0
TEXT
  5
16D
100
AcDbEntity
  8
_2-0_
  6
CONTINUOUS
 62
     0
100
AcDbText
 10
905.3964656255
 20
201.3778453541
 40
7.5
  1
900
  7
STANDARD
100
AcDbText
  0
TEXT
  5
16E
100
AcDbEntity
  8
_2-0_
  6
CONTINUOUS
 62
     0
100
AcDbText
 10
950.3964656255
 20
201.3778453541
 40
7.5
  1
220
  7
STANDARD
100
AcDbText
  0
TEXT
  5
16F
100
AcDbEntity
  8
_2-0_
  6
CONTINUOUS
 62
     0
100
AcDbText
 10
950.3964656255
 20
219.3778453541
 40
7.5
  1
195
  7
STANDARD
100
AcDbText
  0
TEXT
  5
170
100
AcDbEntity
  8
_2-0_
  6
CONTINUOUS
 62
     0
100
AcDbText
 10
950.3964656255
 20
237.3778453541
 40
7.5
  1
170
 41
0.9986666666667
  7
STANDARD
100
AcDbText
  0
TEXT
  5
171
100
AcDbEntity
  8
_2-0_
  6
CONTINUOUS
 62
     0
100
AcDbText
 10
950.3964656255
 20
255.3778453541
 40
7.5
  1
145
 41
0.9986666666667
  7
STANDARD
100
AcDbText
  0
TEXT
  5
172
100
AcDbEntity
  8
_2-0_
  6
CONTINUOUS
 62
     0
100
AcDbText
 10
950.3964656255
 20
273.3778453541
 40
7.5
  1
120
  7
STANDARD
100
AcDbText
  0
LINE
  5
173
100
AcDbEntity
  8
_2-0_
  6
CONTINUOUS
 62
     0
100
AcDbLine
 10
981.333965626
 20
287.5028453541
 11
778.8339656255
 21
287.5028453541
  0
TEXT
  5
174
100
AcDbEntity
  8
_2-0_
  6
CONTINUOUS
 62
     0
100
AcDbText
 10
810.2089648755
 20
291.3778453541
 40
7.5
  1
タ　イ　プ
  7
STANDARD
100
AcDbText
  0
TEXT
  5
175
100
AcDbEntity
  8
_2-0_
  6
CONTINUOUS
 62
     0
100
AcDbText
 10
908.7089656255
 20
291.3778453541
 40
7.5
  1
Ｗ
 41
0.9986666666667
  7
STANDARD
100
AcDbText
  0
TEXT
  5
176
100
AcDbEntity
  8
_2-0_
  6
CONTINUOUS
 62
     0
100
AcDbText
 10
953.7089656255
 20
291.3778453541
 40
7.5
  1
Ｃ
 41
0.9986666666667
  7
STANDARD
100
AcDbText
  0
TEXT
  5
177
100
AcDbEntity
  8
_2-0_
  6
CONTINUOUS
 62
     0
100
AcDbText
 10
916.0839656255
 20
305.8645263858
 40
7.5
  1
（単位：mm）
  7
STANDARD
100
AcDbText
  0
LINE
  5
178
100
AcDbEntity
  8
_2-0_
  6
CONTINUOUS
 62
     0
100
AcDbLine
 10
778.8339656255
 20
305.5028453541
 11
778.8339656255
 21
197.5028453541
  0
LINE
  5
179
100
AcDbEntity
  8
_2-0_
  6
CONTINUOUS
 62
     0
100
AcDbLine
 10
891.3339656255
 20
305.5028453541
 11
891.3339656255
 21
197.5028453541
  0
LINE
  5
17A
100
AcDbEntity
  8
_2-0_
  6
CONTINUOUS
 62
     0
100
AcDbLine
 10
936.3339656255
 20
305.5028453541
 11
936.3339656255
 21
197.5028453541
  0
LINE
  5
17B
100
AcDbEntity
  8
_2-0_
  6
CONTINUOUS
 62
     0
100
AcDbLine
 10
981.333965626
 20
305.5028453541
 11
981.333965626
 21
197.5028453541
  0
TEXT
  5
17C
100
AcDbEntity
  8
_0-0_
  6
CONTINUOUS
 62
     0
100
AcDbText
 10
456.7089656255
 20
291.3778453541
 40
7.5
  1
規　格
  7
STANDARD
100
AcDbText
  0
TEXT
  5
17D
100
AcDbEntity
  8
_0-0_
  6
CONTINUOUS
 62
     0
100
AcDbText
 10
304.5839656255
 20
291.3778453541
 40
7.5
  1
部材名称
 41
0.9986666666667
  7
STANDARD
100
AcDbText
  0
TEXT
  5
17E
100
AcDbEntity
  8
_0-0_
  6
CONTINUOUS
 62
     0
100
AcDbText
 10
255.4589656255
 20
255.3778453541
 40
7.5
  1
ＦＹＹフレーム
 41
0.9986666666667
  7
STANDARD
100
AcDbText
  0
TEXT
  5
17F
100
AcDbEntity
  8
_0-0_
  6
CONTINUOUS
 62
     0
100
AcDbText
 10
254.8339656255
 20
273.3778453541
 40
7.5
  1
ＦＹＹキヤップＡ
  7
STANDARD
100
AcDbText
  0
LINE
  5
180
100
AcDbEntity
  8
_0-0_
  6
CONTINUOUS
 62
     0
100
AcDbLine
 10
646.8339656255
 20
251.5028453541
 11
546.3339656255
 21
251.5028453541
  0
LINE
  5
181
100
AcDbEntity
  8
_0-0_
  6
CONTINUOUS
 62
     0
100
AcDbLine
 10
646.8339656255
 20
269.5028453541
 11
546.3339656255
 21
269.5028453541
  0
LINE
  5
182
100
AcDbEntity
  8
_0-0_
  6
CONTINUOUS
 62
     0
100
AcDbLine
 10
646.8339656255
 20
287.5028453541
 11
546.3339656255
 21
287.5028453541
  0
LINE
  5
183
100
AcDbEntity
  8
_0-0_
  6
CONTINUOUS
 62
     0
100
AcDbLine
 10
646.8339656255
 20
305.5028453541
 11
546.3339656255
 21
305.5028453541
  0
LINE
  5
184
100
AcDbEntity
  8
_0-0_
  6
CONTINUOUS
 62
     0
100
AcDbLine
 10
648.3339656255
 20
143.5028453541
 11
748.8339656255
 21
143.5028453541
  0
LINE
  5
185
100
AcDbEntity
  8
_0-0_
  6
CONTINUOUS
 62
     0
100
AcDbLine
 10
648.3339656255
 20
251.5028453541
 11
748.8339656255
 21
251.5028453541
  0
LINE
  5
186
100
AcDbEntity
  8
_0-0_
  6
CONTINUOUS
 62
     0
100
AcDbLine
 10
648.3339656255
 20
269.5028453541
 11
748.8339656255
 21
269.5028453541
  0
LINE
  5
187
100
AcDbEntity
  8
_0-0_
  6
CONTINUOUS
 62
     0
100
AcDbLine
 10
648.3339656255
 20
287.5028453541
 11
748.8339656255
 21
287.5028453541
  0
LINE
  5
188
100
AcDbEntity
  8
_0-0_
  6
CONTINUOUS
 62
     0
100
AcDbLine
 10
648.3339656255
 20
305.5028453541
 11
748.8339656255
 21
305.5028453541
  0
TEXT
  5
189
100
AcDbEntity
  8
_0-0_
  6
CONTINUOUS
 62
     0
100
AcDbText
 10
631.2089656255
 20
255.3778453541
 40
7.5
  1
〃
 41
0.9986666666667
  7
STANDARD
100
AcDbText
  0
TEXT
  5
18A
100
AcDbEntity
  8
_0-0_
  6
CONTINUOUS
 62
     0
100
AcDbText
 10
631.2089656255
 20
273.3778453541
 40
7.5
  1
本
 41
0.9986666666667
  7
STANDARD
100
AcDbText
  0
TEXT
  5
18B
100
AcDbEntity
  8
_0-0_
  6
CONTINUOUS
 62
     0
100
AcDbText
 10
733.2089656255
 20
255.3778453541
 40
7.5
  1
〃
  7
STANDARD
100
AcDbText
  0
TEXT
  5
18C
100
AcDbEntity
  8
_0-0_
  6
CONTINUOUS
 62
     0
100
AcDbText
 10
733.2089656255
 20
273.3778453541
 40
7.5
  1
本
  7
STANDARD
100
AcDbText
  0
TEXT
  5
18D
100
AcDbEntity
  8
_0-0_
  6
CONTINUOUS
 62
     0
100
AcDbText
 10
727.3339656255
 20
291.3778453541
 40
7.5
  1
単位
 41
0.9986666666667
  7
STANDARD
100
AcDbText
  0
TEXT
  5
18E
100
AcDbEntity
  8
_0-0_
  6
CONTINUOUS
 62
     0
100
AcDbText
 10
625.3339656255
 20
291.3778453541
 40
7.5
  1
単位
 41
0.9986666666667
  7
STANDARD
100
AcDbText
  0
TEXT
  5
18F
100
AcDbEntity
  8
_0-0_
  6
CONTINUOUS
 62
     0
100
AcDbText
 10
561.2089656255
 20
255.3778453541
 40
7.5
  1
3000
  7
STANDARD
100
AcDbText
  0
TEXT
  5
190
100
AcDbEntity
  8
_0-0_
  6
CONTINUOUS
 62
     0
100
AcDbText
 10
663.2089656255
 20
255.3778453541
 40
7.5
  1
2000
  7
STANDARD
100
AcDbText
  0
TEXT
  5
191
100
AcDbEntity
  8
_0-0_
  6
CONTINUOUS
 62
     0
100
AcDbText
 10
663.2089656255
 20
273.3778453541
 40
7.5
  1
2000
  7
STANDARD
100
AcDbText
  0
TEXT
  5
192
100
AcDbEntity
  8
_0-0_
  6
CONTINUOUS
 62
     0
100
AcDbText
 10
651.4589656255
 20
291.3778453541
 40
7.5
  1
定尺(mm)
 41
0.9986666666667
  7
STANDARD
100
AcDbText
  0
TEXT
  5
193
100
AcDbEntity
  8
_0-0_
  6
CONTINUOUS
 62
     0
100
AcDbText
 10
561.2089656255
 20
273.3778453541
 40
7.5
  1
3000
  7
STANDARD
100
AcDbText
  0
TEXT
  5
194
100
AcDbEntity
  8
_0-0_
  6
CONTINUOUS
 62
     0
100
AcDbText
 10
601.3339656255
 20
291.3778453541
 40
7.5
  1
入数
  7
STANDARD
100
AcDbText
  0
TEXT
  5
195
100
AcDbEntity
  8
_0-0_
  6
CONTINUOUS
 62
     0
100
AcDbText
 10
606.8339656255
 20
273.3778453541
 40
7.5
  1
 1
 41
0.9986666666667
  7
STANDARD
100
AcDbText
  0
TEXT
  5
196
100
AcDbEntity
  8
_0-0_
  6
CONTINUOUS
 62
     0
100
AcDbText
 10
606.8339656255
 20
255.3778453541
 40
7.5
  1
 2
 41
0.9986666666667
  7
STANDARD
100
AcDbText
  0
TEXT
  5
197
100
AcDbEntity
  8
_0-0_
  6
CONTINUOUS
 62
     0
100
AcDbText
 10
708.8339656255
 20
255.3778453541
 40
7.5
  1
 2
 41
0.9986666666667
  7
STANDARD
100
AcDbText
  0
TEXT
  5
198
100
AcDbEntity
  8
_0-0_
  6
CONTINUOUS
 62
     0
100
AcDbText
 10
708.8339656255
 20
273.3778453541
 40
7.5
  1
 1
 41
0.9986666666667
  7
STANDARD
100
AcDbText
  0
TEXT
  5
199
100
AcDbEntity
  8
_0-0_
  6
CONTINUOUS
 62
     0
100
AcDbText
 10
703.3339656255
 20
291.3778453541
 40
7.5
  1
入数
  7
STANDARD
100
AcDbText
  0
LINE
  5
19A
100
AcDbEntity
  8
_0-0_
  6
CONTINUOUS
 62
     0
100
AcDbLine
 10
544.8339656255
 20
233.5028453541
 11
231.3339656255
 21
233.5028453541
  0
LINE
  5
19B
100
AcDbEntity
  8
_0-0_
  6
CONTINUOUS
 62
     0
100
AcDbLine
 10
544.8339656255
 20
251.5028453541
 11
231.3339656255
 21
251.5028453541
  0
LINE
  5
19C
100
AcDbEntity
  8
_0-0_
  6
CONTINUOUS
 62
     0
100
AcDbLine
 10
544.8339656255
 20
269.5028453541
 11
231.3339656255
 21
269.5028453541
  0
LINE
  5
19D
100
AcDbEntity
  8
_0-0_
  6
CONTINUOUS
 62
     0
100
AcDbLine
 10
544.8339656255
 20
287.5028453541
 11
231.3339656255
 21
287.5028453541
  0
LINE
  5
19E
100
AcDbEntity
  8
_0-0_
  6
CONTINUOUS
 62
     0
100
AcDbLine
 10
544.8339656255
 20
107.5028453541
 11
231.3339656255
 21
107.5028453541
  0
LINE
  5
19F
100
AcDbEntity
  8
_0-0_
  6
CONTINUOUS
 62
     0
100
AcDbLine
 10
544.8339656255
 20
125.5028453541
 11
231.3339656255
 21
125.5028453541
  0
LINE
  5
1A0
100
AcDbEntity
  8
_0-0_
  6
CONTINUOUS
 62
     0
100
AcDbLine
 10
544.8339656255
 20
161.5028453541
 11
231.3339656255
 21
161.5028453541
  0
LINE
  5
1A1
100
AcDbEntity
  8
_0-0_
  6
CONTINUOUS
 62
     0
100
AcDbLine
 10
544.8339656255
 20
179.5028453541
 11
231.3339656255
 21
179.5028453541
  0
LINE
  5
1A2
100
AcDbEntity
  8
_0-0_
  6
CONTINUOUS
 62
     0
100
AcDbLine
 10
544.8339656255
 20
197.5028453541
 11
231.3339656255
 21
197.5028453541
  0
LINE
  5
1A3
100
AcDbEntity
  8
_0-0_
  6
CONTINUOUS
 62
     0
100
AcDbLine
 10
544.8339656255
 20
215.5028453541
 11
231.3339656255
 21
215.5028453541
  0
LINE
  5
1A4
100
AcDbEntity
  8
_0-0_
  6
CONTINUOUS
 62
     0
100
AcDbLine
 10
544.8339656255
 20
143.5028453541
 11
231.3339656255
 21
143.5028453541
  0
LINE
  5
1A5
100
AcDbEntity
  8
_0-0_
  6
CONTINUOUS
 62
     0
100
AcDbLine
 10
544.8339656255
 20
53.50284535411
 11
231.3339656255
 21
53.50284535411
  0
LINE
  5
1A6
100
AcDbEntity
  8
_0-0_
  6
CONTINUOUS
 62
     0
100
AcDbLine
 10
544.8339656255
 20
71.50284535411
 11
231.3339656255
 21
71.50284535411
  0
LINE
  5
1A7
100
AcDbEntity
  8
_0-0_
  6
CONTINUOUS
 62
     0
100
AcDbLine
 10
544.8339656255
 20
89.5028453541
 11
231.3339656255
 21
89.5028453541
  0
LINE
  5
1A8
100
AcDbEntity
  8
_0-0_
  6
CONTINUOUS
 62
     0
100
AcDbLine
 10
544.8339656255
 20
305.5028453541
 11
231.3339656255
 21
305.5028453541
  0
TEXT
  5
1A9
100
AcDbEntity
  8
_0-0_
  6
CONTINUOUS
 62
     0
100
AcDbText
 10
236.3339656255
 20
75.37784535411
 40
7.5
  1
12
 41
0.9986666666667
  7
STANDARD
100
AcDbText
  0
TEXT
  5
1AA
100
AcDbEntity
  8
_0-0_
  6
CONTINUOUS
 62
     0
100
AcDbText
 10
236.3339656255
 20
93.3778453541
 40
7.49
  1
11
  7
STANDARD
100
AcDbText
  0
TEXT
  5
1AB
100
AcDbEntity
  8
_0-0_
  6
CONTINUOUS
 62
     0
100
AcDbText
 10
236.3339656255
 20
111.3778453541
 40
7.49
  1
10
  7
STANDARD
100
AcDbText
  0
TEXT
  5
1AC
100
AcDbEntity
  8
_0-0_
  6
CONTINUOUS
 62
     0
100
AcDbText
 10
236.3339656255
 20
129.3778453541
 40
7.5
  1
 9
 41
0.9986666666667
  7
STANDARD
100
AcDbText
  0
TEXT
  5
1AD
100
AcDbEntity
  8
_0-0_
  6
CONTINUOUS
 62
     0
100
AcDbText
 10
236.3339656255
 20
147.3778453541
 40
7.5
  1
 8
 41
0.9986666666667
  7
STANDARD
100
AcDbText
  0
TEXT
  5
1AE
100
AcDbEntity
  8
_0-0_
  6
CONTINUOUS
 62
     0
100
AcDbText
 10
236.3339656255
 20
165.3778453541
 40
7.5
  1
 7
 41
0.9986666666667
  7
STANDARD
100
AcDbText
  0
TEXT
  5
1AF
100
AcDbEntity
  8
_0-0_
  6
CONTINUOUS
 62
     0
100
AcDbText
 10
236.3339656255
 20
183.3778453541
 40
7.5
  1
 6
 41
0.9986666666667
  7
STANDARD
100
AcDbText
  0
TEXT
  5
1B0
100
AcDbEntity
  8
_0-0_
  6
CONTINUOUS
 62
     0
100
AcDbText
 10
236.3339656255
 20
201.3778453541
 40
7.5
  1
 5
 41
0.9986666666667
  7
STANDARD
100
AcDbText
  0
TEXT
  5
1B1
100
AcDbEntity
  8
_0-0_
  6
CONTINUOUS
 62
     0
100
AcDbText
 10
236.3339656255
 20
219.3778453541
 40
7.5
  1
 4
 41
0.9986666666667
  7
STANDARD
100
AcDbText
  0
TEXT
  5
1B2
100
AcDbEntity
  8
_0-0_
  6
CONTINUOUS
 62
     0
100
AcDbText
 10
236.3339656255
 20
237.3778453541
 40
7.5
  1
 3
 41
0.9986666666667
  7
STANDARD
100
AcDbText
  0
TEXT
  5
1B3
100
AcDbEntity
  8
_0-0_
  6
CONTINUOUS
 62
     0
100
AcDbText
 10
236.3339656255
 20
255.3778453541
 40
7.5
  1
 2
 41
0.9986666666667
  7
STANDARD
100
AcDbText
  0
TEXT
  5
1B4
100
AcDbEntity
  8
_0-0_
  6
CONTINUOUS
 62
     0
100
AcDbText
 10
233.3964656255
 20
291.3778453541
 40
7.5
  1
No.
  7
STANDARD
100
AcDbText
  0
TEXT
  5
1B5
100
AcDbEntity
  8
_0-0_
  6
CONTINUOUS
 62
     0
100
AcDbText
 10
236.3339656255
 20
273.3778453541
 40
7.5
  1
 1
 41
0.9986666666667
  7
STANDARD
100
AcDbText
  0
TEXT
  5
1B6
100
AcDbEntity
  8
_0-0_
  6
CONTINUOUS
 62
     0
100
AcDbText
 10
549.4589656255
 20
291.3778453541
 40
7.5
  1
定尺(mm)
  7
STANDARD
100
AcDbText
  0
TEXT
  5
1B7
100
AcDbEntity
  8
_0-0_
  6
CONTINUOUS
 62
     0
100
AcDbText
 10
550.3339656255
 20
305.8645263858
 40
7.5
  1
（3000mmセット）
  7
STANDARD
100
AcDbText
  0
TEXT
  5
1B8
100
AcDbEntity
  8
_0-0_
  6
CONTINUOUS
 62
     0
100
AcDbText
 10
652.3339656255
 20
305.8645263858
 40
7.5
  1
（2000mmセット）
 41
0.9986666666667
  7
STANDARD
100
AcDbText
  0
TEXT
  5
1B9
100
AcDbEntity
  8
_0-0_
  6
CONTINUOUS
 62
     0
100
AcDbText
 10
253.5839656255
 20
183.3778453541
 40
7.5
  1
ＦＹＹ水切ジョイント
 41
0.9986666666667
  7
STANDARD
100
AcDbText
  0
TEXT
  5
1BA
100
AcDbEntity
  8
_0-0_
  6
CONTINUOUS
 62
     0
100
AcDbText
 10
253.5839656255
 20
201.3778453541
 40
7.5
  1
ＦＹＹフレームナット
 41
0.9986666666667
  7
STANDARD
100
AcDbText
  0
TEXT
  5
1BB
100
AcDbEntity
  8
_0-0_
  6
CONTINUOUS
 62
     0
100
AcDbText
 10
255.4589656255
 20
237.3778453541
 40
7.5
  1
ＦＹＹホルダー
 41
0.9986666666667
  7
STANDARD
100
AcDbText
  0
TEXT
  5
1BC
100
AcDbEntity
  8
_0-0_
  6
CONTINUOUS
 62
     0
100
AcDbText
 10
252.3339656255
 20
219.3778453541
 40
7.5
  1
ＦＹＹホルダースプリング
  7
STANDARD
100
AcDbText
  0
LINE
  5
1BD
100
AcDbEntity
  8
_0-0_
  6
CONTINUOUS
 62
     0
100
AcDbLine
 10
646.8339656255
 20
179.5028453541
 11
546.3339656255
 21
179.5028453541
  0
LINE
  5
1BE
100
AcDbEntity
  8
_0-0_
  6
CONTINUOUS
 62
     0
100
AcDbLine
 10
646.8339656255
 20
197.5028453541
 11
546.3339656255
 21
197.5028453541
  0
LINE
  5
1BF
100
AcDbEntity
  8
_0-0_
  6
CONTINUOUS
 62
     0
100
AcDbLine
 10
646.8339656255
 20
215.5028453541
 11
546.3339656255
 21
215.5028453541
  0
LINE
  5
1C0
100
AcDbEntity
  8
_0-0_
  6
CONTINUOUS
 62
     0
100
AcDbLine
 10
646.8339656255
 20
233.5028453541
 11
546.3339656255
 21
233.5028453541
  0
LINE
  5
1C1
100
AcDbEntity
  8
_0-0_
  6
CONTINUOUS
 62
     0
100
AcDbLine
 10
648.3339656255
 20
197.5028453541
 11
748.8339656255
 21
197.5028453541
  0
LINE
  5
1C2
100
AcDbEntity
  8
_0-0_
  6
CONTINUOUS
 62
     0
100
AcDbLine
 10
648.3339656255
 20
215.5028453541
 11
748.8339656255
 21
215.5028453541
  0
LINE
  5
1C3
100
AcDbEntity
  8
_0-0_
  6
CONTINUOUS
 62
     0
100
AcDbLine
 10
648.3339656255
 20
233.5028453541
 11
748.8339656255
 21
233.5028453541
  0
LINE
  5
1C4
100
AcDbEntity
  8
_0-0_
  6
CONTINUOUS
 62
     0
100
AcDbLine
 10
648.3339656255
 20
251.5028453541
 11
748.8339656255
 21
251.5028453541
  0
LINE
  5
1C5
100
AcDbEntity
  8
_0-0_
  6
CONTINUOUS
 62
     0
100
AcDbLine
 10
648.3339656255
 20
179.5028453541
 11
748.8339656255
 21
179.5028453541
  0
TEXT
  5
1C6
100
AcDbEntity
  8
_0-0_
  6
CONTINUOUS
 62
     0
100
AcDbText
 10
631.2089656255
 20
183.3778453541
 40
7.5
  1
〃
 41
0.9986666666667
  7
STANDARD
100
AcDbText
  0
TEXT
  5
1C7
100
AcDbEntity
  8
_0-0_
  6
CONTINUOUS
 62
     0
100
AcDbText
 10
631.2089656255
 20
201.3778453541
 40
7.5
  1
〃
 41
0.9986666666667
  7
STANDARD
100
AcDbText
  0
TEXT
  5
1C8
100
AcDbEntity
  8
_0-0_
  6
CONTINUOUS
 62
     0
100
AcDbText
 10
631.2089656255
 20
219.3778453541
 40
7.5
  1
〃
 41
0.9986666666667
  7
STANDARD
100
AcDbText
  0
TEXT
  5
1C9
100
AcDbEntity
  8
_0-0_
  6
CONTINUOUS
 62
     0
100
AcDbText
 10
631.2089656255
 20
237.3778453541
 40
7.5
  1
個
 41
0.9986666666667
  7
STANDARD
100
AcDbText
  0
TEXT
  5
1CA
100
AcDbEntity
  8
_0-0_
  6
CONTINUOUS
 62
     0
100
AcDbText
 10
733.2089656255
 20
183.3778453541
 40
7.5
  1
〃
  7
STANDARD
100
AcDbText
  0
TEXT
  5
1CB
100
AcDbEntity
  8
_0-0_
  6
CONTINUOUS
 62
     0
100
AcDbText
 10
733.2089656255
 20
201.3778453541
 40
7.5
  1
〃
  7
STANDARD
100
AcDbText
  0
TEXT
  5
1CC
100
AcDbEntity
  8
_0-0_
  6
CONTINUOUS
 62
     0
100
AcDbText
 10
733.2089656255
 20
219.3778453541
 40
7.5
  1
〃
  7
STANDARD
100
AcDbText
  0
TEXT
  5
1CD
100
AcDbEntity
  8
_0-0_
  6
CONTINUOUS
 62
     0
100
AcDbText
 10
733.2089656255
 20
237.3778453541
 40
7.5
  1
個
  7
STANDARD
100
AcDbText
  0
TEXT
  5
1CE
100
AcDbEntity
  8
_0-0_
  6
CONTINUOUS
 62
     0
100
AcDbText
 10
733.2089656255
 20
255.3778453541
 40
7.5
  1
〃
  7
STANDARD
100
AcDbText
  0
TEXT
  5
1CF
100
AcDbEntity
  8
_0-0_
  6
CONTINUOUS
 62
     0
100
AcDbText
 10
606.8339656255
 20
237.3778453541
 40
7.5
  1
 6
 41
0.9986666666667
  7
STANDARD
100
AcDbText
  0
TEXT
  5
1D0
100
AcDbEntity
  8
_0-0_
  6
CONTINUOUS
 62
     0
100
AcDbText
 10
606.8339656255
 20
219.3778453541
 40
7.5
  1
12
 41
0.9986666666667
  7
STANDARD
100
AcDbText
  0
TEXT
  5
1D1
100
AcDbEntity
  8
_0-0_
  6
CONTINUOUS
 62
     0
100
AcDbText
 10
606.8339656255
 20
201.3778453541
 40
7.5
  1
12
 41
0.9986666666667
  7
STANDARD
100
AcDbText
  0
TEXT
  5
1D2
100
AcDbEntity
  8
_0-0_
  6
CONTINUOUS
 62
     0
100
AcDbText
 10
606.8339656255
 20
183.3778453541
 40
7.5
  1
 1
 41
0.9986666666667
  7
STANDARD
100
AcDbText
  0
TEXT
  5
1D3
100
AcDbEntity
  8
_0-0_
  6
CONTINUOUS
 62
     0
100
AcDbText
 10
708.8339656255
 20
183.3778453541
 40
7.5
  1
 1
 41
0.9986666666667
  7
STANDARD
100
AcDbText
  0
TEXT
  5
1D4
100
AcDbEntity
  8
_0-0_
  6
CONTINUOUS
 62
     0
100
AcDbText
 10
708.8339656255
 20
201.3778453541
 40
7.5
  1
 8
 41
0.9986666666667
  7
STANDARD
100
AcDbText
  0
TEXT
  5
1D5
100
AcDbEntity
  8
_0-0_
  6
CONTINUOUS
 62
     0
100
AcDbText
 10
708.8339656255
 20
219.3778453541
 40
7.5
  1
 8
 41
0.9986666666667
  7
STANDARD
100
AcDbText
  0
TEXT
  5
1D6
100
AcDbEntity
  8
_0-0_
  6
CONTINUOUS
 62
     0
100
AcDbText
 10
708.8339656255
 20
237.3778453541
 40
7.5
  1
 4
 41
0.9986666666667
  7
STANDARD
100
AcDbText
  0
TEXT
  5
1D7
100
AcDbEntity
  8
_0-0_
  6
CONTINUOUS
 62
     0
100
AcDbText
 10
708.8339656255
 20
255.3778453541
 40
7.5
  1
 2
 41
0.9986666666667
  7
STANDARD
100
AcDbText
  0
TEXT
  5
1D8
100
AcDbEntity
  8
_0-0_
  6
CONTINUOUS
 62
     0
100
AcDbText
 10
256.7089656255
 20
165.3778453541
 40
7.5
  1
止水補助板
  7
STANDARD
100
AcDbText
  0
LINE
  5
1D9
100
AcDbEntity
  8
_0-0_
  6
CONTINUOUS
 62
     0
100
AcDbLine
 10
646.8339656255
 20
161.5028453541
 11
546.3339656255
 21
161.5028453541
  0
LINE
  5
1DA
100
AcDbEntity
  8
_0-0_
  6
CONTINUOUS
 62
     0
100
AcDbLine
 10
648.3339656255
 20
161.5028453541
 11
748.8339656255
 21
161.5028453541
  0
TEXT
  5
1DB
100
AcDbEntity
  8
_0-0_
  6
CONTINUOUS
 62
     0
100
AcDbText
 10
631.2089656255
 20
165.3778453541
 40
7.5
  1
〃
 41
0.9986666666667
  7
STANDARD
100
AcDbText
  0
TEXT
  5
1DC
100
AcDbEntity
  8
_0-0_
  6
CONTINUOUS
 62
     0
100
AcDbText
 10
733.2089656255
 20
165.3778453541
 40
7.5
  1
〃
  7
STANDARD
100
AcDbText
  0
TEXT
  5
1DD
100
AcDbEntity
  8
_0-0_
  6
CONTINUOUS
 62
     0
100
AcDbText
 10
561.2089656255
 20
165.3778453541
 40
7.5
  1
3100
 41
0.9986666666667
  7
STANDARD
100
AcDbText
  0
TEXT
  5
1DE
100
AcDbEntity
  8
_0-0_
  6
CONTINUOUS
 62
     0
100
AcDbText
 10
663.2089656255
 20
165.3778453541
 40
7.5
  1
2100
  7
STANDARD
100
AcDbText
  0
TEXT
  5
1DF
100
AcDbEntity
  8
_0-0_
  6
CONTINUOUS
 62
     0
100
AcDbText
 10
708.8339656255
 20
165.3778453541
 40
7.5
  1
 1
 41
0.9986666666667
  7
STANDARD
100
AcDbText
  0
TEXT
  5
1E0
100
AcDbEntity
  8
_0-0_
  6
CONTINUOUS
 62
     0
100
AcDbText
 10
606.8339656255
 20
165.3778453541
 40
7.5
  1
 1
 41
0.9986666666667
  7
STANDARD
100
AcDbText
  0
LINE
  5
1E1
100
AcDbEntity
  8
_0-0_
  6
CONTINUOUS
 62
     0
100
AcDbLine
 10
646.8339656255
 20
143.5028453541
 11
546.3339656255
 21
143.5028453541
  0
TEXT
  5
1E2
100
AcDbEntity
  8
_0-0_
  6
CONTINUOUS
 62
     0
100
AcDbText
 10
256.0172886827
 20
147.940117687
 40
7.5
  1
ウォーターガード
  7
STANDARD
100
AcDbText
  0
LINE
  5
1E3
100
AcDbEntity
  8
_0-0_
  6
CONTINUOUS
 62
     0
100
AcDbLine
 10
646.8339656255
 20
143.5028453541
 11
546.3339656255
 21
143.5028453541
  0
LINE
  5
1E4
100
AcDbEntity
  8
_0-0_
  6
CONTINUOUS
 62
     0
100
AcDbLine
 10
648.3339656255
 20
143.5028453541
 11
748.8339656255
 21
143.5028453541
  0
TEXT
  5
1E5
100
AcDbEntity
  8
_0-0_
  6
CONTINUOUS
 62
     0
100
AcDbText
 10
631.2089656255
 20
147.3778453541
 40
7.5
  1
〃
 41
0.9986666666667
  7
STANDARD
100
AcDbText
  0
TEXT
  5
1E6
100
AcDbEntity
  8
_0-0_
  6
CONTINUOUS
 62
     0
100
AcDbText
 10
733.2089656255
 20
147.3778453541
 40
7.5
  1
〃
  7
STANDARD
100
AcDbText
  0
TEXT
  5
1E7
100
AcDbEntity
  8
_0-0_
  6
CONTINUOUS
 62
     0
100
AcDbText
 10
561.2089656255
 20
147.3778453541
 40
7.5
  1
3000
  7
STANDARD
100
AcDbText
  0
TEXT
  5
1E8
100
AcDbEntity
  8
_0-0_
  6
CONTINUOUS
 62
     0
100
AcDbText
 10
663.2089656255
 20
147.3778453541
 40
7.5
  1
2000
  7
STANDARD
100
AcDbText
  0
TEXT
  5
1E9
100
AcDbEntity
  8
_0-0_
  6
CONTINUOUS
 62
     0
100
AcDbText
 10
606.8339656255
 20
147.3778453541
 40
7.5
  1
 2
 41
0.9986666666667
  7
STANDARD
100
AcDbText
  0
TEXT
  5
1EA
100
AcDbEntity
  8
_0-0_
  6
CONTINUOUS
 62
     0
100
AcDbText
 10
708.8339656255
 20
147.3778453541
 40
7.5
  1
 2
 41
0.9986666666667
  7
STANDARD
100
AcDbText
  0
LINE
  5
1EB
100
AcDbEntity
  8
_0-0_
  6
CONTINUOUS
 62
     0
100
AcDbLine
 10
648.3339656255
 20
143.5028453541
 11
748.8339656255
 21
143.5028453541
  0
TEXT
  5
1EC
100
AcDbEntity
  8
_0-0_
  6
CONTINUOUS
 62
     0
100
AcDbText
 10
733.2089656255
 20
147.3778453541
 40
7.5
  1
〃
  7
STANDARD
100
AcDbText
  0
TEXT
  5
1ED
100
AcDbEntity
  8
_0-0_
  6
CONTINUOUS
 62
     0
100
AcDbText
 10
708.8339656255
 20
147.3778453541
 40
7.5
  1
 2
 41
0.9986666666667
  7
STANDARD
100
AcDbText
  0
TEXT
  5
1EE
100
AcDbEntity
  8
_0-0_
  6
CONTINUOUS
 62
     0
100
AcDbText
 10
254.8339656255
 20
75.37784535411
 40
7.5
  1
ステンワッシャー
  7
STANDARD
100
AcDbText
  0
TEXT
  5
1EF
100
AcDbEntity
  8
_0-0_
  6
CONTINUOUS
 62
     0
100
AcDbText
 10
254.2089656255
 20
93.37784535411
 40
7.5
  1
アジャストアンカー
  7
STANDARD
100
AcDbText
  0
TEXT
  5
1F0
100
AcDbEntity
  8
_0-0_
  6
CONTINUOUS
 62
     0
100
AcDbText
 10
254.8339656255
 20
111.3778453541
 40
7.49
  1
ステン六角ボルト
 41
1.001335113485
  7
STANDARD
100
AcDbText
  0
LINE
  5
1F1
100
AcDbEntity
  8
_0-0_
  6
CONTINUOUS
 62
     0
100
AcDbLine
 10
646.8339656255
 20
53.50284535411
 11
546.3339656255
 21
53.50284535411
  0
LINE
  5
1F2
100
AcDbEntity
  8
_0-0_
  6
CONTINUOUS
 62
     0
100
AcDbLine
 10
646.8339656255
 20
125.5028453541
 11
546.3339656255
 21
125.5028453541
  0
LINE
  5
1F3
100
AcDbEntity
  8
_0-0_
  6
CONTINUOUS
 62
     0
100
AcDbLine
 10
646.8339656255
 20
143.5028453541
 11
546.3339656255
 21
143.5028453541
  0
LINE
  5
1F4
100
AcDbEntity
  8
_0-0_
  6
CONTINUOUS
 62
     0
100
AcDbLine
 10
646.8339656255
 20
71.50284535411
 11
546.3339656255
 21
71.50284535411
  0
LINE
  5
1F5
100
AcDbEntity
  8
_0-0_
  6
CONTINUOUS
 62
     0
100
AcDbLine
 10
646.8339656255
 20
89.50284535411
 11
546.3339656255
 21
89.50284535411
  0
LINE
  5
1F6
100
AcDbEntity
  8
_0-0_
  6
CONTINUOUS
 62
     0
100
AcDbLine
 10
646.8339656255
 20
107.5028453541
 11
546.3339656255
 21
107.5028453541
  0
LINE
  5
1F7
100
AcDbEntity
  8
_0-0_
  6
CONTINUOUS
 62
     0
100
AcDbLine
 10
648.3339656255
 20
53.50284535411
 11
748.8339656255
 21
53.50284535411
  0
LINE
  5
1F8
100
AcDbEntity
  8
_0-0_
  6
CONTINUOUS
 62
     0
100
AcDbLine
 10
648.3339656255
 20
71.50284535411
 11
748.8339656255
 21
71.50284535411
  0
LINE
  5
1F9
100
AcDbEntity
  8
_0-0_
  6
CONTINUOUS
 62
     0
100
AcDbLine
 10
648.3339656255
 20
89.50284535411
 11
748.8339656255
 21
89.50284535411
  0
LINE
  5
1FA
100
AcDbEntity
  8
_0-0_
  6
CONTINUOUS
 62
     0
100
AcDbLine
 10
648.3339656255
 20
125.5028453541
 11
748.8339656255
 21
125.5028453541
  0
LINE
  5
1FB
100
AcDbEntity
  8
_0-0_
  6
CONTINUOUS
 62
     0
100
AcDbLine
 10
648.3339656255
 20
143.5028453541
 11
748.8339656255
 21
143.5028453541
  0
LINE
  5
1FC
100
AcDbEntity
  8
_0-0_
  6
CONTINUOUS
 62
     0
100
AcDbLine
 10
648.3339656255
 20
107.5028453541
 11
748.8339656255
 21
107.5028453541
  0
TEXT
  5
1FD
100
AcDbEntity
  8
_0-0_
  6
CONTINUOUS
 62
     0
100
AcDbText
 10
631.2089656255
 20
75.37784535411
 40
7.5
  1
枚
 41
0.9986666666667
  7
STANDARD
100
AcDbText
  0
TEXT
  5
1FE
100
AcDbEntity
  8
_0-0_
  6
CONTINUOUS
 62
     0
100
AcDbText
 10
631.2089656255
 20
93.37784535411
 40
7.5
  1
〃
 41
0.9986666666667
  7
STANDARD
100
AcDbText
  0
TEXT
  5
1FF
100
AcDbEntity
  8
_0-0_
  6
CONTINUOUS
 62
     0
100
AcDbText
 10
631.2089656255
 20
111.3778453541
 40
7.49
  1
〃
  7
STANDARD
100
AcDbText
  0
TEXT
  5
200
100
AcDbEntity
  8
_0-0_
  6
CONTINUOUS
 62
     0
100
AcDbText
 10
631.2089656255
 20
129.3778453541
 40
7.49
  1
本
  7
STANDARD
100
AcDbText
  0
TEXT
  5
201
100
AcDbEntity
  8
_0-0_
  6
CONTINUOUS
 62
     0
100
AcDbText
 10
733.2089656255
 20
75.37784535411
 40
7.5
  1
枚
  7
STANDARD
100
AcDbText
  0
TEXT
  5
202
100
AcDbEntity
  8
_0-0_
  6
CONTINUOUS
 62
     0
100
AcDbText
 10
733.2089656255
 20
93.37784535411
 40
7.5
  1
〃
  7
STANDARD
100
AcDbText
  0
TEXT
  5
203
100
AcDbEntity
  8
_0-0_
  6
CONTINUOUS
 62
     0
100
AcDbText
 10
733.2089656255
 20
111.3778453541
 40
7.49
  1
〃
 41
1.001335113485
  7
STANDARD
100
AcDbText
  0
TEXT
  5
204
100
AcDbEntity
  8
_0-0_
  6
CONTINUOUS
 62
     0
100
AcDbText
 10
733.2089656255
 20
129.3778453541
 40
7.49
  1
本
 41
1.001335113485
  7
STANDARD
100
AcDbText
  0
TEXT
  5
205
100
AcDbEntity
  8
_0-0_
  6
CONTINUOUS
 62
     0
100
AcDbText
 10
606.8339656255
 20
129.3778453541
 40
7.49
  1
12
  7
STANDARD
100
AcDbText
  0
TEXT
  5
206
100
AcDbEntity
  8
_0-0_
  6
CONTINUOUS
 62
     0
100
AcDbText
 10
606.8339656255
 20
111.3778453541
 40
7.49
  1
12
  7
STANDARD
100
AcDbText
  0
TEXT
  5
207
100
AcDbEntity
  8
_0-0_
  6
CONTINUOUS
 62
     0
100
AcDbText
 10
606.8339656255
 20
93.37784535411
 40
7.5
  1
12
 41
0.9986666666667
  7
STANDARD
100
AcDbText
  0
TEXT
  5
208
100
AcDbEntity
  8
_0-0_
  6
CONTINUOUS
 62
     0
100
AcDbText
 10
606.8339656255
 20
75.37784535411
 40
7.5
  1
12
 41
0.9986666666667
  7
STANDARD
100
AcDbText
  0
TEXT
  5
209
100
AcDbEntity
  8
_0-0_
  6
CONTINUOUS
 62
     0
100
AcDbText
 10
708.8339656255
 20
75.37784535411
 40
7.5
  1
10
 41
0.9986666666667
  7
STANDARD
100
AcDbText
  0
TEXT
  5
20A
100
AcDbEntity
  8
_0-0_
  6
CONTINUOUS
 62
     0
100
AcDbText
 10
708.8339656255
 20
93.37784535411
 40
7.5
  1
10
 41
0.9986666666667
  7
STANDARD
100
AcDbText
  0
TEXT
  5
20B
100
AcDbEntity
  8
_0-0_
  6
CONTINUOUS
 62
     0
100
AcDbText
 10
708.8339656255
 20
111.3778453541
 40
7.49
  1
10
  7
STANDARD
100
AcDbText
  0
TEXT
  5
20C
100
AcDbEntity
  8
_0-0_
  6
CONTINUOUS
 62
     0
100
AcDbText
 10
708.8339656255
 20
129.3778453541
 40
7.49
  1
 8
  7
STANDARD
100
AcDbText
  0
TEXT
  5
20D
100
AcDbEntity
  8
_0-0_
  6
CONTINUOUS
 62
     0
100
AcDbText
 10
256.0839656255
 20
57.37784535411
 40
7.5
  1
ブチルテープ
 41
0.9986666666667
  7
STANDARD
100
AcDbText
  0
TEXT
  5
20E
100
AcDbEntity
  8
_0-0_
  6
CONTINUOUS
 62
     0
100
AcDbText
 10
631.2089656255
 20
57.37784535411
 40
7.5
  1
巻
 41
0.9986666666667
  7
STANDARD
100
AcDbText
  0
TEXT
  5
20F
100
AcDbEntity
  8
_0-0_
  6
CONTINUOUS
 62
     0
100
AcDbText
 10
733.2089656255
 20
57.37784535411
 40
7.5
  1
巻
  7
STANDARD
100
AcDbText
  0
TEXT
  5
210
100
AcDbEntity
  8
_0-0_
  6
CONTINUOUS
 62
     0
100
AcDbText
 10
561.2089656255
 20
57.37784535411
 40
7.5
  1
6000
 41
0.9986666666667
  7
STANDARD
100
AcDbText
  0
TEXT
  5
211
100
AcDbEntity
  8
_0-0_
  6
CONTINUOUS
 62
     0
100
AcDbText
 10
663.2089656255
 20
57.37784535411
 40
7.5
  1
6000
 41
0.9986666666667
  7
STANDARD
100
AcDbText
  0
TEXT
  5
212
100
AcDbEntity
  8
_0-0_
  6
CONTINUOUS
 62
     0
100
AcDbText
 10
606.8339656255
 20
57.37784535411
 40
7.5
  1
 1
 41
0.9986666666667
  7
STANDARD
100
AcDbText
  0
TEXT
  5
213
100
AcDbEntity
  8
_0-0_
  6
CONTINUOUS
 62
     0
100
AcDbText
 10
708.8339656255
 20
57.37784535411
 40
7.5
  1
 1
 41
0.9986666666667
  7
STANDARD
100
AcDbText
  0
LINE
  5
214
100
AcDbEntity
  8
_0-0_
  6
CONTINUOUS
 62
     0
100
AcDbLine
 10
231.3339656255
 20
53.50284535411
 11
231.3339656255
 21
305.5028453541
  0
LINE
  5
215
100
AcDbEntity
  8
_0-0_
  6
CONTINUOUS
 62
     0
100
AcDbLine
 10
252.3339656255
 20
53.50284535411
 11
252.3339656255
 21
305.5028453541
  0
LINE
  5
216
100
AcDbEntity
  8
_0-0_
  6
CONTINUOUS
 62
     0
100
AcDbLine
 10
402.3339656255
 20
53.50284535411
 11
402.3339656255
 21
305.5028453541
  0
LINE
  5
217
100
AcDbEntity
  8
_0-0_
  6
CONTINUOUS
 62
     0
100
AcDbLine
 10
544.8339656255
 20
53.50284535411
 11
544.8339656255
 21
305.5028453541
  0
LINE
  5
218
100
AcDbEntity
  8
_0-0_
  6
CONTINUOUS
 62
     0
100
AcDbLine
 10
546.3339656255
 20
53.50284535411
 11
546.3339656255
 21
305.5028453541
  0
LINE
  5
219
100
AcDbEntity
  8
_0-0_
  6
CONTINUOUS
 62
     0
100
AcDbLine
 10
598.8339656255
 20
53.50284535411
 11
598.8339656255
 21
305.5028453541
  0
LINE
  5
21A
100
AcDbEntity
  8
_0-0_
  6
CONTINUOUS
 62
     0
100
AcDbLine
 10
625.8339656255
 20
53.50284535411
 11
625.8339656255
 21
305.5028453541
  0
LINE
  5
21B
100
AcDbEntity
  8
_0-0_
  6
CONTINUOUS
 62
     0
100
AcDbLine
 10
646.8339656255
 20
53.50284535411
 11
646.8339656255
 21
305.5028453541
  0
LINE
  5
21C
100
AcDbEntity
  8
_0-0_
  6
CONTINUOUS
 62
     0
100
AcDbLine
 10
648.3339656255
 20
53.50284535411
 11
648.3339656255
 21
305.5028453541
  0
LINE
  5
21D
100
AcDbEntity
  8
_0-0_
  6
CONTINUOUS
 62
     0
100
AcDbLine
 10
700.8339656255
 20
53.50284535411
 11
700.8339656255
 21
305.5028453541
  0
LINE
  5
21E
100
AcDbEntity
  8
_0-0_
  6
CONTINUOUS
 62
     0
100
AcDbLine
 10
727.8339656255
 20
53.50284535411
 11
727.8339656255
 21
305.5028453541
  0
LINE
  5
21F
100
AcDbEntity
  8
_0-0_
  6
CONTINUOUS
 62
     0
100
AcDbLine
 10
748.8339656255
 20
53.50284535411
 11
748.8339656255
 21
305.5028453541
  0
TEXT
  5
220
100
AcDbEntity
  8
_0-0_
  6
CONTINUOUS
 62
     0
100
AcDbText
 10
236.7089656255
 20
57.37784535411
 40
7.5
  1
※
 41
0.9986666666667
  7
STANDARD
100
AcDbText
  0
TEXT
  5
221
100
AcDbEntity
  8
_2-0_
  6
CONTINUOUS
 62
     0
100
AcDbText
 10
80.8671737961
 20
802.6226916167
 40
12
  1
◇アルミ２００タイプ（２００ＦＹＹＧ－Ａ）
  7
STANDARD
100
AcDbText
  0
LINE
  5
222
100
AcDbEntity
  8
_0-1_PRO0
  6
CONTINUOUS
 62
     0
100
AcDbLine
 10
1017.022300264
 20
653.6551769351
 11
1018.199644264
 21
653.5934759351
  0
LINE
  5
223
100
AcDbEntity
  8
_1-0_
  6
CONTINUOUS
 62
     0
100
AcDbLine
 10
320.620747978
 20
652.3764979351
 11
311.433355978
 21
651.8950069351
  0
LINE
  5
224
100
AcDbEntity
  8
_2-0_
  6
CONTINUOUS
 62
     0
100
AcDbLine
 10
330.838642978
 20
636.3725574068
 11
330.4126654497
 21
636.7985349351
  0
ARC
  5
225
100
AcDbEntity
  8
_2-0_
  6
CONTINUOUS
 62
     0
100
AcDbCircle
 10
330.838642978
 20
628.5485349351
 40
8.25
100
AcDbArc
 50
71.07535558395
 51
90
  0
ARC
  5
226
100
AcDbEntity
  8
_2-0_
  6
CONTINUOUS
 62
     0
100
AcDbCircle
 10
300.838642978
 20
628.5485349351
 40
8.25
100
AcDbArc
 50
90
 51
108.9246444161
  0
ARC
  5
227
100
AcDbEntity
  8
_2-0_
  6
CONTINUOUS
 62
     0
100
AcDbCircle
 10
300.838642978
 20
628.5485349351
 40
9.25
100
AcDbArc
 50
90
 51
108.9246444161
  0
ARC
  5
228
100
AcDbEntity
  8
_2-0_
  6
CONTINUOUS
 62
     0
100
AcDbCircle
 10
330.838642978
 20
628.5485349351
 40
9.25
100
AcDbArc
 50
71.07535558395
 51
90
  0
ARC
  5
229
100
AcDbEntity
  8
_2-0_
  6
CONTINUOUS
 62
     0
100
AcDbCircle
 10
336.838642978
 20
646.0485349351
 40
9.25
100
AcDbArc
 50
-108.9246444161
 51
-90
  0
ARC
  5
22A
100
AcDbEntity
  8
_2-0_
  6
CONTINUOUS
 62
     0
100
AcDbCircle
 10
294.838642978
 20
646.0485349351
 40
9.25
100
AcDbArc
 50
-90
 51
-71.07535558395
  0
LINE
  5
22B
100
AcDbEntity
  8
_1-0_
  6
CONTINUOUS
 62
     0
100
AcDbLine
 10
851.056535978
 20
652.3764979351
 11
860.243927978
 21
651.8950069351
  0
LINE
  5
22C
100
AcDbEntity
  8
_2-1_ADD_LINE
  6
CONTINUOUS
 62
     0
100
AcDbLine
 10
263.6993063949
 20
688.6286976062
 11
135.8563152636
 21
681.9287296192
  0
TEXT
  5
22D
100
AcDbEntity
  8
_2-0_
  6
CONTINUOUS
 62
     0
100
AcDbText
 10
97.412991829
 20
779.2638896878
 40
12
  1
　　屋根－屋根
  7
STANDARD
100
AcDbText
  0
TEXT
  5
22E
100
AcDbEntity
  8
_2-0_
  6
CONTINUOUS
 62
     0
100
AcDbText
 10
97.412991829
 20
762.7180716548
 40
12
  1
　　Ｓ＝１／３
  7
STANDARD
100
AcDbText
  0
LINE
  5
22F
100
AcDbEntity
  8
_0-1_PRO0
  6
CONTINUOUS
 62
     0
100
AcDbLine
 10
585.8142582636
 20
704.8672012496
 11
597.0562962636
 21
724.3389802496
  0
CIRCLE
  5
230
100
AcDbEntity
  8
_0-1_PRO0
  6
CONTINUOUS
 62
     0
100
AcDbCircle
 10
600.0562962636
 20
729.5351332496
 40
6
  0
CIRCLE
  5
231
100
AcDbEntity
  8
_0-1_PRO0
  6
CONTINUOUS
 62
     0
100
AcDbCircle
 10
585.8142582636
 20
704.8672012496
 40
0.9
  0
LINE
  5
232
100
AcDbEntity
  8
_0-1_PRO0
  6
CONTINUOUS
 62
     0
100
AcDbLine
 10
579.1142052636
 20
703.1561452496
 11
579.2290122636
 21
701.4393022496
  0
LINE
  5
233
100
AcDbEntity
  8
_0-1_PRO0
  6
CONTINUOUS
 62
     0
100
AcDbLine
 10
569.1279102636
 20
702.6327862496
 11
569.2427172636
 21
700.9159432496
  0
LINE
  5
234
100
AcDbEntity
  8
_0-1_PRO0
  6
CONTINUOUS
 62
     0
100
AcDbLine
 10
572.5567092636
 20
702.8124832496
 11
570.7385622636
 21
700.9943362496
  0
LINE
  5
235
100
AcDbEntity
  8
_0-1_PRO0
  6
CONTINUOUS
 62
     0
100
AcDbLine
 10
574.0491372636
 20
702.8906962496
 11
572.2309902636
 21
701.0725522496
  0
LINE
  5
236
100
AcDbEntity
  8
_0-1_PRO0
  6
CONTINUOUS
 62
     0
100
AcDbLine
 10
575.5415652636
 20
702.9689122496
 11
573.7234182636
 21
701.1507652496
  0
LINE
  5
237
100
AcDbEntity
  8
_0-1_PRO0
  6
CONTINUOUS
 62
     0
100
AcDbLine
 10
577.0339932636
 20
703.0471282496
 11
575.2158462636
 21
701.2289812496
  0
LINE
  5
238
100
AcDbEntity
  8
_0-1_PRO0
  6
CONTINUOUS
 62
     0
100
AcDbLine
 10
578.5264212636
 20
703.1253412496
 11
576.7082772636
 21
701.3071972496
  0
LINE
  5
239
100
AcDbEntity
  8
_0-1_PRO0
  6
CONTINUOUS
 62
     0
100
AcDbLine
 10
578.2007052636
 20
701.3854102496
 11
579.1679352636
 21
702.3526432496
  0
LINE
  5
23A
100
AcDbEntity
  8
_0-1_PRO0
  6
CONTINUOUS
 62
     0
100
AcDbLine
 10
571.0642782636
 20
702.7342672496
 11
569.2461342636
 21
700.9161232496
  0
LINE
  5
23B
100
AcDbEntity
  8
_0-1_PRO0
  6
CONTINUOUS
 62
     0
100
AcDbLine
 10
569.5718502636
 20
702.6560542496
 11
569.1542772636
 21
702.2384782496
  0
LINE
  5
23C
100
AcDbEntity
  8
_0-1_PRO0
  6
CONTINUOUS
 62
     0
100
AcDbLine
 10
592.5984252636
 20
703.1561452496
 11
592.4836182636
 21
701.4393022496
  0
LINE
  5
23D
100
AcDbEntity
  8
_0-1_PRO0
  6
CONTINUOUS
 62
     0
100
AcDbLine
 10
602.5847202636
 20
702.6327862496
 11
602.4699132636
 21
700.9159432496
  0
LINE
  5
23E
100
AcDbEntity
  8
_0-1_PRO0
  6
CONTINUOUS
 62
     0
100
AcDbLine
 10
599.1559212636
 20
702.8124832496
 11
600.9740682636
 21
700.9943362496
  0
LINE
  5
23F
100
AcDbEntity
  8
_0-1_PRO0
  6
CONTINUOUS
 62
     0
100
AcDbLine
 10
597.6634932636
 20
702.8906962496
 11
599.4816402636
 21
701.0725522496
  0
LINE
  5
240
100
AcDbEntity
  8
_0-1_PRO0
  6
CONTINUOUS
 62
     0
100
AcDbLine
 10
596.1710652636
 20
702.9689122496
 11
597.9892122636
 21
701.1507652496
  0
LINE
  5
241
100
AcDbEntity
  8
_0-1_PRO0
  6
CONTINUOUS
 62
     0
100
AcDbLine
 10
594.6786372636
 20
703.0471282496
 11
596.4967812636
 21
701.2289812496
  0
LINE
  5
242
100
AcDbEntity
  8
_0-1_PRO0
  6
CONTINUOUS
 62
     0
100
AcDbLine
 10
593.1862092636
 20
703.1253412496
 11
595.0043532636
 21
701.3071972496
  0
LINE
  5
243
100
AcDbEntity
  8
_0-1_PRO0
  6
CONTINUOUS
 62
     0
100
AcDbLine
 10
593.5119252636
 20
701.3854102496
 11
592.5446952636
 21
702.3526432496
  0
LINE
  5
244
100
AcDbEntity
  8
_0-1_PRO0
  6
CONTINUOUS
 62
     0
100
AcDbLine
 10
600.6483492636
 20
702.7342672496
 11
602.4664962636
 21
700.9161232496
  0
LINE
  5
245
100
AcDbEntity
  8
_0-1_PRO0
  6
CONTINUOUS
 62
     0
100
AcDbLine
 10
602.1407802636
 20
702.6560542496
 11
602.5583532636
 21
702.2384782496
  0
LINE
  5
246
100
AcDbEntity
  8
_2-1_ADD_LINE
  6
CONTINUOUS
 62
     0
100
AcDbLine
 10
1035.856315264
 20
681.9287296192
 11
1035.856315264
 21
575.0265172496
  0
LINE
  5
247
100
AcDbEntity
  8
_2-1_ADD_LINE
  6
CONTINUOUS
 62
     0
100
AcDbLine
 10
135.8563152636
 20
681.9287296192
 11
135.8563152636
 21
575.0265172496
  0
LINE
  5
248
100
AcDbEntity
  8
_0-1_PRO0
  6
CONTINUOUS
 62
     0
100
AcDbLine
 10
1017.348940264
 20
613.7477759351
 11
1061.184457264
 21
689.6731199351
  0
CIRCLE
  5
249
100
AcDbEntity
  8
_0-1_PRO0
  6
CONTINUOUS
 62
     0
100
AcDbCircle
 10
1064.184457264
 20
694.8692699351
 40
6
  0
LINE
  5
24A
100
AcDbEntity
  8
_0-1_PRO0
  6
CONTINUOUS
 62
     0
100
AcDbLine
 10
986.694733264
 20
667.9533839351
 11
1002.472108264
 21
695.2805969351
  0
CIRCLE
  5
24B
100
AcDbEntity
  8
_0-1_PRO0
  6
CONTINUOUS
 62
     0
100
AcDbCircle
 10
1005.472108264
 20
700.4767469351
 40
6
  0
CIRCLE
  5
24C
100
AcDbEntity
  8
_0-1_PRO0
  6
CONTINUOUS
 62
     0
100
AcDbCircle
 10
986.694733264
 20
667.9533839351
 40
0.9
  0
LINE
  5
24D
100
AcDbEntity
  8
_0-1_PRO0
  6
CONTINUOUS
 62
     0
100
AcDbLine
 10
1019.640655264
 20
667.0922909351
 11
1041.905899264
 21
705.6568229351
  0
CIRCLE
  5
24E
100
AcDbEntity
  8
_0-1_PRO0
  6
CONTINUOUS
 62
     0
100
AcDbCircle
 10
1044.905899264
 20
710.8529759351
 40
6
  0
CIRCLE
  5
24F
100
AcDbEntity
  8
_0-1_PRO0
  6
CONTINUOUS
 62
     0
100
AcDbCircle
 10
1019.640655264
 20
667.0922909351
 40
0.9
  0
LINE
  5
250
100
AcDbEntity
  8
_0-1_PRO0
  6
CONTINUOUS
 62
     0
100
AcDbLine
 10
1082.617273264
 20
681.9287279351
 11
1082.617273264
 21
591.9287279351
  0
LINE
  5
251
100
AcDbEntity
  8
_0-1_PRO0
  6
CONTINUOUS
 62
     0
100
AcDbLine
 10
1036.856314264
 20
681.9287279351
 11
1086.617272264
 21
681.9287279351
  0
LINE
  5
252
100
AcDbEntity
  8
_0-1_PRO0
  6
CONTINUOUS
 62
     0
100
AcDbLine
 10
1033.856314264
 20
591.9287279351
 11
1086.617272264
 21
591.9287279351
  0
LINE
  5
253
100
AcDbEntity
  8
_0-1_PRO0
  6
CONTINUOUS
 62
     0
100
AcDbLine
 10
1082.617273264
 20
681.9287279351
 11
1083.367273264
 21
678.9287279351
  0
LINE
  5
254
100
AcDbEntity
  8
_0-1_PRO0
  6
CONTINUOUS
 62
     0
100
AcDbLine
 10
1082.617273264
 20
681.9287279351
 11
1081.867273264
 21
678.9287279351
  0
LINE
  5
255
100
AcDbEntity
  8
_0-1_PRO0
  6
CONTINUOUS
 62
     0
100
AcDbLine
 10
1082.617273264
 20
591.9287279351
 11
1081.867273264
 21
594.9287279351
  0
LINE
  5
256
100
AcDbEntity
  8
_0-1_PRO0
  6
CONTINUOUS
 62
     0
100
AcDbLine
 10
1082.617273264
 20
591.9287279351
 11
1083.367273264
 21
594.9287279351
  0
LINE
  5
257
100
AcDbEntity
  8
_0-1_PRO0
  6
CONTINUOUS
 62
     0
100
AcDbLine
 10
1057.960405264
 20
635.7985349351
 11
1057.960405264
 21
591.9287279351
  0
LINE
  5
258
100
AcDbEntity
  8
_0-1_PRO0
  6
CONTINUOUS
 62
     0
100
AcDbLine
 10
1057.960405264
 20
635.7985349351
 11
1058.710405264
 21
632.7985349351
  0
LINE
  5
259
100
AcDbEntity
  8
_0-1_PRO0
  6
CONTINUOUS
 62
     0
100
AcDbLine
 10
1057.960405264
 20
635.7985349351
 11
1057.210405264
 21
632.7985349351
  0
LINE
  5
25A
100
AcDbEntity
  8
_0-1_PRO0
  6
CONTINUOUS
 62
     0
100
AcDbLine
 10
1057.960405264
 20
591.9287279351
 11
1057.210405264
 21
594.9287279351
  0
LINE
  5
25B
100
AcDbEntity
  8
_0-1_PRO0
  6
CONTINUOUS
 62
     0
100
AcDbLine
 10
1057.960405264
 20
591.9287279351
 11
1058.710405264
 21
594.9287279351
  0
LINE
  5
25C
100
AcDbEntity
  8
_0-1_PRO0
  6
CONTINUOUS
 62
     0
100
AcDbLine
 10
1035.856315264
 20
680.0818349351
 11
1035.856315264
 21
746.8167629351
  0
LINE
  5
25D
100
AcDbEntity
  8
_0-1_PRO0
  6
CONTINUOUS
 62
     0
100
AcDbLine
 10
1035.856315264
 20
742.8167639351
 11
1032.856315264
 21
742.0667639351
  0
LINE
  5
25E
100
AcDbEntity
  8
_0-1_PRO0
  6
CONTINUOUS
 62
     0
100
AcDbLine
 10
1035.856315264
 20
742.8167639351
 11
1032.856315264
 21
743.5667639351
  0
LINE
  5
25F
100
AcDbEntity
  8
_0-1_PRO0
  6
CONTINUOUS
 62
     0
100
AcDbLine
 10
1012.650334264
 20
676.6359809351
 11
585.8301462636
 21
699.0046822496
  0
LINE
  5
260
100
AcDbEntity
  8
_0-1_PRO0
  6
CONTINUOUS
 62
     0
100
AcDbLine
 10
1006.621240264
 20
679.7352689351
 11
585.8563152636
 21
701.7866242496
  0
LINE
  5
261
100
AcDbEntity
  8
_0-1_PRO0
  6
CONTINUOUS
 62
     0
100
AcDbLine
 10
1006.385731264
 20
675.2414369351
 11
585.8563152636
 21
697.2804502496
  0
LINE
  5
262
100
AcDbEntity
  8
_0-1_PRO0
  6
CONTINUOUS
 62
     0
100
AcDbLine
 10
1006.307227264
 20
673.7434919351
 11
585.8563152636
 21
695.7783922496
  0
LINE
  5
263
100
AcDbEntity
  8
_0-1_PRO0
  6
CONTINUOUS
 62
     0
100
AcDbLine
 10
1005.537886264
 20
659.0636369351
 11
585.8563152636
 21
681.0582172496
  0
LINE
  5
264
100
AcDbEntity
  8
_0-1_PRO0
  6
CONTINUOUS
 62
     0
100
AcDbLine
 10
1005.443683264
 20
657.2661029351
 11
585.8563152636
 21
679.2557482496
  0
LINE
  5
265
100
AcDbEntity
  8
_0-1_PRO0
  6
CONTINUOUS
 62
     0
100
AcDbLine
 10
1005.286675264
 20
654.2702159351
 11
585.8563152636
 21
676.2516292496
  0
LINE
  5
266
100
AcDbEntity
  8
_0-1_PRO0
  6
CONTINUOUS
 62
     0
100
AcDbLine
 10
1005.208171264
 20
652.7722709351
 11
585.8563152636
 21
674.7495712496
  0
LINE
  5
267
100
AcDbEntity
  8
_0-1_PRO0
  6
CONTINUOUS
 62
     0
100
AcDbLine
 10
1005.155836264
 20
651.7736429351
 11
585.8563152636
 21
673.7481982496
  0
LINE
  5
268
100
AcDbEntity
  8
_0-1_PRO0
  6
CONTINUOUS
 62
     0
100
AcDbLine
 10
1032.908650264
 20
680.0804639351
 11
585.8301462636
 21
703.5108562496
  0
LINE
  5
269
100
AcDbEntity
  8
_0-1_PRO0
  6
CONTINUOUS
 62
     0
100
AcDbLine
 10
1033.013323264
 20
682.0777229351
 11
585.8563152636
 21
705.5122312496
  0
LINE
  5
26A
100
AcDbEntity
  8
_0-1_PRO0
  6
CONTINUOUS
 62
     0
100
AcDbLine
 10
1025.856313264
 20
593.9287289351
 11
1025.856313264
 21
591.9287279351
  0
ARC
  5
26B
100
AcDbEntity
  8
_0-1_PRO0
  6
CONTINUOUS
 62
     0
100
AcDbCircle
 10
1012.695151264
 20
673.6295159351
 40
7.5
100
AcDbArc
 50
10.124672
 51
87
  0
LINE
  5
26C
100
AcDbEntity
  8
_0-1_PRO0
  6
CONTINUOUS
 62
     0
100
AcDbLine
 10
999.615799264
 20
681.8252699351
 11
997.978735264
 21
680.1882029351
  0
LINE
  5
26D
100
AcDbEntity
  8
_0-1_PRO0
  6
CONTINUOUS
 62
     0
100
AcDbLine
 10
1000.959589264
 20
681.7548449351
 11
999.322522264
 21
680.1177779351
  0
LINE
  5
26E
100
AcDbEntity
  8
_0-1_PRO0
  6
CONTINUOUS
 62
     0
100
AcDbLine
 10
1002.303376264
 20
681.6844199351
 11
1000.666312264
 21
680.0473529351
  0
LINE
  5
26F
100
AcDbEntity
  8
_0-1_PRO0
  6
CONTINUOUS
 62
     0
100
AcDbLine
 10
1003.647166264
 20
681.6139949351
 11
1002.010099264
 21
679.9769279351
  0
LINE
  5
270
100
AcDbEntity
  8
_0-1_PRO0
  6
CONTINUOUS
 62
     0
100
AcDbLine
 10
1004.990956264
 20
681.5435699351
 11
1003.353889264
 21
679.9065029351
  0
LINE
  5
271
100
AcDbEntity
  8
_0-1_PRO0
  6
CONTINUOUS
 62
     0
100
AcDbLine
 10
1006.334743264
 20
681.4731449351
 11
1004.697679264
 21
679.8360779351
  0
LINE
  5
272
100
AcDbEntity
  8
_0-1_PRO0
  6
CONTINUOUS
 62
     0
100
AcDbLine
 10
1006.041466264
 20
679.7656529351
 11
1006.654987264
 21
680.3791739351
  0
LINE
  5
273
100
AcDbEntity
  8
_0-1_PRO0
  6
CONTINUOUS
 62
     0
100
AcDbLine
 10
998.282761264
 20
681.8951309351
 11
996.645697264
 21
680.2580639351
  0
LINE
  5
274
100
AcDbEntity
  8
_0-1_PRO0
  6
CONTINUOUS
 62
     0
100
AcDbLine
 10
996.928222264
 20
681.9661199351
 11
996.713161264
 21
681.7510559351
  0
ARC
  5
275
100
AcDbEntity
  8
_0-1_PRO0
  6
CONTINUOUS
 62
     0
100
AcDbCircle
 10
1032.856315264
 20
594.9287279351
 40
0.999999
100
AcDbArc
 50
-90
 51
0
  0
LINE
  5
276
100
AcDbEntity
  8
_0-1_PRO0
  6
CONTINUOUS
 62
     0
100
AcDbLine
 10
1032.856315264
 20
593.9287289351
 11
1025.856313264
 21
593.9287289351
  0
ARC
  5
277
100
AcDbEntity
  8
_0-1_PRO0
  6
CONTINUOUS
 62
     0
100
AcDbCircle
 10
1032.856315264
 20
594.9287279351
 40
3
100
AcDbArc
 50
-90
 51
0
  0
LINE
  5
278
100
AcDbEntity
  8
_0-1_PRO0
  6
CONTINUOUS
 62
     0
100
AcDbLine
 10
1032.856315264
 20
591.9287279351
 11
1025.856313264
 21
591.9287279351
  0
ARC
  5
279
100
AcDbEntity
  8
_0-1_PRO0
  6
CONTINUOUS
 62
     0
100
AcDbCircle
 10
1032.856315264
 20
679.0818359351
 40
3
100
AcDbArc
 50
0
 51
87
  0
LINE
  5
27A
100
AcDbEntity
  8
_0-1_PRO0
  6
CONTINUOUS
 62
     0
100
AcDbLine
 10
1035.856315264
 20
679.0818359351
 11
1035.856315264
 21
594.9287279351
  0
LINE
  5
27B
100
AcDbEntity
  8
_0-1_PRO0
  6
CONTINUOUS
 62
     0
100
AcDbLine
 10
1020.078358264
 20
674.9479469351
 11
1033.856314264
 21
597.7913999351
  0
LINE
  5
27C
100
AcDbEntity
  8
_0-1_PRO0
  6
CONTINUOUS
 62
     0
100
AcDbLine
 10
1033.856314264
 20
679.0818359351
 11
1033.856314264
 21
594.9287279351
  0
ARC
  5
27D
100
AcDbEntity
  8
_0-1_PRO0
  6
CONTINUOUS
 62
     0
100
AcDbCircle
 10
1032.856315264
 20
679.0818359351
 40
0.999999
100
AcDbArc
 50
0
 51
86.99999999999
  0
LINE
  5
27E
100
AcDbEntity
  8
_0-1_PRO0
  6
CONTINUOUS
 62
     0
100
AcDbLine
 10
1015.648435264
 20
674.1568889351
 11
1029.425119264
 21
597.0074519351
  0
ARC
  5
27F
100
AcDbEntity
  8
_0-1_PRO0
  6
CONTINUOUS
 62
     0
100
AcDbCircle
 10
1012.695151264
 20
673.6295159351
 40
3
100
AcDbArc
 50
10.124672
 51
87
  0
LINE
  5
280
100
AcDbEntity
  8
_0-1_PRO0
  6
CONTINUOUS
 62
     0
100
AcDbLine
 10
1028.939014264
 20
604.7287289351
 11
1019.688838264
 21
604.7287289351
  0
ARC
  5
281
100
AcDbEntity
  8
_0-1_PRO0
  6
CONTINUOUS
 62
     0
100
AcDbCircle
 10
1028.939014264
 20
604.2287279351
 40
0.500001
100
AcDbArc
 50
11.99999999999
 51
90
  0
LINE
  5
282
100
AcDbEntity
  8
_0-1_PRO0
  6
CONTINUOUS
 62
     0
100
AcDbLine
 10
1029.428089264
 20
604.3326839351
 11
1030.856314264
 21
597.6134159351
  0
LINE
  5
283
100
AcDbEntity
  8
_0-1_PRO0
  6
CONTINUOUS
 62
     0
100
AcDbLine
 10
1030.856314264
 20
597.6134159351
 11
1030.856314264
 21
593.9287289351
  0
LINE
  5
284
100
AcDbEntity
  8
_0-1_PRO0
  6
CONTINUOUS
 62
     0
100
AcDbLine
 10
1031.356315264
 20
593.9287289351
 11
1030.856314264
 21
593.9287289351
  0
ARC
  5
285
100
AcDbEntity
  8
_0-1_PRO0
  6
CONTINUOUS
 62
     0
100
AcDbCircle
 10
1031.356315264
 20
596.4287279351
 40
2.499999
100
AcDbArc
 50
-90
 51
0
  0
LINE
  5
286
100
AcDbEntity
  8
_0-1_PRO0
  6
CONTINUOUS
 62
     0
100
AcDbLine
 10
1019.688838264
 20
605.9287289351
 11
1022.088838264
 21
605.9287289351
  0
LINE
  5
287
100
AcDbEntity
  8
_0-1_PRO0
  6
CONTINUOUS
 62
     0
100
AcDbLine
 10
1024.088839264
 20
606.9287279351
 11
1024.088839264
 21
605.9287289351
  0
LINE
  5
288
100
AcDbEntity
  8
_0-1_PRO0
  6
CONTINUOUS
 62
     0
100
AcDbLine
 10
1022.088838264
 20
605.9287289351
 11
1024.088839264
 21
606.9287279351
  0
ARC
  5
289
100
AcDbEntity
  8
_0-1_PRO0
  6
CONTINUOUS
 62
     0
100
AcDbCircle
 10
1019.688838264
 20
605.3287289351
 40
0.6
100
AcDbArc
 50
90
 51
270
  0
LINE
  5
28A
100
AcDbEntity
  8
_0-1_PRO0
  6
CONTINUOUS
 62
     0
100
AcDbLine
 10
1028.471392264
 20
605.9287289351
 11
1024.088839264
 21
605.9287289351
  0
ARC
  5
28B
100
AcDbEntity
  8
_0-1_PRO0
  6
CONTINUOUS
 62
     0
100
AcDbCircle
 10
1028.471392264
 20
606.4287299351
 40
0.500001
100
AcDbArc
 50
-90
 51
11.99999999999
  0
ARC
  5
28C
100
AcDbEntity
  8
_0-1_PRO0
  6
CONTINUOUS
 62
     0
100
AcDbCircle
 10
1007.257765264
 20
653.6662289351
 40
0.500001
100
AcDbArc
 50
86.99999999999
 51
177
  0
LINE
  5
28D
100
AcDbEntity
  8
_0-1_PRO0
  6
CONTINUOUS
 62
     0
100
AcDbLine
 10
1006.758451264
 20
653.6923979351
 11
1006.706116264
 21
652.6937669351
  0
LINE
  5
28E
100
AcDbEntity
  8
_0-1_PRO0
  6
CONTINUOUS
 62
     0
100
AcDbLine
 10
1006.180633264
 20
652.2206189351
 11
1005.681316264
 21
652.2467879351
  0
ARC
  5
28F
100
AcDbEntity
  8
_0-1_PRO0
  6
CONTINUOUS
 62
     0
100
AcDbCircle
 10
1005.707485264
 20
652.7461019351
 40
0.500001
100
AcDbArc
 50
177
 51
267
  0
ARC
  5
290
100
AcDbEntity
  8
_0-1_PRO0
  6
CONTINUOUS
 62
     0
100
AcDbCircle
 10
1006.206799264
 20
652.7199359351
 40
0.500001
100
AcDbArc
 50
-93.00000000001
 51
-2.999999999993
  0
LINE
  5
291
100
AcDbEntity
  8
_0-1_PRO0
  6
CONTINUOUS
 62
     0
100
AcDbLine
 10
1014.959011264
 20
653.7633089351
 11
1007.283934264
 21
654.1655429351
  0
ARC
  5
292
100
AcDbEntity
  8
_0-1_PRO0
  6
CONTINUOUS
 62
     0
100
AcDbCircle
 10
1014.932845264
 20
653.2639949351
 40
0.500001
100
AcDbArc
 50
-13.00000000001
 51
86.99999999999
  0
LINE
  5
293
100
AcDbEntity
  8
_0-1_PRO0
  6
CONTINUOUS
 62
     0
100
AcDbLine
 10
1015.420030264
 20
653.1515189351
 11
1014.836836264
 21
650.6254349351
  0
ARC
  5
294
100
AcDbEntity
  8
_0-1_PRO0
  6
CONTINUOUS
 62
     0
100
AcDbCircle
 10
1017.006598264
 20
653.3555879351
 40
0.3
100
AcDbArc
 50
86.99999999999
 51
167
  0
LINE
  5
295
100
AcDbEntity
  8
_0-1_PRO0
  6
CONTINUOUS
 62
     0
100
AcDbLine
 10
1016.714287264
 20
653.4230729351
 11
1016.006080264
 21
650.3554949351
  0
ARC
  5
296
100
AcDbEntity
  8
_0-1_PRO0
  6
CONTINUOUS
 62
     0
100
AcDbCircle
 10
1018.147309264
 20
652.5948449351
 40
0.999999
100
AcDbArc
 50
12
 51
86.99999999999
  0
ARC
  5
297
100
AcDbEntity
  8
_0-1_PRO0
  6
CONTINUOUS
 62
     0
100
AcDbCircle
 10
1015.421458264
 20
650.4904649351
 40
0.6
100
AcDbArc
 50
167
 51
347
  0
LINE
  5
298
100
AcDbEntity
  8
_0-1_PRO0
  6
CONTINUOUS
 62
     0
100
AcDbLine
 10
1021.900363264
 20
654.1770509351
 11
1033.856314264
 21
597.9287279351
  0
LINE
  5
299
100
AcDbEntity
  8
_0-1_PRO0
  6
CONTINUOUS
 62
     0
100
AcDbLine
 10
1019.125456264
 20
652.8027569351
 11
1028.960464264
 21
606.5326859351
  0
LINE
  5
29A
100
AcDbEntity
  8
_0-1_PRO0
  6
CONTINUOUS
 62
     0
100
AcDbLine
 10
1029.425119264
 20
597.0074519351
 11
1033.856314264
 21
597.7913999351
  0
LINE
  5
29B
100
AcDbEntity
  8
_0-1_PRO0
  6
CONTINUOUS
 62
     0
100
AcDbLine
 10
1006.711285264
 20
681.4534109351
 11
1006.621240264
 21
679.7352689351
  0
LINE
  5
29C
100
AcDbEntity
  8
_0-1_PRO0
  6
CONTINUOUS
 62
     0
100
AcDbLine
 10
996.724990264
 20
681.9767699351
 11
996.634945264
 21
680.2586279351
  0
ARC
  5
29D
100
AcDbEntity
  8
_0-1_PRO0
  6
CONTINUOUS
 62
     0
100
AcDbCircle
 10
1006.073836264
 20
659.7365099351
 40
0.500001
100
AcDbArc
 50
86.99999999999
 51
177
  0
LINE
  5
29E
100
AcDbEntity
  8
_0-1_PRO0
  6
CONTINUOUS
 62
     0
100
AcDbLine
 10
1007.440942264
 20
657.1614329351
 11
1019.122930264
 21
656.5492049351
  0
ARC
  5
29F
100
AcDbEntity
  8
_0-1_PRO0
  6
CONTINUOUS
 62
     0
100
AcDbCircle
 10
1007.467108264
 20
657.6607469351
 40
0.500001
100
AcDbArc
 50
177
 51
267
  0
LINE
  5
2A0
100
AcDbEntity
  8
_0-1_PRO0
  6
CONTINUOUS
 62
     0
100
AcDbLine
 10
1006.967794264
 20
657.6869159351
 11
1007.072467264
 21
659.6841749351
  0
ARC
  5
2A1
100
AcDbEntity
  8
_0-1_PRO0
  6
CONTINUOUS
 62
     0
100
AcDbCircle
 10
1006.573153264
 20
659.7103409351
 40
0.500001
100
AcDbArc
 50
-3.000000000006
 51
86.99999999999
  0
LINE
  5
2A2
100
AcDbEntity
  8
_0-1_PRO0
  6
CONTINUOUS
 62
     0
100
AcDbLine
 10
1006.599319264
 20
660.2096579351
 11
1006.100005264
 21
660.2358239351
  0
LINE
  5
2A3
100
AcDbEntity
  8
_0-1_PRO0
  6
CONTINUOUS
 62
     0
100
AcDbLine
 10
1006.621240264
 20
679.7352689351
 11
1005.155836264
 21
651.7736429351
  0
ARC
  5
2A4
100
AcDbEntity
  8
_0-1_PRO0
  6
CONTINUOUS
 62
     0
100
AcDbCircle
 10
1018.965922264
 20
653.5533149351
 40
3
100
AcDbArc
 50
12
 51
87
  0
ARC
  5
2A5
100
AcDbEntity
  8
_0-1_PRO0
  6
CONTINUOUS
 62
     0
100
AcDbCircle
 10
976.904236264
 20
657.2597339351
 40
1.5
100
AcDbArc
 50
87
 51
267
  0
LINE
  5
2A6
100
AcDbEntity
  8
_0-1_PRO0
  6
CONTINUOUS
 62
     0
100
AcDbLine
 10
135.8563152636
 20
742.8167639351
 11
1035.856315264
 21
742.8167639351
  0
ARC
  5
2A7
100
AcDbEntity
  8
_0-1_PRO0
  6
CONTINUOUS
 62
     0
100
AcDbCircle
 10
194.8083942636
 20
657.2597339351
 40
1.5
100
AcDbArc
 50
-87
 51
93
  0
ARC
  5
2A8
100
AcDbEntity
  8
_0-1_PRO0
  6
CONTINUOUS
 62
     0
100
AcDbCircle
 10
152.7467082636
 20
653.5533149351
 40
3
100
AcDbArc
 50
93
 51
168
  0
LINE
  5
2A9
100
AcDbEntity
  8
_0-1_PRO0
  6
CONTINUOUS
 62
     0
100
AcDbLine
 10
165.0913872636
 20
679.7352689351
 11
166.5567942636
 21
651.7736429351
  0
LINE
  5
2AA
100
AcDbEntity
  8
_0-1_PRO0
  6
CONTINUOUS
 62
     0
100
AcDbLine
 10
165.1133112636
 20
660.2096579351
 11
165.6126252636
 21
660.2358239351
  0
ARC
  5
2AB
100
AcDbEntity
  8
_0-1_PRO0
  6
CONTINUOUS
 62
     0
100
AcDbCircle
 10
165.1394772636
 20
659.7103409351
 40
0.500001
100
AcDbArc
 50
93.00000000001
 51
183
  0
LINE
  5
2AC
100
AcDbEntity
  8
_0-1_PRO0
  6
CONTINUOUS
 62
     0
100
AcDbLine
 10
164.7448362636
 20
657.6869159351
 11
164.6401632636
 21
659.6841749351
  0
ARC
  5
2AD
100
AcDbEntity
  8
_0-1_PRO0
  6
CONTINUOUS
 62
     0
100
AcDbCircle
 10
164.2455192636
 20
657.6607469351
 40
0.500001
100
AcDbArc
 50
-86.99999999999
 51
3.000000000006
  0
LINE
  5
2AE
100
AcDbEntity
  8
_0-1_PRO0
  6
CONTINUOUS
 62
     0
100
AcDbLine
 10
164.2716882636
 20
657.1614329351
 11
152.5897002636
 21
656.5492049351
  0
ARC
  5
2AF
100
AcDbEntity
  8
_0-1_PRO0
  6
CONTINUOUS
 62
     0
100
AcDbCircle
 10
165.6387912636
 20
659.7365099351
 40
0.500001
100
AcDbArc
 50
3.000000000006
 51
93.00000000001
  0
LINE
  5
2B0
100
AcDbEntity
  8
_0-1_PRO0
  6
CONTINUOUS
 62
     0
100
AcDbLine
 10
174.9876402636
 20
681.9767699351
 11
175.0776822636
 21
680.2586279351
  0
LINE
  5
2B1
100
AcDbEntity
  8
_0-1_PRO0
  6
CONTINUOUS
 62
     0
100
AcDbLine
 10
165.0013452636
 20
681.4534109351
 11
165.0913872636
 21
679.7352689351
  0
LINE
  5
2B2
100
AcDbEntity
  8
_0-1_PRO0
  6
CONTINUOUS
 62
     0
100
AcDbLine
 10
142.2875082636
 20
597.0074519351
 11
137.8563162636
 21
597.7913999351
  0
LINE
  5
2B3
100
AcDbEntity
  8
_0-1_PRO0
  6
CONTINUOUS
 62
     0
100
AcDbLine
 10
152.5871712636
 20
652.8027569351
 11
142.7521662636
 21
606.5326859351
  0
LINE
  5
2B4
100
AcDbEntity
  8
_0-1_PRO0
  6
CONTINUOUS
 62
     0
100
AcDbLine
 10
149.8122672636
 20
654.1770509351
 11
137.8563162636
 21
597.9287279351
  0
ARC
  5
2B5
100
AcDbEntity
  8
_0-1_PRO0
  6
CONTINUOUS
 62
     0
100
AcDbCircle
 10
156.2911722636
 20
650.4904649351
 40
0.6
100
AcDbArc
 50
-167
 51
13
  0
ARC
  5
2B6
100
AcDbEntity
  8
_0-1_PRO0
  6
CONTINUOUS
 62
     0
100
AcDbCircle
 10
153.5653212636
 20
652.5948449351
 40
0.999999
100
AcDbArc
 50
93
 51
168
  0
LINE
  5
2B7
100
AcDbEntity
  8
_0-1_PRO0
  6
CONTINUOUS
 62
     0
100
AcDbLine
 10
154.9983432636
 20
653.4230729351
 11
155.7065502636
 21
650.3554949351
  0
ARC
  5
2B8
100
AcDbEntity
  8
_0-1_PRO0
  6
CONTINUOUS
 62
     0
100
AcDbCircle
 10
154.7060322636
 20
653.3555879351
 40
0.3
100
AcDbArc
 50
13.00000000001
 51
93.00000000002
  0
LINE
  5
2B9
100
AcDbEntity
  8
_0-1_PRO0
  6
CONTINUOUS
 62
     0
100
AcDbLine
 10
154.6903302636
 20
653.6551769351
 11
153.5129832636
 21
653.5934759351
  0
LINE
  5
2BA
100
AcDbEntity
  8
_0-1_PRO0
  6
CONTINUOUS
 62
     0
100
AcDbLine
 10
156.2926002636
 20
653.1515189351
 11
156.8757942636
 21
650.6254349351
  0
ARC
  5
2BB
100
AcDbEntity
  8
_0-1_PRO0
  6
CONTINUOUS
 62
     0
100
AcDbCircle
 10
156.7797852636
 20
653.2639949351
 40
0.500001
100
AcDbArc
 50
93.00000000001
 51
193
  0
LINE
  5
2BC
100
AcDbEntity
  8
_0-1_PRO0
  6
CONTINUOUS
 62
     0
100
AcDbLine
 10
156.7536192636
 20
653.7633089351
 11
164.4286962636
 21
654.1655429351
  0
ARC
  5
2BD
100
AcDbEntity
  8
_0-1_PRO0
  6
CONTINUOUS
 62
     0
100
AcDbCircle
 10
165.5058282636
 20
652.7199359351
 40
0.500001
100
AcDbArc
 50
-177
 51
-86.99999999999
  0
ARC
  5
2BE
100
AcDbEntity
  8
_0-1_PRO0
  6
CONTINUOUS
 62
     0
100
AcDbCircle
 10
166.0051452636
 20
652.7461019351
 40
0.500001
100
AcDbArc
 50
-86.99999999999
 51
3.000000000006
  0
LINE
  5
2BF
100
AcDbEntity
  8
_0-1_PRO0
  6
CONTINUOUS
 62
     0
100
AcDbLine
 10
165.5319972636
 20
652.2206189351
 11
166.0313112636
 21
652.2467879351
  0
LINE
  5
2C0
100
AcDbEntity
  8
_0-1_PRO0
  6
CONTINUOUS
 62
     0
100
AcDbLine
 10
164.9541792636
 20
653.6923979351
 11
165.0065142636
 21
652.6937669351
  0
ARC
  5
2C1
100
AcDbEntity
  8
_0-1_PRO0
  6
CONTINUOUS
 62
     0
100
AcDbCircle
 10
164.4548652636
 20
653.6662289351
 40
0.500001
100
AcDbArc
 50
3.000000000006
 51
93.00000000001
  0
ARC
  5
2C2
100
AcDbEntity
  8
_0-1_PRO0
  6
CONTINUOUS
 62
     0
100
AcDbCircle
 10
143.2412382636
 20
606.4287299351
 40
0.500001
100
AcDbArc
 50
168
 51
270
  0
LINE
  5
2C3
100
AcDbEntity
  8
_0-1_PRO0
  6
CONTINUOUS
 62
     0
100
AcDbLine
 10
143.2412382636
 20
605.9287289351
 11
147.6237912636
 21
605.9287289351
  0
ARC
  5
2C4
100
AcDbEntity
  8
_0-1_PRO0
  6
CONTINUOUS
 62
     0
100
AcDbCircle
 10
152.0237892636
 20
605.3287289351
 40
0.6
100
AcDbArc
 50
-90
 51
90
  0
LINE
  5
2C5
100
AcDbEntity
  8
_0-1_PRO0
  6
CONTINUOUS
 62
     0
100
AcDbLine
 10
149.6237892636
 20
605.9287289351
 11
147.6237912636
 21
606.9287279351
  0
LINE
  5
2C6
100
AcDbEntity
  8
_0-1_PRO0
  6
CONTINUOUS
 62
     0
100
AcDbLine
 10
147.6237912636
 20
606.9287279351
 11
147.6237912636
 21
605.9287289351
  0
LINE
  5
2C7
100
AcDbEntity
  8
_0-1_PRO0
  6
CONTINUOUS
 62
     0
100
AcDbLine
 10
152.0237892636
 20
605.9287289351
 11
149.6237892636
 21
605.9287289351
  0
ARC
  5
2C8
100
AcDbEntity
  8
_0-1_PRO0
  6
CONTINUOUS
 62
     0
100
AcDbCircle
 10
140.3563152636
 20
596.4287279351
 40
2.499999
100
AcDbArc
 50
180
 51
270
  0
LINE
  5
2C9
100
AcDbEntity
  8
_0-1_PRO0
  6
CONTINUOUS
 62
     0
100
AcDbLine
 10
140.3563152636
 20
593.9287289351
 11
140.8563162636
 21
593.9287289351
  0
LINE
  5
2CA
100
AcDbEntity
  8
_0-1_PRO0
  6
CONTINUOUS
 62
     0
100
AcDbLine
 10
140.8563162636
 20
597.6134159351
 11
140.8563162636
 21
593.9287289351
  0
LINE
  5
2CB
100
AcDbEntity
  8
_0-1_PRO0
  6
CONTINUOUS
 62
     0
100
AcDbLine
 10
142.2845412636
 20
604.3326839351
 11
140.8563162636
 21
597.6134159351
  0
ARC
  5
2CC
100
AcDbEntity
  8
_0-1_PRO0
  6
CONTINUOUS
 62
     0
100
AcDbCircle
 10
142.7736132636
 20
604.2287279351
 40
0.500001
100
AcDbArc
 50
90
 51
168
  0
LINE
  5
2CD
100
AcDbEntity
  8
_0-1_PRO0
  6
CONTINUOUS
 62
     0
100
AcDbLine
 10
142.7736132636
 20
604.7287289351
 11
152.0237892636
 21
604.7287289351
  0
ARC
  5
2CE
100
AcDbEntity
  8
_0-1_PRO0
  6
CONTINUOUS
 62
     0
100
AcDbCircle
 10
159.0174762636
 20
673.6295159351
 40
3
100
AcDbArc
 50
93
 51
169.875328
  0
LINE
  5
2CF
100
AcDbEntity
  8
_0-1_PRO0
  6
CONTINUOUS
 62
     0
100
AcDbLine
 10
156.0641952636
 20
674.1568889351
 11
142.2875082636
 21
597.0074519351
  0
ARC
  5
2D0
100
AcDbEntity
  8
_0-1_PRO0
  6
CONTINUOUS
 62
     0
100
AcDbCircle
 10
138.8563152636
 20
679.0818359351
 40
0.999999
100
AcDbArc
 50
93
 51
180
  0
LINE
  5
2D1
100
AcDbEntity
  8
_0-1_PRO0
  6
CONTINUOUS
 62
     0
100
AcDbLine
 10
137.8563162636
 20
679.0818359351
 11
137.8563162636
 21
594.9287279351
  0
LINE
  5
2D2
100
AcDbEntity
  8
_0-1_PRO0
  6
CONTINUOUS
 62
     0
100
AcDbLine
 10
151.6342722636
 20
674.9479469351
 11
137.8563162636
 21
597.7913999351
  0
LINE
  5
2D3
100
AcDbEntity
  8
_0-1_PRO0
  6
CONTINUOUS
 62
     0
100
AcDbLine
 10
135.8563152636
 20
679.0818359351
 11
135.8563152636
 21
594.9287279351
  0
ARC
  5
2D4
100
AcDbEntity
  8
_0-1_PRO0
  6
CONTINUOUS
 62
     0
100
AcDbCircle
 10
138.8563152636
 20
679.0818359351
 40
3
100
AcDbArc
 50
93
 51
180
  0
LINE
  5
2D5
100
AcDbEntity
  8
_0-1_PRO0
  6
CONTINUOUS
 62
     0
100
AcDbLine
 10
138.8563152636
 20
591.9287279351
 11
145.8563172636
 21
591.9287279351
  0
ARC
  5
2D6
100
AcDbEntity
  8
_0-1_PRO0
  6
CONTINUOUS
 62
     0
100
AcDbCircle
 10
138.8563152636
 20
594.9287279351
 40
3
100
AcDbArc
 50
180
 51
270
  0
LINE
  5
2D7
100
AcDbEntity
  8
_0-1_PRO0
  6
CONTINUOUS
 62
     0
100
AcDbLine
 10
138.8563152636
 20
593.9287289351
 11
145.8563172636
 21
593.9287289351
  0
ARC
  5
2D8
100
AcDbEntity
  8
_0-1_PRO0
  6
CONTINUOUS
 62
     0
100
AcDbCircle
 10
138.8563152636
 20
594.9287279351
 40
0.999999
100
AcDbArc
 50
180
 51
270
  0
LINE
  5
2D9
100
AcDbEntity
  8
_0-1_PRO0
  6
CONTINUOUS
 62
     0
100
AcDbLine
 10
174.7844052636
 20
681.9661199351
 11
174.9994692636
 21
681.7510559351
  0
LINE
  5
2DA
100
AcDbEntity
  8
_0-1_PRO0
  6
CONTINUOUS
 62
     0
100
AcDbLine
 10
173.4298662636
 20
681.8951309351
 11
175.0669332636
 21
680.2580639351
  0
LINE
  5
2DB
100
AcDbEntity
  8
_0-1_PRO0
  6
CONTINUOUS
 62
     0
100
AcDbLine
 10
165.6711642636
 20
679.7656529351
 11
165.0576432636
 21
680.3791739351
  0
LINE
  5
2DC
100
AcDbEntity
  8
_0-1_PRO0
  6
CONTINUOUS
 62
     0
100
AcDbLine
 10
165.3778872636
 20
681.4731449351
 11
167.0149512636
 21
679.8360779351
  0
LINE
  5
2DD
100
AcDbEntity
  8
_0-1_PRO0
  6
CONTINUOUS
 62
     0
100
AcDbLine
 10
166.7216742636
 20
681.5435699351
 11
168.3587412636
 21
679.9065029351
  0
LINE
  5
2DE
100
AcDbEntity
  8
_0-1_PRO0
  6
CONTINUOUS
 62
     0
100
AcDbLine
 10
168.0654642636
 20
681.6139949351
 11
169.7025282636
 21
679.9769279351
  0
LINE
  5
2DF
100
AcDbEntity
  8
_0-1_PRO0
  6
CONTINUOUS
 62
     0
100
AcDbLine
 10
169.4092512636
 20
681.6844199351
 11
171.0463182636
 21
680.0473529351
  0
LINE
  5
2E0
100
AcDbEntity
  8
_0-1_PRO0
  6
CONTINUOUS
 62
     0
100
AcDbLine
 10
170.7530412636
 20
681.7548449351
 11
172.3901052636
 21
680.1177779351
  0
LINE
  5
2E1
100
AcDbEntity
  8
_0-1_PRO0
  6
CONTINUOUS
 62
     0
100
AcDbLine
 10
172.0968282636
 20
681.8252699351
 11
173.7338952636
 21
680.1882029351
  0
ARC
  5
2E2
100
AcDbEntity
  8
_0-1_PRO0
  6
CONTINUOUS
 62
     0
100
AcDbCircle
 10
159.0174762636
 20
673.6295159351
 40
7.5
100
AcDbArc
 50
93
 51
169.875328
  0
LINE
  5
2E3
100
AcDbEntity
  8
_0-1_PRO0
  6
CONTINUOUS
 62
     0
100
AcDbLine
 10
145.8563172636
 20
593.9287289351
 11
145.8563172636
 21
591.9287279351
  0
LINE
  5
2E4
100
AcDbEntity
  8
_0-1_PRO0
  6
CONTINUOUS
 62
     0
100
AcDbLine
 10
138.6993072636
 20
682.0777229351
 11
585.8563152636
 21
705.5122312496
  0
LINE
  5
2E5
100
AcDbEntity
  8
_0-1_PRO0
  6
CONTINUOUS
 62
     0
100
AcDbLine
 10
138.8039802636
 20
680.0804639351
 11
585.8824842636
 21
703.5108562496
  0
LINE
  5
2E6
100
AcDbEntity
  8
_0-1_PRO0
  6
CONTINUOUS
 62
     0
100
AcDbLine
 10
166.5567942636
 20
651.7736429351
 11
585.8563152636
 21
673.7481982496
  0
LINE
  5
2E7
100
AcDbEntity
  8
_0-1_PRO0
  6
CONTINUOUS
 62
     0
100
AcDbLine
 10
166.5044592636
 20
652.7722709351
 11
585.8563152636
 21
674.7495712496
  0
LINE
  5
2E8
100
AcDbEntity
  8
_0-1_PRO0
  6
CONTINUOUS
 62
     0
100
AcDbLine
 10
166.4259552636
 20
654.2702159351
 11
585.8563152636
 21
676.2516292496
  0
LINE
  5
2E9
100
AcDbEntity
  8
_0-1_PRO0
  6
CONTINUOUS
 62
     0
100
AcDbLine
 10
166.2689472636
 20
657.2661029351
 11
585.8563152636
 21
679.2557482496
  0
LINE
  5
2EA
100
AcDbEntity
  8
_0-1_PRO0
  6
CONTINUOUS
 62
     0
100
AcDbLine
 10
166.1747412636
 20
659.0636369351
 11
585.8563152636
 21
681.0582172496
  0
LINE
  5
2EB
100
AcDbEntity
  8
_0-1_PRO0
  6
CONTINUOUS
 62
     0
100
AcDbLine
 10
165.4054032636
 20
673.7434919351
 11
585.8563152636
 21
695.7783922496
  0
LINE
  5
2EC
100
AcDbEntity
  8
_0-1_PRO0
  6
CONTINUOUS
 62
     0
100
AcDbLine
 10
165.3268992636
 20
675.2414369351
 11
585.8563152636
 21
697.2804502496
  0
LINE
  5
2ED
100
AcDbEntity
  8
_0-1_PRO0
  6
CONTINUOUS
 62
     0
100
AcDbLine
 10
165.0913872636
 20
679.7352689351
 11
585.8563152636
 21
701.7866242496
  0
LINE
  5
2EE
100
AcDbEntity
  8
_0-1_PRO0
  6
CONTINUOUS
 62
     0
100
AcDbLine
 10
159.0622962636
 20
676.6359809351
 11
585.8824842636
 21
699.0046822496
  0
LINE
  5
2EF
100
AcDbEntity
  8
_0-1_PRO0
  6
CONTINUOUS
 62
     0
100
AcDbLine
 10
135.8563152636
 20
742.8167639351
 11
138.8563152636
 21
742.0667639351
  0
LINE
  5
2F0
100
AcDbEntity
  8
_0-1_PRO0
  6
CONTINUOUS
 62
     0
100
AcDbLine
 10
135.8563152636
 20
742.8167639351
 11
138.8563152636
 21
743.5667639351
  0
LINE
  5
2F1
100
AcDbEntity
  8
_0-1_PRO0
  6
CONTINUOUS
 62
     0
100
AcDbLine
 10
135.8563152636
 20
680.0818349351
 11
135.8563152636
 21
746.8167629351
  0
TEXT
  5
2F2
100
AcDbEntity
  8
_0-1_PRO0
  6
CONTINUOUS
 62
     0
100
AcDbText
 10
1059.74696713
 20
689.6844848768
 40
9
  1
３
  7
STANDARD
100
AcDbText
  0
TEXT
  5
2F3
100
AcDbEntity
  8
_0-1_PRO0
  6
CONTINUOUS
 62
     0
100
AcDbText
 10
583.5680569745
 20
754.6511527416
 40
9
  1
Ｗ
  7
STANDARD
100
AcDbText
  0
TEXT
  5
2F4
100
AcDbEntity
  8
_0-1_PRO0
  6
CONTINUOUS
 62
     0
100
AcDbText
 10
553.8829128565
 20
744.4316768977
 40
9
  1
（キャップ幅）
  7
STANDARD
100
AcDbText
  0
TEXT
  5
2F5
100
AcDbEntity
  8
_0-1_PRO0
  6
CONTINUOUS
 62
     0
100
AcDbText
 10
595.247457939
 20
725.9392920373
 40
9
  1
１
  7
STANDARD
100
AcDbText
  0
LINE
  5
2F6
100
AcDbEntity
  8
_0-1_PRO0
  6
CONTINUOUS
 62
     0
100
AcDbLine
 10
1035.856315264
 20
593.9287289351
 11
1035.856315264
 21
456.3302512248
  0
LINE
  5
2F7
100
AcDbEntity
  8
_0-1_PRO0
  6
CONTINUOUS
 62
     0
100
AcDbLine
 10
1035.856315264
 20
460.3302502248
 11
1032.856315264
 21
459.5802502248
  0
LINE
  5
2F8
100
AcDbEntity
  8
_0-1_PRO0
  6
CONTINUOUS
 62
     0
100
AcDbLine
 10
1035.856315264
 20
460.3302502248
 11
1032.856315264
 21
461.0802502248
  0
LINE
  5
2F9
100
AcDbEntity
  8
_0-1_PRO0
  6
CONTINUOUS
 62
     0
100
AcDbLine
 10
135.8563152636
 20
460.3302502248
 11
138.8563152636
 21
459.5802502248
  0
LINE
  5
2FA
100
AcDbEntity
  8
_0-1_PRO0
  6
CONTINUOUS
 62
     0
100
AcDbLine
 10
135.8563152636
 20
460.3302502248
 11
138.8563152636
 21
461.0802502248
  0
LINE
  5
2FB
100
AcDbEntity
  8
_0-1_PRO0
  6
CONTINUOUS
 62
     0
100
AcDbLine
 10
135.8563152636
 20
593.9287289351
 11
135.8563152636
 21
456.3302512248
  0
LINE
  5
2FC
100
AcDbEntity
  8
_0-1_PRO0
  6
CONTINUOUS
 62
     0
100
AcDbLine
 10
585.8563152636
 20
717.7810822496
 11
585.8563152636
 21
450.3530704571
  0
LINE
  5
2FD
100
AcDbEntity
  8
_1-0_
  6
CONTINUOUS
 62
     0
100
AcDbLine
 10
315.8563162636
 20
590.3651339351
 11
315.8563162636
 21
635.7985349351
  0
LINE
  5
2FE
100
AcDbEntity
  8
_1-0_
  6
CONTINUOUS
 62
     0
100
AcDbLine
 10
311.1063142636
 20
626.7985349351
 11
311.8063162636
 21
627.4985339351
  0
LINE
  5
2FF
100
AcDbEntity
  8
_1-0_
  6
CONTINUOUS
 62
     0
100
AcDbLine
 10
311.8063162636
 20
636.7985339351
 11
311.8063162636
 21
627.4985339351
  0
LINE
  5
300
100
AcDbEntity
  8
_1-0_
  6
CONTINUOUS
 62
     0
100
AcDbLine
 10
311.1063142636
 20
608.1703619351
 11
311.1063142636
 21
626.7985349351
  0
LINE
  5
301
100
AcDbEntity
  8
_1-0_
  6
CONTINUOUS
 62
     0
100
AcDbLine
 10
311.3563162636
 20
596.2985339351
 11
311.3563162636
 21
597.1618379351
  0
LINE
  5
302
100
AcDbEntity
  8
_1-0_
  6
CONTINUOUS
 62
     0
100
AcDbLine
 10
309.2312842636
 20
597.5365379351
 11
311.1063142636
 21
608.1703619351
  0
LINE
  5
303
100
AcDbEntity
  8
_1-0_
  6
CONTINUOUS
 62
     0
100
AcDbLine
 10
315.3563152636
 20
607.7985329351
 11
316.3563142636
 21
607.7985329351
  0
LINE
  5
304
100
AcDbEntity
  8
_1-0_
  6
CONTINUOUS
 62
     0
100
AcDbLine
 10
320.6063152636
 20
626.7985349351
 11
319.9063162636
 21
627.4985339351
  0
LINE
  5
305
100
AcDbEntity
  8
_1-0_
  6
CONTINUOUS
 62
     0
100
AcDbLine
 10
319.9063162636
 20
636.7985339351
 11
319.9063162636
 21
627.4985339351
  0
LINE
  5
306
100
AcDbEntity
  8
_1-0_
  6
CONTINUOUS
 62
     0
100
AcDbLine
 10
320.6063152636
 20
608.1703619351
 11
320.6063152636
 21
626.7985349351
  0
LINE
  5
307
100
AcDbEntity
  8
_1-0_
  6
CONTINUOUS
 62
     0
100
AcDbLine
 10
319.3563142636
 20
595.2985349351
 11
312.3563152636
 21
595.2985349351
  0
ARC
  5
308
100
AcDbEntity
  8
_1-0_
  6
CONTINUOUS
 62
     0
100
AcDbCircle
 10
319.3563142636
 20
596.2985339351
 40
0.999999
100
AcDbArc
 50
-90
 51
0
  0
LINE
  5
309
100
AcDbEntity
  8
_1-0_
  6
CONTINUOUS
 62
     0
100
AcDbLine
 10
320.3563162636
 20
596.2985339351
 11
320.3563162636
 21
597.1618379351
  0
LINE
  5
30A
100
AcDbEntity
  8
_1-0_
  6
CONTINUOUS
 62
     0
100
AcDbLine
 10
322.4813452636
 20
597.5365379351
 11
318.2959132636
 21
596.7985349351
  0
LINE
  5
30B
100
AcDbEntity
  8
_1-0_
  6
CONTINUOUS
 62
     0
100
AcDbLine
 10
315.3563152636
 20
607.7985329351
 11
313.4167192636
 21
596.7985349351
  0
LINE
  5
30C
100
AcDbEntity
  8
_1-0_
  6
CONTINUOUS
 62
     0
100
AcDbLine
 10
316.3563142636
 20
607.7985329351
 11
318.2959132636
 21
596.7985349351
  0
LINE
  5
30D
100
AcDbEntity
  8
_1-0_
  6
CONTINUOUS
 62
     0
100
AcDbLine
 10
322.4813452636
 20
597.5365379351
 11
320.6063152636
 21
608.1703619351
  0
LINE
  5
30E
100
AcDbEntity
  8
_1-0_
  6
CONTINUOUS
 62
     0
100
AcDbLine
 10
311.1063142636
 20
626.7985349351
 11
320.6063152636
 21
626.7985349351
  0
LINE
  5
30F
100
AcDbEntity
  8
_1-0_
  6
CONTINUOUS
 62
     0
100
AcDbLine
 10
311.8063162636
 20
627.4985339351
 11
319.9063162636
 21
627.4985339351
  0
LINE
  5
310
100
AcDbEntity
  8
_1-0_
  6
CONTINUOUS
 62
     0
100
AcDbLine
 10
309.2312842636
 20
597.5365379351
 11
313.4167192636
 21
596.7985349351
  0
ARC
  5
311
100
AcDbEntity
  8
_1-0_
  6
CONTINUOUS
 62
     0
100
AcDbCircle
 10
312.3563152636
 20
596.2985339351
 40
0.999999
100
AcDbArc
 50
180
 51
270
  0
LINE
  5
312
100
AcDbEntity
  8
_0-1_PRO0
  6
CONTINUOUS
 62
     0
100
AcDbLine
 10
287.5823332636
 20
691.4401139351
 11
347.5823332636
 21
694.5845789351
  0
LINE
  5
313
100
AcDbEntity
  8
_0-1_PRO0
  6
CONTINUOUS
 62
     0
100
AcDbLine
 10
287.5823332636
 20
694.5845789351
 11
347.5823332636
 21
694.5845789351
  0
LINE
  5
314
100
AcDbEntity
  8
_0-1_PRO0
  6
CONTINUOUS
 62
     0
100
AcDbLine
 10
287.5823332636
 20
694.5845789351
 11
287.5823332636
 21
691.4401139351
  0
TEXT
  5
315
100
AcDbEntity
  8
_0-1_PRO0
  6
CONTINUOUS
 62
     0
100
AcDbText
 10
287.699386334
 20
695.7675062125
 40
9
  1
（勾配３度）
  7
STANDARD
100
AcDbText
  0
LINE
  5
316
100
AcDbEntity
  8
_0-1_PRO0
  6
CONTINUOUS
 62
     0
100
AcDbLine
 10
265.8563152636
 20
460.3302502248
 11
268.8563152636
 21
459.5802502248
  0
LINE
  5
317
100
AcDbEntity
  8
_0-1_PRO0
  6
CONTINUOUS
 62
     0
100
AcDbLine
 10
265.8563152636
 20
460.3302502248
 11
268.8563152636
 21
461.0802502248
  0
LINE
  5
318
100
AcDbEntity
  8
_0-1_PRO0
  6
CONTINUOUS
 62
     0
100
AcDbLine
 10
265.8563152636
 20
460.3302502248
 11
262.8563152636
 21
461.0802502248
  0
LINE
  5
319
100
AcDbEntity
  8
_0-1_PRO0
  6
CONTINUOUS
 62
     0
100
AcDbLine
 10
265.8563152636
 20
460.3302502248
 11
262.8563152636
 21
459.5802502248
  0
LINE
  5
31A
100
AcDbEntity
  8
_0-1_PRO0
  6
CONTINUOUS
 62
     0
100
AcDbLine
 10
135.8563152636
 20
460.3302502248
 11
265.8563152636
 21
460.3302502248
  0
LINE
  5
31B
100
AcDbEntity
  8
_0-1_PRO0
  6
CONTINUOUS
 62
     0
100
AcDbLine
 10
315.8563162636
 20
517.9770921556
 11
312.8563162636
 21
518.7270921556
  0
LINE
  5
31C
100
AcDbEntity
  8
_0-1_PRO0
  6
CONTINUOUS
 62
     0
100
AcDbLine
 10
315.8563162636
 20
517.9770921556
 11
312.8563162636
 21
517.2270921556
  0
LINE
  5
31D
100
AcDbEntity
  8
_0-1_PRO0
  6
CONTINUOUS
 62
     0
100
AcDbLine
 10
265.8563152636
 20
517.9770921556
 11
268.8563152636
 21
517.2270921556
  0
LINE
  5
31E
100
AcDbEntity
  8
_0-1_PRO0
  6
CONTINUOUS
 62
     0
100
AcDbLine
 10
265.8563152636
 20
517.9770921556
 11
268.8563152636
 21
518.7270921556
  0
LINE
  5
31F
100
AcDbEntity
  8
_0-1_PRO0
  6
CONTINUOUS
 62
     0
100
AcDbLine
 10
315.8563162636
 20
589.3651319351
 11
315.8563162636
 21
513.9770901556
  0
LINE
  5
320
100
AcDbEntity
  8
_0-1_PRO0
  6
CONTINUOUS
 62
     0
100
AcDbLine
 10
265.8563152636
 20
517.9770921556
 11
315.8563162636
 21
517.9770921556
  0
LINE
  5
321
100
AcDbEntity
  8
_0-1_PRO0
  6
CONTINUOUS
 62
     0
100
AcDbLine
 10
265.8563152636
 20
635.7985349351
 11
265.8563152636
 21
507.3577041556
  0
TEXT
  5
322
100
AcDbEntity
  8
_0-1_PRO0
  6
CONTINUOUS
 62
     0
100
AcDbText
 10
288.1860280408
 20
518.4965906158
 40
9
  1
50
  7
STANDARD
100
AcDbText
  0
LINE
  5
323
100
AcDbEntity
  8
_0-1_PRO0
  6
CONTINUOUS
 62
     0
100
AcDbLine
 10
265.8563152636
 20
506.3577051556
 11
265.8563152636
 21
456.3302512248
  0
LINE
  5
324
100
AcDbEntity
  8
_1-0_
  6
CONTINUOUS
 62
     0
100
AcDbLine
 10
319.0263947598
 20
651.55529235
 11
318.5532497598
 21
651.02980935
  0
LINE
  5
325
100
AcDbEntity
  8
_1-0_
  6
CONTINUOUS
 62
     0
100
AcDbLine
 10
318.5532497598
 20
651.02980935
 11
313.5601007598
 21
650.76812835
  0
LINE
  5
326
100
AcDbEntity
  8
_1-0_
  6
CONTINUOUS
 62
     0
100
AcDbLine
 10
313.5601007598
 20
650.76812835
 11
313.0346177598
 21
651.24127635
  0
LINE
  5
327
100
AcDbEntity
  8
_1-0_
  6
CONTINUOUS
 62
     0
100
AcDbLine
 10
319.0263947598
 20
651.55529235
 11
313.0346177598
 21
651.24127635
  0
LINE
  5
328
100
AcDbEntity
  8
_1-0_
  6
CONTINUOUS
 62
     0
100
AcDbLine
 10
325.7832378998
 20
681.4437255916
 11
302.8147578998
 21
680.2399995916
  0
LINE
  5
329
100
AcDbEntity
  8
_1-0_
  6
CONTINUOUS
 62
     0
100
AcDbLine
 10
339.2308068998
 20
669.2268165916
 11
325.7832378998
 21
681.4437255916
  0
LINE
  5
32A
100
AcDbEntity
  8
_1-0_
  6
CONTINUOUS
 62
     0
100
AcDbLine
 10
343.0796298998
 20
671.4334425916
 11
342.4183938998
 21
671.8837425916
  0
LINE
  5
32B
100
AcDbEntity
  8
_1-0_
  6
CONTINUOUS
 62
     0
100
AcDbLine
 10
342.4183938998
 20
671.8837425916
 11
340.7297778998
 21
669.4041105916
  0
LINE
  5
32C
100
AcDbEntity
  8
_1-0_
  6
CONTINUOUS
 62
     0
100
AcDbLine
 10
343.0796298998
 20
671.4334425916
 11
341.3910138998
 21
668.9538105916
  0
ARC
  5
32D
100
AcDbEntity
  8
_1-0_
  6
CONTINUOUS
 62
     0
100
AcDbCircle
 10
339.9032358998
 20
669.9669825916
 40
0.999999
100
AcDbArc
 50
-132.254652
 51
-34.254658
  0
ARC
  5
32E
100
AcDbEntity
  8
_1-0_
  6
CONTINUOUS
 62
     0
100
AcDbCircle
 10
339.9032358998
 20
669.9669825916
 40
1.8
100
AcDbArc
 50
-132.254651
 51
-34.254658
  0
ARC
  5
32F
100
AcDbEntity
  8
_1-0_
  6
CONTINUOUS
 62
     0
100
AcDbCircle
 10
314.3775018998
 20
679.3439175916
 40
6.3
100
AcDbArc
 50
43.903458
 51
142.096542
  0
LINE
  5
330
100
AcDbEntity
  8
_1-0_
  6
CONTINUOUS
 62
     0
100
AcDbLine
 10
319.4729508998
 20
682.4304045916
 11
319.5418038998
 21
681.1166265916
  0
LINE
  5
331
100
AcDbEntity
  8
_1-0_
  6
CONTINUOUS
 62
     0
100
AcDbLine
 10
308.9873418998
 20
681.8808765916
 11
309.0561918998
 21
680.5670985916
  0
ARC
  5
332
100
AcDbEntity
  8
_1-0_
  6
CONTINUOUS
 62
     0
100
AcDbCircle
 10
317.4756918998
 20
682.3257345916
 40
2.000001
100
AcDbArc
 50
2.999999999999
 51
43.903458
  0
LINE
  5
333
100
AcDbEntity
  8
_1-0_
  6
CONTINUOUS
 62
     0
100
AcDbLine
 10
338.6928678998
 20
668.6346855916
 11
325.4921088998
 21
680.6273715916
  0
LINE
  5
334
100
AcDbEntity
  8
_1-0_
  6
CONTINUOUS
 62
     0
100
AcDbLine
 10
325.4921088998
 20
680.6273715916
 11
303.1487808998
 21
679.4564055916
  0
LINE
  5
335
100
AcDbEntity
  8
_1-0_
  6
CONTINUOUS
 62
     0
100
AcDbLine
 10
291.3147588998
 20
666.1517055916
 11
303.1896258998
 21
679.4585475916
  0
ARC
  5
336
100
AcDbEntity
  8
_1-0_
  6
CONTINUOUS
 62
     0
100
AcDbCircle
 10
310.9846008998
 20
681.9855495916
 40
2.000001
100
AcDbArc
 50
142.096542
 51
183
  0
LINE
  5
337
100
AcDbEntity
  8
_1-0_
  6
CONTINUOUS
 62
     0
100
AcDbLine
 10
286.6594758998
 20
668.4765885916
 11
287.2700208998
 21
668.9935365916
  0
LINE
  5
338
100
AcDbEntity
  8
_1-0_
  6
CONTINUOUS
 62
     0
100
AcDbLine
 10
287.2700208998
 20
668.9935365916
 11
289.2085788998
 21
666.7039965916
  0
LINE
  5
339
100
AcDbEntity
  8
_1-0_
  6
CONTINUOUS
 62
     0
100
AcDbLine
 10
286.6594758998
 20
668.4765885916
 11
288.5980338998
 21
666.1870485916
  0
ARC
  5
33A
100
AcDbEntity
  8
_1-0_
  6
CONTINUOUS
 62
     0
100
AcDbCircle
 10
289.9717578998
 20
667.3501845916
 40
0.999999
100
AcDbArc
 50
-139.745342
 51
-41.745348
  0
LINE
  5
33B
100
AcDbEntity
  8
_1-0_
  6
CONTINUOUS
 62
     0
100
AcDbLine
 10
290.7178698998
 20
666.6843615916
 11
302.8147578998
 21
680.2399995916
  0
ARC
  5
33C
100
AcDbEntity
  8
_1-0_
  6
CONTINUOUS
 62
     0
100
AcDbCircle
 10
289.9717578998
 20
667.3501845916
 40
1.8
100
AcDbArc
 50
-139.745342
 51
-41.745349
  0
LINE
  5
33D
100
AcDbEntity
  8
_1-0_
  6
CONTINUOUS
 62
     0
100
AcDbLine
 10
313.9924998998
 20
686.6902125916
 11
316.1524127598
 21
649.07218635
  0
LINE
  5
33E
100
AcDbEntity
  8
_1-0_
  6
CONTINUOUS
 62
     0
100
AcDbLine
 10
316.7955708998
 20
680.9727015916
 11
318.0985252144
 21
659.7064872291
  0
LINE
  5
33F
100
AcDbEntity
  8
_1-0_
  6
CONTINUOUS
 62
     0
100
AcDbLine
 10
317.2948878998
 20
680.9988705916
 11
318.5978392144
 21
659.7326532291
  0
LINE
  5
340
100
AcDbEntity
  8
_1-0_
  6
CONTINUOUS
 62
     0
100
AcDbLine
 10
311.3031078998
 20
680.6848545916
 11
312.6060622144
 21
659.4186372291
  0
LINE
  5
341
100
AcDbEntity
  8
_1-0_
  6
CONTINUOUS
 62
     0
100
AcDbLine
 10
311.8024248998
 20
680.7110235916
 11
313.1053762144
 21
659.4448062291
  0
TEXT
  5
342
100
AcDbEntity
  8
_0-1_PRO0
  6
CONTINUOUS
 62
     0
100
AcDbText
 10
1058.049051937
 20
608.7168102882
 40
9
  1
44
 50
90.000003
  7
STANDARD
100
AcDbText
  0
TEXT
  5
343
100
AcDbEntity
  8
_0-1_PRO0
  6
CONTINUOUS
 62
     0
100
AcDbText
 10
1082.780650723
 20
623.8439046915
 40
9
  1
90
 50
90.000003
  7
STANDARD
100
AcDbText
  0
LINE
  5
344
100
AcDbEntity
  8
_0-1_PRO0
  6
CONTINUOUS
 62
     0
100
AcDbLine
 10
855.8563142636
 20
589.3651319351
 11
855.8563142636
 21
513.9770901556
  0
LINE
  5
345
100
AcDbEntity
  8
_0-1_PRO0
  6
CONTINUOUS
 62
     0
100
AcDbLine
 10
855.8563142636
 20
517.9770921556
 11
905.8563152636
 21
517.9770921556
  0
LINE
  5
346
100
AcDbEntity
  8
_0-1_PRO0
  6
CONTINUOUS
 62
     0
100
AcDbLine
 10
855.8563142636
 20
517.9770921556
 11
858.8563142636
 21
517.2270921556
  0
LINE
  5
347
100
AcDbEntity
  8
_0-1_PRO0
  6
CONTINUOUS
 62
     0
100
AcDbLine
 10
855.8563142636
 20
517.9770921556
 11
858.8563142636
 21
518.7270921556
  0
LINE
  5
348
100
AcDbEntity
  8
_0-1_PRO0
  6
CONTINUOUS
 62
     0
100
AcDbLine
 10
905.8563152636
 20
517.9770921556
 11
902.8563152636
 21
518.7270921556
  0
LINE
  5
349
100
AcDbEntity
  8
_0-1_PRO0
  6
CONTINUOUS
 62
     0
100
AcDbLine
 10
905.8563152636
 20
517.9770921556
 11
902.8563152636
 21
517.2270921556
  0
LINE
  5
34A
100
AcDbEntity
  8
_0-1_PRO0
  6
CONTINUOUS
 62
     0
100
AcDbLine
 10
905.8563152636
 20
635.7985349351
 11
905.8563152636
 21
507.3577041556
  0
CIRCLE
  5
34B
100
AcDbEntity
  8
_0-1_PRO0
  6
CONTINUOUS
 62
     0
100
AcDbCircle
 10
856.1867942636
 20
658.5154109351
 40
0.9
  0
LINE
  5
34C
100
AcDbEntity
  8
_0-1_PRO0
  6
CONTINUOUS
 62
     0
100
AcDbLine
 10
855.8313932636
 20
615.4323569351
 11
842.1509462636
 21
591.7371299351
  0
CIRCLE
  5
34D
100
AcDbEntity
  8
_0-1_PRO0
  6
CONTINUOUS
 62
     0
100
AcDbCircle
 10
839.1509462636
 20
586.5409769351
 40
6
  0
CIRCLE
  5
34E
100
AcDbEntity
  8
_0-1_PRO0
  6
CONTINUOUS
 62
     0
100
AcDbCircle
 10
855.8313932636
 20
615.4323569351
 40
0.9
  0
LINE
  5
34F
100
AcDbEntity
  8
_0-1_PRO0
  6
CONTINUOUS
 62
     0
100
AcDbLine
 10
906.8563142636
 20
635.7985349351
 11
1061.960407264
 21
635.7985349351
  0
LINE
  5
350
100
AcDbEntity
  8
_0-1_PRO0
  6
CONTINUOUS
 62
     0
100
AcDbLine
 10
849.2312852636
 20
597.5365379351
 11
853.4167172636
 21
596.7985349351
  0
LINE
  5
351
100
AcDbEntity
  8
_0-1_PRO0
  6
CONTINUOUS
 62
     0
100
AcDbLine
 10
855.8563142636
 20
590.3651339351
 11
855.8563142636
 21
635.7985349351
  0
ARC
  5
352
100
AcDbEntity
  8
_1-0_
  6
CONTINUOUS
 62
     0
100
AcDbCircle
 10
859.3563152636
 20
596.2985339351
 40
0.999999
100
AcDbArc
 50
-90
 51
0
  0
LINE
  5
353
100
AcDbEntity
  8
_1-0_
  6
CONTINUOUS
 62
     0
100
AcDbLine
 10
862.4813462636
 20
597.5365379351
 11
858.2959112636
 21
596.7985349351
  0
LINE
  5
354
100
AcDbEntity
  8
_1-0_
  6
CONTINUOUS
 62
     0
100
AcDbLine
 10
859.9063142636
 20
627.4985339351
 11
851.8063142636
 21
627.4985339351
  0
LINE
  5
355
100
AcDbEntity
  8
_1-0_
  6
CONTINUOUS
 62
     0
100
AcDbLine
 10
860.6063162636
 20
626.7985349351
 11
851.1063152636
 21
626.7985349351
  0
LINE
  5
356
100
AcDbEntity
  8
_1-0_
  6
CONTINUOUS
 62
     0
100
AcDbLine
 10
849.2312852636
 20
597.5365379351
 11
851.1063152636
 21
608.1703619351
  0
LINE
  5
357
100
AcDbEntity
  8
_1-0_
  6
CONTINUOUS
 62
     0
100
AcDbLine
 10
855.3563162636
 20
607.7985329351
 11
853.4167172636
 21
596.7985349351
  0
LINE
  5
358
100
AcDbEntity
  8
_1-0_
  6
CONTINUOUS
 62
     0
100
AcDbLine
 10
856.3563152636
 20
607.7985329351
 11
858.2959112636
 21
596.7985349351
  0
LINE
  5
359
100
AcDbEntity
  8
_1-0_
  6
CONTINUOUS
 62
     0
100
AcDbLine
 10
849.2312852636
 20
597.5365379351
 11
853.4167172636
 21
596.7985349351
  0
LINE
  5
35A
100
AcDbEntity
  8
_1-0_
  6
CONTINUOUS
 62
     0
100
AcDbLine
 10
851.3563142636
 20
596.2985339351
 11
851.3563142636
 21
597.1618379351
  0
ARC
  5
35B
100
AcDbEntity
  8
_1-0_
  6
CONTINUOUS
 62
     0
100
AcDbCircle
 10
852.3563162636
 20
596.2985339351
 40
0.999999
100
AcDbArc
 50
180
 51
270
  0
LINE
  5
35C
100
AcDbEntity
  8
_1-0_
  6
CONTINUOUS
 62
     0
100
AcDbLine
 10
852.3563162636
 20
595.2985349351
 11
859.3563152636
 21
595.2985349351
  0
LINE
  5
35D
100
AcDbEntity
  8
_1-0_
  6
CONTINUOUS
 62
     0
100
AcDbLine
 10
851.1063152636
 20
608.1703619351
 11
851.1063152636
 21
626.7985349351
  0
LINE
  5
35E
100
AcDbEntity
  8
_1-0_
  6
CONTINUOUS
 62
     0
100
AcDbLine
 10
851.8063142636
 20
636.7985339351
 11
851.8063142636
 21
627.4985339351
  0
LINE
  5
35F
100
AcDbEntity
  8
_1-0_
  6
CONTINUOUS
 62
     0
100
AcDbLine
 10
851.1063152636
 20
626.7985349351
 11
851.8063142636
 21
627.4985339351
  0
LINE
  5
360
100
AcDbEntity
  8
_1-0_
  6
CONTINUOUS
 62
     0
100
AcDbLine
 10
856.3563152636
 20
607.7985329351
 11
855.3563162636
 21
607.7985329351
  0
LINE
  5
361
100
AcDbEntity
  8
_1-0_
  6
CONTINUOUS
 62
     0
100
AcDbLine
 10
862.4813462636
 20
597.5365379351
 11
860.6063162636
 21
608.1703619351
  0
LINE
  5
362
100
AcDbEntity
  8
_1-0_
  6
CONTINUOUS
 62
     0
100
AcDbLine
 10
860.3563142636
 20
596.2985339351
 11
860.3563142636
 21
597.1618379351
  0
LINE
  5
363
100
AcDbEntity
  8
_1-0_
  6
CONTINUOUS
 62
     0
100
AcDbLine
 10
860.6063162636
 20
608.1703619351
 11
860.6063162636
 21
626.7985349351
  0
LINE
  5
364
100
AcDbEntity
  8
_1-0_
  6
CONTINUOUS
 62
     0
100
AcDbLine
 10
859.9063142636
 20
636.7985339351
 11
859.9063142636
 21
627.4985339351
  0
LINE
  5
365
100
AcDbEntity
  8
_1-0_
  6
CONTINUOUS
 62
     0
100
AcDbLine
 10
860.6063162636
 20
626.7985349351
 11
859.9063142636
 21
627.4985339351
  0
LINE
  5
366
100
AcDbEntity
  8
_1-0_
  6
CONTINUOUS
 62
     0
100
AcDbLine
 10
855.8563142636
 20
590.3651339351
 11
855.8563142636
 21
635.7985349351
  0
LINE
  5
367
100
AcDbEntity
  8
_0-1_PRO0
  6
CONTINUOUS
 62
     0
100
AcDbLine
 10
905.8563152636
 20
460.3302502248
 11
902.8563152636
 21
459.5802502248
  0
LINE
  5
368
100
AcDbEntity
  8
_0-1_PRO0
  6
CONTINUOUS
 62
     0
100
AcDbLine
 10
905.8563152636
 20
460.3302502248
 11
902.8563152636
 21
461.0802502248
  0
LINE
  5
369
100
AcDbEntity
  8
_0-1_PRO0
  6
CONTINUOUS
 62
     0
100
AcDbLine
 10
905.8563152636
 20
460.3302502248
 11
1035.856315264
 21
460.3302502248
  0
LINE
  5
36A
100
AcDbEntity
  8
_0-1_PRO0
  6
CONTINUOUS
 62
     0
100
AcDbLine
 10
905.8563152636
 20
460.3302502248
 11
908.8563152636
 21
461.0802502248
  0
LINE
  5
36B
100
AcDbEntity
  8
_0-1_PRO0
  6
CONTINUOUS
 62
     0
100
AcDbLine
 10
905.8563152636
 20
460.3302502248
 11
908.8563152636
 21
459.5802502248
  0
TEXT
  5
36C
100
AcDbEntity
  8
_2-0_
  6
CONTINUOUS
 62
     0
100
AcDbText
 10
875.5435939602
 20
518.2532697623
 40
9
  1
50
  7
STANDARD
100
AcDbText
  0
LINE
  5
36D
100
AcDbEntity
  8
_0-1_PRO0
  6
CONTINUOUS
 62
     0
100
AcDbLine
 10
905.8563152636
 20
506.3577051556
 11
905.8563152636
 21
456.3302512248
  0
LINE
  5
36E
100
AcDbEntity
  8
_1-0_
  6
CONTINUOUS
 62
     0
100
AcDbLine
 10
852.6862357589
 20
651.5552921875
 11
858.6780127589
 21
651.2412761875
  0
LINE
  5
36F
100
AcDbEntity
  8
_1-0_
  6
CONTINUOUS
 62
     0
100
AcDbLine
 10
858.1525297589
 20
650.7681281875
 11
858.6780127589
 21
651.2412761875
  0
LINE
  5
370
100
AcDbEntity
  8
_1-0_
  6
CONTINUOUS
 62
     0
100
AcDbLine
 10
853.1593807589
 20
651.0298091875
 11
858.1525297589
 21
650.7681281875
  0
LINE
  5
371
100
AcDbEntity
  8
_1-0_
  6
CONTINUOUS
 62
     0
100
AcDbLine
 10
852.6862357589
 20
651.5552921875
 11
853.1593807589
 21
651.0298091875
  0
LINE
  5
372
100
AcDbEntity
  8
_2-1_ADD_LINE
  6
CONTINUOUS
 62
     0
100
AcDbLine
 10
852.9758499329
 20
691.5092381191
 11
1035.856315264
 21
681.9287296192
  0
LINE
  5
373
100
AcDbEntity
  8
_0-1_PRO0
  6
CONTINUOUS
 62
     0
100
AcDbLine
 10
856.1867942636
 20
658.5154109351
 11
882.9163850642
 21
707.757873448
  0
CIRCLE
  5
374
100
AcDbEntity
  8
_0-1_PRO0
  6
CONTINUOUS
 62
     0
100
AcDbCircle
 10
885.9163850642
 20
712.954026448
 40
6
  0
ARC
  5
375
100
AcDbEntity
  8
_1-0_
  6
CONTINUOUS
 62
     0
100
AcDbCircle
 10
881.3650310642
 20
667.369881448
 40
1.8
100
AcDbArc
 50
-138.254651
 51
-40.254658
  0
LINE
  5
376
100
AcDbEntity
  8
_1-0_
  6
CONTINUOUS
 62
     0
100
AcDbLine
 10
880.6189190642
 20
666.704058448
 11
868.5220310642
 21
680.259696448
  0
ARC
  5
377
100
AcDbEntity
  8
_1-0_
  6
CONTINUOUS
 62
     0
100
AcDbCircle
 10
881.3650310642
 20
667.369881448
 40
0.999999
100
AcDbArc
 50
-138.254652
 51
-40.254658
  0
LINE
  5
378
100
AcDbEntity
  8
_1-0_
  6
CONTINUOUS
 62
     0
100
AcDbLine
 10
884.6773130642
 20
668.496285448
 11
882.7387550642
 21
666.206745448
  0
LINE
  5
379
100
AcDbEntity
  8
_1-0_
  6
CONTINUOUS
 62
     0
100
AcDbLine
 10
884.0667680642
 20
669.013233448
 11
882.1282100642
 21
666.723693448
  0
LINE
  5
37A
100
AcDbEntity
  8
_1-0_
  6
CONTINUOUS
 62
     0
100
AcDbLine
 10
884.6773130642
 20
668.496285448
 11
884.0667680642
 21
669.013233448
  0
LINE
  5
37B
100
AcDbEntity
  8
_1-0_
  6
CONTINUOUS
 62
     0
100
AcDbLine
 10
857.3442890642
 20
686.709909448
 11
855.4094492636
 21
646.1953499351
  0
ARC
  5
37C
100
AcDbEntity
  8
_1-0_
  6
CONTINUOUS
 62
     0
100
AcDbCircle
 10
860.3521880642
 20
682.005246448
 40
2.000001
100
AcDbArc
 50
-2.999999999999
 51
37.903458
  0
LINE
  5
37D
100
AcDbEntity
  8
_1-0_
  6
CONTINUOUS
 62
     0
100
AcDbLine
 10
880.0220300642
 20
666.171402448
 11
868.1471630642
 21
679.478244448
  0
LINE
  5
37E
100
AcDbEntity
  8
_1-0_
  6
CONTINUOUS
 62
     0
100
AcDbLine
 10
845.8446800642
 20
680.647068448
 11
868.1880080642
 21
679.476102448
  0
LINE
  5
37F
100
AcDbEntity
  8
_1-0_
  6
CONTINUOUS
 62
     0
100
AcDbLine
 10
832.6439210642
 20
668.654382448
 11
845.8446800642
 21
680.647068448
  0
ARC
  5
380
100
AcDbEntity
  8
_1-0_
  6
CONTINUOUS
 62
     0
100
AcDbCircle
 10
853.8610970642
 20
682.345431448
 40
2.000001
100
AcDbArc
 50
136.096542
 51
177
  0
LINE
  5
381
100
AcDbEntity
  8
_1-0_
  6
CONTINUOUS
 62
     0
100
AcDbLine
 10
862.3494470642
 20
681.900573448
 11
862.2805970642
 21
680.586795448
  0
LINE
  5
382
100
AcDbEntity
  8
_1-0_
  6
CONTINUOUS
 62
     0
100
AcDbLine
 10
851.8638380642
 20
682.450101448
 11
851.7949850642
 21
681.136323448
  0
ARC
  5
383
100
AcDbEntity
  8
_1-0_
  6
CONTINUOUS
 62
     0
100
AcDbCircle
 10
856.9592870642
 20
679.363614448
 40
6.3
100
AcDbArc
 50
37.903458
 51
136.096542
  0
ARC
  5
384
100
AcDbEntity
  8
_1-0_
  6
CONTINUOUS
 62
     0
100
AcDbCircle
 10
831.4335530642
 20
669.986679448
 40
1.8
100
AcDbArc
 50
-145.745342
 51
-47.745349
  0
ARC
  5
385
100
AcDbEntity
  8
_1-0_
  6
CONTINUOUS
 62
     0
100
AcDbCircle
 10
831.4335530642
 20
669.986679448
 40
0.999999
100
AcDbArc
 50
-145.745342
 51
-47.745348
  0
LINE
  5
386
100
AcDbEntity
  8
_1-0_
  6
CONTINUOUS
 62
     0
100
AcDbLine
 10
828.2571590642
 20
671.453139448
 11
829.9457750642
 21
668.973507448
  0
LINE
  5
387
100
AcDbEntity
  8
_1-0_
  6
CONTINUOUS
 62
     0
100
AcDbLine
 10
828.9183950642
 20
671.903439448
 11
830.6070110642
 21
669.423807448
  0
LINE
  5
388
100
AcDbEntity
  8
_1-0_
  6
CONTINUOUS
 62
     0
100
AcDbLine
 10
828.2571590642
 20
671.453139448
 11
828.9183950642
 21
671.903439448
  0
LINE
  5
389
100
AcDbEntity
  8
_1-0_
  6
CONTINUOUS
 62
     0
100
AcDbLine
 10
832.1059820642
 20
669.246513448
 11
845.5535510642
 21
681.463422448
  0
LINE
  5
38A
100
AcDbEntity
  8
_1-0_
  6
CONTINUOUS
 62
     0
100
AcDbLine
 10
845.5535510642
 20
681.463422448
 11
868.5220310642
 21
680.259696448
  0
CIRCLE
  5
38B
100
AcDbEntity
  8
_0-1_PRO0
  6
CONTINUOUS
 62
     0
100
AcDbCircle
 10
902.2714721238
 20
719.2062642154
 40
6
  0
LINE
  5
38C
100
AcDbEntity
  8
_0-1_PRO0
  6
CONTINUOUS
 62
     0
100
AcDbLine
 10
875.3610221238
 20
672.5959992154
 11
899.2714721238
 21
714.0101112154
  0
CIRCLE
  5
38D
100
AcDbEntity
  8
_0-1_PRO0
  6
CONTINUOUS
 62
     0
100
AcDbCircle
 10
875.3610221238
 20
672.5959992154
 40
0.9
  0
LINE
  5
38E
100
AcDbEntity
  8
_1-0_
  6
CONTINUOUS
 62
     0
100
AcDbLine
 10
859.5343640642
 20
680.730720448
 11
858.607731504
 21
659.4539042258
  0
LINE
  5
38F
100
AcDbEntity
  8
_1-0_
  6
CONTINUOUS
 62
     0
100
AcDbLine
 10
860.0336810642
 20
680.704551448
 11
859.107045504
 21
659.4277352258
  0
LINE
  5
390
100
AcDbEntity
  8
_1-0_
  6
CONTINUOUS
 62
     0
100
AcDbLine
 10
854.0419010642
 20
681.018567448
 11
853.115268504
 21
659.7417512258
  0
LINE
  5
391
100
AcDbEntity
  8
_1-0_
  6
CONTINUOUS
 62
     0
100
AcDbLine
 10
854.5412180642
 20
680.992398448
 11
853.614582504
 21
659.7155852258
  0
LINE
  5
392
100
AcDbEntity
  8
_0-1_PRO0
  6
CONTINUOUS
 62
     0
100
AcDbLine
 10
485.8563162636
 20
460.3302502248
 11
488.8563162636
 21
459.5802502248
  0
LINE
  5
393
100
AcDbEntity
  8
_0-1_PRO0
  6
CONTINUOUS
 62
     0
100
AcDbLine
 10
485.8563162636
 20
460.3302502248
 11
488.8563162636
 21
461.0802502248
  0
LINE
  5
394
100
AcDbEntity
  8
_0-1_PRO0
  6
CONTINUOUS
 62
     0
100
AcDbLine
 10
485.8563162636
 20
460.3302502248
 11
482.8563162636
 21
461.0802502248
  0
LINE
  5
395
100
AcDbEntity
  8
_0-1_PRO0
  6
CONTINUOUS
 62
     0
100
AcDbLine
 10
485.8563162636
 20
460.3302502248
 11
482.8563162636
 21
459.5802502248
  0
LINE
  5
396
100
AcDbEntity
  8
_0-1_PRO0
  6
CONTINUOUS
 62
     0
100
AcDbLine
 10
485.8563162636
 20
635.7985349351
 11
485.8563162636
 21
513.9086772223
  0
LINE
  5
397
100
AcDbEntity
  8
_0-1_PRO0
  6
CONTINUOUS
 62
     0
100
AcDbLine
 10
485.8563162636
 20
506.3577051556
 11
485.8563162636
 21
456.3302512248
  0
LINE
  5
398
100
AcDbEntity
  8
_0-1_PRO0
  6
CONTINUOUS
 62
     0
100
AcDbLine
 10
485.8563162636
 20
635.7985349351
 11
265.8563152636
 21
635.7985349351
  0
LINE
  5
399
100
AcDbEntity
  8
_0-1_PRO0
  6
CONTINUOUS
 62
     0
100
AcDbLine
 10
265.8563152636
 20
460.3302502248
 11
485.8563162636
 21
460.3302502248
  0
LINE
  5
39A
100
AcDbEntity
  8
_0-1_PRO0
  6
CONTINUOUS
 62
     0
100
AcDbLine
 10
685.8563142636
 20
460.3302502248
 11
682.8563142636
 21
459.5802502248
  0
LINE
  5
39B
100
AcDbEntity
  8
_0-1_PRO0
  6
CONTINUOUS
 62
     0
100
AcDbLine
 10
685.8563142636
 20
460.3302502248
 11
682.8563142636
 21
461.0802502248
  0
LINE
  5
39C
100
AcDbEntity
  8
_0-1_PRO0
  6
CONTINUOUS
 62
     0
100
AcDbLine
 10
685.8563142636
 20
460.3302502248
 11
688.8563142636
 21
461.0802502248
  0
LINE
  5
39D
100
AcDbEntity
  8
_0-1_PRO0
  6
CONTINUOUS
 62
     0
100
AcDbLine
 10
685.8563142636
 20
460.3302502248
 11
688.8563142636
 21
459.5802502248
  0
LINE
  5
39E
100
AcDbEntity
  8
_0-1_PRO0
  6
CONTINUOUS
 62
     0
100
AcDbLine
 10
685.8563142636
 20
635.7985349351
 11
685.8563142636
 21
513.9086772223
  0
LINE
  5
39F
100
AcDbEntity
  8
_0-1_PRO0
  6
CONTINUOUS
 62
     0
100
AcDbLine
 10
685.8563142636
 20
506.3577051556
 11
685.8563142636
 21
456.3302512248
  0
LINE
  5
3A0
100
AcDbEntity
  8
_0-1_PRO0
  6
CONTINUOUS
 62
     0
100
AcDbLine
 10
685.8563142636
 20
635.7985349351
 11
905.8563152636
 21
635.7985349351
  0
LINE
  5
3A1
100
AcDbEntity
  8
_0-1_PRO0
  6
CONTINUOUS
 62
     0
100
AcDbLine
 10
685.8563142636
 20
460.3302502248
 11
905.8563152636
 21
460.3302502248
  0
LINE
  5
3A2
100
AcDbEntity
  8
_0-1_PRO0
  6
CONTINUOUS
 62
     0
100
AcDbLine
 10
485.8563162636
 20
460.3302502248
 11
685.8563142636
 21
460.3302502248
  0
LINE
  5
3A3
100
AcDbEntity
  8
_2-0_
  6
CONTINUOUS
 62
     0
100
AcDbLine
 10
518.2415074234
 20
514.9353561141
 11
485.8563162636
 21
635.7985349351
  0
LINE
  5
3A4
100
AcDbEntity
  8
_2-0_
  6
CONTINUOUS
 62
     0
100
AcDbLine
 10
653.4711231039
 20
514.9353561141
 11
685.8563142636
 21
635.7985349351
  0
ARC
  5
3A5
100
AcDbEntity
  8
_2-0_
  6
CONTINUOUS
 62
     0
100
AcDbCircle
 10
585.8563152636
 20
533.0526892712
 40
70
100
AcDbArc
 50
-165
 51
-15
  0
TEXT
  5
3A6
100
AcDbEntity
  8
_0-1_PRO0
  6
CONTINUOUS
 62
     0
100
AcDbText
 10
578.9777924479
 20
465.6278983773
 40
9
  1
200
  7
STANDARD
100
AcDbText
  0
CIRCLE
  5
3A7
100
AcDbEntity
  8
_0-1_PRO0
  6
CONTINUOUS
 62
     0
100
AcDbCircle
 10
598.2827583847
 20
463.734008215
 40
0.9
  0
CIRCLE
  5
3A8
100
AcDbEntity
  8
_0-1_PRO0
  6
CONTINUOUS
 62
     0
100
AcDbCircle
 10
624.9133092366
 20
511.9432542209
 40
6
  0
LINE
  5
3A9
100
AcDbEntity
  8
_0-1_PRO0
  6
CONTINUOUS
 62
     0
100
AcDbLine
 10
598.2827583847
 20
463.734008215
 11
622.8611892366
 21
506.3050992209
  0
LINE
  5
3AA
100
AcDbEntity
  8
_2-0_
  6
CONTINUOUS
 62
     0
100
AcDbLine
 10
519.2074332497
 20
515.1941751592
 11
486.6176301312
 21
636.8209762061
  0
LINE
  5
3AB
100
AcDbEntity
  8
_2-0_
  6
CONTINUOUS
 62
     0
100
AcDbLine
 10
652.5051972776
 20
515.1941751592
 11
685.0950003961
 21
636.8209762061
  0
ARC
  5
3AC
100
AcDbEntity
  8
_2-0_
  6
CONTINUOUS
 62
     0
100
AcDbCircle
 10
585.8563152636
 20
533.0526892712
 40
69
100
AcDbArc
 50
-165
 51
-15
  0
LINE
  5
3AD
100
AcDbEntity
  8
_2-0_
  6
CONTINUOUS
 62
     0
100
AcDbLine
 10
329.9984518874
 20
635.7985349351
 11
328.9984518874
 21
636.7985349351
  0
LINE
  5
3AE
100
AcDbEntity
  8
_2-0_
  6
CONTINUOUS
 62
     0
100
AcDbLine
 10
328.584238325
 20
635.7985349351
 11
327.584238325
 21
636.7985349351
  0
LINE
  5
3AF
100
AcDbEntity
  8
_2-0_
  6
CONTINUOUS
 62
     0
100
AcDbLine
 10
327.1700247626
 20
635.7985349351
 11
326.1700247626
 21
636.7985349351
  0
LINE
  5
3B0
100
AcDbEntity
  8
_2-0_
  6
CONTINUOUS
 62
     0
100
AcDbLine
 10
325.7558112002
 20
635.7985349351
 11
324.7558112002
 21
636.7985349351
  0
LINE
  5
3B1
100
AcDbEntity
  8
_2-0_
  6
CONTINUOUS
 62
     0
100
AcDbLine
 10
324.3415976379
 20
635.7985349351
 11
323.3415976379
 21
636.7985349351
  0
LINE
  5
3B2
100
AcDbEntity
  8
_2-0_
  6
CONTINUOUS
 62
     0
100
AcDbLine
 10
322.9273840755
 20
635.7985349351
 11
321.9273840755
 21
636.7985349351
  0
LINE
  5
3B3
100
AcDbEntity
  8
_2-0_
  6
CONTINUOUS
 62
     0
100
AcDbLine
 10
321.5131705131
 20
635.7985349351
 11
320.5131705131
 21
636.7985349351
  0
LINE
  5
3B4
100
AcDbEntity
  8
_2-0_
  6
CONTINUOUS
 62
     0
100
AcDbLine
 10
320.0989569508
 20
635.7985349351
 11
319.0989569508
 21
636.7985349351
  0
LINE
  5
3B5
100
AcDbEntity
  8
_2-0_
  6
CONTINUOUS
 62
     0
100
AcDbLine
 10
318.6847433884
 20
635.7985349351
 11
317.6847433884
 21
636.7985349351
  0
LINE
  5
3B6
100
AcDbEntity
  8
_2-0_
  6
CONTINUOUS
 62
     0
100
AcDbLine
 10
317.270529826
 20
635.7985349351
 11
316.270529826
 21
636.7985349351
  0
LINE
  5
3B7
100
AcDbEntity
  8
_2-0_
  6
CONTINUOUS
 62
     0
100
AcDbLine
 10
315.8563162636
 20
635.7985349351
 11
314.8563162636
 21
636.7985349351
  0
LINE
  5
3B8
100
AcDbEntity
  8
_2-0_
  6
CONTINUOUS
 62
     0
100
AcDbLine
 10
314.4421027013
 20
635.7985349351
 11
313.4421027013
 21
636.7985349351
  0
LINE
  5
3B9
100
AcDbEntity
  8
_2-0_
  6
CONTINUOUS
 62
     0
100
AcDbLine
 10
313.0278891389
 20
635.7985349351
 11
312.0278891389
 21
636.7985349351
  0
LINE
  5
3BA
100
AcDbEntity
  8
_2-0_
  6
CONTINUOUS
 62
     0
100
AcDbLine
 10
311.6136755765
 20
635.7985349351
 11
310.6136755765
 21
636.7985349351
  0
LINE
  5
3BB
100
AcDbEntity
  8
_2-0_
  6
CONTINUOUS
 62
     0
100
AcDbLine
 10
310.1994620141
 20
635.7985349351
 11
309.1994620141
 21
636.7985349351
  0
LINE
  5
3BC
100
AcDbEntity
  8
_2-0_
  6
CONTINUOUS
 62
     0
100
AcDbLine
 10
308.7852484518
 20
635.7985349351
 11
307.7852484518
 21
636.7985349351
  0
LINE
  5
3BD
100
AcDbEntity
  8
_2-0_
  6
CONTINUOUS
 62
     0
100
AcDbLine
 10
307.3710348894
 20
635.7985349351
 11
306.3710348894
 21
636.7985349351
  0
LINE
  5
3BE
100
AcDbEntity
  8
_2-0_
  6
CONTINUOUS
 62
     0
100
AcDbLine
 10
305.956821327
 20
635.7985349351
 11
304.956821327
 21
636.7985349351
  0
LINE
  5
3BF
100
AcDbEntity
  8
_2-0_
  6
CONTINUOUS
 62
     0
100
AcDbLine
 10
304.5426077646
 20
635.7985349351
 11
303.5426077646
 21
636.7985349351
  0
LINE
  5
3C0
100
AcDbEntity
  8
_2-0_
  6
CONTINUOUS
 62
     0
100
AcDbLine
 10
303.1283942023
 20
635.7985349351
 11
302.1283942023
 21
636.7985349351
  0
LINE
  5
3C1
100
AcDbEntity
  8
_2-0_
  6
CONTINUOUS
 62
     0
100
AcDbLine
 10
301.7141806399
 20
635.7985349351
 11
300.838642978
 21
636.674072597
  0
LINE
  5
3C2
100
AcDbEntity
  8
_2-0_
  6
CONTINUOUS
 62
     0
100
AcDbLine
 10
300.838642978
 20
635.7985349351
 11
330.838642978
 21
635.7985349351
  0
LINE
  5
3C3
100
AcDbEntity
  8
_2-0_
  6
CONTINUOUS
 62
     0
100
AcDbLine
 10
330.838642978
 20
635.7985349351
 11
330.838642978
 21
636.7985349351
  0
LINE
  5
3C4
100
AcDbEntity
  8
_2-0_
  6
CONTINUOUS
 62
     0
100
AcDbLine
 10
330.838642978
 20
636.7985349351
 11
300.838642978
 21
636.7985349351
  0
LINE
  5
3C5
100
AcDbEntity
  8
_2-0_
  6
CONTINUOUS
 62
     0
100
AcDbLine
 10
300.838642978
 20
636.7985349351
 11
300.838642978
 21
635.7985349351
  0
ARC
  5
3C6
100
AcDbEntity
  8
_2-0_
  6
CONTINUOUS
 62
     0
100
AcDbCircle
 10
336.838642978
 20
646.0485349351
 40
10.25
100
AcDbArc
 50
-108.9246444161
 51
-90
  0
ARC
  5
3C7
100
AcDbEntity
  8
_2-0_
  6
CONTINUOUS
 62
     0
100
AcDbCircle
 10
294.838642978
 20
646.0485349351
 40
10.25
100
AcDbArc
 50
-90
 51
-71.07535558395
  0
LINE
  5
3C8
100
AcDbEntity
  8
_2-0_
  6
CONTINUOUS
 62
     0
100
AcDbLine
 10
870.838640978
 20
636.3725574068
 11
870.4126634497
 21
636.7985349351
  0
LINE
  5
3C9
100
AcDbEntity
  8
_2-0_
  6
CONTINUOUS
 62
     0
100
AcDbLine
 10
869.9984498874
 20
635.7985349351
 11
868.9984498874
 21
636.7985349351
  0
LINE
  5
3CA
100
AcDbEntity
  8
_2-0_
  6
CONTINUOUS
 62
     0
100
AcDbLine
 10
868.584236325
 20
635.7985349351
 11
867.584236325
 21
636.7985349351
  0
LINE
  5
3CB
100
AcDbEntity
  8
_2-0_
  6
CONTINUOUS
 62
     0
100
AcDbLine
 10
867.1700227626
 20
635.7985349351
 11
866.1700227626
 21
636.7985349351
  0
LINE
  5
3CC
100
AcDbEntity
  8
_2-0_
  6
CONTINUOUS
 62
     0
100
AcDbLine
 10
865.7558092002
 20
635.7985349351
 11
864.7558092002
 21
636.7985349351
  0
LINE
  5
3CD
100
AcDbEntity
  8
_2-0_
  6
CONTINUOUS
 62
     0
100
AcDbLine
 10
864.3415956379
 20
635.7985349351
 11
863.3415956379
 21
636.7985349351
  0
LINE
  5
3CE
100
AcDbEntity
  8
_2-0_
  6
CONTINUOUS
 62
     0
100
AcDbLine
 10
862.9273820755
 20
635.7985349351
 11
861.9273820755
 21
636.7985349351
  0
LINE
  5
3CF
100
AcDbEntity
  8
_2-0_
  6
CONTINUOUS
 62
     0
100
AcDbLine
 10
861.5131685131
 20
635.7985349351
 11
860.5131685131
 21
636.7985349351
  0
LINE
  5
3D0
100
AcDbEntity
  8
_2-0_
  6
CONTINUOUS
 62
     0
100
AcDbLine
 10
860.0989549508
 20
635.7985349351
 11
859.0989549508
 21
636.7985349351
  0
LINE
  5
3D1
100
AcDbEntity
  8
_2-0_
  6
CONTINUOUS
 62
     0
100
AcDbLine
 10
858.6847413884
 20
635.7985349351
 11
857.6847413884
 21
636.7985349351
  0
LINE
  5
3D2
100
AcDbEntity
  8
_2-0_
  6
CONTINUOUS
 62
     0
100
AcDbLine
 10
857.270527826
 20
635.7985349351
 11
856.270527826
 21
636.7985349351
  0
LINE
  5
3D3
100
AcDbEntity
  8
_2-0_
  6
CONTINUOUS
 62
     0
100
AcDbLine
 10
855.8563142636
 20
635.7985349351
 11
854.8563142636
 21
636.7985349351
  0
LINE
  5
3D4
100
AcDbEntity
  8
_2-0_
  6
CONTINUOUS
 62
     0
100
AcDbLine
 10
854.4421007013
 20
635.7985349351
 11
853.4421007013
 21
636.7985349351
  0
LINE
  5
3D5
100
AcDbEntity
  8
_2-0_
  6
CONTINUOUS
 62
     0
100
AcDbLine
 10
853.0278871389
 20
635.7985349351
 11
852.0278871389
 21
636.7985349351
  0
LINE
  5
3D6
100
AcDbEntity
  8
_2-0_
  6
CONTINUOUS
 62
     0
100
AcDbLine
 10
851.6136735765
 20
635.7985349351
 11
850.6136735765
 21
636.7985349351
  0
LINE
  5
3D7
100
AcDbEntity
  8
_2-0_
  6
CONTINUOUS
 62
     0
100
AcDbLine
 10
850.1994600141
 20
635.7985349351
 11
849.1994600141
 21
636.7985349351
  0
LINE
  5
3D8
100
AcDbEntity
  8
_2-0_
  6
CONTINUOUS
 62
     0
100
AcDbLine
 10
848.7852464518
 20
635.7985349351
 11
847.7852464518
 21
636.7985349351
  0
LINE
  5
3D9
100
AcDbEntity
  8
_2-0_
  6
CONTINUOUS
 62
     0
100
AcDbLine
 10
847.3710328894
 20
635.7985349351
 11
846.3710328894
 21
636.7985349351
  0
LINE
  5
3DA
100
AcDbEntity
  8
_2-0_
  6
CONTINUOUS
 62
     0
100
AcDbLine
 10
845.956819327
 20
635.7985349351
 11
844.956819327
 21
636.7985349351
  0
LINE
  5
3DB
100
AcDbEntity
  8
_2-0_
  6
CONTINUOUS
 62
     0
100
AcDbLine
 10
844.5426057646
 20
635.7985349351
 11
843.5426057646
 21
636.7985349351
  0
LINE
  5
3DC
100
AcDbEntity
  8
_2-0_
  6
CONTINUOUS
 62
     0
100
AcDbLine
 10
843.1283922023
 20
635.7985349351
 11
842.1283922023
 21
636.7985349351
  0
LINE
  5
3DD
100
AcDbEntity
  8
_2-0_
  6
CONTINUOUS
 62
     0
100
AcDbLine
 10
841.7141786399
 20
635.7985349351
 11
840.838640978
 21
636.674072597
  0
LINE
  5
3DE
100
AcDbEntity
  8
_2-0_
  6
CONTINUOUS
 62
     0
100
AcDbLine
 10
840.838640978
 20
635.7985349351
 11
870.838640978
 21
635.7985349351
  0
LINE
  5
3DF
100
AcDbEntity
  8
_2-0_
  6
CONTINUOUS
 62
     0
100
AcDbLine
 10
870.838640978
 20
635.7985349351
 11
870.838640978
 21
636.7985349351
  0
LINE
  5
3E0
100
AcDbEntity
  8
_2-0_
  6
CONTINUOUS
 62
     0
100
AcDbLine
 10
870.838640978
 20
636.7985349351
 11
840.838640978
 21
636.7985349351
  0
LINE
  5
3E1
100
AcDbEntity
  8
_2-0_
  6
CONTINUOUS
 62
     0
100
AcDbLine
 10
840.838640978
 20
636.7985349351
 11
840.838640978
 21
635.7985349351
  0
ARC
  5
3E2
100
AcDbEntity
  8
_2-0_
  6
CONTINUOUS
 62
     0
100
AcDbCircle
 10
870.838640978
 20
628.5485349351
 40
8.25
100
AcDbArc
 50
71.07535558395
 51
90
  0
ARC
  5
3E3
100
AcDbEntity
  8
_2-0_
  6
CONTINUOUS
 62
     0
100
AcDbCircle
 10
876.838640978
 20
646.0485349351
 40
10.25
100
AcDbArc
 50
-108.9246444161
 51
-90
  0
ARC
  5
3E4
100
AcDbEntity
  8
_2-0_
  6
CONTINUOUS
 62
     0
100
AcDbCircle
 10
840.838640978
 20
628.5485349351
 40
8.25
100
AcDbArc
 50
90
 51
108.9246444161
  0
ARC
  5
3E5
100
AcDbEntity
  8
_2-0_
  6
CONTINUOUS
 62
     0
100
AcDbCircle
 10
834.838640978
 20
646.0485349351
 40
10.25
100
AcDbArc
 50
-90
 51
-71.07535558395
  0
ARC
  5
3E6
100
AcDbEntity
  8
_2-0_
  6
CONTINUOUS
 62
     0
100
AcDbCircle
 10
840.838640978
 20
628.5485349351
 40
9.25
100
AcDbArc
 50
90
 51
108.9246444161
  0
LINE
  5
3E7
100
AcDbEntity
  8
_2-0_
  6
CONTINUOUS
 62
     0
100
AcDbLine
 10
870.838640978
 20
637.7985349351
 11
840.838640978
 21
637.7985349351
  0
ARC
  5
3E8
100
AcDbEntity
  8
_2-0_
  6
CONTINUOUS
 62
     0
100
AcDbCircle
 10
870.838640978
 20
628.5485349351
 40
9.25
100
AcDbArc
 50
71.07535558395
 51
90
  0
ARC
  5
3E9
100
AcDbEntity
  8
_2-0_
  6
CONTINUOUS
 62
     0
100
AcDbCircle
 10
876.838640978
 20
646.0485349351
 40
9.25
100
AcDbArc
 50
-108.9246444161
 51
-90
  0
ARC
  5
3EA
100
AcDbEntity
  8
_2-0_
  6
CONTINUOUS
 62
     0
100
AcDbCircle
 10
834.838640978
 20
646.0485349351
 40
9.25
100
AcDbArc
 50
-90
 51
-71.07535558395
  0
LINE
  5
3EB
100
AcDbEntity
  8
_0-1_PRO0
  6
CONTINUOUS
 62
     0
100
AcDbLine
 10
855.8563142636
 20
636.7897649351
 11
855.8386393757
 21
636.7897681657
  0
LINE
  5
3EC
100
AcDbEntity
  8
_0-1_PRO0
  6
CONTINUOUS
 62
     0
100
AcDbLine
 10
873.370205978
 20
640.5299269351
 11
903.368732978
 21
692.4889009351
  0
CIRCLE
  5
3ED
100
AcDbEntity
  8
_0-1_PRO0
  6
CONTINUOUS
 62
     0
100
AcDbCircle
 10
906.368732978
 20
697.6850509351
 40
6
  0
CIRCLE
  5
3EE
100
AcDbEntity
  8
_0-1_PRO0
  6
CONTINUOUS
 62
     0
100
AcDbCircle
 10
873.370205978
 20
640.5299269351
 40
0.9
  0
LINE
  5
3EF
100
AcDbEntity
  8
_0-1_PRO0
  6
CONTINUOUS
 62
     0
100
AcDbLine
 10
860.516966978
 20
643.5407899351
 11
872.128517978
 21
623.4289909351
  0
CIRCLE
  5
3F0
100
AcDbEntity
  8
_0-1_PRO0
  6
CONTINUOUS
 62
     0
100
AcDbCircle
 10
875.128517978
 20
618.2328379351
 40
6
  0
CIRCLE
  5
3F1
100
AcDbEntity
  8
_0-1_PRO0
  6
CONTINUOUS
 62
     0
100
AcDbCircle
 10
860.516966978
 20
643.5407899351
 40
0.9
  0
LINE
  5
3F2
100
AcDbEntity
  8
_0-1_PRO0
  6
CONTINUOUS
 62
     0
100
AcDbLine
 10
851.334434978
 20
641.0771839351
 11
838.688435978
 21
619.1736709351
  0
CIRCLE
  5
3F3
100
AcDbEntity
  8
_0-1_PRO0
  6
CONTINUOUS
 62
     0
100
AcDbCircle
 10
835.688435978
 20
613.9775209351
 40
6
  0
CIRCLE
  5
3F4
100
AcDbEntity
  8
_0-1_PRO0
  6
CONTINUOUS
 62
     0
100
AcDbCircle
 10
851.334434978
 20
641.0771839351
 40
0.9
  0
LINE
  5
3F5
100
AcDbEntity
  8
_1-0_
  6
CONTINUOUS
 62
     0
100
AcDbLine
 10
871.838639978
 20
640.3073059351
 11
839.638640978
 21
640.3073059351
  0
LINE
  5
3F6
100
AcDbEntity
  8
_1-0_
  6
CONTINUOUS
 62
     0
100
AcDbLine
 10
839.638640978
 20
642.3073039351
 11
841.588640978
 21
642.3073039351
  0
ARC
  5
3F7
100
AcDbEntity
  8
_1-0_
  6
CONTINUOUS
 62
     0
100
AcDbCircle
 10
839.638640978
 20
642.0073039351
 40
0.3
100
AcDbArc
 50
90
 51
180
  0
LINE
  5
3F8
100
AcDbEntity
  8
_1-0_
  6
CONTINUOUS
 62
     0
100
AcDbLine
 10
839.338640978
 20
640.6073059351
 11
839.338640978
 21
642.0073039351
  0
ARC
  5
3F9
100
AcDbEntity
  8
_1-0_
  6
CONTINUOUS
 62
     0
100
AcDbCircle
 10
839.638640978
 20
640.6073059351
 40
0.3
100
AcDbArc
 50
180
 51
270
  0
ARC
  5
3FA
100
AcDbEntity
  8
_1-0_
  6
CONTINUOUS
 62
     0
100
AcDbCircle
 10
841.588640978
 20
643.0573039351
 40
0.75
100
AcDbArc
 50
-90
 51
90
  0
LINE
  5
3FB
100
AcDbEntity
  8
_1-0_
  6
CONTINUOUS
 62
     0
100
AcDbLine
 10
839.338640978
 20
638.3073049351
 11
839.338640978
 21
637.8073039351
  0
ARC
  5
3FC
100
AcDbEntity
  8
_1-0_
  6
CONTINUOUS
 62
     0
100
AcDbCircle
 10
842.588639978
 20
647.0573059351
 40
0.75
100
AcDbArc
 50
-90
 51
90
  0
ARC
  5
3FD
100
AcDbEntity
  8
_1-0_
  6
CONTINUOUS
 62
     0
100
AcDbCircle
 10
838.338641978
 20
647.3073049351
 40
0.500001
100
AcDbArc
 50
90
 51
180
  0
LINE
  5
3FE
100
AcDbEntity
  8
_1-0_
  6
CONTINUOUS
 62
     0
100
AcDbLine
 10
838.338641978
 20
647.8073059351
 11
842.588639978
 21
647.8073059351
  0
ARC
  5
3FF
100
AcDbEntity
  8
_1-0_
  6
CONTINUOUS
 62
     0
100
AcDbCircle
 10
839.638640978
 20
646.0073059351
 40
0.3
100
AcDbArc
 50
90
 51
180
  0
LINE
  5
400
100
AcDbEntity
  8
_1-0_
  6
CONTINUOUS
 62
     0
100
AcDbLine
 10
839.338640978
 20
644.1073039351
 11
839.338640978
 21
646.0073059351
  0
ARC
  5
401
100
AcDbEntity
  8
_1-0_
  6
CONTINUOUS
 62
     0
100
AcDbCircle
 10
839.638640978
 20
644.1073039351
 40
0.3
100
AcDbArc
 50
180
 51
270
  0
LINE
  5
402
100
AcDbEntity
  8
_1-0_
  6
CONTINUOUS
 62
     0
100
AcDbLine
 10
839.638640978
 20
643.8073039351
 11
841.588640978
 21
643.8073039351
  0
LINE
  5
403
100
AcDbEntity
  8
_1-0_
  6
CONTINUOUS
 62
     0
100
AcDbLine
 10
839.338640978
 20
638.3073049351
 11
850.838639978
 21
638.3073049351
  0
LINE
  5
404
100
AcDbEntity
  8
_1-0_
  6
CONTINUOUS
 62
     0
100
AcDbLine
 10
872.038640978
 20
642.3073039351
 11
870.088640978
 21
642.3073039351
  0
ARC
  5
405
100
AcDbEntity
  8
_1-0_
  6
CONTINUOUS
 62
     0
100
AcDbCircle
 10
870.088640978
 20
643.0573039351
 40
0.75
100
AcDbArc
 50
90
 51
270
  0
LINE
  5
406
100
AcDbEntity
  8
_1-0_
  6
CONTINUOUS
 62
     0
100
AcDbLine
 10
860.838641978
 20
638.3073049351
 11
860.838641978
 21
637.8073039351
  0
LINE
  5
407
100
AcDbEntity
  8
_1-0_
  6
CONTINUOUS
 62
     0
100
AcDbLine
 10
860.838641978
 20
638.3073049351
 11
872.338640978
 21
638.3073049351
  0
ARC
  5
408
100
AcDbEntity
  8
_1-0_
  6
CONTINUOUS
 62
     0
100
AcDbCircle
 10
869.088641978
 20
647.0573059351
 40
0.75
100
AcDbArc
 50
90
 51
270
  0
LINE
  5
409
100
AcDbEntity
  8
_1-0_
  6
CONTINUOUS
 62
     0
100
AcDbLine
 10
871.838639978
 20
647.8073059351
 11
869.088641978
 21
647.8073059351
  0
LINE
  5
40A
100
AcDbEntity
  8
_1-0_
  6
CONTINUOUS
 62
     0
100
AcDbLine
 10
850.838639978
 20
638.3073049351
 11
850.838639978
 21
637.8073039351
  0
LINE
  5
40B
100
AcDbEntity
  8
_1-0_
  6
CONTINUOUS
 62
     0
100
AcDbLine
 10
856.338641978
 20
640.3073059351
 11
855.838640978
 21
639.8073049351
  0
LINE
  5
40C
100
AcDbEntity
  8
_1-0_
  6
CONTINUOUS
 62
     0
100
AcDbLine
 10
855.338639978
 20
640.3073059351
 11
855.838640978
 21
639.8073049351
  0
LINE
  5
40D
100
AcDbEntity
  8
_1-0_
  6
CONTINUOUS
 62
     0
100
AcDbLine
 10
872.038640978
 20
643.8073039351
 11
870.088640978
 21
643.8073039351
  0
LINE
  5
40E
100
AcDbEntity
  8
_1-0_
  6
CONTINUOUS
 62
     0
100
AcDbLine
 10
867.838640978
 20
644.7073039351
 11
872.338640978
 21
644.7073039351
  0
ARC
  5
40F
100
AcDbEntity
  8
_1-0_
  6
CONTINUOUS
 62
     0
100
AcDbCircle
 10
867.838640978
 20
647.3073049351
 40
2.600001
100
AcDbArc
 50
180
 51
270
  0
LINE
  5
410
100
AcDbEntity
  8
_1-0_
  6
CONTINUOUS
 62
     0
100
AcDbLine
 10
865.238639978
 20
647.3073049351
 11
865.238639978
 21
652.6870249351
  0
LINE
  5
411
100
AcDbEntity
  8
_1-0_
  6
CONTINUOUS
 62
     0
100
AcDbLine
 10
864.374714978
 20
655.2834619351
 11
847.574714978
 21
656.1639139351
  0
ARC
  5
412
100
AcDbEntity
  8
_1-0_
  6
CONTINUOUS
 62
     0
100
AcDbCircle
 10
864.238640978
 20
652.6870249351
 40
2.600001
100
AcDbArc
 50
0
 51
87
  0
LINE
  5
413
100
AcDbEntity
  8
_1-0_
  6
CONTINUOUS
 62
     0
100
AcDbLine
 10
866.838641978
 20
652.6870249351
 11
866.838641978
 21
647.3073049351
  0
ARC
  5
414
100
AcDbEntity
  8
_1-0_
  6
CONTINUOUS
 62
     0
100
AcDbCircle
 10
847.438640978
 20
653.5674769351
 40
2.600001
100
AcDbArc
 50
87
 51
180
  0
LINE
  5
415
100
AcDbEntity
  8
_1-0_
  6
CONTINUOUS
 62
     0
100
AcDbLine
 10
844.838639978
 20
653.5674769351
 11
844.838639978
 21
647.3073049351
  0
LINE
  5
416
100
AcDbEntity
  8
_1-0_
  6
CONTINUOUS
 62
     0
100
AcDbLine
 10
843.838640978
 20
644.7073039351
 11
839.338640978
 21
644.7073039351
  0
ARC
  5
417
100
AcDbEntity
  8
_1-0_
  6
CONTINUOUS
 62
     0
100
AcDbCircle
 10
843.838640978
 20
647.3073049351
 40
2.600001
100
AcDbArc
 50
-90
 51
0
  0
LINE
  5
418
100
AcDbEntity
  8
_1-0_
  6
CONTINUOUS
 62
     0
100
AcDbLine
 10
846.438641978
 20
647.3073049351
 11
846.438641978
 21
653.5674769351
  0
ARC
  5
419
100
AcDbEntity
  8
_1-0_
  6
CONTINUOUS
 62
     0
100
AcDbCircle
 10
867.838640978
 20
647.3073049351
 40
0.999999
100
AcDbArc
 50
180
 51
270
  0
LINE
  5
41A
100
AcDbEntity
  8
_1-0_
  6
CONTINUOUS
 62
     0
100
AcDbLine
 10
867.838640978
 20
646.3073059351
 11
872.038640978
 21
646.3073059351
  0
ARC
  5
41B
100
AcDbEntity
  8
_1-0_
  6
CONTINUOUS
 62
     0
100
AcDbCircle
 10
864.238640978
 20
652.6870249351
 40
0.999999
100
AcDbArc
 50
0
 51
86.99999999999
  0
LINE
  5
41C
100
AcDbEntity
  8
_1-0_
  6
CONTINUOUS
 62
     0
100
AcDbLine
 10
864.290975978
 20
653.6856559351
 11
847.490975978
 21
654.5661049351
  0
ARC
  5
41D
100
AcDbEntity
  8
_1-0_
  6
CONTINUOUS
 62
     0
100
AcDbCircle
 10
847.438640978
 20
653.5674769351
 40
0.999999
100
AcDbArc
 50
86.99999999999
 51
180
  0
LINE
  5
41E
100
AcDbEntity
  8
_1-0_
  6
CONTINUOUS
 62
     0
100
AcDbLine
 10
843.838640978
 20
646.3073059351
 11
839.638640978
 21
646.3073059351
  0
ARC
  5
41F
100
AcDbEntity
  8
_1-0_
  6
CONTINUOUS
 62
     0
100
AcDbCircle
 10
843.838640978
 20
647.3073049351
 40
0.999999
100
AcDbArc
 50
-90
 51
0
  0
ARC
  5
420
100
AcDbEntity
  8
_1-0_
  6
CONTINUOUS
 62
     0
100
AcDbCircle
 10
861.294893978
 20
652.8412999351
 40
0.999999
100
AcDbArc
 50
86.99999999999
 51
177
  0
ARC
  5
421
100
AcDbEntity
  8
_1-0_
  6
CONTINUOUS
 62
     0
100
AcDbCircle
 10
850.110242978
 20
653.4274639351
 40
0.999999
100
AcDbArc
 50
-2.999999999999
 51
86.99999999999
  0
LINE
  5
422
100
AcDbEntity
  8
_1-0_
  6
CONTINUOUS
 62
     0
100
AcDbLine
 10
860.296262978
 20
652.8936379351
 11
860.243927978
 21
651.8950069351
  0
LINE
  5
423
100
AcDbEntity
  8
_1-0_
  6
CONTINUOUS
 62
     0
100
AcDbLine
 10
851.108870978
 20
653.3751289351
 11
851.056535978
 21
652.3764979351
  0
ARC
  5
424
100
AcDbEntity
  8
_1-0_
  6
CONTINUOUS
 62
     0
100
AcDbCircle
 10
860.788640978
 20
642.8979109351
 40
3.809394
100
AcDbArc
 50
90
 51
120.789964
  0
LINE
  5
425
100
AcDbEntity
  8
_1-0_
  6
CONTINUOUS
 62
     0
100
AcDbLine
 10
850.888640978
 20
646.7073049351
 11
860.788640978
 21
646.7073049351
  0
LINE
  5
426
100
AcDbEntity
  8
_1-0_
  6
CONTINUOUS
 62
     0
100
AcDbLine
 10
860.788640978
 20
646.7073049351
 11
861.718640978
 21
646.1703679351
  0
LINE
  5
427
100
AcDbEntity
  8
_1-0_
  6
CONTINUOUS
 62
     0
100
AcDbLine
 10
861.718640978
 20
646.1703679351
 11
861.718640978
 21
641.9073049351
  0
LINE
  5
428
100
AcDbEntity
  8
_1-0_
  6
CONTINUOUS
 62
     0
100
AcDbLine
 10
858.838640978
 20
646.1703679351
 11
858.838640978
 21
641.9073049351
  0
LINE
  5
429
100
AcDbEntity
  8
_1-0_
  6
CONTINUOUS
 62
     0
100
AcDbLine
 10
852.838640978
 20
646.1703679351
 11
852.838640978
 21
641.9073049351
  0
ARC
  5
42A
100
AcDbEntity
  8
_1-0_
  6
CONTINUOUS
 62
     0
100
AcDbCircle
 10
855.838640978
 20
638.0579449351
 40
8.64936
100
AcDbArc
 50
69.705445
 51
110.294555
  0
ARC
  5
42B
100
AcDbEntity
  8
_1-0_
  6
CONTINUOUS
 62
     0
100
AcDbCircle
 10
850.888640978
 20
642.8979109351
 40
3.809394
100
AcDbArc
 50
59.210036
 51
90
  0
LINE
  5
42C
100
AcDbEntity
  8
_1-0_
  6
CONTINUOUS
 62
     0
100
AcDbLine
 10
850.888640978
 20
646.7073049351
 11
849.958640978
 21
646.1703679351
  0
LINE
  5
42D
100
AcDbEntity
  8
_1-0_
  6
CONTINUOUS
 62
     0
100
AcDbLine
 10
849.958640978
 20
646.1703679351
 11
849.958640978
 21
641.9073049351
  0
LINE
  5
42E
100
AcDbEntity
  8
_1-0_
  6
CONTINUOUS
 62
     0
100
AcDbLine
 10
846.838640978
 20
641.9073049351
 11
846.838640978
 21
640.3073059351
  0
LINE
  5
42F
100
AcDbEntity
  8
_1-0_
  6
CONTINUOUS
 62
     0
100
AcDbLine
 10
864.838640978
 20
641.9073049351
 11
846.838640978
 21
641.9073049351
  0
LINE
  5
430
100
AcDbEntity
  8
_1-0_
  6
CONTINUOUS
 62
     0
100
AcDbLine
 10
864.838640978
 20
641.9073049351
 11
864.838640978
 21
640.3073059351
  0
CIRCLE
  5
431
100
AcDbEntity
  8
_0-1_PRO0
  6
CONTINUOUS
 62
     0
100
AcDbCircle
 10
845.2443817248
 20
646.3123114288
 40
0.9
  0
CIRCLE
  5
432
100
AcDbEntity
  8
_0-1_PRO0
  6
CONTINUOUS
 62
     0
100
AcDbCircle
 10
823.9898407248
 20
704.7086794288
 40
6
  0
LINE
  5
433
100
AcDbEntity
  8
_0-1_PRO0
  6
CONTINUOUS
 62
     0
100
AcDbLine
 10
845.2443817248
 20
646.3123114288
 11
826.0419607248
 21
699.0705244288
  0
TEXT
  5
434
100
AcDbEntity
  8
_0-1_PRO0
  6
CONTINUOUS
 62
     0
100
AcDbText
 10
902.0478936981
 20
693.1264634111
 40
9
  1
２
  7
STANDARD
100
AcDbText
  0
LINE
  5
435
100
AcDbEntity
  8
_0-1_PRO0
  6
CONTINUOUS
 62
     0
100
AcDbLine
 10
834.8386400772
 20
636.7936064863
 11
685.0950003961
 21
636.8209762061
  0
LINE
  5
436
100
AcDbEntity
  8
_1-0_
  6
CONTINUOUS
 62
     0
100
AcDbLine
 10
837.838640978
 20
647.3073049351
 11
837.838640978
 21
637.8073039351
  0
LINE
  5
437
100
AcDbEntity
  8
_2-0_
  6
CONTINUOUS
 62
     0
100
AcDbLine
 10
837.838640978
 20
637.8073039351
 11
839.338640978
 21
637.8073039351
  0
LINE
  5
438
100
AcDbEntity
  8
_1-0_
  6
CONTINUOUS
 62
     0
100
AcDbLine
 10
853.614582504
 20
659.7155852258
 11
853.4124151198
 21
655.8579725801
  0
LINE
  5
439
100
AcDbEntity
  8
_1-0_
  6
CONTINUOUS
 62
     0
100
AcDbLine
 10
853.115268504
 20
659.7417512258
 11
852.9130987253
 21
655.8841406823
  0
LINE
  5
43A
100
AcDbEntity
  8
_1-0_
  6
CONTINUOUS
 62
     0
100
AcDbLine
 10
858.607731504
 20
659.4539042258
 11
858.4055616617
 21
655.5962924694
  0
LINE
  5
43B
100
AcDbEntity
  8
_1-0_
  6
CONTINUOUS
 62
     0
100
AcDbLine
 10
859.107045504
 20
659.4277352258
 11
858.9048780886
 21
655.5701243654
  0
LINE
  5
43C
100
AcDbEntity
  8
_1-0_
  6
CONTINUOUS
 62
     0
100
AcDbLine
 10
858.4055612601
 20
655.5962924905
 11
858.2171523281
 21
652.0012257875
  0
LINE
  5
43D
100
AcDbEntity
  8
_1-0_
  6
CONTINUOUS
 62
     0
100
AcDbLine
 10
858.9048791856
 20
655.5701243079
 11
858.7164671065
 21
651.9750577986
  0
LINE
  5
43E
100
AcDbEntity
  8
_1-0_
  6
CONTINUOUS
 62
     0
100
AcDbLine
 10
853.4124154128
 20
655.8579725647
 11
853.224006309
 21
652.2629055841
  0
LINE
  5
43F
100
AcDbEntity
  8
_1-0_
  6
CONTINUOUS
 62
     0
100
AcDbLine
 10
852.9130983675
 20
655.8841407011
 11
852.7246892622
 21
652.2890736919
  0
LINE
  5
440
100
AcDbEntity
  8
_1-0_
  6
CONTINUOUS
 62
     0
100
AcDbLine
 10
853.224014372
 20
652.2629051615
 11
853.1593807589
 21
651.0298091875
  0
LINE
  5
441
100
AcDbEntity
  8
_1-0_
  6
CONTINUOUS
 62
     0
100
AcDbLine
 10
858.2171472472
 20
652.0012260538
 11
858.1525297589
 21
650.7681281875
  0
LINE
  5
442
100
AcDbEntity
  8
_2-0_
  6
CONTINUOUS
 62
     0
100
AcDbLine
 10
852.7246892622
 20
652.2890736919
 11
852.6862357589
 21
651.5552921875
  0
LINE
  5
443
100
AcDbEntity
  8
_2-0_
  6
CONTINUOUS
 62
     0
100
AcDbLine
 10
858.7164671065
 20
651.9750577986
 11
858.6780127589
 21
651.2412761875
  0
LINE
  5
444
100
AcDbEntity
  8
_1-0_
  6
CONTINUOUS
 62
     0
100
AcDbLine
 10
306.838642978
 20
641.9073049351
 11
306.838642978
 21
640.3073059351
  0
LINE
  5
445
100
AcDbEntity
  8
_1-0_
  6
CONTINUOUS
 62
     0
100
AcDbLine
 10
306.838642978
 20
641.9073049351
 11
324.838642978
 21
641.9073049351
  0
LINE
  5
446
100
AcDbEntity
  8
_1-0_
  6
CONTINUOUS
 62
     0
100
AcDbLine
 10
324.838642978
 20
641.9073049351
 11
324.838642978
 21
640.3073059351
  0
LINE
  5
447
100
AcDbEntity
  8
_1-0_
  6
CONTINUOUS
 62
     0
100
AcDbLine
 10
321.718642978
 20
646.1703679351
 11
321.718642978
 21
641.9073049351
  0
LINE
  5
448
100
AcDbEntity
  8
_1-0_
  6
CONTINUOUS
 62
     0
100
AcDbLine
 10
320.788642978
 20
646.7073049351
 11
321.718642978
 21
646.1703679351
  0
ARC
  5
449
100
AcDbEntity
  8
_1-0_
  6
CONTINUOUS
 62
     0
100
AcDbCircle
 10
320.788642978
 20
642.8979109351
 40
3.809394
100
AcDbArc
 50
90
 51
120.789964
  0
ARC
  5
44A
100
AcDbEntity
  8
_1-0_
  6
CONTINUOUS
 62
     0
100
AcDbCircle
 10
315.838642978
 20
638.0579449351
 40
8.64936
100
AcDbArc
 50
69.705445
 51
110.294555
  0
LINE
  5
44B
100
AcDbEntity
  8
_1-0_
  6
CONTINUOUS
 62
     0
100
AcDbLine
 10
318.838642978
 20
646.1703679351
 11
318.838642978
 21
641.9073049351
  0
LINE
  5
44C
100
AcDbEntity
  8
_1-0_
  6
CONTINUOUS
 62
     0
100
AcDbLine
 10
312.838642978
 20
646.1703679351
 11
312.838642978
 21
641.9073049351
  0
LINE
  5
44D
100
AcDbEntity
  8
_1-0_
  6
CONTINUOUS
 62
     0
100
AcDbLine
 10
309.958642978
 20
646.1703679351
 11
309.958642978
 21
641.9073049351
  0
LINE
  5
44E
100
AcDbEntity
  8
_1-0_
  6
CONTINUOUS
 62
     0
100
AcDbLine
 10
310.888642978
 20
646.7073049351
 11
309.958642978
 21
646.1703679351
  0
LINE
  5
44F
100
AcDbEntity
  8
_1-0_
  6
CONTINUOUS
 62
     0
100
AcDbLine
 10
320.788642978
 20
646.7073049351
 11
310.888642978
 21
646.7073049351
  0
ARC
  5
450
100
AcDbEntity
  8
_1-0_
  6
CONTINUOUS
 62
     0
100
AcDbCircle
 10
310.888642978
 20
642.8979109351
 40
3.809394
100
AcDbArc
 50
59.210036
 51
90
  0
LINE
  5
451
100
AcDbEntity
  8
_1-0_
  6
CONTINUOUS
 62
     0
100
AcDbLine
 10
320.568412978
 20
653.3751289351
 11
320.620747978
 21
652.3764979351
  0
LINE
  5
452
100
AcDbEntity
  8
_1-0_
  6
CONTINUOUS
 62
     0
100
AcDbLine
 10
311.381020978
 20
652.8936379351
 11
311.433355978
 21
651.8950069351
  0
ARC
  5
453
100
AcDbEntity
  8
_1-0_
  6
CONTINUOUS
 62
     0
100
AcDbCircle
 10
321.567040978
 20
653.4274639351
 40
0.999999
100
AcDbArc
 50
93
 51
183
  0
ARC
  5
454
100
AcDbEntity
  8
_1-0_
  6
CONTINUOUS
 62
     0
100
AcDbCircle
 10
310.382389978
 20
652.8412999351
 40
0.999999
100
AcDbArc
 50
2.999999999999
 51
93
  0
ARC
  5
455
100
AcDbEntity
  8
_1-0_
  6
CONTINUOUS
 62
     0
100
AcDbCircle
 10
327.838642978
 20
647.3073049351
 40
0.999999
100
AcDbArc
 50
180
 51
270
  0
LINE
  5
456
100
AcDbEntity
  8
_1-0_
  6
CONTINUOUS
 62
     0
100
AcDbLine
 10
327.838642978
 20
646.3073059351
 11
332.038642978
 21
646.3073059351
  0
ARC
  5
457
100
AcDbEntity
  8
_1-0_
  6
CONTINUOUS
 62
     0
100
AcDbCircle
 10
324.238642978
 20
653.5674769351
 40
0.999999
100
AcDbArc
 50
0
 51
93
  0
LINE
  5
458
100
AcDbEntity
  8
_1-0_
  6
CONTINUOUS
 62
     0
100
AcDbLine
 10
307.386307978
 20
653.6856559351
 11
324.186307978
 21
654.5661049351
  0
ARC
  5
459
100
AcDbEntity
  8
_1-0_
  6
CONTINUOUS
 62
     0
100
AcDbCircle
 10
307.438642978
 20
652.6870249351
 40
0.999999
100
AcDbArc
 50
93
 51
180
  0
LINE
  5
45A
100
AcDbEntity
  8
_1-0_
  6
CONTINUOUS
 62
     0
100
AcDbLine
 10
325.238641978
 20
647.3073049351
 11
325.238641978
 21
653.5674769351
  0
ARC
  5
45B
100
AcDbEntity
  8
_1-0_
  6
CONTINUOUS
 62
     0
100
AcDbCircle
 10
327.838642978
 20
647.3073049351
 40
2.600001
100
AcDbArc
 50
180
 51
270
  0
LINE
  5
45C
100
AcDbEntity
  8
_1-0_
  6
CONTINUOUS
 62
     0
100
AcDbLine
 10
327.838642978
 20
644.7073039351
 11
332.338642978
 21
644.7073039351
  0
LINE
  5
45D
100
AcDbEntity
  8
_1-0_
  6
CONTINUOUS
 62
     0
100
AcDbLine
 10
326.838643978
 20
653.5674769351
 11
326.838643978
 21
647.3073049351
  0
ARC
  5
45E
100
AcDbEntity
  8
_1-0_
  6
CONTINUOUS
 62
     0
100
AcDbCircle
 10
324.238642978
 20
653.5674769351
 40
2.600001
100
AcDbArc
 50
0
 51
93
  0
ARC
  5
45F
100
AcDbEntity
  8
_1-0_
  6
CONTINUOUS
 62
     0
100
AcDbCircle
 10
307.438642978
 20
652.6870249351
 40
2.600001
100
AcDbArc
 50
93
 51
180
  0
LINE
  5
460
100
AcDbEntity
  8
_1-0_
  6
CONTINUOUS
 62
     0
100
AcDbLine
 10
307.302568978
 20
655.2834619351
 11
324.102568978
 21
656.1639139351
  0
LINE
  5
461
100
AcDbEntity
  8
_1-0_
  6
CONTINUOUS
 62
     0
100
AcDbLine
 10
306.438643978
 20
647.3073049351
 11
306.438643978
 21
652.6870249351
  0
ARC
  5
462
100
AcDbEntity
  8
_1-0_
  6
CONTINUOUS
 62
     0
100
AcDbCircle
 10
303.838642978
 20
647.3073049351
 40
2.600001
100
AcDbArc
 50
-90
 51
0
  0
LINE
  5
463
100
AcDbEntity
  8
_1-0_
  6
CONTINUOUS
 62
     0
100
AcDbLine
 10
316.338643978
 20
640.3073059351
 11
315.838642978
 21
639.8073049351
  0
LINE
  5
464
100
AcDbEntity
  8
_1-0_
  6
CONTINUOUS
 62
     0
100
AcDbLine
 10
315.338641978
 20
640.3073059351
 11
315.838642978
 21
639.8073049351
  0
LINE
  5
465
100
AcDbEntity
  8
_1-0_
  6
CONTINUOUS
 62
     0
100
AcDbLine
 10
320.838643978
 20
638.3073049351
 11
320.838643978
 21
637.8073039351
  0
LINE
  5
466
100
AcDbEntity
  8
_1-0_
  6
CONTINUOUS
 62
     0
100
AcDbLine
 10
310.838641978
 20
638.3073049351
 11
299.338642978
 21
638.3073049351
  0
LINE
  5
467
100
AcDbEntity
  8
_1-0_
  6
CONTINUOUS
 62
     0
100
AcDbLine
 10
310.838641978
 20
638.3073049351
 11
310.838641978
 21
637.8073039351
  0
LINE
  5
468
100
AcDbEntity
  8
_1-0_
  6
CONTINUOUS
 62
     0
100
AcDbLine
 10
332.338642978
 20
638.3073049351
 11
320.838643978
 21
638.3073049351
  0
LINE
  5
469
100
AcDbEntity
  8
_1-0_
  6
CONTINUOUS
 62
     0
100
AcDbLine
 10
332.038642978
 20
643.8073039351
 11
330.088642978
 21
643.8073039351
  0
ARC
  5
46A
100
AcDbEntity
  8
_1-0_
  6
CONTINUOUS
 62
     0
100
AcDbCircle
 10
332.038642978
 20
644.1073039351
 40
0.3
100
AcDbArc
 50
-90
 51
0
  0
LINE
  5
46B
100
AcDbEntity
  8
_1-0_
  6
CONTINUOUS
 62
     0
100
AcDbLine
 10
332.338642978
 20
644.1073039351
 11
332.338642978
 21
646.0073059351
  0
ARC
  5
46C
100
AcDbEntity
  8
_1-0_
  6
CONTINUOUS
 62
     0
100
AcDbCircle
 10
332.038642978
 20
646.0073059351
 40
0.3
100
AcDbArc
 50
0
 51
90
  0
LINE
  5
46D
100
AcDbEntity
  8
_1-0_
  6
CONTINUOUS
 62
     0
100
AcDbLine
 10
333.338641978
 20
647.8073059351
 11
329.088643978
 21
647.8073059351
  0
ARC
  5
46E
100
AcDbEntity
  8
_1-0_
  6
CONTINUOUS
 62
     0
100
AcDbCircle
 10
333.338641978
 20
647.3073049351
 40
0.500001
100
AcDbArc
 50
0
 51
90
  0
ARC
  5
46F
100
AcDbEntity
  8
_1-0_
  6
CONTINUOUS
 62
     0
100
AcDbCircle
 10
329.088643978
 20
647.0573059351
 40
0.75
100
AcDbArc
 50
90
 51
270
  0
LINE
  5
470
100
AcDbEntity
  8
_1-0_
  6
CONTINUOUS
 62
     0
100
AcDbLine
 10
333.838642978
 20
647.3073049351
 11
333.838642978
 21
637.8073039351
  0
LINE
  5
471
100
AcDbEntity
  8
_1-0_
  6
CONTINUOUS
 62
     0
100
AcDbLine
 10
332.338642978
 20
638.3073049351
 11
332.338642978
 21
637.8073039351
  0
ARC
  5
472
100
AcDbEntity
  8
_1-0_
  6
CONTINUOUS
 62
     0
100
AcDbCircle
 10
330.088642978
 20
643.0573039351
 40
0.75
100
AcDbArc
 50
90
 51
270
  0
ARC
  5
473
100
AcDbEntity
  8
_1-0_
  6
CONTINUOUS
 62
     0
100
AcDbCircle
 10
332.038642978
 20
640.6073059351
 40
0.3
100
AcDbArc
 50
-90
 51
0
  0
LINE
  5
474
100
AcDbEntity
  8
_1-0_
  6
CONTINUOUS
 62
     0
100
AcDbLine
 10
332.338642978
 20
640.6073059351
 11
332.338642978
 21
642.0073039351
  0
ARC
  5
475
100
AcDbEntity
  8
_1-0_
  6
CONTINUOUS
 62
     0
100
AcDbCircle
 10
332.038642978
 20
642.0073039351
 40
0.3
100
AcDbArc
 50
0
 51
90
  0
LINE
  5
476
100
AcDbEntity
  8
_1-0_
  6
CONTINUOUS
 62
     0
100
AcDbLine
 10
332.038642978
 20
642.3073039351
 11
330.088642978
 21
642.3073039351
  0
LINE
  5
477
100
AcDbEntity
  8
_1-0_
  6
CONTINUOUS
 62
     0
100
AcDbLine
 10
299.838643978
 20
640.3073059351
 11
332.038642978
 21
640.3073059351
  0
LINE
  5
478
100
AcDbEntity
  8
_0-1_PRO0
  6
CONTINUOUS
 62
     0
100
AcDbLine
 10
336.83864388
 20
636.7936000258
 11
486.6176301312
 21
636.8209762061
  0
LINE
  5
479
100
AcDbEntity
  8
_2-0_
  6
CONTINUOUS
 62
     0
100
AcDbLine
 10
330.838642978
 20
637.7985349351
 11
300.838642978
 21
637.7985349351
  0
LINE
  5
47A
100
AcDbEntity
  8
_2-0_
  6
CONTINUOUS
 62
     0
100
AcDbLine
 10
332.338642978
 20
637.8073039351
 11
333.838642978
 21
637.8073039351
  0
LINE
  5
47B
100
AcDbEntity
  8
_1-0_
  6
CONTINUOUS
 62
     0
100
AcDbLine
 10
313.1053762144
 20
659.4448062291
 11
313.3069721281
 21
655.5981398377
  0
LINE
  5
47C
100
AcDbEntity
  8
_1-0_
  6
CONTINUOUS
 62
     0
100
AcDbLine
 10
312.6060622144
 20
659.4186372291
 11
312.8076557035
 21
655.5719717338
  0
LINE
  5
47D
100
AcDbEntity
  8
_1-0_
  6
CONTINUOUS
 62
     0
100
AcDbLine
 10
318.0985252144
 20
659.7064872291
 11
318.3001186724
 21
655.8598199484
  0
LINE
  5
47E
100
AcDbEntity
  8
_1-0_
  6
CONTINUOUS
 62
     0
100
AcDbLine
 10
318.5978392144
 20
659.7326532291
 11
318.7994350645
 21
655.8859880506
  0
LINE
  5
47F
100
AcDbEntity
  8
_1-0_
  6
CONTINUOUS
 62
     0
100
AcDbLine
 10
318.4885193245
 20
652.2647525229
 11
318.5532497598
 21
651.02980935
  0
LINE
  5
480
100
AcDbEntity
  8
_1-0_
  6
CONTINUOUS
 62
     0
100
AcDbLine
 10
313.4953864735
 20
652.0030734164
 11
313.5601007598
 21
650.76812835
  0
LINE
  5
481
100
AcDbEntity
  8
_1-0_
  6
CONTINUOUS
 62
     0
100
AcDbLine
 10
313.3069724512
 20
655.5981398546
 11
313.4953813833
 21
652.0030731496
  0
LINE
  5
482
100
AcDbEntity
  8
_1-0_
  6
CONTINUOUS
 62
     0
100
AcDbLine
 10
312.807654524
 20
655.571971672
 11
312.9960666032
 21
651.9769051606
  0
LINE
  5
483
100
AcDbEntity
  8
_1-0_
  6
CONTINUOUS
 62
     0
100
AcDbLine
 10
318.3001182984
 20
655.8598199288
 11
318.4885274023
 21
652.2647529462
  0
LINE
  5
484
100
AcDbEntity
  8
_1-0_
  6
CONTINUOUS
 62
     0
100
AcDbLine
 10
318.7994353437
 20
655.8859880652
 11
318.9878444491
 21
652.290921054
  0
LINE
  5
485
100
AcDbEntity
  8
_1-0_
  6
CONTINUOUS
 62
     0
100
AcDbLine
 10
319.0263947598
 20
651.55529235
 11
318.9878360112
 21
652.2909206118
  0
LINE
  5
486
100
AcDbEntity
  8
_2-0_
  6
CONTINUOUS
 62
     0
100
AcDbLine
 10
312.9960666032
 20
651.9769051606
 11
313.0346177598
 21
651.24127635
  0
LINE
  5
487
100
AcDbEntity
  8
_0-0_
  6
CONTINUOUS
 62
     0
100
AcDbLine
 10
294.838642978
 20
636.7985349351
 11
294.838642978
 21
635.7985349351
  0
LINE
  5
488
100
AcDbEntity
  8
_0-0_
  6
CONTINUOUS
 62
     0
100
AcDbLine
 10
876.838640978
 20
636.7985339351
 11
876.838640978
 21
635.7985349351
  0
TEXT
  5
489
100
AcDbEntity
  8
_0-1_PRO0
  6
CONTINUOUS
 62
     0
100
AcDbText
 10
1000.619999747
 20
696.7407896262
 40
9
  1
３
  7
STANDARD
100
AcDbText
  0
TEXT
  5
48A
100
AcDbEntity
  8
_0-1_PRO0
  6
CONTINUOUS
 62
     0
100
AcDbText
 10
897.6483174226
 20
714.2205813447
 40
9
  1
４
  7
STANDARD
100
AcDbText
  0
TEXT
  5
48B
100
AcDbEntity
  8
_0-1_PRO0
  6
CONTINUOUS
 62
     0
100
AcDbText
 10
820.0487660935
 20
700.4260890139
 40
9
  1
５
  7
STANDARD
100
AcDbText
  0
TEXT
  5
48C
100
AcDbEntity
  8
_0-1_PRO0
  6
CONTINUOUS
 62
     0
100
AcDbText
 10
1040.767940562
 20
706.7169446167
 40
9
  1
６
  7
STANDARD
100
AcDbText
  0
TEXT
  5
48D
100
AcDbEntity
  8
_0-1_PRO0
  6
CONTINUOUS
 62
     0
100
AcDbText
 10
621.2324417914
 20
507.9460090224
 40
9
  1
７
  7
STANDARD
100
AcDbText
  0
TEXT
  5
48E
100
AcDbEntity
  8
_0-1_PRO0
  6
CONTINUOUS
 62
     0
100
AcDbText
 10
881.1024993896
 20
707.8942391556
 40
9
  1
９
  7
STANDARD
100
AcDbText
  0
TEXT
  5
48F
100
AcDbEntity
  8
_0-1_PRO0
  6
CONTINUOUS
 62
     0
100
AcDbText
 10
870.4161827527
 20
613.0739026339
 40
9
  1
10
  7
STANDARD
100
AcDbText
  0
TEXT
  5
490
100
AcDbEntity
  8
_0-1_PRO0
  6
CONTINUOUS
 62
     0
100
AcDbText
 10
834.3985852716
 20
581.3904657985
 40
9
  1
11
  7
STANDARD
100
AcDbText
  0
TEXT
  5
491
100
AcDbEntity
  8
_0-1_PRO0
  6
CONTINUOUS
 62
     0
100
AcDbText
 10
830.2682419374
 20
609.6674106859
 40
9
  1
12
  7
STANDARD
100
AcDbText
  0
LINE
  5
492
100
AcDbEntity
  8
_0-0_
  6
CONTINUOUS
 62
     0
100
AcDbLine
 10
320.620747978
 20
652.3764979351
 11
311.433355978
 21
651.8950069351
  0
LINE
  5
493
100
AcDbEntity
  8
_0-0_
  6
CONTINUOUS
 62
     0
100
AcDbLine
 10
330.838642978
 20
636.3725574068
 11
330.4126654497
 21
636.7985349351
  0
ARC
  5
494
100
AcDbEntity
  8
_0-0_
  6
CONTINUOUS
 62
     0
100
AcDbCircle
 10
330.838642978
 20
628.5485349351
 40
8.25
100
AcDbArc
 50
71.07535558395
 51
90
  0
ARC
  5
495
100
AcDbEntity
  8
_0-0_
  6
CONTINUOUS
 62
     0
100
AcDbCircle
 10
300.838642978
 20
628.5485349351
 40
8.25
100
AcDbArc
 50
90
 51
108.9246444161
  0
ARC
  5
496
100
AcDbEntity
  8
_0-0_
  6
CONTINUOUS
 62
     0
100
AcDbCircle
 10
300.838642978
 20
628.5485349351
 40
9.25
100
AcDbArc
 50
90
 51
108.9246444161
  0
ARC
  5
497
100
AcDbEntity
  8
_0-0_
  6
CONTINUOUS
 62
     0
100
AcDbCircle
 10
330.838642978
 20
628.5485349351
 40
9.25
100
AcDbArc
 50
71.07535558395
 51
90
  0
ARC
  5
498
100
AcDbEntity
  8
_0-0_
  6
CONTINUOUS
 62
     0
100
AcDbCircle
 10
336.838642978
 20
646.0485349351
 40
9.25
100
AcDbArc
 50
-108.9246444161
 51
-90
  0
ARC
  5
499
100
AcDbEntity
  8
_0-0_
  6
CONTINUOUS
 62
     0
100
AcDbCircle
 10
294.838642978
 20
646.0485349351
 40
9.25
100
AcDbArc
 50
-90
 51
-71.07535558395
  0
LINE
  5
49A
100
AcDbEntity
  8
_0-0_
  6
CONTINUOUS
 62
     0
100
AcDbLine
 10
319.0263947598
 20
651.5552923499
 11
318.5532497598
 21
651.0298093499
  0
LINE
  5
49B
100
AcDbEntity
  8
_0-0_
  6
CONTINUOUS
 62
     0
100
AcDbLine
 10
318.5532497598
 20
651.0298093499
 11
313.5601007598
 21
650.7681283499
  0
LINE
  5
49C
100
AcDbEntity
  8
_0-0_
  6
CONTINUOUS
 62
     0
100
AcDbLine
 10
313.5601007598
 20
650.7681283499
 11
313.0346177598
 21
651.2412763499
  0
LINE
  5
49D
100
AcDbEntity
  8
_0-0_
  6
CONTINUOUS
 62
     0
100
AcDbLine
 10
319.0263947598
 20
651.5552923499
 11
313.0346177598
 21
651.2412763499
  0
LINE
  5
49E
100
AcDbEntity
  8
_0-0_
  6
CONTINUOUS
 62
     0
100
AcDbLine
 10
329.9984518873
 20
635.7985349351
 11
328.9984518873
 21
636.7985349351
  0
LINE
  5
49F
100
AcDbEntity
  8
_0-0_
  6
CONTINUOUS
 62
     0
100
AcDbLine
 10
328.5842383249
 20
635.7985349351
 11
327.5842383249
 21
636.7985349351
  0
LINE
  5
4A0
100
AcDbEntity
  8
_0-0_
  6
CONTINUOUS
 62
     0
100
AcDbLine
 10
327.1700247626
 20
635.7985349351
 11
326.1700247626
 21
636.7985349351
  0
LINE
  5
4A1
100
AcDbEntity
  8
_0-0_
  6
CONTINUOUS
 62
     0
100
AcDbLine
 10
325.7558112002
 20
635.7985349351
 11
324.7558112002
 21
636.7985349351
  0
LINE
  5
4A2
100
AcDbEntity
  8
_0-0_
  6
CONTINUOUS
 62
     0
100
AcDbLine
 10
324.3415976378
 20
635.7985349351
 11
323.3415976378
 21
636.7985349351
  0
LINE
  5
4A3
100
AcDbEntity
  8
_0-0_
  6
CONTINUOUS
 62
     0
100
AcDbLine
 10
322.9273840755
 20
635.7985349351
 11
321.9273840755
 21
636.7985349351
  0
LINE
  5
4A4
100
AcDbEntity
  8
_0-0_
  6
CONTINUOUS
 62
     0
100
AcDbLine
 10
321.5131705131
 20
635.7985349351
 11
320.5131705131
 21
636.7985349351
  0
LINE
  5
4A5
100
AcDbEntity
  8
_0-0_
  6
CONTINUOUS
 62
     0
100
AcDbLine
 10
320.0989569507
 20
635.7985349351
 11
319.0989569507
 21
636.7985349351
  0
LINE
  5
4A6
100
AcDbEntity
  8
_0-0_
  6
CONTINUOUS
 62
     0
100
AcDbLine
 10
318.6847433883
 20
635.7985349351
 11
317.6847433883
 21
636.7985349351
  0
LINE
  5
4A7
100
AcDbEntity
  8
_0-0_
  6
CONTINUOUS
 62
     0
100
AcDbLine
 10
317.270529826
 20
635.7985349351
 11
316.270529826
 21
636.7985349351
  0
LINE
  5
4A8
100
AcDbEntity
  8
_0-0_
  6
CONTINUOUS
 62
     0
100
AcDbLine
 10
315.8563162636
 20
635.7985349351
 11
314.8563162636
 21
636.7985349351
  0
LINE
  5
4A9
100
AcDbEntity
  8
_0-0_
  6
CONTINUOUS
 62
     0
100
AcDbLine
 10
314.4421027012
 20
635.7985349351
 11
313.4421027012
 21
636.7985349351
  0
LINE
  5
4AA
100
AcDbEntity
  8
_0-0_
  6
CONTINUOUS
 62
     0
100
AcDbLine
 10
313.0278891388
 20
635.7985349351
 11
312.0278891388
 21
636.7985349351
  0
LINE
  5
4AB
100
AcDbEntity
  8
_0-0_
  6
CONTINUOUS
 62
     0
100
AcDbLine
 10
311.6136755765
 20
635.7985349351
 11
310.6136755765
 21
636.7985349351
  0
LINE
  5
4AC
100
AcDbEntity
  8
_0-0_
  6
CONTINUOUS
 62
     0
100
AcDbLine
 10
310.1994620141
 20
635.7985349351
 11
309.1994620141
 21
636.7985349351
  0
LINE
  5
4AD
100
AcDbEntity
  8
_0-0_
  6
CONTINUOUS
 62
     0
100
AcDbLine
 10
308.7852484517
 20
635.7985349351
 11
307.7852484517
 21
636.7985349351
  0
LINE
  5
4AE
100
AcDbEntity
  8
_0-0_
  6
CONTINUOUS
 62
     0
100
AcDbLine
 10
307.3710348894
 20
635.7985349351
 11
306.3710348894
 21
636.7985349351
  0
LINE
  5
4AF
100
AcDbEntity
  8
_0-0_
  6
CONTINUOUS
 62
     0
100
AcDbLine
 10
305.956821327
 20
635.7985349351
 11
304.956821327
 21
636.7985349351
  0
LINE
  5
4B0
100
AcDbEntity
  8
_0-0_
  6
CONTINUOUS
 62
     0
100
AcDbLine
 10
304.5426077646
 20
635.7985349351
 11
303.5426077646
 21
636.7985349351
  0
LINE
  5
4B1
100
AcDbEntity
  8
_0-0_
  6
CONTINUOUS
 62
     0
100
AcDbLine
 10
303.1283942022
 20
635.7985349351
 11
302.1283942022
 21
636.7985349351
  0
LINE
  5
4B2
100
AcDbEntity
  8
_0-0_
  6
CONTINUOUS
 62
     0
100
AcDbLine
 10
301.7141806399
 20
635.7985349351
 11
300.838642978
 21
636.674072597
  0
LINE
  5
4B3
100
AcDbEntity
  8
_0-0_
  6
CONTINUOUS
 62
     0
100
AcDbLine
 10
300.838642978
 20
635.7985349351
 11
330.838642978
 21
635.7985349351
  0
LINE
  5
4B4
100
AcDbEntity
  8
_0-0_
  6
CONTINUOUS
 62
     0
100
AcDbLine
 10
330.838642978
 20
635.7985349351
 11
330.838642978
 21
636.7985349351
  0
LINE
  5
4B5
100
AcDbEntity
  8
_0-0_
  6
CONTINUOUS
 62
     0
100
AcDbLine
 10
330.838642978
 20
636.7985349351
 11
300.838642978
 21
636.7985349351
  0
LINE
  5
4B6
100
AcDbEntity
  8
_0-0_
  6
CONTINUOUS
 62
     0
100
AcDbLine
 10
300.838642978
 20
636.7985349351
 11
300.838642978
 21
635.7985349351
  0
ARC
  5
4B7
100
AcDbEntity
  8
_0-0_
  6
CONTINUOUS
 62
     0
100
AcDbCircle
 10
336.838642978
 20
646.0485349351
 40
10.25
100
AcDbArc
 50
-108.9246444161
 51
-90
  0
ARC
  5
4B8
100
AcDbEntity
  8
_0-0_
  6
CONTINUOUS
 62
     0
100
AcDbCircle
 10
294.838642978
 20
646.0485349351
 40
10.25
100
AcDbArc
 50
-90
 51
-71.07535558395
  0
LINE
  5
4B9
100
AcDbEntity
  8
_0-0_
  6
CONTINUOUS
 62
     0
100
AcDbLine
 10
306.838642978
 20
641.9073049351
 11
306.838642978
 21
640.3073059351
  0
LINE
  5
4BA
100
AcDbEntity
  8
_0-0_
  6
CONTINUOUS
 62
     0
100
AcDbLine
 10
306.838642978
 20
641.9073049351
 11
324.838642978
 21
641.9073049351
  0
LINE
  5
4BB
100
AcDbEntity
  8
_0-0_
  6
CONTINUOUS
 62
     0
100
AcDbLine
 10
324.838642978
 20
641.9073049351
 11
324.838642978
 21
640.3073059351
  0
LINE
  5
4BC
100
AcDbEntity
  8
_0-0_
  6
CONTINUOUS
 62
     0
100
AcDbLine
 10
321.718642978
 20
646.1703679351
 11
321.718642978
 21
641.9073049351
  0
LINE
  5
4BD
100
AcDbEntity
  8
_0-0_
  6
CONTINUOUS
 62
     0
100
AcDbLine
 10
320.788642978
 20
646.7073049351
 11
321.718642978
 21
646.1703679351
  0
ARC
  5
4BE
100
AcDbEntity
  8
_0-0_
  6
CONTINUOUS
 62
     0
100
AcDbCircle
 10
320.788642978
 20
642.8979109351
 40
3.809394
100
AcDbArc
 50
90
 51
120.789964
  0
ARC
  5
4BF
100
AcDbEntity
  8
_0-0_
  6
CONTINUOUS
 62
     0
100
AcDbCircle
 10
315.838642978
 20
638.0579449351
 40
8.64936
100
AcDbArc
 50
69.705445
 51
110.294555
  0
LINE
  5
4C0
100
AcDbEntity
  8
_0-0_
  6
CONTINUOUS
 62
     0
100
AcDbLine
 10
318.838642978
 20
646.1703679351
 11
318.838642978
 21
641.9073049351
  0
LINE
  5
4C1
100
AcDbEntity
  8
_0-0_
  6
CONTINUOUS
 62
     0
100
AcDbLine
 10
312.838642978
 20
646.1703679351
 11
312.838642978
 21
641.9073049351
  0
LINE
  5
4C2
100
AcDbEntity
  8
_0-0_
  6
CONTINUOUS
 62
     0
100
AcDbLine
 10
309.958642978
 20
646.1703679351
 11
309.958642978
 21
641.9073049351
  0
LINE
  5
4C3
100
AcDbEntity
  8
_0-0_
  6
CONTINUOUS
 62
     0
100
AcDbLine
 10
310.888642978
 20
646.7073049351
 11
309.958642978
 21
646.1703679351
  0
LINE
  5
4C4
100
AcDbEntity
  8
_0-0_
  6
CONTINUOUS
 62
     0
100
AcDbLine
 10
320.788642978
 20
646.7073049351
 11
310.888642978
 21
646.7073049351
  0
ARC
  5
4C5
100
AcDbEntity
  8
_0-0_
  6
CONTINUOUS
 62
     0
100
AcDbCircle
 10
310.888642978
 20
642.8979109351
 40
3.809394
100
AcDbArc
 50
59.210036
 51
90
  0
LINE
  5
4C6
100
AcDbEntity
  8
_0-0_
  6
CONTINUOUS
 62
     0
100
AcDbLine
 10
320.568412978
 20
653.3751289351
 11
320.620747978
 21
652.3764979351
  0
LINE
  5
4C7
100
AcDbEntity
  8
_0-0_
  6
CONTINUOUS
 62
     0
100
AcDbLine
 10
311.381020978
 20
652.8936379351
 11
311.433355978
 21
651.8950069351
  0
ARC
  5
4C8
100
AcDbEntity
  8
_0-0_
  6
CONTINUOUS
 62
     0
100
AcDbCircle
 10
321.567040978
 20
653.4274639351
 40
0.999999
100
AcDbArc
 50
93
 51
183
  0
ARC
  5
4C9
100
AcDbEntity
  8
_0-0_
  6
CONTINUOUS
 62
     0
100
AcDbCircle
 10
310.382389978
 20
652.8412999351
 40
0.999999
100
AcDbArc
 50
2.999999999999
 51
93
  0
ARC
  5
4CA
100
AcDbEntity
  8
_0-0_
  6
CONTINUOUS
 62
     0
100
AcDbCircle
 10
327.838642978
 20
647.3073049351
 40
0.999999
100
AcDbArc
 50
180
 51
270
  0
LINE
  5
4CB
100
AcDbEntity
  8
_0-0_
  6
CONTINUOUS
 62
     0
100
AcDbLine
 10
327.838642978
 20
646.3073059351
 11
332.038642978
 21
646.3073059351
  0
ARC
  5
4CC
100
AcDbEntity
  8
_0-0_
  6
CONTINUOUS
 62
     0
100
AcDbCircle
 10
324.238642978
 20
653.5674769351
 40
0.999999
100
AcDbArc
 50
0
 51
93
  0
LINE
  5
4CD
100
AcDbEntity
  8
_0-0_
  6
CONTINUOUS
 62
     0
100
AcDbLine
 10
307.386307978
 20
653.6856559351
 11
324.186307978
 21
654.5661049351
  0
ARC
  5
4CE
100
AcDbEntity
  8
_0-0_
  6
CONTINUOUS
 62
     0
100
AcDbCircle
 10
307.438642978
 20
652.6870249351
 40
0.999999
100
AcDbArc
 50
93
 51
180
  0
LINE
  5
4CF
100
AcDbEntity
  8
_0-0_
  6
CONTINUOUS
 62
     0
100
AcDbLine
 10
303.838642978
 20
646.3073059351
 11
299.638642978
 21
646.3073059351
  0
ARC
  5
4D0
100
AcDbEntity
  8
_0-0_
  6
CONTINUOUS
 62
     0
100
AcDbCircle
 10
303.838642978
 20
647.3073049351
 40
0.999999
100
AcDbArc
 50
-90
 51
0
  0
LINE
  5
4D1
100
AcDbEntity
  8
_0-0_
  6
CONTINUOUS
 62
     0
100
AcDbLine
 10
325.238641978
 20
647.3073049351
 11
325.238641978
 21
653.5674769351
  0
ARC
  5
4D2
100
AcDbEntity
  8
_0-0_
  6
CONTINUOUS
 62
     0
100
AcDbCircle
 10
327.838642978
 20
647.3073049351
 40
2.600001
100
AcDbArc
 50
180
 51
270
  0
LINE
  5
4D3
100
AcDbEntity
  8
_0-0_
  6
CONTINUOUS
 62
     0
100
AcDbLine
 10
327.838642978
 20
644.7073039351
 11
332.338642978
 21
644.7073039351
  0
LINE
  5
4D4
100
AcDbEntity
  8
_0-0_
  6
CONTINUOUS
 62
     0
100
AcDbLine
 10
326.838643978
 20
653.5674769351
 11
326.838643978
 21
647.3073049351
  0
ARC
  5
4D5
100
AcDbEntity
  8
_0-0_
  6
CONTINUOUS
 62
     0
100
AcDbCircle
 10
324.238642978
 20
653.5674769351
 40
2.600001
100
AcDbArc
 50
0
 51
93
  0
LINE
  5
4D6
100
AcDbEntity
  8
_0-0_
  6
CONTINUOUS
 62
     0
100
AcDbLine
 10
304.838641978
 20
652.6870249351
 11
304.838641978
 21
647.3073049351
  0
ARC
  5
4D7
100
AcDbEntity
  8
_0-0_
  6
CONTINUOUS
 62
     0
100
AcDbCircle
 10
307.438642978
 20
652.6870249351
 40
2.600001
100
AcDbArc
 50
93
 51
180
  0
LINE
  5
4D8
100
AcDbEntity
  8
_0-0_
  6
CONTINUOUS
 62
     0
100
AcDbLine
 10
307.302568978
 20
655.2834619351
 11
324.102568978
 21
656.1639139351
  0
LINE
  5
4D9
100
AcDbEntity
  8
_0-0_
  6
CONTINUOUS
 62
     0
100
AcDbLine
 10
306.438643978
 20
647.3073049351
 11
306.438643978
 21
652.6870249351
  0
ARC
  5
4DA
100
AcDbEntity
  8
_0-0_
  6
CONTINUOUS
 62
     0
100
AcDbCircle
 10
303.838642978
 20
647.3073049351
 40
2.600001
100
AcDbArc
 50
-90
 51
0
  0
LINE
  5
4DB
100
AcDbEntity
  8
_0-0_
  6
CONTINUOUS
 62
     0
100
AcDbLine
 10
303.838642978
 20
644.7073039351
 11
299.338642978
 21
644.7073039351
  0
LINE
  5
4DC
100
AcDbEntity
  8
_0-0_
  6
CONTINUOUS
 62
     0
100
AcDbLine
 10
299.638642978
 20
643.8073039351
 11
301.588642978
 21
643.8073039351
  0
ARC
  5
4DD
100
AcDbEntity
  8
_0-0_
  6
CONTINUOUS
 62
     0
100
AcDbCircle
 10
299.638642978
 20
644.1073039351
 40
0.3
100
AcDbArc
 50
180
 51
270
  0
ARC
  5
4DE
100
AcDbEntity
  8
_0-0_
  6
CONTINUOUS
 62
     0
100
AcDbCircle
 10
299.638642978
 20
646.0073059351
 40
0.3
100
AcDbArc
 50
90
 51
180
  0
LINE
  5
4DF
100
AcDbEntity
  8
_0-0_
  6
CONTINUOUS
 62
     0
100
AcDbLine
 10
316.338643978
 20
640.3073059351
 11
315.838642978
 21
639.8073049351
  0
LINE
  5
4E0
100
AcDbEntity
  8
_0-0_
  6
CONTINUOUS
 62
     0
100
AcDbLine
 10
315.338641978
 20
640.3073059351
 11
315.838642978
 21
639.8073049351
  0
LINE
  5
4E1
100
AcDbEntity
  8
_0-0_
  6
CONTINUOUS
 62
     0
100
AcDbLine
 10
320.838643978
 20
638.3073049351
 11
320.838643978
 21
637.8073039351
  0
LINE
  5
4E2
100
AcDbEntity
  8
_0-0_
  6
CONTINUOUS
 62
     0
100
AcDbLine
 10
299.838643978
 20
647.8073059351
 11
302.588641978
 21
647.8073059351
  0
ARC
  5
4E3
100
AcDbEntity
  8
_0-0_
  6
CONTINUOUS
 62
     0
100
AcDbCircle
 10
299.838643978
 20
648.3073039351
 40
0.500001
100
AcDbArc
 50
180
 51
270
  0
ARC
  5
4E4
100
AcDbEntity
  8
_0-0_
  6
CONTINUOUS
 62
     0
100
AcDbCircle
 10
302.588641978
 20
647.0573059351
 40
0.75
100
AcDbArc
 50
-90
 51
90
  0
LINE
  5
4E5
100
AcDbEntity
  8
_0-0_
  6
CONTINUOUS
 62
     0
100
AcDbLine
 10
310.838641978
 20
638.3073049351
 11
299.338642978
 21
638.3073049351
  0
LINE
  5
4E6
100
AcDbEntity
  8
_0-0_
  6
CONTINUOUS
 62
     0
100
AcDbLine
 10
310.838641978
 20
638.3073049351
 11
310.838641978
 21
637.8073039351
  0
ARC
  5
4E7
100
AcDbEntity
  8
_0-0_
  6
CONTINUOUS
 62
     0
100
AcDbCircle
 10
301.588642978
 20
643.0573039351
 40
0.75
100
AcDbArc
 50
-90
 51
90
  0
LINE
  5
4E8
100
AcDbEntity
  8
_0-0_
  6
CONTINUOUS
 62
     0
100
AcDbLine
 10
299.638642978
 20
642.3073039351
 11
301.588642978
 21
642.3073039351
  0
ARC
  5
4E9
100
AcDbEntity
  8
_0-0_
  6
CONTINUOUS
 62
     0
100
AcDbCircle
 10
299.638642978
 20
642.0073039351
 40
0.3
100
AcDbArc
 50
90
 51
180
  0
LINE
  5
4EA
100
AcDbEntity
  8
_0-0_
  6
CONTINUOUS
 62
     0
100
AcDbLine
 10
332.338642978
 20
638.3073049351
 11
320.838643978
 21
638.3073049351
  0
LINE
  5
4EB
100
AcDbEntity
  8
_0-0_
  6
CONTINUOUS
 62
     0
100
AcDbLine
 10
332.038642978
 20
643.8073039351
 11
330.088642978
 21
643.8073039351
  0
ARC
  5
4EC
100
AcDbEntity
  8
_0-0_
  6
CONTINUOUS
 62
     0
100
AcDbCircle
 10
332.038642978
 20
644.1073039351
 40
0.3
100
AcDbArc
 50
-90
 51
0
  0
LINE
  5
4ED
100
AcDbEntity
  8
_0-0_
  6
CONTINUOUS
 62
     0
100
AcDbLine
 10
332.338642978
 20
644.1073039351
 11
332.338642978
 21
646.0073059351
  0
ARC
  5
4EE
100
AcDbEntity
  8
_0-0_
  6
CONTINUOUS
 62
     0
100
AcDbCircle
 10
332.038642978
 20
646.0073059351
 40
0.3
100
AcDbArc
 50
0
 51
90
  0
LINE
  5
4EF
100
AcDbEntity
  8
_0-0_
  6
CONTINUOUS
 62
     0
100
AcDbLine
 10
333.338641978
 20
647.8073059351
 11
329.088643978
 21
647.8073059351
  0
ARC
  5
4F0
100
AcDbEntity
  8
_0-0_
  6
CONTINUOUS
 62
     0
100
AcDbCircle
 10
333.338641978
 20
647.3073049351
 40
0.500001
100
AcDbArc
 50
0
 51
90
  0
ARC
  5
4F1
100
AcDbEntity
  8
_0-0_
  6
CONTINUOUS
 62
     0
100
AcDbCircle
 10
329.088643978
 20
647.0573059351
 40
0.75
100
AcDbArc
 50
90
 51
270
  0
LINE
  5
4F2
100
AcDbEntity
  8
_0-0_
  6
CONTINUOUS
 62
     0
100
AcDbLine
 10
333.838642978
 20
647.3073049351
 11
333.838642978
 21
637.8073039351
  0
LINE
  5
4F3
100
AcDbEntity
  8
_0-0_
  6
CONTINUOUS
 62
     0
100
AcDbLine
 10
332.338642978
 20
638.3073049351
 11
332.338642978
 21
637.8073039351
  0
ARC
  5
4F4
100
AcDbEntity
  8
_0-0_
  6
CONTINUOUS
 62
     0
100
AcDbCircle
 10
330.088642978
 20
643.0573039351
 40
0.75
100
AcDbArc
 50
90
 51
270
  0
ARC
  5
4F5
100
AcDbEntity
  8
_0-0_
  6
CONTINUOUS
 62
     0
100
AcDbCircle
 10
332.038642978
 20
640.6073059351
 40
0.3
100
AcDbArc
 50
-90
 51
0
  0
LINE
  5
4F6
100
AcDbEntity
  8
_0-0_
  6
CONTINUOUS
 62
     0
100
AcDbLine
 10
332.338642978
 20
640.6073059351
 11
332.338642978
 21
642.0073039351
  0
ARC
  5
4F7
100
AcDbEntity
  8
_0-0_
  6
CONTINUOUS
 62
     0
100
AcDbCircle
 10
332.038642978
 20
642.0073039351
 40
0.3
100
AcDbArc
 50
0
 51
90
  0
LINE
  5
4F8
100
AcDbEntity
  8
_0-0_
  6
CONTINUOUS
 62
     0
100
AcDbLine
 10
332.038642978
 20
642.3073039351
 11
330.088642978
 21
642.3073039351
  0
ARC
  5
4F9
100
AcDbEntity
  8
_0-0_
  6
CONTINUOUS
 62
     0
100
AcDbCircle
 10
299.838643978
 20
640.8073039351
 40
0.500001
100
AcDbArc
 50
180
 51
270
  0
LINE
  5
4FA
100
AcDbEntity
  8
_0-0_
  6
CONTINUOUS
 62
     0
100
AcDbLine
 10
299.838643978
 20
640.3073059351
 11
332.038642978
 21
640.3073059351
  0
LINE
  5
4FB
100
AcDbEntity
  8
_0-0_
  6
CONTINUOUS
 62
     0
100
AcDbLine
 10
330.838642978
 20
637.7985349351
 11
300.838642978
 21
637.7985349351
  0
LINE
  5
4FC
100
AcDbEntity
  8
_0-0_
  6
CONTINUOUS
 62
     0
100
AcDbLine
 10
332.338642978
 20
637.8073039351
 11
333.838642978
 21
637.8073039351
  0
LINE
  5
4FD
100
AcDbEntity
  8
_0-0_
  6
CONTINUOUS
 62
     0
100
AcDbLine
 10
313.1053762144
 20
659.444806229
 11
313.306972128
 21
655.5981398376
  0
LINE
  5
4FE
100
AcDbEntity
  8
_0-0_
  6
CONTINUOUS
 62
     0
100
AcDbLine
 10
312.6060622144
 20
659.418637229
 11
312.8076557034
 21
655.5719717338
  0
LINE
  5
4FF
100
AcDbEntity
  8
_0-0_
  6
CONTINUOUS
 62
     0
100
AcDbLine
 10
318.0985252144
 20
659.706487229
 11
318.3001186724
 21
655.8598199484
  0
LINE
  5
500
100
AcDbEntity
  8
_0-0_
  6
CONTINUOUS
 62
     0
100
AcDbLine
 10
318.5978392144
 20
659.732653229
 11
318.7994350644
 21
655.8859880505
  0
LINE
  5
501
100
AcDbEntity
  8
_0-0_
  6
CONTINUOUS
 62
     0
100
AcDbLine
 10
318.4885193244
 20
652.2647525228
 11
318.5532497598
 21
651.0298093499
  0
LINE
  5
502
100
AcDbEntity
  8
_0-0_
  6
CONTINUOUS
 62
     0
100
AcDbLine
 10
313.4953864735
 20
652.0030734163
 11
313.5601007598
 21
650.7681283499
  0
LINE
  5
503
100
AcDbEntity
  8
_0-0_
  6
CONTINUOUS
 62
     0
100
AcDbLine
 10
313.3069724511
 20
655.5981398545
 11
313.4953813833
 21
652.0030731496
  0
LINE
  5
504
100
AcDbEntity
  8
_0-0_
  6
CONTINUOUS
 62
     0
100
AcDbLine
 10
312.807654524
 20
655.571971672
 11
312.9960666032
 21
651.9769051606
  0
LINE
  5
505
100
AcDbEntity
  8
_0-0_
  6
CONTINUOUS
 62
     0
100
AcDbLine
 10
318.3001182984
 20
655.8598199288
 11
318.4885274023
 21
652.2647529462
  0
LINE
  5
506
100
AcDbEntity
  8
_0-0_
  6
CONTINUOUS
 62
     0
100
AcDbLine
 10
318.7994353437
 20
655.8859880652
 11
318.9878444491
 21
652.290921054
  0
LINE
  5
507
100
AcDbEntity
  8
_0-0_
  6
CONTINUOUS
 62
     0
100
AcDbLine
 10
319.0263947598
 20
651.5552923499
 11
318.9878360112
 21
652.2909206118
  0
LINE
  5
508
100
AcDbEntity
  8
_0-0_
  6
CONTINUOUS
 62
     0
100
AcDbLine
 10
312.9960666032
 20
651.9769051606
 11
313.0346177598
 21
651.2412763499
  0
ARC
  5
509
100
AcDbEntity
  8
_0-0_
  6
CONTINUOUS
 62
     0
100
AcDbCircle
 10
298.338643978
 20
655.8073039351
 40
0.999999
100
AcDbArc
 50
0
 51
180
  0
LINE
  5
50A
100
AcDbEntity
  8
_0-0_
  6
CONTINUOUS
 62
     0
100
AcDbLine
 10
299.338642978
 20
648.3073039351
 11
299.338642978
 21
655.8073039351
  0
LINE
  5
50B
100
AcDbEntity
  8
_0-0_
  6
CONTINUOUS
 62
     0
100
AcDbLine
 10
299.338642978
 20
644.1073039351
 11
299.338642978
 21
646.0073059351
  0
ARC
  5
50C
100
AcDbEntity
  8
_0-0_
  6
CONTINUOUS
 62
     0
100
AcDbCircle
 10
296.838643978
 20
640.8073039351
 40
0.500001
100
AcDbArc
 50
-90
 51
0
  0
LINE
  5
50D
100
AcDbEntity
  8
_0-0_
  6
CONTINUOUS
 62
     0
100
AcDbLine
 10
297.338641978
 20
638.8073059351
 11
297.338641978
 21
637.8073039351
  0
LINE
  5
50E
100
AcDbEntity
  8
_0-0_
  6
CONTINUOUS
 62
     0
100
AcDbLine
 10
299.338642978
 20
638.3073049351
 11
299.338642978
 21
637.8073039351
  0
LINE
  5
50F
100
AcDbEntity
  8
_0-0_
  6
CONTINUOUS
 62
     0
100
AcDbLine
 10
299.338642978
 20
640.8073039351
 11
299.338642978
 21
642.0073039351
  0
LINE
  5
510
100
AcDbEntity
  8
_0-0_
  6
CONTINUOUS
 62
     0
100
AcDbLine
 10
286.838641978
 20
638.8073059351
 11
286.838641978
 21
637.8073039351
  0
LINE
  5
511
100
AcDbEntity
  8
_0-0_
  6
CONTINUOUS
 62
     0
100
AcDbLine
 10
285.338641978
 20
637.8073039351
 11
286.838641978
 21
637.8073039351
  0
LINE
  5
512
100
AcDbEntity
  8
_0-0_
  6
CONTINUOUS
 62
     0
100
AcDbLine
 10
297.338641978
 20
637.8073039351
 11
299.338642978
 21
637.8073039351
  0
LINE
  5
513
100
AcDbEntity
  8
_0-0_
  6
CONTINUOUS
 62
     0
100
AcDbLine
 10
285.338641978
 20
639.8073059351
 11
285.338641978
 21
637.8073039351
  0
ARC
  5
514
100
AcDbEntity
  8
_0-0_
  6
CONTINUOUS
 62
     0
100
AcDbCircle
 10
285.838641978
 20
639.8073059351
 40
0.5
100
AcDbArc
 50
90
 51
180
  0
LINE
  5
515
100
AcDbEntity
  8
_0-0_
  6
CONTINUOUS
 62
     0
100
AcDbLine
 10
297.088641978
 20
643.5573059351
 11
295.8386419779
 21
643.5573059351
  0
LINE
  5
516
100
AcDbEntity
  8
_0-0_
  6
CONTINUOUS
 62
     0
100
AcDbLine
 10
292.8386419779
 20
643.5573059351
 11
291.588641978
 21
643.5573059351
  0
LINE
  5
517
100
AcDbEntity
  8
_0-0_
  6
CONTINUOUS
 62
     0
100
AcDbLine
 10
297.338641978
 20
638.8073059351
 11
289.8326931042
 21
638.8073059351
  0
LINE
  5
518
100
AcDbEntity
  8
_0-0_
  6
CONTINUOUS
 62
     0
100
AcDbLine
 10
289.8326931042
 20
638.8073059351
 11
286.838641978
 21
638.8073059351
  0
LINE
  5
519
100
AcDbEntity
  8
_0-0_
  6
CONTINUOUS
 62
     0
100
AcDbLine
 10
291.838641978
 20
640.3073059351
 11
296.838643978
 21
640.3073059351
  0
LINE
  5
51A
100
AcDbEntity
  8
_0-0_
  6
CONTINUOUS
 62
     0
100
AcDbLine
 10
285.838641978
 20
640.3073059351
 11
289.838641978
 21
640.3073059351
  0
ARC
  5
51B
100
AcDbEntity
  8
_0-0_
  6
CONTINUOUS
 62
     0
100
AcDbCircle
 10
291.838641978
 20
640.8073059351
 40
0.25
100
AcDbArc
 50
180
 51
270
  0
ARC
  5
51C
100
AcDbEntity
  8
_0-0_
  6
CONTINUOUS
 62
     0
100
AcDbCircle
 10
296.838643978
 20
640.8073039351
 40
0.250001
100
AcDbArc
 50
-90
 51
0
  0
LINE
  5
51D
100
AcDbEntity
  8
_0-0_
  6
CONTINUOUS
 62
     0
100
AcDbLine
 10
291.588641978
 20
640.8073059351
 11
291.588641978
 21
643.5573059351
  0
LINE
  5
51E
100
AcDbEntity
  8
_0-0_
  6
CONTINUOUS
 62
     0
100
AcDbLine
 10
297.088641978
 20
640.8073039351
 11
297.088641978
 21
643.5573059351
  0
LINE
  5
51F
100
AcDbEntity
  8
_0-0_
  6
CONTINUOUS
 62
     0
100
AcDbLine
 10
291.838641978
 20
640.5573059351
 11
296.838643978
 21
640.5573059351
  0
LINE
  5
520
100
AcDbEntity
  8
_0-0_
  6
CONTINUOUS
 62
     0
100
AcDbLine
 10
297.338641978
 20
655.8073039351
 11
297.338641978
 21
645.3073059351
  0
LINE
  5
521
100
AcDbEntity
  8
_0-0_
  6
CONTINUOUS
 62
     0
100
AcDbLine
 10
297.338641978
 20
643.8073059351
 11
297.338641978
 21
640.8073039351
  0
LINE
  5
522
100
AcDbEntity
  8
_0-0_
  6
CONTINUOUS
 62
     0
100
AcDbLine
 10
291.338641978
 20
640.8073059351
 11
291.338641978
 21
643.8073059351
  0
LINE
  5
523
100
AcDbEntity
  8
_0-0_
  6
CONTINUOUS
 62
     0
100
AcDbLine
 10
289.838641978
 20
644.8073059351
 11
289.838641978
 21
640.3073059351
  0
ARC
  5
524
100
AcDbEntity
  8
_0-0_
  6
CONTINUOUS
 62
     0
100
AcDbCircle
 10
290.338641978
 20
644.8073059351
 40
0.5
100
AcDbArc
 50
90
 51
180
  0
ARC
  5
525
100
AcDbEntity
  8
_0-0_
  6
CONTINUOUS
 62
     0
100
AcDbCircle
 10
291.838641978
 20
640.8073059351
 40
0.5
100
AcDbArc
 50
180
 51
270
  0
LINE
  5
526
100
AcDbEntity
  8
_0-0_
  6
CONTINUOUS
 62
     0
100
AcDbLine
 10
290.338641978
 20
645.3073059351
 11
291.588641978
 21
645.3073059351
  0
ARC
  5
527
100
AcDbEntity
  8
_0-0_
  6
CONTINUOUS
 62
     0
100
AcDbCircle
 10
291.588641978
 20
644.3073059351
 40
1
100
AcDbArc
 50
0
 51
90
  0
LINE
  5
528
100
AcDbEntity
  8
_0-0_
  6
CONTINUOUS
 62
     0
100
AcDbLine
 10
292.588641978
 20
644.3073059351
 11
292.588641978
 21
643.8073059351
  0
LINE
  5
529
100
AcDbEntity
  8
_0-0_
  6
CONTINUOUS
 62
     0
100
AcDbLine
 10
292.588641978
 20
643.8073059351
 11
291.338641978
 21
643.8073059351
  0
LINE
  5
52A
100
AcDbEntity
  8
_0-0_
  6
CONTINUOUS
 62
     0
100
AcDbLine
 10
297.338641978
 20
643.8073059351
 11
296.088641978
 21
643.8073059351
  0
LINE
  5
52B
100
AcDbEntity
  8
_0-0_
  6
CONTINUOUS
 62
     0
100
AcDbLine
 10
296.088641978
 20
644.3073059351
 11
296.088641978
 21
643.8073059351
  0
ARC
  5
52C
100
AcDbEntity
  8
_0-0_
  6
CONTINUOUS
 62
     0
100
AcDbCircle
 10
297.088641978
 20
644.3073059351
 40
1
100
AcDbArc
 50
90
 51
180
  0
LINE
  5
52D
100
AcDbEntity
  8
_0-0_
  6
CONTINUOUS
 62
     0
100
AcDbLine
 10
297.088641978
 20
645.3073059351
 11
297.338641978
 21
645.3073059351
  0
LINE
  5
52E
100
AcDbEntity
  8
_0-0_
  6
CONTINUOUS
 62
     0
100
AcDbLine
 10
295.8386419779
 20
643.5573059351
 11
295.8386419779
 21
662.476861795
  0
LINE
  5
52F
100
AcDbEntity
  8
_0-0_
  6
CONTINUOUS
 62
     0
100
AcDbLine
 10
292.8386419779
 20
643.5573059351
 11
292.8386419779
 21
663.940124791
  0
ARC
  5
530
100
AcDbEntity
  8
_0-0_
  6
CONTINUOUS
 62
     0
100
AcDbCircle
 10
270.8386419779
 20
662.476861795
 40
25
100
AcDbArc
 50
0
 51
101.4095443492
  0
ARC
  5
531
100
AcDbEntity
  8
_0-0_
  6
CONTINUOUS
 62
     0
100
AcDbCircle
 10
269.762696384
 20
663.208493293
 40
23.08754100601
100
AcDbArc
 50
-1.815975820674
 51
99.19866089519
  0
ARC
  5
532
100
AcDbEntity
  8
_0-0_
  6
CONTINUOUS
 62
     0
100
AcDbCircle
 10
265.9920365057
 20
686.4926985574
 40
0.5
100
AcDbArc
 50
101.4095443492
 51
279.1986608952
  0
LINE
  5
533
100
AcDbEntity
  8
_0-0_
  6
CONTINUOUS
 62
     0
100
AcDbLine
 10
851.056535978
 20
652.3764979351
 11
860.243927978
 21
651.8950069351
  0
LINE
  5
534
100
AcDbEntity
  8
_0-0_
  6
CONTINUOUS
 62
     0
100
AcDbLine
 10
840.838640978
 20
636.3725574068
 11
841.2646185063
 21
636.7985349351
  0
ARC
  5
535
100
AcDbEntity
  8
_0-0_
  6
CONTINUOUS
 62
     0
100
AcDbCircle
 10
840.838640978
 20
628.5485349351
 40
8.25
100
AcDbArc
 50
90
 51
108.9246444161
  0
ARC
  5
536
100
AcDbEntity
  8
_0-0_
  6
CONTINUOUS
 62
     0
100
AcDbCircle
 10
870.838640978
 20
628.5485349351
 40
8.25
100
AcDbArc
 50
71.07535558395
 51
90
  0
ARC
  5
537
100
AcDbEntity
  8
_0-0_
  6
CONTINUOUS
 62
     0
100
AcDbCircle
 10
870.838640978
 20
628.5485349351
 40
9.25
100
AcDbArc
 50
71.07535558395
 51
90
  0
ARC
  5
538
100
AcDbEntity
  8
_0-0_
  6
CONTINUOUS
 62
     0
100
AcDbCircle
 10
840.838640978
 20
628.5485349351
 40
9.25
100
AcDbArc
 50
90
 51
108.9246444161
  0
ARC
  5
539
100
AcDbEntity
  8
_0-0_
  6
CONTINUOUS
 62
     0
100
AcDbCircle
 10
834.838640978
 20
646.0485349351
 40
9.25
100
AcDbArc
 50
-90
 51
-71.07535558395
  0
ARC
  5
53A
100
AcDbEntity
  8
_0-0_
  6
CONTINUOUS
 62
     0
100
AcDbCircle
 10
876.838640978
 20
646.0485349351
 40
9.25
100
AcDbArc
 50
-108.9246444161
 51
-90
  0
LINE
  5
53B
100
AcDbEntity
  8
_0-0_
  6
CONTINUOUS
 62
     0
100
AcDbLine
 10
852.6508891962
 20
651.5552923499
 11
853.1240341962
 21
651.0298093499
  0
LINE
  5
53C
100
AcDbEntity
  8
_0-0_
  6
CONTINUOUS
 62
     0
100
AcDbLine
 10
853.1240341962
 20
651.0298093499
 11
858.1171831962
 21
650.7681283499
  0
LINE
  5
53D
100
AcDbEntity
  8
_0-0_
  6
CONTINUOUS
 62
     0
100
AcDbLine
 10
858.1171831962
 20
650.7681283499
 11
858.6426661962
 21
651.2412763499
  0
LINE
  5
53E
100
AcDbEntity
  8
_0-0_
  6
CONTINUOUS
 62
     0
100
AcDbLine
 10
852.6508891962
 20
651.5552923499
 11
858.6426661962
 21
651.2412763499
  0
LINE
  5
53F
100
AcDbEntity
  8
_0-0_
  6
CONTINUOUS
 62
     0
100
AcDbLine
 10
841.6788320687
 20
635.7985349351
 11
842.6788320687
 21
636.7985349351
  0
LINE
  5
540
100
AcDbEntity
  8
_0-0_
  6
CONTINUOUS
 62
     0
100
AcDbLine
 10
843.0930456311
 20
635.7985349351
 11
844.0930456311
 21
636.7985349351
  0
LINE
  5
541
100
AcDbEntity
  8
_0-0_
  6
CONTINUOUS
 62
     0
100
AcDbLine
 10
844.5072591934
 20
635.7985349351
 11
845.5072591934
 21
636.7985349351
  0
LINE
  5
542
100
AcDbEntity
  8
_0-0_
  6
CONTINUOUS
 62
     0
100
AcDbLine
 10
845.9214727558
 20
635.7985349351
 11
846.9214727558
 21
636.7985349351
  0
LINE
  5
543
100
AcDbEntity
  8
_0-0_
  6
CONTINUOUS
 62
     0
100
AcDbLine
 10
847.3356863182
 20
635.7985349351
 11
848.3356863182
 21
636.7985349351
  0
LINE
  5
544
100
AcDbEntity
  8
_0-0_
  6
CONTINUOUS
 62
     0
100
AcDbLine
 10
848.7498998805
 20
635.7985349351
 11
849.7498998805
 21
636.7985349351
  0
LINE
  5
545
100
AcDbEntity
  8
_0-0_
  6
CONTINUOUS
 62
     0
100
AcDbLine
 10
850.1641134429
 20
635.7985349351
 11
851.1641134429
 21
636.7985349351
  0
LINE
  5
546
100
AcDbEntity
  8
_0-0_
  6
CONTINUOUS
 62
     0
100
AcDbLine
 10
851.5783270053
 20
635.7985349351
 11
852.5783270053
 21
636.7985349351
  0
LINE
  5
547
100
AcDbEntity
  8
_0-0_
  6
CONTINUOUS
 62
     0
100
AcDbLine
 10
852.9925405677
 20
635.7985349351
 11
853.9925405677
 21
636.7985349351
  0
LINE
  5
548
100
AcDbEntity
  8
_0-0_
  6
CONTINUOUS
 62
     0
100
AcDbLine
 10
854.40675413
 20
635.7985349351
 11
855.40675413
 21
636.7985349351
  0
LINE
  5
549
100
AcDbEntity
  8
_0-0_
  6
CONTINUOUS
 62
     0
100
AcDbLine
 10
855.8209676924
 20
635.7985349351
 11
856.8209676924
 21
636.7985349351
  0
LINE
  5
54A
100
AcDbEntity
  8
_0-0_
  6
CONTINUOUS
 62
     0
100
AcDbLine
 10
857.2351812548
 20
635.7985349351
 11
858.2351812548
 21
636.7985349351
  0
LINE
  5
54B
100
AcDbEntity
  8
_0-0_
  6
CONTINUOUS
 62
     0
100
AcDbLine
 10
858.6493948172
 20
635.7985349351
 11
859.6493948172
 21
636.7985349351
  0
LINE
  5
54C
100
AcDbEntity
  8
_0-0_
  6
CONTINUOUS
 62
     0
100
AcDbLine
 10
860.0636083795
 20
635.7985349351
 11
861.0636083795
 21
636.7985349351
  0
LINE
  5
54D
100
AcDbEntity
  8
_0-0_
  6
CONTINUOUS
 62
     0
100
AcDbLine
 10
861.4778219419
 20
635.7985349351
 11
862.4778219419
 21
636.7985349351
  0
LINE
  5
54E
100
AcDbEntity
  8
_0-0_
  6
CONTINUOUS
 62
     0
100
AcDbLine
 10
862.8920355043
 20
635.7985349351
 11
863.8920355043
 21
636.7985349351
  0
LINE
  5
54F
100
AcDbEntity
  8
_0-0_
  6
CONTINUOUS
 62
     0
100
AcDbLine
 10
864.3062490666
 20
635.7985349351
 11
865.3062490666
 21
636.7985349351
  0
LINE
  5
550
100
AcDbEntity
  8
_0-0_
  6
CONTINUOUS
 62
     0
100
AcDbLine
 10
865.720462629
 20
635.7985349351
 11
866.720462629
 21
636.7985349351
  0
LINE
  5
551
100
AcDbEntity
  8
_0-0_
  6
CONTINUOUS
 62
     0
100
AcDbLine
 10
867.1346761914
 20
635.7985349351
 11
868.1346761914
 21
636.7985349351
  0
LINE
  5
552
100
AcDbEntity
  8
_0-0_
  6
CONTINUOUS
 62
     0
100
AcDbLine
 10
868.5488897538
 20
635.7985349351
 11
869.5488897538
 21
636.7985349351
  0
LINE
  5
553
100
AcDbEntity
  8
_0-0_
  6
CONTINUOUS
 62
     0
100
AcDbLine
 10
869.9631033161
 20
635.7985349351
 11
870.838640978
 21
636.674072597
  0
LINE
  5
554
100
AcDbEntity
  8
_0-0_
  6
CONTINUOUS
 62
     0
100
AcDbLine
 10
870.838640978
 20
635.7985349351
 11
840.838640978
 21
635.7985349351
  0
LINE
  5
555
100
AcDbEntity
  8
_0-0_
  6
CONTINUOUS
 62
     0
100
AcDbLine
 10
840.838640978
 20
635.7985349351
 11
840.838640978
 21
636.7985349351
  0
LINE
  5
556
100
AcDbEntity
  8
_0-0_
  6
CONTINUOUS
 62
     0
100
AcDbLine
 10
840.838640978
 20
636.7985349351
 11
870.838640978
 21
636.7985349351
  0
LINE
  5
557
100
AcDbEntity
  8
_0-0_
  6
CONTINUOUS
 62
     0
100
AcDbLine
 10
870.838640978
 20
636.7985349351
 11
870.838640978
 21
635.7985349351
  0
ARC
  5
558
100
AcDbEntity
  8
_0-0_
  6
CONTINUOUS
 62
     0
100
AcDbCircle
 10
834.838640978
 20
646.0485349351
 40
10.25
100
AcDbArc
 50
-90
 51
-71.07535558395
  0
ARC
  5
559
100
AcDbEntity
  8
_0-0_
  6
CONTINUOUS
 62
     0
100
AcDbCircle
 10
876.838640978
 20
646.0485349351
 40
10.25
100
AcDbArc
 50
-108.9246444161
 51
-90
  0
LINE
  5
55A
100
AcDbEntity
  8
_0-0_
  6
CONTINUOUS
 62
     0
100
AcDbLine
 10
864.838640978
 20
641.9073049351
 11
864.838640978
 21
640.3073059351
  0
LINE
  5
55B
100
AcDbEntity
  8
_0-0_
  6
CONTINUOUS
 62
     0
100
AcDbLine
 10
864.838640978
 20
641.9073049351
 11
846.838640978
 21
641.9073049351
  0
LINE
  5
55C
100
AcDbEntity
  8
_0-0_
  6
CONTINUOUS
 62
     0
100
AcDbLine
 10
846.838640978
 20
641.9073049351
 11
846.838640978
 21
640.3073059351
  0
LINE
  5
55D
100
AcDbEntity
  8
_0-0_
  6
CONTINUOUS
 62
     0
100
AcDbLine
 10
849.958640978
 20
646.1703679351
 11
849.958640978
 21
641.9073049351
  0
LINE
  5
55E
100
AcDbEntity
  8
_0-0_
  6
CONTINUOUS
 62
     0
100
AcDbLine
 10
850.888640978
 20
646.7073049351
 11
849.958640978
 21
646.1703679351
  0
ARC
  5
55F
100
AcDbEntity
  8
_0-0_
  6
CONTINUOUS
 62
     0
100
AcDbCircle
 10
850.888640978
 20
642.8979109351
 40
3.809394
100
AcDbArc
 50
59.210036
 51
90
  0
ARC
  5
560
100
AcDbEntity
  8
_0-0_
  6
CONTINUOUS
 62
     0
100
AcDbCircle
 10
855.838640978
 20
638.0579449351
 40
8.64936
100
AcDbArc
 50
69.705445
 51
110.294555
  0
LINE
  5
561
100
AcDbEntity
  8
_0-0_
  6
CONTINUOUS
 62
     0
100
AcDbLine
 10
852.838640978
 20
646.1703679351
 11
852.838640978
 21
641.9073049351
  0
LINE
  5
562
100
AcDbEntity
  8
_0-0_
  6
CONTINUOUS
 62
     0
100
AcDbLine
 10
858.838640978
 20
646.1703679351
 11
858.838640978
 21
641.9073049351
  0
LINE
  5
563
100
AcDbEntity
  8
_0-0_
  6
CONTINUOUS
 62
     0
100
AcDbLine
 10
861.718640978
 20
646.1703679351
 11
861.718640978
 21
641.9073049351
  0
LINE
  5
564
100
AcDbEntity
  8
_0-0_
  6
CONTINUOUS
 62
     0
100
AcDbLine
 10
860.788640978
 20
646.7073049351
 11
861.718640978
 21
646.1703679351
  0
LINE
  5
565
100
AcDbEntity
  8
_0-0_
  6
CONTINUOUS
 62
     0
100
AcDbLine
 10
850.888640978
 20
646.7073049351
 11
860.788640978
 21
646.7073049351
  0
ARC
  5
566
100
AcDbEntity
  8
_0-0_
  6
CONTINUOUS
 62
     0
100
AcDbCircle
 10
860.788640978
 20
642.8979109351
 40
3.809394
100
AcDbArc
 50
90
 51
120.789964
  0
LINE
  5
567
100
AcDbEntity
  8
_0-0_
  6
CONTINUOUS
 62
     0
100
AcDbLine
 10
851.108870978
 20
653.3751289351
 11
851.056535978
 21
652.3764979351
  0
LINE
  5
568
100
AcDbEntity
  8
_0-0_
  6
CONTINUOUS
 62
     0
100
AcDbLine
 10
860.296262978
 20
652.8936379351
 11
860.243927978
 21
651.8950069351
  0
ARC
  5
569
100
AcDbEntity
  8
_0-0_
  6
CONTINUOUS
 62
     0
100
AcDbCircle
 10
850.110242978
 20
653.4274639351
 40
0.999999
100
AcDbArc
 50
-2.999999999999
 51
87
  0
ARC
  5
56A
100
AcDbEntity
  8
_0-0_
  6
CONTINUOUS
 62
     0
100
AcDbCircle
 10
861.294893978
 20
652.8412999351
 40
0.999999
100
AcDbArc
 50
87
 51
177
  0
ARC
  5
56B
100
AcDbEntity
  8
_0-0_
  6
CONTINUOUS
 62
     0
100
AcDbCircle
 10
843.838640978
 20
647.3073049351
 40
0.999999
100
AcDbArc
 50
-90
 51
0
  0
LINE
  5
56C
100
AcDbEntity
  8
_0-0_
  6
CONTINUOUS
 62
     0
100
AcDbLine
 10
843.838640978
 20
646.3073059351
 11
839.638640978
 21
646.3073059351
  0
ARC
  5
56D
100
AcDbEntity
  8
_0-0_
  6
CONTINUOUS
 62
     0
100
AcDbCircle
 10
847.438640978
 20
653.5674769351
 40
0.999999
100
AcDbArc
 50
87
 51
180
  0
LINE
  5
56E
100
AcDbEntity
  8
_0-0_
  6
CONTINUOUS
 62
     0
100
AcDbLine
 10
864.290975978
 20
653.6856559351
 11
847.490975978
 21
654.5661049351
  0
ARC
  5
56F
100
AcDbEntity
  8
_0-0_
  6
CONTINUOUS
 62
     0
100
AcDbCircle
 10
864.238640978
 20
652.6870249351
 40
0.999999
100
AcDbArc
 50
0
 51
87
  0
LINE
  5
570
100
AcDbEntity
  8
_0-0_
  6
CONTINUOUS
 62
     0
100
AcDbLine
 10
867.838640978
 20
646.3073059351
 11
872.038640978
 21
646.3073059351
  0
ARC
  5
571
100
AcDbEntity
  8
_0-0_
  6
CONTINUOUS
 62
     0
100
AcDbCircle
 10
867.838640978
 20
647.3073049351
 40
0.999999
100
AcDbArc
 50
180
 51
270
  0
LINE
  5
572
100
AcDbEntity
  8
_0-0_
  6
CONTINUOUS
 62
     0
100
AcDbLine
 10
846.438641978
 20
647.3073049351
 11
846.438641978
 21
653.5674769351
  0
ARC
  5
573
100
AcDbEntity
  8
_0-0_
  6
CONTINUOUS
 62
     0
100
AcDbCircle
 10
843.838640978
 20
647.3073049351
 40
2.600001
100
AcDbArc
 50
-90
 51
0
  0
LINE
  5
574
100
AcDbEntity
  8
_0-0_
  6
CONTINUOUS
 62
     0
100
AcDbLine
 10
843.838640978
 20
644.7073039351
 11
839.338640978
 21
644.7073039351
  0
LINE
  5
575
100
AcDbEntity
  8
_0-0_
  6
CONTINUOUS
 62
     0
100
AcDbLine
 10
844.838639978
 20
653.5674769351
 11
844.838639978
 21
647.3073049351
  0
ARC
  5
576
100
AcDbEntity
  8
_0-0_
  6
CONTINUOUS
 62
     0
100
AcDbCircle
 10
847.438640978
 20
653.5674769351
 40
2.600001
100
AcDbArc
 50
87
 51
180
  0
LINE
  5
577
100
AcDbEntity
  8
_0-0_
  6
CONTINUOUS
 62
     0
100
AcDbLine
 10
866.838641978
 20
652.6870249351
 11
866.838641978
 21
647.3073049351
  0
ARC
  5
578
100
AcDbEntity
  8
_0-0_
  6
CONTINUOUS
 62
     0
100
AcDbCircle
 10
864.238640978
 20
652.6870249351
 40
2.600001
100
AcDbArc
 50
0
 51
87
  0
LINE
  5
579
100
AcDbEntity
  8
_0-0_
  6
CONTINUOUS
 62
     0
100
AcDbLine
 10
864.374714978
 20
655.2834619351
 11
847.574714978
 21
656.1639139351
  0
LINE
  5
57A
100
AcDbEntity
  8
_0-0_
  6
CONTINUOUS
 62
     0
100
AcDbLine
 10
865.238639978
 20
647.3073049351
 11
865.238639978
 21
652.6870249351
  0
ARC
  5
57B
100
AcDbEntity
  8
_0-0_
  6
CONTINUOUS
 62
     0
100
AcDbCircle
 10
867.838640978
 20
647.3073049351
 40
2.600001
100
AcDbArc
 50
180
 51
270
  0
LINE
  5
57C
100
AcDbEntity
  8
_0-0_
  6
CONTINUOUS
 62
     0
100
AcDbLine
 10
867.838640978
 20
644.7073039351
 11
872.338640978
 21
644.7073039351
  0
LINE
  5
57D
100
AcDbEntity
  8
_0-0_
  6
CONTINUOUS
 62
     0
100
AcDbLine
 10
872.038640978
 20
643.8073039351
 11
870.088640978
 21
643.8073039351
  0
ARC
  5
57E
100
AcDbEntity
  8
_0-0_
  6
CONTINUOUS
 62
     0
100
AcDbCircle
 10
872.038640978
 20
644.1073039351
 40
0.3
100
AcDbArc
 50
-90
 51
0
  0
ARC
  5
57F
100
AcDbEntity
  8
_0-0_
  6
CONTINUOUS
 62
     0
100
AcDbCircle
 10
872.038640978
 20
646.0073059351
 40
0.3
100
AcDbArc
 50
0
 51
90
  0
LINE
  5
580
100
AcDbEntity
  8
_0-0_
  6
CONTINUOUS
 62
     0
100
AcDbLine
 10
855.338639978
 20
640.3073059351
 11
855.838640978
 21
639.8073049351
  0
LINE
  5
581
100
AcDbEntity
  8
_0-0_
  6
CONTINUOUS
 62
     0
100
AcDbLine
 10
856.338641978
 20
640.3073059351
 11
855.838640978
 21
639.8073049351
  0
LINE
  5
582
100
AcDbEntity
  8
_0-0_
  6
CONTINUOUS
 62
     0
100
AcDbLine
 10
850.838639978
 20
638.3073049351
 11
850.838639978
 21
637.8073039351
  0
LINE
  5
583
100
AcDbEntity
  8
_0-0_
  6
CONTINUOUS
 62
     0
100
AcDbLine
 10
871.838639978
 20
647.8073059351
 11
869.088641978
 21
647.8073059351
  0
ARC
  5
584
100
AcDbEntity
  8
_0-0_
  6
CONTINUOUS
 62
     0
100
AcDbCircle
 10
871.838639978
 20
648.3073039351
 40
0.500001
100
AcDbArc
 50
-90
 51
0
  0
ARC
  5
585
100
AcDbEntity
  8
_0-0_
  6
CONTINUOUS
 62
     0
100
AcDbCircle
 10
869.088641978
 20
647.0573059351
 40
0.75
100
AcDbArc
 50
90
 51
270
  0
LINE
  5
586
100
AcDbEntity
  8
_0-0_
  6
CONTINUOUS
 62
     0
100
AcDbLine
 10
860.838641978
 20
638.3073049351
 11
872.338640978
 21
638.3073049351
  0
LINE
  5
587
100
AcDbEntity
  8
_0-0_
  6
CONTINUOUS
 62
     0
100
AcDbLine
 10
860.838641978
 20
638.3073049351
 11
860.838641978
 21
637.8073039351
  0
ARC
  5
588
100
AcDbEntity
  8
_0-0_
  6
CONTINUOUS
 62
     0
100
AcDbCircle
 10
870.088640978
 20
643.0573039351
 40
0.75
100
AcDbArc
 50
90
 51
270
  0
LINE
  5
589
100
AcDbEntity
  8
_0-0_
  6
CONTINUOUS
 62
     0
100
AcDbLine
 10
872.038640978
 20
642.3073039351
 11
870.088640978
 21
642.3073039351
  0
ARC
  5
58A
100
AcDbEntity
  8
_0-0_
  6
CONTINUOUS
 62
     0
100
AcDbCircle
 10
872.038640978
 20
642.0073039351
 40
0.3
100
AcDbArc
 50
0
 51
90
  0
LINE
  5
58B
100
AcDbEntity
  8
_0-0_
  6
CONTINUOUS
 62
     0
100
AcDbLine
 10
839.338640978
 20
638.3073049351
 11
850.838639978
 21
638.3073049351
  0
LINE
  5
58C
100
AcDbEntity
  8
_0-0_
  6
CONTINUOUS
 62
     0
100
AcDbLine
 10
839.638640978
 20
643.8073039351
 11
841.588640978
 21
643.8073039351
  0
ARC
  5
58D
100
AcDbEntity
  8
_0-0_
  6
CONTINUOUS
 62
     0
100
AcDbCircle
 10
839.638640978
 20
644.1073039351
 40
0.3
100
AcDbArc
 50
180
 51
270
  0
LINE
  5
58E
100
AcDbEntity
  8
_0-0_
  6
CONTINUOUS
 62
     0
100
AcDbLine
 10
839.338640978
 20
644.1073039351
 11
839.338640978
 21
646.0073059351
  0
ARC
  5
58F
100
AcDbEntity
  8
_0-0_
  6
CONTINUOUS
 62
     0
100
AcDbCircle
 10
839.638640978
 20
646.0073059351
 40
0.3
100
AcDbArc
 50
90
 51
180
  0
LINE
  5
590
100
AcDbEntity
  8
_0-0_
  6
CONTINUOUS
 62
     0
100
AcDbLine
 10
838.338641978
 20
647.8073059351
 11
842.588639978
 21
647.8073059351
  0
ARC
  5
591
100
AcDbEntity
  8
_0-0_
  6
CONTINUOUS
 62
     0
100
AcDbCircle
 10
838.338641978
 20
647.3073049351
 40
0.500001
100
AcDbArc
 50
90
 51
180
  0
ARC
  5
592
100
AcDbEntity
  8
_0-0_
  6
CONTINUOUS
 62
     0
100
AcDbCircle
 10
842.588639978
 20
647.0573059351
 40
0.75
100
AcDbArc
 50
-90
 51
90
  0
LINE
  5
593
100
AcDbEntity
  8
_0-0_
  6
CONTINUOUS
 62
     0
100
AcDbLine
 10
837.838640978
 20
647.3073049351
 11
837.838640978
 21
637.8073039351
  0
LINE
  5
594
100
AcDbEntity
  8
_0-0_
  6
CONTINUOUS
 62
     0
100
AcDbLine
 10
839.338640978
 20
638.3073049351
 11
839.338640978
 21
637.8073039351
  0
ARC
  5
595
100
AcDbEntity
  8
_0-0_
  6
CONTINUOUS
 62
     0
100
AcDbCircle
 10
841.588640978
 20
643.0573039351
 40
0.75
100
AcDbArc
 50
-90
 51
90
  0
ARC
  5
596
100
AcDbEntity
  8
_0-0_
  6
CONTINUOUS
 62
     0
100
AcDbCircle
 10
839.638640978
 20
640.6073059351
 40
0.3
100
AcDbArc
 50
180
 51
270
  0
LINE
  5
597
100
AcDbEntity
  8
_0-0_
  6
CONTINUOUS
 62
     0
100
AcDbLine
 10
839.338640978
 20
640.6073059351
 11
839.338640978
 21
642.0073039351
  0
ARC
  5
598
100
AcDbEntity
  8
_0-0_
  6
CONTINUOUS
 62
     0
100
AcDbCircle
 10
839.638640978
 20
642.0073039351
 40
0.3
100
AcDbArc
 50
90
 51
180
  0
LINE
  5
599
100
AcDbEntity
  8
_0-0_
  6
CONTINUOUS
 62
     0
100
AcDbLine
 10
839.638640978
 20
642.3073039351
 11
841.588640978
 21
642.3073039351
  0
ARC
  5
59A
100
AcDbEntity
  8
_0-0_
  6
CONTINUOUS
 62
     0
100
AcDbCircle
 10
871.838639978
 20
640.8073039351
 40
0.500001
100
AcDbArc
 50
-90
 51
0
  0
LINE
  5
59B
100
AcDbEntity
  8
_0-0_
  6
CONTINUOUS
 62
     0
100
AcDbLine
 10
871.838639978
 20
640.3073059351
 11
839.638640978
 21
640.3073059351
  0
LINE
  5
59C
100
AcDbEntity
  8
_0-0_
  6
CONTINUOUS
 62
     0
100
AcDbLine
 10
840.838640978
 20
637.7985349351
 11
870.838640978
 21
637.7985349351
  0
LINE
  5
59D
100
AcDbEntity
  8
_0-0_
  6
CONTINUOUS
 62
     0
100
AcDbLine
 10
839.338640978
 20
637.8073039351
 11
837.838640978
 21
637.8073039351
  0
LINE
  5
59E
100
AcDbEntity
  8
_0-0_
  6
CONTINUOUS
 62
     0
100
AcDbLine
 10
858.5719077416
 20
659.444806229
 11
858.370311828
 21
655.5981398376
  0
LINE
  5
59F
100
AcDbEntity
  8
_0-0_
  6
CONTINUOUS
 62
     0
100
AcDbLine
 10
859.0712217416
 20
659.418637229
 11
858.8696282526
 21
655.5719717338
  0
LINE
  5
5A0
100
AcDbEntity
  8
_0-0_
  6
CONTINUOUS
 62
     0
100
AcDbLine
 10
853.5787587416
 20
659.706487229
 11
853.3771652836
 21
655.8598199484
  0
LINE
  5
5A1
100
AcDbEntity
  8
_0-0_
  6
CONTINUOUS
 62
     0
100
AcDbLine
 10
853.0794447416
 20
659.732653229
 11
852.8778488916
 21
655.8859880505
  0
LINE
  5
5A2
100
AcDbEntity
  8
_0-0_
  6
CONTINUOUS
 62
     0
100
AcDbLine
 10
853.1887646316
 20
652.2647525228
 11
853.1240341962
 21
651.0298093499
  0
LINE
  5
5A3
100
AcDbEntity
  8
_0-0_
  6
CONTINUOUS
 62
     0
100
AcDbLine
 10
858.1818974825
 20
652.0030734163
 11
858.1171831962
 21
650.7681283499
  0
LINE
  5
5A4
100
AcDbEntity
  8
_0-0_
  6
CONTINUOUS
 62
     0
100
AcDbLine
 10
858.3703115049
 20
655.5981398545
 11
858.1819025727
 21
652.0030731496
  0
LINE
  5
5A5
100
AcDbEntity
  8
_0-0_
  6
CONTINUOUS
 62
     0
100
AcDbLine
 10
858.869629432
 20
655.571971672
 11
858.6812173528
 21
651.9769051606
  0
LINE
  5
5A6
100
AcDbEntity
  8
_0-0_
  6
CONTINUOUS
 62
     0
100
AcDbLine
 10
853.3771656576
 20
655.8598199288
 11
853.1887565537
 21
652.2647529462
  0
LINE
  5
5A7
100
AcDbEntity
  8
_0-0_
  6
CONTINUOUS
 62
     0
100
AcDbLine
 10
852.8778486123
 20
655.8859880652
 11
852.6894395069
 21
652.290921054
  0
LINE
  5
5A8
100
AcDbEntity
  8
_0-0_
  6
CONTINUOUS
 62
     0
100
AcDbLine
 10
852.6508891962
 20
651.5552923499
 11
852.6894479448
 21
652.2909206118
  0
LINE
  5
5A9
100
AcDbEntity
  8
_0-0_
  6
CONTINUOUS
 62
     0
100
AcDbLine
 10
858.6812173528
 20
651.9769051606
 11
858.6426661962
 21
651.2412763499
  0
ARC
  5
5AA
100
AcDbEntity
  8
_0-0_
  6
CONTINUOUS
 62
     0
100
AcDbCircle
 10
873.338639978
 20
655.8073039351
 40
0.999999
100
AcDbArc
 50
0
 51
180
  0
LINE
  5
5AB
100
AcDbEntity
  8
_0-0_
  6
CONTINUOUS
 62
     0
100
AcDbLine
 10
872.338640978
 20
648.3073039351
 11
872.338640978
 21
655.8073039351
  0
LINE
  5
5AC
100
AcDbEntity
  8
_0-0_
  6
CONTINUOUS
 62
     0
100
AcDbLine
 10
872.338640978
 20
644.1073039351
 11
872.338640978
 21
646.0073059351
  0
ARC
  5
5AD
100
AcDbEntity
  8
_0-0_
  6
CONTINUOUS
 62
     0
100
AcDbCircle
 10
874.838639978
 20
640.8073039351
 40
0.500001
100
AcDbArc
 50
180
 51
270
  0
LINE
  5
5AE
100
AcDbEntity
  8
_0-0_
  6
CONTINUOUS
 62
     0
100
AcDbLine
 10
874.338641978
 20
638.8073059351
 11
874.338641978
 21
637.8073039351
  0
LINE
  5
5AF
100
AcDbEntity
  8
_0-0_
  6
CONTINUOUS
 62
     0
100
AcDbLine
 10
872.338640978
 20
638.3073049351
 11
872.338640978
 21
637.8073039351
  0
LINE
  5
5B0
100
AcDbEntity
  8
_0-0_
  6
CONTINUOUS
 62
     0
100
AcDbLine
 10
872.338640978
 20
640.8073039351
 11
872.338640978
 21
642.0073039351
  0
LINE
  5
5B1
100
AcDbEntity
  8
_0-0_
  6
CONTINUOUS
 62
     0
100
AcDbLine
 10
884.838641978
 20
638.8073059351
 11
884.838641978
 21
637.8073039351
  0
LINE
  5
5B2
100
AcDbEntity
  8
_0-0_
  6
CONTINUOUS
 62
     0
100
AcDbLine
 10
886.338641978
 20
637.8073039351
 11
884.838641978
 21
637.8073039351
  0
LINE
  5
5B3
100
AcDbEntity
  8
_0-0_
  6
CONTINUOUS
 62
     0
100
AcDbLine
 10
874.338641978
 20
637.8073039351
 11
872.338640978
 21
637.8073039351
  0
LINE
  5
5B4
100
AcDbEntity
  8
_0-0_
  6
CONTINUOUS
 62
     0
100
AcDbLine
 10
886.338641978
 20
639.8073059351
 11
886.338641978
 21
637.8073039351
  0
ARC
  5
5B5
100
AcDbEntity
  8
_0-0_
  6
CONTINUOUS
 62
     0
100
AcDbCircle
 10
885.838641978
 20
639.8073059351
 40
0.5
100
AcDbArc
 50
0
 51
90
  0
LINE
  5
5B6
100
AcDbEntity
  8
_0-0_
  6
CONTINUOUS
 62
     0
100
AcDbLine
 10
874.588641978
 20
643.5573059351
 11
875.8386419781
 21
643.5573059351
  0
LINE
  5
5B7
100
AcDbEntity
  8
_0-0_
  6
CONTINUOUS
 62
     0
100
AcDbLine
 10
878.8386419781
 20
643.5573059351
 11
880.088641978
 21
643.5573059351
  0
LINE
  5
5B8
100
AcDbEntity
  8
_0-0_
  6
CONTINUOUS
 62
     0
100
AcDbLine
 10
874.338641978
 20
638.8073059351
 11
881.8445908518
 21
638.8073059351
  0
LINE
  5
5B9
100
AcDbEntity
  8
_0-0_
  6
CONTINUOUS
 62
     0
100
AcDbLine
 10
881.8445908518
 20
638.8073059351
 11
884.838641978
 21
638.8073059351
  0
LINE
  5
5BA
100
AcDbEntity
  8
_0-0_
  6
CONTINUOUS
 62
     0
100
AcDbLine
 10
879.838641978
 20
640.3073059351
 11
874.838639978
 21
640.3073059351
  0
LINE
  5
5BB
100
AcDbEntity
  8
_0-0_
  6
CONTINUOUS
 62
     0
100
AcDbLine
 10
885.838641978
 20
640.3073059351
 11
881.838641978
 21
640.3073059351
  0
ARC
  5
5BC
100
AcDbEntity
  8
_0-0_
  6
CONTINUOUS
 62
     0
100
AcDbCircle
 10
879.838641978
 20
640.8073059351
 40
0.25
100
AcDbArc
 50
-90
 51
0
  0
ARC
  5
5BD
100
AcDbEntity
  8
_0-0_
  6
CONTINUOUS
 62
     0
100
AcDbCircle
 10
874.838639978
 20
640.8073039351
 40
0.250001
100
AcDbArc
 50
180
 51
270
  0
LINE
  5
5BE
100
AcDbEntity
  8
_0-0_
  6
CONTINUOUS
 62
     0
100
AcDbLine
 10
880.088641978
 20
640.8073059351
 11
880.088641978
 21
643.5573059351
  0
LINE
  5
5BF
100
AcDbEntity
  8
_0-0_
  6
CONTINUOUS
 62
     0
100
AcDbLine
 10
874.588641978
 20
640.8073039351
 11
874.588641978
 21
643.5573059351
  0
LINE
  5
5C0
100
AcDbEntity
  8
_0-0_
  6
CONTINUOUS
 62
     0
100
AcDbLine
 10
879.838641978
 20
640.5573059351
 11
874.838639978
 21
640.5573059351
  0
LINE
  5
5C1
100
AcDbEntity
  8
_0-0_
  6
CONTINUOUS
 62
     0
100
AcDbLine
 10
874.338641978
 20
655.8073039351
 11
874.338641978
 21
645.3073059351
  0
LINE
  5
5C2
100
AcDbEntity
  8
_0-0_
  6
CONTINUOUS
 62
     0
100
AcDbLine
 10
874.338641978
 20
643.8073059351
 11
874.338641978
 21
640.8073039351
  0
LINE
  5
5C3
100
AcDbEntity
  8
_0-0_
  6
CONTINUOUS
 62
     0
100
AcDbLine
 10
880.338641978
 20
640.8073059351
 11
880.338641978
 21
643.8073059351
  0
LINE
  5
5C4
100
AcDbEntity
  8
_0-0_
  6
CONTINUOUS
 62
     0
100
AcDbLine
 10
881.838641978
 20
644.8073059351
 11
881.838641978
 21
640.3073059351
  0
ARC
  5
5C5
100
AcDbEntity
  8
_0-0_
  6
CONTINUOUS
 62
     0
100
AcDbCircle
 10
881.338641978
 20
644.8073059351
 40
0.5
100
AcDbArc
 50
0
 51
90
  0
ARC
  5
5C6
100
AcDbEntity
  8
_0-0_
  6
CONTINUOUS
 62
     0
100
AcDbCircle
 10
879.838641978
 20
640.8073059351
 40
0.5
100
AcDbArc
 50
-90
 51
0
  0
LINE
  5
5C7
100
AcDbEntity
  8
_0-0_
  6
CONTINUOUS
 62
     0
100
AcDbLine
 10
881.338641978
 20
645.3073059351
 11
880.088641978
 21
645.3073059351
  0
ARC
  5
5C8
100
AcDbEntity
  8
_0-0_
  6
CONTINUOUS
 62
     0
100
AcDbCircle
 10
880.088641978
 20
644.3073059351
 40
1
100
AcDbArc
 50
90
 51
180
  0
LINE
  5
5C9
100
AcDbEntity
  8
_0-0_
  6
CONTINUOUS
 62
     0
100
AcDbLine
 10
879.088641978
 20
644.3073059351
 11
879.088641978
 21
643.8073059351
  0
LINE
  5
5CA
100
AcDbEntity
  8
_0-0_
  6
CONTINUOUS
 62
     0
100
AcDbLine
 10
879.088641978
 20
643.8073059351
 11
880.338641978
 21
643.8073059351
  0
LINE
  5
5CB
100
AcDbEntity
  8
_0-0_
  6
CONTINUOUS
 62
     0
100
AcDbLine
 10
874.338641978
 20
643.8073059351
 11
875.588641978
 21
643.8073059351
  0
LINE
  5
5CC
100
AcDbEntity
  8
_0-0_
  6
CONTINUOUS
 62
     0
100
AcDbLine
 10
875.588641978
 20
644.3073059351
 11
875.588641978
 21
643.8073059351
  0
ARC
  5
5CD
100
AcDbEntity
  8
_0-0_
  6
CONTINUOUS
 62
     0
100
AcDbCircle
 10
874.588641978
 20
644.3073059351
 40
1
100
AcDbArc
 50
0
 51
90
  0
LINE
  5
5CE
100
AcDbEntity
  8
_0-0_
  6
CONTINUOUS
 62
     0
100
AcDbLine
 10
874.588641978
 20
645.3073059351
 11
874.338641978
 21
645.3073059351
  0
LINE
  5
5CF
100
AcDbEntity
  8
_0-0_
  6
CONTINUOUS
 62
     0
100
AcDbLine
 10
875.8386419781
 20
643.5573059351
 11
875.8386419781
 21
662.476861795
  0
LINE
  5
5D0
100
AcDbEntity
  8
_0-0_
  6
CONTINUOUS
 62
     0
100
AcDbLine
 10
878.8386419781
 20
643.5573059351
 11
878.8386419781
 21
663.940124791
  0
ARC
  5
5D1
100
AcDbEntity
  8
_0-0_
  6
CONTINUOUS
 62
     0
100
AcDbCircle
 10
900.8386419781
 20
662.476861795
 40
25
100
AcDbArc
 50
78.59045565079
 51
180
  0
ARC
  5
5D2
100
AcDbEntity
  8
_0-0_
  6
CONTINUOUS
 62
     0
100
AcDbCircle
 10
901.914587572
 20
663.208493293
 40
23.08754100601
100
AcDbArc
 50
80.80133910481
 51
181.8159758207
  0
ARC
  5
5D3
100
AcDbEntity
  8
_0-0_
  6
CONTINUOUS
 62
     0
100
AcDbCircle
 10
905.6852474503
 20
686.4926985574
 40
0.5
100
AcDbArc
 50
-99.19866089519
 51
78.59045565079
  0
CIRCLE
  5
5D4
100
AcDbEntity
  8
_0-1_PRO0
  6
CONTINUOUS
 62
     0
100
AcDbCircle
 10
289.5560569944
 20
677.3544894518
 40
0.9
  0
LINE
  5
5D5
100
AcDbEntity
  8
_0-1_PRO0
  6
CONTINUOUS
 62
     0
100
AcDbLine
 10
289.5560569944
 20
677.3544894518
 11
276.8148426395
 21
655.2860588724
  0
CIRCLE
  5
5D6
100
AcDbEntity
  8
_0-1_PRO0
  6
CONTINUOUS
 62
     0
100
AcDbCircle
 10
273.8148426395
 20
650.0899058724
 40
6
  0
TEXT
  5
5D7
100
AcDbEntity
  8
_0-1_PRO0
  6
CONTINUOUS
 62
     0
100
AcDbText
 10
269.6775465259
 20
645.2587704367
 40
9
  1
８
  7
STANDARD
100
AcDbText
  0
TEXT
  5
5D8
100
AcDbEntity
  8
_2-0_
  6
CONTINUOUS
 62
     0
100
AcDbText
 10
788.4589656255
 20
274.4090309915
 40
7.5
  1
２００ＦＹＹＧ－Ａ７００
  7
STANDARD
100
AcDbText
  0
TEXT
  5
5D9
100
AcDbEntity
  8
_2-0_
  6
CONTINUOUS
 62
     0
100
AcDbText
 10
788.4589656255
 20
255.3778453541
 40
7.5
  1
 　　〃　　　７５０
  7
STANDARD
100
AcDbText
  0
TEXT
  5
5DA
100
AcDbEntity
  8
_2-0_
  6
CONTINUOUS
 62
     0
100
AcDbText
 10
788.4589656255
 20
237.3778453541
 40
7.5
  1
 　　〃　　　８００
  7
STANDARD
100
AcDbText
  0
TEXT
  5
5DB
100
AcDbEntity
  8
_2-0_
  6
CONTINUOUS
 62
     0
100
AcDbText
 10
788.4589656255
 20
219.3778453541
 40
7.5
  1
 　　〃　　　８５０
  7
STANDARD
100
AcDbText
  0
TEXT
  5
5DC
100
AcDbEntity
  8
_2-0_
  6
CONTINUOUS
 62
     0
100
AcDbText
 10
788.4589656255
 20
201.3778453541
 40
7.5
  1
 　　〃　　　９００
  7
STANDARD
100
AcDbText
  0
TEXT
  5
5DD
100
AcDbEntity
  8
_0-1_PRO0
  6
CONTINUOUS
 62
     0
100
AcDbText
 10
191.9874456405
 20
462.3478844066
 40
9
  1
130
  7
STANDARD
100
AcDbText
  0
TEXT
  5
5DE
100
AcDbEntity
  8
_0-1_PRO0
  6
CONTINUOUS
 62
     0
100
AcDbText
 10
369.5259883376
 20
461.5447717577
 40
9
  1
Ｃ
  7
STANDARD
100
AcDbText
  0
TEXT
  5
5DF
100
AcDbEntity
  8
_0-1_PRO0
  6
CONTINUOUS
 62
     0
100
AcDbText
 10
792.476013319
 20
461.5447717577
 40
9
  1
Ｃ
  7
STANDARD
100
AcDbText
  0
TEXT
  5
5E0
100
AcDbEntity
  8
_2-0_
  6
CONTINUOUS
 62
     0
100
AcDbText
 10
964.514300022
 20
461.9074400582
 40
9
  1
130
  7
STANDARD
100
AcDbText
  0
TEXT
  5
5E1
100
AcDbEntity
  8
_0-0_
  6
CONTINUOUS
 62
     0
100
AcDbText
 10
403.2714656255
 20
273.3778453541
 40
7.5
  1
２００ＦＹＹ－Ａ７００～９００
  7
STANDARD
100
AcDbText
  0
TEXT
  5
5E2
100
AcDbEntity
  8
_0-0_
  6
CONTINUOUS
 62
     0
100
AcDbText
 10
403.2714656255
 20
237.3778453541
 40
7.5
  1
２００ＦＹＹＨ－７００～９００
  7
STANDARD
100
AcDbText
  0
TEXT
  5
5E3
100
AcDbEntity
  8
_0-0_
  6
CONTINUOUS
 62
     0
100
AcDbText
 10
403.2714656255
 20
183.3778453541
 40
7.5
  1
２００ＦＹＹＪ－７００～９００
 41
0.9986666666667
  7
STANDARD
100
AcDbText
  0
TEXT
  5
5E4
100
AcDbEntity
  8
_0-0_
  6
CONTINUOUS
 62
     0
100
AcDbText
 10
406.0839656255
 20
165.3778453541
 40
7.5
  1
ＦＳ５００～９００
 41
0.9986666666667
  7
STANDARD
100
AcDbText
  0
TEXT
  5
5E5
100
AcDbEntity
  8
_0-0_
  6
CONTINUOUS
 62
     0
100
AcDbText
 10
406.3964656255
 20
129.3778453541
 40
7.49
  1
なべＭ６×３５
 41
1.001335113485
  7
STANDARD
100
AcDbText
  0
TEXT
  5
5E6
100
AcDbEntity
  8
_0-0_
  6
CONTINUOUS
 62
     0
100
AcDbText
 10
407.6464656255
 20
111.3778453541
 40
7.49
  1
Ｍ６×４０
 41
1.001335113485
  7
STANDARD
100
AcDbText
  0
TEXT
  5
5E7
100
AcDbEntity
  8
_0-0_
  6
CONTINUOUS
 62
     0
100
AcDbText
 10
407.0214656255
 20
93.37784535411
 40
7.5
  1
ＡＧ－６６０
  7
STANDARD
100
AcDbText
  0
TEXT
  5
5E8
100
AcDbEntity
  8
_0-0_
  6
CONTINUOUS
 62
     0
100
AcDbText
 10
405.4589656255
 20
75.37784535411
 40
7.5
  1
１.５×１８×６.５穴
  7
STANDARD
100
AcDbText
  0
TEXT
  5
5E9
100
AcDbEntity
  8
_0-0_
  6
CONTINUOUS
 62
     0
100
AcDbText
 10
406.3964656255
 20
57.37784535411
 40
7.5
  1
ｔ１．０×ｗ３０
 41
0.9986666666667
  7
STANDARD
100
AcDbText
  0
TEXT
  5
5EA
100
AcDbEntity
  8
_0-0_
  6
CONTINUOUS
 62
     0
100
AcDbText
 10
256.0839656255
 20
129.3778453541
 40
7.49
  1
ステン小ねじ
 41
1.001335113485
  7
STANDARD
100
AcDbText
  0
ENDSEC
  0
SECTION
  2
OBJECTS
  0
DICTIONARY
  5
5EB
100
AcDbDictionary
  3
ACAD_GROUP
350
5EC
  3
ACAD_IMAGE_DICT
350
5ED
  3
ACAD_MLINESTYLE
350
5EE
  0
DICTIONARY
  5
5EC
330
5EB
100
AcDbDictionary
  0
DICTIONARY
  5
5ED
100
AcDbDictionary
  0
DICTIONARY
  5
5EE
100
AcDbDictionary
  3
STANDARD
350
5EF
  0
RASTERVARIABLES
  5
5F0
100
AcDbRasterVariables
 90
     0
 70
     1
 71
     1
 72
     0
  0
MLINESTYLE
  5
5EF
100
AcDbMlineStyle
  2
STANDARD
 70
     0
  3

 62
   256
 51
90
 52
90
 71
     0
  0
ENDSEC
  0
EOF
