  0
SECTION
  2
HEADER
  9
$ACADVER
  1
AC1009
  9
$INSBASE
 10
0
 20
0
 30
0
  9
$EXTMIN
 10
0
 20
0
  9
$EXTMAX
 10
840
 20
594
  9
$LIMMIN
 10
0
 20
0
  9
$LIMMAX
 10
840
 20
594
  9
$LTSCALE
 40
2
  0
ENDSEC
  0
SECTION
  2
TABLES
  0
TABLE
  2
LTYPE
 70
     9
  0
LTYPE
  2
CONTINUOUS
 70
    64
  3
実線
 72
    65
 73
     0
 40
0.0
  0
LTYPE
  2
DASHED1
 70
    64
  3
--  --  --  --  --  --  --  --  
 72
    65
 73
     2
 40
2.5
 49
1.25
 49
-1.25
  0
LTYPE
  2
DASHED2
 70
    64
  3
----    ----    ----    ----    
 72
    65
 73
     2
 40
5.0
 49
2.5
 49
-2.5
  0
LTYPE
  2
DASHED3
 70
    64
  3
------  ------  ------  ------  
 72
    65
 73
     2
 40
5.0
 49
3.75
 49
-1.25
  0
LTYPE
  2
CENTER1
 70
    64
  3
----- - ----- - ----- - ----- - 
 72
    65
 73
     4
 40
10.0
 49
6.25
 49
-1.25
 49
1.25
 49
-1.25
  0
LTYPE
  2
CENTER2
 70
    64
  3
----------  --  ----------  --  
 72
    65
 73
     4
 40
20.0
 49
12.5
 49
-2.5
 49
2.5
 49
-2.5
  0
LTYPE
  2
PHANTOM1
 70
    64
  3
--- - - --- - - --- - - --- - - 
 72
    65
 73
     6
 40
10.0
 49
3.25
 49
-1.25
 49
1.25
 49
-1.25
 49
1.25
 49
-1.25
  0
LTYPE
  2
PHANTOM2
 70
    64
  3
--------  -  -  --------  -  -  
 72
    65
 73
     6
 40
20.0
 49
10.0
 49
-2.5
 49
1.25
 49
-2.5
 49
1.25
 49
-2.5
  0
LTYPE
  2
DOT
 70
    64
  3
-   -   -   -   -   -   -   -   
 72
    65
 73
     2
 40
2.5
 49
0.625
 49
-1.875
  0
LTYPE
  2
DUMMY
 70
    64
  3
ダミー
 72
    65
 73
     0
 40
0.0
  0
LTYPE
  2
RAND1
 70
    64
  3
ランダム線1
 72
    65
 73
     4
 40
10.0
 49
1.0
 49
-2.0
 49
3.0
 49
-4.0
  0
LTYPE
  2
RAND2
 70
    64
  3
ランダム線2
 72
    65
 73
     4
 40
14.0
 49
2.0
 49
-3.0
 49
4.0
 49
-5.0
  0
LTYPE
  2
RAND3
 70
    64
  3
ランダム線3
 72
    65
 73
     4
 40
18.0
 49
3.0
 49
-4.0
 49
5.0
 49
-6.0
  0
LTYPE
  2
RAND4
 70
    64
  3
ランダム線4
 72
    65
 73
     4
 40
22.0
 49
4.0
 49
-5.0
 49
6.0
 49
-7.0
  0
LTYPE
  2
RAND5
 70
    64
  3
ランダム線5
 72
    65
 73
     4
 40
26.0
 49
5.0
 49
-6.0
 49
7.0
 49
-8.0
  0
LTYPE
  2
LONG1
 70
    64
  3
----------  --  ----------  --  
 72
    65
 73
     4
 40
40.0
 49
32.5
 49
-2.5
 49
2.5
 49
-2.5
  0
LTYPE
  2
LONG2
 70
    64
  3
--------  -  -  --------  -  -  
 72
    65
 73
     6
 40
40.0
 49
30.0
 49
-2.5
 49
1.25
 49
-2.5
 49
1.25
 49
-2.5
  0
LTYPE
  2
LONG3
 70
    64
  3
+++++++++++++++..+++++++++++++++
 72
    65
 73
     2
 40
40.0
 49
37.5
 49
-2.5
  0
LTYPE
  2
LONG4
 70
    64
  3
+++++++++++++++..+++++++++++++++
 72
    65
 73
     2
 40
80.0
 49
75.0
 49
-5.0
  0
LTYPE
  2
LONG5
 70
    64
  3
----------  --  ----------  --  
 72
    65
 73
     4
 40
60.0
 49
37.5
 49
-7.5
 49
7.5
 49
-7.5
  0
LTYPE
  2
dashed
 70
   64
  3
-------   -------------   ------
 72
   65
 73
    2
 40
7.5
 49
6
 49
-1.5
  0
LTYPE
  2
dashed_spaced
 70
   64
  3
----        --------        ----
 72
   65
 73
    2
 40
12
 49
6
 49
-6
  0
LTYPE
  2
long_dashed_dotted
 70
   64
  3
------------- --- --------------
 72
   65
 73
    4
 40
15.25
 49
12
 49
-1.5
 49
0.25
 49
-1.5
  0
LTYPE
  2
long_dashed_double-dotted
 70
   64
  3
----------- --- --- ------------
 72
   65
 73
    6
 40
17
 49
12
 49
-1.5
 49
0.25
 49
-1.5
 49
0.25
 49
-1.5
  0
LTYPE
  2
long_dashed_triplicate-dotted
 70
   64
  3
--------- --- --- --- ----------
 72
   65
 73
    8
 40
18.75
 49
12
 49
-1.5
 49
0.25
 49
-1.5
 49
0.25
 49
-1.5
 49
0.25
 49
-1.5
  0
LTYPE
  2
dotted
 70
   64
  3
   -       -       -       -    
 72
   65
 73
    2
 40
1.75
 49
0.25
 49
-1.5
  0
LTYPE
  2
chain
 70
   64
  3
-------------- -- --------------
 72
   65
 73
    4
 40
18.5
 49
12
 49
-1.5
 49
3.5
 49
-1.5
  0
LTYPE
  2
chain_double_dash
 70
   64
  3
------------ -- -- -------------
 72
   65
 73
    6
 40
23.5
 49
12
 49
-1.5
 49
3.5
 49
-1.5
 49
3.5
 49
-1.5
  0
LTYPE
  2
dashed_dotted
 70
   64
  3
-----------     -     ----------
 72
   65
 73
    4
 40
9.25
 49
6
 49
-1.5
 49
0.25
 49
-1.5
  0
LTYPE
  2
double-dashed_dotted
 70
   64
  3
------   -----------   -   -----
 72
   65
 73
    6
 40
16.75
 49
6
 49
-1.5
 49
6
 49
-1.5
 49
0.25
 49
-1.5
  0
LTYPE
  2
dashed_double-dotted
 70
   64
  3
---------    -    -    ---------
 72
   65
 73
    6
 40
11
 49
6
 49
-1.5
 49
0.25
 49
-1.5
 49
0.25
 49
-1.5
  0
LTYPE
  2
double-dashed_double-dotted
 70
   64
  3
-----   ---------   -   -   ----
 72
   65
 73
    8
 40
18.5
 49
6
 49
-1.5
 49
6
 49
-1.5
 49
0.25
 49
-1.5
 49
0.25
 49
-1.5
  0
LTYPE
  2
dashed_triplicate-dotted
 70
   64
  3
-------    -    -    -    ------
 72
   65
 73
    8
 40
12.75
 49
6
 49
-1.5
 49
0.25
 49
-1.5
 49
0.25
 49
-1.5
 49
0.25
 49
-1.5
  0
LTYPE
  2
double-dashed_triplicate-dotted
 70
   64
  3
-----  ---------  -  -  -  -----
 72
   65
 73
   10
 40
20.25
 49
6
 49
-1.5
 49
6
 49
-1.5
 49
0.25
 49
-1.5
 49
0.25
 49
-1.5
 49
0.25
 49
-1.5
  0
LTYPE
  2
undefined
 70
   64
  3
--------------------------------
 72
   65
 73
    0
 40
0
  0
LTYPE
  2
DOT_17
 70
   64
  3
----        --------        ----
 72
   65
 73
    2
 40
2
 49
1
 49
-1
  0
LTYPE
  2
DASHED
 70
   64
  3
----        --------        ----
 72
   65
 73
    2
 40
4
 49
2
 49
-2
  0
LTYPE
  2
DASHED2_19
 70
   64
  3
-----      ----------      -----
 72
   65
 73
    2
 40
8
 49
5
 49
-3
  0
LTYPE
  2
CENTER
 70
   64
  3
--------------- - --------------
 72
   65
 73
    4
 40
23
 49
20
 49
-1
 49
1
 49
-1
  0
LTYPE
  2
CENTERX2
 70
   64
  3
--------------- - --------------
 72
   65
 73
    4
 40
43
 49
40
 49
-1
 49
1
 49
-1
  0
LTYPE
  2
CENTER2_22
 70
   64
  3
-------------  --  -------------
 72
   65
 73
    4
 40
13
 49
10
 49
-1
 49
1
 49
-1
  0
LTYPE
  2
PHANTOM
 70
   64
  3
-------------- - - -------------
 72
   65
 73
    6
 40
25
 49
20
 49
-1
 49
1
 49
-1
 49
1
 49
-1
  0
LTYPE
  2
PHANTOMX2
 70
   64
  3
-------------- - - -------------
 72
   65
 73
    6
 40
45
 49
40
 49
-1
 49
1
 49
-1
 49
1
 49
-1
  0
LTYPE
  2
PHANTOM2_25
 70
   64
  3
-----------  --  --  -----------
 72
   65
 73
    6
 40
15
 49
10
 49
-1
 49
1
 49
-1
 49
1
 49
-1
  0
LTYPE
  2
ACAD_ISO06W100
 70
   64
  3
------------- - - - ------------
 72
   65
 73
    8
 40
47
 49
40
 49
-1
 49
1
 49
-1
 49
1
 49
-1
 49
1
 49
-1
  0
LTYPE
  2
ACAD_ISO14W100
 70
   64
  3
------------- - - - ------------
 72
   65
 73
    8
 40
27
 49
20
 49
-1
 49
1
 49
-1
 49
1
 49
-1
 49
1
 49
-1
  0
LTYPE
  2
ACAD_ISO11W100
 70
   64
  3
------- -------------- - -------
 72
   65
 73
    6
 40
44
 49
20
 49
-1
 49
20
 49
-1
 49
1
 49
-1
  0
LTYPE
  2
ACAD_ISO13W100
 70
   64
  3
------- ------------- - - ------
 72
   65
 73
    8
 40
46
 49
20
 49
-1
 49
20
 49
-1
 49
1
 49
-1
 49
1
 49
-1
  0
LTYPE
  2
HIDDEN
 70
   64
  3
------     -----------     -----
 72
   65
 73
    2
 40
1.5
 49
1
 49
-0.5
  0
ENDTAB
  0
TABLE
  2
STYLE
  5
3
100
AcDbSymbolTable
 70
     1
  0
STYLE
  5
10
100
AcDbSymbolTableRecord
100
AcDbTextStyleTableRecord
  2
STANDARD
 70
     0
 40
0.0
 41
1.0
 50
0.0
 71
     0
 42
0.2
  3
txt
  4
bigfont.shx
  0
STYLE
  5
26
100
AcDbSymbolTableRecord
100
AcDbTextStyleTableRecord
  2
TATEGAKI
 70
    68
 40
0.0
 41
1.0
 50
0.0
 71
     0
 42
1.0
  3
txt
  4
bigfont.shx
  0
ENDTAB
  0
TABLE
  2
LAYER
 70
    5
  0
LAYER
  2
_0-0_0
 70
   64
 62
    7
  6
CONTINUOUS
  0
LAYER
  2
_0-2_寸法
 70
   64
 62
    7
  6
CONTINUOUS
  0
LAYER
  2
_0-3_躯体と製品
 70
   64
 62
    7
  6
CONTINUOUS
  0
LAYER
  2
_0-4_図枠
 70
   64
 62
    7
  6
CONTINUOUS
  0
LAYER
  2
ADD_LINE
 70
   64
 62
    7
  6
CONTINUOUS
  0
ENDTAB
  0
ENDSEC
  0
SECTION
  2
BLOCKS
  0
BLOCK
  2
-000-BK6
 70
   64
 10
0
 20
0
 30
0
  0
CIRCLE
  8
_0-2_寸法
  6
CONTINUOUS
 62
    7
 10
146.5
 20
386
 40
0.25
  0
LINE
  8
_0-2_寸法
  6
CONTINUOUS
 62
    7
 10
146.5
 20
385.75
 11
146.5
 21
386.25
  0
LINE
  8
_0-2_寸法
  6
CONTINUOUS
 62
    7
 10
146.5
 20
386.5
 11
146.5
 21
387
  0
ENDBLK
  0
BLOCK
  2
-001-BK7
 70
   64
 10
0
 20
0
 30
0
  0
CIRCLE
  8
_0-2_寸法
  6
CONTINUOUS
 62
    7
 10
146.5
 20
454.06340021199998
 40
0.25
  0
LINE
  8
_0-2_寸法
  6
CONTINUOUS
 62
    7
 10
146.5
 20
454.31340021199998
 11
146.5
 21
453.81340021199998
  0
LINE
  8
_0-2_寸法
  6
CONTINUOUS
 62
    7
 10
146.5
 20
453.56340021199998
 11
146.5
 21
453.06340021199998
  0
ENDBLK
  0
BLOCK
  2
-002-BK8
 70
   64
 10
0
 20
0
 30
0
  0
CIRCLE
  8
_0-2_寸法
  6
CONTINUOUS
 62
    7
 10
677.5
 20
490.76340021200002
 40
0.25
  0
LINE
  8
_0-2_寸法
  6
CONTINUOUS
 62
    7
 10
677.75
 20
490.76340021200002
 11
677.25
 21
490.76340021200002
  0
LINE
  8
_0-2_寸法
  6
CONTINUOUS
 62
    7
 10
677
 20
490.76340021200002
 11
676.5
 21
490.76340021200002
  0
ENDBLK
  0
BLOCK
  2
-003-BK9
 70
   64
 10
0
 20
0
 30
0
  0
CIRCLE
  8
_0-2_寸法
  6
CONTINUOUS
 62
    7
 10
217.5
 20
490.76340021200002
 40
0.25
  0
LINE
  8
_0-2_寸法
  6
CONTINUOUS
 62
    7
 10
217.25
 20
490.76340021200002
 11
217.75
 21
490.76340021200002
  0
LINE
  8
_0-2_寸法
  6
CONTINUOUS
 62
    7
 10
218
 20
490.76340021200002
 11
218.5
 21
490.76340021200002
  0
ENDBLK
  0
BLOCK
  2
-004-BK10
 70
   64
 10
0
 20
0
 30
0
  0
CIRCLE
  8
_0-2_寸法
  6
CONTINUOUS
 62
    7
 10
270.69999999999999
 20
497.76340021200002
 40
0.25
  0
LINE
  8
_0-2_寸法
  6
CONTINUOUS
 62
    7
 10
270.69999999999999
 20
497.51340021200002
 11
270.69999999999999
 21
498.01340021200002
  0
LINE
  8
_0-2_寸法
  6
CONTINUOUS
 62
    7
 10
270.69999999999999
 20
498.26340021200002
 11
270.69999999999999
 21
498.76340021200002
  0
ENDBLK
  0
BLOCK
  2
-005-BK11
 70
   64
 10
0
 20
0
 30
0
  0
CIRCLE
  8
_0-2_寸法
  6
CONTINUOUS
 62
    7
 10
270.69999999999999
 20
512.76340021199996
 40
0.25
  0
LINE
  8
_0-2_寸法
  6
CONTINUOUS
 62
    7
 10
270.69999999999999
 20
513.01340021199996
 11
270.69999999999999
 21
512.51340021199996
  0
LINE
  8
_0-2_寸法
  6
CONTINUOUS
 62
    7
 10
270.69999999999999
 20
512.26340021199996
 11
270.69999999999999
 21
511.76340021200002
  0
ENDBLK
  0
BLOCK
  2
-006-BK12
 70
   64
 10
0
 20
0
 30
0
  0
CIRCLE
  8
_0-2_寸法
  6
CONTINUOUS
 62
    7
 10
270.69999999999999
 20
461.76340021200002
 40
0.25
  0
LINE
  8
_0-2_寸法
  6
CONTINUOUS
 62
    7
 10
270.69999999999999
 20
461.51340021200002
 11
270.69999999999999
 21
462.01340021200002
  0
LINE
  8
_0-2_寸法
  6
CONTINUOUS
 62
    7
 10
270.69999999999999
 20
462.26340021200002
 11
270.69999999999999
 21
462.76340021200002
  0
ENDBLK
  0
BLOCK
  2
-007-BK13
 70
   64
 10
0
 20
0
 30
0
  0
CIRCLE
  8
_0-2_寸法
  6
CONTINUOUS
 62
    7
 10
270.69999999999999
 20
497.76340021200002
 40
0.25
  0
LINE
  8
_0-2_寸法
  6
CONTINUOUS
 62
    7
 10
270.69999999999999
 20
498.01340021200002
 11
270.69999999999999
 21
497.51340021200002
  0
LINE
  8
_0-2_寸法
  6
CONTINUOUS
 62
    7
 10
270.69999999999999
 20
497.26340021200002
 11
270.69999999999999
 21
496.76340021200002
  0
ENDBLK
  0
BLOCK
  2
-008-BK14
 70
   64
 10
0
 20
0
 30
0
  0
CIRCLE
  8
_0-2_寸法
  6
CONTINUOUS
 62
    7
 10
235.69999999999999
 20
537.76340021199996
 40
0.25
  0
LINE
  8
_0-2_寸法
  6
CONTINUOUS
 62
    7
 10
235.94999999999999
 20
537.76340021199996
 11
235.44999999999999
 21
537.76340021199996
  0
LINE
  8
_0-2_寸法
  6
CONTINUOUS
 62
    7
 10
235.19999999999999
 20
537.76340021199996
 11
234.69999999999999
 21
537.76340021199996
  0
ENDBLK
  0
BLOCK
  2
-009-BK15
 70
   64
 10
0
 20
0
 30
0
  0
CIRCLE
  8
_0-2_寸法
  6
CONTINUOUS
 62
    7
 10
215.69999999999999
 20
537.76340021199996
 40
0.25
  0
LINE
  8
_0-2_寸法
  6
CONTINUOUS
 62
    7
 10
215.44999999999999
 20
537.76340021199996
 11
215.94999999999999
 21
537.76340021199996
  0
LINE
  8
_0-2_寸法
  6
CONTINUOUS
 62
    7
 10
216.19999999999999
 20
537.76340021199996
 11
216.69999999999999
 21
537.76340021199996
  0
ENDBLK
  0
BLOCK
  2
-010-BK16
 70
   64
 10
0
 20
0
 30
0
  0
CIRCLE
  8
_0-2_寸法
  6
CONTINUOUS
 62
    7
 10
235.69999999999999
 20
547.76340021199996
 40
0.25
  0
LINE
  8
_0-2_寸法
  6
CONTINUOUS
 62
    7
 10
235.94999999999999
 20
547.76340021199996
 11
235.44999999999999
 21
547.76340021199996
  0
LINE
  8
_0-2_寸法
  6
CONTINUOUS
 62
    7
 10
235.19999999999999
 20
547.76340021199996
 11
234.69999999999999
 21
547.76340021199996
  0
ENDBLK
  0
BLOCK
  2
-011-BK17
 70
   64
 10
0
 20
0
 30
0
  0
CIRCLE
  8
_0-2_寸法
  6
CONTINUOUS
 62
    7
 10
202.5
 20
547.76340021199996
 40
0.25
  0
LINE
  8
_0-2_寸法
  6
CONTINUOUS
 62
    7
 10
202.25
 20
547.76340021199996
 11
202.75
 21
547.76340021199996
  0
LINE
  8
_0-2_寸法
  6
CONTINUOUS
 62
    7
 10
203
 20
547.76340021199996
 11
203.5
 21
547.76340021199996
  0
ENDBLK
  0
BLOCK
  2
-012-BK18
 70
   64
 10
0
 20
0
 30
0
  0
CIRCLE
  8
_0-2_寸法
  6
CONTINUOUS
 62
    7
 10
126.5
 20
512.76340021199996
 40
0.25
  0
LINE
  8
_0-2_寸法
  6
CONTINUOUS
 62
    7
 10
126.5
 20
513.01340021199996
 11
126.5
 21
512.51340021199996
  0
LINE
  8
_0-2_寸法
  6
CONTINUOUS
 62
    7
 10
126.5
 20
512.26340021199996
 11
126.5
 21
511.76340021200002
  0
ENDBLK
  0
BLOCK
  2
-013-BK19
 70
   64
 10
0
 20
0
 30
0
  0
CIRCLE
  8
_0-2_寸法
  6
CONTINUOUS
 62
    7
 10
126.5
 20
386
 40
0.25
  0
LINE
  8
_0-2_寸法
  6
CONTINUOUS
 62
    7
 10
126.5
 20
385.75
 11
126.5
 21
386.25
  0
LINE
  8
_0-2_寸法
  6
CONTINUOUS
 62
    7
 10
126.5
 20
386.5
 11
126.5
 21
387
  0
ENDBLK
  0
BLOCK
  2
-014-BK20
 70
   64
 10
0
 20
0
 30
0
  0
CIRCLE
  8
_0-2_寸法
  6
CONTINUOUS
 62
    7
 10
202.5
 20
562.76340021199996
 40
0.25
  0
LINE
  8
_0-2_寸法
  6
CONTINUOUS
 62
    7
 10
202.25
 20
562.76340021199996
 11
202.75
 21
562.76340021199996
  0
LINE
  8
_0-2_寸法
  6
CONTINUOUS
 62
    7
 10
203
 20
562.76340021199996
 11
203.5
 21
562.76340021199996
  0
ENDBLK
  0
BLOCK
  2
-015-BK21
 70
   64
 10
0
 20
0
 30
0
  0
CIRCLE
  8
_0-2_寸法
  6
CONTINUOUS
 62
    7
 10
677.5
 20
562.76340021199996
 40
0.25
  0
LINE
  8
_0-2_寸法
  6
CONTINUOUS
 62
    7
 10
677.75
 20
562.76340021199996
 11
677.25
 21
562.76340021199996
  0
LINE
  8
_0-2_寸法
  6
CONTINUOUS
 62
    7
 10
677
 20
562.76340021199996
 11
676.5
 21
562.76340021199996
  0
ENDBLK
  0
BLOCK
  2
-016-BK22
 70
   64
 10
0
 20
0
 30
0
  0
CIRCLE
  8
_0-2_寸法
  6
CONTINUOUS
 62
    7
 10
737.5
 20
343.58791542130001
 40
0.25
  0
LINE
  8
_0-2_寸法
  6
CONTINUOUS
 62
    7
 10
737.5
 20
343.33791542130001
 11
737.5
 21
343.83791542130001
  0
LINE
  8
_0-2_寸法
  6
CONTINUOUS
 62
    7
 10
737.5
 20
344.08791542130001
 11
737.5
 21
344.58791542130001
  0
ENDBLK
  0
BLOCK
  2
-017-BK23
 70
   64
 10
0
 20
0
 30
0
  0
CIRCLE
  8
_0-2_寸法
  6
CONTINUOUS
 62
    7
 10
737.5
 20
433.58791542130001
 40
0.25
  0
LINE
  8
_0-2_寸法
  6
CONTINUOUS
 62
    7
 10
737.5
 20
433.83791542130001
 11
737.5
 21
433.33791542130001
  0
LINE
  8
_0-2_寸法
  6
CONTINUOUS
 62
    7
 10
737.5
 20
433.08791542130001
 11
737.5
 21
432.58791542130001
  0
ENDBLK
  0
BLOCK
  2
-018-BK24
 70
   64
 10
0
 20
0
 30
0
  0
CIRCLE
  8
_0-2_寸法
  6
CONTINUOUS
 62
    7
 10
717.5
 20
343.58791542130001
 40
0.25
  0
LINE
  8
_0-2_寸法
  6
CONTINUOUS
 62
    7
 10
717.5
 20
343.33791542130001
 11
717.5
 21
343.83791542130001
  0
LINE
  8
_0-2_寸法
  6
CONTINUOUS
 62
    7
 10
717.5
 20
344.08791542130001
 11
717.5
 21
344.58791542130001
  0
ENDBLK
  0
BLOCK
  2
-019-BK25
 70
   64
 10
0
 20
0
 30
0
  0
CIRCLE
  8
_0-2_寸法
  6
CONTINUOUS
 62
    7
 10
717.5
 20
386
 40
0.25
  0
LINE
  8
_0-2_寸法
  6
CONTINUOUS
 62
    7
 10
717.5
 20
386.25
 11
717.5
 21
385.75
  0
LINE
  8
_0-2_寸法
  6
CONTINUOUS
 62
    7
 10
717.5
 20
385.5
 11
717.5
 21
385
  0
ENDBLK
  0
BLOCK
  2
-020-BK30
 70
   64
 10
0
 20
0
 30
0
  0
CIRCLE
  8
_0-2_寸法
  6
CONTINUOUS
 62
    7
 10
497.5
 20
326
 40
0.25
  0
LINE
  8
_0-2_寸法
  6
CONTINUOUS
 62
    7
 10
497.25
 20
326
 11
497.75
 21
326
  0
LINE
  8
_0-2_寸法
  6
CONTINUOUS
 62
    7
 10
498
 20
326
 11
498.5
 21
326
  0
ENDBLK
  0
BLOCK
  2
-021-BK31
 70
   64
 10
0
 20
0
 30
0
  0
CIRCLE
  8
_0-2_寸法
  6
CONTINUOUS
 62
    7
 10
547.5
 20
326
 40
0.25
  0
LINE
  8
_0-2_寸法
  6
CONTINUOUS
 62
    7
 10
547.75
 20
326
 11
547.25
 21
326
  0
LINE
  8
_0-2_寸法
  6
CONTINUOUS
 62
    7
 10
547
 20
326
 11
546.5
 21
326
  0
ENDBLK
  0
ENDSEC
  0
SECTION
  2
ENTITIES
  0
LINE
  8
_0-0_0
  6
CONTINUOUS
 62
    7
 10
300
 20
219
 11
91
 21
219
  0
TEXT
  8
_0-4_図枠
 62
    7
 10
22.873217055079976
 20
537.71606943050006
 40
8
 41
1
 50
0
  1
　　Ｓ＝１／２
  0
CIRCLE
  8
_0-4_図枠
  6
CONTINUOUS
 62
    7
 10
688.84583711530001
 20
485.43014132209998
 40
6
  0
TEXT
  8
_0-4_図枠
 62
    7
 10
685.84583711530001
 20
482.43014132209998
 40
5
 41
1
 50
0
  1
１
  0
LINE
  8
_0-4_図枠
  6
CONTINUOUS
 62
    7
 10
660.70935597189998
 20
436.6963264355
 11
685.84583711530001
 21
480.2339888994
  0
CIRCLE
  8
_0-4_図枠
  6
CONTINUOUS
 62
    7
 10
660.70935597189998
 20
436.6963264355
 40
0.9
  0
CIRCLE
  8
_0-4_図枠
  6
CONTINUOUS
 62
    7
 10
250.25796438410001
 20
537.00217148249999
 40
6
  0
TEXT
  8
_0-4_図枠
 62
    7
 10
247.25796438410001
 20
534.00217148249999
 40
5
 41
1
 50
0
  1
２
  0
LINE
  8
_0-4_図枠
  6
CONTINUOUS
 62
    7
 10
229.02114287929999
 20
500.21891764489999
 11
247.25796438410001
 21
531.80601905979995
  0
CIRCLE
  8
_0-4_図枠
  6
CONTINUOUS
 62
    7
 10
229.02114287929999
 20
500.21891764489999
 40
0.9
  0
LINE
  8
_0-4_図枠
  6
CONTINUOUS
 62
    7
 10
661.25358271020002
 20
418.5281466518
 11
684.89006385360005
 21
459.46773290430002
  0
CIRCLE
  8
_0-4_図枠
  6
CONTINUOUS
 62
    7
 10
687.89006385360005
 20
464.663885327
 40
6
  0
CIRCLE
  8
_0-4_図枠
  6
CONTINUOUS
 62
    7
 10
661.25358271020002
 20
418.5281466518
 40
0.9
  0
CIRCLE
  8
_0-4_図枠
  6
CONTINUOUS
 62
    7
 10
186.3580003902
 20
438.65422941330002
 40
6
  0
LINE
  8
_0-4_図枠
  6
CONTINUOUS
 62
    7
 10
206.78380288779999
 20
450.44707198380002
 11
191.55415281290001
 21
441.65422941330002
  0
CIRCLE
  8
_0-4_図枠
  6
CONTINUOUS
 62
    7
 10
206.78380288779999
 20
450.44707198380002
 40
0.9
  0
LINE
  8
_0-4_図枠
  6
CONTINUOUS
 62
    7
 10
208.86300384419999
 20
458.98263461649998
 11
189.3771809495
 21
478.46845751119997
  0
CIRCLE
  8
_0-4_図枠
  6
CONTINUOUS
 62
    7
 10
185.13454026240001
 20
482.71109819830002
 40
6
  0
CIRCLE
  8
_0-4_図枠
  6
CONTINUOUS
 62
    7
 10
157.06823625009997
 20
481.6123579856
 40
6
  0
LINE
  8
_0-4_図枠
  6
CONTINUOUS
 62
    7
 10
169.56636035720001
 20
459.96497203280001
 11
160.06823625009997
 21
476.41620556290002
  0
CIRCLE
  8
_0-3_躯体と製品
  6
CONTINUOUS
 62
    7
 10
169.56636035720001
 20
459.96497203280001
 40
0.9
  0
CIRCLE
  8
_0-4_図枠
  6
CONTINUOUS
 62
    7
 10
208.86300384419999
 20
458.98263461649998
 40
0.9
  0
LINE
  8
_0-4_図枠
  6
CONTINUOUS
 62
    7
 10
208.470412466
 20
489.80078718419998
 11
190.35129722330001
 21
521.18401537269995
  0
TEXT
  8
_0-4_図枠
 62
    7
 10
184.35129722330001
 20
523.38016779539998
 40
5
 41
1
 50
0
  1
４
  0
CIRCLE
  8
_0-4_図枠
  6
CONTINUOUS
 62
    7
 10
187.35129722330001
 20
526.38016779539998
 40
6
  0
LINE
  8
_0-4_図枠
  6
CONTINUOUS
 62
    7
 10
212.64190977339999
 20
508.31962960210001
 11
192.83189355569999
 21
542.63158419000001
  0
CIRCLE
  8
_0-4_図枠
  6
CONTINUOUS
 62
    7
 10
189.83189355569999
 20
547.82773661270005
 40
6
  0
LINE
  8
_0-4_図枠
  6
CONTINUOUS
 62
    7
 10
233.71769913809999
 20
481.52309294819997
 11
255.18655552440001
 21
518.70824298959997
  0
CIRCLE
  8
_0-4_図枠
  6
CONTINUOUS
 62
    7
 10
258.18655552439998
 20
523.9043954123
 40
6
  0
LINE
  8
_0-4_図枠
  6
CONTINUOUS
 62
    7
 10
233.22089424859999
 20
462.46486673909999
 11
257.11250194540003
 21
421.08338833369999
  0
CIRCLE
  8
_0-4_図枠
  6
CONTINUOUS
 62
    7
 10
260.11250194540003
 20
415.887235911
 40
6
  0
CIRCLE
  8
_0-4_図枠
  6
CONTINUOUS
 62
    7
 10
212.64190977339999
 20
508.31962960210001
 40
0.9
  0
CIRCLE
  8
_0-4_図枠
  6
CONTINUOUS
 62
    7
 10
233.22089424859999
 20
462.46486673909999
 40
0.9
  0
CIRCLE
  8
_0-4_図枠
  6
CONTINUOUS
 62
    7
 10
233.71769913809999
 20
481.52309294819997
 40
0.9
  0
CIRCLE
  8
_0-4_図枠
  6
CONTINUOUS
 62
    7
 10
208.470412466
 20
489.80078718419998
 40
0.9
  0
LINE
  8
_0-3_躯体と製品
  6
CONTINUOUS
 62
    7
 10
207.5
 20
448.06340021199998
 11
207.5
 21
466.06340021199998
  0
LINE
  8
_0-3_躯体と製品
  6
CONTINUOUS
 62
    7
 10
207.5
 20
448.06340021199998
 11
206
 21
448.06340021199998
  0
LINE
  8
_0-3_躯体と製品
  6
CONTINUOUS
 62
    7
 10
207.5
 20
466.06340021199998
 11
206
 21
466.06340021199998
  0
ARC
  8
_0-3_躯体と製品
  6
CONTINUOUS
 62
    7
 10
207.37129045399999
 20
458.566160212
 40
3
 50
38.614637999999999
 51
87.541073999999995
  0
ARC
  8
_0-3_躯体と製品
  6
CONTINUOUS
 62
    7
 10
205.500001454
 20
457.06340021199998
 40
5.4000000000000004
 50
0
 51
38.851061999999992
  0
ARC
  8
_0-3_躯体と製品
  6
CONTINUOUS
 62
    7
 10
205.500001454
 20
457.06340021199998
 40
5.4000000000000004
 50
321.317813
 51
0
  0
ARC
  8
_0-3_躯体と製品
  6
CONTINUOUS
 62
    7
 10
207.37129045399999
 20
455.56063721200002
 40
3
 50
272.45892600000002
 51
321.38536199999999
  0
LINE
  8
_0-3_躯体と製品
  6
CONTINUOUS
 62
    7
 10
218.1654195065
 20
506.5087134167
 11
219.55961004619999
 21
501.25244956030002
  0
LINE
  8
_0-3_躯体と製品
  6
CONTINUOUS
 62
    7
 10
215.84038995380001
 20
515.27435086369996
 11
217.1090440184
 21
510.49137442220001
  0
LINE
  8
_0-3_躯体と製品
  6
CONTINUOUS
 62
    7
 10
223.06160904559999
 20
500.76340021200002
 11
225.88466046619999
 21
503.58645163260002
  0
LINE
  8
_0-3_躯体と製品
  6
CONTINUOUS
 62
    7
 10
220.23318192080001
 20
500.76340021200002
 11
225.58101951419999
 21
506.11123780529999
  0
LINE
  8
_0-3_躯体と製品
  6
CONTINUOUS
 62
    7
 10
219.69999999999999
 20
503.0586454159
 11
225.50632179600001
 21
508.86496721190002
  0
LINE
  8
_0-3_躯体と製品
  6
CONTINUOUS
 62
    7
 10
219.69999999999999
 20
505.88707254069999
 11
225.73474442009999
 21
511.92181696080002
  0
LINE
  8
_0-3_躯体と製品
  6
CONTINUOUS
 62
    7
 10
219.69999999999999
 20
508.71549966539999
 11
226.41063906790001
 21
515.42613873330004
  0
LINE
  8
_0-3_躯体と製品
  6
CONTINUOUS
 62
    7
 10
219.69999999999999
 20
511.54392679019998
 11
223.91947342180001
 21
515.76340021199996
  0
LINE
  8
_0-3_躯体と製品
  6
CONTINUOUS
 62
    7
 10
219.69999999999999
 20
514.37235391490003
 11
221.09104629710001
 21
515.76340021199996
  0
ARC
  8
_0-3_躯体と製品
  6
CONTINUOUS
 62
    7
 10
254.125
 20
508.26340021200002
 40
28.625
 50
164.81071326279999
 51
195.18928673720001
  0
LINE
  8
_0-3_躯体と製品
  6
CONTINUOUS
 62
    7
 10
226.5
 20
580.76340021199996
 11
226.5
 21
515.76340021199996
  0
TEXT
  8
_0-2_寸法
 62
    7
 10
423.5
 20
487.21671222280003
 40
5
 41
1
 50
0
  1
（キャップ幅）
  0
LINE
  8
_0-3_躯体と製品
  6
CONTINUOUS
 62
    7
 10
219.69999999999999
 20
501.76340021200002
 11
219.69999999999999
 21
514.76340021200008
  0
LINE
  8
_0-3_躯体と製品
  6
CONTINUOUS
 62
    7
 10
215.69999999999999
 20
511.06340021199998
 11
215.69999999999999
 21
514.76340021200008
  0
ARC
  8
_0-3_躯体と製品
  6
CONTINUOUS
 62
    7
 10
216.69999999999999
 20
514.76340021200008
 40
1
 50
90
 51
180
  0
LINE
  8
_0-3_躯体と製品
  6
CONTINUOUS
 62
    7
 10
218.69999999999999
 20
515.76340021199996
 11
216.69999999999999
 21
515.76340021199996
  0
ARC
  8
_0-3_躯体と製品
  6
CONTINUOUS
 62
    7
 10
218.69999999999999
 20
514.76340021200008
 40
1
 50
0
 51
90
  0
LINE
  8
_0-3_躯体と製品
  6
CONTINUOUS
 62
    7
 10
202.5
 20
500.76340021200002
 11
203.5
 21
500.76340021200002
  0
LINE
  8
_0-3_躯体と製品
  6
CONTINUOUS
 62
    7
 10
201.5
 20
500.38713425819998
 11
202.5
 21
499.38713425819998
  0
LINE
  8
_0-3_躯体と製品
  6
CONTINUOUS
 62
    7
 10
201.5
 20
498.97292069589997
 11
202.5
 21
497.97292069589997
  0
LINE
  8
_0-3_躯体と製品
  6
CONTINUOUS
 62
    7
 10
201.5
 20
497.55870713349998
 11
202.5
 21
496.55870713349998
  0
LINE
  8
_0-3_躯体と製品
  6
CONTINUOUS
 62
    7
 10
201.5
 20
496.14449357109999
 11
202.5
 21
495.14449357109999
  0
LINE
  8
_0-3_躯体と製品
  6
CONTINUOUS
 62
    7
 10
201.5
 20
494.73028000879998
 11
202.5
 21
493.73028000879998
  0
LINE
  8
_0-3_躯体と製品
  6
CONTINUOUS
 62
    7
 10
201.5
 20
493.31606644639999
 11
202.5
 21
492.31606644639999
  0
LINE
  8
_0-3_躯体と製品
  6
CONTINUOUS
 62
    7
 10
201.5
 20
491.90185288399999
 11
202.5
 21
490.90185288399999
  0
LINE
  8
_0-3_躯体と製品
  6
CONTINUOUS
 62
    7
 10
201.5
 20
490.4876393216
 11
202.5
 21
489.4876393216
  0
LINE
  8
_0-3_躯体と製品
  6
CONTINUOUS
 62
    7
 10
201.5
 20
489.07342575929999
 11
202.5
 21
488.07342575929999
  0
LINE
  8
_0-3_躯体と製品
  6
CONTINUOUS
 62
    7
 10
201.5
 20
487.6592121969
 11
202.5
 21
486.6592121969
  0
LINE
  8
_0-3_躯体と製品
  6
CONTINUOUS
 62
    7
 10
201.5
 20
486.24499863450001
 11
202.5
 21
485.24499863450001
  0
LINE
  8
_0-3_躯体と製品
  6
CONTINUOUS
 62
    7
 10
201.5
 20
484.83078507210001
 11
202.5
 21
483.83078507210001
  0
LINE
  8
_0-3_躯体と製品
  6
CONTINUOUS
 62
    7
 10
201.5
 20
483.41657150980001
 11
202.5
 21
482.41657150980001
  0
LINE
  8
_0-3_躯体と製品
  6
CONTINUOUS
 62
    7
 10
201.5
 20
482.00235794740001
 11
202.5
 21
481.00235794740001
  0
LINE
  8
_0-3_躯体と製品
  6
CONTINUOUS
 62
    7
 10
201.5
 20
480.58814438500002
 11
202.5
 21
479.58814438500002
  0
LINE
  8
_0-3_躯体と製品
  6
CONTINUOUS
 62
    7
 10
201.5
 20
479.17393082260003
 11
202.5
 21
478.17393082260003
  0
LINE
  8
_0-3_躯体と製品
  6
CONTINUOUS
 62
    7
 10
201.5
 20
477.75971726030002
 11
202.5
 21
476.75971726030002
  0
LINE
  8
_0-3_躯体と製品
  6
CONTINUOUS
 62
    7
 10
201.5
 20
476.34550369790003
 11
202.5
 21
475.34550369790003
  0
LINE
  8
_0-3_躯体と製品
  6
CONTINUOUS
 62
    7
 10
201.5
 20
474.93129013549998
 11
202.5
 21
473.93129013549998
  0
LINE
  8
_0-3_躯体と製品
  6
CONTINUOUS
 62
    7
 10
201.5
 20
473.51707657319997
 11
202.5
 21
472.51707657319997
  0
LINE
  8
_0-3_躯体と製品
  6
CONTINUOUS
 62
    7
 10
201.5
 20
472.10286301079998
 11
202.5
 21
471.10286301079998
  0
LINE
  8
_0-3_躯体と製品
  6
CONTINUOUS
 62
    7
 10
201.5
 20
500.76340021200002
 11
201.5
 21
470.76340021200002
  0
LINE
  8
_0-3_躯体と製品
  6
CONTINUOUS
 62
    7
 10
201.5
 20
470.76340021200002
 11
202.5
 21
470.76340021200002
  0
LINE
  8
_0-3_躯体と製品
  6
CONTINUOUS
 62
    7
 10
202.5
 20
470.76340021200002
 11
202.5
 21
500.76340021200002
  0
LINE
  8
_0-3_躯体と製品
  6
CONTINUOUS
 62
    7
 10
202.5
 20
500.76340021200002
 11
201.5
 21
500.76340021200002
  0
LINE
  8
_0-3_躯体と製品
  6
CONTINUOUS
 62
    7
 10
201.5
 20
515.76340021199996
 11
201.5
 21
389
  0
LINE
  8
_0-3_躯体と製品
  6
CONTINUOUS
 62
    7
 10
201.5
 20
515.76340021199996
 11
226.5
 21
515.76340021199996
  0
LINE
  8
_0-3_躯体と製品
  6
CONTINUOUS
 62
    7
 10
214.60000199999999
 20
457.06340021199998
 11
142.5
 21
457.06340021199998
  0
LINE
  8
_0-3_躯体と製品
  6
CONTINUOUS
 62
    7
 10
204.3772773174
 20
507.56340021199998
 11
221.24531099999999
 21
507.56340021199998
  0
LINE
  8
_0-4_図枠
  6
CONTINUOUS
 62
    7
 10
335.69999999999999
 20
459.50775611030002
 11
335.69999999999999
 21
462.12814507439998
  0
LINE
  8
_0-4_図枠
  6
CONTINUOUS
 62
    7
 10
285.69999999999999
 20
462.12814507439998
 11
335.69999999999999
 21
459.50775611030002
  0
LINE
  8
_0-4_図枠
  6
CONTINUOUS
 62
    7
 10
285.69999999999999
 20
462.12814507439998
 11
335.69999999999999
 21
462.12814507439998
  0
LINE
  8
_0-3_躯体と製品
  6
CONTINUOUS
 62
    7
 10
202.5
 20
454.56340021199998
 11
201.5
 21
454.56340021199998
  0
LINE
  8
_0-3_躯体と製品
  6
CONTINUOUS
 62
    7
 10
202.5
 20
459.56340021199998
 11
201.5
 21
459.56340021199998
  0
ARC
  8
_0-3_躯体と製品
  6
CONTINUOUS
 62
    7
 10
225.94545048769999
 20
461.65479124789999
 40
1.5
 50
30.586482108070001
 51
54.251632274560002
  0
LINE
  8
_0-3_躯体と製品
  6
CONTINUOUS
 62
    7
 10
226.82179030489999
 20
462.87217718699998
 11
225.6472925896
 21
463.7176437562
  0
TEXT
  8
_0-4_図枠
 62
    7
 10
297.19999999999999
 20
462.11242210979998
 40
5
 41
1
 50
0
  1
勾配３度
  0
ARC
  8
_0-3_躯体と製品
  6
CONTINUOUS
 62
    7
 10
229.99150236739999
 20
464.04633137650001
 40
3.2000000000000002
 50
210.5864821081
 51
324.55587813927997
  0
ARC
  8
_0-3_躯体と製品
  6
CONTINUOUS
 62
    7
 10
225.4136019716
 20
463.39300750569998
 40
0.4
 50
54.251632274569999
 51
234.25163227460001
  0
LINE
  8
_0-3_躯体と製品
  6
CONTINUOUS
 62
    7
 10
213.10748032820001
 20
454.91746201699999
 11
233.57388520309999
 21
453.84486318760003
  0
LINE
  8
_0-3_躯体と製品
  6
CONTINUOUS
 62
    7
 10
213.34299213130001
 20
459.41129492340002
 11
233.80939700619999
 21
458.338696094
  0
LINE
  8
_0-3_躯体と製品
  6
CONTINUOUS
 62
    7
 10
648.00514212630003
 20
432.12544134680002
 11
654.32018750300006
 21
431.79448384249997
  0
LINE
  8
_0-3_躯体と製品
  6
CONTINUOUS
 62
    7
 10
648.24065392939997
 20
436.61927425319999
 11
654.5556993061
 21
436.2883167489
  0
LINE
  8
_0-3_躯体と製品
  6
CONTINUOUS
 62
    7
 10
665.56545033700002
 20
361.08791542130001
 11
665.56545033700002
 21
360.58791542130001
  0
LINE
  8
_0-3_躯体と製品
  6
CONTINUOUS
 62
    7
 10
233.71802111209999
 20
463.76340021200002
 11
232.5984830587
 21
462.1906235129
  0
ARC
  8
_0-3_躯体と製品
  6
CONTINUOUS
 62
    7
 10
225.94545048769999
 20
461.65479124789999
 40
0.6999999999999999
 50
30.586482108070001
 51
54.251632274569992
  0
ARC
  8
_0-3_躯体と製品
  6
CONTINUOUS
 62
    7
 10
229.99150236739999
 20
464.04633137650001
 40
4
 50
210.5864821081
 51
324.55587813928997
  0
LINE
  8
_0-3_躯体と製品
  6
CONTINUOUS
 62
    7
 10
226.3544090691
 20
462.22290468620002
 11
225.17991135369999
 21
463.06837125530001
  0
LINE
  8
_0-3_躯体と製品
  6
CONTINUOUS
 62
    7
 10
216.69999999999999
 20
500.76340021200002
 11
218.69999999999999
 21
500.76340021200002
  0
ARC
  8
_0-3_躯体と製品
  6
CONTINUOUS
 62
    7
 10
218.69999999999999
 20
501.76340021200002
 40
1
 50
270
 51
0
  0
ARC
  8
_0-3_躯体と製品
  6
CONTINUOUS
 62
    7
 10
216.69999999999999
 20
501.76340021200002
 40
1
 50
180
 51
270
  0
LINE
  8
_0-3_躯体と製品
  6
CONTINUOUS
 62
    7
 10
215.69999999999999
 20
510.56340021199998
 11
215.69999999999999
 21
501.76340021200002
  0
ARC
  8
_0-3_躯体と製品
  6
CONTINUOUS
 62
    7
 10
214.09999999999999
 20
507.56340021199998
 40
4.2000000000000002
 50
14.09578924417
 51
42.74124453868
  0
ARC
  8
_0-3_躯体と製品
  6
CONTINUOUS
 62
    7
 10
214.09999999999999
 20
507.56340021199998
 40
4.2000000000000002
 50
317.25875546131999
 51
345.90421075582998
  0
LINE
  8
_0-3_躯体と製品
  6
CONTINUOUS
 62
    7
 10
217.7657195747
 20
508.06340021199998
 11
217.7657195747
 21
507.06340021199998
  0
ARC
  8
_0-3_躯体と製品
  6
CONTINUOUS
 62
    7
 10
217.7657195747
 20
508.48387893540001
 40
0.4204787234042999
 50
270
 51
14.095789244169991
  0
LINE
  8
_0-3_躯体と製品
  6
CONTINUOUS
 62
    7
 10
215.69999999999999
 20
504.06340021199998
 11
215.69999999999999
 21
511.06340021199998
  0
ARC
  8
_0-3_躯体と製品
  6
CONTINUOUS
 62
    7
 10
215.69999999999999
 20
506.08482878339998
 40
2.0214285714289999
 50
270
 51
317.25875546131999
  0
ARC
  8
_0-3_躯体と製品
  6
CONTINUOUS
 62
    7
 10
215.69999999999999
 20
509.04197164060002
 40
2.0214285714289999
 50
42.74124453868
 51
90
  0
ARC
  8
_0-3_躯体と製品
  6
CONTINUOUS
 62
    7
 10
217.7657195747
 20
506.6429214886
 40
0.4204787234042999
 50
345.90421075582998
 51
89.999999999999986
  0
ARC
  8
_0-3_躯体と製品
  6
CONTINUOUS
 62
    7
 10
226
 20
466.13745354309998
 40
0.2999999999999999
 50
85.252681745969994
 51
180
  0
LINE
  8
_0-3_躯体と製品
  6
CONTINUOUS
 62
    7
 10
226.02482846890001
 20
466.43642435629999
 11
231.67941626370001
 21
465.96683083469998
  0
LINE
  8
_0-3_躯体と製品
  6
CONTINUOUS
 62
    7
 10
225.69999999999999
 20
466.13745354309998
 11
225.69999999999999
 21
465.06340021199998
  0
ARC
  8
_0-3_躯体と製品
  6
CONTINUOUS
 62
    7
 10
225.69999999999999
 20
466.46340021200001
 40
1
 50
85.252681745969994
 51
180
  0
LINE
  8
_0-3_躯体と製品
  6
CONTINUOUS
 62
    7
 10
225.78276156289999
 20
467.45996958929999
 11
231.26389313799999
 21
467.0047809934
  0
LINE
  8
_0-3_躯体と製品
  6
CONTINUOUS
 62
    7
 10
224.69999999999999
 20
466.46340021200001
 11
224.69999999999999
 21
464.76340021200002
  0
LINE
  8
_0-3_躯体と製品
  6
CONTINUOUS
 62
    7
 10
231.803558608
 20
467.46168490060001
 11
231.84493938950001
 21
467.95996958929999
  0
ARC
  8
_0-3_躯体と製品
  6
CONTINUOUS
 62
    7
 10
231.76217782660001
 20
466.96340021200001
 40
1
 50
265.25268174596999
 51
355.252681742275
  0
LINE
  8
_0-3_躯体と製品
  6
CONTINUOUS
 62
    7
 10
232.7587472038
 20
466.88063864909998
 11
232.84150876679999
 21
467.87720802640001
  0
ARC
  8
_0-3_躯体と製品
  6
CONTINUOUS
 62
    7
 10
232.34322407810001
 20
467.91858880780001
 40
0.4999999999354999
 50
355.25268174597801
 51
175.25268174600001
  0
ARC
  8
_0-3_躯体と製品
  6
CONTINUOUS
 62
    7
 10
231.30527391940001
 20
467.50306568209999
 40
0.5
 50
265.25268174596999
 51
355.25268174227199
  0
ARC
  8
_0-3_躯体と製品
  6
CONTINUOUS
 62
    7
 10
225.69999999999999
 20
464.76340021200002
 40
1
 50
180
 51
270
  0
LINE
  8
_0-3_躯体と製品
  6
CONTINUOUS
 62
    7
 10
226
 20
464.76340021200002
 11
234.19999999999999
 21
464.76340021200002
  0
LINE
  8
_0-3_躯体と製品
  6
CONTINUOUS
 62
    7
 10
234.69999999999999
 20
464.26340021200002
 11
234.69999999999999
 21
463.76340021200002
  0
ARC
  8
_0-3_躯体と製品
  6
CONTINUOUS
 62
    7
 10
234.19999999999999
 20
464.26340021200002
 40
0.5
 50
0
 51
90
  0
LINE
  8
_0-3_躯体と製品
  6
CONTINUOUS
 62
    7
 10
225.69999999999999
 20
463.76340021200002
 11
234.69999999999999
 21
463.76340021200002
  0
CIRCLE
  8
_0-3_躯体と製品
  6
CONTINUOUS
 62
    7
 10
235.69999999999999
 20
500.76340021200002
 40
1.3999999999999999
  0
LINE
  8
_0-3_躯体と製品
  6
CONTINUOUS
 62
    7
 10
214.5
 20
505.56340021199998
 11
215.69999999999999
 21
505.56340021199998
  0
LINE
  8
_0-3_躯体と製品
  6
CONTINUOUS
 62
    7
 10
214.5
 20
509.56340021199998
 11
215.69999999999999
 21
509.56340021199998
  0
LINE
  8
_0-3_躯体と製品
  6
CONTINUOUS
 62
    7
 10
234.5
 20
466.96340021200001
 11
234.5
 21
498.56340021199998
  0
ARC
  8
_0-3_躯体と製品
  6
CONTINUOUS
 62
    7
 10
233.5
 20
466.96340021200001
 40
1
 50
270
 51
0
  0
LINE
  8
_0-3_躯体と製品
  6
CONTINUOUS
 62
    7
 10
233.5
 20
465.96340021200001
 11
225.69999999999999
 21
465.96340021200001
  0
ARC
  8
_0-3_躯体と製品
  6
CONTINUOUS
 62
    7
 10
233.5
 20
466.96340021200001
 40
2.2000000000000002
 50
270
 51
0
  0
LINE
  8
_0-3_躯体と製品
  6
CONTINUOUS
 62
    7
 10
225.69999999999999
 20
465.96340021200001
 11
225.69999999999999
 21
464.76340021200002
  0
LINE
  8
_0-3_躯体と製品
  6
CONTINUOUS
 62
    7
 10
216.69999999999999
 20
499.56340021199998
 11
233.5
 21
499.56340021199998
  0
LINE
  8
_0-3_躯体と製品
  6
CONTINUOUS
 62
    7
 10
205.69999999999999
 20
512.76340021200008
 11
205.69999999999999
 21
511.56340021199998
  0
LINE
  8
_0-3_躯体と製品
  6
CONTINUOUS
 62
    7
 10
205.69999999999999
 20
511.56340021199998
 11
213.5
 21
511.56340021199998
  0
ARC
  8
_0-3_躯体と製品
  6
CONTINUOUS
 62
    7
 10
233.5
 20
498.56340021199998
 40
2.2000000000000002
 50
0
 51
90
  0
ARC
  8
_0-3_躯体と製品
  6
CONTINUOUS
 62
    7
 10
216.69999999999999
 20
501.76340021200002
 40
2.2000000000000002
 50
180
 51
270
  0
ARC
  8
_0-3_躯体と製品
  6
CONTINUOUS
 62
    7
 10
233.5
 20
498.56340021199998
 40
1
 50
0
 51
90
  0
ARC
  8
_0-3_躯体と製品
  6
CONTINUOUS
 62
    7
 10
216.69999999999999
 20
501.76340021200002
 40
1
 50
180
 51
270
  0
LINE
  8
_0-3_躯体と製品
  6
CONTINUOUS
 62
    7
 10
214.5
 20
501.76340021200002
 11
214.5
 21
510.56340021199998
  0
ARC
  8
_0-3_躯体と製品
  6
CONTINUOUS
 62
    7
 10
213.5
 20
510.56340021199998
 40
2.2000000000000002
 50
0
 51
90
  0
LINE
  8
_0-3_躯体と製品
  6
CONTINUOUS
 62
    7
 10
213.5
 20
512.76340021200008
 11
205.69999999999999
 21
512.76340021200008
  0
ARC
  8
_0-3_躯体と製品
  6
CONTINUOUS
 62
    7
 10
213.5
 20
510.56340021199998
 40
1
 50
0
 51
90
  0
LINE
  8
_0-3_躯体と製品
  6
CONTINUOUS
 62
    7
 10
205.69999999999999
 20
512.75105621199998
 11
205.712344
 21
512.76340021200008
  0
LINE
  8
_0-3_躯体と製品
  6
CONTINUOUS
 62
    7
 10
214.5
 20
505.56340021199998
 11
211.5
 21
505.56340021199998
  0
LINE
  8
_0-3_躯体と製品
  6
CONTINUOUS
 62
    7
 10
214.5
 20
506.06340021199998
 11
206
 21
506.06340021199998
  0
LINE
  8
_0-3_躯体と製品
  6
CONTINUOUS
 62
    7
 10
214.5
 20
509.06340021199998
 11
206
 21
509.06340021199998
  0
LINE
  8
_0-3_躯体と製品
  6
CONTINUOUS
 62
    7
 10
214.5
 20
509.56340021199998
 11
211.5
 21
509.56340021199998
  0
LINE
  8
_0-3_躯体と製品
  6
CONTINUOUS
 62
    7
 10
206.5
 20
509.56340021199998
 11
206.5
 21
505.56340021199998
  0
LINE
  8
_0-3_躯体と製品
  6
CONTINUOUS
 62
    7
 10
206
 20
509.06340021199998
 11
206
 21
506.06340021199998
  0
LINE
  8
_0-3_躯体と製品
  6
CONTINUOUS
 62
    7
 10
206
 20
509.06340021199998
 11
206.5
 21
509.56340021199998
  0
LINE
  8
_0-3_躯体と製品
  6
CONTINUOUS
 62
    7
 10
206
 20
506.06340021199998
 11
206.5
 21
505.56340021199998
  0
LINE
  8
_0-3_躯体と製品
  6
CONTINUOUS
 62
    7
 10
213.20000018030001
 20
503.15305792449999
 11
213.41034246780001
 21
503.36340021199999
  0
LINE
  8
_0-3_躯体と製品
  6
CONTINUOUS
 62
    7
 10
213.20000139250001
 20
501.7388455743
 11
214.000001
 21
502.53884518180001
  0
LINE
  8
_0-3_躯体と製品
  6
CONTINUOUS
 62
    7
 10
213.20000260469999
 20
500.32463322410001
 11
214.000001
 21
501.12463161940002
  0
LINE
  8
_0-3_躯体と製品
  6
CONTINUOUS
 62
    7
 10
213.42377904489999
 20
499.13419610199998
 11
214.01844272560001
 21
499.7288597827
  0
LINE
  8
_0-3_躯体と製品
  6
CONTINUOUS
 62
    7
 10
214.2850875053
 20
498.58129100000002
 11
215.06719771729999
 21
499.36340121199999
  0
LINE
  8
_0-3_躯体と製品
  6
CONTINUOUS
 62
    7
 10
215.6814102797
 20
498.56340021199998
 11
216.48141127970001
 21
499.36340121199999
  0
LINE
  8
_0-3_躯体と製品
  6
CONTINUOUS
 62
    7
 10
217.09562384200001
 20
498.56340021199998
 11
217.89562484199999
 21
499.36340121199999
  0
LINE
  8
_0-3_躯体と製品
  6
CONTINUOUS
 62
    7
 10
218.5098374044
 20
498.56340021199998
 11
219.30983840440001
 21
499.36340121199999
  0
LINE
  8
_0-3_躯体と製品
  6
CONTINUOUS
 62
    7
 10
219.9240509668
 20
498.56340021199998
 11
220.7240519668
 21
499.36340121199999
  0
LINE
  8
_0-3_躯体と製品
  6
CONTINUOUS
 62
    7
 10
221.33826452919999
 20
498.56340021199998
 11
222.1382655292
 21
499.36340121199999
  0
LINE
  8
_0-3_躯体と製品
  6
CONTINUOUS
 62
    7
 10
222.7524780915
 20
498.56340021199998
 11
223.5524790915
 21
499.36340121199999
  0
LINE
  8
_0-3_躯体と製品
  6
CONTINUOUS
 62
    7
 10
224.16669165389999
 20
498.56340021199998
 11
224.9666926539
 21
499.36340121199999
  0
LINE
  8
_0-3_躯体と製品
  6
CONTINUOUS
 62
    7
 10
225.58090521630001
 20
498.56340021199998
 11
226.38090621629999
 21
499.36340121199999
  0
LINE
  8
_0-3_躯体と製品
  6
CONTINUOUS
 62
    7
 10
226.9951187787
 20
498.56340021199998
 11
227.79511977870001
 21
499.36340121199999
  0
LINE
  8
_0-3_躯体と製品
  6
CONTINUOUS
 62
    7
 10
228.40933234100001
 20
498.56340021199998
 11
229.20933334099999
 21
499.36340121199999
  0
LINE
  8
_0-3_躯体と製品
  6
CONTINUOUS
 62
    7
 10
229.8235459034
 20
498.56340021199998
 11
230.62354690340001
 21
499.36340121199999
  0
LINE
  8
_0-3_躯体と製品
  6
CONTINUOUS
 62
    7
 10
231.2377594658
 20
498.56340021199998
 11
232.03776046580001
 21
499.36340121199999
  0
LINE
  8
_0-3_躯体と製品
  6
CONTINUOUS
 62
    7
 10
232.6519730281
 20
498.56340021199998
 11
233.36569807500001
 21
499.27712525880003
  0
LINE
  8
_0-3_躯体と製品
  6
CONTINUOUS
 62
    7
 10
233.400002
 20
497.89721562149998
 11
234.08986035449999
 21
498.587073976
  0
LINE
  8
_0-3_躯体と製品
  6
CONTINUOUS
 62
    7
 10
233.400002
 20
496.48300205909999
 11
234.19999999999999
 21
497.2830000591
  0
LINE
  8
_0-3_躯体と製品
  6
CONTINUOUS
 62
    7
 10
233.400002
 20
495.06878849669999
 11
234.19999999999999
 21
495.86878649670001
  0
LINE
  8
_0-3_躯体と製品
  6
CONTINUOUS
 62
    7
 10
233.400002
 20
493.65457493439999
 11
234.19999999999999
 21
494.45457293440001
  0
LINE
  8
_0-3_躯体と製品
  6
CONTINUOUS
 62
    7
 10
233.400002
 20
492.240361372
 11
234.19999999999999
 21
493.04035937200001
  0
LINE
  8
_0-3_躯体と製品
  6
CONTINUOUS
 62
    7
 10
233.400002
 20
490.8261478096
 11
234.19999999999999
 21
491.62614580960002
  0
LINE
  8
_0-3_躯体と製品
  6
CONTINUOUS
 62
    7
 10
233.400002
 20
489.41193424720001
 11
234.19999999999999
 21
490.21193224720002
  0
LINE
  8
_0-3_躯体と製品
  6
CONTINUOUS
 62
    7
 10
233.400002
 20
487.9977206849
 11
234.19999999999999
 21
488.79771868490002
  0
LINE
  8
_0-3_躯体と製品
  6
CONTINUOUS
 62
    7
 10
233.400002
 20
486.58350712250001
 11
234.19999999999999
 21
487.38350512250003
  0
LINE
  8
_0-3_躯体と製品
  6
CONTINUOUS
 62
    7
 10
233.400002
 20
485.16929356010002
 11
234.19999999999999
 21
485.96929156009998
  0
LINE
  8
_0-3_躯体と製品
  6
CONTINUOUS
 62
    7
 10
233.400002
 20
483.75507999770002
 11
234.19999999999999
 21
484.55507799769998
  0
LINE
  8
_0-3_躯体と製品
  6
CONTINUOUS
 62
    7
 10
233.400002
 20
482.34086643540002
 11
234.19999999999999
 21
483.14086443539998
  0
LINE
  8
_0-3_躯体と製品
  6
CONTINUOUS
 62
    7
 10
233.400002
 20
480.92665287300002
 11
234.19999999999999
 21
481.72665087299998
  0
LINE
  8
_0-3_躯体と製品
  6
CONTINUOUS
 62
    7
 10
233.400002
 20
479.51243931059997
 11
234.19999999999999
 21
480.31243731059999
  0
LINE
  8
_0-3_躯体と製品
  6
CONTINUOUS
 62
    7
 10
233.400002
 20
478.09822574819998
 11
234.19999999999999
 21
478.8982237482
  0
LINE
  8
_0-3_躯体と製品
  6
CONTINUOUS
 62
    7
 10
233.400002
 20
476.68401218589997
 11
234.19999999999999
 21
477.48401018589999
  0
LINE
  8
_0-3_躯体と製品
  6
CONTINUOUS
 62
    7
 10
233.400002
 20
475.26979862349998
 11
234.19999999999999
 21
476.0697966235
  0
LINE
  8
_0-3_躯体と製品
  6
CONTINUOUS
 62
    7
 10
233.400002
 20
473.85558506109999
 11
234.19999999999999
 21
474.6555830611
  0
LINE
  8
_0-3_躯体と製品
  6
CONTINUOUS
 62
    7
 10
233.400002
 20
472.44137149879998
 11
234.19999999999999
 21
473.2413694988
  0
LINE
  8
_0-3_躯体と製品
  6
CONTINUOUS
 62
    7
 10
233.400002
 20
471.02715793639999
 11
234.19999999999999
 21
471.8271559364
  0
LINE
  8
_0-3_躯体と製品
  6
CONTINUOUS
 62
    7
 10
233.400002
 20
469.61294437399999
 11
234.19999999999999
 21
470.41294237400001
  0
LINE
  8
_0-3_躯体と製品
  6
CONTINUOUS
 62
    7
 10
213.19999999999999
 20
503.36340021199999
 11
213.20000300000001
 21
499.86340221199998
  0
LINE
  8
_0-3_躯体と製品
  6
CONTINUOUS
 62
    7
 10
232.900001
 20
498.56340021199998
 11
214.50000199999999
 21
498.56340021199998
  0
LINE
  8
_0-3_躯体と製品
  6
CONTINUOUS
 62
    7
 10
233.400002
 20
469.36340121199999
 11
234.19999999999999
 21
469.36340121199999
  0
LINE
  8
_0-3_躯体と製品
  6
CONTINUOUS
 62
    7
 10
234.19999999999999
 20
498.06340221200003
 11
234.19999999999999
 21
469.36340121199999
  0
LINE
  8
_0-3_躯体と製品
  6
CONTINUOUS
 62
    7
 10
233.400002
 20
498.06340221200003
 11
233.400002
 21
469.36340121199999
  0
ARC
  8
_0-3_躯体と製品
  6
CONTINUOUS
 62
    7
 10
232.900001
 20
498.06340221200003
 40
0.500001
 50
0
 51
90
  0
ARC
  8
_0-3_躯体と製品
  6
CONTINUOUS
 62
    7
 10
232.900001
 20
498.06340221200003
 40
1.2999989999999999
 50
0
 51
90
  0
LINE
  8
_0-3_躯体と製品
  6
CONTINUOUS
 62
    7
 10
232.900001
 20
499.36340121199999
 11
214.50000199999999
 21
499.36340121199999
  0
LINE
  8
_0-3_躯体と製品
  6
CONTINUOUS
 62
    7
 10
213.19999999999999
 20
503.36340021199999
 11
214.000001
 21
503.36340021199999
  0
ARC
  8
_0-3_躯体と製品
  6
CONTINUOUS
 62
    7
 10
214.50000199999999
 20
499.86340221199998
 40
1.2999989999999999
 50
180
 51
270
  0
ARC
  8
_0-3_躯体と製品
  6
CONTINUOUS
 62
    7
 10
214.50000199999999
 20
499.86340221199998
 40
0.500001
 50
180
 51
270
  0
LINE
  8
_0-3_躯体と製品
  6
CONTINUOUS
 62
    7
 10
214.000001
 20
499.86340221199998
 11
214.000001
 21
503.36340021199999
  0
CIRCLE
  8
_0-3_躯体と製品
  6
CONTINUOUS
 62
    7
 10
235.69999999999999
 20
464.76340021200002
 40
1.3999999999999999
  0
LINE
  8
_0-3_躯体と製品
  6
CONTINUOUS
 62
    7
 10
233.5
 20
500.76340021200002
 11
216.69999999999999
 21
500.76340021200002
  0
LINE
  8
_0-3_躯体と製品
  6
CONTINUOUS
 62
    7
 10
235.69999999999999
 20
466.96340021200001
 11
235.69999999999999
 21
498.56340021199998
  0
LINE
  8
_0-3_躯体と製品
  6
CONTINUOUS
 62
    7
 10
233.5
 20
464.76340021200002
 11
225.69999999999999
 21
464.76340021200002
  0
LINE
  8
_0-3_躯体と製品
  6
CONTINUOUS
 62
    7
 10
189.5
 20
461.06339921199998
 11
201.5
 21
461.06339921199998
  0
LINE
  8
_0-3_躯体と製品
  6
CONTINUOUS
 62
    7
 10
181.69961900000001
 20
452.44016321200002
 11
186.35759899999999
 21
450.74479721199998
  0
LINE
  8
_0-3_躯体と製品
  6
CONTINUOUS
 62
    7
 10
193.30364
 20
463.38573821199998
 11
186.69962000000001
 21
462.442307212
  0
LINE
  8
_0-3_躯体と製品
  6
CONTINUOUS
 62
    7
 10
167.36944399999999
 20
455.193953212
 11
165.5
 21
457.06340021199998
  0
LINE
  8
_0-3_躯体と製品
  6
CONTINUOUS
 62
    7
 10
166.720178
 20
451.65512321199998
 11
164.72291899999999
 21
451.55045321199998
  0
LINE
  8
_0-3_躯体と製品
  6
CONTINUOUS
 62
    7
 10
166.61550500000001
 20
453.65238221200002
 11
166.720178
 21
451.65512321199998
  0
LINE
  8
_0-3_躯体と製品
  6
CONTINUOUS
 62
    7
 10
168.612764
 20
453.75705521200001
 11
166.61550500000001
 21
453.65238221200002
  0
LINE
  8
_0-3_躯体と製品
  6
CONTINUOUS
 62
    7
 10
169.71606499999999
 20
451.812131212
 11
168.612764
 21
453.75705521200001
  0
LINE
  8
_0-3_躯体と製品
  6
CONTINUOUS
 62
    7
 10
171.713324
 20
451.91680421199999
 11
169.71606499999999
 21
451.812131212
  0
LINE
  8
_0-3_躯体と製品
  6
CONTINUOUS
 62
    7
 10
171.608654
 20
453.91406321199997
 11
171.713324
 21
451.91680421199999
  0
LINE
  8
_0-3_躯体と製品
  6
CONTINUOUS
 62
    7
 10
173.60591299999999
 20
454.01873621200002
 11
171.608654
 21
453.91406321199997
  0
LINE
  8
_0-3_躯体と製品
  6
CONTINUOUS
 62
    7
 10
174.709214
 20
452.07381221200001
 11
173.60591299999999
 21
454.01873621200002
  0
LINE
  8
_0-3_躯体と製品
  6
CONTINUOUS
 62
    7
 10
176.70647299999999
 20
452.178485212
 11
174.709214
 21
452.07381221200001
  0
LINE
  8
_0-3_躯体と製品
  6
CONTINUOUS
 62
    7
 10
176.6018
 20
454.17574421199998
 11
176.70647299999999
 21
452.178485212
  0
LINE
  8
_0-3_躯体と製品
  6
CONTINUOUS
 62
    7
 10
178.59905900000001
 20
454.28041421199998
 11
176.6018
 21
454.17574421199998
  0
LINE
  8
_0-3_躯体と製品
  6
CONTINUOUS
 62
    7
 10
179.70236
 20
452.33549321200002
 11
178.59905900000001
 21
454.28041421199998
  0
LINE
  8
_0-3_躯体と製品
  6
CONTINUOUS
 62
    7
 10
181.69961900000001
 20
452.44016321200002
 11
179.70236
 21
452.33549321200002
  0
LINE
  8
_0-3_躯体と製品
  6
CONTINUOUS
 62
    7
 10
181.59494900000001
 20
454.437422212
 11
181.69961900000001
 21
452.44016321200002
  0
LINE
  8
_0-3_躯体と製品
  6
CONTINUOUS
 62
    7
 10
183.592208
 20
454.54209521199999
 11
181.59494900000001
 21
454.437422212
  0
LINE
  8
_0-3_躯体と製品
  6
CONTINUOUS
 62
    7
 10
184.69550899999999
 20
452.59717121199998
 11
183.592208
 21
454.54209521199999
  0
LINE
  8
_0-3_躯体と製品
  6
CONTINUOUS
 62
    7
 10
162.542483
 20
454.94098421199999
 11
193.499999
 21
456.56339921199998
  0
LINE
  8
_0-3_躯体と製品
  6
CONTINUOUS
 62
    7
 10
162.62098700000001
 20
453.44303921199997
 11
162.542483
 21
454.94098421199999
  0
LINE
  8
_0-3_躯体と製品
  6
CONTINUOUS
 62
    7
 10
164.72291899999999
 20
451.55045321199998
 11
162.62098700000001
 21
453.44303921199997
  0
LINE
  8
_0-3_躯体と製品
  6
CONTINUOUS
 62
    7
 10
164.53974199999999
 20
455.04565721199998
 11
164.72291899999999
 21
451.55045321199998
  0
LINE
  8
_0-3_躯体と製品
  6
CONTINUOUS
 62
    7
 10
186.692768
 20
452.70184421200003
 11
184.69550899999999
 21
452.59717121199998
  0
LINE
  8
_0-3_躯体と製品
  6
CONTINUOUS
 62
    7
 10
186.58809500000001
 20
454.69910321200001
 11
186.692768
 21
452.70184421200003
  0
LINE
  8
_0-3_躯体と製品
  6
CONTINUOUS
 62
    7
 10
188.585354
 20
454.80377321200001
 11
186.58809500000001
 21
454.69910321200001
  0
LINE
  8
_0-3_躯体と製品
  6
CONTINUOUS
 62
    7
 10
201.5
 20
452.06339921199998
 11
196.499999
 21
453.06339821199998
  0
LINE
  8
_0-3_躯体と製品
  6
CONTINUOUS
 62
    7
 10
166.720178
 20
462.47167421199998
 11
164.72291899999999
 21
462.57634421199998
  0
LINE
  8
_0-3_躯体と製品
  6
CONTINUOUS
 62
    7
 10
166.61550500000001
 20
460.474415212
 11
166.720178
 21
462.47167421199998
  0
LINE
  8
_0-3_躯体と製品
  6
CONTINUOUS
 62
    7
 10
168.612764
 20
460.36974221200001
 11
166.61550500000001
 21
460.474415212
  0
LINE
  8
_0-3_躯体と製品
  6
CONTINUOUS
 62
    7
 10
169.71606499999999
 20
462.31466621200002
 11
168.612764
 21
460.36974221200001
  0
LINE
  8
_0-3_躯体と製品
  6
CONTINUOUS
 62
    7
 10
171.713324
 20
462.20999321199997
 11
169.71606499999999
 21
462.31466621200002
  0
LINE
  8
_0-3_躯体と製品
  6
CONTINUOUS
 62
    7
 10
171.608654
 20
460.21273421199999
 11
171.713324
 21
462.20999321199997
  0
LINE
  8
_0-3_躯体と製品
  6
CONTINUOUS
 62
    7
 10
173.60591299999999
 20
460.108061212
 11
171.608654
 21
460.21273421199999
  0
LINE
  8
_0-3_躯体と製品
  6
CONTINUOUS
 62
    7
 10
174.709214
 20
462.05298521200001
 11
173.60591299999999
 21
460.108061212
  0
LINE
  8
_0-3_躯体と製品
  6
CONTINUOUS
 62
    7
 10
176.70647299999999
 20
461.94831221200002
 11
174.709214
 21
462.05298521200001
  0
LINE
  8
_0-3_躯体と製品
  6
CONTINUOUS
 62
    7
 10
176.6018
 20
459.95105321199998
 11
176.70647299999999
 21
461.94831221200002
  0
LINE
  8
_0-3_躯体と製品
  6
CONTINUOUS
 62
    7
 10
178.59905900000001
 20
459.84638321199998
 11
176.6018
 21
459.95105321199998
  0
LINE
  8
_0-3_躯体と製品
  6
CONTINUOUS
 62
    7
 10
179.70236
 20
461.791304212
 11
178.59905900000001
 21
459.84638321199998
  0
LINE
  8
_0-3_躯体と製品
  6
CONTINUOUS
 62
    7
 10
181.69961900000001
 20
461.686634212
 11
179.70236
 21
461.791304212
  0
LINE
  8
_0-3_躯体と製品
  6
CONTINUOUS
 62
    7
 10
181.59494900000001
 20
459.68937521200002
 11
181.69961900000001
 21
461.686634212
  0
LINE
  8
_0-3_躯体と製品
  6
CONTINUOUS
 62
    7
 10
183.592208
 20
459.58470221200002
 11
181.59494900000001
 21
459.68937521200002
  0
LINE
  8
_0-3_躯体と製品
  6
CONTINUOUS
 62
    7
 10
184.69550899999999
 20
461.52962621199998
 11
183.592208
 21
459.58470221200002
  0
LINE
  8
_0-3_躯体と製品
  6
CONTINUOUS
 62
    7
 10
162.542483
 20
459.18581321200003
 11
193.499999
 21
457.56339821199998
  0
LINE
  8
_0-3_躯体と製品
  6
CONTINUOUS
 62
    7
 10
162.62098700000001
 20
460.68375821199999
 11
162.542483
 21
459.18581321200003
  0
LINE
  8
_0-3_躯体と製品
  6
CONTINUOUS
 62
    7
 10
164.72291899999999
 20
462.57634421199998
 11
162.62098700000001
 21
460.68375821199999
  0
LINE
  8
_0-3_躯体と製品
  6
CONTINUOUS
 62
    7
 10
164.53974199999999
 20
459.08114021199998
 11
164.72291899999999
 21
462.57634421199998
  0
LINE
  8
_0-3_躯体と製品
  6
CONTINUOUS
 62
    7
 10
186.692768
 20
461.42495321199999
 11
184.69550899999999
 21
461.52962621199998
  0
LINE
  8
_0-3_躯体と製品
  6
CONTINUOUS
 62
    7
 10
186.58809500000001
 20
459.42769421200001
 11
186.692768
 21
461.42495321199999
  0
LINE
  8
_0-3_躯体と製品
  6
CONTINUOUS
 62
    7
 10
188.585354
 20
459.32302421200001
 11
186.58809500000001
 21
459.42769421200001
  0
LINE
  8
_0-3_躯体と製品
  6
CONTINUOUS
 62
    7
 10
167.36944399999999
 20
458.93284421200002
 11
165.5
 21
457.06340021199998
  0
LINE
  8
_0-3_躯体と製品
  6
CONTINUOUS
 62
    7
 10
196.499999
 20
457.06340021199998
 11
201.5
 21
457.06340021199998
  0
LINE
  8
_0-3_躯体と製品
  6
CONTINUOUS
 62
    7
 10
201.5
 20
456.06339821199998
 11
196.499999
 21
457.06340021199998
  0
LINE
  8
_0-3_躯体と製品
  6
CONTINUOUS
 62
    7
 10
201.5
 20
458.06339921199998
 11
196.499999
 21
457.06340021199998
  0
LINE
  8
_0-3_躯体と製品
  6
CONTINUOUS
 62
    7
 10
201.5
 20
462.06339821199998
 11
196.499999
 21
461.06339921199998
  0
LINE
  8
_0-3_躯体と製品
  6
CONTINUOUS
 62
    7
 10
189.5
 20
461.06339921199998
 11
188.585354
 21
459.32302421200001
  0
LINE
  8
_0-3_躯体と製品
  6
CONTINUOUS
 62
    7
 10
193.499999
 20
457.56339821199998
 11
193.499999
 21
456.56339921199998
  0
ARC
  8
_0-3_躯体と製品
  6
CONTINUOUS
 62
    7
 10
193.247072
 20
463.78171721199999
 40
0.3999989999999999
 50
278.13010199999997
 51
8.1301020000049871
  0
LINE
  8
_0-3_躯体と製品
  6
CONTINUOUS
 62
    7
 10
193.614935
 20
464.035112212
 11
193.64305100000001
 21
463.83828821200001
  0
ARC
  8
_0-3_躯体と製品
  6
CONTINUOUS
 62
    7
 10
193.218953
 20
463.97854421199997
 40
0.3999989999999999
 50
8.1301020000049995
 51
98.298466000000005
  0
LINE
  8
_0-3_躯体と製品
  6
CONTINUOUS
 62
    7
 10
186.35759899999999
 20
463.38200021199998
 11
193.16122100000001
 21
464.37435521200001
  0
LINE
  8
_0-3_躯体と製品
  6
CONTINUOUS
 62
    7
 10
193.30364
 20
450.74105921199998
 11
186.69962000000001
 21
451.68449021200001
  0
ARC
  8
_0-3_躯体と製品
  6
CONTINUOUS
 62
    7
 10
193.247072
 20
450.34508021200003
 40
0.3999989999999999
 50
351.86989799999498
 51
81.869898000000006
  0
LINE
  8
_0-3_躯体と製品
  6
CONTINUOUS
 62
    7
 10
193.614935
 20
450.09168521200002
 11
193.64305100000001
 21
450.288512212
  0
ARC
  8
_0-3_躯体と製品
  6
CONTINUOUS
 62
    7
 10
193.218953
 20
450.14825321199999
 40
0.3999989999999999
 50
261.70153399999998
 51
351.86989799999498
  0
LINE
  8
_0-3_躯体と製品
  6
CONTINUOUS
 62
    7
 10
186.35759899999999
 20
450.74479721199998
 11
193.16122100000001
 21
449.75244221200001
  0
LINE
  8
_0-3_躯体と製品
  6
CONTINUOUS
 62
    7
 10
181.69961900000001
 20
453.50434121199999
 11
186.69962000000001
 21
451.68449021200001
  0
LINE
  8
_0-3_躯体と製品
  6
CONTINUOUS
 62
    7
 10
181.69961900000001
 20
461.686634212
 11
186.35759899999999
 21
463.38200021199998
  0
LINE
  8
_0-3_躯体と製品
  6
CONTINUOUS
 62
    7
 10
181.69961900000001
 20
460.62245621199997
 11
186.69962000000001
 21
462.442307212
  0
LINE
  8
_0-3_躯体と製品
  6
CONTINUOUS
 62
    7
 10
189.5
 20
453.06339821199998
 11
201.5
 21
453.06339821199998
  0
LINE
  8
_0-3_躯体と製品
  6
CONTINUOUS
 62
    7
 10
188.585354
 20
454.80377321200001
 11
189.5
 21
453.06339821199998
  0
LINE
  8
_0-3_躯体と製品
  6
CONTINUOUS
 62
    7
 10
203.5
 20
462.06340021199998
 11
204
 21
462.06340021199998
  0
LINE
  8
_0-3_躯体と製品
  6
CONTINUOUS
 62
    7
 10
203.5
 20
452.06340021199998
 11
204
 21
452.06340021199998
  0
LINE
  8
_0-3_躯体と製品
  6
CONTINUOUS
 62
    7
 10
206
 20
457.56340021199998
 11
205.5
 21
457.06340021199998
  0
LINE
  8
_0-3_躯体と製品
  6
CONTINUOUS
 62
    7
 10
206
 20
456.56340021199998
 11
205.5
 21
457.06340021199998
  0
LINE
  8
_0-3_躯体と製品
  6
CONTINUOUS
 62
    7
 10
203.5
 20
462.06340021199998
 11
203.5
 21
452.06340021199998
  0
LINE
  8
_0-3_躯体と製品
  6
CONTINUOUS
 62
    7
 10
203.5
 20
503.56340021199998
 11
204
 21
503.56340021199998
  0
LINE
  8
_0-3_躯体と製品
  6
CONTINUOUS
 62
    7
 10
204
 20
503.56340021199998
 11
204
 21
490.56340021199998
  0
LINE
  8
_0-3_躯体と製品
  6
CONTINUOUS
 62
    7
 10
204
 20
490.56340021199998
 11
203.5
 21
490.56340021199998
  0
LINE
  8
_0-3_躯体と製品
  6
CONTINUOUS
 62
    7
 10
203.5
 20
489.06340021199998
 11
204
 21
489.06340021199998
  0
ARC
  8
_0-3_躯体と製品
  6
CONTINUOUS
 62
    7
 10
213.5
 20
498.86340021199999
 40
0.2999999999999999
 50
180
 51
270
  0
LINE
  8
_0-3_躯体と製品
  6
CONTINUOUS
 62
    7
 10
213.5
 20
498.56340021199998
 11
218.09999999999999
 21
498.56340021199998
  0
LINE
  8
_0-3_躯体と製品
  6
CONTINUOUS
 62
    7
 10
212
 20
498.36340021199999
 11
212
 21
503.06340021199998
  0
ARC
  8
_0-3_躯体と製品
  6
CONTINUOUS
 62
    7
 10
213
 20
498.36340021199999
 40
1
 50
180
 51
270
  0
LINE
  8
_0-3_躯体と製品
  6
CONTINUOUS
 62
    7
 10
213
 20
497.36340021199999
 11
218.09999999999999
 21
497.36340021199999
  0
ARC
  8
_0-3_躯体と製品
  6
CONTINUOUS
 62
    7
 10
211.5
 20
503.06340021199998
 40
0.5
 50
0
 51
90
  0
LINE
  8
_0-3_躯体と製品
  6
CONTINUOUS
 62
    7
 10
211.5
 20
503.56340021199998
 11
206.5
 21
503.56340021199998
  0
ARC
  8
_0-3_躯体と製品
  6
CONTINUOUS
 62
    7
 10
206.5
 20
503.06340021199998
 40
0.5
 50
90
 51
180
  0
LINE
  8
_0-3_躯体と製品
  6
CONTINUOUS
 62
    7
 10
206
 20
503.06340021199998
 11
206
 21
491.06340021199998
  0
ARC
  8
_0-3_躯体と製品
  6
CONTINUOUS
 62
    7
 10
218.09999999999999
 20
497.96340021200001
 40
0.5999999999999999
 50
270
 51
90
  0
ARC
  8
_0-3_躯体と製品
  6
CONTINUOUS
 62
    7
 10
206.5
 20
488.56340021199998
 40
0.5
 50
90
 51
180
  0
ARC
  8
_0-3_躯体と製品
  6
CONTINUOUS
 62
    7
 10
206.5
 20
491.06340021199998
 40
0.5
 50
180
 51
270
  0
LINE
  8
_0-3_躯体と製品
  6
CONTINUOUS
 62
    7
 10
212
 20
490.56340021199998
 11
206.5
 21
490.56340021199998
  0
ARC
  8
_0-3_躯体と製品
  6
CONTINUOUS
 62
    7
 10
212
 20
490.06340021199998
 40
0.5
 50
0
 51
90
  0
LINE
  8
_0-3_躯体と製品
  6
CONTINUOUS
 62
    7
 10
212.5
 20
484.06340021199998
 11
212.5
 21
490.06340021199998
  0
ARC
  8
_0-3_躯体と製品
  6
CONTINUOUS
 62
    7
 10
211.5
 20
484.06340021199998
 40
1
 50
270
 51
0
  0
LINE
  8
_0-3_躯体と製品
  6
CONTINUOUS
 62
    7
 10
211.5
 20
483.06340021199998
 11
209.59999999999999
 21
483.06340021199998
  0
LINE
  8
_0-3_躯体と製品
  6
CONTINUOUS
 62
    7
 10
211
 20
488.56340021199998
 11
211
 21
484.76340021200002
  0
ARC
  8
_0-3_躯体と製品
  6
CONTINUOUS
 62
    7
 10
210.5
 20
488.56340021199998
 40
0.5
 50
0
 51
90
  0
LINE
  8
_0-3_躯体と製品
  6
CONTINUOUS
 62
    7
 10
210.5
 20
489.06340021199998
 11
206.5
 21
489.06340021199998
  0
LINE
  8
_0-3_躯体と製品
  6
CONTINUOUS
 62
    7
 10
210.5
 20
484.26340021200002
 11
209.59999999999999
 21
484.26340021200002
  0
ARC
  8
_0-3_躯体と製品
  6
CONTINUOUS
 62
    7
 10
210.5
 20
484.76340021200002
 40
0.5
 50
270
 51
0
  0
ARC
  8
_0-3_躯体と製品
  6
CONTINUOUS
 62
    7
 10
209.59999999999999
 20
483.663400212
 40
0.5999999999999999
 50
90
 51
270
  0
LINE
  8
_0-3_躯体と製品
  6
CONTINUOUS
 62
    7
 10
205
 20
505.86340021199999
 11
205
 21
509.26340021200002
  0
ARC
  8
_0-3_躯体と製品
  6
CONTINUOUS
 62
    7
 10
205.30000000000001
 20
505.86340021199999
 40
0.2999999999999999
 50
180
 51
270
  0
LINE
  8
_0-3_躯体と製品
  6
CONTINUOUS
 62
    7
 10
205.30000000000001
 20
505.56340021199998
 11
206.5
 21
505.56340021199998
  0
LINE
  8
_0-3_躯体と製品
  6
CONTINUOUS
 62
    7
 10
205.30000000000001
 20
509.56340021199998
 11
206.5
 21
509.56340021199998
  0
ARC
  8
_0-3_躯体と製品
  6
CONTINUOUS
 62
    7
 10
205.30000000000001
 20
509.26340021200002
 40
0.2999999999999999
 50
90
 51
180
  0
LINE
  8
_0-3_躯体と製品
  6
CONTINUOUS
 62
    7
 10
211.5
 20
509.56340021199998
 11
214
 21
509.56340021199998
  0
LINE
  8
_0-3_躯体と製品
  6
CONTINUOUS
 62
    7
 10
211.5
 20
505.56340021199998
 11
214
 21
505.56340021199998
  0
LINE
  8
_0-3_躯体と製品
  6
CONTINUOUS
 62
    7
 10
211.5
 20
509.56340021199998
 11
211
 21
509.06340021199998
  0
LINE
  8
_0-3_躯体と製品
  6
CONTINUOUS
 62
    7
 10
211
 20
509.06340021199998
 11
210.5
 21
509.56340021199998
  0
LINE
  8
_0-3_躯体と製品
  6
CONTINUOUS
 62
    7
 10
210.5
 20
509.56340021199998
 11
210
 21
509.06340021199998
  0
LINE
  8
_0-3_躯体と製品
  6
CONTINUOUS
 62
    7
 10
210
 20
509.06340021199998
 11
209.5
 21
509.56340021199998
  0
LINE
  8
_0-3_躯体と製品
  6
CONTINUOUS
 62
    7
 10
209.5
 20
509.56340021199998
 11
209
 21
509.06340021199998
  0
LINE
  8
_0-3_躯体と製品
  6
CONTINUOUS
 62
    7
 10
209
 20
509.06340021199998
 11
208.5
 21
509.56340021199998
  0
LINE
  8
_0-3_躯体と製品
  6
CONTINUOUS
 62
    7
 10
208.5
 20
509.56340021199998
 11
208
 21
509.06340021199998
  0
LINE
  8
_0-3_躯体と製品
  6
CONTINUOUS
 62
    7
 10
208
 20
509.06340021199998
 11
207.5
 21
509.56340021199998
  0
LINE
  8
_0-3_躯体と製品
  6
CONTINUOUS
 62
    7
 10
207.5
 20
509.56340021199998
 11
207
 21
509.06340021199998
  0
LINE
  8
_0-3_躯体と製品
  6
CONTINUOUS
 62
    7
 10
207
 20
509.06340021199998
 11
206.5
 21
509.56340021199998
  0
LINE
  8
_0-3_躯体と製品
  6
CONTINUOUS
 62
    7
 10
211.5
 20
505.56340021199998
 11
211
 21
506.06340021199998
  0
LINE
  8
_0-3_躯体と製品
  6
CONTINUOUS
 62
    7
 10
211
 20
506.06340021199998
 11
210.5
 21
505.56340021199998
  0
LINE
  8
_0-3_躯体と製品
  6
CONTINUOUS
 62
    7
 10
210.5
 20
505.56340021199998
 11
210
 21
506.06340021199998
  0
LINE
  8
_0-3_躯体と製品
  6
CONTINUOUS
 62
    7
 10
210
 20
506.06340021199998
 11
209.5
 21
505.56340021199998
  0
LINE
  8
_0-3_躯体と製品
  6
CONTINUOUS
 62
    7
 10
209.5
 20
505.56340021199998
 11
209
 21
506.06340021199998
  0
LINE
  8
_0-3_躯体と製品
  6
CONTINUOUS
 62
    7
 10
209
 20
506.06340021199998
 11
208.5
 21
505.56340021199998
  0
LINE
  8
_0-3_躯体と製品
  6
CONTINUOUS
 62
    7
 10
208.5
 20
505.56340021199998
 11
208
 21
506.06340021199998
  0
LINE
  8
_0-3_躯体と製品
  6
CONTINUOUS
 62
    7
 10
208
 20
506.06340021199998
 11
207.5
 21
505.56340021199998
  0
LINE
  8
_0-3_躯体と製品
  6
CONTINUOUS
 62
    7
 10
207.5
 20
505.56340021199998
 11
207
 21
506.06340021199998
  0
LINE
  8
_0-3_躯体と製品
  6
CONTINUOUS
 62
    7
 10
207
 20
506.06340021199998
 11
206.5
 21
505.56340021199998
  0
LINE
  8
_0-3_躯体と製品
  6
CONTINUOUS
 62
    7
 10
204
 20
511.56340021199998
 11
212.5
 21
511.56340021199998
  0
ARC
  8
_0-3_躯体と製品
  6
CONTINUOUS
 62
    7
 10
204
 20
511.06340021199998
 40
0.5
 50
90
 51
180
  0
LINE
  8
_0-3_躯体と製品
  6
CONTINUOUS
 62
    7
 10
203.5
 20
511.06340021199998
 11
203.5
 21
503.56340021199998
  0
LINE
  8
_0-3_躯体と製品
  6
CONTINUOUS
 62
    7
 10
212.5
 20
511.56340021199998
 11
212.5
 21
510.76340021200002
  0
LINE
  8
_0-3_躯体と製品
  6
CONTINUOUS
 62
    7
 10
213.19999999999999
 20
504.36340021199999
 11
213.90000000000001
 21
504.36340021199999
  0
LINE
  8
_0-3_躯体と製品
  6
CONTINUOUS
 62
    7
 10
213.19999999999999
 20
498.86340021199999
 11
213.19999999999999
 21
504.36340021199999
  0
LINE
  8
_0-3_躯体と製品
  6
CONTINUOUS
 62
    7
 10
212.5
 20
510.76340021200002
 11
213.90000000000001
 21
510.76340021200002
  0
LINE
  8
_0-3_躯体と製品
  6
CONTINUOUS
 62
    7
 10
203.5
 20
490.56340021199998
 11
203.5
 21
489.06340021199998
  0
ARC
  8
_0-3_躯体と製品
  6
CONTINUOUS
 62
    7
 10
213.90000000000001
 20
504.96340021200001
 40
0.5999999999999999
 50
270
 51
90
  0
ARC
  8
_0-3_躯体と製品
  6
CONTINUOUS
 62
    7
 10
213.90000000000001
 20
510.163400212
 40
0.5999999999999999
 50
270
 51
90
  0
LINE
  8
_0-3_躯体と製品
  6
CONTINUOUS
 62
    7
 10
204
 20
489.06340021199998
 11
204
 21
477.56340021199998
  0
LINE
  8
_0-3_躯体と製品
  6
CONTINUOUS
 62
    7
 10
206
 20
478.06340021199998
 11
206
 21
488.56340021199998
  0
LINE
  8
_0-3_躯体と製品
  6
CONTINUOUS
 62
    7
 10
204
 20
477.56340021199998
 11
203.5
 21
477.56340021199998
  0
LINE
  8
_0-3_躯体と製品
  6
CONTINUOUS
 62
    7
 10
203.5
 20
476.06340021199998
 11
204
 21
476.06340021199998
  0
LINE
  8
_0-3_躯体と製品
  6
CONTINUOUS
 62
    7
 10
204
 20
476.06340021199998
 11
204
 21
462.06340021199998
  0
LINE
  8
_0-3_躯体と製品
  6
CONTINUOUS
 62
    7
 10
204
 20
452.06340021199998
 11
204
 21
438.06340021199998
  0
LINE
  8
_0-3_躯体と製品
  6
CONTINUOUS
 62
    7
 10
204
 20
438.06340021199998
 11
203.5
 21
438.06340021199998
  0
ARC
  8
_0-3_躯体と製品
  6
CONTINUOUS
 62
    7
 10
206.5
 20
478.06340021199998
 40
0.5
 50
180
 51
270
  0
LINE
  8
_0-3_躯体と製品
  6
CONTINUOUS
 62
    7
 10
206.5
 20
477.56340021199998
 11
215.5
 21
477.56340021199998
  0
LINE
  8
_0-3_躯体と製品
  6
CONTINUOUS
 62
    7
 10
206.5
 20
431.56340021199998
 11
212.25
 21
431.56340021199998
  0
ARC
  8
_0-3_躯体と製品
  6
CONTINUOUS
 62
    7
 10
206.5
 20
432.06340021199998
 40
0.5
 50
180
 51
270
  0
ARC
  8
_0-3_躯体と製品
  6
CONTINUOUS
 62
    7
 10
206.5
 20
429.56340021199998
 40
0.5
 50
90
 51
180
  0
LINE
  8
_0-3_躯体と製品
  6
CONTINUOUS
 62
    7
 10
206.5
 20
430.06340021199998
 11
209
 21
430.06340021199998
  0
LINE
  8
_0-3_躯体と製品
  6
CONTINUOUS
 62
    7
 10
209
 20
430.06340021199998
 11
210
 21
430.56340021199998
  0
LINE
  8
_0-3_躯体と製品
  6
CONTINUOUS
 62
    7
 10
210
 20
430.56340021199998
 11
210
 21
430.06340021199998
  0
LINE
  8
_0-3_躯体と製品
  6
CONTINUOUS
 62
    7
 10
210
 20
430.06340021199998
 11
211
 21
430.56340021199998
  0
LINE
  8
_0-3_躯体と製品
  6
CONTINUOUS
 62
    7
 10
211
 20
430.56340021199998
 11
211
 21
430.06340021199998
  0
ARC
  8
_0-3_躯体と製品
  6
CONTINUOUS
 62
    7
 10
212.25
 20
430.81340021199998
 40
0.75
 50
270
 51
90
  0
ARC
  8
_0-3_躯体と製品
  6
CONTINUOUS
 62
    7
 10
206.5
 20
475.56340021199998
 40
0.5
 50
90
 51
180
  0
ARC
  8
_0-3_躯体と製品
  6
CONTINUOUS
 62
    7
 10
215.5
 20
477.06340021199998
 40
0.5
 50
0
 51
90
  0
LINE
  8
_0-3_躯体と製品
  6
CONTINUOUS
 62
    7
 10
215.5
 20
476.06340021199998
 11
206.5
 21
476.06340021199998
  0
ARC
  8
_0-3_躯体と製品
  6
CONTINUOUS
 62
    7
 10
215.5
 20
476.56340021199998
 40
0.5
 50
270
 51
0
  0
LINE
  8
_0-3_躯体と製品
  6
CONTINUOUS
 62
    7
 10
216
 20
476.56340021199998
 11
216
 21
477.06340021199998
  0
LINE
  8
_0-3_躯体と製品
  6
CONTINUOUS
 62
    7
 10
206
 20
436.06340021199998
 11
206
 21
432.06340021199998
  0
ARC
  8
_0-3_躯体と製品
  6
CONTINUOUS
 62
    7
 10
206.5
 20
436.06340021199998
 40
0.5
 50
90
 51
180
  0
LINE
  8
_0-3_躯体と製品
  6
CONTINUOUS
 62
    7
 10
206.5
 20
436.56340021199998
 11
217.25
 21
436.56340021199998
  0
LINE
  8
_0-3_躯体と製品
  6
CONTINUOUS
 62
    7
 10
206
 20
438.56340021199998
 11
206
 21
456.56340021199998
  0
ARC
  8
_0-3_躯体と製品
  6
CONTINUOUS
 62
    7
 10
206.5
 20
438.56340021199998
 40
0.5
 50
180
 51
270
  0
LINE
  8
_0-3_躯体と製品
  6
CONTINUOUS
 62
    7
 10
206.5
 20
438.06340021199998
 11
217.25
 21
438.06340021199998
  0
ARC
  8
_0-3_躯体と製品
  6
CONTINUOUS
 62
    7
 10
217.25
 20
437.31340021199998
 40
0.75
 50
270
 51
90
  0
ARC
  8
_0-3_躯体と製品
  6
CONTINUOUS
 62
    7
 10
206.5
 20
426.56340021199998
 40
0.5
 50
180
 51
270
  0
LINE
  8
_0-3_躯体と製品
  6
CONTINUOUS
 62
    7
 10
206.5
 20
426.06340021199998
 11
209
 21
426.06340021199998
  0
ARC
  8
_0-3_躯体と製品
  6
CONTINUOUS
 62
    7
 10
212.25
 20
425.31340021199998
 40
0.75
 50
270
 51
90
  0
LINE
  8
_0-3_躯体と製品
  6
CONTINUOUS
 62
    7
 10
209
 20
426.06340021199998
 11
210
 21
425.56340021199998
  0
LINE
  8
_0-3_躯体と製品
  6
CONTINUOUS
 62
    7
 10
210
 20
426.06340021199998
 11
210
 21
425.56340021199998
  0
LINE
  8
_0-3_躯体と製品
  6
CONTINUOUS
 62
    7
 10
210
 20
426.06340021199998
 11
211
 21
425.56340021199998
  0
LINE
  8
_0-3_躯体と製品
  6
CONTINUOUS
 62
    7
 10
211
 20
426.06340021199998
 11
211
 21
425.56340021199998
  0
LINE
  8
_0-3_躯体と製品
  6
CONTINUOUS
 62
    7
 10
206
 20
426.56340021199998
 11
206
 21
429.56340021199998
  0
LINE
  8
_0-3_躯体と製品
  6
CONTINUOUS
 62
    7
 10
204.5
 20
426.56340021199998
 11
204.5
 21
436.06340021199998
  0
ARC
  8
_0-3_躯体と製品
  6
CONTINUOUS
 62
    7
 10
204
 20
426.56340021199998
 40
0.5
 50
270
 51
0
  0
LINE
  8
_0-3_躯体と製品
  6
CONTINUOUS
 62
    7
 10
204
 20
426.06340021199998
 11
203.5
 21
426.06340021199998
  0
LINE
  8
_0-3_躯体と製品
  6
CONTINUOUS
 62
    7
 10
203.5
 20
424.56340021199998
 11
203.5
 21
426.06340021199998
  0
LINE
  8
_0-3_躯体と製品
  6
CONTINUOUS
 62
    7
 10
212.25
 20
424.56340021199998
 11
203.5
 21
424.56340021199998
  0
LINE
  8
_0-3_躯体と製品
  6
CONTINUOUS
 62
    7
 10
204
 20
436.56340021199998
 11
203.5
 21
436.56340021199998
  0
ARC
  8
_0-3_躯体と製品
  6
CONTINUOUS
 62
    7
 10
204
 20
436.06340021199998
 40
0.5
 50
0
 51
90
  0
LINE
  8
_0-3_躯体と製品
  6
CONTINUOUS
 62
    7
 10
212.25
 20
426.06340021199998
 11
211
 21
426.06340021199998
  0
LINE
  8
_0-3_躯体と製品
  6
CONTINUOUS
 62
    7
 10
212.25
 20
430.06340021199998
 11
211
 21
430.06340021199998
  0
LINE
  8
_0-3_躯体と製品
  6
CONTINUOUS
 62
    7
 10
203.5
 20
438.06340021199998
 11
203.5
 21
436.56340021199998
  0
LINE
  8
_0-3_躯体と製品
  6
CONTINUOUS
 62
    7
 10
203.5
 20
477.56340021199998
 11
203.5
 21
476.06340021199998
  0
LINE
  8
_0-3_躯体と製品
  6
CONTINUOUS
 62
    7
 10
206
 20
457.56340021199998
 11
206
 21
475.56340021199998
  0
LINE
  8
_0-3_躯体と製品
  6
CONTINUOUS
 62
    7
 10
248.7393405816
 20
456.60915105629999
 11
247.7398601834
 21
457.60863145450003
  0
LINE
  8
_0-3_躯体と製品
  6
CONTINUOUS
 62
    7
 10
235.6989923358
 20
455.5073636784
 11
233.76250040369999
 21
457.44385561050001
  0
LINE
  8
_0-3_躯体と製品
  6
CONTINUOUS
 62
    7
 10
648.19115448340006
 20
435.6747685592
 11
647.19167408529995
 21
436.67424895729999
  0
LINE
  8
_0-3_躯体と製品
  6
CONTINUOUS
 62
    7
 10
648.12072950779998
 20
434.33097997239997
 11
645.69924566359998
 21
436.75246381660003
  0
LINE
  8
_0-3_躯体と製品
  6
CONTINUOUS
 62
    7
 10
647.09023361120001
 20
433.9472623067
 11
644.20681724190001
 21
436.83067867599999
  0
LINE
  8
_0-3_躯体と製品
  6
CONTINUOUS
 62
    7
 10
248.66891560600001
 20
455.26536246960001
 11
246.24743176179999
 21
457.6868463138
  0
LINE
  8
_0-3_躯体と製品
  6
CONTINUOUS
 62
    7
 10
247.6384197093
 20
454.88164480389997
 11
244.75500334009999
 21
457.76506117309998
  0
LINE
  8
_0-3_躯体と製品
  6
CONTINUOUS
 62
    7
 10
246.1459912876
 20
454.95985966320001
 11
243.26257491839999
 21
457.8432760325
  0
LINE
  8
_0-3_躯体と製品
  6
CONTINUOUS
 62
    7
 10
244.65356286599999
 20
455.03807452249998
 11
241.77014649669999
 21
457.92149089179998
  0
LINE
  8
_0-3_躯体と製品
  6
CONTINUOUS
 62
    7
 10
243.16113444429999
 20
455.11628938180002
 11
240.277718075
 21
457.99970575110001
  0
LINE
  8
_0-3_躯体と製品
  6
CONTINUOUS
 62
    7
 10
241.66870602259999
 20
455.19450424109999
 11
238.7852896533
 21
458.07792061039999
  0
LINE
  8
_0-3_躯体と製品
  6
CONTINUOUS
 62
    7
 10
240.17627760089999
 20
455.27271910050001
 11
237.2928612316
 21
458.15613546970002
  0
LINE
  8
_0-3_躯体と製品
  6
CONTINUOUS
 62
    7
 10
238.6838491792
 20
455.35093395979999
 11
235.8004328099
 21
458.23435032909998
  0
LINE
  8
_0-3_躯体と製品
  6
CONTINUOUS
 62
    7
 10
237.1914207575
 20
455.42914881910002
 11
234.3080043882
 21
458.31256518840001
  0
LINE
  8
_0-3_躯体と製品
  6
CONTINUOUS
 62
    7
 10
248.64603831479999
 20
454.8288377504
 11
248.7888400276
 21
457.55365675040002
  0
LINE
  8
_0-3_躯体と製品
  6
CONTINUOUS
 62
    7
 10
648.09785221669995
 20
433.89445525320002
 11
648.24065392939997
 21
436.61927425319999
  0
LINE
  8
_0-3_躯体と製品
  6
CONTINUOUS
 62
    7
 10
216
 20
461.64445845829999
 11
216
 21
472.69549389150001
  0
LINE
  8
_0-3_躯体と製品
  6
CONTINUOUS
 62
    7
 10
216
 20
472.69549389150001
 11
217.5
 21
472.69549389150001
  0
LINE
  8
_0-3_躯体と製品
  6
CONTINUOUS
 62
    7
 10
674.5
 20
348.08791542130001
 11
667.5
 21
348.08791542130001
  0
LINE
  8
_0-3_躯体と製品
  6
CONTINUOUS
 62
    7
 10
667.5
 20
346.58791542130001
 11
667.5
 21
348.08791542130001
  0
CIRCLE
  8
_0-3_躯体と製品
  6
CONTINUOUS
 62
    7
 10
677.5
 20
346.58791542130001
 40
1.3999999999999999
  0
CIRCLE
  8
_0-3_躯体と製品
  6
CONTINUOUS
 62
    7
 10
677.5
 20
436.58791542130001
 40
1.3999999999999999
  0
LINE
  8
_0-3_躯体と製品
  6
CONTINUOUS
 62
    7
 10
677.5
 20
433.74102172120001
 11
677.5
 21
349.58791542130001
  0
ARC
  8
_0-3_躯体と製品
  6
CONTINUOUS
 62
    7
 10
674.5
 20
349.58791542130001
 40
3
 50
270
 51
0
  0
ARC
  8
_0-3_躯体と製品
  6
CONTINUOUS
 62
    7
 10
674.5
 20
433.74102172120001
 40
3
 50
0
 51
86.999999999989996
  0
LINE
  8
_0-3_躯体と製品
  6
CONTINUOUS
 62
    7
 10
674.5
 20
346.58791542130001
 11
667.5
 21
346.58791542130001
  0
ARC
  8
_0-3_躯体と製品
  6
CONTINUOUS
 62
    7
 10
218.5
 20
461.64445845829999
 40
1
 50
180
 51
267
  0
LINE
  8
_0-3_躯体と製品
  6
CONTINUOUS
 62
    7
 10
217.5
 20
461.64445845829999
 11
217.5
 21
472.69549389150001
  0
ARC
  8
_0-3_躯体と製品
  6
CONTINUOUS
 62
    7
 10
218.5
 20
461.64445845829999
 40
2.5
 50
180
 51
267
  0
ARC
  8
_0-3_躯体と製品
  6
CONTINUOUS
 62
    7
 10
674.5
 20
433.74102172120001
 40
1.5
 50
0
 51
86.999999999989996
  0
ARC
  8
_0-3_躯体と製品
  6
CONTINUOUS
 62
    7
 10
674.5
 20
349.58791542130001
 40
1.5
 50
270
 51
0
  0
LINE
  8
_0-3_躯体と製品
  6
CONTINUOUS
 62
    7
 10
676
 20
349.58791542130001
 11
676
 21
433.74102172120001
  0
LINE
  8
_0-3_躯体と製品
  6
CONTINUOUS
 62
    7
 10
647.9556426803
 20
431.18093565279997
 11
645.61256064049996
 21
433.52401769260001
  0
LINE
  8
_0-3_躯体と製品
  6
CONTINUOUS
 62
    7
 10
648.02606765600001
 20
432.52472423950002
 11
647.10498906220005
 21
433.44580283329998
  0
LINE
  8
_0-3_躯体と製品
  6
CONTINUOUS
 62
    7
 10
647.88521770470004
 20
429.837147066
 11
644.12013221879999
 21
433.60223255189999
  0
ARC
  8
_0-3_躯体と製品
  6
CONTINUOUS
 62
    7
 10
656.89806935850004
 20
404.6496510325
 40
0.5999999999999999
 50
167
 51
347
  0
ARC
  8
_0-3_躯体と製品
  6
CONTINUOUS
 62
    7
 10
656.4094548301
 20
407.42318162200002
 40
0.5
 50
347
 51
86.999999999989981
  0
ARC
  8
_0-3_躯体と製品
  6
CONTINUOUS
 62
    7
 10
658.48320909749998
 20
407.51477523530002
 40
0.2999999999999999
 50
86.999999999989996
 51
167
  0
ARC
  8
_0-3_躯体と製品
  6
CONTINUOUS
 62
    7
 10
661.16545033700004
 20
359.48791542129999
 40
0.5999999999999999
 50
90
 51
270
  0
LINE
  8
_0-3_躯体と製品
  6
CONTINUOUS
 62
    7
 10
672.33292461500002
 20
351.7726027155
 11
672.33292461500002
 21
348.08791542130001
  0
LINE
  8
_0-3_躯体と製品
  6
CONTINUOUS
 62
    7
 10
675.33292461500002
 20
350.58791542130001
 11
675.33292461500002
 21
352.08791542130001
  0
LINE
  8
_0-3_躯体と製品
  6
CONTINUOUS
 62
    7
 10
672.83292461500002
 20
348.08791542130001
 11
672.33292461500002
 21
348.08791542130001
  0
ARC
  8
_0-3_躯体と製品
  6
CONTINUOUS
 62
    7
 10
672.83292461500002
 20
350.58791542130001
 40
2.5
 50
270
 51
0
  0
LINE
  8
_0-3_躯体と製品
  6
CONTINUOUS
 62
    7
 10
665.56545033700002
 20
360.08791542130001
 11
665.56545033700002
 21
361.08791542130001
  0
LINE
  8
_0-3_躯体と製品
  6
CONTINUOUS
 62
    7
 10
665.56545033700002
 20
361.08791542130001
 11
663.56545033700002
 21
360.08791542130001
  0
LINE
  8
_0-3_躯体と製品
  6
CONTINUOUS
 62
    7
 10
661.16545033700004
 20
360.08791542130001
 11
663.56545033700002
 21
360.08791542130001
  0
ARC
  8
_0-3_躯体と製品
  6
CONTINUOUS
 62
    7
 10
669.9480017587
 20
360.58791542130001
 40
0.5
 50
270
 51
11.999999999999991
  0
LINE
  8
_0-3_躯体と製品
  6
CONTINUOUS
 62
    7
 10
670.41562619440003
 20
358.88791542130002
 11
661.16545033700004
 21
358.88791542130002
  0
LINE
  8
_0-3_躯体と製品
  6
CONTINUOUS
 62
    7
 10
670.90469999480001
 20
358.49187126679999
 11
672.33292461500002
 21
351.7726027155
  0
ARC
  8
_0-3_躯体と製品
  6
CONTINUOUS
 62
    7
 10
670.41562619440003
 20
358.38791542130002
 40
0.5
 50
12
 51
90.000000000000014
  0
ARC
  8
_0-3_躯体と製品
  6
CONTINUOUS
 62
    7
 10
647.18409616550002
 20
406.90528983669998
 40
0.5
 50
176.99999999999997
 51
267
  0
LINE
  8
_0-3_躯体と製品
  6
CONTINUOUS
 62
    7
 10
647.6572429547
 20
406.37980709120001
 11
647.15792818729994
 21
406.40597506929998
  0
ARC
  8
_0-3_躯体と製品
  6
CONTINUOUS
 62
    7
 10
647.68341093280003
 20
406.8791218586
 40
0.5
 50
266.99999999999
 51
357.00000000000097
  0
ARC
  8
_0-3_躯体と製品
  6
CONTINUOUS
 62
    7
 10
659.62392036020003
 20
406.75403244900002
 40
1
 50
12
 51
86.999999999989996
  0
ARC
  8
_0-3_躯体と製品
  6
CONTINUOUS
 62
    7
 10
660.44253170950003
 20
407.71250319209997
 40
3
 50
12
 51
86.999999999989996
  0
ARC
  8
_0-3_躯体と製品
  6
CONTINUOUS
 62
    7
 10
647.55044785919995
 20
413.89569657999999
 40
0.5
 50
86.999999999989996
 51
177
  0
LINE
  8
_0-3_躯体と製品
  6
CONTINUOUS
 62
    7
 10
648.07593060470003
 20
414.36884336920002
 11
647.57661583729998
 21
414.39501134739999
  0
ARC
  8
_0-3_躯体と製品
  6
CONTINUOUS
 62
    7
 10
648.04976262649996
 20
413.86952860190002
 40
0.5
 50
357.00000000000102
 51
86.999999999989996
  0
LINE
  8
_0-3_躯体と製品
  6
CONTINUOUS
 62
    7
 10
663.37697451170004
 20
408.33623826450003
 11
675.33292461500002
 21
352.08791542130001
  0
LINE
  8
_0-3_躯体と製品
  6
CONTINUOUS
 62
    7
 10
660.60206796099999
 20
406.96194413979998
 11
670.43707555909998
 21
360.69187126679998
  0
LINE
  8
_0-3_躯体と製品
  6
CONTINUOUS
 62
    7
 10
669.9480017587
 20
360.08791542130001
 11
665.56545033700002
 21
360.08791542130001
  0
LINE
  8
_0-3_躯体と製品
  6
CONTINUOUS
 62
    7
 10
648.44440548140005
 20
411.8461015542
 11
648.54907739390001
 21
413.84336062379998
  0
LINE
  8
_0-3_躯体と製品
  6
CONTINUOUS
 62
    7
 10
648.91755227069996
 20
411.32061880869998
 11
660.59953957820005
 21
410.70839179630002
  0
ARC
  8
_0-3_躯体と製品
  6
CONTINUOUS
 62
    7
 10
648.94372024879999
 20
411.81993357610003
 40
0.5
 50
176.99999999999997
 51
267
  0
LINE
  8
_0-3_躯体と製品
  6
CONTINUOUS
 62
    7
 10
648.23506165649997
 20
407.85158341520003
 11
648.18272570019997
 21
406.85295388050002
  0
ARC
  8
_0-3_躯体と製品
  6
CONTINUOUS
 62
    7
 10
648.73437642379997
 20
407.82541543709999
 40
0.5
 50
86.999999999989996
 51
177
  0
LINE
  8
_0-3_躯体と製品
  6
CONTINUOUS
 62
    7
 10
658.19089807809996
 20
407.58226055159997
 11
657.4826913974
 21
404.51468039989999
  0
LINE
  8
_0-3_躯体と製品
  6
CONTINUOUS
 62
    7
 10
659.67625631650003
 20
407.75266198370002
 11
658.49890988439995
 21
407.8143640957
  0
LINE
  8
_0-3_躯体と製品
  6
CONTINUOUS
 62
    7
 10
648.76054440200005
 20
408.32473020449999
 11
656.43562280829997
 21
407.92249638940001
  0
LINE
  8
_0-3_躯体と製品
  6
CONTINUOUS
 62
    7
 10
656.89663986250002
 20
407.31070609480003
 11
656.31344731959996
 21
404.78462166510002
  0
LINE
  8
_0-3_躯体と製品
  6
CONTINUOUS
 62
    7
 10
646.63244544179997
 20
405.93282828010001
 11
648.09785221669995
 21
433.89445525320002
  0
LINE
  8
_0-3_躯体と製品
  6
CONTINUOUS
 62
    7
 10
248.50382877850001
 20
452.11531814990002
 11
246.1607467387
 21
454.45840018979999
  0
LINE
  8
_0-3_躯体と製品
  6
CONTINUOUS
 62
    7
 10
248.57425375419999
 20
453.45910673669999
 11
247.6531751604
 21
454.38018533040002
  0
LINE
  8
_0-3_躯体と製品
  6
CONTINUOUS
 62
    7
 10
248.43340380289999
 20
450.77152956319998
 11
244.668318317
 21
454.53661504910002
  0
LINE
  8
_0-3_躯体と製品
  6
CONTINUOUS
 62
    7
 10
247.4029079062
 20
450.3878118975
 11
243.1758898953
 21
454.6148299084
  0
LINE
  8
_0-3_躯体と製品
  6
CONTINUOUS
 62
    7
 10
245.91047948459999
 20
450.46602675679998
 11
241.6834614736
 21
454.69304476769997
  0
LINE
  8
_0-3_躯体と製品
  6
CONTINUOUS
 62
    7
 10
244.41805106289999
 20
450.54424161610001
 11
240.19103305190001
 21
454.77125962700001
  0
LINE
  8
_0-3_躯体と製品
  6
CONTINUOUS
 62
    7
 10
242.92562264119999
 20
450.62245647539999
 11
238.69860463020001
 21
454.84947448640003
  0
LINE
  8
_0-3_躯体と製品
  6
CONTINUOUS
 62
    7
 10
241.4331942195
 20
450.70067133470002
 11
237.20617620850001
 21
454.9276893457
  0
LINE
  8
_0-3_躯体と製品
  6
CONTINUOUS
 62
    7
 10
239.9407657978
 20
450.77888619409998
 11
235.71374778680001
 21
455.00590420499998
  0
LINE
  8
_0-3_躯体と製品
  6
CONTINUOUS
 62
    7
 10
238.4483373761
 20
450.85710105340002
 11
234.2213193652
 21
455.08411906430001
  0
LINE
  8
_0-3_躯体と製品
  6
CONTINUOUS
 62
    7
 10
236.9559089544
 20
450.93531591269999
 11
233.5974135763
 21
454.29381129090001
  0
LINE
  8
_0-3_躯体と製品
  6
CONTINUOUS
 62
    7
 10
235.4634805327
 20
451.01353077200002
 11
233.52698860059999
 21
452.95002270409998
  0
LINE
  8
_0-3_躯体と製品
  6
CONTINUOUS
 62
    7
 10
233.97105211100001
 20
451.0917456313
 11
233.45656362490001
 21
451.60623411739999
  0
LINE
  8
_0-3_躯体と製品
  6
CONTINUOUS
 62
    7
 10
234.2065639141
 20
455.58557853769997
 11
233.69207542800001
 21
456.10006702380002
  0
LINE
  8
_0-3_躯体と製品
  6
CONTINUOUS
 62
    7
 10
232.33202840929999
 20
430.1488239578
 11
237.32517608309999
 21
429.88714417659997
  0
LINE
  8
_0-3_躯体と製品
  6
CONTINUOUS
 62
    7
 10
237.32517608309999
 20
429.88714417659997
 11
237.3775120393
 21
430.88577371129998
  0
LINE
  8
_0-3_躯体と製品
  6
CONTINUOUS
 62
    7
 10
237.3775120393
 20
430.88577371129998
 11
257.35010273440002
 21
429.83905458650003
  0
LINE
  8
_0-3_躯体と製品
  6
CONTINUOUS
 62
    7
 10
257.29776677820001
 20
428.84042505169998
 11
257.35010273440002
 21
429.83905458650003
  0
LINE
  8
_0-3_躯体と製品
  6
CONTINUOUS
 62
    7
 10
257.29776677820001
 20
428.84042505169998
 11
260.7929701498
 21
428.65724920489998
  0
ARC
  8
_0-3_躯体と製品
  6
CONTINUOUS
 62
    7
 10
260.87147408419997
 20
430.15519350699998
 40
1.5
 50
266.99999999999
 51
86.999999999989996
  0
LINE
  8
_0-3_躯体と製品
  6
CONTINUOUS
 62
    7
 10
232.48903627799999
 20
433.14471256209998
 11
260.94997801850002
 21
431.65313780909997
  0
LINE
  8
_0-3_躯体と製品
  6
CONTINUOUS
 62
    7
 10
210.80000000000001
 20
479.67863069449999
 11
210.80000000000001
 21
478.163400212
  0
LINE
  8
_0-3_躯体と製品
  6
CONTINUOUS
 62
    7
 10
207.15579159250001
 20
481.76103549880003
 11
210.80000000000001
 21
479.67863069449999
  0
ARC
  8
_0-3_躯体と製品
  6
CONTINUOUS
 62
    7
 10
207.90000000000001
 20
483.06340021199998
 40
1.5
 50
180
 51
240.25511870310004
  0
LINE
  8
_0-3_躯体と製品
  6
CONTINUOUS
 62
    7
 10
206.40000000000001
 20
483.06340021199998
 11
206.40000000000001
 21
486.31340021199998
  0
ARC
  8
_0-3_躯体と製品
  6
CONTINUOUS
 62
    7
 10
224
 20
432.58823175560002
 40
2
 50
180
 51
267
  0
LINE
  8
_0-3_躯体と製品
  6
CONTINUOUS
 62
    7
 10
223.89532808749999
 20
430.59097268609997
 11
230.3347693398
 21
430.25349587030001
  0
LINE
  8
_0-3_躯体と製品
  6
CONTINUOUS
 62
    7
 10
222
 20
432.58823175560002
 11
222
 21
440.06340021199998
  0
ARC
  8
_0-3_躯体と製品
  6
CONTINUOUS
 62
    7
 10
225.5
 20
434.51236477869998
 40
1
 50
180
 51
267
  0
LINE
  8
_0-3_躯体と製品
  6
CONTINUOUS
 62
    7
 10
225.44766404379999
 20
433.51373524399997
 11
230.4917772085
 21
433.2493844745
  0
LINE
  8
_0-3_躯体と製品
  6
CONTINUOUS
 62
    7
 10
224.5
 20
434.51236477869998
 11
224.5
 21
441.56340021199998
  0
ARC
  8
_0-3_躯体と製品
  6
CONTINUOUS
 62
    7
 10
230.3086013617
 20
429.75418110290002
 40
0.5
 50
357.00000000000102
 51
86.999999999989996
  0
LINE
  8
_0-3_躯体と製品
  6
CONTINUOUS
 62
    7
 10
230.80791612909999
 20
429.72801312479999
 11
230.75558017279999
 21
428.72938359
  0
ARC
  8
_0-3_躯体と製品
  6
CONTINUOUS
 62
    7
 10
231.25489494019999
 20
428.70321561190002
 40
0.5
 50
176.99999999999997
 51
267
  0
LINE
  8
_0-3_躯体と製品
  6
CONTINUOUS
 62
    7
 10
231.22872696210001
 20
428.20390084450003
 11
231.72804172939999
 21
428.17773286639999
  0
ARC
  8
_0-3_躯体と製品
  6
CONTINUOUS
 62
    7
 10
231.75420970760001
 20
428.67704763379999
 40
0.5
 50
266.99999999999
 51
357.00000000000097
  0
ARC
  8
_0-3_躯体と製品
  6
CONTINUOUS
 62
    7
 10
230.5179451866
 20
433.7486992419
 40
0.5
 50
266.99999999999
 51
357.00000000000097
  0
LINE
  8
_0-3_躯体と製品
  6
CONTINUOUS
 62
    7
 10
231.017259954
 20
433.72253126380002
 11
231.12193186650001
 21
435.71979033330001
  0
ARC
  8
_0-3_躯体と製品
  6
CONTINUOUS
 62
    7
 10
231.6212466339
 20
435.69362235519998
 40
0.5
 50
86.999999999989996
 51
177
  0
LINE
  8
_0-3_躯体と製品
  6
CONTINUOUS
 62
    7
 10
231.64741461200001
 20
436.19293712259997
 11
232.1467293794
 21
436.16676914440001
  0
ARC
  8
_0-3_躯体と製品
  6
CONTINUOUS
 62
    7
 10
232.12056140129999
 20
435.6674543771
 40
0.5
 50
357.00000000000102
 51
86.999999999989996
  0
LINE
  8
_0-3_躯体と製品
  6
CONTINUOUS
 62
    7
 10
212.5
 20
479.56340021199998
 11
218
 21
479.56340021199998
  0
LINE
  8
_0-3_躯体と製品
  6
CONTINUOUS
 62
    7
 10
219
 20
481.06340021199998
 11
211.40000000000001
 21
481.06340021199998
  0
ARC
  8
_0-3_躯体と製品
  6
CONTINUOUS
 62
    7
 10
212.5
 20
479.06340021199998
 40
0.5
 50
90
 51
180
  0
LINE
  8
_0-3_躯体と製品
  6
CONTINUOUS
 62
    7
 10
212
 20
479.06340021199998
 11
212
 21
478.163400212
  0
LINE
  8
_0-3_躯体と製品
  6
CONTINUOUS
 62
    7
 10
207.90000000000001
 20
483.06340021199998
 11
211.40000000000001
 21
481.06340021199998
  0
LINE
  8
_0-3_躯体と製品
  6
CONTINUOUS
 62
    7
 10
207.90000000000001
 20
486.31340021199998
 11
207.90000000000001
 21
483.06340021199998
  0
ARC
  8
_0-3_躯体と製品
  6
CONTINUOUS
 62
    7
 10
207.15000000000001
 20
486.31340021199998
 40
0.75
 50
0
 51
180
  0
ARC
  8
_0-3_躯体と製品
  6
CONTINUOUS
 62
    7
 10
211.40000000000001
 20
478.163400212
 40
0.5999999999999999
 50
180
 51
0
  0
LINE
  8
_0-3_躯体と製品
  6
CONTINUOUS
 62
    7
 10
220
 20
466.56340021199998
 11
220
 21
480.06340021199998
  0
ARC
  8
_0-3_躯体と製品
  6
CONTINUOUS
 62
    7
 10
217.5
 20
475.56340021199998
 40
1
 50
270
 51
0
  0
LINE
  8
_0-3_躯体と製品
  6
CONTINUOUS
 62
    7
 10
221
 20
441.06340021199998
 11
210.5
 21
441.06340021199998
  0
LINE
  8
_0-3_躯体と製品
  6
CONTINUOUS
 62
    7
 10
217.5
 20
474.56340021199998
 11
213
 21
474.56340021199998
  0
LINE
  8
_0-3_躯体と製品
  6
CONTINUOUS
 62
    7
 10
222.5
 20
443.56340021199998
 11
214.5
 21
443.56340021199998
  0
LINE
  8
_0-3_躯体と製品
  6
CONTINUOUS
 62
    7
 10
214
 20
473.06340021199998
 11
218
 21
473.06340021199998
  0
ARC
  8
_0-3_躯体と製品
  6
CONTINUOUS
 62
    7
 10
222.5
 20
441.56340021199998
 40
2
 50
0
 51
90
  0
ARC
  8
_0-3_躯体と製品
  6
CONTINUOUS
 62
    7
 10
221
 20
440.06340021199998
 40
1
 50
0
 51
90
  0
LINE
  8
_0-3_躯体と製品
  6
CONTINUOUS
 62
    7
 10
219.5
 20
466.06340021199998
 11
218.5
 21
466.06340021199998
  0
ARC
  8
_0-3_躯体と製品
  6
CONTINUOUS
 62
    7
 10
219.5
 20
466.56340021199998
 40
0.5
 50
270
 51
0
  0
LINE
  8
_0-3_躯体と製品
  6
CONTINUOUS
 62
    7
 10
218.5
 20
472.56340021199998
 11
218.5
 21
468.06340021199998
  0
ARC
  8
_0-3_躯体と製品
  6
CONTINUOUS
 62
    7
 10
218
 20
472.56340021199998
 40
0.5
 50
0
 51
90
  0
ARC
  8
_0-3_躯体と製品
  6
CONTINUOUS
 62
    7
 10
218.5
 20
467.06340021199998
 40
1
 50
90
 51
270
  0
ARC
  8
_0-3_躯体と製品
  6
CONTINUOUS
 62
    7
 10
219
 20
480.06340021199998
 40
1
 50
0
 51
90
  0
LINE
  8
_0-3_躯体と製品
  6
CONTINUOUS
 62
    7
 10
218.5
 20
475.56340021199998
 11
218.5
 21
479.06340021199998
  0
ARC
  8
_0-3_躯体と製品
  6
CONTINUOUS
 62
    7
 10
218
 20
479.06340021199998
 40
0.5
 50
0
 51
90
  0
ARC
  8
_0-3_躯体と製品
  6
CONTINUOUS
 62
    7
 10
214.5
 20
444.56340021199998
 40
1
 50
180
 51
270
  0
ARC
  8
_0-3_躯体と製品
  6
CONTINUOUS
 62
    7
 10
214
 20
472.56340021199998
 40
0.5
 50
90
 51
180
  0
LINE
  8
_0-3_躯体と製品
  6
CONTINUOUS
 62
    7
 10
213.5
 20
444.56340021199998
 11
213.5
 21
472.56340021199998
  0
LINE
  8
_0-3_躯体と製品
  6
CONTINUOUS
 62
    7
 10
211
 20
442.56340021199998
 11
209.5
 21
442.56340021199998
  0
ARC
  8
_0-3_躯体と製品
  6
CONTINUOUS
 62
    7
 10
211
 20
443.06340021199998
 40
0.5
 50
270
 51
0
  0
LINE
  8
_0-3_躯体と製品
  6
CONTINUOUS
 62
    7
 10
211.5
 20
443.06340021199998
 11
211.5
 21
473.06340021199998
  0
ARC
  8
_0-3_躯体と製品
  6
CONTINUOUS
 62
    7
 10
213
 20
473.06340021199998
 40
1.5
 50
90
 51
180
  0
ARC
  8
_0-3_躯体と製品
  6
CONTINUOUS
 62
    7
 10
210.5
 20
440.56340021199998
 40
0.5
 50
90
 51
180
  0
LINE
  8
_0-3_躯体と製品
  6
CONTINUOUS
 62
    7
 10
210
 20
440.56340021199998
 11
210
 21
439.31340021199998
  0
ARC
  8
_0-3_躯体と製品
  6
CONTINUOUS
 62
    7
 10
209.25
 20
439.31340021199998
 40
0.75
 50
180
 51
0
  0
ARC
  8
_0-3_躯体と製品
  6
CONTINUOUS
 62
    7
 10
209.5
 20
441.56340021199998
 40
1
 50
90
 51
180
  0
LINE
  8
_0-3_躯体と製品
  6
CONTINUOUS
 62
    7
 10
208.5
 20
441.56340021199998
 11
208.5
 21
439.31340021199998
  0
LINE
  8
_0-3_躯体と製品
  6
CONTINUOUS
 62
    7
 10
248.4105265117
 20
450.33500484400003
 11
248.61987033669999
 21
454.329522983
  0
LINE
  8
_0-3_躯体と製品
  6
CONTINUOUS
 62
    7
 10
233.64042731539999
 20
455.11456232670002
 11
248.61987033669999
 21
454.329522983
  0
LINE
  8
_0-3_躯体と製品
  6
CONTINUOUS
 62
    7
 10
232.20118851870001
 20
427.65225012090002
 11
233.6665952935
 21
455.61387709399997
  0
LINE
  8
_0-3_躯体と製品
  6
CONTINUOUS
 62
    7
 10
233.6665952935
 20
455.61387709399997
 11
233.80939700619999
 21
458.338696094
  0
ARC
  8
_0-3_躯体と製品
  6
CONTINUOUS
 62
    7
 10
654.16317963430004
 20
428.79859523829998
 40
7.5
 50
10.1246716554
 51
86.999999999989996
  0
LINE
  8
_0-3_躯体と製品
  6
CONTINUOUS
 62
    7
 10
661.54638645060004
 20
430.11702502690002
 11
675.5
 21
351.97678915019998
  0
LINE
  8
_0-3_躯体と製品
  6
CONTINUOUS
 62
    7
 10
675.5
 20
351.97678915019998
 11
671.07007591030003
 21
351.18573127659999
  0
LINE
  8
_0-3_躯体と製品
  6
CONTINUOUS
 62
    7
 10
657.11646236080003
 20
429.32596715369999
 11
671.07007591019999
 21
351.185731277
  0
ARC
  8
_0-3_躯体と製品
  6
CONTINUOUS
 62
    7
 10
654.16317963430004
 20
428.79859523829998
 40
3
 50
10.1246716554
 51
86.999999999989996
  0
LINE
  8
_0-3_躯体と製品
  6
CONTINUOUS
 62
    7
 10
210.5
 20
462.4071835277
 11
210.5
 21
474.56028982750001
  0
LINE
  8
_0-3_躯体と製品
  6
CONTINUOUS
 62
    7
 10
210.5
 20
474.56028982750001
 11
206
 21
474.56028982750001
  0
LINE
  8
_0-3_躯体と製品
  6
CONTINUOUS
 62
    7
 10
206
 20
462.4071835277
 11
206
 21
474.56028982750001
  0
ARC
  8
_0-3_躯体と製品
  6
CONTINUOUS
 62
    7
 10
213.5
 20
462.4071835277
 40
3
 50
180
 51
267
  0
ARC
  8
_0-3_躯体と製品
  6
CONTINUOUS
 62
    7
 10
213.5
 20
462.4071835277
 40
7.5
 50
180
 51
267
  0
LINE
  8
_0-3_躯体と製品
  6
CONTINUOUS
 62
    7
 10
234.69999999999999
 20
463.76340021200002
 11
233.25022823149999
 21
461.72669654689997
  0
LINE
  8
_0-4_図枠
  6
CONTINUOUS
 62
    7
 10
8
 20
585
 11
8
 21
9
  0
LINE
  8
_0-4_図枠
  6
CONTINUOUS
 62
    7
 10
832
 20
585
 11
8
 21
585
  0
LINE
  8
_0-4_図枠
  6
CONTINUOUS
 62
    7
 10
832
 20
9
 11
832
 21
585
  0
LINE
  8
_0-4_図枠
  6
CONTINUOUS
 62
    7
 10
8
 20
9
 11
832
 21
9
  0
CIRCLE
  8
_0-4_図枠
  6
CONTINUOUS
 62
    7
 10
482.33237482930002
 20
341.32860020380002
 40
6
  0
ARC
  8
_0-3_躯体と製品
  6
CONTINUOUS
 62
    7
 10
494
 20
350.5
 40
1
 50
180
 51
270
  0
LINE
  8
_0-3_躯体と製品
  6
CONTINUOUS
 62
    7
 10
490.87497000000002
 20
351.73800399999999
 11
495.06040300000001
 21
351
  0
LINE
  8
_0-3_躯体と製品
  6
CONTINUOUS
 62
    7
 10
504.12502999999998
 20
351.73800399999999
 11
499.93959699999999
 21
351
  0
LINE
  8
_0-3_躯体と製品
  6
CONTINUOUS
 62
    7
 10
502
 20
350.5
 11
502
 21
351.36330400000003
  0
ARC
  8
_0-3_躯体と製品
  6
CONTINUOUS
 62
    7
 10
501
 20
350.5
 40
1
 50
270
 51
0
  0
LINE
  8
_0-3_躯体と製品
  6
CONTINUOUS
 62
    7
 10
501
 20
349.5
 11
494
 21
349.5
  0
LINE
  8
_0-3_躯体と製品
  6
CONTINUOUS
 62
    7
 10
493
 20
350.5
 11
493
 21
351.36330400000003
  0
LINE
  8
_0-2_寸法
  6
CONTINUOUS
 62
    7
 10
199.5
 20
389
 11
146.5
 21
389
  0
LINE
  8
_0-2_寸法
  6
CONTINUOUS
 62
    7
 10
146.5
 20
390
 11
146.5
 21
456.06340021199998
  0
TEXT
  8
_0-2_寸法
 62
    7
 10
145.5
 20
421.78170010600002
 40
5
 41
1
 50
90
  1
D
  0
CIRCLE
  8
_0-2_寸法
  6
CONTINUOUS
 62
    7
 10
146.5
 20
457.06340021199998
 40
1.3999999999999999
  0
CIRCLE
  8
_0-2_寸法
  6
CONTINUOUS
 62
    7
 10
146.5
 20
457.06340021199998
 40
1.3999999999999999
  0
LINE
  8
_0-2_寸法
  6
CONTINUOUS
 62
    7
 10
677.5
 20
438.58791542130001
 11
677.5
 21
493.76340021200002
  0
LINE
  8
_0-2_寸法
  6
CONTINUOUS
 62
    7
 10
217.5
 20
474.69549389150001
 11
217.5
 21
493.76340021200002
  0
LINE
  8
_0-2_寸法
  6
CONTINUOUS
 62
    7
 10
676.5
 20
493.76340021200002
 11
218.5
 21
493.76340021200002
  0
TEXT
  8
_0-2_寸法
 62
    7
 10
446.25
 20
494.76340021200002
 40
5
 41
1
 50
0
  1
A
  0
CIRCLE
  8
_0-2_寸法
  6
CONTINUOUS
 62
    7
 10
677.5
 20
438.58791542130001
 40
1.3999999999999999
  0
CIRCLE
  8
_0-2_寸法
  6
CONTINUOUS
 62
    7
 10
217.5
 20
474.69549389150001
 40
1.3999999999999999
  0
CIRCLE
  8
_0-2_寸法
  6
CONTINUOUS
 62
    7
 10
217.5
 20
493.76340021200002
 40
1.3999999999999999
  0
LINE
  8
_0-2_寸法
  6
CONTINUOUS
 62
    7
 10
237.69999999999999
 20
500.76340021200002
 11
270.69999999999999
 21
500.76340021200002
  0
LINE
  8
_0-2_寸法
  6
CONTINUOUS
 62
    7
 10
228.5
 20
515.76340021199996
 11
270.69999999999999
 21
515.76340021199996
  0
LINE
  8
_0-2_寸法
  6
CONTINUOUS
 62
    7
 10
270.69999999999999
 20
501.76340021200002
 11
270.69999999999999
 21
514.76340021200008
  0
TEXT
  8
_0-2_寸法
 62
    7
 10
269.69999999999999
 20
505.76340021200002
 40
5
 41
1
 50
90
  1
15
  0
CIRCLE
  8
_0-2_寸法
  6
CONTINUOUS
 62
    7
 10
237.69999999999999
 20
500.76340021200002
 40
1.3999999999999999
  0
CIRCLE
  8
_0-2_寸法
  6
CONTINUOUS
 62
    7
 10
228.5
 20
515.76340021199996
 40
1.3999999999999999
  0
CIRCLE
  8
_0-2_寸法
  6
CONTINUOUS
 62
    7
 10
270.69999999999999
 20
515.76340021199996
 40
1.3999999999999999
  0
LINE
  8
_0-2_寸法
  6
CONTINUOUS
 62
    7
 10
237.69999999999999
 20
464.76340021200002
 11
270.69999999999999
 21
464.76340021200002
  0
LINE
  8
_0-2_寸法
  6
CONTINUOUS
 62
    7
 10
237.69999999999999
 20
500.76340021200002
 11
270.69999999999999
 21
500.76340021200002
  0
LINE
  8
_0-2_寸法
  6
CONTINUOUS
 62
    7
 10
270.69999999999999
 20
465.76340021200002
 11
270.69999999999999
 21
499.76340021200002
  0
TEXT
  8
_0-2_寸法
 62
    7
 10
269.69999999999999
 20
480.26340021200002
 40
5
 41
1
 50
90
  1
36
  0
CIRCLE
  8
_0-2_寸法
  6
CONTINUOUS
 62
    7
 10
237.69999999999999
 20
464.76340021200002
 40
1.3999999999999999
  0
CIRCLE
  8
_0-2_寸法
  6
CONTINUOUS
 62
    7
 10
237.69999999999999
 20
500.76340021200002
 40
1.3999999999999999
  0
CIRCLE
  8
_0-2_寸法
  6
CONTINUOUS
 62
    7
 10
270.69999999999999
 20
500.76340021200002
 40
1.3999999999999999
  0
LINE
  8
_0-2_寸法
  6
CONTINUOUS
 62
    7
 10
235.69999999999999
 20
503.52680042399999
 11
235.69999999999999
 21
540.76340021199996
  0
LINE
  8
_0-2_寸法
  6
CONTINUOUS
 62
    7
 10
215.69999999999999
 20
517.76340021199996
 11
215.69999999999999
 21
540.76340021199996
  0
LINE
  8
_0-2_寸法
  6
CONTINUOUS
 62
    7
 10
234.69999999999999
 20
540.76340021199996
 11
216.69999999999999
 21
540.76340021199996
  0
TEXT
  8
_0-2_寸法
 62
    7
 10
223.19999999999999
 20
541.76340021199996
 40
5
 41
1
 50
0
  1
20
  0
CIRCLE
  8
_0-2_寸法
  6
CONTINUOUS
 62
    7
 10
235.69999999999999
 20
503.52680042399999
 40
1.3999999999999999
  0
CIRCLE
  8
_0-2_寸法
  6
CONTINUOUS
 62
    7
 10
215.69999999999999
 20
517.76340021199996
 40
1.3999999999999999
  0
CIRCLE
  8
_0-2_寸法
  6
CONTINUOUS
 62
    7
 10
215.69999999999999
 20
540.76340021199996
 40
1.3999999999999999
  0
LINE
  8
_0-2_寸法
  6
CONTINUOUS
 62
    7
 10
235.69999999999999
 20
503.52680042399999
 11
235.69999999999999
 21
550.76340021199996
  0
LINE
  8
_0-2_寸法
  6
CONTINUOUS
 62
    7
 10
202.5
 20
502.76340021200002
 11
202.5
 21
550.76340021199996
  0
LINE
  8
_0-2_寸法
  6
CONTINUOUS
 62
    7
 10
234.69999999999999
 20
550.76340021199996
 11
203.5
 21
550.76340021199996
  0
TEXT
  8
_0-2_寸法
 62
    7
 10
214.09999999999999
 20
551.76340021199996
 40
5
 41
1
 50
0
  1
33.2
  0
CIRCLE
  8
_0-2_寸法
  6
CONTINUOUS
 62
    7
 10
235.69999999999999
 20
503.52680042399999
 40
1.3999999999999999
  0
CIRCLE
  8
_0-2_寸法
  6
CONTINUOUS
 62
    7
 10
202.5
 20
502.76340021200002
 40
1.3999999999999999
  0
CIRCLE
  8
_0-2_寸法
  6
CONTINUOUS
 62
    7
 10
202.5
 20
550.76340021199996
 40
1.3999999999999999
  0
LINE
  8
_0-2_寸法
  6
CONTINUOUS
 62
    7
 10
199.5
 20
515.76340021199996
 11
126.5
 21
515.76340021199996
  0
LINE
  8
_0-2_寸法
  6
CONTINUOUS
 62
    7
 10
199.5
 20
389
 11
126.5
 21
389
  0
LINE
  8
_0-2_寸法
  6
CONTINUOUS
 62
    7
 10
126.5
 20
514.76340021200008
 11
126.5
 21
390
  0
TEXT
  8
_0-2_寸法
 62
    7
 10
125.5
 20
451.13170010599998
 40
5
 41
1
 50
90
  1
E
  0
CIRCLE
  8
_0-2_寸法
  6
CONTINUOUS
 62
    7
 10
199.5
 20
515.76340021199996
 40
1.3999999999999999
  0
CIRCLE
  8
_0-2_寸法
  6
CONTINUOUS
 62
    7
 10
126.5
 20
389
 40
1.3999999999999999
  0
LINE
  8
_0-2_寸法
  6
CONTINUOUS
 62
    7
 10
202.5
 20
502.76340021200002
 11
202.5
 21
565.76340021199996
  0
LINE
  8
_0-2_寸法
  6
CONTINUOUS
 62
    7
 10
677.5
 20
438.58791542130001
 11
677.5
 21
565.76340021199996
  0
LINE
  8
_0-2_寸法
  6
CONTINUOUS
 62
    7
 10
203.5
 20
565.76340021199996
 11
676.5
 21
565.76340021199996
  0
TEXT
  8
_0-2_寸法
 62
    7
 10
438.75
 20
566.76340021199996
 40
5
 41
1
 50
0
  1
W
  0
CIRCLE
  8
_0-2_寸法
  6
CONTINUOUS
 62
    7
 10
202.5
 20
502.76340021200002
 40
1.3999999999999999
  0
CIRCLE
  8
_0-2_寸法
  6
CONTINUOUS
 62
    7
 10
677.5
 20
438.58791542130001
 40
1.3999999999999999
  0
CIRCLE
  8
_0-2_寸法
  6
CONTINUOUS
 62
    7
 10
677.5
 20
565.76340021199996
 40
1.3999999999999999
  0
LINE
  8
_0-2_寸法
  6
CONTINUOUS
 62
    7
 10
679.5
 20
346.58791542130001
 11
737.5
 21
346.58791542130001
  0
LINE
  8
_0-2_寸法
  6
CONTINUOUS
 62
    7
 10
679.5
 20
436.58791542130001
 11
737.5
 21
436.58791542130001
  0
LINE
  8
_0-2_寸法
  6
CONTINUOUS
 62
    7
 10
737.5
 20
347.58791542130001
 11
737.5
 21
435.58791542130001
  0
TEXT
  8
_0-2_寸法
 62
    7
 10
736.5
 20
389.08791542130001
 40
5
 41
1
 50
90
  1
90
  0
CIRCLE
  8
_0-2_寸法
  6
CONTINUOUS
 62
    7
 10
679.5
 20
346.58791542130001
 40
1.3999999999999999
  0
CIRCLE
  8
_0-2_寸法
  6
CONTINUOUS
 62
    7
 10
679.5
 20
436.58791542130001
 40
1.3999999999999999
  0
CIRCLE
  8
_0-2_寸法
  6
CONTINUOUS
 62
    7
 10
737.5
 20
436.58791542130001
 40
1.3999999999999999
  0
LINE
  8
_0-2_寸法
  6
CONTINUOUS
 62
    7
 10
679.5
 20
346.58791542130001
 11
717.5
 21
346.58791542130001
  0
LINE
  8
_0-2_寸法
  6
CONTINUOUS
 62
    7
 10
717.5
 20
347.58791542130001
 11
717.5
 21
388
  0
TEXT
  8
_0-2_寸法
 62
    7
 10
716.5
 20
365.2939577107
 40
5
 41
1
 50
90
  1
44
  0
CIRCLE
  8
_0-2_寸法
  6
CONTINUOUS
 62
    7
 10
679.5
 20
346.58791542130001
 40
1.3999999999999999
  0
CIRCLE
  8
_0-2_寸法
  6
CONTINUOUS
 62
    7
 10
717.5
 20
389
 40
1.3999999999999999
  0
CIRCLE
  8
_0-2_寸法
  6
CONTINUOUS
 62
    7
 10
677.5
 20
344.58791542130001
 40
1.3999999999999999
  0
LINE
  8
_0-2_寸法
  6
CONTINUOUS
 62
    7
 10
497.5
 20
329
 11
547.5
 21
329
  0
TEXT
  8
_0-2_寸法
 62
    7
 10
520
 20
330
 40
5
 41
1
 50
0
  1
50
  0
CIRCLE
  8
_0-2_寸法
  6
CONTINUOUS
 62
    7
 10
497.5
 20
329
 40
1.3999999999999999
  0
CIRCLE
  8
_0-2_寸法
  6
CONTINUOUS
 62
    7
 10
547.5
 20
329
 40
1.3999999999999999
  0
CIRCLE
  8
_0-2_寸法
  6
CONTINUOUS
 62
    7
 10
547.5
 20
329
 40
1.3999999999999999
  0
CIRCLE
  8
_0-4_図枠
  6
CONTINUOUS
 62
    7
 10
520.52788640150004
 20
463.35631864779998
 40
6
  0
CIRCLE
  8
_0-4_図枠
  6
CONTINUOUS
 62
    7
 10
536.53882762579997
 20
466.87801187000002
 40
6
  0
TEXT
  8
_0-4_図枠
 62
    7
 10
479.08237482930002
 20
338.32860020380002
 40
5
 41
1
 50
0
  1
16
  0
TEXT
  8
_0-4_図枠
 62
    7
 10
517.27788640150004
 20
460.35631864779998
 40
5
 41
1
 50
0
  1
13
  0
TEXT
  8
_0-4_図枠
 62
    7
 10
533.53882762579997
 20
463.87801187000002
 40
5
 41
1
 50
0
  1
６
  0
TEXT
  8
_0-4_図枠
 62
    7
 10
684.89006385360005
 20
461.663885327
 40
5
 41
1
 50
0
  1
８
  0
TEXT
  8
_0-4_図枠
 62
    7
 10
153.81823625009997
 20
478.6123579856
 40
5
 41
1
 50
0
  1
17
  0
TEXT
  8
_0-4_図枠
 62
    7
 10
186.58189355569999
 20
544.82773661270005
 40
5
 41
1
 50
0
  1
14
  0
TEXT
  8
_0-4_図枠
 62
    7
 10
254.93655552440001
 20
520.9043954123
 40
5
 41
1
 50
0
  1
９
  0
TEXT
  8
_0-4_図枠
 62
    7
 10
256.86250194540003
 20
412.887235911
 40
5
 41
1
 50
0
  1
12
  0
TEXT
  8
_0-4_図枠
 62
    7
 10
181.88454026240001
 20
479.71109819830002
 40
5
 41
1
 50
0
  1
18
  0
TEXT
  8
_0-4_図枠
 62
    7
 10
183.1080003902
 20
435.65422941330002
 40
5
 41
1
 50
0
  1
20
  0
LINE
  8
_0-0_0
  6
CONTINUOUS
 62
    7
 10
300
 20
48
 11
91
 21
48
  0
LINE
  8
_0-0_0
  6
CONTINUOUS
 62
    7
 10
300
 20
39
 11
91
 21
39
  0
LINE
  8
_0-0_0
  6
CONTINUOUS
 62
    7
 10
300
 20
129
 11
91
 21
129
  0
LINE
  8
_0-0_0
  6
CONTINUOUS
 62
    7
 10
300
 20
138
 11
91
 21
138
  0
TEXT
  8
_0-0_0
 62
    7
 10
310.3333333333
 20
238.06003367759999
 40
5
 41
1
 50
0
  1
（3000mmセット）
  0
TEXT
  8
_0-0_0
 62
    7
 10
378.3333333333
 20
238.06003367759999
 40
5
 41
1
 50
0
  1
（2000mmセット）
  0
TEXT
  8
_0-0_0
 62
    7
 10
93.625
 20
229.9166666667
 40
5
 41
0.998
 50
0
  1
No.
  0
TEXT
  8
_0-0_0
 62
    7
 10
143.1666666667
 20
229.9166666667
 40
5
 41
0.998
 50
0
  1
部材名称
  0
TEXT
  8
_0-0_0
 62
    7
 10
243.75
 20
229.9166666667
 40
5
 41
0.998
 50
0
  1
規　格
  0
TEXT
  8
_0-0_0
 62
    7
 10
306.4166666667
 20
229.9166666667
 40
5
 41
0.998
 50
0
  1
定尺(mm)
  0
LINE
  8
_0-0_0
  6
CONTINUOUS
 62
    7
 10
369
 20
192
 11
436
 21
192
  0
LINE
  8
_0-0_0
  6
CONTINUOUS
 62
    7
 10
369
 20
201
 11
436
 21
201
  0
LINE
  8
_0-0_0
  6
CONTINUOUS
 62
    7
 10
369
 20
210
 11
436
 21
210
  0
LINE
  8
_0-0_0
  6
CONTINUOUS
 62
    7
 10
369
 20
219
 11
436
 21
219
  0
LINE
  8
_0-0_0
  6
CONTINUOUS
 62
    7
 10
369
 20
228
 11
436
 21
228
  0
LINE
  8
_0-0_0
  6
CONTINUOUS
 62
    7
 10
369
 20
237
 11
436
 21
237
  0
LINE
  8
_0-0_0
  6
CONTINUOUS
 62
    7
 10
300
 20
57
 11
91
 21
57
  0
LINE
  8
_0-0_0
  6
CONTINUOUS
 62
    7
 10
300
 20
66
 11
91
 21
66
  0
LINE
  8
_0-0_0
  6
CONTINUOUS
 62
    7
 10
300
 20
75
 11
91
 21
75
  0
LINE
  8
_0-0_0
  6
CONTINUOUS
 62
    7
 10
300
 20
84
 11
91
 21
84
  0
LINE
  8
_0-0_0
  6
CONTINUOUS
 62
    7
 10
300
 20
93
 11
91
 21
93
  0
LINE
  8
_0-0_0
  6
CONTINUOUS
 62
    7
 10
300
 20
102
 11
91
 21
102
  0
LINE
  8
_0-0_0
  6
CONTINUOUS
 62
    7
 10
300
 20
111
 11
91
 21
111
  0
LINE
  8
_0-0_0
  6
CONTINUOUS
 62
    7
 10
300
 20
120
 11
91
 21
120
  0
LINE
  8
_0-0_0
  6
CONTINUOUS
 62
    7
 10
300
 20
147
 11
91
 21
147
  0
LINE
  8
_0-0_0
  6
CONTINUOUS
 62
    7
 10
300
 20
156
 11
91
 21
156
  0
LINE
  8
_0-0_0
  6
CONTINUOUS
 62
    7
 10
300
 20
165
 11
91
 21
165
  0
LINE
  8
_0-0_0
  6
CONTINUOUS
 62
    7
 10
300
 20
174
 11
91
 21
174
  0
LINE
  8
_0-0_0
  6
CONTINUOUS
 62
    7
 10
300
 20
183
 11
91
 21
183
  0
LINE
  8
_0-0_0
  6
CONTINUOUS
 62
    7
 10
300
 20
192
 11
91
 21
192
  0
LINE
  8
_0-0_0
  6
CONTINUOUS
 62
    7
 10
300
 20
201
 11
91
 21
201
  0
LINE
  8
_0-0_0
  6
CONTINUOUS
 62
    7
 10
300
 20
210
 11
91
 21
210
  0
LINE
  8
_0-0_0
  6
CONTINUOUS
 62
    7
 10
300
 20
228
 11
91
 21
228
  0
LINE
  8
_0-0_0
  6
CONTINUOUS
 62
    7
 10
300
 20
237
 11
91
 21
237
  0
TEXT
  8
_0-0_0
 62
    7
 10
339.3333333333
 20
229.9166666667
 40
5
 41
1
 50
0
  1
入数
  0
TEXT
  8
_0-0_0
 62
    7
 10
355.3333333333
 20
229.9166666667
 40
5
 41
1
 50
0
  1
単位
  0
TEXT
  8
_0-0_0
 62
    7
 10
374.4166666667
 20
229.9166666667
 40
5
 41
0.998
 50
0
  1
定尺(mm)
  0
TEXT
  8
_0-0_0
 62
    7
 10
407.3333333333
 20
229.9166666667
 40
5
 41
0.998
 50
0
  1
入数
  0
TEXT
  8
_0-0_0
 62
    7
 10
423.3333333333
 20
229.9166666667
 40
5
 41
1
 50
0
  1
単位
  0
TEXT
  8
_0-0_0
 62
    7
 10
95.166666666669983
 20
220.9166666667
 40
4.9900000000000002
 41
1
 50
0
  1
 1
  0
TEXT
  8
_0-0_0
 62
    7
 10
312.5833333333
 20
220.9166666667
 40
4.9900000000000002
 41
1
 50
0
  1
3000
  0
TEXT
  8
_0-0_0
 62
    7
 10
342.1666666667
 20
220.9166666667
 40
4.9900000000000002
 41
1
 50
0
  1
 1
  0
TEXT
  8
_0-0_0
 62
    7
 10
358.4166666667
 20
220.9166666667
 40
4.9900000000000002
 41
1
 50
0
  1
本
  0
TEXT
  8
_0-0_0
 62
    7
 10
380.5833333333
 20
220.9166666667
 40
4.9900000000000002
 41
1
 50
0
  1
2000
  0
TEXT
  8
_0-0_0
 62
    7
 10
410.1666666667
 20
220.9166666667
 40
4.9900000000000002
 41
1
 50
0
  1
 1
  0
TEXT
  8
_0-0_0
 62
    7
 10
426.4166666667
 20
220.9166666667
 40
4.9900000000000002
 41
1
 50
0
  1
本
  0
TEXT
  8
_0-0_0
 62
    7
 10
95.166666666669983
 20
211.9166666667
 40
5
 41
1
 50
0
  1
 2
  0
TEXT
  8
_0-0_0
 62
    7
 10
312.5833333333
 20
211.9166666667
 40
5
 41
0.998
 50
0
  1
3000
  0
TEXT
  8
_0-0_0
 62
    7
 10
342.1666666667
 20
211.9166666667
 40
5
 41
1
 50
0
  1
 1
  0
TEXT
  8
_0-0_0
 62
    7
 10
358.4166666667
 20
211.9166666667
 40
5
 41
0.998
 50
0
  1
〃
  0
TEXT
  8
_0-0_0
 62
    7
 10
380.5833333333
 20
211.9166666667
 40
5
 41
0.998
 50
0
  1
2000
  0
TEXT
  8
_0-0_0
 62
    7
 10
410.1666666667
 20
211.9166666667
 40
5
 41
0.998
 50
0
  1
 1
  0
TEXT
  8
_0-0_0
 62
    7
 10
426.4166666667
 20
211.9166666667
 40
5
 41
0.998
 50
0
  1
〃
  0
TEXT
  8
_0-0_0
 62
    7
 10
95.166666666669983
 20
202.9166666667
 40
5
 41
1
 50
0
  1
 3
  0
TEXT
  8
_0-0_0
 62
    7
 10
112.9166666667
 20
202.9166666667
 40
5
 41
0.998
 50
0
  1
ＦＹＹフレーム
  0
TEXT
  8
_0-0_0
 62
    7
 10
312.5833333333
 20
202.9166666667
 40
5
 41
0.998
 50
0
  1
3000
  0
TEXT
  8
_0-0_0
 62
    7
 10
342.1666666667
 20
202.9166666667
 40
5
 41
1
 50
0
  1
 1
  0
TEXT
  8
_0-0_0
 62
    7
 10
358.4166666667
 20
202.9166666667
 40
5
 41
0.998
 50
0
  1
〃
  0
TEXT
  8
_0-0_0
 62
    7
 10
380.5833333333
 20
202.9166666667
 40
5
 41
0.998
 50
0
  1
2000
  0
TEXT
  8
_0-0_0
 62
    7
 10
410.1666666667
 20
202.9166666667
 40
5
 41
0.998
 50
0
  1
 1
  0
TEXT
  8
_0-0_0
 62
    7
 10
426.4166666667
 20
202.9166666667
 40
5
 41
0.998
 50
0
  1
〃
  0
TEXT
  8
_0-0_0
 62
    7
 10
95.166666666669983
 20
193.9166666667
 40
4.9900000000000002
 41
1
 50
0
  1
 4
  0
LINE
  8
_0-0_0
  6
CONTINUOUS
 62
    7
 10
368
 20
192
 11
301
 21
192
  0
LINE
  8
_0-0_0
  6
CONTINUOUS
 62
    7
 10
368
 20
201
 11
301
 21
201
  0
TEXT
  8
_0-0_0
 62
    7
 10
113.3333333333
 20
193.9166666667
 40
4.9900000000000002
 41
1
 50
0
  1
ＦＹＫ壁フレーム
  0
TEXT
  8
_0-0_0
 62
    7
 10
312.5833333333
 20
193.9166666667
 40
4.9900000000000002
 41
1
 50
0
  1
3000
  0
TEXT
  8
_0-0_0
 62
    7
 10
342.1666666667
 20
193.9166666667
 40
4.9900000000000002
 41
1
 50
0
  1
 1
  0
TEXT
  8
_0-0_0
 62
    7
 10
358.4166666667
 20
193.9166666667
 40
4.9900000000000002
 41
1
 50
0
  1
〃
  0
TEXT
  8
_0-0_0
 62
    7
 10
380.5833333333
 20
193.9166666667
 40
4.9900000000000002
 41
1
 50
0
  1
2000
  0
TEXT
  8
_0-0_0
 62
    7
 10
410.1666666667
 20
193.9166666667
 40
4.9900000000000002
 41
1
 50
0
  1
 1
  0
LINE
  8
_0-0_0
  6
CONTINUOUS
 62
    7
 10
368
 20
210
 11
301
 21
210
  0
LINE
  8
_0-0_0
  6
CONTINUOUS
 62
    7
 10
368
 20
219
 11
301
 21
219
  0
LINE
  8
_0-0_0
  6
CONTINUOUS
 62
    7
 10
368
 20
228
 11
301
 21
228
  0
LINE
  8
_0-0_0
  6
CONTINUOUS
 62
    7
 10
368
 20
237
 11
301
 21
237
  0
TEXT
  8
_0-0_0
 62
    7
 10
426.4166666667
 20
193.9166666667
 40
4.9900000000000002
 41
1
 50
0
  1
〃
  0
TEXT
  8
_0-0_0
 62
    7
 10
95.166666666669983
 20
184.9166666667
 40
4.9900000000000002
 41
1
 50
0
  1
 5
  0
TEXT
  8
_0-0_0
 62
    7
 10
112.9166666667
 20
184.9166666667
 40
4.9900000000000002
 41
1
 50
0
  1
ＦＹＫホルダー
  0
TEXT
  8
_0-0_0
 62
    7
 10
342.1666666667
 20
184.9166666667
 40
4.9900000000000002
 41
1
 50
0
  1
 6
  0
TEXT
  8
_0-0_0
 62
    7
 10
358.4166666667
 20
184.9166666667
 40
4.9900000000000002
 41
1
 50
0
  1
〃
  0
TEXT
  8
_0-0_0
 62
    7
 10
410.1666666667
 20
184.9166666667
 40
4.9900000000000002
 41
1
 50
0
  1
 4
  0
TEXT
  8
_0-0_0
 62
    7
 10
426.4166666667
 20
184.9166666667
 40
4.9900000000000002
 41
1
 50
0
  1
〃
  0
TEXT
  8
_0-0_0
 62
    7
 10
95.166666666669983
 20
175.9166666667
 40
4.9900000000000002
 41
1
 50
0
  1
 6
  0
TEXT
  8
_0-0_0
 62
    7
 10
115
 20
175.9166666667
 40
4.9900000000000002
 41
1
 50
0
  1
ＦＹＹホルダースプリング
  0
TEXT
  8
_0-0_0
 62
    7
 10
342.1666666667
 20
175.9166666667
 40
4.9900000000000002
 41
1
 50
0
  1
 6
  0
TEXT
  8
_0-0_0
 62
    7
 10
358.4166666667
 20
175.9166666667
 40
4.9900000000000002
 41
1
 50
0
  1
〃
  0
TEXT
  8
_0-0_0
 62
    7
 10
410.1666666667
 20
175.9166666667
 40
4.9900000000000002
 41
1
 50
0
  1
 4
  0
TEXT
  8
_0-0_0
 62
    7
 10
426.4166666667
 20
175.9166666667
 40
4.9900000000000002
 41
1
 50
0
  1
〃
  0
TEXT
  8
_0-0_0
 62
    7
 10
95.166666666669983
 20
166.9166666667
 40
5
 41
1
 50
0
  1
 7
  0
TEXT
  8
_0-0_0
 62
    7
 10
114.1666666667
 20
166.9166666667
 40
5
 41
1
 50
0
  1
ＦＹＹフレームナット
  0
LINE
  8
_0-0_0
  6
CONTINUOUS
 62
    7
 10
369
 20
147
 11
436
 21
147
  0
LINE
  8
_0-0_0
  6
CONTINUOUS
 62
    7
 10
369
 20
156
 11
436
 21
156
  0
LINE
  8
_0-0_0
  6
CONTINUOUS
 62
    7
 10
369
 20
165
 11
436
 21
165
  0
LINE
  8
_0-0_0
  6
CONTINUOUS
 62
    7
 10
369
 20
174
 11
436
 21
174
  0
LINE
  8
_0-0_0
  6
CONTINUOUS
 62
    7
 10
369
 20
183
 11
436
 21
183
  0
LINE
  8
_0-0_0
  6
CONTINUOUS
 62
    7
 10
369
 20
192
 11
436
 21
192
  0
TEXT
  8
_0-0_0
 62
    7
 10
342.1666666667
 20
166.9166666667
 40
5
 41
1
 50
0
  1
 6
  0
TEXT
  8
_0-0_0
 62
    7
 10
358.4166666667
 20
166.9166666667
 40
5
 41
1
 50
0
  1
〃
  0
TEXT
  8
_0-0_0
 62
    7
 10
410.1666666667
 20
166.9166666667
 40
5
 41
1
 50
0
  1
 4
  0
TEXT
  8
_0-0_0
 62
    7
 10
426.4166666667
 20
166.9166666667
 40
5
 41
0.998
 50
0
  1
〃
  0
TEXT
  8
_0-0_0
 62
    7
 10
95.166666666669983
 20
157.9166666667
 40
5
 41
1
 50
0
  1
 8
  0
LINE
  8
_0-0_0
  6
CONTINUOUS
 62
    7
 10
368
 20
147
 11
301
 21
147
  0
LINE
  8
_0-0_0
  6
CONTINUOUS
 62
    7
 10
368
 20
156
 11
301
 21
156
  0
LINE
  8
_0-0_0
  6
CONTINUOUS
 62
    7
 10
368
 20
165
 11
301
 21
165
  0
LINE
  8
_0-0_0
  6
CONTINUOUS
 62
    7
 10
368
 20
174
 11
301
 21
174
  0
LINE
  8
_0-0_0
  6
CONTINUOUS
 62
    7
 10
368
 20
183
 11
301
 21
183
  0
LINE
  8
_0-0_0
  6
CONTINUOUS
 62
    7
 10
368
 20
192
 11
301
 21
192
  0
TEXT
  8
_0-0_0
 62
    7
 10
114.1666666667
 20
157.9166666667
 40
5
 41
1
 50
0
  1
ＦＹＫ水切ジョイント
  0
TEXT
  8
_0-0_0
 62
    7
 10
342.1666666667
 20
157.9166666667
 40
5
 41
1
 50
0
  1
 1
  0
TEXT
  8
_0-0_0
 62
    7
 10
358.4166666667
 20
157.9166666667
 40
5
 41
1
 50
0
  1
〃
  0
TEXT
  8
_0-0_0
 62
    7
 10
410.1666666667
 20
157.9166666667
 40
5
 41
1
 50
0
  1
 1
  0
TEXT
  8
_0-0_0
 62
    7
 10
426.4166666667
 20
157.9166666667
 40
5
 41
0.998
 50
0
  1
〃
  0
TEXT
  8
_0-0_0
 62
    7
 10
95.166666666669983
 20
148.9166666667
 40
5
 41
1
 50
0
  1
 9
  0
TEXT
  8
_0-0_0
 62
    7
 10
114.5833333333
 20
148.9166666667
 40
5
 41
1
 50
0
  1
ＦＹＫｻｲﾄﾞｷｬｯﾌﾟ ｼﾞｮｲﾝﾄ
  0
TEXT
  8
_0-0_0
 62
    7
 10
342.1666666667
 20
148.9166666667
 40
5
 41
1
 50
0
  1
 1
  0
TEXT
  8
_0-0_0
 62
    7
 10
358.4166666667
 20
148.9166666667
 40
5
 41
1
 50
0
  1
〃
  0
TEXT
  8
_0-0_0
 62
    7
 10
410.1666666667
 20
148.9166666667
 40
5
 41
1
 50
0
  1
 1
  0
TEXT
  8
_0-0_0
 62
    7
 10
426.4166666667
 20
148.9166666667
 40
5
 41
0.998
 50
0
  1
〃
  0
TEXT
  8
_0-0_0
 62
    7
 10
95.166666666669983
 20
139.9166666667
 40
5
 41
1
 50
0
  1
10
  0
TEXT
  8
_0-0_0
 62
    7
 10
112.0833333333
 20
139.9166666667
 40
5
 41
1
 50
0
  1
止水補助板
  0
TEXT
  8
_0-0_0
 62
    7
 10
312.5833333333
 20
139.9166666667
 40
5
 41
1
 50
0
  1
3100
  0
TEXT
  8
_0-0_0
 62
    7
 10
342.1666666667
 20
139.9166666667
 40
5
 41
1
 50
0
  1
 1
  0
TEXT
  8
_0-0_0
 62
    7
 10
358.4166666667
 20
139.9166666667
 40
5
 41
1
 50
0
  1
〃
  0
TEXT
  8
_0-0_0
 62
    7
 10
380.5833333333
 20
139.9166666667
 40
5
 41
1
 50
0
  1
2100
  0
TEXT
  8
_0-0_0
 62
    7
 10
410.1666666667
 20
139.9166666667
 40
5
 41
1
 50
0
  1
 1
  0
TEXT
  8
_0-0_0
 62
    7
 10
426.4166666667
 20
139.9166666667
 40
5
 41
0.998
 50
0
  1
〃
  0
TEXT
  8
_0-0_0
 62
    7
 10
95.166666666669983
 20
130.9166666667
 40
5
 41
1
 50
0
  1
11
  0
TEXT
  8
_0-0_0
 62
    7
 10
113.3333333333
 20
130.9166666667
 40
5
 41
1
 50
0
  1
ウォーターガード
  0
TEXT
  8
_0-0_0
 62
    7
 10
312.5833333333
 20
130.9166666667
 40
5
 41
1
 50
0
  1
3100
  0
TEXT
  8
_0-0_0
 62
    7
 10
342.1666666667
 20
130.9166666667
 40
5
 41
1
 50
0
  1
 1
  0
TEXT
  8
_0-0_0
 62
    7
 10
358.4166666667
 20
130.9166666667
 40
5
 41
1
 50
0
  1
〃
  0
TEXT
  8
_0-0_0
 62
    7
 10
380.5833333333
 20
130.9166666667
 40
5
 41
1
 50
0
  1
2100
  0
LINE
  8
_0-0_0
  6
CONTINUOUS
 62
    7
 10
369
 20
129
 11
436
 21
129
  0
LINE
  8
_0-0_0
  6
CONTINUOUS
 62
    7
 10
369
 20
138
 11
436
 21
138
  0
LINE
  8
_0-0_0
  6
CONTINUOUS
 62
    7
 10
368
 20
129
 11
301
 21
129
  0
LINE
  8
_0-0_0
  6
CONTINUOUS
 62
    7
 10
368
 20
138
 11
301
 21
138
  0
TEXT
  8
_0-0_0
 62
    7
 10
410.1666666667
 20
130.9166666667
 40
5
 41
1
 50
0
  1
 1
  0
TEXT
  8
_0-0_0
 62
    7
 10
426.4166666667
 20
130.9166666667
 40
5
 41
0.998
 50
0
  1
〃
  0
TEXT
  8
_0-0_0
 62
    7
 10
95.166666666669983
 20
121.9166666667
 40
5
 41
1
 50
0
  1
12
  0
LINE
  8
_0-0_0
  6
CONTINUOUS
 62
    7
 10
369
 20
39
 11
436
 21
39
  0
LINE
  8
_0-0_0
  6
CONTINUOUS
 62
    7
 10
369
 20
48
 11
436
 21
48
  0
LINE
  8
_0-0_0
  6
CONTINUOUS
 62
    7
 10
369
 20
57
 11
436
 21
57
  0
LINE
  8
_0-0_0
  6
CONTINUOUS
 62
    7
 10
369
 20
66
 11
436
 21
66
  0
LINE
  8
_0-0_0
  6
CONTINUOUS
 62
    7
 10
369
 20
75
 11
436
 21
75
  0
LINE
  8
_0-0_0
  6
CONTINUOUS
 62
    7
 10
369
 20
84
 11
436
 21
84
  0
LINE
  8
_0-0_0
  6
CONTINUOUS
 62
    7
 10
369
 20
93
 11
436
 21
93
  0
LINE
  8
_0-0_0
  6
CONTINUOUS
 62
    7
 10
369
 20
102
 11
436
 21
102
  0
LINE
  8
_0-0_0
  6
CONTINUOUS
 62
    7
 10
369
 20
111
 11
436
 21
111
  0
LINE
  8
_0-0_0
  6
CONTINUOUS
 62
    7
 10
369
 20
120
 11
436
 21
120
  0
TEXT
  8
_0-0_0
 62
    7
 10
112.5
 20
121.9166666667
 40
5
 41
1
 50
0
  1
ガスケットＮ
  0
TEXT
  8
_0-0_0
 62
    7
 10
312.5833333333
 20
121.9166666667
 40
5
 41
1
 50
0
  1
3000
  0
TEXT
  8
_0-0_0
 62
    7
 10
342.1666666667
 20
121.9166666667
 40
5
 41
1
 50
0
  1
 1
  0
TEXT
  8
_0-0_0
 62
    7
 10
358.4166666667
 20
121.9166666667
 40
5
 41
1
 50
0
  1
本
  0
TEXT
  8
_0-0_0
 62
    7
 10
380.5833333333
 20
121.9166666667
 40
5
 41
1
 50
0
  1
2000
  0
TEXT
  8
_0-0_0
 62
    7
 10
410.1666666667
 20
121.9166666667
 40
5
 41
1
 50
0
  1
 1
  0
TEXT
  8
_0-0_0
 62
    7
 10
426.4166666667
 20
121.9166666667
 40
5
 41
0.998
 50
0
  1
本
  0
TEXT
  8
_0-0_0
 62
    7
 10
95.166666666669983
 20
112.9166666667
 40
5
 41
1
 50
0
  1
13
  0
TEXT
  8
_0-0_0
 62
    7
 10
342.1666666667
 20
112.9166666667
 40
5
 41
1
 50
0
  1
 6
  0
TEXT
  8
_0-0_0
 62
    7
 10
358.4166666667
 20
112.9166666667
 40
5
 41
1
 50
0
  1
〃
  0
TEXT
  8
_0-0_0
 62
    7
 10
410.1666666667
 20
112.9166666667
 40
5
 41
1
 50
0
  1
 4
  0
TEXT
  8
_0-0_0
 62
    7
 10
426.4166666667
 20
112.9166666667
 40
5
 41
0.998
 50
0
  1
〃
  0
TEXT
  8
_0-0_0
 62
    7
 10
95.166666666669983
 20
103.9166666667
 40
4.9900000000000002
 41
1
 50
0
  1
14
  0
TEXT
  8
_0-0_0
 62
    7
 10
342.1666666667
 20
103.9166666667
 40
4.9900000000000002
 41
1
 50
0
  1
 6
  0
TEXT
  8
_0-0_0
 62
    7
 10
358.4166666667
 20
103.9166666667
 40
4.9900000000000002
 41
1
 50
0
  1
〃
  0
TEXT
  8
_0-0_0
 62
    7
 10
410.1666666667
 20
103.9166666667
 40
4.9900000000000002
 41
1
 50
0
  1
 5
  0
LINE
  8
_0-0_0
  6
CONTINUOUS
 62
    7
 10
368
 20
39
 11
301
 21
39
  0
LINE
  8
_0-0_0
  6
CONTINUOUS
 62
    7
 10
368
 20
48
 11
301
 21
48
  0
LINE
  8
_0-0_0
  6
CONTINUOUS
 62
    7
 10
368
 20
57
 11
301
 21
57
  0
LINE
  8
_0-0_0
  6
CONTINUOUS
 62
    7
 10
368
 20
66
 11
301
 21
66
  0
LINE
  8
_0-0_0
  6
CONTINUOUS
 62
    7
 10
368
 20
75
 11
301
 21
75
  0
LINE
  8
_0-0_0
  6
CONTINUOUS
 62
    7
 10
368
 20
84
 11
301
 21
84
  0
LINE
  8
_0-0_0
  6
CONTINUOUS
 62
    7
 10
368
 20
93
 11
301
 21
93
  0
LINE
  8
_0-0_0
  6
CONTINUOUS
 62
    7
 10
368
 20
102
 11
301
 21
102
  0
LINE
  8
_0-0_0
  6
CONTINUOUS
 62
    7
 10
368
 20
111
 11
301
 21
111
  0
LINE
  8
_0-0_0
  6
CONTINUOUS
 62
    7
 10
368
 20
120
 11
301
 21
120
  0
TEXT
  8
_0-0_0
 62
    7
 10
426.4166666667
 20
103.9166666667
 40
4.9900000000000002
 41
1
 50
0
  1
〃
  0
TEXT
  8
_0-0_0
 62
    7
 10
95.166666666669983
 20
94.916666666669983
 40
4.9900000000000002
 41
1
 50
0
  1
15
  0
TEXT
  8
_0-0_0
 62
    7
 10
113.3333333333
 20
94.916666666669983
 40
4.9900000000000002
 41
1
 50
0
  1
ステン六角ボルト
  0
TEXT
  8
_0-0_0
 62
    7
 10
342.1666666667
 20
94.916666666669983
 40
4.9900000000000002
 41
1
 50
0
  1
 6
  0
TEXT
  8
_0-0_0
 62
    7
 10
358.4166666667
 20
94.916666666669983
 40
4.9900000000000002
 41
1
 50
0
  1
〃
  0
TEXT
  8
_0-0_0
 62
    7
 10
410.1666666667
 20
94.916666666669983
 40
4.9900000000000002
 41
1
 50
0
  1
 5
  0
TEXT
  8
_0-0_0
 62
    7
 10
426.4166666667
 20
94.916666666669983
 40
4.9900000000000002
 41
1
 50
0
  1
〃
  0
TEXT
  8
_0-0_0
 62
    7
 10
95.166666666669983
 20
85.916666666669983
 40
4.9900000000000002
 41
1
 50
0
  1
16
  0
TEXT
  8
_0-0_0
 62
    7
 10
113.75
 20
85.916666666669983
 40
4.9900000000000002
 41
1
 50
0
  1
アジャストアンカー
  0
TEXT
  8
_0-0_0
 62
    7
 10
342.1666666667
 20
85.916666666669983
 40
4.9900000000000002
 41
1
 50
0
  1
 6
  0
TEXT
  8
_0-0_0
 62
    7
 10
358.4166666667
 20
85.916666666669983
 40
4.9900000000000002
 41
1
 50
0
  1
〃
  0
TEXT
  8
_0-0_0
 62
    7
 10
410.1666666667
 20
85.916666666669983
 40
4.9900000000000002
 41
1
 50
0
  1
 5
  0
TEXT
  8
_0-0_0
 62
    7
 10
426.4166666667
 20
85.916666666669983
 40
4.9900000000000002
 41
1
 50
0
  1
〃
  0
TEXT
  8
_0-0_0
 62
    7
 10
95.166666666669983
 20
76.916666666669983
 40
4.9900000000000002
 41
1
 50
0
  1
17
  0
TEXT
  8
_0-0_0
 62
    7
 10
112.9166666667
 20
76.916666666669983
 40
4.9900000000000002
 41
1
 50
0
  1
アンカープラグ
  0
TEXT
  8
_0-0_0
 62
    7
 10
342.1666666667
 20
76.916666666669983
 40
4.9900000000000002
 41
1
 50
0
  1
 6
  0
TEXT
  8
_0-0_0
 62
    7
 10
358.4166666667
 20
76.916666666669983
 40
4.9900000000000002
 41
1
 50
0
  1
〃
  0
TEXT
  8
_0-0_0
 62
    7
 10
410.1666666667
 20
76.916666666669983
 40
4.9900000000000002
 41
1
 50
0
  1
 5
  0
TEXT
  8
_0-0_0
 62
    7
 10
426.4166666667
 20
76.916666666669983
 40
4.9900000000000002
 41
1
 50
0
  1
〃
  0
TEXT
  8
_0-0_0
 62
    7
 10
95.166666666669983
 20
67.916666666669983
 40
4.9900000000000002
 41
1
 50
0
  1
18
  0
TEXT
  8
_0-0_0
 62
    7
 10
113.75
 20
67.916666666669983
 40
4.9900000000000002
 41
1
 50
0
  1
ステンタッピンねじ
  0
TEXT
  8
_0-0_0
 62
    7
 10
342.1666666667
 20
67.916666666669983
 40
4.9900000000000002
 41
1
 50
0
  1
 6
  0
TEXT
  8
_0-0_0
 62
    7
 10
358.4166666667
 20
67.916666666669983
 40
4.9900000000000002
 41
1
 50
0
  1
〃
  0
TEXT
  8
_0-0_0
 62
    7
 10
410.1666666667
 20
67.916666666669983
 40
4.9900000000000002
 41
1
 50
0
  1
 5
  0
TEXT
  8
_0-0_0
 62
    7
 10
426.4166666667
 20
67.916666666669983
 40
4.9900000000000002
 41
1
 50
0
  1
〃
  0
TEXT
  8
_0-0_0
 62
    7
 10
95.166666666669983
 20
58.916666666669983
 40
4.9900000000000002
 41
1
 50
0
  1
19
  0
TEXT
  8
_0-0_0
 62
    7
 10
113.3333333333
 20
58.916666666669983
 40
4.9900000000000002
 41
1
 50
0
  1
ステスワッシャー
  0
TEXT
  8
_0-0_0
 62
    7
 10
342.1666666667
 20
58.916666666669983
 40
4.9900000000000002
 41
1
 50
0
  1
 6
  0
TEXT
  8
_0-0_0
 62
    7
 10
358.4166666667
 20
58.916666666669983
 40
4.9900000000000002
 41
1
 50
0
  1
枚
  0
TEXT
  8
_0-0_0
 62
    7
 10
410.1666666667
 20
58.916666666669983
 40
4.9900000000000002
 41
1
 50
0
  1
 5
  0
TEXT
  8
_0-0_0
 62
    7
 10
426.4166666667
 20
58.916666666669983
 40
4.9900000000000002
 41
1
 50
0
  1
枚
  0
TEXT
  8
_0-0_0
 62
    7
 10
95.166666666669983
 20
49.916666666669983
 40
4.9900000000000002
 41
1
 50
0
  1
20
  0
TEXT
  8
_0-0_0
 62
    7
 10
113.3333333333
 20
49.916666666669983
 40
4.9900000000000002
 41
1
 50
0
  1
ステンワッシャー
  0
TEXT
  8
_0-0_0
 62
    7
 10
342.1666666667
 20
49.916666666669983
 40
4.9900000000000002
 41
1
 50
0
  1
 6
  0
TEXT
  8
_0-0_0
 62
    7
 10
358.4166666667
 20
49.916666666669983
 40
4.9900000000000002
 41
1
 50
0
  1
〃
  0
TEXT
  8
_0-0_0
 62
    7
 10
410.1666666667
 20
49.916666666669983
 40
4.9900000000000002
 41
1
 50
0
  1
 5
  0
TEXT
  8
_0-0_0
 62
    7
 10
426.4166666667
 20
49.916666666669983
 40
4.9900000000000002
 41
1
 50
0
  1
〃
  0
TEXT
  8
_0-0_0
 62
    7
 10
95.416666666669983
 20
40.916666666669983
 40
4.9900000000000002
 41
1
 50
0
  1
※
  0
TEXT
  8
_0-0_0
 62
    7
 10
112.5
 20
40.916666666669983
 40
4.9900000000000002
 41
1
 50
0
  1
ブチルテープ
  0
TEXT
  8
_0-0_0
 62
    7
 10
312.5833333333
 20
40.916666666669983
 40
4.9900000000000002
 41
1
 50
0
  1
6000
  0
TEXT
  8
_0-0_0
 62
    7
 10
342.1666666667
 20
40.916666666669983
 40
4.9900000000000002
 41
1
 50
0
  1
 1
  0
LINE
  8
_0-0_0
  6
CONTINUOUS
 62
    7
 10
91
 20
39
 11
91
 21
237
  0
LINE
  8
_0-0_0
  6
CONTINUOUS
 62
    7
 10
436
 20
39
 11
436
 21
237
  0
LINE
  8
_0-0_0
  6
CONTINUOUS
 62
    7
 10
105
 20
39
 11
105
 21
237
  0
LINE
  8
_0-0_0
  6
CONTINUOUS
 62
    7
 10
369
 20
39
 11
369
 21
237
  0
LINE
  8
_0-0_0
  6
CONTINUOUS
 62
    7
 10
368
 20
39
 11
368
 21
237
  0
LINE
  8
_0-0_0
  6
CONTINUOUS
 62
    7
 10
354
 20
39
 11
354
 21
237
  0
LINE
  8
_0-0_0
  6
CONTINUOUS
 62
    7
 10
336
 20
39
 11
336
 21
237
  0
LINE
  8
_0-0_0
  6
CONTINUOUS
 62
    7
 10
301
 20
39
 11
301
 21
237
  0
LINE
  8
_0-0_0
  6
CONTINUOUS
 62
    7
 10
300
 20
39
 11
300
 21
237
  0
LINE
  8
_0-0_0
  6
CONTINUOUS
 62
    7
 10
205
 20
39
 11
205
 21
237
  0
LINE
  8
_0-0_0
  6
CONTINUOUS
 62
    7
 10
422
 20
39
 11
422
 21
237
  0
LINE
  8
_0-0_0
  6
CONTINUOUS
 62
    7
 10
404
 20
39
 11
404
 21
237
  0
TEXT
  8
_0-0_0
 62
    7
 10
358.4166666667
 20
40.916666666669983
 40
4.9900000000000002
 41
1
 50
0
  1
巻
  0
TEXT
  8
_0-0_0
 62
    7
 10
380.5833333333
 20
40.916666666669983
 40
4.9900000000000002
 41
1
 50
0
  1
6000
  0
TEXT
  8
_0-0_0
 62
    7
 10
410.1666666667
 20
40.916666666669983
 40
4.9900000000000002
 41
1
 50
0
  1
 1
  0
TEXT
  8
_0-0_0
 62
    7
 10
426.4166666667
 20
40.916666666669983
 40
4.9900000000000002
 41
1
 50
0
  1
巻
  0
TEXT
  8
_0-0_0
 62
    7
 10
113.3333333333
 20
220.9166666667
 40
4.9900000000000002
 41
1
 50
0
  1
ＦＹＫキャップＳ
  0
TEXT
  8
_0-0_0
 62
    7
 10
114.5833333333
 20
211.9166666667
 40
5
 41
1
 50
0
  1
ＦＹＫサイドキャップＳ
  0
TEXT
  8
_0-4_図枠
 62
    7
 10
20.841816088890027
 20
568.18708392320002
 40
8
 41
1
 50
0
  1
◇ステンレス２００タイプ（２００ＦＹＫＧ－Ｓ）
  0
LINE
  8
_0-3_躯体と製品
  6
CONTINUOUS
 62
    7
 10
647.04066590050002
 20
413.7221386512
 11
232.60940897739999
 21
435.44156049200001
  0
LINE
  8
_0-0_0
  6
CONTINUOUS
 62
    7
 10
607.09548451039996
 20
415.8155769009
 11
607.00127978909995
 21
414.01804373829998
  0
LINE
  8
_0-3_躯体と製品
  6
CONTINUOUS
 62
    7
 10
635.15080623760002
 20
434.57298118120002
 11
633.21431430550001
 21
436.50947311340002
  0
LINE
  8
_0-3_躯体と製品
  6
CONTINUOUS
 62
    7
 10
645.59780518950004
 20
434.02547716599997
 11
642.71438882020004
 21
436.90889353530002
  0
LINE
  8
_0-3_躯体と製品
  6
CONTINUOUS
 62
    7
 10
644.10537676779995
 20
434.10369202530001
 11
641.22196039849996
 21
436.9871083946
  0
LINE
  8
_0-3_躯体と製品
  6
CONTINUOUS
 62
    7
 10
642.61294834609998
 20
434.18190688459998
 11
639.72953197679999
 21
437.06532325389998
  0
LINE
  8
_0-3_躯体と製品
  6
CONTINUOUS
 62
    7
 10
641.12051992440001
 20
434.260121744
 11
638.23710355510002
 21
437.14353811320001
  0
LINE
  8
_0-3_躯体と製品
  6
CONTINUOUS
 62
    7
 10
639.62809150270004
 20
434.33833660329998
 11
636.74467513340005
 21
437.22175297259997
  0
LINE
  8
_0-3_躯体と製品
  6
CONTINUOUS
 62
    7
 10
638.13566308099996
 20
434.41655146260001
 11
635.25224671169997
 21
437.29996783190001
  0
LINE
  8
_0-3_躯体と製品
  6
CONTINUOUS
 62
    7
 10
636.64323465929999
 20
434.49476632189999
 11
633.75981829
 21
437.37818269119998
  0
LINE
  8
_0-3_躯体と製品
  6
CONTINUOUS
 62
    7
 10
633.11840919530005
 20
434.67949459689999
 11
633.2612109081
 21
437.40431359680002
  0
LINE
  8
_0-3_躯体と製品
  6
CONTINUOUS
 62
    7
 10
218.44766404379999
 20
460.64582892350001
 11
674.65700786870002
 21
436.73691032549999
  0
LINE
  8
_0-3_躯体と製品
  6
CONTINUOUS
 62
    7
 10
218.36916010940001
 20
459.14788462140001
 11
674.57850393440003
 21
435.23896602330001
  0
LINE
  8
_0-3_躯体と製品
  6
CONTINUOUS
 62
    7
 10
633.03990526099994
 20
433.1815502947
 11
248.56753438050001
 21
453.3308934483
  0
LINE
  8
_0-3_躯体と製品
  6
CONTINUOUS
 62
    7
 10
647.78383647919998
 20
427.9026780447
 11
233.35257955599999
 21
449.62209988550001
  0
LINE
  8
_0-3_躯体と製品
  6
CONTINUOUS
 62
    7
 10
647.86234041360001
 20
429.40062234679999
 11
233.4310834904
 21
451.1200441876
  0
LINE
  8
_0-3_躯体と製品
  6
CONTINUOUS
 62
    7
 10
646.68478139809997
 20
406.93145781480001
 11
232.25352447489999
 21
428.65087965570001
  0
LINE
  8
_0-3_躯体と製品
  6
CONTINUOUS
 62
    7
 10
646.7632853325
 20
408.429402117
 11
232.33202840929999
 21
430.1488239578
  0
LINE
  8
_0-3_躯体と製品
  6
CONTINUOUS
 62
    7
 10
646.94646117929994
 20
411.92460548859998
 11
232.51520425620001
 21
433.64402732939999
  0
LINE
  8
_0-3_躯体と製品
  6
CONTINUOUS
 62
    7
 10
646.63244544179997
 20
405.93282828010001
 11
232.20118851870001
 21
427.65225012090002
  0
LINE
  8
_0-3_躯体と製品
  6
CONTINUOUS
 62
    7
 10
648.09785221669995
 20
433.89445525320002
 11
233.6665952935
 21
455.61387709399997
  0
LINE
  8
_0-3_躯体と製品
  6
CONTINUOUS
 62
    7
 10
646.85472180809995
 20
429.45342940030002
 11
642.62770379710003
 21
433.68044741120002
  0
LINE
  8
_0-3_躯体と製品
  6
CONTINUOUS
 62
    7
 10
645.36229338639998
 20
429.5316442596
 11
641.13527537549999
 21
433.7586622705
  0
LINE
  8
_0-3_躯体と製品
  6
CONTINUOUS
 62
    7
 10
643.86986496470001
 20
429.60985911889998
 11
639.64284695380002
 21
433.83687712990002
  0
LINE
  8
_0-3_躯体と製品
  6
CONTINUOUS
 62
    7
 10
642.37743654300004
 20
429.68807397820001
 11
638.15041853210005
 21
433.91509198919999
  0
LINE
  8
_0-3_躯体と製品
  6
CONTINUOUS
 62
    7
 10
640.88500812129996
 20
429.76628883759997
 11
636.65799011039996
 21
433.99330684850003
  0
LINE
  8
_0-3_躯体と製品
  6
CONTINUOUS
 62
    7
 10
639.39257969959999
 20
429.84450369690001
 11
635.1655616887
 21
434.0715217078
  0
LINE
  8
_0-3_躯体と製品
  6
CONTINUOUS
 62
    7
 10
637.90015127790002
 20
429.92271855619998
 11
633.67313326700003
 21
434.14973656709998
  0
LINE
  8
_0-3_躯体と製品
  6
CONTINUOUS
 62
    7
 10
636.40772285620005
 20
430.00093341550001
 11
633.04922747809997
 21
433.35942879369998
  0
LINE
  8
_0-3_躯体と製品
  6
CONTINUOUS
 62
    7
 10
634.91529443449997
 20
430.07914827479999
 11
632.97880250239996
 21
432.01564020699999
  0
LINE
  8
_0-3_躯体と製品
  6
CONTINUOUS
 62
    7
 10
632.88289739219999
 20
430.18566169050001
 11
633.09224121720001
 21
434.18017982949999
  0
LINE
  8
_0-3_躯体と製品
  6
CONTINUOUS
 62
    7
 10
648.07168423849998
 20
433.39514048580003
 11
633.09224121720001
 21
434.18017982949999
  0
LINE
  8
_0-3_躯体と製品
  6
CONTINUOUS
 62
    7
 10
633.4228660128
 20
430.15736313420001
 11
632.9083775268
 21
430.67185162020002
  0
LINE
  8
_0-3_躯体と製品
  6
CONTINUOUS
 62
    7
 10
618.45935146069996
 20
412.91686547419999
 11
646.92029320120002
 21
411.42529072119999
  0
ARC
  8
_0-3_躯体と製品
  6
CONTINUOUS
 62
    7
 10
618.38084752630004
 20
411.41892117200001
 40
1.5
 50
86.999999999989996
 51
267
  0
LINE
  8
_0-3_躯体と製品
  6
CONTINUOUS
 62
    7
 10
618.30234359190001
 20
409.92097686990002
 11
621.79754696359998
 21
409.73780102299997
  0
LINE
  8
_0-3_躯体と製品
  6
CONTINUOUS
 62
    7
 10
621.84988291980005
 20
410.73643055780002
 11
621.79754696359998
 21
409.73780102299997
  0
LINE
  8
_0-3_躯体と製品
  6
CONTINUOUS
 62
    7
 10
621.84988291980005
 20
410.73643055780002
 11
641.82247361489999
 21
409.68971143290003
  0
LINE
  8
_0-3_躯体と製品
  6
CONTINUOUS
 62
    7
 10
641.82247361489999
 20
409.68971143290003
 11
641.77013765870004
 21
408.69108189820003
  0
LINE
  8
_0-3_躯体と製品
  6
CONTINUOUS
 62
    7
 10
641.77013765870004
 20
408.69108189820003
 11
646.7632853325
 21
408.429402117
  0
LINE
  8
_0-3_躯体と製品
  6
CONTINUOUS
 62
    7
 10
633.65837781590005
 20
434.65119604059998
 11
633.14388932990005
 21
435.16568452659999
  0
LINE
  8
_0-4_図枠
  6
CONTINUOUS
 62
    7
 10
490.37824824699999
 20
394.23615693260001
 11
480.68099461510002
 21
377.4400209483
  0
CIRCLE
  8
_0-4_図枠
  6
CONTINUOUS
 62
    7
 10
477.68099461510002
 20
372.24386852560002
 40
6
  0
CIRCLE
  8
_0-4_図枠
  6
CONTINUOUS
 62
    7
 10
490.37824824699999
 20
394.23615693260001
 40
0.9
  0
LINE
  8
_0-4_図枠
  6
CONTINUOUS
 62
    7
 10
495.37398902400002
 20
363.91733860189998
 11
485.33237482930002
 21
346.5247526265
  0
LINE
  8
_0-4_図枠
  6
CONTINUOUS
 62
    7
 10
501.8374108287
 20
397.1005721473
 11
518.25979649359999
 21
368.65616579419998
  0
CIRCLE
  8
_0-4_図枠
  6
CONTINUOUS
 62
    7
 10
521.25979649359999
 20
363.4600133715
 40
6
  0
LINE
  8
_0-4_図枠
  6
CONTINUOUS
 62
    7
 10
507.67748272810002
 20
404.4886149116
 11
519.45916885990005
 21
384.08213593260001
  0
CIRCLE
  8
_0-4_図枠
  6
CONTINUOUS
 62
    7
 10
522.45916885990005
 20
378.88598350989997
 40
6
  0
LINE
  8
_0-4_図枠
  6
CONTINUOUS
 62
    7
 10
515.02169158419997
 20
402.75133698600001
 11
539.83474583960003
 21
445.7288076474
  0
CIRCLE
  8
_0-4_図枠
  6
CONTINUOUS
 62
    7
 10
515.02169158419997
 20
402.75133698600001
 40
0.9
  0
LINE
  8
_0-4_図枠
  6
CONTINUOUS
 62
    7
 10
547.47334073879995
 20
422.59819410009999
 11
561.39865585040002
 21
446.71754738480001
  0
TEXT
  8
_0-4_図枠
 62
    7
 10
561.39865585040002
 20
448.9136998075
 40
5
 41
1
 50
0
  1
６
  0
CIRCLE
  8
_0-4_図枠
  6
CONTINUOUS
 62
    7
 10
564.39865585040002
 20
451.9136998075
 40
6
  0
CIRCLE
  8
_0-4_図枠
  6
CONTINUOUS
 62
    7
 10
507.67748272810002
 20
404.4886149116
 40
0.9
  0
CIRCLE
  8
_0-4_図枠
  6
CONTINUOUS
 62
    7
 10
501.8374108287
 20
397.1005721473
 40
0.9
  0
CIRCLE
  8
_0-4_図枠
  6
CONTINUOUS
 62
    7
 10
495.37398902400002
 20
363.91733860189998
 40
0.9
  0
CIRCLE
  8
_0-4_図枠
  6
CONTINUOUS
 62
    7
 10
547.47334073879995
 20
422.59819410009999
 40
0.9
  0
LINE
  8
_0-3_躯体と製品
  6
CONTINUOUS
 62
    7
 10
503.27350269189998
 20
399.4956829857
 11
503.27350269189998
 21
395
  0
LINE
  8
_0-3_躯体と製品
  6
CONTINUOUS
 62
    7
 10
500.3867513459
 20
399.4956829857
 11
500.3867513459
 21
395
  0
LINE
  8
_0-3_躯体と製品
  6
CONTINUOUS
 62
    7
 10
494.6132486541
 20
399.4956829857
 11
494.6132486541
 21
395
  0
LINE
  8
_0-3_躯体と製品
  6
CONTINUOUS
 62
    7
 10
502.39999999999998
 20
400
 11
503.27350269189998
 21
399.4956829857
  0
LINE
  8
_0-3_躯体と製品
  6
CONTINUOUS
 62
    7
 10
492.60000000000002
 20
400
 11
502.39999999999998
 21
400
  0
LINE
  8
_0-3_躯体と製品
  6
CONTINUOUS
 62
    7
 10
492.60000000000002
 20
400
 11
491.72649730810002
 21
399.4956829857
  0
LINE
  8
_0-3_躯体と製品
  6
CONTINUOUS
 62
    7
 10
491.72649730810002
 20
399.4956829857
 11
491.72649730810002
 21
395
  0
ARC
  8
_0-3_躯体と製品
  6
CONTINUOUS
 62
    7
 10
501.83012701889999
 20
397.38644222469998
 40
2.5558227484280001
 50
55.615752532039998
 51
124.38424746800001
  0
ARC
  8
_0-3_躯体と製品
  6
CONTINUOUS
 62
    7
 10
493.16987298110001
 20
397.38644222469998
 40
2.5558227484280001
 50
55.615752532039998
 51
124.38424746800001
  0
ARC
  8
_0-3_躯体と製品
  6
CONTINUOUS
 62
    7
 10
497.5
 20
390.38884696039997
 40
9.5534180126359995
 50
72.412046226049995
 51
107.587953774
  0
LINE
  8
_0-3_躯体と製品
  6
CONTINUOUS
 62
    7
 10
488.5
 20
395
 11
488.5
 21
393.5
  0
LINE
  8
_0-3_躯体と製品
  6
CONTINUOUS
 62
    7
 10
488.5
 20
395
 11
506.5
 21
395
  0
LINE
  8
_0-3_躯体と製品
  6
CONTINUOUS
 62
    7
 10
506.5
 20
395
 11
506.5
 21
393.5
  0
LINE
  8
_0-3_躯体と製品
  6
CONTINUOUS
 62
    7
 10
497.5
 20
413.92351442789999
 11
497.5
 21
325
  0
LINE
  8
_0-3_躯体と製品
  6
CONTINUOUS
 62
    7
 10
512.5
 20
391
 11
482.5
 21
391
  0
ARC
  8
_0-3_躯体と製品
  6
CONTINUOUS
 62
    7
 10
482.5
 20
381.75
 40
9.25
 50
90
 51
108.92464441609999
  0
ARC
  8
_0-3_躯体と製品
  6
CONTINUOUS
 62
    7
 10
512.5
 20
381.75
 40
9.25
 50
71.07535558395
 51
90
  0
ARC
  8
_0-3_躯体と製品
  6
CONTINUOUS
 62
    7
 10
476.5
 20
399.25
 40
9.25
 50
270
 51
288.92464441605
  0
ARC
  8
_0-3_躯体と製品
  6
CONTINUOUS
 62
    7
 10
476.5
 20
399.25
 40
10.25
 50
270
 51
288.92464441605
  0
ARC
  8
_0-3_躯体と製品
  6
CONTINUOUS
 62
    7
 10
482.5
 20
381.75
 40
8.25
 50
90
 51
108.92464441609999
  0
ARC
  8
_0-3_躯体と製品
  6
CONTINUOUS
 62
    7
 10
518.5
 20
399.25
 40
10.25
 50
251.07535558390001
 51
270
  0
ARC
  8
_0-3_躯体と製品
  6
CONTINUOUS
 62
    7
 10
512.5
 20
381.75
 40
8.25
 50
71.07535558395
 51
90
  0
LINE
  8
_0-3_躯体と製品
  6
CONTINUOUS
 62
    7
 10
497.5
 20
390
 11
497.5
 21
391
  0
ARC
  8
_0-3_躯体と製品
  6
CONTINUOUS
 62
    7
 10
518.5
 20
399.25
 40
9.25
 50
251.07535558390001
 51
270
  0
LINE
  8
_0-3_躯体と製品
  6
CONTINUOUS
 62
    7
 10
483.5
 20
399.5
 11
483.5
 21
397.89999999999998
  0
LINE
  8
_0-3_躯体と製品
  6
CONTINUOUS
 62
    7
 10
511.5
 20
399.5
 11
511.5
 21
397.89999999999998
  0
LINE
  8
_0-3_躯体と製品
  6
CONTINUOUS
 62
    7
 10
500.49588860429998
 20
408.76650655920002
 11
500.30747916180002
 21
405.17144023399999
  0
LINE
  8
_0-3_躯体と製品
  6
CONTINUOUS
 62
    7
 10
494.50411139570002
 20
409.08052229660001
 11
494.31570195329999
 21
405.48545597150002
  0
LINE
  8
_0-3_躯体と製品
  6
CONTINUOUS
 62
    7
 10
506.50990550810002
 20
408.45132528869999
 11
488.70990550810001
 21
409.3841837599
  0
LINE
  8
_0-3_躯体と製品
  6
CONTINUOUS
 62
    7
 10
506.42616797810001
 20
406.853518033
 11
488.6261679781
 21
407.78637650429999
  0
ARC
  8
_0-3_躯体と製品
  6
CONTINUOUS
 62
    7
 10
502.95625190840002
 20
406.03399628260001
 40
1
 50
86.999999999989996
 51
177
  0
LINE
  8
_0-3_躯体と製品
  6
CONTINUOUS
 62
    7
 10
501.95762237359997
 20
406.08633223880003
 11
501.90528641740002
 21
405.08770270410002
  0
ARC
  8
_0-3_躯体と製品
  6
CONTINUOUS
 62
    7
 10
491.77160111910001
 20
406.62015899250002
 40
1
 50
357.00000000000102
 51
86.999999999989996
  0
LINE
  8
_0-3_躯体と製品
  6
CONTINUOUS
 62
    7
 10
492.7702306539
 20
406.56782303620002
 11
492.71789469769999
 21
405.56919350150002
  0
LINE
  8
_0-3_躯体と製品
  6
CONTINUOUS
 62
    7
 10
501.90528641740002
 20
405.08770270410002
 11
492.71789469769999
 21
405.56919350150002
  0
ARC
  8
_0-3_躯体と製品
  6
CONTINUOUS
 62
    7
 10
506.39999999999998
 20
406.35420326569999
 40
2.1000000000000001
 50
0
 51
86.999999999989996
  0
LINE
  8
_0-3_躯体と製品
  6
CONTINUOUS
 62
    7
 10
508.5
 20
406.35420326569999
 11
508.5
 21
400
  0
ARC
  8
_0-3_躯体と製品
  6
CONTINUOUS
 62
    7
 10
488.60000000000002
 20
407.2870617369
 40
2.1000000000000001
 50
86.999999999989996
 51
180
  0
ARC
  8
_0-3_躯体と製品
  6
CONTINUOUS
 62
    7
 10
506.39999999999998
 20
406.35420326569999
 40
0.5
 50
0
 51
86.999999999989996
  0
LINE
  8
_0-3_躯体と製品
  6
CONTINUOUS
 62
    7
 10
506.89999999999998
 20
406.35420326569999
 11
506.89999999999998
 21
400
  0
ARC
  8
_0-3_躯体と製品
  6
CONTINUOUS
 62
    7
 10
488.60000000000002
 20
407.2870617369
 40
0.5
 50
86.999999999989996
 51
180
  0
LINE
  8
_0-3_躯体と製品
  6
CONTINUOUS
 62
    7
 10
488.10000000000002
 20
407.2870617369
 11
488.10000000000002
 21
400
  0
ARC
  8
_0-3_躯体と製品
  6
CONTINUOUS
 62
    7
 10
509
 20
400
 40
0.5
 50
180
 51
270
  0
ARC
  8
_0-3_躯体と製品
  6
CONTINUOUS
 62
    7
 10
509
 20
400
 40
2.1000000000000001
 50
180
 51
270
  0
LINE
  8
_0-3_躯体と製品
  6
CONTINUOUS
 62
    7
 10
513.5
 20
399.5
 11
513.5
 21
397.89999999999998
  0
LINE
  8
_0-3_躯体と製品
  6
CONTINUOUS
 62
    7
 10
509
 20
399.5
 11
513.5
 21
399.5
  0
LINE
  8
_0-3_躯体と製品
  6
CONTINUOUS
 62
    7
 10
513.5
 20
397.89999999999998
 11
509
 21
397.89999999999998
  0
ARC
  8
_0-3_躯体と製品
  6
CONTINUOUS
 62
    7
 10
486
 20
400
 40
0.5
 50
270
 51
0
  0
ARC
  8
_0-3_躯体と製品
  6
CONTINUOUS
 62
    7
 10
486
 20
400
 40
2.1000000000000001
 50
270
 51
0
  0
LINE
  8
_0-3_躯体と製品
  6
CONTINUOUS
 62
    7
 10
481.5
 20
399.5
 11
486
 21
399.5
  0
LINE
  8
_0-3_躯体と製品
  6
CONTINUOUS
 62
    7
 10
481.5
 20
397.89999999999998
 11
481.5
 21
399.5
  0
LINE
  8
_0-3_躯体と製品
  6
CONTINUOUS
 62
    7
 10
481.5
 20
397.89999999999998
 11
486
 21
397.89999999999998
  0
LINE
  8
_0-3_躯体と製品
  6
CONTINUOUS
 62
    7
 10
486.5
 20
407.2870617369
 11
486.5
 21
400
  0
LINE
  8
_0-3_躯体と製品
  6
CONTINUOUS
 62
    7
 10
497.5
 20
393
 11
497
 21
393.5
  0
LINE
  8
_0-3_躯体と製品
  6
CONTINUOUS
 62
    7
 10
513.70000000000005
 20
399.5
 11
510.75
 21
399.5
  0
ARC
  8
_0-3_躯体と製品
  6
CONTINUOUS
 62
    7
 10
513.70000000000005
 20
399.19999999999999
 40
0.2999999999999999
 50
0
 51
90
  0
LINE
  8
_0-3_躯体と製品
  6
CONTINUOUS
 62
    7
 10
514
 20
399.19999999999999
 11
514
 21
397.30000000000001
  0
ARC
  8
_0-3_躯体と製品
  6
CONTINUOUS
 62
    7
 10
513.70000000000005
 20
397.30000000000001
 40
0.2999999999999999
 50
270
 51
0
  0
LINE
  8
_0-3_躯体と製品
  6
CONTINUOUS
 62
    7
 10
513.70000000000005
 20
397
 11
511.75
 21
397
  0
LINE
  8
_0-3_躯体と製品
  6
CONTINUOUS
 62
    7
 10
514
 20
395.19999999999999
 11
514
 21
393.80000000000001
  0
ARC
  8
_0-3_躯体と製品
  6
CONTINUOUS
 62
    7
 10
513.70000000000005
 20
395.19999999999999
 40
0.2999999999999999
 50
0
 51
90
  0
LINE
  8
_0-3_躯体と製品
  6
CONTINUOUS
 62
    7
 10
513.70000000000005
 20
395.5
 11
511.75
 21
395.5
  0
ARC
  8
_0-3_躯体と製品
  6
CONTINUOUS
 62
    7
 10
511.75
 20
396.25
 40
0.75
 50
90
 51
270
  0
ARC
  8
_0-3_躯体と製品
  6
CONTINUOUS
 62
    7
 10
510.75
 20
400.25
 40
0.75
 50
90
 51
270
  0
LINE
  8
_0-3_躯体と製品
  6
CONTINUOUS
 62
    7
 10
514
 20
401.5
 11
514
 21
409
  0
ARC
  8
_0-3_躯体と製品
  6
CONTINUOUS
 62
    7
 10
513.5
 20
401.5
 40
0.5
 50
270
 51
0
  0
LINE
  8
_0-3_躯体と製品
  6
CONTINUOUS
 62
    7
 10
513.5
 20
401
 11
510.75
 21
401
  0
ARC
  8
_0-3_躯体と製品
  6
CONTINUOUS
 62
    7
 10
513.70000000000005
 20
393.80000000000001
 40
0.2999999999999999
 50
270
 51
0
  0
ARC
  8
_0-3_躯体と製品
  6
CONTINUOUS
 62
    7
 10
516.5
 20
394
 40
0.5
 50
180
 51
270
  0
LINE
  8
_0-3_躯体と製品
  6
CONTINUOUS
 62
    7
 10
516
 20
391
 11
516
 21
392
  0
LINE
  8
_0-3_躯体と製品
  6
CONTINUOUS
 62
    7
 10
497.5
 20
393
 11
498
 21
393.5
  0
ARC
  8
_0-3_躯体と製品
  6
CONTINUOUS
 62
    7
 10
515
 20
409
 40
1
 50
0
 51
180
  0
LINE
  8
_0-3_躯体と製品
  6
CONTINUOUS
 62
    7
 10
514
 20
391
 11
516
 21
391
  0
LINE
  8
_0-3_躯体と製品
  6
CONTINUOUS
 62
    7
 10
514
 20
391.5
 11
514
 21
391
  0
LINE
  8
_0-3_躯体と製品
  6
CONTINUOUS
 62
    7
 10
502.5
 20
391.5
 11
514
 21
391.5
  0
LINE
  8
_0-3_躯体と製品
  6
CONTINUOUS
 62
    7
 10
502.5
 20
391
 11
502.5
 21
391.5
  0
LINE
  8
_0-3_躯体と製品
  6
CONTINUOUS
 62
    7
 10
481.30000000000001
 20
393.5
 11
497
 21
393.5
  0
LINE
  8
_0-3_躯体と製品
  6
CONTINUOUS
 62
    7
 10
498
 20
393.5
 11
513.70000000000005
 21
393.5
  0
LINE
  8
_0-3_躯体と製品
  6
CONTINUOUS
 62
    7
 10
492.5
 20
391
 11
502.5
 21
391
  0
LINE
  8
_0-3_躯体と製品
  6
CONTINUOUS
 62
    7
 10
479.5
 20
400.5
 11
479.5
 21
391
  0
ARC
  8
_0-3_躯体と製品
  6
CONTINUOUS
 62
    7
 10
480
 20
400.5
 40
0.5
 50
90
 51
180
  0
LINE
  8
_0-3_躯体と製品
  6
CONTINUOUS
 62
    7
 10
480
 20
401
 11
484.25
 21
401
  0
LINE
  8
_0-3_躯体と製品
  6
CONTINUOUS
 62
    7
 10
481
 20
393.80000000000001
 11
481
 21
395.19999999999999
  0
ARC
  8
_0-3_躯体と製品
  6
CONTINUOUS
 62
    7
 10
481.30000000000001
 20
393.80000000000001
 40
0.2999999999999999
 50
180
 51
270
  0
LINE
  8
_0-3_躯体と製品
  6
CONTINUOUS
 62
    7
 10
481.30000000000001
 20
395.5
 11
483.25
 21
395.5
  0
ARC
  8
_0-3_躯体と製品
  6
CONTINUOUS
 62
    7
 10
481.30000000000001
 20
395.19999999999999
 40
0.2999999999999999
 50
90
 51
180
  0
LINE
  8
_0-3_躯体と製品
  6
CONTINUOUS
 62
    7
 10
481
 20
397.30000000000001
 11
481
 21
399.19999999999999
  0
ARC
  8
_0-3_躯体と製品
  6
CONTINUOUS
 62
    7
 10
481.30000000000001
 20
397.30000000000001
 40
0.2999999999999999
 50
180
 51
270
  0
LINE
  8
_0-3_躯体と製品
  6
CONTINUOUS
 62
    7
 10
481.30000000000001
 20
397
 11
483.25
 21
397
  0
LINE
  8
_0-3_躯体と製品
  6
CONTINUOUS
 62
    7
 10
481.30000000000001
 20
399.5
 11
484.25
 21
399.5
  0
ARC
  8
_0-3_躯体と製品
  6
CONTINUOUS
 62
    7
 10
481.30000000000001
 20
399.19999999999999
 40
0.2999999999999999
 50
90
 51
180
  0
ARC
  8
_0-3_躯体と製品
  6
CONTINUOUS
 62
    7
 10
483.25
 20
396.25
 40
0.75
 50
270
 51
90
  0
ARC
  8
_0-3_躯体と製品
  6
CONTINUOUS
 62
    7
 10
484.25
 20
400.25
 40
0.75
 50
270
 51
90
  0
LINE
  8
_0-3_躯体と製品
  6
CONTINUOUS
 62
    7
 10
492.5
 20
391.5
 11
492.5
 21
391
  0
LINE
  8
_0-3_躯体と製品
  6
CONTINUOUS
 62
    7
 10
481
 20
391.5
 11
492.5
 21
391.5
  0
LINE
  8
_0-3_躯体と製品
  6
CONTINUOUS
 62
    7
 10
481
 20
391
 11
481
 21
391.5
  0
LINE
  8
_0-3_躯体と製品
  6
CONTINUOUS
 62
    7
 10
479.5
 20
391
 11
481
 21
391
  0
LINE
  8
_0-3_躯体と製品
  6
CONTINUOUS
 62
    7
 10
520.47246390119994
 20
393.5
 11
516.5
 21
393.5
  0
LINE
  8
_0-3_躯体と製品
  6
CONTINUOUS
 62
    7
 10
493.44999999999999
 20
381.69999999999999
 11
501.55000000000001
 21
381.69999999999999
  0
LINE
  8
_0-3_躯体と製品
  6
CONTINUOUS
 62
    7
 10
492.75
 20
381
 11
502.25
 21
381
  0
LINE
  8
_0-3_躯体と製品
  6
CONTINUOUS
 62
    7
 10
504.12502999999998
 20
351.73800399999999
 11
502.25
 21
362.371826
  0
LINE
  8
_0-3_躯体と製品
  6
CONTINUOUS
 62
    7
 10
498
 20
362
 11
499.93959699999999
 21
351
  0
LINE
  8
_0-3_躯体と製品
  6
CONTINUOUS
 62
    7
 10
497
 20
362
 11
495.06040300000001
 21
351
  0
LINE
  8
_0-3_躯体と製品
  6
CONTINUOUS
 62
    7
 10
502.25
 20
362.371826
 11
502.25
 21
381
  0
LINE
  8
_0-3_躯体と製品
  6
CONTINUOUS
 62
    7
 10
502.25
 20
381
 11
501.55000000000001
 21
381.69999999999999
  0
LINE
  8
_0-3_躯体と製品
  6
CONTINUOUS
 62
    7
 10
497
 20
362
 11
498
 21
362
  0
LINE
  8
_0-3_躯体と製品
  6
CONTINUOUS
 62
    7
 10
490.87497000000002
 20
351.73800399999999
 11
492.75
 21
362.371826
  0
LINE
  8
_0-3_躯体と製品
  6
CONTINUOUS
 62
    7
 10
492.75
 20
362.371826
 11
492.75
 21
381
  0
LINE
  8
_0-3_躯体と製品
  6
CONTINUOUS
 62
    7
 10
492.75
 20
381
 11
493.44999999999999
 21
381.69999999999999
  0
LINE
  8
_0-3_躯体と製品
  6
CONTINUOUS
 62
    7
 10
501.55000000000001
 20
391
 11
501.55000000000001
 21
381.69999999999999
  0
LINE
  8
_0-3_躯体と製品
  6
CONTINUOUS
 62
    7
 10
493.44999999999999
 20
391
 11
493.44999999999999
 21
381.69999999999999
  0
LINE
  8
_0-3_躯体と製品
  6
CONTINUOUS
 62
    7
 10
482.5
 20
389.5740224717
 11
482.9259775283
 21
390
  0
LINE
  8
_0-3_躯体と製品
  6
CONTINUOUS
 62
    7
 10
483.34019109069999
 20
389
 11
484.34019109069999
 21
390
  0
LINE
  8
_0-3_躯体と製品
  6
CONTINUOUS
 62
    7
 10
484.75440465309998
 20
389
 11
485.75440465309998
 21
390
  0
LINE
  8
_0-3_躯体と製品
  6
CONTINUOUS
 62
    7
 10
486.16861821539999
 20
389
 11
487.16861821539999
 21
390
  0
LINE
  8
_0-3_躯体と製品
  6
CONTINUOUS
 62
    7
 10
487.58283177779998
 20
389
 11
488.58283177779998
 21
390
  0
LINE
  8
_0-3_躯体と製品
  6
CONTINUOUS
 62
    7
 10
488.99704534019997
 20
389
 11
489.99704534019997
 21
390
  0
LINE
  8
_0-3_躯体と製品
  6
CONTINUOUS
 62
    7
 10
490.41125890249998
 20
389
 11
491.41125890249998
 21
390
  0
LINE
  8
_0-3_躯体と製品
  6
CONTINUOUS
 62
    7
 10
491.82547246489997
 20
389
 11
492.82547246489997
 21
390
  0
LINE
  8
_0-3_躯体と製品
  6
CONTINUOUS
 62
    7
 10
493.23968602730002
 20
389
 11
494.23968602730002
 21
390
  0
LINE
  8
_0-3_躯体と製品
  6
CONTINUOUS
 62
    7
 10
494.65389958970002
 20
389
 11
495.65389958970002
 21
390
  0
LINE
  8
_0-3_躯体と製品
  6
CONTINUOUS
 62
    7
 10
496.06811315200002
 20
389
 11
497.06811315200002
 21
390
  0
LINE
  8
_0-3_躯体と製品
  6
CONTINUOUS
 62
    7
 10
497.48232671440002
 20
389
 11
498.48232671440002
 21
390
  0
LINE
  8
_0-3_躯体と製品
  6
CONTINUOUS
 62
    7
 10
498.89654027680001
 20
389
 11
499.89654027680001
 21
390
  0
LINE
  8
_0-3_躯体と製品
  6
CONTINUOUS
 62
    7
 10
500.3107538392
 20
389
 11
501.3107538392
 21
390
  0
LINE
  8
_0-3_躯体と製品
  6
CONTINUOUS
 62
    7
 10
501.72496740150001
 20
389
 11
502.72496740150001
 21
390
  0
LINE
  8
_0-3_躯体と製品
  6
CONTINUOUS
 62
    7
 10
503.1391809639
 20
389
 11
504.1391809639
 21
390
  0
LINE
  8
_0-3_躯体と製品
  6
CONTINUOUS
 62
    7
 10
504.5533945263
 20
389
 11
505.5533945263
 21
390
  0
LINE
  8
_0-3_躯体と製品
  6
CONTINUOUS
 62
    7
 10
505.9676080886
 20
389
 11
506.9676080886
 21
390
  0
LINE
  8
_0-3_躯体と製品
  6
CONTINUOUS
 62
    7
 10
507.381821651
 20
389
 11
508.381821651
 21
390
  0
LINE
  8
_0-3_躯体と製品
  6
CONTINUOUS
 62
    7
 10
508.79603521339999
 20
389
 11
509.79603521339999
 21
390
  0
LINE
  8
_0-3_躯体と製品
  6
CONTINUOUS
 62
    7
 10
510.21024877579998
 20
389
 11
511.21024877579998
 21
390
  0
LINE
  8
_0-3_躯体と製品
  6
CONTINUOUS
 62
    7
 10
511.62446233809999
 20
389
 11
512.5
 21
389.87553766190001
  0
LINE
  8
_0-3_躯体と製品
  6
CONTINUOUS
 62
    7
 10
512.5
 20
389
 11
482.5
 21
389
  0
LINE
  8
_0-3_躯体と製品
  6
CONTINUOUS
 62
    7
 10
482.5
 20
390
 11
512.5
 21
390
  0
LINE
  8
_0-3_躯体と製品
  6
CONTINUOUS
 62
    7
 10
512.5
 20
390
 11
512.5
 21
389
  0
LINE
  8
_0-3_躯体と製品
  6
CONTINUOUS
 62
    7
 10
482.5
 20
389
 11
482.5
 21
390
  0
CIRCLE
  8
_0-3_躯体と製品
  6
CONTINUOUS
 62
    7
 10
497.5
 20
408.92351442789999
 40
1.3999999999999999
  0
LINE
  8
_0-3_躯体と製品
  6
CONTINUOUS
 62
    7
 10
500.30747916180002
 20
405.17144023399999
 11
500.19165454199998
 21
402.96137483109999
  0
LINE
  8
_0-3_躯体と製品
  6
CONTINUOUS
 62
    7
 10
494.7378452328
 20
402.67791668690001
 11
494.19987733340002
 21
403.27539056860002
  0
LINE
  8
_0-3_躯体と製品
  6
CONTINUOUS
 62
    7
 10
494.88342284380002
 20
405.45570298040002
 11
494.7378452328
 21
402.67791668690001
  0
LINE
  8
_0-3_躯体と製品
  6
CONTINUOUS
 62
    7
 10
494.31570195329999
 20
405.48545597150002
 11
494.19987733340002
 21
403.27539056860002
  0
LINE
  8
_0-3_躯体と製品
  6
CONTINUOUS
 62
    7
 10
500.19165454199998
 20
402.96137483109999
 11
494.19987733340002
 21
403.27539056860002
  0
LINE
  8
_0-3_躯体と製品
  6
CONTINUOUS
 62
    7
 10
499.73975827129999
 20
405.20119322519997
 11
499.59418066030003
 21
402.42340693170001
  0
LINE
  8
_0-3_躯体と製品
  6
CONTINUOUS
 62
    7
 10
500.19165454199998
 20
402.96137483109999
 11
499.59418066030003
 21
402.42340693170001
  0
LINE
  8
_0-0_0
  6
CONTINUOUS
 62
    7
 10
494.7378452328
 20
402.67791668690001
 11
499.59418066030003
 21
402.42340693170001
  0
LINE
  8
_0-4_図枠
  6
CONTINUOUS
 62
    7
 10
499.70235386249999
 20
427.28543819549998
 11
517.52788640150004
 21
458.1601662251
  0
LINE
  8
_0-4_図枠
  6
CONTINUOUS
 62
    7
 10
515.25173785339996
 20
430.00769083889998
 11
533.53882762579997
 21
461.68185944729998
  0
TEXT
  8
_0-4_図枠
 62
    7
 10
539.98265466470002
 20
450.7472285783
 40
5
 41
1
 50
0
  1
３
  0
CIRCLE
  8
_0-4_図枠
  6
CONTINUOUS
 62
    7
 10
542.98265466470002
 20
453.7472285783
 40
6
  0
CIRCLE
  8
_0-4_図枠
  6
CONTINUOUS
 62
    7
 10
515.25173785339996
 20
430.00769083889998
 40
0.9
  0
CIRCLE
  8
_0-4_図枠
  6
CONTINUOUS
 62
    7
 10
499.70235386249999
 20
427.28543819549998
 40
0.9
  0
LINE
  8
_0-3_躯体と製品
  6
CONTINUOUS
 62
    7
 10
499.37254868679997
 20
444.65387187499999
 11
496.87196852509999
 21
396.93996001080001
  0
LINE
  8
_0-3_躯体と製品
  6
CONTINUOUS
 62
    7
 10
470.03170685190003
 20
425.90763659240002
 11
470.66530977809998
 21
426.39604966749999
  0
LINE
  8
_0-3_躯体と製品
  6
CONTINUOUS
 62
    7
 10
470.66530977809998
 20
426.39604966749999
 11
472.49685882450001
 21
424.02003867539997
  0
LINE
  8
_0-3_躯体と製品
  6
CONTINUOUS
 62
    7
 10
470.03170685190003
 20
425.90763659240002
 11
471.8632558983
 21
423.5316256003
  0
ARC
  8
_0-3_躯体と製品
  6
CONTINUOUS
 62
    7
 10
498.8721651724
 20
435.10598564100002
 40
6.2999999999999998
 50
47.696869
 51
126.30937100000001
  0
ARC
  8
_0-3_躯体と製品
  6
CONTINUOUS
 62
    7
 10
500.7958767252
 20
437.20882622729999
 40
3.4500000000000002
 50
0.3127429999988999
 51
47.820489000000002
  0
ARC
  8
_0-3_躯体と製品
  6
CONTINUOUS
 62
    7
 10
497.18454071989999
 20
437.40259750720003
 40
3.4500000000000002
 50
126.309124
 51
173.76216300000002
  0
LINE
  8
_0-3_躯体と製品
  6
CONTINUOUS
 62
    7
 10
499.90891076579999
 20
440.55777806100002
 11
498.4109664636
 21
440.6362819954
  0
ARC
  8
_0-3_躯体と製品
  6
CONTINUOUS
 62
    7
 10
500.51014241119998
 20
440.56556770330002
 40
0.5999999999999999
 50
73.299767000000003
 51
176.99999999999997
  0
ARC
  8
_0-3_躯体と製品
  6
CONTINUOUS
 62
    7
 10
497.81384266740002
 20
440.7068747852
 40
0.5999999999999999
 50
357
 51
100.70023299999998
  0
LINE
  8
_0-3_躯体と製品
  6
CONTINUOUS
 62
    7
 10
486.94266218839999
 20
437.50564910079999
 11
474.01271111109997
 21
423.94059624160002
  0
ARC
  8
_0-3_躯体と製品
  6
CONTINUOUS
 62
    7
 10
509.56154364090003
 20
435.14660145969998
 40
1.8
 50
37.626847362280003
 51
86.999999999989996
  0
LINE
  8
_0-3_躯体と製品
  6
CONTINUOUS
 62
    7
 10
510.35354729860001
 20
435.7571178037
 11
521.79473263600005
 21
420.9148277882
  0
LINE
  8
_0-3_躯体と製品
  6
CONTINUOUS
 62
    7
 10
510.98715022469997
 20
436.24553087880003
 11
522.4283355622
 21
421.40324086330003
  0
ARC
  8
_0-3_躯体と製品
  6
CONTINUOUS
 62
    7
 10
523.22033920529998
 20
422.01375722620003
 40
1.8
 50
217.6268473623
 51
316.37315187627996
  0
ARC
  8
_0-3_躯体と製品
  6
CONTINUOUS
 62
    7
 10
523.22033920529998
 20
422.01375722620003
 40
1
 50
217.6268473623
 51
316.37315126713997
  0
LINE
  8
_0-3_躯体と製品
  6
CONTINUOUS
 62
    7
 10
526.59314315400002
 20
422.94337732269997
 11
524.52326674719995
 21
420.77183137470001
  0
LINE
  8
_0-3_躯体と製品
  6
CONTINUOUS
 62
    7
 10
526.59314315400002
 20
422.94337732269997
 11
526.01406423909998
 21
423.49534436009998
  0
LINE
  8
_0-3_躯体と製品
  6
CONTINUOUS
 62
    7
 10
526.01406423909998
 20
423.49534436009998
 11
523.94418783230003
 21
421.32379841210002
  0
ARC
  8
_0-3_躯体と製品
  6
CONTINUOUS
 62
    7
 10
473.28886246759998
 20
424.63055503829997
 40
1.8
 50
217.6268481237
 51
316.37315263772001
  0
ARC
  8
_0-3_躯体と製品
  6
CONTINUOUS
 62
    7
 10
473.28886246759998
 20
424.63055503829997
 40
1
 50
217.62684873290002
 51
316.37315263772001
  0
ARC
  8
_0-3_躯体と製品
  6
CONTINUOUS
 62
    7
 10
488.24558974680002
 20
436.26372326659998
 40
1
 50
86.999999999989996
 51
136.3731526377
  0
LINE
  8
_0-3_躯体と製品
  6
CONTINUOUS
 62
    7
 10
487.52174110319999
 20
436.95368206339998
 11
474.59179000950002
 21
423.38862918680002
  0
LINE
  8
_0-3_躯体と製品
  6
CONTINUOUS
 62
    7
 10
488.29792570299998
 20
437.26235280140003
 11
509.61387959709998
 21
436.14523099450003
  0
ARC
  8
_0-3_躯体と製品
  6
CONTINUOUS
 62
    7
 10
488.24558974680002
 20
436.26372326659998
 40
1.8
 50
86.999999999989996
 51
136.3731526377
  0
LINE
  8
_0-3_躯体と製品
  6
CONTINUOUS
 62
    7
 10
488.33979446799998
 20
438.0612564292
 11
509.65574836209998
 21
436.9441346223
  0
ARC
  8
_0-3_躯体と製品
  6
CONTINUOUS
 62
    7
 10
509.56154364090003
 20
435.14660145969998
 40
1
 50
37.626847362280003
 51
86.999999999989996
  0
LINE
  8
_0-3_躯体と製品
  6
CONTINUOUS
 62
    7
 10
494.75628705219998
 20
413.89232046730001
 11
494.50411139570002
 21
409.08052229660001
  0
LINE
  8
_0-3_躯体と製品
  6
CONTINUOUS
 62
    7
 10
495.32400794270001
 20
413.86256747620001
 11
495.07183228619999
 21
409.05076930550001
  0
LINE
  8
_0-3_躯体と製品
  6
CONTINUOUS
 62
    7
 10
500.18034337019998
 20
413.60805772100002
 11
499.92816771380001
 21
408.79625955030002
  0
LINE
  8
_0-3_躯体と製品
  6
CONTINUOUS
 62
    7
 10
500.7480642607
 20
413.57830472990003
 11
500.49588860429998
 21
408.76650655920002
  0
LINE
  8
_0-3_躯体と製品
  6
CONTINUOUS
 62
    7
 10
501.99366001930002
 20
437.34568765699998
 11
500.7480642607
 21
413.57830472990003
  0
LINE
  8
_0-3_躯体と製品
  6
CONTINUOUS
 62
    7
 10
501.4259391288
 20
437.37544064809998
 11
500.18034337019998
 21
413.60805772100002
  0
LINE
  8
_0-3_躯体と製品
  6
CONTINUOUS
 62
    7
 10
496.56960370130003
 20
437.62995040340002
 11
495.32400794270001
 21
413.86256747620001
  0
LINE
  8
_0-3_躯体と製品
  6
CONTINUOUS
 62
    7
 10
496.0018828108
 20
437.65970339450001
 11
494.75628705219998
 21
413.89232046730001
  0
LINE
  8
_0-2_寸法
  6
CONTINUOUS
 62
    7
 10
549.46382962229995
 20
389
 11
717.5
 21
389
  0
CIRCLE
  8
_0-2_寸法
  6
CONTINUOUS
 62
    7
 10
549.46382962229995
 20
389
 40
1.3999999999999999
  0
LINE
  8
_0-3_躯体と製品
  6
CONTINUOUS
 62
    7
 10
497.24623568739997
 20
421.5725320876
 11
494.7456555256
 21
373.85862022340001
  0
LINE
  8
_0-0_0
  6
CONTINUOUS
 62
    7
 10
387.39698686439999
 20
427.32948727429999
 11
387.30278214309999
 21
425.53195411180002
  0
CIRCLE
  8
_0-0_0
  6
CONTINUOUS
 62
    7
 10
515.031565
 20
393.722622
 40
0.9
  0
ARC
  8
_0-0_0
  6
CONTINUOUS
 62
    7
 10
513.70000000000005
 20
397.29999900000001
 40
0.2999999999999999
 50
270
 51
0
  0
ARC
  8
_0-0_0
  6
CONTINUOUS
 62
    7
 10
513.70000000000005
 20
399.20000099999999
 40
0.2999999999999999
 50
0
 51
90
  0
ARC
  8
_0-0_0
  6
CONTINUOUS
 62
    7
 10
513.70000000000005
 20
395.19999899999999
 40
0.2999999999999999
 50
0
 51
90
  0
ARC
  8
_0-0_0
  6
CONTINUOUS
 62
    7
 10
514.999999
 20
408.999999
 40
0.9999989999999999
 50
0
 51
180
  0
LINE
  8
_0-0_0
  6
CONTINUOUS
 62
    7
 10
514
 20
401.499999
 11
514
 21
408.999999
  0
LINE
  8
_0-0_0
  6
CONTINUOUS
 62
    7
 10
514
 20
397.29999900000001
 11
514
 21
399.20000099999999
  0
ARC
  8
_0-0_0
  6
CONTINUOUS
 62
    7
 10
516.499999
 20
393.999999
 40
0.500001
 50
180
 51
270
  0
LINE
  8
_0-0_0
  6
CONTINUOUS
 62
    7
 10
516.000001
 20
392.000001
 11
516.000001
 21
390.999999
  0
LINE
  8
_0-0_0
  6
CONTINUOUS
 62
    7
 10
514
 20
391.5
 11
514
 21
390.999999
  0
LINE
  8
_0-0_0
  6
CONTINUOUS
 62
    7
 10
514
 20
393.999999
 11
514
 21
395.19999899999999
  0
LINE
  8
_0-0_0
  6
CONTINUOUS
 62
    7
 10
526.500001
 20
392.000001
 11
526.500001
 21
390.999999
  0
LINE
  8
_0-0_0
  6
CONTINUOUS
 62
    7
 10
528.000001
 20
390.999999
 11
526.500001
 21
390.999999
  0
LINE
  8
_0-0_0
  6
CONTINUOUS
 62
    7
 10
516.000001
 20
390.999999
 11
514
 21
390.999999
  0
LINE
  8
_0-0_0
  6
CONTINUOUS
 62
    7
 10
528.000001
 20
393.000001
 11
528.000001
 21
390.999999
  0
ARC
  8
_0-0_0
  6
CONTINUOUS
 62
    7
 10
527.500001
 20
393.000001
 40
0.5
 50
0
 51
90
  0
LINE
  8
_0-0_0
  6
CONTINUOUS
 62
    7
 10
516.250001
 20
396.750001
 11
517.50000100010004
 21
396.750001
  0
LINE
  8
_0-0_0
  6
CONTINUOUS
 62
    7
 10
520.50000100010004
 20
396.750001
 11
521.750001
 21
396.750001
  0
LINE
  8
_0-0_0
  6
CONTINUOUS
 62
    7
 10
516.000001
 20
392.000001
 11
523.50594987379998
 21
392.000001
  0
LINE
  8
_0-0_0
  6
CONTINUOUS
 62
    7
 10
523.50594987379998
 20
392.000001
 11
526.500001
 21
392.000001
  0
LINE
  8
_0-0_0
  6
CONTINUOUS
 62
    7
 10
521.500001
 20
393.500001
 11
516.499999
 21
393.500001
  0
LINE
  8
_0-0_0
  6
CONTINUOUS
 62
    7
 10
527.500001
 20
393.500001
 11
523.500001
 21
393.500001
  0
ARC
  8
_0-0_0
  6
CONTINUOUS
 62
    7
 10
521.500001
 20
394.000001
 40
0.25
 50
270
 51
0
  0
ARC
  8
_0-0_0
  6
CONTINUOUS
 62
    7
 10
516.499999
 20
393.999999
 40
0.2500009999999999
 50
180
 51
270
  0
LINE
  8
_0-0_0
  6
CONTINUOUS
 62
    7
 10
521.750001
 20
394.000001
 11
521.750001
 21
396.750001
  0
LINE
  8
_0-0_0
  6
CONTINUOUS
 62
    7
 10
516.250001
 20
393.999999
 11
516.250001
 21
396.750001
  0
LINE
  8
_0-0_0
  6
CONTINUOUS
 62
    7
 10
521.500001
 20
393.750001
 11
516.499999
 21
393.750001
  0
LINE
  8
_0-0_0
  6
CONTINUOUS
 62
    7
 10
516.000001
 20
408.999999
 11
516.000001
 21
398.500001
  0
LINE
  8
_0-0_0
  6
CONTINUOUS
 62
    7
 10
516.000001
 20
397.000001
 11
516.000001
 21
393.999999
  0
LINE
  8
_0-0_0
  6
CONTINUOUS
 62
    7
 10
522.000001
 20
394.000001
 11
522.000001
 21
397.000001
  0
LINE
  8
_0-0_0
  6
CONTINUOUS
 62
    7
 10
523.500001
 20
398.000001
 11
523.500001
 21
393.500001
  0
ARC
  8
_0-0_0
  6
CONTINUOUS
 62
    7
 10
523.000001
 20
398.000001
 40
0.5
 50
0
 51
90
  0
ARC
  8
_0-0_0
  6
CONTINUOUS
 62
    7
 10
521.500001
 20
394.000001
 40
0.5
 50
270
 51
0
  0
LINE
  8
_0-0_0
  6
CONTINUOUS
 62
    7
 10
523.000001
 20
398.500001
 11
521.750001
 21
398.500001
  0
ARC
  8
_0-0_0
  6
CONTINUOUS
 62
    7
 10
521.750001
 20
397.500001
 40
1
 50
90
 51
180
  0
LINE
  8
_0-0_0
  6
CONTINUOUS
 62
    7
 10
520.750001
 20
397.500001
 11
520.750001
 21
397.000001
  0
LINE
  8
_0-0_0
  6
CONTINUOUS
 62
    7
 10
520.750001
 20
397.000001
 11
522.000001
 21
397.000001
  0
LINE
  8
_0-0_0
  6
CONTINUOUS
 62
    7
 10
516.000001
 20
397.000001
 11
517.250001
 21
397.000001
  0
LINE
  8
_0-0_0
  6
CONTINUOUS
 62
    7
 10
517.250001
 20
397.500001
 11
517.250001
 21
397.000001
  0
ARC
  8
_0-0_0
  6
CONTINUOUS
 62
    7
 10
516.250001
 20
397.500001
 40
1
 50
0
 51
90
  0
LINE
  8
_0-0_0
  6
CONTINUOUS
 62
    7
 10
516.250001
 20
398.500001
 11
516.000001
 21
398.500001
  0
LINE
  8
_0-0_0
  6
CONTINUOUS
 62
    7
 10
520.50000100010004
 20
396.750001
 11
520.50000100010004
 21
417.13281985589998
  0
LINE
  8
_0-0_0
  6
CONTINUOUS
 62
    7
 10
517.50000100010004
 20
396.750001
 11
517.50000100010004
 21
415.66955685990001
  0
ARC
  8
_0-0_0
  6
CONTINUOUS
 62
    7
 10
543.55920637099996
 20
416.85616492769998
 40
23.087541006009999
 50
81.801339104809998
 51
182.8159758207
  0
ARC
  8
_0-0_0
  6
CONTINUOUS
 62
    7
 10
542.49619337900003
 20
416.10586702090001
 40
25
 50
79.590455650790005
 51
181
  0
CIRCLE
  8
_0-0_0
  6
CONTINUOUS
 62
    7
 10
523.67479291610005
 20
429.5122910883
 40
0.9
  0
LINE
  8
_0-0_0
  6
CONTINUOUS
 62
    7
 10
523.67479291610005
 20
429.5122910883
 11
534.13224045269999
 21
411.39946063730002
  0
TEXT
  8
_0-0_0
 62
    7
 10
533.88224045269999
 20
403.20330821459999
 40
6
 41
1
 50
0
  1
11
  0
CIRCLE
  8
_0-0_0
  6
CONTINUOUS
 62
    7
 10
537.13224045269999
 20
406.20330821459999
 40
6
  0
ARC
  8
_0-0_0
  6
CONTINUOUS
 62
    7
 10
546.92292654569997
 20
440.2026309835
 40
0.5
 50
261.80133910479998
 51
79.590455650789977
  0
LINE
  8
_0-3_躯体と製品
  6
CONTINUOUS
 62
    7
 10
516
 20
394
 11
516
 21
397.000001
  0
LINE
  8
_0-3_躯体と製品
  6
CONTINUOUS
 62
    7
 10
516
 20
398.500001
 11
516
 21
409
  0
LINE
  8
_0-3_躯体と製品
  6
CONTINUOUS
 62
    7
 10
533.58508201519999
 20
390
 11
518.5
 21
390
  0
LINE
  8
_0-0_0
  6
CONTINUOUS
 62
    7
 10
533.58508201519999
 20
390
 11
533.58508201519999
 21
389
  0
TEXT
  8
_0-4_図枠
 62
    7
 10
474.43099461510002
 20
369.24386852560002
 40
5
 41
1
 50
0
  1
19
  0
TEXT
  8
_0-4_図枠
 62
    7
 10
518.00979649359999
 20
360.4600133715
 40
5
 41
1
 50
0
  1
15
  0
TEXT
  8
_0-4_図枠
 62
    7
 10
519.45916885990005
 20
375.88598350989997
 40
5
 41
1
 50
0
  1
７
  0
INSERT
  2
-000-BK6
  8
_0-2_寸法
 10
0
 20
3
 41
1
 42
1
 50
0
  0
INSERT
  2
-001-BK7
  8
_0-2_寸法
 10
0
 20
3
 41
1
 42
1
 50
0
  0
INSERT
  2
-002-BK8
  8
_0-2_寸法
 10
0
 20
3
 41
1
 42
1
 50
0
  0
INSERT
  2
-003-BK9
  8
_0-2_寸法
 10
0
 20
3
 41
1
 42
1
 50
0
  0
INSERT
  2
-004-BK10
  8
_0-2_寸法
 10
0
 20
3
 41
1
 42
1
 50
0
  0
INSERT
  2
-005-BK11
  8
_0-2_寸法
 10
0
 20
3
 41
1
 42
1
 50
0
  0
INSERT
  2
-006-BK12
  8
_0-2_寸法
 10
0
 20
3
 41
1
 42
1
 50
0
  0
INSERT
  2
-007-BK13
  8
_0-2_寸法
 10
0
 20
3
 41
1
 42
1
 50
0
  0
INSERT
  2
-008-BK14
  8
_0-2_寸法
 10
0
 20
3
 41
1
 42
1
 50
0
  0
INSERT
  2
-009-BK15
  8
_0-2_寸法
 10
0
 20
3
 41
1
 42
1
 50
0
  0
INSERT
  2
-010-BK16
  8
_0-2_寸法
 10
0
 20
3
 41
1
 42
1
 50
0
  0
INSERT
  2
-011-BK17
  8
_0-2_寸法
 10
0
 20
3
 41
1
 42
1
 50
0
  0
INSERT
  2
-012-BK18
  8
_0-2_寸法
 10
0
 20
3
 41
1
 42
1
 50
0
  0
INSERT
  2
-013-BK19
  8
_0-2_寸法
 10
0
 20
3
 41
1
 42
1
 50
0
  0
INSERT
  2
-014-BK20
  8
_0-2_寸法
 10
0
 20
3
 41
1
 42
1
 50
0
  0
INSERT
  2
-015-BK21
  8
_0-2_寸法
 10
0
 20
3
 41
1
 42
1
 50
0
  0
INSERT
  2
-016-BK22
  8
_0-2_寸法
 10
0
 20
3
 41
1
 42
1
 50
0
  0
INSERT
  2
-017-BK23
  8
_0-2_寸法
 10
0
 20
3
 41
1
 42
1
 50
0
  0
INSERT
  2
-018-BK24
  8
_0-2_寸法
 10
0
 20
3
 41
1
 42
1
 50
0
  0
INSERT
  2
-019-BK25
  8
_0-2_寸法
 10
0
 20
3
 41
1
 42
1
 50
0
  0
INSERT
  2
-020-BK30
  8
_0-2_寸法
 10
0
 20
3
 41
1
 42
1
 50
0
  0
INSERT
  2
-021-BK31
  8
_0-2_寸法
 10
0
 20
3
 41
1
 42
1
 50
0
  0
LINE
  8
_0-4_図枠
  6
CONTINUOUS
 62
    7
 10
456
 20
237
 11
456
 21
183
  0
TEXT
  8
_0-0_0
 62
    7
 10
212.5
 20
139.9166666667
 40
5
 41
1
 50
0
  1
ＦＳ６００～８００
  0
TEXT
  8
_0-0_0
 62
    7
 10
212.2916666667
 20
112.9166666667
 40
5
 41
1
 50
0
  1
なべＭ６×３５
  0
TEXT
  8
_0-0_0
 62
    7
 10
212.2916666667
 20
103.9166666667
 40
4.9900000000000002
 41
1
 50
0
  1
なべＭ４×１０
  0
TEXT
  8
_0-0_0
 62
    7
 10
211.4583333333
 20
94.916666666669983
 40
4.9900000000000002
 41
1
 50
0
  1
Ｍ６×４０
  0
TEXT
  8
_0-0_0
 62
    7
 10
211.875
 20
85.916666666669983
 40
4.9900000000000002
 41
1
 50
0
  1
ＡＧ－６６０
  0
TEXT
  8
_0-0_0
 62
    7
 10
214.7916666667
 20
76.916666666669983
 40
4.9900000000000002
 41
1
 50
0
  1
φ８×４０
  0
TEXT
  8
_0-0_0
 62
    7
 10
212.0833333333
 20
67.916666666669983
 40
4.9900000000000002
 41
1
 50
0
  1
なべ５×５０
  0
TEXT
  8
_0-0_0
 62
    7
 10
212.9166666667
 20
58.916666666669983
 40
4.9900000000000002
 41
1
 50
0
  1
１.５×１８×６.５穴
  0
TEXT
  8
_0-0_0
 62
    7
 10
212.9166666667
 20
49.916666666669983
 40
4.9900000000000002
 41
1
 50
0
  1
１.５×１８×５.５穴
  0
TEXT
  8
_0-0_0
 62
    7
 10
212.2916666667
 20
40.916666666669983
 40
4.9900000000000002
 41
1
 50
0
  1
ｔ１．０×ｗ３０
  0
TEXT
  8
_0-0_0
 62
    7
 10
112.5
 20
112.9166666667
 40
5
 41
1
 50
0
  1
ステン小ねじ
  0
TEXT
  8
_0-0_0
 62
    7
 10
112.5
 20
103.9166666667
 40
4.9900000000000002
 41
1
 50
0
  1
ステン小ねじ
  0
TEXT
  8
_0-4_図枠
 62
    7
 10
24.904618021259978
 20
552.9515766769
 40
8
 41
1
 50
0
  1
　　屋根－壁（ストレート壁）
  0
LINE
  8
_0-0_0
  6
CONTINUOUS
 62
    7
 10
681
 20
228
 11
456
 21
228
  0
LINE
  8
_0-0_0
  6
CONTINUOUS
 62
    7
 10
681
 20
183
 11
456
 21
183
  0
LINE
  8
_0-0_0
  6
CONTINUOUS
 62
    7
 10
681
 20
192
 11
456
 21
192
  0
LINE
  8
_0-0_0
  6
CONTINUOUS
 62
    7
 10
681
 20
201
 11
456
 21
201
  0
LINE
  8
_0-0_0
  6
CONTINUOUS
 62
    7
 10
681
 20
210
 11
456
 21
210
  0
LINE
  8
_0-0_0
  6
CONTINUOUS
 62
    7
 10
681
 20
219
 11
456
 21
219
  0
LINE
  8
_0-0_0
  6
CONTINUOUS
 62
    7
 10
681
 20
237
 11
456
 21
237
  0
TEXT
  8
_0-0_0
 62
    7
 10
640
 20
237.57900037909999
 40
5
 41
1
 50
0
  1
（単位：mm）
  0
TEXT
  8
_0-0_0
 62
    7
 10
663
 20
229.5
 40
5
 41
1
 50
0
  1
Ｅ
  0
TEXT
  8
_0-0_0
 62
    7
 10
633
 20
229.5
 40
5
 41
1
 50
0
  1
Ｄ
  0
TEXT
  8
_0-0_0
 62
    7
 10
603
 20
229.5
 40
5
 41
1
 50
0
  1
Ｃ
  0
TEXT
  8
_0-0_0
 62
    7
 10
543
 20
229.5
 40
5
 41
1
 50
0
  1
Ｗ
  0
TEXT
  8
_0-0_0
 62
    7
 10
573
 20
229.5
 40
5
 41
1
 50
0
  1
Ａ
  0
TEXT
  8
_0-0_0
 62
    7
 10
476.5
 20
229.5
 40
5
 41
1
 50
0
  1
タ　イ　プ
  0
LINE
  8
_0-0_0
  6
CONTINUOUS
 62
    7
 10
456
 20
237
 11
456
 21
183
  0
LINE
  8
_0-0_0
  6
CONTINUOUS
 62
    7
 10
531
 20
237
 11
531
 21
183
  0
LINE
  8
_0-0_0
  6
CONTINUOUS
 62
    7
 10
561
 20
237
 11
561
 21
183
  0
LINE
  8
_0-0_0
  6
CONTINUOUS
 62
    7
 10
591
 20
237
 11
591
 21
183
  0
LINE
  8
_0-0_0
  6
CONTINUOUS
 62
    7
 10
621
 20
237
 11
621
 21
183
  0
LINE
  8
_0-0_0
  6
CONTINUOUS
 62
    7
 10
651
 20
237
 11
651
 21
183
  0
LINE
  8
_0-0_0
  6
CONTINUOUS
 62
    7
 10
681
 20
237
 11
681
 21
183
  0
ARC
  8
_0-0_0
  6
CONTINUOUS
 62
    7
 10
401.67511134301327
 20
388
 40
1
 50
90
 51
175
  0
LINE
  8
_0-0_0
  6
CONTINUOUS
 62
    7
 10
399.68272194681327
 20
388.17431148550003
 11
396.08965705631329
 21
347.10539186009999
  0
ARC
  8
_0-0_0
  6
CONTINUOUS
 62
    7
 10
303.21341943261325
 20
355.23100976310002
 40
93.231009763079996
 50
185
 51
355.00000000000102
  0
LINE
  8
_0-0_0
  6
CONTINUOUS
 62
    7
 10
400.67891664491327
 20
388.08715574280001
 11
397.08585175441328
 21
347.01823611740002
  0
ARC
  8
_0-0_0
  6
CONTINUOUS
 62
    7
 10
303.21341943261325
 20
355.23100976310002
 40
94.231009763079996
 50
185
 51
355.00000000000102
  0
ARC
  8
_0-0_0
  6
CONTINUOUS
 62
    7
 10
401.67511134301327
 20
388
 40
2
 50
90
 51
175
  0
CIRCLE
  8
_0-0_0
  6
CONTINUOUS
 62
    7
 10
215.98249281031326
 20
321.0025311718
 40
0.9
  0
LINE
  8
_0-0_0
  6
CONTINUOUS
 62
    7
 10
215.98249281031326
 20
321.0025311718
 11
229.86577999671326
 21
345.04908995480002
  0
TEXT
  8
_0-0_0
 62
    7
 10
229.61577999671326
 20
347.24524237750001
 40
5
 41
1
 50
0
  1
12
  0
CIRCLE
  8
_0-0_0
  6
CONTINUOUS
 62
    7
 10
232.86577999671326
 20
350.24524237750001
 40
6
  0
LINE
  8
_0-0_0
  6
CONTINUOUS
 62
    7
 10
400.67511134301327
 20
279.88369699999998
 11
202.67511134301327
 21
279.88369699999998
  0
TEXT
  8
_0-0_0
 62
    7
 10
297.92511134301327
 20
280.88369699999998
 40
5
 41
1
 50
0
  1
200
  0
CIRCLE
  8
_0-0_0
  6
CONTINUOUS
 62
    7
 10
401.67511134301327
 20
279.88369699999998
 40
1.3999999999999999
  0
CIRCLE
  8
_0-0_0
  6
CONTINUOUS
 62
    7
 10
401.67511134301327
 20
279.88369699999998
 40
1.3999999999999999
  0
CIRCLE
  8
_0-0_0
  6
CONTINUOUS
 62
    7
 10
401.67511134301327
 20
279.88369699999998
 40
1.3999999999999999
  0
CIRCLE
  8
_0-0_0
  6
CONTINUOUS
 62
    7
 10
201.5
 20
279.88369699999998
 40
1.3999999999999999
  0
CIRCLE
  8
_0-0_0
  6
CONTINUOUS
 62
    7
 10
201.5
 20
279.88369699999998
 40
1.3999999999999999
  0
LINE
  8
_0-0_0
  6
CONTINUOUS
 62
    7
 10
401.47511134301328
 20
389
 11
401.47511134301328
 21
273.88369699999998
  0
LINE
  8
_0-0_0
  6
CONTINUOUS
 62
    7
 10
201.5
 20
514.45320573000004
 11
201.5
 21
273.88369699999998
  0
LINE
  8
_0-3_躯体と製品
  6
CONTINUOUS
 62
    7
 10
401.47511134301328
 20
390
 11
476.5
 21
390
  0
LINE
  8
_0-3_躯体と製品
  6
CONTINUOUS
 62
    7
 10
401.47511134301328
 20
389
 11
547.5
 21
389
  0
LINE
  8
_0-3_躯体と製品
  6
CONTINUOUS
 62
    7
 10
203.5
 20
425.25473753944777
 11
203.5
 21
500.76340021200002
  0
LINE
  8
_0-3_躯体と製品
  6
CONTINUOUS
 62
    7
 10
202.5
 20
425.21107659654933
 11
202.5
 21
470.76340021200002
  0
LINE
  8
_0-0_0
  6
CONTINUOUS
 62
    7
 10
202.5
 20
425.21107659654933
 11
209.34098711081327
 21
347.01823611740002
  0
LINE
  8
_0-0_0
  6
CONTINUOUS
 62
    7
 10
203.5
 20
425.25473753944777
 11
210.33718180891327
 21
347.10539186009999
  0
CIRCLE
  8
_0-2_寸法
  6
CONTINUOUS
 62
    7
 10
677.5
 20
279.69475134729998
 40
1.3999999999999999
  0
CIRCLE
  8
_0-2_寸法
  6
CONTINUOUS
 62
    7
 10
547.5
 20
279.88369699999998
 40
1.3999999999999999
  0
CIRCLE
  8
_0-2_寸法
  6
CONTINUOUS
 62
    7
 10
547.5
 20
279.88369699999998
 40
1.3999999999999999
  0
LINE
  8
_0-2_寸法
  6
CONTINUOUS
 62
    7
 10
547.5
 20
279.63369699999998
 11
547.5
 21
279.69475134729998
  0
CIRCLE
  8
_0-2_寸法
  6
CONTINUOUS
 62
    7
 10
547.5
 20
279.63369699999998
 40
1.3999999999999999
  0
LINE
  8
_0-2_寸法
  6
CONTINUOUS
 62
    7
 10
547.5
 20
279.69475134729998
 11
676.5
 21
279.69475134729998
  0
TEXT
  8
_0-2_寸法
 62
    7
 10
612
 20
279.69475134729998
 40
5
 41
1
 50
0
  1
130
  0
LINE
  8
_0-2_寸法
  6
CONTINUOUS
 62
    7
 10
401.47511134301328
 20
279.88369699999998
 11
547.5
 21
279.88369699999998
  0
LINE
  8
_0-3_躯体と製品
  6
CONTINUOUS
 62
    7
 10
547.5
 20
389
 11
547.5
 21
273.88369699999998
  0
LINE
  8
_0-2_寸法
  6
CONTINUOUS
 62
    7
 10
677.5
 20
344.58791542130001
 11
677.5
 21
273.88369699999998
  0
TEXT
  8
_0-2_寸法
 62
    7
 10
472.18111436349477
 20
280.31336396608867
 40
5
 41
1
 50
0
  1
Ｃ
  0
TEXT
  8
_0-4_図枠
 62
    7
 10
213.59396304480001
 20
221.14367905770001
 40
5
 41
1
 50
0
  1
２００ＦＹＫ－Ｓ４５０～５５０
  0
TEXT
  8
_0-4_図枠
 62
    7
 10
212.449857167
 20
184.9136595965
 40
5
 41
1
 50
0
  1
２００ＦＹＫＨ－４５０～５５０
  0
TEXT
  8
_0-4_図枠
 62
    7
 10
212.449857167
 20
158.217855783
 40
5
 41
1
 50
0
  1
２００ＦＹＫＪ－４５０～５５０
  0
TEXT
  8
_0-0_0
 62
    7
 10
467.2573296649449
 20
212.02970260061966
 40
5
 41
1
 50
0
  1
　　  〃　 　５００
  0
TEXT
  8
_0-0_0
 62
    7
 10
467.2573296649449
 20
203.02970260061966
 40
5
 41
1
 50
0
  1
　　  〃　 　５２５
  0
TEXT
  8
_0-0_0
 62
    7
 10
467.2573296649449
 20
194.02970260061966
 40
5
 41
1
 50
0
  1
　　  〃　 　５５０
  0
TEXT
  8
_0-0_0
 62
    7
 10
467.2573296649449
 20
185.02970260061966
 40
5
 41
1
 50
0
  1
　　  〃　 　５７５
  0
TEXT
  8
_0-0_0
 62
    7
 10
541.3337443775988
 20
221.21830855193963
 40
5
 41
1
 50
0
  1
475
  0
TEXT
  8
_0-0_0
 62
    7
 10
571.3337443775988
 20
221.21830855193963
 40
5
 41
1
 50
0
  1
460
  0
TEXT
  8
_0-0_0
 62
    7
 10
633.7087443775988
 20
221.21830855193963
 40
5
 41
1
 50
0
  1
67
  0
TEXT
  8
_0-0_0
 62
    7
 10
661.3337443775988
 20
221.21830855193963
 40
5
 41
1
 50
0
  1
126
  0
TEXT
  8
_0-0_0
 62
    7
 10
541.3337443775988
 20
212.21830855193963
 40
5
 41
1
 50
0
  1
500
  0
TEXT
  8
_0-0_0
 62
    7
 10
571.3337443775988
 20
212.21830855193963
 40
5
 41
1
 50
0
  1
485
  0
TEXT
  8
_0-0_0
 62
    7
 10
633.7087443775988
 20
212.21830855193963
 40
5
 41
1
 50
0
  1
68
  0
TEXT
  8
_0-0_0
 62
    7
 10
661.3337443775988
 20
212.21830855193963
 40
5
 41
1
 50
0
  1
127
  0
TEXT
  8
_0-0_0
 62
    7
 10
541.3337443775988
 20
203.21830855193963
 40
5
 41
1
 50
0
  1
525
  0
TEXT
  8
_0-0_0
 62
    7
 10
571.3337443775988
 20
203.21830855193963
 40
5
 41
1
 50
0
  1
510
  0
TEXT
  8
_0-0_0
 62
    7
 10
633.7087443775988
 20
203.21830855193963
 40
5
 41
1
 50
0
  1
70
  0
TEXT
  8
_0-0_0
 62
    7
 10
661.3337443775988
 20
203.21830855193963
 40
5
 41
1
 50
0
  1
128
  0
TEXT
  8
_0-0_0
 62
    7
 10
541.3337443775988
 20
194.21830855193963
 40
5
 41
1
 50
0
  1
550
  0
TEXT
  8
_0-0_0
 62
    7
 10
571.3337443775988
 20
194.21830855193963
 40
5
 41
1
 50
0
  1
535
  0
TEXT
  8
_0-0_0
 62
    7
 10
633.7087443775988
 20
194.21830855193963
 40
5
 41
1
 50
0
  1
71
  0
TEXT
  8
_0-0_0
 62
    7
 10
661.3337443775988
 20
194.21830855193963
 40
5
 41
1
 50
0
  1
130
  0
TEXT
  8
_0-0_0
 62
    7
 10
541.3337443775988
 20
185.21830855193963
 40
5
 41
1
 50
0
  1
575
  0
TEXT
  8
_0-0_0
 62
    7
 10
571.3337443775988
 20
185.21830855193963
 40
5
 41
1
 50
0
  1
560
  0
TEXT
  8
_0-0_0
 62
    7
 10
633.7087443775988
 20
185.21830855193963
 40
5
 41
1
 50
0
  1
72
  0
TEXT
  8
_0-0_0
 62
    7
 10
661.3337443775988
 20
185.21830855193963
 40
5
 41
1
 50
0
  1
131
  0
TEXT
  8
_0-0_0
 62
    7
 10
601.3337443775988
 20
221.21830855193963
 40
5
 41
1
 50
0
  1
145
  0
TEXT
  8
_0-0_0
 62
    7
 10
601.3337443775988
 20
212.21830855193963
 40
5
 41
1
 50
0
  1
170
  0
TEXT
  8
_0-0_0
 62
    7
 10
601.3337443775988
 20
203.21830855193963
 40
5
 41
1
 50
0
  1
195
  0
TEXT
  8
_0-0_0
 62
    7
 10
601.3337443775988
 20
194.21830855193963
 40
5
 41
1
 50
0
  1
220
  0
TEXT
  8
_0-0_0
 62
    7
 10
601.3337443775988
 20
185.21830855193963
 40
5
 41
1
 50
0
  1
245
  0
TEXT
  8
_0-0_0
 62
    7
 10
464.04563624654492
 20
221.97273235721968
 40
5
 41
1
 50
0
  1
２００ＦＹＫＧ－Ｓ４７５
  0
ENDSEC
  0
EOF
