  0
SECTION
  2
HEADER
  9
$ACADVER
  1
AC1015
  9
$DWGCODEPAGE
  3
ANSI_932
  9
$EXTMIN
 10
8
 20
6
  9
$EXTMAX
 10
832
 20
582
  9
$LIMMIN
 10
0
 20
0
  9
$LIMMAX
 10
840
 20
588
  9
$LTSCALE
 40
2
  9
$DIMSCALE
 40
2
  9
$DIMSTYLE
  2
M7DIMSTL
  9
$HANDSEED
  5
7FFFFFFF
  9
$MEASUREMENT
 70
     1
  0
ENDSEC
  0
SECTION
  2
CLASSES
  0
CLASS
  1
CSOFTARXCLASS
  2
CSoftArxClass
  3
CSRasterApi
 90
     0
280
     0
281
     0
  0
CLASS
  1
IMAGEDEF
  2
AcDbRasterImageDef
  3
ISM
 90
     0
280
     0
281
     0
  0
CLASS
  1
RASTERVARIABLES
  2
AcDbRasterVariables
  3
ISM
 90
     0
280
     0
281
     0
  0
CLASS
  1
IMAGE
  2
AcDbRasterImage
  3
ISM
 90
   127
280
     0
281
     0
  0
CLASS
  1
IMAGEDEF_REACTOR
  2
AcDbRasterImageDefReactor
  3
ISM
 90
     1
280
     0
281
     0
  0
CLASS
  1
HATCH
  2
AcDbHatch
  3
M7
 90
     0
280
     0
281
     1
  0
ENDSEC
  0
SECTION
  2
TABLES
  0
TABLE
  2
VPORT
  5
FF
100
AcDbSymbolTable
 70
     5
  0
VPORT
  5
100
100
AcDbSymbolTableRecord
100
AcDbViewportTableRecord
  2
*ACTIVE
 70
     0
 10
0
 20
0
 11
1
 21
1
 12
420
 22
294
 13
0
 23
0
 14
0
 24
0
 15
0
 25
0
 16
0
 26
0
 36
1
 17
0
 27
0
 37
0
 40
294
 41
1.428571428571
 42
50
 43
0
 44
0
 50
0
 51
0
 71
     0
 72
   100
 73
     1
 74
     3
 75
     0
 76
     0
 77
     0
 78
     0
  0
ENDTAB
  0
TABLE
  2
LTYPE
  5
101
100
AcDbSymbolTable
 70
     1
  0
LTYPE
  5
102
100
AcDbSymbolTableRecord
100
AcDbLinetypeTableRecord
  2
BYBLOCK
 70
     0
  3

 72
    65
 73
     0
 40
0
  0
LTYPE
  5
103
100
AcDbSymbolTableRecord
100
AcDbLinetypeTableRecord
  2
BYLAYER
 70
     0
  3

 72
    65
 73
     0
 40
0
  0
LTYPE
  5
104
100
AcDbSymbolTableRecord
100
AcDbLinetypeTableRecord
  2
CONTINUOUS
 70
     0
  3
Solid line
 72
    65
 73
     0
 40
0
  0
LTYPE
  5
105
100
AcDbSymbolTableRecord
100
AcDbLinetypeTableRecord
  2
DOT
 70
     0
  3
...............................
 72
    65
 73
     2
 40
2
 49
1
 74
     0
 49
-1
 74
     0
  0
LTYPE
  5
106
100
AcDbSymbolTableRecord
100
AcDbLinetypeTableRecord
  2
DASHED
 70
     0
  3
- - - - - - - - - - - - - - - -
 72
    65
 73
     2
 40
4
 49
2
 74
     0
 49
-2
 74
     0
  0
LTYPE
  5
107
100
AcDbSymbolTableRecord
100
AcDbLinetypeTableRecord
  2
DASHED2
 70
     0
  3
-- -- -- -- -- -- -- -- -- -- -
 72
    65
 73
     2
 40
8
 49
5
 74
     0
 49
-3
 74
     0
  0
LTYPE
  5
108
100
AcDbSymbolTableRecord
100
AcDbLinetypeTableRecord
  2
CENTER
 70
     0
  3
--------- - --------- - -------
 72
    65
 73
     4
 40
23
 49
20
 74
     0
 49
-1
 74
     0
 49
1
 74
     0
 49
-1
 74
     0
  0
LTYPE
  5
109
100
AcDbSymbolTableRecord
100
AcDbLinetypeTableRecord
  2
CENTERX2
 70
     0
  3
-------------- - --------------
 72
    65
 73
     4
 40
43
 49
40
 74
     0
 49
-1
 74
     0
 49
1
 74
     0
 49
-1
 74
     0
  0
LTYPE
  5
10A
100
AcDbSymbolTableRecord
100
AcDbLinetypeTableRecord
  2
CENTER2
 70
     0
  3
------ - ----- - ------ - -----
 72
    65
 73
     4
 40
13
 49
10
 74
     0
 49
-1
 74
     0
 49
1
 74
     0
 49
-1
 74
     0
  0
LTYPE
  5
10B
100
AcDbSymbolTableRecord
100
AcDbLinetypeTableRecord
  2
PHANTOM
 70
     0
  3
-------- - - ------- - - ------
 72
    65
 73
     6
 40
25
 49
20
 74
     0
 49
-1
 74
     0
 49
1
 74
     0
 49
-1
 74
     0
 49
1
 74
     0
 49
-1
 74
     0
  0
LTYPE
  5
10C
100
AcDbSymbolTableRecord
100
AcDbLinetypeTableRecord
  2
PHANTOMX2
 70
     0
  3
------------- - - -------------
 72
    65
 73
     6
 40
45
 49
40
 74
     0
 49
-1
 74
     0
 49
1
 74
     0
 49
-1
 74
     0
 49
1
 74
     0
 49
-1
 74
     0
  0
LTYPE
  5
10D
100
AcDbSymbolTableRecord
100
AcDbLinetypeTableRecord
  2
PHANTOM2
 70
     0
  3
---- - - ---- - - ---- - - ----
 72
    65
 73
     6
 40
15
 49
10
 74
     0
 49
-1
 74
     0
 49
1
 74
     0
 49
-1
 74
     0
 49
1
 74
     0
 49
-1
 74
     0
  0
LTYPE
  5
10E
100
AcDbSymbolTableRecord
100
AcDbLinetypeTableRecord
  2
ACAD_ISO06W100
 70
     0
  3
------------ - - - ------------
 72
    65
 73
     8
 40
47
 49
40
 74
     0
 49
-1
 74
     0
 49
1
 74
     0
 49
-1
 74
     0
 49
1
 74
     0
 49
-1
 74
     0
 49
1
 74
     0
 49
-1
 74
     0
  0
LTYPE
  5
10F
100
AcDbSymbolTableRecord
100
AcDbLinetypeTableRecord
  2
ACAD_ISO14W100
 70
     0
  3
---- - - - -------- - - - -----
 72
    65
 73
     8
 40
27
 49
20
 74
     0
 49
-1
 74
     0
 49
1
 74
     0
 49
-1
 74
     0
 49
1
 74
     0
 49
-1
 74
     0
 49
1
 74
     0
 49
-1
 74
     0
  0
LTYPE
  5
110
100
AcDbSymbolTableRecord
100
AcDbLinetypeTableRecord
  2
ACAD_ISO11W100
 70
     0
  3
------- ------ - ------- ------
 72
    65
 73
     6
 40
44
 49
20
 74
     0
 49
-1
 74
     0
 49
20
 74
     0
 49
-1
 74
     0
 49
1
 74
     0
 49
-1
 74
     0
  0
LTYPE
  5
111
100
AcDbSymbolTableRecord
100
AcDbLinetypeTableRecord
  2
ACAD_ISO13W100
 70
     0
  3
------ ------ - - ------ ------
 72
    65
 73
     8
 40
46
 49
20
 74
     0
 49
-1
 74
     0
 49
20
 74
     0
 49
-1
 74
     0
 49
1
 74
     0
 49
-1
 74
     0
 49
1
 74
     0
 49
-1
 74
     0
  0
LTYPE
  5
112
100
AcDbSymbolTableRecord
100
AcDbLinetypeTableRecord
  2
ACAD_ISO15W100
 70
     0
  3
------ ----- - - - ------ -----
 72
    65
 73
    10
 40
48
 49
20
 74
     0
 49
-1
 74
     0
 49
20
 74
     0
 49
-1
 74
     0
 49
1
 74
     0
 49
-1
 74
     0
 49
1
 74
     0
 49
-1
 74
     0
 49
1
 74
     0
 49
-1
 74
     0
  0
LTYPE
  5
113
100
AcDbSymbolTableRecord
100
AcDbLinetypeTableRecord
  2
HIDDEN
 70
     0
  3
. . . . . . . . . . . . . . . .
 72
    65
 73
     2
 40
1.5
 49
1
 74
     0
 49
-0.5
 74
     0
  0
ENDTAB
  0
TABLE
  2
LAYER
  5
114
100
AcDbSymbolTable
 70
     1
  0
LAYER
  5
115
100
AcDbSymbolTableRecord
100
AcDbLayerTableRecord
  2
0
 70
     0
 62
     7
  6
CONTINUOUS
390
116
  0
LAYER
  5
117
100
AcDbSymbolTableRecord
100
AcDbLayerTableRecord
  2
_0-0_0
 70
     0
 62
     7
  6
CONTINUOUS
390
   278
  0
LAYER
  5
118
100
AcDbSymbolTableRecord
100
AcDbLayerTableRecord
  2
_0-2_寸法
 70
     0
 62
     7
  6
CONTINUOUS
390
   278
  0
LAYER
  5
119
100
AcDbSymbolTableRecord
100
AcDbLayerTableRecord
  2
_0-3_躯体と製品
 70
     0
 62
     7
  6
CONTINUOUS
390
   278
  0
LAYER
  5
11A
100
AcDbSymbolTableRecord
100
AcDbLayerTableRecord
  2
_0-4_図枠
 70
     0
 62
     7
  6
CONTINUOUS
390
   278
  0
ENDTAB
  0
TABLE
  2
STYLE
  5
11B
100
AcDbSymbolTable
 70
     1
  0
STYLE
  5
11C
100
AcDbSymbolTableRecord
100
AcDbTextStyleTableRecord
  2
STANDARD
 70
     0
 40
0
 41
0
 50
0
 71
     0
 42
1
  3
txt
  4
bigfont
  0
STYLE
  5
11D
100
AcDbSymbolTableRecord
100
AcDbTextStyleTableRecord
  2
VSTANDARD
 70
     4
 40
0
 41
0
 50
0
 71
     0
 42
1
  3
txt
  4
bigfont
  0
ENDTAB
  0
TABLE
  2
VIEW
  5
11E
100
AcDbSymbolTable
 70
     0
  0
ENDTAB
  0
TABLE
  2
UCS
  5
11F
100
AcDbSymbolTable
 70
     0
  0
ENDTAB
  0
TABLE
  2
APPID
  5
120
100
AcDbSymbolTable
 70
     1
  0
APPID
  5
121
100
AcDbSymbolTableRecord
100
AcDbRegAppTableRecord
  2
ACAD
 70
     0
  0
ENDTAB
  0
TABLE
  2
DIMSTYLE
  5
122
100
AcDbSymbolTable
 70
     1
100
AcDbDimStyleTable
 71
     0
  0
DIMSTYLE
105
123
100
AcDbSymbolTableRecord
100
AcDbDimStyleTableRecord
  2
M7DIMSTL
 70
     0
  3

  4

  5

  6

  7

 40
2
 41
2.5
 42
0.625
 43
3.75
 44
1.25
 45
0
 46
0
 47
0
 48
0
140
2.5
141
2.5
142
0
143
0.03937007874016
144
1
145
0
146
1
147
0.625
 71
     0
 72
     0
 73
     0
 74
     0
 75
     0
 76
     0
 77
     1
 78
     8
170
     0
171
     3
172
     1
173
     0
174
     0
175
     0
176
     0
177
     0
178
     0
270
     2
271
     2
272
     2
273
     2
274
     3
340
11C
275
     0
280
     0
281
     0
282
     0
283
     0
284
     8
285
     0
286
     0
287
     3
288
     0
  0
ENDTAB
  0
TABLE
  2
BLOCK_RECORD
  5
124
100
AcDbSymbolTable
 70
     2
  0
BLOCK_RECORD
  5
125
100
AcDbSymbolTableRecord
100
AcDbBlockTableRecord
  2
*MODEL_SPACE
  0
BLOCK_RECORD
  5
126
100
AcDbSymbolTableRecord
100
AcDbBlockTableRecord
  2
*PAPER_SPACE
  0
BLOCK_RECORD
  5
127
100
AcDbSymbolTableRecord
100
AcDbBlockTableRecord
  2
_DOT
  0
BLOCK_RECORD
  5
128
100
AcDbSymbolTableRecord
100
AcDbBlockTableRecord
  2
_OPEN30
  0
BLOCK_RECORD
  5
129
100
AcDbSymbolTableRecord
100
AcDbBlockTableRecord
  2
_ClosedBlank
  0
BLOCK_RECORD
  5
12A
100
AcDbSymbolTableRecord
100
AcDbBlockTableRecord
  2
_Origin
  0
BLOCK_RECORD
  5
12B
100
AcDbSymbolTableRecord
100
AcDbBlockTableRecord
  2
_Oblique
  0
BLOCK_RECORD
  5
12C
100
AcDbSymbolTableRecord
100
AcDbBlockTableRecord
  2
_Origin2
  0
BLOCK_RECORD
  5
12D
100
AcDbSymbolTableRecord
100
AcDbBlockTableRecord
  2
_BoxBlank
  0
BLOCK_RECORD
  5
12E
100
AcDbSymbolTableRecord
100
AcDbBlockTableRecord
  2
_BoxFilled
  0
BLOCK_RECORD
  5
12F
100
AcDbSymbolTableRecord
100
AcDbBlockTableRecord
  2
_Integral
  0
BLOCK_RECORD
  5
130
100
AcDbSymbolTableRecord
100
AcDbBlockTableRecord
  2
BK2
  0
BLOCK_RECORD
  5
131
100
AcDbSymbolTableRecord
100
AcDbBlockTableRecord
  2
BK3
  0
BLOCK_RECORD
  5
132
100
AcDbSymbolTableRecord
100
AcDbBlockTableRecord
  2
BK4
  0
BLOCK_RECORD
  5
133
100
AcDbSymbolTableRecord
100
AcDbBlockTableRecord
  2
BK5
  0
BLOCK_RECORD
  5
134
100
AcDbSymbolTableRecord
100
AcDbBlockTableRecord
  2
BK6
  0
BLOCK_RECORD
  5
135
100
AcDbSymbolTableRecord
100
AcDbBlockTableRecord
  2
BK7
  0
BLOCK_RECORD
  5
136
100
AcDbSymbolTableRecord
100
AcDbBlockTableRecord
  2
BK8
  0
BLOCK_RECORD
  5
137
100
AcDbSymbolTableRecord
100
AcDbBlockTableRecord
  2
BK9
  0
BLOCK_RECORD
  5
138
100
AcDbSymbolTableRecord
100
AcDbBlockTableRecord
  2
BK10
  0
BLOCK_RECORD
  5
139
100
AcDbSymbolTableRecord
100
AcDbBlockTableRecord
  2
BK11
  0
BLOCK_RECORD
  5
13A
100
AcDbSymbolTableRecord
100
AcDbBlockTableRecord
  2
BK12
  0
BLOCK_RECORD
  5
13B
100
AcDbSymbolTableRecord
100
AcDbBlockTableRecord
  2
BK13
  0
BLOCK_RECORD
  5
13C
100
AcDbSymbolTableRecord
100
AcDbBlockTableRecord
  2
BK14
  0
BLOCK_RECORD
  5
13D
100
AcDbSymbolTableRecord
100
AcDbBlockTableRecord
  2
BK15
  0
BLOCK_RECORD
  5
13E
100
AcDbSymbolTableRecord
100
AcDbBlockTableRecord
  2
BK16
  0
BLOCK_RECORD
  5
13F
100
AcDbSymbolTableRecord
100
AcDbBlockTableRecord
  2
BK17
  0
BLOCK_RECORD
  5
140
100
AcDbSymbolTableRecord
100
AcDbBlockTableRecord
  2
BK18
  0
BLOCK_RECORD
  5
141
100
AcDbSymbolTableRecord
100
AcDbBlockTableRecord
  2
BK19
  0
BLOCK_RECORD
  5
142
100
AcDbSymbolTableRecord
100
AcDbBlockTableRecord
  2
BK20
  0
BLOCK_RECORD
  5
143
100
AcDbSymbolTableRecord
100
AcDbBlockTableRecord
  2
BK21
  0
BLOCK_RECORD
  5
144
100
AcDbSymbolTableRecord
100
AcDbBlockTableRecord
  2
BK22
  0
BLOCK_RECORD
  5
145
100
AcDbSymbolTableRecord
100
AcDbBlockTableRecord
  2
BK23
  0
BLOCK_RECORD
  5
146
100
AcDbSymbolTableRecord
100
AcDbBlockTableRecord
  2
BK24
  0
BLOCK_RECORD
  5
147
100
AcDbSymbolTableRecord
100
AcDbBlockTableRecord
  2
BK25
  0
BLOCK_RECORD
  5
148
100
AcDbSymbolTableRecord
100
AcDbBlockTableRecord
  2
BK26
  0
BLOCK_RECORD
  5
149
100
AcDbSymbolTableRecord
100
AcDbBlockTableRecord
  2
BK27
  0
BLOCK_RECORD
  5
14A
100
AcDbSymbolTableRecord
100
AcDbBlockTableRecord
  2
BK28
  0
BLOCK_RECORD
  5
14B
100
AcDbSymbolTableRecord
100
AcDbBlockTableRecord
  2
BK29
  0
BLOCK_RECORD
  5
14C
100
AcDbSymbolTableRecord
100
AcDbBlockTableRecord
  2
BK30
  0
BLOCK_RECORD
  5
14D
100
AcDbSymbolTableRecord
100
AcDbBlockTableRecord
  2
BK31
  0
ENDTAB
  0
ENDSEC
  0
SECTION
  2
BLOCKS
  0
BLOCK
  5
14E
100
AcDbEntity
  8
0
100
AcDbBlockBegin
  2
*MODEL_SPACE
 70
     0
 10
0
 20
0
  3
*MODEL_SPACE
  1

  0
ENDBLK
  5
14F
100
AcDbEntity
  8
0
100
AcDbBlockEnd
  0
BLOCK
  5
150
100
AcDbEntity
 67
     1
  8
0
100
AcDbBlockBegin
  2
*PAPER_SPACE
 70
     0
 10
0
 20
0
  3
*PAPER_SPACE
  1

  0
ENDBLK
  5
151
100
AcDbEntity
 67
     1
  8
0
100
AcDbBlockEnd
  0
BLOCK
  5
152
100
AcDbEntity
 67
     1
  8
0
100
AcDbBlockBegin
  2
_DOT
 70
     0
 10
0
 20
0
  3
_DOT
  1

  0
LWPOLYLINE
  5
153
100
AcDbEntity
  8
0
  6
BYBLOCK
 62
     0
100
AcDbPolyline
 90
     2
 70
     1
 43
0.5
 10
-0.25
 20
0
 42
1
 10
0.25
 20
0
 42
1
  0
LINE
  5
154
100
AcDbEntity
  8
0
  6
BYBLOCK
 62
     0
100
AcDbLine
 10
-0.5
 20
0
 11
-1
 21
0
  0
ENDBLK
  5
155
100
AcDbEntity
  8
0
100
AcDbBlockEnd
  0
BLOCK
  5
156
100
AcDbEntity
 67
     1
  8
0
100
AcDbBlockBegin
  2
_OPEN30
 70
     0
 10
0
 20
0
  3
_OPEN30
  1

  0
LINE
  5
157
100
AcDbEntity
  8
0
  6
BYBLOCK
 62
     0
100
AcDbLine
 10
-1
 20
0.26794919
 11
0
 21
0
  0
LINE
  5
158
100
AcDbEntity
  8
0
  6
BYBLOCK
 62
     0
100
AcDbLine
 10
-1
 20
-0.26794919
 11
0
 21
0
  0
LINE
  5
159
100
AcDbEntity
  8
0
  6
BYBLOCK
 62
     0
100
AcDbLine
 10
0
 20
0
 11
-1
 21
0
  0
ENDBLK
  5
15A
100
AcDbEntity
  8
0
100
AcDbBlockEnd
  0
BLOCK
  5
15B
100
AcDbEntity
 67
     1
  8
0
100
AcDbBlockBegin
  2
_ClosedBlank
 70
     0
 10
0
 20
0
  3
_ClosedBlank
  1

  0
LINE
  5
15C
100
AcDbEntity
  8
0
  6
BYBLOCK
 62
     0
100
AcDbLine
 10
-1
 20
0.1666666666667
 11
0
 21
0
  0
LINE
  5
15D
100
AcDbEntity
  8
0
  6
BYBLOCK
 62
     0
100
AcDbLine
 10
0
 20
0
 11
-1
 21
-0.1666666666667
  0
LINE
  5
15E
100
AcDbEntity
  8
0
  6
BYBLOCK
 62
     0
100
AcDbLine
 10
-1
 20
0.1666666666667
 11
-1
 21
-0.1666666666667
  0
ENDBLK
  5
15F
100
AcDbEntity
  8
0
100
AcDbBlockEnd
  0
BLOCK
  5
160
100
AcDbEntity
 67
     1
  8
0
100
AcDbBlockBegin
  2
_Origin
 70
     0
 10
0
 20
0
  3
_Origin
  1

  0
CIRCLE
  5
161
100
AcDbEntity
  8
0
  6
BYBLOCK
 62
     0
100
AcDbCircle
 10
0
 20
0
 40
0.5
  0
LINE
  5
162
100
AcDbEntity
  8
0
  6
BYBLOCK
 62
     0
100
AcDbLine
 10
0
 20
0
 11
-1
 21
0
  0
ENDBLK
  5
163
100
AcDbEntity
  8
0
100
AcDbBlockEnd
  0
BLOCK
  5
164
100
AcDbEntity
 67
     1
  8
0
100
AcDbBlockBegin
  2
_Oblique
 70
     0
 10
0
 20
0
  3
_Oblique
  1

  0
LINE
  5
165
100
AcDbEntity
  8
0
  6
BYBLOCK
 62
     0
100
AcDbLine
 10
-0.5
 20
-0.5
 11
0.5
 21
0.5
  0
ENDBLK
  5
166
100
AcDbEntity
  8
0
100
AcDbBlockEnd
  0
BLOCK
  5
167
100
AcDbEntity
 67
     1
  8
0
100
AcDbBlockBegin
  2
_Origin2
 70
     0
 10
0
 20
0
  3
_Origin2
  1

  0
CIRCLE
  5
168
100
AcDbEntity
  8
0
  6
BYBLOCK
 62
     0
100
AcDbCircle
 10
0
 20
0
 40
0.5
  0
CIRCLE
  5
169
100
AcDbEntity
  8
0
  6
BYBLOCK
 62
     0
100
AcDbCircle
 10
0
 20
0
 40
0.25
  0
LINE
  5
16A
100
AcDbEntity
  8
0
  6
BYBLOCK
 62
     0
100
AcDbLine
 10
-0.5
 20
0
 11
-1
 21
0
  0
ENDBLK
  5
16B
100
AcDbEntity
  8
0
100
AcDbBlockEnd
  0
BLOCK
  5
16C
100
AcDbEntity
 67
     1
  8
0
100
AcDbBlockBegin
  2
_BoxBlank
 70
     0
 10
0
 20
0
  3
_BoxBlank
  1

  0
LINE
  5
16D
100
AcDbEntity
  8
0
  6
BYBLOCK
 62
     0
100
AcDbLine
 10
-0.5
 20
-0.5
 11
0.5
 21
-0.5
  0
LINE
  5
16E
100
AcDbEntity
  8
0
  6
BYBLOCK
 62
     0
100
AcDbLine
 10
0.5
 20
-0.5
 11
0.5
 21
0.5
  0
LINE
  5
16F
100
AcDbEntity
  8
0
  6
BYBLOCK
 62
     0
100
AcDbLine
 10
0.5
 20
0.5
 11
-0.5
 21
0.5
  0
LINE
  5
170
100
AcDbEntity
  8
0
  6
BYBLOCK
 62
     0
100
AcDbLine
 10
-0.5
 20
0.5
 11
-0.5
 21
-0.5
  0
LINE
  5
171
100
AcDbEntity
  8
0
  6
BYBLOCK
 62
     0
100
AcDbLine
 10
-0.5
 20
0
 11
-1
 21
0
  0
ENDBLK
  5
172
100
AcDbEntity
  8
0
100
AcDbBlockEnd
  0
BLOCK
  5
173
100
AcDbEntity
 67
     1
  8
0
100
AcDbBlockBegin
  2
_BoxFilled
 70
     0
 10
0
 20
0
  3
_BoxFilled
  1

  0
SOLID
  5
174
100
AcDbEntity
  8
0
  6
BYBLOCK
 62
     0
100
AcDbTrace
 10
-0.5
 20
0.5
 11
0.5
 21
0.5
 12
-0.5
 22
-0.5
 13
0.5
 23
-0.5
  0
LINE
  5
175
100
AcDbEntity
  8
0
  6
BYBLOCK
 62
     0
100
AcDbLine
 10
-0.5
 20
0
 11
-1
 21
0
  0
ENDBLK
  5
176
100
AcDbEntity
  8
0
100
AcDbBlockEnd
  0
BLOCK
  5
177
100
AcDbEntity
 67
     1
  8
0
100
AcDbBlockBegin
  2
_Integral
 70
     0
 10
0
 20
0
  3
_Integral
  1

  0
ARC
  5
178
100
AcDbEntity
  8
0
  6
BYBLOCK
 62
     0
100
AcDbCircle
 10
0.44488802
 20
-0.09133463
 40
0.45416667
100
AcDbArc
 50
101.999999998
 51
167.9999999799
  0
ARC
  5
179
100
AcDbEntity
  8
0
  6
BYBLOCK
 62
     0
100
AcDbCircle
 10
-0.44488802
 20
0.09133463
 40
0.45416667
100
AcDbArc
 50
282.0000000215
 51
348.0000000034
  0
ENDBLK
  5
17A
100
AcDbEntity
  8
0
100
AcDbBlockEnd
  0
BLOCK
  5
17B
100
AcDbEntity
  8
_0-2_寸法
100
AcDbBlockBegin
  2
BK2
 70
    64
 10
0
 20
0
  3
BK2
  1

  0
CIRCLE
  5
17C
100
AcDbEntity
  8
_0-2_寸法
  6
CONTINUOUS
 62
     0
100
AcDbCircle
 10
226.5
 20
256
 40
0.25
  0
LINE
  5
17D
100
AcDbEntity
  8
_0-2_寸法
  6
CONTINUOUS
 62
     0
100
AcDbLine
 10
226.25
 20
256
 11
226.75
 21
256
  0
LINE
  5
17E
100
AcDbEntity
  8
_0-2_寸法
  6
CONTINUOUS
 62
     0
100
AcDbLine
 10
227
 20
256
 11
227.5
 21
256
  0
ENDBLK
  5
17F
100
AcDbEntity
 67
     1
  8
_0-2_寸法
100
AcDbBlockEnd
  0
BLOCK
  5
180
100
AcDbEntity
  8
_0-2_寸法
100
AcDbBlockBegin
  2
BK3
 70
    64
 10
0
 20
0
  3
BK3
  1

  0
CIRCLE
  5
181
100
AcDbEntity
  8
_0-2_寸法
  6
CONTINUOUS
 62
     0
100
AcDbCircle
 10
426.5
 20
256
 40
0.25
  0
LINE
  5
182
100
AcDbEntity
  8
_0-2_寸法
  6
CONTINUOUS
 62
     0
100
AcDbLine
 10
426.75
 20
256
 11
426.25
 21
256
  0
LINE
  5
183
100
AcDbEntity
  8
_0-2_寸法
  6
CONTINUOUS
 62
     0
100
AcDbLine
 10
426
 20
256
 11
425.5
 21
256
  0
ENDBLK
  5
184
100
AcDbEntity
 67
     1
  8
_0-2_寸法
100
AcDbBlockEnd
  0
BLOCK
  5
185
100
AcDbEntity
  8
_0-2_寸法
100
AcDbBlockBegin
  2
BK4
 70
    64
 10
0
 20
0
  3
BK4
  1

  0
CIRCLE
  5
186
100
AcDbEntity
  8
_0-2_寸法
  6
CONTINUOUS
 62
     0
100
AcDbCircle
 10
201.5
 20
256
 40
0.25
  0
LINE
  5
187
100
AcDbEntity
  8
_0-2_寸法
  6
CONTINUOUS
 62
     0
100
AcDbLine
 10
201.25
 20
256
 11
201.75
 21
256
  0
LINE
  5
188
100
AcDbEntity
  8
_0-2_寸法
  6
CONTINUOUS
 62
     0
100
AcDbLine
 10
202
 20
256
 11
202.5
 21
256
  0
ENDBLK
  5
189
100
AcDbEntity
 67
     1
  8
_0-2_寸法
100
AcDbBlockEnd
  0
BLOCK
  5
18A
100
AcDbEntity
  8
_0-2_寸法
100
AcDbBlockBegin
  2
BK5
 70
    64
 10
0
 20
0
  3
BK5
  1

  0
CIRCLE
  5
18B
100
AcDbEntity
  8
_0-2_寸法
  6
CONTINUOUS
 62
     0
100
AcDbCircle
 10
226.5
 20
256
 40
0.25
  0
LINE
  5
18C
100
AcDbEntity
  8
_0-2_寸法
  6
CONTINUOUS
 62
     0
100
AcDbLine
 10
226.75
 20
256
 11
226.25
 21
256
  0
LINE
  5
18D
100
AcDbEntity
  8
_0-2_寸法
  6
CONTINUOUS
 62
     0
100
AcDbLine
 10
226
 20
256
 11
225.5
 21
256
  0
ENDBLK
  5
18E
100
AcDbEntity
 67
     1
  8
_0-2_寸法
100
AcDbBlockEnd
  0
BLOCK
  5
18F
100
AcDbEntity
  8
_0-2_寸法
100
AcDbBlockBegin
  2
BK6
 70
    64
 10
0
 20
0
  3
BK6
  1

  0
CIRCLE
  5
190
100
AcDbEntity
  8
_0-2_寸法
  6
CONTINUOUS
 62
     0
100
AcDbCircle
 10
146.5
 20
386
 40
0.25
  0
LINE
  5
191
100
AcDbEntity
  8
_0-2_寸法
  6
CONTINUOUS
 62
     0
100
AcDbLine
 10
146.5
 20
385.75
 11
146.5
 21
386.25
  0
LINE
  5
192
100
AcDbEntity
  8
_0-2_寸法
  6
CONTINUOUS
 62
     0
100
AcDbLine
 10
146.5
 20
386.5
 11
146.5
 21
387
  0
ENDBLK
  5
193
100
AcDbEntity
 67
     1
  8
_0-2_寸法
100
AcDbBlockEnd
  0
BLOCK
  5
194
100
AcDbEntity
  8
_0-2_寸法
100
AcDbBlockBegin
  2
BK7
 70
    64
 10
0
 20
0
  3
BK7
  1

  0
CIRCLE
  5
195
100
AcDbEntity
  8
_0-2_寸法
  6
CONTINUOUS
 62
     0
100
AcDbCircle
 10
146.5
 20
454.063400212
 40
0.25
  0
LINE
  5
196
100
AcDbEntity
  8
_0-2_寸法
  6
CONTINUOUS
 62
     0
100
AcDbLine
 10
146.5
 20
454.313400212
 11
146.5
 21
453.813400212
  0
LINE
  5
197
100
AcDbEntity
  8
_0-2_寸法
  6
CONTINUOUS
 62
     0
100
AcDbLine
 10
146.5
 20
453.563400212
 11
146.5
 21
453.063400212
  0
ENDBLK
  5
198
100
AcDbEntity
 67
     1
  8
_0-2_寸法
100
AcDbBlockEnd
  0
BLOCK
  5
199
100
AcDbEntity
  8
_0-2_寸法
100
AcDbBlockBegin
  2
BK8
 70
    64
 10
0
 20
0
  3
BK8
  1

  0
CIRCLE
  5
19A
100
AcDbEntity
  8
_0-2_寸法
  6
CONTINUOUS
 62
     0
100
AcDbCircle
 10
677.5
 20
490.763400212
 40
0.25
  0
LINE
  5
19B
100
AcDbEntity
  8
_0-2_寸法
  6
CONTINUOUS
 62
     0
100
AcDbLine
 10
677.75
 20
490.763400212
 11
677.25
 21
490.763400212
  0
LINE
  5
19C
100
AcDbEntity
  8
_0-2_寸法
  6
CONTINUOUS
 62
     0
100
AcDbLine
 10
677
 20
490.763400212
 11
676.5
 21
490.763400212
  0
ENDBLK
  5
19D
100
AcDbEntity
 67
     1
  8
_0-2_寸法
100
AcDbBlockEnd
  0
BLOCK
  5
19E
100
AcDbEntity
  8
_0-2_寸法
100
AcDbBlockBegin
  2
BK9
 70
    64
 10
0
 20
0
  3
BK9
  1

  0
CIRCLE
  5
19F
100
AcDbEntity
  8
_0-2_寸法
  6
CONTINUOUS
 62
     0
100
AcDbCircle
 10
217.5
 20
490.763400212
 40
0.25
  0
LINE
  5
1A0
100
AcDbEntity
  8
_0-2_寸法
  6
CONTINUOUS
 62
     0
100
AcDbLine
 10
217.25
 20
490.763400212
 11
217.75
 21
490.763400212
  0
LINE
  5
1A1
100
AcDbEntity
  8
_0-2_寸法
  6
CONTINUOUS
 62
     0
100
AcDbLine
 10
218
 20
490.763400212
 11
218.5
 21
490.763400212
  0
ENDBLK
  5
1A2
100
AcDbEntity
 67
     1
  8
_0-2_寸法
100
AcDbBlockEnd
  0
BLOCK
  5
1A3
100
AcDbEntity
  8
_0-2_寸法
100
AcDbBlockBegin
  2
BK10
 70
    64
 10
0
 20
0
  3
BK10
  1

  0
CIRCLE
  5
1A4
100
AcDbEntity
  8
_0-2_寸法
  6
CONTINUOUS
 62
     0
100
AcDbCircle
 10
270.7
 20
497.763400212
 40
0.25
  0
LINE
  5
1A5
100
AcDbEntity
  8
_0-2_寸法
  6
CONTINUOUS
 62
     0
100
AcDbLine
 10
270.7
 20
497.513400212
 11
270.7
 21
498.013400212
  0
LINE
  5
1A6
100
AcDbEntity
  8
_0-2_寸法
  6
CONTINUOUS
 62
     0
100
AcDbLine
 10
270.7
 20
498.263400212
 11
270.7
 21
498.763400212
  0
ENDBLK
  5
1A7
100
AcDbEntity
 67
     1
  8
_0-2_寸法
100
AcDbBlockEnd
  0
BLOCK
  5
1A8
100
AcDbEntity
  8
_0-2_寸法
100
AcDbBlockBegin
  2
BK11
 70
    64
 10
0
 20
0
  3
BK11
  1

  0
CIRCLE
  5
1A9
100
AcDbEntity
  8
_0-2_寸法
  6
CONTINUOUS
 62
     0
100
AcDbCircle
 10
270.7
 20
512.763400212
 40
0.25
  0
LINE
  5
1AA
100
AcDbEntity
  8
_0-2_寸法
  6
CONTINUOUS
 62
     0
100
AcDbLine
 10
270.7
 20
513.013400212
 11
270.7
 21
512.513400212
  0
LINE
  5
1AB
100
AcDbEntity
  8
_0-2_寸法
  6
CONTINUOUS
 62
     0
100
AcDbLine
 10
270.7
 20
512.263400212
 11
270.7
 21
511.763400212
  0
ENDBLK
  5
1AC
100
AcDbEntity
 67
     1
  8
_0-2_寸法
100
AcDbBlockEnd
  0
BLOCK
  5
1AD
100
AcDbEntity
  8
_0-2_寸法
100
AcDbBlockBegin
  2
BK12
 70
    64
 10
0
 20
0
  3
BK12
  1

  0
CIRCLE
  5
1AE
100
AcDbEntity
  8
_0-2_寸法
  6
CONTINUOUS
 62
     0
100
AcDbCircle
 10
270.7
 20
461.763400212
 40
0.25
  0
LINE
  5
1AF
100
AcDbEntity
  8
_0-2_寸法
  6
CONTINUOUS
 62
     0
100
AcDbLine
 10
270.7
 20
461.513400212
 11
270.7
 21
462.013400212
  0
LINE
  5
1B0
100
AcDbEntity
  8
_0-2_寸法
  6
CONTINUOUS
 62
     0
100
AcDbLine
 10
270.7
 20
462.263400212
 11
270.7
 21
462.763400212
  0
ENDBLK
  5
1B1
100
AcDbEntity
 67
     1
  8
_0-2_寸法
100
AcDbBlockEnd
  0
BLOCK
  5
1B2
100
AcDbEntity
  8
_0-2_寸法
100
AcDbBlockBegin
  2
BK13
 70
    64
 10
0
 20
0
  3
BK13
  1

  0
CIRCLE
  5
1B3
100
AcDbEntity
  8
_0-2_寸法
  6
CONTINUOUS
 62
     0
100
AcDbCircle
 10
270.7
 20
497.763400212
 40
0.25
  0
LINE
  5
1B4
100
AcDbEntity
  8
_0-2_寸法
  6
CONTINUOUS
 62
     0
100
AcDbLine
 10
270.7
 20
498.013400212
 11
270.7
 21
497.513400212
  0
LINE
  5
1B5
100
AcDbEntity
  8
_0-2_寸法
  6
CONTINUOUS
 62
     0
100
AcDbLine
 10
270.7
 20
497.263400212
 11
270.7
 21
496.763400212
  0
ENDBLK
  5
1B6
100
AcDbEntity
 67
     1
  8
_0-2_寸法
100
AcDbBlockEnd
  0
BLOCK
  5
1B7
100
AcDbEntity
  8
_0-2_寸法
100
AcDbBlockBegin
  2
BK14
 70
    64
 10
0
 20
0
  3
BK14
  1

  0
CIRCLE
  5
1B8
100
AcDbEntity
  8
_0-2_寸法
  6
CONTINUOUS
 62
     0
100
AcDbCircle
 10
235.7
 20
537.763400212
 40
0.25
  0
LINE
  5
1B9
100
AcDbEntity
  8
_0-2_寸法
  6
CONTINUOUS
 62
     0
100
AcDbLine
 10
235.95
 20
537.763400212
 11
235.45
 21
537.763400212
  0
LINE
  5
1BA
100
AcDbEntity
  8
_0-2_寸法
  6
CONTINUOUS
 62
     0
100
AcDbLine
 10
235.2
 20
537.763400212
 11
234.7
 21
537.763400212
  0
ENDBLK
  5
1BB
100
AcDbEntity
 67
     1
  8
_0-2_寸法
100
AcDbBlockEnd
  0
BLOCK
  5
1BC
100
AcDbEntity
  8
_0-2_寸法
100
AcDbBlockBegin
  2
BK15
 70
    64
 10
0
 20
0
  3
BK15
  1

  0
CIRCLE
  5
1BD
100
AcDbEntity
  8
_0-2_寸法
  6
CONTINUOUS
 62
     0
100
AcDbCircle
 10
215.7
 20
537.763400212
 40
0.25
  0
LINE
  5
1BE
100
AcDbEntity
  8
_0-2_寸法
  6
CONTINUOUS
 62
     0
100
AcDbLine
 10
215.45
 20
537.763400212
 11
215.95
 21
537.763400212
  0
LINE
  5
1BF
100
AcDbEntity
  8
_0-2_寸法
  6
CONTINUOUS
 62
     0
100
AcDbLine
 10
216.2
 20
537.763400212
 11
216.7
 21
537.763400212
  0
ENDBLK
  5
1C0
100
AcDbEntity
 67
     1
  8
_0-2_寸法
100
AcDbBlockEnd
  0
BLOCK
  5
1C1
100
AcDbEntity
  8
_0-2_寸法
100
AcDbBlockBegin
  2
BK16
 70
    64
 10
0
 20
0
  3
BK16
  1

  0
CIRCLE
  5
1C2
100
AcDbEntity
  8
_0-2_寸法
  6
CONTINUOUS
 62
     0
100
AcDbCircle
 10
235.7
 20
547.763400212
 40
0.25
  0
LINE
  5
1C3
100
AcDbEntity
  8
_0-2_寸法
  6
CONTINUOUS
 62
     0
100
AcDbLine
 10
235.95
 20
547.763400212
 11
235.45
 21
547.763400212
  0
LINE
  5
1C4
100
AcDbEntity
  8
_0-2_寸法
  6
CONTINUOUS
 62
     0
100
AcDbLine
 10
235.2
 20
547.763400212
 11
234.7
 21
547.763400212
  0
ENDBLK
  5
1C5
100
AcDbEntity
 67
     1
  8
_0-2_寸法
100
AcDbBlockEnd
  0
BLOCK
  5
1C6
100
AcDbEntity
  8
_0-2_寸法
100
AcDbBlockBegin
  2
BK17
 70
    64
 10
0
 20
0
  3
BK17
  1

  0
CIRCLE
  5
1C7
100
AcDbEntity
  8
_0-2_寸法
  6
CONTINUOUS
 62
     0
100
AcDbCircle
 10
202.5
 20
547.763400212
 40
0.25
  0
LINE
  5
1C8
100
AcDbEntity
  8
_0-2_寸法
  6
CONTINUOUS
 62
     0
100
AcDbLine
 10
202.25
 20
547.763400212
 11
202.75
 21
547.763400212
  0
LINE
  5
1C9
100
AcDbEntity
  8
_0-2_寸法
  6
CONTINUOUS
 62
     0
100
AcDbLine
 10
203
 20
547.763400212
 11
203.5
 21
547.763400212
  0
ENDBLK
  5
1CA
100
AcDbEntity
 67
     1
  8
_0-2_寸法
100
AcDbBlockEnd
  0
BLOCK
  5
1CB
100
AcDbEntity
  8
_0-2_寸法
100
AcDbBlockBegin
  2
BK18
 70
    64
 10
0
 20
0
  3
BK18
  1

  0
CIRCLE
  5
1CC
100
AcDbEntity
  8
_0-2_寸法
  6
CONTINUOUS
 62
     0
100
AcDbCircle
 10
126.5
 20
512.763400212
 40
0.25
  0
LINE
  5
1CD
100
AcDbEntity
  8
_0-2_寸法
  6
CONTINUOUS
 62
     0
100
AcDbLine
 10
126.5
 20
513.013400212
 11
126.5
 21
512.513400212
  0
LINE
  5
1CE
100
AcDbEntity
  8
_0-2_寸法
  6
CONTINUOUS
 62
     0
100
AcDbLine
 10
126.5
 20
512.263400212
 11
126.5
 21
511.763400212
  0
ENDBLK
  5
1CF
100
AcDbEntity
 67
     1
  8
_0-2_寸法
100
AcDbBlockEnd
  0
BLOCK
  5
1D0
100
AcDbEntity
  8
_0-2_寸法
100
AcDbBlockBegin
  2
BK19
 70
    64
 10
0
 20
0
  3
BK19
  1

  0
CIRCLE
  5
1D1
100
AcDbEntity
  8
_0-2_寸法
  6
CONTINUOUS
 62
     0
100
AcDbCircle
 10
126.5
 20
386
 40
0.25
  0
LINE
  5
1D2
100
AcDbEntity
  8
_0-2_寸法
  6
CONTINUOUS
 62
     0
100
AcDbLine
 10
126.5
 20
385.75
 11
126.5
 21
386.25
  0
LINE
  5
1D3
100
AcDbEntity
  8
_0-2_寸法
  6
CONTINUOUS
 62
     0
100
AcDbLine
 10
126.5
 20
386.5
 11
126.5
 21
387
  0
ENDBLK
  5
1D4
100
AcDbEntity
 67
     1
  8
_0-2_寸法
100
AcDbBlockEnd
  0
BLOCK
  5
1D5
100
AcDbEntity
  8
_0-2_寸法
100
AcDbBlockBegin
  2
BK20
 70
    64
 10
0
 20
0
  3
BK20
  1

  0
CIRCLE
  5
1D6
100
AcDbEntity
  8
_0-2_寸法
  6
CONTINUOUS
 62
     0
100
AcDbCircle
 10
202.5
 20
562.763400212
 40
0.25
  0
LINE
  5
1D7
100
AcDbEntity
  8
_0-2_寸法
  6
CONTINUOUS
 62
     0
100
AcDbLine
 10
202.25
 20
562.763400212
 11
202.75
 21
562.763400212
  0
LINE
  5
1D8
100
AcDbEntity
  8
_0-2_寸法
  6
CONTINUOUS
 62
     0
100
AcDbLine
 10
203
 20
562.763400212
 11
203.5
 21
562.763400212
  0
ENDBLK
  5
1D9
100
AcDbEntity
 67
     1
  8
_0-2_寸法
100
AcDbBlockEnd
  0
BLOCK
  5
1DA
100
AcDbEntity
  8
_0-2_寸法
100
AcDbBlockBegin
  2
BK21
 70
    64
 10
0
 20
0
  3
BK21
  1

  0
CIRCLE
  5
1DB
100
AcDbEntity
  8
_0-2_寸法
  6
CONTINUOUS
 62
     0
100
AcDbCircle
 10
677.5
 20
562.763400212
 40
0.25
  0
LINE
  5
1DC
100
AcDbEntity
  8
_0-2_寸法
  6
CONTINUOUS
 62
     0
100
AcDbLine
 10
677.75
 20
562.763400212
 11
677.25
 21
562.763400212
  0
LINE
  5
1DD
100
AcDbEntity
  8
_0-2_寸法
  6
CONTINUOUS
 62
     0
100
AcDbLine
 10
677
 20
562.763400212
 11
676.5
 21
562.763400212
  0
ENDBLK
  5
1DE
100
AcDbEntity
 67
     1
  8
_0-2_寸法
100
AcDbBlockEnd
  0
BLOCK
  5
1DF
100
AcDbEntity
  8
_0-2_寸法
100
AcDbBlockBegin
  2
BK22
 70
    64
 10
0
 20
0
  3
BK22
  1

  0
CIRCLE
  5
1E0
100
AcDbEntity
  8
_0-2_寸法
  6
CONTINUOUS
 62
     0
100
AcDbCircle
 10
737.5
 20
343.5879154213
 40
0.25
  0
LINE
  5
1E1
100
AcDbEntity
  8
_0-2_寸法
  6
CONTINUOUS
 62
     0
100
AcDbLine
 10
737.5
 20
343.3379154213
 11
737.5
 21
343.8379154213
  0
LINE
  5
1E2
100
AcDbEntity
  8
_0-2_寸法
  6
CONTINUOUS
 62
     0
100
AcDbLine
 10
737.5
 20
344.0879154213
 11
737.5
 21
344.5879154213
  0
ENDBLK
  5
1E3
100
AcDbEntity
 67
     1
  8
_0-2_寸法
100
AcDbBlockEnd
  0
BLOCK
  5
1E4
100
AcDbEntity
  8
_0-2_寸法
100
AcDbBlockBegin
  2
BK23
 70
    64
 10
0
 20
0
  3
BK23
  1

  0
CIRCLE
  5
1E5
100
AcDbEntity
  8
_0-2_寸法
  6
CONTINUOUS
 62
     0
100
AcDbCircle
 10
737.5
 20
433.5879154213
 40
0.25
  0
LINE
  5
1E6
100
AcDbEntity
  8
_0-2_寸法
  6
CONTINUOUS
 62
     0
100
AcDbLine
 10
737.5
 20
433.8379154213
 11
737.5
 21
433.3379154213
  0
LINE
  5
1E7
100
AcDbEntity
  8
_0-2_寸法
  6
CONTINUOUS
 62
     0
100
AcDbLine
 10
737.5
 20
433.0879154213
 11
737.5
 21
432.5879154213
  0
ENDBLK
  5
1E8
100
AcDbEntity
 67
     1
  8
_0-2_寸法
100
AcDbBlockEnd
  0
BLOCK
  5
1E9
100
AcDbEntity
  8
_0-2_寸法
100
AcDbBlockBegin
  2
BK24
 70
    64
 10
0
 20
0
  3
BK24
  1

  0
CIRCLE
  5
1EA
100
AcDbEntity
  8
_0-2_寸法
  6
CONTINUOUS
 62
     0
100
AcDbCircle
 10
717.5
 20
343.5879154213
 40
0.25
  0
LINE
  5
1EB
100
AcDbEntity
  8
_0-2_寸法
  6
CONTINUOUS
 62
     0
100
AcDbLine
 10
717.5
 20
343.3379154213
 11
717.5
 21
343.8379154213
  0
LINE
  5
1EC
100
AcDbEntity
  8
_0-2_寸法
  6
CONTINUOUS
 62
     0
100
AcDbLine
 10
717.5
 20
344.0879154213
 11
717.5
 21
344.5879154213
  0
ENDBLK
  5
1ED
100
AcDbEntity
 67
     1
  8
_0-2_寸法
100
AcDbBlockEnd
  0
BLOCK
  5
1EE
100
AcDbEntity
  8
_0-2_寸法
100
AcDbBlockBegin
  2
BK25
 70
    64
 10
0
 20
0
  3
BK25
  1

  0
CIRCLE
  5
1EF
100
AcDbEntity
  8
_0-2_寸法
  6
CONTINUOUS
 62
     0
100
AcDbCircle
 10
717.5
 20
386
 40
0.25
  0
LINE
  5
1F0
100
AcDbEntity
  8
_0-2_寸法
  6
CONTINUOUS
 62
     0
100
AcDbLine
 10
717.5
 20
386.25
 11
717.5
 21
385.75
  0
LINE
  5
1F1
100
AcDbEntity
  8
_0-2_寸法
  6
CONTINUOUS
 62
     0
100
AcDbLine
 10
717.5
 20
385.5
 11
717.5
 21
385
  0
ENDBLK
  5
1F2
100
AcDbEntity
 67
     1
  8
_0-2_寸法
100
AcDbBlockEnd
  0
BLOCK
  5
1F3
100
AcDbEntity
  8
_0-2_寸法
100
AcDbBlockBegin
  2
BK26
 70
    64
 10
0
 20
0
  3
BK26
  1

  0
CIRCLE
  5
1F4
100
AcDbEntity
  8
_0-2_寸法
  6
CONTINUOUS
 62
     0
100
AcDbCircle
 10
426.5
 20
256
 40
0.25
  0
LINE
  5
1F5
100
AcDbEntity
  8
_0-2_寸法
  6
CONTINUOUS
 62
     0
100
AcDbLine
 10
426.25
 20
256
 11
426.75
 21
256
  0
LINE
  5
1F6
100
AcDbEntity
  8
_0-2_寸法
  6
CONTINUOUS
 62
     0
100
AcDbLine
 10
427
 20
256
 11
427.5
 21
256
  0
ENDBLK
  5
1F7
100
AcDbEntity
 67
     1
  8
_0-2_寸法
100
AcDbBlockEnd
  0
BLOCK
  5
1F8
100
AcDbEntity
  8
_0-2_寸法
100
AcDbBlockBegin
  2
BK27
 70
    64
 10
0
 20
0
  3
BK27
  1

  0
CIRCLE
  5
1F9
100
AcDbEntity
  8
_0-2_寸法
  6
CONTINUOUS
 62
     0
100
AcDbCircle
 10
677.5
 20
255.8110543473
 40
0.25
  0
LINE
  5
1FA
100
AcDbEntity
  8
_0-2_寸法
  6
CONTINUOUS
 62
     0
100
AcDbLine
 10
677.75
 20
255.8110543473
 11
677.25
 21
255.8110543473
  0
LINE
  5
1FB
100
AcDbEntity
  8
_0-2_寸法
  6
CONTINUOUS
 62
     0
100
AcDbLine
 10
677
 20
255.8110543473
 11
676.5
 21
255.8110543473
  0
ENDBLK
  5
1FC
100
AcDbEntity
 67
     1
  8
_0-2_寸法
100
AcDbBlockEnd
  0
BLOCK
  5
1FD
100
AcDbEntity
  8
_0-2_寸法
100
AcDbBlockBegin
  2
BK28
 70
    64
 10
0
 20
0
  3
BK28
  1

  0
CIRCLE
  5
1FE
100
AcDbEntity
  8
_0-2_寸法
  6
CONTINUOUS
 62
     0
100
AcDbCircle
 10
547.5
 20
256
 40
0.25
  0
LINE
  5
1FF
100
AcDbEntity
  8
_0-2_寸法
  6
CONTINUOUS
 62
     0
100
AcDbLine
 10
547.75
 20
256
 11
547.25
 21
256
  0
LINE
  5
200
100
AcDbEntity
  8
_0-2_寸法
  6
CONTINUOUS
 62
     0
100
AcDbLine
 10
547
 20
256
 11
546.5
 21
256
  0
ENDBLK
  5
201
100
AcDbEntity
 67
     1
  8
_0-2_寸法
100
AcDbBlockEnd
  0
BLOCK
  5
202
100
AcDbEntity
  8
_0-2_寸法
100
AcDbBlockBegin
  2
BK29
 70
    64
 10
0
 20
0
  3
BK29
  1

  0
CIRCLE
  5
203
100
AcDbEntity
  8
_0-2_寸法
  6
CONTINUOUS
 62
     0
100
AcDbCircle
 10
547.5
 20
255.8110543473
 40
0.25
  0
LINE
  5
204
100
AcDbEntity
  8
_0-2_寸法
  6
CONTINUOUS
 62
     0
100
AcDbLine
 10
547.25
 20
255.8110543473
 11
547.75
 21
255.8110543473
  0
LINE
  5
205
100
AcDbEntity
  8
_0-2_寸法
  6
CONTINUOUS
 62
     0
100
AcDbLine
 10
548
 20
255.8110543473
 11
548.5
 21
255.8110543473
  0
ENDBLK
  5
206
100
AcDbEntity
 67
     1
  8
_0-2_寸法
100
AcDbBlockEnd
  0
BLOCK
  5
207
100
AcDbEntity
  8
_0-2_寸法
100
AcDbBlockBegin
  2
BK30
 70
    64
 10
0
 20
0
  3
BK30
  1

  0
CIRCLE
  5
208
100
AcDbEntity
  8
_0-2_寸法
  6
CONTINUOUS
 62
     0
100
AcDbCircle
 10
497.5
 20
326
 40
0.25
  0
LINE
  5
209
100
AcDbEntity
  8
_0-2_寸法
  6
CONTINUOUS
 62
     0
100
AcDbLine
 10
497.25
 20
326
 11
497.75
 21
326
  0
LINE
  5
20A
100
AcDbEntity
  8
_0-2_寸法
  6
CONTINUOUS
 62
     0
100
AcDbLine
 10
498
 20
326
 11
498.5
 21
326
  0
ENDBLK
  5
20B
100
AcDbEntity
 67
     1
  8
_0-2_寸法
100
AcDbBlockEnd
  0
BLOCK
  5
20C
100
AcDbEntity
  8
_0-2_寸法
100
AcDbBlockBegin
  2
BK31
 70
    64
 10
0
 20
0
  3
BK31
  1

  0
CIRCLE
  5
20D
100
AcDbEntity
  8
_0-2_寸法
  6
CONTINUOUS
 62
     0
100
AcDbCircle
 10
547.5
 20
326
 40
0.25
  0
LINE
  5
20E
100
AcDbEntity
  8
_0-2_寸法
  6
CONTINUOUS
 62
     0
100
AcDbLine
 10
547.75
 20
326
 11
547.25
 21
326
  0
LINE
  5
20F
100
AcDbEntity
  8
_0-2_寸法
  6
CONTINUOUS
 62
     0
100
AcDbLine
 10
547
 20
326
 11
546.5
 21
326
  0
ENDBLK
  5
210
100
AcDbEntity
 67
     1
  8
_0-2_寸法
100
AcDbBlockEnd
  0
ENDSEC
  0
SECTION
  2
ENTITIES
  0
LINE
  5
211
100
AcDbEntity
  8
_0-0_0
  6
CONTINUOUS
 62
     0
100
AcDbLine
 10
300
 20
216
 11
91
 21
216
  0
TEXT
  5
212
100
AcDbEntity
  8
_0-4_図枠
  6
CONTINUOUS
 62
     0
100
AcDbText
 10
22.87321705508
 20
534.7160694305
 40
8
  1
　　Ｓ＝１／２
  7
STANDARD
100
AcDbText
  0
TEXT
  5
213
100
AcDbEntity
  8
_0-4_図枠
  6
CONTINUOUS
 62
     0
100
AcDbText
 10
24.90461802126
 20
549.9515766769
 40
8
  1
　　屋根－壁（切欠き壁）
  7
STANDARD
100
AcDbText
  0
CIRCLE
  5
214
100
AcDbEntity
  8
_0-4_図枠
  6
CONTINUOUS
 62
     0
100
AcDbCircle
 10
688.8458371153
 20
482.4301413221
 40
6
  0
TEXT
  5
215
100
AcDbEntity
  8
_0-4_図枠
  6
CONTINUOUS
 62
     0
100
AcDbText
 10
685.8458371153
 20
479.4301413221
 40
5
  1
１
  7
STANDARD
100
AcDbText
  0
LINE
  5
216
100
AcDbEntity
  8
_0-4_図枠
  6
CONTINUOUS
 62
     0
100
AcDbLine
 10
660.7093559719
 20
433.6963264355
 11
685.8458371153
 21
477.2339888994
  0
CIRCLE
  5
217
100
AcDbEntity
  8
_0-4_図枠
  6
CONTINUOUS
 62
     0
100
AcDbCircle
 10
660.7093559719
 20
433.6963264355
 40
0.9
  0
CIRCLE
  5
218
100
AcDbEntity
  8
_0-4_図枠
  6
CONTINUOUS
 62
     0
100
AcDbCircle
 10
250.2579643841
 20
534.0021714825
 40
6
  0
TEXT
  5
219
100
AcDbEntity
  8
_0-4_図枠
  6
CONTINUOUS
 62
     0
100
AcDbText
 10
247.2579643841
 20
531.0021714825
 40
5
  1
２
  7
STANDARD
100
AcDbText
  0
LINE
  5
21A
100
AcDbEntity
  8
_0-4_図枠
  6
CONTINUOUS
 62
     0
100
AcDbLine
 10
229.0211428793
 20
497.2189176449
 11
247.2579643841
 21
528.8060190598
  0
CIRCLE
  5
21B
100
AcDbEntity
  8
_0-4_図枠
  6
CONTINUOUS
 62
     0
100
AcDbCircle
 10
229.0211428793
 20
497.2189176449
 40
0.9
  0
LINE
  5
21C
100
AcDbEntity
  8
_0-4_図枠
  6
CONTINUOUS
 62
     0
100
AcDbLine
 10
661.2535827102
 20
415.5281466518
 11
684.8900638536
 21
456.4677329043
  0
CIRCLE
  5
21D
100
AcDbEntity
  8
_0-4_図枠
  6
CONTINUOUS
 62
     0
100
AcDbCircle
 10
687.8900638536
 20
461.663885327
 40
6
  0
CIRCLE
  5
21E
100
AcDbEntity
  8
_0-4_図枠
  6
CONTINUOUS
 62
     0
100
AcDbCircle
 10
661.2535827102
 20
415.5281466518
 40
0.9
  0
CIRCLE
  5
21F
100
AcDbEntity
  8
_0-4_図枠
  6
CONTINUOUS
 62
     0
100
AcDbCircle
 10
262.7728563375
 20
340.4189852002
 40
6
  0
LINE
  5
220
100
AcDbEntity
  8
_0-4_図枠
  6
CONTINUOUS
 62
     0
100
AcDbLine
 10
245.8895691511
 20
311.1762739946
 11
259.7728563375
 21
335.2228327775
  0
CIRCLE
  5
221
100
AcDbEntity
  8
_0-4_図枠
  6
CONTINUOUS
 62
     0
100
AcDbCircle
 10
245.8895691511
 20
311.1762739946
 40
0.9
  0
CIRCLE
  5
222
100
AcDbEntity
  8
_0-4_図枠
  6
CONTINUOUS
 62
     0
100
AcDbCircle
 10
186.3580003902
 20
435.6542294133
 40
6
  0
LINE
  5
223
100
AcDbEntity
  8
_0-4_図枠
  6
CONTINUOUS
 62
     0
100
AcDbLine
 10
206.7838028878
 20
447.4470719838
 11
191.5541528129
 21
438.6542294133
  0
CIRCLE
  5
224
100
AcDbEntity
  8
_0-4_図枠
  6
CONTINUOUS
 62
     0
100
AcDbCircle
 10
206.7838028878
 20
447.4470719838
 40
0.9
  0
LINE
  5
225
100
AcDbEntity
  8
_0-4_図枠
  6
CONTINUOUS
 62
     0
100
AcDbLine
 10
208.8630038442
 20
455.9826346165
 11
189.3771809495
 21
475.4684575112
  0
CIRCLE
  5
226
100
AcDbEntity
  8
_0-4_図枠
  6
CONTINUOUS
 62
     0
100
AcDbCircle
 10
185.1345402624
 20
479.7110981983
 40
6
  0
CIRCLE
  5
227
100
AcDbEntity
  8
_0-4_図枠
  6
CONTINUOUS
 62
     0
100
AcDbCircle
 10
157.0682362501
 20
478.6123579856
 40
6
  0
LINE
  5
228
100
AcDbEntity
  8
_0-4_図枠
  6
CONTINUOUS
 62
     0
100
AcDbLine
 10
169.5663603572
 20
456.9649720328
 11
160.0682362501
 21
473.4162055629
  0
CIRCLE
  5
229
100
AcDbEntity
  8
_0-3_躯体と製品
  6
CONTINUOUS
 62
     0
100
AcDbCircle
 10
169.5663603572
 20
456.9649720328
 40
0.9
  0
CIRCLE
  5
22A
100
AcDbEntity
  8
_0-4_図枠
  6
CONTINUOUS
 62
     0
100
AcDbCircle
 10
208.8630038442
 20
455.9826346165
 40
0.9
  0
LINE
  5
22B
100
AcDbEntity
  8
_0-4_図枠
  6
CONTINUOUS
 62
     0
100
AcDbLine
 10
208.470412466
 20
486.8007871842
 11
190.3512972233
 21
518.1840153727
  0
TEXT
  5
22C
100
AcDbEntity
  8
_0-4_図枠
  6
CONTINUOUS
 62
     0
100
AcDbText
 10
184.3512972233
 20
520.3801677954
 40
5
  1
４
  7
STANDARD
100
AcDbText
  0
CIRCLE
  5
22D
100
AcDbEntity
  8
_0-4_図枠
  6
CONTINUOUS
 62
     0
100
AcDbCircle
 10
187.3512972233
 20
523.3801677954
 40
6
  0
LINE
  5
22E
100
AcDbEntity
  8
_0-4_図枠
  6
CONTINUOUS
 62
     0
100
AcDbLine
 10
212.6419097734
 20
505.3196296021
 11
192.8318935557
 21
539.63158419
  0
CIRCLE
  5
22F
100
AcDbEntity
  8
_0-4_図枠
  6
CONTINUOUS
 62
     0
100
AcDbCircle
 10
189.8318935557
 20
544.8277366127
 40
6
  0
LINE
  5
230
100
AcDbEntity
  8
_0-4_図枠
  6
CONTINUOUS
 62
     0
100
AcDbLine
 10
233.7176991381
 20
478.5230929482
 11
255.1865555244
 21
515.7082429896
  0
CIRCLE
  5
231
100
AcDbEntity
  8
_0-4_図枠
  6
CONTINUOUS
 62
     0
100
AcDbCircle
 10
258.1865555244
 20
520.9043954123
 40
6
  0
LINE
  5
232
100
AcDbEntity
  8
_0-4_図枠
  6
CONTINUOUS
 62
     0
100
AcDbLine
 10
233.2208942486
 20
459.4648667391
 11
257.1125019454
 21
418.0833883337
  0
CIRCLE
  5
233
100
AcDbEntity
  8
_0-4_図枠
  6
CONTINUOUS
 62
     0
100
AcDbCircle
 10
260.1125019454
 20
412.887235911
 40
6
  0
CIRCLE
  5
234
100
AcDbEntity
  8
_0-4_図枠
  6
CONTINUOUS
 62
     0
100
AcDbCircle
 10
212.6419097734
 20
505.3196296021
 40
0.9
  0
CIRCLE
  5
235
100
AcDbEntity
  8
_0-4_図枠
  6
CONTINUOUS
 62
     0
100
AcDbCircle
 10
233.2208942486
 20
459.4648667391
 40
0.9
  0
CIRCLE
  5
236
100
AcDbEntity
  8
_0-4_図枠
  6
CONTINUOUS
 62
     0
100
AcDbCircle
 10
233.7176991381
 20
478.5230929482
 40
0.9
  0
CIRCLE
  5
237
100
AcDbEntity
  8
_0-4_図枠
  6
CONTINUOUS
 62
     0
100
AcDbCircle
 10
208.470412466
 20
486.8007871842
 40
0.9
  0
LINE
  5
238
100
AcDbEntity
  8
_0-3_躯体と製品
  6
CONTINUOUS
 62
     0
100
AcDbLine
 10
207.5
 20
445.063400212
 11
207.5
 21
463.063400212
  0
LINE
  5
239
100
AcDbEntity
  8
_0-3_躯体と製品
  6
CONTINUOUS
 62
     0
100
AcDbLine
 10
207.5
 20
445.063400212
 11
206
 21
445.063400212
  0
LINE
  5
23A
100
AcDbEntity
  8
_0-3_躯体と製品
  6
CONTINUOUS
 62
     0
100
AcDbLine
 10
207.5
 20
463.063400212
 11
206
 21
463.063400212
  0
ARC
  5
23B
100
AcDbEntity
  8
_0-3_躯体と製品
  6
CONTINUOUS
 62
     0
100
AcDbCircle
 10
207.371290454
 20
455.566160212
 40
3
100
AcDbArc
 50
38.614638
 51
87.541074
  0
ARC
  5
23C
100
AcDbEntity
  8
_0-3_躯体と製品
  6
CONTINUOUS
 62
     0
100
AcDbCircle
 10
205.500001454
 20
454.063400212
 40
5.4
100
AcDbArc
 50
0
 51
38.851062
  0
ARC
  5
23D
100
AcDbEntity
  8
_0-3_躯体と製品
  6
CONTINUOUS
 62
     0
100
AcDbCircle
 10
205.500001454
 20
454.063400212
 40
5.4
100
AcDbArc
 50
-38.682187
 51
0
  0
ARC
  5
23E
100
AcDbEntity
  8
_0-3_躯体と製品
  6
CONTINUOUS
 62
     0
100
AcDbCircle
 10
207.371290454
 20
452.560637212
 40
3
100
AcDbArc
 50
-87.541074
 51
-38.614638
  0
LINE
  5
23F
100
AcDbEntity
  8
_0-3_躯体と製品
  6
CONTINUOUS
 62
     0
100
AcDbLine
 10
218.1654195065
 20
503.5087134167
 11
219.5596100462
 21
498.2524495603
  0
LINE
  5
240
100
AcDbEntity
  8
_0-3_躯体と製品
  6
CONTINUOUS
 62
     0
100
AcDbLine
 10
215.8403899538
 20
512.2743508637
 11
217.1090440184
 21
507.4913744222
  0
LINE
  5
241
100
AcDbEntity
  8
_0-3_躯体と製品
  6
CONTINUOUS
 62
     0
100
AcDbLine
 10
223.0616090456
 20
497.763400212
 11
225.8846604662
 21
500.5864516326
  0
LINE
  5
242
100
AcDbEntity
  8
_0-3_躯体と製品
  6
CONTINUOUS
 62
     0
100
AcDbLine
 10
220.2331819208
 20
497.763400212
 11
225.5810195142
 21
503.1112378053
  0
LINE
  5
243
100
AcDbEntity
  8
_0-3_躯体と製品
  6
CONTINUOUS
 62
     0
100
AcDbLine
 10
219.7
 20
500.0586454159
 11
225.506321796
 21
505.8649672119
  0
LINE
  5
244
100
AcDbEntity
  8
_0-3_躯体と製品
  6
CONTINUOUS
 62
     0
100
AcDbLine
 10
219.7
 20
502.8870725407
 11
225.7347444201
 21
508.9218169608
  0
LINE
  5
245
100
AcDbEntity
  8
_0-3_躯体と製品
  6
CONTINUOUS
 62
     0
100
AcDbLine
 10
219.7
 20
505.7154996654
 11
226.4106390679
 21
512.4261387333
  0
LINE
  5
246
100
AcDbEntity
  8
_0-3_躯体と製品
  6
CONTINUOUS
 62
     0
100
AcDbLine
 10
219.7
 20
508.5439267902
 11
223.9194734218
 21
512.763400212
  0
LINE
  5
247
100
AcDbEntity
  8
_0-3_躯体と製品
  6
CONTINUOUS
 62
     0
100
AcDbLine
 10
219.7
 20
511.3723539149
 11
221.0910462971
 21
512.763400212
  0
ARC
  5
248
100
AcDbEntity
  8
_0-3_躯体と製品
  6
CONTINUOUS
 62
     0
100
AcDbCircle
 10
254.125
 20
505.263400212
 40
28.625
100
AcDbArc
 50
164.8107132628
 51
195.1892867372
  0
LINE
  5
249
100
AcDbEntity
  8
_0-3_躯体と製品
  6
CONTINUOUS
 62
     0
100
AcDbLine
 10
226.5
 20
577.763400212
 11
226.5
 21
512.763400212
  0
TEXT
  5
24A
100
AcDbEntity
  8
_0-2_寸法
  6
CONTINUOUS
 62
     0
100
AcDbText
 10
423.5
 20
484.2167122228
 40
5
  1
（キャップ幅）
  7
STANDARD
100
AcDbText
  0
LINE
  5
24B
100
AcDbEntity
  8
_0-3_躯体と製品
  6
CONTINUOUS
 62
     0
100
AcDbLine
 10
202.5
 20
410
 11
202.5
 21
467.763400212
  0
LINE
  5
24C
100
AcDbEntity
  8
_0-3_躯体と製品
  6
CONTINUOUS
 62
     0
100
AcDbLine
 10
203.5
 20
410
 11
203.5
 21
497.763400212
  0
LINE
  5
24D
100
AcDbEntity
  8
_0-3_躯体と製品
  6
CONTINUOUS
 62
     0
100
AcDbLine
 10
219.7
 20
498.763400212
 11
219.7
 21
511.763400212
  0
LINE
  5
24E
100
AcDbEntity
  8
_0-3_躯体と製品
  6
CONTINUOUS
 62
     0
100
AcDbLine
 10
215.7
 20
508.063400212
 11
215.7
 21
511.763400212
  0
ARC
  5
24F
100
AcDbEntity
  8
_0-3_躯体と製品
  6
CONTINUOUS
 62
     0
100
AcDbCircle
 10
216.7
 20
511.763400212
 40
1
100
AcDbArc
 50
90
 51
180
  0
LINE
  5
250
100
AcDbEntity
  8
_0-3_躯体と製品
  6
CONTINUOUS
 62
     0
100
AcDbLine
 10
218.7
 20
512.763400212
 11
216.7
 21
512.763400212
  0
ARC
  5
251
100
AcDbEntity
  8
_0-3_躯体と製品
  6
CONTINUOUS
 62
     0
100
AcDbCircle
 10
218.7
 20
511.763400212
 40
1
100
AcDbArc
 50
0
 51
90
  0
LINE
  5
252
100
AcDbEntity
  8
_0-3_躯体と製品
  6
CONTINUOUS
 62
     0
100
AcDbLine
 10
202.5
 20
497.763400212
 11
203.5
 21
497.763400212
  0
LINE
  5
253
100
AcDbEntity
  8
_0-3_躯体と製品
  6
CONTINUOUS
 62
     0
100
AcDbLine
 10
201.5
 20
497.3871342582
 11
202.5
 21
496.3871342582
  0
LINE
  5
254
100
AcDbEntity
  8
_0-3_躯体と製品
  6
CONTINUOUS
 62
     0
100
AcDbLine
 10
201.5
 20
495.9729206959
 11
202.5
 21
494.9729206959
  0
LINE
  5
255
100
AcDbEntity
  8
_0-3_躯体と製品
  6
CONTINUOUS
 62
     0
100
AcDbLine
 10
201.5
 20
494.5587071335
 11
202.5
 21
493.5587071335
  0
LINE
  5
256
100
AcDbEntity
  8
_0-3_躯体と製品
  6
CONTINUOUS
 62
     0
100
AcDbLine
 10
201.5
 20
493.1444935711
 11
202.5
 21
492.1444935711
  0
LINE
  5
257
100
AcDbEntity
  8
_0-3_躯体と製品
  6
CONTINUOUS
 62
     0
100
AcDbLine
 10
201.5
 20
491.7302800088
 11
202.5
 21
490.7302800088
  0
LINE
  5
258
100
AcDbEntity
  8
_0-3_躯体と製品
  6
CONTINUOUS
 62
     0
100
AcDbLine
 10
201.5
 20
490.3160664464
 11
202.5
 21
489.3160664464
  0
LINE
  5
259
100
AcDbEntity
  8
_0-3_躯体と製品
  6
CONTINUOUS
 62
     0
100
AcDbLine
 10
201.5
 20
488.901852884
 11
202.5
 21
487.901852884
  0
LINE
  5
25A
100
AcDbEntity
  8
_0-3_躯体と製品
  6
CONTINUOUS
 62
     0
100
AcDbLine
 10
201.5
 20
487.4876393216
 11
202.5
 21
486.4876393216
  0
LINE
  5
25B
100
AcDbEntity
  8
_0-3_躯体と製品
  6
CONTINUOUS
 62
     0
100
AcDbLine
 10
201.5
 20
486.0734257593
 11
202.5
 21
485.0734257593
  0
LINE
  5
25C
100
AcDbEntity
  8
_0-3_躯体と製品
  6
CONTINUOUS
 62
     0
100
AcDbLine
 10
201.5
 20
484.6592121969
 11
202.5
 21
483.6592121969
  0
LINE
  5
25D
100
AcDbEntity
  8
_0-3_躯体と製品
  6
CONTINUOUS
 62
     0
100
AcDbLine
 10
201.5
 20
483.2449986345
 11
202.5
 21
482.2449986345
  0
LINE
  5
25E
100
AcDbEntity
  8
_0-3_躯体と製品
  6
CONTINUOUS
 62
     0
100
AcDbLine
 10
201.5
 20
481.8307850721
 11
202.5
 21
480.8307850721
  0
LINE
  5
25F
100
AcDbEntity
  8
_0-3_躯体と製品
  6
CONTINUOUS
 62
     0
100
AcDbLine
 10
201.5
 20
480.4165715098
 11
202.5
 21
479.4165715098
  0
LINE
  5
260
100
AcDbEntity
  8
_0-3_躯体と製品
  6
CONTINUOUS
 62
     0
100
AcDbLine
 10
201.5
 20
479.0023579474
 11
202.5
 21
478.0023579474
  0
LINE
  5
261
100
AcDbEntity
  8
_0-3_躯体と製品
  6
CONTINUOUS
 62
     0
100
AcDbLine
 10
201.5
 20
477.588144385
 11
202.5
 21
476.588144385
  0
LINE
  5
262
100
AcDbEntity
  8
_0-3_躯体と製品
  6
CONTINUOUS
 62
     0
100
AcDbLine
 10
201.5
 20
476.1739308226
 11
202.5
 21
475.1739308226
  0
LINE
  5
263
100
AcDbEntity
  8
_0-3_躯体と製品
  6
CONTINUOUS
 62
     0
100
AcDbLine
 10
201.5
 20
474.7597172603
 11
202.5
 21
473.7597172603
  0
LINE
  5
264
100
AcDbEntity
  8
_0-3_躯体と製品
  6
CONTINUOUS
 62
     0
100
AcDbLine
 10
201.5
 20
473.3455036979
 11
202.5
 21
472.3455036979
  0
LINE
  5
265
100
AcDbEntity
  8
_0-3_躯体と製品
  6
CONTINUOUS
 62
     0
100
AcDbLine
 10
201.5
 20
471.9312901355
 11
202.5
 21
470.9312901355
  0
LINE
  5
266
100
AcDbEntity
  8
_0-3_躯体と製品
  6
CONTINUOUS
 62
     0
100
AcDbLine
 10
201.5
 20
470.5170765732
 11
202.5
 21
469.5170765732
  0
LINE
  5
267
100
AcDbEntity
  8
_0-3_躯体と製品
  6
CONTINUOUS
 62
     0
100
AcDbLine
 10
201.5
 20
469.1028630108
 11
202.5
 21
468.1028630108
  0
LINE
  5
268
100
AcDbEntity
  8
_0-3_躯体と製品
  6
CONTINUOUS
 62
     0
100
AcDbLine
 10
201.5
 20
497.763400212
 11
201.5
 21
467.763400212
  0
LINE
  5
269
100
AcDbEntity
  8
_0-3_躯体と製品
  6
CONTINUOUS
 62
     0
100
AcDbLine
 10
201.5
 20
467.763400212
 11
202.5
 21
467.763400212
  0
LINE
  5
26A
100
AcDbEntity
  8
_0-3_躯体と製品
  6
CONTINUOUS
 62
     0
100
AcDbLine
 10
202.5
 20
467.763400212
 11
202.5
 21
497.763400212
  0
LINE
  5
26B
100
AcDbEntity
  8
_0-3_躯体と製品
  6
CONTINUOUS
 62
     0
100
AcDbLine
 10
202.5
 20
497.763400212
 11
201.5
 21
497.763400212
  0
LINE
  5
26C
100
AcDbEntity
  8
_0-3_躯体と製品
  6
CONTINUOUS
 62
     0
100
AcDbLine
 10
201.5
 20
512.763400212
 11
201.5
 21
386
  0
LINE
  5
26D
100
AcDbEntity
  8
_0-3_躯体と製品
  6
CONTINUOUS
 62
     0
100
AcDbLine
 10
201.5
 20
512.763400212
 11
226.5
 21
512.763400212
  0
LINE
  5
26E
100
AcDbEntity
  8
_0-3_躯体と製品
  6
CONTINUOUS
 62
     0
100
AcDbLine
 10
214.600002
 20
454.063400212
 11
142.5
 21
454.063400212
  0
LINE
  5
26F
100
AcDbEntity
  8
_0-3_躯体と製品
  6
CONTINUOUS
 62
     0
100
AcDbLine
 10
204.3772773174
 20
504.563400212
 11
221.245311
 21
504.563400212
  0
LINE
  5
270
100
AcDbEntity
  8
_0-4_図枠
  6
CONTINUOUS
 62
     0
100
AcDbLine
 10
335.7
 20
456.5077561103
 11
335.7
 21
459.1281450744
  0
LINE
  5
271
100
AcDbEntity
  8
_0-4_図枠
  6
CONTINUOUS
 62
     0
100
AcDbLine
 10
285.7
 20
459.1281450744
 11
335.7
 21
456.5077561103
  0
LINE
  5
272
100
AcDbEntity
  8
_0-4_図枠
  6
CONTINUOUS
 62
     0
100
AcDbLine
 10
285.7
 20
459.1281450744
 11
335.7
 21
459.1281450744
  0
ARC
  5
273
100
AcDbEntity
  8
_0-3_躯体と製品
  6
CONTINUOUS
 62
     0
100
AcDbCircle
 10
226.5
 20
385
 40
2
100
AcDbArc
 50
5
 51
90
  0
ARC
  5
274
100
AcDbEntity
  8
_0-3_躯体と製品
  6
CONTINUOUS
 62
     0
100
AcDbCircle
 10
226.5
 20
410
 40
23
100
AcDbArc
 50
180
 51
270
  0
LINE
  5
275
100
AcDbEntity
  8
_0-3_躯体と製品
  6
CONTINUOUS
 62
     0
100
AcDbLine
 10
202.5
 20
451.563400212
 11
201.5
 21
451.563400212
  0
LINE
  5
276
100
AcDbEntity
  8
_0-3_躯体と製品
  6
CONTINUOUS
 62
     0
100
AcDbLine
 10
202.5
 20
456.563400212
 11
201.5
 21
456.563400212
  0
ARC
  5
277
100
AcDbEntity
  8
_0-3_躯体と製品
  6
CONTINUOUS
 62
     0
100
AcDbCircle
 10
225.9454504877
 20
458.6547912479
 40
1.5
100
AcDbArc
 50
30.58648210807
 51
54.25163227456
  0
LINE
  5
278
100
AcDbEntity
  8
_0-3_躯体と製品
  6
CONTINUOUS
 62
     0
100
AcDbLine
 10
226.8217903049
 20
459.872177187
 11
225.6472925896
 21
460.7176437562
  0
ARC
  5
279
100
AcDbEntity
  8
_0-3_躯体と製品
  6
CONTINUOUS
 62
     0
100
AcDbCircle
 10
326.5
 20
363.7690725588
 40
96.76907255882
100
AcDbArc
 50
-175
 51
-4.999999999999
  0
ARC
  5
27A
100
AcDbEntity
  8
_0-3_躯体と製品
  6
CONTINUOUS
 62
     0
100
AcDbCircle
 10
326.5
 20
363.7690725588
 40
95.76907255882
100
AcDbArc
 50
-175
 51
-4.999999999999
  0
LINE
  5
27B
100
AcDbEntity
  8
_0-3_躯体と製品
  6
CONTINUOUS
 62
     0
100
AcDbLine
 10
228.4923893962
 20
385.1743114855
 11
231.0953576757
 21
355.4222479077
  0
LINE
  5
27C
100
AcDbEntity
  8
_0-3_躯体と製品
  6
CONTINUOUS
 62
     0
100
AcDbLine
 10
227.4961946981
 20
385.0871557427
 11
230.0991629777
 21
355.335092165
  0
ARC
  5
27D
100
AcDbEntity
  8
_0-3_躯体と製品
  6
CONTINUOUS
 62
     0
100
AcDbCircle
 10
226.5
 20
410
 40
24
100
AcDbArc
 50
180
 51
270
  0
ARC
  5
27E
100
AcDbEntity
  8
_0-3_躯体と製品
  6
CONTINUOUS
 62
     0
100
AcDbCircle
 10
226.5
 20
385
 40
1
100
AcDbArc
 50
5
 51
90
  0
TEXT
  5
27F
100
AcDbEntity
  8
_0-4_図枠
  6
CONTINUOUS
 62
     0
100
AcDbText
 10
297.2
 20
459.1124221098
 40
5
  1
勾配３度
  7
STANDARD
100
AcDbText
  0
ARC
  5
280
100
AcDbEntity
  8
_0-3_躯体と製品
  6
CONTINUOUS
 62
     0
100
AcDbCircle
 10
229.9915023674
 20
461.0463313765
 40
3.2
100
AcDbArc
 50
-149.4135178919
 51
-35.44412186072
  0
ARC
  5
281
100
AcDbEntity
  8
_0-3_躯体と製品
  6
CONTINUOUS
 62
     0
100
AcDbCircle
 10
225.4136019716
 20
460.3930075057
 40
0.4
100
AcDbArc
 50
54.25163227457
 51
234.2516322746
  0
LINE
  5
282
100
AcDbEntity
  8
_0-3_躯体と製品
  6
CONTINUOUS
 62
     0
100
AcDbLine
 10
213.1074803282
 20
451.917462017
 11
233.5738852031
 21
450.8448631876
  0
LINE
  5
283
100
AcDbEntity
  8
_0-3_躯体と製品
  6
CONTINUOUS
 62
     0
100
AcDbLine
 10
213.3429921313
 20
456.4112949234
 11
233.8093970062
 21
455.338696094
  0
LINE
  5
284
100
AcDbEntity
  8
_0-3_躯体と製品
  6
CONTINUOUS
 62
     0
100
AcDbLine
 10
648.0051421263
 20
429.1254413468
 11
654.320187503
 21
428.7944838425
  0
LINE
  5
285
100
AcDbEntity
  8
_0-3_躯体と製品
  6
CONTINUOUS
 62
     0
100
AcDbLine
 10
648.2406539294
 20
433.6192742532
 11
654.5556993061
 21
433.2883167489
  0
LINE
  5
286
100
AcDbEntity
  8
_0-3_躯体と製品
  6
CONTINUOUS
 62
     0
100
AcDbLine
 10
665.565450337
 20
358.0879154213
 11
665.565450337
 21
357.5879154213
  0
LINE
  5
287
100
AcDbEntity
  8
_0-3_躯体と製品
  6
CONTINUOUS
 62
     0
100
AcDbLine
 10
233.7180211121
 20
460.763400212
 11
232.5984830587
 21
459.1906235129
  0
ARC
  5
288
100
AcDbEntity
  8
_0-3_躯体と製品
  6
CONTINUOUS
 62
     0
100
AcDbCircle
 10
225.9454504877
 20
458.6547912479
 40
0.7
100
AcDbArc
 50
30.58648210807
 51
54.25163227457
  0
ARC
  5
289
100
AcDbEntity
  8
_0-3_躯体と製品
  6
CONTINUOUS
 62
     0
100
AcDbCircle
 10
229.9915023674
 20
461.0463313765
 40
4
100
AcDbArc
 50
-149.4135178919
 51
-35.44412186071
  0
LINE
  5
28A
100
AcDbEntity
  8
_0-3_躯体と製品
  6
CONTINUOUS
 62
     0
100
AcDbLine
 10
226.3544090691
 20
459.2229046862
 11
225.1799113537
 21
460.0683712553
  0
LINE
  5
28B
100
AcDbEntity
  8
_0-3_躯体と製品
  6
CONTINUOUS
 62
     0
100
AcDbLine
 10
216.7
 20
497.763400212
 11
218.7
 21
497.763400212
  0
ARC
  5
28C
100
AcDbEntity
  8
_0-3_躯体と製品
  6
CONTINUOUS
 62
     0
100
AcDbCircle
 10
218.7
 20
498.763400212
 40
1
100
AcDbArc
 50
-90
 51
0
  0
ARC
  5
28D
100
AcDbEntity
  8
_0-3_躯体と製品
  6
CONTINUOUS
 62
     0
100
AcDbCircle
 10
216.7
 20
498.763400212
 40
1
100
AcDbArc
 50
180
 51
270
  0
LINE
  5
28E
100
AcDbEntity
  8
_0-3_躯体と製品
  6
CONTINUOUS
 62
     0
100
AcDbLine
 10
215.7
 20
507.563400212
 11
215.7
 21
498.763400212
  0
ARC
  5
28F
100
AcDbEntity
  8
_0-3_躯体と製品
  6
CONTINUOUS
 62
     0
100
AcDbCircle
 10
214.1
 20
504.563400212
 40
4.2
100
AcDbArc
 50
14.09578924417
 51
42.74124453868
  0
ARC
  5
290
100
AcDbEntity
  8
_0-3_躯体と製品
  6
CONTINUOUS
 62
     0
100
AcDbCircle
 10
214.1
 20
504.563400212
 40
4.2
100
AcDbArc
 50
-42.74124453868
 51
-14.09578924417
  0
LINE
  5
291
100
AcDbEntity
  8
_0-3_躯体と製品
  6
CONTINUOUS
 62
     0
100
AcDbLine
 10
217.7657195747
 20
505.063400212
 11
217.7657195747
 21
504.063400212
  0
ARC
  5
292
100
AcDbEntity
  8
_0-3_躯体と製品
  6
CONTINUOUS
 62
     0
100
AcDbCircle
 10
217.7657195747
 20
505.4838789354
 40
0.4204787234043
100
AcDbArc
 50
-90
 51
14.09578924417
  0
LINE
  5
293
100
AcDbEntity
  8
_0-3_躯体と製品
  6
CONTINUOUS
 62
     0
100
AcDbLine
 10
215.7
 20
501.063400212
 11
215.7
 21
508.063400212
  0
ARC
  5
294
100
AcDbEntity
  8
_0-3_躯体と製品
  6
CONTINUOUS
 62
     0
100
AcDbCircle
 10
215.7
 20
503.0848287834
 40
2.021428571429
100
AcDbArc
 50
-90
 51
-42.74124453868
  0
ARC
  5
295
100
AcDbEntity
  8
_0-3_躯体と製品
  6
CONTINUOUS
 62
     0
100
AcDbCircle
 10
215.7
 20
506.0419716406
 40
2.021428571429
100
AcDbArc
 50
42.74124453868
 51
90
  0
ARC
  5
296
100
AcDbEntity
  8
_0-3_躯体と製品
  6
CONTINUOUS
 62
     0
100
AcDbCircle
 10
217.7657195747
 20
503.6429214886
 40
0.4204787234043
100
AcDbArc
 50
-14.09578924417
 51
90
  0
ARC
  5
297
100
AcDbEntity
  8
_0-3_躯体と製品
  6
CONTINUOUS
 62
     0
100
AcDbCircle
 10
226
 20
463.1374535431
 40
0.3
100
AcDbArc
 50
85.25268174597
 51
180
  0
LINE
  5
298
100
AcDbEntity
  8
_0-3_躯体と製品
  6
CONTINUOUS
 62
     0
100
AcDbLine
 10
226.0248284689
 20
463.4364243563
 11
231.6794162637
 21
462.9668308347
  0
LINE
  5
299
100
AcDbEntity
  8
_0-3_躯体と製品
  6
CONTINUOUS
 62
     0
100
AcDbLine
 10
225.7
 20
463.1374535431
 11
225.7
 21
462.063400212
  0
ARC
  5
29A
100
AcDbEntity
  8
_0-3_躯体と製品
  6
CONTINUOUS
 62
     0
100
AcDbCircle
 10
225.7
 20
463.463400212
 40
1
100
AcDbArc
 50
85.25268174597
 51
180
  0
LINE
  5
29B
100
AcDbEntity
  8
_0-3_躯体と製品
  6
CONTINUOUS
 62
     0
100
AcDbLine
 10
225.7827615629
 20
464.4599695893
 11
231.263893138
 21
464.0047809934
  0
LINE
  5
29C
100
AcDbEntity
  8
_0-3_躯体と製品
  6
CONTINUOUS
 62
     0
100
AcDbLine
 10
224.7
 20
463.463400212
 11
224.7
 21
461.763400212
  0
LINE
  5
29D
100
AcDbEntity
  8
_0-3_躯体と製品
  6
CONTINUOUS
 62
     0
100
AcDbLine
 10
231.803558608
 20
464.4616849006
 11
231.8449393895
 21
464.9599695893
  0
ARC
  5
29E
100
AcDbEntity
  8
_0-3_躯体と製品
  6
CONTINUOUS
 62
     0
100
AcDbCircle
 10
231.7621778266
 20
463.963400212
 40
1
100
AcDbArc
 50
-94.74731825403
 51
-4.747318257725
  0
LINE
  5
29F
100
AcDbEntity
  8
_0-3_躯体と製品
  6
CONTINUOUS
 62
     0
100
AcDbLine
 10
232.7587472038
 20
463.8806386491
 11
232.8415087668
 21
464.8772080264
  0
ARC
  5
2A0
100
AcDbEntity
  8
_0-3_躯体と製品
  6
CONTINUOUS
 62
     0
100
AcDbCircle
 10
232.3432240781
 20
464.9185888078
 40
0.4999999999355
100
AcDbArc
 50
-4.747318254022
 51
175.252681746
  0
ARC
  5
2A1
100
AcDbEntity
  8
_0-3_躯体と製品
  6
CONTINUOUS
 62
     0
100
AcDbCircle
 10
231.3052739194
 20
464.5030656821
 40
0.5
100
AcDbArc
 50
-94.74731825403
 51
-4.747318257728
  0
ARC
  5
2A2
100
AcDbEntity
  8
_0-3_躯体と製品
  6
CONTINUOUS
 62
     0
100
AcDbCircle
 10
225.7
 20
461.763400212
 40
1
100
AcDbArc
 50
180
 51
270
  0
LINE
  5
2A3
100
AcDbEntity
  8
_0-3_躯体と製品
  6
CONTINUOUS
 62
     0
100
AcDbLine
 10
226
 20
461.763400212
 11
234.2
 21
461.763400212
  0
LINE
  5
2A4
100
AcDbEntity
  8
_0-3_躯体と製品
  6
CONTINUOUS
 62
     0
100
AcDbLine
 10
234.7
 20
461.263400212
 11
234.7
 21
460.763400212
  0
ARC
  5
2A5
100
AcDbEntity
  8
_0-3_躯体と製品
  6
CONTINUOUS
 62
     0
100
AcDbCircle
 10
234.2
 20
461.263400212
 40
0.5
100
AcDbArc
 50
0
 51
90
  0
LINE
  5
2A6
100
AcDbEntity
  8
_0-3_躯体と製品
  6
CONTINUOUS
 62
     0
100
AcDbLine
 10
225.7
 20
460.763400212
 11
234.7
 21
460.763400212
  0
CIRCLE
  5
2A7
100
AcDbEntity
  8
_0-3_躯体と製品
  6
CONTINUOUS
 62
     0
100
AcDbCircle
 10
235.7
 20
497.763400212
 40
1.4
  0
LINE
  5
2A8
100
AcDbEntity
  8
_0-3_躯体と製品
  6
CONTINUOUS
 62
     0
100
AcDbLine
 10
214.5
 20
502.563400212
 11
215.7
 21
502.563400212
  0
LINE
  5
2A9
100
AcDbEntity
  8
_0-3_躯体と製品
  6
CONTINUOUS
 62
     0
100
AcDbLine
 10
214.5
 20
506.563400212
 11
215.7
 21
506.563400212
  0
LINE
  5
2AA
100
AcDbEntity
  8
_0-3_躯体と製品
  6
CONTINUOUS
 62
     0
100
AcDbLine
 10
234.5
 20
463.963400212
 11
234.5
 21
495.563400212
  0
ARC
  5
2AB
100
AcDbEntity
  8
_0-3_躯体と製品
  6
CONTINUOUS
 62
     0
100
AcDbCircle
 10
233.5
 20
463.963400212
 40
1
100
AcDbArc
 50
-90
 51
0
  0
LINE
  5
2AC
100
AcDbEntity
  8
_0-3_躯体と製品
  6
CONTINUOUS
 62
     0
100
AcDbLine
 10
233.5
 20
462.963400212
 11
225.7
 21
462.963400212
  0
ARC
  5
2AD
100
AcDbEntity
  8
_0-3_躯体と製品
  6
CONTINUOUS
 62
     0
100
AcDbCircle
 10
233.5
 20
463.963400212
 40
2.2
100
AcDbArc
 50
-90
 51
0
  0
LINE
  5
2AE
100
AcDbEntity
  8
_0-3_躯体と製品
  6
CONTINUOUS
 62
     0
100
AcDbLine
 10
225.7
 20
462.963400212
 11
225.7
 21
461.763400212
  0
LINE
  5
2AF
100
AcDbEntity
  8
_0-3_躯体と製品
  6
CONTINUOUS
 62
     0
100
AcDbLine
 10
216.7
 20
496.563400212
 11
233.5
 21
496.563400212
  0
LINE
  5
2B0
100
AcDbEntity
  8
_0-3_躯体と製品
  6
CONTINUOUS
 62
     0
100
AcDbLine
 10
205.7
 20
509.763400212
 11
205.7
 21
508.563400212
  0
LINE
  5
2B1
100
AcDbEntity
  8
_0-3_躯体と製品
  6
CONTINUOUS
 62
     0
100
AcDbLine
 10
205.7
 20
508.563400212
 11
213.5
 21
508.563400212
  0
ARC
  5
2B2
100
AcDbEntity
  8
_0-3_躯体と製品
  6
CONTINUOUS
 62
     0
100
AcDbCircle
 10
233.5
 20
495.563400212
 40
2.2
100
AcDbArc
 50
0
 51
90
  0
ARC
  5
2B3
100
AcDbEntity
  8
_0-3_躯体と製品
  6
CONTINUOUS
 62
     0
100
AcDbCircle
 10
216.7
 20
498.763400212
 40
2.2
100
AcDbArc
 50
180
 51
270
  0
ARC
  5
2B4
100
AcDbEntity
  8
_0-3_躯体と製品
  6
CONTINUOUS
 62
     0
100
AcDbCircle
 10
233.5
 20
495.563400212
 40
1
100
AcDbArc
 50
0
 51
90
  0
ARC
  5
2B5
100
AcDbEntity
  8
_0-3_躯体と製品
  6
CONTINUOUS
 62
     0
100
AcDbCircle
 10
216.7
 20
498.763400212
 40
1
100
AcDbArc
 50
180
 51
270
  0
LINE
  5
2B6
100
AcDbEntity
  8
_0-3_躯体と製品
  6
CONTINUOUS
 62
     0
100
AcDbLine
 10
214.5
 20
498.763400212
 11
214.5
 21
507.563400212
  0
ARC
  5
2B7
100
AcDbEntity
  8
_0-3_躯体と製品
  6
CONTINUOUS
 62
     0
100
AcDbCircle
 10
213.5
 20
507.563400212
 40
2.2
100
AcDbArc
 50
0
 51
90
  0
LINE
  5
2B8
100
AcDbEntity
  8
_0-3_躯体と製品
  6
CONTINUOUS
 62
     0
100
AcDbLine
 10
213.5
 20
509.763400212
 11
205.7
 21
509.763400212
  0
ARC
  5
2B9
100
AcDbEntity
  8
_0-3_躯体と製品
  6
CONTINUOUS
 62
     0
100
AcDbCircle
 10
213.5
 20
507.563400212
 40
1
100
AcDbArc
 50
0
 51
90
  0
LINE
  5
2BA
100
AcDbEntity
  8
_0-3_躯体と製品
  6
CONTINUOUS
 62
     0
100
AcDbLine
 10
205.7
 20
509.751056212
 11
205.712344
 21
509.763400212
  0
LINE
  5
2BB
100
AcDbEntity
  8
_0-3_躯体と製品
  6
CONTINUOUS
 62
     0
100
AcDbLine
 10
214.5
 20
502.563400212
 11
211.5
 21
502.563400212
  0
LINE
  5
2BC
100
AcDbEntity
  8
_0-3_躯体と製品
  6
CONTINUOUS
 62
     0
100
AcDbLine
 10
214.5
 20
503.063400212
 11
206
 21
503.063400212
  0
LINE
  5
2BD
100
AcDbEntity
  8
_0-3_躯体と製品
  6
CONTINUOUS
 62
     0
100
AcDbLine
 10
214.5
 20
506.063400212
 11
206
 21
506.063400212
  0
LINE
  5
2BE
100
AcDbEntity
  8
_0-3_躯体と製品
  6
CONTINUOUS
 62
     0
100
AcDbLine
 10
214.5
 20
506.563400212
 11
211.5
 21
506.563400212
  0
LINE
  5
2BF
100
AcDbEntity
  8
_0-3_躯体と製品
  6
CONTINUOUS
 62
     0
100
AcDbLine
 10
206.5
 20
506.563400212
 11
206.5
 21
502.563400212
  0
LINE
  5
2C0
100
AcDbEntity
  8
_0-3_躯体と製品
  6
CONTINUOUS
 62
     0
100
AcDbLine
 10
206
 20
506.063400212
 11
206
 21
503.063400212
  0
LINE
  5
2C1
100
AcDbEntity
  8
_0-3_躯体と製品
  6
CONTINUOUS
 62
     0
100
AcDbLine
 10
206
 20
506.063400212
 11
206.5
 21
506.563400212
  0
LINE
  5
2C2
100
AcDbEntity
  8
_0-3_躯体と製品
  6
CONTINUOUS
 62
     0
100
AcDbLine
 10
206
 20
503.063400212
 11
206.5
 21
502.563400212
  0
LINE
  5
2C3
100
AcDbEntity
  8
_0-3_躯体と製品
  6
CONTINUOUS
 62
     0
100
AcDbLine
 10
213.2000001803
 20
500.1530579245
 11
213.4103424678
 21
500.363400212
  0
LINE
  5
2C4
100
AcDbEntity
  8
_0-3_躯体と製品
  6
CONTINUOUS
 62
     0
100
AcDbLine
 10
213.2000013925
 20
498.7388455743
 11
214.000001
 21
499.5388451818
  0
LINE
  5
2C5
100
AcDbEntity
  8
_0-3_躯体と製品
  6
CONTINUOUS
 62
     0
100
AcDbLine
 10
213.2000026047
 20
497.3246332241
 11
214.000001
 21
498.1246316194
  0
LINE
  5
2C6
100
AcDbEntity
  8
_0-3_躯体と製品
  6
CONTINUOUS
 62
     0
100
AcDbLine
 10
213.4237790449
 20
496.134196102
 11
214.0184427256
 21
496.7288597827
  0
LINE
  5
2C7
100
AcDbEntity
  8
_0-3_躯体と製品
  6
CONTINUOUS
 62
     0
100
AcDbLine
 10
214.2850875053
 20
495.581291
 11
215.0671977173
 21
496.363401212
  0
LINE
  5
2C8
100
AcDbEntity
  8
_0-3_躯体と製品
  6
CONTINUOUS
 62
     0
100
AcDbLine
 10
215.6814102797
 20
495.563400212
 11
216.4814112797
 21
496.363401212
  0
LINE
  5
2C9
100
AcDbEntity
  8
_0-3_躯体と製品
  6
CONTINUOUS
 62
     0
100
AcDbLine
 10
217.095623842
 20
495.563400212
 11
217.895624842
 21
496.363401212
  0
LINE
  5
2CA
100
AcDbEntity
  8
_0-3_躯体と製品
  6
CONTINUOUS
 62
     0
100
AcDbLine
 10
218.5098374044
 20
495.563400212
 11
219.3098384044
 21
496.363401212
  0
LINE
  5
2CB
100
AcDbEntity
  8
_0-3_躯体と製品
  6
CONTINUOUS
 62
     0
100
AcDbLine
 10
219.9240509668
 20
495.563400212
 11
220.7240519668
 21
496.363401212
  0
LINE
  5
2CC
100
AcDbEntity
  8
_0-3_躯体と製品
  6
CONTINUOUS
 62
     0
100
AcDbLine
 10
221.3382645292
 20
495.563400212
 11
222.1382655292
 21
496.363401212
  0
LINE
  5
2CD
100
AcDbEntity
  8
_0-3_躯体と製品
  6
CONTINUOUS
 62
     0
100
AcDbLine
 10
222.7524780915
 20
495.563400212
 11
223.5524790915
 21
496.363401212
  0
LINE
  5
2CE
100
AcDbEntity
  8
_0-3_躯体と製品
  6
CONTINUOUS
 62
     0
100
AcDbLine
 10
224.1666916539
 20
495.563400212
 11
224.9666926539
 21
496.363401212
  0
LINE
  5
2CF
100
AcDbEntity
  8
_0-3_躯体と製品
  6
CONTINUOUS
 62
     0
100
AcDbLine
 10
225.5809052163
 20
495.563400212
 11
226.3809062163
 21
496.363401212
  0
LINE
  5
2D0
100
AcDbEntity
  8
_0-3_躯体と製品
  6
CONTINUOUS
 62
     0
100
AcDbLine
 10
226.9951187787
 20
495.563400212
 11
227.7951197787
 21
496.363401212
  0
LINE
  5
2D1
100
AcDbEntity
  8
_0-3_躯体と製品
  6
CONTINUOUS
 62
     0
100
AcDbLine
 10
228.409332341
 20
495.563400212
 11
229.209333341
 21
496.363401212
  0
LINE
  5
2D2
100
AcDbEntity
  8
_0-3_躯体と製品
  6
CONTINUOUS
 62
     0
100
AcDbLine
 10
229.8235459034
 20
495.563400212
 11
230.6235469034
 21
496.363401212
  0
LINE
  5
2D3
100
AcDbEntity
  8
_0-3_躯体と製品
  6
CONTINUOUS
 62
     0
100
AcDbLine
 10
231.2377594658
 20
495.563400212
 11
232.0377604658
 21
496.363401212
  0
LINE
  5
2D4
100
AcDbEntity
  8
_0-3_躯体と製品
  6
CONTINUOUS
 62
     0
100
AcDbLine
 10
232.6519730281
 20
495.563400212
 11
233.365698075
 21
496.2771252588
  0
LINE
  5
2D5
100
AcDbEntity
  8
_0-3_躯体と製品
  6
CONTINUOUS
 62
     0
100
AcDbLine
 10
233.400002
 20
494.8972156215
 11
234.0898603545
 21
495.587073976
  0
LINE
  5
2D6
100
AcDbEntity
  8
_0-3_躯体と製品
  6
CONTINUOUS
 62
     0
100
AcDbLine
 10
233.400002
 20
493.4830020591
 11
234.2
 21
494.2830000591
  0
LINE
  5
2D7
100
AcDbEntity
  8
_0-3_躯体と製品
  6
CONTINUOUS
 62
     0
100
AcDbLine
 10
233.400002
 20
492.0687884967
 11
234.2
 21
492.8687864967
  0
LINE
  5
2D8
100
AcDbEntity
  8
_0-3_躯体と製品
  6
CONTINUOUS
 62
     0
100
AcDbLine
 10
233.400002
 20
490.6545749344
 11
234.2
 21
491.4545729344
  0
LINE
  5
2D9
100
AcDbEntity
  8
_0-3_躯体と製品
  6
CONTINUOUS
 62
     0
100
AcDbLine
 10
233.400002
 20
489.240361372
 11
234.2
 21
490.040359372
  0
LINE
  5
2DA
100
AcDbEntity
  8
_0-3_躯体と製品
  6
CONTINUOUS
 62
     0
100
AcDbLine
 10
233.400002
 20
487.8261478096
 11
234.2
 21
488.6261458096
  0
LINE
  5
2DB
100
AcDbEntity
  8
_0-3_躯体と製品
  6
CONTINUOUS
 62
     0
100
AcDbLine
 10
233.400002
 20
486.4119342472
 11
234.2
 21
487.2119322472
  0
LINE
  5
2DC
100
AcDbEntity
  8
_0-3_躯体と製品
  6
CONTINUOUS
 62
     0
100
AcDbLine
 10
233.400002
 20
484.9977206849
 11
234.2
 21
485.7977186849
  0
LINE
  5
2DD
100
AcDbEntity
  8
_0-3_躯体と製品
  6
CONTINUOUS
 62
     0
100
AcDbLine
 10
233.400002
 20
483.5835071225
 11
234.2
 21
484.3835051225
  0
LINE
  5
2DE
100
AcDbEntity
  8
_0-3_躯体と製品
  6
CONTINUOUS
 62
     0
100
AcDbLine
 10
233.400002
 20
482.1692935601
 11
234.2
 21
482.9692915601
  0
LINE
  5
2DF
100
AcDbEntity
  8
_0-3_躯体と製品
  6
CONTINUOUS
 62
     0
100
AcDbLine
 10
233.400002
 20
480.7550799977
 11
234.2
 21
481.5550779977
  0
LINE
  5
2E0
100
AcDbEntity
  8
_0-3_躯体と製品
  6
CONTINUOUS
 62
     0
100
AcDbLine
 10
233.400002
 20
479.3408664354
 11
234.2
 21
480.1408644354
  0
LINE
  5
2E1
100
AcDbEntity
  8
_0-3_躯体と製品
  6
CONTINUOUS
 62
     0
100
AcDbLine
 10
233.400002
 20
477.926652873
 11
234.2
 21
478.726650873
  0
LINE
  5
2E2
100
AcDbEntity
  8
_0-3_躯体と製品
  6
CONTINUOUS
 62
     0
100
AcDbLine
 10
233.400002
 20
476.5124393106
 11
234.2
 21
477.3124373106
  0
LINE
  5
2E3
100
AcDbEntity
  8
_0-3_躯体と製品
  6
CONTINUOUS
 62
     0
100
AcDbLine
 10
233.400002
 20
475.0982257482
 11
234.2
 21
475.8982237482
  0
LINE
  5
2E4
100
AcDbEntity
  8
_0-3_躯体と製品
  6
CONTINUOUS
 62
     0
100
AcDbLine
 10
233.400002
 20
473.6840121859
 11
234.2
 21
474.4840101859
  0
LINE
  5
2E5
100
AcDbEntity
  8
_0-3_躯体と製品
  6
CONTINUOUS
 62
     0
100
AcDbLine
 10
233.400002
 20
472.2697986235
 11
234.2
 21
473.0697966235
  0
LINE
  5
2E6
100
AcDbEntity
  8
_0-3_躯体と製品
  6
CONTINUOUS
 62
     0
100
AcDbLine
 10
233.400002
 20
470.8555850611
 11
234.2
 21
471.6555830611
  0
LINE
  5
2E7
100
AcDbEntity
  8
_0-3_躯体と製品
  6
CONTINUOUS
 62
     0
100
AcDbLine
 10
233.400002
 20
469.4413714988
 11
234.2
 21
470.2413694988
  0
LINE
  5
2E8
100
AcDbEntity
  8
_0-3_躯体と製品
  6
CONTINUOUS
 62
     0
100
AcDbLine
 10
233.400002
 20
468.0271579364
 11
234.2
 21
468.8271559364
  0
LINE
  5
2E9
100
AcDbEntity
  8
_0-3_躯体と製品
  6
CONTINUOUS
 62
     0
100
AcDbLine
 10
233.400002
 20
466.612944374
 11
234.2
 21
467.412942374
  0
LINE
  5
2EA
100
AcDbEntity
  8
_0-3_躯体と製品
  6
CONTINUOUS
 62
     0
100
AcDbLine
 10
213.2
 20
500.363400212
 11
213.200003
 21
496.863402212
  0
LINE
  5
2EB
100
AcDbEntity
  8
_0-3_躯体と製品
  6
CONTINUOUS
 62
     0
100
AcDbLine
 10
232.900001
 20
495.563400212
 11
214.500002
 21
495.563400212
  0
LINE
  5
2EC
100
AcDbEntity
  8
_0-3_躯体と製品
  6
CONTINUOUS
 62
     0
100
AcDbLine
 10
233.400002
 20
466.363401212
 11
234.2
 21
466.363401212
  0
LINE
  5
2ED
100
AcDbEntity
  8
_0-3_躯体と製品
  6
CONTINUOUS
 62
     0
100
AcDbLine
 10
234.2
 20
495.063402212
 11
234.2
 21
466.363401212
  0
LINE
  5
2EE
100
AcDbEntity
  8
_0-3_躯体と製品
  6
CONTINUOUS
 62
     0
100
AcDbLine
 10
233.400002
 20
495.063402212
 11
233.400002
 21
466.363401212
  0
ARC
  5
2EF
100
AcDbEntity
  8
_0-3_躯体と製品
  6
CONTINUOUS
 62
     0
100
AcDbCircle
 10
232.900001
 20
495.063402212
 40
0.500001
100
AcDbArc
 50
0
 51
90
  0
ARC
  5
2F0
100
AcDbEntity
  8
_0-3_躯体と製品
  6
CONTINUOUS
 62
     0
100
AcDbCircle
 10
232.900001
 20
495.063402212
 40
1.299999
100
AcDbArc
 50
0
 51
90
  0
LINE
  5
2F1
100
AcDbEntity
  8
_0-3_躯体と製品
  6
CONTINUOUS
 62
     0
100
AcDbLine
 10
232.900001
 20
496.363401212
 11
214.500002
 21
496.363401212
  0
LINE
  5
2F2
100
AcDbEntity
  8
_0-3_躯体と製品
  6
CONTINUOUS
 62
     0
100
AcDbLine
 10
213.2
 20
500.363400212
 11
214.000001
 21
500.363400212
  0
ARC
  5
2F3
100
AcDbEntity
  8
_0-3_躯体と製品
  6
CONTINUOUS
 62
     0
100
AcDbCircle
 10
214.500002
 20
496.863402212
 40
1.299999
100
AcDbArc
 50
180
 51
270
  0
ARC
  5
2F4
100
AcDbEntity
  8
_0-3_躯体と製品
  6
CONTINUOUS
 62
     0
100
AcDbCircle
 10
214.500002
 20
496.863402212
 40
0.500001
100
AcDbArc
 50
180
 51
270
  0
LINE
  5
2F5
100
AcDbEntity
  8
_0-3_躯体と製品
  6
CONTINUOUS
 62
     0
100
AcDbLine
 10
214.000001
 20
496.863402212
 11
214.000001
 21
500.363400212
  0
CIRCLE
  5
2F6
100
AcDbEntity
  8
_0-3_躯体と製品
  6
CONTINUOUS
 62
     0
100
AcDbCircle
 10
235.7
 20
461.763400212
 40
1.4
  0
LINE
  5
2F7
100
AcDbEntity
  8
_0-3_躯体と製品
  6
CONTINUOUS
 62
     0
100
AcDbLine
 10
233.5
 20
497.763400212
 11
216.7
 21
497.763400212
  0
LINE
  5
2F8
100
AcDbEntity
  8
_0-3_躯体と製品
  6
CONTINUOUS
 62
     0
100
AcDbLine
 10
235.7
 20
463.963400212
 11
235.7
 21
495.563400212
  0
LINE
  5
2F9
100
AcDbEntity
  8
_0-3_躯体と製品
  6
CONTINUOUS
 62
     0
100
AcDbLine
 10
233.5
 20
461.763400212
 11
225.7
 21
461.763400212
  0
LINE
  5
2FA
100
AcDbEntity
  8
_0-3_躯体と製品
  6
CONTINUOUS
 62
     0
100
AcDbLine
 10
189.5
 20
458.063399212
 11
201.5
 21
458.063399212
  0
LINE
  5
2FB
100
AcDbEntity
  8
_0-3_躯体と製品
  6
CONTINUOUS
 62
     0
100
AcDbLine
 10
181.699619
 20
449.440163212
 11
186.357599
 21
447.744797212
  0
LINE
  5
2FC
100
AcDbEntity
  8
_0-3_躯体と製品
  6
CONTINUOUS
 62
     0
100
AcDbLine
 10
193.30364
 20
460.385738212
 11
186.69962
 21
459.442307212
  0
LINE
  5
2FD
100
AcDbEntity
  8
_0-3_躯体と製品
  6
CONTINUOUS
 62
     0
100
AcDbLine
 10
167.369444
 20
452.193953212
 11
165.5
 21
454.063400212
  0
LINE
  5
2FE
100
AcDbEntity
  8
_0-3_躯体と製品
  6
CONTINUOUS
 62
     0
100
AcDbLine
 10
166.720178
 20
448.655123212
 11
164.722919
 21
448.550453212
  0
LINE
  5
2FF
100
AcDbEntity
  8
_0-3_躯体と製品
  6
CONTINUOUS
 62
     0
100
AcDbLine
 10
166.615505
 20
450.652382212
 11
166.720178
 21
448.655123212
  0
LINE
  5
300
100
AcDbEntity
  8
_0-3_躯体と製品
  6
CONTINUOUS
 62
     0
100
AcDbLine
 10
168.612764
 20
450.757055212
 11
166.615505
 21
450.652382212
  0
LINE
  5
301
100
AcDbEntity
  8
_0-3_躯体と製品
  6
CONTINUOUS
 62
     0
100
AcDbLine
 10
169.716065
 20
448.812131212
 11
168.612764
 21
450.757055212
  0
LINE
  5
302
100
AcDbEntity
  8
_0-3_躯体と製品
  6
CONTINUOUS
 62
     0
100
AcDbLine
 10
171.713324
 20
448.916804212
 11
169.716065
 21
448.812131212
  0
LINE
  5
303
100
AcDbEntity
  8
_0-3_躯体と製品
  6
CONTINUOUS
 62
     0
100
AcDbLine
 10
171.608654
 20
450.914063212
 11
171.713324
 21
448.916804212
  0
LINE
  5
304
100
AcDbEntity
  8
_0-3_躯体と製品
  6
CONTINUOUS
 62
     0
100
AcDbLine
 10
173.605913
 20
451.018736212
 11
171.608654
 21
450.914063212
  0
LINE
  5
305
100
AcDbEntity
  8
_0-3_躯体と製品
  6
CONTINUOUS
 62
     0
100
AcDbLine
 10
174.709214
 20
449.073812212
 11
173.605913
 21
451.018736212
  0
LINE
  5
306
100
AcDbEntity
  8
_0-3_躯体と製品
  6
CONTINUOUS
 62
     0
100
AcDbLine
 10
176.706473
 20
449.178485212
 11
174.709214
 21
449.073812212
  0
LINE
  5
307
100
AcDbEntity
  8
_0-3_躯体と製品
  6
CONTINUOUS
 62
     0
100
AcDbLine
 10
176.6018
 20
451.175744212
 11
176.706473
 21
449.178485212
  0
LINE
  5
308
100
AcDbEntity
  8
_0-3_躯体と製品
  6
CONTINUOUS
 62
     0
100
AcDbLine
 10
178.599059
 20
451.280414212
 11
176.6018
 21
451.175744212
  0
LINE
  5
309
100
AcDbEntity
  8
_0-3_躯体と製品
  6
CONTINUOUS
 62
     0
100
AcDbLine
 10
179.70236
 20
449.335493212
 11
178.599059
 21
451.280414212
  0
LINE
  5
30A
100
AcDbEntity
  8
_0-3_躯体と製品
  6
CONTINUOUS
 62
     0
100
AcDbLine
 10
181.699619
 20
449.440163212
 11
179.70236
 21
449.335493212
  0
LINE
  5
30B
100
AcDbEntity
  8
_0-3_躯体と製品
  6
CONTINUOUS
 62
     0
100
AcDbLine
 10
181.594949
 20
451.437422212
 11
181.699619
 21
449.440163212
  0
LINE
  5
30C
100
AcDbEntity
  8
_0-3_躯体と製品
  6
CONTINUOUS
 62
     0
100
AcDbLine
 10
183.592208
 20
451.542095212
 11
181.594949
 21
451.437422212
  0
LINE
  5
30D
100
AcDbEntity
  8
_0-3_躯体と製品
  6
CONTINUOUS
 62
     0
100
AcDbLine
 10
184.695509
 20
449.597171212
 11
183.592208
 21
451.542095212
  0
LINE
  5
30E
100
AcDbEntity
  8
_0-3_躯体と製品
  6
CONTINUOUS
 62
     0
100
AcDbLine
 10
162.542483
 20
451.940984212
 11
193.499999
 21
453.563399212
  0
LINE
  5
30F
100
AcDbEntity
  8
_0-3_躯体と製品
  6
CONTINUOUS
 62
     0
100
AcDbLine
 10
162.620987
 20
450.443039212
 11
162.542483
 21
451.940984212
  0
LINE
  5
310
100
AcDbEntity
  8
_0-3_躯体と製品
  6
CONTINUOUS
 62
     0
100
AcDbLine
 10
164.722919
 20
448.550453212
 11
162.620987
 21
450.443039212
  0
LINE
  5
311
100
AcDbEntity
  8
_0-3_躯体と製品
  6
CONTINUOUS
 62
     0
100
AcDbLine
 10
164.539742
 20
452.045657212
 11
164.722919
 21
448.550453212
  0
LINE
  5
312
100
AcDbEntity
  8
_0-3_躯体と製品
  6
CONTINUOUS
 62
     0
100
AcDbLine
 10
186.692768
 20
449.701844212
 11
184.695509
 21
449.597171212
  0
LINE
  5
313
100
AcDbEntity
  8
_0-3_躯体と製品
  6
CONTINUOUS
 62
     0
100
AcDbLine
 10
186.588095
 20
451.699103212
 11
186.692768
 21
449.701844212
  0
LINE
  5
314
100
AcDbEntity
  8
_0-3_躯体と製品
  6
CONTINUOUS
 62
     0
100
AcDbLine
 10
188.585354
 20
451.803773212
 11
186.588095
 21
451.699103212
  0
LINE
  5
315
100
AcDbEntity
  8
_0-3_躯体と製品
  6
CONTINUOUS
 62
     0
100
AcDbLine
 10
201.5
 20
449.063399212
 11
196.499999
 21
450.063398212
  0
LINE
  5
316
100
AcDbEntity
  8
_0-3_躯体と製品
  6
CONTINUOUS
 62
     0
100
AcDbLine
 10
166.720178
 20
459.471674212
 11
164.722919
 21
459.576344212
  0
LINE
  5
317
100
AcDbEntity
  8
_0-3_躯体と製品
  6
CONTINUOUS
 62
     0
100
AcDbLine
 10
166.615505
 20
457.474415212
 11
166.720178
 21
459.471674212
  0
LINE
  5
318
100
AcDbEntity
  8
_0-3_躯体と製品
  6
CONTINUOUS
 62
     0
100
AcDbLine
 10
168.612764
 20
457.369742212
 11
166.615505
 21
457.474415212
  0
LINE
  5
319
100
AcDbEntity
  8
_0-3_躯体と製品
  6
CONTINUOUS
 62
     0
100
AcDbLine
 10
169.716065
 20
459.314666212
 11
168.612764
 21
457.369742212
  0
LINE
  5
31A
100
AcDbEntity
  8
_0-3_躯体と製品
  6
CONTINUOUS
 62
     0
100
AcDbLine
 10
171.713324
 20
459.209993212
 11
169.716065
 21
459.314666212
  0
LINE
  5
31B
100
AcDbEntity
  8
_0-3_躯体と製品
  6
CONTINUOUS
 62
     0
100
AcDbLine
 10
171.608654
 20
457.212734212
 11
171.713324
 21
459.209993212
  0
LINE
  5
31C
100
AcDbEntity
  8
_0-3_躯体と製品
  6
CONTINUOUS
 62
     0
100
AcDbLine
 10
173.605913
 20
457.108061212
 11
171.608654
 21
457.212734212
  0
LINE
  5
31D
100
AcDbEntity
  8
_0-3_躯体と製品
  6
CONTINUOUS
 62
     0
100
AcDbLine
 10
174.709214
 20
459.052985212
 11
173.605913
 21
457.108061212
  0
LINE
  5
31E
100
AcDbEntity
  8
_0-3_躯体と製品
  6
CONTINUOUS
 62
     0
100
AcDbLine
 10
176.706473
 20
458.948312212
 11
174.709214
 21
459.052985212
  0
LINE
  5
31F
100
AcDbEntity
  8
_0-3_躯体と製品
  6
CONTINUOUS
 62
     0
100
AcDbLine
 10
176.6018
 20
456.951053212
 11
176.706473
 21
458.948312212
  0
LINE
  5
320
100
AcDbEntity
  8
_0-3_躯体と製品
  6
CONTINUOUS
 62
     0
100
AcDbLine
 10
178.599059
 20
456.846383212
 11
176.6018
 21
456.951053212
  0
LINE
  5
321
100
AcDbEntity
  8
_0-3_躯体と製品
  6
CONTINUOUS
 62
     0
100
AcDbLine
 10
179.70236
 20
458.791304212
 11
178.599059
 21
456.846383212
  0
LINE
  5
322
100
AcDbEntity
  8
_0-3_躯体と製品
  6
CONTINUOUS
 62
     0
100
AcDbLine
 10
181.699619
 20
458.686634212
 11
179.70236
 21
458.791304212
  0
LINE
  5
323
100
AcDbEntity
  8
_0-3_躯体と製品
  6
CONTINUOUS
 62
     0
100
AcDbLine
 10
181.594949
 20
456.689375212
 11
181.699619
 21
458.686634212
  0
LINE
  5
324
100
AcDbEntity
  8
_0-3_躯体と製品
  6
CONTINUOUS
 62
     0
100
AcDbLine
 10
183.592208
 20
456.584702212
 11
181.594949
 21
456.689375212
  0
LINE
  5
325
100
AcDbEntity
  8
_0-3_躯体と製品
  6
CONTINUOUS
 62
     0
100
AcDbLine
 10
184.695509
 20
458.529626212
 11
183.592208
 21
456.584702212
  0
LINE
  5
326
100
AcDbEntity
  8
_0-3_躯体と製品
  6
CONTINUOUS
 62
     0
100
AcDbLine
 10
162.542483
 20
456.185813212
 11
193.499999
 21
454.563398212
  0
LINE
  5
327
100
AcDbEntity
  8
_0-3_躯体と製品
  6
CONTINUOUS
 62
     0
100
AcDbLine
 10
162.620987
 20
457.683758212
 11
162.542483
 21
456.185813212
  0
LINE
  5
328
100
AcDbEntity
  8
_0-3_躯体と製品
  6
CONTINUOUS
 62
     0
100
AcDbLine
 10
164.722919
 20
459.576344212
 11
162.620987
 21
457.683758212
  0
LINE
  5
329
100
AcDbEntity
  8
_0-3_躯体と製品
  6
CONTINUOUS
 62
     0
100
AcDbLine
 10
164.539742
 20
456.081140212
 11
164.722919
 21
459.576344212
  0
LINE
  5
32A
100
AcDbEntity
  8
_0-3_躯体と製品
  6
CONTINUOUS
 62
     0
100
AcDbLine
 10
186.692768
 20
458.424953212
 11
184.695509
 21
458.529626212
  0
LINE
  5
32B
100
AcDbEntity
  8
_0-3_躯体と製品
  6
CONTINUOUS
 62
     0
100
AcDbLine
 10
186.588095
 20
456.427694212
 11
186.692768
 21
458.424953212
  0
LINE
  5
32C
100
AcDbEntity
  8
_0-3_躯体と製品
  6
CONTINUOUS
 62
     0
100
AcDbLine
 10
188.585354
 20
456.323024212
 11
186.588095
 21
456.427694212
  0
LINE
  5
32D
100
AcDbEntity
  8
_0-3_躯体と製品
  6
CONTINUOUS
 62
     0
100
AcDbLine
 10
167.369444
 20
455.932844212
 11
165.5
 21
454.063400212
  0
LINE
  5
32E
100
AcDbEntity
  8
_0-3_躯体と製品
  6
CONTINUOUS
 62
     0
100
AcDbLine
 10
196.499999
 20
454.063400212
 11
201.5
 21
454.063400212
  0
LINE
  5
32F
100
AcDbEntity
  8
_0-3_躯体と製品
  6
CONTINUOUS
 62
     0
100
AcDbLine
 10
201.5
 20
453.063398212
 11
196.499999
 21
454.063400212
  0
LINE
  5
330
100
AcDbEntity
  8
_0-3_躯体と製品
  6
CONTINUOUS
 62
     0
100
AcDbLine
 10
201.5
 20
455.063399212
 11
196.499999
 21
454.063400212
  0
LINE
  5
331
100
AcDbEntity
  8
_0-3_躯体と製品
  6
CONTINUOUS
 62
     0
100
AcDbLine
 10
201.5
 20
459.063398212
 11
196.499999
 21
458.063399212
  0
LINE
  5
332
100
AcDbEntity
  8
_0-3_躯体と製品
  6
CONTINUOUS
 62
     0
100
AcDbLine
 10
189.5
 20
458.063399212
 11
188.585354
 21
456.323024212
  0
LINE
  5
333
100
AcDbEntity
  8
_0-3_躯体と製品
  6
CONTINUOUS
 62
     0
100
AcDbLine
 10
193.499999
 20
454.563398212
 11
193.499999
 21
453.563399212
  0
ARC
  5
334
100
AcDbEntity
  8
_0-3_躯体と製品
  6
CONTINUOUS
 62
     0
100
AcDbCircle
 10
193.247072
 20
460.781717212
 40
0.399999
100
AcDbArc
 50
-81.869898
 51
8.130102000005
  0
LINE
  5
335
100
AcDbEntity
  8
_0-3_躯体と製品
  6
CONTINUOUS
 62
     0
100
AcDbLine
 10
193.614935
 20
461.035112212
 11
193.643051
 21
460.838288212
  0
ARC
  5
336
100
AcDbEntity
  8
_0-3_躯体と製品
  6
CONTINUOUS
 62
     0
100
AcDbCircle
 10
193.218953
 20
460.978544212
 40
0.399999
100
AcDbArc
 50
8.130102000005
 51
98.298466
  0
LINE
  5
337
100
AcDbEntity
  8
_0-3_躯体と製品
  6
CONTINUOUS
 62
     0
100
AcDbLine
 10
186.357599
 20
460.382000212
 11
193.161221
 21
461.374355212
  0
LINE
  5
338
100
AcDbEntity
  8
_0-3_躯体と製品
  6
CONTINUOUS
 62
     0
100
AcDbLine
 10
193.30364
 20
447.741059212
 11
186.69962
 21
448.684490212
  0
ARC
  5
339
100
AcDbEntity
  8
_0-3_躯体と製品
  6
CONTINUOUS
 62
     0
100
AcDbCircle
 10
193.247072
 20
447.345080212
 40
0.399999
100
AcDbArc
 50
-8.130102000005
 51
81.869898
  0
LINE
  5
33A
100
AcDbEntity
  8
_0-3_躯体と製品
  6
CONTINUOUS
 62
     0
100
AcDbLine
 10
193.614935
 20
447.091685212
 11
193.643051
 21
447.288512212
  0
ARC
  5
33B
100
AcDbEntity
  8
_0-3_躯体と製品
  6
CONTINUOUS
 62
     0
100
AcDbCircle
 10
193.218953
 20
447.148253212
 40
0.399999
100
AcDbArc
 50
-98.298466
 51
-8.130102000005
  0
LINE
  5
33C
100
AcDbEntity
  8
_0-3_躯体と製品
  6
CONTINUOUS
 62
     0
100
AcDbLine
 10
186.357599
 20
447.744797212
 11
193.161221
 21
446.752442212
  0
LINE
  5
33D
100
AcDbEntity
  8
_0-3_躯体と製品
  6
CONTINUOUS
 62
     0
100
AcDbLine
 10
181.699619
 20
450.504341212
 11
186.69962
 21
448.684490212
  0
LINE
  5
33E
100
AcDbEntity
  8
_0-3_躯体と製品
  6
CONTINUOUS
 62
     0
100
AcDbLine
 10
181.699619
 20
458.686634212
 11
186.357599
 21
460.382000212
  0
LINE
  5
33F
100
AcDbEntity
  8
_0-3_躯体と製品
  6
CONTINUOUS
 62
     0
100
AcDbLine
 10
181.699619
 20
457.622456212
 11
186.69962
 21
459.442307212
  0
LINE
  5
340
100
AcDbEntity
  8
_0-3_躯体と製品
  6
CONTINUOUS
 62
     0
100
AcDbLine
 10
189.5
 20
450.063398212
 11
201.5
 21
450.063398212
  0
LINE
  5
341
100
AcDbEntity
  8
_0-3_躯体と製品
  6
CONTINUOUS
 62
     0
100
AcDbLine
 10
188.585354
 20
451.803773212
 11
189.5
 21
450.063398212
  0
LINE
  5
342
100
AcDbEntity
  8
_0-3_躯体と製品
  6
CONTINUOUS
 62
     0
100
AcDbLine
 10
203.5
 20
459.063400212
 11
204
 21
459.063400212
  0
LINE
  5
343
100
AcDbEntity
  8
_0-3_躯体と製品
  6
CONTINUOUS
 62
     0
100
AcDbLine
 10
203.5
 20
449.063400212
 11
204
 21
449.063400212
  0
LINE
  5
344
100
AcDbEntity
  8
_0-3_躯体と製品
  6
CONTINUOUS
 62
     0
100
AcDbLine
 10
206
 20
454.563400212
 11
205.5
 21
454.063400212
  0
LINE
  5
345
100
AcDbEntity
  8
_0-3_躯体と製品
  6
CONTINUOUS
 62
     0
100
AcDbLine
 10
206
 20
453.563400212
 11
205.5
 21
454.063400212
  0
LINE
  5
346
100
AcDbEntity
  8
_0-3_躯体と製品
  6
CONTINUOUS
 62
     0
100
AcDbLine
 10
203.5
 20
459.063400212
 11
203.5
 21
449.063400212
  0
LINE
  5
347
100
AcDbEntity
  8
_0-3_躯体と製品
  6
CONTINUOUS
 62
     0
100
AcDbLine
 10
203.5
 20
500.563400212
 11
204
 21
500.563400212
  0
LINE
  5
348
100
AcDbEntity
  8
_0-3_躯体と製品
  6
CONTINUOUS
 62
     0
100
AcDbLine
 10
204
 20
500.563400212
 11
204
 21
487.563400212
  0
LINE
  5
349
100
AcDbEntity
  8
_0-3_躯体と製品
  6
CONTINUOUS
 62
     0
100
AcDbLine
 10
204
 20
487.563400212
 11
203.5
 21
487.563400212
  0
LINE
  5
34A
100
AcDbEntity
  8
_0-3_躯体と製品
  6
CONTINUOUS
 62
     0
100
AcDbLine
 10
203.5
 20
486.063400212
 11
204
 21
486.063400212
  0
ARC
  5
34B
100
AcDbEntity
  8
_0-3_躯体と製品
  6
CONTINUOUS
 62
     0
100
AcDbCircle
 10
213.5
 20
495.863400212
 40
0.3
100
AcDbArc
 50
180
 51
270
  0
LINE
  5
34C
100
AcDbEntity
  8
_0-3_躯体と製品
  6
CONTINUOUS
 62
     0
100
AcDbLine
 10
213.5
 20
495.563400212
 11
218.1
 21
495.563400212
  0
LINE
  5
34D
100
AcDbEntity
  8
_0-3_躯体と製品
  6
CONTINUOUS
 62
     0
100
AcDbLine
 10
212
 20
495.363400212
 11
212
 21
500.063400212
  0
ARC
  5
34E
100
AcDbEntity
  8
_0-3_躯体と製品
  6
CONTINUOUS
 62
     0
100
AcDbCircle
 10
213
 20
495.363400212
 40
1
100
AcDbArc
 50
180
 51
270
  0
LINE
  5
34F
100
AcDbEntity
  8
_0-3_躯体と製品
  6
CONTINUOUS
 62
     0
100
AcDbLine
 10
213
 20
494.363400212
 11
218.1
 21
494.363400212
  0
ARC
  5
350
100
AcDbEntity
  8
_0-3_躯体と製品
  6
CONTINUOUS
 62
     0
100
AcDbCircle
 10
211.5
 20
500.063400212
 40
0.5
100
AcDbArc
 50
0
 51
90
  0
LINE
  5
351
100
AcDbEntity
  8
_0-3_躯体と製品
  6
CONTINUOUS
 62
     0
100
AcDbLine
 10
211.5
 20
500.563400212
 11
206.5
 21
500.563400212
  0
ARC
  5
352
100
AcDbEntity
  8
_0-3_躯体と製品
  6
CONTINUOUS
 62
     0
100
AcDbCircle
 10
206.5
 20
500.063400212
 40
0.5
100
AcDbArc
 50
90
 51
180
  0
LINE
  5
353
100
AcDbEntity
  8
_0-3_躯体と製品
  6
CONTINUOUS
 62
     0
100
AcDbLine
 10
206
 20
500.063400212
 11
206
 21
488.063400212
  0
ARC
  5
354
100
AcDbEntity
  8
_0-3_躯体と製品
  6
CONTINUOUS
 62
     0
100
AcDbCircle
 10
218.1
 20
494.963400212
 40
0.6
100
AcDbArc
 50
-90
 51
90
  0
ARC
  5
355
100
AcDbEntity
  8
_0-3_躯体と製品
  6
CONTINUOUS
 62
     0
100
AcDbCircle
 10
206.5
 20
485.563400212
 40
0.5
100
AcDbArc
 50
90
 51
180
  0
ARC
  5
356
100
AcDbEntity
  8
_0-3_躯体と製品
  6
CONTINUOUS
 62
     0
100
AcDbCircle
 10
206.5
 20
488.063400212
 40
0.5
100
AcDbArc
 50
180
 51
270
  0
LINE
  5
357
100
AcDbEntity
  8
_0-3_躯体と製品
  6
CONTINUOUS
 62
     0
100
AcDbLine
 10
212
 20
487.563400212
 11
206.5
 21
487.563400212
  0
ARC
  5
358
100
AcDbEntity
  8
_0-3_躯体と製品
  6
CONTINUOUS
 62
     0
100
AcDbCircle
 10
212
 20
487.063400212
 40
0.5
100
AcDbArc
 50
0
 51
90
  0
LINE
  5
359
100
AcDbEntity
  8
_0-3_躯体と製品
  6
CONTINUOUS
 62
     0
100
AcDbLine
 10
212.5
 20
481.063400212
 11
212.5
 21
487.063400212
  0
ARC
  5
35A
100
AcDbEntity
  8
_0-3_躯体と製品
  6
CONTINUOUS
 62
     0
100
AcDbCircle
 10
211.5
 20
481.063400212
 40
1
100
AcDbArc
 50
-90
 51
0
  0
LINE
  5
35B
100
AcDbEntity
  8
_0-3_躯体と製品
  6
CONTINUOUS
 62
     0
100
AcDbLine
 10
211.5
 20
480.063400212
 11
209.6
 21
480.063400212
  0
LINE
  5
35C
100
AcDbEntity
  8
_0-3_躯体と製品
  6
CONTINUOUS
 62
     0
100
AcDbLine
 10
211
 20
485.563400212
 11
211
 21
481.763400212
  0
ARC
  5
35D
100
AcDbEntity
  8
_0-3_躯体と製品
  6
CONTINUOUS
 62
     0
100
AcDbCircle
 10
210.5
 20
485.563400212
 40
0.5
100
AcDbArc
 50
0
 51
90
  0
LINE
  5
35E
100
AcDbEntity
  8
_0-3_躯体と製品
  6
CONTINUOUS
 62
     0
100
AcDbLine
 10
210.5
 20
486.063400212
 11
206.5
 21
486.063400212
  0
LINE
  5
35F
100
AcDbEntity
  8
_0-3_躯体と製品
  6
CONTINUOUS
 62
     0
100
AcDbLine
 10
210.5
 20
481.263400212
 11
209.6
 21
481.263400212
  0
ARC
  5
360
100
AcDbEntity
  8
_0-3_躯体と製品
  6
CONTINUOUS
 62
     0
100
AcDbCircle
 10
210.5
 20
481.763400212
 40
0.5
100
AcDbArc
 50
-90
 51
0
  0
ARC
  5
361
100
AcDbEntity
  8
_0-3_躯体と製品
  6
CONTINUOUS
 62
     0
100
AcDbCircle
 10
209.6
 20
480.663400212
 40
0.6
100
AcDbArc
 50
90
 51
270
  0
LINE
  5
362
100
AcDbEntity
  8
_0-3_躯体と製品
  6
CONTINUOUS
 62
     0
100
AcDbLine
 10
205
 20
502.863400212
 11
205
 21
506.263400212
  0
ARC
  5
363
100
AcDbEntity
  8
_0-3_躯体と製品
  6
CONTINUOUS
 62
     0
100
AcDbCircle
 10
205.3
 20
502.863400212
 40
0.3
100
AcDbArc
 50
180
 51
270
  0
LINE
  5
364
100
AcDbEntity
  8
_0-3_躯体と製品
  6
CONTINUOUS
 62
     0
100
AcDbLine
 10
205.3
 20
502.563400212
 11
206.5
 21
502.563400212
  0
LINE
  5
365
100
AcDbEntity
  8
_0-3_躯体と製品
  6
CONTINUOUS
 62
     0
100
AcDbLine
 10
205.3
 20
506.563400212
 11
206.5
 21
506.563400212
  0
ARC
  5
366
100
AcDbEntity
  8
_0-3_躯体と製品
  6
CONTINUOUS
 62
     0
100
AcDbCircle
 10
205.3
 20
506.263400212
 40
0.3
100
AcDbArc
 50
90
 51
180
  0
LINE
  5
367
100
AcDbEntity
  8
_0-3_躯体と製品
  6
CONTINUOUS
 62
     0
100
AcDbLine
 10
211.5
 20
506.563400212
 11
214
 21
506.563400212
  0
LINE
  5
368
100
AcDbEntity
  8
_0-3_躯体と製品
  6
CONTINUOUS
 62
     0
100
AcDbLine
 10
211.5
 20
502.563400212
 11
214
 21
502.563400212
  0
LINE
  5
369
100
AcDbEntity
  8
_0-3_躯体と製品
  6
CONTINUOUS
 62
     0
100
AcDbLine
 10
211.5
 20
506.563400212
 11
211
 21
506.063400212
  0
LINE
  5
36A
100
AcDbEntity
  8
_0-3_躯体と製品
  6
CONTINUOUS
 62
     0
100
AcDbLine
 10
211
 20
506.063400212
 11
210.5
 21
506.563400212
  0
LINE
  5
36B
100
AcDbEntity
  8
_0-3_躯体と製品
  6
CONTINUOUS
 62
     0
100
AcDbLine
 10
210.5
 20
506.563400212
 11
210
 21
506.063400212
  0
LINE
  5
36C
100
AcDbEntity
  8
_0-3_躯体と製品
  6
CONTINUOUS
 62
     0
100
AcDbLine
 10
210
 20
506.063400212
 11
209.5
 21
506.563400212
  0
LINE
  5
36D
100
AcDbEntity
  8
_0-3_躯体と製品
  6
CONTINUOUS
 62
     0
100
AcDbLine
 10
209.5
 20
506.563400212
 11
209
 21
506.063400212
  0
LINE
  5
36E
100
AcDbEntity
  8
_0-3_躯体と製品
  6
CONTINUOUS
 62
     0
100
AcDbLine
 10
209
 20
506.063400212
 11
208.5
 21
506.563400212
  0
LINE
  5
36F
100
AcDbEntity
  8
_0-3_躯体と製品
  6
CONTINUOUS
 62
     0
100
AcDbLine
 10
208.5
 20
506.563400212
 11
208
 21
506.063400212
  0
LINE
  5
370
100
AcDbEntity
  8
_0-3_躯体と製品
  6
CONTINUOUS
 62
     0
100
AcDbLine
 10
208
 20
506.063400212
 11
207.5
 21
506.563400212
  0
LINE
  5
371
100
AcDbEntity
  8
_0-3_躯体と製品
  6
CONTINUOUS
 62
     0
100
AcDbLine
 10
207.5
 20
506.563400212
 11
207
 21
506.063400212
  0
LINE
  5
372
100
AcDbEntity
  8
_0-3_躯体と製品
  6
CONTINUOUS
 62
     0
100
AcDbLine
 10
207
 20
506.063400212
 11
206.5
 21
506.563400212
  0
LINE
  5
373
100
AcDbEntity
  8
_0-3_躯体と製品
  6
CONTINUOUS
 62
     0
100
AcDbLine
 10
211.5
 20
502.563400212
 11
211
 21
503.063400212
  0
LINE
  5
374
100
AcDbEntity
  8
_0-3_躯体と製品
  6
CONTINUOUS
 62
     0
100
AcDbLine
 10
211
 20
503.063400212
 11
210.5
 21
502.563400212
  0
LINE
  5
375
100
AcDbEntity
  8
_0-3_躯体と製品
  6
CONTINUOUS
 62
     0
100
AcDbLine
 10
210.5
 20
502.563400212
 11
210
 21
503.063400212
  0
LINE
  5
376
100
AcDbEntity
  8
_0-3_躯体と製品
  6
CONTINUOUS
 62
     0
100
AcDbLine
 10
210
 20
503.063400212
 11
209.5
 21
502.563400212
  0
LINE
  5
377
100
AcDbEntity
  8
_0-3_躯体と製品
  6
CONTINUOUS
 62
     0
100
AcDbLine
 10
209.5
 20
502.563400212
 11
209
 21
503.063400212
  0
LINE
  5
378
100
AcDbEntity
  8
_0-3_躯体と製品
  6
CONTINUOUS
 62
     0
100
AcDbLine
 10
209
 20
503.063400212
 11
208.5
 21
502.563400212
  0
LINE
  5
379
100
AcDbEntity
  8
_0-3_躯体と製品
  6
CONTINUOUS
 62
     0
100
AcDbLine
 10
208.5
 20
502.563400212
 11
208
 21
503.063400212
  0
LINE
  5
37A
100
AcDbEntity
  8
_0-3_躯体と製品
  6
CONTINUOUS
 62
     0
100
AcDbLine
 10
208
 20
503.063400212
 11
207.5
 21
502.563400212
  0
LINE
  5
37B
100
AcDbEntity
  8
_0-3_躯体と製品
  6
CONTINUOUS
 62
     0
100
AcDbLine
 10
207.5
 20
502.563400212
 11
207
 21
503.063400212
  0
LINE
  5
37C
100
AcDbEntity
  8
_0-3_躯体と製品
  6
CONTINUOUS
 62
     0
100
AcDbLine
 10
207
 20
503.063400212
 11
206.5
 21
502.563400212
  0
LINE
  5
37D
100
AcDbEntity
  8
_0-3_躯体と製品
  6
CONTINUOUS
 62
     0
100
AcDbLine
 10
204
 20
508.563400212
 11
212.5
 21
508.563400212
  0
ARC
  5
37E
100
AcDbEntity
  8
_0-3_躯体と製品
  6
CONTINUOUS
 62
     0
100
AcDbCircle
 10
204
 20
508.063400212
 40
0.5
100
AcDbArc
 50
90
 51
180
  0
LINE
  5
37F
100
AcDbEntity
  8
_0-3_躯体と製品
  6
CONTINUOUS
 62
     0
100
AcDbLine
 10
203.5
 20
508.063400212
 11
203.5
 21
500.563400212
  0
LINE
  5
380
100
AcDbEntity
  8
_0-3_躯体と製品
  6
CONTINUOUS
 62
     0
100
AcDbLine
 10
212.5
 20
508.563400212
 11
212.5
 21
507.763400212
  0
LINE
  5
381
100
AcDbEntity
  8
_0-3_躯体と製品
  6
CONTINUOUS
 62
     0
100
AcDbLine
 10
213.2
 20
501.363400212
 11
213.9
 21
501.363400212
  0
LINE
  5
382
100
AcDbEntity
  8
_0-3_躯体と製品
  6
CONTINUOUS
 62
     0
100
AcDbLine
 10
213.2
 20
495.863400212
 11
213.2
 21
501.363400212
  0
LINE
  5
383
100
AcDbEntity
  8
_0-3_躯体と製品
  6
CONTINUOUS
 62
     0
100
AcDbLine
 10
212.5
 20
507.763400212
 11
213.9
 21
507.763400212
  0
LINE
  5
384
100
AcDbEntity
  8
_0-3_躯体と製品
  6
CONTINUOUS
 62
     0
100
AcDbLine
 10
203.5
 20
487.563400212
 11
203.5
 21
486.063400212
  0
ARC
  5
385
100
AcDbEntity
  8
_0-3_躯体と製品
  6
CONTINUOUS
 62
     0
100
AcDbCircle
 10
213.9
 20
501.963400212
 40
0.6
100
AcDbArc
 50
-90
 51
90
  0
ARC
  5
386
100
AcDbEntity
  8
_0-3_躯体と製品
  6
CONTINUOUS
 62
     0
100
AcDbCircle
 10
213.9
 20
507.163400212
 40
0.6
100
AcDbArc
 50
-90
 51
90
  0
LINE
  5
387
100
AcDbEntity
  8
_0-3_躯体と製品
  6
CONTINUOUS
 62
     0
100
AcDbLine
 10
204
 20
486.063400212
 11
204
 21
474.563400212
  0
LINE
  5
388
100
AcDbEntity
  8
_0-3_躯体と製品
  6
CONTINUOUS
 62
     0
100
AcDbLine
 10
206
 20
475.063400212
 11
206
 21
485.563400212
  0
LINE
  5
389
100
AcDbEntity
  8
_0-3_躯体と製品
  6
CONTINUOUS
 62
     0
100
AcDbLine
 10
204
 20
474.563400212
 11
203.5
 21
474.563400212
  0
LINE
  5
38A
100
AcDbEntity
  8
_0-3_躯体と製品
  6
CONTINUOUS
 62
     0
100
AcDbLine
 10
203.5
 20
473.063400212
 11
204
 21
473.063400212
  0
LINE
  5
38B
100
AcDbEntity
  8
_0-3_躯体と製品
  6
CONTINUOUS
 62
     0
100
AcDbLine
 10
204
 20
473.063400212
 11
204
 21
459.063400212
  0
LINE
  5
38C
100
AcDbEntity
  8
_0-3_躯体と製品
  6
CONTINUOUS
 62
     0
100
AcDbLine
 10
204
 20
449.063400212
 11
204
 21
435.063400212
  0
LINE
  5
38D
100
AcDbEntity
  8
_0-3_躯体と製品
  6
CONTINUOUS
 62
     0
100
AcDbLine
 10
204
 20
435.063400212
 11
203.5
 21
435.063400212
  0
ARC
  5
38E
100
AcDbEntity
  8
_0-3_躯体と製品
  6
CONTINUOUS
 62
     0
100
AcDbCircle
 10
206.5
 20
475.063400212
 40
0.5
100
AcDbArc
 50
180
 51
270
  0
LINE
  5
38F
100
AcDbEntity
  8
_0-3_躯体と製品
  6
CONTINUOUS
 62
     0
100
AcDbLine
 10
206.5
 20
474.563400212
 11
215.5
 21
474.563400212
  0
LINE
  5
390
100
AcDbEntity
  8
_0-3_躯体と製品
  6
CONTINUOUS
 62
     0
100
AcDbLine
 10
206.5
 20
428.563400212
 11
212.25
 21
428.563400212
  0
ARC
  5
391
100
AcDbEntity
  8
_0-3_躯体と製品
  6
CONTINUOUS
 62
     0
100
AcDbCircle
 10
206.5
 20
429.063400212
 40
0.5
100
AcDbArc
 50
180
 51
270
  0
ARC
  5
392
100
AcDbEntity
  8
_0-3_躯体と製品
  6
CONTINUOUS
 62
     0
100
AcDbCircle
 10
206.5
 20
426.563400212
 40
0.5
100
AcDbArc
 50
90
 51
180
  0
LINE
  5
393
100
AcDbEntity
  8
_0-3_躯体と製品
  6
CONTINUOUS
 62
     0
100
AcDbLine
 10
206.5
 20
427.063400212
 11
209
 21
427.063400212
  0
LINE
  5
394
100
AcDbEntity
  8
_0-3_躯体と製品
  6
CONTINUOUS
 62
     0
100
AcDbLine
 10
209
 20
427.063400212
 11
210
 21
427.563400212
  0
LINE
  5
395
100
AcDbEntity
  8
_0-3_躯体と製品
  6
CONTINUOUS
 62
     0
100
AcDbLine
 10
210
 20
427.563400212
 11
210
 21
427.063400212
  0
LINE
  5
396
100
AcDbEntity
  8
_0-3_躯体と製品
  6
CONTINUOUS
 62
     0
100
AcDbLine
 10
210
 20
427.063400212
 11
211
 21
427.563400212
  0
LINE
  5
397
100
AcDbEntity
  8
_0-3_躯体と製品
  6
CONTINUOUS
 62
     0
100
AcDbLine
 10
211
 20
427.563400212
 11
211
 21
427.063400212
  0
ARC
  5
398
100
AcDbEntity
  8
_0-3_躯体と製品
  6
CONTINUOUS
 62
     0
100
AcDbCircle
 10
212.25
 20
427.813400212
 40
0.75
100
AcDbArc
 50
-90
 51
90
  0
ARC
  5
399
100
AcDbEntity
  8
_0-3_躯体と製品
  6
CONTINUOUS
 62
     0
100
AcDbCircle
 10
206.5
 20
472.563400212
 40
0.5
100
AcDbArc
 50
90
 51
180
  0
ARC
  5
39A
100
AcDbEntity
  8
_0-3_躯体と製品
  6
CONTINUOUS
 62
     0
100
AcDbCircle
 10
215.5
 20
474.063400212
 40
0.5
100
AcDbArc
 50
0
 51
90
  0
LINE
  5
39B
100
AcDbEntity
  8
_0-3_躯体と製品
  6
CONTINUOUS
 62
     0
100
AcDbLine
 10
215.5
 20
473.063400212
 11
206.5
 21
473.063400212
  0
ARC
  5
39C
100
AcDbEntity
  8
_0-3_躯体と製品
  6
CONTINUOUS
 62
     0
100
AcDbCircle
 10
215.5
 20
473.563400212
 40
0.5
100
AcDbArc
 50
-90
 51
0
  0
LINE
  5
39D
100
AcDbEntity
  8
_0-3_躯体と製品
  6
CONTINUOUS
 62
     0
100
AcDbLine
 10
216
 20
473.563400212
 11
216
 21
474.063400212
  0
LINE
  5
39E
100
AcDbEntity
  8
_0-3_躯体と製品
  6
CONTINUOUS
 62
     0
100
AcDbLine
 10
206
 20
433.063400212
 11
206
 21
429.063400212
  0
ARC
  5
39F
100
AcDbEntity
  8
_0-3_躯体と製品
  6
CONTINUOUS
 62
     0
100
AcDbCircle
 10
206.5
 20
433.063400212
 40
0.5
100
AcDbArc
 50
90
 51
180
  0
LINE
  5
3A0
100
AcDbEntity
  8
_0-3_躯体と製品
  6
CONTINUOUS
 62
     0
100
AcDbLine
 10
206.5
 20
433.563400212
 11
217.25
 21
433.563400212
  0
LINE
  5
3A1
100
AcDbEntity
  8
_0-3_躯体と製品
  6
CONTINUOUS
 62
     0
100
AcDbLine
 10
206
 20
435.563400212
 11
206
 21
453.563400212
  0
ARC
  5
3A2
100
AcDbEntity
  8
_0-3_躯体と製品
  6
CONTINUOUS
 62
     0
100
AcDbCircle
 10
206.5
 20
435.563400212
 40
0.5
100
AcDbArc
 50
180
 51
270
  0
LINE
  5
3A3
100
AcDbEntity
  8
_0-3_躯体と製品
  6
CONTINUOUS
 62
     0
100
AcDbLine
 10
206.5
 20
435.063400212
 11
217.25
 21
435.063400212
  0
ARC
  5
3A4
100
AcDbEntity
  8
_0-3_躯体と製品
  6
CONTINUOUS
 62
     0
100
AcDbCircle
 10
217.25
 20
434.313400212
 40
0.75
100
AcDbArc
 50
-90
 51
90
  0
ARC
  5
3A5
100
AcDbEntity
  8
_0-3_躯体と製品
  6
CONTINUOUS
 62
     0
100
AcDbCircle
 10
206.5
 20
423.563400212
 40
0.5
100
AcDbArc
 50
180
 51
270
  0
LINE
  5
3A6
100
AcDbEntity
  8
_0-3_躯体と製品
  6
CONTINUOUS
 62
     0
100
AcDbLine
 10
206.5
 20
423.063400212
 11
209
 21
423.063400212
  0
ARC
  5
3A7
100
AcDbEntity
  8
_0-3_躯体と製品
  6
CONTINUOUS
 62
     0
100
AcDbCircle
 10
212.25
 20
422.313400212
 40
0.75
100
AcDbArc
 50
-90
 51
90
  0
LINE
  5
3A8
100
AcDbEntity
  8
_0-3_躯体と製品
  6
CONTINUOUS
 62
     0
100
AcDbLine
 10
209
 20
423.063400212
 11
210
 21
422.563400212
  0
LINE
  5
3A9
100
AcDbEntity
  8
_0-3_躯体と製品
  6
CONTINUOUS
 62
     0
100
AcDbLine
 10
210
 20
423.063400212
 11
210
 21
422.563400212
  0
LINE
  5
3AA
100
AcDbEntity
  8
_0-3_躯体と製品
  6
CONTINUOUS
 62
     0
100
AcDbLine
 10
210
 20
423.063400212
 11
211
 21
422.563400212
  0
LINE
  5
3AB
100
AcDbEntity
  8
_0-3_躯体と製品
  6
CONTINUOUS
 62
     0
100
AcDbLine
 10
211
 20
423.063400212
 11
211
 21
422.563400212
  0
LINE
  5
3AC
100
AcDbEntity
  8
_0-3_躯体と製品
  6
CONTINUOUS
 62
     0
100
AcDbLine
 10
206
 20
423.563400212
 11
206
 21
426.563400212
  0
LINE
  5
3AD
100
AcDbEntity
  8
_0-3_躯体と製品
  6
CONTINUOUS
 62
     0
100
AcDbLine
 10
204.5
 20
423.563400212
 11
204.5
 21
433.063400212
  0
ARC
  5
3AE
100
AcDbEntity
  8
_0-3_躯体と製品
  6
CONTINUOUS
 62
     0
100
AcDbCircle
 10
204
 20
423.563400212
 40
0.5
100
AcDbArc
 50
-90
 51
0
  0
LINE
  5
3AF
100
AcDbEntity
  8
_0-3_躯体と製品
  6
CONTINUOUS
 62
     0
100
AcDbLine
 10
204
 20
423.063400212
 11
203.5
 21
423.063400212
  0
LINE
  5
3B0
100
AcDbEntity
  8
_0-3_躯体と製品
  6
CONTINUOUS
 62
     0
100
AcDbLine
 10
203.5
 20
421.563400212
 11
203.5
 21
423.063400212
  0
LINE
  5
3B1
100
AcDbEntity
  8
_0-3_躯体と製品
  6
CONTINUOUS
 62
     0
100
AcDbLine
 10
212.25
 20
421.563400212
 11
203.5
 21
421.563400212
  0
LINE
  5
3B2
100
AcDbEntity
  8
_0-3_躯体と製品
  6
CONTINUOUS
 62
     0
100
AcDbLine
 10
204
 20
433.563400212
 11
203.5
 21
433.563400212
  0
ARC
  5
3B3
100
AcDbEntity
  8
_0-3_躯体と製品
  6
CONTINUOUS
 62
     0
100
AcDbCircle
 10
204
 20
433.063400212
 40
0.5
100
AcDbArc
 50
0
 51
90
  0
LINE
  5
3B4
100
AcDbEntity
  8
_0-3_躯体と製品
  6
CONTINUOUS
 62
     0
100
AcDbLine
 10
212.25
 20
423.063400212
 11
211
 21
423.063400212
  0
LINE
  5
3B5
100
AcDbEntity
  8
_0-3_躯体と製品
  6
CONTINUOUS
 62
     0
100
AcDbLine
 10
212.25
 20
427.063400212
 11
211
 21
427.063400212
  0
LINE
  5
3B6
100
AcDbEntity
  8
_0-3_躯体と製品
  6
CONTINUOUS
 62
     0
100
AcDbLine
 10
203.5
 20
435.063400212
 11
203.5
 21
433.563400212
  0
LINE
  5
3B7
100
AcDbEntity
  8
_0-3_躯体と製品
  6
CONTINUOUS
 62
     0
100
AcDbLine
 10
203.5
 20
474.563400212
 11
203.5
 21
473.063400212
  0
LINE
  5
3B8
100
AcDbEntity
  8
_0-3_躯体と製品
  6
CONTINUOUS
 62
     0
100
AcDbLine
 10
206
 20
454.563400212
 11
206
 21
472.563400212
  0
LINE
  5
3B9
100
AcDbEntity
  8
_0-3_躯体と製品
  6
CONTINUOUS
 62
     0
100
AcDbLine
 10
248.7393405816
 20
453.6091510563
 11
247.7398601834
 21
454.6086314545
  0
LINE
  5
3BA
100
AcDbEntity
  8
_0-3_躯体と製品
  6
CONTINUOUS
 62
     0
100
AcDbLine
 10
235.6989923358
 20
452.5073636784
 11
233.7625004037
 21
454.4438556105
  0
LINE
  5
3BB
100
AcDbEntity
  8
_0-3_躯体と製品
  6
CONTINUOUS
 62
     0
100
AcDbLine
 10
648.1911544834
 20
432.6747685592
 11
647.1916740853
 21
433.6742489573
  0
LINE
  5
3BC
100
AcDbEntity
  8
_0-3_躯体と製品
  6
CONTINUOUS
 62
     0
100
AcDbLine
 10
648.1207295078
 20
431.3309799724
 11
645.6992456636
 21
433.7524638166
  0
LINE
  5
3BD
100
AcDbEntity
  8
_0-3_躯体と製品
  6
CONTINUOUS
 62
     0
100
AcDbLine
 10
647.0902336112
 20
430.9472623067
 11
644.2068172419
 21
433.830678676
  0
LINE
  5
3BE
100
AcDbEntity
  8
_0-3_躯体と製品
  6
CONTINUOUS
 62
     0
100
AcDbLine
 10
248.668915606
 20
452.2653624696
 11
246.2474317618
 21
454.6868463138
  0
LINE
  5
3BF
100
AcDbEntity
  8
_0-3_躯体と製品
  6
CONTINUOUS
 62
     0
100
AcDbLine
 10
247.6384197093
 20
451.8816448039
 11
244.7550033401
 21
454.7650611731
  0
LINE
  5
3C0
100
AcDbEntity
  8
_0-3_躯体と製品
  6
CONTINUOUS
 62
     0
100
AcDbLine
 10
246.1459912876
 20
451.9598596632
 11
243.2625749184
 21
454.8432760325
  0
LINE
  5
3C1
100
AcDbEntity
  8
_0-3_躯体と製品
  6
CONTINUOUS
 62
     0
100
AcDbLine
 10
244.653562866
 20
452.0380745225
 11
241.7701464967
 21
454.9214908918
  0
LINE
  5
3C2
100
AcDbEntity
  8
_0-3_躯体と製品
  6
CONTINUOUS
 62
     0
100
AcDbLine
 10
243.1611344443
 20
452.1162893818
 11
240.277718075
 21
454.9997057511
  0
LINE
  5
3C3
100
AcDbEntity
  8
_0-3_躯体と製品
  6
CONTINUOUS
 62
     0
100
AcDbLine
 10
241.6687060226
 20
452.1945042411
 11
238.7852896533
 21
455.0779206104
  0
LINE
  5
3C4
100
AcDbEntity
  8
_0-3_躯体と製品
  6
CONTINUOUS
 62
     0
100
AcDbLine
 10
240.1762776009
 20
452.2727191005
 11
237.2928612316
 21
455.1561354697
  0
LINE
  5
3C5
100
AcDbEntity
  8
_0-3_躯体と製品
  6
CONTINUOUS
 62
     0
100
AcDbLine
 10
238.6838491792
 20
452.3509339598
 11
235.8004328099
 21
455.2343503291
  0
LINE
  5
3C6
100
AcDbEntity
  8
_0-3_躯体と製品
  6
CONTINUOUS
 62
     0
100
AcDbLine
 10
237.1914207575
 20
452.4291488191
 11
234.3080043882
 21
455.3125651884
  0
LINE
  5
3C7
100
AcDbEntity
  8
_0-3_躯体と製品
  6
CONTINUOUS
 62
     0
100
AcDbLine
 10
248.6460383148
 20
451.8288377504
 11
248.7888400276
 21
454.5536567504
  0
LINE
  5
3C8
100
AcDbEntity
  8
_0-3_躯体と製品
  6
CONTINUOUS
 62
     0
100
AcDbLine
 10
648.0978522167
 20
430.8944552532
 11
648.2406539294
 21
433.6192742532
  0
LINE
  5
3C9
100
AcDbEntity
  8
_0-3_躯体と製品
  6
CONTINUOUS
 62
     0
100
AcDbLine
 10
216
 20
458.6444584583
 11
216
 21
469.6954938915
  0
LINE
  5
3CA
100
AcDbEntity
  8
_0-3_躯体と製品
  6
CONTINUOUS
 62
     0
100
AcDbLine
 10
216
 20
469.6954938915
 11
217.5
 21
469.6954938915
  0
LINE
  5
3CB
100
AcDbEntity
  8
_0-3_躯体と製品
  6
CONTINUOUS
 62
     0
100
AcDbLine
 10
674.5
 20
345.0879154213
 11
667.5
 21
345.0879154213
  0
LINE
  5
3CC
100
AcDbEntity
  8
_0-3_躯体と製品
  6
CONTINUOUS
 62
     0
100
AcDbLine
 10
667.5
 20
343.5879154213
 11
667.5
 21
345.0879154213
  0
CIRCLE
  5
3CD
100
AcDbEntity
  8
_0-3_躯体と製品
  6
CONTINUOUS
 62
     0
100
AcDbCircle
 10
677.5
 20
343.5879154213
 40
1.4
  0
CIRCLE
  5
3CE
100
AcDbEntity
  8
_0-3_躯体と製品
  6
CONTINUOUS
 62
     0
100
AcDbCircle
 10
677.5
 20
433.5879154213
 40
1.4
  0
LINE
  5
3CF
100
AcDbEntity
  8
_0-3_躯体と製品
  6
CONTINUOUS
 62
     0
100
AcDbLine
 10
677.5
 20
430.7410217212
 11
677.5
 21
346.5879154213
  0
ARC
  5
3D0
100
AcDbEntity
  8
_0-3_躯体と製品
  6
CONTINUOUS
 62
     0
100
AcDbCircle
 10
674.5
 20
346.5879154213
 40
3
100
AcDbArc
 50
-90
 51
0
  0
ARC
  5
3D1
100
AcDbEntity
  8
_0-3_躯体と製品
  6
CONTINUOUS
 62
     0
100
AcDbCircle
 10
674.5
 20
430.7410217212
 40
3
100
AcDbArc
 50
0
 51
86.99999999999
  0
LINE
  5
3D2
100
AcDbEntity
  8
_0-3_躯体と製品
  6
CONTINUOUS
 62
     0
100
AcDbLine
 10
674.5
 20
343.5879154213
 11
667.5
 21
343.5879154213
  0
ARC
  5
3D3
100
AcDbEntity
  8
_0-3_躯体と製品
  6
CONTINUOUS
 62
     0
100
AcDbCircle
 10
218.5
 20
458.6444584583
 40
1
100
AcDbArc
 50
180
 51
267
  0
LINE
  5
3D4
100
AcDbEntity
  8
_0-3_躯体と製品
  6
CONTINUOUS
 62
     0
100
AcDbLine
 10
217.5
 20
458.6444584583
 11
217.5
 21
469.6954938915
  0
ARC
  5
3D5
100
AcDbEntity
  8
_0-3_躯体と製品
  6
CONTINUOUS
 62
     0
100
AcDbCircle
 10
218.5
 20
458.6444584583
 40
2.5
100
AcDbArc
 50
180
 51
267
  0
ARC
  5
3D6
100
AcDbEntity
  8
_0-3_躯体と製品
  6
CONTINUOUS
 62
     0
100
AcDbCircle
 10
674.5
 20
430.7410217212
 40
1.5
100
AcDbArc
 50
0
 51
86.99999999999
  0
ARC
  5
3D7
100
AcDbEntity
  8
_0-3_躯体と製品
  6
CONTINUOUS
 62
     0
100
AcDbCircle
 10
674.5
 20
346.5879154213
 40
1.5
100
AcDbArc
 50
-90
 51
0
  0
LINE
  5
3D8
100
AcDbEntity
  8
_0-3_躯体と製品
  6
CONTINUOUS
 62
     0
100
AcDbLine
 10
676
 20
346.5879154213
 11
676
 21
430.7410217212
  0
LINE
  5
3D9
100
AcDbEntity
  8
_0-3_躯体と製品
  6
CONTINUOUS
 62
     0
100
AcDbLine
 10
647.9556426803
 20
428.1809356528
 11
645.6125606405
 21
430.5240176926
  0
LINE
  5
3DA
100
AcDbEntity
  8
_0-3_躯体と製品
  6
CONTINUOUS
 62
     0
100
AcDbLine
 10
648.026067656
 20
429.5247242395
 11
647.1049890622
 21
430.4458028333
  0
LINE
  5
3DB
100
AcDbEntity
  8
_0-3_躯体と製品
  6
CONTINUOUS
 62
     0
100
AcDbLine
 10
647.8852177047
 20
426.837147066
 11
644.1201322188
 21
430.6022325519
  0
ARC
  5
3DC
100
AcDbEntity
  8
_0-3_躯体と製品
  6
CONTINUOUS
 62
     0
100
AcDbCircle
 10
656.8980693585
 20
401.6496510325
 40
0.6
100
AcDbArc
 50
167
 51
347
  0
ARC
  5
3DD
100
AcDbEntity
  8
_0-3_躯体と製品
  6
CONTINUOUS
 62
     0
100
AcDbCircle
 10
656.4094548301
 20
404.423181622
 40
0.5
100
AcDbArc
 50
-13
 51
86.99999999999
  0
ARC
  5
3DE
100
AcDbEntity
  8
_0-3_躯体と製品
  6
CONTINUOUS
 62
     0
100
AcDbCircle
 10
658.4832090975
 20
404.5147752353
 40
0.3
100
AcDbArc
 50
86.99999999999
 51
167
  0
ARC
  5
3DF
100
AcDbEntity
  8
_0-3_躯体と製品
  6
CONTINUOUS
 62
     0
100
AcDbCircle
 10
661.165450337
 20
356.4879154213
 40
0.6
100
AcDbArc
 50
90
 51
270
  0
LINE
  5
3E0
100
AcDbEntity
  8
_0-3_躯体と製品
  6
CONTINUOUS
 62
     0
100
AcDbLine
 10
672.332924615
 20
348.7726027155
 11
672.332924615
 21
345.0879154213
  0
LINE
  5
3E1
100
AcDbEntity
  8
_0-3_躯体と製品
  6
CONTINUOUS
 62
     0
100
AcDbLine
 10
675.332924615
 20
347.5879154213
 11
675.332924615
 21
349.0879154213
  0
LINE
  5
3E2
100
AcDbEntity
  8
_0-3_躯体と製品
  6
CONTINUOUS
 62
     0
100
AcDbLine
 10
672.832924615
 20
345.0879154213
 11
672.332924615
 21
345.0879154213
  0
ARC
  5
3E3
100
AcDbEntity
  8
_0-3_躯体と製品
  6
CONTINUOUS
 62
     0
100
AcDbCircle
 10
672.832924615
 20
347.5879154213
 40
2.5
100
AcDbArc
 50
-90
 51
0
  0
LINE
  5
3E4
100
AcDbEntity
  8
_0-3_躯体と製品
  6
CONTINUOUS
 62
     0
100
AcDbLine
 10
665.565450337
 20
357.0879154213
 11
665.565450337
 21
358.0879154213
  0
LINE
  5
3E5
100
AcDbEntity
  8
_0-3_躯体と製品
  6
CONTINUOUS
 62
     0
100
AcDbLine
 10
665.565450337
 20
358.0879154213
 11
663.565450337
 21
357.0879154213
  0
LINE
  5
3E6
100
AcDbEntity
  8
_0-3_躯体と製品
  6
CONTINUOUS
 62
     0
100
AcDbLine
 10
661.165450337
 20
357.0879154213
 11
663.565450337
 21
357.0879154213
  0
ARC
  5
3E7
100
AcDbEntity
  8
_0-3_躯体と製品
  6
CONTINUOUS
 62
     0
100
AcDbCircle
 10
669.9480017587
 20
357.5879154213
 40
0.5
100
AcDbArc
 50
-90
 51
12
  0
LINE
  5
3E8
100
AcDbEntity
  8
_0-3_躯体と製品
  6
CONTINUOUS
 62
     0
100
AcDbLine
 10
670.4156261944
 20
355.8879154213
 11
661.165450337
 21
355.8879154213
  0
LINE
  5
3E9
100
AcDbEntity
  8
_0-3_躯体と製品
  6
CONTINUOUS
 62
     0
100
AcDbLine
 10
670.9046999948
 20
355.4918712668
 11
672.332924615
 21
348.7726027155
  0
ARC
  5
3EA
100
AcDbEntity
  8
_0-3_躯体と製品
  6
CONTINUOUS
 62
     0
100
AcDbCircle
 10
670.4156261944
 20
355.3879154213
 40
0.5
100
AcDbArc
 50
12
 51
90
  0
ARC
  5
3EB
100
AcDbEntity
  8
_0-3_躯体と製品
  6
CONTINUOUS
 62
     0
100
AcDbCircle
 10
647.1840961655
 20
403.9052898367
 40
0.5
100
AcDbArc
 50
177
 51
267
  0
LINE
  5
3EC
100
AcDbEntity
  8
_0-3_躯体と製品
  6
CONTINUOUS
 62
     0
100
AcDbLine
 10
647.6572429547
 20
403.3798070912
 11
647.1579281873
 21
403.4059750693
  0
ARC
  5
3ED
100
AcDbEntity
  8
_0-3_躯体と製品
  6
CONTINUOUS
 62
     0
100
AcDbCircle
 10
647.6834109328
 20
403.8791218586
 40
0.5
100
AcDbArc
 50
-93.00000000001
 51
-2.999999999999
  0
ARC
  5
3EE
100
AcDbEntity
  8
_0-3_躯体と製品
  6
CONTINUOUS
 62
     0
100
AcDbCircle
 10
659.6239203602
 20
403.754032449
 40
1
100
AcDbArc
 50
12
 51
86.99999999999
  0
ARC
  5
3EF
100
AcDbEntity
  8
_0-3_躯体と製品
  6
CONTINUOUS
 62
     0
100
AcDbCircle
 10
660.4425317095
 20
404.7125031921
 40
3
100
AcDbArc
 50
12
 51
86.99999999999
  0
ARC
  5
3F0
100
AcDbEntity
  8
_0-3_躯体と製品
  6
CONTINUOUS
 62
     0
100
AcDbCircle
 10
647.5504478592
 20
410.89569658
 40
0.5
100
AcDbArc
 50
86.99999999999
 51
177
  0
LINE
  5
3F1
100
AcDbEntity
  8
_0-3_躯体と製品
  6
CONTINUOUS
 62
     0
100
AcDbLine
 10
648.0759306047
 20
411.3688433692
 11
647.5766158373
 21
411.3950113474
  0
ARC
  5
3F2
100
AcDbEntity
  8
_0-3_躯体と製品
  6
CONTINUOUS
 62
     0
100
AcDbCircle
 10
648.0497626265
 20
410.8695286019
 40
0.5
100
AcDbArc
 50
-2.999999999999
 51
86.99999999999
  0
LINE
  5
3F3
100
AcDbEntity
  8
_0-3_躯体と製品
  6
CONTINUOUS
 62
     0
100
AcDbLine
 10
663.3769745117
 20
405.3362382645
 11
675.332924615
 21
349.0879154213
  0
LINE
  5
3F4
100
AcDbEntity
  8
_0-3_躯体と製品
  6
CONTINUOUS
 62
     0
100
AcDbLine
 10
660.602067961
 20
403.9619441398
 11
670.4370755591
 21
357.6918712668
  0
LINE
  5
3F5
100
AcDbEntity
  8
_0-3_躯体と製品
  6
CONTINUOUS
 62
     0
100
AcDbLine
 10
669.9480017587
 20
357.0879154213
 11
665.565450337
 21
357.0879154213
  0
LINE
  5
3F6
100
AcDbEntity
  8
_0-3_躯体と製品
  6
CONTINUOUS
 62
     0
100
AcDbLine
 10
648.4444054814
 20
408.8461015542
 11
648.5490773939
 21
410.8433606238
  0
LINE
  5
3F7
100
AcDbEntity
  8
_0-3_躯体と製品
  6
CONTINUOUS
 62
     0
100
AcDbLine
 10
648.9175522707
 20
408.3206188087
 11
660.5995395782
 21
407.7083917963
  0
ARC
  5
3F8
100
AcDbEntity
  8
_0-3_躯体と製品
  6
CONTINUOUS
 62
     0
100
AcDbCircle
 10
648.9437202488
 20
408.8199335761
 40
0.5
100
AcDbArc
 50
177
 51
267
  0
LINE
  5
3F9
100
AcDbEntity
  8
_0-3_躯体と製品
  6
CONTINUOUS
 62
     0
100
AcDbLine
 10
648.2350616565
 20
404.8515834152
 11
648.1827257002
 21
403.8529538805
  0
ARC
  5
3FA
100
AcDbEntity
  8
_0-3_躯体と製品
  6
CONTINUOUS
 62
     0
100
AcDbCircle
 10
648.7343764238
 20
404.8254154371
 40
0.5
100
AcDbArc
 50
86.99999999999
 51
177
  0
LINE
  5
3FB
100
AcDbEntity
  8
_0-3_躯体と製品
  6
CONTINUOUS
 62
     0
100
AcDbLine
 10
658.1908980781
 20
404.5822605516
 11
657.4826913974
 21
401.5146803999
  0
LINE
  5
3FC
100
AcDbEntity
  8
_0-3_躯体と製品
  6
CONTINUOUS
 62
     0
100
AcDbLine
 10
659.6762563165
 20
404.7526619837
 11
658.4989098844
 21
404.8143640957
  0
LINE
  5
3FD
100
AcDbEntity
  8
_0-3_躯体と製品
  6
CONTINUOUS
 62
     0
100
AcDbLine
 10
648.760544402
 20
405.3247302045
 11
656.4356228083
 21
404.9224963894
  0
LINE
  5
3FE
100
AcDbEntity
  8
_0-3_躯体と製品
  6
CONTINUOUS
 62
     0
100
AcDbLine
 10
656.8966398625
 20
404.3107060948
 11
656.3134473196
 21
401.7846216651
  0
LINE
  5
3FF
100
AcDbEntity
  8
_0-3_躯体と製品
  6
CONTINUOUS
 62
     0
100
AcDbLine
 10
646.6324454418
 20
402.9328282801
 11
648.0978522167
 21
430.8944552532
  0
LINE
  5
400
100
AcDbEntity
  8
_0-3_躯体と製品
  6
CONTINUOUS
 62
     0
100
AcDbLine
 10
248.5038287785
 20
449.1153181499
 11
246.1607467387
 21
451.4584001898
  0
LINE
  5
401
100
AcDbEntity
  8
_0-3_躯体と製品
  6
CONTINUOUS
 62
     0
100
AcDbLine
 10
248.5742537542
 20
450.4591067367
 11
247.6531751604
 21
451.3801853304
  0
LINE
  5
402
100
AcDbEntity
  8
_0-3_躯体と製品
  6
CONTINUOUS
 62
     0
100
AcDbLine
 10
248.4334038029
 20
447.7715295632
 11
244.668318317
 21
451.5366150491
  0
LINE
  5
403
100
AcDbEntity
  8
_0-3_躯体と製品
  6
CONTINUOUS
 62
     0
100
AcDbLine
 10
247.4029079062
 20
447.3878118975
 11
243.1758898953
 21
451.6148299084
  0
LINE
  5
404
100
AcDbEntity
  8
_0-3_躯体と製品
  6
CONTINUOUS
 62
     0
100
AcDbLine
 10
245.9104794846
 20
447.4660267568
 11
241.6834614736
 21
451.6930447677
  0
LINE
  5
405
100
AcDbEntity
  8
_0-3_躯体と製品
  6
CONTINUOUS
 62
     0
100
AcDbLine
 10
244.4180510629
 20
447.5442416161
 11
240.1910330519
 21
451.771259627
  0
LINE
  5
406
100
AcDbEntity
  8
_0-3_躯体と製品
  6
CONTINUOUS
 62
     0
100
AcDbLine
 10
242.9256226412
 20
447.6224564754
 11
238.6986046302
 21
451.8494744864
  0
LINE
  5
407
100
AcDbEntity
  8
_0-3_躯体と製品
  6
CONTINUOUS
 62
     0
100
AcDbLine
 10
241.4331942195
 20
447.7006713347
 11
237.2061762085
 21
451.9276893457
  0
LINE
  5
408
100
AcDbEntity
  8
_0-3_躯体と製品
  6
CONTINUOUS
 62
     0
100
AcDbLine
 10
239.9407657978
 20
447.7788861941
 11
235.7137477868
 21
452.005904205
  0
LINE
  5
409
100
AcDbEntity
  8
_0-3_躯体と製品
  6
CONTINUOUS
 62
     0
100
AcDbLine
 10
238.4483373761
 20
447.8571010534
 11
234.2213193652
 21
452.0841190643
  0
LINE
  5
40A
100
AcDbEntity
  8
_0-3_躯体と製品
  6
CONTINUOUS
 62
     0
100
AcDbLine
 10
236.9559089544
 20
447.9353159127
 11
233.5974135763
 21
451.2938112909
  0
LINE
  5
40B
100
AcDbEntity
  8
_0-3_躯体と製品
  6
CONTINUOUS
 62
     0
100
AcDbLine
 10
235.4634805327
 20
448.013530772
 11
233.5269886006
 21
449.9500227041
  0
LINE
  5
40C
100
AcDbEntity
  8
_0-3_躯体と製品
  6
CONTINUOUS
 62
     0
100
AcDbLine
 10
233.971052111
 20
448.0917456313
 11
233.4565636249
 21
448.6062341174
  0
LINE
  5
40D
100
AcDbEntity
  8
_0-3_躯体と製品
  6
CONTINUOUS
 62
     0
100
AcDbLine
 10
234.2065639141
 20
452.5855785377
 11
233.692075428
 21
453.1000670238
  0
LINE
  5
40E
100
AcDbEntity
  8
_0-3_躯体と製品
  6
CONTINUOUS
 62
     0
100
AcDbLine
 10
232.3320284093
 20
427.1488239578
 11
237.3251760831
 21
426.8871441766
  0
LINE
  5
40F
100
AcDbEntity
  8
_0-3_躯体と製品
  6
CONTINUOUS
 62
     0
100
AcDbLine
 10
237.3251760831
 20
426.8871441766
 11
237.3775120393
 21
427.8857737113
  0
LINE
  5
410
100
AcDbEntity
  8
_0-3_躯体と製品
  6
CONTINUOUS
 62
     0
100
AcDbLine
 10
237.3775120393
 20
427.8857737113
 11
257.3501027344
 21
426.8390545865
  0
LINE
  5
411
100
AcDbEntity
  8
_0-3_躯体と製品
  6
CONTINUOUS
 62
     0
100
AcDbLine
 10
257.2977667782
 20
425.8404250517
 11
257.3501027344
 21
426.8390545865
  0
LINE
  5
412
100
AcDbEntity
  8
_0-3_躯体と製品
  6
CONTINUOUS
 62
     0
100
AcDbLine
 10
257.2977667782
 20
425.8404250517
 11
260.7929701498
 21
425.6572492049
  0
ARC
  5
413
100
AcDbEntity
  8
_0-3_躯体と製品
  6
CONTINUOUS
 62
     0
100
AcDbCircle
 10
260.8714740842
 20
427.155193507
 40
1.5
100
AcDbArc
 50
-93.00000000001
 51
86.99999999999
  0
LINE
  5
414
100
AcDbEntity
  8
_0-3_躯体と製品
  6
CONTINUOUS
 62
     0
100
AcDbLine
 10
232.489036278
 20
430.1447125621
 11
260.9499780185
 21
428.6531378091
  0
LINE
  5
415
100
AcDbEntity
  8
_0-3_躯体と製品
  6
CONTINUOUS
 62
     0
100
AcDbLine
 10
210.8
 20
476.6786306945
 11
210.8
 21
475.163400212
  0
LINE
  5
416
100
AcDbEntity
  8
_0-3_躯体と製品
  6
CONTINUOUS
 62
     0
100
AcDbLine
 10
207.1557915925
 20
478.7610354988
 11
210.8
 21
476.6786306945
  0
ARC
  5
417
100
AcDbEntity
  8
_0-3_躯体と製品
  6
CONTINUOUS
 62
     0
100
AcDbCircle
 10
207.9
 20
480.063400212
 40
1.5
100
AcDbArc
 50
180
 51
240.2551187031
  0
LINE
  5
418
100
AcDbEntity
  8
_0-3_躯体と製品
  6
CONTINUOUS
 62
     0
100
AcDbLine
 10
206.4
 20
480.063400212
 11
206.4
 21
483.313400212
  0
ARC
  5
419
100
AcDbEntity
  8
_0-3_躯体と製品
  6
CONTINUOUS
 62
     0
100
AcDbCircle
 10
224
 20
429.5882317556
 40
2
100
AcDbArc
 50
180
 51
267
  0
LINE
  5
41A
100
AcDbEntity
  8
_0-3_躯体と製品
  6
CONTINUOUS
 62
     0
100
AcDbLine
 10
223.8953280875
 20
427.5909726861
 11
230.3347693398
 21
427.2534958703
  0
LINE
  5
41B
100
AcDbEntity
  8
_0-3_躯体と製品
  6
CONTINUOUS
 62
     0
100
AcDbLine
 10
222
 20
429.5882317556
 11
222
 21
437.063400212
  0
ARC
  5
41C
100
AcDbEntity
  8
_0-3_躯体と製品
  6
CONTINUOUS
 62
     0
100
AcDbCircle
 10
225.5
 20
431.5123647787
 40
1
100
AcDbArc
 50
180
 51
267
  0
LINE
  5
41D
100
AcDbEntity
  8
_0-3_躯体と製品
  6
CONTINUOUS
 62
     0
100
AcDbLine
 10
225.4476640438
 20
430.513735244
 11
230.4917772085
 21
430.2493844745
  0
LINE
  5
41E
100
AcDbEntity
  8
_0-3_躯体と製品
  6
CONTINUOUS
 62
     0
100
AcDbLine
 10
224.5
 20
431.5123647787
 11
224.5
 21
438.563400212
  0
ARC
  5
41F
100
AcDbEntity
  8
_0-3_躯体と製品
  6
CONTINUOUS
 62
     0
100
AcDbCircle
 10
230.3086013617
 20
426.7541811029
 40
0.5
100
AcDbArc
 50
-2.999999999999
 51
86.99999999999
  0
LINE
  5
420
100
AcDbEntity
  8
_0-3_躯体と製品
  6
CONTINUOUS
 62
     0
100
AcDbLine
 10
230.8079161291
 20
426.7280131248
 11
230.7555801728
 21
425.72938359
  0
ARC
  5
421
100
AcDbEntity
  8
_0-3_躯体と製品
  6
CONTINUOUS
 62
     0
100
AcDbCircle
 10
231.2548949402
 20
425.7032156119
 40
0.5
100
AcDbArc
 50
177
 51
267
  0
LINE
  5
422
100
AcDbEntity
  8
_0-3_躯体と製品
  6
CONTINUOUS
 62
     0
100
AcDbLine
 10
231.2287269621
 20
425.2039008445
 11
231.7280417294
 21
425.1777328664
  0
ARC
  5
423
100
AcDbEntity
  8
_0-3_躯体と製品
  6
CONTINUOUS
 62
     0
100
AcDbCircle
 10
231.7542097076
 20
425.6770476338
 40
0.5
100
AcDbArc
 50
-93.00000000001
 51
-2.999999999999
  0
ARC
  5
424
100
AcDbEntity
  8
_0-3_躯体と製品
  6
CONTINUOUS
 62
     0
100
AcDbCircle
 10
230.5179451866
 20
430.7486992419
 40
0.5
100
AcDbArc
 50
-93.00000000001
 51
-2.999999999999
  0
LINE
  5
425
100
AcDbEntity
  8
_0-3_躯体と製品
  6
CONTINUOUS
 62
     0
100
AcDbLine
 10
231.017259954
 20
430.7225312638
 11
231.1219318665
 21
432.7197903333
  0
ARC
  5
426
100
AcDbEntity
  8
_0-3_躯体と製品
  6
CONTINUOUS
 62
     0
100
AcDbCircle
 10
231.6212466339
 20
432.6936223552
 40
0.5
100
AcDbArc
 50
86.99999999999
 51
177
  0
LINE
  5
427
100
AcDbEntity
  8
_0-3_躯体と製品
  6
CONTINUOUS
 62
     0
100
AcDbLine
 10
231.647414612
 20
433.1929371226
 11
232.1467293794
 21
433.1667691444
  0
ARC
  5
428
100
AcDbEntity
  8
_0-3_躯体と製品
  6
CONTINUOUS
 62
     0
100
AcDbCircle
 10
232.1205614013
 20
432.6674543771
 40
0.5
100
AcDbArc
 50
-2.999999999999
 51
86.99999999999
  0
LINE
  5
429
100
AcDbEntity
  8
_0-3_躯体と製品
  6
CONTINUOUS
 62
     0
100
AcDbLine
 10
212.5
 20
476.563400212
 11
218
 21
476.563400212
  0
LINE
  5
42A
100
AcDbEntity
  8
_0-3_躯体と製品
  6
CONTINUOUS
 62
     0
100
AcDbLine
 10
219
 20
478.063400212
 11
211.4
 21
478.063400212
  0
ARC
  5
42B
100
AcDbEntity
  8
_0-3_躯体と製品
  6
CONTINUOUS
 62
     0
100
AcDbCircle
 10
212.5
 20
476.063400212
 40
0.5
100
AcDbArc
 50
90
 51
180
  0
LINE
  5
42C
100
AcDbEntity
  8
_0-3_躯体と製品
  6
CONTINUOUS
 62
     0
100
AcDbLine
 10
212
 20
476.063400212
 11
212
 21
475.163400212
  0
LINE
  5
42D
100
AcDbEntity
  8
_0-3_躯体と製品
  6
CONTINUOUS
 62
     0
100
AcDbLine
 10
207.9
 20
480.063400212
 11
211.4
 21
478.063400212
  0
LINE
  5
42E
100
AcDbEntity
  8
_0-3_躯体と製品
  6
CONTINUOUS
 62
     0
100
AcDbLine
 10
207.9
 20
483.313400212
 11
207.9
 21
480.063400212
  0
ARC
  5
42F
100
AcDbEntity
  8
_0-3_躯体と製品
  6
CONTINUOUS
 62
     0
100
AcDbCircle
 10
207.15
 20
483.313400212
 40
0.75
100
AcDbArc
 50
0
 51
180
  0
ARC
  5
430
100
AcDbEntity
  8
_0-3_躯体と製品
  6
CONTINUOUS
 62
     0
100
AcDbCircle
 10
211.4
 20
475.163400212
 40
0.6
100
AcDbArc
 50
180
 51
360
  0
LINE
  5
431
100
AcDbEntity
  8
_0-3_躯体と製品
  6
CONTINUOUS
 62
     0
100
AcDbLine
 10
220
 20
463.563400212
 11
220
 21
477.063400212
  0
ARC
  5
432
100
AcDbEntity
  8
_0-3_躯体と製品
  6
CONTINUOUS
 62
     0
100
AcDbCircle
 10
217.5
 20
472.563400212
 40
1
100
AcDbArc
 50
-90
 51
0
  0
LINE
  5
433
100
AcDbEntity
  8
_0-3_躯体と製品
  6
CONTINUOUS
 62
     0
100
AcDbLine
 10
221
 20
438.063400212
 11
210.5
 21
438.063400212
  0
LINE
  5
434
100
AcDbEntity
  8
_0-3_躯体と製品
  6
CONTINUOUS
 62
     0
100
AcDbLine
 10
217.5
 20
471.563400212
 11
213
 21
471.563400212
  0
LINE
  5
435
100
AcDbEntity
  8
_0-3_躯体と製品
  6
CONTINUOUS
 62
     0
100
AcDbLine
 10
222.5
 20
440.563400212
 11
214.5
 21
440.563400212
  0
LINE
  5
436
100
AcDbEntity
  8
_0-3_躯体と製品
  6
CONTINUOUS
 62
     0
100
AcDbLine
 10
214
 20
470.063400212
 11
218
 21
470.063400212
  0
ARC
  5
437
100
AcDbEntity
  8
_0-3_躯体と製品
  6
CONTINUOUS
 62
     0
100
AcDbCircle
 10
222.5
 20
438.563400212
 40
2
100
AcDbArc
 50
0
 51
90
  0
ARC
  5
438
100
AcDbEntity
  8
_0-3_躯体と製品
  6
CONTINUOUS
 62
     0
100
AcDbCircle
 10
221
 20
437.063400212
 40
1
100
AcDbArc
 50
0
 51
90
  0
LINE
  5
439
100
AcDbEntity
  8
_0-3_躯体と製品
  6
CONTINUOUS
 62
     0
100
AcDbLine
 10
219.5
 20
463.063400212
 11
218.5
 21
463.063400212
  0
ARC
  5
43A
100
AcDbEntity
  8
_0-3_躯体と製品
  6
CONTINUOUS
 62
     0
100
AcDbCircle
 10
219.5
 20
463.563400212
 40
0.5
100
AcDbArc
 50
-90
 51
0
  0
LINE
  5
43B
100
AcDbEntity
  8
_0-3_躯体と製品
  6
CONTINUOUS
 62
     0
100
AcDbLine
 10
218.5
 20
469.563400212
 11
218.5
 21
465.063400212
  0
ARC
  5
43C
100
AcDbEntity
  8
_0-3_躯体と製品
  6
CONTINUOUS
 62
     0
100
AcDbCircle
 10
218
 20
469.563400212
 40
0.5
100
AcDbArc
 50
0
 51
90
  0
ARC
  5
43D
100
AcDbEntity
  8
_0-3_躯体と製品
  6
CONTINUOUS
 62
     0
100
AcDbCircle
 10
218.5
 20
464.063400212
 40
1
100
AcDbArc
 50
90
 51
270
  0
ARC
  5
43E
100
AcDbEntity
  8
_0-3_躯体と製品
  6
CONTINUOUS
 62
     0
100
AcDbCircle
 10
219
 20
477.063400212
 40
1
100
AcDbArc
 50
0
 51
90
  0
LINE
  5
43F
100
AcDbEntity
  8
_0-3_躯体と製品
  6
CONTINUOUS
 62
     0
100
AcDbLine
 10
218.5
 20
472.563400212
 11
218.5
 21
476.063400212
  0
ARC
  5
440
100
AcDbEntity
  8
_0-3_躯体と製品
  6
CONTINUOUS
 62
     0
100
AcDbCircle
 10
218
 20
476.063400212
 40
0.5
100
AcDbArc
 50
0
 51
90
  0
ARC
  5
441
100
AcDbEntity
  8
_0-3_躯体と製品
  6
CONTINUOUS
 62
     0
100
AcDbCircle
 10
214.5
 20
441.563400212
 40
1
100
AcDbArc
 50
180
 51
270
  0
ARC
  5
442
100
AcDbEntity
  8
_0-3_躯体と製品
  6
CONTINUOUS
 62
     0
100
AcDbCircle
 10
214
 20
469.563400212
 40
0.5
100
AcDbArc
 50
90
 51
180
  0
LINE
  5
443
100
AcDbEntity
  8
_0-3_躯体と製品
  6
CONTINUOUS
 62
     0
100
AcDbLine
 10
213.5
 20
441.563400212
 11
213.5
 21
469.563400212
  0
LINE
  5
444
100
AcDbEntity
  8
_0-3_躯体と製品
  6
CONTINUOUS
 62
     0
100
AcDbLine
 10
211
 20
439.563400212
 11
209.5
 21
439.563400212
  0
ARC
  5
445
100
AcDbEntity
  8
_0-3_躯体と製品
  6
CONTINUOUS
 62
     0
100
AcDbCircle
 10
211
 20
440.063400212
 40
0.5
100
AcDbArc
 50
-90
 51
0
  0
LINE
  5
446
100
AcDbEntity
  8
_0-3_躯体と製品
  6
CONTINUOUS
 62
     0
100
AcDbLine
 10
211.5
 20
440.063400212
 11
211.5
 21
470.063400212
  0
ARC
  5
447
100
AcDbEntity
  8
_0-3_躯体と製品
  6
CONTINUOUS
 62
     0
100
AcDbCircle
 10
213
 20
470.063400212
 40
1.5
100
AcDbArc
 50
90
 51
180
  0
ARC
  5
448
100
AcDbEntity
  8
_0-3_躯体と製品
  6
CONTINUOUS
 62
     0
100
AcDbCircle
 10
210.5
 20
437.563400212
 40
0.5
100
AcDbArc
 50
90
 51
180
  0
LINE
  5
449
100
AcDbEntity
  8
_0-3_躯体と製品
  6
CONTINUOUS
 62
     0
100
AcDbLine
 10
210
 20
437.563400212
 11
210
 21
436.313400212
  0
ARC
  5
44A
100
AcDbEntity
  8
_0-3_躯体と製品
  6
CONTINUOUS
 62
     0
100
AcDbCircle
 10
209.25
 20
436.313400212
 40
0.75
100
AcDbArc
 50
180
 51
360
  0
ARC
  5
44B
100
AcDbEntity
  8
_0-3_躯体と製品
  6
CONTINUOUS
 62
     0
100
AcDbCircle
 10
209.5
 20
438.563400212
 40
1
100
AcDbArc
 50
90
 51
180
  0
LINE
  5
44C
100
AcDbEntity
  8
_0-3_躯体と製品
  6
CONTINUOUS
 62
     0
100
AcDbLine
 10
208.5
 20
438.563400212
 11
208.5
 21
436.313400212
  0
LINE
  5
44D
100
AcDbEntity
  8
_0-3_躯体と製品
  6
CONTINUOUS
 62
     0
100
AcDbLine
 10
248.4105265117
 20
447.335004844
 11
248.6198703367
 21
451.329522983
  0
LINE
  5
44E
100
AcDbEntity
  8
_0-3_躯体と製品
  6
CONTINUOUS
 62
     0
100
AcDbLine
 10
233.6404273154
 20
452.1145623267
 11
248.6198703367
 21
451.329522983
  0
LINE
  5
44F
100
AcDbEntity
  8
_0-3_躯体と製品
  6
CONTINUOUS
 62
     0
100
AcDbLine
 10
232.2011885187
 20
424.6522501209
 11
233.6665952935
 21
452.613877094
  0
LINE
  5
450
100
AcDbEntity
  8
_0-3_躯体と製品
  6
CONTINUOUS
 62
     0
100
AcDbLine
 10
233.6665952935
 20
452.613877094
 11
233.8093970062
 21
455.338696094
  0
ARC
  5
451
100
AcDbEntity
  8
_0-3_躯体と製品
  6
CONTINUOUS
 62
     0
100
AcDbCircle
 10
654.1631796343
 20
425.7985952383
 40
7.5
100
AcDbArc
 50
10.1246716554
 51
86.99999999999
  0
LINE
  5
452
100
AcDbEntity
  8
_0-3_躯体と製品
  6
CONTINUOUS
 62
     0
100
AcDbLine
 10
661.5463864506
 20
427.1170250269
 11
675.5
 21
348.9767891502
  0
LINE
  5
453
100
AcDbEntity
  8
_0-3_躯体と製品
  6
CONTINUOUS
 62
     0
100
AcDbLine
 10
675.5
 20
348.9767891502
 11
671.0700759103
 21
348.1857312766
  0
LINE
  5
454
100
AcDbEntity
  8
_0-3_躯体と製品
  6
CONTINUOUS
 62
     0
100
AcDbLine
 10
657.1164623608
 20
426.3259671537
 11
671.0700759102
 21
348.185731277
  0
ARC
  5
455
100
AcDbEntity
  8
_0-3_躯体と製品
  6
CONTINUOUS
 62
     0
100
AcDbCircle
 10
654.1631796343
 20
425.7985952383
 40
3
100
AcDbArc
 50
10.1246716554
 51
86.99999999999
  0
LINE
  5
456
100
AcDbEntity
  8
_0-3_躯体と製品
  6
CONTINUOUS
 62
     0
100
AcDbLine
 10
210.5
 20
459.4071835277
 11
210.5
 21
471.5602898275
  0
LINE
  5
457
100
AcDbEntity
  8
_0-3_躯体と製品
  6
CONTINUOUS
 62
     0
100
AcDbLine
 10
210.5
 20
471.5602898275
 11
206
 21
471.5602898275
  0
LINE
  5
458
100
AcDbEntity
  8
_0-3_躯体と製品
  6
CONTINUOUS
 62
     0
100
AcDbLine
 10
206
 20
459.4071835277
 11
206
 21
471.5602898275
  0
ARC
  5
459
100
AcDbEntity
  8
_0-3_躯体と製品
  6
CONTINUOUS
 62
     0
100
AcDbCircle
 10
213.5
 20
459.4071835277
 40
3
100
AcDbArc
 50
180
 51
267
  0
ARC
  5
45A
100
AcDbEntity
  8
_0-3_躯体と製品
  6
CONTINUOUS
 62
     0
100
AcDbCircle
 10
213.5
 20
459.4071835277
 40
7.5
100
AcDbArc
 50
180
 51
267
  0
LINE
  5
45B
100
AcDbEntity
  8
_0-3_躯体と製品
  6
CONTINUOUS
 62
     0
100
AcDbLine
 10
201.5
 20
386
 11
226.5
 21
386
  0
LINE
  5
45C
100
AcDbEntity
  8
_0-3_躯体と製品
  6
CONTINUOUS
 62
     0
100
AcDbLine
 10
226.5
 20
386
 11
226.5
 21
241
  0
LINE
  5
45D
100
AcDbEntity
  8
_0-3_躯体と製品
  6
CONTINUOUS
 62
     0
100
AcDbLine
 10
234.7
 20
460.763400212
 11
233.2502282315
 21
458.7266965469
  0
LINE
  5
45E
100
AcDbEntity
  8
_0-4_図枠
  6
CONTINUOUS
 62
     0
100
AcDbLine
 10
8
 20
582
 11
8
 21
6
  0
LINE
  5
45F
100
AcDbEntity
  8
_0-4_図枠
  6
CONTINUOUS
 62
     0
100
AcDbLine
 10
832
 20
582
 11
8
 21
582
  0
LINE
  5
460
100
AcDbEntity
  8
_0-4_図枠
  6
CONTINUOUS
 62
     0
100
AcDbLine
 10
832
 20
6
 11
832
 21
582
  0
LINE
  5
461
100
AcDbEntity
  8
_0-4_図枠
  6
CONTINUOUS
 62
     0
100
AcDbLine
 10
8
 20
6
 11
832
 21
6
  0
CIRCLE
  5
462
100
AcDbEntity
  8
_0-4_図枠
  6
CONTINUOUS
 62
     0
100
AcDbCircle
 10
482.3323748293
 20
338.3286002038
 40
6
  0
ARC
  5
463
100
AcDbEntity
  8
_0-3_躯体と製品
  6
CONTINUOUS
 62
     0
100
AcDbCircle
 10
494
 20
347.5
 40
1
100
AcDbArc
 50
180
 51
270
  0
LINE
  5
464
100
AcDbEntity
  8
_0-3_躯体と製品
  6
CONTINUOUS
 62
     0
100
AcDbLine
 10
490.87497
 20
348.738004
 11
495.060403
 21
348
  0
LINE
  5
465
100
AcDbEntity
  8
_0-3_躯体と製品
  6
CONTINUOUS
 62
     0
100
AcDbLine
 10
504.12503
 20
348.738004
 11
499.939597
 21
348
  0
LINE
  5
466
100
AcDbEntity
  8
_0-3_躯体と製品
  6
CONTINUOUS
 62
     0
100
AcDbLine
 10
502
 20
347.5
 11
502
 21
348.363304
  0
ARC
  5
467
100
AcDbEntity
  8
_0-3_躯体と製品
  6
CONTINUOUS
 62
     0
100
AcDbCircle
 10
501
 20
347.5
 40
1
100
AcDbArc
 50
-90
 51
0
  0
LINE
  5
468
100
AcDbEntity
  8
_0-3_躯体と製品
  6
CONTINUOUS
 62
     0
100
AcDbLine
 10
501
 20
346.5
 11
494
 21
346.5
  0
LINE
  5
469
100
AcDbEntity
  8
_0-3_躯体と製品
  6
CONTINUOUS
 62
     0
100
AcDbLine
 10
493
 20
347.5
 11
493
 21
348.363304
  0
LINE
  5
46A
100
AcDbEntity
  8
_0-2_寸法
  6
CONTINUOUS
 62
     0
100
AcDbLine
 10
226.5
 20
255.75
 11
226.5
 21
256
  0
LINE
  5
46B
100
AcDbEntity
  8
_0-2_寸法
  6
CONTINUOUS
 62
     0
100
AcDbLine
 10
227.5
 20
256
 11
425.5
 21
256
  0
TEXT
  5
46C
100
AcDbEntity
  8
_0-2_寸法
  6
CONTINUOUS
 62
     0
100
AcDbText
 10
322.75
 20
257
 40
5
  1
200
  7
STANDARD
100
AcDbText
  0
CIRCLE
  5
46D
100
AcDbEntity
  8
_0-2_寸法
  6
CONTINUOUS
 62
     0
100
AcDbCircle
 10
226.5
 20
255.75
 40
1.4
  0
CIRCLE
  5
46E
100
AcDbEntity
  8
_0-2_寸法
  6
CONTINUOUS
 62
     0
100
AcDbCircle
 10
426.5
 20
256
 40
1.4
  0
CIRCLE
  5
46F
100
AcDbEntity
  8
_0-2_寸法
  6
CONTINUOUS
 62
     0
100
AcDbCircle
 10
426.5
 20
256
 40
1.4
  0
LINE
  5
470
100
AcDbEntity
  8
_0-2_寸法
  6
CONTINUOUS
 62
     0
100
AcDbLine
 10
201.5
 20
384
 11
201.5
 21
256
  0
LINE
  5
471
100
AcDbEntity
  8
_0-2_寸法
  6
CONTINUOUS
 62
     0
100
AcDbLine
 10
202.5
 20
256
 11
225.5
 21
256
  0
TEXT
  5
472
100
AcDbEntity
  8
_0-2_寸法
  6
CONTINUOUS
 62
     0
100
AcDbText
 10
211.5
 20
257
 40
5
  1
25
  7
STANDARD
100
AcDbText
  0
CIRCLE
  5
473
100
AcDbEntity
  8
_0-2_寸法
  6
CONTINUOUS
 62
     0
100
AcDbCircle
 10
201.5
 20
384
 40
1.4
  0
CIRCLE
  5
474
100
AcDbEntity
  8
_0-2_寸法
  6
CONTINUOUS
 62
     0
100
AcDbCircle
 10
226.5
 20
256
 40
1.4
  0
CIRCLE
  5
475
100
AcDbEntity
  8
_0-2_寸法
  6
CONTINUOUS
 62
     0
100
AcDbCircle
 10
226.5
 20
256
 40
1.4
  0
LINE
  5
476
100
AcDbEntity
  8
_0-2_寸法
  6
CONTINUOUS
 62
     0
100
AcDbLine
 10
199.5
 20
386
 11
146.5
 21
386
  0
LINE
  5
477
100
AcDbEntity
  8
_0-2_寸法
  6
CONTINUOUS
 62
     0
100
AcDbLine
 10
146.5
 20
387
 11
146.5
 21
453.063400212
  0
TEXT
  5
478
100
AcDbEntity
  8
_0-2_寸法
  6
CONTINUOUS
 62
     0
100
AcDbText
 10
145.5
 20
418.781700106
 40
5
  1
D
 50
90
  7
STANDARD
100
AcDbText
  0
CIRCLE
  5
479
100
AcDbEntity
  8
_0-2_寸法
  6
CONTINUOUS
 62
     0
100
AcDbCircle
 10
199.5
 20
386
 40
1.4
  0
CIRCLE
  5
47A
100
AcDbEntity
  8
_0-2_寸法
  6
CONTINUOUS
 62
     0
100
AcDbCircle
 10
146.5
 20
454.063400212
 40
1.4
  0
CIRCLE
  5
47B
100
AcDbEntity
  8
_0-2_寸法
  6
CONTINUOUS
 62
     0
100
AcDbCircle
 10
146.5
 20
454.063400212
 40
1.4
  0
LINE
  5
47C
100
AcDbEntity
  8
_0-2_寸法
  6
CONTINUOUS
 62
     0
100
AcDbLine
 10
677.5
 20
435.5879154213
 11
677.5
 21
490.763400212
  0
LINE
  5
47D
100
AcDbEntity
  8
_0-2_寸法
  6
CONTINUOUS
 62
     0
100
AcDbLine
 10
217.5
 20
471.6954938915
 11
217.5
 21
490.763400212
  0
LINE
  5
47E
100
AcDbEntity
  8
_0-2_寸法
  6
CONTINUOUS
 62
     0
100
AcDbLine
 10
676.5
 20
490.763400212
 11
218.5
 21
490.763400212
  0
TEXT
  5
47F
100
AcDbEntity
  8
_0-2_寸法
  6
CONTINUOUS
 62
     0
100
AcDbText
 10
446.25
 20
491.763400212
 40
5
  1
A
  7
STANDARD
100
AcDbText
  0
CIRCLE
  5
480
100
AcDbEntity
  8
_0-2_寸法
  6
CONTINUOUS
 62
     0
100
AcDbCircle
 10
677.5
 20
435.5879154213
 40
1.4
  0
CIRCLE
  5
481
100
AcDbEntity
  8
_0-2_寸法
  6
CONTINUOUS
 62
     0
100
AcDbCircle
 10
217.5
 20
471.6954938915
 40
1.4
  0
CIRCLE
  5
482
100
AcDbEntity
  8
_0-2_寸法
  6
CONTINUOUS
 62
     0
100
AcDbCircle
 10
217.5
 20
490.763400212
 40
1.4
  0
LINE
  5
483
100
AcDbEntity
  8
_0-2_寸法
  6
CONTINUOUS
 62
     0
100
AcDbLine
 10
237.7
 20
497.763400212
 11
270.7
 21
497.763400212
  0
LINE
  5
484
100
AcDbEntity
  8
_0-2_寸法
  6
CONTINUOUS
 62
     0
100
AcDbLine
 10
228.5
 20
512.763400212
 11
270.7
 21
512.763400212
  0
LINE
  5
485
100
AcDbEntity
  8
_0-2_寸法
  6
CONTINUOUS
 62
     0
100
AcDbLine
 10
270.7
 20
498.763400212
 11
270.7
 21
511.763400212
  0
TEXT
  5
486
100
AcDbEntity
  8
_0-2_寸法
  6
CONTINUOUS
 62
     0
100
AcDbText
 10
269.7
 20
502.763400212
 40
5
  1
15
 50
90
  7
STANDARD
100
AcDbText
  0
CIRCLE
  5
487
100
AcDbEntity
  8
_0-2_寸法
  6
CONTINUOUS
 62
     0
100
AcDbCircle
 10
237.7
 20
497.763400212
 40
1.4
  0
CIRCLE
  5
488
100
AcDbEntity
  8
_0-2_寸法
  6
CONTINUOUS
 62
     0
100
AcDbCircle
 10
228.5
 20
512.763400212
 40
1.4
  0
CIRCLE
  5
489
100
AcDbEntity
  8
_0-2_寸法
  6
CONTINUOUS
 62
     0
100
AcDbCircle
 10
270.7
 20
512.763400212
 40
1.4
  0
LINE
  5
48A
100
AcDbEntity
  8
_0-2_寸法
  6
CONTINUOUS
 62
     0
100
AcDbLine
 10
237.7
 20
461.763400212
 11
270.7
 21
461.763400212
  0
LINE
  5
48B
100
AcDbEntity
  8
_0-2_寸法
  6
CONTINUOUS
 62
     0
100
AcDbLine
 10
237.7
 20
497.763400212
 11
270.7
 21
497.763400212
  0
LINE
  5
48C
100
AcDbEntity
  8
_0-2_寸法
  6
CONTINUOUS
 62
     0
100
AcDbLine
 10
270.7
 20
462.763400212
 11
270.7
 21
496.763400212
  0
TEXT
  5
48D
100
AcDbEntity
  8
_0-2_寸法
  6
CONTINUOUS
 62
     0
100
AcDbText
 10
269.7
 20
477.263400212
 40
5
  1
36
 50
90
  7
STANDARD
100
AcDbText
  0
CIRCLE
  5
48E
100
AcDbEntity
  8
_0-2_寸法
  6
CONTINUOUS
 62
     0
100
AcDbCircle
 10
237.7
 20
461.763400212
 40
1.4
  0
CIRCLE
  5
48F
100
AcDbEntity
  8
_0-2_寸法
  6
CONTINUOUS
 62
     0
100
AcDbCircle
 10
237.7
 20
497.763400212
 40
1.4
  0
CIRCLE
  5
490
100
AcDbEntity
  8
_0-2_寸法
  6
CONTINUOUS
 62
     0
100
AcDbCircle
 10
270.7
 20
497.763400212
 40
1.4
  0
LINE
  5
491
100
AcDbEntity
  8
_0-2_寸法
  6
CONTINUOUS
 62
     0
100
AcDbLine
 10
235.7
 20
500.526800424
 11
235.7
 21
537.763400212
  0
LINE
  5
492
100
AcDbEntity
  8
_0-2_寸法
  6
CONTINUOUS
 62
     0
100
AcDbLine
 10
215.7
 20
514.763400212
 11
215.7
 21
537.763400212
  0
LINE
  5
493
100
AcDbEntity
  8
_0-2_寸法
  6
CONTINUOUS
 62
     0
100
AcDbLine
 10
234.7
 20
537.763400212
 11
216.7
 21
537.763400212
  0
TEXT
  5
494
100
AcDbEntity
  8
_0-2_寸法
  6
CONTINUOUS
 62
     0
100
AcDbText
 10
223.2
 20
538.763400212
 40
5
  1
20
  7
STANDARD
100
AcDbText
  0
CIRCLE
  5
495
100
AcDbEntity
  8
_0-2_寸法
  6
CONTINUOUS
 62
     0
100
AcDbCircle
 10
235.7
 20
500.526800424
 40
1.4
  0
CIRCLE
  5
496
100
AcDbEntity
  8
_0-2_寸法
  6
CONTINUOUS
 62
     0
100
AcDbCircle
 10
215.7
 20
514.763400212
 40
1.4
  0
CIRCLE
  5
497
100
AcDbEntity
  8
_0-2_寸法
  6
CONTINUOUS
 62
     0
100
AcDbCircle
 10
215.7
 20
537.763400212
 40
1.4
  0
LINE
  5
498
100
AcDbEntity
  8
_0-2_寸法
  6
CONTINUOUS
 62
     0
100
AcDbLine
 10
235.7
 20
500.526800424
 11
235.7
 21
547.763400212
  0
LINE
  5
499
100
AcDbEntity
  8
_0-2_寸法
  6
CONTINUOUS
 62
     0
100
AcDbLine
 10
202.5
 20
499.763400212
 11
202.5
 21
547.763400212
  0
LINE
  5
49A
100
AcDbEntity
  8
_0-2_寸法
  6
CONTINUOUS
 62
     0
100
AcDbLine
 10
234.7
 20
547.763400212
 11
203.5
 21
547.763400212
  0
TEXT
  5
49B
100
AcDbEntity
  8
_0-2_寸法
  6
CONTINUOUS
 62
     0
100
AcDbText
 10
214.1
 20
548.763400212
 40
5
  1
33.2
  7
STANDARD
100
AcDbText
  0
CIRCLE
  5
49C
100
AcDbEntity
  8
_0-2_寸法
  6
CONTINUOUS
 62
     0
100
AcDbCircle
 10
235.7
 20
500.526800424
 40
1.4
  0
CIRCLE
  5
49D
100
AcDbEntity
  8
_0-2_寸法
  6
CONTINUOUS
 62
     0
100
AcDbCircle
 10
202.5
 20
499.763400212
 40
1.4
  0
CIRCLE
  5
49E
100
AcDbEntity
  8
_0-2_寸法
  6
CONTINUOUS
 62
     0
100
AcDbCircle
 10
202.5
 20
547.763400212
 40
1.4
  0
LINE
  5
49F
100
AcDbEntity
  8
_0-2_寸法
  6
CONTINUOUS
 62
     0
100
AcDbLine
 10
199.5
 20
512.763400212
 11
126.5
 21
512.763400212
  0
LINE
  5
4A0
100
AcDbEntity
  8
_0-2_寸法
  6
CONTINUOUS
 62
     0
100
AcDbLine
 10
199.5
 20
386
 11
126.5
 21
386
  0
LINE
  5
4A1
100
AcDbEntity
  8
_0-2_寸法
  6
CONTINUOUS
 62
     0
100
AcDbLine
 10
126.5
 20
511.763400212
 11
126.5
 21
387
  0
TEXT
  5
4A2
100
AcDbEntity
  8
_0-2_寸法
  6
CONTINUOUS
 62
     0
100
AcDbText
 10
125.5
 20
448.131700106
 40
5
  1
E
 50
90
  7
STANDARD
100
AcDbText
  0
CIRCLE
  5
4A3
100
AcDbEntity
  8
_0-2_寸法
  6
CONTINUOUS
 62
     0
100
AcDbCircle
 10
199.5
 20
512.763400212
 40
1.4
  0
CIRCLE
  5
4A4
100
AcDbEntity
  8
_0-2_寸法
  6
CONTINUOUS
 62
     0
100
AcDbCircle
 10
199.5
 20
386
 40
1.4
  0
CIRCLE
  5
4A5
100
AcDbEntity
  8
_0-2_寸法
  6
CONTINUOUS
 62
     0
100
AcDbCircle
 10
126.5
 20
386
 40
1.4
  0
LINE
  5
4A6
100
AcDbEntity
  8
_0-2_寸法
  6
CONTINUOUS
 62
     0
100
AcDbLine
 10
202.5
 20
499.763400212
 11
202.5
 21
562.763400212
  0
LINE
  5
4A7
100
AcDbEntity
  8
_0-2_寸法
  6
CONTINUOUS
 62
     0
100
AcDbLine
 10
677.5
 20
435.5879154213
 11
677.5
 21
562.763400212
  0
LINE
  5
4A8
100
AcDbEntity
  8
_0-2_寸法
  6
CONTINUOUS
 62
     0
100
AcDbLine
 10
203.5
 20
562.763400212
 11
676.5
 21
562.763400212
  0
TEXT
  5
4A9
100
AcDbEntity
  8
_0-2_寸法
  6
CONTINUOUS
 62
     0
100
AcDbText
 10
438.75
 20
563.763400212
 40
5
  1
W
  7
STANDARD
100
AcDbText
  0
CIRCLE
  5
4AA
100
AcDbEntity
  8
_0-2_寸法
  6
CONTINUOUS
 62
     0
100
AcDbCircle
 10
202.5
 20
499.763400212
 40
1.4
  0
CIRCLE
  5
4AB
100
AcDbEntity
  8
_0-2_寸法
  6
CONTINUOUS
 62
     0
100
AcDbCircle
 10
677.5
 20
435.5879154213
 40
1.4
  0
CIRCLE
  5
4AC
100
AcDbEntity
  8
_0-2_寸法
  6
CONTINUOUS
 62
     0
100
AcDbCircle
 10
677.5
 20
562.763400212
 40
1.4
  0
LINE
  5
4AD
100
AcDbEntity
  8
_0-2_寸法
  6
CONTINUOUS
 62
     0
100
AcDbLine
 10
679.5
 20
343.5879154213
 11
737.5
 21
343.5879154213
  0
LINE
  5
4AE
100
AcDbEntity
  8
_0-2_寸法
  6
CONTINUOUS
 62
     0
100
AcDbLine
 10
679.5
 20
433.5879154213
 11
737.5
 21
433.5879154213
  0
LINE
  5
4AF
100
AcDbEntity
  8
_0-2_寸法
  6
CONTINUOUS
 62
     0
100
AcDbLine
 10
737.5
 20
344.5879154213
 11
737.5
 21
432.5879154213
  0
TEXT
  5
4B0
100
AcDbEntity
  8
_0-2_寸法
  6
CONTINUOUS
 62
     0
100
AcDbText
 10
736.5
 20
386.0879154213
 40
5
  1
90
 50
90
  7
STANDARD
100
AcDbText
  0
CIRCLE
  5
4B1
100
AcDbEntity
  8
_0-2_寸法
  6
CONTINUOUS
 62
     0
100
AcDbCircle
 10
679.5
 20
343.5879154213
 40
1.4
  0
CIRCLE
  5
4B2
100
AcDbEntity
  8
_0-2_寸法
  6
CONTINUOUS
 62
     0
100
AcDbCircle
 10
679.5
 20
433.5879154213
 40
1.4
  0
CIRCLE
  5
4B3
100
AcDbEntity
  8
_0-2_寸法
  6
CONTINUOUS
 62
     0
100
AcDbCircle
 10
737.5
 20
433.5879154213
 40
1.4
  0
LINE
  5
4B4
100
AcDbEntity
  8
_0-2_寸法
  6
CONTINUOUS
 62
     0
100
AcDbLine
 10
679.5
 20
343.5879154213
 11
717.5
 21
343.5879154213
  0
LINE
  5
4B5
100
AcDbEntity
  8
_0-2_寸法
  6
CONTINUOUS
 62
     0
100
AcDbLine
 10
717.5
 20
344.5879154213
 11
717.5
 21
385
  0
TEXT
  5
4B6
100
AcDbEntity
  8
_0-2_寸法
  6
CONTINUOUS
 62
     0
100
AcDbText
 10
716.5
 20
362.2939577107
 40
5
  1
44
 50
90
  7
STANDARD
100
AcDbText
  0
CIRCLE
  5
4B7
100
AcDbEntity
  8
_0-2_寸法
  6
CONTINUOUS
 62
     0
100
AcDbCircle
 10
679.5
 20
343.5879154213
 40
1.4
  0
CIRCLE
  5
4B8
100
AcDbEntity
  8
_0-2_寸法
  6
CONTINUOUS
 62
     0
100
AcDbCircle
 10
717.5
 20
386
 40
1.4
  0
LINE
  5
4B9
100
AcDbEntity
  8
_0-2_寸法
  6
CONTINUOUS
 62
     0
100
AcDbLine
 10
426.5
 20
255.75
 11
426.5
 21
256
  0
CIRCLE
  5
4BA
100
AcDbEntity
  8
_0-2_寸法
  6
CONTINUOUS
 62
     0
100
AcDbCircle
 10
426.5
 20
255.75
 40
1.4
  0
LINE
  5
4BB
100
AcDbEntity
  8
_0-2_寸法
  6
CONTINUOUS
 62
     0
100
AcDbLine
 10
677.5
 20
341.5879154213
 11
677.5
 21
255.8110543473
  0
CIRCLE
  5
4BC
100
AcDbEntity
  8
_0-2_寸法
  6
CONTINUOUS
 62
     0
100
AcDbCircle
 10
677.5
 20
341.5879154213
 40
1.4
  0
CIRCLE
  5
4BD
100
AcDbEntity
  8
_0-2_寸法
  6
CONTINUOUS
 62
     0
100
AcDbCircle
 10
677.5
 20
255.8110543473
 40
1.4
  0
CIRCLE
  5
4BE
100
AcDbEntity
  8
_0-2_寸法
  6
CONTINUOUS
 62
     0
100
AcDbCircle
 10
547.5
 20
256
 40
1.4
  0
CIRCLE
  5
4BF
100
AcDbEntity
  8
_0-2_寸法
  6
CONTINUOUS
 62
     0
100
AcDbCircle
 10
547.5
 20
256
 40
1.4
  0
LINE
  5
4C0
100
AcDbEntity
  8
_0-2_寸法
  6
CONTINUOUS
 62
     0
100
AcDbLine
 10
547.5
 20
255.75
 11
547.5
 21
255.8110543473
  0
CIRCLE
  5
4C1
100
AcDbEntity
  8
_0-2_寸法
  6
CONTINUOUS
 62
     0
100
AcDbCircle
 10
547.5
 20
255.75
 40
1.4
  0
LINE
  5
4C2
100
AcDbEntity
  8
_0-2_寸法
  6
CONTINUOUS
 62
     0
100
AcDbLine
 10
547.5
 20
255.8110543473
 11
676.5
 21
255.8110543473
  0
LINE
  5
4C3
100
AcDbEntity
  8
_0-2_寸法
  6
CONTINUOUS
 62
     0
100
AcDbLine
 10
427.5
 20
256
 11
547.5
 21
256
  0
LINE
  5
4C4
100
AcDbEntity
  8
_0-2_寸法
  6
CONTINUOUS
 62
     0
100
AcDbLine
 10
497.5
 20
326
 11
547.5
 21
326
  0
TEXT
  5
4C5
100
AcDbEntity
  8
_0-2_寸法
  6
CONTINUOUS
 62
     0
100
AcDbText
 10
520
 20
327
 40
5
  1
50
  7
STANDARD
100
AcDbText
  0
CIRCLE
  5
4C6
100
AcDbEntity
  8
_0-2_寸法
  6
CONTINUOUS
 62
     0
100
AcDbCircle
 10
497.5
 20
326
 40
1.4
  0
CIRCLE
  5
4C7
100
AcDbEntity
  8
_0-2_寸法
  6
CONTINUOUS
 62
     0
100
AcDbCircle
 10
547.5
 20
326
 40
1.4
  0
CIRCLE
  5
4C8
100
AcDbEntity
  8
_0-2_寸法
  6
CONTINUOUS
 62
     0
100
AcDbCircle
 10
547.5
 20
326
 40
1.4
  0
CIRCLE
  5
4C9
100
AcDbEntity
  8
_0-4_図枠
  6
CONTINUOUS
 62
     0
100
AcDbCircle
 10
520.5278864015
 20
460.3563186478
 40
6
  0
CIRCLE
  5
4CA
100
AcDbEntity
  8
_0-4_図枠
  6
CONTINUOUS
 62
     0
100
AcDbCircle
 10
536.5388276258
 20
463.87801187
 40
6
  0
LINE
  5
4CB
100
AcDbEntity
  8
_0-4_図枠
  6
CONTINUOUS
 62
     0
100
AcDbLine
 10
681
 20
180
 11
456
 21
180
  0
LINE
  5
4CC
100
AcDbEntity
  8
_0-4_図枠
  6
CONTINUOUS
 62
     0
100
AcDbLine
 10
681
 20
189
 11
456
 21
189
  0
LINE
  5
4CD
100
AcDbEntity
  8
_0-4_図枠
  6
CONTINUOUS
 62
     0
100
AcDbLine
 10
681
 20
198
 11
456
 21
198
  0
LINE
  5
4CE
100
AcDbEntity
  8
_0-4_図枠
  6
CONTINUOUS
 62
     0
100
AcDbLine
 10
681
 20
207
 11
456
 21
207
  0
LINE
  5
4CF
100
AcDbEntity
  8
_0-4_図枠
  6
CONTINUOUS
 62
     0
100
AcDbLine
 10
681
 20
225
 11
456
 21
225
  0
LINE
  5
4D0
100
AcDbEntity
  8
_0-4_図枠
  6
CONTINUOUS
 62
     0
100
AcDbLine
 10
681
 20
234
 11
456
 21
234
  0
LINE
  5
4D1
100
AcDbEntity
  8
_0-4_図枠
  6
CONTINUOUS
 62
     0
100
AcDbLine
 10
681
 20
216
 11
456
 21
216
  0
TEXT
  5
4D2
100
AcDbEntity
  8
_0-4_図枠
  6
CONTINUOUS
 62
     0
100
AcDbText
 10
640
 20
234.9518215657
 40
5
  1
（単位：mm）
  7
STANDARD
100
AcDbText
  0
TEXT
  5
4D3
100
AcDbEntity
  8
_0-4_図枠
  6
CONTINUOUS
 62
     0
100
AcDbText
 10
663
 20
226.5
 40
5
  1
Ｅ
  7
STANDARD
100
AcDbText
  0
TEXT
  5
4D4
100
AcDbEntity
  8
_0-4_図枠
  6
CONTINUOUS
 62
     0
100
AcDbText
 10
633
 20
226.5
 40
5
  1
Ｄ
  7
STANDARD
100
AcDbText
  0
TEXT
  5
4D5
100
AcDbEntity
  8
_0-4_図枠
  6
CONTINUOUS
 62
     0
100
AcDbText
 10
603
 20
226.5
 40
5
  1
Ｃ
  7
STANDARD
100
AcDbText
  0
TEXT
  5
4D6
100
AcDbEntity
  8
_0-4_図枠
  6
CONTINUOUS
 62
     0
100
AcDbText
 10
543
 20
226.5
 40
5
  1
Ｗ
  7
STANDARD
100
AcDbText
  0
TEXT
  5
4D7
100
AcDbEntity
  8
_0-4_図枠
  6
CONTINUOUS
 62
     0
100
AcDbText
 10
573
 20
226.5
 40
5
  1
Ａ
  7
STANDARD
100
AcDbText
  0
TEXT
  5
4D8
100
AcDbEntity
  8
_0-4_図枠
  6
CONTINUOUS
 62
     0
100
AcDbText
 10
476.5
 20
226.5
 40
5
  1
タ　イ　プ
  7
STANDARD
100
AcDbText
  0
TEXT
  5
4D9
100
AcDbEntity
  8
_0-4_図枠
  6
CONTINUOUS
 62
     0
100
AcDbText
 10
479.0823748293
 20
335.3286002038
 40
5
  1
16
  7
STANDARD
100
AcDbText
  0
TEXT
  5
4DA
100
AcDbEntity
  8
_0-4_図枠
  6
CONTINUOUS
 62
     0
100
AcDbText
 10
517.2778864015
 20
457.3563186478
 40
5
  1
13
  7
STANDARD
100
AcDbText
  0
TEXT
  5
4DB
100
AcDbEntity
  8
_0-4_図枠
  6
CONTINUOUS
 62
     0
100
AcDbText
 10
533.5388276258
 20
460.87801187
 40
5
  1
６
  7
STANDARD
100
AcDbText
  0
TEXT
  5
4DC
100
AcDbEntity
  8
_0-4_図枠
  6
CONTINUOUS
 62
     0
100
AcDbText
 10
684.8900638536
 20
458.663885327
 40
5
  1
８
  7
STANDARD
100
AcDbText
  0
TEXT
  5
4DD
100
AcDbEntity
  8
_0-4_図枠
  6
CONTINUOUS
 62
     0
100
AcDbText
 10
153.8182362501
 20
475.6123579856
 40
5
  1
17
  7
STANDARD
100
AcDbText
  0
TEXT
  5
4DE
100
AcDbEntity
  8
_0-4_図枠
  6
CONTINUOUS
 62
     0
100
AcDbText
 10
186.5818935557
 20
541.8277366127
 40
5
  1
14
  7
STANDARD
100
AcDbText
  0
TEXT
  5
4DF
100
AcDbEntity
  8
_0-4_図枠
  6
CONTINUOUS
 62
     0
100
AcDbText
 10
254.9365555244
 20
517.9043954123
 40
5
  1
９
  7
STANDARD
100
AcDbText
  0
TEXT
  5
4E0
100
AcDbEntity
  8
_0-4_図枠
  6
CONTINUOUS
 62
     0
100
AcDbText
 10
256.8625019454
 20
409.887235911
 40
5
  1
12
  7
STANDARD
100
AcDbText
  0
TEXT
  5
4E1
100
AcDbEntity
  8
_0-4_図枠
  6
CONTINUOUS
 62
     0
100
AcDbText
 10
259.5228563375
 20
337.4189852002
 40
5
  1
10
  7
STANDARD
100
AcDbText
  0
TEXT
  5
4E2
100
AcDbEntity
  8
_0-4_図枠
  6
CONTINUOUS
 62
     0
100
AcDbText
 10
181.8845402624
 20
476.7110981983
 40
5
  1
18
  7
STANDARD
100
AcDbText
  0
TEXT
  5
4E3
100
AcDbEntity
  8
_0-4_図枠
  6
CONTINUOUS
 62
     0
100
AcDbText
 10
183.1080003902
 20
432.6542294133
 40
5
  1
20
  7
STANDARD
100
AcDbText
  0
LINE
  5
4E4
100
AcDbEntity
  8
_0-0_0
  6
CONTINUOUS
 62
     0
100
AcDbLine
 10
300
 20
45
 11
91
 21
45
  0
LINE
  5
4E5
100
AcDbEntity
  8
_0-0_0
  6
CONTINUOUS
 62
     0
100
AcDbLine
 10
300
 20
36
 11
91
 21
36
  0
LINE
  5
4E6
100
AcDbEntity
  8
_0-0_0
  6
CONTINUOUS
 62
     0
100
AcDbLine
 10
300
 20
126
 11
91
 21
126
  0
LINE
  5
4E7
100
AcDbEntity
  8
_0-0_0
  6
CONTINUOUS
 62
     0
100
AcDbLine
 10
300
 20
135
 11
91
 21
135
  0
TEXT
  5
4E8
100
AcDbEntity
  8
_0-0_0
  6
CONTINUOUS
 62
     0
100
AcDbText
 10
310.3333333333
 20
235.0600336776
 40
5
  1
（3000mmセット）
  7
STANDARD
100
AcDbText
  0
TEXT
  5
4E9
100
AcDbEntity
  8
_0-0_0
  6
CONTINUOUS
 62
     0
100
AcDbText
 10
378.3333333333
 20
235.0600336776
 40
5
  1
（2000mmセット）
  7
STANDARD
100
AcDbText
  0
TEXT
  5
4EA
100
AcDbEntity
  8
_0-0_0
  6
CONTINUOUS
 62
     0
100
AcDbText
 10
93.625
 20
226.9166666667
 40
5
  1
No.
 41
0.998
  7
STANDARD
100
AcDbText
  0
TEXT
  5
4EB
100
AcDbEntity
  8
_0-0_0
  6
CONTINUOUS
 62
     0
100
AcDbText
 10
143.1666666667
 20
226.9166666667
 40
5
  1
部材名称
 41
0.998
  7
STANDARD
100
AcDbText
  0
TEXT
  5
4EC
100
AcDbEntity
  8
_0-0_0
  6
CONTINUOUS
 62
     0
100
AcDbText
 10
243.75
 20
226.9166666667
 40
5
  1
規　格
 41
0.998
  7
STANDARD
100
AcDbText
  0
TEXT
  5
4ED
100
AcDbEntity
  8
_0-0_0
  6
CONTINUOUS
 62
     0
100
AcDbText
 10
306.4166666667
 20
226.9166666667
 40
5
  1
定尺(mm)
 41
0.998
  7
STANDARD
100
AcDbText
  0
LINE
  5
4EE
100
AcDbEntity
  8
_0-0_0
  6
CONTINUOUS
 62
     0
100
AcDbLine
 10
369
 20
189
 11
436
 21
189
  0
LINE
  5
4EF
100
AcDbEntity
  8
_0-0_0
  6
CONTINUOUS
 62
     0
100
AcDbLine
 10
369
 20
198
 11
436
 21
198
  0
LINE
  5
4F0
100
AcDbEntity
  8
_0-0_0
  6
CONTINUOUS
 62
     0
100
AcDbLine
 10
369
 20
207
 11
436
 21
207
  0
LINE
  5
4F1
100
AcDbEntity
  8
_0-0_0
  6
CONTINUOUS
 62
     0
100
AcDbLine
 10
369
 20
216
 11
436
 21
216
  0
LINE
  5
4F2
100
AcDbEntity
  8
_0-0_0
  6
CONTINUOUS
 62
     0
100
AcDbLine
 10
369
 20
225
 11
436
 21
225
  0
LINE
  5
4F3
100
AcDbEntity
  8
_0-0_0
  6
CONTINUOUS
 62
     0
100
AcDbLine
 10
369
 20
234
 11
436
 21
234
  0
LINE
  5
4F4
100
AcDbEntity
  8
_0-0_0
  6
CONTINUOUS
 62
     0
100
AcDbLine
 10
300
 20
54
 11
91
 21
54
  0
LINE
  5
4F5
100
AcDbEntity
  8
_0-0_0
  6
CONTINUOUS
 62
     0
100
AcDbLine
 10
300
 20
63
 11
91
 21
63
  0
LINE
  5
4F6
100
AcDbEntity
  8
_0-0_0
  6
CONTINUOUS
 62
     0
100
AcDbLine
 10
300
 20
72
 11
91
 21
72
  0
LINE
  5
4F7
100
AcDbEntity
  8
_0-0_0
  6
CONTINUOUS
 62
     0
100
AcDbLine
 10
300
 20
81
 11
91
 21
81
  0
LINE
  5
4F8
100
AcDbEntity
  8
_0-0_0
  6
CONTINUOUS
 62
     0
100
AcDbLine
 10
300
 20
90
 11
91
 21
90
  0
LINE
  5
4F9
100
AcDbEntity
  8
_0-0_0
  6
CONTINUOUS
 62
     0
100
AcDbLine
 10
300
 20
99
 11
91
 21
99
  0
LINE
  5
4FA
100
AcDbEntity
  8
_0-0_0
  6
CONTINUOUS
 62
     0
100
AcDbLine
 10
300
 20
108
 11
91
 21
108
  0
LINE
  5
4FB
100
AcDbEntity
  8
_0-0_0
  6
CONTINUOUS
 62
     0
100
AcDbLine
 10
300
 20
117
 11
91
 21
117
  0
LINE
  5
4FC
100
AcDbEntity
  8
_0-0_0
  6
CONTINUOUS
 62
     0
100
AcDbLine
 10
300
 20
144
 11
91
 21
144
  0
LINE
  5
4FD
100
AcDbEntity
  8
_0-0_0
  6
CONTINUOUS
 62
     0
100
AcDbLine
 10
300
 20
153
 11
91
 21
153
  0
LINE
  5
4FE
100
AcDbEntity
  8
_0-0_0
  6
CONTINUOUS
 62
     0
100
AcDbLine
 10
300
 20
162
 11
91
 21
162
  0
LINE
  5
4FF
100
AcDbEntity
  8
_0-0_0
  6
CONTINUOUS
 62
     0
100
AcDbLine
 10
300
 20
171
 11
91
 21
171
  0
LINE
  5
500
100
AcDbEntity
  8
_0-0_0
  6
CONTINUOUS
 62
     0
100
AcDbLine
 10
300
 20
180
 11
91
 21
180
  0
LINE
  5
501
100
AcDbEntity
  8
_0-0_0
  6
CONTINUOUS
 62
     0
100
AcDbLine
 10
300
 20
189
 11
91
 21
189
  0
LINE
  5
502
100
AcDbEntity
  8
_0-0_0
  6
CONTINUOUS
 62
     0
100
AcDbLine
 10
300
 20
198
 11
91
 21
198
  0
LINE
  5
503
100
AcDbEntity
  8
_0-0_0
  6
CONTINUOUS
 62
     0
100
AcDbLine
 10
300
 20
207
 11
91
 21
207
  0
LINE
  5
504
100
AcDbEntity
  8
_0-0_0
  6
CONTINUOUS
 62
     0
100
AcDbLine
 10
300
 20
225
 11
91
 21
225
  0
LINE
  5
505
100
AcDbEntity
  8
_0-0_0
  6
CONTINUOUS
 62
     0
100
AcDbLine
 10
300
 20
234
 11
91
 21
234
  0
TEXT
  5
506
100
AcDbEntity
  8
_0-0_0
  6
CONTINUOUS
 62
     0
100
AcDbText
 10
339.3333333333
 20
226.9166666667
 40
5
  1
入数
  7
STANDARD
100
AcDbText
  0
TEXT
  5
507
100
AcDbEntity
  8
_0-0_0
  6
CONTINUOUS
 62
     0
100
AcDbText
 10
355.3333333333
 20
226.9166666667
 40
5
  1
単位
  7
STANDARD
100
AcDbText
  0
TEXT
  5
508
100
AcDbEntity
  8
_0-0_0
  6
CONTINUOUS
 62
     0
100
AcDbText
 10
374.4166666667
 20
226.9166666667
 40
5
  1
定尺(mm)
 41
0.998
  7
STANDARD
100
AcDbText
  0
TEXT
  5
509
100
AcDbEntity
  8
_0-0_0
  6
CONTINUOUS
 62
     0
100
AcDbText
 10
407.3333333333
 20
226.9166666667
 40
5
  1
入数
 41
0.998
  7
STANDARD
100
AcDbText
  0
TEXT
  5
50A
100
AcDbEntity
  8
_0-0_0
  6
CONTINUOUS
 62
     0
100
AcDbText
 10
423.3333333333
 20
226.9166666667
 40
5
  1
単位
  7
STANDARD
100
AcDbText
  0
TEXT
  5
50B
100
AcDbEntity
  8
_0-0_0
  6
CONTINUOUS
 62
     0
100
AcDbText
 10
95.16666666667
 20
217.9166666667
 40
4.99
  1
 1
  7
STANDARD
100
AcDbText
  0
TEXT
  5
50C
100
AcDbEntity
  8
_0-0_0
  6
CONTINUOUS
 62
     0
100
AcDbText
 10
312.5833333333
 20
217.9166666667
 40
4.99
  1
3000
  7
STANDARD
100
AcDbText
  0
TEXT
  5
50D
100
AcDbEntity
  8
_0-0_0
  6
CONTINUOUS
 62
     0
100
AcDbText
 10
342.1666666667
 20
217.9166666667
 40
4.99
  1
 1
  7
STANDARD
100
AcDbText
  0
TEXT
  5
50E
100
AcDbEntity
  8
_0-0_0
  6
CONTINUOUS
 62
     0
100
AcDbText
 10
358.4166666667
 20
217.9166666667
 40
4.99
  1
本
  7
STANDARD
100
AcDbText
  0
TEXT
  5
50F
100
AcDbEntity
  8
_0-0_0
  6
CONTINUOUS
 62
     0
100
AcDbText
 10
380.5833333333
 20
217.9166666667
 40
4.99
  1
2000
  7
STANDARD
100
AcDbText
  0
TEXT
  5
510
100
AcDbEntity
  8
_0-0_0
  6
CONTINUOUS
 62
     0
100
AcDbText
 10
410.1666666667
 20
217.9166666667
 40
4.99
  1
 1
  7
STANDARD
100
AcDbText
  0
TEXT
  5
511
100
AcDbEntity
  8
_0-0_0
  6
CONTINUOUS
 62
     0
100
AcDbText
 10
426.4166666667
 20
217.9166666667
 40
4.99
  1
本
  7
STANDARD
100
AcDbText
  0
TEXT
  5
512
100
AcDbEntity
  8
_0-0_0
  6
CONTINUOUS
 62
     0
100
AcDbText
 10
95.16666666667
 20
208.9166666667
 40
5
  1
 2
  7
STANDARD
100
AcDbText
  0
TEXT
  5
513
100
AcDbEntity
  8
_0-0_0
  6
CONTINUOUS
 62
     0
100
AcDbText
 10
312.5833333333
 20
208.9166666667
 40
5
  1
3000
 41
0.998
  7
STANDARD
100
AcDbText
  0
TEXT
  5
514
100
AcDbEntity
  8
_0-0_0
  6
CONTINUOUS
 62
     0
100
AcDbText
 10
342.1666666667
 20
208.9166666667
 40
5
  1
 1
  7
STANDARD
100
AcDbText
  0
TEXT
  5
515
100
AcDbEntity
  8
_0-0_0
  6
CONTINUOUS
 62
     0
100
AcDbText
 10
358.4166666667
 20
208.9166666667
 40
5
  1
〃
 41
0.998
  7
STANDARD
100
AcDbText
  0
TEXT
  5
516
100
AcDbEntity
  8
_0-0_0
  6
CONTINUOUS
 62
     0
100
AcDbText
 10
380.5833333333
 20
208.9166666667
 40
5
  1
2000
 41
0.998
  7
STANDARD
100
AcDbText
  0
TEXT
  5
517
100
AcDbEntity
  8
_0-0_0
  6
CONTINUOUS
 62
     0
100
AcDbText
 10
410.1666666667
 20
208.9166666667
 40
5
  1
 1
 41
0.998
  7
STANDARD
100
AcDbText
  0
TEXT
  5
518
100
AcDbEntity
  8
_0-0_0
  6
CONTINUOUS
 62
     0
100
AcDbText
 10
426.4166666667
 20
208.9166666667
 40
5
  1
〃
 41
0.998
  7
STANDARD
100
AcDbText
  0
TEXT
  5
519
100
AcDbEntity
  8
_0-0_0
  6
CONTINUOUS
 62
     0
100
AcDbText
 10
95.16666666667
 20
199.9166666667
 40
5
  1
 3
  7
STANDARD
100
AcDbText
  0
TEXT
  5
51A
100
AcDbEntity
  8
_0-0_0
  6
CONTINUOUS
 62
     0
100
AcDbText
 10
112.9166666667
 20
199.9166666667
 40
5
  1
ＦＹＹフレーム
 41
0.998
  7
STANDARD
100
AcDbText
  0
TEXT
  5
51B
100
AcDbEntity
  8
_0-0_0
  6
CONTINUOUS
 62
     0
100
AcDbText
 10
312.5833333333
 20
199.9166666667
 40
5
  1
3000
 41
0.998
  7
STANDARD
100
AcDbText
  0
TEXT
  5
51C
100
AcDbEntity
  8
_0-0_0
  6
CONTINUOUS
 62
     0
100
AcDbText
 10
342.1666666667
 20
199.9166666667
 40
5
  1
 1
  7
STANDARD
100
AcDbText
  0
TEXT
  5
51D
100
AcDbEntity
  8
_0-0_0
  6
CONTINUOUS
 62
     0
100
AcDbText
 10
358.4166666667
 20
199.9166666667
 40
5
  1
〃
 41
0.998
  7
STANDARD
100
AcDbText
  0
TEXT
  5
51E
100
AcDbEntity
  8
_0-0_0
  6
CONTINUOUS
 62
     0
100
AcDbText
 10
380.5833333333
 20
199.9166666667
 40
5
  1
2000
 41
0.998
  7
STANDARD
100
AcDbText
  0
TEXT
  5
51F
100
AcDbEntity
  8
_0-0_0
  6
CONTINUOUS
 62
     0
100
AcDbText
 10
410.1666666667
 20
199.9166666667
 40
5
  1
 1
 41
0.998
  7
STANDARD
100
AcDbText
  0
TEXT
  5
520
100
AcDbEntity
  8
_0-0_0
  6
CONTINUOUS
 62
     0
100
AcDbText
 10
426.4166666667
 20
199.9166666667
 40
5
  1
〃
 41
0.998
  7
STANDARD
100
AcDbText
  0
TEXT
  5
521
100
AcDbEntity
  8
_0-0_0
  6
CONTINUOUS
 62
     0
100
AcDbText
 10
95.16666666667
 20
190.9166666667
 40
4.99
  1
 4
  7
STANDARD
100
AcDbText
  0
LINE
  5
522
100
AcDbEntity
  8
_0-0_0
  6
CONTINUOUS
 62
     0
100
AcDbLine
 10
368
 20
189
 11
301
 21
189
  0
LINE
  5
523
100
AcDbEntity
  8
_0-0_0
  6
CONTINUOUS
 62
     0
100
AcDbLine
 10
368
 20
198
 11
301
 21
198
  0
TEXT
  5
524
100
AcDbEntity
  8
_0-0_0
  6
CONTINUOUS
 62
     0
100
AcDbText
 10
113.3333333333
 20
190.9166666667
 40
4.99
  1
ＦＹＫ壁フレーム
  7
STANDARD
100
AcDbText
  0
TEXT
  5
525
100
AcDbEntity
  8
_0-0_0
  6
CONTINUOUS
 62
     0
100
AcDbText
 10
312.5833333333
 20
190.9166666667
 40
4.99
  1
3000
  7
STANDARD
100
AcDbText
  0
TEXT
  5
526
100
AcDbEntity
  8
_0-0_0
  6
CONTINUOUS
 62
     0
100
AcDbText
 10
342.1666666667
 20
190.9166666667
 40
4.99
  1
 1
  7
STANDARD
100
AcDbText
  0
TEXT
  5
527
100
AcDbEntity
  8
_0-0_0
  6
CONTINUOUS
 62
     0
100
AcDbText
 10
358.4166666667
 20
190.9166666667
 40
4.99
  1
〃
  7
STANDARD
100
AcDbText
  0
TEXT
  5
528
100
AcDbEntity
  8
_0-0_0
  6
CONTINUOUS
 62
     0
100
AcDbText
 10
380.5833333333
 20
190.9166666667
 40
4.99
  1
2000
  7
STANDARD
100
AcDbText
  0
TEXT
  5
529
100
AcDbEntity
  8
_0-0_0
  6
CONTINUOUS
 62
     0
100
AcDbText
 10
410.1666666667
 20
190.9166666667
 40
4.99
  1
 1
  7
STANDARD
100
AcDbText
  0
LINE
  5
52A
100
AcDbEntity
  8
_0-0_0
  6
CONTINUOUS
 62
     0
100
AcDbLine
 10
368
 20
207
 11
301
 21
207
  0
LINE
  5
52B
100
AcDbEntity
  8
_0-0_0
  6
CONTINUOUS
 62
     0
100
AcDbLine
 10
368
 20
216
 11
301
 21
216
  0
LINE
  5
52C
100
AcDbEntity
  8
_0-0_0
  6
CONTINUOUS
 62
     0
100
AcDbLine
 10
368
 20
225
 11
301
 21
225
  0
LINE
  5
52D
100
AcDbEntity
  8
_0-0_0
  6
CONTINUOUS
 62
     0
100
AcDbLine
 10
368
 20
234
 11
301
 21
234
  0
TEXT
  5
52E
100
AcDbEntity
  8
_0-0_0
  6
CONTINUOUS
 62
     0
100
AcDbText
 10
426.4166666667
 20
190.9166666667
 40
4.99
  1
〃
  7
STANDARD
100
AcDbText
  0
TEXT
  5
52F
100
AcDbEntity
  8
_0-0_0
  6
CONTINUOUS
 62
     0
100
AcDbText
 10
95.16666666667
 20
181.9166666667
 40
4.99
  1
 5
  7
STANDARD
100
AcDbText
  0
TEXT
  5
530
100
AcDbEntity
  8
_0-0_0
  6
CONTINUOUS
 62
     0
100
AcDbText
 10
112.9166666667
 20
181.9166666667
 40
4.99
  1
ＦＹＫホルダー
  7
STANDARD
100
AcDbText
  0
TEXT
  5
531
100
AcDbEntity
  8
_0-0_0
  6
CONTINUOUS
 62
     0
100
AcDbText
 10
342.1666666667
 20
181.9166666667
 40
4.99
  1
 6
  7
STANDARD
100
AcDbText
  0
TEXT
  5
532
100
AcDbEntity
  8
_0-0_0
  6
CONTINUOUS
 62
     0
100
AcDbText
 10
358.4166666667
 20
181.9166666667
 40
4.99
  1
〃
  7
STANDARD
100
AcDbText
  0
TEXT
  5
533
100
AcDbEntity
  8
_0-0_0
  6
CONTINUOUS
 62
     0
100
AcDbText
 10
410.1666666667
 20
181.9166666667
 40
4.99
  1
 4
  7
STANDARD
100
AcDbText
  0
TEXT
  5
534
100
AcDbEntity
  8
_0-0_0
  6
CONTINUOUS
 62
     0
100
AcDbText
 10
426.4166666667
 20
181.9166666667
 40
4.99
  1
〃
  7
STANDARD
100
AcDbText
  0
TEXT
  5
535
100
AcDbEntity
  8
_0-0_0
  6
CONTINUOUS
 62
     0
100
AcDbText
 10
95.16666666667
 20
172.9166666667
 40
4.99
  1
 6
  7
STANDARD
100
AcDbText
  0
TEXT
  5
536
100
AcDbEntity
  8
_0-0_0
  6
CONTINUOUS
 62
     0
100
AcDbText
 10
115
 20
172.9166666667
 40
4.99
  1
ＦＹＹホルダースプリング
  7
STANDARD
100
AcDbText
  0
TEXT
  5
537
100
AcDbEntity
  8
_0-0_0
  6
CONTINUOUS
 62
     0
100
AcDbText
 10
342.1666666667
 20
172.9166666667
 40
4.99
  1
 6
  7
STANDARD
100
AcDbText
  0
TEXT
  5
538
100
AcDbEntity
  8
_0-0_0
  6
CONTINUOUS
 62
     0
100
AcDbText
 10
358.4166666667
 20
172.9166666667
 40
4.99
  1
〃
  7
STANDARD
100
AcDbText
  0
TEXT
  5
539
100
AcDbEntity
  8
_0-0_0
  6
CONTINUOUS
 62
     0
100
AcDbText
 10
410.1666666667
 20
172.9166666667
 40
4.99
  1
 4
  7
STANDARD
100
AcDbText
  0
TEXT
  5
53A
100
AcDbEntity
  8
_0-0_0
  6
CONTINUOUS
 62
     0
100
AcDbText
 10
426.4166666667
 20
172.9166666667
 40
4.99
  1
〃
  7
STANDARD
100
AcDbText
  0
TEXT
  5
53B
100
AcDbEntity
  8
_0-0_0
  6
CONTINUOUS
 62
     0
100
AcDbText
 10
95.16666666667
 20
163.9166666667
 40
5
  1
 7
  7
STANDARD
100
AcDbText
  0
TEXT
  5
53C
100
AcDbEntity
  8
_0-0_0
  6
CONTINUOUS
 62
     0
100
AcDbText
 10
114.1666666667
 20
163.9166666667
 40
5
  1
ＦＹＹフレームナット
  7
STANDARD
100
AcDbText
  0
LINE
  5
53D
100
AcDbEntity
  8
_0-0_0
  6
CONTINUOUS
 62
     0
100
AcDbLine
 10
369
 20
144
 11
436
 21
144
  0
LINE
  5
53E
100
AcDbEntity
  8
_0-0_0
  6
CONTINUOUS
 62
     0
100
AcDbLine
 10
369
 20
153
 11
436
 21
153
  0
LINE
  5
53F
100
AcDbEntity
  8
_0-0_0
  6
CONTINUOUS
 62
     0
100
AcDbLine
 10
369
 20
162
 11
436
 21
162
  0
LINE
  5
540
100
AcDbEntity
  8
_0-0_0
  6
CONTINUOUS
 62
     0
100
AcDbLine
 10
369
 20
171
 11
436
 21
171
  0
LINE
  5
541
100
AcDbEntity
  8
_0-0_0
  6
CONTINUOUS
 62
     0
100
AcDbLine
 10
369
 20
180
 11
436
 21
180
  0
LINE
  5
542
100
AcDbEntity
  8
_0-0_0
  6
CONTINUOUS
 62
     0
100
AcDbLine
 10
369
 20
189
 11
436
 21
189
  0
TEXT
  5
543
100
AcDbEntity
  8
_0-0_0
  6
CONTINUOUS
 62
     0
100
AcDbText
 10
342.1666666667
 20
163.9166666667
 40
5
  1
 6
  7
STANDARD
100
AcDbText
  0
TEXT
  5
544
100
AcDbEntity
  8
_0-0_0
  6
CONTINUOUS
 62
     0
100
AcDbText
 10
358.4166666667
 20
163.9166666667
 40
5
  1
〃
  7
STANDARD
100
AcDbText
  0
TEXT
  5
545
100
AcDbEntity
  8
_0-0_0
  6
CONTINUOUS
 62
     0
100
AcDbText
 10
410.1666666667
 20
163.9166666667
 40
5
  1
 4
  7
STANDARD
100
AcDbText
  0
TEXT
  5
546
100
AcDbEntity
  8
_0-0_0
  6
CONTINUOUS
 62
     0
100
AcDbText
 10
426.4166666667
 20
163.9166666667
 40
5
  1
〃
 41
0.998
  7
STANDARD
100
AcDbText
  0
TEXT
  5
547
100
AcDbEntity
  8
_0-0_0
  6
CONTINUOUS
 62
     0
100
AcDbText
 10
95.16666666667
 20
154.9166666667
 40
5
  1
 8
  7
STANDARD
100
AcDbText
  0
LINE
  5
548
100
AcDbEntity
  8
_0-0_0
  6
CONTINUOUS
 62
     0
100
AcDbLine
 10
368
 20
144
 11
301
 21
144
  0
LINE
  5
549
100
AcDbEntity
  8
_0-0_0
  6
CONTINUOUS
 62
     0
100
AcDbLine
 10
368
 20
153
 11
301
 21
153
  0
LINE
  5
54A
100
AcDbEntity
  8
_0-0_0
  6
CONTINUOUS
 62
     0
100
AcDbLine
 10
368
 20
162
 11
301
 21
162
  0
LINE
  5
54B
100
AcDbEntity
  8
_0-0_0
  6
CONTINUOUS
 62
     0
100
AcDbLine
 10
368
 20
171
 11
301
 21
171
  0
LINE
  5
54C
100
AcDbEntity
  8
_0-0_0
  6
CONTINUOUS
 62
     0
100
AcDbLine
 10
368
 20
180
 11
301
 21
180
  0
LINE
  5
54D
100
AcDbEntity
  8
_0-0_0
  6
CONTINUOUS
 62
     0
100
AcDbLine
 10
368
 20
189
 11
301
 21
189
  0
TEXT
  5
54E
100
AcDbEntity
  8
_0-0_0
  6
CONTINUOUS
 62
     0
100
AcDbText
 10
114.1666666667
 20
154.9166666667
 40
5
  1
ＦＹＫ水切ジョイント
  7
STANDARD
100
AcDbText
  0
TEXT
  5
54F
100
AcDbEntity
  8
_0-0_0
  6
CONTINUOUS
 62
     0
100
AcDbText
 10
342.1666666667
 20
154.9166666667
 40
5
  1
 1
  7
STANDARD
100
AcDbText
  0
TEXT
  5
550
100
AcDbEntity
  8
_0-0_0
  6
CONTINUOUS
 62
     0
100
AcDbText
 10
358.4166666667
 20
154.9166666667
 40
5
  1
〃
  7
STANDARD
100
AcDbText
  0
TEXT
  5
551
100
AcDbEntity
  8
_0-0_0
  6
CONTINUOUS
 62
     0
100
AcDbText
 10
410.1666666667
 20
154.9166666667
 40
5
  1
 1
  7
STANDARD
100
AcDbText
  0
TEXT
  5
552
100
AcDbEntity
  8
_0-0_0
  6
CONTINUOUS
 62
     0
100
AcDbText
 10
426.4166666667
 20
154.9166666667
 40
5
  1
〃
 41
0.998
  7
STANDARD
100
AcDbText
  0
TEXT
  5
553
100
AcDbEntity
  8
_0-0_0
  6
CONTINUOUS
 62
     0
100
AcDbText
 10
95.16666666667
 20
145.9166666667
 40
5
  1
 9
  7
STANDARD
100
AcDbText
  0
TEXT
  5
554
100
AcDbEntity
  8
_0-0_0
  6
CONTINUOUS
 62
     0
100
AcDbText
 10
114.5833333333
 20
145.9166666667
 40
5
  1
ＦＹＫｻｲﾄﾞｷｬｯﾌﾟ ｼﾞｮｲﾝﾄ
  7
STANDARD
100
AcDbText
  0
TEXT
  5
555
100
AcDbEntity
  8
_0-0_0
  6
CONTINUOUS
 62
     0
100
AcDbText
 10
342.1666666667
 20
145.9166666667
 40
5
  1
 1
  7
STANDARD
100
AcDbText
  0
TEXT
  5
556
100
AcDbEntity
  8
_0-0_0
  6
CONTINUOUS
 62
     0
100
AcDbText
 10
358.4166666667
 20
145.9166666667
 40
5
  1
〃
  7
STANDARD
100
AcDbText
  0
TEXT
  5
557
100
AcDbEntity
  8
_0-0_0
  6
CONTINUOUS
 62
     0
100
AcDbText
 10
410.1666666667
 20
145.9166666667
 40
5
  1
 1
  7
STANDARD
100
AcDbText
  0
TEXT
  5
558
100
AcDbEntity
  8
_0-0_0
  6
CONTINUOUS
 62
     0
100
AcDbText
 10
426.4166666667
 20
145.9166666667
 40
5
  1
〃
 41
0.998
  7
STANDARD
100
AcDbText
  0
TEXT
  5
559
100
AcDbEntity
  8
_0-0_0
  6
CONTINUOUS
 62
     0
100
AcDbText
 10
95.16666666667
 20
136.9166666667
 40
5
  1
10
  7
STANDARD
100
AcDbText
  0
TEXT
  5
55A
100
AcDbEntity
  8
_0-0_0
  6
CONTINUOUS
 62
     0
100
AcDbText
 10
112.0833333333
 20
136.9166666667
 40
5
  1
止水補助板
  7
STANDARD
100
AcDbText
  0
TEXT
  5
55B
100
AcDbEntity
  8
_0-0_0
  6
CONTINUOUS
 62
     0
100
AcDbText
 10
312.5833333333
 20
136.9166666667
 40
5
  1
3100
  7
STANDARD
100
AcDbText
  0
TEXT
  5
55C
100
AcDbEntity
  8
_0-0_0
  6
CONTINUOUS
 62
     0
100
AcDbText
 10
342.1666666667
 20
136.9166666667
 40
5
  1
 1
  7
STANDARD
100
AcDbText
  0
TEXT
  5
55D
100
AcDbEntity
  8
_0-0_0
  6
CONTINUOUS
 62
     0
100
AcDbText
 10
358.4166666667
 20
136.9166666667
 40
5
  1
〃
  7
STANDARD
100
AcDbText
  0
TEXT
  5
55E
100
AcDbEntity
  8
_0-0_0
  6
CONTINUOUS
 62
     0
100
AcDbText
 10
380.5833333333
 20
136.9166666667
 40
5
  1
2100
  7
STANDARD
100
AcDbText
  0
TEXT
  5
55F
100
AcDbEntity
  8
_0-0_0
  6
CONTINUOUS
 62
     0
100
AcDbText
 10
410.1666666667
 20
136.9166666667
 40
5
  1
 1
  7
STANDARD
100
AcDbText
  0
TEXT
  5
560
100
AcDbEntity
  8
_0-0_0
  6
CONTINUOUS
 62
     0
100
AcDbText
 10
426.4166666667
 20
136.9166666667
 40
5
  1
〃
 41
0.998
  7
STANDARD
100
AcDbText
  0
TEXT
  5
561
100
AcDbEntity
  8
_0-0_0
  6
CONTINUOUS
 62
     0
100
AcDbText
 10
95.16666666667
 20
127.9166666667
 40
5
  1
11
  7
STANDARD
100
AcDbText
  0
TEXT
  5
562
100
AcDbEntity
  8
_0-0_0
  6
CONTINUOUS
 62
     0
100
AcDbText
 10
113.3333333333
 20
127.9166666667
 40
5
  1
ウォーターガード
  7
STANDARD
100
AcDbText
  0
TEXT
  5
563
100
AcDbEntity
  8
_0-0_0
  6
CONTINUOUS
 62
     0
100
AcDbText
 10
312.5833333333
 20
127.9166666667
 40
5
  1
3100
  7
STANDARD
100
AcDbText
  0
TEXT
  5
564
100
AcDbEntity
  8
_0-0_0
  6
CONTINUOUS
 62
     0
100
AcDbText
 10
342.1666666667
 20
127.9166666667
 40
5
  1
 1
  7
STANDARD
100
AcDbText
  0
TEXT
  5
565
100
AcDbEntity
  8
_0-0_0
  6
CONTINUOUS
 62
     0
100
AcDbText
 10
358.4166666667
 20
127.9166666667
 40
5
  1
〃
  7
STANDARD
100
AcDbText
  0
TEXT
  5
566
100
AcDbEntity
  8
_0-0_0
  6
CONTINUOUS
 62
     0
100
AcDbText
 10
380.5833333333
 20
127.9166666667
 40
5
  1
2100
  7
STANDARD
100
AcDbText
  0
LINE
  5
567
100
AcDbEntity
  8
_0-0_0
  6
CONTINUOUS
 62
     0
100
AcDbLine
 10
369
 20
126
 11
436
 21
126
  0
LINE
  5
568
100
AcDbEntity
  8
_0-0_0
  6
CONTINUOUS
 62
     0
100
AcDbLine
 10
369
 20
135
 11
436
 21
135
  0
LINE
  5
569
100
AcDbEntity
  8
_0-0_0
  6
CONTINUOUS
 62
     0
100
AcDbLine
 10
368
 20
126
 11
301
 21
126
  0
LINE
  5
56A
100
AcDbEntity
  8
_0-0_0
  6
CONTINUOUS
 62
     0
100
AcDbLine
 10
368
 20
135
 11
301
 21
135
  0
TEXT
  5
56B
100
AcDbEntity
  8
_0-0_0
  6
CONTINUOUS
 62
     0
100
AcDbText
 10
410.1666666667
 20
127.9166666667
 40
5
  1
 1
  7
STANDARD
100
AcDbText
  0
TEXT
  5
56C
100
AcDbEntity
  8
_0-0_0
  6
CONTINUOUS
 62
     0
100
AcDbText
 10
426.4166666667
 20
127.9166666667
 40
5
  1
〃
 41
0.998
  7
STANDARD
100
AcDbText
  0
TEXT
  5
56D
100
AcDbEntity
  8
_0-0_0
  6
CONTINUOUS
 62
     0
100
AcDbText
 10
95.16666666667
 20
118.9166666667
 40
5
  1
12
  7
STANDARD
100
AcDbText
  0
LINE
  5
56E
100
AcDbEntity
  8
_0-0_0
  6
CONTINUOUS
 62
     0
100
AcDbLine
 10
369
 20
36
 11
436
 21
36
  0
LINE
  5
56F
100
AcDbEntity
  8
_0-0_0
  6
CONTINUOUS
 62
     0
100
AcDbLine
 10
369
 20
45
 11
436
 21
45
  0
LINE
  5
570
100
AcDbEntity
  8
_0-0_0
  6
CONTINUOUS
 62
     0
100
AcDbLine
 10
369
 20
54
 11
436
 21
54
  0
LINE
  5
571
100
AcDbEntity
  8
_0-0_0
  6
CONTINUOUS
 62
     0
100
AcDbLine
 10
369
 20
63
 11
436
 21
63
  0
LINE
  5
572
100
AcDbEntity
  8
_0-0_0
  6
CONTINUOUS
 62
     0
100
AcDbLine
 10
369
 20
72
 11
436
 21
72
  0
LINE
  5
573
100
AcDbEntity
  8
_0-0_0
  6
CONTINUOUS
 62
     0
100
AcDbLine
 10
369
 20
81
 11
436
 21
81
  0
LINE
  5
574
100
AcDbEntity
  8
_0-0_0
  6
CONTINUOUS
 62
     0
100
AcDbLine
 10
369
 20
90
 11
436
 21
90
  0
LINE
  5
575
100
AcDbEntity
  8
_0-0_0
  6
CONTINUOUS
 62
     0
100
AcDbLine
 10
369
 20
99
 11
436
 21
99
  0
LINE
  5
576
100
AcDbEntity
  8
_0-0_0
  6
CONTINUOUS
 62
     0
100
AcDbLine
 10
369
 20
108
 11
436
 21
108
  0
LINE
  5
577
100
AcDbEntity
  8
_0-0_0
  6
CONTINUOUS
 62
     0
100
AcDbLine
 10
369
 20
117
 11
436
 21
117
  0
TEXT
  5
578
100
AcDbEntity
  8
_0-0_0
  6
CONTINUOUS
 62
     0
100
AcDbText
 10
112.5
 20
118.9166666667
 40
5
  1
ガスケットＮ
  7
STANDARD
100
AcDbText
  0
TEXT
  5
579
100
AcDbEntity
  8
_0-0_0
  6
CONTINUOUS
 62
     0
100
AcDbText
 10
312.5833333333
 20
118.9166666667
 40
5
  1
3000
  7
STANDARD
100
AcDbText
  0
TEXT
  5
57A
100
AcDbEntity
  8
_0-0_0
  6
CONTINUOUS
 62
     0
100
AcDbText
 10
342.1666666667
 20
118.9166666667
 40
5
  1
 1
  7
STANDARD
100
AcDbText
  0
TEXT
  5
57B
100
AcDbEntity
  8
_0-0_0
  6
CONTINUOUS
 62
     0
100
AcDbText
 10
358.4166666667
 20
118.9166666667
 40
5
  1
本
  7
STANDARD
100
AcDbText
  0
TEXT
  5
57C
100
AcDbEntity
  8
_0-0_0
  6
CONTINUOUS
 62
     0
100
AcDbText
 10
380.5833333333
 20
118.9166666667
 40
5
  1
2000
  7
STANDARD
100
AcDbText
  0
TEXT
  5
57D
100
AcDbEntity
  8
_0-0_0
  6
CONTINUOUS
 62
     0
100
AcDbText
 10
410.1666666667
 20
118.9166666667
 40
5
  1
 1
  7
STANDARD
100
AcDbText
  0
TEXT
  5
57E
100
AcDbEntity
  8
_0-0_0
  6
CONTINUOUS
 62
     0
100
AcDbText
 10
426.4166666667
 20
118.9166666667
 40
5
  1
本
 41
0.998
  7
STANDARD
100
AcDbText
  0
TEXT
  5
57F
100
AcDbEntity
  8
_0-0_0
  6
CONTINUOUS
 62
     0
100
AcDbText
 10
95.16666666667
 20
109.9166666667
 40
5
  1
13
  7
STANDARD
100
AcDbText
  0
TEXT
  5
580
100
AcDbEntity
  8
_0-0_0
  6
CONTINUOUS
 62
     0
100
AcDbText
 10
342.1666666667
 20
109.9166666667
 40
5
  1
 6
  7
STANDARD
100
AcDbText
  0
TEXT
  5
581
100
AcDbEntity
  8
_0-0_0
  6
CONTINUOUS
 62
     0
100
AcDbText
 10
358.4166666667
 20
109.9166666667
 40
5
  1
〃
  7
STANDARD
100
AcDbText
  0
TEXT
  5
582
100
AcDbEntity
  8
_0-0_0
  6
CONTINUOUS
 62
     0
100
AcDbText
 10
410.1666666667
 20
109.9166666667
 40
5
  1
 4
  7
STANDARD
100
AcDbText
  0
TEXT
  5
583
100
AcDbEntity
  8
_0-0_0
  6
CONTINUOUS
 62
     0
100
AcDbText
 10
426.4166666667
 20
109.9166666667
 40
5
  1
〃
 41
0.998
  7
STANDARD
100
AcDbText
  0
TEXT
  5
584
100
AcDbEntity
  8
_0-0_0
  6
CONTINUOUS
 62
     0
100
AcDbText
 10
95.16666666667
 20
100.9166666667
 40
4.99
  1
14
  7
STANDARD
100
AcDbText
  0
TEXT
  5
585
100
AcDbEntity
  8
_0-0_0
  6
CONTINUOUS
 62
     0
100
AcDbText
 10
342.1666666667
 20
100.9166666667
 40
4.99
  1
 6
  7
STANDARD
100
AcDbText
  0
TEXT
  5
586
100
AcDbEntity
  8
_0-0_0
  6
CONTINUOUS
 62
     0
100
AcDbText
 10
358.4166666667
 20
100.9166666667
 40
4.99
  1
〃
  7
STANDARD
100
AcDbText
  0
TEXT
  5
587
100
AcDbEntity
  8
_0-0_0
  6
CONTINUOUS
 62
     0
100
AcDbText
 10
410.1666666667
 20
100.9166666667
 40
4.99
  1
 5
  7
STANDARD
100
AcDbText
  0
LINE
  5
588
100
AcDbEntity
  8
_0-0_0
  6
CONTINUOUS
 62
     0
100
AcDbLine
 10
368
 20
36
 11
301
 21
36
  0
LINE
  5
589
100
AcDbEntity
  8
_0-0_0
  6
CONTINUOUS
 62
     0
100
AcDbLine
 10
368
 20
45
 11
301
 21
45
  0
LINE
  5
58A
100
AcDbEntity
  8
_0-0_0
  6
CONTINUOUS
 62
     0
100
AcDbLine
 10
368
 20
54
 11
301
 21
54
  0
LINE
  5
58B
100
AcDbEntity
  8
_0-0_0
  6
CONTINUOUS
 62
     0
100
AcDbLine
 10
368
 20
63
 11
301
 21
63
  0
LINE
  5
58C
100
AcDbEntity
  8
_0-0_0
  6
CONTINUOUS
 62
     0
100
AcDbLine
 10
368
 20
72
 11
301
 21
72
  0
LINE
  5
58D
100
AcDbEntity
  8
_0-0_0
  6
CONTINUOUS
 62
     0
100
AcDbLine
 10
368
 20
81
 11
301
 21
81
  0
LINE
  5
58E
100
AcDbEntity
  8
_0-0_0
  6
CONTINUOUS
 62
     0
100
AcDbLine
 10
368
 20
90
 11
301
 21
90
  0
LINE
  5
58F
100
AcDbEntity
  8
_0-0_0
  6
CONTINUOUS
 62
     0
100
AcDbLine
 10
368
 20
99
 11
301
 21
99
  0
LINE
  5
590
100
AcDbEntity
  8
_0-0_0
  6
CONTINUOUS
 62
     0
100
AcDbLine
 10
368
 20
108
 11
301
 21
108
  0
LINE
  5
591
100
AcDbEntity
  8
_0-0_0
  6
CONTINUOUS
 62
     0
100
AcDbLine
 10
368
 20
117
 11
301
 21
117
  0
TEXT
  5
592
100
AcDbEntity
  8
_0-0_0
  6
CONTINUOUS
 62
     0
100
AcDbText
 10
426.4166666667
 20
100.9166666667
 40
4.99
  1
〃
  7
STANDARD
100
AcDbText
  0
TEXT
  5
593
100
AcDbEntity
  8
_0-0_0
  6
CONTINUOUS
 62
     0
100
AcDbText
 10
95.16666666667
 20
91.91666666667
 40
4.99
  1
15
  7
STANDARD
100
AcDbText
  0
TEXT
  5
594
100
AcDbEntity
  8
_0-0_0
  6
CONTINUOUS
 62
     0
100
AcDbText
 10
113.3333333333
 20
91.91666666667
 40
4.99
  1
ステン六角ボルト
  7
STANDARD
100
AcDbText
  0
TEXT
  5
595
100
AcDbEntity
  8
_0-0_0
  6
CONTINUOUS
 62
     0
100
AcDbText
 10
342.1666666667
 20
91.91666666667
 40
4.99
  1
 6
  7
STANDARD
100
AcDbText
  0
TEXT
  5
596
100
AcDbEntity
  8
_0-0_0
  6
CONTINUOUS
 62
     0
100
AcDbText
 10
358.4166666667
 20
91.91666666667
 40
4.99
  1
〃
  7
STANDARD
100
AcDbText
  0
TEXT
  5
597
100
AcDbEntity
  8
_0-0_0
  6
CONTINUOUS
 62
     0
100
AcDbText
 10
410.1666666667
 20
91.91666666667
 40
4.99
  1
 5
  7
STANDARD
100
AcDbText
  0
TEXT
  5
598
100
AcDbEntity
  8
_0-0_0
  6
CONTINUOUS
 62
     0
100
AcDbText
 10
426.4166666667
 20
91.91666666667
 40
4.99
  1
〃
  7
STANDARD
100
AcDbText
  0
TEXT
  5
599
100
AcDbEntity
  8
_0-0_0
  6
CONTINUOUS
 62
     0
100
AcDbText
 10
95.16666666667
 20
82.91666666667
 40
4.99
  1
16
  7
STANDARD
100
AcDbText
  0
TEXT
  5
59A
100
AcDbEntity
  8
_0-0_0
  6
CONTINUOUS
 62
     0
100
AcDbText
 10
113.75
 20
82.91666666667
 40
4.99
  1
アジャストアンカー
  7
STANDARD
100
AcDbText
  0
TEXT
  5
59B
100
AcDbEntity
  8
_0-0_0
  6
CONTINUOUS
 62
     0
100
AcDbText
 10
342.1666666667
 20
82.91666666667
 40
4.99
  1
 6
  7
STANDARD
100
AcDbText
  0
TEXT
  5
59C
100
AcDbEntity
  8
_0-0_0
  6
CONTINUOUS
 62
     0
100
AcDbText
 10
358.4166666667
 20
82.91666666667
 40
4.99
  1
〃
  7
STANDARD
100
AcDbText
  0
TEXT
  5
59D
100
AcDbEntity
  8
_0-0_0
  6
CONTINUOUS
 62
     0
100
AcDbText
 10
410.1666666667
 20
82.91666666667
 40
4.99
  1
 5
  7
STANDARD
100
AcDbText
  0
TEXT
  5
59E
100
AcDbEntity
  8
_0-0_0
  6
CONTINUOUS
 62
     0
100
AcDbText
 10
426.4166666667
 20
82.91666666667
 40
4.99
  1
〃
  7
STANDARD
100
AcDbText
  0
TEXT
  5
59F
100
AcDbEntity
  8
_0-0_0
  6
CONTINUOUS
 62
     0
100
AcDbText
 10
95.16666666667
 20
73.91666666667
 40
4.99
  1
17
  7
STANDARD
100
AcDbText
  0
TEXT
  5
5A0
100
AcDbEntity
  8
_0-0_0
  6
CONTINUOUS
 62
     0
100
AcDbText
 10
112.9166666667
 20
73.91666666667
 40
4.99
  1
アンカープラグ
  7
STANDARD
100
AcDbText
  0
TEXT
  5
5A1
100
AcDbEntity
  8
_0-0_0
  6
CONTINUOUS
 62
     0
100
AcDbText
 10
342.1666666667
 20
73.91666666667
 40
4.99
  1
 6
  7
STANDARD
100
AcDbText
  0
TEXT
  5
5A2
100
AcDbEntity
  8
_0-0_0
  6
CONTINUOUS
 62
     0
100
AcDbText
 10
358.4166666667
 20
73.91666666667
 40
4.99
  1
〃
  7
STANDARD
100
AcDbText
  0
TEXT
  5
5A3
100
AcDbEntity
  8
_0-0_0
  6
CONTINUOUS
 62
     0
100
AcDbText
 10
410.1666666667
 20
73.91666666667
 40
4.99
  1
 5
  7
STANDARD
100
AcDbText
  0
TEXT
  5
5A4
100
AcDbEntity
  8
_0-0_0
  6
CONTINUOUS
 62
     0
100
AcDbText
 10
426.4166666667
 20
73.91666666667
 40
4.99
  1
〃
  7
STANDARD
100
AcDbText
  0
TEXT
  5
5A5
100
AcDbEntity
  8
_0-0_0
  6
CONTINUOUS
 62
     0
100
AcDbText
 10
95.16666666667
 20
64.91666666667
 40
4.99
  1
18
  7
STANDARD
100
AcDbText
  0
TEXT
  5
5A6
100
AcDbEntity
  8
_0-0_0
  6
CONTINUOUS
 62
     0
100
AcDbText
 10
113.75
 20
64.91666666667
 40
4.99
  1
ステンタッピンねじ
  7
STANDARD
100
AcDbText
  0
TEXT
  5
5A7
100
AcDbEntity
  8
_0-0_0
  6
CONTINUOUS
 62
     0
100
AcDbText
 10
342.1666666667
 20
64.91666666667
 40
4.99
  1
 6
  7
STANDARD
100
AcDbText
  0
TEXT
  5
5A8
100
AcDbEntity
  8
_0-0_0
  6
CONTINUOUS
 62
     0
100
AcDbText
 10
358.4166666667
 20
64.91666666667
 40
4.99
  1
〃
  7
STANDARD
100
AcDbText
  0
TEXT
  5
5A9
100
AcDbEntity
  8
_0-0_0
  6
CONTINUOUS
 62
     0
100
AcDbText
 10
410.1666666667
 20
64.91666666667
 40
4.99
  1
 5
  7
STANDARD
100
AcDbText
  0
TEXT
  5
5AA
100
AcDbEntity
  8
_0-0_0
  6
CONTINUOUS
 62
     0
100
AcDbText
 10
426.4166666667
 20
64.91666666667
 40
4.99
  1
〃
  7
STANDARD
100
AcDbText
  0
TEXT
  5
5AB
100
AcDbEntity
  8
_0-0_0
  6
CONTINUOUS
 62
     0
100
AcDbText
 10
95.16666666667
 20
55.91666666667
 40
4.99
  1
19
  7
STANDARD
100
AcDbText
  0
TEXT
  5
5AC
100
AcDbEntity
  8
_0-0_0
  6
CONTINUOUS
 62
     0
100
AcDbText
 10
113.3333333333
 20
55.91666666667
 40
4.99
  1
ステスワッシャー
  7
STANDARD
100
AcDbText
  0
TEXT
  5
5AD
100
AcDbEntity
  8
_0-0_0
  6
CONTINUOUS
 62
     0
100
AcDbText
 10
342.1666666667
 20
55.91666666667
 40
4.99
  1
 6
  7
STANDARD
100
AcDbText
  0
TEXT
  5
5AE
100
AcDbEntity
  8
_0-0_0
  6
CONTINUOUS
 62
     0
100
AcDbText
 10
358.4166666667
 20
55.91666666667
 40
4.99
  1
枚
  7
STANDARD
100
AcDbText
  0
TEXT
  5
5AF
100
AcDbEntity
  8
_0-0_0
  6
CONTINUOUS
 62
     0
100
AcDbText
 10
410.1666666667
 20
55.91666666667
 40
4.99
  1
 5
  7
STANDARD
100
AcDbText
  0
TEXT
  5
5B0
100
AcDbEntity
  8
_0-0_0
  6
CONTINUOUS
 62
     0
100
AcDbText
 10
426.4166666667
 20
55.91666666667
 40
4.99
  1
枚
  7
STANDARD
100
AcDbText
  0
TEXT
  5
5B1
100
AcDbEntity
  8
_0-0_0
  6
CONTINUOUS
 62
     0
100
AcDbText
 10
95.16666666667
 20
46.91666666667
 40
4.99
  1
20
  7
STANDARD
100
AcDbText
  0
TEXT
  5
5B2
100
AcDbEntity
  8
_0-0_0
  6
CONTINUOUS
 62
     0
100
AcDbText
 10
113.3333333333
 20
46.91666666667
 40
4.99
  1
ステンワッシャー
  7
STANDARD
100
AcDbText
  0
TEXT
  5
5B3
100
AcDbEntity
  8
_0-0_0
  6
CONTINUOUS
 62
     0
100
AcDbText
 10
342.1666666667
 20
46.91666666667
 40
4.99
  1
 6
  7
STANDARD
100
AcDbText
  0
TEXT
  5
5B4
100
AcDbEntity
  8
_0-0_0
  6
CONTINUOUS
 62
     0
100
AcDbText
 10
358.4166666667
 20
46.91666666667
 40
4.99
  1
〃
  7
STANDARD
100
AcDbText
  0
TEXT
  5
5B5
100
AcDbEntity
  8
_0-0_0
  6
CONTINUOUS
 62
     0
100
AcDbText
 10
410.1666666667
 20
46.91666666667
 40
4.99
  1
 5
  7
STANDARD
100
AcDbText
  0
TEXT
  5
5B6
100
AcDbEntity
  8
_0-0_0
  6
CONTINUOUS
 62
     0
100
AcDbText
 10
426.4166666667
 20
46.91666666667
 40
4.99
  1
〃
  7
STANDARD
100
AcDbText
  0
TEXT
  5
5B7
100
AcDbEntity
  8
_0-0_0
  6
CONTINUOUS
 62
     0
100
AcDbText
 10
95.41666666667
 20
37.91666666667
 40
4.99
  1
※
  7
STANDARD
100
AcDbText
  0
TEXT
  5
5B8
100
AcDbEntity
  8
_0-0_0
  6
CONTINUOUS
 62
     0
100
AcDbText
 10
112.5
 20
37.91666666667
 40
4.99
  1
ブチルテープ
  7
STANDARD
100
AcDbText
  0
TEXT
  5
5B9
100
AcDbEntity
  8
_0-0_0
  6
CONTINUOUS
 62
     0
100
AcDbText
 10
312.5833333333
 20
37.91666666667
 40
4.99
  1
6000
  7
STANDARD
100
AcDbText
  0
TEXT
  5
5BA
100
AcDbEntity
  8
_0-0_0
  6
CONTINUOUS
 62
     0
100
AcDbText
 10
342.1666666667
 20
37.91666666667
 40
4.99
  1
 1
  7
STANDARD
100
AcDbText
  0
LINE
  5
5BB
100
AcDbEntity
  8
_0-0_0
  6
CONTINUOUS
 62
     0
100
AcDbLine
 10
91
 20
36
 11
91
 21
234
  0
LINE
  5
5BC
100
AcDbEntity
  8
_0-0_0
  6
CONTINUOUS
 62
     0
100
AcDbLine
 10
436
 20
36
 11
436
 21
234
  0
LINE
  5
5BD
100
AcDbEntity
  8
_0-0_0
  6
CONTINUOUS
 62
     0
100
AcDbLine
 10
105
 20
36
 11
105
 21
234
  0
LINE
  5
5BE
100
AcDbEntity
  8
_0-0_0
  6
CONTINUOUS
 62
     0
100
AcDbLine
 10
369
 20
36
 11
369
 21
234
  0
LINE
  5
5BF
100
AcDbEntity
  8
_0-0_0
  6
CONTINUOUS
 62
     0
100
AcDbLine
 10
368
 20
36
 11
368
 21
234
  0
LINE
  5
5C0
100
AcDbEntity
  8
_0-0_0
  6
CONTINUOUS
 62
     0
100
AcDbLine
 10
354
 20
36
 11
354
 21
234
  0
LINE
  5
5C1
100
AcDbEntity
  8
_0-0_0
  6
CONTINUOUS
 62
     0
100
AcDbLine
 10
336
 20
36
 11
336
 21
234
  0
LINE
  5
5C2
100
AcDbEntity
  8
_0-0_0
  6
CONTINUOUS
 62
     0
100
AcDbLine
 10
301
 20
36
 11
301
 21
234
  0
LINE
  5
5C3
100
AcDbEntity
  8
_0-0_0
  6
CONTINUOUS
 62
     0
100
AcDbLine
 10
300
 20
36
 11
300
 21
234
  0
LINE
  5
5C4
100
AcDbEntity
  8
_0-0_0
  6
CONTINUOUS
 62
     0
100
AcDbLine
 10
205
 20
36
 11
205
 21
234
  0
LINE
  5
5C5
100
AcDbEntity
  8
_0-0_0
  6
CONTINUOUS
 62
     0
100
AcDbLine
 10
422
 20
36
 11
422
 21
234
  0
LINE
  5
5C6
100
AcDbEntity
  8
_0-0_0
  6
CONTINUOUS
 62
     0
100
AcDbLine
 10
404
 20
36
 11
404
 21
234
  0
TEXT
  5
5C7
100
AcDbEntity
  8
_0-0_0
  6
CONTINUOUS
 62
     0
100
AcDbText
 10
358.4166666667
 20
37.91666666667
 40
4.99
  1
巻
  7
STANDARD
100
AcDbText
  0
TEXT
  5
5C8
100
AcDbEntity
  8
_0-0_0
  6
CONTINUOUS
 62
     0
100
AcDbText
 10
380.5833333333
 20
37.91666666667
 40
4.99
  1
6000
  7
STANDARD
100
AcDbText
  0
TEXT
  5
5C9
100
AcDbEntity
  8
_0-0_0
  6
CONTINUOUS
 62
     0
100
AcDbText
 10
410.1666666667
 20
37.91666666667
 40
4.99
  1
 1
  7
STANDARD
100
AcDbText
  0
TEXT
  5
5CA
100
AcDbEntity
  8
_0-0_0
  6
CONTINUOUS
 62
     0
100
AcDbText
 10
426.4166666667
 20
37.91666666667
 40
4.99
  1
巻
  7
STANDARD
100
AcDbText
  0
TEXT
  5
5CB
100
AcDbEntity
  8
_0-0_0
  6
CONTINUOUS
 62
     0
100
AcDbText
 10
113.3333333333
 20
217.9166666667
 40
4.99
  1
ＦＹＫキャップＳ
  7
STANDARD
100
AcDbText
  0
TEXT
  5
5CC
100
AcDbEntity
  8
_0-0_0
  6
CONTINUOUS
 62
     0
100
AcDbText
 10
114.5833333333
 20
208.9166666667
 40
5
  1
ＦＹＫサイドキャップＳ
  7
STANDARD
100
AcDbText
  0
TEXT
  5
5CD
100
AcDbEntity
  8
_0-4_図枠
  6
CONTINUOUS
 62
     0
100
AcDbText
 10
20.84181608889
 20
565.1870839232
 40
8
  1
◇ステンレス２００タイプ（２００ＦＹＫＧ－Ｓ）
  7
STANDARD
100
AcDbText
  0
LINE
  5
5CE
100
AcDbEntity
  8
_0-3_躯体と製品
  6
CONTINUOUS
 62
     0
100
AcDbLine
 10
647.0406659005
 20
410.7221386512
 11
232.6094089774
 21
432.441560492
  0
LINE
  5
5CF
100
AcDbEntity
  8
_0-0_0
  6
CONTINUOUS
 62
     0
100
AcDbLine
 10
607.0954845104
 20
412.8155769009
 11
607.0012797891
 21
411.0180437383
  0
LINE
  5
5D0
100
AcDbEntity
  8
_0-3_躯体と製品
  6
CONTINUOUS
 62
     0
100
AcDbLine
 10
547.5
 20
386
 11
547.5
 21
241
  0
ARC
  5
5D1
100
AcDbEntity
  8
_0-3_躯体と製品
  6
CONTINUOUS
 62
     0
100
AcDbCircle
 10
426.5
 20
385
 40
2
100
AcDbArc
 50
90
 51
175
  0
LINE
  5
5D2
100
AcDbEntity
  8
_0-3_躯体と製品
  6
CONTINUOUS
 62
     0
100
AcDbLine
 10
425.5038053019
 20
385.0871557427
 11
422.9008370223
 21
355.335092165
  0
LINE
  5
5D3
100
AcDbEntity
  8
_0-3_躯体と製品
  6
CONTINUOUS
 62
     0
100
AcDbLine
 10
424.5076106038
 20
385.1743114855
 11
421.9046423243
 21
355.4222479077
  0
LINE
  5
5D4
100
AcDbEntity
  8
_0-3_躯体と製品
  6
CONTINUOUS
 62
     0
100
AcDbLine
 10
635.1508062376
 20
431.5729811812
 11
633.2143143055
 21
433.5094731134
  0
LINE
  5
5D5
100
AcDbEntity
  8
_0-3_躯体と製品
  6
CONTINUOUS
 62
     0
100
AcDbLine
 10
645.5978051895
 20
431.025477166
 11
642.7143888202
 21
433.9088935353
  0
LINE
  5
5D6
100
AcDbEntity
  8
_0-3_躯体と製品
  6
CONTINUOUS
 62
     0
100
AcDbLine
 10
644.1053767678
 20
431.1036920253
 11
641.2219603985
 21
433.9871083946
  0
LINE
  5
5D7
100
AcDbEntity
  8
_0-3_躯体と製品
  6
CONTINUOUS
 62
     0
100
AcDbLine
 10
642.6129483461
 20
431.1819068846
 11
639.7295319768
 21
434.0653232539
  0
LINE
  5
5D8
100
AcDbEntity
  8
_0-3_躯体と製品
  6
CONTINUOUS
 62
     0
100
AcDbLine
 10
641.1205199244
 20
431.260121744
 11
638.2371035551
 21
434.1435381132
  0
LINE
  5
5D9
100
AcDbEntity
  8
_0-3_躯体と製品
  6
CONTINUOUS
 62
     0
100
AcDbLine
 10
639.6280915027
 20
431.3383366033
 11
636.7446751334
 21
434.2217529726
  0
LINE
  5
5DA
100
AcDbEntity
  8
_0-3_躯体と製品
  6
CONTINUOUS
 62
     0
100
AcDbLine
 10
638.135663081
 20
431.4165514626
 11
635.2522467117
 21
434.2999678319
  0
LINE
  5
5DB
100
AcDbEntity
  8
_0-3_躯体と製品
  6
CONTINUOUS
 62
     0
100
AcDbLine
 10
636.6432346593
 20
431.4947663219
 11
633.75981829
 21
434.3781826912
  0
LINE
  5
5DC
100
AcDbEntity
  8
_0-3_躯体と製品
  6
CONTINUOUS
 62
     0
100
AcDbLine
 10
633.1184091953
 20
431.6794945969
 11
633.2612109081
 21
434.4043135968
  0
LINE
  5
5DD
100
AcDbEntity
  8
_0-3_躯体と製品
  6
CONTINUOUS
 62
     0
100
AcDbLine
 10
218.4476640438
 20
457.6458289235
 11
674.6570078687
 21
433.7369103255
  0
LINE
  5
5DE
100
AcDbEntity
  8
_0-3_躯体と製品
  6
CONTINUOUS
 62
     0
100
AcDbLine
 10
218.3691601094
 20
456.1478846214
 11
674.5785039344
 21
432.2389660233
  0
LINE
  5
5DF
100
AcDbEntity
  8
_0-3_躯体と製品
  6
CONTINUOUS
 62
     0
100
AcDbLine
 10
633.039905261
 20
430.1815502947
 11
248.5675343805
 21
450.3308934483
  0
LINE
  5
5E0
100
AcDbEntity
  8
_0-3_躯体と製品
  6
CONTINUOUS
 62
     0
100
AcDbLine
 10
647.7838364792
 20
424.9026780447
 11
233.352579556
 21
446.6220998855
  0
LINE
  5
5E1
100
AcDbEntity
  8
_0-3_躯体と製品
  6
CONTINUOUS
 62
     0
100
AcDbLine
 10
647.8623404136
 20
426.4006223468
 11
233.4310834904
 21
448.1200441876
  0
LINE
  5
5E2
100
AcDbEntity
  8
_0-3_躯体と製品
  6
CONTINUOUS
 62
     0
100
AcDbLine
 10
646.6847813981
 20
403.9314578148
 11
232.2535244749
 21
425.6508796557
  0
LINE
  5
5E3
100
AcDbEntity
  8
_0-3_躯体と製品
  6
CONTINUOUS
 62
     0
100
AcDbLine
 10
646.7632853325
 20
405.429402117
 11
232.3320284093
 21
427.1488239578
  0
LINE
  5
5E4
100
AcDbEntity
  8
_0-3_躯体と製品
  6
CONTINUOUS
 62
     0
100
AcDbLine
 10
646.9464611793
 20
408.9246054886
 11
232.5152042562
 21
430.6440273294
  0
LINE
  5
5E5
100
AcDbEntity
  8
_0-3_躯体と製品
  6
CONTINUOUS
 62
     0
100
AcDbLine
 10
646.6324454418
 20
402.9328282801
 11
232.2011885187
 21
424.6522501209
  0
LINE
  5
5E6
100
AcDbEntity
  8
_0-3_躯体と製品
  6
CONTINUOUS
 62
     0
100
AcDbLine
 10
648.0978522167
 20
430.8944552532
 11
233.6665952935
 21
452.613877094
  0
LINE
  5
5E7
100
AcDbEntity
  8
_0-3_躯体と製品
  6
CONTINUOUS
 62
     0
100
AcDbLine
 10
646.8547218081
 20
426.4534294003
 11
642.6277037971
 21
430.6804474112
  0
LINE
  5
5E8
100
AcDbEntity
  8
_0-3_躯体と製品
  6
CONTINUOUS
 62
     0
100
AcDbLine
 10
645.3622933864
 20
426.5316442596
 11
641.1352753755
 21
430.7586622705
  0
LINE
  5
5E9
100
AcDbEntity
  8
_0-3_躯体と製品
  6
CONTINUOUS
 62
     0
100
AcDbLine
 10
643.8698649647
 20
426.6098591189
 11
639.6428469538
 21
430.8368771299
  0
LINE
  5
5EA
100
AcDbEntity
  8
_0-3_躯体と製品
  6
CONTINUOUS
 62
     0
100
AcDbLine
 10
642.377436543
 20
426.6880739782
 11
638.1504185321
 21
430.9150919892
  0
LINE
  5
5EB
100
AcDbEntity
  8
_0-3_躯体と製品
  6
CONTINUOUS
 62
     0
100
AcDbLine
 10
640.8850081213
 20
426.7662888376
 11
636.6579901104
 21
430.9933068485
  0
LINE
  5
5EC
100
AcDbEntity
  8
_0-3_躯体と製品
  6
CONTINUOUS
 62
     0
100
AcDbLine
 10
639.3925796996
 20
426.8445036969
 11
635.1655616887
 21
431.0715217078
  0
LINE
  5
5ED
100
AcDbEntity
  8
_0-3_躯体と製品
  6
CONTINUOUS
 62
     0
100
AcDbLine
 10
637.9001512779
 20
426.9227185562
 11
633.673133267
 21
431.1497365671
  0
LINE
  5
5EE
100
AcDbEntity
  8
_0-3_躯体と製品
  6
CONTINUOUS
 62
     0
100
AcDbLine
 10
636.4077228562
 20
427.0009334155
 11
633.0492274781
 21
430.3594287937
  0
LINE
  5
5EF
100
AcDbEntity
  8
_0-3_躯体と製品
  6
CONTINUOUS
 62
     0
100
AcDbLine
 10
634.9152944345
 20
427.0791482748
 11
632.9788025024
 21
429.015640207
  0
LINE
  5
5F0
100
AcDbEntity
  8
_0-3_躯体と製品
  6
CONTINUOUS
 62
     0
100
AcDbLine
 10
632.8828973922
 20
427.1856616905
 11
633.0922412172
 21
431.1801798295
  0
LINE
  5
5F1
100
AcDbEntity
  8
_0-3_躯体と製品
  6
CONTINUOUS
 62
     0
100
AcDbLine
 10
648.0716842385
 20
430.3951404858
 11
633.0922412172
 21
431.1801798295
  0
LINE
  5
5F2
100
AcDbEntity
  8
_0-3_躯体と製品
  6
CONTINUOUS
 62
     0
100
AcDbLine
 10
633.4228660128
 20
427.1573631342
 11
632.9083775268
 21
427.6718516202
  0
LINE
  5
5F3
100
AcDbEntity
  8
_0-3_躯体と製品
  6
CONTINUOUS
 62
     0
100
AcDbLine
 10
618.4593514607
 20
409.9168654742
 11
646.9202932012
 21
408.4252907212
  0
ARC
  5
5F4
100
AcDbEntity
  8
_0-3_躯体と製品
  6
CONTINUOUS
 62
     0
100
AcDbCircle
 10
618.3808475263
 20
408.418921172
 40
1.5
100
AcDbArc
 50
86.99999999999
 51
267
  0
LINE
  5
5F5
100
AcDbEntity
  8
_0-3_躯体と製品
  6
CONTINUOUS
 62
     0
100
AcDbLine
 10
618.3023435919
 20
406.9209768699
 11
621.7975469636
 21
406.737801023
  0
LINE
  5
5F6
100
AcDbEntity
  8
_0-3_躯体と製品
  6
CONTINUOUS
 62
     0
100
AcDbLine
 10
621.8498829198
 20
407.7364305578
 11
621.7975469636
 21
406.737801023
  0
LINE
  5
5F7
100
AcDbEntity
  8
_0-3_躯体と製品
  6
CONTINUOUS
 62
     0
100
AcDbLine
 10
621.8498829198
 20
407.7364305578
 11
641.8224736149
 21
406.6897114329
  0
LINE
  5
5F8
100
AcDbEntity
  8
_0-3_躯体と製品
  6
CONTINUOUS
 62
     0
100
AcDbLine
 10
641.8224736149
 20
406.6897114329
 11
641.7701376587
 21
405.6910818982
  0
LINE
  5
5F9
100
AcDbEntity
  8
_0-3_躯体と製品
  6
CONTINUOUS
 62
     0
100
AcDbLine
 10
641.7701376587
 20
405.6910818982
 11
646.7632853325
 21
405.429402117
  0
LINE
  5
5FA
100
AcDbEntity
  8
_0-3_躯体と製品
  6
CONTINUOUS
 62
     0
100
AcDbLine
 10
633.6583778159
 20
431.6511960406
 11
633.1438893299
 21
432.1656845266
  0
ARC
  5
5FB
100
AcDbEntity
  8
_0-3_躯体と製品
  6
CONTINUOUS
 62
     0
100
AcDbCircle
 10
426.5
 20
385
 40
1
100
AcDbArc
 50
90
 51
175
  0
LINE
  5
5FC
100
AcDbEntity
  8
_0-3_躯体と製品
  6
CONTINUOUS
 62
     0
100
AcDbLine
 10
426.5
 20
386
 11
426.5
 21
241
  0
LINE
  5
5FD
100
AcDbEntity
  8
_0-4_図枠
  6
CONTINUOUS
 62
     0
100
AcDbLine
 10
490.378248247
 20
391.2361569326
 11
480.6809946151
 21
374.4400209483
  0
CIRCLE
  5
5FE
100
AcDbEntity
  8
_0-4_図枠
  6
CONTINUOUS
 62
     0
100
AcDbCircle
 10
477.6809946151
 20
369.2438685256
 40
6
  0
CIRCLE
  5
5FF
100
AcDbEntity
  8
_0-4_図枠
  6
CONTINUOUS
 62
     0
100
AcDbCircle
 10
490.378248247
 20
391.2361569326
 40
0.9
  0
LINE
  5
600
100
AcDbEntity
  8
_0-4_図枠
  6
CONTINUOUS
 62
     0
100
AcDbLine
 10
495.373989024
 20
360.9173386019
 11
485.3323748293
 21
343.5247526265
  0
LINE
  5
601
100
AcDbEntity
  8
_0-4_図枠
  6
CONTINUOUS
 62
     0
100
AcDbLine
 10
501.8374108287
 20
394.1005721473
 11
518.2597964936
 21
365.6561657942
  0
CIRCLE
  5
602
100
AcDbEntity
  8
_0-4_図枠
  6
CONTINUOUS
 62
     0
100
AcDbCircle
 10
521.2597964936
 20
360.4600133715
 40
6
  0
LINE
  5
603
100
AcDbEntity
  8
_0-4_図枠
  6
CONTINUOUS
 62
     0
100
AcDbLine
 10
507.6774827281
 20
401.4886149116
 11
519.4591688599
 21
381.0821359326
  0
CIRCLE
  5
604
100
AcDbEntity
  8
_0-4_図枠
  6
CONTINUOUS
 62
     0
100
AcDbCircle
 10
522.4591688599
 20
375.8859835099
 40
6
  0
LINE
  5
605
100
AcDbEntity
  8
_0-4_図枠
  6
CONTINUOUS
 62
     0
100
AcDbLine
 10
515.0216915842
 20
399.751336986
 11
539.8347458396
 21
442.7288076474
  0
CIRCLE
  5
606
100
AcDbEntity
  8
_0-4_図枠
  6
CONTINUOUS
 62
     0
100
AcDbCircle
 10
515.0216915842
 20
399.751336986
 40
0.9
  0
LINE
  5
607
100
AcDbEntity
  8
_0-4_図枠
  6
CONTINUOUS
 62
     0
100
AcDbLine
 10
547.4733407388
 20
419.5981941001
 11
561.3986558504
 21
443.7175473848
  0
TEXT
  5
608
100
AcDbEntity
  8
_0-4_図枠
  6
CONTINUOUS
 62
     0
100
AcDbText
 10
561.3986558504
 20
445.9136998075
 40
5
  1
６
  7
STANDARD
100
AcDbText
  0
CIRCLE
  5
609
100
AcDbEntity
  8
_0-4_図枠
  6
CONTINUOUS
 62
     0
100
AcDbCircle
 10
564.3986558504
 20
448.9136998075
 40
6
  0
CIRCLE
  5
60A
100
AcDbEntity
  8
_0-4_図枠
  6
CONTINUOUS
 62
     0
100
AcDbCircle
 10
507.6774827281
 20
401.4886149116
 40
0.9
  0
CIRCLE
  5
60B
100
AcDbEntity
  8
_0-4_図枠
  6
CONTINUOUS
 62
     0
100
AcDbCircle
 10
501.8374108287
 20
394.1005721473
 40
0.9
  0
CIRCLE
  5
60C
100
AcDbEntity
  8
_0-4_図枠
  6
CONTINUOUS
 62
     0
100
AcDbCircle
 10
495.373989024
 20
360.9173386019
 40
0.9
  0
CIRCLE
  5
60D
100
AcDbEntity
  8
_0-4_図枠
  6
CONTINUOUS
 62
     0
100
AcDbCircle
 10
547.4733407388
 20
419.5981941001
 40
0.9
  0
LINE
  5
60E
100
AcDbEntity
  8
_0-3_躯体と製品
  6
CONTINUOUS
 62
     0
100
AcDbLine
 10
503.2735026919
 20
396.4956829857
 11
503.2735026919
 21
392
  0
LINE
  5
60F
100
AcDbEntity
  8
_0-3_躯体と製品
  6
CONTINUOUS
 62
     0
100
AcDbLine
 10
500.3867513459
 20
396.4956829857
 11
500.3867513459
 21
392
  0
LINE
  5
610
100
AcDbEntity
  8
_0-3_躯体と製品
  6
CONTINUOUS
 62
     0
100
AcDbLine
 10
494.6132486541
 20
396.4956829857
 11
494.6132486541
 21
392
  0
LINE
  5
611
100
AcDbEntity
  8
_0-3_躯体と製品
  6
CONTINUOUS
 62
     0
100
AcDbLine
 10
502.4
 20
397
 11
503.2735026919
 21
396.4956829857
  0
LINE
  5
612
100
AcDbEntity
  8
_0-3_躯体と製品
  6
CONTINUOUS
 62
     0
100
AcDbLine
 10
492.6
 20
397
 11
502.4
 21
397
  0
LINE
  5
613
100
AcDbEntity
  8
_0-3_躯体と製品
  6
CONTINUOUS
 62
     0
100
AcDbLine
 10
492.6
 20
397
 11
491.7264973081
 21
396.4956829857
  0
LINE
  5
614
100
AcDbEntity
  8
_0-3_躯体と製品
  6
CONTINUOUS
 62
     0
100
AcDbLine
 10
491.7264973081
 20
396.4956829857
 11
491.7264973081
 21
392
  0
ARC
  5
615
100
AcDbEntity
  8
_0-3_躯体と製品
  6
CONTINUOUS
 62
     0
100
AcDbCircle
 10
501.8301270189
 20
394.3864422247
 40
2.555822748428
100
AcDbArc
 50
55.61575253204
 51
124.384247468
  0
ARC
  5
616
100
AcDbEntity
  8
_0-3_躯体と製品
  6
CONTINUOUS
 62
     0
100
AcDbCircle
 10
493.1698729811
 20
394.3864422247
 40
2.555822748428
100
AcDbArc
 50
55.61575253204
 51
124.384247468
  0
ARC
  5
617
100
AcDbEntity
  8
_0-3_躯体と製品
  6
CONTINUOUS
 62
     0
100
AcDbCircle
 10
497.5
 20
387.3888469604
 40
9.553418012636
100
AcDbArc
 50
72.41204622605
 51
107.587953774
  0
LINE
  5
618
100
AcDbEntity
  8
_0-3_躯体と製品
  6
CONTINUOUS
 62
     0
100
AcDbLine
 10
488.5
 20
392
 11
488.5
 21
390.5
  0
LINE
  5
619
100
AcDbEntity
  8
_0-3_躯体と製品
  6
CONTINUOUS
 62
     0
100
AcDbLine
 10
488.5
 20
392
 11
506.5
 21
392
  0
LINE
  5
61A
100
AcDbEntity
  8
_0-3_躯体と製品
  6
CONTINUOUS
 62
     0
100
AcDbLine
 10
506.5
 20
392
 11
506.5
 21
390.5
  0
LINE
  5
61B
100
AcDbEntity
  8
_0-3_躯体と製品
  6
CONTINUOUS
 62
     0
100
AcDbLine
 10
497.5
 20
410.9235144279
 11
497.5
 21
322
  0
LINE
  5
61C
100
AcDbEntity
  8
_0-3_躯体と製品
  6
CONTINUOUS
 62
     0
100
AcDbLine
 10
426.5
 20
387
 11
476.5
 21
387
  0
LINE
  5
61D
100
AcDbEntity
  8
_0-3_躯体と製品
  6
CONTINUOUS
 62
     0
100
AcDbLine
 10
512.5
 20
388
 11
482.5
 21
388
  0
ARC
  5
61E
100
AcDbEntity
  8
_0-3_躯体と製品
  6
CONTINUOUS
 62
     0
100
AcDbCircle
 10
482.5
 20
378.75
 40
9.25
100
AcDbArc
 50
90
 51
108.9246444161
  0
ARC
  5
61F
100
AcDbEntity
  8
_0-3_躯体と製品
  6
CONTINUOUS
 62
     0
100
AcDbCircle
 10
512.5
 20
378.75
 40
9.25
100
AcDbArc
 50
71.07535558395
 51
90
  0
ARC
  5
620
100
AcDbEntity
  8
_0-3_躯体と製品
  6
CONTINUOUS
 62
     0
100
AcDbCircle
 10
476.5
 20
396.25
 40
9.25
100
AcDbArc
 50
-90
 51
-71.07535558395
  0
ARC
  5
621
100
AcDbEntity
  8
_0-3_躯体と製品
  6
CONTINUOUS
 62
     0
100
AcDbCircle
 10
476.5
 20
396.25
 40
10.25
100
AcDbArc
 50
-90
 51
-71.07535558395
  0
ARC
  5
622
100
AcDbEntity
  8
_0-3_躯体と製品
  6
CONTINUOUS
 62
     0
100
AcDbCircle
 10
482.5
 20
378.75
 40
8.25
100
AcDbArc
 50
90
 51
108.9246444161
  0
ARC
  5
623
100
AcDbEntity
  8
_0-3_躯体と製品
  6
CONTINUOUS
 62
     0
100
AcDbCircle
 10
518.5
 20
396.25
 40
10.25
100
AcDbArc
 50
-108.9246444161
 51
-90
  0
ARC
  5
624
100
AcDbEntity
  8
_0-3_躯体と製品
  6
CONTINUOUS
 62
     0
100
AcDbCircle
 10
512.5
 20
378.75
 40
8.25
100
AcDbArc
 50
71.07535558395
 51
90
  0
LINE
  5
625
100
AcDbEntity
  8
_0-3_躯体と製品
  6
CONTINUOUS
 62
     0
100
AcDbLine
 10
497.5
 20
387
 11
497.5
 21
388
  0
ARC
  5
626
100
AcDbEntity
  8
_0-3_躯体と製品
  6
CONTINUOUS
 62
     0
100
AcDbCircle
 10
518.5
 20
396.25
 40
9.25
100
AcDbArc
 50
-108.9246444161
 51
-90
  0
LINE
  5
627
100
AcDbEntity
  8
_0-3_躯体と製品
  6
CONTINUOUS
 62
     0
100
AcDbLine
 10
483.5
 20
396.5
 11
483.5
 21
394.9
  0
LINE
  5
628
100
AcDbEntity
  8
_0-3_躯体と製品
  6
CONTINUOUS
 62
     0
100
AcDbLine
 10
511.5
 20
396.5
 11
511.5
 21
394.9
  0
LINE
  5
629
100
AcDbEntity
  8
_0-3_躯体と製品
  6
CONTINUOUS
 62
     0
100
AcDbLine
 10
500.4958886043
 20
405.7665065592
 11
500.3074791618
 21
402.171440234
  0
LINE
  5
62A
100
AcDbEntity
  8
_0-3_躯体と製品
  6
CONTINUOUS
 62
     0
100
AcDbLine
 10
494.5041113957
 20
406.0805222966
 11
494.3157019533
 21
402.4854559715
  0
LINE
  5
62B
100
AcDbEntity
  8
_0-3_躯体と製品
  6
CONTINUOUS
 62
     0
100
AcDbLine
 10
506.5099055081
 20
405.4513252887
 11
488.7099055081
 21
406.3841837599
  0
LINE
  5
62C
100
AcDbEntity
  8
_0-3_躯体と製品
  6
CONTINUOUS
 62
     0
100
AcDbLine
 10
506.4261679781
 20
403.853518033
 11
488.6261679781
 21
404.7863765043
  0
ARC
  5
62D
100
AcDbEntity
  8
_0-3_躯体と製品
  6
CONTINUOUS
 62
     0
100
AcDbCircle
 10
502.9562519084
 20
403.0339962826
 40
1
100
AcDbArc
 50
86.99999999999
 51
177
  0
LINE
  5
62E
100
AcDbEntity
  8
_0-3_躯体と製品
  6
CONTINUOUS
 62
     0
100
AcDbLine
 10
501.9576223736
 20
403.0863322388
 11
501.9052864174
 21
402.0877027041
  0
ARC
  5
62F
100
AcDbEntity
  8
_0-3_躯体と製品
  6
CONTINUOUS
 62
     0
100
AcDbCircle
 10
491.7716011191
 20
403.6201589925
 40
1
100
AcDbArc
 50
-2.999999999999
 51
86.99999999999
  0
LINE
  5
630
100
AcDbEntity
  8
_0-3_躯体と製品
  6
CONTINUOUS
 62
     0
100
AcDbLine
 10
492.7702306539
 20
403.5678230362
 11
492.7178946977
 21
402.5691935015
  0
LINE
  5
631
100
AcDbEntity
  8
_0-3_躯体と製品
  6
CONTINUOUS
 62
     0
100
AcDbLine
 10
501.9052864174
 20
402.0877027041
 11
492.7178946977
 21
402.5691935015
  0
ARC
  5
632
100
AcDbEntity
  8
_0-3_躯体と製品
  6
CONTINUOUS
 62
     0
100
AcDbCircle
 10
506.4
 20
403.3542032657
 40
2.1
100
AcDbArc
 50
0
 51
86.99999999999
  0
LINE
  5
633
100
AcDbEntity
  8
_0-3_躯体と製品
  6
CONTINUOUS
 62
     0
100
AcDbLine
 10
508.5
 20
403.3542032657
 11
508.5
 21
397
  0
ARC
  5
634
100
AcDbEntity
  8
_0-3_躯体と製品
  6
CONTINUOUS
 62
     0
100
AcDbCircle
 10
488.6
 20
404.2870617369
 40
2.1
100
AcDbArc
 50
86.99999999999
 51
180
  0
ARC
  5
635
100
AcDbEntity
  8
_0-3_躯体と製品
  6
CONTINUOUS
 62
     0
100
AcDbCircle
 10
506.4
 20
403.3542032657
 40
0.5
100
AcDbArc
 50
0
 51
86.99999999999
  0
LINE
  5
636
100
AcDbEntity
  8
_0-3_躯体と製品
  6
CONTINUOUS
 62
     0
100
AcDbLine
 10
506.9
 20
403.3542032657
 11
506.9
 21
397
  0
ARC
  5
637
100
AcDbEntity
  8
_0-3_躯体と製品
  6
CONTINUOUS
 62
     0
100
AcDbCircle
 10
488.6
 20
404.2870617369
 40
0.5
100
AcDbArc
 50
86.99999999999
 51
180
  0
LINE
  5
638
100
AcDbEntity
  8
_0-3_躯体と製品
  6
CONTINUOUS
 62
     0
100
AcDbLine
 10
488.1
 20
404.2870617369
 11
488.1
 21
397
  0
ARC
  5
639
100
AcDbEntity
  8
_0-3_躯体と製品
  6
CONTINUOUS
 62
     0
100
AcDbCircle
 10
509
 20
397
 40
0.5
100
AcDbArc
 50
180
 51
270
  0
ARC
  5
63A
100
AcDbEntity
  8
_0-3_躯体と製品
  6
CONTINUOUS
 62
     0
100
AcDbCircle
 10
509
 20
397
 40
2.1
100
AcDbArc
 50
180
 51
270
  0
LINE
  5
63B
100
AcDbEntity
  8
_0-3_躯体と製品
  6
CONTINUOUS
 62
     0
100
AcDbLine
 10
513.5
 20
396.5
 11
513.5
 21
394.9
  0
LINE
  5
63C
100
AcDbEntity
  8
_0-3_躯体と製品
  6
CONTINUOUS
 62
     0
100
AcDbLine
 10
509
 20
396.5
 11
513.5
 21
396.5
  0
LINE
  5
63D
100
AcDbEntity
  8
_0-3_躯体と製品
  6
CONTINUOUS
 62
     0
100
AcDbLine
 10
513.5
 20
394.9
 11
509
 21
394.9
  0
ARC
  5
63E
100
AcDbEntity
  8
_0-3_躯体と製品
  6
CONTINUOUS
 62
     0
100
AcDbCircle
 10
486
 20
397
 40
0.5
100
AcDbArc
 50
-90
 51
0
  0
ARC
  5
63F
100
AcDbEntity
  8
_0-3_躯体と製品
  6
CONTINUOUS
 62
     0
100
AcDbCircle
 10
486
 20
397
 40
2.1
100
AcDbArc
 50
-90
 51
0
  0
LINE
  5
640
100
AcDbEntity
  8
_0-3_躯体と製品
  6
CONTINUOUS
 62
     0
100
AcDbLine
 10
481.5
 20
396.5
 11
486
 21
396.5
  0
LINE
  5
641
100
AcDbEntity
  8
_0-3_躯体と製品
  6
CONTINUOUS
 62
     0
100
AcDbLine
 10
481.5
 20
394.9
 11
481.5
 21
396.5
  0
LINE
  5
642
100
AcDbEntity
  8
_0-3_躯体と製品
  6
CONTINUOUS
 62
     0
100
AcDbLine
 10
481.5
 20
394.9
 11
486
 21
394.9
  0
LINE
  5
643
100
AcDbEntity
  8
_0-3_躯体と製品
  6
CONTINUOUS
 62
     0
100
AcDbLine
 10
486.5
 20
404.2870617369
 11
486.5
 21
397
  0
LINE
  5
644
100
AcDbEntity
  8
_0-3_躯体と製品
  6
CONTINUOUS
 62
     0
100
AcDbLine
 10
497.5
 20
390
 11
497
 21
390.5
  0
LINE
  5
645
100
AcDbEntity
  8
_0-3_躯体と製品
  6
CONTINUOUS
 62
     0
100
AcDbLine
 10
513.7
 20
396.5
 11
510.75
 21
396.5
  0
ARC
  5
646
100
AcDbEntity
  8
_0-3_躯体と製品
  6
CONTINUOUS
 62
     0
100
AcDbCircle
 10
513.7
 20
396.2
 40
0.3
100
AcDbArc
 50
0
 51
90
  0
LINE
  5
647
100
AcDbEntity
  8
_0-3_躯体と製品
  6
CONTINUOUS
 62
     0
100
AcDbLine
 10
514
 20
396.2
 11
514
 21
394.3
  0
ARC
  5
648
100
AcDbEntity
  8
_0-3_躯体と製品
  6
CONTINUOUS
 62
     0
100
AcDbCircle
 10
513.7
 20
394.3
 40
0.3
100
AcDbArc
 50
-90
 51
0
  0
LINE
  5
649
100
AcDbEntity
  8
_0-3_躯体と製品
  6
CONTINUOUS
 62
     0
100
AcDbLine
 10
513.7
 20
394
 11
511.75
 21
394
  0
LINE
  5
64A
100
AcDbEntity
  8
_0-3_躯体と製品
  6
CONTINUOUS
 62
     0
100
AcDbLine
 10
514
 20
392.2
 11
514
 21
390.8
  0
ARC
  5
64B
100
AcDbEntity
  8
_0-3_躯体と製品
  6
CONTINUOUS
 62
     0
100
AcDbCircle
 10
513.7
 20
392.2
 40
0.3
100
AcDbArc
 50
0
 51
90
  0
LINE
  5
64C
100
AcDbEntity
  8
_0-3_躯体と製品
  6
CONTINUOUS
 62
     0
100
AcDbLine
 10
513.7
 20
392.5
 11
511.75
 21
392.5
  0
ARC
  5
64D
100
AcDbEntity
  8
_0-3_躯体と製品
  6
CONTINUOUS
 62
     0
100
AcDbCircle
 10
511.75
 20
393.25
 40
0.75
100
AcDbArc
 50
90
 51
270
  0
ARC
  5
64E
100
AcDbEntity
  8
_0-3_躯体と製品
  6
CONTINUOUS
 62
     0
100
AcDbCircle
 10
510.75
 20
397.25
 40
0.75
100
AcDbArc
 50
90
 51
270
  0
LINE
  5
64F
100
AcDbEntity
  8
_0-3_躯体と製品
  6
CONTINUOUS
 62
     0
100
AcDbLine
 10
514
 20
398.5
 11
514
 21
406
  0
ARC
  5
650
100
AcDbEntity
  8
_0-3_躯体と製品
  6
CONTINUOUS
 62
     0
100
AcDbCircle
 10
513.5
 20
398.5
 40
0.5
100
AcDbArc
 50
-90
 51
0
  0
LINE
  5
651
100
AcDbEntity
  8
_0-3_躯体と製品
  6
CONTINUOUS
 62
     0
100
AcDbLine
 10
513.5
 20
398
 11
510.75
 21
398
  0
ARC
  5
652
100
AcDbEntity
  8
_0-3_躯体と製品
  6
CONTINUOUS
 62
     0
100
AcDbCircle
 10
513.7
 20
390.8
 40
0.3
100
AcDbArc
 50
-90
 51
0
  0
ARC
  5
653
100
AcDbEntity
  8
_0-3_躯体と製品
  6
CONTINUOUS
 62
     0
100
AcDbCircle
 10
516.5
 20
391
 40
0.5
100
AcDbArc
 50
180
 51
270
  0
LINE
  5
654
100
AcDbEntity
  8
_0-3_躯体と製品
  6
CONTINUOUS
 62
     0
100
AcDbLine
 10
516
 20
388
 11
516
 21
389
  0
LINE
  5
655
100
AcDbEntity
  8
_0-3_躯体と製品
  6
CONTINUOUS
 62
     0
100
AcDbLine
 10
497.5
 20
390
 11
498
 21
390.5
  0
ARC
  5
656
100
AcDbEntity
  8
_0-3_躯体と製品
  6
CONTINUOUS
 62
     0
100
AcDbCircle
 10
515
 20
406
 40
1
100
AcDbArc
 50
0
 51
180
  0
LINE
  5
657
100
AcDbEntity
  8
_0-3_躯体と製品
  6
CONTINUOUS
 62
     0
100
AcDbLine
 10
514
 20
388
 11
516
 21
388
  0
LINE
  5
658
100
AcDbEntity
  8
_0-3_躯体と製品
  6
CONTINUOUS
 62
     0
100
AcDbLine
 10
514
 20
388.5
 11
514
 21
388
  0
LINE
  5
659
100
AcDbEntity
  8
_0-3_躯体と製品
  6
CONTINUOUS
 62
     0
100
AcDbLine
 10
502.5
 20
388.5
 11
514
 21
388.5
  0
LINE
  5
65A
100
AcDbEntity
  8
_0-3_躯体と製品
  6
CONTINUOUS
 62
     0
100
AcDbLine
 10
502.5
 20
388
 11
502.5
 21
388.5
  0
LINE
  5
65B
100
AcDbEntity
  8
_0-3_躯体と製品
  6
CONTINUOUS
 62
     0
100
AcDbLine
 10
481.3
 20
390.5
 11
497
 21
390.5
  0
LINE
  5
65C
100
AcDbEntity
  8
_0-3_躯体と製品
  6
CONTINUOUS
 62
     0
100
AcDbLine
 10
498
 20
390.5
 11
513.7
 21
390.5
  0
LINE
  5
65D
100
AcDbEntity
  8
_0-3_躯体と製品
  6
CONTINUOUS
 62
     0
100
AcDbLine
 10
492.5
 20
388
 11
502.5
 21
388
  0
LINE
  5
65E
100
AcDbEntity
  8
_0-3_躯体と製品
  6
CONTINUOUS
 62
     0
100
AcDbLine
 10
479.5
 20
397.5
 11
479.5
 21
388
  0
ARC
  5
65F
100
AcDbEntity
  8
_0-3_躯体と製品
  6
CONTINUOUS
 62
     0
100
AcDbCircle
 10
480
 20
397.5
 40
0.5
100
AcDbArc
 50
90
 51
180
  0
LINE
  5
660
100
AcDbEntity
  8
_0-3_躯体と製品
  6
CONTINUOUS
 62
     0
100
AcDbLine
 10
480
 20
398
 11
484.25
 21
398
  0
LINE
  5
661
100
AcDbEntity
  8
_0-3_躯体と製品
  6
CONTINUOUS
 62
     0
100
AcDbLine
 10
481
 20
390.8
 11
481
 21
392.2
  0
ARC
  5
662
100
AcDbEntity
  8
_0-3_躯体と製品
  6
CONTINUOUS
 62
     0
100
AcDbCircle
 10
481.3
 20
390.8
 40
0.3
100
AcDbArc
 50
180
 51
270
  0
LINE
  5
663
100
AcDbEntity
  8
_0-3_躯体と製品
  6
CONTINUOUS
 62
     0
100
AcDbLine
 10
481.3
 20
392.5
 11
483.25
 21
392.5
  0
ARC
  5
664
100
AcDbEntity
  8
_0-3_躯体と製品
  6
CONTINUOUS
 62
     0
100
AcDbCircle
 10
481.3
 20
392.2
 40
0.3
100
AcDbArc
 50
90
 51
180
  0
LINE
  5
665
100
AcDbEntity
  8
_0-3_躯体と製品
  6
CONTINUOUS
 62
     0
100
AcDbLine
 10
481
 20
394.3
 11
481
 21
396.2
  0
ARC
  5
666
100
AcDbEntity
  8
_0-3_躯体と製品
  6
CONTINUOUS
 62
     0
100
AcDbCircle
 10
481.3
 20
394.3
 40
0.3
100
AcDbArc
 50
180
 51
270
  0
LINE
  5
667
100
AcDbEntity
  8
_0-3_躯体と製品
  6
CONTINUOUS
 62
     0
100
AcDbLine
 10
481.3
 20
394
 11
483.25
 21
394
  0
LINE
  5
668
100
AcDbEntity
  8
_0-3_躯体と製品
  6
CONTINUOUS
 62
     0
100
AcDbLine
 10
481.3
 20
396.5
 11
484.25
 21
396.5
  0
ARC
  5
669
100
AcDbEntity
  8
_0-3_躯体と製品
  6
CONTINUOUS
 62
     0
100
AcDbCircle
 10
481.3
 20
396.2
 40
0.3
100
AcDbArc
 50
90
 51
180
  0
ARC
  5
66A
100
AcDbEntity
  8
_0-3_躯体と製品
  6
CONTINUOUS
 62
     0
100
AcDbCircle
 10
483.25
 20
393.25
 40
0.75
100
AcDbArc
 50
-90
 51
90
  0
ARC
  5
66B
100
AcDbEntity
  8
_0-3_躯体と製品
  6
CONTINUOUS
 62
     0
100
AcDbCircle
 10
484.25
 20
397.25
 40
0.75
100
AcDbArc
 50
-90
 51
90
  0
LINE
  5
66C
100
AcDbEntity
  8
_0-3_躯体と製品
  6
CONTINUOUS
 62
     0
100
AcDbLine
 10
492.5
 20
388.5
 11
492.5
 21
388
  0
LINE
  5
66D
100
AcDbEntity
  8
_0-3_躯体と製品
  6
CONTINUOUS
 62
     0
100
AcDbLine
 10
481
 20
388.5
 11
492.5
 21
388.5
  0
LINE
  5
66E
100
AcDbEntity
  8
_0-3_躯体と製品
  6
CONTINUOUS
 62
     0
100
AcDbLine
 10
481
 20
388
 11
481
 21
388.5
  0
LINE
  5
66F
100
AcDbEntity
  8
_0-3_躯体と製品
  6
CONTINUOUS
 62
     0
100
AcDbLine
 10
479.5
 20
388
 11
481
 21
388
  0
LINE
  5
670
100
AcDbEntity
  8
_0-3_躯体と製品
  6
CONTINUOUS
 62
     0
100
AcDbLine
 10
520.4724639012
 20
390.5
 11
516.5
 21
390.5
  0
LINE
  5
671
100
AcDbEntity
  8
_0-3_躯体と製品
  6
CONTINUOUS
 62
     0
100
AcDbLine
 10
493.45
 20
378.7
 11
501.55
 21
378.7
  0
LINE
  5
672
100
AcDbEntity
  8
_0-3_躯体と製品
  6
CONTINUOUS
 62
     0
100
AcDbLine
 10
492.75
 20
378
 11
502.25
 21
378
  0
LINE
  5
673
100
AcDbEntity
  8
_0-3_躯体と製品
  6
CONTINUOUS
 62
     0
100
AcDbLine
 10
504.12503
 20
348.738004
 11
502.25
 21
359.371826
  0
LINE
  5
674
100
AcDbEntity
  8
_0-3_躯体と製品
  6
CONTINUOUS
 62
     0
100
AcDbLine
 10
498
 20
359
 11
499.939597
 21
348
  0
LINE
  5
675
100
AcDbEntity
  8
_0-3_躯体と製品
  6
CONTINUOUS
 62
     0
100
AcDbLine
 10
497
 20
359
 11
495.060403
 21
348
  0
LINE
  5
676
100
AcDbEntity
  8
_0-3_躯体と製品
  6
CONTINUOUS
 62
     0
100
AcDbLine
 10
502.25
 20
359.371826
 11
502.25
 21
378
  0
LINE
  5
677
100
AcDbEntity
  8
_0-3_躯体と製品
  6
CONTINUOUS
 62
     0
100
AcDbLine
 10
502.25
 20
378
 11
501.55
 21
378.7
  0
LINE
  5
678
100
AcDbEntity
  8
_0-3_躯体と製品
  6
CONTINUOUS
 62
     0
100
AcDbLine
 10
497
 20
359
 11
498
 21
359
  0
LINE
  5
679
100
AcDbEntity
  8
_0-3_躯体と製品
  6
CONTINUOUS
 62
     0
100
AcDbLine
 10
490.87497
 20
348.738004
 11
492.75
 21
359.371826
  0
LINE
  5
67A
100
AcDbEntity
  8
_0-3_躯体と製品
  6
CONTINUOUS
 62
     0
100
AcDbLine
 10
492.75
 20
359.371826
 11
492.75
 21
378
  0
LINE
  5
67B
100
AcDbEntity
  8
_0-3_躯体と製品
  6
CONTINUOUS
 62
     0
100
AcDbLine
 10
492.75
 20
378
 11
493.45
 21
378.7
  0
LINE
  5
67C
100
AcDbEntity
  8
_0-3_躯体と製品
  6
CONTINUOUS
 62
     0
100
AcDbLine
 10
501.55
 20
388
 11
501.55
 21
378.7
  0
LINE
  5
67D
100
AcDbEntity
  8
_0-3_躯体と製品
  6
CONTINUOUS
 62
     0
100
AcDbLine
 10
493.45
 20
388
 11
493.45
 21
378.7
  0
LINE
  5
67E
100
AcDbEntity
  8
_0-3_躯体と製品
  6
CONTINUOUS
 62
     0
100
AcDbLine
 10
482.5
 20
386.5740224717
 11
482.9259775283
 21
387
  0
LINE
  5
67F
100
AcDbEntity
  8
_0-3_躯体と製品
  6
CONTINUOUS
 62
     0
100
AcDbLine
 10
483.3401910907
 20
386
 11
484.3401910907
 21
387
  0
LINE
  5
680
100
AcDbEntity
  8
_0-3_躯体と製品
  6
CONTINUOUS
 62
     0
100
AcDbLine
 10
484.7544046531
 20
386
 11
485.7544046531
 21
387
  0
LINE
  5
681
100
AcDbEntity
  8
_0-3_躯体と製品
  6
CONTINUOUS
 62
     0
100
AcDbLine
 10
486.1686182154
 20
386
 11
487.1686182154
 21
387
  0
LINE
  5
682
100
AcDbEntity
  8
_0-3_躯体と製品
  6
CONTINUOUS
 62
     0
100
AcDbLine
 10
487.5828317778
 20
386
 11
488.5828317778
 21
387
  0
LINE
  5
683
100
AcDbEntity
  8
_0-3_躯体と製品
  6
CONTINUOUS
 62
     0
100
AcDbLine
 10
488.9970453402
 20
386
 11
489.9970453402
 21
387
  0
LINE
  5
684
100
AcDbEntity
  8
_0-3_躯体と製品
  6
CONTINUOUS
 62
     0
100
AcDbLine
 10
490.4112589025
 20
386
 11
491.4112589025
 21
387
  0
LINE
  5
685
100
AcDbEntity
  8
_0-3_躯体と製品
  6
CONTINUOUS
 62
     0
100
AcDbLine
 10
491.8254724649
 20
386
 11
492.8254724649
 21
387
  0
LINE
  5
686
100
AcDbEntity
  8
_0-3_躯体と製品
  6
CONTINUOUS
 62
     0
100
AcDbLine
 10
493.2396860273
 20
386
 11
494.2396860273
 21
387
  0
LINE
  5
687
100
AcDbEntity
  8
_0-3_躯体と製品
  6
CONTINUOUS
 62
     0
100
AcDbLine
 10
494.6538995897
 20
386
 11
495.6538995897
 21
387
  0
LINE
  5
688
100
AcDbEntity
  8
_0-3_躯体と製品
  6
CONTINUOUS
 62
     0
100
AcDbLine
 10
496.068113152
 20
386
 11
497.068113152
 21
387
  0
LINE
  5
689
100
AcDbEntity
  8
_0-3_躯体と製品
  6
CONTINUOUS
 62
     0
100
AcDbLine
 10
497.4823267144
 20
386
 11
498.4823267144
 21
387
  0
LINE
  5
68A
100
AcDbEntity
  8
_0-3_躯体と製品
  6
CONTINUOUS
 62
     0
100
AcDbLine
 10
498.8965402768
 20
386
 11
499.8965402768
 21
387
  0
LINE
  5
68B
100
AcDbEntity
  8
_0-3_躯体と製品
  6
CONTINUOUS
 62
     0
100
AcDbLine
 10
500.3107538392
 20
386
 11
501.3107538392
 21
387
  0
LINE
  5
68C
100
AcDbEntity
  8
_0-3_躯体と製品
  6
CONTINUOUS
 62
     0
100
AcDbLine
 10
501.7249674015
 20
386
 11
502.7249674015
 21
387
  0
LINE
  5
68D
100
AcDbEntity
  8
_0-3_躯体と製品
  6
CONTINUOUS
 62
     0
100
AcDbLine
 10
503.1391809639
 20
386
 11
504.1391809639
 21
387
  0
LINE
  5
68E
100
AcDbEntity
  8
_0-3_躯体と製品
  6
CONTINUOUS
 62
     0
100
AcDbLine
 10
504.5533945263
 20
386
 11
505.5533945263
 21
387
  0
LINE
  5
68F
100
AcDbEntity
  8
_0-3_躯体と製品
  6
CONTINUOUS
 62
     0
100
AcDbLine
 10
505.9676080886
 20
386
 11
506.9676080886
 21
387
  0
LINE
  5
690
100
AcDbEntity
  8
_0-3_躯体と製品
  6
CONTINUOUS
 62
     0
100
AcDbLine
 10
507.381821651
 20
386
 11
508.381821651
 21
387
  0
LINE
  5
691
100
AcDbEntity
  8
_0-3_躯体と製品
  6
CONTINUOUS
 62
     0
100
AcDbLine
 10
508.7960352134
 20
386
 11
509.7960352134
 21
387
  0
LINE
  5
692
100
AcDbEntity
  8
_0-3_躯体と製品
  6
CONTINUOUS
 62
     0
100
AcDbLine
 10
510.2102487758
 20
386
 11
511.2102487758
 21
387
  0
LINE
  5
693
100
AcDbEntity
  8
_0-3_躯体と製品
  6
CONTINUOUS
 62
     0
100
AcDbLine
 10
511.6244623381
 20
386
 11
512.5
 21
386.8755376619
  0
LINE
  5
694
100
AcDbEntity
  8
_0-3_躯体と製品
  6
CONTINUOUS
 62
     0
100
AcDbLine
 10
512.5
 20
386
 11
482.5
 21
386
  0
LINE
  5
695
100
AcDbEntity
  8
_0-3_躯体と製品
  6
CONTINUOUS
 62
     0
100
AcDbLine
 10
482.5
 20
387
 11
512.5
 21
387
  0
LINE
  5
696
100
AcDbEntity
  8
_0-3_躯体と製品
  6
CONTINUOUS
 62
     0
100
AcDbLine
 10
512.5
 20
387
 11
512.5
 21
386
  0
LINE
  5
697
100
AcDbEntity
  8
_0-3_躯体と製品
  6
CONTINUOUS
 62
     0
100
AcDbLine
 10
482.5
 20
386
 11
482.5
 21
387
  0
LINE
  5
698
100
AcDbEntity
  8
_0-3_躯体と製品
  6
CONTINUOUS
 62
     0
100
AcDbLine
 10
426.5
 20
386
 11
547.5
 21
386
  0
CIRCLE
  5
699
100
AcDbEntity
  8
_0-3_躯体と製品
  6
CONTINUOUS
 62
     0
100
AcDbCircle
 10
497.5
 20
405.9235144279
 40
1.4
  0
LINE
  5
69A
100
AcDbEntity
  8
_0-3_躯体と製品
  6
CONTINUOUS
 62
     0
100
AcDbLine
 10
500.3074791618
 20
402.171440234
 11
500.191654542
 21
399.9613748311
  0
LINE
  5
69B
100
AcDbEntity
  8
_0-3_躯体と製品
  6
CONTINUOUS
 62
     0
100
AcDbLine
 10
494.7378452328
 20
399.6779166869
 11
494.1998773334
 21
400.2753905686
  0
LINE
  5
69C
100
AcDbEntity
  8
_0-3_躯体と製品
  6
CONTINUOUS
 62
     0
100
AcDbLine
 10
494.8834228438
 20
402.4557029804
 11
494.7378452328
 21
399.6779166869
  0
LINE
  5
69D
100
AcDbEntity
  8
_0-3_躯体と製品
  6
CONTINUOUS
 62
     0
100
AcDbLine
 10
494.3157019533
 20
402.4854559715
 11
494.1998773334
 21
400.2753905686
  0
LINE
  5
69E
100
AcDbEntity
  8
_0-3_躯体と製品
  6
CONTINUOUS
 62
     0
100
AcDbLine
 10
500.191654542
 20
399.9613748311
 11
494.1998773334
 21
400.2753905686
  0
LINE
  5
69F
100
AcDbEntity
  8
_0-3_躯体と製品
  6
CONTINUOUS
 62
     0
100
AcDbLine
 10
499.7397582713
 20
402.2011932252
 11
499.5941806603
 21
399.4234069317
  0
LINE
  5
6A0
100
AcDbEntity
  8
_0-3_躯体と製品
  6
CONTINUOUS
 62
     0
100
AcDbLine
 10
500.191654542
 20
399.9613748311
 11
499.5941806603
 21
399.4234069317
  0
LINE
  5
6A1
100
AcDbEntity
  8
_0-0_0
  6
CONTINUOUS
 62
     0
100
AcDbLine
 10
494.7378452328
 20
399.6779166869
 11
499.5941806603
 21
399.4234069317
  0
LINE
  5
6A2
100
AcDbEntity
  8
_0-4_図枠
  6
CONTINUOUS
 62
     0
100
AcDbLine
 10
499.7023538625
 20
424.2854381955
 11
517.5278864015
 21
455.1601662251
  0
LINE
  5
6A3
100
AcDbEntity
  8
_0-4_図枠
  6
CONTINUOUS
 62
     0
100
AcDbLine
 10
515.2517378534
 20
427.0076908389
 11
533.5388276258
 21
458.6818594473
  0
TEXT
  5
6A4
100
AcDbEntity
  8
_0-4_図枠
  6
CONTINUOUS
 62
     0
100
AcDbText
 10
539.9826546647
 20
447.7472285783
 40
5
  1
３
  7
STANDARD
100
AcDbText
  0
CIRCLE
  5
6A5
100
AcDbEntity
  8
_0-4_図枠
  6
CONTINUOUS
 62
     0
100
AcDbCircle
 10
542.9826546647
 20
450.7472285783
 40
6
  0
CIRCLE
  5
6A6
100
AcDbEntity
  8
_0-4_図枠
  6
CONTINUOUS
 62
     0
100
AcDbCircle
 10
515.2517378534
 20
427.0076908389
 40
0.9
  0
CIRCLE
  5
6A7
100
AcDbEntity
  8
_0-4_図枠
  6
CONTINUOUS
 62
     0
100
AcDbCircle
 10
499.7023538625
 20
424.2854381955
 40
0.9
  0
LINE
  5
6A8
100
AcDbEntity
  8
_0-3_躯体と製品
  6
CONTINUOUS
 62
     0
100
AcDbLine
 10
499.3725486868
 20
441.653871875
 11
496.8719685251
 21
393.9399600108
  0
LINE
  5
6A9
100
AcDbEntity
  8
_0-3_躯体と製品
  6
CONTINUOUS
 62
     0
100
AcDbLine
 10
470.0317068519
 20
422.9076365924
 11
470.6653097781
 21
423.3960496675
  0
LINE
  5
6AA
100
AcDbEntity
  8
_0-3_躯体と製品
  6
CONTINUOUS
 62
     0
100
AcDbLine
 10
470.6653097781
 20
423.3960496675
 11
472.4968588245
 21
421.0200386754
  0
LINE
  5
6AB
100
AcDbEntity
  8
_0-3_躯体と製品
  6
CONTINUOUS
 62
     0
100
AcDbLine
 10
470.0317068519
 20
422.9076365924
 11
471.8632558983
 21
420.5316256003
  0
ARC
  5
6AC
100
AcDbEntity
  8
_0-3_躯体と製品
  6
CONTINUOUS
 62
     0
100
AcDbCircle
 10
498.8721651724
 20
432.105985641
 40
6.3
100
AcDbArc
 50
47.696869
 51
126.309371
  0
ARC
  5
6AD
100
AcDbEntity
  8
_0-3_躯体と製品
  6
CONTINUOUS
 62
     0
100
AcDbCircle
 10
500.7958767252
 20
434.2088262273
 40
3.45
100
AcDbArc
 50
0.3127429999989
 51
47.820489
  0
ARC
  5
6AE
100
AcDbEntity
  8
_0-3_躯体と製品
  6
CONTINUOUS
 62
     0
100
AcDbCircle
 10
497.1845407199
 20
434.4025975072
 40
3.45
100
AcDbArc
 50
126.309124
 51
173.762163
  0
LINE
  5
6AF
100
AcDbEntity
  8
_0-3_躯体と製品
  6
CONTINUOUS
 62
     0
100
AcDbLine
 10
499.9089107658
 20
437.557778061
 11
498.4109664636
 21
437.6362819954
  0
ARC
  5
6B0
100
AcDbEntity
  8
_0-3_躯体と製品
  6
CONTINUOUS
 62
     0
100
AcDbCircle
 10
500.5101424112
 20
437.5655677033
 40
0.6
100
AcDbArc
 50
73.299767
 51
177
  0
ARC
  5
6B1
100
AcDbEntity
  8
_0-3_躯体と製品
  6
CONTINUOUS
 62
     0
100
AcDbCircle
 10
497.8138426674
 20
437.7068747852
 40
0.6
100
AcDbArc
 50
-3
 51
100.700233
  0
LINE
  5
6B2
100
AcDbEntity
  8
_0-3_躯体と製品
  6
CONTINUOUS
 62
     0
100
AcDbLine
 10
486.9426621884
 20
434.5056491008
 11
474.0127111111
 21
420.9405962416
  0
ARC
  5
6B3
100
AcDbEntity
  8
_0-3_躯体と製品
  6
CONTINUOUS
 62
     0
100
AcDbCircle
 10
509.5615436409
 20
432.1466014597
 40
1.8
100
AcDbArc
 50
37.62684736228
 51
86.99999999999
  0
LINE
  5
6B4
100
AcDbEntity
  8
_0-3_躯体と製品
  6
CONTINUOUS
 62
     0
100
AcDbLine
 10
510.3535472986
 20
432.7571178037
 11
521.794732636
 21
417.9148277882
  0
LINE
  5
6B5
100
AcDbEntity
  8
_0-3_躯体と製品
  6
CONTINUOUS
 62
     0
100
AcDbLine
 10
510.9871502247
 20
433.2455308788
 11
522.4283355622
 21
418.4032408633
  0
ARC
  5
6B6
100
AcDbEntity
  8
_0-3_躯体と製品
  6
CONTINUOUS
 62
     0
100
AcDbCircle
 10
523.2203392053
 20
419.0137572262
 40
1.8
100
AcDbArc
 50
-142.3731526377
 51
-43.62684812372
  0
ARC
  5
6B7
100
AcDbEntity
  8
_0-3_躯体と製品
  6
CONTINUOUS
 62
     0
100
AcDbCircle
 10
523.2203392053
 20
419.0137572262
 40
1
100
AcDbArc
 50
-142.3731526377
 51
-43.62684873286
  0
LINE
  5
6B8
100
AcDbEntity
  8
_0-3_躯体と製品
  6
CONTINUOUS
 62
     0
100
AcDbLine
 10
526.593143154
 20
419.9433773227
 11
524.5232667472
 21
417.7718313747
  0
LINE
  5
6B9
100
AcDbEntity
  8
_0-3_躯体と製品
  6
CONTINUOUS
 62
     0
100
AcDbLine
 10
526.593143154
 20
419.9433773227
 11
526.0140642391
 21
420.4953443601
  0
LINE
  5
6BA
100
AcDbEntity
  8
_0-3_躯体と製品
  6
CONTINUOUS
 62
     0
100
AcDbLine
 10
526.0140642391
 20
420.4953443601
 11
523.9441878323
 21
418.3237984121
  0
ARC
  5
6BB
100
AcDbEntity
  8
_0-3_躯体と製品
  6
CONTINUOUS
 62
     0
100
AcDbCircle
 10
473.2888624676
 20
421.6305550383
 40
1.8
100
AcDbArc
 50
-142.3731518763
 51
-43.62684736228
  0
ARC
  5
6BC
100
AcDbEntity
  8
_0-3_躯体と製品
  6
CONTINUOUS
 62
     0
100
AcDbCircle
 10
473.2888624676
 20
421.6305550383
 40
1
100
AcDbArc
 50
-142.3731512671
 51
-43.62684736228
  0
ARC
  5
6BD
100
AcDbEntity
  8
_0-3_躯体と製品
  6
CONTINUOUS
 62
     0
100
AcDbCircle
 10
488.2455897468
 20
433.2637232666
 40
1
100
AcDbArc
 50
86.99999999999
 51
136.3731526377
  0
LINE
  5
6BE
100
AcDbEntity
  8
_0-3_躯体と製品
  6
CONTINUOUS
 62
     0
100
AcDbLine
 10
487.5217411032
 20
433.9536820634
 11
474.5917900095
 21
420.3886291868
  0
LINE
  5
6BF
100
AcDbEntity
  8
_0-3_躯体と製品
  6
CONTINUOUS
 62
     0
100
AcDbLine
 10
488.297925703
 20
434.2623528014
 11
509.6138795971
 21
433.1452309945
  0
ARC
  5
6C0
100
AcDbEntity
  8
_0-3_躯体と製品
  6
CONTINUOUS
 62
     0
100
AcDbCircle
 10
488.2455897468
 20
433.2637232666
 40
1.8
100
AcDbArc
 50
86.99999999999
 51
136.3731526377
  0
LINE
  5
6C1
100
AcDbEntity
  8
_0-3_躯体と製品
  6
CONTINUOUS
 62
     0
100
AcDbLine
 10
488.339794468
 20
435.0612564292
 11
509.6557483621
 21
433.9441346223
  0
ARC
  5
6C2
100
AcDbEntity
  8
_0-3_躯体と製品
  6
CONTINUOUS
 62
     0
100
AcDbCircle
 10
509.5615436409
 20
432.1466014597
 40
1
100
AcDbArc
 50
37.62684736228
 51
86.99999999999
  0
LINE
  5
6C3
100
AcDbEntity
  8
_0-3_躯体と製品
  6
CONTINUOUS
 62
     0
100
AcDbLine
 10
494.7562870522
 20
410.8923204673
 11
494.5041113957
 21
406.0805222966
  0
LINE
  5
6C4
100
AcDbEntity
  8
_0-3_躯体と製品
  6
CONTINUOUS
 62
     0
100
AcDbLine
 10
495.3240079427
 20
410.8625674762
 11
495.0718322862
 21
406.0507693055
  0
LINE
  5
6C5
100
AcDbEntity
  8
_0-3_躯体と製品
  6
CONTINUOUS
 62
     0
100
AcDbLine
 10
500.1803433702
 20
410.608057721
 11
499.9281677138
 21
405.7962595503
  0
LINE
  5
6C6
100
AcDbEntity
  8
_0-3_躯体と製品
  6
CONTINUOUS
 62
     0
100
AcDbLine
 10
500.7480642607
 20
410.5783047299
 11
500.4958886043
 21
405.7665065592
  0
LINE
  5
6C7
100
AcDbEntity
  8
_0-3_躯体と製品
  6
CONTINUOUS
 62
     0
100
AcDbLine
 10
501.9936600193
 20
434.345687657
 11
500.7480642607
 21
410.5783047299
  0
LINE
  5
6C8
100
AcDbEntity
  8
_0-3_躯体と製品
  6
CONTINUOUS
 62
     0
100
AcDbLine
 10
501.4259391288
 20
434.3754406481
 11
500.1803433702
 21
410.608057721
  0
LINE
  5
6C9
100
AcDbEntity
  8
_0-3_躯体と製品
  6
CONTINUOUS
 62
     0
100
AcDbLine
 10
496.5696037013
 20
434.6299504034
 11
495.3240079427
 21
410.8625674762
  0
LINE
  5
6CA
100
AcDbEntity
  8
_0-3_躯体と製品
  6
CONTINUOUS
 62
     0
100
AcDbLine
 10
496.0018828108
 20
434.6597033945
 11
494.7562870522
 21
410.8923204673
  0
LINE
  5
6CB
100
AcDbEntity
  8
_0-2_寸法
  6
CONTINUOUS
 62
     0
100
AcDbLine
 10
549.4638296223
 20
386
 11
717.5
 21
386
  0
CIRCLE
  5
6CC
100
AcDbEntity
  8
_0-2_寸法
  6
CONTINUOUS
 62
     0
100
AcDbCircle
 10
549.4638296223
 20
386
 40
1.4
  0
LINE
  5
6CD
100
AcDbEntity
  8
_0-3_躯体と製品
  6
CONTINUOUS
 62
     0
100
AcDbLine
 10
497.2462356874
 20
418.5725320876
 11
494.7456555256
 21
370.8586202234
  0
LINE
  5
6CE
100
AcDbEntity
  8
_0-0_0
  6
CONTINUOUS
 62
     0
100
AcDbLine
 10
387.3969868644
 20
424.3294872743
 11
387.3027821431
 21
422.5319541118
  0
CIRCLE
  5
6CF
100
AcDbEntity
  8
_0-0_0
  6
CONTINUOUS
 62
     0
100
AcDbCircle
 10
515.031565
 20
390.722622
 40
0.9
  0
ARC
  5
6D0
100
AcDbEntity
  8
_0-0_0
  6
CONTINUOUS
 62
     0
100
AcDbCircle
 10
513.7
 20
394.299999
 40
0.3
100
AcDbArc
 50
-90
 51
0
  0
ARC
  5
6D1
100
AcDbEntity
  8
_0-0_0
  6
CONTINUOUS
 62
     0
100
AcDbCircle
 10
513.7
 20
396.200001
 40
0.3
100
AcDbArc
 50
0
 51
90
  0
ARC
  5
6D2
100
AcDbEntity
  8
_0-0_0
  6
CONTINUOUS
 62
     0
100
AcDbCircle
 10
513.7
 20
392.199999
 40
0.3
100
AcDbArc
 50
0
 51
90
  0
ARC
  5
6D3
100
AcDbEntity
  8
_0-0_0
  6
CONTINUOUS
 62
     0
100
AcDbCircle
 10
514.999999
 20
405.999999
 40
0.999999
100
AcDbArc
 50
0
 51
180
  0
LINE
  5
6D4
100
AcDbEntity
  8
_0-0_0
  6
CONTINUOUS
 62
     0
100
AcDbLine
 10
514
 20
398.499999
 11
514
 21
405.999999
  0
LINE
  5
6D5
100
AcDbEntity
  8
_0-0_0
  6
CONTINUOUS
 62
     0
100
AcDbLine
 10
514
 20
394.299999
 11
514
 21
396.200001
  0
ARC
  5
6D6
100
AcDbEntity
  8
_0-0_0
  6
CONTINUOUS
 62
     0
100
AcDbCircle
 10
516.499999
 20
390.999999
 40
0.500001
100
AcDbArc
 50
180
 51
270
  0
LINE
  5
6D7
100
AcDbEntity
  8
_0-0_0
  6
CONTINUOUS
 62
     0
100
AcDbLine
 10
516.000001
 20
389.000001
 11
516.000001
 21
387.999999
  0
LINE
  5
6D8
100
AcDbEntity
  8
_0-0_0
  6
CONTINUOUS
 62
     0
100
AcDbLine
 10
514
 20
388.5
 11
514
 21
387.999999
  0
LINE
  5
6D9
100
AcDbEntity
  8
_0-0_0
  6
CONTINUOUS
 62
     0
100
AcDbLine
 10
514
 20
390.999999
 11
514
 21
392.199999
  0
LINE
  5
6DA
100
AcDbEntity
  8
_0-0_0
  6
CONTINUOUS
 62
     0
100
AcDbLine
 10
526.500001
 20
389.000001
 11
526.500001
 21
387.999999
  0
LINE
  5
6DB
100
AcDbEntity
  8
_0-0_0
  6
CONTINUOUS
 62
     0
100
AcDbLine
 10
528.000001
 20
387.999999
 11
526.500001
 21
387.999999
  0
LINE
  5
6DC
100
AcDbEntity
  8
_0-0_0
  6
CONTINUOUS
 62
     0
100
AcDbLine
 10
516.000001
 20
387.999999
 11
514
 21
387.999999
  0
LINE
  5
6DD
100
AcDbEntity
  8
_0-0_0
  6
CONTINUOUS
 62
     0
100
AcDbLine
 10
528.000001
 20
390.000001
 11
528.000001
 21
387.999999
  0
ARC
  5
6DE
100
AcDbEntity
  8
_0-0_0
  6
CONTINUOUS
 62
     0
100
AcDbCircle
 10
527.500001
 20
390.000001
 40
0.5
100
AcDbArc
 50
0
 51
90
  0
LINE
  5
6DF
100
AcDbEntity
  8
_0-0_0
  6
CONTINUOUS
 62
     0
100
AcDbLine
 10
516.250001
 20
393.750001
 11
517.5000010001
 21
393.750001
  0
LINE
  5
6E0
100
AcDbEntity
  8
_0-0_0
  6
CONTINUOUS
 62
     0
100
AcDbLine
 10
520.5000010001
 20
393.750001
 11
521.750001
 21
393.750001
  0
LINE
  5
6E1
100
AcDbEntity
  8
_0-0_0
  6
CONTINUOUS
 62
     0
100
AcDbLine
 10
516.000001
 20
389.000001
 11
523.5059498738
 21
389.000001
  0
LINE
  5
6E2
100
AcDbEntity
  8
_0-0_0
  6
CONTINUOUS
 62
     0
100
AcDbLine
 10
523.5059498738
 20
389.000001
 11
526.500001
 21
389.000001
  0
LINE
  5
6E3
100
AcDbEntity
  8
_0-0_0
  6
CONTINUOUS
 62
     0
100
AcDbLine
 10
521.500001
 20
390.500001
 11
516.499999
 21
390.500001
  0
LINE
  5
6E4
100
AcDbEntity
  8
_0-0_0
  6
CONTINUOUS
 62
     0
100
AcDbLine
 10
527.500001
 20
390.500001
 11
523.500001
 21
390.500001
  0
ARC
  5
6E5
100
AcDbEntity
  8
_0-0_0
  6
CONTINUOUS
 62
     0
100
AcDbCircle
 10
521.500001
 20
391.000001
 40
0.25
100
AcDbArc
 50
-90
 51
0
  0
ARC
  5
6E6
100
AcDbEntity
  8
_0-0_0
  6
CONTINUOUS
 62
     0
100
AcDbCircle
 10
516.499999
 20
390.999999
 40
0.250001
100
AcDbArc
 50
180
 51
270
  0
LINE
  5
6E7
100
AcDbEntity
  8
_0-0_0
  6
CONTINUOUS
 62
     0
100
AcDbLine
 10
521.750001
 20
391.000001
 11
521.750001
 21
393.750001
  0
LINE
  5
6E8
100
AcDbEntity
  8
_0-0_0
  6
CONTINUOUS
 62
     0
100
AcDbLine
 10
516.250001
 20
390.999999
 11
516.250001
 21
393.750001
  0
LINE
  5
6E9
100
AcDbEntity
  8
_0-0_0
  6
CONTINUOUS
 62
     0
100
AcDbLine
 10
521.500001
 20
390.750001
 11
516.499999
 21
390.750001
  0
LINE
  5
6EA
100
AcDbEntity
  8
_0-0_0
  6
CONTINUOUS
 62
     0
100
AcDbLine
 10
516.000001
 20
405.999999
 11
516.000001
 21
395.500001
  0
LINE
  5
6EB
100
AcDbEntity
  8
_0-0_0
  6
CONTINUOUS
 62
     0
100
AcDbLine
 10
516.000001
 20
394.000001
 11
516.000001
 21
390.999999
  0
LINE
  5
6EC
100
AcDbEntity
  8
_0-0_0
  6
CONTINUOUS
 62
     0
100
AcDbLine
 10
522.000001
 20
391.000001
 11
522.000001
 21
394.000001
  0
LINE
  5
6ED
100
AcDbEntity
  8
_0-0_0
  6
CONTINUOUS
 62
     0
100
AcDbLine
 10
523.500001
 20
395.000001
 11
523.500001
 21
390.500001
  0
ARC
  5
6EE
100
AcDbEntity
  8
_0-0_0
  6
CONTINUOUS
 62
     0
100
AcDbCircle
 10
523.000001
 20
395.000001
 40
0.5
100
AcDbArc
 50
0
 51
90
  0
ARC
  5
6EF
100
AcDbEntity
  8
_0-0_0
  6
CONTINUOUS
 62
     0
100
AcDbCircle
 10
521.500001
 20
391.000001
 40
0.5
100
AcDbArc
 50
-90
 51
0
  0
LINE
  5
6F0
100
AcDbEntity
  8
_0-0_0
  6
CONTINUOUS
 62
     0
100
AcDbLine
 10
523.000001
 20
395.500001
 11
521.750001
 21
395.500001
  0
ARC
  5
6F1
100
AcDbEntity
  8
_0-0_0
  6
CONTINUOUS
 62
     0
100
AcDbCircle
 10
521.750001
 20
394.500001
 40
1
100
AcDbArc
 50
90
 51
180
  0
LINE
  5
6F2
100
AcDbEntity
  8
_0-0_0
  6
CONTINUOUS
 62
     0
100
AcDbLine
 10
520.750001
 20
394.500001
 11
520.750001
 21
394.000001
  0
LINE
  5
6F3
100
AcDbEntity
  8
_0-0_0
  6
CONTINUOUS
 62
     0
100
AcDbLine
 10
520.750001
 20
394.000001
 11
522.000001
 21
394.000001
  0
LINE
  5
6F4
100
AcDbEntity
  8
_0-0_0
  6
CONTINUOUS
 62
     0
100
AcDbLine
 10
516.000001
 20
394.000001
 11
517.250001
 21
394.000001
  0
LINE
  5
6F5
100
AcDbEntity
  8
_0-0_0
  6
CONTINUOUS
 62
     0
100
AcDbLine
 10
517.250001
 20
394.500001
 11
517.250001
 21
394.000001
  0
ARC
  5
6F6
100
AcDbEntity
  8
_0-0_0
  6
CONTINUOUS
 62
     0
100
AcDbCircle
 10
516.250001
 20
394.500001
 40
1
100
AcDbArc
 50
0
 51
90
  0
LINE
  5
6F7
100
AcDbEntity
  8
_0-0_0
  6
CONTINUOUS
 62
     0
100
AcDbLine
 10
516.250001
 20
395.500001
 11
516.000001
 21
395.500001
  0
LINE
  5
6F8
100
AcDbEntity
  8
_0-0_0
  6
CONTINUOUS
 62
     0
100
AcDbLine
 10
520.5000010001
 20
393.750001
 11
520.5000010001
 21
414.1328198559
  0
LINE
  5
6F9
100
AcDbEntity
  8
_0-0_0
  6
CONTINUOUS
 62
     0
100
AcDbLine
 10
517.5000010001
 20
393.750001
 11
517.5000010001
 21
412.6695568599
  0
ARC
  5
6FA
100
AcDbEntity
  8
_0-0_0
  6
CONTINUOUS
 62
     0
100
AcDbCircle
 10
543.559206371
 20
413.8561649277
 40
23.08754100601
100
AcDbArc
 50
81.80133910481
 51
182.8159758207
  0
ARC
  5
6FB
100
AcDbEntity
  8
_0-0_0
  6
CONTINUOUS
 62
     0
100
AcDbCircle
 10
542.496193379
 20
413.1058670209
 40
25
100
AcDbArc
 50
79.59045565079
 51
181
  0
CIRCLE
  5
6FC
100
AcDbEntity
  8
_0-0_0
  6
CONTINUOUS
 62
     0
100
AcDbCircle
 10
523.6747929161
 20
426.5122910883
 40
0.9
  0
LINE
  5
6FD
100
AcDbEntity
  8
_0-0_0
  6
CONTINUOUS
 62
     0
100
AcDbLine
 10
523.6747929161
 20
426.5122910883
 11
534.1322404527
 21
408.3994606373
  0
TEXT
  5
6FE
100
AcDbEntity
  8
_0-0_0
  6
CONTINUOUS
 62
     0
100
AcDbText
 10
533.8822404527
 20
400.2033082146
 40
6
  1
11
  7
STANDARD
100
AcDbText
  0
CIRCLE
  5
6FF
100
AcDbEntity
  8
_0-0_0
  6
CONTINUOUS
 62
     0
100
AcDbCircle
 10
537.1322404527
 20
403.2033082146
 40
6
  0
ARC
  5
700
100
AcDbEntity
  8
_0-0_0
  6
CONTINUOUS
 62
     0
100
AcDbCircle
 10
546.9229265457
 20
437.2026309835
 40
0.5
100
AcDbArc
 50
-98.1986608952
 51
79.59045565079
  0
LINE
  5
701
100
AcDbEntity
  8
_0-3_躯体と製品
  6
CONTINUOUS
 62
     0
100
AcDbLine
 10
516
 20
391
 11
516
 21
394.000001
  0
LINE
  5
702
100
AcDbEntity
  8
_0-3_躯体と製品
  6
CONTINUOUS
 62
     0
100
AcDbLine
 10
516
 20
395.500001
 11
516
 21
406
  0
LINE
  5
703
100
AcDbEntity
  8
_0-3_躯体と製品
  6
CONTINUOUS
 62
     0
100
AcDbLine
 10
533.5850820152
 20
387
 11
518.5
 21
387
  0
LINE
  5
704
100
AcDbEntity
  8
_0-0_0
  6
CONTINUOUS
 62
     0
100
AcDbLine
 10
533.5850820152
 20
387
 11
533.5850820152
 21
386
  0
TEXT
  5
705
100
AcDbEntity
  8
_0-4_図枠
  6
CONTINUOUS
 62
     0
100
AcDbText
 10
474.4309946151
 20
366.2438685256
 40
5
  1
19
  7
STANDARD
100
AcDbText
  0
TEXT
  5
706
100
AcDbEntity
  8
_0-4_図枠
  6
CONTINUOUS
 62
     0
100
AcDbText
 10
518.0097964936
 20
357.4600133715
 40
5
  1
15
  7
STANDARD
100
AcDbText
  0
TEXT
  5
707
100
AcDbEntity
  8
_0-4_図枠
  6
CONTINUOUS
 62
     0
100
AcDbText
 10
519.4591688599
 20
372.8859835099
 40
5
  1
７
  7
STANDARD
100
AcDbText
  0
TEXT
  5
708
100
AcDbEntity
  8
_0-2_寸法
  6
CONTINUOUS
 62
     0
100
AcDbText
 10
487.5
 20
256
 40
5
  1
Ｃ
  7
STANDARD
100
AcDbText
  0
TEXT
  5
709
100
AcDbEntity
  8
_0-2_寸法
  6
CONTINUOUS
 62
     0
100
AcDbText
 10
612
 20
255.8110543473
 40
5
  1
130
  7
STANDARD
100
AcDbText
  0
INSERT
  5
70A
100
AcDbEntity
  8
_0-2_寸法
100
AcDbBlockReference
  2
BK2
 10
0
 20
0
  0
INSERT
  5
70B
100
AcDbEntity
  8
_0-2_寸法
100
AcDbBlockReference
  2
BK3
 10
0
 20
0
  0
INSERT
  5
70C
100
AcDbEntity
  8
_0-2_寸法
100
AcDbBlockReference
  2
BK4
 10
0
 20
0
  0
INSERT
  5
70D
100
AcDbEntity
  8
_0-2_寸法
100
AcDbBlockReference
  2
BK5
 10
0
 20
0
  0
INSERT
  5
70E
100
AcDbEntity
  8
_0-2_寸法
100
AcDbBlockReference
  2
BK6
 10
0
 20
0
  0
INSERT
  5
70F
100
AcDbEntity
  8
_0-2_寸法
100
AcDbBlockReference
  2
BK7
 10
0
 20
0
  0
INSERT
  5
710
100
AcDbEntity
  8
_0-2_寸法
100
AcDbBlockReference
  2
BK8
 10
0
 20
0
  0
INSERT
  5
711
100
AcDbEntity
  8
_0-2_寸法
100
AcDbBlockReference
  2
BK9
 10
0
 20
0
  0
INSERT
  5
712
100
AcDbEntity
  8
_0-2_寸法
100
AcDbBlockReference
  2
BK10
 10
0
 20
0
  0
INSERT
  5
713
100
AcDbEntity
  8
_0-2_寸法
100
AcDbBlockReference
  2
BK11
 10
0
 20
0
  0
INSERT
  5
714
100
AcDbEntity
  8
_0-2_寸法
100
AcDbBlockReference
  2
BK12
 10
0
 20
0
  0
INSERT
  5
715
100
AcDbEntity
  8
_0-2_寸法
100
AcDbBlockReference
  2
BK13
 10
0
 20
0
  0
INSERT
  5
716
100
AcDbEntity
  8
_0-2_寸法
100
AcDbBlockReference
  2
BK14
 10
0
 20
0
  0
INSERT
  5
717
100
AcDbEntity
  8
_0-2_寸法
100
AcDbBlockReference
  2
BK15
 10
0
 20
0
  0
INSERT
  5
718
100
AcDbEntity
  8
_0-2_寸法
100
AcDbBlockReference
  2
BK16
 10
0
 20
0
  0
INSERT
  5
719
100
AcDbEntity
  8
_0-2_寸法
100
AcDbBlockReference
  2
BK17
 10
0
 20
0
  0
INSERT
  5
71A
100
AcDbEntity
  8
_0-2_寸法
100
AcDbBlockReference
  2
BK18
 10
0
 20
0
  0
INSERT
  5
71B
100
AcDbEntity
  8
_0-2_寸法
100
AcDbBlockReference
  2
BK19
 10
0
 20
0
  0
INSERT
  5
71C
100
AcDbEntity
  8
_0-2_寸法
100
AcDbBlockReference
  2
BK20
 10
0
 20
0
  0
INSERT
  5
71D
100
AcDbEntity
  8
_0-2_寸法
100
AcDbBlockReference
  2
BK21
 10
0
 20
0
  0
INSERT
  5
71E
100
AcDbEntity
  8
_0-2_寸法
100
AcDbBlockReference
  2
BK22
 10
0
 20
0
  0
INSERT
  5
71F
100
AcDbEntity
  8
_0-2_寸法
100
AcDbBlockReference
  2
BK23
 10
0
 20
0
  0
INSERT
  5
720
100
AcDbEntity
  8
_0-2_寸法
100
AcDbBlockReference
  2
BK24
 10
0
 20
0
  0
INSERT
  5
721
100
AcDbEntity
  8
_0-2_寸法
100
AcDbBlockReference
  2
BK25
 10
0
 20
0
  0
INSERT
  5
722
100
AcDbEntity
  8
_0-2_寸法
100
AcDbBlockReference
  2
BK26
 10
0
 20
0
  0
INSERT
  5
723
100
AcDbEntity
  8
_0-2_寸法
100
AcDbBlockReference
  2
BK27
 10
0
 20
0
  0
INSERT
  5
724
100
AcDbEntity
  8
_0-2_寸法
100
AcDbBlockReference
  2
BK28
 10
0
 20
0
  0
INSERT
  5
725
100
AcDbEntity
  8
_0-2_寸法
100
AcDbBlockReference
  2
BK29
 10
0
 20
0
  0
INSERT
  5
726
100
AcDbEntity
  8
_0-2_寸法
100
AcDbBlockReference
  2
BK30
 10
0
 20
0
  0
INSERT
  5
727
100
AcDbEntity
  8
_0-2_寸法
100
AcDbBlockReference
  2
BK31
 10
0
 20
0
  0
TEXT
  5
728
100
AcDbEntity
  8
_0-4_図枠
  6
CONTINUOUS
 62
     0
100
AcDbText
 10
465.75
 20
217.5
 40
5
  1
２００ＦＹＫＧ－Ｓ４７５
  7
STANDARD
100
AcDbText
  0
TEXT
  5
729
100
AcDbEntity
  8
_0-4_図枠
  6
CONTINUOUS
 62
     0
100
AcDbText
 10
661
 20
181.5
 40
5
  1
131
  7
STANDARD
100
AcDbText
  0
TEXT
  5
72A
100
AcDbEntity
  8
_0-4_図枠
  6
CONTINUOUS
 62
     0
100
AcDbText
 10
632.75
 20
181.5
 40
5
  1
72
  7
STANDARD
100
AcDbText
  0
TEXT
  5
72B
100
AcDbEntity
  8
_0-4_図枠
  6
CONTINUOUS
 62
     0
100
AcDbText
 10
661
 20
190.5
 40
5
  1
130
  7
STANDARD
100
AcDbText
  0
TEXT
  5
72C
100
AcDbEntity
  8
_0-4_図枠
  6
CONTINUOUS
 62
     0
100
AcDbText
 10
632.75
 20
190.5
 40
5
  1
71
  7
STANDARD
100
AcDbText
  0
TEXT
  5
72D
100
AcDbEntity
  8
_0-4_図枠
  6
CONTINUOUS
 62
     0
100
AcDbText
 10
661
 20
199.5
 40
5
  1
128
  7
STANDARD
100
AcDbText
  0
TEXT
  5
72E
100
AcDbEntity
  8
_0-4_図枠
  6
CONTINUOUS
 62
     0
100
AcDbText
 10
661
 20
208.5
 40
5
  1
127
  7
STANDARD
100
AcDbText
  0
TEXT
  5
72F
100
AcDbEntity
  8
_0-4_図枠
  6
CONTINUOUS
 62
     0
100
AcDbText
 10
661
 20
217.5
 40
5
  1
126
  7
STANDARD
100
AcDbText
  0
TEXT
  5
730
100
AcDbEntity
  8
_0-4_図枠
  6
CONTINUOUS
 62
     0
100
AcDbText
 10
632.75
 20
199.5
 40
5
  1
70
  7
STANDARD
100
AcDbText
  0
TEXT
  5
731
100
AcDbEntity
  8
_0-4_図枠
  6
CONTINUOUS
 62
     0
100
AcDbText
 10
632.75
 20
208.5
 40
5
  1
68
  7
STANDARD
100
AcDbText
  0
TEXT
  5
732
100
AcDbEntity
  8
_0-4_図枠
  6
CONTINUOUS
 62
     0
100
AcDbText
 10
632.75
 20
217.5
 40
5
  1
67
  7
STANDARD
100
AcDbText
  0
TEXT
  5
733
100
AcDbEntity
  8
_0-4_図枠
  6
CONTINUOUS
 62
     0
100
AcDbText
 10
571
 20
181.5
 40
5
  1
560
  7
STANDARD
100
AcDbText
  0
TEXT
  5
734
100
AcDbEntity
  8
_0-4_図枠
  6
CONTINUOUS
 62
     0
100
AcDbText
 10
541
 20
181.5
 40
5
  1
575
  7
STANDARD
100
AcDbText
  0
TEXT
  5
735
100
AcDbEntity
  8
_0-4_図枠
  6
CONTINUOUS
 62
     0
100
AcDbText
 10
571
 20
190.5
 40
5
  1
535
  7
STANDARD
100
AcDbText
  0
TEXT
  5
736
100
AcDbEntity
  8
_0-4_図枠
  6
CONTINUOUS
 62
     0
100
AcDbText
 10
541
 20
190.5
 40
5
  1
550
  7
STANDARD
100
AcDbText
  0
TEXT
  5
737
100
AcDbEntity
  8
_0-4_図枠
  6
CONTINUOUS
 62
     0
100
AcDbText
 10
571
 20
199.5
 40
5
  1
510
  7
STANDARD
100
AcDbText
  0
TEXT
  5
738
100
AcDbEntity
  8
_0-4_図枠
  6
CONTINUOUS
 62
     0
100
AcDbText
 10
571
 20
208.5
 40
5
  1
485
  7
STANDARD
100
AcDbText
  0
TEXT
  5
739
100
AcDbEntity
  8
_0-4_図枠
  6
CONTINUOUS
 62
     0
100
AcDbText
 10
571
 20
217.5
 40
5
  1
460
  7
STANDARD
100
AcDbText
  0
TEXT
  5
73A
100
AcDbEntity
  8
_0-4_図枠
  6
CONTINUOUS
 62
     0
100
AcDbText
 10
541
 20
199.5
 40
5
  1
525
  7
STANDARD
100
AcDbText
  0
TEXT
  5
73B
100
AcDbEntity
  8
_0-4_図枠
  6
CONTINUOUS
 62
     0
100
AcDbText
 10
541
 20
208.5
 40
5
  1
500
  7
STANDARD
100
AcDbText
  0
TEXT
  5
73C
100
AcDbEntity
  8
_0-4_図枠
  6
CONTINUOUS
 62
     0
100
AcDbText
 10
541
 20
217.5
 40
5
  1
475
  7
STANDARD
100
AcDbText
  0
TEXT
  5
73D
100
AcDbEntity
  8
_0-4_図枠
  6
CONTINUOUS
 62
     0
100
AcDbText
 10
601
 20
181.5
 40
5
  1
220
  7
STANDARD
100
AcDbText
  0
TEXT
  5
73E
100
AcDbEntity
  8
_0-4_図枠
  6
CONTINUOUS
 62
     0
100
AcDbText
 10
601
 20
190.5
 40
5
  1
195
  7
STANDARD
100
AcDbText
  0
TEXT
  5
73F
100
AcDbEntity
  8
_0-4_図枠
  6
CONTINUOUS
 62
     0
100
AcDbText
 10
601
 20
199.5
 40
5
  1
170
  7
STANDARD
100
AcDbText
  0
TEXT
  5
740
100
AcDbEntity
  8
_0-4_図枠
  6
CONTINUOUS
 62
     0
100
AcDbText
 10
601
 20
208.5
 40
5
  1
145
  7
STANDARD
100
AcDbText
  0
TEXT
  5
741
100
AcDbEntity
  8
_0-4_図枠
  6
CONTINUOUS
 62
     0
100
AcDbText
 10
601
 20
217.5
 40
5
  1
120
  7
STANDARD
100
AcDbText
  0
TEXT
  5
742
100
AcDbEntity
  8
_0-4_図枠
  6
CONTINUOUS
 62
     0
100
AcDbText
 10
465.75
 20
208.5
 40
5
  1
　　  〃　 　５００
  7
STANDARD
100
AcDbText
  0
TEXT
  5
743
100
AcDbEntity
  8
_0-4_図枠
  6
CONTINUOUS
 62
     0
100
AcDbText
 10
465.75
 20
199.5
 40
5
  1
　　  〃　 　５２５
  7
STANDARD
100
AcDbText
  0
TEXT
  5
744
100
AcDbEntity
  8
_0-4_図枠
  6
CONTINUOUS
 62
     0
100
AcDbText
 10
465.75
 20
190.5
 40
5
  1
　　  〃　 　５５０
  7
STANDARD
100
AcDbText
  0
TEXT
  5
745
100
AcDbEntity
  8
_0-4_図枠
  6
CONTINUOUS
 62
     0
100
AcDbText
 10
465.75
 20
181.5
 40
5
  1
　　  〃　 　５７５
  7
STANDARD
100
AcDbText
  0
LINE
  5
746
100
AcDbEntity
  8
_0-4_図枠
  6
CONTINUOUS
 62
     0
100
AcDbLine
 10
456
 20
234
 11
456
 21
180
  0
LINE
  5
747
100
AcDbEntity
  8
_0-4_図枠
  6
CONTINUOUS
 62
     0
100
AcDbLine
 10
531
 20
234
 11
531
 21
180
  0
LINE
  5
748
100
AcDbEntity
  8
_0-4_図枠
  6
CONTINUOUS
 62
     0
100
AcDbLine
 10
561
 20
234
 11
561
 21
180
  0
LINE
  5
749
100
AcDbEntity
  8
_0-4_図枠
  6
CONTINUOUS
 62
     0
100
AcDbLine
 10
591
 20
234
 11
591
 21
180
  0
LINE
  5
74A
100
AcDbEntity
  8
_0-4_図枠
  6
CONTINUOUS
 62
     0
100
AcDbLine
 10
621
 20
234
 11
621
 21
180
  0
LINE
  5
74B
100
AcDbEntity
  8
_0-4_図枠
  6
CONTINUOUS
 62
     0
100
AcDbLine
 10
651
 20
234
 11
651
 21
180
  0
LINE
  5
74C
100
AcDbEntity
  8
_0-4_図枠
  6
CONTINUOUS
 62
     0
100
AcDbLine
 10
681
 20
234
 11
681
 21
180
  0
TEXT
  5
74D
100
AcDbEntity
  8
_0-4_図枠
  6
CONTINUOUS
 62
     0
100
AcDbText
 10
213.5939630448
 20
218.1436790577
 40
5
  1
２００ＦＹＫ－Ｓ４７５～５７５
  7
STANDARD
100
AcDbText
  0
TEXT
  5
74E
100
AcDbEntity
  8
_0-4_図枠
  6
CONTINUOUS
 62
     0
100
AcDbText
 10
212.449857167
 20
181.9136595965
 40
5
  1
２００ＦＹＫＨ－４７５～５７５
  7
STANDARD
100
AcDbText
  0
TEXT
  5
74F
100
AcDbEntity
  8
_0-4_図枠
  6
CONTINUOUS
 62
     0
100
AcDbText
 10
212.449857167
 20
155.217855783
 40
5
  1
２００ＦＹＫＪ－４７５～５７５
  7
STANDARD
100
AcDbText
  0
TEXT
  5
750
100
AcDbEntity
  8
_0-0_0
  6
CONTINUOUS
 62
     0
100
AcDbText
 10
212.5
 20
136.9166666667
 40
5
  1
ＦＳ６００～８００
  7
STANDARD
100
AcDbText
  0
TEXT
  5
751
100
AcDbEntity
  8
_0-0_0
  6
CONTINUOUS
 62
     0
100
AcDbText
 10
212.2916666667
 20
109.9166666667
 40
5
  1
なべＭ６×３５
  7
STANDARD
100
AcDbText
  0
TEXT
  5
752
100
AcDbEntity
  8
_0-0_0
  6
CONTINUOUS
 62
     0
100
AcDbText
 10
212.2916666667
 20
100.9166666667
 40
4.99
  1
なべＭ４×１０
  7
STANDARD
100
AcDbText
  0
TEXT
  5
753
100
AcDbEntity
  8
_0-0_0
  6
CONTINUOUS
 62
     0
100
AcDbText
 10
211.4583333333
 20
91.91666666667
 40
4.99
  1
Ｍ６×４０
  7
STANDARD
100
AcDbText
  0
TEXT
  5
754
100
AcDbEntity
  8
_0-0_0
  6
CONTINUOUS
 62
     0
100
AcDbText
 10
211.875
 20
82.91666666667
 40
4.99
  1
ＡＧ－６６０
  7
STANDARD
100
AcDbText
  0
TEXT
  5
755
100
AcDbEntity
  8
_0-0_0
  6
CONTINUOUS
 62
     0
100
AcDbText
 10
214.7916666667
 20
73.91666666667
 40
4.99
  1
φ８×４０
  7
STANDARD
100
AcDbText
  0
TEXT
  5
756
100
AcDbEntity
  8
_0-0_0
  6
CONTINUOUS
 62
     0
100
AcDbText
 10
212.0833333333
 20
64.91666666667
 40
4.99
  1
なべ５×５０
  7
STANDARD
100
AcDbText
  0
TEXT
  5
757
100
AcDbEntity
  8
_0-0_0
  6
CONTINUOUS
 62
     0
100
AcDbText
 10
212.9166666667
 20
55.91666666667
 40
4.99
  1
１.５×１８×６.５穴
  7
STANDARD
100
AcDbText
  0
TEXT
  5
758
100
AcDbEntity
  8
_0-0_0
  6
CONTINUOUS
 62
     0
100
AcDbText
 10
212.9166666667
 20
46.91666666667
 40
4.99
  1
１.５×１８×５.５穴
  7
STANDARD
100
AcDbText
  0
TEXT
  5
759
100
AcDbEntity
  8
_0-0_0
  6
CONTINUOUS
 62
     0
100
AcDbText
 10
212.2916666667
 20
37.91666666667
 40
4.99
  1
ｔ１．０×ｗ３０
  7
STANDARD
100
AcDbText
  0
TEXT
  5
75A
100
AcDbEntity
  8
_0-0_0
  6
CONTINUOUS
 62
     0
100
AcDbText
 10
112.5
 20
109.9166666667
 40
5
  1
ステン小ねじ
  7
STANDARD
100
AcDbText
  0
TEXT
  5
75B
100
AcDbEntity
  8
_0-0_0
  6
CONTINUOUS
 62
     0
100
AcDbText
 10
112.5
 20
100.9166666667
 40
4.99
  1
ステン小ねじ
  7
STANDARD
100
AcDbText
  0
ENDSEC
  0
SECTION
  2
OBJECTS
  0
DICTIONARY
  5
75C
100
AcDbDictionary
  3
ACAD_GROUP
350
75D
  3
ACAD_IMAGE_DICT
350
75E
  3
ACAD_MLINESTYLE
350
75F
  0
DICTIONARY
  5
75D
330
75C
100
AcDbDictionary
  0
DICTIONARY
  5
75E
100
AcDbDictionary
  0
DICTIONARY
  5
75F
100
AcDbDictionary
  3
STANDARD
350
760
  0
RASTERVARIABLES
  5
761
100
AcDbRasterVariables
 90
     0
 70
     1
 71
     1
 72
     0
  0
MLINESTYLE
  5
760
100
AcDbMlineStyle
  2
STANDARD
 70
     0
  3

 62
   256
 51
90
 52
90
 71
     0
  0
ENDSEC
  0
EOF
