  0
SECTION
  2
HEADER
  9
$ACADVER
  1
AC1015
  9
$DWGCODEPAGE
  3
ANSI_932
  9
$EXTMIN
 10
16.5
 20
15
  9
$EXTMAX
 10
1171.5
 20
825
  9
$LIMMIN
 10
0
 20
0
  9
$LIMMAX
 10
1188
 20
840
  9
$LTSCALE
 40
4
  9
$DIMSCALE
 40
4
  9
$DIMSTYLE
  2
M7DIMSTL
  9
$HANDSEED
  5
7FFFFFFF
  9
$MEASUREMENT
 70
     1
  0
ENDSEC
  0
SECTION
  2
CLASSES
  0
CLASS
  1
CSOFTARXCLASS
  2
CSoftArxClass
  3
CSRasterApi
 90
     0
280
     0
281
     0
  0
CLASS
  1
IMAGEDEF
  2
AcDbRasterImageDef
  3
ISM
 90
     0
280
     0
281
     0
  0
CLASS
  1
RASTERVARIABLES
  2
AcDbRasterVariables
  3
ISM
 90
     0
280
     0
281
     0
  0
CLASS
  1
IMAGE
  2
AcDbRasterImage
  3
ISM
 90
   127
280
     0
281
     0
  0
CLASS
  1
IMAGEDEF_REACTOR
  2
AcDbRasterImageDefReactor
  3
ISM
 90
     1
280
     0
281
     0
  0
CLASS
  1
HATCH
  2
AcDbHatch
  3
M7
 90
     0
280
     0
281
     1
  0
ENDSEC
  0
SECTION
  2
TABLES
  0
TABLE
  2
VPORT
  5
FF
100
AcDbSymbolTable
 70
     5
  0
VPORT
  5
100
100
AcDbSymbolTableRecord
100
AcDbViewportTableRecord
  2
*ACTIVE
 70
     0
 10
0
 20
0
 11
1
 21
1
 12
594
 22
420
 13
0
 23
0
 14
0
 24
0
 15
0
 25
0
 16
0
 26
0
 36
1
 17
0
 27
0
 37
0
 40
420
 41
1.414285714286
 42
50
 43
0
 44
0
 50
0
 51
0
 71
     0
 72
   100
 73
     1
 74
     3
 75
     0
 76
     0
 77
     0
 78
     0
  0
ENDTAB
  0
TABLE
  2
LTYPE
  5
101
100
AcDbSymbolTable
 70
     1
  0
LTYPE
  5
102
100
AcDbSymbolTableRecord
100
AcDbLinetypeTableRecord
  2
BYBLOCK
 70
     0
  3

 72
    65
 73
     0
 40
0
  0
LTYPE
  5
103
100
AcDbSymbolTableRecord
100
AcDbLinetypeTableRecord
  2
BYLAYER
 70
     0
  3

 72
    65
 73
     0
 40
0
  0
LTYPE
  5
104
100
AcDbSymbolTableRecord
100
AcDbLinetypeTableRecord
  2
CONTINUOUS
 70
     0
  3
Solid line
 72
    65
 73
     0
 40
0
  0
LTYPE
  5
105
100
AcDbSymbolTableRecord
100
AcDbLinetypeTableRecord
  2
DOT
 70
     0
  3
...............................
 72
    65
 73
     2
 40
2
 49
1
 74
     0
 49
-1
 74
     0
  0
LTYPE
  5
106
100
AcDbSymbolTableRecord
100
AcDbLinetypeTableRecord
  2
DASHED
 70
     0
  3
- - - - - - - - - - - - - - - -
 72
    65
 73
     2
 40
4
 49
2
 74
     0
 49
-2
 74
     0
  0
LTYPE
  5
107
100
AcDbSymbolTableRecord
100
AcDbLinetypeTableRecord
  2
DASHED2
 70
     0
  3
-- -- -- -- -- -- -- -- -- -- -
 72
    65
 73
     2
 40
8
 49
5
 74
     0
 49
-3
 74
     0
  0
LTYPE
  5
108
100
AcDbSymbolTableRecord
100
AcDbLinetypeTableRecord
  2
CENTER
 70
     0
  3
--------- - --------- - -------
 72
    65
 73
     4
 40
23
 49
20
 74
     0
 49
-1
 74
     0
 49
1
 74
     0
 49
-1
 74
     0
  0
LTYPE
  5
109
100
AcDbSymbolTableRecord
100
AcDbLinetypeTableRecord
  2
CENTERX2
 70
     0
  3
-------------- - --------------
 72
    65
 73
     4
 40
43
 49
40
 74
     0
 49
-1
 74
     0
 49
1
 74
     0
 49
-1
 74
     0
  0
LTYPE
  5
10A
100
AcDbSymbolTableRecord
100
AcDbLinetypeTableRecord
  2
CENTER2
 70
     0
  3
------ - ----- - ------ - -----
 72
    65
 73
     4
 40
13
 49
10
 74
     0
 49
-1
 74
     0
 49
1
 74
     0
 49
-1
 74
     0
  0
LTYPE
  5
10B
100
AcDbSymbolTableRecord
100
AcDbLinetypeTableRecord
  2
PHANTOM
 70
     0
  3
-------- - - ------- - - ------
 72
    65
 73
     6
 40
25
 49
20
 74
     0
 49
-1
 74
     0
 49
1
 74
     0
 49
-1
 74
     0
 49
1
 74
     0
 49
-1
 74
     0
  0
LTYPE
  5
10C
100
AcDbSymbolTableRecord
100
AcDbLinetypeTableRecord
  2
PHANTOMX2
 70
     0
  3
------------- - - -------------
 72
    65
 73
     6
 40
45
 49
40
 74
     0
 49
-1
 74
     0
 49
1
 74
     0
 49
-1
 74
     0
 49
1
 74
     0
 49
-1
 74
     0
  0
LTYPE
  5
10D
100
AcDbSymbolTableRecord
100
AcDbLinetypeTableRecord
  2
PHANTOM2
 70
     0
  3
---- - - ---- - - ---- - - ----
 72
    65
 73
     6
 40
15
 49
10
 74
     0
 49
-1
 74
     0
 49
1
 74
     0
 49
-1
 74
     0
 49
1
 74
     0
 49
-1
 74
     0
  0
LTYPE
  5
10E
100
AcDbSymbolTableRecord
100
AcDbLinetypeTableRecord
  2
ACAD_ISO06W100
 70
     0
  3
------------ - - - ------------
 72
    65
 73
     8
 40
47
 49
40
 74
     0
 49
-1
 74
     0
 49
1
 74
     0
 49
-1
 74
     0
 49
1
 74
     0
 49
-1
 74
     0
 49
1
 74
     0
 49
-1
 74
     0
  0
LTYPE
  5
10F
100
AcDbSymbolTableRecord
100
AcDbLinetypeTableRecord
  2
ACAD_ISO14W100
 70
     0
  3
---- - - - -------- - - - -----
 72
    65
 73
     8
 40
27
 49
20
 74
     0
 49
-1
 74
     0
 49
1
 74
     0
 49
-1
 74
     0
 49
1
 74
     0
 49
-1
 74
     0
 49
1
 74
     0
 49
-1
 74
     0
  0
LTYPE
  5
110
100
AcDbSymbolTableRecord
100
AcDbLinetypeTableRecord
  2
ACAD_ISO11W100
 70
     0
  3
------- ------ - ------- ------
 72
    65
 73
     6
 40
44
 49
20
 74
     0
 49
-1
 74
     0
 49
20
 74
     0
 49
-1
 74
     0
 49
1
 74
     0
 49
-1
 74
     0
  0
LTYPE
  5
111
100
AcDbSymbolTableRecord
100
AcDbLinetypeTableRecord
  2
ACAD_ISO13W100
 70
     0
  3
------ ------ - - ------ ------
 72
    65
 73
     8
 40
46
 49
20
 74
     0
 49
-1
 74
     0
 49
20
 74
     0
 49
-1
 74
     0
 49
1
 74
     0
 49
-1
 74
     0
 49
1
 74
     0
 49
-1
 74
     0
  0
LTYPE
  5
112
100
AcDbSymbolTableRecord
100
AcDbLinetypeTableRecord
  2
ACAD_ISO15W100
 70
     0
  3
------ ----- - - - ------ -----
 72
    65
 73
    10
 40
48
 49
20
 74
     0
 49
-1
 74
     0
 49
20
 74
     0
 49
-1
 74
     0
 49
1
 74
     0
 49
-1
 74
     0
 49
1
 74
     0
 49
-1
 74
     0
 49
1
 74
     0
 49
-1
 74
     0
  0
LTYPE
  5
113
100
AcDbSymbolTableRecord
100
AcDbLinetypeTableRecord
  2
HIDDEN
 70
     0
  3
. . . . . . . . . . . . . . . .
 72
    65
 73
     2
 40
1.5
 49
1
 74
     0
 49
-0.5
 74
     0
  0
ENDTAB
  0
TABLE
  2
LAYER
  5
114
100
AcDbSymbolTable
 70
     1
  0
LAYER
  5
115
100
AcDbSymbolTableRecord
100
AcDbLayerTableRecord
  2
0
 70
     0
 62
     7
  6
CONTINUOUS
390
116
  0
LAYER
  5
117
100
AcDbSymbolTableRecord
100
AcDbLayerTableRecord
  2
_0-0_
 70
     0
 62
     7
  6
CONTINUOUS
390
   278
  0
LAYER
  5
118
100
AcDbSymbolTableRecord
100
AcDbLayerTableRecord
  2
_0-1_PRO0
 70
     0
 62
     7
  6
CONTINUOUS
390
   278
  0
LAYER
  5
119
100
AcDbSymbolTableRecord
100
AcDbLayerTableRecord
  2
_1-0_
 70
     0
 62
     7
  6
CONTINUOUS
390
   278
  0
ENDTAB
  0
TABLE
  2
STYLE
  5
11A
100
AcDbSymbolTable
 70
     1
  0
STYLE
  5
11B
100
AcDbSymbolTableRecord
100
AcDbTextStyleTableRecord
  2
STANDARD
 70
     0
 40
0
 41
0
 50
0
 71
     0
 42
1
  3
txt
  4
bigfont
  0
STYLE
  5
11C
100
AcDbSymbolTableRecord
100
AcDbTextStyleTableRecord
  2
VSTANDARD
 70
     4
 40
0
 41
0
 50
0
 71
     0
 42
1
  3
txt
  4
bigfont
  0
ENDTAB
  0
TABLE
  2
VIEW
  5
11D
100
AcDbSymbolTable
 70
     0
  0
ENDTAB
  0
TABLE
  2
UCS
  5
11E
100
AcDbSymbolTable
 70
     0
  0
ENDTAB
  0
TABLE
  2
APPID
  5
11F
100
AcDbSymbolTable
 70
     1
  0
APPID
  5
120
100
AcDbSymbolTableRecord
100
AcDbRegAppTableRecord
  2
ACAD
 70
     0
  0
ENDTAB
  0
TABLE
  2
DIMSTYLE
  5
121
100
AcDbSymbolTable
 70
     1
100
AcDbDimStyleTable
 71
     0
  0
DIMSTYLE
105
122
100
AcDbSymbolTableRecord
100
AcDbDimStyleTableRecord
  2
M7DIMSTL
 70
     0
  3

  4

  5

  6

  7

 40
4
 41
2.5
 42
0.625
 43
3.75
 44
1.25
 45
0
 46
0
 47
0
 48
0
140
2.5
141
2.5
142
0
143
0.03937007874016
144
1
145
0
146
1
147
0.625
 71
     0
 72
     0
 73
     0
 74
     0
 75
     0
 76
     0
 77
     1
 78
     8
170
     0
171
     3
172
     1
173
     0
174
     0
175
     0
176
     0
177
     0
178
     0
270
     2
271
     2
272
     2
273
     2
274
     3
340
11B
275
     0
280
     0
281
     0
282
     0
283
     0
284
     8
285
     0
286
     0
287
     3
288
     0
  0
ENDTAB
  0
TABLE
  2
BLOCK_RECORD
  5
123
100
AcDbSymbolTable
 70
     2
  0
BLOCK_RECORD
  5
124
100
AcDbSymbolTableRecord
100
AcDbBlockTableRecord
  2
*MODEL_SPACE
  0
BLOCK_RECORD
  5
125
100
AcDbSymbolTableRecord
100
AcDbBlockTableRecord
  2
*PAPER_SPACE
  0
BLOCK_RECORD
  5
126
100
AcDbSymbolTableRecord
100
AcDbBlockTableRecord
  2
_DOT
  0
BLOCK_RECORD
  5
127
100
AcDbSymbolTableRecord
100
AcDbBlockTableRecord
  2
_OPEN30
  0
BLOCK_RECORD
  5
128
100
AcDbSymbolTableRecord
100
AcDbBlockTableRecord
  2
_ClosedBlank
  0
BLOCK_RECORD
  5
129
100
AcDbSymbolTableRecord
100
AcDbBlockTableRecord
  2
_Origin
  0
BLOCK_RECORD
  5
12A
100
AcDbSymbolTableRecord
100
AcDbBlockTableRecord
  2
_Oblique
  0
BLOCK_RECORD
  5
12B
100
AcDbSymbolTableRecord
100
AcDbBlockTableRecord
  2
_Origin2
  0
BLOCK_RECORD
  5
12C
100
AcDbSymbolTableRecord
100
AcDbBlockTableRecord
  2
_BoxBlank
  0
BLOCK_RECORD
  5
12D
100
AcDbSymbolTableRecord
100
AcDbBlockTableRecord
  2
_BoxFilled
  0
BLOCK_RECORD
  5
12E
100
AcDbSymbolTableRecord
100
AcDbBlockTableRecord
  2
_Integral
  0
ENDTAB
  0
ENDSEC
  0
SECTION
  2
BLOCKS
  0
BLOCK
  5
12F
100
AcDbEntity
  8
0
100
AcDbBlockBegin
  2
*MODEL_SPACE
 70
     0
 10
0
 20
0
  3
*MODEL_SPACE
  1

  0
ENDBLK
  5
130
100
AcDbEntity
  8
0
100
AcDbBlockEnd
  0
BLOCK
  5
131
100
AcDbEntity
 67
     1
  8
0
100
AcDbBlockBegin
  2
*PAPER_SPACE
 70
     0
 10
0
 20
0
  3
*PAPER_SPACE
  1

  0
ENDBLK
  5
132
100
AcDbEntity
 67
     1
  8
0
100
AcDbBlockEnd
  0
BLOCK
  5
133
100
AcDbEntity
 67
     1
  8
0
100
AcDbBlockBegin
  2
_DOT
 70
     0
 10
0
 20
0
  3
_DOT
  1

  0
LWPOLYLINE
  5
134
100
AcDbEntity
  8
0
  6
BYBLOCK
 62
     0
100
AcDbPolyline
 90
     2
 70
     1
 43
0.5
 10
-0.25
 20
0
 42
1
 10
0.25
 20
0
 42
1
  0
LINE
  5
135
100
AcDbEntity
  8
0
  6
BYBLOCK
 62
     0
100
AcDbLine
 10
-0.5
 20
0
 11
-1
 21
0
  0
ENDBLK
  5
136
100
AcDbEntity
  8
0
100
AcDbBlockEnd
  0
BLOCK
  5
137
100
AcDbEntity
 67
     1
  8
0
100
AcDbBlockBegin
  2
_OPEN30
 70
     0
 10
0
 20
0
  3
_OPEN30
  1

  0
LINE
  5
138
100
AcDbEntity
  8
0
  6
BYBLOCK
 62
     0
100
AcDbLine
 10
-1
 20
0.26794919
 11
0
 21
0
  0
LINE
  5
139
100
AcDbEntity
  8
0
  6
BYBLOCK
 62
     0
100
AcDbLine
 10
-1
 20
-0.26794919
 11
0
 21
0
  0
LINE
  5
13A
100
AcDbEntity
  8
0
  6
BYBLOCK
 62
     0
100
AcDbLine
 10
0
 20
0
 11
-1
 21
0
  0
ENDBLK
  5
13B
100
AcDbEntity
  8
0
100
AcDbBlockEnd
  0
BLOCK
  5
13C
100
AcDbEntity
 67
     1
  8
0
100
AcDbBlockBegin
  2
_ClosedBlank
 70
     0
 10
0
 20
0
  3
_ClosedBlank
  1

  0
LINE
  5
13D
100
AcDbEntity
  8
0
  6
BYBLOCK
 62
     0
100
AcDbLine
 10
-1
 20
0.1666666666667
 11
0
 21
0
  0
LINE
  5
13E
100
AcDbEntity
  8
0
  6
BYBLOCK
 62
     0
100
AcDbLine
 10
0
 20
0
 11
-1
 21
-0.1666666666667
  0
LINE
  5
13F
100
AcDbEntity
  8
0
  6
BYBLOCK
 62
     0
100
AcDbLine
 10
-1
 20
0.1666666666667
 11
-1
 21
-0.1666666666667
  0
ENDBLK
  5
140
100
AcDbEntity
  8
0
100
AcDbBlockEnd
  0
BLOCK
  5
141
100
AcDbEntity
 67
     1
  8
0
100
AcDbBlockBegin
  2
_Origin
 70
     0
 10
0
 20
0
  3
_Origin
  1

  0
CIRCLE
  5
142
100
AcDbEntity
  8
0
  6
BYBLOCK
 62
     0
100
AcDbCircle
 10
0
 20
0
 40
0.5
  0
LINE
  5
143
100
AcDbEntity
  8
0
  6
BYBLOCK
 62
     0
100
AcDbLine
 10
0
 20
0
 11
-1
 21
0
  0
ENDBLK
  5
144
100
AcDbEntity
  8
0
100
AcDbBlockEnd
  0
BLOCK
  5
145
100
AcDbEntity
 67
     1
  8
0
100
AcDbBlockBegin
  2
_Oblique
 70
     0
 10
0
 20
0
  3
_Oblique
  1

  0
LINE
  5
146
100
AcDbEntity
  8
0
  6
BYBLOCK
 62
     0
100
AcDbLine
 10
-0.5
 20
-0.5
 11
0.5
 21
0.5
  0
ENDBLK
  5
147
100
AcDbEntity
  8
0
100
AcDbBlockEnd
  0
BLOCK
  5
148
100
AcDbEntity
 67
     1
  8
0
100
AcDbBlockBegin
  2
_Origin2
 70
     0
 10
0
 20
0
  3
_Origin2
  1

  0
CIRCLE
  5
149
100
AcDbEntity
  8
0
  6
BYBLOCK
 62
     0
100
AcDbCircle
 10
0
 20
0
 40
0.5
  0
CIRCLE
  5
14A
100
AcDbEntity
  8
0
  6
BYBLOCK
 62
     0
100
AcDbCircle
 10
0
 20
0
 40
0.25
  0
LINE
  5
14B
100
AcDbEntity
  8
0
  6
BYBLOCK
 62
     0
100
AcDbLine
 10
-0.5
 20
0
 11
-1
 21
0
  0
ENDBLK
  5
14C
100
AcDbEntity
  8
0
100
AcDbBlockEnd
  0
BLOCK
  5
14D
100
AcDbEntity
 67
     1
  8
0
100
AcDbBlockBegin
  2
_BoxBlank
 70
     0
 10
0
 20
0
  3
_BoxBlank
  1

  0
LINE
  5
14E
100
AcDbEntity
  8
0
  6
BYBLOCK
 62
     0
100
AcDbLine
 10
-0.5
 20
-0.5
 11
0.5
 21
-0.5
  0
LINE
  5
14F
100
AcDbEntity
  8
0
  6
BYBLOCK
 62
     0
100
AcDbLine
 10
0.5
 20
-0.5
 11
0.5
 21
0.5
  0
LINE
  5
150
100
AcDbEntity
  8
0
  6
BYBLOCK
 62
     0
100
AcDbLine
 10
0.5
 20
0.5
 11
-0.5
 21
0.5
  0
LINE
  5
151
100
AcDbEntity
  8
0
  6
BYBLOCK
 62
     0
100
AcDbLine
 10
-0.5
 20
0.5
 11
-0.5
 21
-0.5
  0
LINE
  5
152
100
AcDbEntity
  8
0
  6
BYBLOCK
 62
     0
100
AcDbLine
 10
-0.5
 20
0
 11
-1
 21
0
  0
ENDBLK
  5
153
100
AcDbEntity
  8
0
100
AcDbBlockEnd
  0
BLOCK
  5
154
100
AcDbEntity
 67
     1
  8
0
100
AcDbBlockBegin
  2
_BoxFilled
 70
     0
 10
0
 20
0
  3
_BoxFilled
  1

  0
SOLID
  5
155
100
AcDbEntity
  8
0
  6
BYBLOCK
 62
     0
100
AcDbTrace
 10
-0.5
 20
0.5
 11
0.5
 21
0.5
 12
-0.5
 22
-0.5
 13
0.5
 23
-0.5
  0
LINE
  5
156
100
AcDbEntity
  8
0
  6
BYBLOCK
 62
     0
100
AcDbLine
 10
-0.5
 20
0
 11
-1
 21
0
  0
ENDBLK
  5
157
100
AcDbEntity
  8
0
100
AcDbBlockEnd
  0
BLOCK
  5
158
100
AcDbEntity
 67
     1
  8
0
100
AcDbBlockBegin
  2
_Integral
 70
     0
 10
0
 20
0
  3
_Integral
  1

  0
ARC
  5
159
100
AcDbEntity
  8
0
  6
BYBLOCK
 62
     0
100
AcDbCircle
 10
0.44488802
 20
-0.09133463
 40
0.45416667
100
AcDbArc
 50
101.999999998
 51
167.9999999799
  0
ARC
  5
15A
100
AcDbEntity
  8
0
  6
BYBLOCK
 62
     0
100
AcDbCircle
 10
-0.44488802
 20
0.09133463
 40
0.45416667
100
AcDbArc
 50
282.0000000215
 51
348.0000000034
  0
ENDBLK
  5
15B
100
AcDbEntity
  8
0
100
AcDbBlockEnd
  0
ENDSEC
  0
SECTION
  2
ENTITIES
  0
LINE
  5
15C
100
AcDbEntity
  8
_0-1_PRO0
  6
CONTINUOUS
 62
     0
100
AcDbLine
 10
1171.5
 20
15
 11
1171.5
 21
825
  0
LINE
  5
15D
100
AcDbEntity
  8
_0-1_PRO0
  6
CONTINUOUS
 62
     0
100
AcDbLine
 10
16.5
 20
825
 11
16.5
 21
15
  0
LINE
  5
15E
100
AcDbEntity
  8
_0-1_PRO0
  6
CONTINUOUS
 62
     0
100
AcDbLine
 10
16.5
 20
825
 11
1171.5
 21
825
  0
LINE
  5
15F
100
AcDbEntity
  8
_0-1_PRO0
  6
CONTINUOUS
 62
     0
100
AcDbLine
 10
16.5
 20
15
 11
1171.5
 21
15
  0
TEXT
  5
160
100
AcDbEntity
  8
_0-0_
  6
CONTINUOUS
 62
     0
100
AcDbText
 10
30.6122057406
 20
788.0593114545
 40
10
  1
　　屋根－屋根
 41
0.999
  7
STANDARD
100
AcDbText
  0
TEXT
  5
161
100
AcDbEntity
  8
_0-0_
  6
CONTINUOUS
 62
     0
100
AcDbText
 10
30.6122057406
 20
772.8238042081
 40
10
  1
　　Ｓ＝１／３
 41
0.999
  7
STANDARD
100
AcDbText
  0
TEXT
  5
162
100
AcDbEntity
  8
_0-0_
  6
CONTINUOUS
 62
     0
100
AcDbText
 10
777.5609660336
 20
318.339683929
 40
7.5
  1
650
  7
STANDARD
100
AcDbText
  0
TEXT
  5
163
100
AcDbEntity
  8
_0-0_
  6
CONTINUOUS
 62
     0
100
AcDbText
 10
777.5609660336
 20
300.339683929
 40
7.5
  1
700
  7
STANDARD
100
AcDbText
  0
LINE
  5
164
100
AcDbEntity
  8
_0-0_
  6
CONTINUOUS
 62
     0
100
AcDbLine
 10
853.4984660336
 20
224.464683929
 11
650.9984660336
 21
224.464683929
  0
LINE
  5
165
100
AcDbEntity
  8
_0-0_
  6
CONTINUOUS
 62
     0
100
AcDbLine
 10
853.4984660336
 20
350.464683929
 11
650.9984660336
 21
350.464683929
  0
LINE
  5
166
100
AcDbEntity
  8
_0-0_
  6
CONTINUOUS
 62
     0
100
AcDbLine
 10
853.4984660336
 20
332.464683929
 11
650.9984660336
 21
332.464683929
  0
LINE
  5
167
100
AcDbEntity
  8
_0-0_
  6
CONTINUOUS
 62
     0
100
AcDbLine
 10
853.4984660336
 20
314.464683929
 11
650.9984660336
 21
314.464683929
  0
LINE
  5
168
100
AcDbEntity
  8
_0-0_
  6
CONTINUOUS
 62
     0
100
AcDbLine
 10
853.4984660336
 20
296.464683929
 11
650.9984660336
 21
296.464683929
  0
LINE
  5
169
100
AcDbEntity
  8
_0-0_
  6
CONTINUOUS
 62
     0
100
AcDbLine
 10
853.4984660336
 20
278.464683929
 11
650.9984660336
 21
278.464683929
  0
LINE
  5
16A
100
AcDbEntity
  8
_0-0_
  6
CONTINUOUS
 62
     0
100
AcDbLine
 10
853.4984660336
 20
260.464683929
 11
650.9984660336
 21
260.464683929
  0
LINE
  5
16B
100
AcDbEntity
  8
_0-0_
  6
CONTINUOUS
 62
     0
100
AcDbLine
 10
853.4984660336
 20
242.464683929
 11
650.9984660336
 21
242.464683929
  0
TEXT
  5
16C
100
AcDbEntity
  8
_0-0_
  6
CONTINUOUS
 62
     0
100
AcDbText
 10
777.5609660336
 20
282.339683929
 40
7.5
  1
750
  7
STANDARD
100
AcDbText
  0
TEXT
  5
16D
100
AcDbEntity
  8
_0-0_
  6
CONTINUOUS
 62
     0
100
AcDbText
 10
777.5609660336
 20
264.339683929
 40
7.5
  1
800
  7
STANDARD
100
AcDbText
  0
TEXT
  5
16E
100
AcDbEntity
  8
_0-0_
  6
CONTINUOUS
 62
     0
100
AcDbText
 10
777.5609660336
 20
246.339683929
 40
7.5
  1
850
  7
STANDARD
100
AcDbText
  0
TEXT
  5
16F
100
AcDbEntity
  8
_0-0_
  6
CONTINUOUS
 62
     0
100
AcDbText
 10
777.5609660336
 20
228.339683929
 40
7.5
  1
900
  7
STANDARD
100
AcDbText
  0
TEXT
  5
170
100
AcDbEntity
  8
_0-0_
  6
CONTINUOUS
 62
     0
100
AcDbText
 10
822.5609660336
 20
228.339683929
 40
7.5
  1
245
  7
STANDARD
100
AcDbText
  0
TEXT
  5
171
100
AcDbEntity
  8
_0-0_
  6
CONTINUOUS
 62
     0
100
AcDbText
 10
822.5609660336
 20
246.339683929
 40
7.5
  1
220
  7
STANDARD
100
AcDbText
  0
TEXT
  5
172
100
AcDbEntity
  8
_0-0_
  6
CONTINUOUS
 62
     0
100
AcDbText
 10
822.5609660336
 20
264.339683929
 40
7.5
  1
195
  7
STANDARD
100
AcDbText
  0
TEXT
  5
173
100
AcDbEntity
  8
_0-0_
  6
CONTINUOUS
 62
     0
100
AcDbText
 10
822.5609660336
 20
300.339683929
 40
7.5
  1
145
  7
STANDARD
100
AcDbText
  0
TEXT
  5
174
100
AcDbEntity
  8
_0-0_
  6
CONTINUOUS
 62
     0
100
AcDbText
 10
822.5609660336
 20
282.339683929
 40
7.5
  1
170
  7
STANDARD
100
AcDbText
  0
TEXT
  5
175
100
AcDbEntity
  8
_0-0_
  6
CONTINUOUS
 62
     0
100
AcDbText
 10
822.5609660336
 20
318.339683929
 40
7.5
  1
120
  7
STANDARD
100
AcDbText
  0
TEXT
  5
176
100
AcDbEntity
  8
_0-0_
  6
CONTINUOUS
 62
     0
100
AcDbText
 10
788.2484660336
 20
350.7286018957
 40
7.5
  1
（単位：mm）
  7
STANDARD
100
AcDbText
  0
TEXT
  5
177
100
AcDbEntity
  8
_0-0_
  6
CONTINUOUS
 62
     0
100
AcDbText
 10
682.3734652836
 20
336.339683929
 40
7.49
  1
タ　イ　プ
  7
STANDARD
100
AcDbText
  0
TEXT
  5
178
100
AcDbEntity
  8
_0-0_
  6
CONTINUOUS
 62
     0
100
AcDbText
 10
780.8734660336
 20
336.339683929
 40
7.49
  1
Ｗ
  7
STANDARD
100
AcDbText
  0
TEXT
  5
179
100
AcDbEntity
  8
_0-0_
  6
CONTINUOUS
 62
     0
100
AcDbText
 10
825.8734660336
 20
336.339683929
 40
7.49
  1
Ｃ
  7
STANDARD
100
AcDbText
  0
LINE
  5
17A
100
AcDbEntity
  8
_0-0_
  6
CONTINUOUS
 62
     0
100
AcDbLine
 10
650.9984660336
 20
350.464683929
 11
650.9984660336
 21
224.464683929
  0
LINE
  5
17B
100
AcDbEntity
  8
_0-0_
  6
CONTINUOUS
 62
     0
100
AcDbLine
 10
763.4984660336
 20
350.464683929
 11
763.4984660336
 21
224.464683929
  0
LINE
  5
17C
100
AcDbEntity
  8
_0-0_
  6
CONTINUOUS
 62
     0
100
AcDbLine
 10
808.4984660336
 20
350.464683929
 11
808.4984660336
 21
224.464683929
  0
LINE
  5
17D
100
AcDbEntity
  8
_0-0_
  6
CONTINUOUS
 62
     0
100
AcDbLine
 10
853.4984660336
 20
350.464683929
 11
853.4984660336
 21
224.464683929
  0
TEXT
  5
17E
100
AcDbEntity
  8
_0-0_
  6
CONTINUOUS
 62
     0
100
AcDbText
 10
328.8734660336
 20
336.339683929
 40
7.5
  1
規　格
  7
STANDARD
100
AcDbText
  0
TEXT
  5
17F
100
AcDbEntity
  8
_0-0_
  6
CONTINUOUS
 62
     0
100
AcDbText
 10
176.7484660336
 20
336.339683929
 40
7.5
  1
部材名称
 41
0.9986666666667
  7
STANDARD
100
AcDbText
  0
TEXT
  5
180
100
AcDbEntity
  8
_0-0_
  6
CONTINUOUS
 62
     0
100
AcDbText
 10
127.6234660336
 20
300.339683929
 40
7.5
  1
ＦＹＹフレーム
 41
0.9986666666667
  7
STANDARD
100
AcDbText
  0
LINE
  5
181
100
AcDbEntity
  8
_0-0_
  6
CONTINUOUS
 62
     0
100
AcDbLine
 10
416.9984660336
 20
278.464683929
 11
103.4984660336
 21
278.464683929
  0
LINE
  5
182
100
AcDbEntity
  8
_0-0_
  6
CONTINUOUS
 62
     0
100
AcDbLine
 10
416.9984660336
 20
296.464683929
 11
103.4984660336
 21
296.464683929
  0
LINE
  5
183
100
AcDbEntity
  8
_0-0_
  6
CONTINUOUS
 62
     0
100
AcDbLine
 10
416.9984660336
 20
314.464683929
 11
103.4984660336
 21
314.464683929
  0
LINE
  5
184
100
AcDbEntity
  8
_0-0_
  6
CONTINUOUS
 62
     0
100
AcDbLine
 10
416.9984660336
 20
332.464683929
 11
103.4984660336
 21
332.464683929
  0
LINE
  5
185
100
AcDbEntity
  8
_0-0_
  6
CONTINUOUS
 62
     0
100
AcDbLine
 10
416.9984660336
 20
152.464683929
 11
103.4984660336
 21
152.464683929
  0
LINE
  5
186
100
AcDbEntity
  8
_0-0_
  6
CONTINUOUS
 62
     0
100
AcDbLine
 10
416.9984660336
 20
170.464683929
 11
103.4984660336
 21
170.464683929
  0
LINE
  5
187
100
AcDbEntity
  8
_0-0_
  6
CONTINUOUS
 62
     0
100
AcDbLine
 10
416.9984660336
 20
206.464683929
 11
103.4984660336
 21
206.464683929
  0
LINE
  5
188
100
AcDbEntity
  8
_0-0_
  6
CONTINUOUS
 62
     0
100
AcDbLine
 10
416.9984660336
 20
224.464683929
 11
103.4984660336
 21
224.464683929
  0
LINE
  5
189
100
AcDbEntity
  8
_0-0_
  6
CONTINUOUS
 62
     0
100
AcDbLine
 10
416.9984660336
 20
242.464683929
 11
103.4984660336
 21
242.464683929
  0
LINE
  5
18A
100
AcDbEntity
  8
_0-0_
  6
CONTINUOUS
 62
     0
100
AcDbLine
 10
416.9984660336
 20
260.464683929
 11
103.4984660336
 21
260.464683929
  0
LINE
  5
18B
100
AcDbEntity
  8
_0-0_
  6
CONTINUOUS
 62
     0
100
AcDbLine
 10
416.9984660336
 20
188.464683929
 11
103.4984660336
 21
188.464683929
  0
LINE
  5
18C
100
AcDbEntity
  8
_0-0_
  6
CONTINUOUS
 62
     0
100
AcDbLine
 10
416.9984660336
 20
98.46468392901
 11
103.4984660336
 21
98.46468392901
  0
LINE
  5
18D
100
AcDbEntity
  8
_0-0_
  6
CONTINUOUS
 62
     0
100
AcDbLine
 10
416.9984660336
 20
116.464683929
 11
103.4984660336
 21
116.464683929
  0
LINE
  5
18E
100
AcDbEntity
  8
_0-0_
  6
CONTINUOUS
 62
     0
100
AcDbLine
 10
416.9984660336
 20
134.464683929
 11
103.4984660336
 21
134.464683929
  0
LINE
  5
18F
100
AcDbEntity
  8
_0-0_
  6
CONTINUOUS
 62
     0
100
AcDbLine
 10
416.9984660336
 20
350.464683929
 11
103.4984660336
 21
350.464683929
  0
TEXT
  5
190
100
AcDbEntity
  8
_0-0_
  6
CONTINUOUS
 62
     0
100
AcDbText
 10
108.4984660336
 20
120.339683929
 40
7.5
  1
12
 41
0.9986666666667
  7
STANDARD
100
AcDbText
  0
TEXT
  5
191
100
AcDbEntity
  8
_0-0_
  6
CONTINUOUS
 62
     0
100
AcDbText
 10
108.4984660336
 20
138.339683929
 40
7.49
  1
11
  7
STANDARD
100
AcDbText
  0
TEXT
  5
192
100
AcDbEntity
  8
_0-0_
  6
CONTINUOUS
 62
     0
100
AcDbText
 10
108.4984660336
 20
156.339683929
 40
7.49
  1
10
  7
STANDARD
100
AcDbText
  0
TEXT
  5
193
100
AcDbEntity
  8
_0-0_
  6
CONTINUOUS
 62
     0
100
AcDbText
 10
108.4984660336
 20
174.339683929
 40
7.5
  1
 9
 41
0.9986666666667
  7
STANDARD
100
AcDbText
  0
TEXT
  5
194
100
AcDbEntity
  8
_0-0_
  6
CONTINUOUS
 62
     0
100
AcDbText
 10
108.4984660336
 20
192.339683929
 40
7.5
  1
 8
 41
0.9986666666667
  7
STANDARD
100
AcDbText
  0
TEXT
  5
195
100
AcDbEntity
  8
_0-0_
  6
CONTINUOUS
 62
     0
100
AcDbText
 10
108.4984660336
 20
210.339683929
 40
7.5
  1
 7
 41
0.9986666666667
  7
STANDARD
100
AcDbText
  0
TEXT
  5
196
100
AcDbEntity
  8
_0-0_
  6
CONTINUOUS
 62
     0
100
AcDbText
 10
108.4984660336
 20
228.339683929
 40
7.5
  1
 6
 41
0.9986666666667
  7
STANDARD
100
AcDbText
  0
TEXT
  5
197
100
AcDbEntity
  8
_0-0_
  6
CONTINUOUS
 62
     0
100
AcDbText
 10
108.4984660336
 20
246.339683929
 40
7.5
  1
 5
 41
0.9986666666667
  7
STANDARD
100
AcDbText
  0
TEXT
  5
198
100
AcDbEntity
  8
_0-0_
  6
CONTINUOUS
 62
     0
100
AcDbText
 10
108.4984660336
 20
264.339683929
 40
7.5
  1
 4
 41
0.9986666666667
  7
STANDARD
100
AcDbText
  0
TEXT
  5
199
100
AcDbEntity
  8
_0-0_
  6
CONTINUOUS
 62
     0
100
AcDbText
 10
108.4984660336
 20
282.339683929
 40
7.5
  1
 3
 41
0.9986666666667
  7
STANDARD
100
AcDbText
  0
TEXT
  5
19A
100
AcDbEntity
  8
_0-0_
  6
CONTINUOUS
 62
     0
100
AcDbText
 10
108.4984660336
 20
300.339683929
 40
7.5
  1
 2
 41
0.9986666666667
  7
STANDARD
100
AcDbText
  0
TEXT
  5
19B
100
AcDbEntity
  8
_0-0_
  6
CONTINUOUS
 62
     0
100
AcDbText
 10
105.5609660336
 20
336.339683929
 40
7.5
  1
No.
  7
STANDARD
100
AcDbText
  0
TEXT
  5
19C
100
AcDbEntity
  8
_0-0_
  6
CONTINUOUS
 62
     0
100
AcDbText
 10
108.4984660336
 20
318.339683929
 40
7.5
  1
 1
 41
0.9986666666667
  7
STANDARD
100
AcDbText
  0
TEXT
  5
19D
100
AcDbEntity
  8
_0-0_
  6
CONTINUOUS
 62
     0
100
AcDbText
 10
125.7484660336
 20
228.339683929
 40
7.5
  1
ＦＹＹ水切ジョイント
 41
0.9986666666667
  7
STANDARD
100
AcDbText
  0
TEXT
  5
19E
100
AcDbEntity
  8
_0-0_
  6
CONTINUOUS
 62
     0
100
AcDbText
 10
125.7484660336
 20
246.339683929
 40
7.5
  1
ＦＹＹフレームナット
 41
0.9986666666667
  7
STANDARD
100
AcDbText
  0
TEXT
  5
19F
100
AcDbEntity
  8
_0-0_
  6
CONTINUOUS
 62
     0
100
AcDbText
 10
127.6234660336
 20
282.339683929
 40
7.5
  1
ＦＹＹホルダー
 41
0.9986666666667
  7
STANDARD
100
AcDbText
  0
TEXT
  5
1A0
100
AcDbEntity
  8
_0-0_
  6
CONTINUOUS
 62
     0
100
AcDbText
 10
124.4984660336
 20
264.339683929
 40
7.5
  1
ＦＹＹホルダースプリング
  7
STANDARD
100
AcDbText
  0
TEXT
  5
1A1
100
AcDbEntity
  8
_0-0_
  6
CONTINUOUS
 62
     0
100
AcDbText
 10
128.8734660336
 20
210.339683929
 40
7.5
  1
止水補助板
  7
STANDARD
100
AcDbText
  0
TEXT
  5
1A2
100
AcDbEntity
  8
_0-0_
  6
CONTINUOUS
 62
     0
100
AcDbText
 10
128.1817890908
 20
192.9019562619
 40
7.5
  1
ウォーターガード
  7
STANDARD
100
AcDbText
  0
TEXT
  5
1A3
100
AcDbEntity
  8
_0-0_
  6
CONTINUOUS
 62
     0
100
AcDbText
 10
126.9984660336
 20
120.339683929
 40
7.5
  1
ステンワッシャー
  7
STANDARD
100
AcDbText
  0
TEXT
  5
1A4
100
AcDbEntity
  8
_0-0_
  6
CONTINUOUS
 62
     0
100
AcDbText
 10
126.3734660336
 20
138.339683929
 40
7.5
  1
アジャストアンカー
  7
STANDARD
100
AcDbText
  0
TEXT
  5
1A5
100
AcDbEntity
  8
_0-0_
  6
CONTINUOUS
 62
     0
100
AcDbText
 10
126.9984660336
 20
156.339683929
 40
7.49
  1
ステン六角ボルト
 41
1.001335113485
  7
STANDARD
100
AcDbText
  0
TEXT
  5
1A6
100
AcDbEntity
  8
_0-0_
  6
CONTINUOUS
 62
     0
100
AcDbText
 10
128.2484660336
 20
102.339683929
 40
7.5
  1
ブチルテープ
 41
0.9986666666667
  7
STANDARD
100
AcDbText
  0
LINE
  5
1A7
100
AcDbEntity
  8
_0-0_
  6
CONTINUOUS
 62
     0
100
AcDbLine
 10
103.4984660336
 20
98.46468392901
 11
103.4984660336
 21
350.464683929
  0
LINE
  5
1A8
100
AcDbEntity
  8
_0-0_
  6
CONTINUOUS
 62
     0
100
AcDbLine
 10
124.4984660336
 20
98.46468392901
 11
124.4984660336
 21
350.464683929
  0
LINE
  5
1A9
100
AcDbEntity
  8
_0-0_
  6
CONTINUOUS
 62
     0
100
AcDbLine
 10
274.4984660336
 20
98.46468392901
 11
274.4984660336
 21
350.464683929
  0
LINE
  5
1AA
100
AcDbEntity
  8
_0-0_
  6
CONTINUOUS
 62
     0
100
AcDbLine
 10
416.9984660336
 20
98.46468392901
 11
416.9984660336
 21
350.464683929
  0
LINE
  5
1AB
100
AcDbEntity
  8
_0-0_
  6
CONTINUOUS
 62
     0
100
AcDbLine
 10
418.4984660336
 20
98.46468392901
 11
418.4984660336
 21
350.464683929
  0
TEXT
  5
1AC
100
AcDbEntity
  8
_0-0_
  6
CONTINUOUS
 62
     0
100
AcDbText
 10
108.8734660336
 20
102.339683929
 40
7.5
  1
※
 41
0.9986666666667
  7
STANDARD
100
AcDbText
  0
TEXT
  5
1AD
100
AcDbEntity
  8
_0-0_
  6
CONTINUOUS
 62
     0
100
AcDbText
 10
126.9984660336
 20
318.339683929
 40
7.5
  1
ＦＹＹキヤップＳ
  7
STANDARD
100
AcDbText
  0
LINE
  5
1AE
100
AcDbEntity
  8
_0-0_
  6
CONTINUOUS
 62
     0
100
AcDbLine
 10
418.4984660336
 20
188.464683929
 11
518.9984660336
 21
188.464683929
  0
LINE
  5
1AF
100
AcDbEntity
  8
_0-0_
  6
CONTINUOUS
 62
     0
100
AcDbLine
 10
418.4984660336
 20
296.464683929
 11
518.9984660336
 21
296.464683929
  0
LINE
  5
1B0
100
AcDbEntity
  8
_0-0_
  6
CONTINUOUS
 62
     0
100
AcDbLine
 10
418.4984660336
 20
314.464683929
 11
518.9984660336
 21
314.464683929
  0
LINE
  5
1B1
100
AcDbEntity
  8
_0-0_
  6
CONTINUOUS
 62
     0
100
AcDbLine
 10
418.4984660336
 20
332.464683929
 11
518.9984660336
 21
332.464683929
  0
LINE
  5
1B2
100
AcDbEntity
  8
_0-0_
  6
CONTINUOUS
 62
     0
100
AcDbLine
 10
418.4984660336
 20
350.464683929
 11
518.9984660336
 21
350.464683929
  0
TEXT
  5
1B3
100
AcDbEntity
  8
_0-0_
  6
CONTINUOUS
 62
     0
100
AcDbText
 10
503.3734660336
 20
300.339683929
 40
7.5
  1
〃
  7
STANDARD
100
AcDbText
  0
TEXT
  5
1B4
100
AcDbEntity
  8
_0-0_
  6
CONTINUOUS
 62
     0
100
AcDbText
 10
503.3734660336
 20
318.339683929
 40
7.5
  1
本
  7
STANDARD
100
AcDbText
  0
TEXT
  5
1B5
100
AcDbEntity
  8
_0-0_
  6
CONTINUOUS
 62
     0
100
AcDbText
 10
497.4984660336
 20
336.339683929
 40
7.5
  1
単位
 41
0.9986666666667
  7
STANDARD
100
AcDbText
  0
TEXT
  5
1B6
100
AcDbEntity
  8
_0-0_
  6
CONTINUOUS
 62
     0
100
AcDbText
 10
433.3734660336
 20
300.339683929
 40
7.5
  1
2000
  7
STANDARD
100
AcDbText
  0
TEXT
  5
1B7
100
AcDbEntity
  8
_0-0_
  6
CONTINUOUS
 62
     0
100
AcDbText
 10
433.3734660336
 20
318.339683929
 40
7.5
  1
2000
  7
STANDARD
100
AcDbText
  0
TEXT
  5
1B8
100
AcDbEntity
  8
_0-0_
  6
CONTINUOUS
 62
     0
100
AcDbText
 10
421.6234660336
 20
336.339683929
 40
7.5
  1
定尺(mm)
 41
0.9986666666667
  7
STANDARD
100
AcDbText
  0
TEXT
  5
1B9
100
AcDbEntity
  8
_0-0_
  6
CONTINUOUS
 62
     0
100
AcDbText
 10
478.9984660336
 20
300.339683929
 40
7.5
  1
 2
 41
0.9986666666667
  7
STANDARD
100
AcDbText
  0
TEXT
  5
1BA
100
AcDbEntity
  8
_0-0_
  6
CONTINUOUS
 62
     0
100
AcDbText
 10
478.9984660336
 20
318.339683929
 40
7.5
  1
 1
 41
0.9986666666667
  7
STANDARD
100
AcDbText
  0
TEXT
  5
1BB
100
AcDbEntity
  8
_0-0_
  6
CONTINUOUS
 62
     0
100
AcDbText
 10
473.4984660336
 20
336.339683929
 40
7.5
  1
入数
  7
STANDARD
100
AcDbText
  0
TEXT
  5
1BC
100
AcDbEntity
  8
_0-0_
  6
CONTINUOUS
 62
     0
100
AcDbText
 10
422.4984660336
 20
350.8263649607
 40
7.5
  1
（2000mmセット）
 41
0.9986666666667
  7
STANDARD
100
AcDbText
  0
LINE
  5
1BD
100
AcDbEntity
  8
_0-0_
  6
CONTINUOUS
 62
     0
100
AcDbLine
 10
418.4984660336
 20
242.464683929
 11
518.9984660336
 21
242.464683929
  0
LINE
  5
1BE
100
AcDbEntity
  8
_0-0_
  6
CONTINUOUS
 62
     0
100
AcDbLine
 10
418.4984660336
 20
260.464683929
 11
518.9984660336
 21
260.464683929
  0
LINE
  5
1BF
100
AcDbEntity
  8
_0-0_
  6
CONTINUOUS
 62
     0
100
AcDbLine
 10
418.4984660336
 20
278.464683929
 11
518.9984660336
 21
278.464683929
  0
LINE
  5
1C0
100
AcDbEntity
  8
_0-0_
  6
CONTINUOUS
 62
     0
100
AcDbLine
 10
418.4984660336
 20
296.464683929
 11
518.9984660336
 21
296.464683929
  0
LINE
  5
1C1
100
AcDbEntity
  8
_0-0_
  6
CONTINUOUS
 62
     0
100
AcDbLine
 10
418.4984660336
 20
224.464683929
 11
518.9984660336
 21
224.464683929
  0
TEXT
  5
1C2
100
AcDbEntity
  8
_0-0_
  6
CONTINUOUS
 62
     0
100
AcDbText
 10
503.3734660336
 20
228.339683929
 40
7.5
  1
〃
  7
STANDARD
100
AcDbText
  0
TEXT
  5
1C3
100
AcDbEntity
  8
_0-0_
  6
CONTINUOUS
 62
     0
100
AcDbText
 10
503.3734660336
 20
246.339683929
 40
7.5
  1
〃
  7
STANDARD
100
AcDbText
  0
TEXT
  5
1C4
100
AcDbEntity
  8
_0-0_
  6
CONTINUOUS
 62
     0
100
AcDbText
 10
503.3734660336
 20
264.339683929
 40
7.5
  1
〃
  7
STANDARD
100
AcDbText
  0
TEXT
  5
1C5
100
AcDbEntity
  8
_0-0_
  6
CONTINUOUS
 62
     0
100
AcDbText
 10
503.3734660336
 20
282.339683929
 40
7.5
  1
個
  7
STANDARD
100
AcDbText
  0
TEXT
  5
1C6
100
AcDbEntity
  8
_0-0_
  6
CONTINUOUS
 62
     0
100
AcDbText
 10
503.3734660336
 20
300.339683929
 40
7.5
  1
〃
  7
STANDARD
100
AcDbText
  0
TEXT
  5
1C7
100
AcDbEntity
  8
_0-0_
  6
CONTINUOUS
 62
     0
100
AcDbText
 10
478.9984660336
 20
228.339683929
 40
7.5
  1
 1
 41
0.9986666666667
  7
STANDARD
100
AcDbText
  0
TEXT
  5
1C8
100
AcDbEntity
  8
_0-0_
  6
CONTINUOUS
 62
     0
100
AcDbText
 10
478.9984660336
 20
246.339683929
 40
7.5
  1
 8
 41
0.9986666666667
  7
STANDARD
100
AcDbText
  0
TEXT
  5
1C9
100
AcDbEntity
  8
_0-0_
  6
CONTINUOUS
 62
     0
100
AcDbText
 10
478.9984660336
 20
264.339683929
 40
7.5
  1
 8
 41
0.9986666666667
  7
STANDARD
100
AcDbText
  0
TEXT
  5
1CA
100
AcDbEntity
  8
_0-0_
  6
CONTINUOUS
 62
     0
100
AcDbText
 10
478.9984660336
 20
282.339683929
 40
7.5
  1
 4
 41
0.9986666666667
  7
STANDARD
100
AcDbText
  0
TEXT
  5
1CB
100
AcDbEntity
  8
_0-0_
  6
CONTINUOUS
 62
     0
100
AcDbText
 10
478.9984660336
 20
300.339683929
 40
7.5
  1
 2
 41
0.9986666666667
  7
STANDARD
100
AcDbText
  0
LINE
  5
1CC
100
AcDbEntity
  8
_0-0_
  6
CONTINUOUS
 62
     0
100
AcDbLine
 10
418.4984660336
 20
206.464683929
 11
518.9984660336
 21
206.464683929
  0
TEXT
  5
1CD
100
AcDbEntity
  8
_0-0_
  6
CONTINUOUS
 62
     0
100
AcDbText
 10
503.3734660336
 20
210.339683929
 40
7.5
  1
〃
  7
STANDARD
100
AcDbText
  0
TEXT
  5
1CE
100
AcDbEntity
  8
_0-0_
  6
CONTINUOUS
 62
     0
100
AcDbText
 10
433.3734660336
 20
210.339683929
 40
7.5
  1
2100
  7
STANDARD
100
AcDbText
  0
TEXT
  5
1CF
100
AcDbEntity
  8
_0-0_
  6
CONTINUOUS
 62
     0
100
AcDbText
 10
478.9984660336
 20
210.339683929
 40
7.5
  1
 1
 41
0.9986666666667
  7
STANDARD
100
AcDbText
  0
LINE
  5
1D0
100
AcDbEntity
  8
_0-0_
  6
CONTINUOUS
 62
     0
100
AcDbLine
 10
418.4984660336
 20
188.464683929
 11
518.9984660336
 21
188.464683929
  0
TEXT
  5
1D1
100
AcDbEntity
  8
_0-0_
  6
CONTINUOUS
 62
     0
100
AcDbText
 10
503.3734660336
 20
192.339683929
 40
7.5
  1
〃
  7
STANDARD
100
AcDbText
  0
TEXT
  5
1D2
100
AcDbEntity
  8
_0-0_
  6
CONTINUOUS
 62
     0
100
AcDbText
 10
433.3734660336
 20
192.339683929
 40
7.5
  1
2000
  7
STANDARD
100
AcDbText
  0
TEXT
  5
1D3
100
AcDbEntity
  8
_0-0_
  6
CONTINUOUS
 62
     0
100
AcDbText
 10
478.9984660336
 20
192.339683929
 40
7.5
  1
 2
 41
0.9986666666667
  7
STANDARD
100
AcDbText
  0
LINE
  5
1D4
100
AcDbEntity
  8
_0-0_
  6
CONTINUOUS
 62
     0
100
AcDbLine
 10
418.4984660336
 20
188.464683929
 11
518.9984660336
 21
188.464683929
  0
TEXT
  5
1D5
100
AcDbEntity
  8
_0-0_
  6
CONTINUOUS
 62
     0
100
AcDbText
 10
503.3734660336
 20
192.339683929
 40
7.5
  1
〃
  7
STANDARD
100
AcDbText
  0
TEXT
  5
1D6
100
AcDbEntity
  8
_0-0_
  6
CONTINUOUS
 62
     0
100
AcDbText
 10
478.9984660336
 20
192.339683929
 40
7.5
  1
 2
 41
0.9986666666667
  7
STANDARD
100
AcDbText
  0
LINE
  5
1D7
100
AcDbEntity
  8
_0-0_
  6
CONTINUOUS
 62
     0
100
AcDbLine
 10
418.4984660336
 20
98.46468392901
 11
518.9984660336
 21
98.46468392901
  0
LINE
  5
1D8
100
AcDbEntity
  8
_0-0_
  6
CONTINUOUS
 62
     0
100
AcDbLine
 10
418.4984660336
 20
116.464683929
 11
518.9984660336
 21
116.464683929
  0
LINE
  5
1D9
100
AcDbEntity
  8
_0-0_
  6
CONTINUOUS
 62
     0
100
AcDbLine
 10
418.4984660336
 20
134.464683929
 11
518.9984660336
 21
134.464683929
  0
LINE
  5
1DA
100
AcDbEntity
  8
_0-0_
  6
CONTINUOUS
 62
     0
100
AcDbLine
 10
418.4984660336
 20
170.464683929
 11
518.9984660336
 21
170.464683929
  0
LINE
  5
1DB
100
AcDbEntity
  8
_0-0_
  6
CONTINUOUS
 62
     0
100
AcDbLine
 10
418.4984660336
 20
188.464683929
 11
518.9984660336
 21
188.464683929
  0
LINE
  5
1DC
100
AcDbEntity
  8
_0-0_
  6
CONTINUOUS
 62
     0
100
AcDbLine
 10
418.4984660336
 20
152.464683929
 11
518.9984660336
 21
152.464683929
  0
TEXT
  5
1DD
100
AcDbEntity
  8
_0-0_
  6
CONTINUOUS
 62
     0
100
AcDbText
 10
503.3734660336
 20
120.339683929
 40
7.5
  1
枚
  7
STANDARD
100
AcDbText
  0
TEXT
  5
1DE
100
AcDbEntity
  8
_0-0_
  6
CONTINUOUS
 62
     0
100
AcDbText
 10
503.3734660336
 20
138.339683929
 40
7.5
  1
〃
  7
STANDARD
100
AcDbText
  0
TEXT
  5
1DF
100
AcDbEntity
  8
_0-0_
  6
CONTINUOUS
 62
     0
100
AcDbText
 10
503.3734660336
 20
156.339683929
 40
7.49
  1
〃
 41
1.001335113485
  7
STANDARD
100
AcDbText
  0
TEXT
  5
1E0
100
AcDbEntity
  8
_0-0_
  6
CONTINUOUS
 62
     0
100
AcDbText
 10
503.3734660336
 20
174.339683929
 40
7.49
  1
本
 41
1.001335113485
  7
STANDARD
100
AcDbText
  0
TEXT
  5
1E1
100
AcDbEntity
  8
_0-0_
  6
CONTINUOUS
 62
     0
100
AcDbText
 10
478.9984660336
 20
120.339683929
 40
7.5
  1
10
 41
0.9986666666667
  7
STANDARD
100
AcDbText
  0
TEXT
  5
1E2
100
AcDbEntity
  8
_0-0_
  6
CONTINUOUS
 62
     0
100
AcDbText
 10
478.9984660336
 20
138.339683929
 40
7.5
  1
10
 41
0.9986666666667
  7
STANDARD
100
AcDbText
  0
TEXT
  5
1E3
100
AcDbEntity
  8
_0-0_
  6
CONTINUOUS
 62
     0
100
AcDbText
 10
478.9984660336
 20
156.339683929
 40
7.49
  1
10
  7
STANDARD
100
AcDbText
  0
TEXT
  5
1E4
100
AcDbEntity
  8
_0-0_
  6
CONTINUOUS
 62
     0
100
AcDbText
 10
478.9984660336
 20
174.339683929
 40
7.49
  1
 8
  7
STANDARD
100
AcDbText
  0
TEXT
  5
1E5
100
AcDbEntity
  8
_0-0_
  6
CONTINUOUS
 62
     0
100
AcDbText
 10
503.3734660336
 20
102.339683929
 40
7.5
  1
巻
  7
STANDARD
100
AcDbText
  0
TEXT
  5
1E6
100
AcDbEntity
  8
_0-0_
  6
CONTINUOUS
 62
     0
100
AcDbText
 10
433.3734660336
 20
102.339683929
 40
7.5
  1
6000
 41
0.9986666666667
  7
STANDARD
100
AcDbText
  0
TEXT
  5
1E7
100
AcDbEntity
  8
_0-0_
  6
CONTINUOUS
 62
     0
100
AcDbText
 10
478.9984660336
 20
102.339683929
 40
7.5
  1
 1
 41
0.9986666666667
  7
STANDARD
100
AcDbText
  0
LINE
  5
1E8
100
AcDbEntity
  8
_0-0_
  6
CONTINUOUS
 62
     0
100
AcDbLine
 10
418.4984660336
 20
98.46468392901
 11
418.4984660336
 21
350.464683929
  0
LINE
  5
1E9
100
AcDbEntity
  8
_0-0_
  6
CONTINUOUS
 62
     0
100
AcDbLine
 10
470.9984660336
 20
98.46468392901
 11
470.9984660336
 21
350.464683929
  0
LINE
  5
1EA
100
AcDbEntity
  8
_0-0_
  6
CONTINUOUS
 62
     0
100
AcDbLine
 10
497.9984660336
 20
98.46468392901
 11
497.9984660336
 21
350.464683929
  0
LINE
  5
1EB
100
AcDbEntity
  8
_0-0_
  6
CONTINUOUS
 62
     0
100
AcDbLine
 10
518.9984660336
 20
98.46468392901
 11
518.9984660336
 21
350.464683929
  0
TEXT
  5
1EC
100
AcDbEntity
  8
_0-0_
  6
CONTINUOUS
 62
     0
100
AcDbText
 10
17.7131753758
 20
805.6362988234
 40
9.99
  1
◇ステンレス１５０タイプ（１５０ＦＹＹＧ－Ｓ）
  7
STANDARD
100
AcDbText
  0
LINE
  5
1ED
100
AcDbEntity
  8
_1-0_
  6
CONTINUOUS
 62
     0
100
AcDbLine
 10
872.768804
 20
583.4881250227
 11
854.768804
 21
583.4881250227
  0
LINE
  5
1EE
100
AcDbEntity
  8
_0-1_PRO0
  6
CONTINUOUS
 62
     0
100
AcDbLine
 10
587.026694
 20
644.8460940227
 11
587.1415
 21
643.1292500227
  0
LINE
  5
1EF
100
AcDbEntity
  8
_0-1_PRO0
  6
CONTINUOUS
 62
     0
100
AcDbLine
 10
577.040398
 20
644.3227340227
 11
577.155205
 21
642.6058900227
  0
LINE
  5
1F0
100
AcDbEntity
  8
_0-1_PRO0
  6
CONTINUOUS
 62
     0
100
AcDbLine
 10
580.469197
 20
644.5024300227
 11
578.651051
 21
642.6842840227
  0
LINE
  5
1F1
100
AcDbEntity
  8
_0-1_PRO0
  6
CONTINUOUS
 62
     0
100
AcDbLine
 10
581.961625
 20
644.5806450227
 11
580.143479
 21
642.7624990227
  0
LINE
  5
1F2
100
AcDbEntity
  8
_0-1_PRO0
  6
CONTINUOUS
 62
     0
100
AcDbLine
 10
583.454054
 20
644.6588600227
 11
581.635908
 21
642.8407140227
  0
LINE
  5
1F3
100
AcDbEntity
  8
_0-1_PRO0
  6
CONTINUOUS
 62
     0
100
AcDbLine
 10
584.946482
 20
644.7370750227
 11
583.128336
 21
642.9189290227
  0
LINE
  5
1F4
100
AcDbEntity
  8
_0-1_PRO0
  6
CONTINUOUS
 62
     0
100
AcDbLine
 10
586.43891
 20
644.8152900227
 11
584.620765
 21
642.9971440227
  0
LINE
  5
1F5
100
AcDbEntity
  8
_0-1_PRO0
  6
CONTINUOUS
 62
     0
100
AcDbLine
 10
586.113193
 20
643.0753590227
 11
587.080425
 21
644.0425900227
  0
LINE
  5
1F6
100
AcDbEntity
  8
_0-1_PRO0
  6
CONTINUOUS
 62
     0
100
AcDbLine
 10
578.976768
 20
644.4242150227
 11
577.158623
 21
642.6060700227
  0
LINE
  5
1F7
100
AcDbEntity
  8
_0-1_PRO0
  6
CONTINUOUS
 62
     0
100
AcDbLine
 10
577.48434
 20
644.3460000227
 11
577.066766
 21
643.9284270227
  0
LINE
  5
1F8
100
AcDbEntity
  8
_0-1_PRO0
  6
CONTINUOUS
 62
     0
100
AcDbLine
 10
166.974784
 20
618.3259310227
 11
593.794972
 21
640.6946290227
  0
LINE
  5
1F9
100
AcDbEntity
  8
_0-1_PRO0
  6
CONTINUOUS
 62
     0
100
AcDbLine
 10
173.003876
 20
621.4252170227
 11
593.768804
 21
643.4765720227
  0
LINE
  5
1FA
100
AcDbEntity
  8
_0-1_PRO0
  6
CONTINUOUS
 62
     0
100
AcDbLine
 10
173.239388
 20
616.9313840227
 11
593.768804
 21
638.9703970227
  0
LINE
  5
1FB
100
AcDbEntity
  8
_0-1_PRO0
  6
CONTINUOUS
 62
     0
100
AcDbLine
 10
173.317892
 20
615.4334400227
 11
593.768804
 21
637.4683380227
  0
LINE
  5
1FC
100
AcDbEntity
  8
_0-1_PRO0
  6
CONTINUOUS
 62
     0
100
AcDbLine
 10
174.08723
 20
600.7535850227
 11
593.768804
 21
622.7481650227
  0
LINE
  5
1FD
100
AcDbEntity
  8
_0-1_PRO0
  6
CONTINUOUS
 62
     0
100
AcDbLine
 10
174.181435
 20
598.9560520227
 11
593.768804
 21
620.9456940227
  0
LINE
  5
1FE
100
AcDbEntity
  8
_0-1_PRO0
  6
CONTINUOUS
 62
     0
100
AcDbLine
 10
174.338443
 20
595.9601640227
 11
593.768804
 21
617.9415770227
  0
LINE
  5
1FF
100
AcDbEntity
  8
_0-1_PRO0
  6
CONTINUOUS
 62
     0
100
AcDbLine
 10
174.416947
 20
594.4622190227
 11
593.768804
 21
616.4395190227
  0
LINE
  5
200
100
AcDbEntity
  8
_0-1_PRO0
  6
CONTINUOUS
 62
     0
100
AcDbLine
 10
174.469283
 20
593.4635900227
 11
593.768804
 21
615.4381470227
  0
LINE
  5
201
100
AcDbEntity
  8
_0-1_PRO0
  6
CONTINUOUS
 62
     0
100
AcDbLine
 10
146.611796
 20
623.7676720227
 11
593.768804
 21
647.2021780227
  0
ARC
  5
202
100
AcDbEntity
  8
_0-1_PRO0
  6
CONTINUOUS
 62
     0
100
AcDbCircle
 10
166.929965
 20
615.3194650227
 40
7.5
100
AcDbArc
 50
93
 51
169.875328
  0
LINE
  5
203
100
AcDbEntity
  8
_0-1_PRO0
  6
CONTINUOUS
 62
     0
100
AcDbLine
 10
180.009317
 20
623.5152170227
 11
181.646383
 21
621.8781510227
  0
LINE
  5
204
100
AcDbEntity
  8
_0-1_PRO0
  6
CONTINUOUS
 62
     0
100
AcDbLine
 10
178.665529
 20
623.4447920227
 11
180.302594
 21
621.8077260227
  0
LINE
  5
205
100
AcDbEntity
  8
_0-1_PRO0
  6
CONTINUOUS
 62
     0
100
AcDbLine
 10
177.32174
 20
623.3743670227
 11
178.958806
 21
621.7373010227
  0
LINE
  5
206
100
AcDbEntity
  8
_0-1_PRO0
  6
CONTINUOUS
 62
     0
100
AcDbLine
 10
175.977951
 20
623.3039420227
 11
177.615017
 21
621.6668760227
  0
LINE
  5
207
100
AcDbEntity
  8
_0-1_PRO0
  6
CONTINUOUS
 62
     0
100
AcDbLine
 10
174.634163
 20
623.2335170227
 11
176.271228
 21
621.5964520227
  0
LINE
  5
208
100
AcDbEntity
  8
_0-1_PRO0
  6
CONTINUOUS
 62
     0
100
AcDbLine
 10
173.290374
 20
623.1630920227
 11
174.92744
 21
621.5260270227
  0
LINE
  5
209
100
AcDbEntity
  8
_0-1_PRO0
  6
CONTINUOUS
 62
     0
100
AcDbLine
 10
173.583651
 20
621.4556020227
 11
172.97013
 21
622.0691220227
  0
LINE
  5
20A
100
AcDbEntity
  8
_0-1_PRO0
  6
CONTINUOUS
 62
     0
100
AcDbLine
 10
181.342355
 20
623.5850790227
 11
182.979421
 21
621.9480130227
  0
LINE
  5
20B
100
AcDbEntity
  8
_0-1_PRO0
  6
CONTINUOUS
 62
     0
100
AcDbLine
 10
182.696894
 20
623.6560670227
 11
182.911957
 21
623.4410050227
  0
ARC
  5
20C
100
AcDbEntity
  8
_0-1_PRO0
  6
CONTINUOUS
 62
     0
100
AcDbCircle
 10
146.768804
 20
536.6186770227
 40
3
100
AcDbArc
 50
180
 51
270
  0
LINE
  5
20D
100
AcDbEntity
  8
_0-1_PRO0
  6
CONTINUOUS
 62
     0
100
AcDbLine
 10
146.768804
 20
533.6186770227
 11
153.768804
 21
533.6186770227
  0
ARC
  5
20E
100
AcDbEntity
  8
_0-1_PRO0
  6
CONTINUOUS
 62
     0
100
AcDbCircle
 10
146.768804
 20
620.7717830227
 40
3
100
AcDbArc
 50
93
 51
180
  0
LINE
  5
20F
100
AcDbEntity
  8
_0-1_PRO0
  6
CONTINUOUS
 62
     0
100
AcDbLine
 10
143.768804
 20
620.7717830227
 11
143.768804
 21
536.6186770227
  0
LINE
  5
210
100
AcDbEntity
  8
_0-1_PRO0
  6
CONTINUOUS
 62
     0
100
AcDbLine
 10
159.546759
 20
616.6378950227
 11
145.768804
 21
539.4813470227
  0
LINE
  5
211
100
AcDbEntity
  8
_0-1_PRO0
  6
CONTINUOUS
 62
     0
100
AcDbLine
 10
163.976683
 20
615.8468370227
 11
150.199997
 21
538.6973990227
  0
ARC
  5
212
100
AcDbEntity
  8
_0-1_PRO0
  6
CONTINUOUS
 62
     0
100
AcDbCircle
 10
166.929965
 20
615.3194650227
 40
3
100
AcDbArc
 50
93
 51
169.875328
  0
LINE
  5
213
100
AcDbEntity
  8
_0-1_PRO0
  6
CONTINUOUS
 62
     0
100
AcDbLine
 10
150.686102
 20
546.4186770227
 11
159.936278
 21
546.4186770227
  0
ARC
  5
214
100
AcDbEntity
  8
_0-1_PRO0
  6
CONTINUOUS
 62
     0
100
AcDbCircle
 10
150.686102
 20
545.9186770227
 40
0.5
100
AcDbArc
 50
90
 51
168
  0
LINE
  5
215
100
AcDbEntity
  8
_0-1_PRO0
  6
CONTINUOUS
 62
     0
100
AcDbLine
 10
150.197028
 20
546.0226330227
 11
148.768804
 21
539.3033640227
  0
LINE
  5
216
100
AcDbEntity
  8
_0-1_PRO0
  6
CONTINUOUS
 62
     0
100
AcDbLine
 10
148.768804
 20
539.3033640227
 11
148.768804
 21
535.6186770227
  0
LINE
  5
217
100
AcDbEntity
  8
_0-1_PRO0
  6
CONTINUOUS
 62
     0
100
AcDbLine
 10
148.268804
 20
535.6186770227
 11
148.768804
 21
535.6186770227
  0
ARC
  5
218
100
AcDbEntity
  8
_0-1_PRO0
  6
CONTINUOUS
 62
     0
100
AcDbCircle
 10
148.268804
 20
538.1186770227
 40
2.5
100
AcDbArc
 50
180
 51
270
  0
LINE
  5
219
100
AcDbEntity
  8
_0-1_PRO0
  6
CONTINUOUS
 62
     0
100
AcDbLine
 10
159.936278
 20
547.6186770227
 11
157.536278
 21
547.6186770227
  0
LINE
  5
21A
100
AcDbEntity
  8
_0-1_PRO0
  6
CONTINUOUS
 62
     0
100
AcDbLine
 10
155.536278
 20
548.6186770227
 11
155.536278
 21
547.6186770227
  0
LINE
  5
21B
100
AcDbEntity
  8
_0-1_PRO0
  6
CONTINUOUS
 62
     0
100
AcDbLine
 10
157.536278
 20
547.6186770227
 11
155.536278
 21
548.6186770227
  0
ARC
  5
21C
100
AcDbEntity
  8
_0-1_PRO0
  6
CONTINUOUS
 62
     0
100
AcDbCircle
 10
159.936278
 20
547.0186770227
 40
0.6
100
AcDbArc
 50
-90
 51
90
  0
LINE
  5
21D
100
AcDbEntity
  8
_0-1_PRO0
  6
CONTINUOUS
 62
     0
100
AcDbLine
 10
151.153727
 20
547.6186770227
 11
155.536278
 21
547.6186770227
  0
ARC
  5
21E
100
AcDbEntity
  8
_0-1_PRO0
  6
CONTINUOUS
 62
     0
100
AcDbCircle
 10
151.153727
 20
548.1186770227
 40
0.5
100
AcDbArc
 50
168
 51
270
  0
ARC
  5
21F
100
AcDbEntity
  8
_0-1_PRO0
  6
CONTINUOUS
 62
     0
100
AcDbCircle
 10
172.367352
 20
595.3561770227
 40
0.5
100
AcDbArc
 50
3.000000000005
 51
92.99999999999
  0
LINE
  5
220
100
AcDbEntity
  8
_0-1_PRO0
  6
CONTINUOUS
 62
     0
100
AcDbLine
 10
172.866667
 20
595.3823450227
 11
172.919003
 21
594.3837150227
  0
LINE
  5
221
100
AcDbEntity
  8
_0-1_PRO0
  6
CONTINUOUS
 62
     0
100
AcDbLine
 10
173.444485
 20
593.9105690227
 11
173.9438
 21
593.9367370227
  0
ARC
  5
222
100
AcDbEntity
  8
_0-1_PRO0
  6
CONTINUOUS
 62
     0
100
AcDbCircle
 10
173.917632
 20
594.4360510227
 40
0.5
100
AcDbArc
 50
-87.00000000001
 51
3.000000000006
  0
ARC
  5
223
100
AcDbEntity
  8
_0-1_PRO0
  6
CONTINUOUS
 62
     0
100
AcDbCircle
 10
173.418317
 20
594.4098830227
 40
0.5
100
AcDbArc
 50
-177
 51
-87
  0
LINE
  5
224
100
AcDbEntity
  8
_0-1_PRO0
  6
CONTINUOUS
 62
     0
100
AcDbLine
 10
164.666105
 20
595.4532580227
 11
172.341184
 21
595.8554920227
  0
ARC
  5
225
100
AcDbEntity
  8
_0-1_PRO0
  6
CONTINUOUS
 62
     0
100
AcDbCircle
 10
164.692273
 20
594.9539430227
 40
0.5
100
AcDbArc
 50
93
 51
193
  0
LINE
  5
226
100
AcDbEntity
  8
_0-1_PRO0
  6
CONTINUOUS
 62
     0
100
AcDbLine
 10
164.205088
 20
594.8414680227
 11
164.788281
 21
592.3153830227
  0
LINE
  5
227
100
AcDbEntity
  8
_0-1_PRO0
  6
CONTINUOUS
 62
     0
100
AcDbLine
 10
162.602818
 20
595.3451260227
 11
161.425472
 21
595.2834240227
  0
ARC
  5
228
100
AcDbEntity
  8
_0-1_PRO0
  6
CONTINUOUS
 62
     0
100
AcDbCircle
 10
162.618519
 20
595.0455370227
 40
0.3
100
AcDbArc
 50
13
 51
93.00000000001
  0
LINE
  5
229
100
AcDbEntity
  8
_0-1_PRO0
  6
CONTINUOUS
 62
     0
100
AcDbLine
 10
162.91083
 20
595.1130220227
 11
163.619037
 21
592.0454420227
  0
ARC
  5
22A
100
AcDbEntity
  8
_0-1_PRO0
  6
CONTINUOUS
 62
     0
100
AcDbCircle
 10
161.477808
 20
594.2847940227
 40
1
100
AcDbArc
 50
93
 51
168
  0
ARC
  5
22B
100
AcDbEntity
  8
_0-1_PRO0
  6
CONTINUOUS
 62
     0
100
AcDbCircle
 10
164.203659
 20
592.1804130227
 40
0.6
100
AcDbArc
 50
-167
 51
13
  0
LINE
  5
22C
100
AcDbEntity
  8
_0-1_PRO0
  6
CONTINUOUS
 62
     0
100
AcDbLine
 10
157.724754
 20
595.8670000227
 11
145.768804
 21
539.6186770227
  0
LINE
  5
22D
100
AcDbEntity
  8
_0-1_PRO0
  6
CONTINUOUS
 62
     0
100
AcDbLine
 10
160.49966
 20
594.4927060227
 11
150.664653
 21
548.2226330227
  0
LINE
  5
22E
100
AcDbEntity
  8
_0-1_PRO0
  6
CONTINUOUS
 62
     0
100
AcDbLine
 10
150.199997
 20
538.6973990227
 11
145.768804
 21
539.4813470227
  0
LINE
  5
22F
100
AcDbEntity
  8
_0-1_PRO0
  6
CONTINUOUS
 62
     0
100
AcDbLine
 10
172.913832
 20
623.1433590227
 11
173.003876
 21
621.4252170227
  0
LINE
  5
230
100
AcDbEntity
  8
_0-1_PRO0
  6
CONTINUOUS
 62
     0
100
AcDbLine
 10
182.900127
 20
623.6667180227
 11
182.990171
 21
621.9485760227
  0
ARC
  5
231
100
AcDbEntity
  8
_0-1_PRO0
  6
CONTINUOUS
 62
     0
100
AcDbCircle
 10
173.55128
 20
601.4264580227
 40
0.5
100
AcDbArc
 50
3.000000000006
 51
93.00000000001
  0
LINE
  5
232
100
AcDbEntity
  8
_0-1_PRO0
  6
CONTINUOUS
 62
     0
100
AcDbLine
 10
172.184176
 20
598.8513800227
 11
160.502189
 21
598.2391530227
  0
ARC
  5
233
100
AcDbEntity
  8
_0-1_PRO0
  6
CONTINUOUS
 62
     0
100
AcDbCircle
 10
172.158008
 20
599.3506950227
 40
0.5
100
AcDbArc
 50
-87
 51
3.000000000005
  0
LINE
  5
234
100
AcDbEntity
  8
_0-1_PRO0
  6
CONTINUOUS
 62
     0
100
AcDbLine
 10
172.657323
 20
599.3768630227
 11
172.552651
 21
601.3741220227
  0
ARC
  5
235
100
AcDbEntity
  8
_0-1_PRO0
  6
CONTINUOUS
 62
     0
100
AcDbCircle
 10
173.051966
 20
601.4002900227
 40
0.5
100
AcDbArc
 50
93
 51
183
  0
LINE
  5
236
100
AcDbEntity
  8
_0-1_PRO0
  6
CONTINUOUS
 62
     0
100
AcDbLine
 10
173.025798
 20
601.8996050227
 11
173.525112
 21
601.9257730227
  0
LINE
  5
237
100
AcDbEntity
  8
_0-1_PRO0
  6
CONTINUOUS
 62
     0
100
AcDbLine
 10
173.003876
 20
621.4252170227
 11
174.469283
 21
593.4635900227
  0
ARC
  5
238
100
AcDbEntity
  8
_0-1_PRO0
  6
CONTINUOUS
 62
     0
100
AcDbCircle
 10
160.659197
 20
595.2432650227
 40
3
100
AcDbArc
 50
93
 51
168
  0
ARC
  5
239
100
AcDbEntity
  8
_0-1_PRO0
  6
CONTINUOUS
 62
     0
100
AcDbCircle
 10
202.720881
 20
598.9496830227
 40
1.5
100
AcDbArc
 50
-87
 51
93
  0
LINE
  5
23A
100
AcDbEntity
  8
_0-1_PRO0
  6
CONTINUOUS
 62
     0
100
AcDbLine
 10
1099.396589
 20
623.6186770227
 11
1099.396589
 21
533.6186770227
  0
LINE
  5
23B
100
AcDbEntity
  8
_0-1_PRO0
  6
CONTINUOUS
 62
     0
100
AcDbLine
 10
1044.768804
 20
623.6186770227
 11
1105.396589
 21
623.6186770227
  0
LINE
  5
23C
100
AcDbEntity
  8
_0-1_PRO0
  6
CONTINUOUS
 62
     0
100
AcDbLine
 10
1041.768804
 20
533.6186770227
 11
1105.396589
 21
533.6186770227
  0
LINE
  5
23D
100
AcDbEntity
  8
_0-1_PRO0
  6
CONTINUOUS
 62
     0
100
AcDbLine
 10
1099.396589
 20
623.6186770227
 11
1100.896589
 21
617.6186770227
  0
LINE
  5
23E
100
AcDbEntity
  8
_0-1_PRO0
  6
CONTINUOUS
 62
     0
100
AcDbLine
 10
1099.396589
 20
623.6186770227
 11
1097.896589
 21
617.6186770227
  0
LINE
  5
23F
100
AcDbEntity
  8
_0-1_PRO0
  6
CONTINUOUS
 62
     0
100
AcDbLine
 10
1099.396589
 20
533.6186770227
 11
1097.896589
 21
539.6186770227
  0
LINE
  5
240
100
AcDbEntity
  8
_0-1_PRO0
  6
CONTINUOUS
 62
     0
100
AcDbLine
 10
1099.396589
 20
533.6186770227
 11
1100.896589
 21
539.6186770227
  0
TEXT
  5
241
100
AcDbEntity
  8
_0-1_PRO0
  6
CONTINUOUS
 62
     0
100
AcDbText
 10
1096.396522
 20
570.8942860227
 40
9
  1
９０
 41
0.7377777777778
 50
90.000003
  7
STANDARD
100
AcDbText
  0
LINE
  5
242
100
AcDbEntity
  8
_0-1_PRO0
  6
CONTINUOUS
 62
     0
100
AcDbLine
 10
1071.155848
 20
577.4881250227
 11
1071.155848
 21
533.6186770227
  0
LINE
  5
243
100
AcDbEntity
  8
_0-1_PRO0
  6
CONTINUOUS
 62
     0
100
AcDbLine
 10
1065.872896
 20
533.6186770227
 11
1077.155848
 21
533.6186770227
  0
LINE
  5
244
100
AcDbEntity
  8
_0-1_PRO0
  6
CONTINUOUS
 62
     0
100
AcDbLine
 10
1071.155848
 20
577.4881250227
 11
1072.655848
 21
571.4881250227
  0
LINE
  5
245
100
AcDbEntity
  8
_0-1_PRO0
  6
CONTINUOUS
 62
     0
100
AcDbLine
 10
1071.155848
 20
577.4881250227
 11
1069.655848
 21
571.4881250227
  0
LINE
  5
246
100
AcDbEntity
  8
_0-1_PRO0
  6
CONTINUOUS
 62
     0
100
AcDbLine
 10
1071.155848
 20
533.6186770227
 11
1069.655848
 21
539.6186770227
  0
LINE
  5
247
100
AcDbEntity
  8
_0-1_PRO0
  6
CONTINUOUS
 62
     0
100
AcDbLine
 10
1071.155848
 20
533.6186770227
 11
1072.655848
 21
539.6186770227
  0
TEXT
  5
248
100
AcDbEntity
  8
_0-1_PRO0
  6
CONTINUOUS
 62
     0
100
AcDbText
 10
1068.155799
 20
547.8289930227
 40
9
  1
４４
 41
0.7377777777778
 50
90.000003
  7
STANDARD
100
AcDbText
  0
LINE
  5
249
100
AcDbEntity
  8
_0-1_PRO0
  6
CONTINUOUS
 62
     0
100
AcDbLine
 10
143.768804
 20
676.9369110227
 11
1043.768804
 21
676.9369110227
  0
LINE
  5
24A
100
AcDbEntity
  8
_0-1_PRO0
  6
CONTINUOUS
 62
     0
100
AcDbLine
 10
143.768804
 20
621.7717830227
 11
143.768804
 21
680.9369110227
  0
LINE
  5
24B
100
AcDbEntity
  8
_0-1_PRO0
  6
CONTINUOUS
 62
     0
100
AcDbLine
 10
1043.768804
 20
621.7717830227
 11
1043.768804
 21
680.9369110227
  0
LINE
  5
24C
100
AcDbEntity
  8
_0-1_PRO0
  6
CONTINUOUS
 62
     0
100
AcDbLine
 10
143.768804
 20
676.9369110227
 11
149.768804
 21
678.4369110227
  0
LINE
  5
24D
100
AcDbEntity
  8
_0-1_PRO0
  6
CONTINUOUS
 62
     0
100
AcDbLine
 10
143.768804
 20
676.9369110227
 11
149.768804
 21
675.4369110227
  0
LINE
  5
24E
100
AcDbEntity
  8
_0-1_PRO0
  6
CONTINUOUS
 62
     0
100
AcDbLine
 10
1043.768804
 20
676.9369110227
 11
1037.768804
 21
675.4369110227
  0
LINE
  5
24F
100
AcDbEntity
  8
_0-1_PRO0
  6
CONTINUOUS
 62
     0
100
AcDbLine
 10
1043.768804
 20
676.9369110227
 11
1037.768804
 21
678.4369110227
  0
TEXT
  5
250
100
AcDbEntity
  8
_0-1_PRO0
  6
CONTINUOUS
 62
     0
100
AcDbText
 10
589.7584084277
 20
679.3134927355
 40
9
  1
Ｗ
 41
0.7377777777778
  7
STANDARD
100
AcDbText
  0
LINE
  5
251
100
AcDbEntity
  8
_0-1_PRO0
  6
CONTINUOUS
 62
     0
100
AcDbLine
 10
518.768804
 20
577.4881250227
 11
273.768804
 21
577.4881250227
  0
ARC
  5
252
100
AcDbEntity
  8
_0-1_PRO0
  6
CONTINUOUS
 62
     0
100
AcDbCircle
 10
320.268804
 20
537.9881250227
 40
1
100
AcDbArc
 50
180
 51
270
  0
LINE
  5
253
100
AcDbEntity
  8
_0-1_PRO0
  6
CONTINUOUS
 62
     0
100
AcDbLine
 10
317.143774
 20
539.2261300227
 11
321.329207
 21
538.4881250227
  0
LINE
  5
254
100
AcDbEntity
  8
_0-1_PRO0
  6
CONTINUOUS
 62
     0
100
AcDbLine
 10
319.718804
 20
569.1881250227
 11
327.818804
 21
569.1881250227
  0
LINE
  5
255
100
AcDbEntity
  8
_0-1_PRO0
  6
CONTINUOUS
 62
     0
100
AcDbLine
 10
319.018804
 20
568.4881250227
 11
328.518804
 21
568.4881250227
  0
LINE
  5
256
100
AcDbEntity
  8
_0-1_PRO0
  6
CONTINUOUS
 62
     0
100
AcDbLine
 10
330.393833
 20
539.2261300227
 11
328.518804
 21
549.8599520227
  0
LINE
  5
257
100
AcDbEntity
  8
_0-1_PRO0
  6
CONTINUOUS
 62
     0
100
AcDbLine
 10
324.268804
 20
549.4881250227
 11
326.2084
 21
538.4881250227
  0
LINE
  5
258
100
AcDbEntity
  8
_0-1_PRO0
  6
CONTINUOUS
 62
     0
100
AcDbLine
 10
323.268804
 20
549.4881250227
 11
321.329207
 21
538.4881250227
  0
LINE
  5
259
100
AcDbEntity
  8
_0-1_PRO0
  6
CONTINUOUS
 62
     0
100
AcDbLine
 10
330.393833
 20
539.2261300227
 11
326.2084
 21
538.4881250227
  0
LINE
  5
25A
100
AcDbEntity
  8
_0-1_PRO0
  6
CONTINUOUS
 62
     0
100
AcDbLine
 10
328.268804
 20
537.9881250227
 11
328.268804
 21
538.8514300227
  0
ARC
  5
25B
100
AcDbEntity
  8
_0-1_PRO0
  6
CONTINUOUS
 62
     0
100
AcDbCircle
 10
327.268804
 20
537.9881250227
 40
1
100
AcDbArc
 50
-90
 51
0
  0
LINE
  5
25C
100
AcDbEntity
  8
_0-1_PRO0
  6
CONTINUOUS
 62
     0
100
AcDbLine
 10
327.268804
 20
536.9881250227
 11
320.268804
 21
536.9881250227
  0
LINE
  5
25D
100
AcDbEntity
  8
_0-1_PRO0
  6
CONTINUOUS
 62
     0
100
AcDbLine
 10
328.518804
 20
549.8599520227
 11
328.518804
 21
568.4881250227
  0
LINE
  5
25E
100
AcDbEntity
  8
_0-1_PRO0
  6
CONTINUOUS
 62
     0
100
AcDbLine
 10
327.818804
 20
578.4881250227
 11
327.818804
 21
569.1881250227
  0
LINE
  5
25F
100
AcDbEntity
  8
_0-1_PRO0
  6
CONTINUOUS
 62
     0
100
AcDbLine
 10
328.518804
 20
568.4881250227
 11
327.818804
 21
569.1881250227
  0
LINE
  5
260
100
AcDbEntity
  8
_0-1_PRO0
  6
CONTINUOUS
 62
     0
100
AcDbLine
 10
323.268804
 20
549.4881250227
 11
324.268804
 21
549.4881250227
  0
LINE
  5
261
100
AcDbEntity
  8
_0-1_PRO0
  6
CONTINUOUS
 62
     0
100
AcDbLine
 10
317.143774
 20
539.2261300227
 11
319.018804
 21
549.8599520227
  0
LINE
  5
262
100
AcDbEntity
  8
_0-1_PRO0
  6
CONTINUOUS
 62
     0
100
AcDbLine
 10
319.268804
 20
537.9881250227
 11
319.268804
 21
538.8514300227
  0
LINE
  5
263
100
AcDbEntity
  8
_0-1_PRO0
  6
CONTINUOUS
 62
     0
100
AcDbLine
 10
319.018804
 20
549.8599520227
 11
319.018804
 21
568.4881250227
  0
LINE
  5
264
100
AcDbEntity
  8
_0-1_PRO0
  6
CONTINUOUS
 62
     0
100
AcDbLine
 10
319.718804
 20
578.4881250227
 11
319.718804
 21
569.1881250227
  0
LINE
  5
265
100
AcDbEntity
  8
_0-1_PRO0
  6
CONTINUOUS
 62
     0
100
AcDbLine
 10
319.018804
 20
568.4881250227
 11
319.718804
 21
569.1881250227
  0
LINE
  5
266
100
AcDbEntity
  8
_0-1_PRO0
  6
CONTINUOUS
 62
     0
100
AcDbLine
 10
323.768804
 20
529.0377240227
 11
323.768804
 21
509.7126570227
  0
LINE
  5
267
100
AcDbEntity
  8
_0-1_PRO0
  6
CONTINUOUS
 62
     0
100
AcDbLine
 10
323.768804
 20
515.7126570227
 11
273.768804
 21
515.7126570227
  0
LINE
  5
268
100
AcDbEntity
  8
_0-1_PRO0
  6
CONTINUOUS
 62
     0
100
AcDbLine
 10
273.768804
 20
520.0731560227
 11
273.768804
 21
509.7126570227
  0
LINE
  5
269
100
AcDbEntity
  8
_0-1_PRO0
  6
CONTINUOUS
 62
     0
100
AcDbLine
 10
323.768804
 20
515.7126570227
 11
317.768804
 21
514.2126570227
  0
LINE
  5
26A
100
AcDbEntity
  8
_0-1_PRO0
  6
CONTINUOUS
 62
     0
100
AcDbLine
 10
323.768804
 20
515.7126570227
 11
317.768804
 21
517.2126570227
  0
LINE
  5
26B
100
AcDbEntity
  8
_0-1_PRO0
  6
CONTINUOUS
 62
     0
100
AcDbLine
 10
273.768804
 20
515.7126570227
 11
279.768804
 21
517.2126570227
  0
LINE
  5
26C
100
AcDbEntity
  8
_0-1_PRO0
  6
CONTINUOUS
 62
     0
100
AcDbLine
 10
273.768804
 20
515.7126570227
 11
279.768804
 21
514.2126570227
  0
TEXT
  5
26D
100
AcDbEntity
  8
_0-1_PRO0
  6
CONTINUOUS
 62
     0
100
AcDbText
 10
291.044404
 20
518.7126280227
 40
9
  1
５０
 41
0.7377777777778
  7
STANDARD
100
AcDbText
  0
LINE
  5
26E
100
AcDbEntity
  8
_1-0_
  6
CONTINUOUS
 62
     0
100
AcDbLine
 10
326.9388651365
 20
593.2452413454
 11
326.4657186365
 21
592.7197583454
  0
LINE
  5
26F
100
AcDbEntity
  8
_1-0_
  6
CONTINUOUS
 62
     0
100
AcDbLine
 10
326.4657186365
 20
592.7197583454
 11
321.4725711365
 21
592.4580788454
  0
LINE
  5
270
100
AcDbEntity
  8
_1-0_
  6
CONTINUOUS
 62
     0
100
AcDbLine
 10
321.4725711365
 20
592.4580788454
 11
320.9470881365
 21
592.9312253454
  0
LINE
  5
271
100
AcDbEntity
  8
_1-0_
  6
CONTINUOUS
 62
     0
100
AcDbLine
 10
326.9388651365
 20
593.2452413454
 11
320.9470881365
 21
592.9312253454
  0
ARC
  5
272
100
AcDbEntity
  8
_1-0_
  6
CONTINUOUS
 62
     0
100
AcDbCircle
 10
322.4778916833
 20
621.043714326
 40
6.3
100
AcDbArc
 50
43.903458
 51
142.096542
  0
LINE
  5
273
100
AcDbEntity
  8
_1-0_
  6
CONTINUOUS
 62
     0
100
AcDbLine
 10
322.0928881833
 20
628.390009326
 11
324.215669
 21
587.8849410227
  0
LINE
  5
274
100
AcDbEntity
  8
_1-0_
  6
CONTINUOUS
 62
     0
100
AcDbLine
 10
298.8182596833
 20
608.384158326
 11
310.9151476833
 21
621.939794826
  0
LINE
  5
275
100
AcDbEntity
  8
_1-0_
  6
CONTINUOUS
 62
     0
100
AcDbLine
 10
294.7598656833
 20
610.176385326
 11
295.3704106833
 21
610.693333326
  0
LINE
  5
276
100
AcDbEntity
  8
_1-0_
  6
CONTINUOUS
 62
     0
100
AcDbLine
 10
295.3704106833
 20
610.693333326
 11
297.3089686833
 21
608.403793326
  0
LINE
  5
277
100
AcDbEntity
  8
_1-0_
  6
CONTINUOUS
 62
     0
100
AcDbLine
 10
333.8836276833
 20
623.143522326
 11
310.9151476833
 21
621.939794826
  0
LINE
  5
278
100
AcDbEntity
  8
_1-0_
  6
CONTINUOUS
 62
     0
100
AcDbLine
 10
347.3311981833
 20
610.926614826
 11
333.8836276833
 21
623.143522326
  0
LINE
  5
279
100
AcDbEntity
  8
_1-0_
  6
CONTINUOUS
 62
     0
100
AcDbLine
 10
327.5733406833
 20
624.130201326
 11
327.6421921833
 21
622.816423326
  0
LINE
  5
27A
100
AcDbEntity
  8
_1-0_
  6
CONTINUOUS
 62
     0
100
AcDbLine
 10
317.0877301833
 20
623.580673326
 11
317.1565831833
 21
622.266895326
  0
ARC
  5
27B
100
AcDbEntity
  8
_1-0_
  6
CONTINUOUS
 62
     0
100
AcDbCircle
 10
325.5760816833
 20
624.025529826
 40
1.9999995
100
AcDbArc
 50
2.999999999999
 51
43.903458
  0
LINE
  5
27C
100
AcDbEntity
  8
_1-0_
  6
CONTINUOUS
 62
     0
100
AcDbLine
 10
346.7932561833
 20
610.334483826
 11
333.5924971833
 21
622.327166826
  0
LINE
  5
27D
100
AcDbEntity
  8
_1-0_
  6
CONTINUOUS
 62
     0
100
AcDbLine
 10
333.5924971833
 20
622.327166826
 11
311.2491706833
 21
621.156203826
  0
ARC
  5
27E
100
AcDbEntity
  8
_1-0_
  6
CONTINUOUS
 62
     0
100
AcDbCircle
 10
319.0849891833
 20
623.685346326
 40
1.9999995
100
AcDbArc
 50
142.096542
 51
183
  0
LINE
  5
27F
100
AcDbEntity
  8
_1-0_
  6
CONTINUOUS
 62
     0
100
AcDbLine
 10
350.5187851833
 20
613.583537826
 11
348.8301691833
 21
611.103905826
  0
LINE
  5
280
100
AcDbEntity
  8
_1-0_
  6
CONTINUOUS
 62
     0
100
AcDbLine
 10
351.1800196833
 20
613.133239326
 11
350.5187851833
 21
613.583537826
  0
LINE
  5
281
100
AcDbEntity
  8
_1-0_
  6
CONTINUOUS
 62
     0
100
AcDbLine
 10
351.1800196833
 20
613.133239326
 11
349.4914036833
 21
610.653607326
  0
LINE
  5
282
100
AcDbEntity
  8
_1-0_
  6
CONTINUOUS
 62
     0
100
AcDbLine
 10
294.7598656833
 20
610.176385326
 11
296.6984236833
 21
607.886845326
  0
ARC
  5
283
100
AcDbEntity
  8
_1-0_
  6
CONTINUOUS
 62
     0
100
AcDbCircle
 10
298.0721476833
 20
609.049979826
 40
1.0000005
100
AcDbArc
 50
-139.745342
 51
-41.745348
  0
LINE
  5
284
100
AcDbEntity
  8
_1-0_
  6
CONTINUOUS
 62
     0
100
AcDbLine
 10
299.4151486833
 20
607.851502326
 11
311.2900156833
 21
621.158344326
  0
ARC
  5
285
100
AcDbEntity
  8
_1-0_
  6
CONTINUOUS
 62
     0
100
AcDbCircle
 10
298.0721476833
 20
609.049979826
 40
1.8
100
AcDbArc
 50
-139.745342
 51
-41.745349
  0
ARC
  5
286
100
AcDbEntity
  8
_1-0_
  6
CONTINUOUS
 62
     0
100
AcDbCircle
 10
348.0036241833
 20
611.666777826
 40
1.0000005
100
AcDbArc
 50
-132.254652
 51
-34.254658
  0
ARC
  5
287
100
AcDbEntity
  8
_1-0_
  6
CONTINUOUS
 62
     0
100
AcDbCircle
 10
348.0036241833
 20
611.666777826
 40
1.8
100
AcDbArc
 50
-132.254651
 51
-34.254658
  0
LINE
  5
288
100
AcDbEntity
  8
_1-0_
  6
CONTINUOUS
 62
     0
100
AcDbLine
 10
319.9028131833
 20
622.410818826
 11
321.0173683727
 21
601.1438498227
  0
LINE
  5
289
100
AcDbEntity
  8
_1-0_
  6
CONTINUOUS
 62
     0
100
AcDbLine
 10
319.4034991833
 20
622.384651326
 11
320.5180543956
 21
601.1176818857
  0
LINE
  5
28A
100
AcDbEntity
  8
_1-0_
  6
CONTINUOUS
 62
     0
100
AcDbLine
 10
324.8959621833
 20
622.672498326
 11
326.0105160605
 21
601.4055296076
  0
LINE
  5
28B
100
AcDbEntity
  8
_1-0_
  6
CONTINUOUS
 62
     0
100
AcDbLine
 10
325.3952761833
 20
622.698667326
 11
326.5098313419
 21
601.4316976129
  0
ARC
  5
28C
100
AcDbEntity
  8
_0-1_PRO0
  6
CONTINUOUS
 62
     0
100
AcDbCircle
 10
273.768807
 20
577.4881250227
 40
1
100
AcDbArc
 50
90
 51
164.9806915056
  0
LINE
  5
28D
100
AcDbEntity
  8
_0-1_PRO0
  6
CONTINUOUS
 62
     0
100
AcDbLine
 10
518.768804
 20
419.5487363963
 11
518.768804
 21
577.4881250227
  0
LINE
  5
28E
100
AcDbEntity
  8
_0-1_PRO0
  6
CONTINUOUS
 62
     0
100
AcDbLine
 10
668.768804
 20
399.5528963963
 11
674.768804
 21
401.0528963963
  0
LINE
  5
28F
100
AcDbEntity
  8
_0-1_PRO0
  6
CONTINUOUS
 62
     0
100
AcDbLine
 10
668.768804
 20
399.5528963963
 11
674.768804
 21
398.0528963963
  0
LINE
  5
290
100
AcDbEntity
  8
_0-1_PRO0
  6
CONTINUOUS
 62
     0
100
AcDbLine
 10
1043.768804
 20
535.1186770227
 11
1043.768804
 21
393.5528963963
  0
LINE
  5
291
100
AcDbEntity
  8
_0-1_PRO0
  6
CONTINUOUS
 62
     0
100
AcDbLine
 10
1043.768804
 20
399.5528963963
 11
1037.768804
 21
398.0528963963
  0
LINE
  5
292
100
AcDbEntity
  8
_0-1_PRO0
  6
CONTINUOUS
 62
     0
100
AcDbLine
 10
1043.768804
 20
399.5528963963
 11
1037.768804
 21
401.0528963963
  0
LINE
  5
293
100
AcDbEntity
  8
_0-1_PRO0
  6
CONTINUOUS
 62
     0
100
AcDbLine
 10
518.768804
 20
399.5528963963
 11
668.768804
 21
399.5528963963
  0
LINE
  5
294
100
AcDbEntity
  8
_0-1_PRO0
  6
CONTINUOUS
 62
     0
100
AcDbLine
 10
668.768804
 20
418.0487363963
 11
668.768804
 21
393.5528963963
  0
LINE
  5
295
100
AcDbEntity
  8
_0-1_PRO0
  6
CONTINUOUS
 62
     0
100
AcDbLine
 10
518.768804
 20
399.5528963963
 11
524.768804
 21
401.0528963963
  0
LINE
  5
296
100
AcDbEntity
  8
_0-1_PRO0
  6
CONTINUOUS
 62
     0
100
AcDbLine
 10
518.768804
 20
399.5528963963
 11
524.768804
 21
398.0528963963
  0
LINE
  5
297
100
AcDbEntity
  8
_0-1_PRO0
  6
CONTINUOUS
 62
     0
100
AcDbLine
 10
668.768804
 20
399.5528963963
 11
662.768804
 21
398.0528963963
  0
LINE
  5
298
100
AcDbEntity
  8
_0-1_PRO0
  6
CONTINUOUS
 62
     0
100
AcDbLine
 10
668.768804
 20
399.5528963963
 11
662.768804
 21
401.0528963963
  0
TEXT
  5
299
100
AcDbEntity
  8
_0-1_PRO0
  6
CONTINUOUS
 62
     0
100
AcDbText
 10
582.182191
 20
402.5528973963
 40
9
  1
１５０
 41
0.7377777777778
  7
STANDARD
100
AcDbText
  0
LINE
  5
29A
100
AcDbEntity
  8
_0-1_PRO0
  6
CONTINUOUS
 62
     0
100
AcDbLine
 10
518.768804
 20
418.0487363963
 11
518.768804
 21
393.5528963963
  0
LINE
  5
29B
100
AcDbEntity
  8
_0-1_PRO0
  6
CONTINUOUS
 62
     0
100
AcDbLine
 10
518.768804
 20
399.5528963963
 11
512.768804
 21
398.0528963963
  0
LINE
  5
29C
100
AcDbEntity
  8
_0-1_PRO0
  6
CONTINUOUS
 62
     0
100
AcDbLine
 10
518.768804
 20
399.5528963963
 11
512.768804
 21
401.0528963963
  0
LINE
  5
29D
100
AcDbEntity
  8
_0-1_PRO0
  6
CONTINUOUS
 62
     0
100
AcDbLine
 10
143.768804
 20
535.1186770227
 11
143.768804
 21
393.5528963963
  0
LINE
  5
29E
100
AcDbEntity
  8
_0-1_PRO0
  6
CONTINUOUS
 62
     0
100
AcDbLine
 10
143.768804
 20
399.5528963963
 11
149.768804
 21
401.0528963963
  0
LINE
  5
29F
100
AcDbEntity
  8
_0-1_PRO0
  6
CONTINUOUS
 62
     0
100
AcDbLine
 10
143.768804
 20
399.5528963963
 11
149.768804
 21
398.0528963963
  0
LINE
  5
2A0
100
AcDbEntity
  8
_0-1_PRO0
  6
CONTINUOUS
 62
     0
100
AcDbLine
 10
273.768804
 20
419.5487363963
 11
273.768804
 21
577.4881250227
  0
LINE
  5
2A1
100
AcDbEntity
  8
_0-1_PRO0
  6
CONTINUOUS
 62
     0
100
AcDbLine
 10
273.768804
 20
399.5528963963
 11
518.768804
 21
399.5528963963
  0
LINE
  5
2A2
100
AcDbEntity
  8
_0-1_PRO0
  6
CONTINUOUS
 62
     0
100
AcDbLine
 10
273.768804
 20
399.5528963963
 11
279.768804
 21
401.0528963963
  0
LINE
  5
2A3
100
AcDbEntity
  8
_0-1_PRO0
  6
CONTINUOUS
 62
     0
100
AcDbLine
 10
273.768804
 20
399.5528963963
 11
279.768804
 21
398.0528963963
  0
LINE
  5
2A4
100
AcDbEntity
  8
_0-1_PRO0
  6
CONTINUOUS
 62
     0
100
AcDbLine
 10
143.768804
 20
399.5528963963
 11
273.768804
 21
399.5528963963
  0
LINE
  5
2A5
100
AcDbEntity
  8
_0-1_PRO0
  6
CONTINUOUS
 62
     0
100
AcDbLine
 10
273.768804
 20
418.0487363963
 11
273.768804
 21
393.5528963963
  0
LINE
  5
2A6
100
AcDbEntity
  8
_0-1_PRO0
  6
CONTINUOUS
 62
     0
100
AcDbLine
 10
273.768804
 20
399.5528963963
 11
267.768804
 21
398.0528963963
  0
LINE
  5
2A7
100
AcDbEntity
  8
_0-1_PRO0
  6
CONTINUOUS
 62
     0
100
AcDbLine
 10
273.768804
 20
399.5528963963
 11
267.768804
 21
401.0528963963
  0
LINE
  5
2A8
100
AcDbEntity
  8
_0-0_
  6
CONTINUOUS
 62
     0
100
AcDbLine
 10
545.4725126855
 20
477.8285274578
 11
518.768804
 21
577.4881250227
  0
LINE
  5
2A9
100
AcDbEntity
  8
_0-0_
  6
CONTINUOUS
 62
     0
100
AcDbLine
 10
546.4384385118
 20
478.0873465029
 11
519.5360701169
 21
578.4883521965
  0
LINE
  5
2AA
100
AcDbEntity
  8
_0-1_PRO0
  6
CONTINUOUS
 62
     0
100
AcDbLine
 10
593.768804
 20
423.4793203963
 11
593.768804
 21
659.4710310227
  0
ARC
  5
2AB
100
AcDbEntity
  8
_0-0_
  6
CONTINUOUS
 62
     0
100
AcDbCircle
 10
146.768804
 20
536.6186770227
 40
1.5
100
AcDbArc
 50
180
 51
270
  0
LINE
  5
2AC
100
AcDbEntity
  8
_0-0_
  6
CONTINUOUS
 62
     0
100
AcDbLine
 10
145.268804
 20
620.7717830227
 11
145.268804
 21
536.6186770227
  0
ARC
  5
2AD
100
AcDbEntity
  8
_0-0_
  6
CONTINUOUS
 62
     0
100
AcDbCircle
 10
146.768804
 20
620.7717830227
 40
1.5
100
AcDbArc
 50
93
 51
180
  0
LINE
  5
2AE
100
AcDbEntity
  8
_0-0_
  6
CONTINUOUS
 62
     0
100
AcDbLine
 10
146.6902999351
 20
622.2697277206
 11
593.768804
 21
645.7001195037
  0
LINE
  5
2AF
100
AcDbEntity
  8
_0-0_
  6
CONTINUOUS
 62
     0
100
AcDbLine
 10
146.768804
 20
535.1186770227
 11
153.768804
 21
535.1186770227
  0
LINE
  5
2B0
100
AcDbEntity
  8
_0-1_PRO0
  6
CONTINUOUS
 62
     0
100
AcDbLine
 10
153.768804
 20
535.1186770227
 11
153.768804
 21
533.6186770227
  0
LINE
  5
2B1
100
AcDbEntity
  8
_0-1_PRO0
  6
CONTINUOUS
 62
     0
100
AcDbLine
 10
145.768804
 20
539.6186770227
 11
145.768804
 21
538.1186770227
  0
LINE
  5
2B2
100
AcDbEntity
  8
_0-1_PRO0
  6
CONTINUOUS
 62
     0
100
AcDbLine
 10
166.7392721969
 20
622.8197639291
 11
593.5594601969
 21
645.1884619291
  0
ARC
  5
2B3
100
AcDbEntity
  8
_0-0_
  6
CONTINUOUS
 62
     0
100
AcDbCircle
 10
593.768804
 20
490.7694797129
 40
49
100
AcDbArc
 50
-165
 51
-90
  0
ARC
  5
2B4
100
AcDbEntity
  8
_0-0_
  6
CONTINUOUS
 62
     0
100
AcDbCircle
 10
593.768804
 20
490.7694797129
 40
50
100
AcDbArc
 50
-165
 51
-90
  0
LINE
  5
2B5
100
AcDbEntity
  8
_0-1_PRO0
  6
CONTINUOUS
 62
     0
100
AcDbLine
 10
600.510914
 20
644.8460940227
 11
600.396108
 21
643.1292500227
  0
LINE
  5
2B6
100
AcDbEntity
  8
_0-1_PRO0
  6
CONTINUOUS
 62
     0
100
AcDbLine
 10
610.49721
 20
644.3227340227
 11
610.382403
 21
642.6058900227
  0
LINE
  5
2B7
100
AcDbEntity
  8
_0-1_PRO0
  6
CONTINUOUS
 62
     0
100
AcDbLine
 10
607.068411
 20
644.5024300227
 11
608.886557
 21
642.6842840227
  0
LINE
  5
2B8
100
AcDbEntity
  8
_0-1_PRO0
  6
CONTINUOUS
 62
     0
100
AcDbLine
 10
605.575983
 20
644.5806450227
 11
607.394129
 21
642.7624990227
  0
LINE
  5
2B9
100
AcDbEntity
  8
_0-1_PRO0
  6
CONTINUOUS
 62
     0
100
AcDbLine
 10
604.083554
 20
644.6588600227
 11
605.9017
 21
642.8407140227
  0
LINE
  5
2BA
100
AcDbEntity
  8
_0-1_PRO0
  6
CONTINUOUS
 62
     0
100
AcDbLine
 10
602.591126
 20
644.7370750227
 11
604.409272
 21
642.9189290227
  0
LINE
  5
2BB
100
AcDbEntity
  8
_0-1_PRO0
  6
CONTINUOUS
 62
     0
100
AcDbLine
 10
601.098698
 20
644.8152900227
 11
602.916843
 21
642.9971440227
  0
LINE
  5
2BC
100
AcDbEntity
  8
_0-1_PRO0
  6
CONTINUOUS
 62
     0
100
AcDbLine
 10
601.424415
 20
643.0753590227
 11
600.457183
 21
644.0425900227
  0
LINE
  5
2BD
100
AcDbEntity
  8
_0-1_PRO0
  6
CONTINUOUS
 62
     0
100
AcDbLine
 10
608.56084
 20
644.4242150227
 11
610.378985
 21
642.6060700227
  0
LINE
  5
2BE
100
AcDbEntity
  8
_0-1_PRO0
  6
CONTINUOUS
 62
     0
100
AcDbLine
 10
610.053268
 20
644.3460000227
 11
610.470842
 21
643.9284270227
  0
LINE
  5
2BF
100
AcDbEntity
  8
_0-1_PRO0
  6
CONTINUOUS
 62
     0
100
AcDbLine
 10
1020.562824
 20
618.3259310227
 11
593.742636
 21
640.6946290227
  0
LINE
  5
2C0
100
AcDbEntity
  8
_0-1_PRO0
  6
CONTINUOUS
 62
     0
100
AcDbLine
 10
1014.533732
 20
621.4252170227
 11
593.768804
 21
643.4765720227
  0
LINE
  5
2C1
100
AcDbEntity
  8
_0-1_PRO0
  6
CONTINUOUS
 62
     0
100
AcDbLine
 10
1014.29822
 20
616.9313840227
 11
593.768804
 21
638.9703970227
  0
LINE
  5
2C2
100
AcDbEntity
  8
_0-1_PRO0
  6
CONTINUOUS
 62
     0
100
AcDbLine
 10
1014.219716
 20
615.4334400227
 11
593.768804
 21
637.4683380227
  0
LINE
  5
2C3
100
AcDbEntity
  8
_0-1_PRO0
  6
CONTINUOUS
 62
     0
100
AcDbLine
 10
1013.450378
 20
600.7535850227
 11
593.768804
 21
622.7481650227
  0
LINE
  5
2C4
100
AcDbEntity
  8
_0-1_PRO0
  6
CONTINUOUS
 62
     0
100
AcDbLine
 10
1013.356173
 20
598.9560520227
 11
593.768804
 21
620.9456940227
  0
LINE
  5
2C5
100
AcDbEntity
  8
_0-1_PRO0
  6
CONTINUOUS
 62
     0
100
AcDbLine
 10
1013.199165
 20
595.9601640227
 11
593.768804
 21
617.9415770227
  0
LINE
  5
2C6
100
AcDbEntity
  8
_0-1_PRO0
  6
CONTINUOUS
 62
     0
100
AcDbLine
 10
1013.120661
 20
594.4622190227
 11
593.768804
 21
616.4395190227
  0
LINE
  5
2C7
100
AcDbEntity
  8
_0-1_PRO0
  6
CONTINUOUS
 62
     0
100
AcDbLine
 10
1013.068325
 20
593.4635900227
 11
593.768804
 21
615.4381470227
  0
LINE
  5
2C8
100
AcDbEntity
  8
_0-1_PRO0
  6
CONTINUOUS
 62
     0
100
AcDbLine
 10
1040.925812
 20
623.7676720227
 11
593.768804
 21
647.2021780227
  0
ARC
  5
2C9
100
AcDbEntity
  8
_0-1_PRO0
  6
CONTINUOUS
 62
     0
100
AcDbCircle
 10
1020.607643
 20
615.3194650227
 40
7.5
100
AcDbArc
 50
10.124672
 51
87
  0
LINE
  5
2CA
100
AcDbEntity
  8
_0-1_PRO0
  6
CONTINUOUS
 62
     0
100
AcDbLine
 10
1007.528291
 20
623.5152170227
 11
1005.891225
 21
621.8781510227
  0
LINE
  5
2CB
100
AcDbEntity
  8
_0-1_PRO0
  6
CONTINUOUS
 62
     0
100
AcDbLine
 10
1008.872079
 20
623.4447920227
 11
1007.235014
 21
621.8077260227
  0
LINE
  5
2CC
100
AcDbEntity
  8
_0-1_PRO0
  6
CONTINUOUS
 62
     0
100
AcDbLine
 10
1010.215868
 20
623.3743670227
 11
1008.578802
 21
621.7373010227
  0
LINE
  5
2CD
100
AcDbEntity
  8
_0-1_PRO0
  6
CONTINUOUS
 62
     0
100
AcDbLine
 10
1011.559657
 20
623.3039420227
 11
1009.922591
 21
621.6668760227
  0
LINE
  5
2CE
100
AcDbEntity
  8
_0-1_PRO0
  6
CONTINUOUS
 62
     0
100
AcDbLine
 10
1012.903445
 20
623.2335170227
 11
1011.26638
 21
621.5964520227
  0
LINE
  5
2CF
100
AcDbEntity
  8
_0-1_PRO0
  6
CONTINUOUS
 62
     0
100
AcDbLine
 10
1014.247234
 20
623.1630920227
 11
1012.610168
 21
621.5260270227
  0
LINE
  5
2D0
100
AcDbEntity
  8
_0-1_PRO0
  6
CONTINUOUS
 62
     0
100
AcDbLine
 10
1013.953957
 20
621.4556020227
 11
1014.567478
 21
622.0691220227
  0
LINE
  5
2D1
100
AcDbEntity
  8
_0-1_PRO0
  6
CONTINUOUS
 62
     0
100
AcDbLine
 10
1006.195253
 20
623.5850790227
 11
1004.558187
 21
621.9480130227
  0
LINE
  5
2D2
100
AcDbEntity
  8
_0-1_PRO0
  6
CONTINUOUS
 62
     0
100
AcDbLine
 10
1004.840714
 20
623.6560670227
 11
1004.625651
 21
623.4410050227
  0
ARC
  5
2D3
100
AcDbEntity
  8
_0-1_PRO0
  6
CONTINUOUS
 62
     0
100
AcDbCircle
 10
1040.768804
 20
536.6186770227
 40
3
100
AcDbArc
 50
-90
 51
0
  0
LINE
  5
2D4
100
AcDbEntity
  8
_0-1_PRO0
  6
CONTINUOUS
 62
     0
100
AcDbLine
 10
1040.768804
 20
533.6186770227
 11
1033.768804
 21
533.6186770227
  0
ARC
  5
2D5
100
AcDbEntity
  8
_0-1_PRO0
  6
CONTINUOUS
 62
     0
100
AcDbCircle
 10
1040.768804
 20
620.7717830227
 40
3
100
AcDbArc
 50
0
 51
87
  0
LINE
  5
2D6
100
AcDbEntity
  8
_0-1_PRO0
  6
CONTINUOUS
 62
     0
100
AcDbLine
 10
1043.768804
 20
620.7717830227
 11
1043.768804
 21
536.6186770227
  0
LINE
  5
2D7
100
AcDbEntity
  8
_0-1_PRO0
  6
CONTINUOUS
 62
     0
100
AcDbLine
 10
1027.990849
 20
616.6378950227
 11
1041.768804
 21
539.4813470227
  0
LINE
  5
2D8
100
AcDbEntity
  8
_0-1_PRO0
  6
CONTINUOUS
 62
     0
100
AcDbLine
 10
1023.560925
 20
615.8468370227
 11
1037.337611
 21
538.6973990227
  0
ARC
  5
2D9
100
AcDbEntity
  8
_0-1_PRO0
  6
CONTINUOUS
 62
     0
100
AcDbCircle
 10
1020.607643
 20
615.3194650227
 40
3
100
AcDbArc
 50
10.124672
 51
87
  0
LINE
  5
2DA
100
AcDbEntity
  8
_0-1_PRO0
  6
CONTINUOUS
 62
     0
100
AcDbLine
 10
1036.851506
 20
546.4186770227
 11
1027.60133
 21
546.4186770227
  0
ARC
  5
2DB
100
AcDbEntity
  8
_0-1_PRO0
  6
CONTINUOUS
 62
     0
100
AcDbCircle
 10
1036.851506
 20
545.9186770227
 40
0.5
100
AcDbArc
 50
12
 51
90
  0
LINE
  5
2DC
100
AcDbEntity
  8
_0-1_PRO0
  6
CONTINUOUS
 62
     0
100
AcDbLine
 10
1037.34058
 20
546.0226330227
 11
1038.768804
 21
539.3033640227
  0
LINE
  5
2DD
100
AcDbEntity
  8
_0-1_PRO0
  6
CONTINUOUS
 62
     0
100
AcDbLine
 10
1038.768804
 20
539.3033640227
 11
1038.768804
 21
535.6186770227
  0
LINE
  5
2DE
100
AcDbEntity
  8
_0-1_PRO0
  6
CONTINUOUS
 62
     0
100
AcDbLine
 10
1039.268804
 20
535.6186770227
 11
1038.768804
 21
535.6186770227
  0
ARC
  5
2DF
100
AcDbEntity
  8
_0-1_PRO0
  6
CONTINUOUS
 62
     0
100
AcDbCircle
 10
1039.268804
 20
538.1186770227
 40
2.5
100
AcDbArc
 50
-90
 51
0
  0
LINE
  5
2E0
100
AcDbEntity
  8
_0-1_PRO0
  6
CONTINUOUS
 62
     0
100
AcDbLine
 10
1027.60133
 20
547.6186770227
 11
1030.00133
 21
547.6186770227
  0
LINE
  5
2E1
100
AcDbEntity
  8
_0-1_PRO0
  6
CONTINUOUS
 62
     0
100
AcDbLine
 10
1032.00133
 20
548.6186770227
 11
1032.00133
 21
547.6186770227
  0
LINE
  5
2E2
100
AcDbEntity
  8
_0-1_PRO0
  6
CONTINUOUS
 62
     0
100
AcDbLine
 10
1030.00133
 20
547.6186770227
 11
1032.00133
 21
548.6186770227
  0
ARC
  5
2E3
100
AcDbEntity
  8
_0-1_PRO0
  6
CONTINUOUS
 62
     0
100
AcDbCircle
 10
1027.60133
 20
547.0186770227
 40
0.6
100
AcDbArc
 50
90
 51
270
  0
LINE
  5
2E4
100
AcDbEntity
  8
_0-1_PRO0
  6
CONTINUOUS
 62
     0
100
AcDbLine
 10
1036.383881
 20
547.6186770227
 11
1032.00133
 21
547.6186770227
  0
ARC
  5
2E5
100
AcDbEntity
  8
_0-1_PRO0
  6
CONTINUOUS
 62
     0
100
AcDbCircle
 10
1036.383881
 20
548.1186770227
 40
0.5
100
AcDbArc
 50
-90
 51
12
  0
ARC
  5
2E6
100
AcDbEntity
  8
_0-1_PRO0
  6
CONTINUOUS
 62
     0
100
AcDbCircle
 10
1015.170256
 20
595.3561770227
 40
0.5
100
AcDbArc
 50
86.99999999999
 51
177
  0
LINE
  5
2E7
100
AcDbEntity
  8
_0-1_PRO0
  6
CONTINUOUS
 62
     0
100
AcDbLine
 10
1014.670941
 20
595.3823450227
 11
1014.618605
 21
594.3837150227
  0
LINE
  5
2E8
100
AcDbEntity
  8
_0-1_PRO0
  6
CONTINUOUS
 62
     0
100
AcDbLine
 10
1014.093123
 20
593.9105690227
 11
1013.593808
 21
593.9367370227
  0
ARC
  5
2E9
100
AcDbEntity
  8
_0-1_PRO0
  6
CONTINUOUS
 62
     0
100
AcDbCircle
 10
1013.619976
 20
594.4360510227
 40
0.5
100
AcDbArc
 50
177
 51
267
  0
ARC
  5
2EA
100
AcDbEntity
  8
_0-1_PRO0
  6
CONTINUOUS
 62
     0
100
AcDbCircle
 10
1014.119291
 20
594.4098830227
 40
0.5
100
AcDbArc
 50
-93.00000000001
 51
-3.000000000005
  0
LINE
  5
2EB
100
AcDbEntity
  8
_0-1_PRO0
  6
CONTINUOUS
 62
     0
100
AcDbLine
 10
1022.871503
 20
595.4532580227
 11
1015.196424
 21
595.8554920227
  0
ARC
  5
2EC
100
AcDbEntity
  8
_0-1_PRO0
  6
CONTINUOUS
 62
     0
100
AcDbCircle
 10
1022.845335
 20
594.9539430227
 40
0.5
100
AcDbArc
 50
-13
 51
86.99999999999
  0
LINE
  5
2ED
100
AcDbEntity
  8
_0-1_PRO0
  6
CONTINUOUS
 62
     0
100
AcDbLine
 10
1023.33252
 20
594.8414680227
 11
1022.749327
 21
592.3153830227
  0
LINE
  5
2EE
100
AcDbEntity
  8
_0-1_PRO0
  6
CONTINUOUS
 62
     0
100
AcDbLine
 10
1024.93479
 20
595.3451260227
 11
1026.112136
 21
595.2834240227
  0
ARC
  5
2EF
100
AcDbEntity
  8
_0-1_PRO0
  6
CONTINUOUS
 62
     0
100
AcDbCircle
 10
1024.919089
 20
595.0455370227
 40
0.3
100
AcDbArc
 50
86.99999999999
 51
167
  0
LINE
  5
2F0
100
AcDbEntity
  8
_0-1_PRO0
  6
CONTINUOUS
 62
     0
100
AcDbLine
 10
1024.626778
 20
595.1130220227
 11
1023.918571
 21
592.0454420227
  0
ARC
  5
2F1
100
AcDbEntity
  8
_0-1_PRO0
  6
CONTINUOUS
 62
     0
100
AcDbCircle
 10
1026.0598
 20
594.2847940227
 40
1
100
AcDbArc
 50
12
 51
86.99999999999
  0
ARC
  5
2F2
100
AcDbEntity
  8
_0-1_PRO0
  6
CONTINUOUS
 62
     0
100
AcDbCircle
 10
1023.333949
 20
592.1804130227
 40
0.6
100
AcDbArc
 50
167
 51
347
  0
LINE
  5
2F3
100
AcDbEntity
  8
_0-1_PRO0
  6
CONTINUOUS
 62
     0
100
AcDbLine
 10
1029.812854
 20
595.8670000227
 11
1041.768804
 21
539.6186770227
  0
LINE
  5
2F4
100
AcDbEntity
  8
_0-1_PRO0
  6
CONTINUOUS
 62
     0
100
AcDbLine
 10
1027.037948
 20
594.4927060227
 11
1036.872955
 21
548.2226330227
  0
LINE
  5
2F5
100
AcDbEntity
  8
_0-1_PRO0
  6
CONTINUOUS
 62
     0
100
AcDbLine
 10
1037.337611
 20
538.6973990227
 11
1041.768804
 21
539.4813470227
  0
LINE
  5
2F6
100
AcDbEntity
  8
_0-1_PRO0
  6
CONTINUOUS
 62
     0
100
AcDbLine
 10
1014.623776
 20
623.1433590227
 11
1014.533732
 21
621.4252170227
  0
LINE
  5
2F7
100
AcDbEntity
  8
_0-1_PRO0
  6
CONTINUOUS
 62
     0
100
AcDbLine
 10
1004.637481
 20
623.6667180227
 11
1004.547437
 21
621.9485760227
  0
ARC
  5
2F8
100
AcDbEntity
  8
_0-1_PRO0
  6
CONTINUOUS
 62
     0
100
AcDbCircle
 10
1013.986328
 20
601.4264580227
 40
0.5
100
AcDbArc
 50
86.99999999999
 51
177
  0
LINE
  5
2F9
100
AcDbEntity
  8
_0-1_PRO0
  6
CONTINUOUS
 62
     0
100
AcDbLine
 10
1015.353432
 20
598.8513800227
 11
1027.035419
 21
598.2391530227
  0
ARC
  5
2FA
100
AcDbEntity
  8
_0-1_PRO0
  6
CONTINUOUS
 62
     0
100
AcDbCircle
 10
1015.3796
 20
599.3506950227
 40
0.5
100
AcDbArc
 50
177
 51
267
  0
LINE
  5
2FB
100
AcDbEntity
  8
_0-1_PRO0
  6
CONTINUOUS
 62
     0
100
AcDbLine
 10
1014.880285
 20
599.3768630227
 11
1014.984957
 21
601.3741220227
  0
ARC
  5
2FC
100
AcDbEntity
  8
_0-1_PRO0
  6
CONTINUOUS
 62
     0
100
AcDbCircle
 10
1014.485642
 20
601.4002900227
 40
0.5
100
AcDbArc
 50
-3.000000000005
 51
86.99999999999
  0
LINE
  5
2FD
100
AcDbEntity
  8
_0-1_PRO0
  6
CONTINUOUS
 62
     0
100
AcDbLine
 10
1014.51181
 20
601.8996050227
 11
1014.012496
 21
601.9257730227
  0
LINE
  5
2FE
100
AcDbEntity
  8
_0-1_PRO0
  6
CONTINUOUS
 62
     0
100
AcDbLine
 10
1014.533732
 20
621.4252170227
 11
1013.068325
 21
593.4635900227
  0
ARC
  5
2FF
100
AcDbEntity
  8
_0-1_PRO0
  6
CONTINUOUS
 62
     0
100
AcDbCircle
 10
1026.878411
 20
595.2432650227
 40
3
100
AcDbArc
 50
12
 51
87
  0
ARC
  5
300
100
AcDbEntity
  8
_0-1_PRO0
  6
CONTINUOUS
 62
     0
100
AcDbCircle
 10
984.816727
 20
598.9496830227
 40
1.5
100
AcDbArc
 50
87
 51
267
  0
LINE
  5
301
100
AcDbEntity
  8
_0-1_PRO0
  6
CONTINUOUS
 62
     0
100
AcDbLine
 10
668.768804
 20
577.4881250227
 11
913.768804
 21
577.4881250227
  0
ARC
  5
302
100
AcDbEntity
  8
_0-1_PRO0
  6
CONTINUOUS
 62
     0
100
AcDbCircle
 10
867.268804
 20
537.9881250227
 40
1
100
AcDbArc
 50
-90
 51
0
  0
LINE
  5
303
100
AcDbEntity
  8
_0-1_PRO0
  6
CONTINUOUS
 62
     0
100
AcDbLine
 10
870.393834
 20
539.2261300227
 11
866.208401
 21
538.4881250227
  0
LINE
  5
304
100
AcDbEntity
  8
_0-1_PRO0
  6
CONTINUOUS
 62
     0
100
AcDbLine
 10
867.818804
 20
569.1881250227
 11
859.718804
 21
569.1881250227
  0
LINE
  5
305
100
AcDbEntity
  8
_0-1_PRO0
  6
CONTINUOUS
 62
     0
100
AcDbLine
 10
868.518804
 20
568.4881250227
 11
859.018804
 21
568.4881250227
  0
LINE
  5
306
100
AcDbEntity
  8
_0-1_PRO0
  6
CONTINUOUS
 62
     0
100
AcDbLine
 10
857.143775
 20
539.2261300227
 11
859.018804
 21
549.8599520227
  0
LINE
  5
307
100
AcDbEntity
  8
_0-1_PRO0
  6
CONTINUOUS
 62
     0
100
AcDbLine
 10
863.268804
 20
549.4881250227
 11
861.329208
 21
538.4881250227
  0
LINE
  5
308
100
AcDbEntity
  8
_0-1_PRO0
  6
CONTINUOUS
 62
     0
100
AcDbLine
 10
864.268804
 20
549.4881250227
 11
866.208401
 21
538.4881250227
  0
LINE
  5
309
100
AcDbEntity
  8
_0-1_PRO0
  6
CONTINUOUS
 62
     0
100
AcDbLine
 10
857.143775
 20
539.2261300227
 11
861.329208
 21
538.4881250227
  0
LINE
  5
30A
100
AcDbEntity
  8
_0-1_PRO0
  6
CONTINUOUS
 62
     0
100
AcDbLine
 10
859.268804
 20
537.9881250227
 11
859.268804
 21
538.8514300227
  0
ARC
  5
30B
100
AcDbEntity
  8
_0-1_PRO0
  6
CONTINUOUS
 62
     0
100
AcDbCircle
 10
860.268804
 20
537.9881250227
 40
1
100
AcDbArc
 50
180
 51
270
  0
LINE
  5
30C
100
AcDbEntity
  8
_0-1_PRO0
  6
CONTINUOUS
 62
     0
100
AcDbLine
 10
860.268804
 20
536.9881250227
 11
867.268804
 21
536.9881250227
  0
LINE
  5
30D
100
AcDbEntity
  8
_0-1_PRO0
  6
CONTINUOUS
 62
     0
100
AcDbLine
 10
859.018804
 20
549.8599520227
 11
859.018804
 21
568.4881250227
  0
LINE
  5
30E
100
AcDbEntity
  8
_0-1_PRO0
  6
CONTINUOUS
 62
     0
100
AcDbLine
 10
859.718804
 20
578.4881250227
 11
859.718804
 21
569.1881250227
  0
LINE
  5
30F
100
AcDbEntity
  8
_0-1_PRO0
  6
CONTINUOUS
 62
     0
100
AcDbLine
 10
859.018804
 20
568.4881250227
 11
859.718804
 21
569.1881250227
  0
LINE
  5
310
100
AcDbEntity
  8
_0-1_PRO0
  6
CONTINUOUS
 62
     0
100
AcDbLine
 10
864.268804
 20
549.4881250227
 11
863.268804
 21
549.4881250227
  0
LINE
  5
311
100
AcDbEntity
  8
_0-1_PRO0
  6
CONTINUOUS
 62
     0
100
AcDbLine
 10
870.393834
 20
539.2261300227
 11
868.518804
 21
549.8599520227
  0
LINE
  5
312
100
AcDbEntity
  8
_0-1_PRO0
  6
CONTINUOUS
 62
     0
100
AcDbLine
 10
868.268804
 20
537.9881250227
 11
868.268804
 21
538.8514300227
  0
LINE
  5
313
100
AcDbEntity
  8
_0-1_PRO0
  6
CONTINUOUS
 62
     0
100
AcDbLine
 10
868.518804
 20
549.8599520227
 11
868.518804
 21
568.4881250227
  0
LINE
  5
314
100
AcDbEntity
  8
_0-1_PRO0
  6
CONTINUOUS
 62
     0
100
AcDbLine
 10
867.818804
 20
578.4881250227
 11
867.818804
 21
569.1881250227
  0
LINE
  5
315
100
AcDbEntity
  8
_0-1_PRO0
  6
CONTINUOUS
 62
     0
100
AcDbLine
 10
868.518804
 20
568.4881250227
 11
867.818804
 21
569.1881250227
  0
LINE
  5
316
100
AcDbEntity
  8
_0-1_PRO0
  6
CONTINUOUS
 62
     0
100
AcDbLine
 10
863.768804
 20
529.0377240227
 11
863.768804
 21
509.7126570227
  0
LINE
  5
317
100
AcDbEntity
  8
_0-1_PRO0
  6
CONTINUOUS
 62
     0
100
AcDbLine
 10
863.768804
 20
515.7126570227
 11
913.768804
 21
515.7126570227
  0
LINE
  5
318
100
AcDbEntity
  8
_0-1_PRO0
  6
CONTINUOUS
 62
     0
100
AcDbLine
 10
913.768804
 20
520.0731560227
 11
913.768804
 21
509.7126570227
  0
LINE
  5
319
100
AcDbEntity
  8
_0-1_PRO0
  6
CONTINUOUS
 62
     0
100
AcDbLine
 10
863.768804
 20
515.7126570227
 11
869.768804
 21
514.2126570227
  0
LINE
  5
31A
100
AcDbEntity
  8
_0-1_PRO0
  6
CONTINUOUS
 62
     0
100
AcDbLine
 10
863.768804
 20
515.7126570227
 11
869.768804
 21
517.2126570227
  0
LINE
  5
31B
100
AcDbEntity
  8
_0-1_PRO0
  6
CONTINUOUS
 62
     0
100
AcDbLine
 10
913.768804
 20
515.7126570227
 11
907.768804
 21
517.2126570227
  0
LINE
  5
31C
100
AcDbEntity
  8
_0-1_PRO0
  6
CONTINUOUS
 62
     0
100
AcDbLine
 10
913.768804
 20
515.7126570227
 11
907.768804
 21
514.2126570227
  0
TEXT
  5
31D
100
AcDbEntity
  8
_0-1_PRO0
  6
CONTINUOUS
 62
     0
100
AcDbText
 10
883.207224
 20
518.7126280227
 40
9
  1
５０
 41
0.7377777777778
  7
STANDARD
100
AcDbText
  0
LINE
  5
31E
100
AcDbEntity
  8
_1-0_
  6
CONTINUOUS
 62
     0
100
AcDbLine
 10
860.5987428635
 20
593.2452413454
 11
861.0718893635
 21
592.7197583454
  0
LINE
  5
31F
100
AcDbEntity
  8
_1-0_
  6
CONTINUOUS
 62
     0
100
AcDbLine
 10
861.0718893635
 20
592.7197583454
 11
866.0650368635
 21
592.4580788454
  0
LINE
  5
320
100
AcDbEntity
  8
_1-0_
  6
CONTINUOUS
 62
     0
100
AcDbLine
 10
866.0650368635
 20
592.4580788454
 11
866.5905198635
 21
592.9312253454
  0
LINE
  5
321
100
AcDbEntity
  8
_1-0_
  6
CONTINUOUS
 62
     0
100
AcDbLine
 10
860.5987428635
 20
593.2452413454
 11
866.5905198635
 21
592.9312253454
  0
ARC
  5
322
100
AcDbEntity
  8
_1-0_
  6
CONTINUOUS
 62
     0
100
AcDbCircle
 10
865.0597163167
 20
621.043714326
 40
6.3
100
AcDbArc
 50
37.903458
 51
136.096542
  0
LINE
  5
323
100
AcDbEntity
  8
_1-0_
  6
CONTINUOUS
 62
     0
100
AcDbLine
 10
865.4447198167
 20
628.390009326
 11
863.321939
 21
587.8849410227
  0
LINE
  5
324
100
AcDbEntity
  8
_1-0_
  6
CONTINUOUS
 62
     0
100
AcDbLine
 10
888.7193483167
 20
608.384158326
 11
876.6224603167
 21
621.939794826
  0
LINE
  5
325
100
AcDbEntity
  8
_1-0_
  6
CONTINUOUS
 62
     0
100
AcDbLine
 10
892.7777423167
 20
610.176385326
 11
892.1671973167
 21
610.693333326
  0
LINE
  5
326
100
AcDbEntity
  8
_1-0_
  6
CONTINUOUS
 62
     0
100
AcDbLine
 10
892.1671973167
 20
610.693333326
 11
890.2286393167
 21
608.403793326
  0
LINE
  5
327
100
AcDbEntity
  8
_1-0_
  6
CONTINUOUS
 62
     0
100
AcDbLine
 10
853.6539803167
 20
623.143522326
 11
876.6224603167
 21
621.939794826
  0
LINE
  5
328
100
AcDbEntity
  8
_1-0_
  6
CONTINUOUS
 62
     0
100
AcDbLine
 10
840.2064098167
 20
610.926614826
 11
853.6539803167
 21
623.143522326
  0
LINE
  5
329
100
AcDbEntity
  8
_1-0_
  6
CONTINUOUS
 62
     0
100
AcDbLine
 10
859.9642673167
 20
624.130201326
 11
859.8954158167
 21
622.816423326
  0
LINE
  5
32A
100
AcDbEntity
  8
_1-0_
  6
CONTINUOUS
 62
     0
100
AcDbLine
 10
870.4498778167
 20
623.580673326
 11
870.3810248167
 21
622.266895326
  0
ARC
  5
32B
100
AcDbEntity
  8
_1-0_
  6
CONTINUOUS
 62
     0
100
AcDbCircle
 10
861.9615263167
 20
624.025529826
 40
1.9999995
100
AcDbArc
 50
136.096542
 51
177
  0
LINE
  5
32C
100
AcDbEntity
  8
_1-0_
  6
CONTINUOUS
 62
     0
100
AcDbLine
 10
840.7443518167
 20
610.334483826
 11
853.9451108167
 21
622.327166826
  0
LINE
  5
32D
100
AcDbEntity
  8
_1-0_
  6
CONTINUOUS
 62
     0
100
AcDbLine
 10
853.9451108167
 20
622.327166826
 11
876.2884373167
 21
621.156203826
  0
ARC
  5
32E
100
AcDbEntity
  8
_1-0_
  6
CONTINUOUS
 62
     0
100
AcDbCircle
 10
868.4526188167
 20
623.685346326
 40
1.9999995
100
AcDbArc
 50
-2.999999999999
 51
37.903458
  0
LINE
  5
32F
100
AcDbEntity
  8
_1-0_
  6
CONTINUOUS
 62
     0
100
AcDbLine
 10
837.0188228167
 20
613.583537826
 11
838.7074388167
 21
611.103905826
  0
LINE
  5
330
100
AcDbEntity
  8
_1-0_
  6
CONTINUOUS
 62
     0
100
AcDbLine
 10
836.3575883167
 20
613.133239326
 11
837.0188228167
 21
613.583537826
  0
LINE
  5
331
100
AcDbEntity
  8
_1-0_
  6
CONTINUOUS
 62
     0
100
AcDbLine
 10
836.3575883167
 20
613.133239326
 11
838.0462043167
 21
610.653607326
  0
LINE
  5
332
100
AcDbEntity
  8
_1-0_
  6
CONTINUOUS
 62
     0
100
AcDbLine
 10
892.7777423167
 20
610.176385326
 11
890.8391843167
 21
607.886845326
  0
ARC
  5
333
100
AcDbEntity
  8
_1-0_
  6
CONTINUOUS
 62
     0
100
AcDbCircle
 10
889.4654603167
 20
609.049979826
 40
1.0000005
100
AcDbArc
 50
-138.254652
 51
-40.254658
  0
LINE
  5
334
100
AcDbEntity
  8
_1-0_
  6
CONTINUOUS
 62
     0
100
AcDbLine
 10
888.1224593167
 20
607.851502326
 11
876.2475923167
 21
621.158344326
  0
ARC
  5
335
100
AcDbEntity
  8
_1-0_
  6
CONTINUOUS
 62
     0
100
AcDbCircle
 10
889.4654603167
 20
609.049979826
 40
1.8
100
AcDbArc
 50
-138.254651
 51
-40.254658
  0
ARC
  5
336
100
AcDbEntity
  8
_1-0_
  6
CONTINUOUS
 62
     0
100
AcDbCircle
 10
839.5339838167
 20
611.666777826
 40
1.0000005
100
AcDbArc
 50
-145.745342
 51
-47.745348
  0
ARC
  5
337
100
AcDbEntity
  8
_1-0_
  6
CONTINUOUS
 62
     0
100
AcDbCircle
 10
839.5339838167
 20
611.666777826
 40
1.8
100
AcDbArc
 50
-145.745342
 51
-47.745349
  0
LINE
  5
338
100
AcDbEntity
  8
_1-0_
  6
CONTINUOUS
 62
     0
100
AcDbLine
 10
867.6347948167
 20
622.410818826
 11
866.5202396273
 21
601.1438498227
  0
LINE
  5
339
100
AcDbEntity
  8
_1-0_
  6
CONTINUOUS
 62
     0
100
AcDbLine
 10
868.1341088167
 20
622.384651326
 11
867.0195536044
 21
601.1176818857
  0
LINE
  5
33A
100
AcDbEntity
  8
_1-0_
  6
CONTINUOUS
 62
     0
100
AcDbLine
 10
862.6416458167
 20
622.672498326
 11
861.5270919395
 21
601.4055296076
  0
LINE
  5
33B
100
AcDbEntity
  8
_1-0_
  6
CONTINUOUS
 62
     0
100
AcDbLine
 10
862.1423318167
 20
622.698667326
 11
861.0277766581
 21
601.4316976129
  0
LINE
  5
33C
100
AcDbEntity
  8
_0-0_
  6
CONTINUOUS
 62
     0
100
AcDbLine
 10
642.0650953145
 20
477.8285274578
 11
668.768804
 21
577.4881250227
  0
LINE
  5
33D
100
AcDbEntity
  8
_0-0_
  6
CONTINUOUS
 62
     0
100
AcDbLine
 10
641.0991694882
 20
478.0873465029
 11
668.0015378831
 21
578.4883521965
  0
ARC
  5
33E
100
AcDbEntity
  8
_0-0_
  6
CONTINUOUS
 62
     0
100
AcDbCircle
 10
1040.768804
 20
536.6186770227
 40
1.5
100
AcDbArc
 50
-90
 51
0
  0
LINE
  5
33F
100
AcDbEntity
  8
_0-0_
  6
CONTINUOUS
 62
     0
100
AcDbLine
 10
1042.268804
 20
620.7717830227
 11
1042.268804
 21
536.6186770227
  0
ARC
  5
340
100
AcDbEntity
  8
_0-0_
  6
CONTINUOUS
 62
     0
100
AcDbCircle
 10
1040.768804
 20
620.7717830227
 40
1.5
100
AcDbArc
 50
0
 51
87
  0
LINE
  5
341
100
AcDbEntity
  8
_0-0_
  6
CONTINUOUS
 62
     0
100
AcDbLine
 10
1040.847308065
 20
622.2697277206
 11
593.768804
 21
645.7001195037
  0
LINE
  5
342
100
AcDbEntity
  8
_0-0_
  6
CONTINUOUS
 62
     0
100
AcDbLine
 10
1040.768804
 20
535.1186770227
 11
1033.768804
 21
535.1186770227
  0
LINE
  5
343
100
AcDbEntity
  8
_0-1_PRO0
  6
CONTINUOUS
 62
     0
100
AcDbLine
 10
1033.768804
 20
535.1186770227
 11
1033.768804
 21
533.6186770227
  0
LINE
  5
344
100
AcDbEntity
  8
_0-1_PRO0
  6
CONTINUOUS
 62
     0
100
AcDbLine
 10
1041.768804
 20
539.6186770227
 11
1041.768804
 21
538.1186770227
  0
LINE
  5
345
100
AcDbEntity
  8
_0-1_PRO0
  6
CONTINUOUS
 62
     0
100
AcDbLine
 10
1020.798335803
 20
622.8197639291
 11
593.9781478031
 21
645.1884619291
  0
ARC
  5
346
100
AcDbEntity
  8
_0-0_
  6
CONTINUOUS
 62
     0
100
AcDbCircle
 10
593.768804
 20
490.7694797129
 40
49
100
AcDbArc
 50
-90
 51
-15
  0
ARC
  5
347
100
AcDbEntity
  8
_0-0_
  6
CONTINUOUS
 62
     0
100
AcDbCircle
 10
593.768804
 20
490.7694797129
 40
50
100
AcDbArc
 50
-90
 51
-15
  0
LINE
  5
348
100
AcDbEntity
  8
_0-1_PRO0
  6
CONTINUOUS
 62
     0
100
AcDbLine
 10
668.768804
 20
419.5487363963
 11
668.768804
 21
577.4881250227
  0
LINE
  5
349
100
AcDbEntity
  8
_0-1_PRO0
  6
CONTINUOUS
 62
     0
100
AcDbLine
 10
913.768804
 20
419.5487363963
 11
913.768804
 21
577.4881250227
  0
LINE
  5
34A
100
AcDbEntity
  8
_0-1_PRO0
  6
CONTINUOUS
 62
     0
100
AcDbLine
 10
668.768804
 20
399.5528963963
 11
913.768804
 21
399.5528963963
  0
LINE
  5
34B
100
AcDbEntity
  8
_0-1_PRO0
  6
CONTINUOUS
 62
     0
100
AcDbLine
 10
913.768804
 20
418.0487363963
 11
913.768804
 21
393.5528963963
  0
LINE
  5
34C
100
AcDbEntity
  8
_0-1_PRO0
  6
CONTINUOUS
 62
     0
100
AcDbLine
 10
913.768804
 20
399.5528963963
 11
907.768804
 21
398.0528963963
  0
LINE
  5
34D
100
AcDbEntity
  8
_0-1_PRO0
  6
CONTINUOUS
 62
     0
100
AcDbLine
 10
913.768804
 20
399.5528963963
 11
907.768804
 21
401.0528963963
  0
LINE
  5
34E
100
AcDbEntity
  8
_0-1_PRO0
  6
CONTINUOUS
 62
     0
100
AcDbLine
 10
913.768804
 20
399.5528963963
 11
1043.768804
 21
399.5528963963
  0
LINE
  5
34F
100
AcDbEntity
  8
_0-1_PRO0
  6
CONTINUOUS
 62
     0
100
AcDbLine
 10
913.768804
 20
399.5528963963
 11
919.768804
 21
401.0528963963
  0
LINE
  5
350
100
AcDbEntity
  8
_0-1_PRO0
  6
CONTINUOUS
 62
     0
100
AcDbLine
 10
913.768804
 20
399.5528963963
 11
919.768804
 21
398.0528963963
  0
CIRCLE
  5
351
100
AcDbEntity
  8
_0-0_
  6
CONTINUOUS
 62
     0
100
AcDbCircle
 10
848.6011788293
 20
528.8167252266
 40
6
  0
LINE
  5
352
100
AcDbEntity
  8
_0-0_
  6
CONTINUOUS
 62
     0
100
AcDbLine
 10
861.642793024
 20
551.4054636246
 11
851.6011788293
 21
534.0128776493
  0
CIRCLE
  5
353
100
AcDbEntity
  8
_0-0_
  6
CONTINUOUS
 62
     0
100
AcDbCircle
 10
861.642793024
 20
551.4054636246
 40
0.9
  0
CIRCLE
  5
354
100
AcDbEntity
  8
_0-0_
  6
CONTINUOUS
 62
     0
100
AcDbCircle
 10
887.5286004936
 20
550.9481383943
 40
6
  0
LINE
  5
355
100
AcDbEntity
  8
_0-0_
  6
CONTINUOUS
 62
     0
100
AcDbLine
 10
868.1062148287
 20
584.58869717
 11
884.5286004936
 21
556.144290817
  0
LINE
  5
356
100
AcDbEntity
  8
_0-0_
  6
CONTINUOUS
 62
     0
100
AcDbLine
 10
856.647052247
 20
581.7242819553
 11
846.9497986151
 21
564.928145971
  0
CIRCLE
  5
357
100
AcDbEntity
  8
_0-0_
  6
CONTINUOUS
 62
     0
100
AcDbCircle
 10
843.9497986151
 20
559.7319935483
 40
6
  0
CIRCLE
  5
358
100
AcDbEntity
  8
_0-0_
  6
CONTINUOUS
 62
     0
100
AcDbCircle
 10
888.7279728599
 20
566.3741085326
 40
6
  0
LINE
  5
359
100
AcDbEntity
  8
_0-0_
  6
CONTINUOUS
 62
     0
100
AcDbLine
 10
873.9462867281
 20
591.9767399344
 11
885.7279728599
 21
571.5702609553
  0
LINE
  5
35A
100
AcDbEntity
  8
_0-0_
  6
CONTINUOUS
 62
     0
100
AcDbLine
 10
881.3726330284
 20
614.6735473534
 11
899.6597228008
 21
646.3477159618
  0
CIRCLE
  5
35B
100
AcDbEntity
  8
_0-0_
  6
CONTINUOUS
 62
     0
100
AcDbCircle
 10
902.6597228008
 20
651.5438683845
 40
6
  0
CIRCLE
  5
35C
100
AcDbEntity
  8
_0-0_
  6
CONTINUOUS
 62
     0
100
AcDbCircle
 10
886.6487815765
 20
648.0221751623
 40
6
  0
LINE
  5
35D
100
AcDbEntity
  8
_0-0_
  6
CONTINUOUS
 62
     0
100
AcDbLine
 10
865.8232490374
 20
611.95129471
 11
883.6487815765
 21
642.8260227396
  0
CIRCLE
  5
35E
100
AcDbEntity
  8
_0-0_
  6
CONTINUOUS
 62
     0
100
AcDbCircle
 10
865.8232490374
 20
611.95129471
 40
0.9
  0
LINE
  5
35F
100
AcDbEntity
  8
_0-0_
  6
CONTINUOUS
 62
     0
100
AcDbLine
 10
913.7421447388
 20
610.0863191228
 11
927.6674598504
 21
634.2056724076
  0
CIRCLE
  5
360
100
AcDbEntity
  8
_0-0_
  6
CONTINUOUS
 62
     0
100
AcDbCircle
 10
913.7421447388
 20
610.0863191228
 40
0.9
  0
CIRCLE
  5
361
100
AcDbEntity
  8
_0-0_
  6
CONTINUOUS
 62
     0
100
AcDbCircle
 10
930.6674598504
 20
639.4018248303
 40
6
  0
CIRCLE
  5
362
100
AcDbEntity
  8
_0-0_
  6
CONTINUOUS
 62
     0
100
AcDbCircle
 10
1026.848620116
 20
624.970138197
 40
0.9
  0
CIRCLE
  5
363
100
AcDbEntity
  8
_0-0_
  6
CONTINUOUS
 62
     0
100
AcDbCircle
 10
1027.061974326
 20
606.8312232685
 40
0.9
  0
LINE
  5
364
100
AcDbEntity
  8
_0-0_
  6
CONTINUOUS
 62
     0
100
AcDbLine
 10
1026.848620116
 20
624.970138197
 11
1051.98510126
 21
668.5078006609
  0
CIRCLE
  5
365
100
AcDbEntity
  8
_0-0_
  6
CONTINUOUS
 62
     0
100
AcDbCircle
 10
1053.69845547
 20
652.9669619437
 40
6
  0
LINE
  5
366
100
AcDbEntity
  8
_0-0_
  6
CONTINUOUS
 62
     0
100
AcDbLine
 10
1027.061974326
 20
606.8312232685
 11
1050.69845547
 21
647.770809521
  0
CIRCLE
  5
367
100
AcDbEntity
  8
_0-0_
  6
CONTINUOUS
 62
     0
100
AcDbCircle
 10
1054.98510126
 20
673.7039530836
 40
6
  0
TEXT
  5
368
100
AcDbEntity
  8
_0-0_
  6
CONTINUOUS
 62
     0
100
AcDbText
 10
1049.852456132
 20
668.5641462283
 40
9
  1
１
  7
STANDARD
100
AcDbText
  0
LINE
  5
369
100
AcDbEntity
  8
_0-1_PRO0
  6
CONTINUOUS
 62
     0
100
AcDbLine
 10
919.6019453403
 20
577.4881250227
 11
1077.155848
 21
577.4881250227
  0
LINE
  5
36A
100
AcDbEntity
  8
_0-0_
  6
CONTINUOUS
 62
     0
100
AcDbLine
 10
338.7511307144
 20
578.0621474944
 11
338.3251531861
 21
578.4881250227
  0
LINE
  5
36B
100
AcDbEntity
  8
_0-0_
  6
CONTINUOUS
 62
     0
100
AcDbLine
 10
337.9109396237
 20
577.4881250227
 11
336.9109396237
 21
578.4881250227
  0
LINE
  5
36C
100
AcDbEntity
  8
_0-0_
  6
CONTINUOUS
 62
     0
100
AcDbLine
 10
336.4967260614
 20
577.4881250227
 11
335.4967260614
 21
578.4881250227
  0
LINE
  5
36D
100
AcDbEntity
  8
_0-0_
  6
CONTINUOUS
 62
     0
100
AcDbLine
 10
335.082512499
 20
577.4881250227
 11
334.082512499
 21
578.4881250227
  0
LINE
  5
36E
100
AcDbEntity
  8
_0-0_
  6
CONTINUOUS
 62
     0
100
AcDbLine
 10
333.6682989366
 20
577.4881250227
 11
332.6682989366
 21
578.4881250227
  0
LINE
  5
36F
100
AcDbEntity
  8
_0-0_
  6
CONTINUOUS
 62
     0
100
AcDbLine
 10
332.2540853742
 20
577.4881250227
 11
331.2540853742
 21
578.4881250227
  0
LINE
  5
370
100
AcDbEntity
  8
_0-0_
  6
CONTINUOUS
 62
     0
100
AcDbLine
 10
330.8398718119
 20
577.4881250227
 11
329.8398718119
 21
578.4881250227
  0
LINE
  5
371
100
AcDbEntity
  8
_0-0_
  6
CONTINUOUS
 62
     0
100
AcDbLine
 10
329.4256582495
 20
577.4881250227
 11
328.4256582495
 21
578.4881250227
  0
LINE
  5
372
100
AcDbEntity
  8
_0-0_
  6
CONTINUOUS
 62
     0
100
AcDbLine
 10
328.0114446871
 20
577.4881250227
 11
327.0114446871
 21
578.4881250227
  0
LINE
  5
373
100
AcDbEntity
  8
_0-0_
  6
CONTINUOUS
 62
     0
100
AcDbLine
 10
326.5972311247
 20
577.4881250227
 11
325.5972311247
 21
578.4881250227
  0
LINE
  5
374
100
AcDbEntity
  8
_0-0_
  6
CONTINUOUS
 62
     0
100
AcDbLine
 10
325.1830175624
 20
577.4881250227
 11
324.1830175624
 21
578.4881250227
  0
LINE
  5
375
100
AcDbEntity
  8
_0-0_
  6
CONTINUOUS
 62
     0
100
AcDbLine
 10
323.768804
 20
577.4881250227
 11
322.768804
 21
578.4881250227
  0
LINE
  5
376
100
AcDbEntity
  8
_0-0_
  6
CONTINUOUS
 62
     0
100
AcDbLine
 10
322.3545904376
 20
577.4881250227
 11
321.3545904376
 21
578.4881250227
  0
LINE
  5
377
100
AcDbEntity
  8
_0-0_
  6
CONTINUOUS
 62
     0
100
AcDbLine
 10
320.9403768753
 20
577.4881250227
 11
319.9403768753
 21
578.4881250227
  0
LINE
  5
378
100
AcDbEntity
  8
_0-0_
  6
CONTINUOUS
 62
     0
100
AcDbLine
 10
319.5261633129
 20
577.4881250227
 11
318.5261633129
 21
578.4881250227
  0
LINE
  5
379
100
AcDbEntity
  8
_0-0_
  6
CONTINUOUS
 62
     0
100
AcDbLine
 10
318.1119497505
 20
577.4881250227
 11
317.1119497505
 21
578.4881250227
  0
LINE
  5
37A
100
AcDbEntity
  8
_0-0_
  6
CONTINUOUS
 62
     0
100
AcDbLine
 10
316.6977361881
 20
577.4881250227
 11
315.6977361881
 21
578.4881250227
  0
LINE
  5
37B
100
AcDbEntity
  8
_0-0_
  6
CONTINUOUS
 62
     0
100
AcDbLine
 10
308.7511307144
 20
577.4881250227
 11
338.7511307144
 21
577.4881250227
  0
LINE
  5
37C
100
AcDbEntity
  8
_0-0_
  6
CONTINUOUS
 62
     0
100
AcDbLine
 10
338.7511307144
 20
577.4881250227
 11
338.7511307144
 21
578.4881250227
  0
LINE
  5
37D
100
AcDbEntity
  8
_0-0_
  6
CONTINUOUS
 62
     0
100
AcDbLine
 10
338.7511307144
 20
578.4881250227
 11
308.7511307144
 21
578.4881250227
  0
ARC
  5
37E
100
AcDbEntity
  8
_0-0_
  6
CONTINUOUS
 62
     0
100
AcDbCircle
 10
338.7511307144
 20
570.2381250227
 40
8.25
100
AcDbArc
 50
71.07535558395
 51
90
  0
ARC
  5
37F
100
AcDbEntity
  8
_0-0_
  6
CONTINUOUS
 62
     0
100
AcDbCircle
 10
344.7511307144
 20
587.7381250227
 40
10.25
100
AcDbArc
 50
-108.9246444161
 51
-90
  0
LINE
  5
380
100
AcDbEntity
  8
_0-0_
  6
CONTINUOUS
 62
     0
100
AcDbLine
 10
338.7511307144
 20
579.4881250227
 11
308.7511307144
 21
579.4881250227
  0
ARC
  5
381
100
AcDbEntity
  8
_0-0_
  6
CONTINUOUS
 62
     0
100
AcDbCircle
 10
338.7511307144
 20
570.2381250227
 40
9.25
100
AcDbArc
 50
71.07535558395
 51
90
  0
ARC
  5
382
100
AcDbEntity
  8
_0-0_
  6
CONTINUOUS
 62
     0
100
AcDbCircle
 10
344.7511307144
 20
587.7381250227
 40
9.25
100
AcDbArc
 50
-108.9246444161
 51
-90
  0
LINE
  5
383
100
AcDbEntity
  8
_0-0_
  6
CONTINUOUS
 62
     0
100
AcDbLine
 10
878.7511307144
 20
578.0621474944
 11
878.3251531861
 21
578.4881250227
  0
LINE
  5
384
100
AcDbEntity
  8
_0-0_
  6
CONTINUOUS
 62
     0
100
AcDbLine
 10
877.9109396237
 20
577.4881250227
 11
876.9109396237
 21
578.4881250227
  0
LINE
  5
385
100
AcDbEntity
  8
_0-0_
  6
CONTINUOUS
 62
     0
100
AcDbLine
 10
876.4967260614
 20
577.4881250227
 11
875.4967260614
 21
578.4881250227
  0
LINE
  5
386
100
AcDbEntity
  8
_0-0_
  6
CONTINUOUS
 62
     0
100
AcDbLine
 10
875.082512499
 20
577.4881250227
 11
874.082512499
 21
578.4881250227
  0
LINE
  5
387
100
AcDbEntity
  8
_0-0_
  6
CONTINUOUS
 62
     0
100
AcDbLine
 10
873.6682989366
 20
577.4881250227
 11
872.6682989366
 21
578.4881250227
  0
LINE
  5
388
100
AcDbEntity
  8
_0-0_
  6
CONTINUOUS
 62
     0
100
AcDbLine
 10
872.2540853742
 20
577.4881250227
 11
871.2540853742
 21
578.4881250227
  0
LINE
  5
389
100
AcDbEntity
  8
_0-0_
  6
CONTINUOUS
 62
     0
100
AcDbLine
 10
870.8398718119
 20
577.4881250227
 11
869.8398718119
 21
578.4881250227
  0
LINE
  5
38A
100
AcDbEntity
  8
_0-0_
  6
CONTINUOUS
 62
     0
100
AcDbLine
 10
869.4256582495
 20
577.4881250227
 11
868.4256582495
 21
578.4881250227
  0
LINE
  5
38B
100
AcDbEntity
  8
_0-0_
  6
CONTINUOUS
 62
     0
100
AcDbLine
 10
868.0114446871
 20
577.4881250227
 11
867.0114446871
 21
578.4881250227
  0
LINE
  5
38C
100
AcDbEntity
  8
_0-0_
  6
CONTINUOUS
 62
     0
100
AcDbLine
 10
866.5972311247
 20
577.4881250227
 11
865.5972311247
 21
578.4881250227
  0
LINE
  5
38D
100
AcDbEntity
  8
_0-0_
  6
CONTINUOUS
 62
     0
100
AcDbLine
 10
865.1830175624
 20
577.4881250227
 11
864.1830175624
 21
578.4881250227
  0
LINE
  5
38E
100
AcDbEntity
  8
_0-0_
  6
CONTINUOUS
 62
     0
100
AcDbLine
 10
863.768804
 20
577.4881250227
 11
862.768804
 21
578.4881250227
  0
LINE
  5
38F
100
AcDbEntity
  8
_0-0_
  6
CONTINUOUS
 62
     0
100
AcDbLine
 10
862.3545904376
 20
577.4881250227
 11
861.3545904376
 21
578.4881250227
  0
LINE
  5
390
100
AcDbEntity
  8
_0-0_
  6
CONTINUOUS
 62
     0
100
AcDbLine
 10
860.9403768753
 20
577.4881250227
 11
859.9403768753
 21
578.4881250227
  0
LINE
  5
391
100
AcDbEntity
  8
_0-0_
  6
CONTINUOUS
 62
     0
100
AcDbLine
 10
859.5261633129
 20
577.4881250227
 11
858.5261633129
 21
578.4881250227
  0
LINE
  5
392
100
AcDbEntity
  8
_0-0_
  6
CONTINUOUS
 62
     0
100
AcDbLine
 10
858.1119497505
 20
577.4881250227
 11
857.1119497505
 21
578.4881250227
  0
LINE
  5
393
100
AcDbEntity
  8
_0-0_
  6
CONTINUOUS
 62
     0
100
AcDbLine
 10
856.6977361881
 20
577.4881250227
 11
855.6977361881
 21
578.4881250227
  0
LINE
  5
394
100
AcDbEntity
  8
_0-0_
  6
CONTINUOUS
 62
     0
100
AcDbLine
 10
855.2835226258
 20
577.4881250227
 11
854.2835226258
 21
578.4881250227
  0
LINE
  5
395
100
AcDbEntity
  8
_0-0_
  6
CONTINUOUS
 62
     0
100
AcDbLine
 10
853.8693090634
 20
577.4881250227
 11
852.8693090634
 21
578.4881250227
  0
LINE
  5
396
100
AcDbEntity
  8
_0-0_
  6
CONTINUOUS
 62
     0
100
AcDbLine
 10
852.455095501
 20
577.4881250227
 11
851.455095501
 21
578.4881250227
  0
LINE
  5
397
100
AcDbEntity
  8
_0-0_
  6
CONTINUOUS
 62
     0
100
AcDbLine
 10
851.0408819386
 20
577.4881250227
 11
850.0408819386
 21
578.4881250227
  0
LINE
  5
398
100
AcDbEntity
  8
_0-0_
  6
CONTINUOUS
 62
     0
100
AcDbLine
 10
849.6266683763
 20
577.4881250227
 11
848.7511307144
 21
578.3636626846
  0
LINE
  5
399
100
AcDbEntity
  8
_0-0_
  6
CONTINUOUS
 62
     0
100
AcDbLine
 10
848.7511307144
 20
577.4881250227
 11
878.7511307144
 21
577.4881250227
  0
LINE
  5
39A
100
AcDbEntity
  8
_0-0_
  6
CONTINUOUS
 62
     0
100
AcDbLine
 10
878.7511307144
 20
577.4881250227
 11
878.7511307144
 21
578.4881250227
  0
LINE
  5
39B
100
AcDbEntity
  8
_0-0_
  6
CONTINUOUS
 62
     0
100
AcDbLine
 10
878.7511307144
 20
578.4881250227
 11
848.7511307144
 21
578.4881250227
  0
LINE
  5
39C
100
AcDbEntity
  8
_0-0_
  6
CONTINUOUS
 62
     0
100
AcDbLine
 10
848.7511307144
 20
578.4881250227
 11
848.7511307144
 21
577.4881250227
  0
ARC
  5
39D
100
AcDbEntity
  8
_0-0_
  6
CONTINUOUS
 62
     0
100
AcDbCircle
 10
878.7511307144
 20
570.2381250227
 40
8.25
100
AcDbArc
 50
71.07535558395
 51
90
  0
ARC
  5
39E
100
AcDbEntity
  8
_0-0_
  6
CONTINUOUS
 62
     0
100
AcDbCircle
 10
884.7511307144
 20
587.7381250227
 40
10.25
100
AcDbArc
 50
-108.9246444161
 51
-90
  0
ARC
  5
39F
100
AcDbEntity
  8
_0-0_
  6
CONTINUOUS
 62
     0
100
AcDbCircle
 10
848.7511307144
 20
570.2381250227
 40
8.25
100
AcDbArc
 50
90
 51
108.9246444161
  0
ARC
  5
3A0
100
AcDbEntity
  8
_0-0_
  6
CONTINUOUS
 62
     0
100
AcDbCircle
 10
842.7511307144
 20
587.7381250227
 40
10.25
100
AcDbArc
 50
-90
 51
-71.07535558395
  0
ARC
  5
3A1
100
AcDbEntity
  8
_0-0_
  6
CONTINUOUS
 62
     0
100
AcDbCircle
 10
848.7511307144
 20
570.2381250227
 40
9.25
100
AcDbArc
 50
90
 51
108.9246444161
  0
LINE
  5
3A2
100
AcDbEntity
  8
_0-0_
  6
CONTINUOUS
 62
     0
100
AcDbLine
 10
878.7511307144
 20
579.4881250227
 11
848.7511307144
 21
579.4881250227
  0
ARC
  5
3A3
100
AcDbEntity
  8
_0-0_
  6
CONTINUOUS
 62
     0
100
AcDbCircle
 10
878.7511307144
 20
570.2381250227
 40
9.25
100
AcDbArc
 50
71.07535558395
 51
90
  0
ARC
  5
3A4
100
AcDbEntity
  8
_0-0_
  6
CONTINUOUS
 62
     0
100
AcDbCircle
 10
842.7511307144
 20
587.7381250227
 40
9.25
100
AcDbArc
 50
-90
 51
-71.07535558395
  0
CIRCLE
  5
3A5
100
AcDbEntity
  8
_0-0_
  6
CONTINUOUS
 62
     0
100
AcDbCircle
 10
881.3726330284
 20
614.6735473534
 40
0.9
  0
ARC
  5
3A6
100
AcDbEntity
  8
_1-0_
  6
CONTINUOUS
 62
     0
100
AcDbCircle
 10
863.768804
 20
579.6387650227
 40
8.649358
100
AcDbArc
 50
69.705445
 51
110.294555
  0
LINE
  5
3A7
100
AcDbEntity
  8
_1-0_
  6
CONTINUOUS
 62
     0
100
AcDbLine
 10
857.888804
 20
587.7511890227
 11
857.888804
 21
583.4881250227
  0
LINE
  5
3A8
100
AcDbEntity
  8
_1-0_
  6
CONTINUOUS
 62
     0
100
AcDbLine
 10
858.818804
 20
588.2881250227
 11
857.888804
 21
587.7511890227
  0
ARC
  5
3A9
100
AcDbEntity
  8
_1-0_
  6
CONTINUOUS
 62
     0
100
AcDbCircle
 10
858.818804
 20
584.4787310227
 40
3.809394
100
AcDbArc
 50
59.210036
 51
90
  0
LINE
  5
3AA
100
AcDbEntity
  8
_1-0_
  6
CONTINUOUS
 62
     0
100
AcDbLine
 10
860.768804
 20
587.7511890227
 11
860.768804
 21
583.4881250227
  0
LINE
  5
3AB
100
AcDbEntity
  8
_1-0_
  6
CONTINUOUS
 62
     0
100
AcDbLine
 10
866.768804
 20
587.7511890227
 11
866.768804
 21
583.4881250227
  0
LINE
  5
3AC
100
AcDbEntity
  8
_1-0_
  6
CONTINUOUS
 62
     0
100
AcDbLine
 10
869.648804
 20
587.7511890227
 11
869.648804
 21
583.4881250227
  0
LINE
  5
3AD
100
AcDbEntity
  8
_1-0_
  6
CONTINUOUS
 62
     0
100
AcDbLine
 10
868.718804
 20
588.2881250227
 11
869.648804
 21
587.7511890227
  0
LINE
  5
3AE
100
AcDbEntity
  8
_1-0_
  6
CONTINUOUS
 62
     0
100
AcDbLine
 10
858.818804
 20
588.2881250227
 11
868.718804
 21
588.2881250227
  0
ARC
  5
3AF
100
AcDbEntity
  8
_1-0_
  6
CONTINUOUS
 62
     0
100
AcDbCircle
 10
868.718804
 20
584.4787310227
 40
3.809394
100
AcDbArc
 50
90
 51
120.789964
  0
LINE
  5
3B0
100
AcDbEntity
  8
_1-0_
  6
CONTINUOUS
 62
     0
100
AcDbLine
 10
850.518804
 20
587.9881250227
 11
847.568804
 21
587.9881250227
  0
LINE
  5
3B1
100
AcDbEntity
  8
_1-0_
  6
CONTINUOUS
 62
     0
100
AcDbLine
 10
877.018804
 20
587.9881250227
 11
879.968804
 21
587.9881250227
  0
ARC
  5
3B2
100
AcDbEntity
  8
_1-0_
  6
CONTINUOUS
 62
     0
100
AcDbCircle
 10
881.268804
 20
597.4881250227
 40
1
100
AcDbArc
 50
0
 51
180
  0
LINE
  5
3B3
100
AcDbEntity
  8
_1-0_
  6
CONTINUOUS
 62
     0
100
AcDbLine
 10
880.268804
 20
589.9881250227
 11
880.268804
 21
597.4881250227
  0
LINE
  5
3B4
100
AcDbEntity
  8
_1-0_
  6
CONTINUOUS
 62
     0
100
AcDbLine
 10
879.968804
 20
585.4881250227
 11
878.018804
 21
585.4881250227
  0
ARC
  5
3B5
100
AcDbEntity
  8
_1-0_
  6
CONTINUOUS
 62
     0
100
AcDbCircle
 10
879.968804
 20
585.7881250227
 40
0.3
100
AcDbArc
 50
-90
 51
0
  0
LINE
  5
3B6
100
AcDbEntity
  8
_1-0_
  6
CONTINUOUS
 62
     0
100
AcDbLine
 10
880.268804
 20
585.7881250227
 11
880.268804
 21
587.6881250227
  0
ARC
  5
3B7
100
AcDbEntity
  8
_1-0_
  6
CONTINUOUS
 62
     0
100
AcDbCircle
 10
879.968804
 20
587.6881250227
 40
0.3
100
AcDbArc
 50
0
 51
90
  0
LINE
  5
3B8
100
AcDbEntity
  8
_1-0_
  6
CONTINUOUS
 62
     0
100
AcDbLine
 10
863.268804
 20
581.9881250227
 11
863.768804
 21
581.4881250227
  0
LINE
  5
3B9
100
AcDbEntity
  8
_1-0_
  6
CONTINUOUS
 62
     0
100
AcDbLine
 10
864.268804
 20
581.9881250227
 11
863.768804
 21
581.4881250227
  0
LINE
  5
3BA
100
AcDbEntity
  8
_1-0_
  6
CONTINUOUS
 62
     0
100
AcDbLine
 10
858.768804
 20
579.9881250227
 11
858.768804
 21
579.4881250227
  0
LINE
  5
3BB
100
AcDbEntity
  8
_1-0_
  6
CONTINUOUS
 62
     0
100
AcDbLine
 10
879.768804
 20
589.4881250227
 11
877.018804
 21
589.4881250227
  0
ARC
  5
3BC
100
AcDbEntity
  8
_1-0_
  6
CONTINUOUS
 62
     0
100
AcDbCircle
 10
879.768804
 20
589.9881250227
 40
0.5
100
AcDbArc
 50
-90
 51
0
  0
ARC
  5
3BD
100
AcDbEntity
  8
_1-0_
  6
CONTINUOUS
 62
     0
100
AcDbCircle
 10
877.018804
 20
588.7381250227
 40
0.75
100
AcDbArc
 50
90
 51
270
  0
LINE
  5
3BE
100
AcDbEntity
  8
_1-0_
  6
CONTINUOUS
 62
     0
100
AcDbLine
 10
868.768804
 20
579.9881250227
 11
880.268804
 21
579.9881250227
  0
LINE
  5
3BF
100
AcDbEntity
  8
_1-0_
  6
CONTINUOUS
 62
     0
100
AcDbLine
 10
868.768804
 20
579.9881250227
 11
868.768804
 21
579.4881250227
  0
LINE
  5
3C0
100
AcDbEntity
  8
_1-0_
  6
CONTINUOUS
 62
     0
100
AcDbLine
 10
880.268804
 20
579.9881250227
 11
880.268804
 21
579.4881250227
  0
ARC
  5
3C1
100
AcDbEntity
  8
_1-0_
  6
CONTINUOUS
 62
     0
100
AcDbCircle
 10
878.018804
 20
584.7381250227
 40
0.75
100
AcDbArc
 50
90
 51
270
  0
ARC
  5
3C2
100
AcDbEntity
  8
_1-0_
  6
CONTINUOUS
 62
     0
100
AcDbCircle
 10
879.968804
 20
583.6881250227
 40
0.3
100
AcDbArc
 50
0
 51
90
  0
LINE
  5
3C3
100
AcDbEntity
  8
_1-0_
  6
CONTINUOUS
 62
     0
100
AcDbLine
 10
847.268804
 20
579.9881250227
 11
858.768804
 21
579.9881250227
  0
LINE
  5
3C4
100
AcDbEntity
  8
_1-0_
  6
CONTINUOUS
 62
     0
100
AcDbLine
 10
847.568804
 20
585.4881250227
 11
849.518804
 21
585.4881250227
  0
ARC
  5
3C5
100
AcDbEntity
  8
_1-0_
  6
CONTINUOUS
 62
     0
100
AcDbCircle
 10
847.568804
 20
585.7881250227
 40
0.3
100
AcDbArc
 50
180
 51
270
  0
LINE
  5
3C6
100
AcDbEntity
  8
_1-0_
  6
CONTINUOUS
 62
     0
100
AcDbLine
 10
847.268804
 20
585.7881250227
 11
847.268804
 21
587.6881250227
  0
ARC
  5
3C7
100
AcDbEntity
  8
_1-0_
  6
CONTINUOUS
 62
     0
100
AcDbCircle
 10
847.568804
 20
587.6881250227
 40
0.3
100
AcDbArc
 50
90
 51
180
  0
LINE
  5
3C8
100
AcDbEntity
  8
_1-0_
  6
CONTINUOUS
 62
     0
100
AcDbLine
 10
846.268804
 20
589.4881250227
 11
850.518804
 21
589.4881250227
  0
ARC
  5
3C9
100
AcDbEntity
  8
_1-0_
  6
CONTINUOUS
 62
     0
100
AcDbCircle
 10
846.268804
 20
588.9881250227
 40
0.5
100
AcDbArc
 50
90
 51
180
  0
ARC
  5
3CA
100
AcDbEntity
  8
_1-0_
  6
CONTINUOUS
 62
     0
100
AcDbCircle
 10
850.518804
 20
588.7381250227
 40
0.75
100
AcDbArc
 50
-90
 51
90
  0
LINE
  5
3CB
100
AcDbEntity
  8
_1-0_
  6
CONTINUOUS
 62
     0
100
AcDbLine
 10
845.768804
 20
588.9881250227
 11
845.768804
 21
579.4881250227
  0
LINE
  5
3CC
100
AcDbEntity
  8
_1-0_
  6
CONTINUOUS
 62
     0
100
AcDbLine
 10
847.268804
 20
579.9881250227
 11
847.268804
 21
579.4881250227
  0
ARC
  5
3CD
100
AcDbEntity
  8
_1-0_
  6
CONTINUOUS
 62
     0
100
AcDbCircle
 10
849.518804
 20
584.7381250227
 40
0.75
100
AcDbArc
 50
-90
 51
90
  0
ARC
  5
3CE
100
AcDbEntity
  8
_1-0_
  6
CONTINUOUS
 62
     0
100
AcDbCircle
 10
847.568804
 20
582.2881250227
 40
0.3
100
AcDbArc
 50
180
 51
270
  0
LINE
  5
3CF
100
AcDbEntity
  8
_1-0_
  6
CONTINUOUS
 62
     0
100
AcDbLine
 10
847.268804
 20
582.2881250227
 11
847.268804
 21
583.6881250227
  0
ARC
  5
3D0
100
AcDbEntity
  8
_1-0_
  6
CONTINUOUS
 62
     0
100
AcDbCircle
 10
847.568804
 20
583.6881250227
 40
0.3
100
AcDbArc
 50
90
 51
180
  0
LINE
  5
3D1
100
AcDbEntity
  8
_1-0_
  6
CONTINUOUS
 62
     0
100
AcDbLine
 10
880.268804
 20
582.4881250227
 11
880.268804
 21
583.6881250227
  0
ARC
  5
3D2
100
AcDbEntity
  8
_1-0_
  6
CONTINUOUS
 62
     0
100
AcDbCircle
 10
879.768804
 20
582.4881250227
 40
0.5
100
AcDbArc
 50
-90
 51
0
  0
LINE
  5
3D3
100
AcDbEntity
  8
_1-0_
  6
CONTINUOUS
 62
     0
100
AcDbLine
 10
879.768804
 20
581.9881250227
 11
847.568804
 21
581.9881250227
  0
LINE
  5
3D4
100
AcDbEntity
  8
_1-0_
  6
CONTINUOUS
 62
     0
100
AcDbLine
 10
872.768804
 20
583.4881250227
 11
872.768804
 21
581.9881250227
  0
LINE
  5
3D5
100
AcDbEntity
  8
_1-0_
  6
CONTINUOUS
 62
     0
100
AcDbLine
 10
854.768804
 20
583.4881250227
 11
854.768804
 21
581.9881250227
  0
ARC
  5
3D6
100
AcDbEntity
  8
_1-0_
  6
CONTINUOUS
 62
     0
100
AcDbCircle
 10
872.168804
 20
594.3678450227
 40
1
100
AcDbArc
 50
0
 51
87
  0
ARC
  5
3D7
100
AcDbEntity
  8
_1-0_
  6
CONTINUOUS
 62
     0
100
AcDbCircle
 10
872.168804
 20
594.3678450227
 40
2.6
100
AcDbArc
 50
0
 51
87
  0
LINE
  5
3D8
100
AcDbEntity
  8
_1-0_
  6
CONTINUOUS
 62
     0
100
AcDbLine
 10
859.039034
 20
595.0559470227
 11
858.986698
 21
594.0573190227
  0
LINE
  5
3D9
100
AcDbEntity
  8
_1-0_
  6
CONTINUOUS
 62
     0
100
AcDbLine
 10
858.986698
 20
594.0573190227
 11
868.17409
 21
593.5758270227
  0
LINE
  5
3DA
100
AcDbEntity
  8
_1-0_
  6
CONTINUOUS
 62
     0
100
AcDbLine
 10
868.226426
 20
594.5744570227
 11
868.17409
 21
593.5758270227
  0
ARC
  5
3DB
100
AcDbEntity
  8
_1-0_
  6
CONTINUOUS
 62
     0
100
AcDbCircle
 10
858.040404
 20
595.1082830227
 40
1
100
AcDbArc
 50
-2.999999999999
 51
87
  0
ARC
  5
3DC
100
AcDbEntity
  8
_1-0_
  6
CONTINUOUS
 62
     0
100
AcDbCircle
 10
869.225056
 20
594.5221210227
 40
1
100
AcDbArc
 50
87
 51
177
  0
LINE
  5
3DD
100
AcDbEntity
  8
_1-0_
  6
CONTINUOUS
 62
     0
100
AcDbLine
 10
872.22114
 20
595.3664750227
 11
855.42114
 21
596.2469250227
  0
LINE
  5
3DE
100
AcDbEntity
  8
_1-0_
  6
CONTINUOUS
 62
     0
100
AcDbLine
 10
855.5048774638
 20
597.8447333854
 11
872.3048774921
 21
596.9642819252
  0
ARC
  5
3DF
100
AcDbEntity
  8
_1-0_
  6
CONTINUOUS
 62
     0
100
AcDbCircle
 10
855.368804
 20
595.2482970227
 40
2.6
100
AcDbArc
 50
87
 51
180
  0
ARC
  5
3E0
100
AcDbEntity
  8
_1-0_
  6
CONTINUOUS
 62
     0
100
AcDbCircle
 10
855.368804
 20
595.2482970227
 40
1
100
AcDbArc
 50
87
 51
180
  0
LINE
  5
3E1
100
AcDbEntity
  8
_1-0_
  6
CONTINUOUS
 62
     0
100
AcDbLine
 10
854.368804
 20
588.9881250227
 11
854.368804
 21
595.2482970227
  0
LINE
  5
3E2
100
AcDbEntity
  8
_1-0_
  6
CONTINUOUS
 62
     0
100
AcDbLine
 10
852.768804
 20
595.2482970227
 11
852.768804
 21
588.9881250227
  0
LINE
  5
3E3
100
AcDbEntity
  8
_1-0_
  6
CONTINUOUS
 62
     0
100
AcDbLine
 10
851.768804
 20
587.9881250227
 11
847.568804
 21
587.9881250227
  0
ARC
  5
3E4
100
AcDbEntity
  8
_1-0_
  6
CONTINUOUS
 62
     0
100
AcDbCircle
 10
851.768804
 20
588.9881250227
 40
1
100
AcDbArc
 50
-90
 51
0
  0
ARC
  5
3E5
100
AcDbEntity
  8
_1-0_
  6
CONTINUOUS
 62
     0
100
AcDbCircle
 10
851.768804
 20
588.9881250227
 40
2.6
100
AcDbArc
 50
-90
 51
0
  0
LINE
  5
3E6
100
AcDbEntity
  8
_1-0_
  6
CONTINUOUS
 62
     0
100
AcDbLine
 10
851.768804
 20
586.3881250227
 11
847.268804
 21
586.3881250227
  0
LINE
  5
3E7
100
AcDbEntity
  8
_1-0_
  6
CONTINUOUS
 62
     0
100
AcDbLine
 10
873.168804
 20
588.9881250227
 11
873.168804
 21
594.3678450227
  0
LINE
  5
3E8
100
AcDbEntity
  8
_1-0_
  6
CONTINUOUS
 62
     0
100
AcDbLine
 10
874.768804
 20
594.3678450227
 11
874.768804
 21
588.9881250227
  0
LINE
  5
3E9
100
AcDbEntity
  8
_1-0_
  6
CONTINUOUS
 62
     0
100
AcDbLine
 10
875.768804
 20
587.9881250227
 11
879.968804
 21
587.9881250227
  0
ARC
  5
3EA
100
AcDbEntity
  8
_1-0_
  6
CONTINUOUS
 62
     0
100
AcDbCircle
 10
875.768804
 20
588.9881250227
 40
1
100
AcDbArc
 50
180
 51
270
  0
ARC
  5
3EB
100
AcDbEntity
  8
_1-0_
  6
CONTINUOUS
 62
     0
100
AcDbCircle
 10
875.768804
 20
588.9881250227
 40
2.6
100
AcDbArc
 50
180
 51
270
  0
LINE
  5
3EC
100
AcDbEntity
  8
_1-0_
  6
CONTINUOUS
 62
     0
100
AcDbLine
 10
875.768804
 20
586.3881250227
 11
880.268804
 21
586.3881250227
  0
LINE
  5
3ED
100
AcDbEntity
  8
_1-0_
  6
CONTINUOUS
 62
     0
100
AcDbLine
 10
879.968804
 20
583.9881250227
 11
878.018804
 21
583.9881250227
  0
LINE
  5
3EE
100
AcDbEntity
  8
_1-0_
  6
CONTINUOUS
 62
     0
100
AcDbLine
 10
849.518804
 20
583.9881250227
 11
847.568804
 21
583.9881250227
  0
CIRCLE
  5
3EF
100
AcDbEntity
  8
_0-0_
  6
CONTINUOUS
 62
     0
100
AcDbCircle
 10
868.1062148287
 20
585.58869717
 40
0.9
  0
CIRCLE
  5
3F0
100
AcDbEntity
  8
_0-0_
  6
CONTINUOUS
 62
     0
100
AcDbCircle
 10
856.647052247
 20
582.7242819553
 40
0.9
  0
CIRCLE
  5
3F1
100
AcDbEntity
  8
_0-0_
  6
CONTINUOUS
 62
     0
100
AcDbCircle
 10
873.9462867281
 20
592.9767399344
 40
0.9
  0
CIRCLE
  5
3F2
100
AcDbEntity
  8
_0-0_
  6
CONTINUOUS
 62
     0
100
AcDbCircle
 10
881.2904955842
 20
591.2394620087
 40
0.9
  0
LINE
  5
3F3
100
AcDbEntity
  8
_0-1_PRO0
  6
CONTINUOUS
 62
     0
100
AcDbLine
 10
842.7511303558
 20
578.4803218565
 11
668.0015378831
 21
578.4883521965
  0
LINE
  5
3F4
100
AcDbEntity
  8
_0-1_PRO0
  6
CONTINUOUS
 62
     0
100
AcDbLine
 10
863.768804
 20
532.0547240227
 11
863.768804
 21
588.2881250227
  0
LINE
  5
3F5
100
AcDbEntity
  8
_0-0_
  6
CONTINUOUS
 62
     0
100
AcDbLine
 10
881.2480860669
 20
591.1674054088
 11
906.0611403223
 21
634.1448760702
  0
CIRCLE
  5
3F6
100
AcDbEntity
  8
_0-0_
  6
CONTINUOUS
 62
     0
100
AcDbCircle
 10
909.0611403223
 20
639.3410284929
 40
6
  0
TEXT
  5
3F7
100
AcDbEntity
  8
_0-0_
  6
CONTINUOUS
 62
     0
100
AcDbText
 10
904.4354942761
 20
634.3022693588
 40
9
  1
２
  7
STANDARD
100
AcDbText
  0
LINE
  5
3F8
100
AcDbEntity
  8
_0-0_
  6
CONTINUOUS
 62
     0
100
AcDbLine
 10
845.768804
 20
579.4881250227
 11
847.268804
 21
579.4881250227
  0
LINE
  5
3F9
100
AcDbEntity
  8
_0-0_
  6
CONTINUOUS
 62
     0
100
AcDbLine
 10
880.268804
 20
579.4881250227
 11
882.268804
 21
579.4881250227
  0
LINE
  5
3FA
100
AcDbEntity
  8
_1-0_
  6
CONTINUOUS
 62
     0
100
AcDbLine
 10
867.0195526079
 20
601.1176819379
 11
866.8169563618
 21
597.251891935
  0
LINE
  5
3FB
100
AcDbEntity
  8
_1-0_
  6
CONTINUOUS
 62
     0
100
AcDbLine
 10
866.5202386308
 20
601.1438498749
 11
866.3176423859
 21
597.2780598944
  0
LINE
  5
3FC
100
AcDbEntity
  8
_1-0_
  6
CONTINUOUS
 62
     0
100
AcDbLine
 10
861.5270933082
 20
601.4055295359
 11
861.3244941665
 21
597.5397399321
  0
LINE
  5
3FD
100
AcDbEntity
  8
_1-0_
  6
CONTINUOUS
 62
     0
100
AcDbLine
 10
861.0277757855
 20
601.4316976587
 11
860.8251794012
 21
597.5659079329
  0
LINE
  5
3FE
100
AcDbEntity
  8
_1-0_
  6
CONTINUOUS
 62
     0
100
AcDbLine
 10
866.1292334719
 20
593.6829936767
 11
866.0650368635
 21
592.4580788454
  0
LINE
  5
3FF
100
AcDbEntity
  8
_1-0_
  6
CONTINUOUS
 62
     0
100
AcDbLine
 10
861.1360860199
 20
593.9446740919
 11
861.0718893635
 21
592.7197583454
  0
LINE
  5
400
100
AcDbEntity
  8
_1-0_
  6
CONTINUOUS
 62
     0
100
AcDbLine
 10
860.5987428635
 20
593.2452413454
 11
860.636768063
 21
593.9708423017
  0
LINE
  5
401
100
AcDbEntity
  8
_1-0_
  6
CONTINUOUS
 62
     0
100
AcDbLine
 10
866.5905198635
 20
592.9312253454
 11
866.6285450368
 21
593.6568258019
  0
LINE
  5
402
100
AcDbEntity
  8
_0-0_
  6
CONTINUOUS
 62
     0
100
AcDbLine
 10
866.8169563618
 20
597.251891935
 11
866.6285450368
 21
593.6568258019
  0
LINE
  5
403
100
AcDbEntity
  8
_0-0_
  6
CONTINUOUS
 62
     0
100
AcDbLine
 10
866.3176423859
 20
597.2780598944
 11
866.1292334719
 21
593.6829936767
  0
LINE
  5
404
100
AcDbEntity
  8
_0-0_
  6
CONTINUOUS
 62
     0
100
AcDbLine
 10
861.3244941665
 20
597.5397399321
 11
861.1360860199
 21
593.9446740919
  0
LINE
  5
405
100
AcDbEntity
  8
_0-0_
  6
CONTINUOUS
 62
     0
100
AcDbLine
 10
860.8251794012
 20
597.5659079329
 11
860.636768063
 21
593.9708423017
  0
ARC
  5
406
100
AcDbEntity
  8
_1-0_
  6
CONTINUOUS
 62
     0
100
AcDbCircle
 10
323.768804
 20
579.6387650227
 40
8.649358
100
AcDbArc
 50
69.705445
 51
110.294555
  0
LINE
  5
407
100
AcDbEntity
  8
_1-0_
  6
CONTINUOUS
 62
     0
100
AcDbLine
 10
329.648804
 20
587.7511890227
 11
329.648804
 21
583.4881250227
  0
LINE
  5
408
100
AcDbEntity
  8
_1-0_
  6
CONTINUOUS
 62
     0
100
AcDbLine
 10
328.718804
 20
588.2881250227
 11
329.648804
 21
587.7511890227
  0
ARC
  5
409
100
AcDbEntity
  8
_1-0_
  6
CONTINUOUS
 62
     0
100
AcDbCircle
 10
328.718804
 20
584.4787310227
 40
3.809394
100
AcDbArc
 50
90
 51
120.789964
  0
LINE
  5
40A
100
AcDbEntity
  8
_1-0_
  6
CONTINUOUS
 62
     0
100
AcDbLine
 10
326.768804
 20
587.7511890227
 11
326.768804
 21
583.4881250227
  0
LINE
  5
40B
100
AcDbEntity
  8
_1-0_
  6
CONTINUOUS
 62
     0
100
AcDbLine
 10
320.768804
 20
587.7511890227
 11
320.768804
 21
583.4881250227
  0
LINE
  5
40C
100
AcDbEntity
  8
_1-0_
  6
CONTINUOUS
 62
     0
100
AcDbLine
 10
317.888804
 20
587.7511890227
 11
317.888804
 21
583.4881250227
  0
LINE
  5
40D
100
AcDbEntity
  8
_1-0_
  6
CONTINUOUS
 62
     0
100
AcDbLine
 10
318.818804
 20
588.2881250227
 11
317.888804
 21
587.7511890227
  0
LINE
  5
40E
100
AcDbEntity
  8
_1-0_
  6
CONTINUOUS
 62
     0
100
AcDbLine
 10
328.718804
 20
588.2881250227
 11
318.818804
 21
588.2881250227
  0
ARC
  5
40F
100
AcDbEntity
  8
_1-0_
  6
CONTINUOUS
 62
     0
100
AcDbCircle
 10
318.818804
 20
584.4787310227
 40
3.809394
100
AcDbArc
 50
59.210036
 51
90
  0
LINE
  5
410
100
AcDbEntity
  8
_1-0_
  6
CONTINUOUS
 62
     0
100
AcDbLine
 10
337.018804
 20
587.9881250227
 11
339.968804
 21
587.9881250227
  0
LINE
  5
411
100
AcDbEntity
  8
_1-0_
  6
CONTINUOUS
 62
     0
100
AcDbLine
 10
324.268804
 20
581.9881250227
 11
323.768804
 21
581.4881250227
  0
LINE
  5
412
100
AcDbEntity
  8
_1-0_
  6
CONTINUOUS
 62
     0
100
AcDbLine
 10
323.268804
 20
581.9881250227
 11
323.768804
 21
581.4881250227
  0
LINE
  5
413
100
AcDbEntity
  8
_1-0_
  6
CONTINUOUS
 62
     0
100
AcDbLine
 10
328.768804
 20
579.9881250227
 11
328.768804
 21
579.4881250227
  0
LINE
  5
414
100
AcDbEntity
  8
_1-0_
  6
CONTINUOUS
 62
     0
100
AcDbLine
 10
318.768804
 20
579.9881250227
 11
307.268804
 21
579.9881250227
  0
LINE
  5
415
100
AcDbEntity
  8
_1-0_
  6
CONTINUOUS
 62
     0
100
AcDbLine
 10
318.768804
 20
579.9881250227
 11
318.768804
 21
579.4881250227
  0
LINE
  5
416
100
AcDbEntity
  8
_1-0_
  6
CONTINUOUS
 62
     0
100
AcDbLine
 10
340.268804
 20
579.9881250227
 11
328.768804
 21
579.9881250227
  0
LINE
  5
417
100
AcDbEntity
  8
_1-0_
  6
CONTINUOUS
 62
     0
100
AcDbLine
 10
339.968804
 20
585.4881250227
 11
338.018804
 21
585.4881250227
  0
ARC
  5
418
100
AcDbEntity
  8
_1-0_
  6
CONTINUOUS
 62
     0
100
AcDbCircle
 10
339.968804
 20
585.7881250227
 40
0.3
100
AcDbArc
 50
-90
 51
0
  0
LINE
  5
419
100
AcDbEntity
  8
_1-0_
  6
CONTINUOUS
 62
     0
100
AcDbLine
 10
340.268804
 20
585.7881250227
 11
340.268804
 21
587.6881250227
  0
ARC
  5
41A
100
AcDbEntity
  8
_1-0_
  6
CONTINUOUS
 62
     0
100
AcDbCircle
 10
339.968804
 20
587.6881250227
 40
0.3
100
AcDbArc
 50
0
 51
90
  0
LINE
  5
41B
100
AcDbEntity
  8
_1-0_
  6
CONTINUOUS
 62
     0
100
AcDbLine
 10
341.268804
 20
589.4881250227
 11
337.018804
 21
589.4881250227
  0
ARC
  5
41C
100
AcDbEntity
  8
_1-0_
  6
CONTINUOUS
 62
     0
100
AcDbCircle
 10
341.268804
 20
588.9881250227
 40
0.5
100
AcDbArc
 50
0
 51
90
  0
ARC
  5
41D
100
AcDbEntity
  8
_1-0_
  6
CONTINUOUS
 62
     0
100
AcDbCircle
 10
337.018804
 20
588.7381250227
 40
0.75
100
AcDbArc
 50
90
 51
270
  0
LINE
  5
41E
100
AcDbEntity
  8
_1-0_
  6
CONTINUOUS
 62
     0
100
AcDbLine
 10
341.768804
 20
588.9881250227
 11
341.768804
 21
579.4881250227
  0
LINE
  5
41F
100
AcDbEntity
  8
_1-0_
  6
CONTINUOUS
 62
     0
100
AcDbLine
 10
340.268804
 20
579.9881250227
 11
340.268804
 21
579.4881250227
  0
ARC
  5
420
100
AcDbEntity
  8
_1-0_
  6
CONTINUOUS
 62
     0
100
AcDbCircle
 10
338.018804
 20
584.7381250227
 40
0.75
100
AcDbArc
 50
90
 51
270
  0
ARC
  5
421
100
AcDbEntity
  8
_1-0_
  6
CONTINUOUS
 62
     0
100
AcDbCircle
 10
339.968804
 20
582.2881250227
 40
0.3
100
AcDbArc
 50
-90
 51
0
  0
LINE
  5
422
100
AcDbEntity
  8
_1-0_
  6
CONTINUOUS
 62
     0
100
AcDbLine
 10
340.268804
 20
582.2881250227
 11
340.268804
 21
583.6881250227
  0
ARC
  5
423
100
AcDbEntity
  8
_1-0_
  6
CONTINUOUS
 62
     0
100
AcDbCircle
 10
339.968804
 20
583.6881250227
 40
0.3
100
AcDbArc
 50
0
 51
90
  0
LINE
  5
424
100
AcDbEntity
  8
_1-0_
  6
CONTINUOUS
 62
     0
100
AcDbLine
 10
307.768804
 20
581.9881250227
 11
339.968804
 21
581.9881250227
  0
LINE
  5
425
100
AcDbEntity
  8
_1-0_
  6
CONTINUOUS
 62
     0
100
AcDbLine
 10
323.768804
 20
579.4881250227
 11
323.768804
 21
589.1718730227
  0
LINE
  5
426
100
AcDbEntity
  8
_1-0_
  6
CONTINUOUS
 62
     0
100
AcDbLine
 10
314.768804
 20
583.4881250227
 11
332.768804
 21
583.4881250227
  0
LINE
  5
427
100
AcDbEntity
  8
_1-0_
  6
CONTINUOUS
 62
     0
100
AcDbLine
 10
332.768804
 20
583.4881250227
 11
332.768804
 21
581.9881250227
  0
LINE
  5
428
100
AcDbEntity
  8
_1-0_
  6
CONTINUOUS
 62
     0
100
AcDbLine
 10
328.498574
 20
595.0559470227
 11
328.55091
 21
594.0573190227
  0
LINE
  5
429
100
AcDbEntity
  8
_1-0_
  6
CONTINUOUS
 62
     0
100
AcDbLine
 10
328.55091
 20
594.0573190227
 11
319.363518
 21
593.5758270227
  0
LINE
  5
42A
100
AcDbEntity
  8
_1-0_
  6
CONTINUOUS
 62
     0
100
AcDbLine
 10
319.311182
 20
594.5744570227
 11
319.363518
 21
593.5758270227
  0
ARC
  5
42B
100
AcDbEntity
  8
_1-0_
  6
CONTINUOUS
 62
     0
100
AcDbCircle
 10
329.497204
 20
595.1082830227
 40
1
100
AcDbArc
 50
93
 51
183
  0
ARC
  5
42C
100
AcDbEntity
  8
_1-0_
  6
CONTINUOUS
 62
     0
100
AcDbCircle
 10
318.312552
 20
594.5221210227
 40
1
100
AcDbArc
 50
2.999999999999
 51
93
  0
LINE
  5
42D
100
AcDbEntity
  8
_1-0_
  6
CONTINUOUS
 62
     0
100
AcDbLine
 10
315.316468
 20
595.3664750227
 11
332.116468
 21
596.2469250227
  0
LINE
  5
42E
100
AcDbEntity
  8
_1-0_
  6
CONTINUOUS
 62
     0
100
AcDbLine
 10
332.0327305362
 20
597.8447333854
 11
315.2327305079
 21
596.9642819252
  0
ARC
  5
42F
100
AcDbEntity
  8
_1-0_
  6
CONTINUOUS
 62
     0
100
AcDbCircle
 10
332.168804
 20
595.2482970227
 40
2.6
100
AcDbArc
 50
0
 51
93
  0
ARC
  5
430
100
AcDbEntity
  8
_1-0_
  6
CONTINUOUS
 62
     0
100
AcDbCircle
 10
332.168804
 20
595.2482970227
 40
1
100
AcDbArc
 50
0
 51
93
  0
LINE
  5
431
100
AcDbEntity
  8
_1-0_
  6
CONTINUOUS
 62
     0
100
AcDbLine
 10
333.168804
 20
588.9881250227
 11
333.168804
 21
595.2482970227
  0
LINE
  5
432
100
AcDbEntity
  8
_1-0_
  6
CONTINUOUS
 62
     0
100
AcDbLine
 10
334.768804
 20
595.2482970227
 11
334.768804
 21
588.9881250227
  0
LINE
  5
433
100
AcDbEntity
  8
_1-0_
  6
CONTINUOUS
 62
     0
100
AcDbLine
 10
335.768804
 20
587.9881250227
 11
339.968804
 21
587.9881250227
  0
ARC
  5
434
100
AcDbEntity
  8
_1-0_
  6
CONTINUOUS
 62
     0
100
AcDbCircle
 10
335.768804
 20
588.9881250227
 40
1
100
AcDbArc
 50
180
 51
270
  0
ARC
  5
435
100
AcDbEntity
  8
_1-0_
  6
CONTINUOUS
 62
     0
100
AcDbCircle
 10
335.768804
 20
588.9881250227
 40
2.6
100
AcDbArc
 50
180
 51
270
  0
LINE
  5
436
100
AcDbEntity
  8
_1-0_
  6
CONTINUOUS
 62
     0
100
AcDbLine
 10
335.768804
 20
586.3881250227
 11
340.268804
 21
586.3881250227
  0
LINE
  5
437
100
AcDbEntity
  8
_1-0_
  6
CONTINUOUS
 62
     0
100
AcDbLine
 10
338.018804
 20
583.9881250227
 11
339.968804
 21
583.9881250227
  0
LINE
  5
438
100
AcDbEntity
  8
_0-1_PRO0
  6
CONTINUOUS
 62
     0
100
AcDbLine
 10
323.768804
 20
532.0547240227
 11
323.768804
 21
579.4881250227
  0
LINE
  5
439
100
AcDbEntity
  8
_0-0_
  6
CONTINUOUS
 62
     0
100
AcDbLine
 10
340.268804
 20
579.4881250227
 11
341.768804
 21
579.4881250227
  0
LINE
  5
43A
100
AcDbEntity
  8
_0-1_PRO0
  6
CONTINUOUS
 62
     0
100
AcDbLine
 10
302.7511307144
 20
578.4881250227
 11
273.768807
 21
578.4881250227
  0
LINE
  5
43B
100
AcDbEntity
  8
_0-1_PRO0
  6
CONTINUOUS
 62
     0
100
AcDbLine
 10
344.7511310731
 20
578.4803202323
 11
519.5360701169
 21
578.4883521965
  0
LINE
  5
43C
100
AcDbEntity
  8
_1-0_
  6
CONTINUOUS
 62
     0
100
AcDbLine
 10
326.5098322145
 20
601.4316976587
 11
326.7124285988
 21
597.5659079329
  0
LINE
  5
43D
100
AcDbEntity
  8
_1-0_
  6
CONTINUOUS
 62
     0
100
AcDbLine
 10
326.0105146918
 20
601.4055295359
 11
326.2131138335
 21
597.5397399321
  0
LINE
  5
43E
100
AcDbEntity
  8
_1-0_
  6
CONTINUOUS
 62
     0
100
AcDbLine
 10
321.0173693692
 20
601.1438498749
 11
321.2199656141
 21
597.2780598944
  0
LINE
  5
43F
100
AcDbEntity
  8
_1-0_
  6
CONTINUOUS
 62
     0
100
AcDbLine
 10
320.5180553921
 20
601.1176819379
 11
320.7206516382
 21
597.251891935
  0
LINE
  5
440
100
AcDbEntity
  8
_1-0_
  6
CONTINUOUS
 62
     0
100
AcDbLine
 10
326.4015219801
 20
593.9446740919
 11
326.4657186365
 21
592.7197583454
  0
LINE
  5
441
100
AcDbEntity
  8
_1-0_
  6
CONTINUOUS
 62
     0
100
AcDbLine
 10
321.4083745281
 20
593.6829936767
 11
321.4725711365
 21
592.4580788454
  0
LINE
  5
442
100
AcDbEntity
  8
_1-0_
  6
CONTINUOUS
 62
     0
100
AcDbLine
 10
320.9470881365
 20
592.9312253454
 11
320.9090629632
 21
593.6568258019
  0
LINE
  5
443
100
AcDbEntity
  8
_1-0_
  6
CONTINUOUS
 62
     0
100
AcDbLine
 10
326.9388651365
 20
593.2452413454
 11
326.900839937
 21
593.9708423017
  0
LINE
  5
444
100
AcDbEntity
  8
_0-0_
  6
CONTINUOUS
 62
     0
100
AcDbLine
 10
320.7206516382
 20
597.251891935
 11
320.9090629632
 21
593.6568258019
  0
LINE
  5
445
100
AcDbEntity
  8
_0-0_
  6
CONTINUOUS
 62
     0
100
AcDbLine
 10
321.2199656141
 20
597.2780598944
 11
321.4083745281
 21
593.6829936767
  0
LINE
  5
446
100
AcDbEntity
  8
_0-0_
  6
CONTINUOUS
 62
     0
100
AcDbLine
 10
326.2131138335
 20
597.5397399321
 11
326.4015219801
 21
593.9446740919
  0
LINE
  5
447
100
AcDbEntity
  8
_0-0_
  6
CONTINUOUS
 62
     0
100
AcDbLine
 10
326.7124285988
 20
597.5659079329
 11
326.900839937
 21
593.9708423017
  0
LINE
  5
448
100
AcDbEntity
  8
_0-0_
  6
CONTINUOUS
 62
     0
100
AcDbLine
 10
884.7511307144
 20
578.4881250227
 11
884.7511307144
 21
577.4881250227
  0
ARC
  5
449
100
AcDbEntity
  8
_0-0_
  6
CONTINUOUS
 62
     0
100
AcDbCircle
 10
273.9045242421
 20
628.082288645
 40
0.5
100
AcDbArc
 50
101.4095443492
 51
279.1986608952
  0
ARC
  5
44A
100
AcDbEntity
  8
_0-0_
  6
CONTINUOUS
 62
     0
100
AcDbCircle
 10
277.6751841204
 20
604.7980833806
 40
23.08754100601
100
AcDbArc
 50
-1.815975820674
 51
99.19866089519
  0
ARC
  5
44B
100
AcDbEntity
  8
_0-0_
  6
CONTINUOUS
 62
     0
100
AcDbCircle
 10
278.7511297143
 20
604.0664518826
 40
25
100
AcDbArc
 50
0
 51
101.4095443492
  0
LINE
  5
44C
100
AcDbEntity
  8
_0-0_
  6
CONTINUOUS
 62
     0
100
AcDbLine
 10
300.7511297143
 20
585.1468960227
 11
300.7511297143
 21
605.5297148786
  0
LINE
  5
44D
100
AcDbEntity
  8
_0-0_
  6
CONTINUOUS
 62
     0
100
AcDbLine
 10
303.7511297143
 20
585.1468960227
 11
303.7511297143
 21
604.0664518826
  0
LINE
  5
44E
100
AcDbEntity
  8
_0-0_
  6
CONTINUOUS
 62
     0
100
AcDbLine
 10
305.0011297144
 20
586.8968960227
 11
305.2511297144
 21
586.8968960227
  0
ARC
  5
44F
100
AcDbEntity
  8
_0-0_
  6
CONTINUOUS
 62
     0
100
AcDbCircle
 10
305.0011297144
 20
585.8968960227
 40
1
100
AcDbArc
 50
90
 51
180
  0
LINE
  5
450
100
AcDbEntity
  8
_0-0_
  6
CONTINUOUS
 62
     0
100
AcDbLine
 10
304.0011297144
 20
585.8968960227
 11
304.0011297144
 21
585.3968960227
  0
LINE
  5
451
100
AcDbEntity
  8
_0-0_
  6
CONTINUOUS
 62
     0
100
AcDbLine
 10
305.2511297144
 20
585.3968960227
 11
304.0011297144
 21
585.3968960227
  0
LINE
  5
452
100
AcDbEntity
  8
_0-0_
  6
CONTINUOUS
 62
     0
100
AcDbLine
 10
300.5011297144
 20
585.3968960227
 11
299.2511297144
 21
585.3968960227
  0
LINE
  5
453
100
AcDbEntity
  8
_0-0_
  6
CONTINUOUS
 62
     0
100
AcDbLine
 10
300.5011297144
 20
585.8968960227
 11
300.5011297144
 21
585.3968960227
  0
ARC
  5
454
100
AcDbEntity
  8
_0-0_
  6
CONTINUOUS
 62
     0
100
AcDbCircle
 10
299.5011297144
 20
585.8968960227
 40
1
100
AcDbArc
 50
0
 51
90
  0
LINE
  5
455
100
AcDbEntity
  8
_0-0_
  6
CONTINUOUS
 62
     0
100
AcDbLine
 10
298.2511297144
 20
586.8968960227
 11
299.5011297144
 21
586.8968960227
  0
ARC
  5
456
100
AcDbEntity
  8
_0-0_
  6
CONTINUOUS
 62
     0
100
AcDbCircle
 10
299.7511297144
 20
582.3968960227
 40
0.5
100
AcDbArc
 50
180
 51
270
  0
ARC
  5
457
100
AcDbEntity
  8
_0-0_
  6
CONTINUOUS
 62
     0
100
AcDbCircle
 10
298.2511297144
 20
586.3968960227
 40
0.5
100
AcDbArc
 50
90
 51
180
  0
LINE
  5
458
100
AcDbEntity
  8
_0-0_
  6
CONTINUOUS
 62
     0
100
AcDbLine
 10
297.7511297144
 20
586.3968960227
 11
297.7511297144
 21
581.8968960227
  0
LINE
  5
459
100
AcDbEntity
  8
_0-0_
  6
CONTINUOUS
 62
     0
100
AcDbLine
 10
299.2511297144
 20
582.3968960227
 11
299.2511297144
 21
585.3968960227
  0
LINE
  5
45A
100
AcDbEntity
  8
_0-0_
  6
CONTINUOUS
 62
     0
100
AcDbLine
 10
305.2511297144
 20
585.3968960227
 11
305.2511297144
 21
582.3968940227
  0
LINE
  5
45B
100
AcDbEntity
  8
_0-0_
  6
CONTINUOUS
 62
     0
100
AcDbLine
 10
305.2511297144
 20
597.3968940227
 11
305.2511297144
 21
586.8968960227
  0
LINE
  5
45C
100
AcDbEntity
  8
_0-0_
  6
CONTINUOUS
 62
     0
100
AcDbLine
 10
299.7511297144
 20
582.1468960227
 11
304.7511317144
 21
582.1468960227
  0
LINE
  5
45D
100
AcDbEntity
  8
_0-0_
  6
CONTINUOUS
 62
     0
100
AcDbLine
 10
305.0011297144
 20
582.3968940227
 11
305.0011297144
 21
585.1468960227
  0
LINE
  5
45E
100
AcDbEntity
  8
_0-0_
  6
CONTINUOUS
 62
     0
100
AcDbLine
 10
299.5011297144
 20
582.3968960227
 11
299.5011297144
 21
585.1468960227
  0
ARC
  5
45F
100
AcDbEntity
  8
_0-0_
  6
CONTINUOUS
 62
     0
100
AcDbCircle
 10
304.7511317144
 20
582.3968940227
 40
0.250001
100
AcDbArc
 50
-90
 51
0
  0
ARC
  5
460
100
AcDbEntity
  8
_0-0_
  6
CONTINUOUS
 62
     0
100
AcDbCircle
 10
299.7511297144
 20
582.3968960227
 40
0.25
100
AcDbArc
 50
180
 51
270
  0
LINE
  5
461
100
AcDbEntity
  8
_0-0_
  6
CONTINUOUS
 62
     0
100
AcDbLine
 10
293.7511297144
 20
581.8968960227
 11
297.7511297144
 21
581.8968960227
  0
LINE
  5
462
100
AcDbEntity
  8
_0-0_
  6
CONTINUOUS
 62
     0
100
AcDbLine
 10
299.7511297144
 20
581.8968960227
 11
304.7511317144
 21
581.8968960227
  0
LINE
  5
463
100
AcDbEntity
  8
_0-0_
  6
CONTINUOUS
 62
     0
100
AcDbLine
 10
297.7451808406
 20
580.3968960227
 11
294.7511297144
 21
580.3968960227
  0
LINE
  5
464
100
AcDbEntity
  8
_0-0_
  6
CONTINUOUS
 62
     0
100
AcDbLine
 10
305.2511297144
 20
580.3968960227
 11
297.7451808406
 21
580.3968960227
  0
LINE
  5
465
100
AcDbEntity
  8
_0-0_
  6
CONTINUOUS
 62
     0
100
AcDbLine
 10
300.7511297143
 20
585.1468960227
 11
299.5011297144
 21
585.1468960227
  0
LINE
  5
466
100
AcDbEntity
  8
_0-0_
  6
CONTINUOUS
 62
     0
100
AcDbLine
 10
305.0011297144
 20
585.1468960227
 11
303.7511297143
 21
585.1468960227
  0
ARC
  5
467
100
AcDbEntity
  8
_0-0_
  6
CONTINUOUS
 62
     0
100
AcDbCircle
 10
293.7511297144
 20
581.3968960227
 40
0.5
100
AcDbArc
 50
90
 51
180
  0
LINE
  5
468
100
AcDbEntity
  8
_0-0_
  6
CONTINUOUS
 62
     0
100
AcDbLine
 10
293.2511297144
 20
581.3968960227
 11
293.2511297144
 21
579.3968940227
  0
LINE
  5
469
100
AcDbEntity
  8
_0-0_
  6
CONTINUOUS
 62
     0
100
AcDbLine
 10
305.2511297144
 20
579.3968940227
 11
307.2511307144
 21
579.3968940227
  0
LINE
  5
46A
100
AcDbEntity
  8
_0-0_
  6
CONTINUOUS
 62
     0
100
AcDbLine
 10
293.2511297144
 20
579.3968940227
 11
294.7511297144
 21
579.3968940227
  0
LINE
  5
46B
100
AcDbEntity
  8
_0-0_
  6
CONTINUOUS
 62
     0
100
AcDbLine
 10
294.7511297144
 20
580.3968960227
 11
294.7511297144
 21
579.3968940227
  0
LINE
  5
46C
100
AcDbEntity
  8
_0-0_
  6
CONTINUOUS
 62
     0
100
AcDbLine
 10
307.2511307144
 20
582.3968940227
 11
307.2511307144
 21
583.5968940227
  0
LINE
  5
46D
100
AcDbEntity
  8
_0-0_
  6
CONTINUOUS
 62
     0
100
AcDbLine
 10
307.2511307144
 20
579.8968950227
 11
307.2511307144
 21
579.3968940227
  0
LINE
  5
46E
100
AcDbEntity
  8
_0-0_
  6
CONTINUOUS
 62
     0
100
AcDbLine
 10
305.2511297144
 20
580.3968960227
 11
305.2511297144
 21
579.3968940227
  0
ARC
  5
46F
100
AcDbEntity
  8
_0-0_
  6
CONTINUOUS
 62
     0
100
AcDbCircle
 10
304.7511317144
 20
582.3968940227
 40
0.500001
100
AcDbArc
 50
-90
 51
0
  0
LINE
  5
470
100
AcDbEntity
  8
_0-0_
  6
CONTINUOUS
 62
     0
100
AcDbLine
 10
307.2511307144
 20
585.6968940227
 11
307.2511307144
 21
587.5968960227
  0
LINE
  5
471
100
AcDbEntity
  8
_0-0_
  6
CONTINUOUS
 62
     0
100
AcDbLine
 10
307.2511307144
 20
589.8968940227
 11
307.2511307144
 21
597.3968940227
  0
ARC
  5
472
100
AcDbEntity
  8
_0-0_
  6
CONTINUOUS
 62
     0
100
AcDbCircle
 10
306.2511317144
 20
597.3968940227
 40
0.999999
100
AcDbArc
 50
0
 51
180
  0
ARC
  5
473
100
AcDbEntity
  8
_0-0_
  6
CONTINUOUS
 62
     0
100
AcDbCircle
 10
307.7511317144
 20
582.3968940227
 40
0.500001
100
AcDbArc
 50
180
 51
270
  0
ARC
  5
474
100
AcDbEntity
  8
_0-0_
  6
CONTINUOUS
 62
     0
100
AcDbCircle
 10
307.5511307144
 20
583.5968940227
 40
0.3
100
AcDbArc
 50
90
 51
180
  0
LINE
  5
475
100
AcDbEntity
  8
_0-0_
  6
CONTINUOUS
 62
     0
100
AcDbLine
 10
307.5511307144
 20
583.8968940227
 11
309.5011307144
 21
583.8968940227
  0
ARC
  5
476
100
AcDbEntity
  8
_0-0_
  6
CONTINUOUS
 62
     0
100
AcDbCircle
 10
309.5011307144
 20
584.6468940227
 40
0.75
100
AcDbArc
 50
-90
 51
90
  0
ARC
  5
477
100
AcDbEntity
  8
_0-0_
  6
CONTINUOUS
 62
     0
100
AcDbCircle
 10
310.5011297144
 20
588.6468960227
 40
0.75
100
AcDbArc
 50
-90
 51
90
  0
ARC
  5
478
100
AcDbEntity
  8
_0-0_
  6
CONTINUOUS
 62
     0
100
AcDbCircle
 10
307.7511317144
 20
589.8968940227
 40
0.500001
100
AcDbArc
 50
180
 51
270
  0
LINE
  5
479
100
AcDbEntity
  8
_0-0_
  6
CONTINUOUS
 62
     0
100
AcDbLine
 10
307.7511317144
 20
589.3968960227
 11
310.5011297144
 21
589.3968960227
  0
ARC
  5
47A
100
AcDbEntity
  8
_0-0_
  6
CONTINUOUS
 62
     0
100
AcDbCircle
 10
307.5511307144
 20
587.5968960227
 40
0.3
100
AcDbArc
 50
90
 51
180
  0
ARC
  5
47B
100
AcDbEntity
  8
_0-0_
  6
CONTINUOUS
 62
     0
100
AcDbCircle
 10
307.5511307144
 20
585.6968940227
 40
0.3
100
AcDbArc
 50
180
 51
270
  0
LINE
  5
47C
100
AcDbEntity
  8
_0-0_
  6
CONTINUOUS
 62
     0
100
AcDbLine
 10
307.5511307144
 20
585.3968940227
 11
309.5011307144
 21
585.3968940227
  0
LINE
  5
47D
100
AcDbEntity
  8
_0-0_
  6
CONTINUOUS
 62
     0
100
AcDbLine
 10
311.7511307144
 20
586.2968940227
 11
307.2511307144
 21
586.2968940227
  0
ARC
  5
47E
100
AcDbEntity
  8
_0-0_
  6
CONTINUOUS
 62
     0
100
AcDbCircle
 10
311.7511307144
 20
588.8968950227
 40
2.600001
100
AcDbArc
 50
-90
 51
0
  0
LINE
  5
47F
100
AcDbEntity
  8
_0-0_
  6
CONTINUOUS
 62
     0
100
AcDbLine
 10
314.3511317144
 20
588.8968950227
 11
314.3511317144
 21
594.2766150227
  0
ARC
  5
480
100
AcDbEntity
  8
_0-0_
  6
CONTINUOUS
 62
     0
100
AcDbCircle
 10
315.3511307144
 20
594.2766150227
 40
2.600001
100
AcDbArc
 50
93
 51
180
  0
LINE
  5
481
100
AcDbEntity
  8
_0-0_
  6
CONTINUOUS
 62
     0
100
AcDbLine
 10
312.7511297144
 20
594.2766150227
 11
312.7511297144
 21
588.8968950227
  0
ARC
  5
482
100
AcDbEntity
  8
_0-0_
  6
CONTINUOUS
 62
     0
100
AcDbCircle
 10
311.7511307144
 20
588.8968950227
 40
0.999999
100
AcDbArc
 50
-90
 51
0
  0
LINE
  5
483
100
AcDbEntity
  8
_0-0_
  6
CONTINUOUS
 62
     0
100
AcDbLine
 10
311.7511307144
 20
587.8968960227
 11
307.5511307144
 21
587.8968960227
  0
ARC
  5
484
100
AcDbEntity
  8
_0-0_
  6
CONTINUOUS
 62
     0
100
AcDbCircle
 10
315.3511307144
 20
594.2766150227
 40
0.999999
100
AcDbArc
 50
93
 51
180
  0
LINE
  5
485
100
AcDbEntity
  8
_0-0_
  6
CONTINUOUS
 62
     0
100
AcDbLine
 10
314.7511307144
 20
583.4968950227
 11
314.7511307144
 21
581.8968960227
  0
ARC
  5
486
100
AcDbEntity
  8
_0-0_
  6
CONTINUOUS
 62
     0
100
AcDbCircle
 10
302.7511307144
 20
587.6381250227
 40
10.25
100
AcDbArc
 50
-90
 51
-71.07535558395
  0
LINE
  5
487
100
AcDbEntity
  8
_0-0_
  6
CONTINUOUS
 62
     0
100
AcDbLine
 10
308.7511307144
 20
578.3881250227
 11
308.7511307144
 21
577.3881250227
  0
LINE
  5
488
100
AcDbEntity
  8
_0-0_
  6
CONTINUOUS
 62
     0
100
AcDbLine
 10
309.6266683763
 20
577.3881250227
 11
308.7511307144
 21
578.2636626846
  0
LINE
  5
489
100
AcDbEntity
  8
_0-0_
  6
CONTINUOUS
 62
     0
100
AcDbLine
 10
311.0408819386
 20
577.3881250227
 11
310.0408819386
 21
578.3881250227
  0
LINE
  5
48A
100
AcDbEntity
  8
_0-0_
  6
CONTINUOUS
 62
     0
100
AcDbLine
 10
312.455095501
 20
577.3881250227
 11
311.455095501
 21
578.3881250227
  0
LINE
  5
48B
100
AcDbEntity
  8
_0-0_
  6
CONTINUOUS
 62
     0
100
AcDbLine
 10
313.8693090634
 20
577.3881250227
 11
312.8693090634
 21
578.3881250227
  0
LINE
  5
48C
100
AcDbEntity
  8
_0-0_
  6
CONTINUOUS
 62
     0
100
AcDbLine
 10
315.2835226258
 20
577.3881250227
 11
314.2835226258
 21
578.3881250227
  0
ARC
  5
48D
100
AcDbEntity
  8
_0-0_
  6
CONTINUOUS
 62
     0
100
AcDbCircle
 10
302.7511307144
 20
587.6381250227
 40
9.25
100
AcDbArc
 50
-90
 51
-71.07535558395
  0
ARC
  5
48E
100
AcDbEntity
  8
_0-0_
  6
CONTINUOUS
 62
     0
100
AcDbCircle
 10
308.7511307144
 20
570.1381250227
 40
9.25
100
AcDbArc
 50
90
 51
108.9246444161
  0
ARC
  5
48F
100
AcDbEntity
  8
_0-0_
  6
CONTINUOUS
 62
     0
100
AcDbCircle
 10
308.7511307144
 20
570.1381250227
 40
8.25
100
AcDbArc
 50
90
 51
108.9246444161
  0
LINE
  5
490
100
AcDbEntity
  8
_0-0_
  6
CONTINUOUS
 62
     0
100
AcDbLine
 10
299.2272466362
 20
607.7412956792
 11
311.1021136362
 21
621.0481376792
  0
LINE
  5
491
100
AcDbEntity
  8
_0-0_
  6
CONTINUOUS
 62
     0
100
AcDbLine
 10
294.5719636362
 20
610.0661786792
 11
295.1825086362
 21
610.5831266792
  0
LINE
  5
492
100
AcDbEntity
  8
_0-0_
  6
CONTINUOUS
 62
     0
100
AcDbLine
 10
295.1825086362
 20
610.5831266792
 11
297.1210666362
 21
608.2935866792
  0
LINE
  5
493
100
AcDbEntity
  8
_0-0_
  6
CONTINUOUS
 62
     0
100
AcDbLine
 10
294.5719636362
 20
610.0661786792
 11
296.5105216362
 21
607.7766386792
  0
ARC
  5
494
100
AcDbEntity
  8
_0-0_
  6
CONTINUOUS
 62
     0
100
AcDbCircle
 10
297.8842456362
 20
608.9397746792
 40
0.999999
100
AcDbArc
 50
-139.745342
 51
-41.745348
  0
LINE
  5
495
100
AcDbEntity
  8
_0-0_
  6
CONTINUOUS
 62
     0
100
AcDbLine
 10
298.6303576362
 20
608.2739516792
 11
310.7272456362
 21
621.8295896792
  0
ARC
  5
496
100
AcDbEntity
  8
_0-0_
  6
CONTINUOUS
 62
     0
100
AcDbCircle
 10
297.8842456362
 20
608.9397746792
 40
1.8
100
AcDbArc
 50
-139.745342
 51
-41.745349
  0
LINE
  5
497
100
AcDbEntity
  8
_0-0_
  6
CONTINUOUS
 62
     0
100
AcDbLine
 10
308.7511307144
 20
578.3881250227
 11
308.7511307144
 21
577.3881250227
  0
LINE
  5
498
100
AcDbEntity
  8
_0-0_
  6
CONTINUOUS
 62
     0
100
AcDbLine
 10
314.768804
 20
583.4881250227
 11
314.768804
 21
581.8881260227
  0
LINE
  5
499
100
AcDbEntity
  8
_0-0_
  6
CONTINUOUS
 62
     0
100
AcDbLine
 10
302.7511307144
 20
577.3881250227
 11
302.7511307144
 21
578.3881240227
  0
TEXT
  5
49A
100
AcDbEntity
  8
_0-0_
  6
CONTINUOUS
 62
     0
100
AcDbText
 10
276.2842999786
 20
587.8680120108
 40
9
  1
８
  7
STANDARD
100
AcDbText
  0
CIRCLE
  5
49B
100
AcDbEntity
  8
_0-0_
  6
CONTINUOUS
 62
     0
100
AcDbCircle
 10
280.8445672446
 20
591.8195747397
 40
6
  0
LINE
  5
49C
100
AcDbEntity
  8
_0-0_
  6
CONTINUOUS
 62
     0
100
AcDbLine
 10
296.4905662446
 20
618.9192377397
 11
283.8445672446
 21
597.0157247397
  0
CIRCLE
  5
49D
100
AcDbEntity
  8
_0-0_
  6
CONTINUOUS
 62
     0
100
AcDbCircle
 10
296.4905662446
 20
618.9192377397
 40
0.9
  0
LINE
  5
49E
100
AcDbEntity
  8
_0-0_
  6
CONTINUOUS
 62
     0
100
AcDbLine
 10
882.518805
 20
586.9881270227
 11
882.268805
 21
586.9881270227
  0
ARC
  5
49F
100
AcDbEntity
  8
_0-0_
  6
CONTINUOUS
 62
     0
100
AcDbCircle
 10
882.518805
 20
585.9881270227
 40
1
100
AcDbArc
 50
0
 51
90
  0
LINE
  5
4A0
100
AcDbEntity
  8
_0-0_
  6
CONTINUOUS
 62
     0
100
AcDbLine
 10
883.518805
 20
585.9881270227
 11
883.518805
 21
585.4881270227
  0
LINE
  5
4A1
100
AcDbEntity
  8
_0-0_
  6
CONTINUOUS
 62
     0
100
AcDbLine
 10
882.268805
 20
585.4881270227
 11
883.518805
 21
585.4881270227
  0
LINE
  5
4A2
100
AcDbEntity
  8
_0-0_
  6
CONTINUOUS
 62
     0
100
AcDbLine
 10
887.018805
 20
585.4881270227
 11
888.268805
 21
585.4881270227
  0
LINE
  5
4A3
100
AcDbEntity
  8
_0-0_
  6
CONTINUOUS
 62
     0
100
AcDbLine
 10
887.018805
 20
585.9881270227
 11
887.018805
 21
585.4881270227
  0
ARC
  5
4A4
100
AcDbEntity
  8
_0-0_
  6
CONTINUOUS
 62
     0
100
AcDbCircle
 10
888.018805
 20
585.9881270227
 40
1
100
AcDbArc
 50
90
 51
180
  0
LINE
  5
4A5
100
AcDbEntity
  8
_0-0_
  6
CONTINUOUS
 62
     0
100
AcDbLine
 10
889.268805
 20
586.9881270227
 11
888.018805
 21
586.9881270227
  0
ARC
  5
4A6
100
AcDbEntity
  8
_0-0_
  6
CONTINUOUS
 62
     0
100
AcDbCircle
 10
887.768805
 20
582.4881270227
 40
0.5
100
AcDbArc
 50
-90
 51
0
  0
ARC
  5
4A7
100
AcDbEntity
  8
_0-0_
  6
CONTINUOUS
 62
     0
100
AcDbCircle
 10
889.268805
 20
586.4881270227
 40
0.5
100
AcDbArc
 50
0
 51
90
  0
LINE
  5
4A8
100
AcDbEntity
  8
_0-0_
  6
CONTINUOUS
 62
     0
100
AcDbLine
 10
889.768805
 20
586.4881270227
 11
889.768805
 21
581.9881270227
  0
LINE
  5
4A9
100
AcDbEntity
  8
_0-0_
  6
CONTINUOUS
 62
     0
100
AcDbLine
 10
888.268805
 20
582.4881270227
 11
888.268805
 21
585.4881270227
  0
LINE
  5
4AA
100
AcDbEntity
  8
_0-0_
  6
CONTINUOUS
 62
     0
100
AcDbLine
 10
882.268805
 20
585.4881270227
 11
882.268805
 21
582.4881250227
  0
LINE
  5
4AB
100
AcDbEntity
  8
_0-0_
  6
CONTINUOUS
 62
     0
100
AcDbLine
 10
882.268805
 20
597.4881250227
 11
882.268805
 21
586.9881270227
  0
LINE
  5
4AC
100
AcDbEntity
  8
_0-0_
  6
CONTINUOUS
 62
     0
100
AcDbLine
 10
887.768805
 20
582.2381270227
 11
882.768803
 21
582.2381270227
  0
LINE
  5
4AD
100
AcDbEntity
  8
_0-0_
  6
CONTINUOUS
 62
     0
100
AcDbLine
 10
882.518805
 20
582.4881250227
 11
882.518805
 21
585.2381270227
  0
LINE
  5
4AE
100
AcDbEntity
  8
_0-0_
  6
CONTINUOUS
 62
     0
100
AcDbLine
 10
888.018805
 20
582.4881270227
 11
888.018805
 21
585.2381270227
  0
ARC
  5
4AF
100
AcDbEntity
  8
_0-0_
  6
CONTINUOUS
 62
     0
100
AcDbCircle
 10
882.768803
 20
582.4881250227
 40
0.250001
100
AcDbArc
 50
180
 51
270
  0
ARC
  5
4B0
100
AcDbEntity
  8
_0-0_
  6
CONTINUOUS
 62
     0
100
AcDbCircle
 10
887.768805
 20
582.4881270227
 40
0.25
100
AcDbArc
 50
-90
 51
0
  0
LINE
  5
4B1
100
AcDbEntity
  8
_0-0_
  6
CONTINUOUS
 62
     0
100
AcDbLine
 10
893.768805
 20
581.9881270227
 11
889.768805
 21
581.9881270227
  0
LINE
  5
4B2
100
AcDbEntity
  8
_0-0_
  6
CONTINUOUS
 62
     0
100
AcDbLine
 10
887.768805
 20
581.9881270227
 11
882.768803
 21
581.9881270227
  0
LINE
  5
4B3
100
AcDbEntity
  8
_0-0_
  6
CONTINUOUS
 62
     0
100
AcDbLine
 10
889.7747538738
 20
580.4881270227
 11
892.768805
 21
580.4881270227
  0
LINE
  5
4B4
100
AcDbEntity
  8
_0-0_
  6
CONTINUOUS
 62
     0
100
AcDbLine
 10
882.268805
 20
580.4881270227
 11
889.7747538738
 21
580.4881270227
  0
LINE
  5
4B5
100
AcDbEntity
  8
_0-0_
  6
CONTINUOUS
 62
     0
100
AcDbLine
 10
886.7688050001
 20
585.2381270227
 11
888.018805
 21
585.2381270227
  0
LINE
  5
4B6
100
AcDbEntity
  8
_0-0_
  6
CONTINUOUS
 62
     0
100
AcDbLine
 10
882.518805
 20
585.2381270227
 11
883.7688050001
 21
585.2381270227
  0
ARC
  5
4B7
100
AcDbEntity
  8
_0-0_
  6
CONTINUOUS
 62
     0
100
AcDbCircle
 10
893.768805
 20
581.4881270227
 40
0.5
100
AcDbArc
 50
0
 51
90
  0
LINE
  5
4B8
100
AcDbEntity
  8
_0-0_
  6
CONTINUOUS
 62
     0
100
AcDbLine
 10
894.268805
 20
581.4881270227
 11
894.268805
 21
579.4881250227
  0
LINE
  5
4B9
100
AcDbEntity
  8
_0-0_
  6
CONTINUOUS
 62
     0
100
AcDbLine
 10
894.268805
 20
579.4881250227
 11
892.768805
 21
579.4881250227
  0
LINE
  5
4BA
100
AcDbEntity
  8
_0-0_
  6
CONTINUOUS
 62
     0
100
AcDbLine
 10
892.768805
 20
580.4881270227
 11
892.768805
 21
579.4881250227
  0
LINE
  5
4BB
100
AcDbEntity
  8
_0-0_
  6
CONTINUOUS
 62
     0
100
AcDbLine
 10
882.268805
 20
580.4881270227
 11
882.268805
 21
579.4881250227
  0
ARC
  5
4BC
100
AcDbEntity
  8
_0-0_
  6
CONTINUOUS
 62
     0
100
AcDbCircle
 10
882.768803
 20
582.4881250227
 40
0.500001
100
AcDbArc
 50
180
 51
270
  0
ARC
  5
4BD
100
AcDbEntity
  8
_0-0_
  6
CONTINUOUS
 62
     0
100
AcDbCircle
 10
884.768804
 20
587.7293560227
 40
10.25
100
AcDbArc
 50
-108.9246444161
 51
-90
  0
ARC
  5
4BE
100
AcDbEntity
  8
_0-0_
  6
CONTINUOUS
 62
     0
100
AcDbCircle
 10
884.768804
 20
587.7293560227
 40
9.25
100
AcDbArc
 50
-108.9246444161
 51
-90
  0
ARC
  5
4BF
100
AcDbEntity
  8
_0-0_
  6
CONTINUOUS
 62
     0
100
AcDbCircle
 10
884.768804
 20
587.7293560227
 40
10.25
100
AcDbArc
 50
-108.9246444161
 51
-90
  0
ARC
  5
4C0
100
AcDbEntity
  8
_0-0_
  6
CONTINUOUS
 62
     0
100
AcDbCircle
 10
884.768804
 20
587.7293560227
 40
9.25
100
AcDbArc
 50
-108.9246444161
 51
-90
  0
CIRCLE
  5
4C1
100
AcDbEntity
  8
_0-0_
  6
CONTINUOUS
 62
     0
100
AcDbCircle
 10
881.3180422856
 20
582.2019780227
 40
0.9
  0
LINE
  5
4C2
100
AcDbEntity
  8
_0-0_
  6
CONTINUOUS
 62
     0
100
AcDbLine
 10
884.768804
 20
578.4793560227
 11
884.768804
 21
577.4793560227
  0
LINE
  5
4C3
100
AcDbEntity
  8
_0-0_
  6
CONTINUOUS
 62
     0
100
AcDbLine
 10
886.7688050001
 20
585.2381270227
 11
886.7688050001
 21
605.6209458786
  0
LINE
  5
4C4
100
AcDbEntity
  8
_0-0_
  6
CONTINUOUS
 62
     0
100
AcDbLine
 10
883.7688050001
 20
585.2381270227
 11
883.7688050001
 21
604.1576828826
  0
ARC
  5
4C5
100
AcDbEntity
  8
_0-0_
  6
CONTINUOUS
 62
     0
100
AcDbCircle
 10
908.7688050001
 20
604.1576828826
 40
25
100
AcDbArc
 50
78.59045565079
 51
180
  0
ARC
  5
4C6
100
AcDbEntity
  8
_0-0_
  6
CONTINUOUS
 62
     0
100
AcDbCircle
 10
909.844750594
 20
604.8893143806
 40
23.08754100601
100
AcDbArc
 50
80.80133910481
 51
181.8159758207
  0
ARC
  5
4C7
100
AcDbEntity
  8
_0-0_
  6
CONTINUOUS
 62
     0
100
AcDbCircle
 10
913.6154104723
 20
628.173519645
 40
0.5
100
AcDbArc
 50
-99.19866089519
 51
78.59045565079
  0
CIRCLE
  5
4C8
100
AcDbEntity
  8
_0-0_
  6
CONTINUOUS
 62
     0
100
AcDbCircle
 10
620.399354852
 20
489.1345454998
 40
6
  0
TEXT
  5
4C9
100
AcDbEntity
  8
_0-0_
  6
CONTINUOUS
 62
     0
100
AcDbText
 10
616.7184874068
 20
485.1373003013
 40
9
  1
７
  7
STANDARD
100
AcDbText
  0
LINE
  5
4CA
100
AcDbEntity
  8
_0-0_
  6
CONTINUOUS
 62
     0
100
AcDbLine
 10
593.768804
 20
440.9252994939
 11
618.347234852
 21
483.4963904998
  0
CIRCLE
  5
4CB
100
AcDbEntity
  8
_0-0_
  6
CONTINUOUS
 62
     0
100
AcDbCircle
 10
593.768804
 20
440.9252994939
 40
0.9
  0
TEXT
  5
4CC
100
AcDbEntity
  8
_0-0_
  6
CONTINUOUS
 62
     0
100
AcDbText
 10
925.8335099858
 20
633.8652594344
 40
9
  1
３
  7
STANDARD
100
AcDbText
  0
TEXT
  5
4CD
100
AcDbEntity
  8
_0-0_
  6
CONTINUOUS
 62
     0
100
AcDbText
 10
898.3412353473
 20
647.3659300158
 40
9
  1
４
  7
STANDARD
100
AcDbText
  0
TEXT
  5
4CE
100
AcDbEntity
  8
_0-0_
  6
CONTINUOUS
 62
     0
100
AcDbText
 10
884.5326289481
 20
561.7259658618
 40
9
  1
５
  7
STANDARD
100
AcDbText
  0
TEXT
  5
4CF
100
AcDbEntity
  8
_0-0_
  6
CONTINUOUS
 62
     0
100
AcDbText
 10
1048.898407845
 20
648.1475128659
 40
9
  1
６
  7
STANDARD
100
AcDbText
  0
TEXT
  5
4D0
100
AcDbEntity
  8
_0-0_
  6
CONTINUOUS
 62
     0
100
AcDbText
 10
882.3858973875
 20
643.1929954724
 40
9
  1
９
  7
STANDARD
100
AcDbText
  0
TEXT
  5
4D1
100
AcDbEntity
  8
_0-0_
  6
CONTINUOUS
 62
     0
100
AcDbText
 10
883.5481897405
 20
545.9749385401
 40
9
  1
10
  7
STANDARD
100
AcDbText
  0
TEXT
  5
4D2
100
AcDbEntity
  8
_0-0_
  6
CONTINUOUS
 62
     0
100
AcDbText
 10
843.8424750336
 20
523.9891295702
 40
9
  1
11
  7
STANDARD
100
AcDbText
  0
TEXT
  5
4D3
100
AcDbEntity
  8
_0-0_
  6
CONTINUOUS
 62
     0
100
AcDbText
 10
838.9202789955
 20
554.8348914086
 40
9
  1
12
  7
STANDARD
100
AcDbText
  0
TEXT
  5
4D4
100
AcDbEntity
  8
_0-0_
  6
CONTINUOUS
 62
     0
100
AcDbText
 10
660.6234660336
 20
320.3551779143
 40
7.49
  1
１５０ＦＹＹＧ－Ｓ６５０
  7
STANDARD
100
AcDbText
  0
TEXT
  5
4D5
100
AcDbEntity
  8
_0-0_
  6
CONTINUOUS
 62
     0
100
AcDbText
 10
660.6234660336
 20
300.339683929
 40
7.5
  1
 　　〃　　　７００
  7
STANDARD
100
AcDbText
  0
TEXT
  5
4D6
100
AcDbEntity
  8
_0-0_
  6
CONTINUOUS
 62
     0
100
AcDbText
 10
660.6234660336
 20
282.339683929
 40
7.5
  1
 　　〃　　　７５０
  7
STANDARD
100
AcDbText
  0
TEXT
  5
4D7
100
AcDbEntity
  8
_0-0_
  6
CONTINUOUS
 62
     0
100
AcDbText
 10
660.6234660336
 20
264.339683929
 40
7.5
  1
 　　〃　　　８００
  7
STANDARD
100
AcDbText
  0
TEXT
  5
4D8
100
AcDbEntity
  8
_0-0_
  6
CONTINUOUS
 62
     0
100
AcDbText
 10
660.6234660336
 20
246.339683929
 40
7.5
  1
 　　〃　　　８５０
  7
STANDARD
100
AcDbText
  0
TEXT
  5
4D9
100
AcDbEntity
  8
_0-0_
  6
CONTINUOUS
 62
     0
100
AcDbText
 10
660.6234660336
 20
228.339683929
 40
7.5
  1
 　　〃　　　９００
  7
STANDARD
100
AcDbText
  0
TEXT
  5
4DA
100
AcDbEntity
  8
_0-1_PRO0
  6
CONTINUOUS
 62
     0
100
AcDbText
 10
393.281196377
 20
401.8935559824
 40
8.99
  1
Ｃ
 41
0.7363737486096
  7
STANDARD
100
AcDbText
  0
TEXT
  5
4DB
100
AcDbEntity
  8
_0-1_PRO0
  6
CONTINUOUS
 62
     0
100
AcDbText
 10
791.7005769877
 20
402.3300195674
 40
9
  1
Ｃ
 41
0.7377777777778
  7
STANDARD
100
AcDbText
  0
TEXT
  5
4DC
100
AcDbEntity
  8
_0-1_PRO0
  6
CONTINUOUS
 62
     0
100
AcDbText
 10
968.907500355
 20
401.2115096269
 40
9
  1
１３０
 41
0.7377777777778
  7
STANDARD
100
AcDbText
  0
TEXT
  5
4DD
100
AcDbEntity
  8
_0-1_PRO0
  6
CONTINUOUS
 62
     0
100
AcDbText
 10
196.1170028262
 20
401.5007986248
 40
8.99
  1
１３０
 41
0.7363737486096
  7
STANDARD
100
AcDbText
  0
TEXT
  5
4DE
100
AcDbEntity
  8
_0-0_
  6
CONTINUOUS
 62
     0
100
AcDbText
 10
275.4359660336
 20
318.339683929
 40
7.5
  1
１５０ＦＹＹ－Ｓ６５０～９００
  7
STANDARD
100
AcDbText
  0
TEXT
  5
4DF
100
AcDbEntity
  8
_0-0_
  6
CONTINUOUS
 62
     0
100
AcDbText
 10
275.4359660336
 20
282.339683929
 40
7.5
  1
１５０ＦＹＹＨ－６５０～９００
  7
STANDARD
100
AcDbText
  0
TEXT
  5
4E0
100
AcDbEntity
  8
_0-0_
  6
CONTINUOUS
 62
     0
100
AcDbText
 10
275.4359660336
 20
228.339683929
 40
7.5
  1
１５０ＦＹＹＪ－６５０～９００
 41
0.9986666666667
  7
STANDARD
100
AcDbText
  0
TEXT
  5
4E1
100
AcDbEntity
  8
_0-0_
  6
CONTINUOUS
 62
     0
100
AcDbText
 10
278.2484660336
 20
210.339683929
 40
7.5
  1
ＦＳ５００～９００
 41
0.9986666666667
  7
STANDARD
100
AcDbText
  0
TEXT
  5
4E2
100
AcDbEntity
  8
_0-0_
  6
CONTINUOUS
 62
     0
100
AcDbText
 10
278.5609660336
 20
174.339683929
 40
7.49
  1
なべＭ６×３５
 41
1.001335113485
  7
STANDARD
100
AcDbText
  0
TEXT
  5
4E3
100
AcDbEntity
  8
_0-0_
  6
CONTINUOUS
 62
     0
100
AcDbText
 10
279.8109660336
 20
156.339683929
 40
7.49
  1
Ｍ６×４０
 41
1.001335113485
  7
STANDARD
100
AcDbText
  0
TEXT
  5
4E4
100
AcDbEntity
  8
_0-0_
  6
CONTINUOUS
 62
     0
100
AcDbText
 10
279.1859660336
 20
138.339683929
 40
7.5
  1
ＡＧ－６６０
  7
STANDARD
100
AcDbText
  0
TEXT
  5
4E5
100
AcDbEntity
  8
_0-0_
  6
CONTINUOUS
 62
     0
100
AcDbText
 10
277.6234660336
 20
120.339683929
 40
7.5
  1
１.５×１８×６.５穴
  7
STANDARD
100
AcDbText
  0
TEXT
  5
4E6
100
AcDbEntity
  8
_0-0_
  6
CONTINUOUS
 62
     0
100
AcDbText
 10
278.5609660336
 20
102.339683929
 40
7.5
  1
ｔ１．０×ｗ３０
 41
0.9986666666667
  7
STANDARD
100
AcDbText
  0
TEXT
  5
4E7
100
AcDbEntity
  8
_0-0_
  6
CONTINUOUS
 62
     0
100
AcDbText
 10
128.2484660336
 20
174.339683929
 40
7.49
  1
ステン小ねじ
 41
1.001335113485
  7
STANDARD
100
AcDbText
  0
ENDSEC
  0
SECTION
  2
OBJECTS
  0
DICTIONARY
  5
4E8
100
AcDbDictionary
  3
ACAD_GROUP
350
4E9
  3
ACAD_IMAGE_DICT
350
4EA
  3
ACAD_MLINESTYLE
350
4EB
  0
DICTIONARY
  5
4E9
330
4E8
100
AcDbDictionary
  0
DICTIONARY
  5
4EA
100
AcDbDictionary
  0
DICTIONARY
  5
4EB
100
AcDbDictionary
  3
STANDARD
350
4EC
  0
RASTERVARIABLES
  5
4ED
100
AcDbRasterVariables
 90
     0
 70
     1
 71
     1
 72
     0
  0
MLINESTYLE
  5
4EC
100
AcDbMlineStyle
  2
STANDARD
 70
     0
  3

 62
   256
 51
90
 52
90
 71
     0
  0
ENDSEC
  0
EOF
