  0
SECTION
  2
HEADER
  9
$ACADVER
  1
AC1015
  9
$DWGCODEPAGE
  3
ANSI_932
  9
$EXTMIN
 10
8
 20
6
  9
$EXTMAX
 10
832
 20
582
  9
$LIMMIN
 10
0
 20
0
  9
$LIMMAX
 10
840
 20
588
  9
$LTSCALE
 40
2
  9
$DIMSCALE
 40
2
  9
$DIMSTYLE
  2
M7DIMSTL
  9
$HANDSEED
  5
7FFFFFFF
  9
$MEASUREMENT
 70
     1
  0
ENDSEC
  0
SECTION
  2
CLASSES
  0
CLASS
  1
CSOFTARXCLASS
  2
CSoftArxClass
  3
CSRasterApi
 90
     0
280
     0
281
     0
  0
CLASS
  1
IMAGEDEF
  2
AcDbRasterImageDef
  3
ISM
 90
     0
280
     0
281
     0
  0
CLASS
  1
RASTERVARIABLES
  2
AcDbRasterVariables
  3
ISM
 90
     0
280
     0
281
     0
  0
CLASS
  1
IMAGE
  2
AcDbRasterImage
  3
ISM
 90
   127
280
     0
281
     0
  0
CLASS
  1
IMAGEDEF_REACTOR
  2
AcDbRasterImageDefReactor
  3
ISM
 90
     1
280
     0
281
     0
  0
CLASS
  1
HATCH
  2
AcDbHatch
  3
M7
 90
     0
280
     0
281
     1
  0
ENDSEC
  0
SECTION
  2
TABLES
  0
TABLE
  2
VPORT
  5
FF
100
AcDbSymbolTable
 70
     5
  0
VPORT
  5
100
100
AcDbSymbolTableRecord
100
AcDbViewportTableRecord
  2
*ACTIVE
 70
     0
 10
0
 20
0
 11
1
 21
1
 12
420
 22
294
 13
0
 23
0
 14
0
 24
0
 15
0
 25
0
 16
0
 26
0
 36
1
 17
0
 27
0
 37
0
 40
294
 41
1.428571428571
 42
50
 43
0
 44
0
 50
0
 51
0
 71
     0
 72
   100
 73
     1
 74
     3
 75
     0
 76
     0
 77
     0
 78
     0
  0
ENDTAB
  0
TABLE
  2
LTYPE
  5
101
100
AcDbSymbolTable
 70
     1
  0
LTYPE
  5
102
100
AcDbSymbolTableRecord
100
AcDbLinetypeTableRecord
  2
BYBLOCK
 70
     0
  3

 72
    65
 73
     0
 40
0
  0
LTYPE
  5
103
100
AcDbSymbolTableRecord
100
AcDbLinetypeTableRecord
  2
BYLAYER
 70
     0
  3

 72
    65
 73
     0
 40
0
  0
LTYPE
  5
104
100
AcDbSymbolTableRecord
100
AcDbLinetypeTableRecord
  2
CONTINUOUS
 70
     0
  3
Solid line
 72
    65
 73
     0
 40
0
  0
LTYPE
  5
105
100
AcDbSymbolTableRecord
100
AcDbLinetypeTableRecord
  2
DOT
 70
     0
  3
...............................
 72
    65
 73
     2
 40
2
 49
1
 74
     0
 49
-1
 74
     0
  0
LTYPE
  5
106
100
AcDbSymbolTableRecord
100
AcDbLinetypeTableRecord
  2
DASHED
 70
     0
  3
- - - - - - - - - - - - - - - -
 72
    65
 73
     2
 40
4
 49
2
 74
     0
 49
-2
 74
     0
  0
LTYPE
  5
107
100
AcDbSymbolTableRecord
100
AcDbLinetypeTableRecord
  2
DASHED2
 70
     0
  3
-- -- -- -- -- -- -- -- -- -- -
 72
    65
 73
     2
 40
8
 49
5
 74
     0
 49
-3
 74
     0
  0
LTYPE
  5
108
100
AcDbSymbolTableRecord
100
AcDbLinetypeTableRecord
  2
CENTER
 70
     0
  3
--------- - --------- - -------
 72
    65
 73
     4
 40
23
 49
20
 74
     0
 49
-1
 74
     0
 49
1
 74
     0
 49
-1
 74
     0
  0
LTYPE
  5
109
100
AcDbSymbolTableRecord
100
AcDbLinetypeTableRecord
  2
CENTERX2
 70
     0
  3
-------------- - --------------
 72
    65
 73
     4
 40
43
 49
40
 74
     0
 49
-1
 74
     0
 49
1
 74
     0
 49
-1
 74
     0
  0
LTYPE
  5
10A
100
AcDbSymbolTableRecord
100
AcDbLinetypeTableRecord
  2
CENTER2
 70
     0
  3
------ - ----- - ------ - -----
 72
    65
 73
     4
 40
13
 49
10
 74
     0
 49
-1
 74
     0
 49
1
 74
     0
 49
-1
 74
     0
  0
LTYPE
  5
10B
100
AcDbSymbolTableRecord
100
AcDbLinetypeTableRecord
  2
PHANTOM
 70
     0
  3
-------- - - ------- - - ------
 72
    65
 73
     6
 40
25
 49
20
 74
     0
 49
-1
 74
     0
 49
1
 74
     0
 49
-1
 74
     0
 49
1
 74
     0
 49
-1
 74
     0
  0
LTYPE
  5
10C
100
AcDbSymbolTableRecord
100
AcDbLinetypeTableRecord
  2
PHANTOMX2
 70
     0
  3
------------- - - -------------
 72
    65
 73
     6
 40
45
 49
40
 74
     0
 49
-1
 74
     0
 49
1
 74
     0
 49
-1
 74
     0
 49
1
 74
     0
 49
-1
 74
     0
  0
LTYPE
  5
10D
100
AcDbSymbolTableRecord
100
AcDbLinetypeTableRecord
  2
PHANTOM2
 70
     0
  3
---- - - ---- - - ---- - - ----
 72
    65
 73
     6
 40
15
 49
10
 74
     0
 49
-1
 74
     0
 49
1
 74
     0
 49
-1
 74
     0
 49
1
 74
     0
 49
-1
 74
     0
  0
LTYPE
  5
10E
100
AcDbSymbolTableRecord
100
AcDbLinetypeTableRecord
  2
ACAD_ISO06W100
 70
     0
  3
------------ - - - ------------
 72
    65
 73
     8
 40
47
 49
40
 74
     0
 49
-1
 74
     0
 49
1
 74
     0
 49
-1
 74
     0
 49
1
 74
     0
 49
-1
 74
     0
 49
1
 74
     0
 49
-1
 74
     0
  0
LTYPE
  5
10F
100
AcDbSymbolTableRecord
100
AcDbLinetypeTableRecord
  2
ACAD_ISO14W100
 70
     0
  3
---- - - - -------- - - - -----
 72
    65
 73
     8
 40
27
 49
20
 74
     0
 49
-1
 74
     0
 49
1
 74
     0
 49
-1
 74
     0
 49
1
 74
     0
 49
-1
 74
     0
 49
1
 74
     0
 49
-1
 74
     0
  0
LTYPE
  5
110
100
AcDbSymbolTableRecord
100
AcDbLinetypeTableRecord
  2
ACAD_ISO11W100
 70
     0
  3
------- ------ - ------- ------
 72
    65
 73
     6
 40
44
 49
20
 74
     0
 49
-1
 74
     0
 49
20
 74
     0
 49
-1
 74
     0
 49
1
 74
     0
 49
-1
 74
     0
  0
LTYPE
  5
111
100
AcDbSymbolTableRecord
100
AcDbLinetypeTableRecord
  2
ACAD_ISO13W100
 70
     0
  3
------ ------ - - ------ ------
 72
    65
 73
     8
 40
46
 49
20
 74
     0
 49
-1
 74
     0
 49
20
 74
     0
 49
-1
 74
     0
 49
1
 74
     0
 49
-1
 74
     0
 49
1
 74
     0
 49
-1
 74
     0
  0
LTYPE
  5
112
100
AcDbSymbolTableRecord
100
AcDbLinetypeTableRecord
  2
ACAD_ISO15W100
 70
     0
  3
------ ----- - - - ------ -----
 72
    65
 73
    10
 40
48
 49
20
 74
     0
 49
-1
 74
     0
 49
20
 74
     0
 49
-1
 74
     0
 49
1
 74
     0
 49
-1
 74
     0
 49
1
 74
     0
 49
-1
 74
     0
 49
1
 74
     0
 49
-1
 74
     0
  0
LTYPE
  5
113
100
AcDbSymbolTableRecord
100
AcDbLinetypeTableRecord
  2
HIDDEN
 70
     0
  3
. . . . . . . . . . . . . . . .
 72
    65
 73
     2
 40
1.5
 49
1
 74
     0
 49
-0.5
 74
     0
  0
ENDTAB
  0
TABLE
  2
LAYER
  5
114
100
AcDbSymbolTable
 70
     1
  0
LAYER
  5
115
100
AcDbSymbolTableRecord
100
AcDbLayerTableRecord
  2
0
 70
     0
 62
     7
  6
CONTINUOUS
390
116
  0
LAYER
  5
117
100
AcDbSymbolTableRecord
100
AcDbLayerTableRecord
  2
_0-0_0
 70
     0
 62
     7
  6
CONTINUOUS
390
   278
  0
LAYER
  5
118
100
AcDbSymbolTableRecord
100
AcDbLayerTableRecord
  2
_0-2_寸法
 70
     0
 62
     7
  6
CONTINUOUS
390
   278
  0
LAYER
  5
119
100
AcDbSymbolTableRecord
100
AcDbLayerTableRecord
  2
_0-3_躯体と製品
 70
     0
 62
     7
  6
CONTINUOUS
390
   278
  0
LAYER
  5
11A
100
AcDbSymbolTableRecord
100
AcDbLayerTableRecord
  2
_0-4_図枠
 70
     0
 62
     7
  6
CONTINUOUS
390
   278
  0
ENDTAB
  0
TABLE
  2
STYLE
  5
11B
100
AcDbSymbolTable
 70
     1
  0
STYLE
  5
11C
100
AcDbSymbolTableRecord
100
AcDbTextStyleTableRecord
  2
STANDARD
 70
     0
 40
0
 41
0
 50
0
 71
     0
 42
1
  3
txt
  4
bigfont
  0
STYLE
  5
11D
100
AcDbSymbolTableRecord
100
AcDbTextStyleTableRecord
  2
VSTANDARD
 70
     4
 40
0
 41
0
 50
0
 71
     0
 42
1
  3
txt
  4
bigfont
  0
ENDTAB
  0
TABLE
  2
VIEW
  5
11E
100
AcDbSymbolTable
 70
     0
  0
ENDTAB
  0
TABLE
  2
UCS
  5
11F
100
AcDbSymbolTable
 70
     0
  0
ENDTAB
  0
TABLE
  2
APPID
  5
120
100
AcDbSymbolTable
 70
     1
  0
APPID
  5
121
100
AcDbSymbolTableRecord
100
AcDbRegAppTableRecord
  2
ACAD
 70
     0
  0
ENDTAB
  0
TABLE
  2
DIMSTYLE
  5
122
100
AcDbSymbolTable
 70
     1
100
AcDbDimStyleTable
 71
     0
  0
DIMSTYLE
105
123
100
AcDbSymbolTableRecord
100
AcDbDimStyleTableRecord
  2
M7DIMSTL
 70
     0
  3

  4

  5

  6

  7

 40
2
 41
2.5
 42
0.625
 43
3.75
 44
1.25
 45
0
 46
0
 47
0
 48
0
140
2.5
141
2.5
142
0
143
0.03937007874016
144
1
145
0
146
1
147
0.625
 71
     0
 72
     0
 73
     0
 74
     0
 75
     0
 76
     0
 77
     1
 78
     8
170
     0
171
     3
172
     1
173
     0
174
     0
175
     0
176
     0
177
     0
178
     0
270
     2
271
     2
272
     2
273
     2
274
     3
340
11C
275
     0
280
     0
281
     0
282
     0
283
     0
284
     8
285
     0
286
     0
287
     3
288
     0
  0
ENDTAB
  0
TABLE
  2
BLOCK_RECORD
  5
124
100
AcDbSymbolTable
 70
     2
  0
BLOCK_RECORD
  5
125
100
AcDbSymbolTableRecord
100
AcDbBlockTableRecord
  2
*MODEL_SPACE
  0
BLOCK_RECORD
  5
126
100
AcDbSymbolTableRecord
100
AcDbBlockTableRecord
  2
*PAPER_SPACE
  0
BLOCK_RECORD
  5
127
100
AcDbSymbolTableRecord
100
AcDbBlockTableRecord
  2
_DOT
  0
BLOCK_RECORD
  5
128
100
AcDbSymbolTableRecord
100
AcDbBlockTableRecord
  2
_OPEN30
  0
BLOCK_RECORD
  5
129
100
AcDbSymbolTableRecord
100
AcDbBlockTableRecord
  2
_ClosedBlank
  0
BLOCK_RECORD
  5
12A
100
AcDbSymbolTableRecord
100
AcDbBlockTableRecord
  2
_Origin
  0
BLOCK_RECORD
  5
12B
100
AcDbSymbolTableRecord
100
AcDbBlockTableRecord
  2
_Oblique
  0
BLOCK_RECORD
  5
12C
100
AcDbSymbolTableRecord
100
AcDbBlockTableRecord
  2
_Origin2
  0
BLOCK_RECORD
  5
12D
100
AcDbSymbolTableRecord
100
AcDbBlockTableRecord
  2
_BoxBlank
  0
BLOCK_RECORD
  5
12E
100
AcDbSymbolTableRecord
100
AcDbBlockTableRecord
  2
_BoxFilled
  0
BLOCK_RECORD
  5
12F
100
AcDbSymbolTableRecord
100
AcDbBlockTableRecord
  2
_Integral
  0
BLOCK_RECORD
  5
130
100
AcDbSymbolTableRecord
100
AcDbBlockTableRecord
  2
BK2
  0
BLOCK_RECORD
  5
131
100
AcDbSymbolTableRecord
100
AcDbBlockTableRecord
  2
BK3
  0
BLOCK_RECORD
  5
132
100
AcDbSymbolTableRecord
100
AcDbBlockTableRecord
  2
BK4
  0
BLOCK_RECORD
  5
133
100
AcDbSymbolTableRecord
100
AcDbBlockTableRecord
  2
BK5
  0
BLOCK_RECORD
  5
134
100
AcDbSymbolTableRecord
100
AcDbBlockTableRecord
  2
BK6
  0
BLOCK_RECORD
  5
135
100
AcDbSymbolTableRecord
100
AcDbBlockTableRecord
  2
BK7
  0
BLOCK_RECORD
  5
136
100
AcDbSymbolTableRecord
100
AcDbBlockTableRecord
  2
BK8
  0
BLOCK_RECORD
  5
137
100
AcDbSymbolTableRecord
100
AcDbBlockTableRecord
  2
BK9
  0
BLOCK_RECORD
  5
138
100
AcDbSymbolTableRecord
100
AcDbBlockTableRecord
  2
BK10
  0
BLOCK_RECORD
  5
139
100
AcDbSymbolTableRecord
100
AcDbBlockTableRecord
  2
BK11
  0
BLOCK_RECORD
  5
13A
100
AcDbSymbolTableRecord
100
AcDbBlockTableRecord
  2
BK12
  0
BLOCK_RECORD
  5
13B
100
AcDbSymbolTableRecord
100
AcDbBlockTableRecord
  2
BK13
  0
BLOCK_RECORD
  5
13C
100
AcDbSymbolTableRecord
100
AcDbBlockTableRecord
  2
BK14
  0
BLOCK_RECORD
  5
13D
100
AcDbSymbolTableRecord
100
AcDbBlockTableRecord
  2
BK15
  0
BLOCK_RECORD
  5
13E
100
AcDbSymbolTableRecord
100
AcDbBlockTableRecord
  2
BK16
  0
BLOCK_RECORD
  5
13F
100
AcDbSymbolTableRecord
100
AcDbBlockTableRecord
  2
BK17
  0
BLOCK_RECORD
  5
140
100
AcDbSymbolTableRecord
100
AcDbBlockTableRecord
  2
BK18
  0
BLOCK_RECORD
  5
141
100
AcDbSymbolTableRecord
100
AcDbBlockTableRecord
  2
BK19
  0
BLOCK_RECORD
  5
142
100
AcDbSymbolTableRecord
100
AcDbBlockTableRecord
  2
BK20
  0
BLOCK_RECORD
  5
143
100
AcDbSymbolTableRecord
100
AcDbBlockTableRecord
  2
BK21
  0
BLOCK_RECORD
  5
144
100
AcDbSymbolTableRecord
100
AcDbBlockTableRecord
  2
BK22
  0
BLOCK_RECORD
  5
145
100
AcDbSymbolTableRecord
100
AcDbBlockTableRecord
  2
BK23
  0
BLOCK_RECORD
  5
146
100
AcDbSymbolTableRecord
100
AcDbBlockTableRecord
  2
BK24
  0
BLOCK_RECORD
  5
147
100
AcDbSymbolTableRecord
100
AcDbBlockTableRecord
  2
BK25
  0
BLOCK_RECORD
  5
148
100
AcDbSymbolTableRecord
100
AcDbBlockTableRecord
  2
BK26
  0
BLOCK_RECORD
  5
149
100
AcDbSymbolTableRecord
100
AcDbBlockTableRecord
  2
BK27
  0
BLOCK_RECORD
  5
14A
100
AcDbSymbolTableRecord
100
AcDbBlockTableRecord
  2
BK28
  0
BLOCK_RECORD
  5
14B
100
AcDbSymbolTableRecord
100
AcDbBlockTableRecord
  2
BK29
  0
BLOCK_RECORD
  5
14C
100
AcDbSymbolTableRecord
100
AcDbBlockTableRecord
  2
BK30
  0
BLOCK_RECORD
  5
14D
100
AcDbSymbolTableRecord
100
AcDbBlockTableRecord
  2
BK31
  0
ENDTAB
  0
ENDSEC
  0
SECTION
  2
BLOCKS
  0
BLOCK
  5
14E
100
AcDbEntity
  8
0
100
AcDbBlockBegin
  2
*MODEL_SPACE
 70
     0
 10
0
 20
0
  3
*MODEL_SPACE
  1

  0
ENDBLK
  5
14F
100
AcDbEntity
  8
0
100
AcDbBlockEnd
  0
BLOCK
  5
150
100
AcDbEntity
 67
     1
  8
0
100
AcDbBlockBegin
  2
*PAPER_SPACE
 70
     0
 10
0
 20
0
  3
*PAPER_SPACE
  1

  0
ENDBLK
  5
151
100
AcDbEntity
 67
     1
  8
0
100
AcDbBlockEnd
  0
BLOCK
  5
152
100
AcDbEntity
 67
     1
  8
0
100
AcDbBlockBegin
  2
_DOT
 70
     0
 10
0
 20
0
  3
_DOT
  1

  0
LWPOLYLINE
  5
153
100
AcDbEntity
  8
0
  6
BYBLOCK
 62
     0
100
AcDbPolyline
 90
     2
 70
     1
 43
0.5
 10
-0.25
 20
0
 42
1
 10
0.25
 20
0
 42
1
  0
LINE
  5
154
100
AcDbEntity
  8
0
  6
BYBLOCK
 62
     0
100
AcDbLine
 10
-0.5
 20
0
 11
-1
 21
0
  0
ENDBLK
  5
155
100
AcDbEntity
  8
0
100
AcDbBlockEnd
  0
BLOCK
  5
156
100
AcDbEntity
 67
     1
  8
0
100
AcDbBlockBegin
  2
_OPEN30
 70
     0
 10
0
 20
0
  3
_OPEN30
  1

  0
LINE
  5
157
100
AcDbEntity
  8
0
  6
BYBLOCK
 62
     0
100
AcDbLine
 10
-1
 20
0.26794919
 11
0
 21
0
  0
LINE
  5
158
100
AcDbEntity
  8
0
  6
BYBLOCK
 62
     0
100
AcDbLine
 10
-1
 20
-0.26794919
 11
0
 21
0
  0
LINE
  5
159
100
AcDbEntity
  8
0
  6
BYBLOCK
 62
     0
100
AcDbLine
 10
0
 20
0
 11
-1
 21
0
  0
ENDBLK
  5
15A
100
AcDbEntity
  8
0
100
AcDbBlockEnd
  0
BLOCK
  5
15B
100
AcDbEntity
 67
     1
  8
0
100
AcDbBlockBegin
  2
_ClosedBlank
 70
     0
 10
0
 20
0
  3
_ClosedBlank
  1

  0
LINE
  5
15C
100
AcDbEntity
  8
0
  6
BYBLOCK
 62
     0
100
AcDbLine
 10
-1
 20
0.1666666666667
 11
0
 21
0
  0
LINE
  5
15D
100
AcDbEntity
  8
0
  6
BYBLOCK
 62
     0
100
AcDbLine
 10
0
 20
0
 11
-1
 21
-0.1666666666667
  0
LINE
  5
15E
100
AcDbEntity
  8
0
  6
BYBLOCK
 62
     0
100
AcDbLine
 10
-1
 20
0.1666666666667
 11
-1
 21
-0.1666666666667
  0
ENDBLK
  5
15F
100
AcDbEntity
  8
0
100
AcDbBlockEnd
  0
BLOCK
  5
160
100
AcDbEntity
 67
     1
  8
0
100
AcDbBlockBegin
  2
_Origin
 70
     0
 10
0
 20
0
  3
_Origin
  1

  0
CIRCLE
  5
161
100
AcDbEntity
  8
0
  6
BYBLOCK
 62
     0
100
AcDbCircle
 10
0
 20
0
 40
0.5
  0
LINE
  5
162
100
AcDbEntity
  8
0
  6
BYBLOCK
 62
     0
100
AcDbLine
 10
0
 20
0
 11
-1
 21
0
  0
ENDBLK
  5
163
100
AcDbEntity
  8
0
100
AcDbBlockEnd
  0
BLOCK
  5
164
100
AcDbEntity
 67
     1
  8
0
100
AcDbBlockBegin
  2
_Oblique
 70
     0
 10
0
 20
0
  3
_Oblique
  1

  0
LINE
  5
165
100
AcDbEntity
  8
0
  6
BYBLOCK
 62
     0
100
AcDbLine
 10
-0.5
 20
-0.5
 11
0.5
 21
0.5
  0
ENDBLK
  5
166
100
AcDbEntity
  8
0
100
AcDbBlockEnd
  0
BLOCK
  5
167
100
AcDbEntity
 67
     1
  8
0
100
AcDbBlockBegin
  2
_Origin2
 70
     0
 10
0
 20
0
  3
_Origin2
  1

  0
CIRCLE
  5
168
100
AcDbEntity
  8
0
  6
BYBLOCK
 62
     0
100
AcDbCircle
 10
0
 20
0
 40
0.5
  0
CIRCLE
  5
169
100
AcDbEntity
  8
0
  6
BYBLOCK
 62
     0
100
AcDbCircle
 10
0
 20
0
 40
0.25
  0
LINE
  5
16A
100
AcDbEntity
  8
0
  6
BYBLOCK
 62
     0
100
AcDbLine
 10
-0.5
 20
0
 11
-1
 21
0
  0
ENDBLK
  5
16B
100
AcDbEntity
  8
0
100
AcDbBlockEnd
  0
BLOCK
  5
16C
100
AcDbEntity
 67
     1
  8
0
100
AcDbBlockBegin
  2
_BoxBlank
 70
     0
 10
0
 20
0
  3
_BoxBlank
  1

  0
LINE
  5
16D
100
AcDbEntity
  8
0
  6
BYBLOCK
 62
     0
100
AcDbLine
 10
-0.5
 20
-0.5
 11
0.5
 21
-0.5
  0
LINE
  5
16E
100
AcDbEntity
  8
0
  6
BYBLOCK
 62
     0
100
AcDbLine
 10
0.5
 20
-0.5
 11
0.5
 21
0.5
  0
LINE
  5
16F
100
AcDbEntity
  8
0
  6
BYBLOCK
 62
     0
100
AcDbLine
 10
0.5
 20
0.5
 11
-0.5
 21
0.5
  0
LINE
  5
170
100
AcDbEntity
  8
0
  6
BYBLOCK
 62
     0
100
AcDbLine
 10
-0.5
 20
0.5
 11
-0.5
 21
-0.5
  0
LINE
  5
171
100
AcDbEntity
  8
0
  6
BYBLOCK
 62
     0
100
AcDbLine
 10
-0.5
 20
0
 11
-1
 21
0
  0
ENDBLK
  5
172
100
AcDbEntity
  8
0
100
AcDbBlockEnd
  0
BLOCK
  5
173
100
AcDbEntity
 67
     1
  8
0
100
AcDbBlockBegin
  2
_BoxFilled
 70
     0
 10
0
 20
0
  3
_BoxFilled
  1

  0
SOLID
  5
174
100
AcDbEntity
  8
0
  6
BYBLOCK
 62
     0
100
AcDbTrace
 10
-0.5
 20
0.5
 11
0.5
 21
0.5
 12
-0.5
 22
-0.5
 13
0.5
 23
-0.5
  0
LINE
  5
175
100
AcDbEntity
  8
0
  6
BYBLOCK
 62
     0
100
AcDbLine
 10
-0.5
 20
0
 11
-1
 21
0
  0
ENDBLK
  5
176
100
AcDbEntity
  8
0
100
AcDbBlockEnd
  0
BLOCK
  5
177
100
AcDbEntity
 67
     1
  8
0
100
AcDbBlockBegin
  2
_Integral
 70
     0
 10
0
 20
0
  3
_Integral
  1

  0
ARC
  5
178
100
AcDbEntity
  8
0
  6
BYBLOCK
 62
     0
100
AcDbCircle
 10
0.44488802
 20
-0.09133463
 40
0.45416667
100
AcDbArc
 50
101.999999998
 51
167.9999999799
  0
ARC
  5
179
100
AcDbEntity
  8
0
  6
BYBLOCK
 62
     0
100
AcDbCircle
 10
-0.44488802
 20
0.09133463
 40
0.45416667
100
AcDbArc
 50
282.0000000215
 51
348.0000000034
  0
ENDBLK
  5
17A
100
AcDbEntity
  8
0
100
AcDbBlockEnd
  0
BLOCK
  5
17B
100
AcDbEntity
  8
_0-2_寸法
100
AcDbBlockBegin
  2
BK2
 70
    64
 10
0
 20
0
  3
BK2
  1

  0
CIRCLE
  5
17C
100
AcDbEntity
  8
_0-2_寸法
  6
CONTINUOUS
 62
     0
100
AcDbCircle
 10
244.2462019383
 20
259
 40
0.25
  0
LINE
  5
17D
100
AcDbEntity
  8
_0-2_寸法
  6
CONTINUOUS
 62
     0
100
AcDbLine
 10
243.9962019383
 20
259
 11
244.4962019383
 21
259
  0
LINE
  5
17E
100
AcDbEntity
  8
_0-2_寸法
  6
CONTINUOUS
 62
     0
100
AcDbLine
 10
244.7462019383
 20
259
 11
245.2462019383
 21
259
  0
ENDBLK
  5
17F
100
AcDbEntity
 67
     1
  8
_0-2_寸法
100
AcDbBlockEnd
  0
BLOCK
  5
180
100
AcDbEntity
  8
_0-2_寸法
100
AcDbBlockBegin
  2
BK3
 70
    64
 10
0
 20
0
  3
BK3
  1

  0
CIRCLE
  5
181
100
AcDbEntity
  8
_0-2_寸法
  6
CONTINUOUS
 62
     0
100
AcDbCircle
 10
394
 20
259
 40
0.25
  0
LINE
  5
182
100
AcDbEntity
  8
_0-2_寸法
  6
CONTINUOUS
 62
     0
100
AcDbLine
 10
394.25
 20
259
 11
393.75
 21
259
  0
LINE
  5
183
100
AcDbEntity
  8
_0-2_寸法
  6
CONTINUOUS
 62
     0
100
AcDbLine
 10
393.5
 20
259
 11
393
 21
259
  0
ENDBLK
  5
184
100
AcDbEntity
 67
     1
  8
_0-2_寸法
100
AcDbBlockEnd
  0
BLOCK
  5
185
100
AcDbEntity
  8
_0-2_寸法
100
AcDbBlockBegin
  2
BK4
 70
    64
 10
0
 20
0
  3
BK4
  1

  0
CIRCLE
  5
186
100
AcDbEntity
  8
_0-2_寸法
  6
CONTINUOUS
 62
     0
100
AcDbCircle
 10
219
 20
259
 40
0.25
  0
LINE
  5
187
100
AcDbEntity
  8
_0-2_寸法
  6
CONTINUOUS
 62
     0
100
AcDbLine
 10
218.75
 20
259
 11
219.25
 21
259
  0
LINE
  5
188
100
AcDbEntity
  8
_0-2_寸法
  6
CONTINUOUS
 62
     0
100
AcDbLine
 10
219.5
 20
259
 11
220
 21
259
  0
ENDBLK
  5
189
100
AcDbEntity
 67
     1
  8
_0-2_寸法
100
AcDbBlockEnd
  0
BLOCK
  5
18A
100
AcDbEntity
  8
_0-2_寸法
100
AcDbBlockBegin
  2
BK5
 70
    64
 10
0
 20
0
  3
BK5
  1

  0
CIRCLE
  5
18B
100
AcDbEntity
  8
_0-2_寸法
  6
CONTINUOUS
 62
     0
100
AcDbCircle
 10
244
 20
259
 40
0.25
  0
LINE
  5
18C
100
AcDbEntity
  8
_0-2_寸法
  6
CONTINUOUS
 62
     0
100
AcDbLine
 10
244.25
 20
259
 11
243.75
 21
259
  0
LINE
  5
18D
100
AcDbEntity
  8
_0-2_寸法
  6
CONTINUOUS
 62
     0
100
AcDbLine
 10
243.5
 20
259
 11
243
 21
259
  0
ENDBLK
  5
18E
100
AcDbEntity
 67
     1
  8
_0-2_寸法
100
AcDbBlockEnd
  0
BLOCK
  5
18F
100
AcDbEntity
  8
_0-2_寸法
100
AcDbBlockBegin
  2
BK6
 70
    64
 10
0
 20
0
  3
BK6
  1

  0
CIRCLE
  5
190
100
AcDbEntity
  8
_0-2_寸法
  6
CONTINUOUS
 62
     0
100
AcDbCircle
 10
394
 20
259
 40
0.25
  0
LINE
  5
191
100
AcDbEntity
  8
_0-2_寸法
  6
CONTINUOUS
 62
     0
100
AcDbLine
 10
393.75
 20
259
 11
394.25
 21
259
  0
LINE
  5
192
100
AcDbEntity
  8
_0-2_寸法
  6
CONTINUOUS
 62
     0
100
AcDbLine
 10
394.5
 20
259
 11
395
 21
259
  0
ENDBLK
  5
193
100
AcDbEntity
 67
     1
  8
_0-2_寸法
100
AcDbBlockEnd
  0
BLOCK
  5
194
100
AcDbEntity
  8
_0-2_寸法
100
AcDbBlockBegin
  2
BK7
 70
    64
 10
0
 20
0
  3
BK7
  1

  0
CIRCLE
  5
195
100
AcDbEntity
  8
_0-2_寸法
  6
CONTINUOUS
 62
     0
100
AcDbCircle
 10
620
 20
259.0434120444
 40
0.25
  0
LINE
  5
196
100
AcDbEntity
  8
_0-2_寸法
  6
CONTINUOUS
 62
     0
100
AcDbLine
 10
620.25
 20
259.0434120444
 11
619.75
 21
259.0434120444
  0
LINE
  5
197
100
AcDbEntity
  8
_0-2_寸法
  6
CONTINUOUS
 62
     0
100
AcDbLine
 10
619.5
 20
259.0434120444
 11
619
 21
259.0434120444
  0
ENDBLK
  5
198
100
AcDbEntity
 67
     1
  8
_0-2_寸法
100
AcDbBlockEnd
  0
BLOCK
  5
199
100
AcDbEntity
  8
_0-2_寸法
100
AcDbBlockBegin
  2
BK8
 70
    64
 10
0
 20
0
  3
BK8
  1

  0
CIRCLE
  5
19A
100
AcDbEntity
  8
_0-2_寸法
  6
CONTINUOUS
 62
     0
100
AcDbCircle
 10
620
 20
485.1328167658
 40
0.25
  0
LINE
  5
19B
100
AcDbEntity
  8
_0-2_寸法
  6
CONTINUOUS
 62
     0
100
AcDbLine
 10
620.25
 20
485.1328167658
 11
619.75
 21
485.1328167658
  0
LINE
  5
19C
100
AcDbEntity
  8
_0-2_寸法
  6
CONTINUOUS
 62
     0
100
AcDbLine
 10
619.5
 20
485.1328167658
 11
619
 21
485.1328167658
  0
ENDBLK
  5
19D
100
AcDbEntity
 67
     1
  8
_0-2_寸法
100
AcDbBlockEnd
  0
BLOCK
  5
19E
100
AcDbEntity
  8
_0-2_寸法
100
AcDbBlockBegin
  2
BK9
 70
    64
 10
0
 20
0
  3
BK9
  1

  0
CIRCLE
  5
19F
100
AcDbEntity
  8
_0-2_寸法
  6
CONTINUOUS
 62
     0
100
AcDbCircle
 10
235
 20
485.1328167658
 40
0.25
  0
LINE
  5
1A0
100
AcDbEntity
  8
_0-2_寸法
  6
CONTINUOUS
 62
     0
100
AcDbLine
 10
234.75
 20
485.1328167658
 11
235.25
 21
485.1328167658
  0
LINE
  5
1A1
100
AcDbEntity
  8
_0-2_寸法
  6
CONTINUOUS
 62
     0
100
AcDbLine
 10
235.5
 20
485.1328167658
 11
236
 21
485.1328167658
  0
ENDBLK
  5
1A2
100
AcDbEntity
 67
     1
  8
_0-2_寸法
100
AcDbBlockEnd
  0
BLOCK
  5
1A3
100
AcDbEntity
  8
_0-2_寸法
100
AcDbBlockBegin
  2
BK10
 70
    64
 10
0
 20
0
  3
BK10
  1

  0
CIRCLE
  5
1A4
100
AcDbEntity
  8
_0-2_寸法
  6
CONTINUOUS
 62
     0
100
AcDbCircle
 10
220
 20
562.1328167658
 40
0.25
  0
LINE
  5
1A5
100
AcDbEntity
  8
_0-2_寸法
  6
CONTINUOUS
 62
     0
100
AcDbLine
 10
219.75
 20
562.1328167658
 11
220.25
 21
562.1328167658
  0
LINE
  5
1A6
100
AcDbEntity
  8
_0-2_寸法
  6
CONTINUOUS
 62
     0
100
AcDbLine
 10
220.5
 20
562.1328167658
 11
221
 21
562.1328167658
  0
ENDBLK
  5
1A7
100
AcDbEntity
 67
     1
  8
_0-2_寸法
100
AcDbBlockEnd
  0
BLOCK
  5
1A8
100
AcDbEntity
  8
_0-2_寸法
100
AcDbBlockBegin
  2
BK11
 70
    64
 10
0
 20
0
  3
BK11
  1

  0
CIRCLE
  5
1A9
100
AcDbEntity
  8
_0-2_寸法
  6
CONTINUOUS
 62
     0
100
AcDbCircle
 10
620
 20
562.1328167658
 40
0.25
  0
LINE
  5
1AA
100
AcDbEntity
  8
_0-2_寸法
  6
CONTINUOUS
 62
     0
100
AcDbLine
 10
620.25
 20
562.1328167658
 11
619.75
 21
562.1328167658
  0
LINE
  5
1AB
100
AcDbEntity
  8
_0-2_寸法
  6
CONTINUOUS
 62
     0
100
AcDbLine
 10
619.5
 20
562.1328167658
 11
619
 21
562.1328167658
  0
ENDBLK
  5
1AC
100
AcDbEntity
 67
     1
  8
_0-2_寸法
100
AcDbBlockEnd
  0
BLOCK
  5
1AD
100
AcDbEntity
  8
_0-2_寸法
100
AcDbBlockBegin
  2
BK12
 70
    64
 10
0
 20
0
  3
BK12
  1

  0
CIRCLE
  5
1AE
100
AcDbEntity
  8
_0-2_寸法
  6
CONTINUOUS
 62
     0
100
AcDbCircle
 10
220
 20
547.1328167658
 40
0.25
  0
LINE
  5
1AF
100
AcDbEntity
  8
_0-2_寸法
  6
CONTINUOUS
 62
     0
100
AcDbLine
 10
219.75
 20
547.1328167658
 11
220.25
 21
547.1328167658
  0
LINE
  5
1B0
100
AcDbEntity
  8
_0-2_寸法
  6
CONTINUOUS
 62
     0
100
AcDbLine
 10
220.5
 20
547.1328167658
 11
221
 21
547.1328167658
  0
ENDBLK
  5
1B1
100
AcDbEntity
 67
     1
  8
_0-2_寸法
100
AcDbBlockEnd
  0
BLOCK
  5
1B2
100
AcDbEntity
  8
_0-2_寸法
100
AcDbBlockBegin
  2
BK13
 70
    64
 10
0
 20
0
  3
BK13
  1

  0
CIRCLE
  5
1B3
100
AcDbEntity
  8
_0-2_寸法
  6
CONTINUOUS
 62
     0
100
AcDbCircle
 10
253.5
 20
547.1328167658
 40
0.25
  0
LINE
  5
1B4
100
AcDbEntity
  8
_0-2_寸法
  6
CONTINUOUS
 62
     0
100
AcDbLine
 10
253.75
 20
547.1328167658
 11
253.25
 21
547.1328167658
  0
LINE
  5
1B5
100
AcDbEntity
  8
_0-2_寸法
  6
CONTINUOUS
 62
     0
100
AcDbLine
 10
253
 20
547.1328167658
 11
252.5
 21
547.1328167658
  0
ENDBLK
  5
1B6
100
AcDbEntity
 67
     1
  8
_0-2_寸法
100
AcDbBlockEnd
  0
BLOCK
  5
1B7
100
AcDbEntity
  8
_0-2_寸法
100
AcDbBlockBegin
  2
BK14
 70
    64
 10
0
 20
0
  3
BK14
  1

  0
CIRCLE
  5
1B8
100
AcDbEntity
  8
_0-2_寸法
  6
CONTINUOUS
 62
     0
100
AcDbCircle
 10
233.5
 20
532.1328167658
 40
0.25
  0
LINE
  5
1B9
100
AcDbEntity
  8
_0-2_寸法
  6
CONTINUOUS
 62
     0
100
AcDbLine
 10
233.25
 20
532.1328167658
 11
233.75
 21
532.1328167658
  0
LINE
  5
1BA
100
AcDbEntity
  8
_0-2_寸法
  6
CONTINUOUS
 62
     0
100
AcDbLine
 10
234
 20
532.1328167658
 11
234.5
 21
532.1328167658
  0
ENDBLK
  5
1BB
100
AcDbEntity
 67
     1
  8
_0-2_寸法
100
AcDbBlockEnd
  0
BLOCK
  5
1BC
100
AcDbEntity
  8
_0-2_寸法
100
AcDbBlockBegin
  2
BK15
 70
    64
 10
0
 20
0
  3
BK15
  1

  0
CIRCLE
  5
1BD
100
AcDbEntity
  8
_0-2_寸法
  6
CONTINUOUS
 62
     0
100
AcDbCircle
 10
253.5
 20
532.1328167658
 40
0.25
  0
LINE
  5
1BE
100
AcDbEntity
  8
_0-2_寸法
  6
CONTINUOUS
 62
     0
100
AcDbLine
 10
253.75
 20
532.1328167658
 11
253.25
 21
532.1328167658
  0
LINE
  5
1BF
100
AcDbEntity
  8
_0-2_寸法
  6
CONTINUOUS
 62
     0
100
AcDbLine
 10
253
 20
532.1328167658
 11
252.5
 21
532.1328167658
  0
ENDBLK
  5
1C0
100
AcDbEntity
 67
     1
  8
_0-2_寸法
100
AcDbBlockEnd
  0
BLOCK
  5
1C1
100
AcDbEntity
  8
_0-2_寸法
100
AcDbBlockBegin
  2
BK16
 70
    64
 10
0
 20
0
  3
BK16
  1

  0
CIRCLE
  5
1C2
100
AcDbEntity
  8
_0-2_寸法
  6
CONTINUOUS
 62
     0
100
AcDbCircle
 10
288.5
 20
507.1328167658
 40
0.25
  0
LINE
  5
1C3
100
AcDbEntity
  8
_0-2_寸法
  6
CONTINUOUS
 62
     0
100
AcDbLine
 10
288.5
 20
507.3828167658
 11
288.5
 21
506.8828167658
  0
LINE
  5
1C4
100
AcDbEntity
  8
_0-2_寸法
  6
CONTINUOUS
 62
     0
100
AcDbLine
 10
288.5
 20
506.6328167658
 11
288.5
 21
506.1328167658
  0
ENDBLK
  5
1C5
100
AcDbEntity
 67
     1
  8
_0-2_寸法
100
AcDbBlockEnd
  0
BLOCK
  5
1C6
100
AcDbEntity
  8
_0-2_寸法
100
AcDbBlockBegin
  2
BK17
 70
    64
 10
0
 20
0
  3
BK17
  1

  0
CIRCLE
  5
1C7
100
AcDbEntity
  8
_0-2_寸法
  6
CONTINUOUS
 62
     0
100
AcDbCircle
 10
288.5
 20
492.1328167658
 40
0.25
  0
LINE
  5
1C8
100
AcDbEntity
  8
_0-2_寸法
  6
CONTINUOUS
 62
     0
100
AcDbLine
 10
288.5
 20
491.8828167658
 11
288.5
 21
492.3828167658
  0
LINE
  5
1C9
100
AcDbEntity
  8
_0-2_寸法
  6
CONTINUOUS
 62
     0
100
AcDbLine
 10
288.5
 20
492.6328167658
 11
288.5
 21
493.1328167658
  0
ENDBLK
  5
1CA
100
AcDbEntity
 67
     1
  8
_0-2_寸法
100
AcDbBlockEnd
  0
BLOCK
  5
1CB
100
AcDbEntity
  8
_0-2_寸法
100
AcDbBlockBegin
  2
BK18
 70
    64
 10
0
 20
0
  3
BK18
  1

  0
CIRCLE
  5
1CC
100
AcDbEntity
  8
_0-2_寸法
  6
CONTINUOUS
 62
     0
100
AcDbCircle
 10
288.5
 20
492.1328167658
 40
0.25
  0
LINE
  5
1CD
100
AcDbEntity
  8
_0-2_寸法
  6
CONTINUOUS
 62
     0
100
AcDbLine
 10
288.5
 20
492.3828167658
 11
288.5
 21
491.8828167658
  0
LINE
  5
1CE
100
AcDbEntity
  8
_0-2_寸法
  6
CONTINUOUS
 62
     0
100
AcDbLine
 10
288.5
 20
491.6328167658
 11
288.5
 21
491.1328167658
  0
ENDBLK
  5
1CF
100
AcDbEntity
 67
     1
  8
_0-2_寸法
100
AcDbBlockEnd
  0
BLOCK
  5
1D0
100
AcDbEntity
  8
_0-2_寸法
100
AcDbBlockBegin
  2
BK19
 70
    64
 10
0
 20
0
  3
BK19
  1

  0
CIRCLE
  5
1D1
100
AcDbEntity
  8
_0-2_寸法
  6
CONTINUOUS
 62
     0
100
AcDbCircle
 10
288.5
 20
456.1328167658
 40
0.25
  0
LINE
  5
1D2
100
AcDbEntity
  8
_0-2_寸法
  6
CONTINUOUS
 62
     0
100
AcDbLine
 10
288.5
 20
455.8828167658
 11
288.5
 21
456.3828167658
  0
LINE
  5
1D3
100
AcDbEntity
  8
_0-2_寸法
  6
CONTINUOUS
 62
     0
100
AcDbLine
 10
288.5
 20
456.6328167658
 11
288.5
 21
457.1328167658
  0
ENDBLK
  5
1D4
100
AcDbEntity
 67
     1
  8
_0-2_寸法
100
AcDbBlockEnd
  0
BLOCK
  5
1D5
100
AcDbEntity
  8
_0-2_寸法
100
AcDbBlockBegin
  2
BK20
 70
    64
 10
0
 20
0
  3
BK20
  1

  0
CIRCLE
  5
1D6
100
AcDbEntity
  8
_0-2_寸法
  6
CONTINUOUS
 62
     0
100
AcDbCircle
 10
164
 20
384
 40
0.25
  0
LINE
  5
1D7
100
AcDbEntity
  8
_0-2_寸法
  6
CONTINUOUS
 62
     0
100
AcDbLine
 10
164
 20
383.75
 11
164
 21
384.25
  0
LINE
  5
1D8
100
AcDbEntity
  8
_0-2_寸法
  6
CONTINUOUS
 62
     0
100
AcDbLine
 10
164
 20
384.5
 11
164
 21
385
  0
ENDBLK
  5
1D9
100
AcDbEntity
 67
     1
  8
_0-2_寸法
100
AcDbBlockEnd
  0
BLOCK
  5
1DA
100
AcDbEntity
  8
_0-2_寸法
100
AcDbBlockBegin
  2
BK21
 70
    64
 10
0
 20
0
  3
BK21
  1

  0
CIRCLE
  5
1DB
100
AcDbEntity
  8
_0-2_寸法
  6
CONTINUOUS
 62
     0
100
AcDbCircle
 10
164
 20
448.1328167658
 40
0.25
  0
LINE
  5
1DC
100
AcDbEntity
  8
_0-2_寸法
  6
CONTINUOUS
 62
     0
100
AcDbLine
 10
164
 20
448.3828167658
 11
164
 21
447.8828167658
  0
LINE
  5
1DD
100
AcDbEntity
  8
_0-2_寸法
  6
CONTINUOUS
 62
     0
100
AcDbLine
 10
164
 20
447.6328167658
 11
164
 21
447.1328167658
  0
ENDBLK
  5
1DE
100
AcDbEntity
 67
     1
  8
_0-2_寸法
100
AcDbBlockEnd
  0
BLOCK
  5
1DF
100
AcDbEntity
  8
_0-2_寸法
100
AcDbBlockBegin
  2
BK22
 70
    64
 10
0
 20
0
  3
BK22
  1

  0
CIRCLE
  5
1E0
100
AcDbEntity
  8
_0-2_寸法
  6
CONTINUOUS
 62
     0
100
AcDbCircle
 10
144
 20
384
 40
0.25
  0
LINE
  5
1E1
100
AcDbEntity
  8
_0-2_寸法
  6
CONTINUOUS
 62
     0
100
AcDbLine
 10
144
 20
383.75
 11
144
 21
384.25
  0
LINE
  5
1E2
100
AcDbEntity
  8
_0-2_寸法
  6
CONTINUOUS
 62
     0
100
AcDbLine
 10
144
 20
384.5
 11
144
 21
385
  0
ENDBLK
  5
1E3
100
AcDbEntity
 67
     1
  8
_0-2_寸法
100
AcDbBlockEnd
  0
BLOCK
  5
1E4
100
AcDbEntity
  8
_0-2_寸法
100
AcDbBlockBegin
  2
BK23
 70
    64
 10
0
 20
0
  3
BK23
  1

  0
CIRCLE
  5
1E5
100
AcDbEntity
  8
_0-2_寸法
  6
CONTINUOUS
 62
     0
100
AcDbCircle
 10
144
 20
507.1328167658
 40
0.25
  0
LINE
  5
1E6
100
AcDbEntity
  8
_0-2_寸法
  6
CONTINUOUS
 62
     0
100
AcDbLine
 10
144
 20
507.3828167658
 11
144
 21
506.8828167658
  0
LINE
  5
1E7
100
AcDbEntity
  8
_0-2_寸法
  6
CONTINUOUS
 62
     0
100
AcDbLine
 10
144
 20
506.6328167658
 11
144
 21
506.1328167658
  0
ENDBLK
  5
1E8
100
AcDbEntity
 67
     1
  8
_0-2_寸法
100
AcDbBlockEnd
  0
BLOCK
  5
1E9
100
AcDbEntity
  8
_0-2_寸法
100
AcDbBlockBegin
  2
BK24
 70
    64
 10
0
 20
0
  3
BK24
  1

  0
CIRCLE
  5
1EA
100
AcDbEntity
  8
_0-2_寸法
  6
CONTINUOUS
 62
     0
100
AcDbCircle
 10
489.7537980617
 20
258.9565879556
 40
0.25
  0
LINE
  5
1EB
100
AcDbEntity
  8
_0-2_寸法
  6
CONTINUOUS
 62
     0
100
AcDbLine
 10
490.0037980617
 20
258.9565879556
 11
489.5037980617
 21
258.9565879556
  0
LINE
  5
1EC
100
AcDbEntity
  8
_0-2_寸法
  6
CONTINUOUS
 62
     0
100
AcDbLine
 10
489.2537980617
 20
258.9565879556
 11
488.7537980617
 21
258.9565879556
  0
ENDBLK
  5
1ED
100
AcDbEntity
 67
     1
  8
_0-2_寸法
100
AcDbBlockEnd
  0
BLOCK
  5
1EE
100
AcDbEntity
  8
_0-2_寸法
100
AcDbBlockBegin
  2
BK25
 70
    64
 10
0
 20
0
  3
BK25
  1

  0
CIRCLE
  5
1EF
100
AcDbEntity
  8
_0-2_寸法
  6
CONTINUOUS
 62
     0
100
AcDbCircle
 10
490
 20
259
 40
0.25
  0
LINE
  5
1F0
100
AcDbEntity
  8
_0-2_寸法
  6
CONTINUOUS
 62
     0
100
AcDbLine
 10
489.75
 20
259
 11
490.25
 21
259
  0
LINE
  5
1F1
100
AcDbEntity
  8
_0-2_寸法
  6
CONTINUOUS
 62
     0
100
AcDbLine
 10
490.5
 20
259
 11
491
 21
259
  0
ENDBLK
  5
1F2
100
AcDbEntity
 67
     1
  8
_0-2_寸法
100
AcDbBlockEnd
  0
BLOCK
  5
1F3
100
AcDbEntity
  8
_0-2_寸法
100
AcDbBlockBegin
  2
BK26
 70
    64
 10
0
 20
0
  3
BK26
  1

  0
CIRCLE
  5
1F4
100
AcDbEntity
  8
_0-2_寸法
  6
CONTINUOUS
 62
     0
100
AcDbCircle
 10
660
 20
341.0825286933
 40
0.25
  0
LINE
  5
1F5
100
AcDbEntity
  8
_0-2_寸法
  6
CONTINUOUS
 62
     0
100
AcDbLine
 10
660
 20
340.8325286933
 11
660
 21
341.3325286933
  0
LINE
  5
1F6
100
AcDbEntity
  8
_0-2_寸法
  6
CONTINUOUS
 62
     0
100
AcDbLine
 10
660
 20
341.5825286933
 11
660
 21
342.0825286933
  0
ENDBLK
  5
1F7
100
AcDbEntity
 67
     1
  8
_0-2_寸法
100
AcDbBlockEnd
  0
BLOCK
  5
1F8
100
AcDbEntity
  8
_0-2_寸法
100
AcDbBlockBegin
  2
BK27
 70
    64
 10
0
 20
0
  3
BK27
  1

  0
CIRCLE
  5
1F9
100
AcDbEntity
  8
_0-2_寸法
  6
CONTINUOUS
 62
     0
100
AcDbCircle
 10
660
 20
384
 40
0.25
  0
LINE
  5
1FA
100
AcDbEntity
  8
_0-2_寸法
  6
CONTINUOUS
 62
     0
100
AcDbLine
 10
660
 20
384.25
 11
660
 21
383.75
  0
LINE
  5
1FB
100
AcDbEntity
  8
_0-2_寸法
  6
CONTINUOUS
 62
     0
100
AcDbLine
 10
660
 20
383.5
 11
660
 21
383
  0
ENDBLK
  5
1FC
100
AcDbEntity
 67
     1
  8
_0-2_寸法
100
AcDbBlockEnd
  0
BLOCK
  5
1FD
100
AcDbEntity
  8
_0-2_寸法
100
AcDbBlockBegin
  2
BK28
 70
    64
 10
0
 20
0
  3
BK28
  1

  0
CIRCLE
  5
1FE
100
AcDbEntity
  8
_0-2_寸法
  6
CONTINUOUS
 62
     0
100
AcDbCircle
 10
680
 20
341.0825286933
 40
0.25
  0
LINE
  5
1FF
100
AcDbEntity
  8
_0-2_寸法
  6
CONTINUOUS
 62
     0
100
AcDbLine
 10
680
 20
340.8325286933
 11
680
 21
341.3325286933
  0
LINE
  5
200
100
AcDbEntity
  8
_0-2_寸法
  6
CONTINUOUS
 62
     0
100
AcDbLine
 10
680
 20
341.5825286933
 11
680
 21
342.0825286933
  0
ENDBLK
  5
201
100
AcDbEntity
 67
     1
  8
_0-2_寸法
100
AcDbBlockEnd
  0
BLOCK
  5
202
100
AcDbEntity
  8
_0-2_寸法
100
AcDbBlockBegin
  2
BK29
 70
    64
 10
0
 20
0
  3
BK29
  1

  0
CIRCLE
  5
203
100
AcDbEntity
  8
_0-2_寸法
  6
CONTINUOUS
 62
     0
100
AcDbCircle
 10
680
 20
431.0825286933
 40
0.25
  0
LINE
  5
204
100
AcDbEntity
  8
_0-2_寸法
  6
CONTINUOUS
 62
     0
100
AcDbLine
 10
680
 20
431.3325286933
 11
680
 21
430.8325286933
  0
LINE
  5
205
100
AcDbEntity
  8
_0-2_寸法
  6
CONTINUOUS
 62
     0
100
AcDbLine
 10
680
 20
430.5825286933
 11
680
 21
430.0825286933
  0
ENDBLK
  5
206
100
AcDbEntity
 67
     1
  8
_0-2_寸法
100
AcDbBlockEnd
  0
BLOCK
  5
207
100
AcDbEntity
  8
_0-2_寸法
100
AcDbBlockBegin
  2
BK30
 70
    64
 10
0
 20
0
  3
BK30
  1

  0
CIRCLE
  5
208
100
AcDbEntity
  8
_0-2_寸法
  6
CONTINUOUS
 62
     0
100
AcDbCircle
 10
490
 20
324
 40
0.25
  0
LINE
  5
209
100
AcDbEntity
  8
_0-2_寸法
  6
CONTINUOUS
 62
     0
100
AcDbLine
 10
490.25
 20
324
 11
489.75
 21
324
  0
LINE
  5
20A
100
AcDbEntity
  8
_0-2_寸法
  6
CONTINUOUS
 62
     0
100
AcDbLine
 10
489.5
 20
324
 11
489
 21
324
  0
ENDBLK
  5
20B
100
AcDbEntity
 67
     1
  8
_0-2_寸法
100
AcDbBlockEnd
  0
BLOCK
  5
20C
100
AcDbEntity
  8
_0-2_寸法
100
AcDbBlockBegin
  2
BK31
 70
    64
 10
0
 20
0
  3
BK31
  1

  0
CIRCLE
  5
20D
100
AcDbEntity
  8
_0-2_寸法
  6
CONTINUOUS
 62
     0
100
AcDbCircle
 10
440
 20
324
 40
0.25
  0
LINE
  5
20E
100
AcDbEntity
  8
_0-2_寸法
  6
CONTINUOUS
 62
     0
100
AcDbLine
 10
439.75
 20
324
 11
440.25
 21
324
  0
LINE
  5
20F
100
AcDbEntity
  8
_0-2_寸法
  6
CONTINUOUS
 62
     0
100
AcDbLine
 10
440.5
 20
324
 11
441
 21
324
  0
ENDBLK
  5
210
100
AcDbEntity
 67
     1
  8
_0-2_寸法
100
AcDbBlockEnd
  0
ENDSEC
  0
SECTION
  2
ENTITIES
  0
TEXT
  5
211
100
AcDbEntity
  8
_0-4_図枠
  6
CONTINUOUS
 62
     0
100
AcDbText
 10
16.77901415653
 20
545.8887747445
 40
9
  1
　　屋根－壁（切欠き壁）
  7
STANDARD
100
AcDbText
  0
TEXT
  5
212
100
AcDbEntity
  8
_0-4_図枠
  6
CONTINUOUS
 62
     0
100
AcDbText
 10
16.77901415653
 20
526.5904655657
 40
9
  1
　　Ｓ＝１／２
  7
STANDARD
100
AcDbText
  0
CIRCLE
  5
213
100
AcDbEntity
  8
_0-4_図枠
  6
CONTINUOUS
 62
     0
100
AcDbCircle
 10
630.3900638536
 20
459.663885327
 40
6
  0
TEXT
  5
214
100
AcDbEntity
  8
_0-4_図枠
  6
CONTINUOUS
 62
     0
100
AcDbText
 10
628.3458371153
 20
476.6969510918
 40
5
  1
１
  7
STANDARD
100
AcDbText
  0
CIRCLE
  5
215
100
AcDbEntity
  8
_0-4_図枠
  6
CONTINUOUS
 62
     0
100
AcDbCircle
 10
631.3458371153
 20
479.6969510918
 40
6
  0
CIRCLE
  5
216
100
AcDbEntity
  8
_0-4_図枠
  6
CONTINUOUS
 62
     0
100
AcDbCircle
 10
280.2728563375
 20
342.6248534133
 40
6
  0
LINE
  5
217
100
AcDbEntity
  8
_0-4_図枠
  6
CONTINUOUS
 62
     0
100
AcDbLine
 10
263.3895691511
 20
313.3821422076
 11
277.2728563375
 21
337.4287009906
  0
CIRCLE
  5
218
100
AcDbEntity
  8
_0-4_図枠
  6
CONTINUOUS
 62
     0
100
AcDbCircle
 10
263.3895691511
 20
313.3821422076
 40
0.9
  0
CIRCLE
  5
219
100
AcDbEntity
  8
_0-4_図枠
  6
CONTINUOUS
 62
     0
100
AcDbCircle
 10
203.8580003902
 20
429.7236459671
 40
6
  0
LINE
  5
21A
100
AcDbEntity
  8
_0-4_図枠
  6
CONTINUOUS
 62
     0
100
AcDbLine
 10
224.2838028878
 20
441.5164885376
 11
209.0541528129
 21
432.7236459671
  0
CIRCLE
  5
21B
100
AcDbEntity
  8
_0-4_図枠
  6
CONTINUOUS
 62
     0
100
AcDbCircle
 10
224.2838028878
 20
441.5164885376
 40
0.9
  0
LINE
  5
21C
100
AcDbEntity
  8
_0-4_図枠
  6
CONTINUOUS
 62
     0
100
AcDbLine
 10
226.3630038442
 20
450.0520511703
 11
206.8771809495
 21
469.537874065
  0
CIRCLE
  5
21D
100
AcDbEntity
  8
_0-4_図枠
  6
CONTINUOUS
 62
     0
100
AcDbCircle
 10
202.6345402624
 20
473.7805147521
 40
6
  0
CIRCLE
  5
21E
100
AcDbEntity
  8
_0-4_図枠
  6
CONTINUOUS
 62
     0
100
AcDbCircle
 10
174.5682362501
 20
472.6817745393
 40
6
  0
LINE
  5
21F
100
AcDbEntity
  8
_0-4_図枠
  6
CONTINUOUS
 62
     0
100
AcDbLine
 10
187.0663603572
 20
451.0343885866
 11
177.5682362501
 21
467.4856221166
  0
CIRCLE
  5
220
100
AcDbEntity
  8
_0-4_図枠
  6
CONTINUOUS
 62
     0
100
AcDbCircle
 10
187.0663603572
 20
451.0343885866
 40
0.9
  0
CIRCLE
  5
221
100
AcDbEntity
  8
_0-4_図枠
  6
CONTINUOUS
 62
     0
100
AcDbCircle
 10
226.3630038442
 20
450.0520511703
 40
0.9
  0
LINE
  5
222
100
AcDbEntity
  8
_0-4_図枠
  6
CONTINUOUS
 62
     0
100
AcDbLine
 10
225.970412466
 20
480.8702037379
 11
207.8512972233
 21
512.2534319264
  0
TEXT
  5
223
100
AcDbEntity
  8
_0-4_図枠
  6
CONTINUOUS
 62
     0
100
AcDbText
 10
201.8512972233
 20
514.4495843492
 40
5
  1
４
  7
STANDARD
100
AcDbText
  0
CIRCLE
  5
224
100
AcDbEntity
  8
_0-4_図枠
  6
CONTINUOUS
 62
     0
100
AcDbCircle
 10
204.8512972233
 20
517.4495843492
 40
6
  0
LINE
  5
225
100
AcDbEntity
  8
_0-4_図枠
  6
CONTINUOUS
 62
     0
100
AcDbLine
 10
230.1419097734
 20
499.3890461558
 11
210.3318935557
 21
533.7010007437
  0
CIRCLE
  5
226
100
AcDbEntity
  8
_0-4_図枠
  6
CONTINUOUS
 62
     0
100
AcDbCircle
 10
207.3318935557
 20
538.8971531665
 40
6
  0
LINE
  5
227
100
AcDbEntity
  8
_0-4_図枠
  6
CONTINUOUS
 62
     0
100
AcDbLine
 10
246.5211428793
 20
491.3896213578
 11
264.7579643841
 21
522.9767227727
  0
TEXT
  5
228
100
AcDbEntity
  8
_0-4_図枠
  6
CONTINUOUS
 62
     0
100
AcDbText
 10
264.7579643841
 20
525.1728751954
 40
5
  1
２
  7
STANDARD
100
AcDbText
  0
CIRCLE
  5
229
100
AcDbEntity
  8
_0-4_図枠
  6
CONTINUOUS
 62
     0
100
AcDbCircle
 10
267.7579643841
 20
528.1728751954
 40
6
  0
LINE
  5
22A
100
AcDbEntity
  8
_0-4_図枠
  6
CONTINUOUS
 62
     0
100
AcDbLine
 10
251.2176991381
 20
472.5925095019
 11
272.6865555244
 21
509.7776595434
  0
CIRCLE
  5
22B
100
AcDbEntity
  8
_0-4_図枠
  6
CONTINUOUS
 62
     0
100
AcDbCircle
 10
275.6865555244
 20
514.9738119661
 40
6
  0
LINE
  5
22C
100
AcDbEntity
  8
_0-4_図枠
  6
CONTINUOUS
 62
     0
100
AcDbLine
 10
250.7208942486
 20
453.5342832929
 11
274.6125019454
 21
412.1528048875
  0
CIRCLE
  5
22D
100
AcDbEntity
  8
_0-4_図枠
  6
CONTINUOUS
 62
     0
100
AcDbCircle
 10
277.6125019454
 20
406.9566524648
 40
6
  0
CIRCLE
  5
22E
100
AcDbEntity
  8
_0-4_図枠
  6
CONTINUOUS
 62
     0
100
AcDbCircle
 10
230.1419097734
 20
499.3890461558
 40
0.9
  0
CIRCLE
  5
22F
100
AcDbEntity
  8
_0-4_図枠
  6
CONTINUOUS
 62
     0
100
AcDbCircle
 10
250.7208942486
 20
453.5342832929
 40
0.9
  0
CIRCLE
  5
230
100
AcDbEntity
  8
_0-4_図枠
  6
CONTINUOUS
 62
     0
100
AcDbCircle
 10
251.2176991381
 20
472.5925095019
 40
0.9
  0
CIRCLE
  5
231
100
AcDbEntity
  8
_0-4_図枠
  6
CONTINUOUS
 62
     0
100
AcDbCircle
 10
225.970412466
 20
480.8702037379
 40
0.9
  0
CIRCLE
  5
232
100
AcDbEntity
  8
_0-4_図枠
  6
CONTINUOUS
 62
     0
100
AcDbCircle
 10
246.5211428793
 20
491.3896213578
 40
0.9
  0
LINE
  5
233
100
AcDbEntity
  8
_0-3_躯体と製品
  6
CONTINUOUS
 62
     0
100
AcDbLine
 10
225
 20
439.1328167658
 11
225
 21
457.1328167658
  0
LINE
  5
234
100
AcDbEntity
  8
_0-3_躯体と製品
  6
CONTINUOUS
 62
     0
100
AcDbLine
 10
225
 20
439.1328167658
 11
223.5
 21
439.1328167658
  0
LINE
  5
235
100
AcDbEntity
  8
_0-3_躯体と製品
  6
CONTINUOUS
 62
     0
100
AcDbLine
 10
225
 20
457.1328167658
 11
223.5
 21
457.1328167658
  0
ARC
  5
236
100
AcDbEntity
  8
_0-3_躯体と製品
  6
CONTINUOUS
 62
     0
100
AcDbCircle
 10
224.871290454
 20
449.6355767658
 40
3
100
AcDbArc
 50
38.614638
 51
87.541074
  0
ARC
  5
237
100
AcDbEntity
  8
_0-3_躯体と製品
  6
CONTINUOUS
 62
     0
100
AcDbCircle
 10
223.000001454
 20
448.1328167658
 40
5.4
100
AcDbArc
 50
0
 51
38.851062
  0
ARC
  5
238
100
AcDbEntity
  8
_0-3_躯体と製品
  6
CONTINUOUS
 62
     0
100
AcDbCircle
 10
223.000001454
 20
448.1328167658
 40
5.4
100
AcDbArc
 50
-38.682187
 51
0
  0
ARC
  5
239
100
AcDbEntity
  8
_0-3_躯体と製品
  6
CONTINUOUS
 62
     0
100
AcDbCircle
 10
224.871290454
 20
446.6300537658
 40
3
100
AcDbArc
 50
-87.541074
 51
-38.614638
  0
LINE
  5
23A
100
AcDbEntity
  8
_0-3_躯体と製品
  6
CONTINUOUS
 62
     0
100
AcDbLine
 10
235.6312586975
 20
499.1379558929
 11
237.3596100462
 21
492.6218661141
  0
LINE
  5
23B
100
AcDbEntity
  8
_0-3_躯体と製品
  6
CONTINUOUS
 62
     0
100
AcDbLine
 10
233.6403899538
 20
506.6437674174
 11
235.019235974
 21
501.4453542212
  0
LINE
  5
23C
100
AcDbEntity
  8
_0-3_躯体と製品
  6
CONTINUOUS
 62
     0
100
AcDbLine
 10
244
 20
577.1328167658
 11
244
 21
507.1328167658
  0
LINE
  5
23D
100
AcDbEntity
  8
_0-3_躯体と製品
  6
CONTINUOUS
 62
     0
100
AcDbLine
 10
240.8616090456
 20
492.1328167658
 11
243.4283121345
 21
494.6995198547
  0
LINE
  5
23E
100
AcDbEntity
  8
_0-3_躯体と製品
  6
CONTINUOUS
 62
     0
100
AcDbLine
 10
238.0331819208
 20
492.1328167658
 11
243.103317318
 21
497.202952163
  0
LINE
  5
23F
100
AcDbEntity
  8
_0-3_躯体と製品
  6
CONTINUOUS
 62
     0
100
AcDbLine
 10
237.5
 20
494.4280619697
 11
243.0015385672
 21
499.9296005369
  0
LINE
  5
240
100
AcDbEntity
  8
_0-3_躯体と製品
  6
CONTINUOUS
 62
     0
100
AcDbLine
 10
237.5
 20
497.2564890944
 11
243.1927673621
 21
502.9492564565
  0
LINE
  5
241
100
AcDbEntity
  8
_0-3_躯体と製品
  6
CONTINUOUS
 62
     0
100
AcDbLine
 10
237.5
 20
500.0849162192
 11
243.8102277387
 21
506.3951439579
  0
LINE
  5
242
100
AcDbEntity
  8
_0-3_躯体と製品
  6
CONTINUOUS
 62
     0
100
AcDbLine
 10
237.5
 20
502.9133433439
 11
241.7194734218
 21
507.1328167658
  0
LINE
  5
243
100
AcDbEntity
  8
_0-3_躯体と製品
  6
CONTINUOUS
 62
     0
100
AcDbLine
 10
237.5
 20
505.7417704687
 11
238.8910462971
 21
507.1328167658
  0
ARC
  5
244
100
AcDbEntity
  8
_0-3_躯体と製品
  6
CONTINUOUS
 62
     0
100
AcDbCircle
 10
271.625
 20
499.6328167658
 40
28.625
100
AcDbArc
 50
164.8107132628
 51
195.1892867372
  0
LINE
  5
245
100
AcDbEntity
  8
_0-3_躯体と製品
  6
CONTINUOUS
 62
     0
100
AcDbLine
 10
221
 20
408
 11
221
 21
492.1328167658
  0
LINE
  5
246
100
AcDbEntity
  8
_0-3_躯体と製品
  6
CONTINUOUS
 62
     0
100
AcDbLine
 10
220
 20
408
 11
220
 21
462.1328167658
  0
LINE
  5
247
100
AcDbEntity
  8
_0-3_躯体と製品
  6
CONTINUOUS
 62
     0
100
AcDbLine
 10
233.5
 20
503.1328167658
 11
233.5
 21
506.1328167658
  0
LINE
  5
248
100
AcDbEntity
  8
_0-3_躯体と製品
  6
CONTINUOUS
 62
     0
100
AcDbLine
 10
237.5
 20
493.1328167658
 11
237.5
 21
506.1328167658
  0
ARC
  5
249
100
AcDbEntity
  8
_0-3_躯体と製品
  6
CONTINUOUS
 62
     0
100
AcDbCircle
 10
236.5
 20
506.1328167658
 40
1
100
AcDbArc
 50
0
 51
90
  0
LINE
  5
24A
100
AcDbEntity
  8
_0-3_躯体と製品
  6
CONTINUOUS
 62
     0
100
AcDbLine
 10
236.5
 20
507.1328167658
 11
234.5
 21
507.1328167658
  0
ARC
  5
24B
100
AcDbEntity
  8
_0-3_躯体と製品
  6
CONTINUOUS
 62
     0
100
AcDbCircle
 10
234.5
 20
506.1328167658
 40
1
100
AcDbArc
 50
90
 51
180
  0
LINE
  5
24C
100
AcDbEntity
  8
_0-3_躯体と製品
  6
CONTINUOUS
 62
     0
100
AcDbLine
 10
219
 20
507.1328167658
 11
219
 21
384
  0
LINE
  5
24D
100
AcDbEntity
  8
_0-3_躯体と製品
  6
CONTINUOUS
 62
     0
100
AcDbLine
 10
220
 20
492.1328167658
 11
221
 21
492.1328167658
  0
LINE
  5
24E
100
AcDbEntity
  8
_0-3_躯体と製品
  6
CONTINUOUS
 62
     0
100
AcDbLine
 10
219
 20
491.756550812
 11
220
 21
490.756550812
  0
LINE
  5
24F
100
AcDbEntity
  8
_0-3_躯体と製品
  6
CONTINUOUS
 62
     0
100
AcDbLine
 10
219
 20
490.3423372496
 11
220
 21
489.3423372496
  0
LINE
  5
250
100
AcDbEntity
  8
_0-3_躯体と製品
  6
CONTINUOUS
 62
     0
100
AcDbLine
 10
219
 20
488.9281236873
 11
220
 21
487.9281236873
  0
LINE
  5
251
100
AcDbEntity
  8
_0-3_躯体と製品
  6
CONTINUOUS
 62
     0
100
AcDbLine
 10
219
 20
487.5139101249
 11
220
 21
486.5139101249
  0
LINE
  5
252
100
AcDbEntity
  8
_0-3_躯体と製品
  6
CONTINUOUS
 62
     0
100
AcDbLine
 10
219
 20
486.0996965625
 11
220
 21
485.0996965625
  0
LINE
  5
253
100
AcDbEntity
  8
_0-3_躯体と製品
  6
CONTINUOUS
 62
     0
100
AcDbLine
 10
219
 20
484.6854830002
 11
220
 21
483.6854830002
  0
LINE
  5
254
100
AcDbEntity
  8
_0-3_躯体と製品
  6
CONTINUOUS
 62
     0
100
AcDbLine
 10
219
 20
483.2712694378
 11
220
 21
482.2712694378
  0
LINE
  5
255
100
AcDbEntity
  8
_0-3_躯体と製品
  6
CONTINUOUS
 62
     0
100
AcDbLine
 10
219
 20
481.8570558754
 11
220
 21
480.8570558754
  0
LINE
  5
256
100
AcDbEntity
  8
_0-3_躯体と製品
  6
CONTINUOUS
 62
     0
100
AcDbLine
 10
219
 20
480.442842313
 11
220
 21
479.442842313
  0
LINE
  5
257
100
AcDbEntity
  8
_0-3_躯体と製品
  6
CONTINUOUS
 62
     0
100
AcDbLine
 10
219
 20
479.0286287507
 11
220
 21
478.0286287507
  0
LINE
  5
258
100
AcDbEntity
  8
_0-3_躯体と製品
  6
CONTINUOUS
 62
     0
100
AcDbLine
 10
219
 20
477.6144151883
 11
220
 21
476.6144151883
  0
LINE
  5
259
100
AcDbEntity
  8
_0-3_躯体と製品
  6
CONTINUOUS
 62
     0
100
AcDbLine
 10
219
 20
476.2002016259
 11
220
 21
475.2002016259
  0
LINE
  5
25A
100
AcDbEntity
  8
_0-3_躯体と製品
  6
CONTINUOUS
 62
     0
100
AcDbLine
 10
219
 20
474.7859880635
 11
220
 21
473.7859880635
  0
LINE
  5
25B
100
AcDbEntity
  8
_0-3_躯体と製品
  6
CONTINUOUS
 62
     0
100
AcDbLine
 10
219
 20
473.3717745012
 11
220
 21
472.3717745012
  0
LINE
  5
25C
100
AcDbEntity
  8
_0-3_躯体と製品
  6
CONTINUOUS
 62
     0
100
AcDbLine
 10
219
 20
471.9575609388
 11
220
 21
470.9575609388
  0
LINE
  5
25D
100
AcDbEntity
  8
_0-3_躯体と製品
  6
CONTINUOUS
 62
     0
100
AcDbLine
 10
219
 20
470.5433473764
 11
220
 21
469.5433473764
  0
LINE
  5
25E
100
AcDbEntity
  8
_0-3_躯体と製品
  6
CONTINUOUS
 62
     0
100
AcDbLine
 10
219
 20
469.129133814
 11
220
 21
468.129133814
  0
LINE
  5
25F
100
AcDbEntity
  8
_0-3_躯体と製品
  6
CONTINUOUS
 62
     0
100
AcDbLine
 10
219
 20
467.7149202517
 11
220
 21
466.7149202517
  0
LINE
  5
260
100
AcDbEntity
  8
_0-3_躯体と製品
  6
CONTINUOUS
 62
     0
100
AcDbLine
 10
219
 20
466.3007066893
 11
220
 21
465.3007066893
  0
LINE
  5
261
100
AcDbEntity
  8
_0-3_躯体と製品
  6
CONTINUOUS
 62
     0
100
AcDbLine
 10
219
 20
464.8864931269
 11
220
 21
463.8864931269
  0
LINE
  5
262
100
AcDbEntity
  8
_0-3_躯体と製品
  6
CONTINUOUS
 62
     0
100
AcDbLine
 10
219
 20
463.4722795646
 11
220
 21
462.4722795646
  0
LINE
  5
263
100
AcDbEntity
  8
_0-3_躯体と製品
  6
CONTINUOUS
 62
     0
100
AcDbLine
 10
219
 20
492.1328167658
 11
219
 21
462.1328167658
  0
LINE
  5
264
100
AcDbEntity
  8
_0-3_躯体と製品
  6
CONTINUOUS
 62
     0
100
AcDbLine
 10
219
 20
462.1328167658
 11
220
 21
462.1328167658
  0
LINE
  5
265
100
AcDbEntity
  8
_0-3_躯体と製品
  6
CONTINUOUS
 62
     0
100
AcDbLine
 10
220
 20
462.1328167658
 11
220
 21
492.1328167658
  0
LINE
  5
266
100
AcDbEntity
  8
_0-3_躯体と製品
  6
CONTINUOUS
 62
     0
100
AcDbLine
 10
220
 20
492.1328167658
 11
219
 21
492.1328167658
  0
LINE
  5
267
100
AcDbEntity
  8
_0-3_躯体と製品
  6
CONTINUOUS
 62
     0
100
AcDbLine
 10
219
 20
507.1328167658
 11
244
 21
507.1328167658
  0
LINE
  5
268
100
AcDbEntity
  8
_0-3_躯体と製品
  6
CONTINUOUS
 62
     0
100
AcDbLine
 10
233.700002
 20
448.1328167658
 11
160
 21
448.1328167658
  0
LINE
  5
269
100
AcDbEntity
  8
_0-3_躯体と製品
  6
CONTINUOUS
 62
     0
100
AcDbLine
 10
221.8772773174
 20
498.6328167658
 11
238.745311
 21
498.6328167658
  0
LINE
  5
26A
100
AcDbEntity
  8
_0-4_図枠
  6
CONTINUOUS
 62
     0
100
AcDbLine
 10
353.5
 20
450.0560636023
 11
353.5
 21
452.6764525664
  0
LINE
  5
26B
100
AcDbEntity
  8
_0-4_図枠
  6
CONTINUOUS
 62
     0
100
AcDbLine
 10
303.5
 20
452.6764525664
 11
353.5
 21
450.0560636023
  0
LINE
  5
26C
100
AcDbEntity
  8
_0-4_図枠
  6
CONTINUOUS
 62
     0
100
AcDbLine
 10
303.5
 20
452.6764525664
 11
353.5
 21
452.6764525664
  0
ARC
  5
26D
100
AcDbEntity
  8
_0-3_躯体と製品
  6
CONTINUOUS
 62
     0
100
AcDbCircle
 10
244
 20
383
 40
2
100
AcDbArc
 50
5
 51
90
  0
ARC
  5
26E
100
AcDbEntity
  8
_0-3_躯体と製品
  6
CONTINUOUS
 62
     0
100
AcDbCircle
 10
244
 20
408
 40
23
100
AcDbArc
 50
180
 51
270
  0
LINE
  5
26F
100
AcDbEntity
  8
_0-3_躯体と製品
  6
CONTINUOUS
 62
     0
100
AcDbLine
 10
220
 20
445.6328167658
 11
219
 21
445.6328167658
  0
LINE
  5
270
100
AcDbEntity
  8
_0-3_躯体と製品
  6
CONTINUOUS
 62
     0
100
AcDbLine
 10
220
 20
450.6328167658
 11
219
 21
450.6328167658
  0
TEXT
  5
271
100
AcDbEntity
  8
_0-2_寸法
  6
CONTINUOUS
 62
     0
100
AcDbText
 10
403.5
 20
477.4533120108
 40
5
  1
（キャップ幅）
  7
STANDARD
100
AcDbText
  0
LINE
  5
272
100
AcDbEntity
  8
_0-3_躯体と製品
  6
CONTINUOUS
 62
     0
100
AcDbLine
 10
245.9923893962
 20
383.1743114855
 11
248.7768613819
 21
351.3476510531
  0
LINE
  5
273
100
AcDbEntity
  8
_0-3_躯体と製品
  6
CONTINUOUS
 62
     0
100
AcDbLine
 10
244.9961946981
 20
383.0871557427
 11
247.7806666838
 21
351.2604953104
  0
ARC
  5
274
100
AcDbEntity
  8
_0-3_躯体と製品
  6
CONTINUOUS
 62
     0
100
AcDbCircle
 10
244
 20
408
 40
24
100
AcDbArc
 50
180
 51
270
  0
ARC
  5
275
100
AcDbEntity
  8
_0-3_躯体と製品
  6
CONTINUOUS
 62
     0
100
AcDbCircle
 10
244
 20
383
 40
1
100
AcDbArc
 50
5
 51
90
  0
TEXT
  5
276
100
AcDbEntity
  8
_0-4_図枠
  6
CONTINUOUS
 62
     0
100
AcDbText
 10
315
 20
452.6607296018
 40
5
  1
勾配３度
  7
STANDARD
100
AcDbText
  0
LINE
  5
277
100
AcDbEntity
  8
_0-3_躯体と製品
  6
CONTINUOUS
 62
     0
100
AcDbLine
 10
230.6074803282
 20
444.9808056698
 11
251.021303576
 21
443.9109625267
  0
LINE
  5
278
100
AcDbEntity
  8
_0-3_躯体と製品
  6
CONTINUOUS
 62
     0
100
AcDbLine
 10
251.1117115987
 20
455.1328167658
 11
250.1929346395
 21
453.2290009178
  0
ARC
  5
279
100
AcDbEntity
  8
_0-3_躯体と製品
  6
CONTINUOUS
 62
     0
100
AcDbCircle
 10
247.3109877445
 20
454.6198215728
 40
3.2
100
AcDbArc
 50
-141.7510786729
 51
-25.76184508904
  0
LINE
  5
27A
100
AcDbEntity
  8
_0-3_躯体と製品
  6
CONTINUOUS
 62
     0
100
AcDbLine
 10
252
 20
455.1328167658
 11
250.9134213633
 21
452.8812957541
  0
ARC
  5
27B
100
AcDbEntity
  8
_0-3_躯体と製品
  6
CONTINUOUS
 62
     0
100
AcDbCircle
 10
243.4932781715
 20
453.6476623182
 40
0.4
100
AcDbArc
 50
38.24892132713
 51
218.2489213271
  0
LINE
  5
27C
100
AcDbEntity
  8
_0-3_躯体と製品
  6
CONTINUOUS
 62
     0
100
AcDbLine
 10
243.8074096059
 20
453.8952939841
 11
244.7979362692
 21
452.6387682464
  0
LINE
  5
27D
100
AcDbEntity
  8
_0-3_躯体と製品
  6
CONTINUOUS
 62
     0
100
AcDbLine
 10
243.1791467371
 20
453.4000306524
 11
244.1696734003
 21
452.1435049148
  0
ARC
  5
27E
100
AcDbEntity
  8
_0-3_躯体と製品
  6
CONTINUOUS
 62
     0
100
AcDbCircle
 10
247.3109877445
 20
454.6198215728
 40
4
100
AcDbArc
 50
-141.7510786729
 51
-25.76184508904
  0
LINE
  5
27F
100
AcDbEntity
  8
_0-3_躯体と製品
  6
CONTINUOUS
 62
     0
100
AcDbLine
 10
243
 20
455.1328167658
 11
252
 21
455.1328167658
  0
ARC
  5
280
100
AcDbEntity
  8
_0-3_躯体と製品
  6
CONTINUOUS
 62
     0
100
AcDbCircle
 10
251.5
 20
455.6328167658
 40
0.5
100
AcDbArc
 50
0
 51
90
  0
LINE
  5
281
100
AcDbEntity
  8
_0-3_躯体と製品
  6
CONTINUOUS
 62
     0
100
AcDbLine
 10
252
 20
455.6328167658
 11
252
 21
455.1328167658
  0
LINE
  5
282
100
AcDbEntity
  8
_0-3_躯体と製品
  6
CONTINUOUS
 62
     0
100
AcDbLine
 10
243.3
 20
456.1328167658
 11
251.5
 21
456.1328167658
  0
ARC
  5
283
100
AcDbEntity
  8
_0-3_躯体と製品
  6
CONTINUOUS
 62
     0
100
AcDbCircle
 10
243
 20
456.1328167658
 40
1
100
AcDbArc
 50
180
 51
270
  0
ARC
  5
284
100
AcDbEntity
  8
_0-3_躯体と製品
  6
CONTINUOUS
 62
     0
100
AcDbCircle
 10
243.3
 20
456.4328167658
 40
0.3
100
AcDbArc
 50
180
 51
270
  0
LINE
  5
285
100
AcDbEntity
  8
_0-3_躯体と製品
  6
CONTINUOUS
 62
     0
100
AcDbLine
 10
223.5
 20
448.6328167658
 11
223.5
 21
466.6328167658
  0
LINE
  5
286
100
AcDbEntity
  8
_0-3_躯体と製品
  6
CONTINUOUS
 62
     0
100
AcDbLine
 10
221
 20
468.6328167658
 11
221
 21
467.1328167658
  0
LINE
  5
287
100
AcDbEntity
  8
_0-3_躯体と製品
  6
CONTINUOUS
 62
     0
100
AcDbLine
 10
221
 20
429.1328167658
 11
221
 21
427.6328167658
  0
LINE
  5
288
100
AcDbEntity
  8
_0-3_躯体と製品
  6
CONTINUOUS
 62
     0
100
AcDbLine
 10
229.75
 20
421.1328167658
 11
228.5
 21
421.1328167658
  0
LINE
  5
289
100
AcDbEntity
  8
_0-3_躯体と製品
  6
CONTINUOUS
 62
     0
100
AcDbLine
 10
229.75
 20
417.1328167658
 11
228.5
 21
417.1328167658
  0
ARC
  5
28A
100
AcDbEntity
  8
_0-3_躯体と製品
  6
CONTINUOUS
 62
     0
100
AcDbCircle
 10
221.5
 20
427.1328167658
 40
0.5
100
AcDbArc
 50
0
 51
90
  0
LINE
  5
28B
100
AcDbEntity
  8
_0-3_躯体と製品
  6
CONTINUOUS
 62
     0
100
AcDbLine
 10
221.5
 20
427.6328167658
 11
221
 21
427.6328167658
  0
LINE
  5
28C
100
AcDbEntity
  8
_0-3_躯体と製品
  6
CONTINUOUS
 62
     0
100
AcDbLine
 10
229.75
 20
415.6328167658
 11
221
 21
415.6328167658
  0
LINE
  5
28D
100
AcDbEntity
  8
_0-3_躯体と製品
  6
CONTINUOUS
 62
     0
100
AcDbLine
 10
221
 20
415.6328167658
 11
221
 21
417.1328167658
  0
LINE
  5
28E
100
AcDbEntity
  8
_0-3_躯体と製品
  6
CONTINUOUS
 62
     0
100
AcDbLine
 10
221.5
 20
417.1328167658
 11
221
 21
417.1328167658
  0
ARC
  5
28F
100
AcDbEntity
  8
_0-3_躯体と製品
  6
CONTINUOUS
 62
     0
100
AcDbCircle
 10
221.5
 20
417.6328167658
 40
0.5
100
AcDbArc
 50
-90
 51
0
  0
LINE
  5
290
100
AcDbEntity
  8
_0-3_躯体と製品
  6
CONTINUOUS
 62
     0
100
AcDbLine
 10
222
 20
417.6328167658
 11
222
 21
427.1328167658
  0
LINE
  5
291
100
AcDbEntity
  8
_0-3_躯体と製品
  6
CONTINUOUS
 62
     0
100
AcDbLine
 10
223.5
 20
417.6328167658
 11
223.5
 21
420.6328167658
  0
LINE
  5
292
100
AcDbEntity
  8
_0-3_躯体と製品
  6
CONTINUOUS
 62
     0
100
AcDbLine
 10
228.5
 20
417.1328167658
 11
228.5
 21
416.6328167658
  0
LINE
  5
293
100
AcDbEntity
  8
_0-3_躯体と製品
  6
CONTINUOUS
 62
     0
100
AcDbLine
 10
227.5
 20
417.1328167658
 11
228.5
 21
416.6328167658
  0
LINE
  5
294
100
AcDbEntity
  8
_0-3_躯体と製品
  6
CONTINUOUS
 62
     0
100
AcDbLine
 10
227.5
 20
417.1328167658
 11
227.5
 21
416.6328167658
  0
LINE
  5
295
100
AcDbEntity
  8
_0-3_躯体と製品
  6
CONTINUOUS
 62
     0
100
AcDbLine
 10
226.5
 20
417.1328167658
 11
227.5
 21
416.6328167658
  0
ARC
  5
296
100
AcDbEntity
  8
_0-3_躯体と製品
  6
CONTINUOUS
 62
     0
100
AcDbCircle
 10
229.75
 20
416.3828167658
 40
0.75
100
AcDbArc
 50
-90
 51
90
  0
LINE
  5
297
100
AcDbEntity
  8
_0-3_躯体と製品
  6
CONTINUOUS
 62
     0
100
AcDbLine
 10
224
 20
417.1328167658
 11
226.5
 21
417.1328167658
  0
ARC
  5
298
100
AcDbEntity
  8
_0-3_躯体と製品
  6
CONTINUOUS
 62
     0
100
AcDbCircle
 10
224
 20
417.6328167658
 40
0.5
100
AcDbArc
 50
180
 51
270
  0
ARC
  5
299
100
AcDbEntity
  8
_0-3_躯体と製品
  6
CONTINUOUS
 62
     0
100
AcDbCircle
 10
234.75
 20
428.3828167658
 40
0.75
100
AcDbArc
 50
-90
 51
90
  0
LINE
  5
29A
100
AcDbEntity
  8
_0-3_躯体と製品
  6
CONTINUOUS
 62
     0
100
AcDbLine
 10
224
 20
429.1328167658
 11
234.75
 21
429.1328167658
  0
ARC
  5
29B
100
AcDbEntity
  8
_0-3_躯体と製品
  6
CONTINUOUS
 62
     0
100
AcDbCircle
 10
224
 20
429.6328167658
 40
0.5
100
AcDbArc
 50
180
 51
270
  0
LINE
  5
29C
100
AcDbEntity
  8
_0-3_躯体と製品
  6
CONTINUOUS
 62
     0
100
AcDbLine
 10
223.5
 20
429.6328167658
 11
223.5
 21
447.6328167658
  0
LINE
  5
29D
100
AcDbEntity
  8
_0-3_躯体と製品
  6
CONTINUOUS
 62
     0
100
AcDbLine
 10
224
 20
427.6328167658
 11
234.75
 21
427.6328167658
  0
ARC
  5
29E
100
AcDbEntity
  8
_0-3_躯体と製品
  6
CONTINUOUS
 62
     0
100
AcDbCircle
 10
224
 20
427.1328167658
 40
0.5
100
AcDbArc
 50
90
 51
180
  0
LINE
  5
29F
100
AcDbEntity
  8
_0-3_躯体と製品
  6
CONTINUOUS
 62
     0
100
AcDbLine
 10
223.5
 20
427.1328167658
 11
223.5
 21
423.1328167658
  0
LINE
  5
2A0
100
AcDbEntity
  8
_0-3_躯体と製品
  6
CONTINUOUS
 62
     0
100
AcDbLine
 10
233.5
 20
467.6328167658
 11
233.5
 21
468.1328167658
  0
ARC
  5
2A1
100
AcDbEntity
  8
_0-3_躯体と製品
  6
CONTINUOUS
 62
     0
100
AcDbCircle
 10
233
 20
467.6328167658
 40
0.5
100
AcDbArc
 50
-90
 51
0
  0
LINE
  5
2A2
100
AcDbEntity
  8
_0-3_躯体と製品
  6
CONTINUOUS
 62
     0
100
AcDbLine
 10
233
 20
467.1328167658
 11
224
 21
467.1328167658
  0
ARC
  5
2A3
100
AcDbEntity
  8
_0-3_躯体と製品
  6
CONTINUOUS
 62
     0
100
AcDbCircle
 10
233
 20
468.1328167658
 40
0.5
100
AcDbArc
 50
0
 51
90
  0
ARC
  5
2A4
100
AcDbEntity
  8
_0-3_躯体と製品
  6
CONTINUOUS
 62
     0
100
AcDbCircle
 10
224
 20
466.6328167658
 40
0.5
100
AcDbArc
 50
90
 51
180
  0
ARC
  5
2A5
100
AcDbEntity
  8
_0-3_躯体と製品
  6
CONTINUOUS
 62
     0
100
AcDbCircle
 10
229.75
 20
421.8828167658
 40
0.75
100
AcDbArc
 50
-90
 51
90
  0
LINE
  5
2A6
100
AcDbEntity
  8
_0-3_躯体と製品
  6
CONTINUOUS
 62
     0
100
AcDbLine
 10
228.5
 20
421.6328167658
 11
228.5
 21
421.1328167658
  0
LINE
  5
2A7
100
AcDbEntity
  8
_0-3_躯体と製品
  6
CONTINUOUS
 62
     0
100
AcDbLine
 10
227.5
 20
421.1328167658
 11
228.5
 21
421.6328167658
  0
LINE
  5
2A8
100
AcDbEntity
  8
_0-3_躯体と製品
  6
CONTINUOUS
 62
     0
100
AcDbLine
 10
227.5
 20
421.6328167658
 11
227.5
 21
421.1328167658
  0
LINE
  5
2A9
100
AcDbEntity
  8
_0-3_躯体と製品
  6
CONTINUOUS
 62
     0
100
AcDbLine
 10
226.5
 20
421.1328167658
 11
227.5
 21
421.6328167658
  0
LINE
  5
2AA
100
AcDbEntity
  8
_0-3_躯体と製品
  6
CONTINUOUS
 62
     0
100
AcDbLine
 10
224
 20
421.1328167658
 11
226.5
 21
421.1328167658
  0
ARC
  5
2AB
100
AcDbEntity
  8
_0-3_躯体と製品
  6
CONTINUOUS
 62
     0
100
AcDbCircle
 10
224
 20
420.6328167658
 40
0.5
100
AcDbArc
 50
90
 51
180
  0
ARC
  5
2AC
100
AcDbEntity
  8
_0-3_躯体と製品
  6
CONTINUOUS
 62
     0
100
AcDbCircle
 10
224
 20
423.1328167658
 40
0.5
100
AcDbArc
 50
180
 51
270
  0
LINE
  5
2AD
100
AcDbEntity
  8
_0-3_躯体と製品
  6
CONTINUOUS
 62
     0
100
AcDbLine
 10
224
 20
422.6328167658
 11
229.75
 21
422.6328167658
  0
LINE
  5
2AE
100
AcDbEntity
  8
_0-3_躯体と製品
  6
CONTINUOUS
 62
     0
100
AcDbLine
 10
224
 20
468.6328167658
 11
233
 21
468.6328167658
  0
ARC
  5
2AF
100
AcDbEntity
  8
_0-3_躯体と製品
  6
CONTINUOUS
 62
     0
100
AcDbCircle
 10
224
 20
469.1328167658
 40
0.5
100
AcDbArc
 50
180
 51
270
  0
LINE
  5
2B0
100
AcDbEntity
  8
_0-3_躯体と製品
  6
CONTINUOUS
 62
     0
100
AcDbLine
 10
221.5
 20
429.1328167658
 11
221
 21
429.1328167658
  0
LINE
  5
2B1
100
AcDbEntity
  8
_0-3_躯体と製品
  6
CONTINUOUS
 62
     0
100
AcDbLine
 10
221.5
 20
443.1328167658
 11
221.5
 21
429.1328167658
  0
LINE
  5
2B2
100
AcDbEntity
  8
_0-3_躯体と製品
  6
CONTINUOUS
 62
     0
100
AcDbLine
 10
221.5
 20
467.1328167658
 11
221.5
 21
453.1328167658
  0
LINE
  5
2B3
100
AcDbEntity
  8
_0-3_躯体と製品
  6
CONTINUOUS
 62
     0
100
AcDbLine
 10
221
 20
467.1328167658
 11
221.5
 21
467.1328167658
  0
LINE
  5
2B4
100
AcDbEntity
  8
_0-3_躯体と製品
  6
CONTINUOUS
 62
     0
100
AcDbLine
 10
221.5
 20
468.6328167658
 11
221
 21
468.6328167658
  0
LINE
  5
2B5
100
AcDbEntity
  8
_0-3_躯体と製品
  6
CONTINUOUS
 62
     0
100
AcDbLine
 10
223.5
 20
469.1328167658
 11
223.5
 21
479.6328167658
  0
LINE
  5
2B6
100
AcDbEntity
  8
_0-3_躯体と製品
  6
CONTINUOUS
 62
     0
100
AcDbLine
 10
221.5
 20
480.1328167658
 11
221.5
 21
468.6328167658
  0
ARC
  5
2B7
100
AcDbEntity
  8
_0-3_躯体と製品
  6
CONTINUOUS
 62
     0
100
AcDbCircle
 10
231.4
 20
501.2328167658
 40
0.6
100
AcDbArc
 50
-90
 51
90
  0
ARC
  5
2B8
100
AcDbEntity
  8
_0-3_躯体と製品
  6
CONTINUOUS
 62
     0
100
AcDbCircle
 10
231.4
 20
496.0328167658
 40
0.6
100
AcDbArc
 50
-90
 51
90
  0
LINE
  5
2B9
100
AcDbEntity
  8
_0-3_躯体と製品
  6
CONTINUOUS
 62
     0
100
AcDbLine
 10
221
 20
481.6328167658
 11
221
 21
480.1328167658
  0
LINE
  5
2BA
100
AcDbEntity
  8
_0-3_躯体と製品
  6
CONTINUOUS
 62
     0
100
AcDbLine
 10
230
 20
501.8328167658
 11
231.4
 21
501.8328167658
  0
LINE
  5
2BB
100
AcDbEntity
  8
_0-3_躯体と製品
  6
CONTINUOUS
 62
     0
100
AcDbLine
 10
230.7
 20
489.9328167658
 11
230.7
 21
495.4328167658
  0
LINE
  5
2BC
100
AcDbEntity
  8
_0-3_躯体と製品
  6
CONTINUOUS
 62
     0
100
AcDbLine
 10
230.7
 20
495.4328167658
 11
231.4
 21
495.4328167658
  0
LINE
  5
2BD
100
AcDbEntity
  8
_0-3_躯体と製品
  6
CONTINUOUS
 62
     0
100
AcDbLine
 10
230
 20
502.6328167658
 11
230
 21
501.8328167658
  0
LINE
  5
2BE
100
AcDbEntity
  8
_0-3_躯体と製品
  6
CONTINUOUS
 62
     0
100
AcDbLine
 10
221
 20
502.1328167658
 11
221
 21
494.6328167658
  0
ARC
  5
2BF
100
AcDbEntity
  8
_0-3_躯体と製品
  6
CONTINUOUS
 62
     0
100
AcDbCircle
 10
221.5
 20
502.1328167658
 40
0.5
100
AcDbArc
 50
90
 51
180
  0
LINE
  5
2C0
100
AcDbEntity
  8
_0-3_躯体と製品
  6
CONTINUOUS
 62
     0
100
AcDbLine
 10
221.5
 20
502.6328167658
 11
230
 21
502.6328167658
  0
LINE
  5
2C1
100
AcDbEntity
  8
_0-3_躯体と製品
  6
CONTINUOUS
 62
     0
100
AcDbLine
 10
224.5
 20
497.1328167658
 11
224
 21
496.6328167658
  0
LINE
  5
2C2
100
AcDbEntity
  8
_0-3_躯体と製品
  6
CONTINUOUS
 62
     0
100
AcDbLine
 10
225
 20
496.6328167658
 11
224.5
 21
497.1328167658
  0
LINE
  5
2C3
100
AcDbEntity
  8
_0-3_躯体と製品
  6
CONTINUOUS
 62
     0
100
AcDbLine
 10
225.5
 20
497.1328167658
 11
225
 21
496.6328167658
  0
LINE
  5
2C4
100
AcDbEntity
  8
_0-3_躯体と製品
  6
CONTINUOUS
 62
     0
100
AcDbLine
 10
226
 20
496.6328167658
 11
225.5
 21
497.1328167658
  0
LINE
  5
2C5
100
AcDbEntity
  8
_0-3_躯体と製品
  6
CONTINUOUS
 62
     0
100
AcDbLine
 10
226.5
 20
497.1328167658
 11
226
 21
496.6328167658
  0
LINE
  5
2C6
100
AcDbEntity
  8
_0-3_躯体と製品
  6
CONTINUOUS
 62
     0
100
AcDbLine
 10
227
 20
496.6328167658
 11
226.5
 21
497.1328167658
  0
LINE
  5
2C7
100
AcDbEntity
  8
_0-3_躯体と製品
  6
CONTINUOUS
 62
     0
100
AcDbLine
 10
227.5
 20
497.1328167658
 11
227
 21
496.6328167658
  0
LINE
  5
2C8
100
AcDbEntity
  8
_0-3_躯体と製品
  6
CONTINUOUS
 62
     0
100
AcDbLine
 10
228
 20
496.6328167658
 11
227.5
 21
497.1328167658
  0
LINE
  5
2C9
100
AcDbEntity
  8
_0-3_躯体と製品
  6
CONTINUOUS
 62
     0
100
AcDbLine
 10
228.5
 20
497.1328167658
 11
228
 21
496.6328167658
  0
LINE
  5
2CA
100
AcDbEntity
  8
_0-3_躯体と製品
  6
CONTINUOUS
 62
     0
100
AcDbLine
 10
229
 20
496.6328167658
 11
228.5
 21
497.1328167658
  0
LINE
  5
2CB
100
AcDbEntity
  8
_0-3_躯体と製品
  6
CONTINUOUS
 62
     0
100
AcDbLine
 10
224.5
 20
500.1328167658
 11
224
 21
500.6328167658
  0
LINE
  5
2CC
100
AcDbEntity
  8
_0-3_躯体と製品
  6
CONTINUOUS
 62
     0
100
AcDbLine
 10
225
 20
500.6328167658
 11
224.5
 21
500.1328167658
  0
LINE
  5
2CD
100
AcDbEntity
  8
_0-3_躯体と製品
  6
CONTINUOUS
 62
     0
100
AcDbLine
 10
225.5
 20
500.1328167658
 11
225
 21
500.6328167658
  0
LINE
  5
2CE
100
AcDbEntity
  8
_0-3_躯体と製品
  6
CONTINUOUS
 62
     0
100
AcDbLine
 10
226
 20
500.6328167658
 11
225.5
 21
500.1328167658
  0
LINE
  5
2CF
100
AcDbEntity
  8
_0-3_躯体と製品
  6
CONTINUOUS
 62
     0
100
AcDbLine
 10
226.5
 20
500.1328167658
 11
226
 21
500.6328167658
  0
LINE
  5
2D0
100
AcDbEntity
  8
_0-3_躯体と製品
  6
CONTINUOUS
 62
     0
100
AcDbLine
 10
227
 20
500.6328167658
 11
226.5
 21
500.1328167658
  0
LINE
  5
2D1
100
AcDbEntity
  8
_0-3_躯体と製品
  6
CONTINUOUS
 62
     0
100
AcDbLine
 10
227.5
 20
500.1328167658
 11
227
 21
500.6328167658
  0
LINE
  5
2D2
100
AcDbEntity
  8
_0-3_躯体と製品
  6
CONTINUOUS
 62
     0
100
AcDbLine
 10
228
 20
500.6328167658
 11
227.5
 21
500.1328167658
  0
LINE
  5
2D3
100
AcDbEntity
  8
_0-3_躯体と製品
  6
CONTINUOUS
 62
     0
100
AcDbLine
 10
228.5
 20
500.1328167658
 11
228
 21
500.6328167658
  0
LINE
  5
2D4
100
AcDbEntity
  8
_0-3_躯体と製品
  6
CONTINUOUS
 62
     0
100
AcDbLine
 10
229
 20
500.6328167658
 11
228.5
 21
500.1328167658
  0
LINE
  5
2D5
100
AcDbEntity
  8
_0-3_躯体と製品
  6
CONTINUOUS
 62
     0
100
AcDbLine
 10
229
 20
496.6328167658
 11
231.5
 21
496.6328167658
  0
LINE
  5
2D6
100
AcDbEntity
  8
_0-3_躯体と製品
  6
CONTINUOUS
 62
     0
100
AcDbLine
 10
229
 20
500.6328167658
 11
231.5
 21
500.6328167658
  0
ARC
  5
2D7
100
AcDbEntity
  8
_0-3_躯体と製品
  6
CONTINUOUS
 62
     0
100
AcDbCircle
 10
222.8
 20
500.3328167658
 40
0.3
100
AcDbArc
 50
90
 51
180
  0
LINE
  5
2D8
100
AcDbEntity
  8
_0-3_躯体と製品
  6
CONTINUOUS
 62
     0
100
AcDbLine
 10
222.8
 20
500.6328167658
 11
224
 21
500.6328167658
  0
LINE
  5
2D9
100
AcDbEntity
  8
_0-3_躯体と製品
  6
CONTINUOUS
 62
     0
100
AcDbLine
 10
222.8
 20
496.6328167658
 11
224
 21
496.6328167658
  0
ARC
  5
2DA
100
AcDbEntity
  8
_0-3_躯体と製品
  6
CONTINUOUS
 62
     0
100
AcDbCircle
 10
222.8
 20
496.9328167658
 40
0.3
100
AcDbArc
 50
180
 51
270
  0
LINE
  5
2DB
100
AcDbEntity
  8
_0-3_躯体と製品
  6
CONTINUOUS
 62
     0
100
AcDbLine
 10
222.5
 20
496.9328167658
 11
222.5
 21
500.3328167658
  0
ARC
  5
2DC
100
AcDbEntity
  8
_0-3_躯体と製品
  6
CONTINUOUS
 62
     0
100
AcDbCircle
 10
227.1
 20
474.7328167658
 40
0.6
100
AcDbArc
 50
90
 51
270
  0
ARC
  5
2DD
100
AcDbEntity
  8
_0-3_躯体と製品
  6
CONTINUOUS
 62
     0
100
AcDbCircle
 10
228
 20
475.8328167658
 40
0.5
100
AcDbArc
 50
-90
 51
0
  0
LINE
  5
2DE
100
AcDbEntity
  8
_0-3_躯体と製品
  6
CONTINUOUS
 62
     0
100
AcDbLine
 10
228
 20
475.3328167658
 11
227.1
 21
475.3328167658
  0
LINE
  5
2DF
100
AcDbEntity
  8
_0-3_躯体と製品
  6
CONTINUOUS
 62
     0
100
AcDbLine
 10
228
 20
480.1328167658
 11
224
 21
480.1328167658
  0
ARC
  5
2E0
100
AcDbEntity
  8
_0-3_躯体と製品
  6
CONTINUOUS
 62
     0
100
AcDbCircle
 10
228
 20
479.6328167658
 40
0.5
100
AcDbArc
 50
0
 51
90
  0
LINE
  5
2E1
100
AcDbEntity
  8
_0-3_躯体と製品
  6
CONTINUOUS
 62
     0
100
AcDbLine
 10
228.5
 20
479.6328167658
 11
228.5
 21
475.8328167658
  0
LINE
  5
2E2
100
AcDbEntity
  8
_0-3_躯体と製品
  6
CONTINUOUS
 62
     0
100
AcDbLine
 10
229
 20
474.1328167658
 11
227.1
 21
474.1328167658
  0
ARC
  5
2E3
100
AcDbEntity
  8
_0-3_躯体と製品
  6
CONTINUOUS
 62
     0
100
AcDbCircle
 10
229
 20
475.1328167658
 40
1
100
AcDbArc
 50
-90
 51
0
  0
LINE
  5
2E4
100
AcDbEntity
  8
_0-3_躯体と製品
  6
CONTINUOUS
 62
     0
100
AcDbLine
 10
230
 20
475.1328167658
 11
230
 21
481.1328167658
  0
ARC
  5
2E5
100
AcDbEntity
  8
_0-3_躯体と製品
  6
CONTINUOUS
 62
     0
100
AcDbCircle
 10
229.5
 20
481.1328167658
 40
0.5
100
AcDbArc
 50
0
 51
90
  0
LINE
  5
2E6
100
AcDbEntity
  8
_0-3_躯体と製品
  6
CONTINUOUS
 62
     0
100
AcDbLine
 10
229.5
 20
481.6328167658
 11
224
 21
481.6328167658
  0
ARC
  5
2E7
100
AcDbEntity
  8
_0-3_躯体と製品
  6
CONTINUOUS
 62
     0
100
AcDbCircle
 10
224
 20
482.1328167658
 40
0.5
100
AcDbArc
 50
180
 51
270
  0
ARC
  5
2E8
100
AcDbEntity
  8
_0-3_躯体と製品
  6
CONTINUOUS
 62
     0
100
AcDbCircle
 10
224
 20
479.6328167658
 40
0.5
100
AcDbArc
 50
90
 51
180
  0
ARC
  5
2E9
100
AcDbEntity
  8
_0-3_躯体と製品
  6
CONTINUOUS
 62
     0
100
AcDbCircle
 10
235.6
 20
489.0328167658
 40
0.6
100
AcDbArc
 50
-90
 51
90
  0
LINE
  5
2EA
100
AcDbEntity
  8
_0-3_躯体と製品
  6
CONTINUOUS
 62
     0
100
AcDbLine
 10
223.5
 20
494.1328167658
 11
223.5
 21
482.1328167658
  0
ARC
  5
2EB
100
AcDbEntity
  8
_0-3_躯体と製品
  6
CONTINUOUS
 62
     0
100
AcDbCircle
 10
224
 20
494.1328167658
 40
0.5
100
AcDbArc
 50
90
 51
180
  0
LINE
  5
2EC
100
AcDbEntity
  8
_0-3_躯体と製品
  6
CONTINUOUS
 62
     0
100
AcDbLine
 10
229
 20
494.6328167658
 11
224
 21
494.6328167658
  0
ARC
  5
2ED
100
AcDbEntity
  8
_0-3_躯体と製品
  6
CONTINUOUS
 62
     0
100
AcDbCircle
 10
229
 20
494.1328167658
 40
0.5
100
AcDbArc
 50
0
 51
90
  0
LINE
  5
2EE
100
AcDbEntity
  8
_0-3_躯体と製品
  6
CONTINUOUS
 62
     0
100
AcDbLine
 10
230.5
 20
488.4328167658
 11
235.6
 21
488.4328167658
  0
ARC
  5
2EF
100
AcDbEntity
  8
_0-3_躯体と製品
  6
CONTINUOUS
 62
     0
100
AcDbCircle
 10
230.5
 20
489.4328167658
 40
1
100
AcDbArc
 50
180
 51
270
  0
LINE
  5
2F0
100
AcDbEntity
  8
_0-3_躯体と製品
  6
CONTINUOUS
 62
     0
100
AcDbLine
 10
229.5
 20
489.4328167658
 11
229.5
 21
494.1328167658
  0
LINE
  5
2F1
100
AcDbEntity
  8
_0-3_躯体と製品
  6
CONTINUOUS
 62
     0
100
AcDbLine
 10
231
 20
489.6328167658
 11
235.6
 21
489.6328167658
  0
ARC
  5
2F2
100
AcDbEntity
  8
_0-3_躯体と製品
  6
CONTINUOUS
 62
     0
100
AcDbCircle
 10
231
 20
489.9328167658
 40
0.3
100
AcDbArc
 50
180
 51
270
  0
LINE
  5
2F3
100
AcDbEntity
  8
_0-3_躯体と製品
  6
CONTINUOUS
 62
     0
100
AcDbLine
 10
221
 20
480.1328167658
 11
221.5
 21
480.1328167658
  0
LINE
  5
2F4
100
AcDbEntity
  8
_0-3_躯体と製品
  6
CONTINUOUS
 62
     0
100
AcDbLine
 10
221.5
 20
481.6328167658
 11
221
 21
481.6328167658
  0
LINE
  5
2F5
100
AcDbEntity
  8
_0-3_躯体と製品
  6
CONTINUOUS
 62
     0
100
AcDbLine
 10
221.5
 20
494.6328167658
 11
221.5
 21
481.6328167658
  0
LINE
  5
2F6
100
AcDbEntity
  8
_0-3_躯体と製品
  6
CONTINUOUS
 62
     0
100
AcDbLine
 10
221
 20
494.6328167658
 11
221.5
 21
494.6328167658
  0
LINE
  5
2F7
100
AcDbEntity
  8
_0-3_躯体と製品
  6
CONTINUOUS
 62
     0
100
AcDbLine
 10
221
 20
453.1328167658
 11
221
 21
443.1328167658
  0
LINE
  5
2F8
100
AcDbEntity
  8
_0-3_躯体と製品
  6
CONTINUOUS
 62
     0
100
AcDbLine
 10
223.5
 20
447.6328167658
 11
223
 21
448.1328167658
  0
LINE
  5
2F9
100
AcDbEntity
  8
_0-3_躯体と製品
  6
CONTINUOUS
 62
     0
100
AcDbLine
 10
223.5
 20
448.6328167658
 11
223
 21
448.1328167658
  0
LINE
  5
2FA
100
AcDbEntity
  8
_0-3_躯体と製品
  6
CONTINUOUS
 62
     0
100
AcDbLine
 10
221
 20
443.1328167658
 11
221.5
 21
443.1328167658
  0
LINE
  5
2FB
100
AcDbEntity
  8
_0-3_躯体と製品
  6
CONTINUOUS
 62
     0
100
AcDbLine
 10
221
 20
453.1328167658
 11
221.5
 21
453.1328167658
  0
LINE
  5
2FC
100
AcDbEntity
  8
_0-3_躯体と製品
  6
CONTINUOUS
 62
     0
100
AcDbLine
 10
233.2
 20
498.6328167658
 11
233.5
 21
498.9328167658
  0
LINE
  5
2FD
100
AcDbEntity
  8
_0-3_躯体と製品
  6
CONTINUOUS
 62
     0
100
AcDbLine
 10
232.5
 20
504.1328167658
 11
224.5
 21
504.1328167658
  0
ARC
  5
2FE
100
AcDbEntity
  8
_0-3_躯体と製品
  6
CONTINUOUS
 62
     0
100
AcDbCircle
 10
232.5
 20
503.1328167658
 40
1
100
AcDbArc
 50
0
 51
90
  0
ARC
  5
2FF
100
AcDbEntity
  8
_0-3_躯体と製品
  6
CONTINUOUS
 62
     0
100
AcDbCircle
 10
224.5
 20
503.6328167658
 40
0.5
100
AcDbArc
 50
90
 51
180
  0
LINE
  5
300
100
AcDbEntity
  8
_0-3_躯体と製品
  6
CONTINUOUS
 62
     0
100
AcDbLine
 10
224
 20
503.6328167658
 11
224
 21
503.1328167658
  0
ARC
  5
301
100
AcDbEntity
  8
_0-3_躯体と製品
  6
CONTINUOUS
 62
     0
100
AcDbCircle
 10
231.5
 20
502.1328167658
 40
0.5
100
AcDbArc
 50
0
 51
90
  0
LINE
  5
302
100
AcDbEntity
  8
_0-3_躯体と製品
  6
CONTINUOUS
 62
     0
100
AcDbLine
 10
224.5
 20
502.6328167658
 11
231.5
 21
502.6328167658
  0
LINE
  5
303
100
AcDbEntity
  8
_0-3_躯体と製品
  6
CONTINUOUS
 62
     0
100
AcDbLine
 10
233.2
 20
498.6328167658
 11
233.5
 21
498.3328167658
  0
ARC
  5
304
100
AcDbEntity
  8
_0-3_躯体と製品
  6
CONTINUOUS
 62
     0
100
AcDbCircle
 10
224.5
 20
503.1328167658
 40
0.5
100
AcDbArc
 50
180
 51
270
  0
LINE
  5
305
100
AcDbEntity
  8
_0-3_躯体と製品
  6
CONTINUOUS
 62
     0
100
AcDbLine
 10
233.5
 20
503.1328167658
 11
233.5
 21
498.9328167658
  0
LINE
  5
306
100
AcDbEntity
  8
_0-3_躯体と製品
  6
CONTINUOUS
 62
     0
100
AcDbLine
 10
233.5
 20
498.3328167658
 11
233.5
 21
492.6328167658
  0
LINE
  5
307
100
AcDbEntity
  8
_0-3_躯体と製品
  6
CONTINUOUS
 62
     0
100
AcDbLine
 10
232
 20
491.6328167658
 11
232
 21
502.1328167658
  0
ARC
  5
308
100
AcDbEntity
  8
_0-3_躯体と製品
  6
CONTINUOUS
 62
     0
100
AcDbCircle
 10
251.5
 20
490.1328167658
 40
0.5
100
AcDbArc
 50
0
 51
90
  0
LINE
  5
309
100
AcDbEntity
  8
_0-3_躯体と製品
  6
CONTINUOUS
 62
     0
100
AcDbLine
 10
252
 20
490.1328167658
 11
252
 21
458.1328167658
  0
ARC
  5
30A
100
AcDbEntity
  8
_0-3_躯体と製品
  6
CONTINUOUS
 62
     0
100
AcDbCircle
 10
252.5
 20
491.1328167658
 40
1
100
AcDbArc
 50
0
 51
90
  0
LINE
  5
30B
100
AcDbEntity
  8
_0-3_躯体と製品
  6
CONTINUOUS
 62
     0
100
AcDbLine
 10
253.5
 20
491.1328167658
 11
253.5
 21
457.1328167658
  0
ARC
  5
30C
100
AcDbEntity
  8
_0-3_躯体と製品
  6
CONTINUOUS
 62
     0
100
AcDbCircle
 10
251.5
 20
458.1328167658
 40
0.5
100
AcDbArc
 50
-90
 51
0
  0
ARC
  5
30D
100
AcDbEntity
  8
_0-3_躯体と製品
  6
CONTINUOUS
 62
     0
100
AcDbCircle
 10
252.5
 20
457.1328167658
 40
1
100
AcDbArc
 50
-90
 51
0
  0
LINE
  5
30E
100
AcDbEntity
  8
_0-3_躯体と製品
  6
CONTINUOUS
 62
     0
100
AcDbLine
 10
234
 20
492.1328167658
 11
252.5
 21
492.1328167658
  0
LINE
  5
30F
100
AcDbEntity
  8
_0-3_躯体と製品
  6
CONTINUOUS
 62
     0
100
AcDbLine
 10
251.5
 20
457.6328167658
 11
243.5
 21
457.6328167658
  0
LINE
  5
310
100
AcDbEntity
  8
_0-3_躯体と製品
  6
CONTINUOUS
 62
     0
100
AcDbLine
 10
252.5
 20
456.1328167658
 11
243.5
 21
456.1328167658
  0
LINE
  5
311
100
AcDbEntity
  8
_0-3_躯体と製品
  6
CONTINUOUS
 62
     0
100
AcDbLine
 10
233
 20
490.6328167658
 11
251.5
 21
490.6328167658
  0
ARC
  5
312
100
AcDbEntity
  8
_0-3_躯体と製品
  6
CONTINUOUS
 62
     0
100
AcDbCircle
 10
234
 20
492.6328167658
 40
0.5
100
AcDbArc
 50
180
 51
270
  0
ARC
  5
313
100
AcDbEntity
  8
_0-3_躯体と製品
  6
CONTINUOUS
 62
     0
100
AcDbCircle
 10
243.5
 20
456.6328167658
 40
0.5
100
AcDbArc
 50
180
 51
270
  0
LINE
  5
314
100
AcDbEntity
  8
_0-3_躯体と製品
  6
CONTINUOUS
 62
     0
100
AcDbLine
 10
243
 20
456.6328167658
 11
243
 21
457.1328167658
  0
ARC
  5
315
100
AcDbEntity
  8
_0-3_躯体と製品
  6
CONTINUOUS
 62
     0
100
AcDbCircle
 10
243.5
 20
457.1328167658
 40
0.5
100
AcDbArc
 50
90
 51
180
  0
ARC
  5
316
100
AcDbEntity
  8
_0-3_躯体と製品
  6
CONTINUOUS
 62
     0
100
AcDbCircle
 10
233
 20
491.6328167658
 40
1
100
AcDbArc
 50
180
 51
270
  0
LINE
  5
317
100
AcDbEntity
  8
_0-3_躯体と製品
  6
CONTINUOUS
 62
     0
100
AcDbLine
 10
231.500001
 20
490.9328187658
 11
231.500001
 21
494.4328167658
  0
ARC
  5
318
100
AcDbEntity
  8
_0-3_躯体と製品
  6
CONTINUOUS
 62
     0
100
AcDbCircle
 10
232.000002
 20
490.9328187658
 40
0.500001
100
AcDbArc
 50
180
 51
270
  0
ARC
  5
319
100
AcDbEntity
  8
_0-3_躯体と製品
  6
CONTINUOUS
 62
     0
100
AcDbCircle
 10
232.000002
 20
490.9328187658
 40
1.299999
100
AcDbArc
 50
180
 51
270
  0
LINE
  5
31A
100
AcDbEntity
  8
_0-3_躯体と製品
  6
CONTINUOUS
 62
     0
100
AcDbLine
 10
230.7
 20
494.4328167658
 11
231.500001
 21
494.4328167658
  0
LINE
  5
31B
100
AcDbEntity
  8
_0-3_躯体と製品
  6
CONTINUOUS
 62
     0
100
AcDbLine
 10
250.400001
 20
490.4328177658
 11
232.000002
 21
490.4328177658
  0
ARC
  5
31C
100
AcDbEntity
  8
_0-3_躯体と製品
  6
CONTINUOUS
 62
     0
100
AcDbCircle
 10
250.400001
 20
489.1328187658
 40
1.299999
100
AcDbArc
 50
0
 51
90
  0
ARC
  5
31D
100
AcDbEntity
  8
_0-3_躯体と製品
  6
CONTINUOUS
 62
     0
100
AcDbCircle
 10
250.400001
 20
489.1328187658
 40
0.500001
100
AcDbArc
 50
0
 51
90
  0
LINE
  5
31E
100
AcDbEntity
  8
_0-3_躯体と製品
  6
CONTINUOUS
 62
     0
100
AcDbLine
 10
250.900002
 20
489.1328187658
 11
250.900002
 21
460.4328177658
  0
LINE
  5
31F
100
AcDbEntity
  8
_0-3_躯体と製品
  6
CONTINUOUS
 62
     0
100
AcDbLine
 10
251.7
 20
489.1328187658
 11
251.7
 21
460.4328177658
  0
LINE
  5
320
100
AcDbEntity
  8
_0-3_躯体と製品
  6
CONTINUOUS
 62
     0
100
AcDbLine
 10
250.900002
 20
460.4328177658
 11
251.7
 21
460.4328177658
  0
LINE
  5
321
100
AcDbEntity
  8
_0-3_躯体と製品
  6
CONTINUOUS
 62
     0
100
AcDbLine
 10
250.400001
 20
489.6328167658
 11
232.000002
 21
489.6328167658
  0
LINE
  5
322
100
AcDbEntity
  8
_0-3_躯体と製品
  6
CONTINUOUS
 62
     0
100
AcDbLine
 10
230.7
 20
494.4328167658
 11
230.700003
 21
490.9328187658
  0
LINE
  5
323
100
AcDbEntity
  8
_0-3_躯体と製品
  6
CONTINUOUS
 62
     0
100
AcDbLine
 10
250.900002
 20
460.6823609278
 11
251.7
 21
461.4823589278
  0
LINE
  5
324
100
AcDbEntity
  8
_0-3_躯体と製品
  6
CONTINUOUS
 62
     0
100
AcDbLine
 10
250.900002
 20
462.0965744902
 11
251.7
 21
462.8965724902
  0
LINE
  5
325
100
AcDbEntity
  8
_0-3_躯体と製品
  6
CONTINUOUS
 62
     0
100
AcDbLine
 10
250.900002
 20
463.5107880525
 11
251.7
 21
464.3107860525
  0
LINE
  5
326
100
AcDbEntity
  8
_0-3_躯体と製品
  6
CONTINUOUS
 62
     0
100
AcDbLine
 10
250.900002
 20
464.9250016149
 11
251.7
 21
465.7249996149
  0
LINE
  5
327
100
AcDbEntity
  8
_0-3_躯体と製品
  6
CONTINUOUS
 62
     0
100
AcDbLine
 10
250.900002
 20
466.3392151773
 11
251.7
 21
467.1392131773
  0
LINE
  5
328
100
AcDbEntity
  8
_0-3_躯体と製品
  6
CONTINUOUS
 62
     0
100
AcDbLine
 10
250.900002
 20
467.7534287396
 11
251.7
 21
468.5534267396
  0
LINE
  5
329
100
AcDbEntity
  8
_0-3_躯体と製品
  6
CONTINUOUS
 62
     0
100
AcDbLine
 10
250.900002
 20
469.167642302
 11
251.7
 21
469.967640302
  0
LINE
  5
32A
100
AcDbEntity
  8
_0-3_躯体と製品
  6
CONTINUOUS
 62
     0
100
AcDbLine
 10
250.900002
 20
470.5818558644
 11
251.7
 21
471.3818538644
  0
LINE
  5
32B
100
AcDbEntity
  8
_0-3_躯体と製品
  6
CONTINUOUS
 62
     0
100
AcDbLine
 10
250.900002
 20
471.9960694268
 11
251.7
 21
472.7960674268
  0
LINE
  5
32C
100
AcDbEntity
  8
_0-3_躯体と製品
  6
CONTINUOUS
 62
     0
100
AcDbLine
 10
250.900002
 20
473.4102829891
 11
251.7
 21
474.2102809891
  0
LINE
  5
32D
100
AcDbEntity
  8
_0-3_躯体と製品
  6
CONTINUOUS
 62
     0
100
AcDbLine
 10
250.900002
 20
474.8244965515
 11
251.7
 21
475.6244945515
  0
LINE
  5
32E
100
AcDbEntity
  8
_0-3_躯体と製品
  6
CONTINUOUS
 62
     0
100
AcDbLine
 10
250.900002
 20
476.2387101139
 11
251.7
 21
477.0387081139
  0
LINE
  5
32F
100
AcDbEntity
  8
_0-3_躯体と製品
  6
CONTINUOUS
 62
     0
100
AcDbLine
 10
250.900002
 20
477.6529236763
 11
251.7
 21
478.4529216763
  0
LINE
  5
330
100
AcDbEntity
  8
_0-3_躯体と製品
  6
CONTINUOUS
 62
     0
100
AcDbLine
 10
250.900002
 20
479.0671372386
 11
251.7
 21
479.8671352386
  0
LINE
  5
331
100
AcDbEntity
  8
_0-3_躯体と製品
  6
CONTINUOUS
 62
     0
100
AcDbLine
 10
250.900002
 20
480.481350801
 11
251.7
 21
481.281348801
  0
LINE
  5
332
100
AcDbEntity
  8
_0-3_躯体と製品
  6
CONTINUOUS
 62
     0
100
AcDbLine
 10
250.900002
 20
481.8955643634
 11
251.7
 21
482.6955623634
  0
LINE
  5
333
100
AcDbEntity
  8
_0-3_躯体と製品
  6
CONTINUOUS
 62
     0
100
AcDbLine
 10
250.900002
 20
483.3097779257
 11
251.7
 21
484.1097759257
  0
LINE
  5
334
100
AcDbEntity
  8
_0-3_躯体と製品
  6
CONTINUOUS
 62
     0
100
AcDbLine
 10
250.900002
 20
484.7239914881
 11
251.7
 21
485.5239894881
  0
LINE
  5
335
100
AcDbEntity
  8
_0-3_躯体と製品
  6
CONTINUOUS
 62
     0
100
AcDbLine
 10
250.900002
 20
486.1382050505
 11
251.7
 21
486.9382030505
  0
LINE
  5
336
100
AcDbEntity
  8
_0-3_躯体と製品
  6
CONTINUOUS
 62
     0
100
AcDbLine
 10
250.900002
 20
487.5524186129
 11
251.7
 21
488.3524166129
  0
LINE
  5
337
100
AcDbEntity
  8
_0-3_躯体と製品
  6
CONTINUOUS
 62
     0
100
AcDbLine
 10
250.900002
 20
488.9666321752
 11
251.5898603545
 21
489.6564905298
  0
LINE
  5
338
100
AcDbEntity
  8
_0-3_躯体と製品
  6
CONTINUOUS
 62
     0
100
AcDbLine
 10
250.1519730282
 20
489.6328167658
 11
250.865698075
 21
490.3465418126
  0
LINE
  5
339
100
AcDbEntity
  8
_0-3_躯体と製品
  6
CONTINUOUS
 62
     0
100
AcDbLine
 10
248.7377594658
 20
489.6328167658
 11
249.5377604658
 21
490.4328177658
  0
LINE
  5
33A
100
AcDbEntity
  8
_0-3_躯体と製品
  6
CONTINUOUS
 62
     0
100
AcDbLine
 10
247.3235459034
 20
489.6328167658
 11
248.1235469034
 21
490.4328177658
  0
LINE
  5
33B
100
AcDbEntity
  8
_0-3_躯体と製品
  6
CONTINUOUS
 62
     0
100
AcDbLine
 10
245.909332341
 20
489.6328167658
 11
246.709333341
 21
490.4328177658
  0
LINE
  5
33C
100
AcDbEntity
  8
_0-3_躯体と製品
  6
CONTINUOUS
 62
     0
100
AcDbLine
 10
244.4951187787
 20
489.6328167658
 11
245.2951197787
 21
490.4328177658
  0
LINE
  5
33D
100
AcDbEntity
  8
_0-3_躯体と製品
  6
CONTINUOUS
 62
     0
100
AcDbLine
 10
243.0809052163
 20
489.6328167658
 11
243.8809062163
 21
490.4328177658
  0
LINE
  5
33E
100
AcDbEntity
  8
_0-3_躯体と製品
  6
CONTINUOUS
 62
     0
100
AcDbLine
 10
241.6666916539
 20
489.6328167658
 11
242.4666926539
 21
490.4328177658
  0
LINE
  5
33F
100
AcDbEntity
  8
_0-3_躯体と製品
  6
CONTINUOUS
 62
     0
100
AcDbLine
 10
240.2524780915
 20
489.6328167658
 11
241.0524790915
 21
490.4328177658
  0
LINE
  5
340
100
AcDbEntity
  8
_0-3_躯体と製品
  6
CONTINUOUS
 62
     0
100
AcDbLine
 10
238.8382645292
 20
489.6328167658
 11
239.6382655292
 21
490.4328177658
  0
LINE
  5
341
100
AcDbEntity
  8
_0-3_躯体と製品
  6
CONTINUOUS
 62
     0
100
AcDbLine
 10
237.4240509668
 20
489.6328167658
 11
238.2240519668
 21
490.4328177658
  0
LINE
  5
342
100
AcDbEntity
  8
_0-3_躯体と製品
  6
CONTINUOUS
 62
     0
100
AcDbLine
 10
236.0098374044
 20
489.6328167658
 11
236.8098384044
 21
490.4328177658
  0
LINE
  5
343
100
AcDbEntity
  8
_0-3_躯体と製品
  6
CONTINUOUS
 62
     0
100
AcDbLine
 10
234.595623842
 20
489.6328167658
 11
235.395624842
 21
490.4328177658
  0
LINE
  5
344
100
AcDbEntity
  8
_0-3_躯体と製品
  6
CONTINUOUS
 62
     0
100
AcDbLine
 10
233.1814102797
 20
489.6328167658
 11
233.9814112797
 21
490.4328177658
  0
LINE
  5
345
100
AcDbEntity
  8
_0-3_躯体と製品
  6
CONTINUOUS
 62
     0
100
AcDbLine
 10
231.7850875053
 20
489.6507075537
 11
232.5671977173
 21
490.4328177658
  0
LINE
  5
346
100
AcDbEntity
  8
_0-3_躯体と製品
  6
CONTINUOUS
 62
     0
100
AcDbLine
 10
230.9237790449
 20
490.2036126557
 11
231.5184427256
 21
490.7982763365
  0
LINE
  5
347
100
AcDbEntity
  8
_0-3_躯体と製品
  6
CONTINUOUS
 62
     0
100
AcDbLine
 10
230.7000026047
 20
491.3940497779
 11
231.500001
 21
492.1940481732
  0
LINE
  5
348
100
AcDbEntity
  8
_0-3_躯体と製品
  6
CONTINUOUS
 62
     0
100
AcDbLine
 10
230.7000013925
 20
492.8082621281
 11
231.500001
 21
493.6082617356
  0
LINE
  5
349
100
AcDbEntity
  8
_0-3_躯体と製品
  6
CONTINUOUS
 62
     0
100
AcDbLine
 10
230.7000001803
 20
494.2224744783
 11
230.9103424678
 21
494.4328167658
  0
LINE
  5
34A
100
AcDbEntity
  8
_0-3_躯体と製品
  6
CONTINUOUS
 62
     0
100
AcDbLine
 10
223.5
 20
497.1328167658
 11
224
 21
496.6328167658
  0
LINE
  5
34B
100
AcDbEntity
  8
_0-3_躯体と製品
  6
CONTINUOUS
 62
     0
100
AcDbLine
 10
223.5
 20
500.1328167658
 11
224
 21
500.6328167658
  0
LINE
  5
34C
100
AcDbEntity
  8
_0-3_躯体と製品
  6
CONTINUOUS
 62
     0
100
AcDbLine
 10
223.5
 20
500.1328167658
 11
223.5
 21
497.1328167658
  0
LINE
  5
34D
100
AcDbEntity
  8
_0-3_躯体と製品
  6
CONTINUOUS
 62
     0
100
AcDbLine
 10
224
 20
500.6328167658
 11
224
 21
496.6328167658
  0
LINE
  5
34E
100
AcDbEntity
  8
_0-3_躯体と製品
  6
CONTINUOUS
 62
     0
100
AcDbLine
 10
232
 20
500.6328167658
 11
229
 21
500.6328167658
  0
LINE
  5
34F
100
AcDbEntity
  8
_0-3_躯体と製品
  6
CONTINUOUS
 62
     0
100
AcDbLine
 10
232
 20
500.1328167658
 11
223.5
 21
500.1328167658
  0
LINE
  5
350
100
AcDbEntity
  8
_0-3_躯体と製品
  6
CONTINUOUS
 62
     0
100
AcDbLine
 10
232
 20
497.1328167658
 11
223.5
 21
497.1328167658
  0
LINE
  5
351
100
AcDbEntity
  8
_0-3_躯体と製品
  6
CONTINUOUS
 62
     0
100
AcDbLine
 10
232
 20
496.6328167658
 11
229
 21
496.6328167658
  0
ARC
  5
352
100
AcDbEntity
  8
_0-3_躯体と製品
  6
CONTINUOUS
 62
     0
100
AcDbCircle
 10
234.5
 20
493.1328167658
 40
1
100
AcDbArc
 50
180
 51
270
  0
ARC
  5
353
100
AcDbEntity
  8
_0-3_躯体と製品
  6
CONTINUOUS
 62
     0
100
AcDbCircle
 10
236.5
 20
493.1328167658
 40
1
100
AcDbArc
 50
-90
 51
0
  0
LINE
  5
354
100
AcDbEntity
  8
_0-3_躯体と製品
  6
CONTINUOUS
 62
     0
100
AcDbLine
 10
234.5
 20
492.1328167658
 11
236.5
 21
492.1328167658
  0
ARC
  5
355
100
AcDbEntity
  8
_0-3_躯体と製品
  6
CONTINUOUS
 62
     0
100
AcDbCircle
 10
235.5657195747
 20
497.7123380424
 40
0.4204787234043
100
AcDbArc
 50
-14.09578924417
 51
90
  0
ARC
  5
356
100
AcDbEntity
  8
_0-3_躯体と製品
  6
CONTINUOUS
 62
     0
100
AcDbCircle
 10
233.5
 20
500.1113881943
 40
2.021428571429
100
AcDbArc
 50
42.74124453868
 51
90
  0
ARC
  5
357
100
AcDbEntity
  8
_0-3_躯体と製品
  6
CONTINUOUS
 62
     0
100
AcDbCircle
 10
233.5
 20
497.1542453372
 40
2.021428571429
100
AcDbArc
 50
-90
 51
-42.74124453868
  0
ARC
  5
358
100
AcDbEntity
  8
_0-3_躯体と製品
  6
CONTINUOUS
 62
     0
100
AcDbCircle
 10
235.5657195747
 20
499.5532954892
 40
0.4204787234043
100
AcDbArc
 50
-90
 51
14.09578924417
  0
LINE
  5
359
100
AcDbEntity
  8
_0-3_躯体と製品
  6
CONTINUOUS
 62
     0
100
AcDbLine
 10
235.5657195747
 20
499.1328167658
 11
235.5657195747
 21
498.1328167658
  0
ARC
  5
35A
100
AcDbEntity
  8
_0-3_躯体と製品
  6
CONTINUOUS
 62
     0
100
AcDbCircle
 10
231.9
 20
498.6328167658
 40
4.2
100
AcDbArc
 50
-42.74124453868
 51
-14.09578924417
  0
ARC
  5
35B
100
AcDbEntity
  8
_0-3_躯体と製品
  6
CONTINUOUS
 62
     0
100
AcDbCircle
 10
231.9
 20
498.6328167658
 40
4.2
100
AcDbArc
 50
14.09578924417
 51
42.74124453868
  0
CIRCLE
  5
35C
100
AcDbEntity
  8
_0-3_躯体と製品
  6
CONTINUOUS
 62
     0
100
AcDbCircle
 10
253.5
 20
492.1328167658
 40
1.4
  0
CIRCLE
  5
35D
100
AcDbEntity
  8
_0-3_躯体と製品
  6
CONTINUOUS
 62
     0
100
AcDbCircle
 10
253.5
 20
456.1328167658
 40
1.4
  0
LINE
  5
35E
100
AcDbEntity
  8
_0-3_躯体と製品
  6
CONTINUOUS
 62
     0
100
AcDbLine
 10
206.085354
 20
445.8731897658
 11
207
 21
444.1328147658
  0
LINE
  5
35F
100
AcDbEntity
  8
_0-3_躯体と製品
  6
CONTINUOUS
 62
     0
100
AcDbLine
 10
207
 20
444.1328147658
 11
219
 21
444.1328147658
  0
LINE
  5
360
100
AcDbEntity
  8
_0-3_躯体と製品
  6
CONTINUOUS
 62
     0
100
AcDbLine
 10
199.199619
 20
451.6918727658
 11
204.19962
 21
453.5117237658
  0
LINE
  5
361
100
AcDbEntity
  8
_0-3_躯体と製品
  6
CONTINUOUS
 62
     0
100
AcDbLine
 10
199.199619
 20
452.7560507658
 11
203.857599
 21
454.4514167658
  0
LINE
  5
362
100
AcDbEntity
  8
_0-3_躯体と製品
  6
CONTINUOUS
 62
     0
100
AcDbLine
 10
199.199619
 20
444.5737577658
 11
204.19962
 21
442.7539067658
  0
LINE
  5
363
100
AcDbEntity
  8
_0-3_躯体と製品
  6
CONTINUOUS
 62
     0
100
AcDbLine
 10
203.857599
 20
441.8142137658
 11
210.661221
 21
440.8218587658
  0
ARC
  5
364
100
AcDbEntity
  8
_0-3_躯体と製品
  6
CONTINUOUS
 62
     0
100
AcDbCircle
 10
210.718953
 20
441.2176697658
 40
0.399999
100
AcDbArc
 50
-98.298466
 51
-8.130102000005
  0
LINE
  5
365
100
AcDbEntity
  8
_0-3_躯体と製品
  6
CONTINUOUS
 62
     0
100
AcDbLine
 10
211.114935
 20
441.1611017658
 11
211.143051
 21
441.3579287658
  0
ARC
  5
366
100
AcDbEntity
  8
_0-3_躯体と製品
  6
CONTINUOUS
 62
     0
100
AcDbCircle
 10
210.747072
 20
441.4144967658
 40
0.399999
100
AcDbArc
 50
-8.130102000005
 51
81.869898
  0
LINE
  5
367
100
AcDbEntity
  8
_0-3_躯体と製品
  6
CONTINUOUS
 62
     0
100
AcDbLine
 10
210.80364
 20
441.8104757658
 11
204.19962
 21
442.7539067658
  0
LINE
  5
368
100
AcDbEntity
  8
_0-3_躯体と製品
  6
CONTINUOUS
 62
     0
100
AcDbLine
 10
203.857599
 20
454.4514167658
 11
210.661221
 21
455.4437717658
  0
ARC
  5
369
100
AcDbEntity
  8
_0-3_躯体と製品
  6
CONTINUOUS
 62
     0
100
AcDbCircle
 10
210.718953
 20
455.0479607658
 40
0.399999
100
AcDbArc
 50
8.130102000005
 51
98.298466
  0
LINE
  5
36A
100
AcDbEntity
  8
_0-3_躯体と製品
  6
CONTINUOUS
 62
     0
100
AcDbLine
 10
211.114935
 20
455.1045287658
 11
211.143051
 21
454.9077047658
  0
ARC
  5
36B
100
AcDbEntity
  8
_0-3_躯体と製品
  6
CONTINUOUS
 62
     0
100
AcDbCircle
 10
210.747072
 20
454.8511337658
 40
0.399999
100
AcDbArc
 50
-81.869898
 51
8.130102000005
  0
LINE
  5
36C
100
AcDbEntity
  8
_0-3_躯体と製品
  6
CONTINUOUS
 62
     0
100
AcDbLine
 10
207
 20
452.1328157658
 11
206.085354
 21
450.3924407658
  0
LINE
  5
36D
100
AcDbEntity
  8
_0-3_躯体と製品
  6
CONTINUOUS
 62
     0
100
AcDbLine
 10
219
 20
453.1328147658
 11
213.999999
 21
452.1328157658
  0
LINE
  5
36E
100
AcDbEntity
  8
_0-3_躯体と製品
  6
CONTINUOUS
 62
     0
100
AcDbLine
 10
219
 20
449.1328157658
 11
213.999999
 21
448.1328167658
  0
LINE
  5
36F
100
AcDbEntity
  8
_0-3_躯体と製品
  6
CONTINUOUS
 62
     0
100
AcDbLine
 10
219
 20
447.1328147658
 11
213.999999
 21
448.1328167658
  0
LINE
  5
370
100
AcDbEntity
  8
_0-3_躯体と製品
  6
CONTINUOUS
 62
     0
100
AcDbLine
 10
213.999999
 20
448.1328167658
 11
219
 21
448.1328167658
  0
LINE
  5
371
100
AcDbEntity
  8
_0-3_躯体と製品
  6
CONTINUOUS
 62
     0
100
AcDbLine
 10
184.869444
 20
450.0022607658
 11
183
 21
448.1328167658
  0
LINE
  5
372
100
AcDbEntity
  8
_0-3_躯体と製品
  6
CONTINUOUS
 62
     0
100
AcDbLine
 10
206.085354
 20
450.3924407658
 11
204.088095
 21
450.4971107658
  0
LINE
  5
373
100
AcDbEntity
  8
_0-3_躯体と製品
  6
CONTINUOUS
 62
     0
100
AcDbLine
 10
204.088095
 20
450.4971107658
 11
204.192768
 21
452.4943697658
  0
LINE
  5
374
100
AcDbEntity
  8
_0-3_躯体と製品
  6
CONTINUOUS
 62
     0
100
AcDbLine
 10
204.192768
 20
452.4943697658
 11
202.195509
 21
452.5990427658
  0
LINE
  5
375
100
AcDbEntity
  8
_0-3_躯体と製品
  6
CONTINUOUS
 62
     0
100
AcDbLine
 10
182.039742
 20
450.1505567658
 11
182.222919
 21
453.6457607658
  0
LINE
  5
376
100
AcDbEntity
  8
_0-3_躯体と製品
  6
CONTINUOUS
 62
     0
100
AcDbLine
 10
182.222919
 20
453.6457607658
 11
180.120987
 21
451.7531747658
  0
LINE
  5
377
100
AcDbEntity
  8
_0-3_躯体と製品
  6
CONTINUOUS
 62
     0
100
AcDbLine
 10
180.120987
 20
451.7531747658
 11
180.042483
 21
450.2552297658
  0
LINE
  5
378
100
AcDbEntity
  8
_0-3_躯体と製品
  6
CONTINUOUS
 62
     0
100
AcDbLine
 10
180.042483
 20
450.2552297658
 11
210.999999
 21
448.6328147658
  0
LINE
  5
379
100
AcDbEntity
  8
_0-3_躯体と製品
  6
CONTINUOUS
 62
     0
100
AcDbLine
 10
202.195509
 20
452.5990427658
 11
201.092208
 21
450.6541187658
  0
LINE
  5
37A
100
AcDbEntity
  8
_0-3_躯体と製品
  6
CONTINUOUS
 62
     0
100
AcDbLine
 10
201.092208
 20
450.6541187658
 11
199.094949
 21
450.7587917658
  0
LINE
  5
37B
100
AcDbEntity
  8
_0-3_躯体と製品
  6
CONTINUOUS
 62
     0
100
AcDbLine
 10
199.094949
 20
450.7587917658
 11
199.199619
 21
452.7560507658
  0
LINE
  5
37C
100
AcDbEntity
  8
_0-3_躯体と製品
  6
CONTINUOUS
 62
     0
100
AcDbLine
 10
199.199619
 20
452.7560507658
 11
197.20236
 21
452.8607207658
  0
LINE
  5
37D
100
AcDbEntity
  8
_0-3_躯体と製品
  6
CONTINUOUS
 62
     0
100
AcDbLine
 10
197.20236
 20
452.8607207658
 11
196.099059
 21
450.9157997658
  0
LINE
  5
37E
100
AcDbEntity
  8
_0-3_躯体と製品
  6
CONTINUOUS
 62
     0
100
AcDbLine
 10
196.099059
 20
450.9157997658
 11
194.1018
 21
451.0204697658
  0
LINE
  5
37F
100
AcDbEntity
  8
_0-3_躯体と製品
  6
CONTINUOUS
 62
     0
100
AcDbLine
 10
194.1018
 20
451.0204697658
 11
194.206473
 21
453.0177287658
  0
LINE
  5
380
100
AcDbEntity
  8
_0-3_躯体と製品
  6
CONTINUOUS
 62
     0
100
AcDbLine
 10
194.206473
 20
453.0177287658
 11
192.209214
 21
453.1224017658
  0
LINE
  5
381
100
AcDbEntity
  8
_0-3_躯体と製品
  6
CONTINUOUS
 62
     0
100
AcDbLine
 10
192.209214
 20
453.1224017658
 11
191.105913
 21
451.1774777658
  0
LINE
  5
382
100
AcDbEntity
  8
_0-3_躯体と製品
  6
CONTINUOUS
 62
     0
100
AcDbLine
 10
191.105913
 20
451.1774777658
 11
189.108654
 21
451.2821507658
  0
LINE
  5
383
100
AcDbEntity
  8
_0-3_躯体と製品
  6
CONTINUOUS
 62
     0
100
AcDbLine
 10
189.213324
 20
453.2794097658
 11
187.216065
 21
453.3840827658
  0
LINE
  5
384
100
AcDbEntity
  8
_0-3_躯体と製品
  6
CONTINUOUS
 62
     0
100
AcDbLine
 10
187.216065
 20
453.3840827658
 11
186.112764
 21
451.4391587658
  0
LINE
  5
385
100
AcDbEntity
  8
_0-3_躯体と製品
  6
CONTINUOUS
 62
     0
100
AcDbLine
 10
186.112764
 20
451.4391587658
 11
184.115505
 21
451.5438317658
  0
LINE
  5
386
100
AcDbEntity
  8
_0-3_躯体と製品
  6
CONTINUOUS
 62
     0
100
AcDbLine
 10
184.115505
 20
451.5438317658
 11
184.220178
 21
453.5410907658
  0
LINE
  5
387
100
AcDbEntity
  8
_0-3_躯体と製品
  6
CONTINUOUS
 62
     0
100
AcDbLine
 10
184.220178
 20
453.5410907658
 11
182.222919
 21
453.6457607658
  0
LINE
  5
388
100
AcDbEntity
  8
_0-3_躯体と製品
  6
CONTINUOUS
 62
     0
100
AcDbLine
 10
210.999999
 20
447.6328157658
 11
210.999999
 21
448.6328147658
  0
LINE
  5
389
100
AcDbEntity
  8
_0-3_躯体と製品
  6
CONTINUOUS
 62
     0
100
AcDbLine
 10
219
 20
443.1328157658
 11
213.999999
 21
444.1328147658
  0
LINE
  5
38A
100
AcDbEntity
  8
_0-3_躯体と製品
  6
CONTINUOUS
 62
     0
100
AcDbLine
 10
206.085354
 20
445.8731897658
 11
204.088095
 21
445.7685197658
  0
LINE
  5
38B
100
AcDbEntity
  8
_0-3_躯体と製品
  6
CONTINUOUS
 62
     0
100
AcDbLine
 10
204.088095
 20
445.7685197658
 11
204.192768
 21
443.7712607658
  0
LINE
  5
38C
100
AcDbEntity
  8
_0-3_躯体と製品
  6
CONTINUOUS
 62
     0
100
AcDbLine
 10
204.192768
 20
443.7712607658
 11
202.195509
 21
443.6665877658
  0
LINE
  5
38D
100
AcDbEntity
  8
_0-3_躯体と製品
  6
CONTINUOUS
 62
     0
100
AcDbLine
 10
182.039742
 20
446.1150737658
 11
182.222919
 21
442.6198697658
  0
LINE
  5
38E
100
AcDbEntity
  8
_0-3_躯体と製品
  6
CONTINUOUS
 62
     0
100
AcDbLine
 10
182.222919
 20
442.6198697658
 11
180.120987
 21
444.5124557658
  0
LINE
  5
38F
100
AcDbEntity
  8
_0-3_躯体と製品
  6
CONTINUOUS
 62
     0
100
AcDbLine
 10
180.120987
 20
444.5124557658
 11
180.042483
 21
446.0104007658
  0
LINE
  5
390
100
AcDbEntity
  8
_0-3_躯体と製品
  6
CONTINUOUS
 62
     0
100
AcDbLine
 10
180.042483
 20
446.0104007658
 11
210.999999
 21
447.6328157658
  0
LINE
  5
391
100
AcDbEntity
  8
_0-3_躯体と製品
  6
CONTINUOUS
 62
     0
100
AcDbLine
 10
202.195509
 20
443.6665877658
 11
201.092208
 21
445.6115117658
  0
LINE
  5
392
100
AcDbEntity
  8
_0-3_躯体と製品
  6
CONTINUOUS
 62
     0
100
AcDbLine
 10
201.092208
 20
445.6115117658
 11
199.094949
 21
445.5068387658
  0
LINE
  5
393
100
AcDbEntity
  8
_0-3_躯体と製品
  6
CONTINUOUS
 62
     0
100
AcDbLine
 10
199.094949
 20
445.5068387658
 11
199.199619
 21
443.5095797658
  0
LINE
  5
394
100
AcDbEntity
  8
_0-3_躯体と製品
  6
CONTINUOUS
 62
     0
100
AcDbLine
 10
199.199619
 20
443.5095797658
 11
197.20236
 21
443.4049097658
  0
LINE
  5
395
100
AcDbEntity
  8
_0-3_躯体と製品
  6
CONTINUOUS
 62
     0
100
AcDbLine
 10
197.20236
 20
443.4049097658
 11
196.099059
 21
445.3498307658
  0
LINE
  5
396
100
AcDbEntity
  8
_0-3_躯体と製品
  6
CONTINUOUS
 62
     0
100
AcDbLine
 10
196.099059
 20
445.3498307658
 11
194.1018
 21
445.2451607658
  0
LINE
  5
397
100
AcDbEntity
  8
_0-3_躯体と製品
  6
CONTINUOUS
 62
     0
100
AcDbLine
 10
194.1018
 20
445.2451607658
 11
194.206473
 21
443.2479017658
  0
LINE
  5
398
100
AcDbEntity
  8
_0-3_躯体と製品
  6
CONTINUOUS
 62
     0
100
AcDbLine
 10
194.206473
 20
443.2479017658
 11
192.209214
 21
443.1432287658
  0
LINE
  5
399
100
AcDbEntity
  8
_0-3_躯体と製品
  6
CONTINUOUS
 62
     0
100
AcDbLine
 10
192.209214
 20
443.1432287658
 11
191.105913
 21
445.0881527658
  0
LINE
  5
39A
100
AcDbEntity
  8
_0-3_躯体と製品
  6
CONTINUOUS
 62
     0
100
AcDbLine
 10
191.105913
 20
445.0881527658
 11
189.108654
 21
444.9834797658
  0
LINE
  5
39B
100
AcDbEntity
  8
_0-3_躯体と製品
  6
CONTINUOUS
 62
     0
100
AcDbLine
 10
189.108654
 20
444.9834797658
 11
189.213324
 21
442.9862207658
  0
LINE
  5
39C
100
AcDbEntity
  8
_0-3_躯体と製品
  6
CONTINUOUS
 62
     0
100
AcDbLine
 10
189.213324
 20
442.9862207658
 11
187.216065
 21
442.8815477658
  0
LINE
  5
39D
100
AcDbEntity
  8
_0-3_躯体と製品
  6
CONTINUOUS
 62
     0
100
AcDbLine
 10
187.216065
 20
442.8815477658
 11
186.112764
 21
444.8264717658
  0
LINE
  5
39E
100
AcDbEntity
  8
_0-3_躯体と製品
  6
CONTINUOUS
 62
     0
100
AcDbLine
 10
186.112764
 20
444.8264717658
 11
184.115505
 21
444.7217987658
  0
LINE
  5
39F
100
AcDbEntity
  8
_0-3_躯体と製品
  6
CONTINUOUS
 62
     0
100
AcDbLine
 10
184.115505
 20
444.7217987658
 11
184.220178
 21
442.7245397658
  0
LINE
  5
3A0
100
AcDbEntity
  8
_0-3_躯体と製品
  6
CONTINUOUS
 62
     0
100
AcDbLine
 10
184.220178
 20
442.7245397658
 11
182.222919
 21
442.6198697658
  0
LINE
  5
3A1
100
AcDbEntity
  8
_0-3_躯体と製品
  6
CONTINUOUS
 62
     0
100
AcDbLine
 10
184.869444
 20
446.2633697658
 11
183
 21
448.1328167658
  0
LINE
  5
3A2
100
AcDbEntity
  8
_0-3_躯体と製品
  6
CONTINUOUS
 62
     0
100
AcDbLine
 10
210.80364
 20
454.4551547658
 11
204.19962
 21
453.5117237658
  0
LINE
  5
3A3
100
AcDbEntity
  8
_0-3_躯体と製品
  6
CONTINUOUS
 62
     0
100
AcDbLine
 10
199.199619
 20
443.5095797658
 11
203.857599
 21
441.8142137658
  0
LINE
  5
3A4
100
AcDbEntity
  8
_0-3_躯体と製品
  6
CONTINUOUS
 62
     0
100
AcDbLine
 10
207
 20
452.1328157658
 11
219
 21
452.1328157658
  0
LINE
  5
3A5
100
AcDbEntity
  8
_0-3_躯体と製品
  6
CONTINUOUS
 62
     0
100
AcDbLine
 10
189.108654
 20
451.2821507658
 11
189.213324
 21
453.2794097658
  0
ARC
  5
3A6
100
AcDbEntity
  8
_0-3_躯体と製品
  6
CONTINUOUS
 62
     0
100
AcDbCircle
 10
248.546822307
 20
459.1491610578
 40
0.5
100
AcDbArc
 50
-91.90493290056
 51
-1.904932904257
  0
ARC
  5
3A7
100
AcDbEntity
  8
_0-3_躯体と製品
  6
CONTINUOUS
 62
     0
100
AcDbCircle
 10
249.5628902779
 20
459.6156435104
 40
0.4999999999355
100
AcDbArc
 50
-1.90493290056
 51
178.0950670994
  0
LINE
  5
3A8
100
AcDbEntity
  8
_0-3_躯体と製品
  6
CONTINUOUS
 62
     0
100
AcDbLine
 10
250.0293727305
 20
458.5995755394
 11
250.0626139568
 21
459.5990228972
  0
ARC
  5
3A9
100
AcDbEntity
  8
_0-3_躯体と製品
  6
CONTINUOUS
 62
     0
100
AcDbCircle
 10
249.0299253727
 20
458.6328167658
 40
1
100
AcDbArc
 50
-91.90493290056
 51
-1.904932904258
  0
LINE
  5
3AA
100
AcDbEntity
  8
_0-3_躯体と製品
  6
CONTINUOUS
 62
     0
100
AcDbLine
 10
249.0465459859
 20
459.1325404446
 11
249.0631665991
 21
459.6322641235
  0
LINE
  5
3AB
100
AcDbEntity
  8
_0-3_躯体と製品
  6
CONTINUOUS
 62
     0
100
AcDbLine
 10
243.0332412263
 20
458.8322641235
 11
248.5302016939
 21
458.6494373789
  0
ARC
  5
3AC
100
AcDbEntity
  8
_0-3_躯体と製品
  6
CONTINUOUS
 62
     0
100
AcDbCircle
 10
243
 20
457.8328167658
 40
1
100
AcDbArc
 50
88.09506709944
 51
180
  0
LINE
  5
3AD
100
AcDbEntity
  8
_0-3_躯体と製品
  6
CONTINUOUS
 62
     0
100
AcDbLine
 10
243.3099723679
 20
457.8225072066
 11
248.9966841464
 21
457.633369408
  0
ARC
  5
3AE
100
AcDbEntity
  8
_0-3_躯体と製品
  6
CONTINUOUS
 62
     0
100
AcDbCircle
 10
243.3
 20
457.5226729993
 40
0.3
100
AcDbArc
 50
88.09506709945
 51
180
  0
LINE
  5
3AF
100
AcDbEntity
  8
_0-3_躯体と製品
  6
CONTINUOUS
 62
     0
100
AcDbLine
 10
242
 20
457.8328167658
 11
242
 21
456.1328167658
  0
LINE
  5
3B0
100
AcDbEntity
  8
_0-3_躯体と製品
  6
CONTINUOUS
 62
     0
100
AcDbLine
 10
243
 20
457.5226729993
 11
243
 21
456.4328167658
  0
LINE
  5
3B1
100
AcDbEntity
  8
_0-3_躯体と製品
  6
CONTINUOUS
 62
     0
100
AcDbLine
 10
266.168915606
 20
446.3347790234
 11
264.8091467896
 21
447.6945478397
  0
LINE
  5
3B2
100
AcDbEntity
  8
_0-3_躯体と製品
  6
CONTINUOUS
 62
     0
100
AcDbLine
 10
265.1384197093
 20
445.9510613576
 11
263.3167183679
 21
447.7727626991
  0
LINE
  5
3B3
100
AcDbEntity
  8
_0-3_躯体と製品
  6
CONTINUOUS
 62
     0
100
AcDbLine
 10
263.6459912876
 20
446.029276217
 11
261.8242899462
 21
447.8509775584
  0
LINE
  5
3B4
100
AcDbEntity
  8
_0-3_躯体と製品
  6
CONTINUOUS
 62
     0
100
AcDbLine
 10
262.153562866
 20
446.1074910763
 11
260.3318615245
 21
447.9291924177
  0
LINE
  5
3B5
100
AcDbEntity
  8
_0-3_躯体と製品
  6
CONTINUOUS
 62
     0
100
AcDbLine
 10
260.6611344443
 20
446.1857059356
 11
258.8394331028
 21
448.007407277
  0
LINE
  5
3B6
100
AcDbEntity
  8
_0-3_躯体と製品
  6
CONTINUOUS
 62
     0
100
AcDbLine
 10
259.1687060226
 20
446.2639207949
 11
257.3470046811
 21
448.0856221363
  0
LINE
  5
3B7
100
AcDbEntity
  8
_0-3_躯体と製品
  6
CONTINUOUS
 62
     0
100
AcDbLine
 10
257.6762776009
 20
446.3421356542
 11
255.8545762594
 21
448.1638369957
  0
LINE
  5
3B8
100
AcDbEntity
  8
_0-3_躯体と製品
  6
CONTINUOUS
 62
     0
100
AcDbLine
 10
256.1838491792
 20
446.4203505136
 11
254.3621478378
 21
448.242051855
  0
LINE
  5
3B9
100
AcDbEntity
  8
_0-3_躯体と製品
  6
CONTINUOUS
 62
     0
100
AcDbLine
 10
254.6914207575
 20
446.4985653729
 11
252.8697194161
 21
448.3202667143
  0
LINE
  5
3BA
100
AcDbEntity
  8
_0-3_躯体と製品
  6
CONTINUOUS
 62
     0
100
AcDbLine
 10
253.1989923358
 20
446.5767802322
 11
251.3772909944
 21
448.3984815736
  0
LINE
  5
3BB
100
AcDbEntity
  8
_0-3_躯体と製品
  6
CONTINUOUS
 62
     0
100
AcDbLine
 10
266.1460383148
 20
445.8982543042
 11
266.2362584004
 21
447.6197560894
  0
LINE
  5
3BC
100
AcDbEntity
  8
_0-3_躯体と製品
  6
CONTINUOUS
 62
     0
100
AcDbLine
 10
251.1665952935
 20
446.6832936478
 11
251.2568153791
 21
448.4047954331
  0
ARC
  5
3BD
100
AcDbEntity
  8
_0-3_躯体と製品
  6
CONTINUOUS
 62
     0
100
AcDbCircle
 10
236
 20
452.208488284
 40
1
100
AcDbArc
 50
180
 51
267
  0
LINE
  5
3BE
100
AcDbEntity
  8
_0-3_躯体と製品
  6
CONTINUOUS
 62
     0
100
AcDbLine
 10
235
 20
452.208488284
 11
235
 21
463.2595237173
  0
LINE
  5
3BF
100
AcDbEntity
  8
_0-3_躯体と製品
  6
CONTINUOUS
 62
     0
100
AcDbLine
 10
266.0038287785
 20
443.1847347037
 11
263.6607467387
 21
445.5278167435
  0
LINE
  5
3C0
100
AcDbEntity
  8
_0-3_躯体と製品
  6
CONTINUOUS
 62
     0
100
AcDbLine
 10
266.0742537542
 20
444.5285232904
 11
265.1531751604
 21
445.4496018842
  0
LINE
  5
3C1
100
AcDbEntity
  8
_0-3_躯体と製品
  6
CONTINUOUS
 62
     0
100
AcDbLine
 10
265.9334038029
 20
441.840946117
 11
262.168318317
 21
445.6060316029
  0
LINE
  5
3C2
100
AcDbEntity
  8
_0-3_躯体と製品
  6
CONTINUOUS
 62
     0
100
AcDbLine
 10
264.9029079062
 20
441.4572284512
 11
260.6758898953
 21
445.6842464622
  0
LINE
  5
3C3
100
AcDbEntity
  8
_0-3_躯体と製品
  6
CONTINUOUS
 62
     0
100
AcDbLine
 10
263.4104794846
 20
441.5354433106
 11
259.1834614736
 21
445.7624613215
  0
LINE
  5
3C4
100
AcDbEntity
  8
_0-3_躯体と製品
  6
CONTINUOUS
 62
     0
100
AcDbLine
 10
261.9180510629
 20
441.6136581699
 11
257.6910330519
 21
445.8406761808
  0
LINE
  5
3C5
100
AcDbEntity
  8
_0-3_躯体と製品
  6
CONTINUOUS
 62
     0
100
AcDbLine
 10
260.4256226412
 20
441.6918730292
 11
256.1986046302
 21
445.9188910401
  0
LINE
  5
3C6
100
AcDbEntity
  8
_0-3_躯体と製品
  6
CONTINUOUS
 62
     0
100
AcDbLine
 10
258.9331942195
 20
441.7700878885
 11
254.7061762085
 21
445.9971058995
  0
LINE
  5
3C7
100
AcDbEntity
  8
_0-3_躯体と製品
  6
CONTINUOUS
 62
     0
100
AcDbLine
 10
257.4407657978
 20
441.8483027478
 11
253.2137477868
 21
446.0753207588
  0
LINE
  5
3C8
100
AcDbEntity
  8
_0-3_躯体と製品
  6
CONTINUOUS
 62
     0
100
AcDbLine
 10
255.9483373761
 20
441.9265176072
 11
251.7213193652
 21
446.1535356181
  0
LINE
  5
3C9
100
AcDbEntity
  8
_0-3_躯体と製品
  6
CONTINUOUS
 62
     0
100
AcDbLine
 10
254.4559089544
 20
442.0047324665
 11
251.0974135763
 21
445.3632278446
  0
LINE
  5
3CA
100
AcDbEntity
  8
_0-3_躯体と製品
  6
CONTINUOUS
 62
     0
100
AcDbLine
 10
252.9634805327
 20
442.0829473258
 11
251.0269886006
 21
444.0194392579
  0
LINE
  5
3CB
100
AcDbEntity
  8
_0-3_躯体と製品
  6
CONTINUOUS
 62
     0
100
AcDbLine
 10
251.471052111
 20
442.1611621851
 11
250.9565636249
 21
442.6756506712
  0
LINE
  5
3CC
100
AcDbEntity
  8
_0-3_躯体と製品
  6
CONTINUOUS
 62
     0
100
AcDbLine
 10
251.7065639141
 20
446.6549950915
 11
251.192075428
 21
447.1694835776
  0
LINE
  5
3CD
100
AcDbEntity
  8
_0-3_躯体と製品
  6
CONTINUOUS
 62
     0
100
AcDbLine
 10
249.8320284093
 20
421.2182405116
 11
254.8251760831
 21
420.9565607303
  0
LINE
  5
3CE
100
AcDbEntity
  8
_0-3_躯体と製品
  6
CONTINUOUS
 62
     0
100
AcDbLine
 10
254.8251760831
 20
420.9565607303
 11
254.8775120393
 21
421.9551902651
  0
LINE
  5
3CF
100
AcDbEntity
  8
_0-3_躯体と製品
  6
CONTINUOUS
 62
     0
100
AcDbLine
 10
254.8775120393
 20
421.9551902651
 11
274.8501027344
 21
420.9084711402
  0
LINE
  5
3D0
100
AcDbEntity
  8
_0-3_躯体と製品
  6
CONTINUOUS
 62
     0
100
AcDbLine
 10
274.7977667782
 20
419.9098416055
 11
274.8501027344
 21
420.9084711402
  0
LINE
  5
3D1
100
AcDbEntity
  8
_0-3_躯体と製品
  6
CONTINUOUS
 62
     0
100
AcDbLine
 10
274.7977667782
 20
419.9098416055
 11
278.2929701498
 21
419.7266657586
  0
ARC
  5
3D2
100
AcDbEntity
  8
_0-3_躯体と製品
  6
CONTINUOUS
 62
     0
100
AcDbCircle
 10
278.3714740842
 20
421.2246100608
 40
1.5
100
AcDbArc
 50
-93.00000000001
 51
86.99999999999
  0
LINE
  5
3D3
100
AcDbEntity
  8
_0-3_躯体と製品
  6
CONTINUOUS
 62
     0
100
AcDbLine
 10
249.989036278
 20
424.2141291158
 11
278.4499780185
 21
422.7225543629
  0
LINE
  5
3D4
100
AcDbEntity
  8
_0-3_躯体と製品
  6
CONTINUOUS
 62
     0
100
AcDbLine
 10
228.3
 20
470.7480472483
 11
228.3
 21
469.2328167658
  0
LINE
  5
3D5
100
AcDbEntity
  8
_0-3_躯体と製品
  6
CONTINUOUS
 62
     0
100
AcDbLine
 10
224.6557915925
 20
472.8304520526
 11
228.3
 21
470.7480472483
  0
ARC
  5
3D6
100
AcDbEntity
  8
_0-3_躯体と製品
  6
CONTINUOUS
 62
     0
100
AcDbCircle
 10
225.4
 20
474.1328167658
 40
1.5
100
AcDbArc
 50
180
 51
240.2551187031
  0
LINE
  5
3D7
100
AcDbEntity
  8
_0-3_躯体と製品
  6
CONTINUOUS
 62
     0
100
AcDbLine
 10
223.9
 20
474.1328167658
 11
223.9
 21
477.3828167658
  0
ARC
  5
3D8
100
AcDbEntity
  8
_0-3_躯体と製品
  6
CONTINUOUS
 62
     0
100
AcDbCircle
 10
241.5
 20
423.6576483094
 40
2
100
AcDbArc
 50
180
 51
267
  0
LINE
  5
3D9
100
AcDbEntity
  8
_0-3_躯体と製品
  6
CONTINUOUS
 62
     0
100
AcDbLine
 10
241.3953280875
 20
421.6603892399
 11
247.8347693398
 21
421.322912424
  0
LINE
  5
3DA
100
AcDbEntity
  8
_0-3_躯体と製品
  6
CONTINUOUS
 62
     0
100
AcDbLine
 10
239.5
 20
423.6576483094
 11
239.5
 21
431.1328167658
  0
ARC
  5
3DB
100
AcDbEntity
  8
_0-3_躯体と製品
  6
CONTINUOUS
 62
     0
100
AcDbCircle
 10
243
 20
425.5817813325
 40
1
100
AcDbArc
 50
180
 51
267
  0
LINE
  5
3DC
100
AcDbEntity
  8
_0-3_躯体と製品
  6
CONTINUOUS
 62
     0
100
AcDbLine
 10
242.9476640438
 20
424.5831517977
 11
247.9917772085
 21
424.3188010283
  0
LINE
  5
3DD
100
AcDbEntity
  8
_0-3_躯体と製品
  6
CONTINUOUS
 62
     0
100
AcDbLine
 10
242
 20
425.5817813325
 11
242
 21
432.6328167658
  0
ARC
  5
3DE
100
AcDbEntity
  8
_0-3_躯体と製品
  6
CONTINUOUS
 62
     0
100
AcDbCircle
 10
247.8086013617
 20
420.8235976567
 40
0.5
100
AcDbArc
 50
-2.999999999999
 51
86.99999999999
  0
LINE
  5
3DF
100
AcDbEntity
  8
_0-3_躯体と製品
  6
CONTINUOUS
 62
     0
100
AcDbLine
 10
248.3079161291
 20
420.7974296785
 11
248.2555801728
 21
419.7988001438
  0
ARC
  5
3E0
100
AcDbEntity
  8
_0-3_躯体と製品
  6
CONTINUOUS
 62
     0
100
AcDbCircle
 10
248.7548949402
 20
419.7726321657
 40
0.5
100
AcDbArc
 50
177
 51
267
  0
LINE
  5
3E1
100
AcDbEntity
  8
_0-3_躯体と製品
  6
CONTINUOUS
 62
     0
100
AcDbLine
 10
248.7287269621
 20
419.2733173983
 11
249.2280417294
 21
419.2471494202
  0
ARC
  5
3E2
100
AcDbEntity
  8
_0-3_躯体と製品
  6
CONTINUOUS
 62
     0
100
AcDbCircle
 10
249.2542097076
 20
419.7464641875
 40
0.5
100
AcDbArc
 50
-93.00000000001
 51
-2.999999999999
  0
ARC
  5
3E3
100
AcDbEntity
  8
_0-3_躯体と製品
  6
CONTINUOUS
 62
     0
100
AcDbCircle
 10
248.0179451866
 20
424.8181157957
 40
0.5
100
AcDbArc
 50
-93.00000000001
 51
-2.999999999999
  0
LINE
  5
3E4
100
AcDbEntity
  8
_0-3_躯体と製品
  6
CONTINUOUS
 62
     0
100
AcDbLine
 10
248.517259954
 20
424.7919478176
 11
248.6219318665
 21
426.7892068871
  0
ARC
  5
3E5
100
AcDbEntity
  8
_0-3_躯体と製品
  6
CONTINUOUS
 62
     0
100
AcDbCircle
 10
249.1212466339
 20
426.763038909
 40
0.5
100
AcDbArc
 50
86.99999999999
 51
177
  0
LINE
  5
3E6
100
AcDbEntity
  8
_0-3_躯体と製品
  6
CONTINUOUS
 62
     0
100
AcDbLine
 10
249.147414612
 20
427.2623536763
 11
249.6467293794
 21
427.2361856982
  0
ARC
  5
3E7
100
AcDbEntity
  8
_0-3_躯体と製品
  6
CONTINUOUS
 62
     0
100
AcDbCircle
 10
249.6205614013
 20
426.7368709308
 40
0.5
100
AcDbArc
 50
-2.999999999999
 51
86.99999999999
  0
LINE
  5
3E8
100
AcDbEntity
  8
_0-3_躯体と製品
  6
CONTINUOUS
 62
     0
100
AcDbLine
 10
230
 20
470.6328167658
 11
235.5
 21
470.6328167658
  0
LINE
  5
3E9
100
AcDbEntity
  8
_0-3_躯体と製品
  6
CONTINUOUS
 62
     0
100
AcDbLine
 10
236.5
 20
472.1328167658
 11
228.9
 21
472.1328167658
  0
ARC
  5
3EA
100
AcDbEntity
  8
_0-3_躯体と製品
  6
CONTINUOUS
 62
     0
100
AcDbCircle
 10
230
 20
470.1328167658
 40
0.5
100
AcDbArc
 50
90
 51
180
  0
LINE
  5
3EB
100
AcDbEntity
  8
_0-3_躯体と製品
  6
CONTINUOUS
 62
     0
100
AcDbLine
 10
229.5
 20
470.1328167658
 11
229.5
 21
469.2328167658
  0
LINE
  5
3EC
100
AcDbEntity
  8
_0-3_躯体と製品
  6
CONTINUOUS
 62
     0
100
AcDbLine
 10
225.4
 20
474.1328167658
 11
228.9
 21
472.1328167658
  0
LINE
  5
3ED
100
AcDbEntity
  8
_0-3_躯体と製品
  6
CONTINUOUS
 62
     0
100
AcDbLine
 10
225.4
 20
477.3828167658
 11
225.4
 21
474.1328167658
  0
ARC
  5
3EE
100
AcDbEntity
  8
_0-3_躯体と製品
  6
CONTINUOUS
 62
     0
100
AcDbCircle
 10
224.65
 20
477.3828167658
 40
0.75
100
AcDbArc
 50
0
 51
180
  0
ARC
  5
3EF
100
AcDbEntity
  8
_0-3_躯体と製品
  6
CONTINUOUS
 62
     0
100
AcDbCircle
 10
228.9
 20
469.2328167658
 40
0.6
100
AcDbArc
 50
180
 51
360
  0
LINE
  5
3F0
100
AcDbEntity
  8
_0-3_躯体と製品
  6
CONTINUOUS
 62
     0
100
AcDbLine
 10
237.5
 20
457.6328167658
 11
237.5
 21
471.1328167658
  0
ARC
  5
3F1
100
AcDbEntity
  8
_0-3_躯体と製品
  6
CONTINUOUS
 62
     0
100
AcDbCircle
 10
235
 20
466.6328167658
 40
1
100
AcDbArc
 50
-90
 51
0
  0
LINE
  5
3F2
100
AcDbEntity
  8
_0-3_躯体と製品
  6
CONTINUOUS
 62
     0
100
AcDbLine
 10
238.5
 20
432.1328167658
 11
228
 21
432.1328167658
  0
LINE
  5
3F3
100
AcDbEntity
  8
_0-3_躯体と製品
  6
CONTINUOUS
 62
     0
100
AcDbLine
 10
235
 20
465.6328167658
 11
230.5
 21
465.6328167658
  0
LINE
  5
3F4
100
AcDbEntity
  8
_0-3_躯体と製品
  6
CONTINUOUS
 62
     0
100
AcDbLine
 10
240
 20
434.6328167658
 11
232
 21
434.6328167658
  0
LINE
  5
3F5
100
AcDbEntity
  8
_0-3_躯体と製品
  6
CONTINUOUS
 62
     0
100
AcDbLine
 10
231.5
 20
464.1328167658
 11
235.5
 21
464.1328167658
  0
ARC
  5
3F6
100
AcDbEntity
  8
_0-3_躯体と製品
  6
CONTINUOUS
 62
     0
100
AcDbCircle
 10
240
 20
432.6328167658
 40
2
100
AcDbArc
 50
0
 51
90
  0
ARC
  5
3F7
100
AcDbEntity
  8
_0-3_躯体と製品
  6
CONTINUOUS
 62
     0
100
AcDbCircle
 10
238.5
 20
431.1328167658
 40
1
100
AcDbArc
 50
0
 51
90
  0
LINE
  5
3F8
100
AcDbEntity
  8
_0-3_躯体と製品
  6
CONTINUOUS
 62
     0
100
AcDbLine
 10
237
 20
457.1328167658
 11
236
 21
457.1328167658
  0
ARC
  5
3F9
100
AcDbEntity
  8
_0-3_躯体と製品
  6
CONTINUOUS
 62
     0
100
AcDbCircle
 10
237
 20
457.6328167658
 40
0.5
100
AcDbArc
 50
-90
 51
0
  0
LINE
  5
3FA
100
AcDbEntity
  8
_0-3_躯体と製品
  6
CONTINUOUS
 62
     0
100
AcDbLine
 10
236
 20
463.6328167658
 11
236
 21
459.1328167658
  0
ARC
  5
3FB
100
AcDbEntity
  8
_0-3_躯体と製品
  6
CONTINUOUS
 62
     0
100
AcDbCircle
 10
235.5
 20
463.6328167658
 40
0.5
100
AcDbArc
 50
0
 51
90
  0
ARC
  5
3FC
100
AcDbEntity
  8
_0-3_躯体と製品
  6
CONTINUOUS
 62
     0
100
AcDbCircle
 10
236
 20
458.1328167658
 40
1
100
AcDbArc
 50
90
 51
270
  0
ARC
  5
3FD
100
AcDbEntity
  8
_0-3_躯体と製品
  6
CONTINUOUS
 62
     0
100
AcDbCircle
 10
236.5
 20
471.1328167658
 40
1
100
AcDbArc
 50
0
 51
90
  0
LINE
  5
3FE
100
AcDbEntity
  8
_0-3_躯体と製品
  6
CONTINUOUS
 62
     0
100
AcDbLine
 10
236
 20
466.6328167658
 11
236
 21
470.1328167658
  0
ARC
  5
3FF
100
AcDbEntity
  8
_0-3_躯体と製品
  6
CONTINUOUS
 62
     0
100
AcDbCircle
 10
235.5
 20
470.1328167658
 40
0.5
100
AcDbArc
 50
0
 51
90
  0
ARC
  5
400
100
AcDbEntity
  8
_0-3_躯体と製品
  6
CONTINUOUS
 62
     0
100
AcDbCircle
 10
232
 20
435.6328167658
 40
1
100
AcDbArc
 50
180
 51
270
  0
ARC
  5
401
100
AcDbEntity
  8
_0-3_躯体と製品
  6
CONTINUOUS
 62
     0
100
AcDbCircle
 10
231.5
 20
463.6328167658
 40
0.5
100
AcDbArc
 50
90
 51
180
  0
LINE
  5
402
100
AcDbEntity
  8
_0-3_躯体と製品
  6
CONTINUOUS
 62
     0
100
AcDbLine
 10
231
 20
435.6328167658
 11
231
 21
463.6328167658
  0
LINE
  5
403
100
AcDbEntity
  8
_0-3_躯体と製品
  6
CONTINUOUS
 62
     0
100
AcDbLine
 10
228.5
 20
433.6328167658
 11
227
 21
433.6328167658
  0
ARC
  5
404
100
AcDbEntity
  8
_0-3_躯体と製品
  6
CONTINUOUS
 62
     0
100
AcDbCircle
 10
228.5
 20
434.1328167658
 40
0.5
100
AcDbArc
 50
-90
 51
0
  0
LINE
  5
405
100
AcDbEntity
  8
_0-3_躯体と製品
  6
CONTINUOUS
 62
     0
100
AcDbLine
 10
229
 20
434.1328167658
 11
229
 21
464.1328167658
  0
ARC
  5
406
100
AcDbEntity
  8
_0-3_躯体と製品
  6
CONTINUOUS
 62
     0
100
AcDbCircle
 10
230.5
 20
464.1328167658
 40
1.5
100
AcDbArc
 50
90
 51
180
  0
ARC
  5
407
100
AcDbEntity
  8
_0-3_躯体と製品
  6
CONTINUOUS
 62
     0
100
AcDbCircle
 10
228
 20
431.6328167658
 40
0.5
100
AcDbArc
 50
90
 51
180
  0
LINE
  5
408
100
AcDbEntity
  8
_0-3_躯体と製品
  6
CONTINUOUS
 62
     0
100
AcDbLine
 10
227.5
 20
431.6328167658
 11
227.5
 21
430.3828167658
  0
ARC
  5
409
100
AcDbEntity
  8
_0-3_躯体と製品
  6
CONTINUOUS
 62
     0
100
AcDbCircle
 10
226.75
 20
430.3828167658
 40
0.75
100
AcDbArc
 50
180
 51
360
  0
ARC
  5
40A
100
AcDbEntity
  8
_0-3_躯体と製品
  6
CONTINUOUS
 62
     0
100
AcDbCircle
 10
227
 20
432.6328167658
 40
1
100
AcDbArc
 50
90
 51
180
  0
LINE
  5
40B
100
AcDbEntity
  8
_0-3_躯体と製品
  6
CONTINUOUS
 62
     0
100
AcDbLine
 10
226
 20
432.6328167658
 11
226
 21
430.3828167658
  0
LINE
  5
40C
100
AcDbEntity
  8
_0-3_躯体と製品
  6
CONTINUOUS
 62
     0
100
AcDbLine
 10
265.9105265117
 20
441.4044213978
 11
266.1198703367
 21
445.3989395368
  0
LINE
  5
40D
100
AcDbEntity
  8
_0-3_躯体と製品
  6
CONTINUOUS
 62
     0
100
AcDbLine
 10
251.1404273154
 20
446.1839788804
 11
266.1198703367
 21
445.3989395368
  0
LINE
  5
40E
100
AcDbEntity
  8
_0-3_躯体と製品
  6
CONTINUOUS
 62
     0
100
AcDbLine
 10
249.7011885187
 20
418.7216666747
 11
251.1665952935
 21
446.6832936478
  0
LINE
  5
40F
100
AcDbEntity
  8
_0-3_躯体と製品
  6
CONTINUOUS
 62
     0
100
AcDbLine
 10
228
 20
452.4705271804
 11
228
 21
464.6236334803
  0
LINE
  5
410
100
AcDbEntity
  8
_0-3_躯体と製品
  6
CONTINUOUS
 62
     0
100
AcDbLine
 10
228
 20
464.6236334803
 11
223.5
 21
464.6236334803
  0
LINE
  5
411
100
AcDbEntity
  8
_0-3_躯体と製品
  6
CONTINUOUS
 62
     0
100
AcDbLine
 10
223.5
 20
452.4705271804
 11
223.5
 21
464.6236334803
  0
ARC
  5
412
100
AcDbEntity
  8
_0-3_躯体と製品
  6
CONTINUOUS
 62
     0
100
AcDbCircle
 10
231
 20
452.4705271804
 40
3
100
AcDbArc
 50
180
 51
267
  0
ARC
  5
413
100
AcDbEntity
  8
_0-3_躯体と製品
  6
CONTINUOUS
 62
     0
100
AcDbCircle
 10
231
 20
452.4705271804
 40
7.5
100
AcDbArc
 50
180
 51
267
  0
LINE
  5
414
100
AcDbEntity
  8
_0-3_躯体と製品
  6
CONTINUOUS
 62
     0
100
AcDbLine
 10
244
 20
384
 11
244
 21
244
  0
LINE
  5
415
100
AcDbEntity
  8
_0-3_躯体と製品
  6
CONTINUOUS
 62
     0
100
AcDbLine
 10
219
 20
384
 11
244
 21
384
  0
LINE
  5
416
100
AcDbEntity
  8
_0-4_図枠
  6
CONTINUOUS
 62
     0
100
AcDbLine
 10
8
 20
582
 11
8
 21
6
  0
LINE
  5
417
100
AcDbEntity
  8
_0-4_図枠
  6
CONTINUOUS
 62
     0
100
AcDbLine
 10
832
 20
582
 11
8
 21
582
  0
LINE
  5
418
100
AcDbEntity
  8
_0-4_図枠
  6
CONTINUOUS
 62
     0
100
AcDbLine
 10
832
 20
6
 11
832
 21
582
  0
LINE
  5
419
100
AcDbEntity
  8
_0-4_図枠
  6
CONTINUOUS
 62
     0
100
AcDbLine
 10
8
 20
6
 11
832
 21
6
  0
LINE
  5
41A
100
AcDbEntity
  8
_0-3_躯体と製品
  6
CONTINUOUS
 62
     0
100
AcDbLine
 10
230.8429921313
 20
449.4746385762
 11
251.2568153791
 21
448.4047954331
  0
CIRCLE
  5
41B
100
AcDbEntity
  8
_0-4_図枠
  6
CONTINUOUS
 62
     0
100
AcDbCircle
 10
462.8799775765
 20
455.5340501396
 40
6
  0
CIRCLE
  5
41C
100
AcDbEntity
  8
_0-4_図枠
  6
CONTINUOUS
 62
     0
100
AcDbCircle
 10
478.8909188008
 20
459.0557433617
 40
6
  0
LINE
  5
41D
100
AcDbEntity
  8
_0-2_寸法
  6
CONTINUOUS
 62
     0
100
AcDbLine
 10
244.2462019383
 20
258.9565879556
 11
244.2462019383
 21
259
  0
LINE
  5
41E
100
AcDbEntity
  8
_0-2_寸法
  6
CONTINUOUS
 62
     0
100
AcDbLine
 10
245.2462019383
 20
259
 11
393
 21
259
  0
TEXT
  5
41F
100
AcDbEntity
  8
_0-2_寸法
  6
CONTINUOUS
 62
     0
100
AcDbText
 10
315.3731009691
 20
260
 40
5
  1
150
  7
STANDARD
100
AcDbText
  0
CIRCLE
  5
420
100
AcDbEntity
  8
_0-2_寸法
  6
CONTINUOUS
 62
     0
100
AcDbCircle
 10
244.2462019383
 20
258.9565879556
 40
1.4
  0
CIRCLE
  5
421
100
AcDbEntity
  8
_0-2_寸法
  6
CONTINUOUS
 62
     0
100
AcDbCircle
 10
394
 20
259
 40
1.4
  0
CIRCLE
  5
422
100
AcDbEntity
  8
_0-2_寸法
  6
CONTINUOUS
 62
     0
100
AcDbCircle
 10
394
 20
259
 40
1.4
  0
LINE
  5
423
100
AcDbEntity
  8
_0-2_寸法
  6
CONTINUOUS
 62
     0
100
AcDbLine
 10
219
 20
382
 11
219
 21
259
  0
LINE
  5
424
100
AcDbEntity
  8
_0-2_寸法
  6
CONTINUOUS
 62
     0
100
AcDbLine
 10
220
 20
259
 11
243
 21
259
  0
TEXT
  5
425
100
AcDbEntity
  8
_0-2_寸法
  6
CONTINUOUS
 62
     0
100
AcDbText
 10
229
 20
260
 40
5
  1
25
  7
STANDARD
100
AcDbText
  0
CIRCLE
  5
426
100
AcDbEntity
  8
_0-2_寸法
  6
CONTINUOUS
 62
     0
100
AcDbCircle
 10
219
 20
382
 40
1.4
  0
CIRCLE
  5
427
100
AcDbEntity
  8
_0-2_寸法
  6
CONTINUOUS
 62
     0
100
AcDbCircle
 10
244
 20
259
 40
1.4
  0
CIRCLE
  5
428
100
AcDbEntity
  8
_0-2_寸法
  6
CONTINUOUS
 62
     0
100
AcDbCircle
 10
244
 20
259
 40
1.4
  0
LINE
  5
429
100
AcDbEntity
  8
_0-2_寸法
  6
CONTINUOUS
 62
     0
100
AcDbLine
 10
394
 20
258.75
 11
394
 21
259
  0
CIRCLE
  5
42A
100
AcDbEntity
  8
_0-2_寸法
  6
CONTINUOUS
 62
     0
100
AcDbCircle
 10
394
 20
258.75
 40
1.4
  0
CIRCLE
  5
42B
100
AcDbEntity
  8
_0-2_寸法
  6
CONTINUOUS
 62
     0
100
AcDbCircle
 10
620
 20
259.0434120444
 40
1.4
  0
LINE
  5
42C
100
AcDbEntity
  8
_0-2_寸法
  6
CONTINUOUS
 62
     0
100
AcDbLine
 10
235
 20
465.2595237173
 11
235
 21
485.1328167658
  0
LINE
  5
42D
100
AcDbEntity
  8
_0-2_寸法
  6
CONTINUOUS
 62
     0
100
AcDbLine
 10
619
 20
485.1328167658
 11
236
 21
485.1328167658
  0
TEXT
  5
42E
100
AcDbEntity
  8
_0-2_寸法
  6
CONTINUOUS
 62
     0
100
AcDbText
 10
426.25
 20
486.1328167658
 40
5
  1
A
  7
STANDARD
100
AcDbText
  0
CIRCLE
  5
42F
100
AcDbEntity
  8
_0-2_寸法
  6
CONTINUOUS
 62
     0
100
AcDbCircle
 10
235
 20
465.2595237173
 40
1.4
  0
CIRCLE
  5
430
100
AcDbEntity
  8
_0-2_寸法
  6
CONTINUOUS
 62
     0
100
AcDbCircle
 10
235
 20
485.1328167658
 40
1.4
  0
LINE
  5
431
100
AcDbEntity
  8
_0-2_寸法
  6
CONTINUOUS
 62
     0
100
AcDbLine
 10
220
 20
494.1328167658
 11
220
 21
562.1328167658
  0
LINE
  5
432
100
AcDbEntity
  8
_0-2_寸法
  6
CONTINUOUS
 62
     0
100
AcDbLine
 10
221
 20
562.1328167658
 11
619
 21
562.1328167658
  0
TEXT
  5
433
100
AcDbEntity
  8
_0-2_寸法
  6
CONTINUOUS
 62
     0
100
AcDbText
 10
418.75
 20
563.1328167658
 40
5
  1
W
  7
STANDARD
100
AcDbText
  0
CIRCLE
  5
434
100
AcDbEntity
  8
_0-2_寸法
  6
CONTINUOUS
 62
     0
100
AcDbCircle
 10
220
 20
494.1328167658
 40
1.4
  0
CIRCLE
  5
435
100
AcDbEntity
  8
_0-2_寸法
  6
CONTINUOUS
 62
     0
100
AcDbCircle
 10
620
 20
562.1328167658
 40
1.4
  0
LINE
  5
436
100
AcDbEntity
  8
_0-2_寸法
  6
CONTINUOUS
 62
     0
100
AcDbLine
 10
220
 20
494.1328167658
 11
220
 21
547.1328167658
  0
LINE
  5
437
100
AcDbEntity
  8
_0-2_寸法
  6
CONTINUOUS
 62
     0
100
AcDbLine
 10
253.5
 20
495.2656335315
 11
253.5
 21
547.1328167658
  0
LINE
  5
438
100
AcDbEntity
  8
_0-2_寸法
  6
CONTINUOUS
 62
     0
100
AcDbLine
 10
221
 20
547.1328167658
 11
252.5
 21
547.1328167658
  0
TEXT
  5
439
100
AcDbEntity
  8
_0-2_寸法
  6
CONTINUOUS
 62
     0
100
AcDbText
 10
231.75
 20
548.1328167658
 40
5
  1
33.5
  7
STANDARD
100
AcDbText
  0
CIRCLE
  5
43A
100
AcDbEntity
  8
_0-2_寸法
  6
CONTINUOUS
 62
     0
100
AcDbCircle
 10
220
 20
494.1328167658
 40
1.4
  0
CIRCLE
  5
43B
100
AcDbEntity
  8
_0-2_寸法
  6
CONTINUOUS
 62
     0
100
AcDbCircle
 10
253.5
 20
495.2656335315
 40
1.4
  0
CIRCLE
  5
43C
100
AcDbEntity
  8
_0-2_寸法
  6
CONTINUOUS
 62
     0
100
AcDbCircle
 10
253.5
 20
547.1328167658
 40
1.4
  0
LINE
  5
43D
100
AcDbEntity
  8
_0-2_寸法
  6
CONTINUOUS
 62
     0
100
AcDbLine
 10
233.5
 20
509.1328167658
 11
233.5
 21
532.1328167658
  0
LINE
  5
43E
100
AcDbEntity
  8
_0-2_寸法
  6
CONTINUOUS
 62
     0
100
AcDbLine
 10
253.5
 20
495.2656335315
 11
253.5
 21
532.1328167658
  0
LINE
  5
43F
100
AcDbEntity
  8
_0-2_寸法
  6
CONTINUOUS
 62
     0
100
AcDbLine
 10
234.5
 20
532.1328167658
 11
252.5
 21
532.1328167658
  0
TEXT
  5
440
100
AcDbEntity
  8
_0-2_寸法
  6
CONTINUOUS
 62
     0
100
AcDbText
 10
241
 20
533.1328167658
 40
5
  1
20
  7
STANDARD
100
AcDbText
  0
CIRCLE
  5
441
100
AcDbEntity
  8
_0-2_寸法
  6
CONTINUOUS
 62
     0
100
AcDbCircle
 10
233.5
 20
509.1328167658
 40
1.4
  0
CIRCLE
  5
442
100
AcDbEntity
  8
_0-2_寸法
  6
CONTINUOUS
 62
     0
100
AcDbCircle
 10
253.5
 20
495.2656335315
 40
1.4
  0
CIRCLE
  5
443
100
AcDbEntity
  8
_0-2_寸法
  6
CONTINUOUS
 62
     0
100
AcDbCircle
 10
253.5
 20
532.1328167658
 40
1.4
  0
LINE
  5
444
100
AcDbEntity
  8
_0-2_寸法
  6
CONTINUOUS
 62
     0
100
AcDbLine
 10
246
 20
507.1328167658
 11
288.5
 21
507.1328167658
  0
LINE
  5
445
100
AcDbEntity
  8
_0-2_寸法
  6
CONTINUOUS
 62
     0
100
AcDbLine
 10
255.5
 20
492.1328167658
 11
288.5
 21
492.1328167658
  0
LINE
  5
446
100
AcDbEntity
  8
_0-2_寸法
  6
CONTINUOUS
 62
     0
100
AcDbLine
 10
288.5
 20
506.1328167658
 11
288.5
 21
493.1328167658
  0
TEXT
  5
447
100
AcDbEntity
  8
_0-2_寸法
  6
CONTINUOUS
 62
     0
100
AcDbText
 10
287.5
 20
497.1328167658
 40
5
  1
15
 50
90
  7
STANDARD
100
AcDbText
  0
CIRCLE
  5
448
100
AcDbEntity
  8
_0-2_寸法
  6
CONTINUOUS
 62
     0
100
AcDbCircle
 10
246
 20
507.1328167658
 40
1.4
  0
CIRCLE
  5
449
100
AcDbEntity
  8
_0-2_寸法
  6
CONTINUOUS
 62
     0
100
AcDbCircle
 10
255.5
 20
492.1328167658
 40
1.4
  0
CIRCLE
  5
44A
100
AcDbEntity
  8
_0-2_寸法
  6
CONTINUOUS
 62
     0
100
AcDbCircle
 10
288.5
 20
492.1328167658
 40
1.4
  0
LINE
  5
44B
100
AcDbEntity
  8
_0-2_寸法
  6
CONTINUOUS
 62
     0
100
AcDbLine
 10
255.5
 20
492.1328167658
 11
288.5
 21
492.1328167658
  0
LINE
  5
44C
100
AcDbEntity
  8
_0-2_寸法
  6
CONTINUOUS
 62
     0
100
AcDbLine
 10
255.5
 20
456.1328167658
 11
288.5
 21
456.1328167658
  0
LINE
  5
44D
100
AcDbEntity
  8
_0-2_寸法
  6
CONTINUOUS
 62
     0
100
AcDbLine
 10
288.5
 20
491.1328167658
 11
288.5
 21
457.1328167658
  0
TEXT
  5
44E
100
AcDbEntity
  8
_0-2_寸法
  6
CONTINUOUS
 62
     0
100
AcDbText
 10
287.5
 20
471.6328167658
 40
5
  1
36
 50
90
  7
STANDARD
100
AcDbText
  0
CIRCLE
  5
44F
100
AcDbEntity
  8
_0-2_寸法
  6
CONTINUOUS
 62
     0
100
AcDbCircle
 10
255.5
 20
492.1328167658
 40
1.4
  0
CIRCLE
  5
450
100
AcDbEntity
  8
_0-2_寸法
  6
CONTINUOUS
 62
     0
100
AcDbCircle
 10
255.5
 20
456.1328167658
 40
1.4
  0
CIRCLE
  5
451
100
AcDbEntity
  8
_0-2_寸法
  6
CONTINUOUS
 62
     0
100
AcDbCircle
 10
288.5
 20
456.1328167658
 40
1.4
  0
LINE
  5
452
100
AcDbEntity
  8
_0-2_寸法
  6
CONTINUOUS
 62
     0
100
AcDbLine
 10
217
 20
384
 11
164
 21
384
  0
LINE
  5
453
100
AcDbEntity
  8
_0-2_寸法
  6
CONTINUOUS
 62
     0
100
AcDbLine
 10
164
 20
385
 11
164
 21
447.1328167658
  0
TEXT
  5
454
100
AcDbEntity
  8
_0-2_寸法
  6
CONTINUOUS
 62
     0
100
AcDbText
 10
163
 20
414.8164083829
 40
5
  1
D
 50
90
  7
STANDARD
100
AcDbText
  0
CIRCLE
  5
455
100
AcDbEntity
  8
_0-2_寸法
  6
CONTINUOUS
 62
     0
100
AcDbCircle
 10
217
 20
384
 40
1.4
  0
CIRCLE
  5
456
100
AcDbEntity
  8
_0-2_寸法
  6
CONTINUOUS
 62
     0
100
AcDbCircle
 10
164
 20
448.1328167658
 40
1.4
  0
CIRCLE
  5
457
100
AcDbEntity
  8
_0-2_寸法
  6
CONTINUOUS
 62
     0
100
AcDbCircle
 10
164
 20
448.1328167658
 40
1.4
  0
LINE
  5
458
100
AcDbEntity
  8
_0-2_寸法
  6
CONTINUOUS
 62
     0
100
AcDbLine
 10
217
 20
384
 11
144
 21
384
  0
LINE
  5
459
100
AcDbEntity
  8
_0-2_寸法
  6
CONTINUOUS
 62
     0
100
AcDbLine
 10
217
 20
507.1328167658
 11
144
 21
507.1328167658
  0
LINE
  5
45A
100
AcDbEntity
  8
_0-2_寸法
  6
CONTINUOUS
 62
     0
100
AcDbLine
 10
144
 20
385
 11
144
 21
506.1328167658
  0
TEXT
  5
45B
100
AcDbEntity
  8
_0-2_寸法
  6
CONTINUOUS
 62
     0
100
AcDbText
 10
143
 20
444.3164083829
 40
5
  1
E
 50
90
  7
STANDARD
100
AcDbText
  0
CIRCLE
  5
45C
100
AcDbEntity
  8
_0-2_寸法
  6
CONTINUOUS
 62
     0
100
AcDbCircle
 10
217
 20
384
 40
1.4
  0
CIRCLE
  5
45D
100
AcDbEntity
  8
_0-2_寸法
  6
CONTINUOUS
 62
     0
100
AcDbCircle
 10
217
 20
507.1328167658
 40
1.4
  0
CIRCLE
  5
45E
100
AcDbEntity
  8
_0-2_寸法
  6
CONTINUOUS
 62
     0
100
AcDbCircle
 10
144
 20
507.1328167658
 40
1.4
  0
CIRCLE
  5
45F
100
AcDbEntity
  8
_0-2_寸法
  6
CONTINUOUS
 62
     0
100
AcDbCircle
 10
489.7537980617
 20
258.9565879556
 40
1.4
  0
CIRCLE
  5
460
100
AcDbEntity
  8
_0-2_寸法
  6
CONTINUOUS
 62
     0
100
AcDbCircle
 10
489.7537980617
 20
258.9565879556
 40
1.4
  0
CIRCLE
  5
461
100
AcDbEntity
  8
_0-2_寸法
  6
CONTINUOUS
 62
     0
100
AcDbCircle
 10
490
 20
259
 40
1.4
  0
LINE
  5
462
100
AcDbEntity
  8
_0-2_寸法
  6
CONTINUOUS
 62
     0
100
AcDbLine
 10
395
 20
259
 11
490
 21
259
  0
LINE
  5
463
100
AcDbEntity
  8
_0-2_寸法
  6
CONTINUOUS
 62
     0
100
AcDbLine
 10
490
 20
259.0434120444
 11
619
 21
259.0434120444
  0
LINE
  5
464
100
AcDbEntity
  8
_0-0_0
  6
CONTINUOUS
 62
     0
100
AcDbLine
 10
330.8111472922
 20
422.2815781564
 11
330.7169425709
 21
420.4840449938
  0
LINE
  5
465
100
AcDbEntity
  8
_0-4_図枠
  6
CONTINUOUS
 62
     0
100
AcDbLine
 10
715
 20
171
 11
490
 21
171
  0
LINE
  5
466
100
AcDbEntity
  8
_0-4_図枠
  6
CONTINUOUS
 62
     0
100
AcDbLine
 10
715
 20
180
 11
490
 21
180
  0
LINE
  5
467
100
AcDbEntity
  8
_0-4_図枠
  6
CONTINUOUS
 62
     0
100
AcDbLine
 10
715
 20
189
 11
490
 21
189
  0
LINE
  5
468
100
AcDbEntity
  8
_0-4_図枠
  6
CONTINUOUS
 62
     0
100
AcDbLine
 10
715
 20
198
 11
490
 21
198
  0
LINE
  5
469
100
AcDbEntity
  8
_0-4_図枠
  6
CONTINUOUS
 62
     0
100
AcDbLine
 10
715
 20
207
 11
490
 21
207
  0
LINE
  5
46A
100
AcDbEntity
  8
_0-4_図枠
  6
CONTINUOUS
 62
     0
100
AcDbLine
 10
715
 20
225
 11
490
 21
225
  0
LINE
  5
46B
100
AcDbEntity
  8
_0-4_図枠
  6
CONTINUOUS
 62
     0
100
AcDbLine
 10
715
 20
234
 11
490
 21
234
  0
LINE
  5
46C
100
AcDbEntity
  8
_0-4_図枠
  6
CONTINUOUS
 62
     0
100
AcDbLine
 10
715
 20
216
 11
490
 21
216
  0
TEXT
  5
46D
100
AcDbEntity
  8
_0-4_図枠
  6
CONTINUOUS
 62
     0
100
AcDbText
 10
510.5
 20
226.5
 40
5
  1
タ　イ　プ
  7
STANDARD
100
AcDbText
  0
TEXT
  5
46E
100
AcDbEntity
  8
_0-4_図枠
  6
CONTINUOUS
 62
     0
100
AcDbText
 10
674
 20
235.1438246319
 40
5
  1
（単位：mm）
  7
STANDARD
100
AcDbText
  0
TEXT
  5
46F
100
AcDbEntity
  8
_0-4_図枠
  6
CONTINUOUS
 62
     0
100
AcDbText
 10
697
 20
226.5
 40
5
  1
Ｅ
  7
STANDARD
100
AcDbText
  0
TEXT
  5
470
100
AcDbEntity
  8
_0-4_図枠
  6
CONTINUOUS
 62
     0
100
AcDbText
 10
667
 20
226.5
 40
5
  1
Ｄ
  7
STANDARD
100
AcDbText
  0
TEXT
  5
471
100
AcDbEntity
  8
_0-4_図枠
  6
CONTINUOUS
 62
     0
100
AcDbText
 10
637
 20
226.5
 40
5
  1
Ｃ
  7
STANDARD
100
AcDbText
  0
TEXT
  5
472
100
AcDbEntity
  8
_0-4_図枠
  6
CONTINUOUS
 62
     0
100
AcDbText
 10
577
 20
226.5
 40
5
  1
Ｗ
  7
STANDARD
100
AcDbText
  0
TEXT
  5
473
100
AcDbEntity
  8
_0-4_図枠
  6
CONTINUOUS
 62
     0
100
AcDbText
 10
607
 20
226.5
 40
5
  1
Ａ
  7
STANDARD
100
AcDbText
  0
ARC
  5
474
100
AcDbEntity
  8
_0-0_0
  6
CONTINUOUS
 62
     0
100
AcDbCircle
 10
236
 20
452.208488284
 40
2.5
100
AcDbArc
 50
180
 51
267
  0
LINE
  5
475
100
AcDbEntity
  8
_0-0_0
  6
CONTINUOUS
 62
     0
100
AcDbLine
 10
233.5
 20
452.208488284
 11
233.5
 21
463.2595237173
  0
LINE
  5
476
100
AcDbEntity
  8
_0-3_躯体と製品
  6
CONTINUOUS
 62
     0
100
AcDbLine
 10
233.5
 20
463.2595237173
 11
235
 21
463.2595237173
  0
TEXT
  5
477
100
AcDbEntity
  8
_0-4_図枠
  6
CONTINUOUS
 62
     0
100
AcDbText
 10
459.6299775765
 20
452.5340501396
 40
5
  1
13
  7
STANDARD
100
AcDbText
  0
TEXT
  5
478
100
AcDbEntity
  8
_0-4_図枠
  6
CONTINUOUS
 62
     0
100
AcDbText
 10
475.8909188008
 20
456.0557433617
 40
5
  1
６
  7
STANDARD
100
AcDbText
  0
TEXT
  5
479
100
AcDbEntity
  8
_0-4_図枠
  6
CONTINUOUS
 62
     0
100
AcDbText
 10
627.3900638536
 20
456.663885327
 40
5
  1
８
  7
STANDARD
100
AcDbText
  0
TEXT
  5
47A
100
AcDbEntity
  8
_0-4_図枠
  6
CONTINUOUS
 62
     0
100
AcDbText
 10
204.0818935557
 20
535.8971531665
 40
5
  1
14
  7
STANDARD
100
AcDbText
  0
TEXT
  5
47B
100
AcDbEntity
  8
_0-4_図枠
  6
CONTINUOUS
 62
     0
100
AcDbText
 10
199.3845402624
 20
470.7805147521
 40
5
  1
18
  7
STANDARD
100
AcDbText
  0
TEXT
  5
47C
100
AcDbEntity
  8
_0-4_図枠
  6
CONTINUOUS
 62
     0
100
AcDbText
 10
171.3182362501
 20
469.6817745393
 40
5
  1
17
  7
STANDARD
100
AcDbText
  0
TEXT
  5
47D
100
AcDbEntity
  8
_0-4_図枠
  6
CONTINUOUS
 62
     0
100
AcDbText
 10
200.6080003902
 20
426.7236459671
 40
5
  1
20
  7
STANDARD
100
AcDbText
  0
TEXT
  5
47E
100
AcDbEntity
  8
_0-4_図枠
  6
CONTINUOUS
 62
     0
100
AcDbText
 10
274.3625019454
 20
403.9566524648
 40
5
  1
12
  7
STANDARD
100
AcDbText
  0
TEXT
  5
47F
100
AcDbEntity
  8
_0-4_図枠
  6
CONTINUOUS
 62
     0
100
AcDbText
 10
272.4365555244
 20
511.9738119661
 40
5
  1
９
  7
STANDARD
100
AcDbText
  0
TEXT
  5
480
100
AcDbEntity
  8
_0-4_図枠
  6
CONTINUOUS
 62
     0
100
AcDbText
 10
277.0228563375
 20
339.6248534133
 40
5
  1
10
  7
STANDARD
100
AcDbText
  0
LINE
  5
481
100
AcDbEntity
  8
_0-0_0
  6
CONTINUOUS
 62
     0
100
AcDbLine
 10
334
 20
45
 11
125
 21
45
  0
LINE
  5
482
100
AcDbEntity
  8
_0-0_0
  6
CONTINUOUS
 62
     0
100
AcDbLine
 10
334
 20
36
 11
125
 21
36
  0
LINE
  5
483
100
AcDbEntity
  8
_0-0_0
  6
CONTINUOUS
 62
     0
100
AcDbLine
 10
334
 20
126
 11
125
 21
126
  0
LINE
  5
484
100
AcDbEntity
  8
_0-0_0
  6
CONTINUOUS
 62
     0
100
AcDbLine
 10
334
 20
135
 11
125
 21
135
  0
LINE
  5
485
100
AcDbEntity
  8
_0-0_0
  6
CONTINUOUS
 62
     0
100
AcDbLine
 10
334
 20
54
 11
125
 21
54
  0
LINE
  5
486
100
AcDbEntity
  8
_0-0_0
  6
CONTINUOUS
 62
     0
100
AcDbLine
 10
334
 20
63
 11
125
 21
63
  0
LINE
  5
487
100
AcDbEntity
  8
_0-0_0
  6
CONTINUOUS
 62
     0
100
AcDbLine
 10
334
 20
72
 11
125
 21
72
  0
LINE
  5
488
100
AcDbEntity
  8
_0-0_0
  6
CONTINUOUS
 62
     0
100
AcDbLine
 10
334
 20
81
 11
125
 21
81
  0
LINE
  5
489
100
AcDbEntity
  8
_0-0_0
  6
CONTINUOUS
 62
     0
100
AcDbLine
 10
334
 20
90
 11
125
 21
90
  0
LINE
  5
48A
100
AcDbEntity
  8
_0-0_0
  6
CONTINUOUS
 62
     0
100
AcDbLine
 10
334
 20
99
 11
125
 21
99
  0
LINE
  5
48B
100
AcDbEntity
  8
_0-0_0
  6
CONTINUOUS
 62
     0
100
AcDbLine
 10
334
 20
108
 11
125
 21
108
  0
LINE
  5
48C
100
AcDbEntity
  8
_0-0_0
  6
CONTINUOUS
 62
     0
100
AcDbLine
 10
334
 20
117
 11
125
 21
117
  0
LINE
  5
48D
100
AcDbEntity
  8
_0-0_0
  6
CONTINUOUS
 62
     0
100
AcDbLine
 10
334
 20
144
 11
125
 21
144
  0
LINE
  5
48E
100
AcDbEntity
  8
_0-0_0
  6
CONTINUOUS
 62
     0
100
AcDbLine
 10
334
 20
153
 11
125
 21
153
  0
LINE
  5
48F
100
AcDbEntity
  8
_0-0_0
  6
CONTINUOUS
 62
     0
100
AcDbLine
 10
334
 20
162
 11
125
 21
162
  0
LINE
  5
490
100
AcDbEntity
  8
_0-0_0
  6
CONTINUOUS
 62
     0
100
AcDbLine
 10
334
 20
171
 11
125
 21
171
  0
LINE
  5
491
100
AcDbEntity
  8
_0-0_0
  6
CONTINUOUS
 62
     0
100
AcDbLine
 10
334
 20
180
 11
125
 21
180
  0
LINE
  5
492
100
AcDbEntity
  8
_0-0_0
  6
CONTINUOUS
 62
     0
100
AcDbLine
 10
334
 20
189
 11
125
 21
189
  0
LINE
  5
493
100
AcDbEntity
  8
_0-0_0
  6
CONTINUOUS
 62
     0
100
AcDbLine
 10
334
 20
198
 11
125
 21
198
  0
LINE
  5
494
100
AcDbEntity
  8
_0-0_0
  6
CONTINUOUS
 62
     0
100
AcDbLine
 10
334
 20
207
 11
125
 21
207
  0
LINE
  5
495
100
AcDbEntity
  8
_0-0_0
  6
CONTINUOUS
 62
     0
100
AcDbLine
 10
334
 20
216
 11
125
 21
216
  0
LINE
  5
496
100
AcDbEntity
  8
_0-0_0
  6
CONTINUOUS
 62
     0
100
AcDbLine
 10
334
 20
225
 11
125
 21
225
  0
LINE
  5
497
100
AcDbEntity
  8
_0-0_0
  6
CONTINUOUS
 62
     0
100
AcDbLine
 10
334
 20
234
 11
125
 21
234
  0
TEXT
  5
498
100
AcDbEntity
  8
_0-0_0
  6
CONTINUOUS
 62
     0
100
AcDbText
 10
147.3333333333
 20
190.9166666667
 40
4.99
  1
ＦＹＫ壁フレーム
  7
STANDARD
100
AcDbText
  0
TEXT
  5
499
100
AcDbEntity
  8
_0-0_0
  6
CONTINUOUS
 62
     0
100
AcDbText
 10
146.9166666667
 20
199.9166666667
 40
5
  1
ＦＹＹフレーム
 41
0.998
  7
STANDARD
100
AcDbText
  0
TEXT
  5
49A
100
AcDbEntity
  8
_0-0_0
  6
CONTINUOUS
 62
     0
100
AcDbText
 10
129.1666666667
 20
46.91666666667
 40
4.99
  1
20
  7
STANDARD
100
AcDbText
  0
TEXT
  5
49B
100
AcDbEntity
  8
_0-0_0
  6
CONTINUOUS
 62
     0
100
AcDbText
 10
129.1666666667
 20
55.91666666667
 40
4.99
  1
19
  7
STANDARD
100
AcDbText
  0
TEXT
  5
49C
100
AcDbEntity
  8
_0-0_0
  6
CONTINUOUS
 62
     0
100
AcDbText
 10
129.1666666667
 20
82.91666666667
 40
4.99
  1
16
  7
STANDARD
100
AcDbText
  0
TEXT
  5
49D
100
AcDbEntity
  8
_0-0_0
  6
CONTINUOUS
 62
     0
100
AcDbText
 10
129.1666666667
 20
73.91666666667
 40
4.99
  1
17
  7
STANDARD
100
AcDbText
  0
TEXT
  5
49E
100
AcDbEntity
  8
_0-0_0
  6
CONTINUOUS
 62
     0
100
AcDbText
 10
129.1666666667
 20
64.91666666667
 40
4.99
  1
18
  7
STANDARD
100
AcDbText
  0
TEXT
  5
49F
100
AcDbEntity
  8
_0-0_0
  6
CONTINUOUS
 62
     0
100
AcDbText
 10
129.1666666667
 20
91.91666666667
 40
4.99
  1
15
  7
STANDARD
100
AcDbText
  0
TEXT
  5
4A0
100
AcDbEntity
  8
_0-0_0
  6
CONTINUOUS
 62
     0
100
AcDbText
 10
129.1666666667
 20
100.9166666667
 40
4.99
  1
14
  7
STANDARD
100
AcDbText
  0
TEXT
  5
4A1
100
AcDbEntity
  8
_0-0_0
  6
CONTINUOUS
 62
     0
100
AcDbText
 10
129.1666666667
 20
199.9166666667
 40
5
  1
 3
  7
STANDARD
100
AcDbText
  0
TEXT
  5
4A2
100
AcDbEntity
  8
_0-0_0
  6
CONTINUOUS
 62
     0
100
AcDbText
 10
129.1666666667
 20
154.9166666667
 40
5
  1
 8
  7
STANDARD
100
AcDbText
  0
TEXT
  5
4A3
100
AcDbEntity
  8
_0-0_0
  6
CONTINUOUS
 62
     0
100
AcDbText
 10
129.1666666667
 20
127.9166666667
 40
5
  1
11
  7
STANDARD
100
AcDbText
  0
TEXT
  5
4A4
100
AcDbEntity
  8
_0-0_0
  6
CONTINUOUS
 62
     0
100
AcDbText
 10
129.1666666667
 20
118.9166666667
 40
5
  1
12
  7
STANDARD
100
AcDbText
  0
TEXT
  5
4A5
100
AcDbEntity
  8
_0-0_0
  6
CONTINUOUS
 62
     0
100
AcDbText
 10
129.1666666667
 20
109.9166666667
 40
5
  1
13
  7
STANDARD
100
AcDbText
  0
TEXT
  5
4A6
100
AcDbEntity
  8
_0-0_0
  6
CONTINUOUS
 62
     0
100
AcDbText
 10
129.1666666667
 20
136.9166666667
 40
5
  1
10
  7
STANDARD
100
AcDbText
  0
TEXT
  5
4A7
100
AcDbEntity
  8
_0-0_0
  6
CONTINUOUS
 62
     0
100
AcDbText
 10
129.1666666667
 20
145.9166666667
 40
5
  1
 9
  7
STANDARD
100
AcDbText
  0
TEXT
  5
4A8
100
AcDbEntity
  8
_0-0_0
  6
CONTINUOUS
 62
     0
100
AcDbText
 10
129.1666666667
 20
163.9166666667
 40
5
  1
 7
  7
STANDARD
100
AcDbText
  0
TEXT
  5
4A9
100
AcDbEntity
  8
_0-0_0
  6
CONTINUOUS
 62
     0
100
AcDbText
 10
129.1666666667
 20
172.9166666667
 40
4.99
  1
 6
  7
STANDARD
100
AcDbText
  0
TEXT
  5
4AA
100
AcDbEntity
  8
_0-0_0
  6
CONTINUOUS
 62
     0
100
AcDbText
 10
129.1666666667
 20
181.9166666667
 40
4.99
  1
 5
  7
STANDARD
100
AcDbText
  0
TEXT
  5
4AB
100
AcDbEntity
  8
_0-0_0
  6
CONTINUOUS
 62
     0
100
AcDbText
 10
129.1666666667
 20
190.9166666667
 40
4.99
  1
 4
  7
STANDARD
100
AcDbText
  0
TEXT
  5
4AC
100
AcDbEntity
  8
_0-0_0
  6
CONTINUOUS
 62
     0
100
AcDbText
 10
129.1666666667
 20
208.9166666667
 40
5
  1
 2
  7
STANDARD
100
AcDbText
  0
TEXT
  5
4AD
100
AcDbEntity
  8
_0-0_0
  6
CONTINUOUS
 62
     0
100
AcDbText
 10
129.1666666667
 20
217.9166666667
 40
4.99
  1
 1
  7
STANDARD
100
AcDbText
  0
TEXT
  5
4AE
100
AcDbEntity
  8
_0-0_0
  6
CONTINUOUS
 62
     0
100
AcDbText
 10
127.625
 20
226.9166666667
 40
5
  1
No.
 41
0.998
  7
STANDARD
100
AcDbText
  0
TEXT
  5
4AF
100
AcDbEntity
  8
_0-0_0
  6
CONTINUOUS
 62
     0
100
AcDbText
 10
277.75
 20
226.9166666667
 40
5
  1
規　格
 41
0.998
  7
STANDARD
100
AcDbText
  0
TEXT
  5
4B0
100
AcDbEntity
  8
_0-0_0
  6
CONTINUOUS
 62
     0
100
AcDbText
 10
177.1666666667
 20
226.9166666667
 40
5
  1
部材名称
 41
0.998
  7
STANDARD
100
AcDbText
  0
TEXT
  5
4B1
100
AcDbEntity
  8
_0-0_0
  6
CONTINUOUS
 62
     0
100
AcDbText
 10
148.5833333333
 20
145.9166666667
 40
5
  1
ＦＹＫｻｲﾄﾞｷｬｯﾌﾟ ｼﾞｮｲﾝﾄ
  7
STANDARD
100
AcDbText
  0
TEXT
  5
4B2
100
AcDbEntity
  8
_0-0_0
  6
CONTINUOUS
 62
     0
100
AcDbText
 10
148.1666666667
 20
154.9166666667
 40
5
  1
ＦＹＫ水切ジョイント
  7
STANDARD
100
AcDbText
  0
TEXT
  5
4B3
100
AcDbEntity
  8
_0-0_0
  6
CONTINUOUS
 62
     0
100
AcDbText
 10
148.1666666667
 20
163.9166666667
 40
5
  1
ＦＹＹフレームナット
  7
STANDARD
100
AcDbText
  0
TEXT
  5
4B4
100
AcDbEntity
  8
_0-0_0
  6
CONTINUOUS
 62
     0
100
AcDbText
 10
149
 20
172.9166666667
 40
4.99
  1
ＦＹＹホルダースプリング
  7
STANDARD
100
AcDbText
  0
TEXT
  5
4B5
100
AcDbEntity
  8
_0-0_0
  6
CONTINUOUS
 62
     0
100
AcDbText
 10
146.9166666667
 20
181.9166666667
 40
4.99
  1
ＦＹＫホルダー
  7
STANDARD
100
AcDbText
  0
TEXT
  5
4B6
100
AcDbEntity
  8
_0-0_0
  6
CONTINUOUS
 62
     0
100
AcDbText
 10
146.0833333333
 20
136.9166666667
 40
5
  1
止水補助板
  7
STANDARD
100
AcDbText
  0
TEXT
  5
4B7
100
AcDbEntity
  8
_0-0_0
  6
CONTINUOUS
 62
     0
100
AcDbText
 10
146.5
 20
37.91666666667
 40
4.99
  1
ブチルテープ
  7
STANDARD
100
AcDbText
  0
TEXT
  5
4B8
100
AcDbEntity
  8
_0-0_0
  6
CONTINUOUS
 62
     0
100
AcDbText
 10
147.3333333333
 20
46.91666666667
 40
4.99
  1
ステンワッシャー
  7
STANDARD
100
AcDbText
  0
TEXT
  5
4B9
100
AcDbEntity
  8
_0-0_0
  6
CONTINUOUS
 62
     0
100
AcDbText
 10
147.3333333333
 20
55.91666666667
 40
4.99
  1
ステスワッシャー
  7
STANDARD
100
AcDbText
  0
TEXT
  5
4BA
100
AcDbEntity
  8
_0-0_0
  6
CONTINUOUS
 62
     0
100
AcDbText
 10
147.75
 20
64.91666666667
 40
4.99
  1
ステンタッピンねじ
  7
STANDARD
100
AcDbText
  0
TEXT
  5
4BB
100
AcDbEntity
  8
_0-0_0
  6
CONTINUOUS
 62
     0
100
AcDbText
 10
146.9166666667
 20
73.91666666667
 40
4.99
  1
アンカープラグ
  7
STANDARD
100
AcDbText
  0
TEXT
  5
4BC
100
AcDbEntity
  8
_0-0_0
  6
CONTINUOUS
 62
     0
100
AcDbText
 10
147.75
 20
82.91666666667
 40
4.99
  1
アジャストアンカー
  7
STANDARD
100
AcDbText
  0
TEXT
  5
4BD
100
AcDbEntity
  8
_0-0_0
  6
CONTINUOUS
 62
     0
100
AcDbText
 10
147.3333333333
 20
91.91666666667
 40
4.99
  1
ステン六角ボルト
  7
STANDARD
100
AcDbText
  0
TEXT
  5
4BE
100
AcDbEntity
  8
_0-0_0
  6
CONTINUOUS
 62
     0
100
AcDbText
 10
146.5
 20
118.9166666667
 40
5
  1
ガスケットＮ
  7
STANDARD
100
AcDbText
  0
TEXT
  5
4BF
100
AcDbEntity
  8
_0-0_0
  6
CONTINUOUS
 62
     0
100
AcDbText
 10
147.3333333333
 20
127.9166666667
 40
5
  1
ウォーターガード
  7
STANDARD
100
AcDbText
  0
TEXT
  5
4C0
100
AcDbEntity
  8
_0-0_0
  6
CONTINUOUS
 62
     0
100
AcDbText
 10
129.4166666667
 20
37.91666666667
 40
4.99
  1
※
  7
STANDARD
100
AcDbText
  0
LINE
  5
4C1
100
AcDbEntity
  8
_0-0_0
  6
CONTINUOUS
 62
     0
100
AcDbLine
 10
125
 20
36
 11
125
 21
234
  0
LINE
  5
4C2
100
AcDbEntity
  8
_0-0_0
  6
CONTINUOUS
 62
     0
100
AcDbLine
 10
139
 20
36
 11
139
 21
234
  0
LINE
  5
4C3
100
AcDbEntity
  8
_0-0_0
  6
CONTINUOUS
 62
     0
100
AcDbLine
 10
335
 20
36
 11
335
 21
234
  0
LINE
  5
4C4
100
AcDbEntity
  8
_0-0_0
  6
CONTINUOUS
 62
     0
100
AcDbLine
 10
334
 20
36
 11
334
 21
234
  0
LINE
  5
4C5
100
AcDbEntity
  8
_0-0_0
  6
CONTINUOUS
 62
     0
100
AcDbLine
 10
239
 20
36
 11
239
 21
234
  0
TEXT
  5
4C6
100
AcDbEntity
  8
_0-0_0
  6
CONTINUOUS
 62
     0
100
AcDbText
 10
344.3333333333
 20
235.0600336776
 40
5
  1
（2000mmセット）
  7
STANDARD
100
AcDbText
  0
TEXT
  5
4C7
100
AcDbEntity
  8
_0-0_0
  6
CONTINUOUS
 62
     0
100
AcDbText
 10
346.5833333333
 20
190.9166666667
 40
4.99
  1
2000
  7
STANDARD
100
AcDbText
  0
TEXT
  5
4C8
100
AcDbEntity
  8
_0-0_0
  6
CONTINUOUS
 62
     0
100
AcDbText
 10
346.5833333333
 20
199.9166666667
 40
5
  1
2000
 41
0.998
  7
STANDARD
100
AcDbText
  0
TEXT
  5
4C9
100
AcDbEntity
  8
_0-0_0
  6
CONTINUOUS
 62
     0
100
AcDbText
 10
346.5833333333
 20
208.9166666667
 40
5
  1
2000
 41
0.998
  7
STANDARD
100
AcDbText
  0
TEXT
  5
4CA
100
AcDbEntity
  8
_0-0_0
  6
CONTINUOUS
 62
     0
100
AcDbText
 10
346.5833333333
 20
217.9166666667
 40
4.99
  1
2000
  7
STANDARD
100
AcDbText
  0
TEXT
  5
4CB
100
AcDbEntity
  8
_0-0_0
  6
CONTINUOUS
 62
     0
100
AcDbText
 10
340.4166666667
 20
226.9166666667
 40
5
  1
定尺(mm)
 41
0.998
  7
STANDARD
100
AcDbText
  0
LINE
  5
4CC
100
AcDbEntity
  8
_0-0_0
  6
CONTINUOUS
 62
     0
100
AcDbLine
 10
335
 20
189
 11
402
 21
189
  0
LINE
  5
4CD
100
AcDbEntity
  8
_0-0_0
  6
CONTINUOUS
 62
     0
100
AcDbLine
 10
335
 20
198
 11
402
 21
198
  0
LINE
  5
4CE
100
AcDbEntity
  8
_0-0_0
  6
CONTINUOUS
 62
     0
100
AcDbLine
 10
335
 20
207
 11
402
 21
207
  0
LINE
  5
4CF
100
AcDbEntity
  8
_0-0_0
  6
CONTINUOUS
 62
     0
100
AcDbLine
 10
335
 20
216
 11
402
 21
216
  0
LINE
  5
4D0
100
AcDbEntity
  8
_0-0_0
  6
CONTINUOUS
 62
     0
100
AcDbLine
 10
335
 20
225
 11
402
 21
225
  0
LINE
  5
4D1
100
AcDbEntity
  8
_0-0_0
  6
CONTINUOUS
 62
     0
100
AcDbLine
 10
335
 20
234
 11
402
 21
234
  0
TEXT
  5
4D2
100
AcDbEntity
  8
_0-0_0
  6
CONTINUOUS
 62
     0
100
AcDbText
 10
392.4166666667
 20
199.9166666667
 40
5
  1
〃
 41
0.998
  7
STANDARD
100
AcDbText
  0
TEXT
  5
4D3
100
AcDbEntity
  8
_0-0_0
  6
CONTINUOUS
 62
     0
100
AcDbText
 10
376.1666666667
 20
199.9166666667
 40
5
  1
 1
 41
0.998
  7
STANDARD
100
AcDbText
  0
TEXT
  5
4D4
100
AcDbEntity
  8
_0-0_0
  6
CONTINUOUS
 62
     0
100
AcDbText
 10
376.1666666667
 20
190.9166666667
 40
4.99
  1
 1
  7
STANDARD
100
AcDbText
  0
TEXT
  5
4D5
100
AcDbEntity
  8
_0-0_0
  6
CONTINUOUS
 62
     0
100
AcDbText
 10
392.4166666667
 20
190.9166666667
 40
4.99
  1
〃
  7
STANDARD
100
AcDbText
  0
TEXT
  5
4D6
100
AcDbEntity
  8
_0-0_0
  6
CONTINUOUS
 62
     0
100
AcDbText
 10
376.1666666667
 20
208.9166666667
 40
5
  1
 1
 41
0.998
  7
STANDARD
100
AcDbText
  0
TEXT
  5
4D7
100
AcDbEntity
  8
_0-0_0
  6
CONTINUOUS
 62
     0
100
AcDbText
 10
376.1666666667
 20
217.9166666667
 40
4.99
  1
 1
  7
STANDARD
100
AcDbText
  0
TEXT
  5
4D8
100
AcDbEntity
  8
_0-0_0
  6
CONTINUOUS
 62
     0
100
AcDbText
 10
373.3333333333
 20
226.9166666667
 40
5
  1
入数
 41
0.998
  7
STANDARD
100
AcDbText
  0
TEXT
  5
4D9
100
AcDbEntity
  8
_0-0_0
  6
CONTINUOUS
 62
     0
100
AcDbText
 10
392.4166666667
 20
208.9166666667
 40
5
  1
〃
 41
0.998
  7
STANDARD
100
AcDbText
  0
TEXT
  5
4DA
100
AcDbEntity
  8
_0-0_0
  6
CONTINUOUS
 62
     0
100
AcDbText
 10
392.4166666667
 20
217.9166666667
 40
4.99
  1
本
  7
STANDARD
100
AcDbText
  0
TEXT
  5
4DB
100
AcDbEntity
  8
_0-0_0
  6
CONTINUOUS
 62
     0
100
AcDbText
 10
389.3333333333
 20
226.9166666667
 40
5
  1
単位
  7
STANDARD
100
AcDbText
  0
LINE
  5
4DC
100
AcDbEntity
  8
_0-0_0
  6
CONTINUOUS
 62
     0
100
AcDbLine
 10
335
 20
144
 11
402
 21
144
  0
LINE
  5
4DD
100
AcDbEntity
  8
_0-0_0
  6
CONTINUOUS
 62
     0
100
AcDbLine
 10
335
 20
153
 11
402
 21
153
  0
LINE
  5
4DE
100
AcDbEntity
  8
_0-0_0
  6
CONTINUOUS
 62
     0
100
AcDbLine
 10
335
 20
162
 11
402
 21
162
  0
LINE
  5
4DF
100
AcDbEntity
  8
_0-0_0
  6
CONTINUOUS
 62
     0
100
AcDbLine
 10
335
 20
171
 11
402
 21
171
  0
LINE
  5
4E0
100
AcDbEntity
  8
_0-0_0
  6
CONTINUOUS
 62
     0
100
AcDbLine
 10
335
 20
180
 11
402
 21
180
  0
LINE
  5
4E1
100
AcDbEntity
  8
_0-0_0
  6
CONTINUOUS
 62
     0
100
AcDbLine
 10
335
 20
189
 11
402
 21
189
  0
TEXT
  5
4E2
100
AcDbEntity
  8
_0-0_0
  6
CONTINUOUS
 62
     0
100
AcDbText
 10
376.1666666667
 20
163.9166666667
 40
5
  1
 4
  7
STANDARD
100
AcDbText
  0
TEXT
  5
4E3
100
AcDbEntity
  8
_0-0_0
  6
CONTINUOUS
 62
     0
100
AcDbText
 10
376.1666666667
 20
145.9166666667
 40
5
  1
 1
  7
STANDARD
100
AcDbText
  0
TEXT
  5
4E4
100
AcDbEntity
  8
_0-0_0
  6
CONTINUOUS
 62
     0
100
AcDbText
 10
376.1666666667
 20
154.9166666667
 40
5
  1
 1
  7
STANDARD
100
AcDbText
  0
TEXT
  5
4E5
100
AcDbEntity
  8
_0-0_0
  6
CONTINUOUS
 62
     0
100
AcDbText
 10
392.4166666667
 20
145.9166666667
 40
5
  1
〃
 41
0.998
  7
STANDARD
100
AcDbText
  0
TEXT
  5
4E6
100
AcDbEntity
  8
_0-0_0
  6
CONTINUOUS
 62
     0
100
AcDbText
 10
392.4166666667
 20
154.9166666667
 40
5
  1
〃
 41
0.998
  7
STANDARD
100
AcDbText
  0
TEXT
  5
4E7
100
AcDbEntity
  8
_0-0_0
  6
CONTINUOUS
 62
     0
100
AcDbText
 10
376.1666666667
 20
172.9166666667
 40
4.99
  1
 4
  7
STANDARD
100
AcDbText
  0
TEXT
  5
4E8
100
AcDbEntity
  8
_0-0_0
  6
CONTINUOUS
 62
     0
100
AcDbText
 10
376.1666666667
 20
181.9166666667
 40
4.99
  1
 4
  7
STANDARD
100
AcDbText
  0
TEXT
  5
4E9
100
AcDbEntity
  8
_0-0_0
  6
CONTINUOUS
 62
     0
100
AcDbText
 10
392.4166666667
 20
172.9166666667
 40
4.99
  1
〃
  7
STANDARD
100
AcDbText
  0
TEXT
  5
4EA
100
AcDbEntity
  8
_0-0_0
  6
CONTINUOUS
 62
     0
100
AcDbText
 10
392.4166666667
 20
163.9166666667
 40
5
  1
〃
 41
0.998
  7
STANDARD
100
AcDbText
  0
TEXT
  5
4EB
100
AcDbEntity
  8
_0-0_0
  6
CONTINUOUS
 62
     0
100
AcDbText
 10
392.4166666667
 20
181.9166666667
 40
4.99
  1
〃
  7
STANDARD
100
AcDbText
  0
TEXT
  5
4EC
100
AcDbEntity
  8
_0-0_0
  6
CONTINUOUS
 62
     0
100
AcDbText
 10
346.5833333333
 20
136.9166666667
 40
5
  1
2100
  7
STANDARD
100
AcDbText
  0
TEXT
  5
4ED
100
AcDbEntity
  8
_0-0_0
  6
CONTINUOUS
 62
     0
100
AcDbText
 10
376.1666666667
 20
136.9166666667
 40
5
  1
 1
  7
STANDARD
100
AcDbText
  0
TEXT
  5
4EE
100
AcDbEntity
  8
_0-0_0
  6
CONTINUOUS
 62
     0
100
AcDbText
 10
392.4166666667
 20
136.9166666667
 40
5
  1
〃
 41
0.998
  7
STANDARD
100
AcDbText
  0
LINE
  5
4EF
100
AcDbEntity
  8
_0-0_0
  6
CONTINUOUS
 62
     0
100
AcDbLine
 10
335
 20
126
 11
402
 21
126
  0
LINE
  5
4F0
100
AcDbEntity
  8
_0-0_0
  6
CONTINUOUS
 62
     0
100
AcDbLine
 10
335
 20
135
 11
402
 21
135
  0
TEXT
  5
4F1
100
AcDbEntity
  8
_0-0_0
  6
CONTINUOUS
 62
     0
100
AcDbText
 10
346.5833333333
 20
37.91666666667
 40
4.99
  1
6000
  7
STANDARD
100
AcDbText
  0
TEXT
  5
4F2
100
AcDbEntity
  8
_0-0_0
  6
CONTINUOUS
 62
     0
100
AcDbText
 10
346.5833333333
 20
118.9166666667
 40
5
  1
2000
  7
STANDARD
100
AcDbText
  0
LINE
  5
4F3
100
AcDbEntity
  8
_0-0_0
  6
CONTINUOUS
 62
     0
100
AcDbLine
 10
335
 20
36
 11
402
 21
36
  0
LINE
  5
4F4
100
AcDbEntity
  8
_0-0_0
  6
CONTINUOUS
 62
     0
100
AcDbLine
 10
335
 20
45
 11
402
 21
45
  0
LINE
  5
4F5
100
AcDbEntity
  8
_0-0_0
  6
CONTINUOUS
 62
     0
100
AcDbLine
 10
335
 20
54
 11
402
 21
54
  0
LINE
  5
4F6
100
AcDbEntity
  8
_0-0_0
  6
CONTINUOUS
 62
     0
100
AcDbLine
 10
335
 20
63
 11
402
 21
63
  0
LINE
  5
4F7
100
AcDbEntity
  8
_0-0_0
  6
CONTINUOUS
 62
     0
100
AcDbLine
 10
335
 20
72
 11
402
 21
72
  0
LINE
  5
4F8
100
AcDbEntity
  8
_0-0_0
  6
CONTINUOUS
 62
     0
100
AcDbLine
 10
335
 20
81
 11
402
 21
81
  0
LINE
  5
4F9
100
AcDbEntity
  8
_0-0_0
  6
CONTINUOUS
 62
     0
100
AcDbLine
 10
335
 20
90
 11
402
 21
90
  0
LINE
  5
4FA
100
AcDbEntity
  8
_0-0_0
  6
CONTINUOUS
 62
     0
100
AcDbLine
 10
335
 20
99
 11
402
 21
99
  0
LINE
  5
4FB
100
AcDbEntity
  8
_0-0_0
  6
CONTINUOUS
 62
     0
100
AcDbLine
 10
335
 20
108
 11
402
 21
108
  0
LINE
  5
4FC
100
AcDbEntity
  8
_0-0_0
  6
CONTINUOUS
 62
     0
100
AcDbLine
 10
335
 20
117
 11
402
 21
117
  0
TEXT
  5
4FD
100
AcDbEntity
  8
_0-0_0
  6
CONTINUOUS
 62
     0
100
AcDbText
 10
376.1666666667
 20
46.91666666667
 40
4.99
  1
 5
  7
STANDARD
100
AcDbText
  0
TEXT
  5
4FE
100
AcDbEntity
  8
_0-0_0
  6
CONTINUOUS
 62
     0
100
AcDbText
 10
376.1666666667
 20
37.91666666667
 40
4.99
  1
 1
  7
STANDARD
100
AcDbText
  0
TEXT
  5
4FF
100
AcDbEntity
  8
_0-0_0
  6
CONTINUOUS
 62
     0
100
AcDbText
 10
376.1666666667
 20
55.91666666667
 40
4.99
  1
 5
  7
STANDARD
100
AcDbText
  0
TEXT
  5
500
100
AcDbEntity
  8
_0-0_0
  6
CONTINUOUS
 62
     0
100
AcDbText
 10
376.1666666667
 20
64.91666666667
 40
4.99
  1
 5
  7
STANDARD
100
AcDbText
  0
TEXT
  5
501
100
AcDbEntity
  8
_0-0_0
  6
CONTINUOUS
 62
     0
100
AcDbText
 10
392.4166666667
 20
37.91666666667
 40
4.99
  1
巻
  7
STANDARD
100
AcDbText
  0
TEXT
  5
502
100
AcDbEntity
  8
_0-0_0
  6
CONTINUOUS
 62
     0
100
AcDbText
 10
392.4166666667
 20
55.91666666667
 40
4.99
  1
枚
  7
STANDARD
100
AcDbText
  0
TEXT
  5
503
100
AcDbEntity
  8
_0-0_0
  6
CONTINUOUS
 62
     0
100
AcDbText
 10
392.4166666667
 20
46.91666666667
 40
4.99
  1
〃
  7
STANDARD
100
AcDbText
  0
TEXT
  5
504
100
AcDbEntity
  8
_0-0_0
  6
CONTINUOUS
 62
     0
100
AcDbText
 10
392.4166666667
 20
64.91666666667
 40
4.99
  1
〃
  7
STANDARD
100
AcDbText
  0
TEXT
  5
505
100
AcDbEntity
  8
_0-0_0
  6
CONTINUOUS
 62
     0
100
AcDbText
 10
376.1666666667
 20
91.91666666667
 40
4.99
  1
 5
  7
STANDARD
100
AcDbText
  0
TEXT
  5
506
100
AcDbEntity
  8
_0-0_0
  6
CONTINUOUS
 62
     0
100
AcDbText
 10
376.1666666667
 20
82.91666666667
 40
4.99
  1
 5
  7
STANDARD
100
AcDbText
  0
TEXT
  5
507
100
AcDbEntity
  8
_0-0_0
  6
CONTINUOUS
 62
     0
100
AcDbText
 10
376.1666666667
 20
73.91666666667
 40
4.99
  1
 5
  7
STANDARD
100
AcDbText
  0
TEXT
  5
508
100
AcDbEntity
  8
_0-0_0
  6
CONTINUOUS
 62
     0
100
AcDbText
 10
376.1666666667
 20
100.9166666667
 40
4.99
  1
 5
  7
STANDARD
100
AcDbText
  0
TEXT
  5
509
100
AcDbEntity
  8
_0-0_0
  6
CONTINUOUS
 62
     0
100
AcDbText
 10
376.1666666667
 20
109.9166666667
 40
5
  1
 4
  7
STANDARD
100
AcDbText
  0
TEXT
  5
50A
100
AcDbEntity
  8
_0-0_0
  6
CONTINUOUS
 62
     0
100
AcDbText
 10
392.4166666667
 20
91.91666666667
 40
4.99
  1
〃
  7
STANDARD
100
AcDbText
  0
TEXT
  5
50B
100
AcDbEntity
  8
_0-0_0
  6
CONTINUOUS
 62
     0
100
AcDbText
 10
392.4166666667
 20
73.91666666667
 40
4.99
  1
〃
  7
STANDARD
100
AcDbText
  0
TEXT
  5
50C
100
AcDbEntity
  8
_0-0_0
  6
CONTINUOUS
 62
     0
100
AcDbText
 10
392.4166666667
 20
82.91666666667
 40
4.99
  1
〃
  7
STANDARD
100
AcDbText
  0
TEXT
  5
50D
100
AcDbEntity
  8
_0-0_0
  6
CONTINUOUS
 62
     0
100
AcDbText
 10
392.4166666667
 20
100.9166666667
 40
4.99
  1
〃
  7
STANDARD
100
AcDbText
  0
TEXT
  5
50E
100
AcDbEntity
  8
_0-0_0
  6
CONTINUOUS
 62
     0
100
AcDbText
 10
392.4166666667
 20
109.9166666667
 40
5
  1
〃
 41
0.998
  7
STANDARD
100
AcDbText
  0
TEXT
  5
50F
100
AcDbEntity
  8
_0-0_0
  6
CONTINUOUS
 62
     0
100
AcDbText
 10
376.1666666667
 20
127.9166666667
 40
5
  1
 1
  7
STANDARD
100
AcDbText
  0
TEXT
  5
510
100
AcDbEntity
  8
_0-0_0
  6
CONTINUOUS
 62
     0
100
AcDbText
 10
376.1666666667
 20
118.9166666667
 40
5
  1
 1
  7
STANDARD
100
AcDbText
  0
TEXT
  5
511
100
AcDbEntity
  8
_0-0_0
  6
CONTINUOUS
 62
     0
100
AcDbText
 10
392.4166666667
 20
127.9166666667
 40
5
  1
〃
 41
0.998
  7
STANDARD
100
AcDbText
  0
TEXT
  5
512
100
AcDbEntity
  8
_0-0_0
  6
CONTINUOUS
 62
     0
100
AcDbText
 10
392.4166666667
 20
118.9166666667
 40
5
  1
本
 41
0.998
  7
STANDARD
100
AcDbText
  0
LINE
  5
513
100
AcDbEntity
  8
_0-0_0
  6
CONTINUOUS
 62
     0
100
AcDbLine
 10
402
 20
36
 11
402
 21
234
  0
LINE
  5
514
100
AcDbEntity
  8
_0-0_0
  6
CONTINUOUS
 62
     0
100
AcDbLine
 10
335
 20
36
 11
335
 21
234
  0
LINE
  5
515
100
AcDbEntity
  8
_0-0_0
  6
CONTINUOUS
 62
     0
100
AcDbLine
 10
388
 20
36
 11
388
 21
234
  0
LINE
  5
516
100
AcDbEntity
  8
_0-0_0
  6
CONTINUOUS
 62
     0
100
AcDbLine
 10
370
 20
36
 11
370
 21
234
  0
LINE
  5
517
100
AcDbEntity
  8
_0-0_0
  6
CONTINUOUS
 62
     0
100
AcDbLine
 10
402
 20
36
 11
402
 21
234
  0
TEXT
  5
518
100
AcDbEntity
  8
_0-0_0
  6
CONTINUOUS
 62
     0
100
AcDbText
 10
147.3333333333
 20
217.9166666667
 40
4.99
  1
ＦＹＫキャップＳ
  7
STANDARD
100
AcDbText
  0
TEXT
  5
519
100
AcDbEntity
  8
_0-0_0
  6
CONTINUOUS
 62
     0
100
AcDbText
 10
148.5833333333
 20
208.9166666667
 40
5
  1
ＦＹＫサイドキャップＳ
  7
STANDARD
100
AcDbText
  0
TEXT
  5
51A
100
AcDbEntity
  8
_0-0_0
  6
CONTINUOUS
 62
     0
100
AcDbText
 10
346.5833333333
 20
127.9166666667
 40
5
  1
2000
  7
STANDARD
100
AcDbText
  0
TEXT
  5
51B
100
AcDbEntity
  8
_0-4_図枠
  6
CONTINUOUS
 62
     0
100
AcDbText
 10
15.76331367344
 20
563.155682957
 40
9
  1
ステンレス１５０タイプ（１５０ＦＹＫＧ－Ｓ）
  7
STANDARD
100
AcDbText
  0
LINE
  5
51C
100
AcDbEntity
  8
_0-4_図枠
  6
CONTINUOUS
 62
     0
100
AcDbLine
 10
603.7535827102
 20
413.5281466518
 11
627.3900638536
 21
454.4677329043
  0
CIRCLE
  5
51D
100
AcDbEntity
  8
_0-4_図枠
  6
CONTINUOUS
 62
     0
100
AcDbCircle
 10
603.2093559719
 20
430.9631362052
 40
0.9
  0
LINE
  5
51E
100
AcDbEntity
  8
_0-4_図枠
  6
CONTINUOUS
 62
     0
100
AcDbLine
 10
603.2093559719
 20
430.9631362052
 11
628.3458371153
 21
474.500798669
  0
CIRCLE
  5
51F
100
AcDbEntity
  8
_0-4_図枠
  6
CONTINUOUS
 62
     0
100
AcDbCircle
 10
603.7535827102
 20
413.5281466518
 40
0.9
  0
ARC
  5
520
100
AcDbEntity
  8
_0-3_躯体と製品
  6
CONTINUOUS
 62
     0
100
AcDbCircle
 10
394
 20
383
 40
2
100
AcDbArc
 50
90
 51
175
  0
ARC
  5
521
100
AcDbEntity
  8
_0-3_躯体と製品
  6
CONTINUOUS
 62
     0
100
AcDbCircle
 10
319
 20
357.4913795994
 40
71.4913795994
100
AcDbArc
 50
-175
 51
-4.999999999999
  0
LINE
  5
522
100
AcDbEntity
  8
_0-3_躯体と製品
  6
CONTINUOUS
 62
     0
100
AcDbLine
 10
393.0038053019
 20
383.0871557427
 11
390.2193333162
 21
351.2604953104
  0
ARC
  5
523
100
AcDbEntity
  8
_0-3_躯体と製品
  6
CONTINUOUS
 62
     0
100
AcDbCircle
 10
319
 20
357.4913795994
 40
70.4913795994
100
AcDbArc
 50
-175
 51
-4.999999999999
  0
LINE
  5
524
100
AcDbEntity
  8
_0-3_躯体と製品
  6
CONTINUOUS
 62
     0
100
AcDbLine
 10
392.0076106038
 20
383.1743114855
 11
389.2231386181
 21
351.3476510531
  0
LINE
  5
525
100
AcDbEntity
  8
_0-3_躯体と製品
  6
CONTINUOUS
 62
     0
100
AcDbLine
 10
590.5553453926
 20
426.1167374041
 11
596.820187503
 21
425.7884109415
  0
LINE
  5
526
100
AcDbEntity
  8
_0-3_躯体と製品
  6
CONTINUOUS
 62
     0
100
AcDbLine
 10
590.7908571957
 20
430.6105703105
 11
597.0556993061
 21
430.2822438479
  0
LINE
  5
527
100
AcDbEntity
  8
_0-3_躯体と製品
  6
CONTINUOUS
 62
     0
100
AcDbLine
 10
608.1682352304
 20
356.0825286933
 11
608.1682352304
 21
355.5825286933
  0
LINE
  5
528
100
AcDbEntity
  8
_0-3_躯体と製品
  6
CONTINUOUS
 62
     0
100
AcDbLine
 10
590.7235144012
 20
429.3255932444
 11
589.3637455848
 21
430.6853620608
  0
LINE
  5
529
100
AcDbEntity
  8
_0-3_躯体と製品
  6
CONTINUOUS
 62
     0
100
AcDbLine
 10
589.6930185046
 20
428.9418755787
 11
587.8713171631
 21
430.7635769201
  0
LINE
  5
52A
100
AcDbEntity
  8
_0-3_躯体と製品
  6
CONTINUOUS
 62
     0
100
AcDbLine
 10
588.2005900829
 20
429.020090438
 11
586.3788887415
 21
430.8417917794
  0
LINE
  5
52B
100
AcDbEntity
  8
_0-3_躯体と製品
  6
CONTINUOUS
 62
     0
100
AcDbLine
 10
586.7081616612
 20
429.0983052973
 11
584.8864603198
 21
430.9200066387
  0
LINE
  5
52C
100
AcDbEntity
  8
_0-3_躯体と製品
  6
CONTINUOUS
 62
     0
100
AcDbLine
 10
585.2157332395
 20
429.1765201566
 11
583.3940318981
 21
430.9982214981
  0
LINE
  5
52D
100
AcDbEntity
  8
_0-3_躯体と製品
  6
CONTINUOUS
 62
     0
100
AcDbLine
 10
583.7233048178
 20
429.254735016
 11
581.9016034764
 21
431.0764363574
  0
LINE
  5
52E
100
AcDbEntity
  8
_0-3_躯体と製品
  6
CONTINUOUS
 62
     0
100
AcDbLine
 10
582.2308763961
 20
429.3329498753
 11
580.4091750547
 21
431.1546512167
  0
LINE
  5
52F
100
AcDbEntity
  8
_0-3_躯体と製品
  6
CONTINUOUS
 62
     0
100
AcDbLine
 10
580.7384479744
 20
429.4111647346
 11
578.916746633
 21
431.232866076
  0
LINE
  5
530
100
AcDbEntity
  8
_0-3_躯体と製品
  6
CONTINUOUS
 62
     0
100
AcDbLine
 10
579.2460195527
 20
429.4893795939
 11
577.4243182113
 21
431.3110809353
  0
LINE
  5
531
100
AcDbEntity
  8
_0-3_躯体と製品
  6
CONTINUOUS
 62
     0
100
AcDbLine
 10
577.753591131
 20
429.5675944532
 11
575.9318897896
 21
431.3892957947
  0
LINE
  5
532
100
AcDbEntity
  8
_0-3_躯体と製品
  6
CONTINUOUS
 62
     0
100
AcDbLine
 10
590.7006371101
 20
428.8890685252
 11
590.7908571957
 21
430.6105703105
  0
LINE
  5
533
100
AcDbEntity
  8
_0-3_躯体と製品
  6
CONTINUOUS
 62
     0
100
AcDbLine
 10
575.7211940887
 20
429.6741078688
 11
575.8114141743
 21
431.3956096541
  0
CIRCLE
  5
534
100
AcDbEntity
  8
_0-3_躯体と製品
  6
CONTINUOUS
 62
     0
100
AcDbCircle
 10
620
 20
341.0825286933
 40
1.4
  0
CIRCLE
  5
535
100
AcDbEntity
  8
_0-3_躯体と製品
  6
CONTINUOUS
 62
     0
100
AcDbCircle
 10
620
 20
431.0825286933
 40
1.4
  0
LINE
  5
536
100
AcDbEntity
  8
_0-3_躯体と製品
  6
CONTINUOUS
 62
     0
100
AcDbLine
 10
620
 20
428.2356349932
 11
620
 21
344.0825286933
  0
ARC
  5
537
100
AcDbEntity
  8
_0-3_躯体と製品
  6
CONTINUOUS
 62
     0
100
AcDbCircle
 10
617
 20
344.0825286933
 40
3
100
AcDbArc
 50
-90
 51
0
  0
ARC
  5
538
100
AcDbEntity
  8
_0-3_躯体と製品
  6
CONTINUOUS
 62
     0
100
AcDbCircle
 10
617
 20
428.2356349932
 40
3
100
AcDbArc
 50
0
 51
86.99999999999
  0
LINE
  5
539
100
AcDbEntity
  8
_0-3_躯体と製品
  6
CONTINUOUS
 62
     0
100
AcDbLine
 10
617
 20
341.0825286933
 11
610
 21
341.0825286933
  0
LINE
  5
53A
100
AcDbEntity
  8
_0-3_躯体と製品
  6
CONTINUOUS
 62
     0
100
AcDbLine
 10
235.9476640438
 20
451.2098587493
 11
617.1570078687
 21
431.2315235975
  0
LINE
  5
53B
100
AcDbEntity
  8
_0-3_躯体と製品
  6
CONTINUOUS
 62
     0
100
AcDbLine
 10
575.6426901544
 20
428.1761635667
 11
266.0675343805
 21
444.400310002
  0
LINE
  5
53C
100
AcDbEntity
  8
_0-3_躯体と製品
  6
CONTINUOUS
 62
     0
100
AcDbLine
 10
590.3866213726
 20
422.8972913167
 11
250.852579556
 21
440.6915164393
  0
LINE
  5
53D
100
AcDbEntity
  8
_0-3_躯体と製品
  6
CONTINUOUS
 62
     0
100
AcDbLine
 10
590.465125307
 20
424.3952356188
 11
250.9310834904
 21
442.1894607414
  0
LINE
  5
53E
100
AcDbEntity
  8
_0-3_躯体と製品
  6
CONTINUOUS
 62
     0
100
AcDbLine
 10
589.2875662915
 20
401.9260710868
 11
249.7535244749
 21
419.7202962094
  0
LINE
  5
53F
100
AcDbEntity
  8
_0-3_躯体と製品
  6
CONTINUOUS
 62
     0
100
AcDbLine
 10
589.3660702259
 20
403.424015389
 11
249.8320284093
 21
421.2182405116
  0
LINE
  5
540
100
AcDbEntity
  8
_0-3_躯体と製品
  6
CONTINUOUS
 62
     0
100
AcDbLine
 10
589.5492460727
 20
406.9192187606
 11
250.0152042562
 21
424.7134438832
  0
LINE
  5
541
100
AcDbEntity
  8
_0-3_躯体と製品
  6
CONTINUOUS
 62
     0
100
AcDbLine
 10
589.643450794
 20
408.7167519232
 11
250.1094089774
 21
426.5109770458
  0
LINE
  5
542
100
AcDbEntity
  8
_0-3_躯体と製品
  6
CONTINUOUS
 62
     0
100
AcDbLine
 10
589.2352303353
 20
400.9274415521
 11
249.7011885187
 21
418.7216666747
  0
LINE
  5
543
100
AcDbEntity
  8
_0-3_躯体と製品
  6
CONTINUOUS
 62
     0
100
AcDbLine
 10
590.7006371101
 20
428.8890685252
 11
251.1665952935
 21
446.6832936478
  0
LINE
  5
544
100
AcDbEntity
  8
_0-3_躯体と製品
  6
CONTINUOUS
 62
     0
100
AcDbLine
 10
590.5584275738
 20
426.1755489248
 11
588.2153455339
 21
428.5186309646
  0
LINE
  5
545
100
AcDbEntity
  8
_0-3_躯体と製品
  6
CONTINUOUS
 62
     0
100
AcDbLine
 10
590.6288525494
 20
427.5193375115
 11
589.7077739556
 21
428.4404161053
  0
LINE
  5
546
100
AcDbEntity
  8
_0-3_躯体と製品
  6
CONTINUOUS
 62
     0
100
AcDbLine
 10
590.4880025981
 20
424.831760338
 11
586.7229171122
 21
428.5968458239
  0
LINE
  5
547
100
AcDbEntity
  8
_0-3_躯体と製品
  6
CONTINUOUS
 62
     0
100
AcDbLine
 10
589.4575067015
 20
424.4480426723
 11
585.2304886906
 21
428.6750606832
  0
LINE
  5
548
100
AcDbEntity
  8
_0-3_躯体と製品
  6
CONTINUOUS
 62
     0
100
AcDbLine
 10
587.9650782798
 20
424.5262575316
 11
583.7380602689
 21
428.7532755425
  0
LINE
  5
549
100
AcDbEntity
  8
_0-3_躯体と製品
  6
CONTINUOUS
 62
     0
100
AcDbLine
 10
586.4726498581
 20
424.6044723909
 11
582.2456318472
 21
428.8314904019
  0
LINE
  5
54A
100
AcDbEntity
  8
_0-3_躯体と製品
  6
CONTINUOUS
 62
     0
100
AcDbLine
 10
584.9802214364
 20
424.6826872502
 11
580.7532034255
 21
428.9097052612
  0
LINE
  5
54B
100
AcDbEntity
  8
_0-3_躯体と製品
  6
CONTINUOUS
 62
     0
100
AcDbLine
 10
583.4877930147
 20
424.7609021096
 11
579.2607750038
 21
428.9879201205
  0
LINE
  5
54C
100
AcDbEntity
  8
_0-3_躯体と製品
  6
CONTINUOUS
 62
     0
100
AcDbLine
 10
581.995364593
 20
424.8391169689
 11
577.7683465821
 21
429.0661349798
  0
LINE
  5
54D
100
AcDbEntity
  8
_0-3_躯体と製品
  6
CONTINUOUS
 62
     0
100
AcDbLine
 10
580.5029361713
 20
424.9173318282
 11
576.2759181604
 21
429.1443498391
  0
LINE
  5
54E
100
AcDbEntity
  8
_0-3_躯体と製品
  6
CONTINUOUS
 62
     0
100
AcDbLine
 10
579.0105077496
 20
424.9955466875
 11
575.6520123715
 21
428.3540420657
  0
LINE
  5
54F
100
AcDbEntity
  8
_0-3_躯体と製品
  6
CONTINUOUS
 62
     0
100
AcDbLine
 10
577.5180793279
 20
425.0737615468
 11
575.5815873958
 21
427.0102534789
  0
LINE
  5
550
100
AcDbEntity
  8
_0-3_躯体と製品
  6
CONTINUOUS
 62
     0
100
AcDbLine
 10
575.4856822856
 20
425.1802749624
 11
575.6950261106
 21
429.1747931015
  0
LINE
  5
551
100
AcDbEntity
  8
_0-3_躯体と製品
  6
CONTINUOUS
 62
     0
100
AcDbLine
 10
590.6744691319
 20
428.3897537578
 11
575.6950261106
 21
429.1747931015
  0
LINE
  5
552
100
AcDbEntity
  8
_0-3_躯体と製品
  6
CONTINUOUS
 62
     0
100
AcDbLine
 10
576.0256509062
 20
425.1519764062
 11
575.5111624202
 21
425.6664648922
  0
ARC
  5
553
100
AcDbEntity
  8
_0-3_躯体と製品
  6
CONTINUOUS
 62
     0
100
AcDbCircle
 10
599.5008542519
 20
399.6442643045
 40
0.6
100
AcDbArc
 50
167
 51
347
  0
ARC
  5
554
100
AcDbEntity
  8
_0-3_躯体と製品
  6
CONTINUOUS
 62
     0
100
AcDbCircle
 10
599.0122397236
 20
402.417794894
 40
0.5
100
AcDbArc
 50
-13
 51
86.99999999999
  0
ARC
  5
555
100
AcDbEntity
  8
_0-3_躯体と製品
  6
CONTINUOUS
 62
     0
100
AcDbCircle
 10
601.085993991
 20
402.5093885073
 40
0.3
100
AcDbArc
 50
86.99999999999
 51
167
  0
ARC
  5
556
100
AcDbEntity
  8
_0-3_躯体と製品
  6
CONTINUOUS
 62
     0
100
AcDbCircle
 10
603.7682352304
 20
354.4825286933
 40
0.6
100
AcDbArc
 50
90
 51
270
  0
LINE
  5
557
100
AcDbEntity
  8
_0-3_躯体と製品
  6
CONTINUOUS
 62
     0
100
AcDbLine
 10
614.9357095084
 20
346.7672159875
 11
614.9357095084
 21
343.0825286933
  0
LINE
  5
558
100
AcDbEntity
  8
_0-3_躯体と製品
  6
CONTINUOUS
 62
     0
100
AcDbLine
 10
617.9357095084
 20
345.5825286933
 11
617.9357095084
 21
347.0825286933
  0
LINE
  5
559
100
AcDbEntity
  8
_0-3_躯体と製品
  6
CONTINUOUS
 62
     0
100
AcDbLine
 10
615.4357095084
 20
343.0825286933
 11
614.9357095084
 21
343.0825286933
  0
ARC
  5
55A
100
AcDbEntity
  8
_0-3_躯体と製品
  6
CONTINUOUS
 62
     0
100
AcDbCircle
 10
615.4357095084
 20
345.5825286933
 40
2.5
100
AcDbArc
 50
-90
 51
0
  0
LINE
  5
55B
100
AcDbEntity
  8
_0-3_躯体と製品
  6
CONTINUOUS
 62
     0
100
AcDbLine
 10
608.1682352304
 20
355.0825286933
 11
608.1682352304
 21
356.0825286933
  0
LINE
  5
55C
100
AcDbEntity
  8
_0-3_躯体と製品
  6
CONTINUOUS
 62
     0
100
AcDbLine
 10
608.1682352304
 20
356.0825286933
 11
606.1682352304
 21
355.0825286933
  0
LINE
  5
55D
100
AcDbEntity
  8
_0-3_躯体と製品
  6
CONTINUOUS
 62
     0
100
AcDbLine
 10
603.7682352304
 20
355.0825286933
 11
606.1682352304
 21
355.0825286933
  0
ARC
  5
55E
100
AcDbEntity
  8
_0-3_躯体と製品
  6
CONTINUOUS
 62
     0
100
AcDbCircle
 10
612.5507866521
 20
355.5825286933
 40
0.5
100
AcDbArc
 50
-90
 51
12
  0
LINE
  5
55F
100
AcDbEntity
  8
_0-3_躯体と製品
  6
CONTINUOUS
 62
     0
100
AcDbLine
 10
613.0184110878
 20
353.8825286933
 11
603.7682352304
 21
353.8825286933
  0
LINE
  5
560
100
AcDbEntity
  8
_0-3_躯体と製品
  6
CONTINUOUS
 62
     0
100
AcDbLine
 10
613.5074848882
 20
353.4864845387
 11
614.9357095084
 21
346.7672159875
  0
ARC
  5
561
100
AcDbEntity
  8
_0-3_躯体と製品
  6
CONTINUOUS
 62
     0
100
AcDbCircle
 10
613.0184110878
 20
353.3825286933
 40
0.5
100
AcDbArc
 50
12
 51
90
  0
ARC
  5
562
100
AcDbEntity
  8
_0-3_躯体と製品
  6
CONTINUOUS
 62
     0
100
AcDbCircle
 10
589.7868810589
 20
401.8999031087
 40
0.5
100
AcDbArc
 50
177
 51
267
  0
LINE
  5
563
100
AcDbEntity
  8
_0-3_躯体と製品
  6
CONTINUOUS
 62
     0
100
AcDbLine
 10
590.2600278481
 20
401.3744203632
 11
589.7607130808
 21
401.4005883413
  0
ARC
  5
564
100
AcDbEntity
  8
_0-3_躯体と製品
  6
CONTINUOUS
 62
     0
100
AcDbCircle
 10
590.2861958263
 20
401.8737351306
 40
0.5
100
AcDbArc
 50
-93.00000000001
 51
-2.999999999999
  0
ARC
  5
565
100
AcDbEntity
  8
_0-3_躯体と製品
  6
CONTINUOUS
 62
     0
100
AcDbCircle
 10
602.2267052537
 20
401.748645721
 40
1
100
AcDbArc
 50
12
 51
86.99999999999
  0
ARC
  5
566
100
AcDbEntity
  8
_0-3_躯体と製品
  6
CONTINUOUS
 62
     0
100
AcDbCircle
 10
603.0453166029
 20
402.7071164641
 40
3
100
AcDbArc
 50
12
 51
86.99999999999
  0
ARC
  5
567
100
AcDbEntity
  8
_0-3_躯体と製品
  6
CONTINUOUS
 62
     0
100
AcDbCircle
 10
590.1532327526
 20
408.890309852
 40
0.5
100
AcDbArc
 50
86.99999999999
 51
177
  0
LINE
  5
568
100
AcDbEntity
  8
_0-3_躯体と製品
  6
CONTINUOUS
 62
     0
100
AcDbLine
 10
590.6787154981
 20
409.3634566412
 11
590.1794007307
 21
409.3896246194
  0
ARC
  5
569
100
AcDbEntity
  8
_0-3_躯体と製品
  6
CONTINUOUS
 62
     0
100
AcDbCircle
 10
590.65254752
 20
408.8641418739
 40
0.5
100
AcDbArc
 50
-2.999999999999
 51
86.99999999999
  0
LINE
  5
56A
100
AcDbEntity
  8
_0-3_躯体と製品
  6
CONTINUOUS
 62
     0
100
AcDbLine
 10
605.9797594051
 20
403.3308515365
 11
617.9357095084
 21
347.0825286933
  0
LINE
  5
56B
100
AcDbEntity
  8
_0-3_躯体と製品
  6
CONTINUOUS
 62
     0
100
AcDbLine
 10
603.2048528544
 20
401.9565574118
 11
613.0398604525
 21
355.6864845387
  0
LINE
  5
56C
100
AcDbEntity
  8
_0-3_躯体と製品
  6
CONTINUOUS
 62
     0
100
AcDbLine
 10
612.5507866521
 20
355.0825286933
 11
608.1682352304
 21
355.0825286933
  0
LINE
  5
56D
100
AcDbEntity
  8
_0-3_躯体と製品
  6
CONTINUOUS
 62
     0
100
AcDbLine
 10
591.0471903748
 20
406.8407148262
 11
591.1518622873
 21
408.8379738957
  0
LINE
  5
56E
100
AcDbEntity
  8
_0-3_躯体と製品
  6
CONTINUOUS
 62
     0
100
AcDbLine
 10
591.5203371641
 20
406.3152320807
 11
603.2023244716
 21
405.7030050683
  0
ARC
  5
56F
100
AcDbEntity
  8
_0-3_躯体と製品
  6
CONTINUOUS
 62
     0
100
AcDbCircle
 10
591.5465051422
 20
406.8145468481
 40
0.5
100
AcDbArc
 50
177
 51
267
  0
LINE
  5
570
100
AcDbEntity
  8
_0-3_躯体と製品
  6
CONTINUOUS
 62
     0
100
AcDbLine
 10
590.8378465499
 20
402.8461966872
 11
590.7855105936
 21
401.8475671525
  0
ARC
  5
571
100
AcDbEntity
  8
_0-3_躯体と製品
  6
CONTINUOUS
 62
     0
100
AcDbCircle
 10
591.3371613173
 20
402.8200287091
 40
0.5
100
AcDbArc
 50
86.99999999999
 51
177
  0
LINE
  5
572
100
AcDbEntity
  8
_0-3_躯体と製品
  6
CONTINUOUS
 62
     0
100
AcDbLine
 10
600.7936829715
 20
402.5768738236
 11
600.0854762908
 21
399.5092936719
  0
LINE
  5
573
100
AcDbEntity
  8
_0-3_躯体と製品
  6
CONTINUOUS
 62
     0
100
AcDbLine
 10
602.2790412099
 20
402.7472752557
 11
601.1016947778
 21
402.8089773677
  0
LINE
  5
574
100
AcDbEntity
  8
_0-3_躯体と製品
  6
CONTINUOUS
 62
     0
100
AcDbLine
 10
591.3633292954
 20
403.3193434765
 11
599.0384077017
 21
402.9171096614
  0
LINE
  5
575
100
AcDbEntity
  8
_0-3_躯体と製品
  6
CONTINUOUS
 62
     0
100
AcDbLine
 10
599.4994247559
 20
402.3053193668
 11
598.916232213
 21
399.7792349371
  0
LINE
  5
576
100
AcDbEntity
  8
_0-3_躯体と製品
  6
CONTINUOUS
 62
     0
100
AcDbLine
 10
589.2352303353
 20
400.9274415521
 11
590.7006371101
 21
428.8890685252
  0
LINE
  5
577
100
AcDbEntity
  8
_0-3_躯体と製品
  6
CONTINUOUS
 62
     0
100
AcDbLine
 10
561.0621363541
 20
407.9114787461
 11
589.5230780946
 21
406.4199039932
  0
ARC
  5
578
100
AcDbEntity
  8
_0-3_躯体と製品
  6
CONTINUOUS
 62
     0
100
AcDbCircle
 10
560.9836324197
 20
406.413534444
 40
1.5
100
AcDbArc
 50
86.99999999999
 51
267
  0
LINE
  5
579
100
AcDbEntity
  8
_0-3_躯体と製品
  6
CONTINUOUS
 62
     0
100
AcDbLine
 10
560.9051284854
 20
404.9155901419
 11
564.400331857
 21
404.732414295
  0
LINE
  5
57A
100
AcDbEntity
  8
_0-3_躯体と製品
  6
CONTINUOUS
 62
     0
100
AcDbLine
 10
564.4526678132
 20
405.7310438298
 11
564.400331857
 21
404.732414295
  0
LINE
  5
57B
100
AcDbEntity
  8
_0-3_躯体と製品
  6
CONTINUOUS
 62
     0
100
AcDbLine
 10
564.4526678132
 20
405.7310438298
 11
584.4252585083
 21
404.6843247049
  0
LINE
  5
57C
100
AcDbEntity
  8
_0-3_躯体と製品
  6
CONTINUOUS
 62
     0
100
AcDbLine
 10
584.4252585083
 20
404.6843247049
 11
584.3729225521
 21
403.6856951702
  0
LINE
  5
57D
100
AcDbEntity
  8
_0-3_躯体と製品
  6
CONTINUOUS
 62
     0
100
AcDbLine
 10
584.3729225521
 20
403.6856951702
 11
589.3660702259
 21
403.424015389
  0
LINE
  5
57E
100
AcDbEntity
  8
_0-3_躯体と製品
  6
CONTINUOUS
 62
     0
100
AcDbLine
 10
576.2611627093
 20
429.6458093126
 11
575.7466742233
 21
430.1602977986
  0
ARC
  5
57F
100
AcDbEntity
  8
_0-3_躯体と製品
  6
CONTINUOUS
 62
     0
100
AcDbCircle
 10
596.6631796343
 20
422.7925223372
 40
7.5
100
AcDbArc
 50
10.1246716554
 51
86.99999999999
  0
LINE
  5
580
100
AcDbEntity
  8
_0-3_躯体と製品
  6
CONTINUOUS
 62
     0
100
AcDbLine
 10
604.0463864506
 20
424.1109521259
 11
618
 21
345.9707162492
  0
LINE
  5
581
100
AcDbEntity
  8
_0-3_躯体と製品
  6
CONTINUOUS
 62
     0
100
AcDbLine
 10
618
 20
345.9707162492
 11
613.5700759103
 21
345.1796583756
  0
LINE
  5
582
100
AcDbEntity
  8
_0-3_躯体と製品
  6
CONTINUOUS
 62
     0
100
AcDbLine
 10
599.6164623608
 20
423.3198942527
 11
613.5700759102
 21
345.179658376
  0
ARC
  5
583
100
AcDbEntity
  8
_0-3_躯体と製品
  6
CONTINUOUS
 62
     0
100
AcDbCircle
 10
596.6631796343
 20
422.7925223372
 40
3
100
AcDbArc
 50
10.1246716554
 51
86.99999999999
  0
ARC
  5
584
100
AcDbEntity
  8
_0-3_躯体と製品
  6
CONTINUOUS
 62
     0
100
AcDbCircle
 10
394
 20
383
 40
1
100
AcDbArc
 50
90
 51
175
  0
LINE
  5
585
100
AcDbEntity
  8
_0-3_躯体と製品
  6
CONTINUOUS
 62
     0
100
AcDbLine
 10
394
 20
384
 11
394
 21
244
  0
LINE
  5
586
100
AcDbEntity
  8
_0-3_躯体と製品
  6
CONTINUOUS
 62
     0
100
AcDbLine
 10
436.9599614441
 20
395
 11
436.5519685084
 21
395.4531220603
  0
LINE
  5
587
100
AcDbEntity
  8
_0-3_躯体と製品
  6
CONTINUOUS
 62
     0
100
AcDbLine
 10
437.3834228438
 20
400.4557029804
 11
437.0975015661
 21
395
  0
LINE
  5
588
100
AcDbEntity
  8
_0-3_躯体と製品
  6
CONTINUOUS
 62
     0
100
AcDbLine
 10
442.5437457169
 20
395.1391063229
 11
442.3892524938
 21
395
  0
LINE
  5
589
100
AcDbEntity
  8
_0-3_躯体と製品
  6
CONTINUOUS
 62
     0
100
AcDbLine
 10
442.2397582713
 20
400.2011932252
 11
441.9671752847
 21
395
  0
LINE
  5
58A
100
AcDbEntity
  8
_0-4_図枠
  6
CONTINUOUS
 62
     0
100
AcDbLine
 10
432.878248247
 20
389.2361569326
 11
423.1809946151
 21
372.4400209483
  0
CIRCLE
  5
58B
100
AcDbEntity
  8
_0-4_図枠
  6
CONTINUOUS
 62
     0
100
AcDbCircle
 10
420.1809946151
 20
367.2438685256
 40
6
  0
CIRCLE
  5
58C
100
AcDbEntity
  8
_0-4_図枠
  6
CONTINUOUS
 62
     0
100
AcDbCircle
 10
432.878248247
 20
389.2361569326
 40
0.9
  0
LINE
  5
58D
100
AcDbEntity
  8
_0-4_図枠
  6
CONTINUOUS
 62
     0
100
AcDbLine
 10
437.873989024
 20
358.9173386019
 11
427.8323748293
 21
341.5247526265
  0
CIRCLE
  5
58E
100
AcDbEntity
  8
_0-4_図枠
  6
CONTINUOUS
 62
     0
100
AcDbCircle
 10
424.8323748293
 20
336.3286002038
 40
6
  0
LINE
  5
58F
100
AcDbEntity
  8
_0-4_図枠
  6
CONTINUOUS
 62
     0
100
AcDbLine
 10
444.3374108287
 20
392.1005721473
 11
460.7597964936
 21
363.6561657942
  0
CIRCLE
  5
590
100
AcDbEntity
  8
_0-4_図枠
  6
CONTINUOUS
 62
     0
100
AcDbCircle
 10
463.7597964936
 20
358.4600133715
 40
6
  0
LINE
  5
591
100
AcDbEntity
  8
_0-4_図枠
  6
CONTINUOUS
 62
     0
100
AcDbLine
 10
450.1774827281
 20
399.4886149116
 11
461.9591688599
 21
379.0821359326
  0
CIRCLE
  5
592
100
AcDbEntity
  8
_0-4_図枠
  6
CONTINUOUS
 62
     0
100
AcDbCircle
 10
464.9591688599
 20
373.8859835099
 40
6
  0
LINE
  5
593
100
AcDbEntity
  8
_0-4_図枠
  6
CONTINUOUS
 62
     0
100
AcDbLine
 10
442.0544450374
 20
419.4631696873
 11
459.8799775765
 21
450.3378977168
  0
LINE
  5
594
100
AcDbEntity
  8
_0-4_図枠
  6
CONTINUOUS
 62
     0
100
AcDbLine
 10
457.6038290284
 20
422.1854223307
 11
475.8909188008
 21
453.859590939
  0
LINE
  5
595
100
AcDbEntity
  8
_0-4_図枠
  6
CONTINUOUS
 62
     0
100
AcDbLine
 10
457.5216915842
 20
397.751336986
 11
482.3347458396
 21
440.7288076474
  0
TEXT
  5
596
100
AcDbEntity
  8
_0-4_図枠
  6
CONTINUOUS
 62
     0
100
AcDbText
 10
482.3347458396
 20
442.9249600701
 40
5
  1
３
  7
STANDARD
100
AcDbText
  0
CIRCLE
  5
597
100
AcDbEntity
  8
_0-4_図枠
  6
CONTINUOUS
 62
     0
100
AcDbCircle
 10
485.3347458396
 20
445.9249600701
 40
6
  0
CIRCLE
  5
598
100
AcDbEntity
  8
_0-4_図枠
  6
CONTINUOUS
 62
     0
100
AcDbCircle
 10
457.5216915842
 20
397.751336986
 40
0.9
  0
LINE
  5
599
100
AcDbEntity
  8
_0-4_図枠
  6
CONTINUOUS
 62
     0
100
AcDbLine
 10
489.9733407388
 20
417.5981941001
 11
503.8986558504
 21
441.7175473848
  0
CIRCLE
  5
59A
100
AcDbEntity
  8
_0-4_図枠
  6
CONTINUOUS
 62
     0
100
AcDbCircle
 10
506.8986558504
 20
446.9136998075
 40
6
  0
CIRCLE
  5
59B
100
AcDbEntity
  8
_0-4_図枠
  6
CONTINUOUS
 62
     0
100
AcDbCircle
 10
450.1774827281
 20
399.4886149116
 40
0.9
  0
CIRCLE
  5
59C
100
AcDbEntity
  8
_0-4_図枠
  6
CONTINUOUS
 62
     0
100
AcDbCircle
 10
444.3374108287
 20
392.1005721473
 40
0.9
  0
CIRCLE
  5
59D
100
AcDbEntity
  8
_0-4_図枠
  6
CONTINUOUS
 62
     0
100
AcDbCircle
 10
457.6038290284
 20
422.1854223307
 40
0.9
  0
CIRCLE
  5
59E
100
AcDbEntity
  8
_0-4_図枠
  6
CONTINUOUS
 62
     0
100
AcDbCircle
 10
437.873989024
 20
358.9173386019
 40
0.9
  0
CIRCLE
  5
59F
100
AcDbEntity
  8
_0-4_図枠
  6
CONTINUOUS
 62
     0
100
AcDbCircle
 10
442.0544450374
 20
419.4631696873
 40
0.9
  0
CIRCLE
  5
5A0
100
AcDbEntity
  8
_0-4_図枠
  6
CONTINUOUS
 62
     0
100
AcDbCircle
 10
489.9733407388
 20
417.5981941001
 40
0.9
  0
LINE
  5
5A1
100
AcDbEntity
  8
_0-3_躯体と製品
  6
CONTINUOUS
 62
     0
100
AcDbLine
 10
445.7735026919
 20
394.4956829857
 11
445.7735026919
 21
390
  0
LINE
  5
5A2
100
AcDbEntity
  8
_0-3_躯体と製品
  6
CONTINUOUS
 62
     0
100
AcDbLine
 10
442.8867513459
 20
394.4956829857
 11
442.8867513459
 21
390
  0
LINE
  5
5A3
100
AcDbEntity
  8
_0-3_躯体と製品
  6
CONTINUOUS
 62
     0
100
AcDbLine
 10
437.1132486541
 20
394.4956829857
 11
437.1132486541
 21
390
  0
LINE
  5
5A4
100
AcDbEntity
  8
_0-3_躯体と製品
  6
CONTINUOUS
 62
     0
100
AcDbLine
 10
444.9
 20
395
 11
445.7735026919
 21
394.4956829857
  0
LINE
  5
5A5
100
AcDbEntity
  8
_0-3_躯体と製品
  6
CONTINUOUS
 62
     0
100
AcDbLine
 10
435.1
 20
395
 11
444.9
 21
395
  0
LINE
  5
5A6
100
AcDbEntity
  8
_0-3_躯体と製品
  6
CONTINUOUS
 62
     0
100
AcDbLine
 10
435.1
 20
395
 11
434.2264973081
 21
394.4956829857
  0
LINE
  5
5A7
100
AcDbEntity
  8
_0-3_躯体と製品
  6
CONTINUOUS
 62
     0
100
AcDbLine
 10
434.2264973081
 20
394.4956829857
 11
434.2264973081
 21
390
  0
ARC
  5
5A8
100
AcDbEntity
  8
_0-3_躯体と製品
  6
CONTINUOUS
 62
     0
100
AcDbCircle
 10
444.3301270189
 20
392.3864422247
 40
2.555822748428
100
AcDbArc
 50
55.61575253204
 51
124.384247468
  0
ARC
  5
5A9
100
AcDbEntity
  8
_0-3_躯体と製品
  6
CONTINUOUS
 62
     0
100
AcDbCircle
 10
435.6698729811
 20
392.3864422247
 40
2.555822748428
100
AcDbArc
 50
55.61575253204
 51
124.384247468
  0
ARC
  5
5AA
100
AcDbEntity
  8
_0-3_躯体と製品
  6
CONTINUOUS
 62
     0
100
AcDbCircle
 10
440
 20
385.3888469604
 40
9.553418012636
100
AcDbArc
 50
72.41204622605
 51
107.587953774
  0
LINE
  5
5AB
100
AcDbEntity
  8
_0-3_躯体と製品
  6
CONTINUOUS
 62
     0
100
AcDbLine
 10
431
 20
390
 11
431
 21
388.5
  0
LINE
  5
5AC
100
AcDbEntity
  8
_0-3_躯体と製品
  6
CONTINUOUS
 62
     0
100
AcDbLine
 10
431
 20
390
 11
449
 21
390
  0
LINE
  5
5AD
100
AcDbEntity
  8
_0-3_躯体と製品
  6
CONTINUOUS
 62
     0
100
AcDbLine
 10
449
 20
390
 11
449
 21
388.5
  0
LINE
  5
5AE
100
AcDbEntity
  8
_0-3_躯体と製品
  6
CONTINUOUS
 62
     0
100
AcDbLine
 10
441.7246398617
 20
436.8316033668
 11
439.3719685251
 21
391.9399600108
  0
LINE
  5
5AF
100
AcDbEntity
  8
_0-3_躯体と製品
  6
CONTINUOUS
 62
     0
100
AcDbLine
 10
440
 20
408.9235144279
 11
440
 21
320
  0
ARC
  5
5B0
100
AcDbEntity
  8
_0-3_躯体と製品
  6
CONTINUOUS
 62
     0
100
AcDbCircle
 10
425
 20
376.75
 40
9.25
100
AcDbArc
 50
90
 51
108.9246444161
  0
LINE
  5
5B1
100
AcDbEntity
  8
_0-3_躯体と製品
  6
CONTINUOUS
 62
     0
100
AcDbLine
 10
455
 20
386
 11
425
 21
386
  0
ARC
  5
5B2
100
AcDbEntity
  8
_0-3_躯体と製品
  6
CONTINUOUS
 62
     0
100
AcDbCircle
 10
455
 20
376.75
 40
9.25
100
AcDbArc
 50
71.07535558395
 51
90
  0
LINE
  5
5B3
100
AcDbEntity
  8
_0-3_躯体と製品
  6
CONTINUOUS
 62
     0
100
AcDbLine
 10
394
 20
385
 11
419
 21
385
  0
ARC
  5
5B4
100
AcDbEntity
  8
_0-3_躯体と製品
  6
CONTINUOUS
 62
     0
100
AcDbCircle
 10
419
 20
394.25
 40
10.25
100
AcDbArc
 50
-90
 51
-71.07535558395
  0
ARC
  5
5B5
100
AcDbEntity
  8
_0-3_躯体と製品
  6
CONTINUOUS
 62
     0
100
AcDbCircle
 10
425
 20
376.75
 40
8.25
100
AcDbArc
 50
90
 51
108.9246444161
  0
ARC
  5
5B6
100
AcDbEntity
  8
_0-3_躯体と製品
  6
CONTINUOUS
 62
     0
100
AcDbCircle
 10
419
 20
394.25
 40
9.25
100
AcDbArc
 50
-90
 51
-71.07535558395
  0
ARC
  5
5B7
100
AcDbEntity
  8
_0-3_躯体と製品
  6
CONTINUOUS
 62
     0
100
AcDbCircle
 10
461
 20
394.25
 40
10.25
100
AcDbArc
 50
-108.9246444161
 51
-90
  0
ARC
  5
5B8
100
AcDbEntity
  8
_0-3_躯体と製品
  6
CONTINUOUS
 62
     0
100
AcDbCircle
 10
455
 20
376.75
 40
8.25
100
AcDbArc
 50
71.07535558395
 51
90
  0
ARC
  5
5B9
100
AcDbEntity
  8
_0-3_躯体と製品
  6
CONTINUOUS
 62
     0
100
AcDbCircle
 10
461
 20
394.25
 40
9.25
100
AcDbArc
 50
-108.9246444161
 51
-90
  0
LINE
  5
5BA
100
AcDbEntity
  8
_0-3_躯体と製品
  6
CONTINUOUS
 62
     0
100
AcDbLine
 10
412.3837980268
 20
418.0853680842
 11
413.017400953
 21
418.5737811593
  0
LINE
  5
5BB
100
AcDbEntity
  8
_0-3_躯体と製品
  6
CONTINUOUS
 62
     0
100
AcDbLine
 10
413.017400953
 20
418.5737811593
 11
414.8489499994
 21
416.1977701672
  0
LINE
  5
5BC
100
AcDbEntity
  8
_0-3_躯体と製品
  6
CONTINUOUS
 62
     0
100
AcDbLine
 10
412.3837980268
 20
418.0853680842
 11
414.2153470732
 21
415.7093570921
  0
LINE
  5
5BD
100
AcDbEntity
  8
_0-3_躯体と製品
  6
CONTINUOUS
 62
     0
100
AcDbLine
 10
442.8074791618
 20
400.171440234
 11
442.5437457169
 21
395.1391063229
  0
LINE
  5
5BE
100
AcDbEntity
  8
_0-3_躯体と製品
  6
CONTINUOUS
 62
     0
100
AcDbLine
 10
436.8157019533
 20
400.4854559715
 11
436.5519685084
 21
395.4531220603
  0
LINE
  5
5BF
100
AcDbEntity
  8
_0-3_躯体と製品
  6
CONTINUOUS
 62
     0
100
AcDbLine
 10
443.1001554357
 20
405.7560362216
 11
442.9958886043
 21
403.7665065592
  0
LINE
  5
5C0
100
AcDbEntity
  8
_0-3_躯体と製品
  6
CONTINUOUS
 62
     0
100
AcDbLine
 10
442.5324345452
 20
405.7857892128
 11
442.4281677138
 21
403.7962595503
  0
LINE
  5
5C1
100
AcDbEntity
  8
_0-3_躯体と製品
  6
CONTINUOUS
 62
     0
100
AcDbLine
 10
437.6760991177
 20
406.040298968
 11
437.5718322862
 21
404.0507693055
  0
LINE
  5
5C2
100
AcDbEntity
  8
_0-3_躯体と製品
  6
CONTINUOUS
 62
     0
100
AcDbLine
 10
437.1083782272
 20
406.0700519591
 11
437.0041113957
 21
404.0805222966
  0
LINE
  5
5C3
100
AcDbEntity
  8
_0-3_躯体と製品
  6
CONTINUOUS
 62
     0
100
AcDbLine
 10
438.9216948763
 20
429.8076818951
 11
437.6760991177
 21
406.040298968
  0
LINE
  5
5C4
100
AcDbEntity
  8
_0-3_躯体と製品
  6
CONTINUOUS
 62
     0
100
AcDbLine
 10
438.3539739857
 20
429.8374348863
 11
437.1083782272
 21
406.0700519591
  0
LINE
  5
5C5
100
AcDbEntity
  8
_0-3_躯体と製品
  6
CONTINUOUS
 62
     0
100
AcDbLine
 10
443.7780303038
 20
429.5531721399
 11
442.5324345452
 21
405.7857892128
  0
LINE
  5
5C6
100
AcDbEntity
  8
_0-3_躯体と製品
  6
CONTINUOUS
 62
     0
100
AcDbLine
 10
444.3457511943
 20
429.5234191488
 11
443.1001554357
 21
405.7560362216
  0
CIRCLE
  5
5C7
100
AcDbEntity
  8
_0-3_躯体と製品
  6
CONTINUOUS
 62
     0
100
AcDbCircle
 10
440
 20
403.9235144279
 40
1.4
  0
LINE
  5
5C8
100
AcDbEntity
  8
_0-3_躯体と製品
  6
CONTINUOUS
 62
     0
100
AcDbLine
 10
442.5437457169
 20
395.1391063229
 11
436.5519685084
 21
395.4531220603
  0
ARC
  5
5C9
100
AcDbEntity
  8
_0-3_躯体と製品
  6
CONTINUOUS
 62
     0
100
AcDbCircle
 10
441.2242563474
 20
427.2837171327
 40
6.3
100
AcDbArc
 50
47.696869
 51
126.309371
  0
ARC
  5
5CA
100
AcDbEntity
  8
_0-3_躯体と製品
  6
CONTINUOUS
 62
     0
100
AcDbCircle
 10
443.1479679001
 20
429.386557719
 40
3.45
100
AcDbArc
 50
0.3127429999989
 51
47.820489
  0
ARC
  5
5CB
100
AcDbEntity
  8
_0-3_躯体と製品
  6
CONTINUOUS
 62
     0
100
AcDbCircle
 10
439.5366318948
 20
429.580328999
 40
3.45
100
AcDbArc
 50
126.309124
 51
173.762163
  0
LINE
  5
5CC
100
AcDbEntity
  8
_0-3_躯体と製品
  6
CONTINUOUS
 62
     0
100
AcDbLine
 10
442.2610019407
 20
432.7355095528
 11
440.7630576386
 21
432.8140134871
  0
ARC
  5
5CD
100
AcDbEntity
  8
_0-3_躯体と製品
  6
CONTINUOUS
 62
     0
100
AcDbCircle
 10
442.8622335862
 20
432.7432991951
 40
0.6
100
AcDbArc
 50
73.299767
 51
177
  0
ARC
  5
5CE
100
AcDbEntity
  8
_0-3_躯体と製品
  6
CONTINUOUS
 62
     0
100
AcDbCircle
 10
440.1659338423
 20
432.884606277
 40
0.6
100
AcDbArc
 50
-3
 51
100.700233
  0
LINE
  5
5CF
100
AcDbEntity
  8
_0-3_躯体と製品
  6
CONTINUOUS
 62
     0
100
AcDbLine
 10
429.2947533633
 20
429.6833805926
 11
416.3648022861
 21
416.1183277333
  0
ARC
  5
5D0
100
AcDbEntity
  8
_0-3_躯体と製品
  6
CONTINUOUS
 62
     0
100
AcDbCircle
 10
451.9136348158
 20
427.3243329515
 40
1.8
100
AcDbArc
 50
37.62684736228
 51
86.99999999999
  0
LINE
  5
5D1
100
AcDbEntity
  8
_0-3_躯体と製品
  6
CONTINUOUS
 62
     0
100
AcDbLine
 10
452.7056384735
 20
427.9348492954
 11
464.146823811
 21
413.0925592799
  0
LINE
  5
5D2
100
AcDbEntity
  8
_0-3_躯体と製品
  6
CONTINUOUS
 62
     0
100
AcDbLine
 10
453.3392413997
 20
428.4232623706
 11
464.7804267371
 21
413.5809723551
  0
ARC
  5
5D3
100
AcDbEntity
  8
_0-3_躯体と製品
  6
CONTINUOUS
 62
     0
100
AcDbCircle
 10
465.5724303802
 20
414.1914887179
 40
1.8
100
AcDbArc
 50
-142.3731526377
 51
-43.62684812372
  0
ARC
  5
5D4
100
AcDbEntity
  8
_0-3_躯体と製品
  6
CONTINUOUS
 62
     0
100
AcDbCircle
 10
465.5724303802
 20
414.1914887179
 40
1
100
AcDbArc
 50
-142.3731526377
 51
-43.62684873287
  0
LINE
  5
5D5
100
AcDbEntity
  8
_0-3_躯体と製品
  6
CONTINUOUS
 62
     0
100
AcDbLine
 10
468.9452343289
 20
415.1211088145
 11
466.8753579221
 21
412.9495628665
  0
LINE
  5
5D6
100
AcDbEntity
  8
_0-3_躯体と製品
  6
CONTINUOUS
 62
     0
100
AcDbLine
 10
468.9452343289
 20
415.1211088145
 11
468.3661554141
 21
415.6730758519
  0
LINE
  5
5D7
100
AcDbEntity
  8
_0-3_躯体と製品
  6
CONTINUOUS
 62
     0
100
AcDbLine
 10
468.3661554141
 20
415.6730758519
 11
466.2962790073
 21
413.5015299039
  0
ARC
  5
5D8
100
AcDbEntity
  8
_0-3_躯体と製品
  6
CONTINUOUS
 62
     0
100
AcDbCircle
 10
415.6409536425
 20
416.8082865301
 40
1.8
100
AcDbArc
 50
-142.3731518763
 51
-43.62684736228
  0
ARC
  5
5D9
100
AcDbEntity
  8
_0-3_躯体と製品
  6
CONTINUOUS
 62
     0
100
AcDbCircle
 10
415.6409536425
 20
416.8082865301
 40
1
100
AcDbArc
 50
-142.3731512671
 51
-43.62684736228
  0
ARC
  5
5DA
100
AcDbEntity
  8
_0-3_躯体と製品
  6
CONTINUOUS
 62
     0
100
AcDbCircle
 10
430.5976809217
 20
428.4414547584
 40
1
100
AcDbArc
 50
86.99999999999
 51
136.3731526377
  0
LINE
  5
5DB
100
AcDbEntity
  8
_0-3_躯体と製品
  6
CONTINUOUS
 62
     0
100
AcDbLine
 10
429.8738322782
 20
429.1314135552
 11
416.9438811844
 21
415.5663606786
  0
LINE
  5
5DC
100
AcDbEntity
  8
_0-3_躯体と製品
  6
CONTINUOUS
 62
     0
100
AcDbLine
 10
430.650016878
 20
429.4400842932
 11
451.9659707721
 21
428.3229624863
  0
ARC
  5
5DD
100
AcDbEntity
  8
_0-3_躯体と製品
  6
CONTINUOUS
 62
     0
100
AcDbCircle
 10
430.5976809217
 20
428.4414547584
 40
1.8
100
AcDbArc
 50
86.99999999999
 51
136.3731526377
  0
LINE
  5
5DE
100
AcDbEntity
  8
_0-3_躯体と製品
  6
CONTINUOUS
 62
     0
100
AcDbLine
 10
430.691885643
 20
430.238987921
 11
452.0078395371
 21
429.1218661141
  0
ARC
  5
5DF
100
AcDbEntity
  8
_0-3_躯体と製品
  6
CONTINUOUS
 62
     0
100
AcDbCircle
 10
451.9136348158
 20
427.3243329515
 40
1
100
AcDbArc
 50
37.62684736228
 51
86.99999999999
  0
LINE
  5
5E0
100
AcDbEntity
  8
_0-3_躯体と製品
  6
CONTINUOUS
 62
     0
100
AcDbLine
 10
426
 20
394.5
 11
426
 21
392.9
  0
LINE
  5
5E1
100
AcDbEntity
  8
_0-3_躯体と製品
  6
CONTINUOUS
 62
     0
100
AcDbLine
 10
454
 20
394.5
 11
454
 21
392.9
  0
LINE
  5
5E2
100
AcDbEntity
  8
_0-3_躯体と製品
  6
CONTINUOUS
 62
     0
100
AcDbLine
 10
442.9958886043
 20
403.7665065592
 11
442.8074791618
 21
400.171440234
  0
LINE
  5
5E3
100
AcDbEntity
  8
_0-3_躯体と製品
  6
CONTINUOUS
 62
     0
100
AcDbLine
 10
437.0041113957
 20
404.0805222966
 11
436.8157019533
 21
400.4854559715
  0
LINE
  5
5E4
100
AcDbEntity
  8
_0-3_躯体と製品
  6
CONTINUOUS
 62
     0
100
AcDbLine
 10
449.0099055081
 20
403.4513252887
 11
431.2099055081
 21
404.3841837599
  0
LINE
  5
5E5
100
AcDbEntity
  8
_0-3_躯体と製品
  6
CONTINUOUS
 62
     0
100
AcDbLine
 10
448.9261679781
 20
401.853518033
 11
431.1261679781
 21
402.7863765043
  0
ARC
  5
5E6
100
AcDbEntity
  8
_0-3_躯体と製品
  6
CONTINUOUS
 62
     0
100
AcDbCircle
 10
445.4562519084
 20
401.0339962826
 40
1
100
AcDbArc
 50
86.99999999999
 51
177
  0
LINE
  5
5E7
100
AcDbEntity
  8
_0-3_躯体と製品
  6
CONTINUOUS
 62
     0
100
AcDbLine
 10
444.4576223736
 20
401.0863322388
 11
444.4052864174
 21
400.0877027041
  0
ARC
  5
5E8
100
AcDbEntity
  8
_0-3_躯体と製品
  6
CONTINUOUS
 62
     0
100
AcDbCircle
 10
434.2716011191
 20
401.6201589925
 40
1
100
AcDbArc
 50
-2.999999999999
 51
86.99999999999
  0
LINE
  5
5E9
100
AcDbEntity
  8
_0-3_躯体と製品
  6
CONTINUOUS
 62
     0
100
AcDbLine
 10
435.2702306539
 20
401.5678230362
 11
435.2178946977
 21
400.5691935015
  0
LINE
  5
5EA
100
AcDbEntity
  8
_0-3_躯体と製品
  6
CONTINUOUS
 62
     0
100
AcDbLine
 10
444.4052864174
 20
400.0877027041
 11
435.2178946977
 21
400.5691935015
  0
ARC
  5
5EB
100
AcDbEntity
  8
_0-3_躯体と製品
  6
CONTINUOUS
 62
     0
100
AcDbCircle
 10
448.9
 20
401.3542032657
 40
2.1
100
AcDbArc
 50
0
 51
86.99999999999
  0
LINE
  5
5EC
100
AcDbEntity
  8
_0-3_躯体と製品
  6
CONTINUOUS
 62
     0
100
AcDbLine
 10
451
 20
401.3542032657
 11
451
 21
395
  0
ARC
  5
5ED
100
AcDbEntity
  8
_0-3_躯体と製品
  6
CONTINUOUS
 62
     0
100
AcDbCircle
 10
431.1
 20
402.2870617369
 40
2.1
100
AcDbArc
 50
86.99999999999
 51
180
  0
ARC
  5
5EE
100
AcDbEntity
  8
_0-3_躯体と製品
  6
CONTINUOUS
 62
     0
100
AcDbCircle
 10
448.9
 20
401.3542032657
 40
0.5
100
AcDbArc
 50
0
 51
86.99999999999
  0
LINE
  5
5EF
100
AcDbEntity
  8
_0-3_躯体と製品
  6
CONTINUOUS
 62
     0
100
AcDbLine
 10
449.4
 20
401.3542032657
 11
449.4
 21
395
  0
ARC
  5
5F0
100
AcDbEntity
  8
_0-3_躯体と製品
  6
CONTINUOUS
 62
     0
100
AcDbCircle
 10
431.1
 20
402.2870617369
 40
0.5
100
AcDbArc
 50
86.99999999999
 51
180
  0
LINE
  5
5F1
100
AcDbEntity
  8
_0-3_躯体と製品
  6
CONTINUOUS
 62
     0
100
AcDbLine
 10
430.6
 20
402.2870617369
 11
430.6
 21
395
  0
ARC
  5
5F2
100
AcDbEntity
  8
_0-3_躯体と製品
  6
CONTINUOUS
 62
     0
100
AcDbCircle
 10
451.5
 20
395
 40
0.5
100
AcDbArc
 50
180
 51
270
  0
ARC
  5
5F3
100
AcDbEntity
  8
_0-3_躯体と製品
  6
CONTINUOUS
 62
     0
100
AcDbCircle
 10
451.5
 20
395
 40
2.1
100
AcDbArc
 50
180
 51
270
  0
LINE
  5
5F4
100
AcDbEntity
  8
_0-3_躯体と製品
  6
CONTINUOUS
 62
     0
100
AcDbLine
 10
456
 20
394.5
 11
456
 21
392.9
  0
LINE
  5
5F5
100
AcDbEntity
  8
_0-3_躯体と製品
  6
CONTINUOUS
 62
     0
100
AcDbLine
 10
451.5
 20
394.5
 11
456
 21
394.5
  0
LINE
  5
5F6
100
AcDbEntity
  8
_0-3_躯体と製品
  6
CONTINUOUS
 62
     0
100
AcDbLine
 10
456
 20
392.9
 11
451.5
 21
392.9
  0
ARC
  5
5F7
100
AcDbEntity
  8
_0-3_躯体と製品
  6
CONTINUOUS
 62
     0
100
AcDbCircle
 10
428.5
 20
395
 40
0.5
100
AcDbArc
 50
-90
 51
0
  0
ARC
  5
5F8
100
AcDbEntity
  8
_0-3_躯体と製品
  6
CONTINUOUS
 62
     0
100
AcDbCircle
 10
428.5
 20
395
 40
2.1
100
AcDbArc
 50
-90
 51
0
  0
LINE
  5
5F9
100
AcDbEntity
  8
_0-3_躯体と製品
  6
CONTINUOUS
 62
     0
100
AcDbLine
 10
424
 20
394.5
 11
428.5
 21
394.5
  0
LINE
  5
5FA
100
AcDbEntity
  8
_0-3_躯体と製品
  6
CONTINUOUS
 62
     0
100
AcDbLine
 10
424
 20
392.9
 11
424
 21
394.5
  0
LINE
  5
5FB
100
AcDbEntity
  8
_0-3_躯体と製品
  6
CONTINUOUS
 62
     0
100
AcDbLine
 10
424
 20
392.9
 11
428.5
 21
392.9
  0
LINE
  5
5FC
100
AcDbEntity
  8
_0-3_躯体と製品
  6
CONTINUOUS
 62
     0
100
AcDbLine
 10
429
 20
402.2870617369
 11
429
 21
395
  0
LINE
  5
5FD
100
AcDbEntity
  8
_0-3_躯体と製品
  6
CONTINUOUS
 62
     0
100
AcDbLine
 10
440
 20
388
 11
439.5
 21
388.5
  0
LINE
  5
5FE
100
AcDbEntity
  8
_0-3_躯体と製品
  6
CONTINUOUS
 62
     0
100
AcDbLine
 10
456.2
 20
394.5
 11
453.25
 21
394.5
  0
ARC
  5
5FF
100
AcDbEntity
  8
_0-3_躯体と製品
  6
CONTINUOUS
 62
     0
100
AcDbCircle
 10
456.2
 20
394.2
 40
0.3
100
AcDbArc
 50
0
 51
90
  0
LINE
  5
600
100
AcDbEntity
  8
_0-3_躯体と製品
  6
CONTINUOUS
 62
     0
100
AcDbLine
 10
456.5
 20
394.2
 11
456.5
 21
392.3
  0
ARC
  5
601
100
AcDbEntity
  8
_0-3_躯体と製品
  6
CONTINUOUS
 62
     0
100
AcDbCircle
 10
456.2
 20
392.3
 40
0.3
100
AcDbArc
 50
-90
 51
0
  0
LINE
  5
602
100
AcDbEntity
  8
_0-3_躯体と製品
  6
CONTINUOUS
 62
     0
100
AcDbLine
 10
456.2
 20
392
 11
454.25
 21
392
  0
LINE
  5
603
100
AcDbEntity
  8
_0-3_躯体と製品
  6
CONTINUOUS
 62
     0
100
AcDbLine
 10
456.5
 20
390.2
 11
456.5
 21
388.8
  0
ARC
  5
604
100
AcDbEntity
  8
_0-3_躯体と製品
  6
CONTINUOUS
 62
     0
100
AcDbCircle
 10
456.2
 20
390.2
 40
0.3
100
AcDbArc
 50
0
 51
90
  0
LINE
  5
605
100
AcDbEntity
  8
_0-3_躯体と製品
  6
CONTINUOUS
 62
     0
100
AcDbLine
 10
456.2
 20
390.5
 11
454.25
 21
390.5
  0
ARC
  5
606
100
AcDbEntity
  8
_0-3_躯体と製品
  6
CONTINUOUS
 62
     0
100
AcDbCircle
 10
454.25
 20
391.25
 40
0.75
100
AcDbArc
 50
90
 51
270
  0
ARC
  5
607
100
AcDbEntity
  8
_0-3_躯体と製品
  6
CONTINUOUS
 62
     0
100
AcDbCircle
 10
453.25
 20
395.25
 40
0.75
100
AcDbArc
 50
90
 51
270
  0
LINE
  5
608
100
AcDbEntity
  8
_0-3_躯体と製品
  6
CONTINUOUS
 62
     0
100
AcDbLine
 10
456.5
 20
396.5
 11
456.5
 21
404
  0
ARC
  5
609
100
AcDbEntity
  8
_0-3_躯体と製品
  6
CONTINUOUS
 62
     0
100
AcDbCircle
 10
456
 20
396.5
 40
0.5
100
AcDbArc
 50
-90
 51
0
  0
LINE
  5
60A
100
AcDbEntity
  8
_0-3_躯体と製品
  6
CONTINUOUS
 62
     0
100
AcDbLine
 10
456
 20
396
 11
453.25
 21
396
  0
ARC
  5
60B
100
AcDbEntity
  8
_0-3_躯体と製品
  6
CONTINUOUS
 62
     0
100
AcDbCircle
 10
456.2
 20
388.8
 40
0.3
100
AcDbArc
 50
-90
 51
0
  0
LINE
  5
60C
100
AcDbEntity
  8
_0-3_躯体と製品
  6
CONTINUOUS
 62
     0
100
AcDbLine
 10
440
 20
388
 11
440.5
 21
388.5
  0
ARC
  5
60D
100
AcDbEntity
  8
_0-3_躯体と製品
  6
CONTINUOUS
 62
     0
100
AcDbCircle
 10
457.5
 20
404
 40
1
100
AcDbArc
 50
0
 51
180
  0
LINE
  5
60E
100
AcDbEntity
  8
_0-3_躯体と製品
  6
CONTINUOUS
 62
     0
100
AcDbLine
 10
456.5
 20
386
 11
458.5
 21
386
  0
LINE
  5
60F
100
AcDbEntity
  8
_0-3_躯体と製品
  6
CONTINUOUS
 62
     0
100
AcDbLine
 10
456.5
 20
386.5
 11
456.5
 21
386
  0
LINE
  5
610
100
AcDbEntity
  8
_0-3_躯体と製品
  6
CONTINUOUS
 62
     0
100
AcDbLine
 10
445
 20
386.5
 11
456.5
 21
386.5
  0
LINE
  5
611
100
AcDbEntity
  8
_0-3_躯体と製品
  6
CONTINUOUS
 62
     0
100
AcDbLine
 10
445
 20
386
 11
445
 21
386.5
  0
LINE
  5
612
100
AcDbEntity
  8
_0-3_躯体と製品
  6
CONTINUOUS
 62
     0
100
AcDbLine
 10
423.8
 20
388.5
 11
439.5
 21
388.5
  0
LINE
  5
613
100
AcDbEntity
  8
_0-3_躯体と製品
  6
CONTINUOUS
 62
     0
100
AcDbLine
 10
440.5
 20
388.5
 11
456.2
 21
388.5
  0
LINE
  5
614
100
AcDbEntity
  8
_0-3_躯体と製品
  6
CONTINUOUS
 62
     0
100
AcDbLine
 10
435
 20
386
 11
445
 21
386
  0
LINE
  5
615
100
AcDbEntity
  8
_0-3_躯体と製品
  6
CONTINUOUS
 62
     0
100
AcDbLine
 10
422
 20
395.5
 11
422
 21
386
  0
ARC
  5
616
100
AcDbEntity
  8
_0-3_躯体と製品
  6
CONTINUOUS
 62
     0
100
AcDbCircle
 10
422.5
 20
395.5
 40
0.5
100
AcDbArc
 50
90
 51
180
  0
LINE
  5
617
100
AcDbEntity
  8
_0-3_躯体と製品
  6
CONTINUOUS
 62
     0
100
AcDbLine
 10
422.5
 20
396
 11
426.75
 21
396
  0
LINE
  5
618
100
AcDbEntity
  8
_0-3_躯体と製品
  6
CONTINUOUS
 62
     0
100
AcDbLine
 10
423.5
 20
388.8
 11
423.5
 21
390.2
  0
ARC
  5
619
100
AcDbEntity
  8
_0-3_躯体と製品
  6
CONTINUOUS
 62
     0
100
AcDbCircle
 10
423.8
 20
388.8
 40
0.3
100
AcDbArc
 50
180
 51
270
  0
LINE
  5
61A
100
AcDbEntity
  8
_0-3_躯体と製品
  6
CONTINUOUS
 62
     0
100
AcDbLine
 10
423.8
 20
390.5
 11
425.75
 21
390.5
  0
ARC
  5
61B
100
AcDbEntity
  8
_0-3_躯体と製品
  6
CONTINUOUS
 62
     0
100
AcDbCircle
 10
423.8
 20
390.2
 40
0.3
100
AcDbArc
 50
90
 51
180
  0
LINE
  5
61C
100
AcDbEntity
  8
_0-3_躯体と製品
  6
CONTINUOUS
 62
     0
100
AcDbLine
 10
423.5
 20
392.3
 11
423.5
 21
394.2
  0
ARC
  5
61D
100
AcDbEntity
  8
_0-3_躯体と製品
  6
CONTINUOUS
 62
     0
100
AcDbCircle
 10
423.8
 20
392.3
 40
0.3
100
AcDbArc
 50
180
 51
270
  0
LINE
  5
61E
100
AcDbEntity
  8
_0-3_躯体と製品
  6
CONTINUOUS
 62
     0
100
AcDbLine
 10
423.8
 20
392
 11
425.75
 21
392
  0
LINE
  5
61F
100
AcDbEntity
  8
_0-3_躯体と製品
  6
CONTINUOUS
 62
     0
100
AcDbLine
 10
423.8
 20
394.5
 11
426.75
 21
394.5
  0
ARC
  5
620
100
AcDbEntity
  8
_0-3_躯体と製品
  6
CONTINUOUS
 62
     0
100
AcDbCircle
 10
423.8
 20
394.2
 40
0.3
100
AcDbArc
 50
90
 51
180
  0
ARC
  5
621
100
AcDbEntity
  8
_0-3_躯体と製品
  6
CONTINUOUS
 62
     0
100
AcDbCircle
 10
425.75
 20
391.25
 40
0.75
100
AcDbArc
 50
-90
 51
90
  0
ARC
  5
622
100
AcDbEntity
  8
_0-3_躯体と製品
  6
CONTINUOUS
 62
     0
100
AcDbCircle
 10
426.75
 20
395.25
 40
0.75
100
AcDbArc
 50
-90
 51
90
  0
LINE
  5
623
100
AcDbEntity
  8
_0-3_躯体と製品
  6
CONTINUOUS
 62
     0
100
AcDbLine
 10
435
 20
386.5
 11
435
 21
386
  0
LINE
  5
624
100
AcDbEntity
  8
_0-3_躯体と製品
  6
CONTINUOUS
 62
     0
100
AcDbLine
 10
423.5
 20
386.5
 11
435
 21
386.5
  0
LINE
  5
625
100
AcDbEntity
  8
_0-3_躯体と製品
  6
CONTINUOUS
 62
     0
100
AcDbLine
 10
423.5
 20
386
 11
423.5
 21
386.5
  0
LINE
  5
626
100
AcDbEntity
  8
_0-3_躯体と製品
  6
CONTINUOUS
 62
     0
100
AcDbLine
 10
422
 20
386
 11
423.5
 21
386
  0
ARC
  5
627
100
AcDbEntity
  8
_0-3_躯体と製品
  6
CONTINUOUS
 62
     0
100
AcDbCircle
 10
436.5
 20
345.5
 40
1
100
AcDbArc
 50
180
 51
270
  0
LINE
  5
628
100
AcDbEntity
  8
_0-3_躯体と製品
  6
CONTINUOUS
 62
     0
100
AcDbLine
 10
433.37497
 20
346.738004
 11
437.560403
 21
346
  0
LINE
  5
629
100
AcDbEntity
  8
_0-3_躯体と製品
  6
CONTINUOUS
 62
     0
100
AcDbLine
 10
435.95
 20
376.7
 11
444.05
 21
376.7
  0
LINE
  5
62A
100
AcDbEntity
  8
_0-3_躯体と製品
  6
CONTINUOUS
 62
     0
100
AcDbLine
 10
435.25
 20
376
 11
444.75
 21
376
  0
LINE
  5
62B
100
AcDbEntity
  8
_0-3_躯体と製品
  6
CONTINUOUS
 62
     0
100
AcDbLine
 10
446.62503
 20
346.738004
 11
444.75
 21
357.371826
  0
LINE
  5
62C
100
AcDbEntity
  8
_0-3_躯体と製品
  6
CONTINUOUS
 62
     0
100
AcDbLine
 10
440.5
 20
357
 11
442.439597
 21
346
  0
LINE
  5
62D
100
AcDbEntity
  8
_0-3_躯体と製品
  6
CONTINUOUS
 62
     0
100
AcDbLine
 10
439.5
 20
357
 11
437.560403
 21
346
  0
LINE
  5
62E
100
AcDbEntity
  8
_0-3_躯体と製品
  6
CONTINUOUS
 62
     0
100
AcDbLine
 10
446.62503
 20
346.738004
 11
442.439597
 21
346
  0
LINE
  5
62F
100
AcDbEntity
  8
_0-3_躯体と製品
  6
CONTINUOUS
 62
     0
100
AcDbLine
 10
444.5
 20
345.5
 11
444.5
 21
346.363304
  0
ARC
  5
630
100
AcDbEntity
  8
_0-3_躯体と製品
  6
CONTINUOUS
 62
     0
100
AcDbCircle
 10
443.5
 20
345.5
 40
1
100
AcDbArc
 50
-90
 51
0
  0
LINE
  5
631
100
AcDbEntity
  8
_0-3_躯体と製品
  6
CONTINUOUS
 62
     0
100
AcDbLine
 10
443.5
 20
344.5
 11
436.5
 21
344.5
  0
LINE
  5
632
100
AcDbEntity
  8
_0-3_躯体と製品
  6
CONTINUOUS
 62
     0
100
AcDbLine
 10
444.75
 20
357.371826
 11
444.75
 21
376
  0
LINE
  5
633
100
AcDbEntity
  8
_0-3_躯体と製品
  6
CONTINUOUS
 62
     0
100
AcDbLine
 10
444.75
 20
376
 11
444.05
 21
376.7
  0
LINE
  5
634
100
AcDbEntity
  8
_0-3_躯体と製品
  6
CONTINUOUS
 62
     0
100
AcDbLine
 10
439.5
 20
357
 11
440.5
 21
357
  0
LINE
  5
635
100
AcDbEntity
  8
_0-3_躯体と製品
  6
CONTINUOUS
 62
     0
100
AcDbLine
 10
433.37497
 20
346.738004
 11
435.25
 21
357.371826
  0
LINE
  5
636
100
AcDbEntity
  8
_0-3_躯体と製品
  6
CONTINUOUS
 62
     0
100
AcDbLine
 10
435.5
 20
345.5
 11
435.5
 21
346.363304
  0
LINE
  5
637
100
AcDbEntity
  8
_0-3_躯体と製品
  6
CONTINUOUS
 62
     0
100
AcDbLine
 10
435.25
 20
357.371826
 11
435.25
 21
376
  0
LINE
  5
638
100
AcDbEntity
  8
_0-3_躯体と製品
  6
CONTINUOUS
 62
     0
100
AcDbLine
 10
435.25
 20
376
 11
435.95
 21
376.7
  0
LINE
  5
639
100
AcDbEntity
  8
_0-3_躯体と製品
  6
CONTINUOUS
 62
     0
100
AcDbLine
 10
444.05
 20
386
 11
444.05
 21
376.7
  0
LINE
  5
63A
100
AcDbEntity
  8
_0-3_躯体と製品
  6
CONTINUOUS
 62
     0
100
AcDbLine
 10
435.95
 20
386
 11
435.95
 21
376.7
  0
LINE
  5
63B
100
AcDbEntity
  8
_0-3_躯体と製品
  6
CONTINUOUS
 62
     0
100
AcDbLine
 10
425
 20
384.5740224717
 11
425.4259775283
 21
385
  0
LINE
  5
63C
100
AcDbEntity
  8
_0-3_躯体と製品
  6
CONTINUOUS
 62
     0
100
AcDbLine
 10
425.8401910907
 20
384
 11
426.8401910907
 21
385
  0
LINE
  5
63D
100
AcDbEntity
  8
_0-3_躯体と製品
  6
CONTINUOUS
 62
     0
100
AcDbLine
 10
427.2544046531
 20
384
 11
428.2544046531
 21
385
  0
LINE
  5
63E
100
AcDbEntity
  8
_0-3_躯体と製品
  6
CONTINUOUS
 62
     0
100
AcDbLine
 10
428.6686182154
 20
384
 11
429.6686182154
 21
385
  0
LINE
  5
63F
100
AcDbEntity
  8
_0-3_躯体と製品
  6
CONTINUOUS
 62
     0
100
AcDbLine
 10
430.0828317778
 20
384
 11
431.0828317778
 21
385
  0
LINE
  5
640
100
AcDbEntity
  8
_0-3_躯体と製品
  6
CONTINUOUS
 62
     0
100
AcDbLine
 10
431.4970453402
 20
384
 11
432.4970453402
 21
385
  0
LINE
  5
641
100
AcDbEntity
  8
_0-3_躯体と製品
  6
CONTINUOUS
 62
     0
100
AcDbLine
 10
432.9112589025
 20
384
 11
433.9112589025
 21
385
  0
LINE
  5
642
100
AcDbEntity
  8
_0-3_躯体と製品
  6
CONTINUOUS
 62
     0
100
AcDbLine
 10
434.3254724649
 20
384
 11
435.3254724649
 21
385
  0
LINE
  5
643
100
AcDbEntity
  8
_0-3_躯体と製品
  6
CONTINUOUS
 62
     0
100
AcDbLine
 10
435.7396860273
 20
384
 11
436.7396860273
 21
385
  0
LINE
  5
644
100
AcDbEntity
  8
_0-3_躯体と製品
  6
CONTINUOUS
 62
     0
100
AcDbLine
 10
437.1538995897
 20
384
 11
438.1538995897
 21
385
  0
LINE
  5
645
100
AcDbEntity
  8
_0-3_躯体と製品
  6
CONTINUOUS
 62
     0
100
AcDbLine
 10
438.568113152
 20
384
 11
439.568113152
 21
385
  0
LINE
  5
646
100
AcDbEntity
  8
_0-3_躯体と製品
  6
CONTINUOUS
 62
     0
100
AcDbLine
 10
439.9823267144
 20
384
 11
440.9823267144
 21
385
  0
LINE
  5
647
100
AcDbEntity
  8
_0-3_躯体と製品
  6
CONTINUOUS
 62
     0
100
AcDbLine
 10
441.3965402768
 20
384
 11
442.3965402768
 21
385
  0
LINE
  5
648
100
AcDbEntity
  8
_0-3_躯体と製品
  6
CONTINUOUS
 62
     0
100
AcDbLine
 10
442.8107538392
 20
384
 11
443.8107538392
 21
385
  0
LINE
  5
649
100
AcDbEntity
  8
_0-3_躯体と製品
  6
CONTINUOUS
 62
     0
100
AcDbLine
 10
444.2249674015
 20
384
 11
445.2249674015
 21
385
  0
LINE
  5
64A
100
AcDbEntity
  8
_0-3_躯体と製品
  6
CONTINUOUS
 62
     0
100
AcDbLine
 10
445.6391809639
 20
384
 11
446.6391809639
 21
385
  0
LINE
  5
64B
100
AcDbEntity
  8
_0-3_躯体と製品
  6
CONTINUOUS
 62
     0
100
AcDbLine
 10
447.0533945263
 20
384
 11
448.0533945263
 21
385
  0
LINE
  5
64C
100
AcDbEntity
  8
_0-3_躯体と製品
  6
CONTINUOUS
 62
     0
100
AcDbLine
 10
448.4676080886
 20
384
 11
449.4676080886
 21
385
  0
LINE
  5
64D
100
AcDbEntity
  8
_0-3_躯体と製品
  6
CONTINUOUS
 62
     0
100
AcDbLine
 10
449.881821651
 20
384
 11
450.881821651
 21
385
  0
LINE
  5
64E
100
AcDbEntity
  8
_0-3_躯体と製品
  6
CONTINUOUS
 62
     0
100
AcDbLine
 10
451.2960352134
 20
384
 11
452.2960352134
 21
385
  0
LINE
  5
64F
100
AcDbEntity
  8
_0-3_躯体と製品
  6
CONTINUOUS
 62
     0
100
AcDbLine
 10
452.7102487758
 20
384
 11
453.7102487758
 21
385
  0
LINE
  5
650
100
AcDbEntity
  8
_0-3_躯体と製品
  6
CONTINUOUS
 62
     0
100
AcDbLine
 10
454.1244623381
 20
384
 11
455
 21
384.8755376619
  0
LINE
  5
651
100
AcDbEntity
  8
_0-3_躯体と製品
  6
CONTINUOUS
 62
     0
100
AcDbLine
 10
455
 20
384
 11
425
 21
384
  0
LINE
  5
652
100
AcDbEntity
  8
_0-3_躯体と製品
  6
CONTINUOUS
 62
     0
100
AcDbLine
 10
425
 20
385
 11
455
 21
385
  0
LINE
  5
653
100
AcDbEntity
  8
_0-3_躯体と製品
  6
CONTINUOUS
 62
     0
100
AcDbLine
 10
455
 20
385
 11
455
 21
384
  0
LINE
  5
654
100
AcDbEntity
  8
_0-3_躯体と製品
  6
CONTINUOUS
 62
     0
100
AcDbLine
 10
425
 20
384
 11
425
 21
385
  0
LINE
  5
655
100
AcDbEntity
  8
_0-3_躯体と製品
  6
CONTINUOUS
 62
     0
100
AcDbLine
 10
440
 20
385
 11
440
 21
386
  0
LINE
  5
656
100
AcDbEntity
  8
_0-3_躯体と製品
  6
CONTINUOUS
 62
     0
100
AcDbLine
 10
394
 20
384
 11
490
 21
384
  0
LINE
  5
657
100
AcDbEntity
  8
_0-3_躯体と製品
  6
CONTINUOUS
 62
     0
100
AcDbLine
 10
490
 20
384
 11
490
 21
244
  0
LINE
  5
658
100
AcDbEntity
  8
_0-2_寸法
  6
CONTINUOUS
 62
     0
100
AcDbLine
 10
620
 20
339.0825286933
 11
620
 21
259.0434120444
  0
CIRCLE
  5
659
100
AcDbEntity
  8
_0-2_寸法
  6
CONTINUOUS
 62
     0
100
AcDbCircle
 10
620
 20
339.0825286933
 40
1.4
  0
LINE
  5
65A
100
AcDbEntity
  8
_0-2_寸法
  6
CONTINUOUS
 62
     0
100
AcDbLine
 10
622
 20
341.0825286933
 11
660
 21
341.0825286933
  0
LINE
  5
65B
100
AcDbEntity
  8
_0-2_寸法
  6
CONTINUOUS
 62
     0
100
AcDbLine
 10
660
 20
342.0825286933
 11
660
 21
383
  0
TEXT
  5
65C
100
AcDbEntity
  8
_0-2_寸法
  6
CONTINUOUS
 62
     0
100
AcDbText
 10
659
 20
360.0412643467
 40
5
  1
44
 50
90
  7
STANDARD
100
AcDbText
  0
CIRCLE
  5
65D
100
AcDbEntity
  8
_0-2_寸法
  6
CONTINUOUS
 62
     0
100
AcDbCircle
 10
622
 20
341.0825286933
 40
1.4
  0
CIRCLE
  5
65E
100
AcDbEntity
  8
_0-2_寸法
  6
CONTINUOUS
 62
     0
100
AcDbCircle
 10
660
 20
384
 40
1.4
  0
LINE
  5
65F
100
AcDbEntity
  8
_0-2_寸法
  6
CONTINUOUS
 62
     0
100
AcDbLine
 10
622
 20
341.0825286933
 11
680
 21
341.0825286933
  0
LINE
  5
660
100
AcDbEntity
  8
_0-2_寸法
  6
CONTINUOUS
 62
     0
100
AcDbLine
 10
622
 20
431.0825286933
 11
680
 21
431.0825286933
  0
LINE
  5
661
100
AcDbEntity
  8
_0-2_寸法
  6
CONTINUOUS
 62
     0
100
AcDbLine
 10
680
 20
342.0825286933
 11
680
 21
430.0825286933
  0
TEXT
  5
662
100
AcDbEntity
  8
_0-2_寸法
  6
CONTINUOUS
 62
     0
100
AcDbText
 10
679
 20
383.5825286933
 40
5
  1
90
 50
90
  7
STANDARD
100
AcDbText
  0
CIRCLE
  5
663
100
AcDbEntity
  8
_0-2_寸法
  6
CONTINUOUS
 62
     0
100
AcDbCircle
 10
622
 20
341.0825286933
 40
1.4
  0
CIRCLE
  5
664
100
AcDbEntity
  8
_0-2_寸法
  6
CONTINUOUS
 62
     0
100
AcDbCircle
 10
622
 20
431.0825286933
 40
1.4
  0
CIRCLE
  5
665
100
AcDbEntity
  8
_0-2_寸法
  6
CONTINUOUS
 62
     0
100
AcDbCircle
 10
680
 20
431.0825286933
 40
1.4
  0
LINE
  5
666
100
AcDbEntity
  8
_0-2_寸法
  6
CONTINUOUS
 62
     0
100
AcDbLine
 10
620
 20
433.0825286933
 11
620
 21
485.1328167658
  0
CIRCLE
  5
667
100
AcDbEntity
  8
_0-2_寸法
  6
CONTINUOUS
 62
     0
100
AcDbCircle
 10
620
 20
433.0825286933
 40
1.4
  0
LINE
  5
668
100
AcDbEntity
  8
_0-2_寸法
  6
CONTINUOUS
 62
     0
100
AcDbLine
 10
620
 20
433.0825286933
 11
620
 21
562.1328167658
  0
CIRCLE
  5
669
100
AcDbEntity
  8
_0-2_寸法
  6
CONTINUOUS
 62
     0
100
AcDbCircle
 10
620
 20
433.0825286933
 40
1.4
  0
LINE
  5
66A
100
AcDbEntity
  8
_0-2_寸法
  6
CONTINUOUS
 62
     0
100
AcDbLine
 10
492.9650772527
 20
384
 11
660
 21
384
  0
CIRCLE
  5
66B
100
AcDbEntity
  8
_0-2_寸法
  6
CONTINUOUS
 62
     0
100
AcDbCircle
 10
492.9650772527
 20
384
 40
1.4
  0
CIRCLE
  5
66C
100
AcDbEntity
  8
_0-2_寸法
  6
CONTINUOUS
 62
     0
100
AcDbCircle
 10
490
 20
324
 40
1.4
  0
CIRCLE
  5
66D
100
AcDbEntity
  8
_0-2_寸法
  6
CONTINUOUS
 62
     0
100
AcDbCircle
 10
490
 20
324
 40
1.4
  0
CIRCLE
  5
66E
100
AcDbEntity
  8
_0-2_寸法
  6
CONTINUOUS
 62
     0
100
AcDbCircle
 10
440
 20
324
 40
1.4
  0
TEXT
  5
66F
100
AcDbEntity
  8
_0-2_寸法
  6
CONTINUOUS
 62
     0
100
AcDbText
 10
462.5
 20
325
 40
5
  1
50
  7
STANDARD
100
AcDbText
  0
LINE
  5
670
100
AcDbEntity
  8
_0-2_寸法
  6
CONTINUOUS
 62
     0
100
AcDbLine
 10
441
 20
324
 11
489
 21
324
  0
LINE
  5
671
100
AcDbEntity
  8
_0-0_0
  6
CONTINUOUS
 62
     0
100
AcDbLine
 10
550.5096449382
 20
410.767667783
 11
550.4154402169
 21
408.9701346204
  0
ARC
  5
672
100
AcDbEntity
  8
_0-0_0
  6
CONTINUOUS
 62
     0
100
AcDbCircle
 10
617
 20
344.0825286933
 40
1.5
100
AcDbArc
 50
-90
 51
0
  0
LINE
  5
673
100
AcDbEntity
  8
_0-0_0
  6
CONTINUOUS
 62
     0
100
AcDbLine
 10
618.5
 20
428.2356349932
 11
618.5
 21
344.0825286933
  0
ARC
  5
674
100
AcDbEntity
  8
_0-0_0
  6
CONTINUOUS
 62
     0
100
AcDbCircle
 10
617
 20
428.2356349932
 40
1.5
100
AcDbArc
 50
0
 51
86.99999999999
  0
LINE
  5
675
100
AcDbEntity
  8
_0-0_0
  6
CONTINUOUS
 62
     0
100
AcDbLine
 10
235.8691601094
 20
449.7119144471
 11
617.0785039344
 21
429.7335792953
  0
LINE
  5
676
100
AcDbEntity
  8
_0-3_躯体と製品
  6
CONTINUOUS
 62
     0
100
AcDbLine
 10
610
 20
341.0825286933
 11
610
 21
342.5825286933
  0
LINE
  5
677
100
AcDbEntity
  8
_0-0_0
  6
CONTINUOUS
 62
     0
100
AcDbLine
 10
617
 20
342.5825286933
 11
610
 21
342.5825286933
  0
LINE
  5
678
100
AcDbEntity
  8
_0-0_0
  6
CONTINUOUS
 62
     0
100
AcDbLine
 10
475.6859240578
 20
385
 11
475.6859240578
 21
384
  0
LINE
  5
679
100
AcDbEntity
  8
_0-3_躯体と製品
  6
CONTINUOUS
 62
     0
100
AcDbLine
 10
475.6859240578
 20
385
 11
461
 21
385
  0
ARC
  5
67A
100
AcDbEntity
  8
_0-0_0
  6
CONTINUOUS
 62
     0
100
AcDbCircle
 10
457.4999999999
 20
403.999998001
 40
1.00000000005
100
AcDbArc
 50
0
 51
180
  0
LINE
  5
67B
100
AcDbEntity
  8
_0-0_0
  6
CONTINUOUS
 62
     0
100
AcDbLine
 10
456.4999999999
 20
396.4999980006
 11
456.4999999999
 21
403.999998001
  0
ARC
  5
67C
100
AcDbEntity
  8
_0-0_0
  6
CONTINUOUS
 62
     0
100
AcDbCircle
 10
456.1999999999
 20
392.2999980004
 40
0.300000000015
100
AcDbArc
 50
-90
 51
0
  0
LINE
  5
67D
100
AcDbEntity
  8
_0-0_0
  6
CONTINUOUS
 62
     0
100
AcDbLine
 10
456.4999999999
 20
392.2999980004
 11
456.4999999999
 21
394.1999980005
  0
ARC
  5
67E
100
AcDbEntity
  8
_0-0_0
  6
CONTINUOUS
 62
     0
100
AcDbCircle
 10
456.1999999999
 20
394.1999980005
 40
0.300000000015
100
AcDbArc
 50
0
 51
90
  0
ARC
  5
67F
100
AcDbEntity
  8
_0-0_0
  6
CONTINUOUS
 62
     0
100
AcDbCircle
 10
455.9999999999
 20
396.4999980006
 40
0.500000000025
100
AcDbArc
 50
-90
 51
0
  0
ARC
  5
680
100
AcDbEntity
  8
_0-0_0
  6
CONTINUOUS
 62
     0
100
AcDbCircle
 10
459
 20
388.9999980002
 40
0.500000000025
100
AcDbArc
 50
180
 51
270
  0
LINE
  5
681
100
AcDbEntity
  8
_0-0_0
  6
CONTINUOUS
 62
     0
100
AcDbLine
 10
458.5
 20
386.9999980001
 11
458.5
 21
385.9999980001
  0
LINE
  5
682
100
AcDbEntity
  8
_0-0_0
  6
CONTINUOUS
 62
     0
100
AcDbLine
 10
456.4999999999
 20
386.4999980001
 11
456.4999999999
 21
385.9999980001
  0
ARC
  5
683
100
AcDbEntity
  8
_0-0_0
  6
CONTINUOUS
 62
     0
100
AcDbCircle
 10
456.1999999999
 20
390.1999980003
 40
0.300000000015
100
AcDbArc
 50
0
 51
90
  0
LINE
  5
684
100
AcDbEntity
  8
_0-0_0
  6
CONTINUOUS
 62
     0
100
AcDbLine
 10
459
 20
388.4999980002
 11
462.9724640002
 21
388.4999980002
  0
LINE
  5
685
100
AcDbEntity
  8
_0-0_0
  6
CONTINUOUS
 62
     0
100
AcDbLine
 10
456.4999999999
 20
388.9999980002
 11
456.4999999999
 21
390.1999980003
  0
ARC
  5
686
100
AcDbEntity
  8
_0-0_0
  6
CONTINUOUS
 62
     0
100
AcDbCircle
 10
455.9999999999
 20
388.9999980002
 40
0.500000000025
100
AcDbArc
 50
-90
 51
0
  0
LINE
  5
687
100
AcDbEntity
  8
_0-0_0
  6
CONTINUOUS
 62
     0
100
AcDbLine
 10
469.0000000005
 20
386.9999980001
 11
469.0000000005
 21
385.9999980001
  0
LINE
  5
688
100
AcDbEntity
  8
_0-0_0
  6
CONTINUOUS
 62
     0
100
AcDbLine
 10
458.5
 20
386.9999980001
 11
469.0000000005
 21
386.9999980001
  0
LINE
  5
689
100
AcDbEntity
  8
_0-0_0
  6
CONTINUOUS
 62
     0
100
AcDbLine
 10
458.75
 20
393.5000000001
 11
458.5
 21
393.5000000001
  0
ARC
  5
68A
100
AcDbEntity
  8
_0-0_0
  6
CONTINUOUS
 62
     0
100
AcDbCircle
 10
458.75
 20
392.5000000001
 40
1
100
AcDbArc
 50
0
 51
90
  0
LINE
  5
68B
100
AcDbEntity
  8
_0-0_0
  6
CONTINUOUS
 62
     0
100
AcDbLine
 10
459.75
 20
392.5000000001
 11
459.75
 21
392.0000000001
  0
LINE
  5
68C
100
AcDbEntity
  8
_0-0_0
  6
CONTINUOUS
 62
     0
100
AcDbLine
 10
458.5
 20
392.0000000001
 11
459.75
 21
392.0000000001
  0
LINE
  5
68D
100
AcDbEntity
  8
_0-0_0
  6
CONTINUOUS
 62
     0
100
AcDbLine
 10
463.25
 20
392.0000000001
 11
464.5
 21
392.0000000001
  0
LINE
  5
68E
100
AcDbEntity
  8
_0-0_0
  6
CONTINUOUS
 62
     0
100
AcDbLine
 10
463.25
 20
392.5000000001
 11
463.25
 21
392.0000000001
  0
ARC
  5
68F
100
AcDbEntity
  8
_0-0_0
  6
CONTINUOUS
 62
     0
100
AcDbCircle
 10
464.25
 20
392.5000000001
 40
1
100
AcDbArc
 50
90
 51
180
  0
LINE
  5
690
100
AcDbEntity
  8
_0-0_0
  6
CONTINUOUS
 62
     0
100
AcDbLine
 10
465.5
 20
393.5000000001
 11
464.25
 21
393.5000000001
  0
ARC
  5
691
100
AcDbEntity
  8
_0-0_0
  6
CONTINUOUS
 62
     0
100
AcDbCircle
 10
464
 20
389.0000000001
 40
0.5
100
AcDbArc
 50
-90
 51
0
  0
ARC
  5
692
100
AcDbEntity
  8
_0-0_0
  6
CONTINUOUS
 62
     0
100
AcDbCircle
 10
465.5
 20
393.0000000001
 40
0.5
100
AcDbArc
 50
0
 51
90
  0
LINE
  5
693
100
AcDbEntity
  8
_0-0_0
  6
CONTINUOUS
 62
     0
100
AcDbLine
 10
466
 20
393.0000000001
 11
466
 21
388.5000000001
  0
LINE
  5
694
100
AcDbEntity
  8
_0-0_0
  6
CONTINUOUS
 62
     0
100
AcDbLine
 10
464.5
 20
389.0000000001
 11
464.5
 21
392.0000000001
  0
LINE
  5
695
100
AcDbEntity
  8
_0-0_0
  6
CONTINUOUS
 62
     0
100
AcDbLine
 10
458.5
 20
392.0000000001
 11
458.5
 21
388.9999980001
  0
LINE
  5
696
100
AcDbEntity
  8
_0-0_0
  6
CONTINUOUS
 62
     0
100
AcDbLine
 10
458.5
 20
403.9999980001
 11
458.5
 21
393.5000000001
  0
LINE
  5
697
100
AcDbEntity
  8
_0-0_0
  6
CONTINUOUS
 62
     0
100
AcDbLine
 10
464
 20
388.7500000001
 11
458.999998
 21
388.7500000001
  0
LINE
  5
698
100
AcDbEntity
  8
_0-0_0
  6
CONTINUOUS
 62
     0
100
AcDbLine
 10
458.75
 20
388.9999980001
 11
458.75
 21
391.7500000001
  0
LINE
  5
699
100
AcDbEntity
  8
_0-0_0
  6
CONTINUOUS
 62
     0
100
AcDbLine
 10
464.25
 20
389.0000000001
 11
464.25
 21
391.7500000001
  0
ARC
  5
69A
100
AcDbEntity
  8
_0-0_0
  6
CONTINUOUS
 62
     0
100
AcDbCircle
 10
458.999998
 20
388.9999980001
 40
0.250001
100
AcDbArc
 50
180
 51
270
  0
ARC
  5
69B
100
AcDbEntity
  8
_0-0_0
  6
CONTINUOUS
 62
     0
100
AcDbCircle
 10
464
 20
389.0000000001
 40
0.25
100
AcDbArc
 50
-90
 51
0
  0
LINE
  5
69C
100
AcDbEntity
  8
_0-0_0
  6
CONTINUOUS
 62
     0
100
AcDbLine
 10
470
 20
388.5000000001
 11
466
 21
388.5000000001
  0
LINE
  5
69D
100
AcDbEntity
  8
_0-0_0
  6
CONTINUOUS
 62
     0
100
AcDbLine
 10
464
 20
388.5000000001
 11
458.999998
 21
388.5000000001
  0
LINE
  5
69E
100
AcDbEntity
  8
_0-0_0
  6
CONTINUOUS
 62
     0
100
AcDbLine
 10
466.0059488738
 20
387.0000000001
 11
469
 21
387.0000000001
  0
LINE
  5
69F
100
AcDbEntity
  8
_0-0_0
  6
CONTINUOUS
 62
     0
100
AcDbLine
 10
458.5
 20
387.0000000001
 11
466.0059488738
 21
387.0000000001
  0
LINE
  5
6A0
100
AcDbEntity
  8
_0-0_0
  6
CONTINUOUS
 62
     0
100
AcDbLine
 10
463.0000000001
 20
391.7500000001
 11
464.25
 21
391.7500000001
  0
LINE
  5
6A1
100
AcDbEntity
  8
_0-0_0
  6
CONTINUOUS
 62
     0
100
AcDbLine
 10
458.75
 20
391.7500000001
 11
460.0000000001
 21
391.7500000001
  0
ARC
  5
6A2
100
AcDbEntity
  8
_0-0_0
  6
CONTINUOUS
 62
     0
100
AcDbCircle
 10
470
 20
388.0000000001
 40
0.5
100
AcDbArc
 50
0
 51
90
  0
LINE
  5
6A3
100
AcDbEntity
  8
_0-0_0
  6
CONTINUOUS
 62
     0
100
AcDbLine
 10
470.5
 20
388.0000000001
 11
470.5
 21
385.9999980001
  0
LINE
  5
6A4
100
AcDbEntity
  8
_0-0_0
  6
CONTINUOUS
 62
     0
100
AcDbLine
 10
458.5
 20
385.9999980001
 11
456.499999
 21
385.9999980001
  0
LINE
  5
6A5
100
AcDbEntity
  8
_0-0_0
  6
CONTINUOUS
 62
     0
100
AcDbLine
 10
470.5
 20
385.9999980001
 11
469
 21
385.9999980001
  0
LINE
  5
6A6
100
AcDbEntity
  8
_0-0_0
  6
CONTINUOUS
 62
     0
100
AcDbLine
 10
469
 20
387.0000000001
 11
469
 21
385.9999980001
  0
LINE
  5
6A7
100
AcDbEntity
  8
_0-0_0
  6
CONTINUOUS
 62
     0
100
AcDbLine
 10
456.499999
 20
388.9999980001
 11
456.499999
 21
390.1999980001
  0
LINE
  5
6A8
100
AcDbEntity
  8
_0-0_0
  6
CONTINUOUS
 62
     0
100
AcDbLine
 10
456.499999
 20
386.4999990001
 11
456.499999
 21
385.9999980001
  0
LINE
  5
6A9
100
AcDbEntity
  8
_0-0_0
  6
CONTINUOUS
 62
     0
100
AcDbLine
 10
458.5
 20
387.0000000001
 11
458.5
 21
385.9999980001
  0
ARC
  5
6AA
100
AcDbEntity
  8
_0-0_0
  6
CONTINUOUS
 62
     0
100
AcDbCircle
 10
458.999998
 20
388.9999980001
 40
0.500001
100
AcDbArc
 50
180
 51
270
  0
LINE
  5
6AB
100
AcDbEntity
  8
_0-0_0
  6
CONTINUOUS
 62
     0
100
AcDbLine
 10
456.499999
 20
392.2999980001
 11
456.499999
 21
394.2000000001
  0
LINE
  5
6AC
100
AcDbEntity
  8
_0-0_0
  6
CONTINUOUS
 62
     0
100
AcDbLine
 10
456.499999
 20
396.4999980001
 11
456.499999
 21
403.9999980001
  0
ARC
  5
6AD
100
AcDbEntity
  8
_0-0_0
  6
CONTINUOUS
 62
     0
100
AcDbCircle
 10
457.499998
 20
403.9999980001
 40
0.999999
100
AcDbArc
 50
0
 51
180
  0
ARC
  5
6AE
100
AcDbEntity
  8
_0-0_0
  6
CONTINUOUS
 62
     0
100
AcDbCircle
 10
455.999998
 20
388.9999980001
 40
0.500001
100
AcDbArc
 50
-90
 51
0
  0
ARC
  5
6AF
100
AcDbEntity
  8
_0-0_0
  6
CONTINUOUS
 62
     0
100
AcDbCircle
 10
456.199999
 20
390.1999980001
 40
0.3
100
AcDbArc
 50
0
 51
90
  0
ARC
  5
6B0
100
AcDbEntity
  8
_0-0_0
  6
CONTINUOUS
 62
     0
100
AcDbCircle
 10
455.999998
 20
396.4999980001
 40
0.500001
100
AcDbArc
 50
-90
 51
0
  0
ARC
  5
6B1
100
AcDbEntity
  8
_0-0_0
  6
CONTINUOUS
 62
     0
100
AcDbCircle
 10
456.199999
 20
394.2000000001
 40
0.3
100
AcDbArc
 50
0
 51
90
  0
ARC
  5
6B2
100
AcDbEntity
  8
_0-0_0
  6
CONTINUOUS
 62
     0
100
AcDbCircle
 10
456.199999
 20
392.2999980001
 40
0.3
100
AcDbArc
 50
-90
 51
0
  0
LINE
  5
6B3
100
AcDbEntity
  8
_0-0_0
  6
CONTINUOUS
 62
     0
100
AcDbLine
 10
467.1952835271
 20
426.6610789352
 11
477.6527310637
 21
408.5482484842
  0
CIRCLE
  5
6B4
100
AcDbEntity
  8
_0-0_0
  6
CONTINUOUS
 62
     0
100
AcDbCircle
 10
467.1952835271
 20
426.6610789352
 40
0.9
  0
ARC
  5
6B5
100
AcDbEntity
  8
_0-0_0
  6
CONTINUOUS
 62
     0
100
AcDbCircle
 10
486.0345272615
 20
411.8970293899
 40
23.08754100601
100
AcDbArc
 50
82.80133910481
 51
183.8159758207
  0
ARC
  5
6B6
100
AcDbEntity
  8
_0-0_0
  6
CONTINUOUS
 62
     0
100
AcDbCircle
 10
484.9847706756
 20
411.1282936223
 40
25
100
AcDbArc
 50
80.59045565079
 51
182
  0
LINE
  5
6B7
100
AcDbEntity
  8
_0-0_0
  6
CONTINUOUS
 62
     0
100
AcDbLine
 10
463.0000000001
 20
391.7500000001
 11
463.0000000001
 21
412.132818856
  0
LINE
  5
6B8
100
AcDbEntity
  8
_0-0_0
  6
CONTINUOUS
 62
     0
100
AcDbLine
 10
460.0000000001
 20
391.7500000001
 11
460.0000000001
 21
410.66955586
  0
ARC
  5
6B9
100
AcDbEntity
  8
_0-0_0
  6
CONTINUOUS
 62
     0
100
AcDbCircle
 10
488.9902831108
 20
435.2986446775
 40
0.5
100
AcDbArc
 50
-97.19866089519
 51
80.59045565079
  0
LINE
  5
6BA
100
AcDbEntity
  8
_0-3_躯体と製品
  6
CONTINUOUS
 62
     0
100
AcDbLine
 10
458.5
 20
389
 11
458.5
 21
392.0000000001
  0
LINE
  5
6BB
100
AcDbEntity
  8
_0-3_躯体と製品
  6
CONTINUOUS
 62
     0
100
AcDbLine
 10
458.5
 20
393.5000000001
 11
458.5
 21
404
  0
LINE
  5
6BC
100
AcDbEntity
  8
_0-0_0
  6
CONTINUOUS
 62
     0
100
AcDbLine
 10
458.5
 20
403.999998001
 11
458.5
 21
393.5000000001
  0
LINE
  5
6BD
100
AcDbEntity
  8
_0-0_0
  6
CONTINUOUS
 62
     0
100
AcDbLine
 10
458.5
 20
392.0000000001
 11
458.5
 21
388.9999980002
  0
CIRCLE
  5
6BE
100
AcDbEntity
  8
_0-4_図枠
  6
CONTINUOUS
 62
     0
100
AcDbCircle
 10
481.9769696589
 20
401.0584475335
 40
6
  0
LINE
  5
6BF
100
AcDbEntity
  8
_0-4_図枠
  6
CONTINUOUS
 62
     0
100
AcDbLine
 10
467.1952835271
 20
426.6610789352
 11
478.9769696589
 21
406.2545999562
  0
TEXT
  5
6C0
100
AcDbEntity
  8
_0-4_図枠
  6
CONTINUOUS
 62
     0
100
AcDbText
 10
478.9769696589
 20
398.0584475335
 40
5
  1
11
  7
STANDARD
100
AcDbText
  0
TEXT
  5
6C1
100
AcDbEntity
  8
_0-4_図枠
  6
CONTINUOUS
 62
     0
100
AcDbText
 10
461.9591688599
 20
370.8859835099
 40
5
  1
７
  7
STANDARD
100
AcDbText
  0
TEXT
  5
6C2
100
AcDbEntity
  8
_0-4_図枠
  6
CONTINUOUS
 62
     0
100
AcDbText
 10
460.5097964936
 20
355.4600133715
 40
5
  1
15
  7
STANDARD
100
AcDbText
  0
TEXT
  5
6C3
100
AcDbEntity
  8
_0-4_図枠
  6
CONTINUOUS
 62
     0
100
AcDbText
 10
421.5823748293
 20
333.3286002038
 40
5
  1
16
  7
STANDARD
100
AcDbText
  0
TEXT
  5
6C4
100
AcDbEntity
  8
_0-4_図枠
  6
CONTINUOUS
 62
     0
100
AcDbText
 10
416.9309946151
 20
364.2438685256
 40
5
  1
19
  7
STANDARD
100
AcDbText
  0
TEXT
  5
6C5
100
AcDbEntity
  8
_0-4_図枠
  6
CONTINUOUS
 62
     0
100
AcDbText
 10
503.8986558504
 20
443.9136998075
 40
5
  1
５
  7
STANDARD
100
AcDbText
  0
TEXT
  5
6C6
100
AcDbEntity
  8
_0-4_図枠
  6
CONTINUOUS
 62
     0
100
AcDbText
 10
499.75
 20
217.5
 40
5
  1
１５０ＦＹＫＧ－Ｓ４２５
  7
STANDARD
100
AcDbText
  0
TEXT
  5
6C7
100
AcDbEntity
  8
_0-4_図枠
  6
CONTINUOUS
 62
     0
100
AcDbText
 10
695
 20
172.5
 40
5
  1
130
  7
STANDARD
100
AcDbText
  0
TEXT
  5
6C8
100
AcDbEntity
  8
_0-4_図枠
  6
CONTINUOUS
 62
     0
100
AcDbText
 10
666.75
 20
172.5
 40
5
  1
71
  7
STANDARD
100
AcDbText
  0
TEXT
  5
6C9
100
AcDbEntity
  8
_0-4_図枠
  6
CONTINUOUS
 62
     0
100
AcDbText
 10
695
 20
181.5
 40
5
  1
128
  7
STANDARD
100
AcDbText
  0
TEXT
  5
6CA
100
AcDbEntity
  8
_0-4_図枠
  6
CONTINUOUS
 62
     0
100
AcDbText
 10
695
 20
190.5
 40
5
  1
127
  7
STANDARD
100
AcDbText
  0
TEXT
  5
6CB
100
AcDbEntity
  8
_0-4_図枠
  6
CONTINUOUS
 62
     0
100
AcDbText
 10
695
 20
199.5
 40
5
  1
126
  7
STANDARD
100
AcDbText
  0
TEXT
  5
6CC
100
AcDbEntity
  8
_0-4_図枠
  6
CONTINUOUS
 62
     0
100
AcDbText
 10
695
 20
208.5
 40
5
  1
124
  7
STANDARD
100
AcDbText
  0
TEXT
  5
6CD
100
AcDbEntity
  8
_0-4_図枠
  6
CONTINUOUS
 62
     0
100
AcDbText
 10
695
 20
217.5
 40
5
  1
123
  7
STANDARD
100
AcDbText
  0
TEXT
  5
6CE
100
AcDbEntity
  8
_0-4_図枠
  6
CONTINUOUS
 62
     0
100
AcDbText
 10
666.75
 20
181.5
 40
5
  1
70
  7
STANDARD
100
AcDbText
  0
TEXT
  5
6CF
100
AcDbEntity
  8
_0-4_図枠
  6
CONTINUOUS
 62
     0
100
AcDbText
 10
666.75
 20
190.5
 40
5
  1
68
  7
STANDARD
100
AcDbText
  0
TEXT
  5
6D0
100
AcDbEntity
  8
_0-4_図枠
  6
CONTINUOUS
 62
     0
100
AcDbText
 10
666.75
 20
199.5
 40
5
  1
67
  7
STANDARD
100
AcDbText
  0
TEXT
  5
6D1
100
AcDbEntity
  8
_0-4_図枠
  6
CONTINUOUS
 62
     0
100
AcDbText
 10
666.75
 20
208.5
 40
5
  1
66
  7
STANDARD
100
AcDbText
  0
TEXT
  5
6D2
100
AcDbEntity
  8
_0-4_図枠
  6
CONTINUOUS
 62
     0
100
AcDbText
 10
666.75
 20
217.5
 40
5
  1
64
  7
STANDARD
100
AcDbText
  0
TEXT
  5
6D3
100
AcDbEntity
  8
_0-4_図枠
  6
CONTINUOUS
 62
     0
100
AcDbText
 10
605
 20
172.5
 40
5
  1
535
  7
STANDARD
100
AcDbText
  0
TEXT
  5
6D4
100
AcDbEntity
  8
_0-4_図枠
  6
CONTINUOUS
 62
     0
100
AcDbText
 10
575
 20
172.5
 40
5
  1
550
  7
STANDARD
100
AcDbText
  0
TEXT
  5
6D5
100
AcDbEntity
  8
_0-4_図枠
  6
CONTINUOUS
 62
     0
100
AcDbText
 10
605
 20
181.5
 40
5
  1
510
  7
STANDARD
100
AcDbText
  0
TEXT
  5
6D6
100
AcDbEntity
  8
_0-4_図枠
  6
CONTINUOUS
 62
     0
100
AcDbText
 10
605
 20
190.5
 40
5
  1
485
  7
STANDARD
100
AcDbText
  0
TEXT
  5
6D7
100
AcDbEntity
  8
_0-4_図枠
  6
CONTINUOUS
 62
     0
100
AcDbText
 10
605
 20
199.5
 40
5
  1
460
  7
STANDARD
100
AcDbText
  0
TEXT
  5
6D8
100
AcDbEntity
  8
_0-4_図枠
  6
CONTINUOUS
 62
     0
100
AcDbText
 10
605
 20
208.5
 40
5
  1
435
  7
STANDARD
100
AcDbText
  0
TEXT
  5
6D9
100
AcDbEntity
  8
_0-4_図枠
  6
CONTINUOUS
 62
     0
100
AcDbText
 10
605
 20
217.5
 40
5
  1
410
  7
STANDARD
100
AcDbText
  0
TEXT
  5
6DA
100
AcDbEntity
  8
_0-4_図枠
  6
CONTINUOUS
 62
     0
100
AcDbText
 10
575
 20
181.5
 40
5
  1
525
  7
STANDARD
100
AcDbText
  0
TEXT
  5
6DB
100
AcDbEntity
  8
_0-4_図枠
  6
CONTINUOUS
 62
     0
100
AcDbText
 10
575
 20
190.5
 40
5
  1
500
  7
STANDARD
100
AcDbText
  0
TEXT
  5
6DC
100
AcDbEntity
  8
_0-4_図枠
  6
CONTINUOUS
 62
     0
100
AcDbText
 10
575
 20
199.5
 40
5
  1
475
  7
STANDARD
100
AcDbText
  0
TEXT
  5
6DD
100
AcDbEntity
  8
_0-4_図枠
  6
CONTINUOUS
 62
     0
100
AcDbText
 10
575
 20
208.5
 40
5
  1
450
  7
STANDARD
100
AcDbText
  0
TEXT
  5
6DE
100
AcDbEntity
  8
_0-4_図枠
  6
CONTINUOUS
 62
     0
100
AcDbText
 10
575
 20
217.5
 40
5
  1
425
  7
STANDARD
100
AcDbText
  0
TEXT
  5
6DF
100
AcDbEntity
  8
_0-4_図枠
  6
CONTINUOUS
 62
     0
100
AcDbText
 10
635
 20
172.5
 40
5
  1
245
  7
STANDARD
100
AcDbText
  0
TEXT
  5
6E0
100
AcDbEntity
  8
_0-4_図枠
  6
CONTINUOUS
 62
     0
100
AcDbText
 10
635
 20
181.5
 40
5
  1
220
  7
STANDARD
100
AcDbText
  0
TEXT
  5
6E1
100
AcDbEntity
  8
_0-4_図枠
  6
CONTINUOUS
 62
     0
100
AcDbText
 10
635
 20
190.5
 40
5
  1
195
  7
STANDARD
100
AcDbText
  0
TEXT
  5
6E2
100
AcDbEntity
  8
_0-4_図枠
  6
CONTINUOUS
 62
     0
100
AcDbText
 10
635
 20
199.5
 40
5
  1
170
  7
STANDARD
100
AcDbText
  0
TEXT
  5
6E3
100
AcDbEntity
  8
_0-4_図枠
  6
CONTINUOUS
 62
     0
100
AcDbText
 10
635
 20
208.5
 40
5
  1
145
  7
STANDARD
100
AcDbText
  0
TEXT
  5
6E4
100
AcDbEntity
  8
_0-4_図枠
  6
CONTINUOUS
 62
     0
100
AcDbText
 10
635
 20
217.5
 40
5
  1
120
  7
STANDARD
100
AcDbText
  0
TEXT
  5
6E5
100
AcDbEntity
  8
_0-4_図枠
  6
CONTINUOUS
 62
     0
100
AcDbText
 10
499.75
 20
208.5
 40
5
  1
　　  〃　 　４５０
  7
STANDARD
100
AcDbText
  0
TEXT
  5
6E6
100
AcDbEntity
  8
_0-4_図枠
  6
CONTINUOUS
 62
     0
100
AcDbText
 10
499.75
 20
199.5
 40
5
  1
　　  〃　 　４７５
  7
STANDARD
100
AcDbText
  0
TEXT
  5
6E7
100
AcDbEntity
  8
_0-4_図枠
  6
CONTINUOUS
 62
     0
100
AcDbText
 10
499.75
 20
190.5
 40
5
  1
　　  〃　 　５００
  7
STANDARD
100
AcDbText
  0
TEXT
  5
6E8
100
AcDbEntity
  8
_0-4_図枠
  6
CONTINUOUS
 62
     0
100
AcDbText
 10
499.75
 20
181.5
 40
5
  1
　　  〃　 　５２５
  7
STANDARD
100
AcDbText
  0
TEXT
  5
6E9
100
AcDbEntity
  8
_0-4_図枠
  6
CONTINUOUS
 62
     0
100
AcDbText
 10
499.75
 20
172.5
 40
5
  1
　　  〃　 　５５０
  7
STANDARD
100
AcDbText
  0
LINE
  5
6EA
100
AcDbEntity
  8
_0-4_図枠
  6
CONTINUOUS
 62
     0
100
AcDbLine
 10
490
 20
234
 11
490
 21
171
  0
LINE
  5
6EB
100
AcDbEntity
  8
_0-4_図枠
  6
CONTINUOUS
 62
     0
100
AcDbLine
 10
565
 20
234
 11
565
 21
171
  0
LINE
  5
6EC
100
AcDbEntity
  8
_0-4_図枠
  6
CONTINUOUS
 62
     0
100
AcDbLine
 10
595
 20
234
 11
595
 21
171
  0
LINE
  5
6ED
100
AcDbEntity
  8
_0-4_図枠
  6
CONTINUOUS
 62
     0
100
AcDbLine
 10
625
 20
234
 11
625
 21
171
  0
LINE
  5
6EE
100
AcDbEntity
  8
_0-4_図枠
  6
CONTINUOUS
 62
     0
100
AcDbLine
 10
655
 20
234
 11
655
 21
171
  0
LINE
  5
6EF
100
AcDbEntity
  8
_0-4_図枠
  6
CONTINUOUS
 62
     0
100
AcDbLine
 10
685
 20
234
 11
685
 21
171
  0
LINE
  5
6F0
100
AcDbEntity
  8
_0-4_図枠
  6
CONTINUOUS
 62
     0
100
AcDbLine
 10
715
 20
234
 11
715
 21
171
  0
TEXT
  5
6F1
100
AcDbEntity
  8
_0-0_0
  6
CONTINUOUS
 62
     0
100
AcDbText
 10
146.5
 20
109.9166666667
 40
5
  1
ステン小ねじ
  7
STANDARD
100
AcDbText
  0
TEXT
  5
6F2
100
AcDbEntity
  8
_0-0_0
  6
CONTINUOUS
 62
     0
100
AcDbText
 10
146.5
 20
100.9166666667
 40
4.99
  1
ステン小ねじ
  7
STANDARD
100
AcDbText
  0
TEXT
  5
6F3
100
AcDbEntity
  8
_0-0_0
  6
CONTINUOUS
 62
     0
100
AcDbText
 10
248.375
 20
217.9166666667
 40
4.99
  1
１５０ＦＹＫ－Ｓ４００～５５０
  7
STANDARD
100
AcDbText
  0
TEXT
  5
6F4
100
AcDbEntity
  8
_0-0_0
  6
CONTINUOUS
 62
     0
100
AcDbText
 10
248.375
 20
181.9166666667
 40
4.99
  1
１５０ＦＹＫＨ－４００～５５０
  7
STANDARD
100
AcDbText
  0
TEXT
  5
6F5
100
AcDbEntity
  8
_0-0_0
  6
CONTINUOUS
 62
     0
100
AcDbText
 10
248.375
 20
154.9166666667
 40
5
  1
１５０ＦＹＫＪ－４００～５５０
  7
STANDARD
100
AcDbText
  0
TEXT
  5
6F6
100
AcDbEntity
  8
_0-0_0
  6
CONTINUOUS
 62
     0
100
AcDbText
 10
246.5
 20
136.9166666667
 40
5
  1
ＦＳ６００～８００
  7
STANDARD
100
AcDbText
  0
TEXT
  5
6F7
100
AcDbEntity
  8
_0-0_0
  6
CONTINUOUS
 62
     0
100
AcDbText
 10
246.2916666667
 20
109.9166666667
 40
5
  1
なべＭ６×３５
  7
STANDARD
100
AcDbText
  0
TEXT
  5
6F8
100
AcDbEntity
  8
_0-0_0
  6
CONTINUOUS
 62
     0
100
AcDbText
 10
246.2916666667
 20
100.9166666667
 40
4.99
  1
なべＭ４×１０
  7
STANDARD
100
AcDbText
  0
TEXT
  5
6F9
100
AcDbEntity
  8
_0-0_0
  6
CONTINUOUS
 62
     0
100
AcDbText
 10
245.4583333333
 20
91.91666666667
 40
4.99
  1
Ｍ６×４０
  7
STANDARD
100
AcDbText
  0
TEXT
  5
6FA
100
AcDbEntity
  8
_0-0_0
  6
CONTINUOUS
 62
     0
100
AcDbText
 10
245.875
 20
82.91666666667
 40
4.99
  1
ＡＧ－６６０
  7
STANDARD
100
AcDbText
  0
TEXT
  5
6FB
100
AcDbEntity
  8
_0-0_0
  6
CONTINUOUS
 62
     0
100
AcDbText
 10
248.7916666667
 20
73.91666666667
 40
4.99
  1
φ８×４０
  7
STANDARD
100
AcDbText
  0
TEXT
  5
6FC
100
AcDbEntity
  8
_0-0_0
  6
CONTINUOUS
 62
     0
100
AcDbText
 10
246.0833333333
 20
64.91666666667
 40
4.99
  1
なべ５×５０
  7
STANDARD
100
AcDbText
  0
TEXT
  5
6FD
100
AcDbEntity
  8
_0-0_0
  6
CONTINUOUS
 62
     0
100
AcDbText
 10
246.9166666667
 20
55.91666666667
 40
4.99
  1
１.５×１８×６.５穴
  7
STANDARD
100
AcDbText
  0
TEXT
  5
6FE
100
AcDbEntity
  8
_0-0_0
  6
CONTINUOUS
 62
     0
100
AcDbText
 10
246.9166666667
 20
46.91666666667
 40
4.99
  1
１.５×１８×５.５穴
  7
STANDARD
100
AcDbText
  0
TEXT
  5
6FF
100
AcDbEntity
  8
_0-0_0
  6
CONTINUOUS
 62
     0
100
AcDbText
 10
246.2916666667
 20
37.91666666667
 40
4.99
  1
ｔ１．０×ｗ３０
  7
STANDARD
100
AcDbText
  0
TEXT
  5
700
100
AcDbEntity
  8
_0-2_寸法
  6
CONTINUOUS
 62
     0
100
AcDbText
 10
437.5588244726
 20
260.7235576191
 40
5
  1
Ｃ
  7
STANDARD
100
AcDbText
  0
TEXT
  5
701
100
AcDbEntity
  8
_0-2_寸法
  6
CONTINUOUS
 62
     0
100
AcDbText
 10
547.2021562472
 20
260.3204571346
 40
5
  1
130
  7
STANDARD
100
AcDbText
  0
INSERT
  5
702
100
AcDbEntity
  8
_0-2_寸法
100
AcDbBlockReference
  2
BK2
 10
0
 20
0
  0
INSERT
  5
703
100
AcDbEntity
  8
_0-2_寸法
100
AcDbBlockReference
  2
BK3
 10
0
 20
0
  0
INSERT
  5
704
100
AcDbEntity
  8
_0-2_寸法
100
AcDbBlockReference
  2
BK4
 10
0
 20
0
  0
INSERT
  5
705
100
AcDbEntity
  8
_0-2_寸法
100
AcDbBlockReference
  2
BK5
 10
0
 20
0
  0
INSERT
  5
706
100
AcDbEntity
  8
_0-2_寸法
100
AcDbBlockReference
  2
BK6
 10
0
 20
0
  0
INSERT
  5
707
100
AcDbEntity
  8
_0-2_寸法
100
AcDbBlockReference
  2
BK7
 10
0
 20
0
  0
INSERT
  5
708
100
AcDbEntity
  8
_0-2_寸法
100
AcDbBlockReference
  2
BK8
 10
0
 20
0
  0
INSERT
  5
709
100
AcDbEntity
  8
_0-2_寸法
100
AcDbBlockReference
  2
BK9
 10
0
 20
0
  0
INSERT
  5
70A
100
AcDbEntity
  8
_0-2_寸法
100
AcDbBlockReference
  2
BK10
 10
0
 20
0
  0
INSERT
  5
70B
100
AcDbEntity
  8
_0-2_寸法
100
AcDbBlockReference
  2
BK11
 10
0
 20
0
  0
INSERT
  5
70C
100
AcDbEntity
  8
_0-2_寸法
100
AcDbBlockReference
  2
BK12
 10
0
 20
0
  0
INSERT
  5
70D
100
AcDbEntity
  8
_0-2_寸法
100
AcDbBlockReference
  2
BK13
 10
0
 20
0
  0
INSERT
  5
70E
100
AcDbEntity
  8
_0-2_寸法
100
AcDbBlockReference
  2
BK14
 10
0
 20
0
  0
INSERT
  5
70F
100
AcDbEntity
  8
_0-2_寸法
100
AcDbBlockReference
  2
BK15
 10
0
 20
0
  0
INSERT
  5
710
100
AcDbEntity
  8
_0-2_寸法
100
AcDbBlockReference
  2
BK16
 10
0
 20
0
  0
INSERT
  5
711
100
AcDbEntity
  8
_0-2_寸法
100
AcDbBlockReference
  2
BK17
 10
0
 20
0
  0
INSERT
  5
712
100
AcDbEntity
  8
_0-2_寸法
100
AcDbBlockReference
  2
BK18
 10
0
 20
0
  0
INSERT
  5
713
100
AcDbEntity
  8
_0-2_寸法
100
AcDbBlockReference
  2
BK19
 10
0
 20
0
  0
INSERT
  5
714
100
AcDbEntity
  8
_0-2_寸法
100
AcDbBlockReference
  2
BK20
 10
0
 20
0
  0
INSERT
  5
715
100
AcDbEntity
  8
_0-2_寸法
100
AcDbBlockReference
  2
BK21
 10
0
 20
0
  0
INSERT
  5
716
100
AcDbEntity
  8
_0-2_寸法
100
AcDbBlockReference
  2
BK22
 10
0
 20
0
  0
INSERT
  5
717
100
AcDbEntity
  8
_0-2_寸法
100
AcDbBlockReference
  2
BK23
 10
0
 20
0
  0
INSERT
  5
718
100
AcDbEntity
  8
_0-2_寸法
100
AcDbBlockReference
  2
BK24
 10
0
 20
0
  0
INSERT
  5
719
100
AcDbEntity
  8
_0-2_寸法
100
AcDbBlockReference
  2
BK25
 10
0
 20
0
  0
INSERT
  5
71A
100
AcDbEntity
  8
_0-2_寸法
100
AcDbBlockReference
  2
BK26
 10
0
 20
0
  0
INSERT
  5
71B
100
AcDbEntity
  8
_0-2_寸法
100
AcDbBlockReference
  2
BK27
 10
0
 20
0
  0
INSERT
  5
71C
100
AcDbEntity
  8
_0-2_寸法
100
AcDbBlockReference
  2
BK28
 10
0
 20
0
  0
INSERT
  5
71D
100
AcDbEntity
  8
_0-2_寸法
100
AcDbBlockReference
  2
BK29
 10
0
 20
0
  0
INSERT
  5
71E
100
AcDbEntity
  8
_0-2_寸法
100
AcDbBlockReference
  2
BK30
 10
0
 20
0
  0
INSERT
  5
71F
100
AcDbEntity
  8
_0-2_寸法
100
AcDbBlockReference
  2
BK31
 10
0
 20
0
  0
ENDSEC
  0
SECTION
  2
OBJECTS
  0
DICTIONARY
  5
720
100
AcDbDictionary
  3
ACAD_GROUP
350
721
  3
ACAD_IMAGE_DICT
350
722
  3
ACAD_MLINESTYLE
350
723
  0
DICTIONARY
  5
721
330
720
100
AcDbDictionary
  0
DICTIONARY
  5
722
100
AcDbDictionary
  0
DICTIONARY
  5
723
100
AcDbDictionary
  3
STANDARD
350
724
  0
RASTERVARIABLES
  5
725
100
AcDbRasterVariables
 90
     0
 70
     1
 71
     1
 72
     0
  0
MLINESTYLE
  5
724
100
AcDbMlineStyle
  2
STANDARD
 70
     0
  3

 62
   256
 51
90
 52
90
 71
     0
  0
ENDSEC
  0
EOF
