  0
SECTION
  2
HEADER
  9
$ACADVER
  1
AC1009
  9
$INSBASE
 10
0
 20
0
 30
0
  9
$EXTMIN
 10
0
 20
0
  9
$EXTMAX
 10
840
 20
594
  9
$LIMMIN
 10
0
 20
0
  9
$LIMMAX
 10
840
 20
594
  9
$LTSCALE
 40
2
  0
ENDSEC
  0
SECTION
  2
TABLES
  0
TABLE
  2
LTYPE
 70
     9
  0
LTYPE
  2
CONTINUOUS
 70
    64
  3
実線
 72
    65
 73
     0
 40
0.0
  0
LTYPE
  2
DASHED1
 70
    64
  3
--  --  --  --  --  --  --  --  
 72
    65
 73
     2
 40
2.5
 49
1.25
 49
-1.25
  0
LTYPE
  2
DASHED2
 70
    64
  3
----    ----    ----    ----    
 72
    65
 73
     2
 40
5.0
 49
2.5
 49
-2.5
  0
LTYPE
  2
DASHED3
 70
    64
  3
------  ------  ------  ------  
 72
    65
 73
     2
 40
5.0
 49
3.75
 49
-1.25
  0
LTYPE
  2
CENTER1
 70
    64
  3
----- - ----- - ----- - ----- - 
 72
    65
 73
     4
 40
10.0
 49
6.25
 49
-1.25
 49
1.25
 49
-1.25
  0
LTYPE
  2
CENTER2
 70
    64
  3
----------  --  ----------  --  
 72
    65
 73
     4
 40
20.0
 49
12.5
 49
-2.5
 49
2.5
 49
-2.5
  0
LTYPE
  2
PHANTOM1
 70
    64
  3
--- - - --- - - --- - - --- - - 
 72
    65
 73
     6
 40
10.0
 49
3.25
 49
-1.25
 49
1.25
 49
-1.25
 49
1.25
 49
-1.25
  0
LTYPE
  2
PHANTOM2
 70
    64
  3
--------  -  -  --------  -  -  
 72
    65
 73
     6
 40
20.0
 49
10.0
 49
-2.5
 49
1.25
 49
-2.5
 49
1.25
 49
-2.5
  0
LTYPE
  2
DOT
 70
    64
  3
-   -   -   -   -   -   -   -   
 72
    65
 73
     2
 40
2.5
 49
0.625
 49
-1.875
  0
LTYPE
  2
DUMMY
 70
    64
  3
ダミー
 72
    65
 73
     0
 40
0.0
  0
LTYPE
  2
RAND1
 70
    64
  3
ランダム線1
 72
    65
 73
     4
 40
10.0
 49
1.0
 49
-2.0
 49
3.0
 49
-4.0
  0
LTYPE
  2
RAND2
 70
    64
  3
ランダム線2
 72
    65
 73
     4
 40
14.0
 49
2.0
 49
-3.0
 49
4.0
 49
-5.0
  0
LTYPE
  2
RAND3
 70
    64
  3
ランダム線3
 72
    65
 73
     4
 40
18.0
 49
3.0
 49
-4.0
 49
5.0
 49
-6.0
  0
LTYPE
  2
RAND4
 70
    64
  3
ランダム線4
 72
    65
 73
     4
 40
22.0
 49
4.0
 49
-5.0
 49
6.0
 49
-7.0
  0
LTYPE
  2
RAND5
 70
    64
  3
ランダム線5
 72
    65
 73
     4
 40
26.0
 49
5.0
 49
-6.0
 49
7.0
 49
-8.0
  0
LTYPE
  2
LONG1
 70
    64
  3
----------  --  ----------  --  
 72
    65
 73
     4
 40
40.0
 49
32.5
 49
-2.5
 49
2.5
 49
-2.5
  0
LTYPE
  2
LONG2
 70
    64
  3
--------  -  -  --------  -  -  
 72
    65
 73
     6
 40
40.0
 49
30.0
 49
-2.5
 49
1.25
 49
-2.5
 49
1.25
 49
-2.5
  0
LTYPE
  2
LONG3
 70
    64
  3
+++++++++++++++..+++++++++++++++
 72
    65
 73
     2
 40
40.0
 49
37.5
 49
-2.5
  0
LTYPE
  2
LONG4
 70
    64
  3
+++++++++++++++..+++++++++++++++
 72
    65
 73
     2
 40
80.0
 49
75.0
 49
-5.0
  0
LTYPE
  2
LONG5
 70
    64
  3
----------  --  ----------  --  
 72
    65
 73
     4
 40
60.0
 49
37.5
 49
-7.5
 49
7.5
 49
-7.5
  0
LTYPE
  2
dashed
 70
   64
  3
-------   -------------   ------
 72
   65
 73
    2
 40
7.5
 49
6
 49
-1.5
  0
LTYPE
  2
dashed_spaced
 70
   64
  3
----        --------        ----
 72
   65
 73
    2
 40
12
 49
6
 49
-6
  0
LTYPE
  2
long_dashed_dotted
 70
   64
  3
------------- --- --------------
 72
   65
 73
    4
 40
15.25
 49
12
 49
-1.5
 49
0.25
 49
-1.5
  0
LTYPE
  2
long_dashed_double-dotted
 70
   64
  3
----------- --- --- ------------
 72
   65
 73
    6
 40
17
 49
12
 49
-1.5
 49
0.25
 49
-1.5
 49
0.25
 49
-1.5
  0
LTYPE
  2
long_dashed_triplicate-dotted
 70
   64
  3
--------- --- --- --- ----------
 72
   65
 73
    8
 40
18.75
 49
12
 49
-1.5
 49
0.25
 49
-1.5
 49
0.25
 49
-1.5
 49
0.25
 49
-1.5
  0
LTYPE
  2
dotted
 70
   64
  3
   -       -       -       -    
 72
   65
 73
    2
 40
1.75
 49
0.25
 49
-1.5
  0
LTYPE
  2
chain
 70
   64
  3
-------------- -- --------------
 72
   65
 73
    4
 40
18.5
 49
12
 49
-1.5
 49
3.5
 49
-1.5
  0
LTYPE
  2
chain_double_dash
 70
   64
  3
------------ -- -- -------------
 72
   65
 73
    6
 40
23.5
 49
12
 49
-1.5
 49
3.5
 49
-1.5
 49
3.5
 49
-1.5
  0
LTYPE
  2
dashed_dotted
 70
   64
  3
-----------     -     ----------
 72
   65
 73
    4
 40
9.25
 49
6
 49
-1.5
 49
0.25
 49
-1.5
  0
LTYPE
  2
double-dashed_dotted
 70
   64
  3
------   -----------   -   -----
 72
   65
 73
    6
 40
16.75
 49
6
 49
-1.5
 49
6
 49
-1.5
 49
0.25
 49
-1.5
  0
LTYPE
  2
dashed_double-dotted
 70
   64
  3
---------    -    -    ---------
 72
   65
 73
    6
 40
11
 49
6
 49
-1.5
 49
0.25
 49
-1.5
 49
0.25
 49
-1.5
  0
LTYPE
  2
double-dashed_double-dotted
 70
   64
  3
-----   ---------   -   -   ----
 72
   65
 73
    8
 40
18.5
 49
6
 49
-1.5
 49
6
 49
-1.5
 49
0.25
 49
-1.5
 49
0.25
 49
-1.5
  0
LTYPE
  2
dashed_triplicate-dotted
 70
   64
  3
-------    -    -    -    ------
 72
   65
 73
    8
 40
12.75
 49
6
 49
-1.5
 49
0.25
 49
-1.5
 49
0.25
 49
-1.5
 49
0.25
 49
-1.5
  0
LTYPE
  2
double-dashed_triplicate-dotted
 70
   64
  3
-----  ---------  -  -  -  -----
 72
   65
 73
   10
 40
20.25
 49
6
 49
-1.5
 49
6
 49
-1.5
 49
0.25
 49
-1.5
 49
0.25
 49
-1.5
 49
0.25
 49
-1.5
  0
LTYPE
  2
undefined
 70
   64
  3
--------------------------------
 72
   65
 73
    0
 40
0
  0
LTYPE
  2
DOT_17
 70
   64
  3
----        --------        ----
 72
   65
 73
    2
 40
2
 49
1
 49
-1
  0
LTYPE
  2
DASHED
 70
   64
  3
----        --------        ----
 72
   65
 73
    2
 40
4
 49
2
 49
-2
  0
LTYPE
  2
DASHED2_19
 70
   64
  3
-----      ----------      -----
 72
   65
 73
    2
 40
8
 49
5
 49
-3
  0
LTYPE
  2
CENTER
 70
   64
  3
--------------- - --------------
 72
   65
 73
    4
 40
23
 49
20
 49
-1
 49
1
 49
-1
  0
LTYPE
  2
CENTERX2
 70
   64
  3
--------------- - --------------
 72
   65
 73
    4
 40
43
 49
40
 49
-1
 49
1
 49
-1
  0
LTYPE
  2
CENTER2_22
 70
   64
  3
-------------  --  -------------
 72
   65
 73
    4
 40
13
 49
10
 49
-1
 49
1
 49
-1
  0
LTYPE
  2
PHANTOM
 70
   64
  3
-------------- - - -------------
 72
   65
 73
    6
 40
25
 49
20
 49
-1
 49
1
 49
-1
 49
1
 49
-1
  0
LTYPE
  2
PHANTOMX2
 70
   64
  3
-------------- - - -------------
 72
   65
 73
    6
 40
45
 49
40
 49
-1
 49
1
 49
-1
 49
1
 49
-1
  0
LTYPE
  2
PHANTOM2_25
 70
   64
  3
-----------  --  --  -----------
 72
   65
 73
    6
 40
15
 49
10
 49
-1
 49
1
 49
-1
 49
1
 49
-1
  0
LTYPE
  2
ACAD_ISO06W100
 70
   64
  3
------------- - - - ------------
 72
   65
 73
    8
 40
47
 49
40
 49
-1
 49
1
 49
-1
 49
1
 49
-1
 49
1
 49
-1
  0
LTYPE
  2
ACAD_ISO14W100
 70
   64
  3
------------- - - - ------------
 72
   65
 73
    8
 40
27
 49
20
 49
-1
 49
1
 49
-1
 49
1
 49
-1
 49
1
 49
-1
  0
LTYPE
  2
ACAD_ISO11W100
 70
   64
  3
------- -------------- - -------
 72
   65
 73
    6
 40
44
 49
20
 49
-1
 49
20
 49
-1
 49
1
 49
-1
  0
LTYPE
  2
ACAD_ISO13W100
 70
   64
  3
------- ------------- - - ------
 72
   65
 73
    8
 40
46
 49
20
 49
-1
 49
20
 49
-1
 49
1
 49
-1
 49
1
 49
-1
  0
LTYPE
  2
HIDDEN
 70
   64
  3
------     -----------     -----
 72
   65
 73
    2
 40
1.5
 49
1
 49
-0.5
  0
ENDTAB
  0
TABLE
  2
STYLE
  5
3
100
AcDbSymbolTable
 70
     1
  0
STYLE
  5
10
100
AcDbSymbolTableRecord
100
AcDbTextStyleTableRecord
  2
STANDARD
 70
     0
 40
0.0
 41
1.0
 50
0.0
 71
     0
 42
0.2
  3
txt
  4
bigfont.shx
  0
STYLE
  5
26
100
AcDbSymbolTableRecord
100
AcDbTextStyleTableRecord
  2
TATEGAKI
 70
    68
 40
0.0
 41
1.0
 50
0.0
 71
     0
 42
1.0
  3
txt
  4
bigfont.shx
  0
ENDTAB
  0
TABLE
  2
LAYER
 70
    5
  0
LAYER
  2
_0-0_0
 70
   64
 62
    7
  6
CONTINUOUS
  0
LAYER
  2
_0-2_寸法
 70
   64
 62
    7
  6
CONTINUOUS
  0
LAYER
  2
_0-3_躯体と製品
 70
   64
 62
    7
  6
CONTINUOUS
  0
LAYER
  2
_0-4_図枠
 70
   64
 62
    7
  6
CONTINUOUS
  0
LAYER
  2
ADD_LINE
 70
   64
 62
    7
  6
CONTINUOUS
  0
ENDTAB
  0
ENDSEC
  0
SECTION
  2
BLOCKS
  0
ENDSEC
  0
SECTION
  2
ENTITIES
  0
CIRCLE
  8
_0-0_0
  6
CONTINUOUS
 62
    7
 10
294.36888221033325
 20
245.29264387293333
 40
1.3999999999999999
  0
LINE
  8
_0-4_図枠
  6
CONTINUOUS
 62
    7
 10
8
 20
585
 11
8
 21
9
  0
LINE
  8
_0-4_図枠
  6
CONTINUOUS
 62
    7
 10
832
 20
585
 11
8
 21
585
  0
LINE
  8
_0-4_図枠
  6
CONTINUOUS
 62
    7
 10
832
 20
9
 11
832
 21
585
  0
LINE
  8
_0-4_図枠
  6
CONTINUOUS
 62
    7
 10
8
 20
9
 11
832
 21
9
  0
TEXT
  8
_0-4_図枠
 62
    7
 10
16.63168191724003
 20
537.09964311620001
 40
9
 41
1
 50
0
  1
　　Ｓ＝１／２
  0
LINE
  8
_0-0_0
  6
CONTINUOUS
 62
    7
 10
162.40474658480002
 20
484.12075350999999
 11
162.40474658480002
 21
469.12075350999999
  0
LINE
  8
_0-0_0
  6
CONTINUOUS
 62
    7
 10
157.40474858480002
 20
484.12075350999999
 11
162.40474658480002
 21
469.12075350999999
  0
LINE
  8
_0-0_0
  6
CONTINUOUS
 62
    7
 10
159.20474858479997
 20
442.02312750999999
 11
159.20474858479997
 21
457.11292651000002
  0
LINE
  8
_0-0_0
  6
CONTINUOUS
 62
    7
 10
159.20474858479997
 20
453.11292451000003
 11
162.20474858479997
 21
452.36292451000003
  0
LINE
  8
_0-0_0
  6
CONTINUOUS
 62
    7
 10
159.20474858479997
 20
453.11292451000003
 11
162.20474858479997
 21
453.86292451000003
  0
LINE
  8
_0-0_0
  6
CONTINUOUS
 62
    7
 10
66.790555584770004
 20
484.12075350999999
 11
66.790555584770004
 21
354.38000550999999
  0
LINE
  8
_0-0_0
  6
CONTINUOUS
 62
    7
 10
142.20474758479997
 20
484.12075350999999
 11
60.790555584770004
 21
484.12075350999999
  0
LINE
  8
_0-0_0
  6
CONTINUOUS
 62
    7
 10
317.20474658479998
 20
354.38000550999999
 11
60.790555584770004
 21
354.38000550999999
  0
LINE
  8
_0-0_0
  6
CONTINUOUS
 62
    7
 10
144.20474858479997
 20
484.12075350999999
 11
144.20474858479997
 21
354.38000550999999
  0
LINE
  8
_0-0_0
  6
CONTINUOUS
 62
    7
 10
202.0268055848
 20
484.12075350999999
 11
202.0268055848
 21
469.12075350999999
  0
LINE
  8
_0-0_0
  6
CONTINUOUS
 62
    7
 10
171.2047485848
 20
484.12075350999999
 11
208.0268055848
 21
484.12075350999999
  0
LINE
  8
_0-0_0
  6
CONTINUOUS
 62
    7
 10
177.2047485848
 20
469.12075350999999
 11
208.0268055848
 21
469.12075350999999
  0
LINE
  8
_0-0_0
  6
CONTINUOUS
 62
    7
 10
202.0268055848
 20
469.12075350999999
 11
202.0268055848
 21
433.12075350999999
  0
LINE
  8
_0-0_0
  6
CONTINUOUS
 62
    7
 10
177.2047485848
 20
433.12075350999999
 11
208.0268055848
 21
433.12075350999999
  0
LINE
  8
_0-0_0
  6
CONTINUOUS
 62
    7
 10
152.70474758479997
 20
456.92075251
 11
152.70474758479997
 21
453.12075450999998
  0
LINE
  8
_0-0_0
  6
CONTINUOUS
 62
    7
 10
154.20474758479997
 20
452.42075251
 11
154.20474758479997
 21
458.42075251
  0
LINE
  8
_0-0_0
  6
CONTINUOUS
 62
    7
 10
147.70474658479998
 20
446.42075251
 11
147.70474658479998
 21
456.92075251
  0
LINE
  8
_0-0_0
  6
CONTINUOUS
 62
    7
 10
145.70474858479997
 20
457.42075351
 11
145.70474858479997
 21
445.92075450999999
  0
LINE
  8
_0-0_0
  6
CONTINUOUS
 62
    7
 10
148.20474758479997
 20
451.42075351
 11
148.20474758479997
 21
454.67075251
  0
LINE
  8
_0-0_0
  6
CONTINUOUS
 62
    7
 10
149.70474758479997
 20
454.67075251
 11
149.70474758479997
 21
451.42075351
  0
LINE
  8
_0-0_0
  6
CONTINUOUS
 62
    7
 10
177.40474658479999
 20
435.32075250999998
 11
177.40474658479999
 21
466.92075450999999
  0
LINE
  8
_0-0_0
  6
CONTINUOUS
 62
    7
 10
176.20474658480001
 20
435.32075250999998
 11
176.20474658480001
 21
466.92075450999999
  0
LINE
  8
_0-0_0
  6
CONTINUOUS
 62
    7
 10
175.90474658479999
 20
466.22075251000001
 11
175.90474658479999
 21
436.72075351000001
  0
LINE
  8
_0-0_0
  6
CONTINUOUS
 62
    7
 10
174.90474758479999
 20
466.22075251000001
 11
174.90474758479999
 21
436.72075351000001
  0
LINE
  8
_0-0_0
  6
CONTINUOUS
 62
    7
 10
174.91606058479999
 20
437.52075451000002
 11
175.90474658479999
 21
438.50944050999999
  0
LINE
  8
_0-0_0
  6
CONTINUOUS
 62
    7
 10
174.90474758479999
 20
440.34918150999999
 11
175.90474658479999
 21
441.34918051
  0
LINE
  8
_0-0_0
  6
CONTINUOUS
 62
    7
 10
174.90474758479999
 20
443.17760851000003
 11
175.90474658479999
 21
444.17760750999997
  0
LINE
  8
_0-0_0
  6
CONTINUOUS
 62
    7
 10
174.90474758479999
 20
446.00603551
 11
175.90474658479999
 21
447.00603451000001
  0
LINE
  8
_0-0_0
  6
CONTINUOUS
 62
    7
 10
174.90474758479999
 20
448.83446250999998
 11
175.90474658479999
 21
449.83446150999998
  0
LINE
  8
_0-0_0
  6
CONTINUOUS
 62
    7
 10
174.90474758479999
 20
451.66288951000001
 11
175.90474658479999
 21
452.66288851000002
  0
LINE
  8
_0-0_0
  6
CONTINUOUS
 62
    7
 10
174.90474758479999
 20
454.49131650999999
 11
175.90474658479999
 21
455.49131550999999
  0
LINE
  8
_0-0_0
  6
CONTINUOUS
 62
    7
 10
174.90474758479999
 20
457.31974351000002
 11
175.90474658479999
 21
458.31974251000003
  0
LINE
  8
_0-0_0
  6
CONTINUOUS
 62
    7
 10
174.90474758479999
 20
460.14817051
 11
175.90474658479999
 21
461.14816951
  0
LINE
  8
_0-0_0
  6
CONTINUOUS
 62
    7
 10
174.90474758479999
 20
462.97659750999998
 11
175.90474658479999
 21
463.97659650999998
  0
LINE
  8
_0-0_0
  6
CONTINUOUS
 62
    7
 10
174.90474758479999
 20
465.80502451000001
 11
175.8193575848
 21
466.71963450999999
  0
LINE
  8
_0-0_0
  6
CONTINUOUS
 62
    7
 10
172.99204958479999
 20
466.72075351000001
 11
173.99204858479999
 21
467.72075251000001
  0
LINE
  8
_0-0_0
  6
CONTINUOUS
 62
    7
 10
170.16362258480001
 20
466.72075351000001
 11
171.16362158480001
 21
467.72075251000001
  0
LINE
  8
_0-0_0
  6
CONTINUOUS
 62
    7
 10
167.3351955848
 20
466.72075351000001
 11
168.33519458480001
 21
467.72075251000001
  0
LINE
  8
_0-0_0
  6
CONTINUOUS
 62
    7
 10
164.5067685848
 20
466.72075351000001
 11
165.5067675848
 21
467.72075251000001
  0
LINE
  8
_0-0_0
  6
CONTINUOUS
 62
    7
 10
161.67834158480002
 20
466.72075351000001
 11
162.67834058480003
 21
467.72075251000001
  0
LINE
  8
_0-0_0
  6
CONTINUOUS
 62
    7
 10
158.84991458479999
 20
466.72075351000001
 11
159.84991358479999
 21
467.72075251000001
  0
LINE
  8
_0-0_0
  6
CONTINUOUS
 62
    7
 10
156.06132758479998
 20
466.76059651000003
 11
157.02148658479996
 21
467.72075251000001
  0
LINE
  8
_0-0_0
  6
CONTINUOUS
 62
    7
 10
154.90474658480002
 20
468.43244250999999
 11
155.90474858480002
 21
469.43244150999999
  0
ARC
  8
_0-0_0
  6
CONTINUOUS
 62
    7
 10
159.49663058479996
 20
475.02075451000002
 40
0.3999989999999999
 50
346.29976700000998
 51
89.999999999999972
  0
ARC
  8
_0-0_0
  6
CONTINUOUS
 62
    7
 10
159.49663058479996
 20
476.82075450999997
 40
0.3999989999999999
 50
270
 51
13.70023299998998
  0
LINE
  8
_0-0_0
  6
CONTINUOUS
 62
    7
 10
159.47046758479996
 20
476.42075251
 11
159.47046758479996
 21
475.42075351
  0
ARC
  8
_0-0_0
  6
CONTINUOUS
 62
    7
 10
157.27484258480001
 20
474.71708251000001
 40
2.300001
 50
273.23783700000001
 51
320.690876
  0
ARC
  8
_0-0_0
  6
CONTINUOUS
 62
    7
 10
157.27183958479998
 20
477.12810151000002
 40
2.300001
 50
39.179510999999998
 51
86.687257000000002
  0
ARC
  8
_0-0_0
  6
CONTINUOUS
 62
    7
 10
155.80474958479999
 20
475.92075450999999
 40
4.2000000000000002
 50
320.690629
 51
39.303131000000008
  0
ARC
  8
_0-0_0
  6
CONTINUOUS
 62
    7
 10
155.60474858480001
 20
478.52075251000002
 40
0.5999999999999999
 50
270
 51
90
  0
ARC
  8
_0-0_0
  6
CONTINUOUS
 62
    7
 10
155.60474858480001
 20
473.32075350999997
 40
0.5999999999999999
 50
270
 51
90
  0
LINE
  8
_0-0_0
  6
CONTINUOUS
 62
    7
 10
154.20474758479997
 20
479.12075250999999
 11
155.60474858480001
 21
479.12075250999999
  0
LINE
  8
_0-0_0
  6
CONTINUOUS
 62
    7
 10
154.90474658480002
 20
467.02075351000002
 11
154.90474658480002
 21
472.72075351000001
  0
LINE
  8
_0-0_0
  6
CONTINUOUS
 62
    7
 10
154.90474658480002
 20
472.72075351000001
 11
155.60474858480001
 21
472.72075351000001
  0
LINE
  8
_0-0_0
  6
CONTINUOUS
 62
    7
 10
154.20474758479997
 20
479.92075351
 11
154.20474758479997
 21
479.12075250999999
  0
ARC
  8
_0-0_0
  6
CONTINUOUS
 62
    7
 10
145.70474858479997
 20
479.42075251
 40
0.500001
 50
90
 51
180
  0
LINE
  8
_0-0_0
  6
CONTINUOUS
 62
    7
 10
148.70474858479997
 20
474.42075450999999
 11
148.20474758479997
 21
473.92075351
  0
LINE
  8
_0-0_0
  6
CONTINUOUS
 62
    7
 10
149.20474658479998
 20
473.92075351
 11
148.70474858479997
 21
474.42075450999999
  0
LINE
  8
_0-0_0
  6
CONTINUOUS
 62
    7
 10
149.70474758479997
 20
474.42075450999999
 11
149.20474658479998
 21
473.92075351
  0
LINE
  8
_0-0_0
  6
CONTINUOUS
 62
    7
 10
150.20474858479997
 20
473.92075351
 11
149.70474758479997
 21
474.42075450999999
  0
LINE
  8
_0-0_0
  6
CONTINUOUS
 62
    7
 10
150.70474658479998
 20
474.42075450999999
 11
150.20474858479997
 21
473.92075351
  0
LINE
  8
_0-0_0
  6
CONTINUOUS
 62
    7
 10
151.20474758479997
 20
473.92075351
 11
150.70474658479998
 21
474.42075450999999
  0
LINE
  8
_0-0_0
  6
CONTINUOUS
 62
    7
 10
151.70474858479997
 20
474.42075450999999
 11
151.20474758479997
 21
473.92075351
  0
LINE
  8
_0-0_0
  6
CONTINUOUS
 62
    7
 10
152.20474658479998
 20
473.92075351
 11
151.70474858479997
 21
474.42075450999999
  0
LINE
  8
_0-0_0
  6
CONTINUOUS
 62
    7
 10
152.70474758479997
 20
474.42075450999999
 11
152.20474658479998
 21
473.92075351
  0
LINE
  8
_0-0_0
  6
CONTINUOUS
 62
    7
 10
153.20474858479997
 20
473.92075351
 11
152.70474758479997
 21
474.42075450999999
  0
LINE
  8
_0-0_0
  6
CONTINUOUS
 62
    7
 10
148.70474858479997
 20
477.42075450999999
 11
148.20474758479997
 21
477.92075251
  0
LINE
  8
_0-0_0
  6
CONTINUOUS
 62
    7
 10
149.20474658479998
 20
477.92075251
 11
148.70474858479997
 21
477.42075450999999
  0
LINE
  8
_0-0_0
  6
CONTINUOUS
 62
    7
 10
149.70474758479997
 20
477.42075450999999
 11
149.20474658479998
 21
477.92075251
  0
LINE
  8
_0-0_0
  6
CONTINUOUS
 62
    7
 10
150.20474858479997
 20
477.92075251
 11
149.70474758479997
 21
477.42075450999999
  0
LINE
  8
_0-0_0
  6
CONTINUOUS
 62
    7
 10
150.70474658479998
 20
477.42075450999999
 11
150.20474858479997
 21
477.92075251
  0
LINE
  8
_0-0_0
  6
CONTINUOUS
 62
    7
 10
151.20474758479997
 20
477.92075251
 11
150.70474658479998
 21
477.42075450999999
  0
LINE
  8
_0-0_0
  6
CONTINUOUS
 62
    7
 10
151.70474858479997
 20
477.42075450999999
 11
151.20474758479997
 21
477.92075251
  0
LINE
  8
_0-0_0
  6
CONTINUOUS
 62
    7
 10
152.20474658479998
 20
477.92075251
 11
151.70474858479997
 21
477.42075450999999
  0
LINE
  8
_0-0_0
  6
CONTINUOUS
 62
    7
 10
152.70474758479997
 20
477.42075450999999
 11
152.20474658479998
 21
477.92075251
  0
LINE
  8
_0-0_0
  6
CONTINUOUS
 62
    7
 10
153.20474858479997
 20
477.92075251
 11
152.70474758479997
 21
477.42075450999999
  0
LINE
  8
_0-0_0
  6
CONTINUOUS
 62
    7
 10
153.20474858479997
 20
473.92075351
 11
155.70474758479997
 21
473.92075351
  0
LINE
  8
_0-0_0
  6
CONTINUOUS
 62
    7
 10
153.20474858479997
 20
477.92075251
 11
155.70474758479997
 21
477.92075251
  0
ARC
  8
_0-0_0
  6
CONTINUOUS
 62
    7
 10
147.00474758479999
 20
477.62075250999999
 40
0.2999999999999999
 50
90
 51
180
  0
LINE
  8
_0-0_0
  6
CONTINUOUS
 62
    7
 10
147.00474758479999
 20
477.92075251
 11
148.20474758479997
 21
477.92075251
  0
LINE
  8
_0-0_0
  6
CONTINUOUS
 62
    7
 10
147.00474758479999
 20
473.92075351
 11
148.20474758479997
 21
473.92075351
  0
ARC
  8
_0-0_0
  6
CONTINUOUS
 62
    7
 10
147.00474758479999
 20
474.22075351000001
 40
0.2999999999999999
 50
180
 51
270
  0
LINE
  8
_0-0_0
  6
CONTINUOUS
 62
    7
 10
146.70474758479997
 20
474.22075351000001
 11
146.70474758479997
 21
477.62075250999999
  0
LINE
  8
_0-0_0
  6
CONTINUOUS
 62
    7
 10
152.20474658479998
 20
457.42075351
 11
148.20474758479997
 21
457.42075351
  0
ARC
  8
_0-0_0
  6
CONTINUOUS
 62
    7
 10
152.20474658479998
 20
456.92075251
 40
0.500001
 50
0
 51
90
  0
ARC
  8
_0-0_0
  6
CONTINUOUS
 62
    7
 10
153.70474658479998
 20
458.42075251
 40
0.500001
 50
0
 51
90
  0
LINE
  8
_0-0_0
  6
CONTINUOUS
 62
    7
 10
153.70474658479998
 20
458.92075351
 11
148.20474758479997
 21
458.92075351
  0
ARC
  8
_0-0_0
  6
CONTINUOUS
 62
    7
 10
148.20474758479997
 20
459.42075450999999
 40
0.500001
 50
180
 51
270
  0
ARC
  8
_0-0_0
  6
CONTINUOUS
 62
    7
 10
148.20474758479997
 20
456.92075251
 40
0.500001
 50
90
 51
180
  0
ARC
  8
_0-0_0
  6
CONTINUOUS
 62
    7
 10
159.8047485848
 20
466.12075350999999
 40
0.5999999999999999
 50
270
 51
90
  0
LINE
  8
_0-0_0
  6
CONTINUOUS
 62
    7
 10
147.70474658479998
 20
471.42075450999999
 11
147.70474658479998
 21
459.42075450999999
  0
ARC
  8
_0-0_0
  6
CONTINUOUS
 62
    7
 10
148.20474758479997
 20
471.42075450999999
 40
0.500001
 50
90
 51
180
  0
LINE
  8
_0-0_0
  6
CONTINUOUS
 62
    7
 10
153.20474858479997
 20
471.92075251
 11
148.20474758479997
 21
471.92075251
  0
ARC
  8
_0-0_0
  6
CONTINUOUS
 62
    7
 10
153.20474858479997
 20
471.42075450999999
 40
0.500001
 50
0
 51
90
  0
LINE
  8
_0-0_0
  6
CONTINUOUS
 62
    7
 10
154.70474858479997
 20
465.52075351000002
 11
159.8047485848
 21
465.52075351000002
  0
ARC
  8
_0-0_0
  6
CONTINUOUS
 62
    7
 10
154.70474858479997
 20
466.52075251000002
 40
0.9999989999999999
 50
180
 51
270
  0
LINE
  8
_0-0_0
  6
CONTINUOUS
 62
    7
 10
153.70474658479998
 20
466.52075251000002
 11
153.70474658479998
 21
471.42075450999999
  0
ARC
  8
_0-0_0
  6
CONTINUOUS
 62
    7
 10
155.20474658479998
 20
467.02075351000002
 40
0.2999999999999999
 50
180
 51
270
  0
LINE
  8
_0-0_0
  6
CONTINUOUS
 62
    7
 10
145.20474758479997
 20
457.42075351
 11
145.70474858479997
 21
457.42075351
  0
LINE
  8
_0-0_0
  6
CONTINUOUS
 62
    7
 10
145.70474858479997
 20
458.92075351
 11
145.20474758479997
 21
458.92075351
  0
LINE
  8
_0-0_0
  6
CONTINUOUS
 62
    7
 10
145.70474858479997
 20
471.92075251
 11
145.70474858479997
 21
458.92075351
  0
LINE
  8
_0-0_0
  6
CONTINUOUS
 62
    7
 10
145.20474758479997
 20
471.92075251
 11
145.70474858479997
 21
471.92075251
  0
ARC
  8
_0-0_0
  6
CONTINUOUS
 62
    7
 10
148.95474758479997
 20
454.67075251
 40
0.75
 50
0
 51
180
  0
LINE
  8
_0-0_0
  6
CONTINUOUS
 62
    7
 10
144.20474858479997
 20
484.12075350999999
 11
169.2047475848
 21
484.12075350999999
  0
LINE
  8
_0-0_0
  6
CONTINUOUS
 62
    7
 10
156.20474858479997
 20
470.12075250999999
 11
156.20474858479997
 21
478.92075450999999
  0
ARC
  8
_0-0_0
  6
CONTINUOUS
 62
    7
 10
158.40474758480002
 20
470.12075250999999
 40
2.199999
 50
180
 51
270
  0
LINE
  8
_0-0_0
  6
CONTINUOUS
 62
    7
 10
158.40474758480002
 20
467.92075351
 11
175.2047475848
 21
467.92075351
  0
LINE
  8
_0-0_0
  6
CONTINUOUS
 62
    7
 10
155.20474658479998
 20
481.12075350999999
 11
147.40474658480002
 21
481.12075350999999
  0
ARC
  8
_0-0_0
  6
CONTINUOUS
 62
    7
 10
155.20474658479998
 20
478.92075450999999
 40
2.199999
 50
0
 51
90
  0
LINE
  8
_0-0_0
  6
CONTINUOUS
 62
    7
 10
157.40474858480002
 20
478.92075450999999
 11
157.40474858480002
 21
470.12075250999999
  0
LINE
  8
_0-0_0
  6
CONTINUOUS
 62
    7
 10
175.2047475848
 20
469.12075350999999
 11
158.40474758480002
 21
469.12075350999999
  0
ARC
  8
_0-0_0
  6
CONTINUOUS
 62
    7
 10
175.2047475848
 20
466.92075450999999
 40
2.199999
 50
0
 51
90
  0
ARC
  8
_0-0_0
  6
CONTINUOUS
 62
    7
 10
175.2047475848
 20
466.92075450999999
 40
0.9999989999999999
 50
0
 51
90
  0
ARC
  8
_0-0_0
  6
CONTINUOUS
 62
    7
 10
158.40474758480002
 20
470.12075250999999
 40
0.9999989999999999
 50
180
 51
270
  0
LINE
  8
_0-0_0
  6
CONTINUOUS
 62
    7
 10
155.20474658479998
 20
479.92075351
 11
145.70474858479997
 21
479.92075351
  0
ARC
  8
_0-0_0
  6
CONTINUOUS
 62
    7
 10
155.20474658479998
 20
478.92075450999999
 40
0.9999989999999999
 50
0
 51
90
  0
LINE
  8
_0-0_0
  6
CONTINUOUS
 62
    7
 10
157.40474858480002
 20
484.12075350999999
 11
157.40474858480002
 21
478.92075450999999
  0
LINE
  8
_0-0_0
  6
CONTINUOUS
 62
    7
 10
169.2047475848
 20
505.13359951000001
 11
169.2047475848
 21
484.12075350999999
  0
LINE
  8
_0-0_0
  6
CONTINUOUS
 62
    7
 10
143.90676758480004
 20
475.92075450999999
 11
162.72364358480002
 21
475.92075450999999
  0
LINE
  8
_0-0_0
  6
CONTINUOUS
 62
    7
 10
156.20474858479997
 20
473.92075351
 11
157.40474858480002
 21
473.92075351
  0
LINE
  8
_0-0_0
  6
CONTINUOUS
 62
    7
 10
156.20474858479997
 20
477.92075251
 11
157.40474858480002
 21
477.92075251
  0
LINE
  8
_0-0_0
  6
CONTINUOUS
 62
    7
 10
156.20474858479997
 20
474.42075450999999
 11
157.40474858480002
 21
474.42075450999999
  0
LINE
  8
_0-0_0
  6
CONTINUOUS
 62
    7
 10
156.20474858479997
 20
477.42075450999999
 11
157.40474858480002
 21
477.42075450999999
  0
LINE
  8
_0-0_0
  6
CONTINUOUS
 62
    7
 10
147.40474658480002
 20
474.42075450999999
 11
156.20474858479997
 21
474.42075450999999
  0
LINE
  8
_0-0_0
  6
CONTINUOUS
 62
    7
 10
147.40474658480002
 20
477.42075450999999
 11
156.20474858479997
 21
477.42075450999999
  0
LINE
  8
_0-0_0
  6
CONTINUOUS
 62
    7
 10
155.60474858480001
 20
473.92075351
 11
156.20474858479997
 21
473.92075351
  0
LINE
  8
_0-0_0
  6
CONTINUOUS
 62
    7
 10
155.60474858480001
 20
477.92075251
 11
156.20474858479997
 21
477.92075251
  0
LINE
  8
_0-0_0
  6
CONTINUOUS
 62
    7
 10
147.40474658480002
 20
477.42075450999999
 11
147.40474658480002
 21
474.42075450999999
  0
LINE
  8
_0-0_0
  6
CONTINUOUS
 62
    7
 10
147.40474658480002
 20
474.42075450999999
 11
147.90474758480002
 21
473.92075351
  0
LINE
  8
_0-0_0
  6
CONTINUOUS
 62
    7
 10
147.90474758480002
 20
477.92075251
 11
147.90474758480002
 21
473.92075351
  0
LINE
  8
_0-0_0
  6
CONTINUOUS
 62
    7
 10
147.40474658480002
 20
477.42075450999999
 11
147.90474758480002
 21
477.92075251
  0
LINE
  8
_0-0_0
  6
CONTINUOUS
 62
    7
 10
147.40474658480002
 20
481.12075350999999
 11
147.40474658480002
 21
479.92075351
  0
LINE
  8
_0-0_0
  6
CONTINUOUS
 62
    7
 10
155.90474858480002
 20
471.72075451000001
 11
155.90474858480002
 21
468.22075351000001
  0
LINE
  8
_0-0_0
  6
CONTINUOUS
 62
    7
 10
154.90474658480002
 20
471.72075451000001
 11
155.90474858480002
 21
471.72075451000001
  0
ARC
  8
_0-0_0
  6
CONTINUOUS
 62
    7
 10
174.40474658479999
 20
466.22075251000001
 40
1.5
 50
0
 51
90
  0
LINE
  8
_0-0_0
  6
CONTINUOUS
 62
    7
 10
174.40474658479999
 20
467.72075251000001
 11
156.40474658480002
 21
467.72075251000001
  0
LINE
  8
_0-0_0
  6
CONTINUOUS
 62
    7
 10
174.40474658479999
 20
466.72075351000001
 11
155.20474658479998
 21
466.72075351000001
  0
ARC
  8
_0-0_0
  6
CONTINUOUS
 62
    7
 10
174.40474658479999
 20
466.22075251000001
 40
0.500001
 50
0
 51
90
  0
ARC
  8
_0-0_0
  6
CONTINUOUS
 62
    7
 10
156.40474658480002
 20
468.22075351000001
 40
0.500001
 50
180
 51
270
  0
LINE
  8
_0-0_0
  6
CONTINUOUS
 62
    7
 10
155.36463158480001
 20
471.72075451000001
 11
154.90474658480002
 21
471.26086951000002
  0
ARC
  8
_0-0_0
  6
CONTINUOUS
 62
    7
 10
156.40474658480002
 20
468.22075351000001
 40
1.5
 50
180
 51
270
  0
LINE
  8
_0-0_0
  6
CONTINUOUS
 62
    7
 10
94.328869584770018
 20
425.42075251
 11
94.328869584770018
 21
354.38000550999999
  0
LINE
  8
_0-0_0
  6
CONTINUOUS
 62
    7
 10
101.62179158480001
 20
425.42075251
 11
90.328870584770016
 21
425.42075251
  0
LINE
  8
_0-0_0
  6
CONTINUOUS
 62
    7
 10
100.23690158479997
 20
425.42075251
 11
152.2874565848
 21
425.42075251
  0
LINE
  8
_0-0_0
  6
CONTINUOUS
 62
    7
 10
175.5613875848
 20
425.68937251
 11
175.4713425848
 21
423.97123051
  0
LINE
  8
_0-0_0
  6
CONTINUOUS
 62
    7
 10
185.54768258479999
 20
425.16601351000003
 11
185.45763758480001
 21
423.44787151000003
  0
LINE
  8
_0-0_0
  6
CONTINUOUS
 62
    7
 10
148.20474758479997
 20
406.42075351
 11
158.95474658479998
 21
406.42075351
  0
ARC
  8
_0-0_0
  6
CONTINUOUS
 62
    7
 10
148.20474758479997
 20
406.92075450999999
 40
0.500001
 50
180
 51
270
  0
LINE
  8
_0-0_0
  6
CONTINUOUS
 62
    7
 10
147.70474658479998
 20
406.92075450999999
 11
147.70474658479998
 21
443.92075351
  0
LINE
  8
_0-0_0
  6
CONTINUOUS
 62
    7
 10
175.4713425848
 20
423.97123051
 11
174.0059355848
 21
396.00960450999997
  0
ARC
  8
_0-0_0
  6
CONTINUOUS
 62
    7
 10
145.70474858479997
 20
404.42075251
 40
0.500001
 50
0
 51
90
  0
LINE
  8
_0-0_0
  6
CONTINUOUS
 62
    7
 10
145.70474858479997
 20
404.92075351
 11
145.20474758479997
 21
404.92075351
  0
LINE
  8
_0-0_0
  6
CONTINUOUS
 62
    7
 10
153.95474858479997
 20
392.92075351
 11
145.20474758479997
 21
392.92075351
  0
LINE
  8
_0-0_0
  6
CONTINUOUS
 62
    7
 10
145.70474858479997
 20
394.42075351
 11
145.20474758479997
 21
394.42075351
  0
ARC
  8
_0-0_0
  6
CONTINUOUS
 62
    7
 10
145.70474858479997
 20
394.92075450999999
 40
0.500001
 50
270
 51
0
  0
LINE
  8
_0-0_0
  6
CONTINUOUS
 62
    7
 10
146.20474658479998
 20
394.92075450999999
 11
146.20474658479998
 21
404.42075251
  0
LINE
  8
_0-0_0
  6
CONTINUOUS
 62
    7
 10
147.70474658479998
 20
394.92075450999999
 11
147.70474658479998
 21
397.92075450999999
  0
LINE
  8
_0-0_0
  6
CONTINUOUS
 62
    7
 10
152.70474758479997
 20
394.42075351
 11
152.70474758479997
 21
393.92075251
  0
LINE
  8
_0-0_0
  6
CONTINUOUS
 62
    7
 10
151.70474858479997
 20
394.42075351
 11
152.70474758479997
 21
393.92075251
  0
LINE
  8
_0-0_0
  6
CONTINUOUS
 62
    7
 10
151.70474858479997
 20
394.42075351
 11
151.70474858479997
 21
393.92075251
  0
LINE
  8
_0-0_0
  6
CONTINUOUS
 62
    7
 10
150.70474658479998
 20
394.42075351
 11
151.70474858479997
 21
393.92075251
  0
ARC
  8
_0-0_0
  6
CONTINUOUS
 62
    7
 10
153.95474858479997
 20
393.67075351
 40
0.75
 50
270
 51
90
  0
LINE
  8
_0-0_0
  6
CONTINUOUS
 62
    7
 10
148.20474758479997
 20
394.42075351
 11
150.70474658479998
 21
394.42075351
  0
ARC
  8
_0-0_0
  6
CONTINUOUS
 62
    7
 10
148.20474758479997
 20
394.92075450999999
 40
0.500001
 50
180
 51
270
  0
ARC
  8
_0-0_0
  6
CONTINUOUS
 62
    7
 10
158.95474658479998
 20
405.67075351
 40
0.75
 50
270
 51
90
  0
ARC
  8
_0-0_0
  6
CONTINUOUS
 62
    7
 10
151.3047465848
 20
452.02075351000002
 40
0.5999999999999999
 50
90
 51
270
  0
ARC
  8
_0-0_0
  6
CONTINUOUS
 62
    7
 10
152.20474658479998
 20
453.12075450999998
 40
0.500001
 50
270
 51
0
  0
LINE
  8
_0-0_0
  6
CONTINUOUS
 62
    7
 10
152.20474658479998
 20
452.62075350999999
 11
151.3047465848
 21
452.62075350999999
  0
LINE
  8
_0-0_0
  6
CONTINUOUS
 62
    7
 10
153.20474858479997
 20
451.42075351
 11
151.3047465848
 21
451.42075351
  0
ARC
  8
_0-0_0
  6
CONTINUOUS
 62
    7
 10
153.20474858479997
 20
452.42075251
 40
0.9999989999999999
 50
270
 51
0
  0
LINE
  8
_0-0_0
  6
CONTINUOUS
 62
    7
 10
148.20474758479997
 20
404.92075351
 11
158.95474658479998
 21
404.92075351
  0
ARC
  8
_0-0_0
  6
CONTINUOUS
 62
    7
 10
148.20474758479997
 20
404.42075251
 40
0.500001
 50
90
 51
180
  0
LINE
  8
_0-0_0
  6
CONTINUOUS
 62
    7
 10
147.70474658479998
 20
404.42075251
 11
147.70474658479998
 21
400.42075351
  0
LINE
  8
_0-0_0
  6
CONTINUOUS
 62
    7
 10
157.70474858479997
 20
444.92075251
 11
157.70474858479997
 21
445.42075351
  0
ARC
  8
_0-0_0
  6
CONTINUOUS
 62
    7
 10
157.20474758479997
 20
444.92075251
 40
0.500001
 50
270
 51
0
  0
LINE
  8
_0-0_0
  6
CONTINUOUS
 62
    7
 10
157.20474758479997
 20
444.42075450999999
 11
148.20474758479997
 21
444.42075450999999
  0
ARC
  8
_0-0_0
  6
CONTINUOUS
 62
    7
 10
157.20474758479997
 20
445.42075351
 40
0.500001
 50
0
 51
90
  0
ARC
  8
_0-0_0
  6
CONTINUOUS
 62
    7
 10
148.20474758479997
 20
443.92075351
 40
0.500001
 50
90
 51
180
  0
ARC
  8
_0-0_0
  6
CONTINUOUS
 62
    7
 10
153.95474858479997
 20
399.17075251
 40
0.75
 50
270
 51
90
  0
LINE
  8
_0-0_0
  6
CONTINUOUS
 62
    7
 10
152.70474758479997
 20
398.92075351
 11
152.70474758479997
 21
398.42075251
  0
LINE
  8
_0-0_0
  6
CONTINUOUS
 62
    7
 10
151.70474858479997
 20
398.42075251
 11
152.70474758479997
 21
398.92075351
  0
LINE
  8
_0-0_0
  6
CONTINUOUS
 62
    7
 10
151.70474858479997
 20
398.92075351
 11
151.70474858479997
 21
398.42075251
  0
LINE
  8
_0-0_0
  6
CONTINUOUS
 62
    7
 10
150.70474658479998
 20
398.42075251
 11
151.70474858479997
 21
398.92075351
  0
LINE
  8
_0-0_0
  6
CONTINUOUS
 62
    7
 10
148.20474758479997
 20
398.42075251
 11
150.70474658479998
 21
398.42075251
  0
ARC
  8
_0-0_0
  6
CONTINUOUS
 62
    7
 10
148.20474758479997
 20
397.92075450999999
 40
0.500001
 50
90
 51
180
  0
ARC
  8
_0-0_0
  6
CONTINUOUS
 62
    7
 10
148.20474758479997
 20
400.42075351
 40
0.500001
 50
180
 51
270
  0
LINE
  8
_0-0_0
  6
CONTINUOUS
 62
    7
 10
148.20474758479997
 20
399.92075251
 11
153.95474858479997
 21
399.92075251
  0
LINE
  8
_0-0_0
  6
CONTINUOUS
 62
    7
 10
148.20474758479997
 20
445.92075450999999
 11
157.20474758479997
 21
445.92075450999999
  0
ARC
  8
_0-0_0
  6
CONTINUOUS
 62
    7
 10
148.20474758479997
 20
446.42075251
 40
0.500001
 50
180
 51
270
  0
LINE
  8
_0-0_0
  6
CONTINUOUS
 62
    7
 10
147.70474658479998
 20
424.92075450999999
 11
147.20474858479997
 21
425.42075251
  0
LINE
  8
_0-0_0
  6
CONTINUOUS
 62
    7
 10
147.70474658479998
 20
425.92075351
 11
147.20474858479997
 21
425.42075251
  0
LINE
  8
_0-0_0
  6
CONTINUOUS
 62
    7
 10
145.70474858479997
 20
406.42075351
 11
145.20474758479997
 21
406.42075351
  0
LINE
  8
_0-0_0
  6
CONTINUOUS
 62
    7
 10
145.70474858479997
 20
420.42075450999999
 11
145.70474858479997
 21
406.42075351
  0
LINE
  8
_0-0_0
  6
CONTINUOUS
 62
    7
 10
145.20474758479997
 20
420.42075450999999
 11
145.70474858479997
 21
420.42075450999999
  0
LINE
  8
_0-0_0
  6
CONTINUOUS
 62
    7
 10
145.20474758479997
 20
430.42075351
 11
145.70474858479997
 21
430.42075351
  0
LINE
  8
_0-0_0
  6
CONTINUOUS
 62
    7
 10
145.70474858479997
 20
444.42075450999999
 11
145.70474858479997
 21
430.42075351
  0
LINE
  8
_0-0_0
  6
CONTINUOUS
 62
    7
 10
145.20474758479997
 20
444.42075450999999
 11
145.70474858479997
 21
444.42075450999999
  0
LINE
  8
_0-0_0
  6
CONTINUOUS
 62
    7
 10
145.70474858479997
 20
445.92075450999999
 11
145.20474758479997
 21
445.92075450999999
  0
LINE
  8
_0-0_0
  6
CONTINUOUS
 62
    7
 10
155.3047485848
 20
412.92075450999999
 11
155.3047485848
 21
440.92075351
  0
LINE
  8
_0-0_0
  6
CONTINUOUS
 62
    7
 10
153.3047475848
 20
411.42075450999999
 11
153.3047475848
 21
441.42075450999999
  0
LINE
  8
_0-0_0
  6
CONTINUOUS
 62
    7
 10
167.2524105848
 20
401.87108850999999
 11
172.29652658480001
 21
401.60673751000002
  0
ARC
  8
_0-0_0
  6
CONTINUOUS
 62
    7
 10
167.3047485848
 20
402.86971950999998
 40
0.9999989999999999
 50
180
 51
267
  0
LINE
  8
_0-0_0
  6
CONTINUOUS
 62
    7
 10
166.3047465848
 20
402.86971950999998
 11
166.3047465848
 21
409.92075450999999
  0
LINE
  8
_0-0_0
  6
CONTINUOUS
 62
    7
 10
163.8047475848
 20
400.94558551
 11
163.8047475848
 21
408.42075450999999
  0
ARC
  8
_0-0_0
  6
CONTINUOUS
 62
    7
 10
165.8047485848
 20
400.94558551
 40
2.0000010000000001
 50
180
 51
267
  0
LINE
  8
_0-0_0
  6
CONTINUOUS
 62
    7
 10
165.7000755848
 20
398.94832651000002
 11
172.63883258480001
 21
398.58468151
  0
LINE
  8
_0-0_0
  6
CONTINUOUS
 62
    7
 10
164.3047485848
 20
411.92075251
 11
156.3047475848
 21
411.92075251
  0
ARC
  8
_0-0_0
  6
CONTINUOUS
 62
    7
 10
164.3047485848
 20
409.92075450999999
 40
2.0000010000000001
 50
0
 51
90
  0
LINE
  8
_0-0_0
  6
CONTINUOUS
 62
    7
 10
162.8047485848
 20
409.42075351
 11
152.3047485848
 21
409.42075351
  0
ARC
  8
_0-0_0
  6
CONTINUOUS
 62
    7
 10
162.8047485848
 20
408.42075450999999
 40
0.9999989999999999
 50
0
 51
90
  0
ARC
  8
_0-0_0
  6
CONTINUOUS
 62
    7
 10
156.3047475848
 20
412.92075450999999
 40
0.9999989999999999
 50
180
 51
270
  0
LINE
  8
_0-0_0
  6
CONTINUOUS
 62
    7
 10
152.8047465848
 20
410.92075351
 11
151.3047465848
 21
410.92075351
  0
ARC
  8
_0-0_0
  6
CONTINUOUS
 62
    7
 10
152.8047465848
 20
411.42075450999999
 40
0.500001
 50
270
 51
0
  0
ARC
  8
_0-0_0
  6
CONTINUOUS
 62
    7
 10
152.3047485848
 20
408.92075251
 40
0.500001
 50
90
 51
180
  0
LINE
  8
_0-0_0
  6
CONTINUOUS
 62
    7
 10
151.8047475848
 20
408.92075251
 11
151.8047475848
 21
407.17075351
  0
LINE
  8
_0-0_0
  6
CONTINUOUS
 62
    7
 10
172.82200658479999
 20
402.07988551
 11
172.9227795848
 21
404.00275051
  0
ARC
  8
_0-0_0
  6
CONTINUOUS
 62
    7
 10
172.3226925848
 20
402.10605150999999
 40
0.500001
 50
267
 51
357
  0
LINE
  8
_0-0_0
  6
CONTINUOUS
 62
    7
 10
172.63883258480001
 20
398.58468151
 11
172.5603285848
 21
397.08673650999998
  0
ARC
  8
_0-0_0
  6
CONTINUOUS
 62
    7
 10
151.0547475848
 20
407.17075351
 40
0.75
 50
180
 51
0
  0
ARC
  8
_0-0_0
  6
CONTINUOUS
 62
    7
 10
151.3047465848
 20
409.92075450999999
 40
0.9999989999999999
 50
90
 51
180
  0
LINE
  8
_0-0_0
  6
CONTINUOUS
 62
    7
 10
150.3047475848
 20
409.92075450999999
 11
150.3047475848
 21
407.17075351
  0
LINE
  8
_0-0_0
  6
CONTINUOUS
 62
    7
 10
173.44826258480001
 20
404.47589850999998
 11
173.9475795848
 21
404.44972951
  0
ARC
  8
_0-0_0
  6
CONTINUOUS
 62
    7
 10
173.42209658479999
 20
403.97658451000001
 40
0.500001
 50
87
 51
176.99999999999997
  0
ARC
  8
_0-0_0
  6
CONTINUOUS
 62
    7
 10
173.0596425848
 20
397.06057050999999
 40
0.500001
 50
176.99999999999997
 51
267
  0
ARC
  8
_0-0_0
  6
CONTINUOUS
 62
    7
 10
173.92141058479999
 20
403.95041551000003
 40
0.500001
 50
357
 51
87
  0
LINE
  8
_0-0_0
  6
CONTINUOUS
 62
    7
 10
173.03347358479999
 20
396.56125350999997
 11
173.53279058480001
 21
396.53508750999998
  0
ARC
  8
_0-0_0
  6
CONTINUOUS
 62
    7
 10
173.5589565848
 20
397.03440151000001
 40
0.500001
 50
267
 51
357
  0
ARC
  8
_0-0_0
  6
CONTINUOUS
 62
    7
 10
202.6762215848
 20
398.51254650999999
 40
1.5
 50
267
 51
87
  0
LINE
  8
_0-0_0
  6
CONTINUOUS
 62
    7
 10
161.3047485848
 20
434.42075251
 11
160.3047465848
 21
434.42075251
  0
ARC
  8
_0-0_0
  6
CONTINUOUS
 62
    7
 10
161.3047485848
 20
434.92075351
 40
0.500001
 50
270
 51
0
  0
LINE
  8
_0-0_0
  6
CONTINUOUS
 62
    7
 10
161.8047465848
 20
434.92075351
 11
161.8047465848
 21
448.42075351
  0
LINE
  8
_0-0_0
  6
CONTINUOUS
 62
    7
 10
154.8047475848
 20
442.92075450999999
 11
159.30268958479996
 21
442.92075450999999
  0
ARC
  8
_0-0_0
  6
CONTINUOUS
 62
    7
 10
154.8047475848
 20
441.42075450999999
 40
1.5
 50
90
 51
180
  0
LINE
  8
_0-0_0
  6
CONTINUOUS
 62
    7
 10
160.8047475848
 20
449.42075251
 11
153.20474858479997
 21
449.42075251
  0
ARC
  8
_0-0_0
  6
CONTINUOUS
 62
    7
 10
160.8047475848
 20
448.42075351
 40
0.9999989999999999
 50
0
 51
90
  0
LINE
  8
_0-0_0
  6
CONTINUOUS
 62
    7
 10
155.8047465848
 20
441.42075450999999
 11
159.8047485848
 21
441.42075450999999
  0
ARC
  8
_0-0_0
  6
CONTINUOUS
 62
    7
 10
155.8047465848
 20
440.92075351
 40
0.500001
 50
90
 51
180
  0
LINE
  8
_0-0_0
  6
CONTINUOUS
 62
    7
 10
152.80640258480003
 20
447.92075251
 11
152.80640258480003
 21
446.52075451000002
  0
ARC
  8
_0-0_0
  6
CONTINUOUS
 62
    7
 10
159.80269058479996
 20
447.42075450999999
 40
0.500001
 50
0
 51
90
  0
LINE
  8
_0-0_0
  6
CONTINUOUS
 62
    7
 10
160.30268858479997
 20
443.92075351
 11
160.30268858479997
 21
447.42075450999999
  0
ARC
  8
_0-0_0
  6
CONTINUOUS
 62
    7
 10
159.30268958479996
 20
443.92075351
 40
0.9999989999999999
 50
270
 51
0
  0
LINE
  8
_0-0_0
  6
CONTINUOUS
 62
    7
 10
160.3047465848
 20
440.92075351
 11
160.3047465848
 21
436.42075351
  0
ARC
  8
_0-0_0
  6
CONTINUOUS
 62
    7
 10
159.8047485848
 20
440.92075351
 40
0.500001
 50
0
 51
90
  0
ARC
  8
_0-0_0
  6
CONTINUOUS
 62
    7
 10
160.3047465848
 20
435.42075450999999
 40
0.9999989999999999
 50
90
 51
270
  0
ARC
  8
_0-0_0
  6
CONTINUOUS
 62
    7
 10
149.70474758479997
 20
451.42075351
 40
1.5
 50
180
 51
240.25511900000004
  0
LINE
  8
_0-0_0
  6
CONTINUOUS
 62
    7
 10
148.96054058480001
 20
450.11839050999998
 11
152.80640258480003
 21
447.92075251
  0
LINE
  8
_0-0_0
  6
CONTINUOUS
 62
    7
 10
154.00640258480001
 20
447.92075251
 11
159.80269058479996
 21
447.92075251
  0
LINE
  8
_0-0_0
  6
CONTINUOUS
 62
    7
 10
154.00640258480001
 20
446.52075451000002
 11
154.00640258480001
 21
447.92075251
  0
LINE
  8
_0-0_0
  6
CONTINUOUS
 62
    7
 10
149.70474758479997
 20
451.42075351
 11
153.20474858479997
 21
449.42075251
  0
ARC
  8
_0-0_0
  6
CONTINUOUS
 62
    7
 10
153.40640258479999
 20
446.52075451000002
 40
0.5999999999999999
 50
180
 51
0
  0
LINE
  8
_0-0_0
  6
CONTINUOUS
 62
    7
 10
153.95474858479997
 20
394.42075351
 11
152.70474758479997
 21
394.42075351
  0
LINE
  8
_0-0_0
  6
CONTINUOUS
 62
    7
 10
153.95474858479997
 20
398.42075251
 11
152.70474758479997
 21
398.42075251
  0
ARC
  8
_0-0_0
  6
CONTINUOUS
 62
    7
 10
175.2047475848
 20
435.32075250999998
 40
2.199999
 50
270
 51
0
  0
ARC
  8
_0-0_0
  6
CONTINUOUS
 62
    7
 10
175.2047475848
 20
435.32075250999998
 40
0.9999989999999999
 50
270
 51
0
  0
LINE
  8
_0-0_0
  6
CONTINUOUS
 62
    7
 10
175.2047475848
 20
434.32075350999997
 11
167.40474758479999
 21
434.32075350999997
  0
LINE
  8
_0-0_0
  6
CONTINUOUS
 62
    7
 10
167.40474758479999
 20
434.32075350999997
 11
167.40474758479999
 21
433.12075350999999
  0
LINE
  8
_0-0_0
  6
CONTINUOUS
 62
    7
 10
148.20474758479997
 20
442.86172051
 11
152.70474758479997
 21
442.86172051
  0
LINE
  8
_0-0_0
  6
CONTINUOUS
 62
    7
 10
131.29010558480002
 20
423.16112851000003
 11
132.20474858479997
 21
421.42075351
  0
LINE
  8
_0-0_0
  6
CONTINUOUS
 62
    7
 10
132.20474858479997
 20
421.42075351
 11
144.20474858479997
 21
421.42075351
  0
LINE
  8
_0-0_0
  6
CONTINUOUS
 62
    7
 10
124.40437058480001
 20
428.97981150999999
 11
129.40436858480001
 21
430.79966251000002
  0
LINE
  8
_0-0_0
  6
CONTINUOUS
 62
    7
 10
124.40437058480001
 20
430.04398951000002
 11
129.06235058480001
 21
431.73935551
  0
LINE
  8
_0-0_0
  6
CONTINUOUS
 62
    7
 10
124.40437058480001
 20
421.86169651
 11
129.40436858480001
 21
420.04184550999997
  0
LINE
  8
_0-0_0
  6
CONTINUOUS
 62
    7
 10
129.06235058480001
 20
419.10215251
 11
135.86597258480003
 21
418.10979751000002
  0
ARC
  8
_0-0_0
  6
CONTINUOUS
 62
    7
 10
135.92370458480002
 20
418.50560851
 40
0.3999989999999999
 50
261.70153399999998
 51
351.86989800000202
  0
LINE
  8
_0-0_0
  6
CONTINUOUS
 62
    7
 10
136.31968358480003
 20
418.44904050999997
 11
136.34779958479999
 21
418.64586451000002
  0
ARC
  8
_0-0_0
  6
CONTINUOUS
 62
    7
 10
135.95182058479998
 20
418.70243550999999
 40
0.3999989999999999
 50
351.86989800000299
 51
81.869898000000006
  0
LINE
  8
_0-0_0
  6
CONTINUOUS
 62
    7
 10
136.0083885848
 20
419.09841451
 11
129.40436858480001
 21
420.04184550999997
  0
LINE
  8
_0-0_0
  6
CONTINUOUS
 62
    7
 10
129.06235058480001
 20
431.73935551
 11
135.86597258480003
 21
432.73171051000003
  0
ARC
  8
_0-0_0
  6
CONTINUOUS
 62
    7
 10
135.92370458480002
 20
432.33589651
 40
0.3999989999999999
 50
8.1301019999980007
 51
98.298466000000005
  0
LINE
  8
_0-0_0
  6
CONTINUOUS
 62
    7
 10
136.31968358480003
 20
432.39246751000002
 11
136.34779958479999
 21
432.19564050999998
  0
ARC
  8
_0-0_0
  6
CONTINUOUS
 62
    7
 10
135.95182058479998
 20
432.13907251000001
 40
0.3999989999999999
 50
278.13010199999997
 51
8.1301019999969846
  0
LINE
  8
_0-0_0
  6
CONTINUOUS
 62
    7
 10
136.20474758479997
 20
425.92075351
 11
136.20474758479997
 21
425.42075251
  0
LINE
  8
_0-0_0
  6
CONTINUOUS
 62
    7
 10
132.20474858479997
 20
429.42075450999999
 11
131.29010558480002
 21
427.68037650999997
  0
LINE
  8
_0-0_0
  6
CONTINUOUS
 62
    7
 10
144.20474858479997
 20
430.42075351
 11
139.20474758479997
 21
429.42075450999999
  0
LINE
  8
_0-0_0
  6
CONTINUOUS
 62
    7
 10
144.20474858479997
 20
426.42075450999999
 11
139.20474758479997
 21
425.42075251
  0
LINE
  8
_0-0_0
  6
CONTINUOUS
 62
    7
 10
144.20474858479997
 20
424.42075351
 11
139.20474758479997
 21
425.42075251
  0
LINE
  8
_0-0_0
  6
CONTINUOUS
 62
    7
 10
139.20474758479997
 20
425.42075251
 11
144.20474858479997
 21
425.42075251
  0
LINE
  8
_0-0_0
  6
CONTINUOUS
 62
    7
 10
110.07419258480002
 20
427.29019950999998
 11
108.20474858479997
 21
425.42075251
  0
LINE
  8
_0-0_0
  6
CONTINUOUS
 62
    7
 10
131.29010558480002
 20
427.68037650999997
 11
129.29284658480003
 21
427.78504951000002
  0
LINE
  8
_0-0_0
  6
CONTINUOUS
 62
    7
 10
129.29284658480003
 20
427.78504951000002
 11
129.39751658479997
 21
429.78230851000001
  0
LINE
  8
_0-0_0
  6
CONTINUOUS
 62
    7
 10
129.39751658479997
 20
429.78230851000001
 11
127.40025758479999
 21
429.88698151
  0
LINE
  8
_0-0_0
  6
CONTINUOUS
 62
    7
 10
107.24449058480002
 20
427.43849551
 11
107.42766758480002
 21
430.93369951
  0
LINE
  8
_0-0_0
  6
CONTINUOUS
 62
    7
 10
107.42766758480002
 20
430.93369951
 11
105.32573558479999
 21
429.04111351
  0
LINE
  8
_0-0_0
  6
CONTINUOUS
 62
    7
 10
105.32573558479999
 20
429.04111351
 11
105.24723158480003
 21
427.54316850999999
  0
LINE
  8
_0-0_0
  6
CONTINUOUS
 62
    7
 10
105.24723158480003
 20
427.54316850999999
 11
136.20474758479997
 21
425.92075351
  0
LINE
  8
_0-0_0
  6
CONTINUOUS
 62
    7
 10
127.40025758479999
 20
429.88698151
 11
126.2969565848
 21
427.94205750999998
  0
LINE
  8
_0-0_0
  6
CONTINUOUS
 62
    7
 10
126.2969565848
 20
427.94205750999998
 11
124.29969758480001
 21
428.04673050999997
  0
LINE
  8
_0-0_0
  6
CONTINUOUS
 62
    7
 10
124.29969758480001
 20
428.04673050999997
 11
124.40437058480001
 21
430.04398951000002
  0
LINE
  8
_0-0_0
  6
CONTINUOUS
 62
    7
 10
124.40437058480001
 20
430.04398951000002
 11
122.40711158480002
 21
430.14865951000002
  0
LINE
  8
_0-0_0
  6
CONTINUOUS
 62
    7
 10
122.40711158480002
 20
430.14865951000002
 11
121.30380758479998
 21
428.20373850999999
  0
LINE
  8
_0-0_0
  6
CONTINUOUS
 62
    7
 10
121.30380758479998
 20
428.20373850999999
 11
119.3065485848
 21
428.30840850999999
  0
LINE
  8
_0-0_0
  6
CONTINUOUS
 62
    7
 10
119.3065485848
 20
428.30840850999999
 11
119.41122158479999
 21
430.30566750999998
  0
LINE
  8
_0-0_0
  6
CONTINUOUS
 62
    7
 10
119.41122158479999
 20
430.30566750999998
 11
117.4139625848
 21
430.41034051000003
  0
LINE
  8
_0-0_0
  6
CONTINUOUS
 62
    7
 10
117.4139625848
 20
430.41034051000003
 11
116.31066158480002
 21
428.46541651000001
  0
LINE
  8
_0-0_0
  6
CONTINUOUS
 62
    7
 10
116.31066158480002
 20
428.46541651000001
 11
114.31340258479997
 21
428.57008951
  0
LINE
  8
_0-0_0
  6
CONTINUOUS
 62
    7
 10
114.31340258479997
 20
428.57008951
 11
114.41807258480003
 21
430.56734850999999
  0
LINE
  8
_0-0_0
  6
CONTINUOUS
 62
    7
 10
114.41807258480003
 20
430.56734850999999
 11
112.42081358479999
 21
430.67202150999998
  0
LINE
  8
_0-0_0
  6
CONTINUOUS
 62
    7
 10
112.42081358479999
 20
430.67202150999998
 11
111.3175125848
 21
428.72709751000002
  0
LINE
  8
_0-0_0
  6
CONTINUOUS
 62
    7
 10
111.3175125848
 20
428.72709751000002
 11
109.32025358480001
 21
428.83176751000002
  0
LINE
  8
_0-0_0
  6
CONTINUOUS
 62
    7
 10
109.32025358480001
 20
428.83176751000002
 11
109.42492658480001
 21
430.82902651000001
  0
LINE
  8
_0-0_0
  6
CONTINUOUS
 62
    7
 10
109.42492658480001
 20
430.82902651000001
 11
107.42766758480002
 21
430.93369951
  0
LINE
  8
_0-0_0
  6
CONTINUOUS
 62
    7
 10
136.20474758479997
 20
424.92075450999999
 11
136.20474758479997
 21
425.42075251
  0
LINE
  8
_0-0_0
  6
CONTINUOUS
 62
    7
 10
144.20474858479997
 20
420.42075450999999
 11
139.20474758479997
 21
421.42075351
  0
LINE
  8
_0-0_0
  6
CONTINUOUS
 62
    7
 10
131.29010558480002
 20
423.16112851000003
 11
129.29284658480003
 21
423.05645851000003
  0
LINE
  8
_0-0_0
  6
CONTINUOUS
 62
    7
 10
129.29284658480003
 20
423.05645851000003
 11
129.39751658479997
 21
421.05919950999998
  0
LINE
  8
_0-0_0
  6
CONTINUOUS
 62
    7
 10
129.39751658479997
 20
421.05919950999998
 11
127.40025758479999
 21
420.95452650999999
  0
LINE
  8
_0-0_0
  6
CONTINUOUS
 62
    7
 10
107.24449058480002
 20
423.40301251
 11
107.42766758480002
 21
419.90780851
  0
LINE
  8
_0-0_0
  6
CONTINUOUS
 62
    7
 10
107.42766758480002
 20
419.90780851
 11
105.32573558479999
 21
421.80039450999999
  0
LINE
  8
_0-0_0
  6
CONTINUOUS
 62
    7
 10
105.32573558479999
 20
421.80039450999999
 11
105.24723158480003
 21
423.29833951000001
  0
LINE
  8
_0-0_0
  6
CONTINUOUS
 62
    7
 10
105.24723158480003
 20
423.29833951000001
 11
136.20474758479997
 21
424.92075450999999
  0
LINE
  8
_0-0_0
  6
CONTINUOUS
 62
    7
 10
127.40025758479999
 20
420.95452650999999
 11
126.2969565848
 21
422.89945051000001
  0
LINE
  8
_0-0_0
  6
CONTINUOUS
 62
    7
 10
126.2969565848
 20
422.89945051000001
 11
124.29969758480001
 21
422.79477751000002
  0
LINE
  8
_0-0_0
  6
CONTINUOUS
 62
    7
 10
124.29969758480001
 20
422.79477751000002
 11
124.40437058480001
 21
420.79751850999997
  0
LINE
  8
_0-0_0
  6
CONTINUOUS
 62
    7
 10
124.40437058480001
 20
420.79751850999997
 11
122.40711158480002
 21
420.69284850999998
  0
LINE
  8
_0-0_0
  6
CONTINUOUS
 62
    7
 10
122.40711158480002
 20
420.69284850999998
 11
121.30380758479998
 21
422.63776951
  0
LINE
  8
_0-0_0
  6
CONTINUOUS
 62
    7
 10
121.30380758479998
 20
422.63776951
 11
119.3065485848
 21
422.53309951
  0
LINE
  8
_0-0_0
  6
CONTINUOUS
 62
    7
 10
119.3065485848
 20
422.53309951
 11
119.41122158479999
 21
420.53584051000001
  0
LINE
  8
_0-0_0
  6
CONTINUOUS
 62
    7
 10
119.41122158479999
 20
420.53584051000001
 11
117.4139625848
 21
420.43116751000002
  0
LINE
  8
_0-0_0
  6
CONTINUOUS
 62
    7
 10
117.4139625848
 20
420.43116751000002
 11
116.31066158480002
 21
422.37609150999998
  0
LINE
  8
_0-0_0
  6
CONTINUOUS
 62
    7
 10
116.31066158480002
 20
422.37609150999998
 11
114.31340258479997
 21
422.27141850999999
  0
LINE
  8
_0-0_0
  6
CONTINUOUS
 62
    7
 10
114.31340258479997
 20
422.27141850999999
 11
114.41807258480003
 21
420.27415951
  0
LINE
  8
_0-0_0
  6
CONTINUOUS
 62
    7
 10
114.41807258480003
 20
420.27415951
 11
112.42081358479999
 21
420.16948651000001
  0
LINE
  8
_0-0_0
  6
CONTINUOUS
 62
    7
 10
112.42081358479999
 20
420.16948651000001
 11
111.3175125848
 21
422.11441051000003
  0
LINE
  8
_0-0_0
  6
CONTINUOUS
 62
    7
 10
111.3175125848
 20
422.11441051000003
 11
109.32025358480001
 21
422.00973750999998
  0
LINE
  8
_0-0_0
  6
CONTINUOUS
 62
    7
 10
109.32025358480001
 20
422.00973750999998
 11
109.42492658480001
 21
420.01247850999999
  0
LINE
  8
_0-0_0
  6
CONTINUOUS
 62
    7
 10
109.42492658480001
 20
420.01247850999999
 11
107.42766758480002
 21
419.90780851
  0
LINE
  8
_0-0_0
  6
CONTINUOUS
 62
    7
 10
110.07419258480002
 20
423.55130851000001
 11
108.20474858479997
 21
425.42075251
  0
LINE
  8
_0-0_0
  6
CONTINUOUS
 62
    7
 10
136.0083885848
 20
431.74309350999999
 11
129.40436858480001
 21
430.79966251000002
  0
LINE
  8
_0-0_0
  6
CONTINUOUS
 62
    7
 10
124.40437058480001
 20
420.79751850999997
 11
129.06235058480001
 21
419.10215251
  0
LINE
  8
_0-0_0
  6
CONTINUOUS
 62
    7
 10
132.20474858479997
 20
429.42075450999999
 11
144.20474858479997
 21
429.42075450999999
  0
LINE
  8
_0-0_0
  6
CONTINUOUS
 62
    7
 10
174.90474758479999
 20
436.72075351000001
 11
175.90474658479999
 21
436.72075351000001
  0
LINE
  8
_0-0_0
  6
CONTINUOUS
 62
    7
 10
175.5302745848
 20
436.72075351000001
 11
175.90474658479999
 21
437.09522550999998
  0
ARC
  8
_0-0_0
  6
CONTINUOUS
 62
    7
 10
155.70474758479997
 20
429.73413151
 40
7.5
 50
180
 51
267
  0
LINE
  8
_0-0_0
  6
CONTINUOUS
 62
    7
 10
148.20474758479997
 20
429.73413151
 11
148.20474758479997
 21
442.86172051
  0
LINE
  8
_0-0_0
  6
CONTINUOUS
 62
    7
 10
155.54773958480001
 20
426.73824451000002
 11
160.04773958480001
 21
426.50240851000001
  0
ARC
  8
_0-0_0
  6
CONTINUOUS
 62
    7
 10
155.70474758479997
 20
429.73413151
 40
3
 50
180
 51
267
  0
LINE
  8
_0-0_0
  6
CONTINUOUS
 62
    7
 10
152.70474758479997
 20
429.73413151
 11
152.70474758479997
 21
442.86172051
  0
LINE
  8
_0-0_0
  6
CONTINUOUS
 62
    7
 10
159.20474858479997
 20
429.49829550999999
 11
159.20474858479997
 21
440.54933251
  0
ARC
  8
_0-0_0
  6
CONTINUOUS
 62
    7
 10
160.20474758479997
 20
429.49829550999999
 40
0.9999989999999999
 50
180
 51
267
  0
LINE
  8
_0-0_0
  6
CONTINUOUS
 62
    7
 10
157.20474758479997
 20
429.49829550999999
 11
157.20474758479997
 21
440.54933251
  0
ARC
  8
_0-0_0
  6
CONTINUOUS
 62
    7
 10
160.20474758479997
 20
429.49829550999999
 40
3
 50
180
 51
267
  0
LINE
  8
_0-0_0
  6
CONTINUOUS
 62
    7
 10
157.20474758479997
 20
440.54933251
 11
159.20474858479997
 21
440.54933251
  0
LINE
  8
_0-0_0
  6
CONTINUOUS
 62
    7
 10
178.45219658479999
 20
425.53787251
 11
176.81513258480001
 21
423.90080551
  0
LINE
  8
_0-0_0
  6
CONTINUOUS
 62
    7
 10
179.7959865848
 20
425.46744751
 11
178.1589195848
 21
423.83038051
  0
LINE
  8
_0-0_0
  6
CONTINUOUS
 62
    7
 10
181.1397735848
 20
425.39702251
 11
179.50270958479999
 21
423.75995551
  0
LINE
  8
_0-0_0
  6
CONTINUOUS
 62
    7
 10
182.48356358480001
 20
425.32659751
 11
180.84649658480001
 21
423.68953051
  0
LINE
  8
_0-0_0
  6
CONTINUOUS
 62
    7
 10
183.8273505848
 20
425.25617251
 11
182.19028658479999
 21
423.61910551
  0
LINE
  8
_0-0_0
  6
CONTINUOUS
 62
    7
 10
185.17114058480001
 20
425.18574751
 11
183.53407358480001
 21
423.54868051
  0
LINE
  8
_0-0_0
  6
CONTINUOUS
 62
    7
 10
184.8778635848
 20
423.47825551
 11
185.49138458479999
 21
424.09177650999999
  0
LINE
  8
_0-0_0
  6
CONTINUOUS
 62
    7
 10
177.1191585848
 20
425.60773351
 11
175.4820945848
 21
423.97066651
  0
LINE
  8
_0-0_0
  6
CONTINUOUS
 62
    7
 10
175.76461958479999
 20
425.67872251
 11
175.5495585848
 21
425.46365851000002
  0
LINE
  8
_0-0_0
  6
CONTINUOUS
 62
    7
 10
144.20474858479997
 20
479.92075351
 11
145.20474758479997
 21
479.92075351
  0
LINE
  8
_0-0_0
  6
CONTINUOUS
 62
    7
 10
145.20474758479997
 20
479.92075351
 11
145.20474758479997
 21
392.92075351
  0
ARC
  8
_0-0_0
  6
CONTINUOUS
 62
    7
 10
187.2047475848
 20
476.62075350999999
 40
19.5
 50
157.38013499999997
 51
202.619865
  0
LINE
  8
_0-0_0
  6
CONTINUOUS
 62
    7
 10
564.20474758479997
 20
261.36300750999999
 11
564.20474758479997
 21
239.26370251
  0
LINE
  8
_0-0_0
  6
CONTINUOUS
 62
    7
 10
564.20474758479997
 20
245.26370251
 11
694.20474758479997
 21
245.26370251
  0
LINE
  8
_0-0_0
  6
CONTINUOUS
 62
    7
 10
144.20474858479997
 20
556.43354006200002
 11
694.20474758479997
 21
556.43354006200002
  0
LINE
  8
_0-0_0
  6
CONTINUOUS
 62
    7
 10
144.20474858479997
 20
485.12075250999999
 11
144.20474858479997
 21
562.43354006200002
  0
TEXT
  8
_0-0_0
 62
    7
 10
422.57275707949998
 20
558.01683207949998
 40
6
 41
1
 50
0
  1
Ｗ
  0
LINE
  8
_0-0_0
  6
CONTINUOUS
 62
    7
 10
157.40474858480002
 20
513.67605275589995
 11
177.40474658479999
 21
513.67605275589995
  0
LINE
  8
_0-0_0
  6
CONTINUOUS
 62
    7
 10
157.40474858480002
 20
515.67605275589995
 11
157.40474858480002
 21
490.12075350999999
  0
LINE
  8
_0-0_0
  6
CONTINUOUS
 62
    7
 10
177.40474658479999
 20
515.67605275589995
 11
177.40474658479999
 21
472.92075450999999
  0
LINE
  8
_0-0_0
  6
CONTINUOUS
 62
    7
 10
144.20474858479997
 20
535.99237831239998
 11
177.40474658479999
 21
535.99237831239998
  0
LINE
  8
_0-0_0
  6
CONTINUOUS
 62
    7
 10
177.40474658479999
 20
537.99237831239998
 11
177.40474658479999
 21
521.67605275589995
  0
CIRCLE
  8
_0-4_図枠
  6
CONTINUOUS
 62
    7
 10
130.62807127320002
 20
515.54874179579997
 40
6
  0
LINE
  8
_0-4_図枠
  6
CONTINUOUS
 62
    7
 10
153.43808749089999
 20
476.0406347851
 11
133.62807127320002
 21
510.35258937309999
  0
CIRCLE
  8
_0-4_図枠
  6
CONTINUOUS
 62
    7
 10
153.43808749089999
 20
476.0406347851
 40
0.9
  0
CIRCLE
  8
_0-4_図枠
  6
CONTINUOUS
 62
    7
 10
129.85400486770004
 20
494.83312276560002
 40
6
  0
LINE
  8
_0-4_図枠
  6
CONTINUOUS
 62
    7
 10
150.97312011040003
 20
458.25374215440002
 11
132.85400486770004
 21
489.63697034289999
  0
CIRCLE
  8
_0-4_図枠
  6
CONTINUOUS
 62
    7
 10
150.97312011040003
 20
458.25374215440002
 40
0.9
  0
CIRCLE
  8
_0-4_図枠
  6
CONTINUOUS
 62
    7
 10
125.55560720430003
 20
451.83888988619998
 40
6
  0
LINE
  8
_0-4_図枠
  6
CONTINUOUS
 62
    7
 10
149.28407078609996
 20
428.11042630439999
 11
129.79824789140002
 21
447.59624919909999
  0
CIRCLE
  8
_0-4_図枠
  6
CONTINUOUS
 62
    7
 10
149.28407078609996
 20
428.11042630439999
 40
0.9
  0
CIRCLE
  8
_0-4_図枠
  6
CONTINUOUS
 62
    7
 10
127.30047908189999
 20
409.30763786910001
 40
6
  0
LINE
  8
_0-4_図枠
  6
CONTINUOUS
 62
    7
 10
147.72628157960003
 20
421.10048043950002
 11
132.49663150460003
 21
412.30763786910001
  0
CIRCLE
  8
_0-4_図枠
  6
CONTINUOUS
 62
    7
 10
147.72628157960003
 20
421.10048043950002
 40
0.9
  0
LINE
  8
_0-3_躯体と製品
  6
CONTINUOUS
 62
    7
 10
149.20474858479997
 20
416.42075251
 11
149.20474858479997
 21
434.42075251
  0
LINE
  8
_0-3_躯体と製品
  6
CONTINUOUS
 62
    7
 10
149.20474858479997
 20
434.42075251
 11
147.70474858479997
 21
434.42075251
  0
LINE
  8
_0-3_躯体と製品
  6
CONTINUOUS
 62
    7
 10
149.20474858479997
 20
416.42075251
 11
147.70474858479997
 21
416.42075251
  0
ARC
  8
_0-3_躯体と製品
  6
CONTINUOUS
 62
    7
 10
149.07603903879999
 20
423.91798950999998
 40
3
 50
272.45892600000002
 51
321.38536199999999
  0
ARC
  8
_0-3_躯体と製品
  6
CONTINUOUS
 62
    7
 10
147.2047500388
 20
425.42075251
 40
5.4000000000000004
 50
321.317813
 51
0
  0
ARC
  8
_0-3_躯体と製品
  6
CONTINUOUS
 62
    7
 10
147.2047500388
 20
425.42075251
 40
5.4000000000000004
 50
0
 51
38.851061999999992
  0
ARC
  8
_0-3_躯体と製品
  6
CONTINUOUS
 62
    7
 10
149.07603903879999
 20
426.92351251000002
 40
3
 50
38.614637999999999
 51
87.541073999999995
  0
CIRCLE
  8
_0-4_図枠
  6
CONTINUOUS
 62
    7
 10
99.083861660129969
 20
449.57184798240002
 40
6
  0
LINE
  8
_0-4_図枠
  6
CONTINUOUS
 62
    7
 10
111.58198576719997
 20
427.92446202960002
 11
102.08386166010001
 21
444.37569555969998
  0
CIRCLE
  8
_0-4_図枠
  6
CONTINUOUS
 62
    7
 10
111.58198576719997
 20
427.92446202960002
 40
0.9
  0
CIRCLE
  8
_0-4_図枠
  6
CONTINUOUS
 62
    7
 10
194.65013769430001
 20
506.95135722740002
 40
6
  0
LINE
  8
_0-4_図枠
  6
CONTINUOUS
 62
    7
 10
173.41331618940001
 20
470.16810338980002
 11
191.65013769430001
 21
501.75520480469999
  0
CIRCLE
  8
_0-4_図枠
  6
CONTINUOUS
 62
    7
 10
173.41331618940001
 20
470.16810338980002
 40
0.9
  0
CIRCLE
  8
_0-4_図枠
  6
CONTINUOUS
 62
    7
 10
202.97963514
 20
383.9216209823
 40
6
  0
LINE
  8
_0-4_図枠
  6
CONTINUOUS
 62
    7
 10
176.08802744319999
 20
430.49925181050003
 11
199.97963514
 21
389.11777340510002
  0
CIRCLE
  8
_0-4_図枠
  6
CONTINUOUS
 62
    7
 10
176.08802744319999
 20
430.49925181050003
 40
0.9
  0
TEXT
  8
_0-0_0
 62
    7
 10
154.3863396914
 20
536.84302505949995
 40
6
 41
1
 50
0
  1
33.5
  0
TEXT
  8
_0-0_0
 62
    7
 10
164.4443776363
 20
515.29008660620002
 40
6
 41
1
 50
0
  1
20
  0
TEXT
  8
_0-0_0
 62
    7
 10
200.3788139541
 20
469.49954543609999
 40
6
 41
1
 50
90
  1
１５
  0
TEXT
  8
_0-0_0
 62
    7
 10
200.71670996570001
 20
447.02946066560003
 40
6
 41
1
 50
90
  1
３６
  0
TEXT
  8
_0-0_0
 62
    7
 10
65.367222072869993
 20
412.80745500559999
 40
6
 41
1
 50
90
  1
Ｅ
  0
TEXT
  8
_0-0_0
 62
    7
 10
92.506681819660002
 20
386.41602674619998
 40
6
 41
1
 50
90
  1
Ｄ
  0
TEXT
  8
_0-4_図枠
 62
    7
 10
191.65013769430001
 20
503.95135722740002
 40
6
 41
1
 50
0
  1
２
  0
CIRCLE
  8
_0-4_図枠
  6
CONTINUOUS
 62
    7
 10
200.14632006100001
 20
493.77517447230002
 40
6
  0
LINE
  8
_0-4_図枠
  6
CONTINUOUS
 62
    7
 10
175.67746367469999
 20
451.39387200819999
 11
197.14632006100001
 21
488.57902204959998
  0
CIRCLE
  8
_0-4_図枠
  6
CONTINUOUS
 62
    7
 10
175.67746367469999
 20
451.39387200819999
 40
0.9
  0
TEXT
  8
_0-4_図枠
 62
    7
 10
126.85400486769998
 20
491.83312276560002
 40
6
 41
1
 50
0
  1
４
  0
LINE
  8
_0-4_図枠
  6
CONTINUOUS
 62
    7
 10
490
 20
226.15203961220001
 11
490
 21
163.15203961220001
  0
ARC
  8
_0-0_0
  6
CONTINUOUS
 62
    7
 10
196.8297475848
 20
476.62075350999999
 40
28.625
 50
164.81071326279999
 51
195.18928673720001
  0
LINE
  8
_0-0_0
  6
CONTINUOUS
 62
    7
 10
162.70474758479997
 20
482.7297072129
 11
164.09579388189999
 21
484.12075350999999
  0
LINE
  8
_0-0_0
  6
CONTINUOUS
 62
    7
 10
162.70474758479997
 20
479.9012800882
 11
166.92422100659999
 21
484.12075350999999
  0
LINE
  8
_0-0_0
  6
CONTINUOUS
 62
    7
 10
162.70474758479997
 20
477.07285296340001
 11
169.01497532350001
 21
483.3830807022
  0
LINE
  8
_0-0_0
  6
CONTINUOUS
 62
    7
 10
162.70474758479997
 20
474.24442583870001
 11
168.39751494679999
 21
479.93719320079998
  0
LINE
  8
_0-0_0
  6
CONTINUOUS
 62
    7
 10
162.70474758479997
 20
471.41599871390002
 11
168.20628615199999
 21
476.9175372812
  0
LINE
  8
_0-0_0
  6
CONTINUOUS
 62
    7
 10
163.23792950559999
 20
469.12075350999999
 11
168.3080649028
 21
474.19088890720002
  0
LINE
  8
_0-0_0
  6
CONTINUOUS
 62
    7
 10
166.06635663029999
 20
469.12075350999999
 11
168.63305971919999
 21
471.68745659889998
  0
LINE
  8
_0-0_0
  6
CONTINUOUS
 62
    7
 10
175.51645918349999
 20
432.12075450999998
 11
174.5976822243
 21
430.21693866210001
  0
ARC
  8
_0-0_0
  6
CONTINUOUS
 62
    7
 10
171.7157353293
 20
431.60775931709998
 40
3.2000000000000002
 50
218.24892132709999
 51
334.23815491096002
  0
LINE
  8
_0-0_0
  6
CONTINUOUS
 62
    7
 10
176.40474758479999
 20
432.12075450999998
 11
175.31816894799999
 21
429.86923349829999
  0
ARC
  8
_0-0_0
  6
CONTINUOUS
 62
    7
 10
167.8980257563
 20
430.63560006249998
 40
0.4
 50
38.248921327129999
 51
218.24892132709996
  0
LINE
  8
_0-0_0
  6
CONTINUOUS
 62
    7
 10
168.2121571907
 20
430.88323172830002
 11
169.2026838539
 21
429.62670599059999
  0
LINE
  8
_0-0_0
  6
CONTINUOUS
 62
    7
 10
167.5838943219
 20
430.38796839669999
 11
168.57442098510001
 21
429.13144265900002
  0
ARC
  8
_0-0_0
  6
CONTINUOUS
 62
    7
 10
171.7157353293
 20
431.60775931709998
 40
4
 50
218.24892132709999
 51
334.23815491096002
  0
LINE
  8
_0-0_0
  6
CONTINUOUS
 62
    7
 10
167.40474758479999
 20
432.12075450999998
 11
176.40474758479999
 21
432.12075450999998
  0
ARC
  8
_0-0_0
  6
CONTINUOUS
 62
    7
 10
175.90474758479999
 20
432.62075450999998
 40
0.5
 50
0
 51
90
  0
LINE
  8
_0-0_0
  6
CONTINUOUS
 62
    7
 10
176.40474758479999
 20
432.62075450999998
 11
176.40474758479999
 21
432.12075450999998
  0
LINE
  8
_0-0_0
  6
CONTINUOUS
 62
    7
 10
167.7047475848
 20
433.12075450999998
 11
175.90474758479999
 21
433.12075450999998
  0
ARC
  8
_0-0_0
  6
CONTINUOUS
 62
    7
 10
167.40474758479999
 20
433.12075450999998
 40
1
 50
180
 51
270
  0
ARC
  8
_0-0_0
  6
CONTINUOUS
 62
    7
 10
167.7047475848
 20
433.42075450999999
 40
0.2999999999999999
 50
180
 51
270
  0
ARC
  8
_0-0_0
  6
CONTINUOUS
 62
    7
 10
172.95156989180001
 20
436.13709880200003
 40
0.5
 50
268.09506709943997
 51
358.09506709574299
  0
ARC
  8
_0-0_0
  6
CONTINUOUS
 62
    7
 10
173.9676378627
 20
436.60358125459999
 40
0.4999999999354999
 50
358.09506709943997
 51
178.09506709939998
  0
LINE
  8
_0-0_0
  6
CONTINUOUS
 62
    7
 10
174.4341203152
 20
435.58751328369999
 11
174.46736154160001
 21
436.58696064150001
  0
ARC
  8
_0-0_0
  6
CONTINUOUS
 62
    7
 10
173.4346729575
 20
435.62075450999998
 40
1
 50
268.09506709943997
 51
358.09506709574197
  0
LINE
  8
_0-0_0
  6
CONTINUOUS
 62
    7
 10
173.45129357069999
 20
436.12047818889999
 11
173.46791418390001
 21
436.62020186780001
  0
LINE
  8
_0-0_0
  6
CONTINUOUS
 62
    7
 10
167.43798881110001
 20
435.82020186779999
 11
172.9349492787
 21
435.6373751232
  0
ARC
  8
_0-0_0
  6
CONTINUOUS
 62
    7
 10
167.40474758479999
 20
434.82075450999997
 40
1
 50
88.095067099440001
 51
180
  0
LINE
  8
_0-0_0
  6
CONTINUOUS
 62
    7
 10
167.71471995269999
 20
434.81044495089998
 11
173.40143173120001
 21
434.62130715230001
  0
ARC
  8
_0-0_0
  6
CONTINUOUS
 62
    7
 10
167.7047475848
 20
434.51061074360001
 40
0.2999999999999999
 50
88.095067099450006
 51
180
  0
LINE
  8
_0-0_0
  6
CONTINUOUS
 62
    7
 10
166.40474758479999
 20
434.82075450999997
 11
166.40474758479999
 21
433.12075450999998
  0
LINE
  8
_0-0_0
  6
CONTINUOUS
 62
    7
 10
167.40474758479999
 20
434.51061074360001
 11
167.40474758479999
 21
433.42075450999999
  0
LINE
  8
_0-0_0
  6
CONTINUOUS
 62
    7
 10
167.40474758479999
 20
433.12075350999999
 11
167.7047475848
 21
433.12075450999998
  0
LINE
  8
_0-0_0
  6
CONTINUOUS
 62
    7
 10
144.20474858479997
 20
468.74448855629998
 11
145.20474858479997
 21
467.74448855629998
  0
LINE
  8
_0-0_0
  6
CONTINUOUS
 62
    7
 10
144.20474858479997
 20
467.33027499389999
 11
145.20474858479997
 21
466.33027499389999
  0
LINE
  8
_0-0_0
  6
CONTINUOUS
 62
    7
 10
144.20474858479997
 20
465.9160614315
 11
145.20474858479997
 21
464.9160614315
  0
LINE
  8
_0-0_0
  6
CONTINUOUS
 62
    7
 10
144.20474858479997
 20
464.50184786919999
 11
145.20474858479997
 21
463.50184786919999
  0
LINE
  8
_0-0_0
  6
CONTINUOUS
 62
    7
 10
144.20474858479997
 20
463.0876343068
 11
145.20474858479997
 21
462.0876343068
  0
LINE
  8
_0-0_0
  6
CONTINUOUS
 62
    7
 10
144.20474858479997
 20
461.6734207444
 11
145.20474858479997
 21
460.6734207444
  0
LINE
  8
_0-0_0
  6
CONTINUOUS
 62
    7
 10
144.20474858479997
 20
460.25920718200001
 11
145.20474858479997
 21
459.25920718200001
  0
LINE
  8
_0-0_0
  6
CONTINUOUS
 62
    7
 10
144.20474858479997
 20
458.84499361970001
 11
145.20474858479997
 21
457.84499361970001
  0
LINE
  8
_0-0_0
  6
CONTINUOUS
 62
    7
 10
144.20474858479997
 20
457.43078005730001
 11
145.20474858479997
 21
456.43078005730001
  0
LINE
  8
_0-0_0
  6
CONTINUOUS
 62
    7
 10
144.20474858479997
 20
456.01656649490002
 11
145.20474858479997
 21
455.01656649490002
  0
LINE
  8
_0-0_0
  6
CONTINUOUS
 62
    7
 10
144.20474858479997
 20
454.60235293250003
 11
145.20474858479997
 21
453.60235293250003
  0
LINE
  8
_0-0_0
  6
CONTINUOUS
 62
    7
 10
144.20474858479997
 20
453.18813937020002
 11
145.20474858479997
 21
452.18813937020002
  0
LINE
  8
_0-0_0
  6
CONTINUOUS
 62
    7
 10
144.20474858479997
 20
451.77392580780003
 11
145.20474858479997
 21
450.77392580780003
  0
LINE
  8
_0-0_0
  6
CONTINUOUS
 62
    7
 10
144.20474858479997
 20
450.35971224539998
 11
145.20474858479997
 21
449.35971224539998
  0
LINE
  8
_0-0_0
  6
CONTINUOUS
 62
    7
 10
144.20474858479997
 20
448.94549868310003
 11
145.20474858479997
 21
447.94549868310003
  0
LINE
  8
_0-0_0
  6
CONTINUOUS
 62
    7
 10
144.20474858479997
 20
447.53128512069998
 11
145.20474858479997
 21
446.53128512069998
  0
LINE
  8
_0-0_0
  6
CONTINUOUS
 62
    7
 10
144.20474858479997
 20
446.11707155829998
 11
145.20474858479997
 21
445.11707155829998
  0
LINE
  8
_0-0_0
  6
CONTINUOUS
 62
    7
 10
144.20474858479997
 20
444.70285799589999
 11
145.20474858479997
 21
443.70285799589999
  0
LINE
  8
_0-0_0
  6
CONTINUOUS
 62
    7
 10
144.20474858479997
 20
443.28864443359998
 11
145.20474858479997
 21
442.28864443359998
  0
LINE
  8
_0-0_0
  6
CONTINUOUS
 62
    7
 10
144.20474858479997
 20
441.87443087119999
 11
145.20474858479997
 21
440.87443087119999
  0
LINE
  8
_0-0_0
  6
CONTINUOUS
 62
    7
 10
144.20474858479997
 20
440.4602173088
 11
145.20474858479997
 21
439.4602173088
  0
LINE
  8
_0-0_0
  6
CONTINUOUS
 62
    7
 10
144.20474858479997
 20
469.12075450999998
 11
144.20474858479997
 21
439.12075450999998
  0
LINE
  8
_0-0_0
  6
CONTINUOUS
 62
    7
 10
144.20474858479997
 20
439.12075450999998
 11
145.20474858479997
 21
439.12075450999998
  0
LINE
  8
_0-0_0
  6
CONTINUOUS
 62
    7
 10
145.20474858479997
 20
439.12075450999998
 11
145.20474858479997
 21
469.12075450999998
  0
LINE
  8
_0-0_0
  6
CONTINUOUS
 62
    7
 10
145.20474858479997
 20
469.12075450999998
 11
144.20474858479997
 21
469.12075450999998
  0
TEXT
  8
_0-4_図枠
 62
    7
 10
124.05047908189999
 20
406.30763786910001
 40
6
 41
1
 50
0
  1
20
  0
TEXT
  8
_0-4_図枠
 62
    7
 10
199.72963514
 20
380.9216209823
 40
6
 41
1
 50
0
  1
12
  0
TEXT
  8
_0-4_図枠
 62
    7
 10
122.30560720430003
 20
448.83888988619998
 40
6
 41
1
 50
0
  1
18
  0
TEXT
  8
_0-4_図枠
 62
    7
 10
95.833861660129969
 20
446.57184798240002
 40
6
 41
1
 50
0
  1
17
  0
TEXT
  8
_0-4_図枠
 62
    7
 10
127.37807127320002
 20
512.54874179579997
 40
6
 41
1
 50
0
  1
14
  0
TEXT
  8
_0-4_図枠
 62
    7
 10
197.02931538210001
 20
490.36767335489998
 40
6
 41
1
 50
0
  1
９
  0
LINE
  8
_0-0_0
  6
CONTINUOUS
 62
    7
 10
334
 20
37.152039612199985
 11
125
 21
37.152039612199985
  0
LINE
  8
_0-0_0
  6
CONTINUOUS
 62
    7
 10
334
 20
28.152039612199985
 11
125
 21
28.152039612199985
  0
LINE
  8
_0-0_0
  6
CONTINUOUS
 62
    7
 10
334
 20
118.15203961219999
 11
125
 21
118.15203961219999
  0
LINE
  8
_0-0_0
  6
CONTINUOUS
 62
    7
 10
334
 20
127.15203961219999
 11
125
 21
127.15203961219999
  0
TEXT
  8
_0-0_0
 62
    7
 10
412.3333333333
 20
227.2120732898
 40
5
 41
1
 50
0
  1
（2000mmセット）
  0
TEXT
  8
_0-0_0
 62
    7
 10
414.5833333333
 20
183.06870627890001
 40
4.9900000000000002
 41
1
 50
0
  1
2000
  0
TEXT
  8
_0-0_0
 62
    7
 10
414.5833333333
 20
192.06870627890001
 40
5
 41
0.998
 50
0
  1
2000
  0
TEXT
  8
_0-0_0
 62
    7
 10
414.5833333333
 20
201.06870627890001
 40
5
 41
0.998
 50
0
  1
2000
  0
TEXT
  8
_0-0_0
 62
    7
 10
414.5833333333
 20
210.06870627890001
 40
4.9900000000000002
 41
1
 50
0
  1
2000
  0
TEXT
  8
_0-0_0
 62
    7
 10
408.4166666667
 20
219.06870627890001
 40
5
 41
0.998
 50
0
  1
定尺(mm)
  0
LINE
  8
_0-0_0
  6
CONTINUOUS
 62
    7
 10
403
 20
181.15203961220001
 11
470
 21
181.15203961220001
  0
LINE
  8
_0-0_0
  6
CONTINUOUS
 62
    7
 10
403
 20
190.15203961220001
 11
470
 21
190.15203961220001
  0
LINE
  8
_0-0_0
  6
CONTINUOUS
 62
    7
 10
403
 20
199.15203961220001
 11
470
 21
199.15203961220001
  0
LINE
  8
_0-0_0
  6
CONTINUOUS
 62
    7
 10
403
 20
208.15203961220001
 11
470
 21
208.15203961220001
  0
LINE
  8
_0-0_0
  6
CONTINUOUS
 62
    7
 10
403
 20
217.15203961220001
 11
470
 21
217.15203961220001
  0
LINE
  8
_0-0_0
  6
CONTINUOUS
 62
    7
 10
403
 20
226.15203961220001
 11
470
 21
226.15203961220001
  0
LINE
  8
_0-0_0
  6
CONTINUOUS
 62
    7
 10
334
 20
46.152039612199985
 11
125
 21
46.152039612199985
  0
LINE
  8
_0-0_0
  6
CONTINUOUS
 62
    7
 10
334
 20
55.152039612199985
 11
125
 21
55.152039612199985
  0
LINE
  8
_0-0_0
  6
CONTINUOUS
 62
    7
 10
334
 20
64.152039612199985
 11
125
 21
64.152039612199985
  0
LINE
  8
_0-0_0
  6
CONTINUOUS
 62
    7
 10
334
 20
73.152039612199985
 11
125
 21
73.152039612199985
  0
LINE
  8
_0-0_0
  6
CONTINUOUS
 62
    7
 10
334
 20
82.152039612199985
 11
125
 21
82.152039612199985
  0
LINE
  8
_0-0_0
  6
CONTINUOUS
 62
    7
 10
334
 20
91.152039612199985
 11
125
 21
91.152039612199985
  0
LINE
  8
_0-0_0
  6
CONTINUOUS
 62
    7
 10
334
 20
100.15203961219999
 11
125
 21
100.15203961219999
  0
LINE
  8
_0-0_0
  6
CONTINUOUS
 62
    7
 10
334
 20
109.15203961219999
 11
125
 21
109.15203961219999
  0
LINE
  8
_0-0_0
  6
CONTINUOUS
 62
    7
 10
334
 20
136.15203961220001
 11
125
 21
136.15203961220001
  0
LINE
  8
_0-0_0
  6
CONTINUOUS
 62
    7
 10
334
 20
145.15203961220001
 11
125
 21
145.15203961220001
  0
LINE
  8
_0-0_0
  6
CONTINUOUS
 62
    7
 10
334
 20
154.15203961220001
 11
125
 21
154.15203961220001
  0
LINE
  8
_0-0_0
  6
CONTINUOUS
 62
    7
 10
334
 20
163.15203961220001
 11
125
 21
163.15203961220001
  0
LINE
  8
_0-0_0
  6
CONTINUOUS
 62
    7
 10
334
 20
172.15203961220001
 11
125
 21
172.15203961220001
  0
LINE
  8
_0-0_0
  6
CONTINUOUS
 62
    7
 10
334
 20
181.15203961220001
 11
125
 21
181.15203961220001
  0
LINE
  8
_0-0_0
  6
CONTINUOUS
 62
    7
 10
334
 20
190.15203961220001
 11
125
 21
190.15203961220001
  0
LINE
  8
_0-0_0
  6
CONTINUOUS
 62
    7
 10
334
 20
199.15203961220001
 11
125
 21
199.15203961220001
  0
LINE
  8
_0-0_0
  6
CONTINUOUS
 62
    7
 10
334
 20
208.15203961220001
 11
125
 21
208.15203961220001
  0
LINE
  8
_0-0_0
  6
CONTINUOUS
 62
    7
 10
334
 20
217.15203961220001
 11
125
 21
217.15203961220001
  0
LINE
  8
_0-0_0
  6
CONTINUOUS
 62
    7
 10
334
 20
226.15203961220001
 11
125
 21
226.15203961220001
  0
TEXT
  8
_0-0_0
 62
    7
 10
147.3333333333
 20
183.06870627890001
 40
4.9900000000000002
 41
1
 50
0
  1
ＦＹＫ壁フレーム
  0
TEXT
  8
_0-0_0
 62
    7
 10
146.9166666667
 20
192.06870627890001
 40
5
 41
0.998
 50
0
  1
ＦＹＹフレーム
  0
TEXT
  8
_0-0_0
 62
    7
 10
148.5833333333
 20
201.06870627890001
 40
5
 41
1
 50
0
  1
ＦＹＫサイドキャップＡ
  0
TEXT
  8
_0-0_0
 62
    7
 10
147.3333333333
 20
210.06870627890001
 40
4.9900000000000002
 41
1
 50
0
  1
ＦＹＫキャップＡ
  0
TEXT
  8
_0-0_0
 62
    7
 10
129.1666666667
 20
39.068706278870025
 40
4.9900000000000002
 41
1
 50
0
  1
20
  0
TEXT
  8
_0-0_0
 62
    7
 10
129.1666666667
 20
48.068706278869996
 40
4.9900000000000002
 41
1
 50
0
  1
19
  0
TEXT
  8
_0-0_0
 62
    7
 10
129.1666666667
 20
75.068706278869996
 40
4.9900000000000002
 41
1
 50
0
  1
16
  0
TEXT
  8
_0-0_0
 62
    7
 10
129.1666666667
 20
66.068706278869996
 40
4.9900000000000002
 41
1
 50
0
  1
17
  0
TEXT
  8
_0-0_0
 62
    7
 10
129.1666666667
 20
57.068706278869996
 40
4.9900000000000002
 41
1
 50
0
  1
18
  0
TEXT
  8
_0-0_0
 62
    7
 10
129.1666666667
 20
84.068706278869996
 40
4.9900000000000002
 41
1
 50
0
  1
15
  0
TEXT
  8
_0-0_0
 62
    7
 10
129.1666666667
 20
93.068706278869996
 40
4.9900000000000002
 41
1
 50
0
  1
14
  0
TEXT
  8
_0-0_0
 62
    7
 10
129.1666666667
 20
192.06870627890001
 40
5
 41
1
 50
0
  1
 3
  0
TEXT
  8
_0-0_0
 62
    7
 10
129.1666666667
 20
147.06870627890001
 40
5
 41
1
 50
0
  1
 8
  0
TEXT
  8
_0-0_0
 62
    7
 10
129.1666666667
 20
120.06870627889998
 40
5
 41
1
 50
0
  1
11
  0
TEXT
  8
_0-0_0
 62
    7
 10
129.1666666667
 20
111.06870627889998
 40
5
 41
1
 50
0
  1
12
  0
TEXT
  8
_0-0_0
 62
    7
 10
129.1666666667
 20
102.06870627887
 40
5
 41
1
 50
0
  1
13
  0
TEXT
  8
_0-0_0
 62
    7
 10
129.1666666667
 20
129.06870627889998
 40
5
 41
1
 50
0
  1
10
  0
TEXT
  8
_0-0_0
 62
    7
 10
129.1666666667
 20
138.06870627890001
 40
5
 41
1
 50
0
  1
 9
  0
TEXT
  8
_0-0_0
 62
    7
 10
129.1666666667
 20
156.06870627890001
 40
5
 41
1
 50
0
  1
 7
  0
TEXT
  8
_0-0_0
 62
    7
 10
129.1666666667
 20
165.06870627890001
 40
4.9900000000000002
 41
1
 50
0
  1
 6
  0
TEXT
  8
_0-0_0
 62
    7
 10
129.1666666667
 20
174.06870627890001
 40
4.9900000000000002
 41
1
 50
0
  1
 5
  0
TEXT
  8
_0-0_0
 62
    7
 10
129.1666666667
 20
183.06870627890001
 40
4.9900000000000002
 41
1
 50
0
  1
 4
  0
TEXT
  8
_0-0_0
 62
    7
 10
129.1666666667
 20
201.06870627890001
 40
5
 41
1
 50
0
  1
 2
  0
TEXT
  8
_0-0_0
 62
    7
 10
129.1666666667
 20
210.06870627890001
 40
4.9900000000000002
 41
1
 50
0
  1
 1
  0
TEXT
  8
_0-0_0
 62
    7
 10
127.625
 20
219.06870627890001
 40
5
 41
0.998
 50
0
  1
No.
  0
TEXT
  8
_0-0_0
 62
    7
 10
277.75
 20
219.06870627890001
 40
5
 41
0.998
 50
0
  1
規　格
  0
TEXT
  8
_0-0_0
 62
    7
 10
177.1666666667
 20
219.06870627890001
 40
5
 41
0.998
 50
0
  1
部材名称
  0
TEXT
  8
_0-0_0
 62
    7
 10
392.4166666667
 20
192.06870627890001
 40
5
 41
0.998
 50
0
  1
〃
  0
TEXT
  8
_0-0_0
 62
    7
 10
376.1666666667
 20
192.06870627890001
 40
5
 41
1
 50
0
  1
 1
  0
TEXT
  8
_0-0_0
 62
    7
 10
346.5833333333
 20
192.06870627890001
 40
5
 41
0.998
 50
0
  1
3000
  0
TEXT
  8
_0-0_0
 62
    7
 10
346.5833333333
 20
183.06870627890001
 40
4.9900000000000002
 41
1
 50
0
  1
3000
  0
LINE
  8
_0-0_0
  6
CONTINUOUS
 62
    7
 10
402
 20
181.15203961220001
 11
335
 21
181.15203961220001
  0
LINE
  8
_0-0_0
  6
CONTINUOUS
 62
    7
 10
402
 20
190.15203961220001
 11
335
 21
190.15203961220001
  0
TEXT
  8
_0-0_0
 62
    7
 10
376.1666666667
 20
183.06870627890001
 40
4.9900000000000002
 41
1
 50
0
  1
 1
  0
TEXT
  8
_0-0_0
 62
    7
 10
392.4166666667
 20
183.06870627890001
 40
4.9900000000000002
 41
1
 50
0
  1
〃
  0
TEXT
  8
_0-0_0
 62
    7
 10
344.3333333333
 20
227.2120732898
 40
5
 41
1
 50
0
  1
（3000mmセット）
  0
TEXT
  8
_0-0_0
 62
    7
 10
346.5833333333
 20
201.06870627890001
 40
5
 41
0.998
 50
0
  1
3000
  0
TEXT
  8
_0-0_0
 62
    7
 10
346.5833333333
 20
210.06870627890001
 40
4.9900000000000002
 41
1
 50
0
  1
3000
  0
TEXT
  8
_0-0_0
 62
    7
 10
340.4166666667
 20
219.06870627890001
 40
5
 41
0.998
 50
0
  1
定尺(mm)
  0
LINE
  8
_0-0_0
  6
CONTINUOUS
 62
    7
 10
402
 20
199.15203961220001
 11
335
 21
199.15203961220001
  0
LINE
  8
_0-0_0
  6
CONTINUOUS
 62
    7
 10
402
 20
208.15203961220001
 11
335
 21
208.15203961220001
  0
LINE
  8
_0-0_0
  6
CONTINUOUS
 62
    7
 10
402
 20
217.15203961220001
 11
335
 21
217.15203961220001
  0
LINE
  8
_0-0_0
  6
CONTINUOUS
 62
    7
 10
402
 20
226.15203961220001
 11
335
 21
226.15203961220001
  0
TEXT
  8
_0-0_0
 62
    7
 10
376.1666666667
 20
201.06870627890001
 40
5
 41
1
 50
0
  1
 1
  0
TEXT
  8
_0-0_0
 62
    7
 10
376.1666666667
 20
210.06870627890001
 40
4.9900000000000002
 41
1
 50
0
  1
 1
  0
TEXT
  8
_0-0_0
 62
    7
 10
373.3333333333
 20
219.06870627890001
 40
5
 41
1
 50
0
  1
入数
  0
TEXT
  8
_0-0_0
 62
    7
 10
392.4166666667
 20
201.06870627890001
 40
5
 41
0.998
 50
0
  1
〃
  0
TEXT
  8
_0-0_0
 62
    7
 10
392.4166666667
 20
210.06870627890001
 40
4.9900000000000002
 41
1
 50
0
  1
本
  0
TEXT
  8
_0-0_0
 62
    7
 10
389.3333333333
 20
219.06870627890001
 40
5
 41
1
 50
0
  1
単位
  0
TEXT
  8
_0-0_0
 62
    7
 10
460.4166666667
 20
192.06870627890001
 40
5
 41
0.998
 50
0
  1
〃
  0
TEXT
  8
_0-0_0
 62
    7
 10
444.1666666667
 20
192.06870627890001
 40
5
 41
0.998
 50
0
  1
 1
  0
TEXT
  8
_0-0_0
 62
    7
 10
444.1666666667
 20
183.06870627890001
 40
4.9900000000000002
 41
1
 50
0
  1
 1
  0
TEXT
  8
_0-0_0
 62
    7
 10
460.4166666667
 20
183.06870627890001
 40
4.9900000000000002
 41
1
 50
0
  1
〃
  0
TEXT
  8
_0-0_0
 62
    7
 10
444.1666666667
 20
201.06870627890001
 40
5
 41
0.998
 50
0
  1
 1
  0
TEXT
  8
_0-0_0
 62
    7
 10
444.1666666667
 20
210.06870627890001
 40
4.9900000000000002
 41
1
 50
0
  1
 1
  0
TEXT
  8
_0-0_0
 62
    7
 10
441.3333333333
 20
219.06870627890001
 40
5
 41
0.998
 50
0
  1
入数
  0
TEXT
  8
_0-0_0
 62
    7
 10
460.4166666667
 20
201.06870627890001
 40
5
 41
0.998
 50
0
  1
〃
  0
TEXT
  8
_0-0_0
 62
    7
 10
460.4166666667
 20
210.06870627890001
 40
4.9900000000000002
 41
1
 50
0
  1
本
  0
TEXT
  8
_0-0_0
 62
    7
 10
457.3333333333
 20
219.06870627890001
 40
5
 41
1
 50
0
  1
単位
  0
LINE
  8
_0-0_0
  6
CONTINUOUS
 62
    7
 10
403
 20
136.15203961220001
 11
470
 21
136.15203961220001
  0
LINE
  8
_0-0_0
  6
CONTINUOUS
 62
    7
 10
403
 20
145.15203961220001
 11
470
 21
145.15203961220001
  0
LINE
  8
_0-0_0
  6
CONTINUOUS
 62
    7
 10
403
 20
154.15203961220001
 11
470
 21
154.15203961220001
  0
LINE
  8
_0-0_0
  6
CONTINUOUS
 62
    7
 10
403
 20
163.15203961220001
 11
470
 21
163.15203961220001
  0
LINE
  8
_0-0_0
  6
CONTINUOUS
 62
    7
 10
403
 20
172.15203961220001
 11
470
 21
172.15203961220001
  0
LINE
  8
_0-0_0
  6
CONTINUOUS
 62
    7
 10
403
 20
181.15203961220001
 11
470
 21
181.15203961220001
  0
TEXT
  8
_0-0_0
 62
    7
 10
148.5833333333
 20
138.06870627890001
 40
5
 41
1
 50
0
  1
ＦＹＫｻｲﾄﾞｷｬｯﾌﾟ ｼﾞｮｲﾝﾄ
  0
TEXT
  8
_0-0_0
 62
    7
 10
148.1666666667
 20
147.06870627890001
 40
5
 41
1
 50
0
  1
ＦＹＫ水切ジョイント
  0
TEXT
  8
_0-0_0
 62
    7
 10
148.1666666667
 20
156.06870627890001
 40
5
 41
1
 50
0
  1
ＦＹＹフレームナット
  0
TEXT
  8
_0-0_0
 62
    7
 10
149
 20
165.06870627890001
 40
4.9900000000000002
 41
1
 50
0
  1
ＦＹＹホルダースプリング
  0
TEXT
  8
_0-0_0
 62
    7
 10
146.9166666667
 20
174.06870627890001
 40
4.9900000000000002
 41
1
 50
0
  1
ＦＹＫホルダー
  0
LINE
  8
_0-0_0
  6
CONTINUOUS
 62
    7
 10
402
 20
136.15203961220001
 11
335
 21
136.15203961220001
  0
LINE
  8
_0-0_0
  6
CONTINUOUS
 62
    7
 10
402
 20
145.15203961220001
 11
335
 21
145.15203961220001
  0
LINE
  8
_0-0_0
  6
CONTINUOUS
 62
    7
 10
402
 20
154.15203961220001
 11
335
 21
154.15203961220001
  0
LINE
  8
_0-0_0
  6
CONTINUOUS
 62
    7
 10
402
 20
163.15203961220001
 11
335
 21
163.15203961220001
  0
LINE
  8
_0-0_0
  6
CONTINUOUS
 62
    7
 10
402
 20
172.15203961220001
 11
335
 21
172.15203961220001
  0
LINE
  8
_0-0_0
  6
CONTINUOUS
 62
    7
 10
402
 20
181.15203961220001
 11
335
 21
181.15203961220001
  0
TEXT
  8
_0-0_0
 62
    7
 10
376.1666666667
 20
156.06870627890001
 40
5
 41
1
 50
0
  1
 6
  0
TEXT
  8
_0-0_0
 62
    7
 10
376.1666666667
 20
138.06870627890001
 40
5
 41
1
 50
0
  1
 1
  0
TEXT
  8
_0-0_0
 62
    7
 10
376.1666666667
 20
147.06870627890001
 40
5
 41
1
 50
0
  1
 1
  0
TEXT
  8
_0-0_0
 62
    7
 10
392.4166666667
 20
138.06870627890001
 40
5
 41
1
 50
0
  1
〃
  0
TEXT
  8
_0-0_0
 62
    7
 10
392.4166666667
 20
147.06870627890001
 40
5
 41
1
 50
0
  1
〃
  0
TEXT
  8
_0-0_0
 62
    7
 10
376.1666666667
 20
165.06870627890001
 40
4.9900000000000002
 41
1
 50
0
  1
 6
  0
TEXT
  8
_0-0_0
 62
    7
 10
376.1666666667
 20
174.06870627890001
 40
4.9900000000000002
 41
1
 50
0
  1
 6
  0
TEXT
  8
_0-0_0
 62
    7
 10
392.4166666667
 20
165.06870627890001
 40
4.9900000000000002
 41
1
 50
0
  1
〃
  0
TEXT
  8
_0-0_0
 62
    7
 10
392.4166666667
 20
156.06870627890001
 40
5
 41
1
 50
0
  1
〃
  0
TEXT
  8
_0-0_0
 62
    7
 10
392.4166666667
 20
174.06870627890001
 40
4.9900000000000002
 41
1
 50
0
  1
〃
  0
TEXT
  8
_0-0_0
 62
    7
 10
444.1666666667
 20
156.06870627890001
 40
5
 41
1
 50
0
  1
 4
  0
TEXT
  8
_0-0_0
 62
    7
 10
444.1666666667
 20
138.06870627890001
 40
5
 41
1
 50
0
  1
 1
  0
TEXT
  8
_0-0_0
 62
    7
 10
444.1666666667
 20
147.06870627890001
 40
5
 41
1
 50
0
  1
 1
  0
TEXT
  8
_0-0_0
 62
    7
 10
460.4166666667
 20
138.06870627890001
 40
5
 41
0.998
 50
0
  1
〃
  0
TEXT
  8
_0-0_0
 62
    7
 10
460.4166666667
 20
147.06870627890001
 40
5
 41
0.998
 50
0
  1
〃
  0
TEXT
  8
_0-0_0
 62
    7
 10
444.1666666667
 20
165.06870627890001
 40
4.9900000000000002
 41
1
 50
0
  1
 4
  0
TEXT
  8
_0-0_0
 62
    7
 10
444.1666666667
 20
174.06870627890001
 40
4.9900000000000002
 41
1
 50
0
  1
 4
  0
TEXT
  8
_0-0_0
 62
    7
 10
460.4166666667
 20
165.06870627890001
 40
4.9900000000000002
 41
1
 50
0
  1
〃
  0
TEXT
  8
_0-0_0
 62
    7
 10
460.4166666667
 20
156.06870627890001
 40
5
 41
0.998
 50
0
  1
〃
  0
TEXT
  8
_0-0_0
 62
    7
 10
460.4166666667
 20
174.06870627890001
 40
4.9900000000000002
 41
1
 50
0
  1
〃
  0
TEXT
  8
_0-0_0
 62
    7
 10
146.0833333333
 20
129.06870627889998
 40
5
 41
1
 50
0
  1
止水補助板
  0
TEXT
  8
_0-0_0
 62
    7
 10
414.5833333333
 20
129.06870627889998
 40
5
 41
1
 50
0
  1
2100
  0
TEXT
  8
_0-0_0
 62
    7
 10
346.5833333333
 20
129.06870627889998
 40
5
 41
1
 50
0
  1
3100
  0
TEXT
  8
_0-0_0
 62
    7
 10
376.1666666667
 20
129.06870627889998
 40
5
 41
1
 50
0
  1
 1
  0
TEXT
  8
_0-0_0
 62
    7
 10
392.4166666667
 20
129.06870627889998
 40
5
 41
1
 50
0
  1
〃
  0
TEXT
  8
_0-0_0
 62
    7
 10
444.1666666667
 20
129.06870627889998
 40
5
 41
1
 50
0
  1
 1
  0
TEXT
  8
_0-0_0
 62
    7
 10
460.4166666667
 20
129.06870627889998
 40
5
 41
0.998
 50
0
  1
〃
  0
LINE
  8
_0-0_0
  6
CONTINUOUS
 62
    7
 10
403
 20
118.15203961219999
 11
470
 21
118.15203961219999
  0
LINE
  8
_0-0_0
  6
CONTINUOUS
 62
    7
 10
403
 20
127.15203961219999
 11
470
 21
127.15203961219999
  0
LINE
  8
_0-0_0
  6
CONTINUOUS
 62
    7
 10
402
 20
118.15203961219999
 11
335
 21
118.15203961219999
  0
LINE
  8
_0-0_0
  6
CONTINUOUS
 62
    7
 10
402
 20
127.15203961219999
 11
335
 21
127.15203961219999
  0
TEXT
  8
_0-0_0
 62
    7
 10
414.5833333333
 20
30.068706278870025
 40
4.9900000000000002
 41
1
 50
0
  1
6000
  0
TEXT
  8
_0-0_0
 62
    7
 10
414.5833333333
 20
111.06870627889998
 40
5
 41
1
 50
0
  1
2000
  0
LINE
  8
_0-0_0
  6
CONTINUOUS
 62
    7
 10
403
 20
28.152039612199985
 11
470
 21
28.152039612199985
  0
LINE
  8
_0-0_0
  6
CONTINUOUS
 62
    7
 10
403
 20
37.152039612199985
 11
470
 21
37.152039612199985
  0
LINE
  8
_0-0_0
  6
CONTINUOUS
 62
    7
 10
403
 20
46.152039612199985
 11
470
 21
46.152039612199985
  0
LINE
  8
_0-0_0
  6
CONTINUOUS
 62
    7
 10
403
 20
55.152039612199985
 11
470
 21
55.152039612199985
  0
LINE
  8
_0-0_0
  6
CONTINUOUS
 62
    7
 10
403
 20
64.152039612199985
 11
470
 21
64.152039612199985
  0
LINE
  8
_0-0_0
  6
CONTINUOUS
 62
    7
 10
403
 20
73.152039612199985
 11
470
 21
73.152039612199985
  0
LINE
  8
_0-0_0
  6
CONTINUOUS
 62
    7
 10
403
 20
82.152039612199985
 11
470
 21
82.152039612199985
  0
LINE
  8
_0-0_0
  6
CONTINUOUS
 62
    7
 10
403
 20
91.152039612199985
 11
470
 21
91.152039612199985
  0
LINE
  8
_0-0_0
  6
CONTINUOUS
 62
    7
 10
403
 20
100.15203961219999
 11
470
 21
100.15203961219999
  0
LINE
  8
_0-0_0
  6
CONTINUOUS
 62
    7
 10
403
 20
109.15203961219999
 11
470
 21
109.15203961219999
  0
TEXT
  8
_0-0_0
 62
    7
 10
146.5
 20
30.068706278870025
 40
4.9900000000000002
 41
1
 50
0
  1
ブチルテープ
  0
TEXT
  8
_0-0_0
 62
    7
 10
147.3333333333
 20
39.068706278870025
 40
4.9900000000000002
 41
1
 50
0
  1
ステンワッシャー
  0
TEXT
  8
_0-0_0
 62
    7
 10
147.3333333333
 20
48.068706278869996
 40
4.9900000000000002
 41
1
 50
0
  1
ステスワッシャー
  0
TEXT
  8
_0-0_0
 62
    7
 10
147.75
 20
57.068706278869996
 40
4.9900000000000002
 41
1
 50
0
  1
ステンタッピンねじ
  0
TEXT
  8
_0-0_0
 62
    7
 10
146.9166666667
 20
66.068706278869996
 40
4.9900000000000002
 41
1
 50
0
  1
アンカープラグ
  0
TEXT
  8
_0-0_0
 62
    7
 10
147.75
 20
75.068706278869996
 40
4.9900000000000002
 41
1
 50
0
  1
アジャストアンカー
  0
TEXT
  8
_0-0_0
 62
    7
 10
147.3333333333
 20
84.068706278869996
 40
4.9900000000000002
 41
1
 50
0
  1
ステン六角ボルト
  0
TEXT
  8
_0-0_0
 62
    7
 10
146.5
 20
111.06870627889998
 40
5
 41
1
 50
0
  1
ガスケットＮ
  0
TEXT
  8
_0-0_0
 62
    7
 10
346.5833333333
 20
30.068706278870025
 40
4.9900000000000002
 41
1
 50
0
  1
6000
  0
LINE
  8
_0-0_0
  6
CONTINUOUS
 62
    7
 10
402
 20
28.152039612199985
 11
335
 21
28.152039612199985
  0
LINE
  8
_0-0_0
  6
CONTINUOUS
 62
    7
 10
402
 20
37.152039612199985
 11
335
 21
37.152039612199985
  0
LINE
  8
_0-0_0
  6
CONTINUOUS
 62
    7
 10
402
 20
46.152039612199985
 11
335
 21
46.152039612199985
  0
LINE
  8
_0-0_0
  6
CONTINUOUS
 62
    7
 10
402
 20
55.152039612199985
 11
335
 21
55.152039612199985
  0
LINE
  8
_0-0_0
  6
CONTINUOUS
 62
    7
 10
402
 20
64.152039612199985
 11
335
 21
64.152039612199985
  0
LINE
  8
_0-0_0
  6
CONTINUOUS
 62
    7
 10
402
 20
73.152039612199985
 11
335
 21
73.152039612199985
  0
LINE
  8
_0-0_0
  6
CONTINUOUS
 62
    7
 10
402
 20
82.152039612199985
 11
335
 21
82.152039612199985
  0
LINE
  8
_0-0_0
  6
CONTINUOUS
 62
    7
 10
402
 20
91.152039612199985
 11
335
 21
91.152039612199985
  0
LINE
  8
_0-0_0
  6
CONTINUOUS
 62
    7
 10
402
 20
100.15203961219999
 11
335
 21
100.15203961219999
  0
LINE
  8
_0-0_0
  6
CONTINUOUS
 62
    7
 10
402
 20
109.15203961219999
 11
335
 21
109.15203961219999
  0
TEXT
  8
_0-0_0
 62
    7
 10
376.1666666667
 20
39.068706278870025
 40
4.9900000000000002
 41
1
 50
0
  1
 6
  0
TEXT
  8
_0-0_0
 62
    7
 10
376.1666666667
 20
30.068706278870025
 40
4.9900000000000002
 41
1
 50
0
  1
 1
  0
TEXT
  8
_0-0_0
 62
    7
 10
376.1666666667
 20
48.068706278869996
 40
4.9900000000000002
 41
1
 50
0
  1
 6
  0
TEXT
  8
_0-0_0
 62
    7
 10
376.1666666667
 20
57.068706278869996
 40
4.9900000000000002
 41
1
 50
0
  1
 6
  0
TEXT
  8
_0-0_0
 62
    7
 10
392.4166666667
 20
30.068706278870025
 40
4.9900000000000002
 41
1
 50
0
  1
巻
  0
TEXT
  8
_0-0_0
 62
    7
 10
392.4166666667
 20
48.068706278869996
 40
4.9900000000000002
 41
1
 50
0
  1
枚
  0
TEXT
  8
_0-0_0
 62
    7
 10
392.4166666667
 20
39.068706278870025
 40
4.9900000000000002
 41
1
 50
0
  1
〃
  0
TEXT
  8
_0-0_0
 62
    7
 10
392.4166666667
 20
57.068706278869996
 40
4.9900000000000002
 41
1
 50
0
  1
〃
  0
TEXT
  8
_0-0_0
 62
    7
 10
376.1666666667
 20
84.068706278869996
 40
4.9900000000000002
 41
1
 50
0
  1
 6
  0
TEXT
  8
_0-0_0
 62
    7
 10
376.1666666667
 20
75.068706278869996
 40
4.9900000000000002
 41
1
 50
0
  1
 6
  0
TEXT
  8
_0-0_0
 62
    7
 10
376.1666666667
 20
66.068706278869996
 40
4.9900000000000002
 41
1
 50
0
  1
 6
  0
TEXT
  8
_0-0_0
 62
    7
 10
376.1666666667
 20
93.068706278869996
 40
4.9900000000000002
 41
1
 50
0
  1
 6
  0
TEXT
  8
_0-0_0
 62
    7
 10
376.1666666667
 20
102.06870627887
 40
5
 41
1
 50
0
  1
 6
  0
TEXT
  8
_0-0_0
 62
    7
 10
392.4166666667
 20
84.068706278869996
 40
4.9900000000000002
 41
1
 50
0
  1
〃
  0
TEXT
  8
_0-0_0
 62
    7
 10
392.4166666667
 20
66.068706278869996
 40
4.9900000000000002
 41
1
 50
0
  1
〃
  0
TEXT
  8
_0-0_0
 62
    7
 10
392.4166666667
 20
75.068706278869996
 40
4.9900000000000002
 41
1
 50
0
  1
〃
  0
TEXT
  8
_0-0_0
 62
    7
 10
392.4166666667
 20
93.068706278869996
 40
4.9900000000000002
 41
1
 50
0
  1
〃
  0
TEXT
  8
_0-0_0
 62
    7
 10
392.4166666667
 20
102.06870627887
 40
5
 41
1
 50
0
  1
〃
  0
TEXT
  8
_0-0_0
 62
    7
 10
346.5833333333
 20
111.06870627889998
 40
5
 41
1
 50
0
  1
3000
  0
TEXT
  8
_0-0_0
 62
    7
 10
376.1666666667
 20
120.06870627889998
 40
5
 41
1
 50
0
  1
 1
  0
TEXT
  8
_0-0_0
 62
    7
 10
376.1666666667
 20
111.06870627889998
 40
5
 41
1
 50
0
  1
 1
  0
TEXT
  8
_0-0_0
 62
    7
 10
392.4166666667
 20
120.06870627889998
 40
5
 41
1
 50
0
  1
〃
  0
TEXT
  8
_0-0_0
 62
    7
 10
392.4166666667
 20
111.06870627889998
 40
5
 41
1
 50
0
  1
本
  0
TEXT
  8
_0-0_0
 62
    7
 10
444.1666666667
 20
39.068706278870025
 40
4.9900000000000002
 41
1
 50
0
  1
 5
  0
TEXT
  8
_0-0_0
 62
    7
 10
444.1666666667
 20
30.068706278870025
 40
4.9900000000000002
 41
1
 50
0
  1
 1
  0
TEXT
  8
_0-0_0
 62
    7
 10
444.1666666667
 20
48.068706278869996
 40
4.9900000000000002
 41
1
 50
0
  1
 5
  0
TEXT
  8
_0-0_0
 62
    7
 10
444.1666666667
 20
57.068706278869996
 40
4.9900000000000002
 41
1
 50
0
  1
 5
  0
TEXT
  8
_0-0_0
 62
    7
 10
460.4166666667
 20
30.068706278870025
 40
4.9900000000000002
 41
1
 50
0
  1
巻
  0
TEXT
  8
_0-0_0
 62
    7
 10
460.4166666667
 20
48.068706278869996
 40
4.9900000000000002
 41
1
 50
0
  1
枚
  0
TEXT
  8
_0-0_0
 62
    7
 10
460.4166666667
 20
39.068706278870025
 40
4.9900000000000002
 41
1
 50
0
  1
〃
  0
TEXT
  8
_0-0_0
 62
    7
 10
460.4166666667
 20
57.068706278869996
 40
4.9900000000000002
 41
1
 50
0
  1
〃
  0
TEXT
  8
_0-0_0
 62
    7
 10
444.1666666667
 20
84.068706278869996
 40
4.9900000000000002
 41
1
 50
0
  1
 5
  0
TEXT
  8
_0-0_0
 62
    7
 10
444.1666666667
 20
75.068706278869996
 40
4.9900000000000002
 41
1
 50
0
  1
 5
  0
TEXT
  8
_0-0_0
 62
    7
 10
444.1666666667
 20
66.068706278869996
 40
4.9900000000000002
 41
1
 50
0
  1
 5
  0
TEXT
  8
_0-0_0
 62
    7
 10
444.1666666667
 20
93.068706278869996
 40
4.9900000000000002
 41
1
 50
0
  1
 5
  0
TEXT
  8
_0-0_0
 62
    7
 10
444.1666666667
 20
102.06870627887
 40
5
 41
1
 50
0
  1
 4
  0
TEXT
  8
_0-0_0
 62
    7
 10
460.4166666667
 20
84.068706278869996
 40
4.9900000000000002
 41
1
 50
0
  1
〃
  0
TEXT
  8
_0-0_0
 62
    7
 10
460.4166666667
 20
66.068706278869996
 40
4.9900000000000002
 41
1
 50
0
  1
〃
  0
TEXT
  8
_0-0_0
 62
    7
 10
460.4166666667
 20
75.068706278869996
 40
4.9900000000000002
 41
1
 50
0
  1
〃
  0
TEXT
  8
_0-0_0
 62
    7
 10
460.4166666667
 20
93.068706278869996
 40
4.9900000000000002
 41
1
 50
0
  1
〃
  0
TEXT
  8
_0-0_0
 62
    7
 10
460.4166666667
 20
102.06870627887
 40
5
 41
0.998
 50
0
  1
〃
  0
TEXT
  8
_0-0_0
 62
    7
 10
444.1666666667
 20
120.06870627889998
 40
5
 41
1
 50
0
  1
 1
  0
TEXT
  8
_0-0_0
 62
    7
 10
444.1666666667
 20
111.06870627889998
 40
5
 41
1
 50
0
  1
 1
  0
TEXT
  8
_0-0_0
 62
    7
 10
460.4166666667
 20
120.06870627889998
 40
5
 41
0.998
 50
0
  1
〃
  0
TEXT
  8
_0-0_0
 62
    7
 10
460.4166666667
 20
111.06870627889998
 40
5
 41
0.998
 50
0
  1
本
  0
TEXT
  8
_0-0_0
 62
    7
 10
147.3333333333
 20
120.06870627889998
 40
5
 41
1
 50
0
  1
ウォーターガード
  0
TEXT
  8
_0-0_0
 62
    7
 10
129.4166666667
 20
30.068706278870025
 40
4.9900000000000002
 41
1
 50
0
  1
※
  0
LINE
  8
_0-0_0
  6
CONTINUOUS
 62
    7
 10
125
 20
28.152039612199985
 11
125
 21
226.15203961220001
  0
LINE
  8
_0-0_0
  6
CONTINUOUS
 62
    7
 10
470
 20
28.152039612199985
 11
470
 21
226.15203961220001
  0
LINE
  8
_0-0_0
  6
CONTINUOUS
 62
    7
 10
139
 20
28.152039612199985
 11
139
 21
226.15203961220001
  0
LINE
  8
_0-0_0
  6
CONTINUOUS
 62
    7
 10
403
 20
28.152039612199985
 11
403
 21
226.15203961220001
  0
LINE
  8
_0-0_0
  6
CONTINUOUS
 62
    7
 10
402
 20
28.152039612199985
 11
402
 21
226.15203961220001
  0
LINE
  8
_0-0_0
  6
CONTINUOUS
 62
    7
 10
388
 20
28.152039612199985
 11
388
 21
226.15203961220001
  0
LINE
  8
_0-0_0
  6
CONTINUOUS
 62
    7
 10
370
 20
28.152039612199985
 11
370
 21
226.15203961220001
  0
LINE
  8
_0-0_0
  6
CONTINUOUS
 62
    7
 10
335
 20
28.152039612199985
 11
335
 21
226.15203961220001
  0
LINE
  8
_0-0_0
  6
CONTINUOUS
 62
    7
 10
334
 20
28.152039612199985
 11
334
 21
226.15203961220001
  0
LINE
  8
_0-0_0
  6
CONTINUOUS
 62
    7
 10
239
 20
28.152039612199985
 11
239
 21
226.15203961220001
  0
LINE
  8
_0-0_0
  6
CONTINUOUS
 62
    7
 10
456
 20
28.152039612199985
 11
456
 21
226.15203961220001
  0
LINE
  8
_0-0_0
  6
CONTINUOUS
 62
    7
 10
438
 20
28.152039612199985
 11
438
 21
226.15203961220001
  0
LINE
  8
_0-4_図枠
  6
CONTINUOUS
 62
    7
 10
470
 20
28.152039612199985
 11
470
 21
226.15203961220001
  0
TEXT
  8
_0-0_0
 62
    7
 10
346.5833333333
 20
120.06870627889998
 40
5
 41
1
 50
0
  1
3000
  0
TEXT
  8
_0-0_0
 62
    7
 10
414.5833333333
 20
120.06870627889998
 40
5
 41
1
 50
0
  1
2000
  0
TEXT
  8
_0-4_図枠
 62
    7
 10
15.615981434150001
 20
573.66486050749995
 40
9
 41
1
 50
0
  1
◇アルミ１５０タイプ（１５０ＦＹＫＧ－Ａ）
  0
LINE
  8
_0-0_0
  6
CONTINUOUS
 62
    7
 10
505.94082004820001
 20
373.73661387369998
 11
522.74082007729999
 21
372.8561624134
  0
LINE
  8
_0-0_0
  6
CONTINUOUS
 62
    7
 10
159.20474858479997
 20
453.11292451000003
 11
694.20474758479997
 21
453.11292451000003
  0
LINE
  8
_0-0_0
  6
CONTINUOUS
 62
    7
 10
694.20474758479997
 20
440.01097951000003
 11
694.20474758479997
 21
453.11292451000003
  0
LINE
  8
_0-0_0
  6
CONTINUOUS
 62
    7
 10
175.4713425848
 20
423.97123051
 11
664.96967558480003
 21
398.31771150999998
  0
LINE
  8
_0-0_0
  6
CONTINUOUS
 62
    7
 10
175.2358305848
 20
419.47739851
 11
664.73416358479994
 21
393.82387650999999
  0
LINE
  8
_0-0_0
  6
CONTINUOUS
 62
    7
 10
175.15732658479999
 20
417.97945350999998
 11
664.65565958479999
 21
392.32593150999998
  0
LINE
  8
_0-0_0
  6
CONTINUOUS
 62
    7
 10
174.38798858480001
 20
403.29959851000001
 11
663.88632158480004
 21
377.64607950999999
  0
LINE
  8
_0-0_0
  6
CONTINUOUS
 62
    7
 10
174.29378558479999
 20
401.50206751000002
 11
663.79211558479994
 21
375.84854551000001
  0
LINE
  8
_0-0_0
  6
CONTINUOUS
 62
    7
 10
174.0059355848
 20
396.00960450999997
 11
663.5042685848
 21
370.35608251000002
  0
LINE
  8
_0-0_0
  6
CONTINUOUS
 62
    7
 10
174.1367775848
 20
398.50617750999999
 11
663.63510758480004
 21
372.85265550999998
  0
LINE
  8
_0-0_0
  6
CONTINUOUS
 62
    7
 10
174.05827358479999
 20
397.00823251000003
 11
663.55660358479997
 21
371.35471351000001
  0
LINE
  8
_0-0_0
  6
CONTINUOUS
 62
    7
 10
671.2005945848
 20
395.20784551000003
 11
155.31222758479998
 21
422.24440951000003
  0
LINE
  8
_0-0_0
  6
CONTINUOUS
 62
    7
 10
691.25708258479995
 20
398.66290651000003
 11
160.04773958480001
 21
426.50240851000001
  0
LINE
  8
_0-0_0
  6
CONTINUOUS
 62
    7
 10
691.36175558479999
 20
400.66016551000001
 11
160.1524125848
 21
428.49966750999999
  0
LINE
  8
_0-0_0
  6
CONTINUOUS
 62
    7
 10
722.43059258480002
 20
354.38000550999999
 11
722.43059258480002
 21
310.51117051
  0
LINE
  8
_0-0_0
  6
CONTINUOUS
 62
    7
 10
713.47440758480002
 20
310.51117051
 11
728.43059258480002
 21
310.51117051
  0
LINE
  8
_0-0_0
  6
CONTINUOUS
 62
    7
 10
684.20474858479997
 20
312.51117151
 11
684.20474858479997
 21
310.51117051
  0
ARC
  8
_0-0_0
  6
CONTINUOUS
 62
    7
 10
671.04358658479998
 20
392.21195850999999
 40
7.5
 50
10.124672
 51
87.000000000000014
  0
LINE
  8
_0-0_0
  6
CONTINUOUS
 62
    7
 10
657.96423458480001
 20
400.40770951000002
 11
656.32716758480001
 21
398.77064551000001
  0
LINE
  8
_0-0_0
  6
CONTINUOUS
 62
    7
 10
659.30802458480002
 20
400.33728451000002
 11
657.67095758480002
 21
398.70022051000001
  0
LINE
  8
_0-0_0
  6
CONTINUOUS
 62
    7
 10
660.65181158480004
 20
400.26685951000002
 11
659.01474458480004
 21
398.62979551000001
  0
LINE
  8
_0-0_0
  6
CONTINUOUS
 62
    7
 10
661.99560158480006
 20
400.19643451000002
 11
660.35853458480005
 21
398.55937051000001
  0
LINE
  8
_0-0_0
  6
CONTINUOUS
 62
    7
 10
663.33938858479996
 20
400.12600951000002
 11
661.70232458479995
 21
398.48894551000001
  0
LINE
  8
_0-0_0
  6
CONTINUOUS
 62
    7
 10
664.68317858479998
 20
400.05558451000002
 11
663.04611158479997
 21
398.41852051000001
  0
LINE
  8
_0-0_0
  6
CONTINUOUS
 62
    7
 10
664.38990158479999
 20
398.34809551000001
 11
665.00342258479998
 21
398.96161651
  0
LINE
  8
_0-0_0
  6
CONTINUOUS
 62
    7
 10
656.63119658480002
 20
400.47757051000002
 11
654.99412958480002
 21
398.84050651000001
  0
LINE
  8
_0-0_0
  6
CONTINUOUS
 62
    7
 10
655.27665758479998
 20
400.54855951000002
 11
655.06159358479999
 21
400.33349851000003
  0
ARC
  8
_0-0_0
  6
CONTINUOUS
 62
    7
 10
691.20474758479997
 20
313.51117051
 40
0.9999989999999999
 50
270
 51
0
  0
LINE
  8
_0-0_0
  6
CONTINUOUS
 62
    7
 10
691.20474758479997
 20
312.51117151
 11
684.20474858479997
 21
312.51117151
  0
ARC
  8
_0-0_0
  6
CONTINUOUS
 62
    7
 10
691.20474758479997
 20
313.51117051
 40
3
 50
270
 51
0
  0
LINE
  8
_0-0_0
  6
CONTINUOUS
 62
    7
 10
691.20474758479997
 20
310.51117051
 11
684.20474858479997
 21
310.51117051
  0
ARC
  8
_0-0_0
  6
CONTINUOUS
 62
    7
 10
691.20474758479997
 20
397.66427550999998
 40
3
 50
0
 51
87
  0
LINE
  8
_0-0_0
  6
CONTINUOUS
 62
    7
 10
694.20474758479997
 20
397.66427550999998
 11
694.20474758479997
 21
313.51117051
  0
LINE
  8
_0-0_0
  6
CONTINUOUS
 62
    7
 10
678.42679358479995
 20
393.53038651000003
 11
692.20474658479998
 21
316.37383950999998
  0
LINE
  8
_0-0_0
  6
CONTINUOUS
 62
    7
 10
692.20474658479998
 20
397.66427550999998
 11
692.20474658479998
 21
313.51117051
  0
ARC
  8
_0-0_0
  6
CONTINUOUS
 62
    7
 10
691.20474758479997
 20
397.66427550999998
 40
0.9999989999999999
 50
0
 51
87
  0
LINE
  8
_0-0_0
  6
CONTINUOUS
 62
    7
 10
673.99686758480004
 20
392.73932851000001
 11
687.77355458479997
 21
315.58989150999997
  0
ARC
  8
_0-0_0
  6
CONTINUOUS
 62
    7
 10
671.04358658479998
 20
392.21195850999999
 40
3
 50
10.124672
 51
87.000000000000014
  0
LINE
  8
_0-0_0
  6
CONTINUOUS
 62
    7
 10
687.28744958480002
 20
323.31117151000001
 11
678.0372735848
 21
323.31117151000001
  0
ARC
  8
_0-0_0
  6
CONTINUOUS
 62
    7
 10
687.28744958480002
 20
322.81117051000001
 40
0.500001
 50
12
 51
90.000000000000014
  0
LINE
  8
_0-0_0
  6
CONTINUOUS
 62
    7
 10
687.77652458479997
 20
322.91512650999999
 11
689.20474658479998
 21
316.19585850999999
  0
LINE
  8
_0-0_0
  6
CONTINUOUS
 62
    7
 10
689.20474658479998
 20
316.19585850999999
 11
689.20474658479998
 21
312.51117151
  0
LINE
  8
_0-0_0
  6
CONTINUOUS
 62
    7
 10
689.70474758479997
 20
312.51117151
 11
689.20474658479998
 21
312.51117151
  0
ARC
  8
_0-0_0
  6
CONTINUOUS
 62
    7
 10
689.70474758479997
 20
315.01117051
 40
2.4999989999999999
 50
270
 51
0
  0
LINE
  8
_0-0_0
  6
CONTINUOUS
 62
    7
 10
678.0372735848
 20
324.51117151
 11
680.43727358479998
 21
324.51117151
  0
LINE
  8
_0-0_0
  6
CONTINUOUS
 62
    7
 10
682.43727458479998
 20
325.51117051
 11
682.43727458479998
 21
324.51117151
  0
LINE
  8
_0-0_0
  6
CONTINUOUS
 62
    7
 10
680.43727358479998
 20
324.51117151
 11
682.43727458479998
 21
325.51117051
  0
ARC
  8
_0-0_0
  6
CONTINUOUS
 62
    7
 10
678.0372735848
 20
323.91117150999997
 40
0.5999999999999999
 50
90
 51
270
  0
LINE
  8
_0-0_0
  6
CONTINUOUS
 62
    7
 10
686.81982458480002
 20
324.51117151
 11
682.43727458479998
 21
324.51117151
  0
ARC
  8
_0-0_0
  6
CONTINUOUS
 62
    7
 10
686.81982458480002
 20
325.01116951
 40
0.500001
 50
270
 51
11.999999999999991
  0
ARC
  8
_0-0_0
  6
CONTINUOUS
 62
    7
 10
665.60620058480004
 20
372.24867151000001
 40
0.500001
 50
86.999999999989996
 51
177
  0
LINE
  8
_0-0_0
  6
CONTINUOUS
 62
    7
 10
665.10688358480002
 20
372.27483751
 11
665.05454858480005
 21
371.27620951
  0
LINE
  8
_0-0_0
  6
CONTINUOUS
 62
    7
 10
664.52906558480004
 20
370.80306151000002
 11
664.02975158480001
 21
370.82923051
  0
ARC
  8
_0-0_0
  6
CONTINUOUS
 62
    7
 10
664.05592058479999
 20
371.32854450999997
 40
0.500001
 50
176.99999999999997
 51
267
  0
ARC
  8
_0-0_0
  6
CONTINUOUS
 62
    7
 10
664.55523458480002
 20
371.30237550999999
 40
0.500001
 50
266.99999999999
 51
357
  0
LINE
  8
_0-0_0
  6
CONTINUOUS
 62
    7
 10
673.3074465848
 20
372.34575151000001
 11
665.63236658480002
 21
372.74798550999998
  0
ARC
  8
_0-0_0
  6
CONTINUOUS
 62
    7
 10
673.28127758480002
 20
371.84643750999999
 40
0.500001
 50
347
 51
86.999999999989981
  0
LINE
  8
_0-0_0
  6
CONTINUOUS
 62
    7
 10
673.76846258479998
 20
371.73396150999997
 11
673.18527158480003
 21
369.20787751
  0
LINE
  8
_0-0_0
  6
CONTINUOUS
 62
    7
 10
675.37073258479995
 20
372.23761951
 11
676.54807958480001
 21
372.17591550999998
  0
ARC
  8
_0-0_0
  6
CONTINUOUS
 62
    7
 10
675.35503358480003
 20
371.93803050999998
 40
0.2999999999999999
 50
86.999999999989996
 51
167
  0
LINE
  8
_0-0_0
  6
CONTINUOUS
 62
    7
 10
675.06272258479999
 20
372.00551551000001
 11
674.35451558479997
 21
368.93793450999999
  0
ARC
  8
_0-0_0
  6
CONTINUOUS
 62
    7
 10
676.49574458480004
 20
371.17728750999999
 40
0.9999989999999999
 50
12
 51
87.000000000000014
  0
ARC
  8
_0-0_0
  6
CONTINUOUS
 62
    7
 10
673.7698935848
 20
369.07290451
 40
0.5999999999999999
 50
167
 51
347
  0
LINE
  8
_0-0_0
  6
CONTINUOUS
 62
    7
 10
680.24879858480006
 20
372.75949351000003
 11
692.20474658479998
 21
316.51117051
  0
LINE
  8
_0-0_0
  6
CONTINUOUS
 62
    7
 10
677.47389158479996
 20
371.38519951000001
 11
687.30889958479997
 21
325.11512550999998
  0
LINE
  8
_0-0_0
  6
CONTINUOUS
 62
    7
 10
687.77355458479997
 20
315.58989150999997
 11
692.20474658479998
 21
316.37383950999998
  0
LINE
  8
_0-0_0
  6
CONTINUOUS
 62
    7
 10
665.05972058479995
 20
400.03585050999999
 11
664.96967558480003
 21
398.31771150999998
  0
LINE
  8
_0-0_0
  6
CONTINUOUS
 62
    7
 10
655.07342558480002
 20
400.55921251000001
 11
654.98338058479999
 21
398.84107051000001
  0
ARC
  8
_0-0_0
  6
CONTINUOUS
 62
    7
 10
664.4222715848
 20
378.31895250999997
 40
0.500001
 50
86.999999999989996
 51
177
  0
LINE
  8
_0-0_0
  6
CONTINUOUS
 62
    7
 10
665.78937458480004
 20
375.74387251000002
 11
677.47136258479998
 21
375.13164750999999
  0
ARC
  8
_0-0_0
  6
CONTINUOUS
 62
    7
 10
665.81554358480003
 20
376.24318950999998
 40
0.500001
 50
176.99999999999997
 51
267
  0
LINE
  8
_0-0_0
  6
CONTINUOUS
 62
    7
 10
665.3162295848
 20
376.26935551000003
 11
665.42089958480005
 21
378.26661451000001
  0
ARC
  8
_0-0_0
  6
CONTINUOUS
 62
    7
 10
664.92158558480003
 20
378.29278350999999
 40
0.500001
 50
357
 51
86.999999999989996
  0
LINE
  8
_0-0_0
  6
CONTINUOUS
 62
    7
 10
664.94775458480001
 20
378.79209751000002
 11
664.44844058479998
 21
378.81826651
  0
LINE
  8
_0-0_0
  6
CONTINUOUS
 62
    7
 10
664.96967558480003
 20
398.31771150999998
 11
663.5042685848
 21
370.35608251000002
  0
ARC
  8
_0-0_0
  6
CONTINUOUS
 62
    7
 10
677.31435458479996
 20
372.13575751000002
 40
3
 50
12
 51
87.000000000000014
  0
ARC
  8
_0-0_0
  6
CONTINUOUS
 62
    7
 10
635.25267158480005
 20
375.84217651
 40
1.5
 50
87
 51
267
  0
LINE
  8
_0-0_0
  6
CONTINUOUS
 62
    7
 10
694.20474758479997
 20
312.51117151
 11
694.20474758479997
 21
239.26370251
  0
LINE
  8
_0-0_0
  6
CONTINUOUS
 62
    7
 10
754.20467558480004
 20
400.51117051
 11
754.20467558480004
 21
310.51117051
  0
LINE
  8
_0-0_0
  6
CONTINUOUS
 62
    7
 10
695.70474758479997
 20
400.51117051
 11
757.20467558480004
 21
400.51117051
  0
LINE
  8
_0-0_0
  6
CONTINUOUS
 62
    7
 10
692.70474758479997
 20
310.51117051
 11
757.20467558480004
 21
310.51117051
  0
LINE
  8
_0-0_0
  6
CONTINUOUS
 62
    7
 10
514.20474658479998
 20
309.86300550999999
 11
514.20474658479998
 21
302.49313051000001
  0
LINE
  8
_0-0_0
  6
CONTINUOUS
 62
    7
 10
514.20474658479998
 20
306.49313251000001
 11
564.20474758479997
 21
306.49313251000001
  0
LINE
  8
_0-0_0
  6
CONTINUOUS
 62
    7
 10
564.20474758479997
 20
298.63196550999999
 11
564.20474758479997
 21
306.49313251000001
  0
LINE
  8
_0-0_0
  6
CONTINUOUS
 62
    7
 10
564.20474758479997
 20
262.36300650999999
 11
564.20474758479997
 21
354.38000550999999
  0
LINE
  8
_0-0_0
  6
CONTINUOUS
 62
    7
 10
566.20474858479997
 20
354.38000550999999
 11
728.43059258480002
 21
354.38000550999999
  0
ARC
  8
_0-0_0
  6
CONTINUOUS
 62
    7
 10
514.20474658479998
 20
355.53064551009999
 40
8.6493580004320005
 50
69.705444999999997
 51
110.294555
  0
LINE
  8
_0-0_0
  6
CONTINUOUS
 62
    7
 10
508.32474658450002
 20
363.64306951050003
 11
508.32474658450002
 21
359.38000551030001
  0
LINE
  8
_0-0_0
  6
CONTINUOUS
 62
    7
 10
509.25474658450003
 20
364.1800055105
 11
508.32474658450002
 21
363.64306951050003
  0
ARC
  8
_0-0_0
  6
CONTINUOUS
 62
    7
 10
509.25474658450003
 20
360.37061151030002
 40
3.8093940001900002
 50
59.210035999999995
 51
90
  0
LINE
  8
_0-0_0
  6
CONTINUOUS
 62
    7
 10
511.2047465846
 20
363.64306951050003
 11
511.2047465846
 21
359.38000551030001
  0
LINE
  8
_0-0_0
  6
CONTINUOUS
 62
    7
 10
517.20474658490002
 20
363.64306951050003
 11
517.20474658490002
 21
359.38000551030001
  0
LINE
  8
_0-0_0
  6
CONTINUOUS
 62
    7
 10
520.08474658509999
 20
363.64306951050003
 11
520.08474658509999
 21
359.38000551030001
  0
LINE
  8
_0-0_0
  6
CONTINUOUS
 62
    7
 10
519.154746585
 20
364.1800055105
 11
520.08474658509999
 21
363.64306951050003
  0
LINE
  8
_0-0_0
  6
CONTINUOUS
 62
    7
 10
509.25474658450003
 20
364.1800055105
 11
519.154746585
 21
364.1800055105
  0
ARC
  8
_0-0_0
  6
CONTINUOUS
 62
    7
 10
519.154746585
 20
360.37061151030002
 40
3.8093940001900002
 50
90
 51
120.789964
  0
ARC
  8
_0-0_0
  6
CONTINUOUS
 62
    7
 10
517.70474658490002
 20
314.8800055081
 40
1.00000000005
 50
270
 51
0
  0
LINE
  8
_0-0_0
  6
CONTINUOUS
 62
    7
 10
520.82977458510004
 20
316.11800950809999
 11
516.64434258489996
 21
315.3800055081
  0
LINE
  8
_0-0_0
  6
CONTINUOUS
 62
    7
 10
518.25474658500002
 20
346.08000550960003
 11
510.15474658459999
 21
346.08000550960003
  0
LINE
  8
_0-0_0
  6
CONTINUOUS
 62
    7
 10
518.95474658499995
 20
345.38000550959998
 11
509.45474658450001
 21
345.38000550959998
  0
LINE
  8
_0-0_0
  6
CONTINUOUS
 62
    7
 10
507.57971658439999
 20
316.11800950809999
 11
509.45474658450001
 21
326.75183150859999
  0
LINE
  8
_0-0_0
  6
CONTINUOUS
 62
    7
 10
513.70474658470005
 20
326.38000550859999
 11
511.76514858460001
 21
315.3800055081
  0
LINE
  8
_0-0_0
  6
CONTINUOUS
 62
    7
 10
514.70474658479998
 20
326.38000550859999
 11
516.64434258489996
 21
315.3800055081
  0
LINE
  8
_0-0_0
  6
CONTINUOUS
 62
    7
 10
507.57971658439999
 20
316.11800950809999
 11
511.76514858460001
 21
315.3800055081
  0
LINE
  8
_0-0_0
  6
CONTINUOUS
 62
    7
 10
509.70474658450001
 20
314.8800055081
 11
509.70474658450001
 21
315.74330950810003
  0
ARC
  8
_0-0_0
  6
CONTINUOUS
 62
    7
 10
510.7047465846
 20
314.8800055081
 40
1.00000000005
 50
180
 51
270
  0
LINE
  8
_0-0_0
  6
CONTINUOUS
 62
    7
 10
510.7047465846
 20
313.88000550800001
 11
517.70474658490002
 21
313.88000550800001
  0
LINE
  8
_0-0_0
  6
CONTINUOUS
 62
    7
 10
509.45474658450001
 20
326.75183150859999
 11
509.45474658450001
 21
345.38000550959998
  0
LINE
  8
_0-0_0
  6
CONTINUOUS
 62
    7
 10
510.15474658459999
 20
355.38000551009998
 11
510.15474658459999
 21
346.08000550960003
  0
LINE
  8
_0-0_0
  6
CONTINUOUS
 62
    7
 10
509.45474658450001
 20
345.38000550959998
 11
510.15474658459999
 21
346.08000550960003
  0
LINE
  8
_0-0_0
  6
CONTINUOUS
 62
    7
 10
514.70474658479998
 20
326.38000550859999
 11
513.70474658470005
 21
326.38000550859999
  0
LINE
  8
_0-0_0
  6
CONTINUOUS
 62
    7
 10
520.82977458510004
 20
316.11800950809999
 11
518.95474658499995
 21
326.75183150859999
  0
LINE
  8
_0-0_0
  6
CONTINUOUS
 62
    7
 10
518.70474658499995
 20
314.8800055081
 11
518.70474658499995
 21
315.74330950810003
  0
LINE
  8
_0-0_0
  6
CONTINUOUS
 62
    7
 10
518.95474658499995
 20
326.75183150859999
 11
518.95474658499995
 21
345.38000550959998
  0
LINE
  8
_0-0_0
  6
CONTINUOUS
 62
    7
 10
518.25474658500002
 20
355.38000551009998
 11
518.25474658500002
 21
346.08000550960003
  0
LINE
  8
_0-0_0
  6
CONTINUOUS
 62
    7
 10
518.95474658499995
 20
345.38000550959998
 11
518.25474658500002
 21
346.08000550960003
  0
LINE
  8
_0-0_0
  6
CONTINUOUS
 62
    7
 10
500.95474658410001
 20
363.88000551049998
 11
498.00474658399997
 21
363.88000551049998
  0
LINE
  8
_0-0_0
  6
CONTINUOUS
 62
    7
 10
527.45474658540002
 20
363.88000551049998
 11
530.40474658560004
 21
363.88000551049998
  0
ARC
  8
_0-0_0
  6
CONTINUOUS
 62
    7
 10
531.70474658559999
 20
373.38000551099998
 40
1.00000000005
 50
0
 51
180
  0
LINE
  8
_0-0_0
  6
CONTINUOUS
 62
    7
 10
530.70474658559999
 20
365.88000551059997
 11
530.70474658559999
 21
373.38000551099998
  0
LINE
  8
_0-0_0
  6
CONTINUOUS
 62
    7
 10
532.70474658570004
 20
373.38000551099998
 11
532.70474658570004
 21
358.38000551020002
  0
LINE
  8
_0-0_0
  6
CONTINUOUS
 62
    7
 10
530.40474658560004
 20
361.3800055104
 11
528.45474658549995
 21
361.3800055104
  0
ARC
  8
_0-0_0
  6
CONTINUOUS
 62
    7
 10
530.40474658560004
 20
361.68000551040001
 40
0.3000000000149999
 50
270
 51
0
  0
LINE
  8
_0-0_0
  6
CONTINUOUS
 62
    7
 10
530.70474658559999
 20
361.68000551040001
 11
530.70474658559999
 21
363.58000551049997
  0
ARC
  8
_0-0_0
  6
CONTINUOUS
 62
    7
 10
530.40474658560004
 20
363.58000551049997
 40
0.3000000000149999
 50
0
 51
90
  0
LINE
  8
_0-0_0
  6
CONTINUOUS
 62
    7
 10
513.70474658470005
 20
357.88000551020002
 11
514.20474658479998
 21
357.38000551020002
  0
LINE
  8
_0-0_0
  6
CONTINUOUS
 62
    7
 10
514.70474658479998
 20
357.88000551020002
 11
514.20474658479998
 21
357.38000551020002
  0
LINE
  8
_0-0_0
  6
CONTINUOUS
 62
    7
 10
509.20474658450001
 20
355.88000551009998
 11
509.20474658450001
 21
355.38000551009998
  0
LINE
  8
_0-0_0
  6
CONTINUOUS
 62
    7
 10
530.20474658559999
 20
365.38000551059997
 11
527.45474658540002
 21
365.38000551059997
  0
ARC
  8
_0-0_0
  6
CONTINUOUS
 62
    7
 10
530.20474658559999
 20
365.88000551059997
 40
0.500000000025
 50
270
 51
0
  0
ARC
  8
_0-0_0
  6
CONTINUOUS
 62
    7
 10
527.45474658540002
 20
364.63000551049998
 40
0.7500000000375
 50
90
 51
270
  0
ARC
  8
_0-0_0
  6
CONTINUOUS
 62
    7
 10
533.20474658570004
 20
358.38000551020002
 40
0.500000000025
 50
180
 51
270
  0
LINE
  8
_0-0_0
  6
CONTINUOUS
 62
    7
 10
532.70474658570004
 20
356.38000551009998
 11
532.70474658570004
 21
355.38000551009998
  0
LINE
  8
_0-0_0
  6
CONTINUOUS
 62
    7
 10
519.20474658499995
 20
355.88000551009998
 11
530.70474658559999
 21
355.88000551009998
  0
LINE
  8
_0-0_0
  6
CONTINUOUS
 62
    7
 10
519.20474658499995
 20
355.88000551009998
 11
519.20474658499995
 21
355.38000551009998
  0
LINE
  8
_0-0_0
  6
CONTINUOUS
 62
    7
 10
530.70474658559999
 20
355.88000551009998
 11
530.70474658559999
 21
355.38000551009998
  0
ARC
  8
_0-0_0
  6
CONTINUOUS
 62
    7
 10
528.45474658549995
 20
360.63000551030001
 40
0.7500000000375
 50
90
 51
270
  0
ARC
  8
_0-0_0
  6
CONTINUOUS
 62
    7
 10
530.40474658560004
 20
359.5800055103
 40
0.3000000000149999
 50
0
 51
90
  0
LINE
  8
_0-0_0
  6
CONTINUOUS
 62
    7
 10
497.70474658389998
 20
355.88000551009998
 11
509.20474658450001
 21
355.88000551009998
  0
LINE
  8
_0-0_0
  6
CONTINUOUS
 62
    7
 10
498.00474658399997
 20
361.3800055104
 11
499.95474658410001
 21
361.3800055104
  0
ARC
  8
_0-0_0
  6
CONTINUOUS
 62
    7
 10
498.00474658399997
 20
361.68000551040001
 40
0.3000000000149999
 50
180
 51
270
  0
LINE
  8
_0-0_0
  6
CONTINUOUS
 62
    7
 10
497.70474658389998
 20
361.68000551040001
 11
497.70474658389998
 21
363.58000551049997
  0
ARC
  8
_0-0_0
  6
CONTINUOUS
 62
    7
 10
498.00474658399997
 20
363.58000551049997
 40
0.3000000000149999
 50
90
 51
180
  0
LINE
  8
_0-0_0
  6
CONTINUOUS
 62
    7
 10
496.70474658389998
 20
365.38000551059997
 11
500.95474658410001
 21
365.38000551059997
  0
ARC
  8
_0-0_0
  6
CONTINUOUS
 62
    7
 10
496.70474658389998
 20
364.88000551059997
 40
0.500000000025
 50
90
 51
180
  0
ARC
  8
_0-0_0
  6
CONTINUOUS
 62
    7
 10
500.95474658410001
 20
364.63000551049998
 40
0.7500000000375
 50
270
 51
90
  0
LINE
  8
_0-0_0
  6
CONTINUOUS
 62
    7
 10
496.20474658389998
 20
364.88000551059997
 11
496.20474658389998
 21
355.38000551009998
  0
LINE
  8
_0-0_0
  6
CONTINUOUS
 62
    7
 10
497.70474658389998
 20
355.88000551009998
 11
497.70474658389998
 21
355.38000551009998
  0
ARC
  8
_0-0_0
  6
CONTINUOUS
 62
    7
 10
499.95474658410001
 20
360.63000551030001
 40
0.7500000000375
 50
270
 51
90
  0
ARC
  8
_0-0_0
  6
CONTINUOUS
 62
    7
 10
498.00474658399997
 20
358.18000551019998
 40
0.3000000000149999
 50
180
 51
270
  0
LINE
  8
_0-0_0
  6
CONTINUOUS
 62
    7
 10
497.70474658389998
 20
358.18000551019998
 11
497.70474658389998
 21
359.5800055103
  0
ARC
  8
_0-0_0
  6
CONTINUOUS
 62
    7
 10
498.00474658399997
 20
359.5800055103
 40
0.3000000000149999
 50
90
 51
180
  0
LINE
  8
_0-0_0
  6
CONTINUOUS
 62
    7
 10
533.20474658570004
 20
357.88000551020002
 11
537.17721058589996
 21
357.88000551020002
  0
LINE
  8
_0-0_0
  6
CONTINUOUS
 62
    7
 10
530.70474658559999
 20
358.38000551020002
 11
530.70474658559999
 21
359.5800055103
  0
ARC
  8
_0-0_0
  6
CONTINUOUS
 62
    7
 10
530.20474658559999
 20
358.38000551020002
 40
0.500000000025
 50
270
 51
0
  0
LINE
  8
_0-0_0
  6
CONTINUOUS
 62
    7
 10
530.20474658559999
 20
357.88000551020002
 11
498.00474658399997
 21
357.88000551020002
  0
LINE
  8
_0-0_0
  6
CONTINUOUS
 62
    7
 10
514.20474658479998
 20
308.94660350779998
 11
514.20474658479998
 21
354.38000550999999
  0
LINE
  8
_0-0_0
  6
CONTINUOUS
 62
    7
 10
514.20474658479998
 20
355.38000551009998
 11
514.20474658479998
 21
365.06375351060001
  0
LINE
  8
_0-0_0
  6
CONTINUOUS
 62
    7
 10
543.20474658620003
 20
356.38000551009998
 11
543.20474658620003
 21
355.38000551009998
  0
LINE
  8
_0-0_0
  6
CONTINUOUS
 62
    7
 10
532.70474658570004
 20
356.38000551009998
 11
543.20474658620003
 21
356.38000551009998
  0
LINE
  8
_0-0_0
  6
CONTINUOUS
 62
    7
 10
514.20474658479998
 20
355.38000551009998
 11
514.20474658479998
 21
354.38000550999999
  0
LINE
  8
_0-0_0
  6
CONTINUOUS
 62
    7
 10
523.20474658520004
 20
359.38000551030001
 11
523.20474658520004
 21
357.88000551020002
  0
LINE
  8
_0-0_0
  6
CONTINUOUS
 62
    7
 10
523.20474658520004
 20
359.38000551030001
 11
505.20474658429998
 21
359.38000551030001
  0
LINE
  8
_0-0_0
  6
CONTINUOUS
 62
    7
 10
505.20474658429998
 20
359.38000551030001
 11
505.20474658429998
 21
357.88000551020002
  0
ARC
  8
_0-0_0
  6
CONTINUOUS
 62
    7
 10
522.60474658520002
 20
370.25972551080002
 40
1.00000000005
 50
0
 51
87
  0
ARC
  8
_0-0_0
  6
CONTINUOUS
 62
    7
 10
522.60474658520002
 20
370.25972551080002
 40
2.6000000001300001
 50
0
 51
87
  0
LINE
  8
_0-0_0
  6
CONTINUOUS
 62
    7
 10
509.47497658449998
 20
370.94782751090003
 11
509.42264058450002
 21
369.94919951079999
  0
LINE
  8
_0-0_0
  6
CONTINUOUS
 62
    7
 10
509.42264058450002
 20
369.94919951079999
 11
518.610032585
 21
369.46770751079998
  0
LINE
  8
_0-0_0
  6
CONTINUOUS
 62
    7
 10
518.66236858499997
 20
370.46633751079997
 11
518.610032585
 21
369.46770751079998
  0
ARC
  8
_0-0_0
  6
CONTINUOUS
 62
    7
 10
508.47634658449999
 20
371.00016351089999
 40
1.00000000005
 50
357.00000000000102
 51
87
  0
ARC
  8
_0-0_0
  6
CONTINUOUS
 62
    7
 10
519.66099858500002
 20
370.41400151080001
 40
1.00000000005
 50
87
 51
176.99999999999997
  0
LINE
  8
_0-0_0
  6
CONTINUOUS
 62
    7
 10
522.65708258519999
 20
371.2583555109
 11
505.85708258429997
 21
372.1388055109
  0
ARC
  8
_0-0_0
  6
CONTINUOUS
 62
    7
 10
505.80474658430001
 20
371.1401775109
 40
2.6000000001300001
 50
87
 51
180
  0
ARC
  8
_0-0_0
  6
CONTINUOUS
 62
    7
 10
505.80474658430001
 20
371.1401775109
 40
1.00000000005
 50
87
 51
180
  0
LINE
  8
_0-0_0
  6
CONTINUOUS
 62
    7
 10
504.80474658430001
 20
364.88000551059997
 11
504.80474658430001
 21
371.1401775109
  0
LINE
  8
_0-0_0
  6
CONTINUOUS
 62
    7
 10
503.2047465842
 20
371.1401775109
 11
503.2047465842
 21
364.88000551059997
  0
LINE
  8
_0-0_0
  6
CONTINUOUS
 62
    7
 10
502.2047465842
 20
363.88000551049998
 11
498.00474658399997
 21
363.88000551049998
  0
ARC
  8
_0-0_0
  6
CONTINUOUS
 62
    7
 10
502.2047465842
 20
364.88000551059997
 40
1.00000000005
 50
270
 51
0
  0
ARC
  8
_0-0_0
  6
CONTINUOUS
 62
    7
 10
502.2047465842
 20
364.88000551059997
 40
2.6000000001300001
 50
270
 51
0
  0
LINE
  8
_0-0_0
  6
CONTINUOUS
 62
    7
 10
502.2047465842
 20
362.28000551039997
 11
497.70474658389998
 21
362.28000551039997
  0
LINE
  8
_0-0_0
  6
CONTINUOUS
 62
    7
 10
523.60474658520002
 20
364.88000551059997
 11
523.60474658520002
 21
370.25972551080002
  0
LINE
  8
_0-0_0
  6
CONTINUOUS
 62
    7
 10
525.20474658529997
 20
370.25972551080002
 11
525.20474658529997
 21
364.88000551059997
  0
LINE
  8
_0-0_0
  6
CONTINUOUS
 62
    7
 10
526.20474658540002
 20
363.88000551049998
 11
530.40474658560004
 21
363.88000551049998
  0
ARC
  8
_0-0_0
  6
CONTINUOUS
 62
    7
 10
526.20474658540002
 20
364.88000551059997
 40
1.00000000005
 50
180
 51
270
  0
ARC
  8
_0-0_0
  6
CONTINUOUS
 62
    7
 10
526.20474658540002
 20
364.88000551059997
 40
2.6000000001300001
 50
180
 51
270
  0
LINE
  8
_0-0_0
  6
CONTINUOUS
 62
    7
 10
526.20474658540002
 20
362.28000551039997
 11
530.70474658559999
 21
362.28000551039997
  0
LINE
  8
_0-0_0
  6
CONTINUOUS
 62
    7
 10
530.40474658560004
 20
359.88000551030001
 11
528.45474658549995
 21
359.88000551030001
  0
LINE
  8
_0-0_0
  6
CONTINUOUS
 62
    7
 10
499.95474658410001
 20
359.88000551030001
 11
498.00474658399997
 21
359.88000551030001
  0
LINE
  8
_0-0_0
  6
CONTINUOUS
 62
    7
 10
674.43727558479998
 20
354.36062839030001
 11
664.43727558479998
 21
354.36062839030001
  0
LINE
  8
_0-0_0
  6
CONTINUOUS
 62
    7
 10
694.20474758479997
 20
398.66427750999998
 11
694.20474758479997
 21
562.43354006200002
  0
CIRCLE
  8
_0-4_図枠
  6
CONTINUOUS
 62
    7
 10
536.29630822640001
 20
428.54760437789997
 40
6
  0
CIRCLE
  8
_0-4_図枠
  6
CONTINUOUS
 62
    7
 10
552.27526280459995
 20
429.09639676170002
 40
6
  0
CIRCLE
  8
_0-4_図枠
  6
CONTINUOUS
 62
    7
 10
559.68389518050003
 20
419.0118475621
 40
6
  0
LINE
  8
_0-4_図枠
  6
CONTINUOUS
 62
    7
 10
531.87084092509997
 20
370.83822447799997
 11
556.68389518050003
 21
413.81569513940002
  0
CIRCLE
  8
_0-4_図枠
  6
CONTINUOUS
 62
    7
 10
531.87084092509997
 20
370.83822447799997
 40
0.9
  0
CIRCLE
  8
_0-4_図枠
  6
CONTINUOUS
 62
    7
 10
538.85190017670004
 20
341.47332418209999
 40
6
  0
LINE
  8
_0-4_図枠
  6
CONTINUOUS
 62
    7
 10
524.07021404490001
 20
367.07595558380001
 11
535.85190017670004
 21
346.66947660480002
  0
CIRCLE
  8
_0-4_図枠
  6
CONTINUOUS
 62
    7
 10
524.07021404490001
 20
367.07595558380001
 40
0.9
  0
CIRCLE
  8
_0-4_図枠
  6
CONTINUOUS
 62
    7
 10
537.96157170410004
 20
327.6635600024
 40
6
  0
LINE
  8
_0-4_図枠
  6
CONTINUOUS
 62
    7
 10
518.53918603919999
 20
361.30411877810002
 11
534.96157170410004
 21
332.85971242509999
  0
CIRCLE
  8
_0-4_図枠
  6
CONTINUOUS
 62
    7
 10
518.53918603919999
 20
361.30411877810002
 40
0.9
  0
CIRCLE
  8
_0-4_図枠
  6
CONTINUOUS
 62
    7
 10
494.57933597189998
 20
336.46383488020001
 40
6
  0
LINE
  8
_0-4_図枠
  6
CONTINUOUS
 62
    7
 10
507.27658960370002
 20
358.4561232872
 11
497.57933597189998
 21
341.65998730289999
  0
CIRCLE
  8
_0-4_図枠
  6
CONTINUOUS
 62
    7
 10
507.27658960370002
 20
358.4561232872
 40
0.9
  0
CIRCLE
  8
_0-4_図枠
  6
CONTINUOUS
 62
    7
 10
498.17149238069999
 20
311.67795565889998
 40
6
  0
LINE
  8
_0-4_図枠
  6
CONTINUOUS
 62
    7
 10
511.21310657549998
 20
334.26669405690001
 11
501.17149238069999
 21
316.87410808160001
  0
CIRCLE
  8
_0-4_図枠
  6
CONTINUOUS
 62
    7
 10
511.21310657549998
 20
334.26669405690001
 40
0.9
  0
TEXT
  8
_0-0_0
 62
    7
 10
533.35884082869995
 20
307.6634461726
 40
6
 41
1
 50
0
  1
５０
  0
TEXT
  8
_0-2_寸法
 62
    7
 10
399.54174515049999
 20
442.53581590869999
 40
6
 41
1
 50
0
  1
（キャップ幅）
  0
TEXT
  8
_0-2_寸法
 62
    7
 10
425.13175840489998
 20
455.842622801
 40
6
 41
1
 50
0
  1
A
  0
TEXT
  8
_0-4_図枠
 62
    7
 10
557.09814560359996
 20
417.1914980889
 40
6
 41
1
 50
0
  1
３
  0
CIRCLE
  8
_0-4_図枠
  6
CONTINUOUS
 62
    7
 10
704.83674939529999
 20
427.22528777380001
 40
6
  0
LINE
  8
_0-4_図枠
  6
CONTINUOUS
 62
    7
 10
678.20026825189996
 20
381.08954909850002
 11
701.83674939529999
 21
422.02913535110002
  0
CIRCLE
  8
_0-4_図枠
  6
CONTINUOUS
 62
    7
 10
678.20026825189996
 20
381.08954909850002
 40
0.9
  0
CIRCLE
  8
_0-4_図枠
  6
CONTINUOUS
 62
    7
 10
705.9858969096
 20
449.40383479870002
 40
6
  0
LINE
  8
_0-4_図枠
  6
CONTINUOUS
 62
    7
 10
677.84941576619997
 20
400.67001991209997
 11
702.9858969096
 21
444.20768237599998
  0
CIRCLE
  8
_0-4_図枠
  6
CONTINUOUS
 62
    7
 10
677.84941576619997
 20
400.67001991209997
 40
0.9
  0
TEXT
  8
_0-4_図枠
 62
    7
 10
702.9858969096
 20
446.40383479870002
 40
6
 41
1
 50
0
  1
１
  0
TEXT
  8
_0-0_0
 62
    7
 10
751.99555366660002
 20
346.32996461959999
 40
6
 41
1
 50
90
  1
９０
  0
TEXT
  8
_0-0_0
 62
    7
 10
720.10668846420003
 20
327.95547179059997
 40
6
 41
1
 50
90
  1
４４
  0
LINE
  8
_0-0_0
  6
CONTINUOUS
 62
    7
 10
511.4637503765
 20
378.32418886670001
 11
511.20885808460002
 21
373.46052851100001
  0
LINE
  8
_0-0_0
  6
CONTINUOUS
 62
    7
 10
511.9630678995
 20
378.29802074269998
 11
511.70817208459999
 21
373.43435951100003
  0
LINE
  8
_0-0_0
  6
CONTINUOUS
 62
    7
 10
516.9562132213
 20
378.0363410704
 11
516.70132108489997
 21
373.17268001100001
  0
LINE
  8
_0-0_0
  6
CONTINUOUS
 62
    7
 10
517.45552719839998
 20
378.0101731323
 11
517.2006350849
 21
373.14651251100003
  0
LINE
  8
_0-0_0
  6
CONTINUOUS
 62
    7
 10
511.20885808460002
 20
373.46052851100001
 11
511.02044908459999
 21
369.8654620108
  0
LINE
  8
_0-0_0
  6
CONTINUOUS
 62
    7
 10
511.70817208400001
 20
373.4343594979
 11
511.51976308460002
 21
369.83929301080002
  0
LINE
  8
_0-0_0
  6
CONTINUOUS
 62
    7
 10
516.70132108489997
 20
373.17268001100001
 11
516.51291058490006
 21
369.57761351080001
  0
LINE
  8
_0-0_0
  6
CONTINUOUS
 62
    7
 10
517.2006350849
 20
373.14651251100003
 11
517.01222608490002
 21
369.55144601080002
  0
LINE
  8
_0-0_0
  6
CONTINUOUS
 62
    7
 10
511.02044908459999
 20
369.8654620108
 11
511.03471757689999
 21
370.1377346557
  0
LINE
  8
_0-0_0
  6
CONTINUOUS
 62
    7
 10
511.03471757689999
 20
370.1377346557
 11
511.50786407689998
 21
369.61225165569999
  0
LINE
  8
_0-0_0
  6
CONTINUOUS
 62
    7
 10
511.50786407689998
 20
369.61225165569999
 11
516.50101157719996
 21
369.35057215569998
  0
LINE
  8
_0-0_0
  6
CONTINUOUS
 62
    7
 10
516.50101157719996
 20
369.35057215569998
 11
517.02649457719997
 21
369.82371865570002
  0
LINE
  8
_0-0_0
  6
CONTINUOUS
 62
    7
 10
517.01222608490002
 20
369.55144601080002
 11
517.02649457719997
 21
369.82371865570002
  0
LINE
  8
_0-0_0
  6
CONTINUOUS
 62
    7
 10
511.03471757689999
 20
370.1377346557
 11
517.02649457719997
 21
369.82371865570002
  0
LINE
  8
_0-0_0
  6
CONTINUOUS
 62
    7
 10
511.51976308460002
 20
369.83929301080002
 11
511.50786407689998
 21
369.61225165569999
  0
LINE
  8
_0-0_0
  6
CONTINUOUS
 62
    7
 10
516.51291058490006
 20
369.57761351080001
 11
516.50101157719996
 21
369.35057215569998
  0
ARC
  8
_0-0_0
  6
CONTINUOUS
 62
    7
 10
515.6836753028
 20
397.92635448710001
 40
6.3000000003150003
 50
37.903458000000001
 51
136.096542
  0
LINE
  8
_0-0_0
  6
CONTINUOUS
 62
    7
 10
539.34330730399995
 20
385.26679848650002
 11
527.24641930339999
 21
398.82243498719998
  0
LINE
  8
_0-0_0
  6
CONTINUOUS
 62
    7
 10
543.40170130419995
 20
387.05902548659998
 11
542.79115630410001
 21
387.57597348659999
  0
LINE
  8
_0-0_0
  6
CONTINUOUS
 62
    7
 10
542.79115630410001
 20
387.57597348659999
 11
540.85259830400003
 21
385.28643348650002
  0
LINE
  8
_0-0_0
  6
CONTINUOUS
 62
    7
 10
504.27793930220002
 20
400.0261624872
 11
527.24641930339999
 21
398.82243498719998
  0
LINE
  8
_0-0_0
  6
CONTINUOUS
 62
    7
 10
490.83036880150001
 20
387.80925498660002
 11
504.27793930220002
 21
400.0261624872
  0
LINE
  8
_0-0_0
  6
CONTINUOUS
 62
    7
 10
510.5882263025
 20
401.01284148730002
 11
510.51937480250001
 21
399.69906348720002
  0
LINE
  8
_0-0_0
  6
CONTINUOUS
 62
    7
 10
521.07383680299995
 20
400.46331348730001
 11
521.00498380299996
 21
399.14953548720001
  0
ARC
  8
_0-0_0
  6
CONTINUOUS
 62
    7
 10
512.58548530259998
 20
400.90816998730003
 40
1.9999995000999999
 50
136.096542
 51
176.99999999999997
  0
LINE
  8
_0-0_0
  6
CONTINUOUS
 62
    7
 10
491.36831080159999
 20
387.21712398659997
 11
504.56906980219998
 21
399.20980698720001
  0
LINE
  8
_0-0_0
  6
CONTINUOUS
 62
    7
 10
504.56906980219998
 20
399.20980698720001
 11
526.91239630330006
 21
398.03884398709999
  0
ARC
  8
_0-0_0
  6
CONTINUOUS
 62
    7
 10
519.07657780290003
 20
400.5679864873
 40
1.9999995000999999
 50
356.99999999999898
 51
37.903458000000008
  0
LINE
  8
_0-0_0
  6
CONTINUOUS
 62
    7
 10
487.64278180140002
 20
390.46617798680001
 11
489.33139780149997
 21
387.98654598659999
  0
LINE
  8
_0-0_0
  6
CONTINUOUS
 62
    7
 10
486.9815473013
 20
390.01587948669999
 11
487.64278180140002
 21
390.46617798680001
  0
LINE
  8
_0-0_0
  6
CONTINUOUS
 62
    7
 10
486.9815473013
 20
390.01587948669999
 11
488.67016330140001
 21
387.53624748660002
  0
LINE
  8
_0-0_0
  6
CONTINUOUS
 62
    7
 10
543.40170130419995
 20
387.05902548659998
 11
541.46314330409996
 21
384.7694854865
  0
ARC
  8
_0-0_0
  6
CONTINUOUS
 62
    7
 10
540.08941930399999
 20
385.93261998650001
 40
1.0000005000500001
 50
221.74534800000004
 51
319.74534200000005
  0
LINE
  8
_0-0_0
  6
CONTINUOUS
 62
    7
 10
538.74641830389999
 20
384.73414248649999
 11
526.87155130329995
 21
398.04098448709999
  0
ARC
  8
_0-0_0
  6
CONTINUOUS
 62
    7
 10
540.08941930399999
 20
385.93261998650001
 40
1.8000000000900001
 50
221.745349
 51
319.74534199999999
  0
ARC
  8
_0-0_0
  6
CONTINUOUS
 62
    7
 10
490.15794280149998
 20
388.54941798670001
 40
1.0000005000500001
 50
214.25465800000001
 51
312.25465200000002
  0
ARC
  8
_0-0_0
  6
CONTINUOUS
 62
    7
 10
490.15794280149998
 20
388.54941798670001
 40
1.8000000000900001
 50
214.25465800000001
 51
312.25465100000002
  0
LINE
  8
_0-4_図枠
  6
CONTINUOUS
 62
    7
 10
515.80925740529995
 20
395.33853290069999
 11
533.29630822640001
 21
423.35145195519999
  0
CIRCLE
  8
_0-4_図枠
  6
CONTINUOUS
 62
    7
 10
515.80925740529995
 20
395.33853290069999
 40
0.9
  0
LINE
  8
_0-4_図枠
  6
CONTINUOUS
 62
    7
 10
531.32665475010003
 20
395.08788470569999
 11
549.27526280459995
 21
423.90024433899998
  0
CIRCLE
  8
_0-4_図枠
  6
CONTINUOUS
 62
    7
 10
531.32665475010003
 20
395.08788470569999
 40
0.9
  0
LINE
  8
_0-0_0
  6
CONTINUOUS
 62
    7
 10
518.75806780289997
 20
399.2672914872
 11
517.45552819509999
 21
378.0101730801
  0
LINE
  8
_0-0_0
  6
CONTINUOUS
 62
    7
 10
518.25875380289995
 20
399.29345898719998
 11
516.95621421800001
 21
378.03634101820001
  0
LINE
  8
_0-0_0
  6
CONTINUOUS
 62
    7
 10
513.26560480269995
 20
399.5551384872
 11
511.96306653049999
 21
378.29802081449998
  0
LINE
  8
_0-0_0
  6
CONTINUOUS
 62
    7
 10
512.7662908026
 20
399.58130748719998
 11
511.46375124920002
 21
378.32418882090002
  0
LINE
  8
_0-0_0
  6
CONTINUOUS
 62
    7
 10
516.06867880280004
 20
405.27264948750002
 11
514.00443873459994
 21
369.48141185809999
  0
CIRCLE
  8
_0-4_図枠
  6
CONTINUOUS
 62
    7
 10
608.82142864369996
 20
423.99343144509999
 40
6
  0
LINE
  8
_0-4_図枠
  6
CONTINUOUS
 62
    7
 10
587.87282058929998
 20
389.98491938910001
 11
605.82142864369996
 21
418.79727902240001
  0
CIRCLE
  8
_0-4_図枠
  6
CONTINUOUS
 62
    7
 10
587.87282058929998
 20
389.98491938910001
 40
0.9
  0
LINE
  8
_0-0_0
  6
CONTINUOUS
 62
    7
 10
514.20474658479998
 20
355.38000750999998
 11
550.2060341289
 21
355.38000750999998
  0
LINE
  8
_0-0_0
  6
CONTINUOUS
 62
    7
 10
550.2060341289
 20
355.38000750999998
 11
550.23936752889995
 21
354.38000550999999
  0
LINE
  8
_0-0_0
  6
CONTINUOUS
 62
    7
 10
532.95474658570004
 20
362.88000751009997
 11
532.70474658570004
 21
362.88000751009997
  0
ARC
  8
_0-0_0
  6
CONTINUOUS
 62
    7
 10
532.95474658570004
 20
361.88000751009997
 40
1
 50
0
 51
90
  0
LINE
  8
_0-0_0
  6
CONTINUOUS
 62
    7
 10
533.95474658570004
 20
361.88000751009997
 11
533.95474658570004
 21
361.38000751009997
  0
LINE
  8
_0-0_0
  6
CONTINUOUS
 62
    7
 10
532.70474658570004
 20
361.38000751009997
 11
533.95474658570004
 21
361.38000751009997
  0
LINE
  8
_0-0_0
  6
CONTINUOUS
 62
    7
 10
537.45474658570004
 20
361.38000751009997
 11
538.70474658570004
 21
361.38000751009997
  0
LINE
  8
_0-0_0
  6
CONTINUOUS
 62
    7
 10
537.45474658570004
 20
361.88000751009997
 11
537.45474658570004
 21
361.38000751009997
  0
ARC
  8
_0-0_0
  6
CONTINUOUS
 62
    7
 10
538.45474658570004
 20
361.88000751009997
 40
1
 50
90
 51
180
  0
LINE
  8
_0-0_0
  6
CONTINUOUS
 62
    7
 10
539.70474658570004
 20
362.88000751009997
 11
538.45474658570004
 21
362.88000751009997
  0
ARC
  8
_0-0_0
  6
CONTINUOUS
 62
    7
 10
538.20474658570004
 20
358.38000751009997
 40
0.5
 50
270
 51
0
  0
ARC
  8
_0-0_0
  6
CONTINUOUS
 62
    7
 10
539.70474658570004
 20
362.38000751009997
 40
0.5
 50
0
 51
90
  0
LINE
  8
_0-0_0
  6
CONTINUOUS
 62
    7
 10
540.20474658570004
 20
362.38000751009997
 11
540.20474658570004
 21
357.88000751009997
  0
LINE
  8
_0-0_0
  6
CONTINUOUS
 62
    7
 10
538.70474658570004
 20
358.38000751009997
 11
538.70474658570004
 21
361.38000751009997
  0
LINE
  8
_0-0_0
  6
CONTINUOUS
 62
    7
 10
532.70474658570004
 20
361.38000751009997
 11
532.70474658570004
 21
358.38000551009998
  0
LINE
  8
_0-0_0
  6
CONTINUOUS
 62
    7
 10
532.70474658570004
 20
373.38000551009998
 11
532.70474658570004
 21
362.88000751009997
  0
LINE
  8
_0-0_0
  6
CONTINUOUS
 62
    7
 10
538.20474658570004
 20
358.13000751009997
 11
533.20474458570004
 21
358.13000751009997
  0
LINE
  8
_0-0_0
  6
CONTINUOUS
 62
    7
 10
532.95474658570004
 20
358.38000551009998
 11
532.95474658570004
 21
361.13000751009997
  0
LINE
  8
_0-0_0
  6
CONTINUOUS
 62
    7
 10
538.45474658570004
 20
358.38000751009997
 11
538.45474658570004
 21
361.13000751009997
  0
ARC
  8
_0-0_0
  6
CONTINUOUS
 62
    7
 10
533.20474458570004
 20
358.38000551009998
 40
0.2500009999999999
 50
180
 51
270
  0
ARC
  8
_0-0_0
  6
CONTINUOUS
 62
    7
 10
538.20474658570004
 20
358.38000751009997
 40
0.25
 50
270
 51
0
  0
LINE
  8
_0-0_0
  6
CONTINUOUS
 62
    7
 10
544.20474658570004
 20
357.88000751009997
 11
540.20474658570004
 21
357.88000751009997
  0
LINE
  8
_0-0_0
  6
CONTINUOUS
 62
    7
 10
538.20474658570004
 20
357.88000751009997
 11
533.20474458570004
 21
357.88000751009997
  0
LINE
  8
_0-0_0
  6
CONTINUOUS
 62
    7
 10
540.21069545950002
 20
356.38000751009997
 11
543.20474658570004
 21
356.38000751009997
  0
LINE
  8
_0-0_0
  6
CONTINUOUS
 62
    7
 10
532.70474658570004
 20
356.38000751009997
 11
540.21069545950002
 21
356.38000751009997
  0
LINE
  8
_0-0_0
  6
CONTINUOUS
 62
    7
 10
537.20474658579997
 20
361.13000751009997
 11
538.45474658570004
 21
361.13000751009997
  0
LINE
  8
_0-0_0
  6
CONTINUOUS
 62
    7
 10
532.95474658570004
 20
361.13000751009997
 11
534.20474658579997
 21
361.13000751009997
  0
ARC
  8
_0-0_0
  6
CONTINUOUS
 62
    7
 10
544.20474658570004
 20
357.38000751009997
 40
0.5
 50
0
 51
90
  0
LINE
  8
_0-0_0
  6
CONTINUOUS
 62
    7
 10
544.70474658570004
 20
357.38000751009997
 11
544.70474658570004
 21
355.38000551009998
  0
LINE
  8
_0-0_0
  6
CONTINUOUS
 62
    7
 10
532.70474658570004
 20
355.38000551009998
 11
530.70474558570004
 21
355.38000551009998
  0
LINE
  8
_0-0_0
  6
CONTINUOUS
 62
    7
 10
544.70474658570004
 20
355.38000551009998
 11
543.20474658570004
 21
355.38000551009998
  0
LINE
  8
_0-0_0
  6
CONTINUOUS
 62
    7
 10
543.20474658570004
 20
356.38000751009997
 11
543.20474658570004
 21
355.38000551009998
  0
LINE
  8
_0-0_0
  6
CONTINUOUS
 62
    7
 10
530.70474558570004
 20
358.38000551009998
 11
530.70474558570004
 21
359.58000551010002
  0
LINE
  8
_0-0_0
  6
CONTINUOUS
 62
    7
 10
530.70474558570004
 20
355.88000651009997
 11
530.70474558570004
 21
355.38000551009998
  0
LINE
  8
_0-0_0
  6
CONTINUOUS
 62
    7
 10
532.70474658570004
 20
356.38000751009997
 11
532.70474658570004
 21
355.38000551009998
  0
ARC
  8
_0-0_0
  6
CONTINUOUS
 62
    7
 10
533.20474458570004
 20
358.38000551009998
 40
0.500001
 50
180
 51
270
  0
LINE
  8
_0-0_0
  6
CONTINUOUS
 62
    7
 10
530.70474558570004
 20
361.68000551009999
 11
530.70474558570004
 21
363.58000751010002
  0
LINE
  8
_0-0_0
  6
CONTINUOUS
 62
    7
 10
530.70474558570004
 20
365.88000551009998
 11
530.70474558570004
 21
373.38000551009998
  0
ARC
  8
_0-0_0
  6
CONTINUOUS
 62
    7
 10
531.70474458570004
 20
373.38000551009998
 40
0.9999989999999999
 50
0
 51
180
  0
ARC
  8
_0-0_0
  6
CONTINUOUS
 62
    7
 10
530.20474458570004
 20
358.38000551009998
 40
0.500001
 50
270
 51
0
  0
ARC
  8
_0-0_0
  6
CONTINUOUS
 62
    7
 10
530.40474558569997
 20
359.58000551010002
 40
0.2999999999999999
 50
0
 51
90
  0
ARC
  8
_0-0_0
  6
CONTINUOUS
 62
    7
 10
530.20474458570004
 20
365.88000551009998
 40
0.500001
 50
270
 51
0
  0
ARC
  8
_0-0_0
  6
CONTINUOUS
 62
    7
 10
530.40474558569997
 20
363.58000751010002
 40
0.2999999999999999
 50
0
 51
90
  0
ARC
  8
_0-0_0
  6
CONTINUOUS
 62
    7
 10
530.40474558569997
 20
361.68000551009999
 40
0.2999999999999999
 50
270
 51
0
  0
LINE
  8
_0-0_0
  6
CONTINUOUS
 62
    7
 10
537.20474658579997
 20
361.13000751009997
 11
537.20474658579997
 21
381.51282636600001
  0
LINE
  8
_0-0_0
  6
CONTINUOUS
 62
    7
 10
534.20474658579997
 20
361.13000751009997
 11
534.20474658579997
 21
380.04956336999999
  0
CIRCLE
  8
_0-0_0
  6
CONTINUOUS
 62
    7
 10
554.85747764940004
 20
372.73210357149998
 40
6
  0
TEXT
  8
_0-0_0
 62
    7
 10
551.60747764940004
 20
369.73210357149998
 40
6
 41
1
 50
0
  1
11
  0
LINE
  8
_0-0_0
  6
CONTINUOUS
 62
    7
 10
541.40003011279998
 20
396.04108644519999
 11
551.85747764940004
 21
377.92825599420001
  0
CIRCLE
  8
_0-0_0
  6
CONTINUOUS
 62
    7
 10
541.40003011279998
 20
396.04108644519999
 40
0.9
  0
TEXT
  8
_0-4_図枠
 62
    7
 10
491.32933597189998
 20
333.46383488020001
 40
6
 41
1
 50
0
  1
19
  0
TEXT
  8
_0-4_図枠
 62
    7
 10
494.92149238069999
 20
308.67795565889998
 40
6
 41
1
 50
0
  1
16
  0
TEXT
  8
_0-4_図枠
 62
    7
 10
534.71157170410004
 20
324.6635600024
 40
6
 41
1
 50
0
  1
15
  0
TEXT
  8
_0-4_図枠
 62
    7
 10
535.85190017670004
 20
338.47332418209999
 40
6
 41
1
 50
0
  1
７
  0
TEXT
  8
_0-4_図枠
 62
    7
 10
533.04630822640001
 20
425.54760437789997
 40
6
 41
1
 50
0
  1
13
  0
TEXT
  8
_0-4_図枠
 62
    7
 10
549.27526280459995
 20
426.09639676170002
 40
6
 41
1
 50
0
  1
６
  0
TEXT
  8
_0-4_図枠
 62
    7
 10
605.93879196039995
 20
420.91861898299999
 40
6
 41
1
 50
0
  1
５
  0
TEXT
  8
_0-4_図枠
 62
    7
 10
701.83674939529999
 20
424.22528777380001
 40
6
 41
1
 50
0
  1
８
  0
ARC
  8
_0-0_0
  6
CONTINUOUS
 62
    7
 10
563.1950296965
 20
404.67865218750001
 40
0.5
 50
262.80133910480004
 51
80.590455650790005
  0
ARC
  8
_0-0_0
  6
CONTINUOUS
 62
    7
 10
559.18951726130001
 20
380.50830113230001
 40
25
 50
80.590455650790005
 51
181.99999999999997
  0
ARC
  8
_0-0_0
  6
CONTINUOUS
 62
    7
 10
560.23927384720002
 20
381.2770368999
 40
23.087541006009999
 50
82.801339104810012
 51
183.8159758207
  0
TEXT
  8
_0-0_0
 62
    7
 10
431.7008144573
 20
248.0336497852
 40
6
 41
1
 50
0
  1
Ｃ
  0
TEXT
  8
_0-0_0
 62
    7
 10
615.97843823300002
 20
247.67443414429999
 40
6
 41
1
 50
0
  1
１３０
  0
TEXT
  8
_0-0_0
 62
    7
 10
246.5
 20
129.06870627889998
 40
5
 41
1
 50
0
  1
ＦＳ６００～８００
  0
TEXT
  8
_0-0_0
 62
    7
 10
246.2916666667
 20
102.06870627887
 40
5
 41
1
 50
0
  1
なべＭ６×３５
  0
TEXT
  8
_0-0_0
 62
    7
 10
246.2916666667
 20
93.068706278869996
 40
4.9900000000000002
 41
1
 50
0
  1
なべＭ４×１０
  0
TEXT
  8
_0-0_0
 62
    7
 10
245.875
 20
75.068706278869996
 40
4.9900000000000002
 41
1
 50
0
  1
ＡＧ－６６０
  0
TEXT
  8
_0-0_0
 62
    7
 10
248.7916666667
 20
66.068706278869996
 40
4.9900000000000002
 41
1
 50
0
  1
φ８×４０
  0
TEXT
  8
_0-0_0
 62
    7
 10
246.0833333333
 20
57.068706278869996
 40
4.9900000000000002
 41
1
 50
0
  1
なべ５×５０
  0
TEXT
  8
_0-0_0
 62
    7
 10
246.9166666667
 20
48.068706278869996
 40
4.9900000000000002
 41
1
 50
0
  1
１.５×１８×６.５穴
  0
TEXT
  8
_0-0_0
 62
    7
 10
246.9166666667
 20
39.068706278870025
 40
4.9900000000000002
 41
1
 50
0
  1
１.５×１８×５.５穴
  0
TEXT
  8
_0-0_0
 62
    7
 10
246.2916666667
 20
30.068706278870025
 40
4.9900000000000002
 41
1
 50
0
  1
ｔ１．０×ｗ３０
  0
TEXT
  8
_0-0_0
 62
    7
 10
146.5
 20
93.068706278869996
 40
4.9900000000000002
 41
1
 50
0
  1
ステン小ねじ
  0
TEXT
  8
_0-0_0
 62
    7
 10
146.5
 20
102.06870627887
 40
5
 41
1
 50
0
  1
ステン小ねじ
  0
TEXT
  8
_0-0_0
 62
    7
 10
245.4583333333
 20
84.068706278869996
 40
4.9900000000000002
 41
1
 50
0
  1
Ｍ６×４０
  0
LINE
  8
_0-0_0
  6
CONTINUOUS
 62
    7
 10
144.20474858479997
 20
262.36300650999999
 11
144.20474858479997
 21
239.26370251
  0
LINE
  8
_0-0_0
  6
CONTINUOUS
 62
    7
 10
294.20474758479997
 20
298.63196550999999
 11
294.20474758479997
 21
306.49313251000001
  0
LINE
  8
_0-0_0
  6
CONTINUOUS
 62
    7
 10
294.20474758479997
 20
262.36300650999999
 11
294.20474758479997
 21
354.38000550999999
  0
LINE
  8
_0-0_0
  6
CONTINUOUS
 62
    7
 10
294.20474758479997
 20
261.36300750999999
 11
294.20474758479997
 21
239.26370251
  0
LINE
  8
_0-0_0
  6
CONTINUOUS
 62
    7
 10
144.20474858479997
 20
245.26370251
 11
294.20474758479997
 21
245.26370251
  0
TEXT
  8
_0-0_0
 62
    7
 10
211.33856739949999
 20
246.96224037269999
 40
6
 41
1
 50
0
  1
１５０
  0
LINE
  8
_0-0_0
  6
CONTINUOUS
 62
    7
 10
272.6061857336
 20
273.7730753111
 11
294.20474758479997
 21
354.38000550999999
  0
ARC
  8
_0-0_0
  6
CONTINUOUS
 62
    7
 10
224.30989441919999
 20
286.7140275662
 40
50
 50
195
 51
345
  0
ARC
  8
_0-0_0
  6
CONTINUOUS
 62
    7
 10
224.30989441919999
 20
286.7140275662
 40
49
 50
195
 51
345
  0
LINE
  8
_0-0_0
  6
CONTINUOUS
 62
    7
 10
271.64025990729999
 20
274.03189435619998
 11
293.43742113270002
 21
355.38000750999998
  0
CIRCLE
  8
_0-0_0
  6
CONTINUOUS
 62
    7
 10
187.99582050820001
 20
324.17839420159999
 40
6
  0
LINE
  8
_0-0_0
  6
CONTINUOUS
 62
    7
 10
171.11253332179999
 20
294.93568299589998
 11
184.99582050820001
 21
318.9822417789
  0
CIRCLE
  8
_0-0_0
  6
CONTINUOUS
 62
    7
 10
171.11253332179999
 20
294.93568299589998
 40
0.9
  0
TEXT
  8
_0-0_0
 62
    7
 10
184.74582050820001
 20
321.17839420159999
 40
6
 41
1
 50
0
  1
12
  0
LINE
  8
_0-0_0
  6
CONTINUOUS
 62
    7
 10
176.979528931
 20
274.03189435619998
 11
145.20474758479997
 21
392.61699273969998
  0
LINE
  8
_0-0_0
  6
CONTINUOUS
 62
    7
 10
176.0136031047
 20
273.7730753111
 11
144.20474858479997
 21
392.48533651000002
  0
LINE
  8
_0-0_0
  6
CONTINUOUS
 62
    7
 10
219.2047480848
 20
438.16274562609999
 11
219.2047480848
 21
241.7900334796
  0
LINE
  8
_0-0_0
  6
CONTINUOUS
 62
    7
 10
144.20474858479997
 20
484.12075350999999
 11
144.20474858479997
 21
262.36300650999999
  0
LINE
  8
_0-0_0
  6
CONTINUOUS
 62
    7
 10
294.20474758479997
 20
354.38000550999999
 11
564.20474758479997
 21
354.38000550999999
  0
LINE
  8
_0-0_0
  6
CONTINUOUS
 62
    7
 10
294.20474758479997
 20
245.26370251
 11
564.20474758479997
 21
245.26370251
  0
LINE
  8
_0-0_0
  6
CONTINUOUS
 62
    7
 10
514.20474658479998
 20
355.38000750999998
 11
293.43742113270002
 21
355.38000750999998
  0
TEXT
  8
_0-4_図枠
 62
    7
 10
16.63168191724003
 20
556.39795229499998
 40
9
 41
1
 50
0
  1
　　屋根－壁（ストレート壁）
  0
CIRCLE
  8
_0-0_0
  6
CONTINUOUS
 62
    7
 10
144.12268127203333
 20
245.24923182853334
 40
1.3999999999999999
  0
CIRCLE
  8
_0-0_0
  6
CONTINUOUS
 62
    7
 10
144.12268127203333
 20
245.24923182853334
 40
1.3999999999999999
  0
CIRCLE
  8
_0-0_0
  6
CONTINUOUS
 62
    7
 10
144.36888321033325
 20
245.29264387293333
 40
1.3999999999999999
  0
CIRCLE
  8
_0-0_0
  6
CONTINUOUS
 62
    7
 10
294.12268027203334
 20
245.24923182853334
 40
1.3999999999999999
  0
CIRCLE
  8
_0-0_0
  6
CONTINUOUS
 62
    7
 10
294.12268027203334
 20
245.24923182853334
 40
1.3999999999999999
  0
CIRCLE
  8
_0-0_0
  6
CONTINUOUS
 62
    7
 10
94.246802272003379
 20
354.36553482853333
 40
1.3999999999999999
  0
CIRCLE
  8
_0-0_0
  6
CONTINUOUS
 62
    7
 10
94.246802272003379
 20
354.36553482853333
 40
1.3999999999999999
  0
CIRCLE
  8
_0-0_0
  6
CONTINUOUS
 62
    7
 10
94.493004210303297
 20
354.40894687293331
 40
1.3999999999999999
  0
CIRCLE
  8
_0-0_0
  6
CONTINUOUS
 62
    7
 10
66.708488272003365
 20
354.36553482853333
 40
1.3999999999999999
  0
CIRCLE
  8
_0-0_0
  6
CONTINUOUS
 62
    7
 10
66.708488272003365
 20
354.36553482853333
 40
1.3999999999999999
  0
CIRCLE
  8
_0-0_0
  6
CONTINUOUS
 62
    7
 10
66.954690210303283
 20
354.40894687293331
 40
1.3999999999999999
  0
CIRCLE
  8
_0-0_0
  6
CONTINUOUS
 62
    7
 10
66.708488272003365
 20
484.10628282853332
 40
1.3999999999999999
  0
CIRCLE
  8
_0-0_0
  6
CONTINUOUS
 62
    7
 10
66.708488272003365
 20
484.10628282853332
 40
1.3999999999999999
  0
CIRCLE
  8
_0-0_0
  6
CONTINUOUS
 62
    7
 10
66.954690210303283
 20
484.14969487293331
 40
1.3999999999999999
  0
CIRCLE
  8
_0-0_0
  6
CONTINUOUS
 62
    7
 10
94.246802272003379
 20
425.40628182853334
 40
1.3999999999999999
  0
CIRCLE
  8
_0-0_0
  6
CONTINUOUS
 62
    7
 10
94.246802272003379
 20
425.40628182853334
 40
1.3999999999999999
  0
CIRCLE
  8
_0-0_0
  6
CONTINUOUS
 62
    7
 10
94.493004210303297
 20
425.44969387293332
 40
1.3999999999999999
  0
CIRCLE
  8
_0-0_0
  6
CONTINUOUS
 62
    7
 10
201.94473827203336
 20
433.10628282853332
 40
1.3999999999999999
  0
CIRCLE
  8
_0-0_0
  6
CONTINUOUS
 62
    7
 10
201.94473827203336
 20
433.10628282853332
 40
1.3999999999999999
  0
CIRCLE
  8
_0-0_0
  6
CONTINUOUS
 62
    7
 10
202.19094021033328
 20
433.14969487293331
 40
1.3999999999999999
  0
CIRCLE
  8
_0-0_0
  6
CONTINUOUS
 62
    7
 10
201.94473827203336
 20
469.10628282853332
 40
1.3999999999999999
  0
CIRCLE
  8
_0-0_0
  6
CONTINUOUS
 62
    7
 10
201.94473827203336
 20
469.10628282853332
 40
1.3999999999999999
  0
CIRCLE
  8
_0-0_0
  6
CONTINUOUS
 62
    7
 10
202.19094021033328
 20
469.14969487293331
 40
1.3999999999999999
  0
CIRCLE
  8
_0-0_0
  6
CONTINUOUS
 62
    7
 10
201.94473827203336
 20
484.10628282853332
 40
1.3999999999999999
  0
CIRCLE
  8
_0-0_0
  6
CONTINUOUS
 62
    7
 10
201.94473827203336
 20
484.10628282853332
 40
1.3999999999999999
  0
CIRCLE
  8
_0-0_0
  6
CONTINUOUS
 62
    7
 10
202.19094021033328
 20
484.14969487293331
 40
1.3999999999999999
  0
CIRCLE
  8
_0-0_0
  6
CONTINUOUS
 62
    7
 10
144.12268127203333
 20
535.97790763093326
 40
1.3999999999999999
  0
CIRCLE
  8
_0-0_0
  6
CONTINUOUS
 62
    7
 10
144.12268127203333
 20
535.97790763093326
 40
1.3999999999999999
  0
CIRCLE
  8
_0-0_0
  6
CONTINUOUS
 62
    7
 10
144.36888321033325
 20
536.0213196753333
 40
1.3999999999999999
  0
CIRCLE
  8
_0-0_0
  6
CONTINUOUS
 62
    7
 10
177.32267927203335
 20
535.97790763093326
 40
1.3999999999999999
  0
CIRCLE
  8
_0-0_0
  6
CONTINUOUS
 62
    7
 10
177.32267927203335
 20
535.97790763093326
 40
1.3999999999999999
  0
CIRCLE
  8
_0-0_0
  6
CONTINUOUS
 62
    7
 10
177.56888121033327
 20
536.0213196753333
 40
1.3999999999999999
  0
CIRCLE
  8
_0-0_0
  6
CONTINUOUS
 62
    7
 10
177.32267927203335
 20
513.66158207443334
 40
1.3999999999999999
  0
CIRCLE
  8
_0-0_0
  6
CONTINUOUS
 62
    7
 10
177.32267927203335
 20
513.66158207443334
 40
1.3999999999999999
  0
CIRCLE
  8
_0-0_0
  6
CONTINUOUS
 62
    7
 10
177.56888121033327
 20
513.70499411883338
 40
1.3999999999999999
  0
CIRCLE
  8
_0-0_0
  6
CONTINUOUS
 62
    7
 10
157.32268127203338
 20
513.66158207443334
 40
1.3999999999999999
  0
CIRCLE
  8
_0-0_0
  6
CONTINUOUS
 62
    7
 10
157.32268127203338
 20
513.66158207443334
 40
1.3999999999999999
  0
CIRCLE
  8
_0-0_0
  6
CONTINUOUS
 62
    7
 10
157.5688832103333
 20
513.70499411883338
 40
1.3999999999999999
  0
CIRCLE
  8
_0-0_0
  6
CONTINUOUS
 62
    7
 10
144.12268127203333
 20
556.4190693805333
 40
1.3999999999999999
  0
CIRCLE
  8
_0-0_0
  6
CONTINUOUS
 62
    7
 10
144.12268127203333
 20
556.4190693805333
 40
1.3999999999999999
  0
CIRCLE
  8
_0-0_0
  6
CONTINUOUS
 62
    7
 10
144.36888321033325
 20
556.46248142493334
 40
1.3999999999999999
  0
CIRCLE
  8
_0-0_0
  6
CONTINUOUS
 62
    7
 10
694.12268027203334
 20
556.4190693805333
 40
1.3999999999999999
  0
CIRCLE
  8
_0-0_0
  6
CONTINUOUS
 62
    7
 10
694.12268027203334
 20
556.4190693805333
 40
1.3999999999999999
  0
CIRCLE
  8
_0-0_0
  6
CONTINUOUS
 62
    7
 10
694.36888221033325
 20
556.46248142493334
 40
1.3999999999999999
  0
CIRCLE
  8
_0-0_0
  6
CONTINUOUS
 62
    7
 10
694.12268027203334
 20
453.09845382853337
 40
1.3999999999999999
  0
CIRCLE
  8
_0-0_0
  6
CONTINUOUS
 62
    7
 10
694.12268027203334
 20
453.09845382853337
 40
1.3999999999999999
  0
CIRCLE
  8
_0-0_0
  6
CONTINUOUS
 62
    7
 10
694.36888221033325
 20
453.14186587293335
 40
1.3999999999999999
  0
CIRCLE
  8
_0-0_0
  6
CONTINUOUS
 62
    7
 10
722.34852527203338
 20
354.36553482853333
 40
1.3999999999999999
  0
CIRCLE
  8
_0-0_0
  6
CONTINUOUS
 62
    7
 10
722.34852527203338
 20
354.36553482853333
 40
1.3999999999999999
  0
CIRCLE
  8
_0-0_0
  6
CONTINUOUS
 62
    7
 10
722.5947272103333
 20
354.40894687293331
 40
1.3999999999999999
  0
CIRCLE
  8
_0-0_0
  6
CONTINUOUS
 62
    7
 10
722.34852527203338
 20
310.49669982853334
 40
1.3999999999999999
  0
CIRCLE
  8
_0-0_0
  6
CONTINUOUS
 62
    7
 10
722.34852527203338
 20
310.49669982853334
 40
1.3999999999999999
  0
CIRCLE
  8
_0-0_0
  6
CONTINUOUS
 62
    7
 10
722.5947272103333
 20
310.54011187293332
 40
1.3999999999999999
  0
CIRCLE
  8
_0-0_0
  6
CONTINUOUS
 62
    7
 10
754.1226082720334
 20
310.49669982853334
 40
1.3999999999999999
  0
CIRCLE
  8
_0-0_0
  6
CONTINUOUS
 62
    7
 10
754.1226082720334
 20
310.49669982853334
 40
1.3999999999999999
  0
CIRCLE
  8
_0-0_0
  6
CONTINUOUS
 62
    7
 10
754.36881021033332
 20
310.54011187293332
 40
1.3999999999999999
  0
CIRCLE
  8
_0-0_0
  6
CONTINUOUS
 62
    7
 10
754.1226082720334
 20
400.49669982853334
 40
1.3999999999999999
  0
CIRCLE
  8
_0-0_0
  6
CONTINUOUS
 62
    7
 10
754.1226082720334
 20
400.49669982853334
 40
1.3999999999999999
  0
CIRCLE
  8
_0-0_0
  6
CONTINUOUS
 62
    7
 10
754.36881021033332
 20
400.54011187293332
 40
1.3999999999999999
  0
CIRCLE
  8
_0-0_0
  6
CONTINUOUS
 62
    7
 10
694.12268027203334
 20
245.24923182853334
 40
1.3999999999999999
  0
CIRCLE
  8
_0-0_0
  6
CONTINUOUS
 62
    7
 10
694.12268027203334
 20
245.24923182853334
 40
1.3999999999999999
  0
CIRCLE
  8
_0-0_0
  6
CONTINUOUS
 62
    7
 10
694.36888221033325
 20
245.29264387293333
 40
1.3999999999999999
  0
CIRCLE
  8
_0-0_0
  6
CONTINUOUS
 62
    7
 10
564.12268027203334
 20
245.24923182853334
 40
1.3999999999999999
  0
CIRCLE
  8
_0-0_0
  6
CONTINUOUS
 62
    7
 10
564.12268027203334
 20
245.24923182853334
 40
1.3999999999999999
  0
CIRCLE
  8
_0-0_0
  6
CONTINUOUS
 62
    7
 10
564.36888221033325
 20
245.29264387293333
 40
1.3999999999999999
  0
CIRCLE
  8
_0-0_0
  6
CONTINUOUS
 62
    7
 10
514.12267927203334
 20
306.47866182853335
 40
1.3999999999999999
  0
CIRCLE
  8
_0-0_0
  6
CONTINUOUS
 62
    7
 10
514.12267927203334
 20
306.47866182853335
 40
1.3999999999999999
  0
CIRCLE
  8
_0-0_0
  6
CONTINUOUS
 62
    7
 10
514.36888121033326
 20
306.52207387293333
 40
1.3999999999999999
  0
CIRCLE
  8
_0-0_0
  6
CONTINUOUS
 62
    7
 10
564.12268027203334
 20
306.47866182853335
 40
1.3999999999999999
  0
CIRCLE
  8
_0-0_0
  6
CONTINUOUS
 62
    7
 10
564.12268027203334
 20
306.47866182853335
 40
1.3999999999999999
  0
CIRCLE
  8
_0-0_0
  6
CONTINUOUS
 62
    7
 10
564.36888221033325
 20
306.52207387293333
 40
1.3999999999999999
  0
LINE
  8
_0-0_0
  6
CONTINUOUS
 62
    7
 10
715
 20
163.15203961220001
 11
490
 21
163.15203961220001
  0
LINE
  8
_0-0_0
  6
CONTINUOUS
 62
    7
 10
715
 20
172.15203961220001
 11
490
 21
172.15203961220001
  0
LINE
  8
_0-0_0
  6
CONTINUOUS
 62
    7
 10
715
 20
181.15203961220001
 11
490
 21
181.15203961220001
  0
LINE
  8
_0-0_0
  6
CONTINUOUS
 62
    7
 10
715
 20
190.15203961220001
 11
490
 21
190.15203961220001
  0
LINE
  8
_0-0_0
  6
CONTINUOUS
 62
    7
 10
715
 20
199.15203961220001
 11
490
 21
199.15203961220001
  0
LINE
  8
_0-0_0
  6
CONTINUOUS
 62
    7
 10
715
 20
217.15203961220001
 11
490
 21
217.15203961220001
  0
LINE
  8
_0-0_0
  6
CONTINUOUS
 62
    7
 10
715
 20
226.15203961220001
 11
490
 21
226.15203961220001
  0
LINE
  8
_0-0_0
  6
CONTINUOUS
 62
    7
 10
715
 20
208.15203961220001
 11
490
 21
208.15203961220001
  0
TEXT
  8
_0-0_0
 62
    7
 10
510.5
 20
218.65203961220001
 40
5
 41
1
 50
0
  1
タ　イ　プ
  0
TEXT
  8
_0-0_0
 62
    7
 10
674
 20
227.29586424410002
 40
5
 41
1
 50
0
  1
（単位：mm）
  0
TEXT
  8
_0-0_0
 62
    7
 10
697
 20
218.65203961220001
 40
5
 41
1
 50
0
  1
Ｅ
  0
TEXT
  8
_0-0_0
 62
    7
 10
667
 20
218.65203961220001
 40
5
 41
1
 50
0
  1
Ｄ
  0
TEXT
  8
_0-0_0
 62
    7
 10
637
 20
218.65203961220001
 40
5
 41
1
 50
0
  1
Ｃ
  0
TEXT
  8
_0-0_0
 62
    7
 10
577
 20
218.65203961220001
 40
5
 41
1
 50
0
  1
Ｗ
  0
TEXT
  8
_0-0_0
 62
    7
 10
607
 20
218.65203961220001
 40
5
 41
1
 50
0
  1
Ａ
  0
LINE
  8
_0-0_0
  6
CONTINUOUS
 62
    7
 10
490
 20
226.15203961220001
 11
490
 21
163.15203961220001
  0
LINE
  8
_0-0_0
  6
CONTINUOUS
 62
    7
 10
565
 20
226.15203961220001
 11
565
 21
163.15203961220001
  0
LINE
  8
_0-0_0
  6
CONTINUOUS
 62
    7
 10
595
 20
226.15203961220001
 11
595
 21
163.15203961220001
  0
LINE
  8
_0-0_0
  6
CONTINUOUS
 62
    7
 10
625
 20
226.15203961220001
 11
625
 21
163.15203961220001
  0
LINE
  8
_0-0_0
  6
CONTINUOUS
 62
    7
 10
655
 20
226.15203961220001
 11
655
 21
163.15203961220001
  0
LINE
  8
_0-0_0
  6
CONTINUOUS
 62
    7
 10
685
 20
226.15203961220001
 11
685
 21
163.15203961220001
  0
LINE
  8
_0-0_0
  6
CONTINUOUS
 62
    7
 10
715
 20
226.15203961220001
 11
715
 21
163.15203961220001
  0
TEXT
  8
_0-0_0
 62
    7
 10
248.375
 20
210.06870627890001
 40
4.9900000000000002
 41
1
 50
0
  1
１５０ＦＹＫ－Ａ４００～５２５
  0
TEXT
  8
_0-0_0
 62
    7
 10
248.375
 20
174.06870627890001
 40
4.9900000000000002
 41
1
 50
0
  1
１５０ＦＹＫＨ－４００～５２５
  0
TEXT
  8
_0-0_0
 62
    7
 10
248.375
 20
147.06870627890001
 40
5
 41
1
 50
0
  1
１５０ＦＹＫＪ－４００～５２５
  0
TEXT
  8
_0-0_0
 62
    7
 10
695
 20
164.65203961220001
 40
5
 41
1
 50
0
  1
130
  0
TEXT
  8
_0-0_0
 62
    7
 10
666.75
 20
164.65203961220001
 40
5
 41
1
 50
0
  1
71
  0
TEXT
  8
_0-0_0
 62
    7
 10
695
 20
173.65203961220001
 40
5
 41
1
 50
0
  1
128
  0
TEXT
  8
_0-0_0
 62
    7
 10
695
 20
182.65203961220001
 40
5
 41
1
 50
0
  1
127
  0
TEXT
  8
_0-0_0
 62
    7
 10
695
 20
191.65203961220001
 40
5
 41
1
 50
0
  1
126
  0
TEXT
  8
_0-0_0
 62
    7
 10
695
 20
200.65203961220001
 40
5
 41
1
 50
0
  1
124
  0
TEXT
  8
_0-0_0
 62
    7
 10
695
 20
209.65203961220001
 40
5
 41
1
 50
0
  1
123
  0
TEXT
  8
_0-0_0
 62
    7
 10
666.75
 20
173.65203961220001
 40
5
 41
1
 50
0
  1
70
  0
TEXT
  8
_0-0_0
 62
    7
 10
666.75
 20
182.65203961220001
 40
5
 41
1
 50
0
  1
68
  0
TEXT
  8
_0-0_0
 62
    7
 10
666.75
 20
191.65203961220001
 40
5
 41
1
 50
0
  1
67
  0
TEXT
  8
_0-0_0
 62
    7
 10
666.75
 20
200.65203961220001
 40
5
 41
1
 50
0
  1
66
  0
TEXT
  8
_0-0_0
 62
    7
 10
666.75
 20
209.65203961220001
 40
5
 41
1
 50
0
  1
64
  0
TEXT
  8
_0-0_0
 62
    7
 10
605
 20
164.65203961220001
 40
5
 41
1
 50
0
  1
535
  0
TEXT
  8
_0-0_0
 62
    7
 10
575
 20
164.65203961220001
 40
5
 41
1
 50
0
  1
550
  0
TEXT
  8
_0-0_0
 62
    7
 10
605
 20
173.65203961220001
 40
5
 41
1
 50
0
  1
510
  0
TEXT
  8
_0-0_0
 62
    7
 10
605
 20
182.65203961220001
 40
5
 41
1
 50
0
  1
485
  0
TEXT
  8
_0-0_0
 62
    7
 10
605
 20
191.65203961220001
 40
5
 41
1
 50
0
  1
460
  0
TEXT
  8
_0-0_0
 62
    7
 10
605
 20
200.65203961220001
 40
5
 41
1
 50
0
  1
435
  0
TEXT
  8
_0-0_0
 62
    7
 10
605
 20
209.65203961220001
 40
5
 41
1
 50
0
  1
410
  0
TEXT
  8
_0-0_0
 62
    7
 10
575
 20
173.65203961220001
 40
5
 41
1
 50
0
  1
525
  0
TEXT
  8
_0-0_0
 62
    7
 10
575
 20
182.65203961220001
 40
5
 41
1
 50
0
  1
500
  0
TEXT
  8
_0-0_0
 62
    7
 10
575
 20
191.65203961220001
 40
5
 41
1
 50
0
  1
475
  0
TEXT
  8
_0-0_0
 62
    7
 10
575
 20
200.65203961220001
 40
5
 41
1
 50
0
  1
450
  0
TEXT
  8
_0-0_0
 62
    7
 10
575
 20
209.65203961220001
 40
5
 41
1
 50
0
  1
425
  0
TEXT
  8
_0-0_0
 62
    7
 10
499.66330658160001
 20
209.12421418439999
 40
5
 41
1
 50
0
  1
１５０ＦＹＫＧ－Ａ４２５
  0
TEXT
  8
_0-0_0
 62
    7
 10
499.75
 20
200.65203961220001
 40
5
 41
1
 50
0
  1
　　  〃　 　４５０
  0
TEXT
  8
_0-0_0
 62
    7
 10
499.75
 20
191.65203961220001
 40
5
 41
1
 50
0
  1
　　  〃　 　４７５
  0
TEXT
  8
_0-0_0
 62
    7
 10
499.75
 20
182.65203961220001
 40
5
 41
1
 50
0
  1
　　  〃　 　５００
  0
TEXT
  8
_0-0_0
 62
    7
 10
499.75
 20
173.65203961220001
 40
5
 41
1
 50
0
  1
　　  〃　 　５２５
  0
TEXT
  8
_0-0_0
 62
    7
 10
499.75
 20
164.65203961220001
 40
5
 41
1
 50
0
  1
　　  〃　 　５５０
  0
TEXT
  8
_0-0_0
 62
    7
 10
635
 20
173.65203961220001
 40
5
 41
1
 50
0
  1
245
  0
TEXT
  8
_0-0_0
 62
    7
 10
635
 20
182.65203961220001
 40
5
 41
1
 50
0
  1
220
  0
TEXT
  8
_0-0_0
 62
    7
 10
635
 20
191.65203961220001
 40
5
 41
1
 50
0
  1
195
  0
TEXT
  8
_0-0_0
 62
    7
 10
635
 20
200.65203961220001
 40
5
 41
1
 50
0
  1
170
  0
TEXT
  8
_0-0_0
 62
    7
 10
635
 20
209.65203961220001
 40
5
 41
1
 50
0
  1
145
  0
TEXT
  8
_0-0_0
 62
    7
 10
635
 20
164.65203961220001
 40
5
 41
1
 50
0
  1
270
  0
ENDSEC
  0
EOF
