  0
SECTION
  2
HEADER
  9
$ACADVER
  1
AC1009
  9
$INSBASE
 10
0
 20
0
 30
0
  9
$EXTMIN
 10
0
 20
0
  9
$EXTMAX
 10
840
 20
594
  9
$LIMMIN
 10
0
 20
0
  9
$LIMMAX
 10
840
 20
594
  9
$LTSCALE
 40
2
  0
ENDSEC
  0
SECTION
  2
TABLES
  0
TABLE
  2
LTYPE
 70
     9
  0
LTYPE
  2
CONTINUOUS
 70
    64
  3
実線
 72
    65
 73
     0
 40
0.0
  0
LTYPE
  2
DASHED1
 70
    64
  3
--  --  --  --  --  --  --  --  
 72
    65
 73
     2
 40
2.5
 49
1.25
 49
-1.25
  0
LTYPE
  2
DASHED2
 70
    64
  3
----    ----    ----    ----    
 72
    65
 73
     2
 40
5.0
 49
2.5
 49
-2.5
  0
LTYPE
  2
DASHED3
 70
    64
  3
------  ------  ------  ------  
 72
    65
 73
     2
 40
5.0
 49
3.75
 49
-1.25
  0
LTYPE
  2
CENTER1
 70
    64
  3
----- - ----- - ----- - ----- - 
 72
    65
 73
     4
 40
10.0
 49
6.25
 49
-1.25
 49
1.25
 49
-1.25
  0
LTYPE
  2
CENTER2
 70
    64
  3
----------  --  ----------  --  
 72
    65
 73
     4
 40
20.0
 49
12.5
 49
-2.5
 49
2.5
 49
-2.5
  0
LTYPE
  2
PHANTOM1
 70
    64
  3
--- - - --- - - --- - - --- - - 
 72
    65
 73
     6
 40
10.0
 49
3.25
 49
-1.25
 49
1.25
 49
-1.25
 49
1.25
 49
-1.25
  0
LTYPE
  2
PHANTOM2
 70
    64
  3
--------  -  -  --------  -  -  
 72
    65
 73
     6
 40
20.0
 49
10.0
 49
-2.5
 49
1.25
 49
-2.5
 49
1.25
 49
-2.5
  0
LTYPE
  2
DOT
 70
    64
  3
-   -   -   -   -   -   -   -   
 72
    65
 73
     2
 40
2.5
 49
0.625
 49
-1.875
  0
LTYPE
  2
DUMMY
 70
    64
  3
ダミー
 72
    65
 73
     0
 40
0.0
  0
LTYPE
  2
RAND1
 70
    64
  3
ランダム線1
 72
    65
 73
     4
 40
10.0
 49
1.0
 49
-2.0
 49
3.0
 49
-4.0
  0
LTYPE
  2
RAND2
 70
    64
  3
ランダム線2
 72
    65
 73
     4
 40
14.0
 49
2.0
 49
-3.0
 49
4.0
 49
-5.0
  0
LTYPE
  2
RAND3
 70
    64
  3
ランダム線3
 72
    65
 73
     4
 40
18.0
 49
3.0
 49
-4.0
 49
5.0
 49
-6.0
  0
LTYPE
  2
RAND4
 70
    64
  3
ランダム線4
 72
    65
 73
     4
 40
22.0
 49
4.0
 49
-5.0
 49
6.0
 49
-7.0
  0
LTYPE
  2
RAND5
 70
    64
  3
ランダム線5
 72
    65
 73
     4
 40
26.0
 49
5.0
 49
-6.0
 49
7.0
 49
-8.0
  0
LTYPE
  2
LONG1
 70
    64
  3
----------  --  ----------  --  
 72
    65
 73
     4
 40
40.0
 49
32.5
 49
-2.5
 49
2.5
 49
-2.5
  0
LTYPE
  2
LONG2
 70
    64
  3
--------  -  -  --------  -  -  
 72
    65
 73
     6
 40
40.0
 49
30.0
 49
-2.5
 49
1.25
 49
-2.5
 49
1.25
 49
-2.5
  0
LTYPE
  2
LONG3
 70
    64
  3
+++++++++++++++..+++++++++++++++
 72
    65
 73
     2
 40
40.0
 49
37.5
 49
-2.5
  0
LTYPE
  2
LONG4
 70
    64
  3
+++++++++++++++..+++++++++++++++
 72
    65
 73
     2
 40
80.0
 49
75.0
 49
-5.0
  0
LTYPE
  2
LONG5
 70
    64
  3
----------  --  ----------  --  
 72
    65
 73
     4
 40
60.0
 49
37.5
 49
-7.5
 49
7.5
 49
-7.5
  0
LTYPE
  2
dashed
 70
   64
  3
-------   -------------   ------
 72
   65
 73
    2
 40
7.5
 49
6
 49
-1.5
  0
LTYPE
  2
dashed_spaced
 70
   64
  3
----        --------        ----
 72
   65
 73
    2
 40
12
 49
6
 49
-6
  0
LTYPE
  2
long_dashed_dotted
 70
   64
  3
------------- --- --------------
 72
   65
 73
    4
 40
15.25
 49
12
 49
-1.5
 49
0.25
 49
-1.5
  0
LTYPE
  2
long_dashed_double-dotted
 70
   64
  3
----------- --- --- ------------
 72
   65
 73
    6
 40
17
 49
12
 49
-1.5
 49
0.25
 49
-1.5
 49
0.25
 49
-1.5
  0
LTYPE
  2
long_dashed_triplicate-dotted
 70
   64
  3
--------- --- --- --- ----------
 72
   65
 73
    8
 40
18.75
 49
12
 49
-1.5
 49
0.25
 49
-1.5
 49
0.25
 49
-1.5
 49
0.25
 49
-1.5
  0
LTYPE
  2
dotted
 70
   64
  3
   -       -       -       -    
 72
   65
 73
    2
 40
1.75
 49
0.25
 49
-1.5
  0
LTYPE
  2
chain
 70
   64
  3
-------------- -- --------------
 72
   65
 73
    4
 40
18.5
 49
12
 49
-1.5
 49
3.5
 49
-1.5
  0
LTYPE
  2
chain_double_dash
 70
   64
  3
------------ -- -- -------------
 72
   65
 73
    6
 40
23.5
 49
12
 49
-1.5
 49
3.5
 49
-1.5
 49
3.5
 49
-1.5
  0
LTYPE
  2
dashed_dotted
 70
   64
  3
-----------     -     ----------
 72
   65
 73
    4
 40
9.25
 49
6
 49
-1.5
 49
0.25
 49
-1.5
  0
LTYPE
  2
double-dashed_dotted
 70
   64
  3
------   -----------   -   -----
 72
   65
 73
    6
 40
16.75
 49
6
 49
-1.5
 49
6
 49
-1.5
 49
0.25
 49
-1.5
  0
LTYPE
  2
dashed_double-dotted
 70
   64
  3
---------    -    -    ---------
 72
   65
 73
    6
 40
11
 49
6
 49
-1.5
 49
0.25
 49
-1.5
 49
0.25
 49
-1.5
  0
LTYPE
  2
double-dashed_double-dotted
 70
   64
  3
-----   ---------   -   -   ----
 72
   65
 73
    8
 40
18.5
 49
6
 49
-1.5
 49
6
 49
-1.5
 49
0.25
 49
-1.5
 49
0.25
 49
-1.5
  0
LTYPE
  2
dashed_triplicate-dotted
 70
   64
  3
-------    -    -    -    ------
 72
   65
 73
    8
 40
12.75
 49
6
 49
-1.5
 49
0.25
 49
-1.5
 49
0.25
 49
-1.5
 49
0.25
 49
-1.5
  0
LTYPE
  2
double-dashed_triplicate-dotted
 70
   64
  3
-----  ---------  -  -  -  -----
 72
   65
 73
   10
 40
20.25
 49
6
 49
-1.5
 49
6
 49
-1.5
 49
0.25
 49
-1.5
 49
0.25
 49
-1.5
 49
0.25
 49
-1.5
  0
LTYPE
  2
undefined
 70
   64
  3
--------------------------------
 72
   65
 73
    0
 40
0
  0
LTYPE
  2
DOT_17
 70
   64
  3
----        --------        ----
 72
   65
 73
    2
 40
2
 49
1
 49
-1
  0
LTYPE
  2
DASHED
 70
   64
  3
----        --------        ----
 72
   65
 73
    2
 40
4
 49
2
 49
-2
  0
LTYPE
  2
DASHED2_19
 70
   64
  3
-----      ----------      -----
 72
   65
 73
    2
 40
8
 49
5
 49
-3
  0
LTYPE
  2
CENTER
 70
   64
  3
--------------- - --------------
 72
   65
 73
    4
 40
23
 49
20
 49
-1
 49
1
 49
-1
  0
LTYPE
  2
CENTERX2
 70
   64
  3
--------------- - --------------
 72
   65
 73
    4
 40
43
 49
40
 49
-1
 49
1
 49
-1
  0
LTYPE
  2
CENTER2_22
 70
   64
  3
-------------  --  -------------
 72
   65
 73
    4
 40
13
 49
10
 49
-1
 49
1
 49
-1
  0
LTYPE
  2
PHANTOM
 70
   64
  3
-------------- - - -------------
 72
   65
 73
    6
 40
25
 49
20
 49
-1
 49
1
 49
-1
 49
1
 49
-1
  0
LTYPE
  2
PHANTOMX2
 70
   64
  3
-------------- - - -------------
 72
   65
 73
    6
 40
45
 49
40
 49
-1
 49
1
 49
-1
 49
1
 49
-1
  0
LTYPE
  2
PHANTOM2_25
 70
   64
  3
-----------  --  --  -----------
 72
   65
 73
    6
 40
15
 49
10
 49
-1
 49
1
 49
-1
 49
1
 49
-1
  0
LTYPE
  2
ACAD_ISO06W100
 70
   64
  3
------------- - - - ------------
 72
   65
 73
    8
 40
47
 49
40
 49
-1
 49
1
 49
-1
 49
1
 49
-1
 49
1
 49
-1
  0
LTYPE
  2
ACAD_ISO14W100
 70
   64
  3
------------- - - - ------------
 72
   65
 73
    8
 40
27
 49
20
 49
-1
 49
1
 49
-1
 49
1
 49
-1
 49
1
 49
-1
  0
LTYPE
  2
ACAD_ISO11W100
 70
   64
  3
------- -------------- - -------
 72
   65
 73
    6
 40
44
 49
20
 49
-1
 49
20
 49
-1
 49
1
 49
-1
  0
LTYPE
  2
ACAD_ISO13W100
 70
   64
  3
------- ------------- - - ------
 72
   65
 73
    8
 40
46
 49
20
 49
-1
 49
20
 49
-1
 49
1
 49
-1
 49
1
 49
-1
  0
LTYPE
  2
HIDDEN
 70
   64
  3
------     -----------     -----
 72
   65
 73
    2
 40
1.5
 49
1
 49
-0.5
  0
ENDTAB
  0
TABLE
  2
STYLE
  5
3
100
AcDbSymbolTable
 70
     1
  0
STYLE
  5
10
100
AcDbSymbolTableRecord
100
AcDbTextStyleTableRecord
  2
STANDARD
 70
     0
 40
0.0
 41
1.0
 50
0.0
 71
     0
 42
0.2
  3
txt
  4
bigfont.shx
  0
STYLE
  5
26
100
AcDbSymbolTableRecord
100
AcDbTextStyleTableRecord
  2
TATEGAKI
 70
    68
 40
0.0
 41
1.0
 50
0.0
 71
     0
 42
1.0
  3
txt
  4
bigfont.shx
  0
ENDTAB
  0
TABLE
  2
LAYER
 70
    5
  0
LAYER
  2
_0-0_0
 70
   64
 62
    7
  6
CONTINUOUS
  0
LAYER
  2
_0-2_寸法
 70
   64
 62
    7
  6
CONTINUOUS
  0
LAYER
  2
_0-3_躯体と製品
 70
   64
 62
    7
  6
CONTINUOUS
  0
LAYER
  2
_0-4_図枠
 70
   64
 62
    7
  6
CONTINUOUS
  0
LAYER
  2
ADD_LINE
 70
   64
 62
    7
  6
CONTINUOUS
  0
ENDTAB
  0
ENDSEC
  0
SECTION
  2
BLOCKS
  0
BLOCK
  2
-000-BK2
 70
   64
 10
0
 20
0
 30
0
  0
CIRCLE
  8
_0-2_寸法
  6
CONTINUOUS
 62
    7
 10
256.5
 20
259
 40
0.25
  0
LINE
  8
_0-2_寸法
  6
CONTINUOUS
 62
    7
 10
256.25
 20
259
 11
256.75
 21
259
  0
LINE
  8
_0-2_寸法
  6
CONTINUOUS
 62
    7
 10
257
 20
259
 11
257.5
 21
259
  0
ENDBLK
  0
BLOCK
  2
-001-BK3
 70
   64
 10
0
 20
0
 30
0
  0
CIRCLE
  8
_0-2_寸法
  6
CONTINUOUS
 62
    7
 10
281.5
 20
259
 40
0.25
  0
LINE
  8
_0-2_寸法
  6
CONTINUOUS
 62
    7
 10
281.75
 20
259
 11
281.25
 21
259
  0
LINE
  8
_0-2_寸法
  6
CONTINUOUS
 62
    7
 10
281
 20
259
 11
280.5
 21
259
  0
ENDBLK
  0
BLOCK
  2
-002-BK4
 70
   64
 10
0
 20
0
 30
0
  0
CIRCLE
  8
_0-2_寸法
  6
CONTINUOUS
 62
    7
 10
281.5
 20
259
 40
0.25
  0
LINE
  8
_0-2_寸法
  6
CONTINUOUS
 62
    7
 10
281.25
 20
259
 11
281.75
 21
259
  0
LINE
  8
_0-2_寸法
  6
CONTINUOUS
 62
    7
 10
282
 20
259
 11
282.5
 21
259
  0
ENDBLK
  0
BLOCK
  2
-003-BK7
 70
   64
 10
0
 20
0
 30
0
  0
CIRCLE
  8
_0-2_寸法
  6
CONTINUOUS
 62
    7
 10
506.5
 20
259
 40
0.25
  0
LINE
  8
_0-2_寸法
  6
CONTINUOUS
 62
    7
 10
506.75
 20
259
 11
506.25
 21
259
  0
LINE
  8
_0-2_寸法
  6
CONTINUOUS
 62
    7
 10
506
 20
259
 11
505.5
 21
259
  0
ENDBLK
  0
BLOCK
  2
-004-BK8
 70
   64
 10
0
 20
0
 30
0
  0
CIRCLE
  8
_0-2_寸法
  6
CONTINUOUS
 62
    7
 10
506.5
 20
258.95658795560001
 40
0.25
  0
LINE
  8
_0-2_寸法
  6
CONTINUOUS
 62
    7
 10
506.25
 20
258.95658795560001
 11
506.75
 21
258.95658795560001
  0
LINE
  8
_0-2_寸法
  6
CONTINUOUS
 62
    7
 10
507
 20
258.95658795560001
 11
507.5
 21
258.95658795560001
  0
ENDBLK
  0
BLOCK
  2
-005-BK9
 70
   64
 10
0
 20
0
 30
0
  0
CIRCLE
  8
_0-2_寸法
  6
CONTINUOUS
 62
    7
 10
582.5
 20
258.95658795560001
 40
0.25
  0
LINE
  8
_0-2_寸法
  6
CONTINUOUS
 62
    7
 10
582.75
 20
258.95658795560001
 11
582.25
 21
258.95658795560001
  0
LINE
  8
_0-2_寸法
  6
CONTINUOUS
 62
    7
 10
582
 20
258.95658795560001
 11
581.5
 21
258.95658795560001
  0
ENDBLK
  0
BLOCK
  2
-006-BK10
 70
   64
 10
0
 20
0
 30
0
  0
LINE
  8
_0-2_寸法
  6
CONTINUOUS
 62
    7
 10
457.5
 20
314
 11
505.5
 21
314
  0
TEXT
  8
_0-2_寸法
 62
    7
 10
479
 20
315
 40
5
 41
1
 50
0
  1
50
  0
CIRCLE
  8
_0-2_寸法
  6
CONTINUOUS
 62
    7
 10
456.5
 20
314
 40
1.3999999999999999
  0
CIRCLE
  8
_0-2_寸法
  6
CONTINUOUS
 62
    7
 10
506.5
 20
314
 40
1.3999999999999999
  0
CIRCLE
  8
_0-2_寸法
  6
CONTINUOUS
 62
    7
 10
506.5
 20
314
 40
1.3999999999999999
  0
ENDBLK
  0
BLOCK
  2
-007-BK11
 70
   64
 10
0
 20
0
 30
0
  0
CIRCLE
  8
_0-2_寸法
  6
CONTINUOUS
 62
    7
 10
456.5
 20
314
 40
0.25
  0
LINE
  8
_0-2_寸法
  6
CONTINUOUS
 62
    7
 10
456.25
 20
314
 11
456.75
 21
314
  0
LINE
  8
_0-2_寸法
  6
CONTINUOUS
 62
    7
 10
457
 20
314
 11
457.5
 21
314
  0
ENDBLK
  0
BLOCK
  2
-008-BK12
 70
   64
 10
0
 20
0
 30
0
  0
CIRCLE
  8
_0-2_寸法
  6
CONTINUOUS
 62
    7
 10
506.5
 20
314
 40
0.25
  0
LINE
  8
_0-2_寸法
  6
CONTINUOUS
 62
    7
 10
506.75
 20
314
 11
506.25
 21
314
  0
LINE
  8
_0-2_寸法
  6
CONTINUOUS
 62
    7
 10
506
 20
314
 11
505.5
 21
314
  0
ENDBLK
  0
BLOCK
  2
-009-BK13
 70
   64
 10
0
 20
0
 30
0
  0
CIRCLE
  8
_0-2_寸法
  6
CONTINUOUS
 62
    7
 10
272.5
 20
470.9022333195
 40
0.25
  0
LINE
  8
_0-2_寸法
  6
CONTINUOUS
 62
    7
 10
272.25
 20
470.9022333195
 11
272.75
 21
470.9022333195
  0
LINE
  8
_0-2_寸法
  6
CONTINUOUS
 62
    7
 10
273
 20
470.9022333195
 11
273.5
 21
470.9022333195
  0
ENDBLK
  0
BLOCK
  2
-010-BK14
 70
   64
 10
0
 20
0
 30
0
  0
CIRCLE
  8
_0-2_寸法
  6
CONTINUOUS
 62
    7
 10
582.5
 20
552.90223331950006
 40
0.25
  0
LINE
  8
_0-2_寸法
  6
CONTINUOUS
 62
    7
 10
582.75
 20
552.90223331950006
 11
582.25
 21
552.90223331950006
  0
LINE
  8
_0-2_寸法
  6
CONTINUOUS
 62
    7
 10
582
 20
552.90223331950006
 11
581.5
 21
552.90223331950006
  0
ENDBLK
  0
BLOCK
  2
-011-BK15
 70
   64
 10
0
 20
0
 30
0
  0
CIRCLE
  8
_0-2_寸法
  6
CONTINUOUS
 62
    7
 10
257.5
 20
552.90223331950006
 40
0.25
  0
LINE
  8
_0-2_寸法
  6
CONTINUOUS
 62
    7
 10
257.25
 20
552.90223331950006
 11
257.75
 21
552.90223331950006
  0
LINE
  8
_0-2_寸法
  6
CONTINUOUS
 62
    7
 10
258
 20
552.90223331950006
 11
258.5
 21
552.90223331950006
  0
ENDBLK
  0
BLOCK
  2
-012-BK16
 70
   64
 10
0
 20
0
 30
0
  0
CIRCLE
  8
_0-2_寸法
  6
CONTINUOUS
 62
    7
 10
257.5
 20
537.90223331950006
 40
0.25
  0
LINE
  8
_0-2_寸法
  6
CONTINUOUS
 62
    7
 10
257.25
 20
537.90223331950006
 11
257.75
 21
537.90223331950006
  0
LINE
  8
_0-2_寸法
  6
CONTINUOUS
 62
    7
 10
258
 20
537.90223331950006
 11
258.5
 21
537.90223331950006
  0
ENDBLK
  0
BLOCK
  2
-013-BK17
 70
   64
 10
0
 20
0
 30
0
  0
CIRCLE
  8
_0-2_寸法
  6
CONTINUOUS
 62
    7
 10
290.69999999999999
 20
537.90223331950006
 40
0.25
  0
LINE
  8
_0-2_寸法
  6
CONTINUOUS
 62
    7
 10
290.94999999999999
 20
537.90223331950006
 11
290.44999999999999
 21
537.90223331950006
  0
LINE
  8
_0-2_寸法
  6
CONTINUOUS
 62
    7
 10
290.19999999999999
 20
537.90223331950006
 11
289.69999999999999
 21
537.90223331950006
  0
ENDBLK
  0
BLOCK
  2
-014-BK18
 70
   64
 10
0
 20
0
 30
0
  0
CIRCLE
  8
_0-2_寸法
  6
CONTINUOUS
 62
    7
 10
270.69999999999999
 20
522.90223331950006
 40
0.25
  0
LINE
  8
_0-2_寸法
  6
CONTINUOUS
 62
    7
 10
270.44999999999999
 20
522.90223331950006
 11
270.94999999999999
 21
522.90223331950006
  0
LINE
  8
_0-2_寸法
  6
CONTINUOUS
 62
    7
 10
271.19999999999999
 20
522.90223331950006
 11
271.69999999999999
 21
522.90223331950006
  0
ENDBLK
  0
BLOCK
  2
-015-BK19
 70
   64
 10
0
 20
0
 30
0
  0
CIRCLE
  8
_0-2_寸法
  6
CONTINUOUS
 62
    7
 10
290.69999999999999
 20
522.90223331950006
 40
0.25
  0
LINE
  8
_0-2_寸法
  6
CONTINUOUS
 62
    7
 10
290.94999999999999
 20
522.90223331950006
 11
290.44999999999999
 21
522.90223331950006
  0
LINE
  8
_0-2_寸法
  6
CONTINUOUS
 62
    7
 10
290.19999999999999
 20
522.90223331950006
 11
289.69999999999999
 21
522.90223331950006
  0
ENDBLK
  0
BLOCK
  2
-016-BK20
 70
   64
 10
0
 20
0
 30
0
  0
LINE
  8
_0-2_寸法
  6
CONTINUOUS
 62
    7
 10
254.5
 20
374
 11
201.5
 21
374
  0
LINE
  8
_0-2_寸法
  6
CONTINUOUS
 62
    7
 10
201.5
 20
375
 11
201.5
 21
433.20223331950001
  0
TEXT
  8
_0-2_寸法
 62
    7
 10
200.5
 20
402.85111665980003
 40
5
 41
1
 50
90
  1
D
  0
CIRCLE
  8
_0-2_寸法
  6
CONTINUOUS
 62
    7
 10
254.5
 20
374
 40
1.3999999999999999
  0
CIRCLE
  8
_0-2_寸法
  6
CONTINUOUS
 62
    7
 10
201.5
 20
434.20223331950001
 40
1.3999999999999999
  0
CIRCLE
  8
_0-2_寸法
  6
CONTINUOUS
 62
    7
 10
201.5
 20
434.20223331950001
 40
1.3999999999999999
  0
ENDBLK
  0
BLOCK
  2
-017-BK21
 70
   64
 10
0
 20
0
 30
0
  0
CIRCLE
  8
_0-2_寸法
  6
CONTINUOUS
 62
    7
 10
201.5
 20
374
 40
0.25
  0
LINE
  8
_0-2_寸法
  6
CONTINUOUS
 62
    7
 10
201.5
 20
373.75
 11
201.5
 21
374.25
  0
LINE
  8
_0-2_寸法
  6
CONTINUOUS
 62
    7
 10
201.5
 20
374.5
 11
201.5
 21
375
  0
ENDBLK
  0
BLOCK
  2
-018-BK22
 70
   64
 10
0
 20
0
 30
0
  0
CIRCLE
  8
_0-2_寸法
  6
CONTINUOUS
 62
    7
 10
201.5
 20
434.20223331950001
 40
0.25
  0
LINE
  8
_0-2_寸法
  6
CONTINUOUS
 62
    7
 10
201.5
 20
434.45223331950001
 11
201.5
 21
433.95223331950001
  0
LINE
  8
_0-2_寸法
  6
CONTINUOUS
 62
    7
 10
201.5
 20
433.70223331950001
 11
201.5
 21
433.20223331950001
  0
ENDBLK
  0
BLOCK
  2
-019-BK23
 70
   64
 10
0
 20
0
 30
0
  0
LINE
  8
_0-2_寸法
  6
CONTINUOUS
 62
    7
 10
254.5
 20
374
 11
181.5
 21
374
  0
LINE
  8
_0-2_寸法
  6
CONTINUOUS
 62
    7
 10
254.5
 20
492.9022333195
 11
181.5
 21
492.9022333195
  0
LINE
  8
_0-2_寸法
  6
CONTINUOUS
 62
    7
 10
181.5
 20
375
 11
181.5
 21
491.9022333195
  0
TEXT
  8
_0-2_寸法
 62
    7
 10
180.5
 20
432.20111665979999
 40
5
 41
1
 50
90
  1
E
  0
CIRCLE
  8
_0-2_寸法
  6
CONTINUOUS
 62
    7
 10
254.5
 20
374
 40
1.3999999999999999
  0
CIRCLE
  8
_0-2_寸法
  6
CONTINUOUS
 62
    7
 10
254.5
 20
492.9022333195
 40
1.3999999999999999
  0
CIRCLE
  8
_0-2_寸法
  6
CONTINUOUS
 62
    7
 10
181.5
 20
492.9022333195
 40
1.3999999999999999
  0
ENDBLK
  0
BLOCK
  2
-020-BK24
 70
   64
 10
0
 20
0
 30
0
  0
CIRCLE
  8
_0-2_寸法
  6
CONTINUOUS
 62
    7
 10
181.5
 20
374
 40
0.25
  0
LINE
  8
_0-2_寸法
  6
CONTINUOUS
 62
    7
 10
181.5
 20
373.75
 11
181.5
 21
374.25
  0
LINE
  8
_0-2_寸法
  6
CONTINUOUS
 62
    7
 10
181.5
 20
374.5
 11
181.5
 21
375
  0
ENDBLK
  0
BLOCK
  2
-021-BK25
 70
   64
 10
0
 20
0
 30
0
  0
CIRCLE
  8
_0-2_寸法
  6
CONTINUOUS
 62
    7
 10
181.5
 20
492.9022333195
 40
0.25
  0
LINE
  8
_0-2_寸法
  6
CONTINUOUS
 62
    7
 10
181.5
 20
493.1522333195
 11
181.5
 21
492.6522333195
  0
LINE
  8
_0-2_寸法
  6
CONTINUOUS
 62
    7
 10
181.5
 20
492.4022333195
 11
181.5
 21
491.9022333195
  0
ENDBLK
  0
BLOCK
  2
-022-BK26
 70
   64
 10
0
 20
0
 30
0
  0
LINE
  8
_0-2_寸法
  6
CONTINUOUS
 62
    7
 10
257.5
 20
479.9022333195
 11
257.5
 21
537.90223331950006
  0
LINE
  8
_0-2_寸法
  6
CONTINUOUS
 62
    7
 10
290.69999999999999
 20
480.80446663909999
 11
290.69999999999999
 21
537.90223331950006
  0
LINE
  8
_0-2_寸法
  6
CONTINUOUS
 62
    7
 10
258.5
 20
537.90223331950006
 11
289.69999999999999
 21
537.90223331950006
  0
TEXT
  8
_0-2_寸法
 62
    7
 10
269.10000000000002
 20
538.90223331950006
 40
5
 41
1
 50
0
  1
33.2
  0
CIRCLE
  8
_0-2_寸法
  6
CONTINUOUS
 62
    7
 10
257.5
 20
479.9022333195
 40
1.3999999999999999
  0
CIRCLE
  8
_0-2_寸法
  6
CONTINUOUS
 62
    7
 10
290.69999999999999
 20
480.80446663909999
 40
1.3999999999999999
  0
CIRCLE
  8
_0-2_寸法
  6
CONTINUOUS
 62
    7
 10
290.69999999999999
 20
537.90223331950006
 40
1.3999999999999999
  0
ENDBLK
  0
BLOCK
  2
-023-BK27
 70
   64
 10
0
 20
0
 30
0
  0
LINE
  8
_0-2_寸法
  6
CONTINUOUS
 62
    7
 10
584.5
 20
331.57714196529997
 11
622.5
 21
331.57714196529997
  0
LINE
  8
_0-2_寸法
  6
CONTINUOUS
 62
    7
 10
510.15255531529999
 20
374
 11
622.5
 21
374
  0
LINE
  8
_0-2_寸法
  6
CONTINUOUS
 62
    7
 10
622.5
 20
332.57714196529997
 11
622.5
 21
373
  0
TEXT
  8
_0-2_寸法
 62
    7
 10
621.5
 20
350.28857098269998
 40
5
 41
1
 50
90
  1
44
  0
CIRCLE
  8
_0-2_寸法
  6
CONTINUOUS
 62
    7
 10
584.5
 20
331.57714196529997
 40
1.3999999999999999
  0
CIRCLE
  8
_0-2_寸法
  6
CONTINUOUS
 62
    7
 10
510.15255531529999
 20
374
 40
1.3999999999999999
  0
CIRCLE
  8
_0-2_寸法
  6
CONTINUOUS
 62
    7
 10
622.5
 20
374
 40
1.3999999999999999
  0
ENDBLK
  0
BLOCK
  2
-024-BK28
 70
   64
 10
0
 20
0
 30
0
  0
CIRCLE
  8
_0-2_寸法
  6
CONTINUOUS
 62
    7
 10
622.5
 20
331.57714196529997
 40
0.25
  0
LINE
  8
_0-2_寸法
  6
CONTINUOUS
 62
    7
 10
622.5
 20
331.32714196529997
 11
622.5
 21
331.82714196529997
  0
LINE
  8
_0-2_寸法
  6
CONTINUOUS
 62
    7
 10
622.5
 20
332.07714196529997
 11
622.5
 21
332.57714196529997
  0
ENDBLK
  0
BLOCK
  2
-025-BK29
 70
   64
 10
0
 20
0
 30
0
  0
CIRCLE
  8
_0-2_寸法
  6
CONTINUOUS
 62
    7
 10
622.5
 20
374
 40
0.25
  0
LINE
  8
_0-2_寸法
  6
CONTINUOUS
 62
    7
 10
622.5
 20
374.25
 11
622.5
 21
373.75
  0
LINE
  8
_0-2_寸法
  6
CONTINUOUS
 62
    7
 10
622.5
 20
373.5
 11
622.5
 21
373
  0
ENDBLK
  0
BLOCK
  2
-026-BK30
 70
   64
 10
0
 20
0
 30
0
  0
LINE
  8
_0-2_寸法
  6
CONTINUOUS
 62
    7
 10
584.5
 20
331.57714196529997
 11
642.5
 21
331.57714196529997
  0
LINE
  8
_0-2_寸法
  6
CONTINUOUS
 62
    7
 10
584.5
 20
421.57714196529997
 11
642.5
 21
421.57714196529997
  0
LINE
  8
_0-2_寸法
  6
CONTINUOUS
 62
    7
 10
642.5
 20
332.57714196529997
 11
642.5
 21
420.57714196529997
  0
TEXT
  8
_0-2_寸法
 62
    7
 10
641.5
 20
374.07714196529997
 40
5
 41
1
 50
90
  1
90
  0
CIRCLE
  8
_0-2_寸法
  6
CONTINUOUS
 62
    7
 10
584.5
 20
331.57714196529997
 40
1.3999999999999999
  0
CIRCLE
  8
_0-2_寸法
  6
CONTINUOUS
 62
    7
 10
584.5
 20
421.57714196529997
 40
1.3999999999999999
  0
CIRCLE
  8
_0-2_寸法
  6
CONTINUOUS
 62
    7
 10
642.5
 20
421.57714196529997
 40
1.3999999999999999
  0
ENDBLK
  0
BLOCK
  2
-027-BK31
 70
   64
 10
0
 20
0
 30
0
  0
CIRCLE
  8
_0-2_寸法
  6
CONTINUOUS
 62
    7
 10
642.5
 20
331.57714196529997
 40
0.25
  0
LINE
  8
_0-2_寸法
  6
CONTINUOUS
 62
    7
 10
642.5
 20
331.32714196529997
 11
642.5
 21
331.82714196529997
  0
LINE
  8
_0-2_寸法
  6
CONTINUOUS
 62
    7
 10
642.5
 20
332.07714196529997
 11
642.5
 21
332.57714196529997
  0
ENDBLK
  0
BLOCK
  2
-028-BK32
 70
   64
 10
0
 20
0
 30
0
  0
CIRCLE
  8
_0-2_寸法
  6
CONTINUOUS
 62
    7
 10
642.5
 20
421.57714196529997
 40
0.25
  0
LINE
  8
_0-2_寸法
  6
CONTINUOUS
 62
    7
 10
642.5
 20
421.82714196529997
 11
642.5
 21
421.32714196529997
  0
LINE
  8
_0-2_寸法
  6
CONTINUOUS
 62
    7
 10
642.5
 20
421.07714196529997
 11
642.5
 21
420.57714196529997
  0
ENDBLK
  0
BLOCK
  2
-029-BK33
 70
   64
 10
0
 20
0
 30
0
  0
LINE
  8
_0-2_寸法
  6
CONTINUOUS
 62
    7
 10
582.5
 20
423.57714196529997
 11
582.5
 21
470.9022333195
  0
LINE
  8
_0-2_寸法
  6
CONTINUOUS
 62
    7
 10
272.5
 20
451.82355354309999
 11
272.5
 21
470.9022333195
  0
LINE
  8
_0-2_寸法
  6
CONTINUOUS
 62
    7
 10
581.5
 20
470.9022333195
 11
273.5
 21
470.9022333195
  0
TEXT
  8
_0-2_寸法
 62
    7
 10
426.25
 20
471.9022333195
 40
5
 41
1
 50
0
  1
A
  0
CIRCLE
  8
_0-2_寸法
  6
CONTINUOUS
 62
    7
 10
582.5
 20
423.57714196529997
 40
1.3999999999999999
  0
CIRCLE
  8
_0-2_寸法
  6
CONTINUOUS
 62
    7
 10
272.5
 20
451.82355354309999
 40
1.3999999999999999
  0
CIRCLE
  8
_0-2_寸法
  6
CONTINUOUS
 62
    7
 10
272.5
 20
470.9022333195
 40
1.3999999999999999
  0
ENDBLK
  0
BLOCK
  2
-030-BK34
 70
   64
 10
0
 20
0
 30
0
  0
CIRCLE
  8
_0-2_寸法
  6
CONTINUOUS
 62
    7
 10
582.5
 20
470.9022333195
 40
0.25
  0
LINE
  8
_0-2_寸法
  6
CONTINUOUS
 62
    7
 10
582.75
 20
470.9022333195
 11
582.25
 21
470.9022333195
  0
LINE
  8
_0-2_寸法
  6
CONTINUOUS
 62
    7
 10
582
 20
470.9022333195
 11
581.5
 21
470.9022333195
  0
ENDBLK
  0
BLOCK
  2
-031-BK35
 70
   64
 10
0
 20
0
 30
0
  0
LINE
  8
_0-2_寸法
  6
CONTINUOUS
 62
    7
 10
582.5
 20
423.57714196529997
 11
582.5
 21
552.90223331950006
  0
LINE
  8
_0-2_寸法
  6
CONTINUOUS
 62
    7
 10
257.5
 20
479.9022333195
 11
257.5
 21
552.90223331950006
  0
LINE
  8
_0-2_寸法
  6
CONTINUOUS
 62
    7
 10
581.5
 20
552.90223331950006
 11
258.5
 21
552.90223331950006
  0
TEXT
  8
_0-2_寸法
 62
    7
 10
418.75
 20
553.90223331950006
 40
5
 41
1
 50
0
  1
W
  0
CIRCLE
  8
_0-2_寸法
  6
CONTINUOUS
 62
    7
 10
582.5
 20
423.57714196529997
 40
1.3999999999999999
  0
CIRCLE
  8
_0-2_寸法
  6
CONTINUOUS
 62
    7
 10
257.5
 20
479.9022333195
 40
1.3999999999999999
  0
CIRCLE
  8
_0-2_寸法
  6
CONTINUOUS
 62
    7
 10
257.5
 20
552.90223331950006
 40
1.3999999999999999
  0
ENDBLK
  0
BLOCK
  2
-032-BK36
 70
   64
 10
0
 20
0
 30
0
  0
LINE
  8
_0-2_寸法
  6
CONTINUOUS
 62
    7
 10
270.69999999999999
 20
494.9022333195
 11
270.69999999999999
 21
522.90223331950006
  0
LINE
  8
_0-2_寸法
  6
CONTINUOUS
 62
    7
 10
290.69999999999999
 20
480.80446663909999
 11
290.69999999999999
 21
522.90223331950006
  0
LINE
  8
_0-2_寸法
  6
CONTINUOUS
 62
    7
 10
271.69999999999999
 20
522.90223331950006
 11
289.69999999999999
 21
522.90223331950006
  0
TEXT
  8
_0-2_寸法
 62
    7
 10
278.19999999999999
 20
523.90223331950006
 40
5
 41
1
 50
0
  1
20
  0
CIRCLE
  8
_0-2_寸法
  6
CONTINUOUS
 62
    7
 10
270.69999999999999
 20
494.9022333195
 40
1.3999999999999999
  0
CIRCLE
  8
_0-2_寸法
  6
CONTINUOUS
 62
    7
 10
290.69999999999999
 20
480.80446663909999
 40
1.3999999999999999
  0
CIRCLE
  8
_0-2_寸法
  6
CONTINUOUS
 62
    7
 10
290.69999999999999
 20
522.90223331950006
 40
1.3999999999999999
  0
ENDBLK
  0
BLOCK
  2
-033-BK37
 70
   64
 10
0
 20
0
 30
0
  0
LINE
  8
_0-2_寸法
  6
CONTINUOUS
 62
    7
 10
283.5
 20
492.9022333195
 11
325.69999999999999
 21
492.9022333195
  0
LINE
  8
_0-2_寸法
  6
CONTINUOUS
 62
    7
 10
292.69999999999999
 20
477.9022333195
 11
325.69999999999999
 21
477.9022333195
  0
LINE
  8
_0-2_寸法
  6
CONTINUOUS
 62
    7
 10
325.69999999999999
 20
491.9022333195
 11
325.69999999999999
 21
478.9022333195
  0
TEXT
  8
_0-2_寸法
 62
    7
 10
324.69999999999999
 20
482.9022333195
 40
5
 41
1
 50
90
  1
15
  0
CIRCLE
  8
_0-2_寸法
  6
CONTINUOUS
 62
    7
 10
283.5
 20
492.9022333195
 40
1.3999999999999999
  0
CIRCLE
  8
_0-2_寸法
  6
CONTINUOUS
 62
    7
 10
292.69999999999999
 20
477.9022333195
 40
1.3999999999999999
  0
CIRCLE
  8
_0-2_寸法
  6
CONTINUOUS
 62
    7
 10
325.69999999999999
 20
477.9022333195
 40
1.3999999999999999
  0
ENDBLK
  0
BLOCK
  2
-034-BK38
 70
   64
 10
0
 20
0
 30
0
  0
CIRCLE
  8
_0-2_寸法
  6
CONTINUOUS
 62
    7
 10
325.69999999999999
 20
492.9022333195
 40
0.25
  0
LINE
  8
_0-2_寸法
  6
CONTINUOUS
 62
    7
 10
325.69999999999999
 20
493.1522333195
 11
325.69999999999999
 21
492.6522333195
  0
LINE
  8
_0-2_寸法
  6
CONTINUOUS
 62
    7
 10
325.69999999999999
 20
492.4022333195
 11
325.69999999999999
 21
491.9022333195
  0
ENDBLK
  0
BLOCK
  2
-035-BK39
 70
   64
 10
0
 20
0
 30
0
  0
CIRCLE
  8
_0-2_寸法
  6
CONTINUOUS
 62
    7
 10
325.69999999999999
 20
477.9022333195
 40
0.25
  0
LINE
  8
_0-2_寸法
  6
CONTINUOUS
 62
    7
 10
325.69999999999999
 20
477.6522333195
 11
325.69999999999999
 21
478.1522333195
  0
LINE
  8
_0-2_寸法
  6
CONTINUOUS
 62
    7
 10
325.69999999999999
 20
478.4022333195
 11
325.69999999999999
 21
478.9022333195
  0
ENDBLK
  0
BLOCK
  2
-036-BK40
 70
   64
 10
0
 20
0
 30
0
  0
LINE
  8
_0-2_寸法
  6
CONTINUOUS
 62
    7
 10
292.69999999999999
 20
477.9022333195
 11
325.69999999999999
 21
477.9022333195
  0
LINE
  8
_0-2_寸法
  6
CONTINUOUS
 62
    7
 10
292.69999999999999
 20
441.9022333195
 11
325.69999999999999
 21
441.9022333195
  0
LINE
  8
_0-2_寸法
  6
CONTINUOUS
 62
    7
 10
325.69999999999999
 20
476.9022333195
 11
325.69999999999999
 21
442.9022333195
  0
TEXT
  8
_0-2_寸法
 62
    7
 10
324.69999999999999
 20
457.4022333195
 40
5
 41
1
 50
90
  1
36
  0
CIRCLE
  8
_0-2_寸法
  6
CONTINUOUS
 62
    7
 10
292.69999999999999
 20
477.9022333195
 40
1.3999999999999999
  0
CIRCLE
  8
_0-2_寸法
  6
CONTINUOUS
 62
    7
 10
292.69999999999999
 20
441.9022333195
 40
1.3999999999999999
  0
CIRCLE
  8
_0-2_寸法
  6
CONTINUOUS
 62
    7
 10
325.69999999999999
 20
441.9022333195
 40
1.3999999999999999
  0
ENDBLK
  0
BLOCK
  2
-037-BK41
 70
   64
 10
0
 20
0
 30
0
  0
CIRCLE
  8
_0-2_寸法
  6
CONTINUOUS
 62
    7
 10
325.69999999999999
 20
477.9022333195
 40
0.25
  0
LINE
  8
_0-2_寸法
  6
CONTINUOUS
 62
    7
 10
325.69999999999999
 20
478.1522333195
 11
325.69999999999999
 21
477.6522333195
  0
LINE
  8
_0-2_寸法
  6
CONTINUOUS
 62
    7
 10
325.69999999999999
 20
477.4022333195
 11
325.69999999999999
 21
476.9022333195
  0
ENDBLK
  0
BLOCK
  2
-038-BK42
 70
   64
 10
0
 20
0
 30
0
  0
CIRCLE
  8
_0-2_寸法
  6
CONTINUOUS
 62
    7
 10
325.69999999999999
 20
441.9022333195
 40
0.25
  0
LINE
  8
_0-2_寸法
  6
CONTINUOUS
 62
    7
 10
325.69999999999999
 20
441.6522333195
 11
325.69999999999999
 21
442.1522333195
  0
LINE
  8
_0-2_寸法
  6
CONTINUOUS
 62
    7
 10
325.69999999999999
 20
442.4022333195
 11
325.69999999999999
 21
442.9022333195
  0
ENDBLK
  0
ENDSEC
  0
SECTION
  2
ENTITIES
  0
TEXT
  8
_0-4_図枠
 62
    7
 10
27.951719470540013
 20
532.63756701499995
 40
9
 41
1
 50
0
  1
　　Ｓ＝１／２
  0
CIRCLE
  8
_0-4_図枠
  6
CONTINUOUS
 62
    7
 10
261.78380288779999
 20
430.58590509139998
 40
0.9
  0
LINE
  8
_0-4_図枠
  6
CONTINUOUS
 62
    7
 10
261.78380288779999
 20
430.58590509139998
 11
246.1183766197
 21
414.92047882320003
  0
CIRCLE
  8
_0-4_図枠
  6
CONTINUOUS
 62
    7
 10
241.87573593249999
 20
410.67783813599999
 40
6
  0
LINE
  8
_0-4_図枠
  6
CONTINUOUS
 62
    7
 10
263.86300384420002
 20
439.1214677241
 11
244.3771809495
 21
458.60729061879999
  0
CIRCLE
  8
_0-4_図枠
  6
CONTINUOUS
 62
    7
 10
240.13454026240001
 20
462.84993130589999
 40
6
  0
CIRCLE
  8
_0-4_図枠
  6
CONTINUOUS
 62
    7
 10
212.0682362501
 20
461.75119109309998
 40
6
  0
LINE
  8
_0-4_図枠
  6
CONTINUOUS
 62
    7
 10
224.56636035720001
 20
440.10380514029998
 11
215.0682362501
 21
456.55503867039999
  0
CIRCLE
  8
_0-4_図枠
  6
CONTINUOUS
 62
    7
 10
224.56636035720001
 20
440.10380514029998
 40
0.9
  0
CIRCLE
  8
_0-4_図枠
  6
CONTINUOUS
 62
    7
 10
263.86300384420002
 20
439.1214677241
 40
0.9
  0
LINE
  8
_0-4_図枠
  6
CONTINUOUS
 62
    7
 10
263.47041246600003
 20
469.93962029170001
 11
245.35129722330001
 21
501.32284848019998
  0
TEXT
  8
_0-4_図枠
 62
    7
 10
239.35129722330001
 20
503.51900090290002
 40
5
 41
1
 50
0
  1
４
  0
CIRCLE
  8
_0-4_図枠
  6
CONTINUOUS
 62
    7
 10
242.35129722330001
 20
506.51900090290002
 40
6
  0
LINE
  8
_0-4_図枠
  6
CONTINUOUS
 62
    7
 10
267.64190977340002
 20
488.45846270959998
 11
247.83189355569999
 21
522.77041729749999
  0
CIRCLE
  8
_0-4_図枠
  6
CONTINUOUS
 62
    7
 10
244.83189355569999
 20
527.96656972020003
 40
6
  0
CIRCLE
  8
_0-4_図枠
  6
CONTINUOUS
 62
    7
 10
267.64190977340002
 20
488.45846270959998
 40
0.9
  0
CIRCLE
  8
_0-4_図枠
  6
CONTINUOUS
 62
    7
 10
263.47041246600003
 20
469.93962029170001
 40
0.9
  0
LINE
  8
_0-3_躯体と製品
  6
CONTINUOUS
 62
    7
 10
262.5
 20
446.20223331950001
 11
262.5
 21
428.20223331950001
  0
LINE
  8
_0-3_躯体と製品
  6
CONTINUOUS
 62
    7
 10
261
 20
428.20223331950001
 11
262.5
 21
428.20223331950001
  0
LINE
  8
_0-3_躯体と製品
  6
CONTINUOUS
 62
    7
 10
261
 20
446.20223331950001
 11
262.5
 21
446.20223331950001
  0
ARC
  8
_0-3_躯体と製品
  6
CONTINUOUS
 62
    7
 10
262.37129099999999
 20
435.69947031949999
 40
3
 50
272.45892600000002
 51
321.38536199999999
  0
ARC
  8
_0-3_躯体と製品
  6
CONTINUOUS
 62
    7
 10
260.50000199999999
 20
437.20223331950001
 40
5.4000000000000004
 50
321.317813
 51
0
  0
ARC
  8
_0-3_躯体と製品
  6
CONTINUOUS
 62
    7
 10
260.50000199999999
 20
437.20223331950001
 40
5.4000000000000004
 50
0
 51
38.851061999999992
  0
ARC
  8
_0-3_躯体と製品
  6
CONTINUOUS
 62
    7
 10
262.37129099999999
 20
438.70499331949998
 40
3
 50
38.614637999999999
 51
87.541073999999995
  0
LINE
  8
_0-3_躯体と製品
  6
CONTINUOUS
 62
    7
 10
273.16541950649997
 20
486.64754652430003
 11
274.55961004620002
 21
481.39128266789999
  0
LINE
  8
_0-3_躯体と製品
  6
CONTINUOUS
 62
    7
 10
270.84038995380001
 20
495.4131839712
 11
272.10904401840003
 21
490.63020752979997
  0
LINE
  8
_0-3_躯体と製品
  6
CONTINUOUS
 62
    7
 10
278.06160904559999
 20
480.9022333195
 11
280.88466046619999
 21
483.72528474009999
  0
LINE
  8
_0-3_躯体と製品
  6
CONTINUOUS
 62
    7
 10
275.23318192080001
 20
480.9022333195
 11
280.58101951420002
 21
486.25007091290001
  0
LINE
  8
_0-3_躯体と製品
  6
CONTINUOUS
 62
    7
 10
274.69999999999999
 20
483.19747852350002
 11
280.50632179600001
 21
489.00380031949999
  0
LINE
  8
_0-3_躯体と製品
  6
CONTINUOUS
 62
    7
 10
274.69999999999999
 20
486.02590564820002
 11
280.73474442010001
 21
492.06065006829999
  0
LINE
  8
_0-3_躯体と製品
  6
CONTINUOUS
 62
    7
 10
274.69999999999999
 20
488.85433277300001
 11
281.41063906789998
 21
495.56497184080001
  0
LINE
  8
_0-3_躯体と製品
  6
CONTINUOUS
 62
    7
 10
274.69999999999999
 20
491.68275989770001
 11
278.91947342179998
 21
495.9022333195
  0
LINE
  8
_0-3_躯体と製品
  6
CONTINUOUS
 62
    7
 10
274.69999999999999
 20
494.51118702240001
 11
276.09104629709998
 21
495.9022333195
  0
ARC
  8
_0-3_躯体と製品
  6
CONTINUOUS
 62
    7
 10
309.125
 20
488.4022333195
 40
28.625
 50
164.81071326279999
 51
195.18928673720001
  0
LINE
  8
_0-3_躯体と製品
  6
CONTINUOUS
 62
    7
 10
281.5
 20
570.90223331950006
 11
281.5
 21
495.9022333195
  0
LINE
  8
_0-3_躯体と製品
  6
CONTINUOUS
 62
    7
 10
270.69999999999999
 20
491.20223331950001
 11
270.69999999999999
 21
494.9022333195
  0
LINE
  8
_0-3_躯体と製品
  6
CONTINUOUS
 62
    7
 10
274.69999999999999
 20
481.9022333195
 11
274.69999999999999
 21
494.9022333195
  0
ARC
  8
_0-3_躯体と製品
  6
CONTINUOUS
 62
    7
 10
271.69999999999999
 20
494.9022333195
 40
1
 50
90
 51
180
  0
ARC
  8
_0-3_躯体と製品
  6
CONTINUOUS
 62
    7
 10
273.69999999999999
 20
494.9022333195
 40
1
 50
0
 51
90
  0
LINE
  8
_0-3_躯体と製品
  6
CONTINUOUS
 62
    7
 10
273.69999999999999
 20
495.9022333195
 11
271.69999999999999
 21
495.9022333195
  0
LINE
  8
_0-3_躯体と製品
  6
CONTINUOUS
 62
    7
 10
257.5
 20
480.9022333195
 11
256.5
 21
480.9022333195
  0
LINE
  8
_0-3_躯体と製品
  6
CONTINUOUS
 62
    7
 10
257.5
 20
450.9022333195
 11
257.5
 21
480.9022333195
  0
LINE
  8
_0-3_躯体と製品
  6
CONTINUOUS
 62
    7
 10
256.5
 20
450.9022333195
 11
257.5
 21
450.9022333195
  0
LINE
  8
_0-3_躯体と製品
  6
CONTINUOUS
 62
    7
 10
256.5
 20
480.9022333195
 11
256.5
 21
450.9022333195
  0
LINE
  8
_0-3_躯体と製品
  6
CONTINUOUS
 62
    7
 10
256.5
 20
452.24169611830001
 11
257.5
 21
451.24169611830001
  0
LINE
  8
_0-3_躯体と製品
  6
CONTINUOUS
 62
    7
 10
256.5
 20
453.65590968070001
 11
257.5
 21
452.65590968070001
  0
LINE
  8
_0-3_躯体と製品
  6
CONTINUOUS
 62
    7
 10
256.5
 20
455.0701232431
 11
257.5
 21
454.0701232431
  0
LINE
  8
_0-3_躯体と製品
  6
CONTINUOUS
 62
    7
 10
256.5
 20
456.48433680540001
 11
257.5
 21
455.48433680540001
  0
LINE
  8
_0-3_躯体と製品
  6
CONTINUOUS
 62
    7
 10
256.5
 20
457.8985503678
 11
257.5
 21
456.8985503678
  0
LINE
  8
_0-3_躯体と製品
  6
CONTINUOUS
 62
    7
 10
256.5
 20
459.31276393019999
 11
257.5
 21
458.31276393019999
  0
LINE
  8
_0-3_躯体と製品
  6
CONTINUOUS
 62
    7
 10
256.5
 20
460.72697749259999
 11
257.5
 21
459.72697749259999
  0
LINE
  8
_0-3_躯体と製品
  6
CONTINUOUS
 62
    7
 10
256.5
 20
462.14119105489999
 11
257.5
 21
461.14119105489999
  0
LINE
  8
_0-3_躯体と製品
  6
CONTINUOUS
 62
    7
 10
256.5
 20
463.55540461729998
 11
257.5
 21
462.55540461729998
  0
LINE
  8
_0-3_躯体と製品
  6
CONTINUOUS
 62
    7
 10
256.5
 20
464.96961817969998
 11
257.5
 21
463.96961817969998
  0
LINE
  8
_0-3_躯体と製品
  6
CONTINUOUS
 62
    7
 10
256.5
 20
466.38383174210003
 11
257.5
 21
465.38383174210003
  0
LINE
  8
_0-3_躯体と製品
  6
CONTINUOUS
 62
    7
 10
256.5
 20
467.79804530439998
 11
257.5
 21
466.79804530439998
  0
LINE
  8
_0-3_躯体と製品
  6
CONTINUOUS
 62
    7
 10
256.5
 20
469.21225886680003
 11
257.5
 21
468.21225886680003
  0
LINE
  8
_0-3_躯体と製品
  6
CONTINUOUS
 62
    7
 10
256.5
 20
470.62647242920002
 11
257.5
 21
469.62647242920002
  0
LINE
  8
_0-3_躯体と製品
  6
CONTINUOUS
 62
    7
 10
256.5
 20
472.04068599160001
 11
257.5
 21
471.04068599160001
  0
LINE
  8
_0-3_躯体と製品
  6
CONTINUOUS
 62
    7
 10
256.5
 20
473.45489955390002
 11
257.5
 21
472.45489955390002
  0
LINE
  8
_0-3_躯体と製品
  6
CONTINUOUS
 62
    7
 10
256.5
 20
474.86911311630001
 11
257.5
 21
473.86911311630001
  0
LINE
  8
_0-3_躯体と製品
  6
CONTINUOUS
 62
    7
 10
256.5
 20
476.28332667870001
 11
257.5
 21
475.28332667870001
  0
LINE
  8
_0-3_躯体と製品
  6
CONTINUOUS
 62
    7
 10
256.5
 20
477.69754024100001
 11
257.5
 21
476.69754024100001
  0
LINE
  8
_0-3_躯体と製品
  6
CONTINUOUS
 62
    7
 10
256.5
 20
479.11175380340001
 11
257.5
 21
478.11175380340001
  0
LINE
  8
_0-3_躯体と製品
  6
CONTINUOUS
 62
    7
 10
256.5
 20
480.5259673658
 11
257.5
 21
479.5259673658
  0
LINE
  8
_0-3_躯体と製品
  6
CONTINUOUS
 62
    7
 10
257.5
 20
480.9022333195
 11
258.5
 21
480.9022333195
  0
LINE
  8
_0-3_躯体と製品
  6
CONTINUOUS
 62
    7
 10
271.20000199999998
 20
437.20223331950001
 11
197.5
 21
437.20223331950001
  0
LINE
  8
_0-3_躯体と製品
  6
CONTINUOUS
 62
    7
 10
259.3772773174
 20
487.70223331950001
 11
276.24531100000002
 21
487.70223331950001
  0
TEXT
  8
_0-4_図枠
 62
    7
 10
640
 20
238.07099767099999
 40
5
 41
1
 50
0
  1
（単位：mm）
  0
LINE
  8
_0-3_躯体と製品
  6
CONTINUOUS
 62
    7
 10
257.5
 20
434.70223331950001
 11
256.5
 21
434.70223331950001
  0
LINE
  8
_0-3_躯体と製品
  6
CONTINUOUS
 62
    7
 10
257.5
 20
439.70223331950001
 11
256.5
 21
439.70223331950001
  0
LINE
  8
_0-3_躯体と製品
  6
CONTINUOUS
 62
    7
 10
281.8401485604
 20
442.98413604260003
 11
280.67285826009999
 21
443.84899115780001
  0
ARC
  8
_0-3_躯体と製品
  6
CONTINUOUS
 62
    7
 10
280.9471768116
 20
441.7788968731
 40
0.6999999999999999
 50
30.642961025290003
 51
53.464944716910004
  0
ARC
  8
_0-3_躯体と製品
  6
CONTINUOUS
 62
    7
 10
280.9471768116
 20
441.7788968731
 40
1.5
 50
30.642961025290003
 51
53.464944716910004
  0
ARC
  8
_0-3_躯体と製品
  6
CONTINUOUS
 62
    7
 10
280.43473246040003
 20
443.52759404599999
 40
0.4
 50
53.46494471690999
 51
233.46494471130001
  0
LINE
  8
_0-3_躯体と製品
  6
CONTINUOUS
 62
    7
 10
281.36389696100002
 20
442.34134181889999
 11
280.19660666070001
 21
443.20619693409998
  0
LINE
  8
_0-3_躯体と製品
  6
CONTINUOUS
 62
    7
 10
270.69999999999999
 20
490.70223331950001
 11
270.69999999999999
 21
481.9022333195
  0
ARC
  8
_0-3_躯体と製品
  6
CONTINUOUS
 62
    7
 10
271.69999999999999
 20
481.9022333195
 40
1
 50
180
 51
270
  0
ARC
  8
_0-3_躯体と製品
  6
CONTINUOUS
 62
    7
 10
273.69999999999999
 20
481.9022333195
 40
1
 50
270
 51
0
  0
LINE
  8
_0-3_躯体と製品
  6
CONTINUOUS
 62
    7
 10
271.69999999999999
 20
480.9022333195
 11
273.69999999999999
 21
480.9022333195
  0
ARC
  8
_0-3_躯体と製品
  6
CONTINUOUS
 62
    7
 10
269.10000000000002
 20
487.70223331950001
 40
4.2000000000000002
 50
14.09578924417
 51
42.74124453868
  0
ARC
  8
_0-3_躯体と製品
  6
CONTINUOUS
 62
    7
 10
269.10000000000002
 20
487.70223331950001
 40
4.2000000000000002
 50
317.25875546131999
 51
345.90421075582998
  0
LINE
  8
_0-3_躯体と製品
  6
CONTINUOUS
 62
    7
 10
272.76571957469997
 20
488.20223331950001
 11
272.76571957469997
 21
487.20223331950001
  0
ARC
  8
_0-3_躯体と製品
  6
CONTINUOUS
 62
    7
 10
272.76571957469997
 20
488.62271204289999
 40
0.4204787234042999
 50
270
 51
14.095789244169991
  0
LINE
  8
_0-3_躯体と製品
  6
CONTINUOUS
 62
    7
 10
270.69999999999999
 20
484.20223331950001
 11
270.69999999999999
 21
491.20223331950001
  0
ARC
  8
_0-3_躯体と製品
  6
CONTINUOUS
 62
    7
 10
270.69999999999999
 20
486.22366189100001
 40
2.0214285714289999
 50
270
 51
317.25875546131999
  0
ARC
  8
_0-3_躯体と製品
  6
CONTINUOUS
 62
    7
 10
270.69999999999999
 20
489.1808047481
 40
2.0214285714289999
 50
42.74124453868
 51
90
  0
ARC
  8
_0-3_躯体と製品
  6
CONTINUOUS
 62
    7
 10
272.76571957469997
 20
486.78175459609997
 40
0.4204787234042999
 50
345.90421075582998
 51
89.999999999999986
  0
ARC
  8
_0-3_躯体と製品
  6
CONTINUOUS
 62
    7
 10
281
 20
446.27628665060001
 40
0.2999999999999999
 50
85.252681745969994
 51
180
  0
LINE
  8
_0-3_躯体と製品
  6
CONTINUOUS
 62
    7
 10
280.69999999999999
 20
446.27628665060001
 11
280.69999999999999
 21
445.20223331950001
  0
ARC
  8
_0-3_躯体と製品
  6
CONTINUOUS
 62
    7
 10
280.69999999999999
 20
446.60223331949999
 40
1
 50
85.252681745969994
 51
180
  0
LINE
  8
_0-3_躯体と製品
  6
CONTINUOUS
 62
    7
 10
279.69999999999999
 20
446.60223331949999
 11
279.69999999999999
 21
444.9022333195
  0
ARC
  8
_0-3_躯体と製品
  6
CONTINUOUS
 62
    7
 10
280.69999999999999
 20
444.9022333195
 40
1
 50
180
 51
270
  0
LINE
  8
_0-3_躯体と製品
  6
CONTINUOUS
 62
    7
 10
269.5
 20
485.70223331950001
 11
270.69999999999999
 21
485.70223331950001
  0
LINE
  8
_0-3_躯体と製品
  6
CONTINUOUS
 62
    7
 10
269.5
 20
489.70223331950001
 11
270.69999999999999
 21
489.70223331950001
  0
LINE
  8
_0-3_躯体と製品
  6
CONTINUOUS
 62
    7
 10
280.69999999999999
 20
446.10223331949999
 11
280.69999999999999
 21
444.9022333195
  0
LINE
  8
_0-3_躯体と製品
  6
CONTINUOUS
 62
    7
 10
260.69999999999999
 20
492.9022333195
 11
260.69999999999999
 21
491.70223331950001
  0
LINE
  8
_0-3_躯体と製品
  6
CONTINUOUS
 62
    7
 10
260.69999999999999
 20
491.70223331950001
 11
268.5
 21
491.70223331950001
  0
ARC
  8
_0-3_躯体と製品
  6
CONTINUOUS
 62
    7
 10
271.69999999999999
 20
481.9022333195
 40
2.2000000000000002
 50
180
 51
270
  0
ARC
  8
_0-3_躯体と製品
  6
CONTINUOUS
 62
    7
 10
271.69999999999999
 20
481.9022333195
 40
1
 50
180
 51
270
  0
LINE
  8
_0-3_躯体と製品
  6
CONTINUOUS
 62
    7
 10
269.5
 20
481.9022333195
 11
269.5
 21
490.70223331950001
  0
ARC
  8
_0-3_躯体と製品
  6
CONTINUOUS
 62
    7
 10
268.5
 20
490.70223331950001
 40
2.2000000000000002
 50
0
 51
90
  0
LINE
  8
_0-3_躯体と製品
  6
CONTINUOUS
 62
    7
 10
268.5
 20
492.9022333195
 11
260.69999999999999
 21
492.9022333195
  0
ARC
  8
_0-3_躯体と製品
  6
CONTINUOUS
 62
    7
 10
268.5
 20
490.70223331950001
 40
1
 50
0
 51
90
  0
LINE
  8
_0-3_躯体と製品
  6
CONTINUOUS
 62
    7
 10
260.69999999999999
 20
492.88988931950001
 11
260.71234399999997
 21
492.9022333195
  0
LINE
  8
_0-3_躯体と製品
  6
CONTINUOUS
 62
    7
 10
269.5
 20
485.70223331950001
 11
266.5
 21
485.70223331950001
  0
LINE
  8
_0-3_躯体と製品
  6
CONTINUOUS
 62
    7
 10
269.5
 20
486.20223331950001
 11
261
 21
486.20223331950001
  0
LINE
  8
_0-3_躯体と製品
  6
CONTINUOUS
 62
    7
 10
269.5
 20
489.20223331950001
 11
261
 21
489.20223331950001
  0
LINE
  8
_0-3_躯体と製品
  6
CONTINUOUS
 62
    7
 10
269.5
 20
489.70223331950001
 11
266.5
 21
489.70223331950001
  0
LINE
  8
_0-3_躯体と製品
  6
CONTINUOUS
 62
    7
 10
261.5
 20
489.70223331950001
 11
261.5
 21
485.70223331950001
  0
LINE
  8
_0-3_躯体と製品
  6
CONTINUOUS
 62
    7
 10
261
 20
489.20223331950001
 11
261
 21
486.20223331950001
  0
LINE
  8
_0-3_躯体と製品
  6
CONTINUOUS
 62
    7
 10
261
 20
489.20223331950001
 11
261.5
 21
489.70223331950001
  0
LINE
  8
_0-3_躯体と製品
  6
CONTINUOUS
 62
    7
 10
261
 20
486.20223331950001
 11
261.5
 21
485.70223331950001
  0
LINE
  8
_0-3_躯体と製品
  6
CONTINUOUS
 62
    7
 10
268.20000018029998
 20
483.29189103200002
 11
268.41034246779998
 21
483.50223331950002
  0
LINE
  8
_0-3_躯体と製品
  6
CONTINUOUS
 62
    7
 10
268.20000139249998
 20
481.87767868179998
 11
269.000001
 21
482.67767828939998
  0
LINE
  8
_0-3_躯体と製品
  6
CONTINUOUS
 62
    7
 10
268.20000260469999
 20
480.46346633159999
 11
269.000001
 21
481.26346472699998
  0
LINE
  8
_0-3_躯体と製品
  6
CONTINUOUS
 62
    7
 10
268.42377904490002
 20
479.27302920950001
 11
269.01844272559998
 21
479.86769289019998
  0
LINE
  8
_0-3_躯体と製品
  6
CONTINUOUS
 62
    7
 10
269.2850875053
 20
478.7201241075
 11
270.06719771730002
 21
479.50223431950002
  0
LINE
  8
_0-3_躯体と製品
  6
CONTINUOUS
 62
    7
 10
270.6814102797
 20
478.70223331950001
 11
271.48141127970001
 21
479.50223431950002
  0
LINE
  8
_0-3_躯体と製品
  6
CONTINUOUS
 62
    7
 10
272.09562384200001
 20
478.70223331950001
 11
272.89562484200002
 21
479.50223431950002
  0
LINE
  8
_0-3_躯体と製品
  6
CONTINUOUS
 62
    7
 10
273.5098374044
 20
478.70223331950001
 11
274.30983840440001
 21
479.50223431950002
  0
LINE
  8
_0-3_躯体と製品
  6
CONTINUOUS
 62
    7
 10
274.9240509668
 20
478.70223331950001
 11
275.7240519668
 21
479.50223431950002
  0
LINE
  8
_0-3_躯体と製品
  6
CONTINUOUS
 62
    7
 10
276.33826452919999
 20
478.70223331950001
 11
277.1382655292
 21
479.50223431950002
  0
LINE
  8
_0-3_躯体と製品
  6
CONTINUOUS
 62
    7
 10
277.7524780915
 20
478.70223331950001
 11
278.5524790915
 21
479.50223431950002
  0
LINE
  8
_0-3_躯体と製品
  6
CONTINUOUS
 62
    7
 10
279.16669165389999
 20
478.70223331950001
 11
279.9666926539
 21
479.50223431950002
  0
LINE
  8
_0-3_躯体と製品
  6
CONTINUOUS
 62
    7
 10
280.58090521629998
 20
478.70223331950001
 11
281.38090621629999
 21
479.50223431950002
  0
LINE
  8
_0-3_躯体と製品
  6
CONTINUOUS
 62
    7
 10
268.19999999999999
 20
483.50223331950002
 11
268.20000299999998
 21
480.00223531950002
  0
LINE
  8
_0-3_躯体と製品
  6
CONTINUOUS
 62
    7
 10
268.19999999999999
 20
483.50223331950002
 11
269.000001
 21
483.50223331950002
  0
ARC
  8
_0-3_躯体と製品
  6
CONTINUOUS
 62
    7
 10
269.50000199999999
 20
480.00223531950002
 40
1.2999989999999999
 50
180
 51
270
  0
ARC
  8
_0-3_躯体と製品
  6
CONTINUOUS
 62
    7
 10
269.50000199999999
 20
480.00223531950002
 40
0.500001
 50
180
 51
270
  0
LINE
  8
_0-3_躯体と製品
  6
CONTINUOUS
 62
    7
 10
269.000001
 20
480.00223531950002
 11
269.000001
 21
483.50223331950002
  0
LINE
  8
_0-3_躯体と製品
  6
CONTINUOUS
 62
    7
 10
261
 20
437.70223331950001
 11
261
 21
455.70223331950001
  0
LINE
  8
_0-3_躯体と製品
  6
CONTINUOUS
 62
    7
 10
258.5
 20
457.70223331950001
 11
258.5
 21
456.20223331950001
  0
LINE
  8
_0-3_躯体と製品
  6
CONTINUOUS
 62
    7
 10
258.5
 20
418.20223331950001
 11
258.5
 21
416.70223331950001
  0
LINE
  8
_0-3_躯体と製品
  6
CONTINUOUS
 62
    7
 10
267.25
 20
410.20223331950001
 11
266
 21
410.20223331950001
  0
LINE
  8
_0-3_躯体と製品
  6
CONTINUOUS
 62
    7
 10
267.25
 20
406.20223331950001
 11
266
 21
406.20223331950001
  0
ARC
  8
_0-3_躯体と製品
  6
CONTINUOUS
 62
    7
 10
259
 20
416.20223331950001
 40
0.5
 50
0
 51
90
  0
LINE
  8
_0-3_躯体と製品
  6
CONTINUOUS
 62
    7
 10
259
 20
416.70223331950001
 11
258.5
 21
416.70223331950001
  0
LINE
  8
_0-3_躯体と製品
  6
CONTINUOUS
 62
    7
 10
267.25
 20
404.70223331950001
 11
258.5
 21
404.70223331950001
  0
LINE
  8
_0-3_躯体と製品
  6
CONTINUOUS
 62
    7
 10
258.5
 20
404.70223331950001
 11
258.5
 21
406.20223331950001
  0
LINE
  8
_0-3_躯体と製品
  6
CONTINUOUS
 62
    7
 10
259
 20
406.20223331950001
 11
258.5
 21
406.20223331950001
  0
ARC
  8
_0-3_躯体と製品
  6
CONTINUOUS
 62
    7
 10
259
 20
406.70223331950001
 40
0.5
 50
270
 51
0
  0
LINE
  8
_0-3_躯体と製品
  6
CONTINUOUS
 62
    7
 10
259.5
 20
406.70223331950001
 11
259.5
 21
416.20223331950001
  0
LINE
  8
_0-3_躯体と製品
  6
CONTINUOUS
 62
    7
 10
261
 20
406.70223331950001
 11
261
 21
409.70223331950001
  0
LINE
  8
_0-3_躯体と製品
  6
CONTINUOUS
 62
    7
 10
266
 20
406.20223331950001
 11
266
 21
405.70223331950001
  0
LINE
  8
_0-3_躯体と製品
  6
CONTINUOUS
 62
    7
 10
265
 20
406.20223331950001
 11
266
 21
405.70223331950001
  0
LINE
  8
_0-3_躯体と製品
  6
CONTINUOUS
 62
    7
 10
265
 20
406.20223331950001
 11
265
 21
405.70223331950001
  0
LINE
  8
_0-3_躯体と製品
  6
CONTINUOUS
 62
    7
 10
264
 20
406.20223331950001
 11
265
 21
405.70223331950001
  0
ARC
  8
_0-3_躯体と製品
  6
CONTINUOUS
 62
    7
 10
267.25
 20
405.45223331950001
 40
0.75
 50
270
 51
90
  0
LINE
  8
_0-3_躯体と製品
  6
CONTINUOUS
 62
    7
 10
261.5
 20
406.20223331950001
 11
264
 21
406.20223331950001
  0
ARC
  8
_0-3_躯体と製品
  6
CONTINUOUS
 62
    7
 10
261.5
 20
406.70223331950001
 40
0.5
 50
180
 51
270
  0
ARC
  8
_0-3_躯体と製品
  6
CONTINUOUS
 62
    7
 10
272.25
 20
417.45223331950001
 40
0.75
 50
270
 51
90
  0
LINE
  8
_0-3_躯体と製品
  6
CONTINUOUS
 62
    7
 10
261.5
 20
418.20223331950001
 11
272.25
 21
418.20223331950001
  0
ARC
  8
_0-3_躯体と製品
  6
CONTINUOUS
 62
    7
 10
261.5
 20
418.70223331950001
 40
0.5
 50
180
 51
270
  0
LINE
  8
_0-3_躯体と製品
  6
CONTINUOUS
 62
    7
 10
261
 20
418.70223331950001
 11
261
 21
436.70223331950001
  0
LINE
  8
_0-3_躯体と製品
  6
CONTINUOUS
 62
    7
 10
261.5
 20
416.70223331950001
 11
272.25
 21
416.70223331950001
  0
ARC
  8
_0-3_躯体と製品
  6
CONTINUOUS
 62
    7
 10
261.5
 20
416.20223331950001
 40
0.5
 50
90
 51
180
  0
LINE
  8
_0-3_躯体と製品
  6
CONTINUOUS
 62
    7
 10
261
 20
416.20223331950001
 11
261
 21
412.20223331950001
  0
LINE
  8
_0-3_躯体と製品
  6
CONTINUOUS
 62
    7
 10
271
 20
456.70223331950001
 11
271
 21
457.20223331950001
  0
ARC
  8
_0-3_躯体と製品
  6
CONTINUOUS
 62
    7
 10
270.5
 20
456.70223331950001
 40
0.5
 50
270
 51
0
  0
LINE
  8
_0-3_躯体と製品
  6
CONTINUOUS
 62
    7
 10
270.5
 20
456.20223331950001
 11
261.5
 21
456.20223331950001
  0
ARC
  8
_0-3_躯体と製品
  6
CONTINUOUS
 62
    7
 10
270.5
 20
457.20223331950001
 40
0.5
 50
0
 51
90
  0
ARC
  8
_0-3_躯体と製品
  6
CONTINUOUS
 62
    7
 10
261.5
 20
455.70223331950001
 40
0.5
 50
90
 51
180
  0
ARC
  8
_0-3_躯体と製品
  6
CONTINUOUS
 62
    7
 10
267.25
 20
410.95223331950001
 40
0.75
 50
270
 51
90
  0
LINE
  8
_0-3_躯体と製品
  6
CONTINUOUS
 62
    7
 10
266
 20
410.70223331950001
 11
266
 21
410.20223331950001
  0
LINE
  8
_0-3_躯体と製品
  6
CONTINUOUS
 62
    7
 10
265
 20
410.20223331950001
 11
266
 21
410.70223331950001
  0
LINE
  8
_0-3_躯体と製品
  6
CONTINUOUS
 62
    7
 10
265
 20
410.70223331950001
 11
265
 21
410.20223331950001
  0
LINE
  8
_0-3_躯体と製品
  6
CONTINUOUS
 62
    7
 10
264
 20
410.20223331950001
 11
265
 21
410.70223331950001
  0
LINE
  8
_0-3_躯体と製品
  6
CONTINUOUS
 62
    7
 10
261.5
 20
410.20223331950001
 11
264
 21
410.20223331950001
  0
ARC
  8
_0-3_躯体と製品
  6
CONTINUOUS
 62
    7
 10
261.5
 20
409.70223331950001
 40
0.5
 50
90
 51
180
  0
ARC
  8
_0-3_躯体と製品
  6
CONTINUOUS
 62
    7
 10
261.5
 20
412.20223331950001
 40
0.5
 50
180
 51
270
  0
LINE
  8
_0-3_躯体と製品
  6
CONTINUOUS
 62
    7
 10
261.5
 20
411.70223331950001
 11
267.25
 21
411.70223331950001
  0
LINE
  8
_0-3_躯体と製品
  6
CONTINUOUS
 62
    7
 10
261.5
 20
457.70223331950001
 11
270.5
 21
457.70223331950001
  0
ARC
  8
_0-3_躯体と製品
  6
CONTINUOUS
 62
    7
 10
261.5
 20
458.20223331950001
 40
0.5
 50
180
 51
270
  0
LINE
  8
_0-3_躯体と製品
  6
CONTINUOUS
 62
    7
 10
259
 20
418.20223331950001
 11
258.5
 21
418.20223331950001
  0
LINE
  8
_0-3_躯体と製品
  6
CONTINUOUS
 62
    7
 10
259
 20
432.20223331950001
 11
259
 21
418.20223331950001
  0
LINE
  8
_0-3_躯体と製品
  6
CONTINUOUS
 62
    7
 10
259
 20
456.20223331950001
 11
259
 21
442.20223331950001
  0
LINE
  8
_0-3_躯体と製品
  6
CONTINUOUS
 62
    7
 10
258.5
 20
456.20223331950001
 11
259
 21
456.20223331950001
  0
LINE
  8
_0-3_躯体と製品
  6
CONTINUOUS
 62
    7
 10
259
 20
457.70223331950001
 11
258.5
 21
457.70223331950001
  0
LINE
  8
_0-3_躯体と製品
  6
CONTINUOUS
 62
    7
 10
261
 20
458.20223331950001
 11
261
 21
468.70223331950001
  0
LINE
  8
_0-3_躯体と製品
  6
CONTINUOUS
 62
    7
 10
259
 20
469.20223331950001
 11
259
 21
457.70223331950001
  0
ARC
  8
_0-3_躯体と製品
  6
CONTINUOUS
 62
    7
 10
268.89999999999998
 20
490.30223331949998
 40
0.5999999999999999
 50
270
 51
90
  0
ARC
  8
_0-3_躯体と製品
  6
CONTINUOUS
 62
    7
 10
268.89999999999998
 20
485.10223331949999
 40
0.5999999999999999
 50
270
 51
90
  0
LINE
  8
_0-3_躯体と製品
  6
CONTINUOUS
 62
    7
 10
258.5
 20
470.70223331950001
 11
258.5
 21
469.20223331950001
  0
LINE
  8
_0-3_躯体と製品
  6
CONTINUOUS
 62
    7
 10
267.5
 20
490.9022333195
 11
268.89999999999998
 21
490.9022333195
  0
LINE
  8
_0-3_躯体と製品
  6
CONTINUOUS
 62
    7
 10
268.19999999999999
 20
479.00223331950002
 11
268.19999999999999
 21
484.50223331950002
  0
LINE
  8
_0-3_躯体と製品
  6
CONTINUOUS
 62
    7
 10
268.19999999999999
 20
484.50223331950002
 11
268.89999999999998
 21
484.50223331950002
  0
LINE
  8
_0-3_躯体と製品
  6
CONTINUOUS
 62
    7
 10
267.5
 20
491.70223331950001
 11
267.5
 21
490.9022333195
  0
LINE
  8
_0-3_躯体と製品
  6
CONTINUOUS
 62
    7
 10
258.5
 20
491.20223331950001
 11
258.5
 21
483.70223331950001
  0
ARC
  8
_0-3_躯体と製品
  6
CONTINUOUS
 62
    7
 10
259
 20
491.20223331950001
 40
0.5
 50
90
 51
180
  0
LINE
  8
_0-3_躯体と製品
  6
CONTINUOUS
 62
    7
 10
259
 20
491.70223331950001
 11
267.5
 21
491.70223331950001
  0
LINE
  8
_0-3_躯体と製品
  6
CONTINUOUS
 62
    7
 10
262
 20
486.20223331950001
 11
261.5
 21
485.70223331950001
  0
LINE
  8
_0-3_躯体と製品
  6
CONTINUOUS
 62
    7
 10
262.5
 20
485.70223331950001
 11
262
 21
486.20223331950001
  0
LINE
  8
_0-3_躯体と製品
  6
CONTINUOUS
 62
    7
 10
263
 20
486.20223331950001
 11
262.5
 21
485.70223331950001
  0
LINE
  8
_0-3_躯体と製品
  6
CONTINUOUS
 62
    7
 10
263.5
 20
485.70223331950001
 11
263
 21
486.20223331950001
  0
LINE
  8
_0-3_躯体と製品
  6
CONTINUOUS
 62
    7
 10
264
 20
486.20223331950001
 11
263.5
 21
485.70223331950001
  0
LINE
  8
_0-3_躯体と製品
  6
CONTINUOUS
 62
    7
 10
264.5
 20
485.70223331950001
 11
264
 21
486.20223331950001
  0
LINE
  8
_0-3_躯体と製品
  6
CONTINUOUS
 62
    7
 10
265
 20
486.20223331950001
 11
264.5
 21
485.70223331950001
  0
LINE
  8
_0-3_躯体と製品
  6
CONTINUOUS
 62
    7
 10
265.5
 20
485.70223331950001
 11
265
 21
486.20223331950001
  0
LINE
  8
_0-3_躯体と製品
  6
CONTINUOUS
 62
    7
 10
266
 20
486.20223331950001
 11
265.5
 21
485.70223331950001
  0
LINE
  8
_0-3_躯体と製品
  6
CONTINUOUS
 62
    7
 10
266.5
 20
485.70223331950001
 11
266
 21
486.20223331950001
  0
LINE
  8
_0-3_躯体と製品
  6
CONTINUOUS
 62
    7
 10
262
 20
489.20223331950001
 11
261.5
 21
489.70223331950001
  0
LINE
  8
_0-3_躯体と製品
  6
CONTINUOUS
 62
    7
 10
262.5
 20
489.70223331950001
 11
262
 21
489.20223331950001
  0
LINE
  8
_0-3_躯体と製品
  6
CONTINUOUS
 62
    7
 10
263
 20
489.20223331950001
 11
262.5
 21
489.70223331950001
  0
LINE
  8
_0-3_躯体と製品
  6
CONTINUOUS
 62
    7
 10
263.5
 20
489.70223331950001
 11
263
 21
489.20223331950001
  0
LINE
  8
_0-3_躯体と製品
  6
CONTINUOUS
 62
    7
 10
264
 20
489.20223331950001
 11
263.5
 21
489.70223331950001
  0
LINE
  8
_0-3_躯体と製品
  6
CONTINUOUS
 62
    7
 10
264.5
 20
489.70223331950001
 11
264
 21
489.20223331950001
  0
LINE
  8
_0-3_躯体と製品
  6
CONTINUOUS
 62
    7
 10
265
 20
489.20223331950001
 11
264.5
 21
489.70223331950001
  0
LINE
  8
_0-3_躯体と製品
  6
CONTINUOUS
 62
    7
 10
265.5
 20
489.70223331950001
 11
265
 21
489.20223331950001
  0
LINE
  8
_0-3_躯体と製品
  6
CONTINUOUS
 62
    7
 10
266
 20
489.20223331950001
 11
265.5
 21
489.70223331950001
  0
LINE
  8
_0-3_躯体と製品
  6
CONTINUOUS
 62
    7
 10
266.5
 20
489.70223331950001
 11
266
 21
489.20223331950001
  0
LINE
  8
_0-3_躯体と製品
  6
CONTINUOUS
 62
    7
 10
266.5
 20
485.70223331950001
 11
269
 21
485.70223331950001
  0
LINE
  8
_0-3_躯体と製品
  6
CONTINUOUS
 62
    7
 10
266.5
 20
489.70223331950001
 11
269
 21
489.70223331950001
  0
ARC
  8
_0-3_躯体と製品
  6
CONTINUOUS
 62
    7
 10
260.30000000000001
 20
489.4022333195
 40
0.2999999999999999
 50
90
 51
180
  0
LINE
  8
_0-3_躯体と製品
  6
CONTINUOUS
 62
    7
 10
260.30000000000001
 20
489.70223331950001
 11
261.5
 21
489.70223331950001
  0
LINE
  8
_0-3_躯体と製品
  6
CONTINUOUS
 62
    7
 10
260.30000000000001
 20
485.70223331950001
 11
261.5
 21
485.70223331950001
  0
ARC
  8
_0-3_躯体と製品
  6
CONTINUOUS
 62
    7
 10
260.30000000000001
 20
486.00223331950002
 40
0.2999999999999999
 50
180
 51
270
  0
LINE
  8
_0-3_躯体と製品
  6
CONTINUOUS
 62
    7
 10
260
 20
486.00223331950002
 11
260
 21
489.4022333195
  0
ARC
  8
_0-3_躯体と製品
  6
CONTINUOUS
 62
    7
 10
264.60000000000002
 20
463.80223331949998
 40
0.5999999999999999
 50
90
 51
270
  0
ARC
  8
_0-3_躯体と製品
  6
CONTINUOUS
 62
    7
 10
265.5
 20
464.9022333195
 40
0.5
 50
270
 51
0
  0
LINE
  8
_0-3_躯体と製品
  6
CONTINUOUS
 62
    7
 10
265.5
 20
464.4022333195
 11
264.60000000000002
 21
464.4022333195
  0
LINE
  8
_0-3_躯体と製品
  6
CONTINUOUS
 62
    7
 10
265.5
 20
469.20223331950001
 11
261.5
 21
469.20223331950001
  0
ARC
  8
_0-3_躯体と製品
  6
CONTINUOUS
 62
    7
 10
265.5
 20
468.70223331950001
 40
0.5
 50
0
 51
90
  0
LINE
  8
_0-3_躯体と製品
  6
CONTINUOUS
 62
    7
 10
266
 20
468.70223331950001
 11
266
 21
464.9022333195
  0
LINE
  8
_0-3_躯体と製品
  6
CONTINUOUS
 62
    7
 10
266.5
 20
463.20223331950001
 11
264.60000000000002
 21
463.20223331950001
  0
ARC
  8
_0-3_躯体と製品
  6
CONTINUOUS
 62
    7
 10
266.5
 20
464.20223331950001
 40
1
 50
270
 51
0
  0
LINE
  8
_0-3_躯体と製品
  6
CONTINUOUS
 62
    7
 10
267.5
 20
464.20223331950001
 11
267.5
 21
470.20223331950001
  0
ARC
  8
_0-3_躯体と製品
  6
CONTINUOUS
 62
    7
 10
267
 20
470.20223331950001
 40
0.5
 50
0
 51
90
  0
LINE
  8
_0-3_躯体と製品
  6
CONTINUOUS
 62
    7
 10
267
 20
470.70223331950001
 11
261.5
 21
470.70223331950001
  0
ARC
  8
_0-3_躯体と製品
  6
CONTINUOUS
 62
    7
 10
261.5
 20
471.20223331950001
 40
0.5
 50
180
 51
270
  0
ARC
  8
_0-3_躯体と製品
  6
CONTINUOUS
 62
    7
 10
261.5
 20
468.70223331950001
 40
0.5
 50
90
 51
180
  0
ARC
  8
_0-3_躯体と製品
  6
CONTINUOUS
 62
    7
 10
273.10000000000002
 20
478.10223331949999
 40
0.5999999999999999
 50
270
 51
90
  0
LINE
  8
_0-3_躯体と製品
  6
CONTINUOUS
 62
    7
 10
261
 20
483.20223331950001
 11
261
 21
471.20223331950001
  0
ARC
  8
_0-3_躯体と製品
  6
CONTINUOUS
 62
    7
 10
261.5
 20
483.20223331950001
 40
0.5
 50
90
 51
180
  0
LINE
  8
_0-3_躯体と製品
  6
CONTINUOUS
 62
    7
 10
266.5
 20
483.70223331950001
 11
261.5
 21
483.70223331950001
  0
ARC
  8
_0-3_躯体と製品
  6
CONTINUOUS
 62
    7
 10
266.5
 20
483.20223331950001
 40
0.5
 50
0
 51
90
  0
LINE
  8
_0-3_躯体と製品
  6
CONTINUOUS
 62
    7
 10
268
 20
477.50223331950002
 11
273.10000000000002
 21
477.50223331950002
  0
ARC
  8
_0-3_躯体と製品
  6
CONTINUOUS
 62
    7
 10
268
 20
478.50223331950002
 40
1
 50
180
 51
270
  0
LINE
  8
_0-3_躯体と製品
  6
CONTINUOUS
 62
    7
 10
267
 20
478.50223331950002
 11
267
 21
483.20223331950001
  0
LINE
  8
_0-3_躯体と製品
  6
CONTINUOUS
 62
    7
 10
268.5
 20
478.70223331950001
 11
273.10000000000002
 21
478.70223331950001
  0
ARC
  8
_0-3_躯体と製品
  6
CONTINUOUS
 62
    7
 10
268.5
 20
479.00223331950002
 40
0.2999999999999999
 50
180
 51
270
  0
LINE
  8
_0-3_躯体と製品
  6
CONTINUOUS
 62
    7
 10
258.5
 20
469.20223331950001
 11
259
 21
469.20223331950001
  0
LINE
  8
_0-3_躯体と製品
  6
CONTINUOUS
 62
    7
 10
259
 20
470.70223331950001
 11
258.5
 21
470.70223331950001
  0
LINE
  8
_0-3_躯体と製品
  6
CONTINUOUS
 62
    7
 10
259
 20
483.70223331950001
 11
259
 21
470.70223331950001
  0
LINE
  8
_0-3_躯体と製品
  6
CONTINUOUS
 62
    7
 10
258.5
 20
483.70223331950001
 11
259
 21
483.70223331950001
  0
LINE
  8
_0-3_躯体と製品
  6
CONTINUOUS
 62
    7
 10
258.5
 20
442.20223331950001
 11
258.5
 21
432.20223331950001
  0
LINE
  8
_0-3_躯体と製品
  6
CONTINUOUS
 62
    7
 10
261
 20
436.70223331950001
 11
260.5
 21
437.20223331950001
  0
LINE
  8
_0-3_躯体と製品
  6
CONTINUOUS
 62
    7
 10
261
 20
437.70223331950001
 11
260.5
 21
437.20223331950001
  0
LINE
  8
_0-3_躯体と製品
  6
CONTINUOUS
 62
    7
 10
258.5
 20
432.20223331950001
 11
259
 21
432.20223331950001
  0
LINE
  8
_0-3_躯体と製品
  6
CONTINUOUS
 62
    7
 10
258.5
 20
442.20223331950001
 11
259
 21
442.20223331950001
  0
LINE
  8
_0-3_躯体と製品
  6
CONTINUOUS
 62
    7
 10
243.585354
 20
434.94260631949999
 11
244.5
 21
433.20223131950002
  0
LINE
  8
_0-3_躯体と製品
  6
CONTINUOUS
 62
    7
 10
244.5
 20
433.20223131950002
 11
256.5
 21
433.20223131950002
  0
LINE
  8
_0-3_躯体と製品
  6
CONTINUOUS
 62
    7
 10
236.69961900000001
 20
440.76128931950001
 11
241.69962000000001
 21
442.58114031949998
  0
LINE
  8
_0-3_躯体と製品
  6
CONTINUOUS
 62
    7
 10
236.69961900000001
 20
441.82546731949998
 11
241.35759899999999
 21
443.52083331950001
  0
LINE
  8
_0-3_躯体と製品
  6
CONTINUOUS
 62
    7
 10
236.69961900000001
 20
433.64317431950002
 11
241.69962000000001
 21
431.82332331949999
  0
LINE
  8
_0-3_躯体と製品
  6
CONTINUOUS
 62
    7
 10
241.35759899999999
 20
430.88363031950001
 11
248.16122100000001
 21
429.89127531949998
  0
ARC
  8
_0-3_躯体と製品
  6
CONTINUOUS
 62
    7
 10
248.218953
 20
430.28708631950002
 40
0.3999989999999999
 50
261.70153399999998
 51
351.86989799999498
  0
LINE
  8
_0-3_躯体と製品
  6
CONTINUOUS
 62
    7
 10
248.614935
 20
430.23051831949999
 11
248.64305100000001
 21
430.42734531949998
  0
ARC
  8
_0-3_躯体と製品
  6
CONTINUOUS
 62
    7
 10
248.247072
 20
430.4839133195
 40
0.3999989999999999
 50
351.86989799999498
 51
81.869898000000006
  0
LINE
  8
_0-3_躯体と製品
  6
CONTINUOUS
 62
    7
 10
248.30364
 20
430.87989231950002
 11
241.69962000000001
 21
431.82332331949999
  0
LINE
  8
_0-3_躯体と製品
  6
CONTINUOUS
 62
    7
 10
241.35759899999999
 20
443.52083331950001
 11
248.16122100000001
 21
444.51318831949999
  0
ARC
  8
_0-3_躯体と製品
  6
CONTINUOUS
 62
    7
 10
248.218953
 20
444.11737731950001
 40
0.3999989999999999
 50
8.1301020000049995
 51
98.298466000000005
  0
LINE
  8
_0-3_躯体と製品
  6
CONTINUOUS
 62
    7
 10
248.614935
 20
444.17394531949998
 11
248.64305100000001
 21
443.97712131949999
  0
ARC
  8
_0-3_躯体と製品
  6
CONTINUOUS
 62
    7
 10
248.247072
 20
443.92055031950002
 40
0.3999989999999999
 50
278.13010199999997
 51
8.1301020000049871
  0
LINE
  8
_0-3_躯体と製品
  6
CONTINUOUS
 62
    7
 10
244.5
 20
441.20223231950001
 11
243.585354
 21
439.46185731949998
  0
LINE
  8
_0-3_躯体と製品
  6
CONTINUOUS
 62
    7
 10
256.5
 20
442.20223131950002
 11
251.499999
 21
441.20223231950001
  0
LINE
  8
_0-3_躯体と製品
  6
CONTINUOUS
 62
    7
 10
256.5
 20
438.20223231950001
 11
251.499999
 21
437.20223331950001
  0
LINE
  8
_0-3_躯体と製品
  6
CONTINUOUS
 62
    7
 10
256.5
 20
436.20223131950002
 11
251.499999
 21
437.20223331950001
  0
LINE
  8
_0-3_躯体と製品
  6
CONTINUOUS
 62
    7
 10
251.499999
 20
437.20223331950001
 11
256.5
 21
437.20223331950001
  0
LINE
  8
_0-3_躯体と製品
  6
CONTINUOUS
 62
    7
 10
222.36944399999999
 20
439.0716773195
 11
220.5
 21
437.20223331950001
  0
LINE
  8
_0-3_躯体と製品
  6
CONTINUOUS
 62
    7
 10
243.585354
 20
439.46185731949998
 11
241.58809500000001
 21
439.56652731949998
  0
LINE
  8
_0-3_躯体と製品
  6
CONTINUOUS
 62
    7
 10
241.58809500000001
 20
439.56652731949998
 11
241.692768
 21
441.56378631950003
  0
LINE
  8
_0-3_躯体と製品
  6
CONTINUOUS
 62
    7
 10
241.692768
 20
441.56378631950003
 11
239.69550899999999
 21
441.66845931950002
  0
LINE
  8
_0-3_躯体と製品
  6
CONTINUOUS
 62
    7
 10
219.53974199999999
 20
439.21997331950001
 11
219.72291899999999
 21
442.71517731950001
  0
LINE
  8
_0-3_躯体と製品
  6
CONTINUOUS
 62
    7
 10
219.72291899999999
 20
442.71517731950001
 11
217.62098700000001
 21
440.82259131950002
  0
LINE
  8
_0-3_躯体と製品
  6
CONTINUOUS
 62
    7
 10
217.62098700000001
 20
440.82259131950002
 11
217.542483
 21
439.3246463195
  0
LINE
  8
_0-3_躯体と製品
  6
CONTINUOUS
 62
    7
 10
217.542483
 20
439.3246463195
 11
248.499999
 21
437.70223131950002
  0
LINE
  8
_0-3_躯体と製品
  6
CONTINUOUS
 62
    7
 10
239.69550899999999
 20
441.66845931950002
 11
238.592208
 21
439.7235353195
  0
LINE
  8
_0-3_躯体と製品
  6
CONTINUOUS
 62
    7
 10
238.592208
 20
439.7235353195
 11
236.59494900000001
 21
439.82820831949999
  0
LINE
  8
_0-3_躯体と製品
  6
CONTINUOUS
 62
    7
 10
236.59494900000001
 20
439.82820831949999
 11
236.69961900000001
 21
441.82546731949998
  0
LINE
  8
_0-3_躯体と製品
  6
CONTINUOUS
 62
    7
 10
236.69961900000001
 20
441.82546731949998
 11
234.70236
 21
441.93013731949998
  0
LINE
  8
_0-3_躯体と製品
  6
CONTINUOUS
 62
    7
 10
234.70236
 20
441.93013731949998
 11
233.59905900000001
 21
439.98521631950001
  0
LINE
  8
_0-3_躯体と製品
  6
CONTINUOUS
 62
    7
 10
233.59905900000001
 20
439.98521631950001
 11
231.6018
 21
440.08988631950001
  0
LINE
  8
_0-3_躯体と製品
  6
CONTINUOUS
 62
    7
 10
231.6018
 20
440.08988631950001
 11
231.70647299999999
 21
442.0871453195
  0
LINE
  8
_0-3_躯体と製品
  6
CONTINUOUS
 62
    7
 10
231.70647299999999
 20
442.0871453195
 11
229.709214
 21
442.19181831949999
  0
LINE
  8
_0-3_躯体と製品
  6
CONTINUOUS
 62
    7
 10
229.709214
 20
442.19181831949999
 11
228.60591299999999
 21
440.24689431949997
  0
LINE
  8
_0-3_躯体と製品
  6
CONTINUOUS
 62
    7
 10
228.60591299999999
 20
440.24689431949997
 11
226.608654
 21
440.35156731950002
  0
LINE
  8
_0-3_躯体と製品
  6
CONTINUOUS
 62
    7
 10
226.608654
 20
440.35156731950002
 11
226.713324
 21
442.34882631950001
  0
LINE
  8
_0-3_躯体と製品
  6
CONTINUOUS
 62
    7
 10
226.713324
 20
442.34882631950001
 11
224.71606499999999
 21
442.4534993195
  0
LINE
  8
_0-3_躯体と製品
  6
CONTINUOUS
 62
    7
 10
224.71606499999999
 20
442.4534993195
 11
223.612764
 21
440.50857531949998
  0
LINE
  8
_0-3_躯体と製品
  6
CONTINUOUS
 62
    7
 10
223.612764
 20
440.50857531949998
 11
221.61550500000001
 21
440.61324831949997
  0
LINE
  8
_0-3_躯体と製品
  6
CONTINUOUS
 62
    7
 10
221.61550500000001
 20
440.61324831949997
 11
221.720178
 21
442.61050731950002
  0
LINE
  8
_0-3_躯体と製品
  6
CONTINUOUS
 62
    7
 10
221.720178
 20
442.61050731950002
 11
219.72291899999999
 21
442.71517731950001
  0
LINE
  8
_0-3_躯体と製品
  6
CONTINUOUS
 62
    7
 10
248.499999
 20
436.70223231950001
 11
248.499999
 21
437.70223131950002
  0
LINE
  8
_0-3_躯体と製品
  6
CONTINUOUS
 62
    7
 10
256.5
 20
432.20223231950001
 11
251.499999
 21
433.20223131950002
  0
LINE
  8
_0-3_躯体と製品
  6
CONTINUOUS
 62
    7
 10
243.585354
 20
434.94260631949999
 11
241.58809500000001
 21
434.83793631949999
  0
LINE
  8
_0-3_躯体と製品
  6
CONTINUOUS
 62
    7
 10
241.58809500000001
 20
434.83793631949999
 11
241.692768
 21
432.8406773195
  0
LINE
  8
_0-3_躯体と製品
  6
CONTINUOUS
 62
    7
 10
241.692768
 20
432.8406773195
 11
239.69550899999999
 21
432.73600431950001
  0
LINE
  8
_0-3_躯体と製品
  6
CONTINUOUS
 62
    7
 10
219.53974199999999
 20
435.18449031950001
 11
219.72291899999999
 21
431.68928631950001
  0
LINE
  8
_0-3_躯体と製品
  6
CONTINUOUS
 62
    7
 10
219.72291899999999
 20
431.68928631950001
 11
217.62098700000001
 21
433.58187231950001
  0
LINE
  8
_0-3_躯体と製品
  6
CONTINUOUS
 62
    7
 10
217.62098700000001
 20
433.58187231950001
 11
217.542483
 21
435.07981731950002
  0
LINE
  8
_0-3_躯体と製品
  6
CONTINUOUS
 62
    7
 10
217.542483
 20
435.07981731950002
 11
248.499999
 21
436.70223231950001
  0
LINE
  8
_0-3_躯体と製品
  6
CONTINUOUS
 62
    7
 10
239.69550899999999
 20
432.73600431950001
 11
238.592208
 21
434.68092831950003
  0
LINE
  8
_0-3_躯体と製品
  6
CONTINUOUS
 62
    7
 10
238.592208
 20
434.68092831950003
 11
236.59494900000001
 21
434.57625531949998
  0
LINE
  8
_0-3_躯体と製品
  6
CONTINUOUS
 62
    7
 10
236.59494900000001
 20
434.57625531949998
 11
236.69961900000001
 21
432.57899631949999
  0
LINE
  8
_0-3_躯体と製品
  6
CONTINUOUS
 62
    7
 10
236.69961900000001
 20
432.57899631949999
 11
234.70236
 21
432.47432631949999
  0
LINE
  8
_0-3_躯体と製品
  6
CONTINUOUS
 62
    7
 10
234.70236
 20
432.47432631949999
 11
233.59905900000001
 21
434.41924731950002
  0
LINE
  8
_0-3_躯体と製品
  6
CONTINUOUS
 62
    7
 10
233.59905900000001
 20
434.41924731950002
 11
231.6018
 21
434.31457731950002
  0
LINE
  8
_0-3_躯体と製品
  6
CONTINUOUS
 62
    7
 10
231.6018
 20
434.31457731950002
 11
231.70647299999999
 21
432.31731831949998
  0
LINE
  8
_0-3_躯体と製品
  6
CONTINUOUS
 62
    7
 10
231.70647299999999
 20
432.31731831949998
 11
229.709214
 21
432.21264531949998
  0
LINE
  8
_0-3_躯体と製品
  6
CONTINUOUS
 62
    7
 10
229.709214
 20
432.21264531949998
 11
228.60591299999999
 21
434.1575693195
  0
LINE
  8
_0-3_躯体と製品
  6
CONTINUOUS
 62
    7
 10
228.60591299999999
 20
434.1575693195
 11
226.608654
 21
434.05289631950001
  0
LINE
  8
_0-3_躯体と製品
  6
CONTINUOUS
 62
    7
 10
226.608654
 20
434.05289631950001
 11
226.713324
 21
432.05563731950002
  0
LINE
  8
_0-3_躯体と製品
  6
CONTINUOUS
 62
    7
 10
226.713324
 20
432.05563731950002
 11
224.71606499999999
 21
431.95096431949997
  0
LINE
  8
_0-3_躯体と製品
  6
CONTINUOUS
 62
    7
 10
224.71606499999999
 20
431.95096431949997
 11
223.612764
 21
433.89588831949999
  0
LINE
  8
_0-3_躯体と製品
  6
CONTINUOUS
 62
    7
 10
223.612764
 20
433.89588831949999
 11
221.61550500000001
 21
433.7912153195
  0
LINE
  8
_0-3_躯体と製品
  6
CONTINUOUS
 62
    7
 10
221.61550500000001
 20
433.7912153195
 11
221.720178
 21
431.79395631950001
  0
LINE
  8
_0-3_躯体と製品
  6
CONTINUOUS
 62
    7
 10
221.720178
 20
431.79395631950001
 11
219.72291899999999
 21
431.68928631950001
  0
LINE
  8
_0-3_躯体と製品
  6
CONTINUOUS
 62
    7
 10
222.36944399999999
 20
435.33278631949997
 11
220.5
 21
437.20223331950001
  0
LINE
  8
_0-3_躯体と製品
  6
CONTINUOUS
 62
    7
 10
248.30364
 20
443.52457131950001
 11
241.69962000000001
 21
442.58114031949998
  0
LINE
  8
_0-3_躯体と製品
  6
CONTINUOUS
 62
    7
 10
236.69961900000001
 20
432.57899631949999
 11
241.35759899999999
 21
430.88363031950001
  0
LINE
  8
_0-3_躯体と製品
  6
CONTINUOUS
 62
    7
 10
244.5
 20
441.20223231950001
 11
256.5
 21
441.20223231950001
  0
LINE
  8
_0-3_躯体と製品
  6
CONTINUOUS
 62
    7
 10
271
 20
452.82355354309999
 11
272.5
 21
452.82355354309999
  0
LINE
  8
_0-3_躯体と製品
  6
CONTINUOUS
 62
    7
 10
271
 20
441.77251810979999
 11
271
 21
452.82355354309999
  0
LINE
  8
_0-3_躯体と製品
  6
CONTINUOUS
 62
    7
 10
272.5
 20
441.77251810979999
 11
272.5
 21
452.82355354309999
  0
ARC
  8
_0-3_躯体と製品
  6
CONTINUOUS
 62
    7
 10
273.5
 20
441.77251810979999
 40
1
 50
180
 51
267
  0
ARC
  8
_0-3_躯体と製品
  6
CONTINUOUS
 62
    7
 10
273.5
 20
441.77251810979999
 40
2.5
 50
180
 51
267
  0
LINE
  8
_0-3_躯体と製品
  6
CONTINUOUS
 62
    7
 10
263.5
 20
421.70223331950001
 11
263.5
 21
419.45223331950001
  0
ARC
  8
_0-3_躯体と製品
  6
CONTINUOUS
 62
    7
 10
264.5
 20
421.70223331950001
 40
1
 50
90
 51
180
  0
ARC
  8
_0-3_躯体と製品
  6
CONTINUOUS
 62
    7
 10
264.25
 20
419.45223331950001
 40
0.75
 50
180
 51
0
  0
LINE
  8
_0-3_躯体と製品
  6
CONTINUOUS
 62
    7
 10
265
 20
420.70223331950001
 11
265
 21
419.45223331950001
  0
ARC
  8
_0-3_躯体と製品
  6
CONTINUOUS
 62
    7
 10
265.5
 20
420.70223331950001
 40
0.5
 50
90
 51
180
  0
ARC
  8
_0-3_躯体と製品
  6
CONTINUOUS
 62
    7
 10
268
 20
453.20223331950001
 40
1.5
 50
90
 51
180
  0
LINE
  8
_0-3_躯体と製品
  6
CONTINUOUS
 62
    7
 10
266.5
 20
423.20223331950001
 11
266.5
 21
453.20223331950001
  0
ARC
  8
_0-3_躯体と製品
  6
CONTINUOUS
 62
    7
 10
266
 20
423.20223331950001
 40
0.5
 50
270
 51
0
  0
LINE
  8
_0-3_躯体と製品
  6
CONTINUOUS
 62
    7
 10
266
 20
422.70223331950001
 11
264.5
 21
422.70223331950001
  0
LINE
  8
_0-3_躯体と製品
  6
CONTINUOUS
 62
    7
 10
268.5
 20
424.70223331950001
 11
268.5
 21
452.70223331950001
  0
ARC
  8
_0-3_躯体と製品
  6
CONTINUOUS
 62
    7
 10
269
 20
452.70223331950001
 40
0.5
 50
90
 51
180
  0
ARC
  8
_0-3_躯体と製品
  6
CONTINUOUS
 62
    7
 10
269.5
 20
424.70223331950001
 40
1
 50
180
 51
270
  0
ARC
  8
_0-3_躯体と製品
  6
CONTINUOUS
 62
    7
 10
273
 20
459.20223331950001
 40
0.5
 50
0
 51
90
  0
LINE
  8
_0-3_躯体と製品
  6
CONTINUOUS
 62
    7
 10
273.5
 20
455.70223331950001
 11
273.5
 21
459.20223331950001
  0
ARC
  8
_0-3_躯体と製品
  6
CONTINUOUS
 62
    7
 10
274
 20
460.20223331950001
 40
1
 50
0
 51
90
  0
ARC
  8
_0-3_躯体と製品
  6
CONTINUOUS
 62
    7
 10
273.5
 20
447.20223331950001
 40
1
 50
90
 51
270
  0
ARC
  8
_0-3_躯体と製品
  6
CONTINUOUS
 62
    7
 10
273
 20
452.70223331950001
 40
0.5
 50
0
 51
90
  0
LINE
  8
_0-3_躯体と製品
  6
CONTINUOUS
 62
    7
 10
273.5
 20
452.70223331950001
 11
273.5
 21
448.20223331950001
  0
ARC
  8
_0-3_躯体と製品
  6
CONTINUOUS
 62
    7
 10
274.5
 20
446.70223331950001
 40
0.5
 50
270
 51
0
  0
LINE
  8
_0-3_躯体と製品
  6
CONTINUOUS
 62
    7
 10
274.5
 20
446.20223331950001
 11
273.5
 21
446.20223331950001
  0
ARC
  8
_0-3_躯体と製品
  6
CONTINUOUS
 62
    7
 10
276
 20
420.20223331950001
 40
1
 50
0
 51
90
  0
ARC
  8
_0-3_躯体と製品
  6
CONTINUOUS
 62
    7
 10
277.5
 20
421.70223331950001
 40
2
 50
0
 51
90
  0
LINE
  8
_0-3_躯体と製品
  6
CONTINUOUS
 62
    7
 10
269
 20
453.20223331950001
 11
273
 21
453.20223331950001
  0
LINE
  8
_0-3_躯体と製品
  6
CONTINUOUS
 62
    7
 10
277.5
 20
423.70223331950001
 11
269.5
 21
423.70223331950001
  0
LINE
  8
_0-3_躯体と製品
  6
CONTINUOUS
 62
    7
 10
272.5
 20
454.70223331950001
 11
268
 21
454.70223331950001
  0
LINE
  8
_0-3_躯体と製品
  6
CONTINUOUS
 62
    7
 10
276
 20
421.20223331950001
 11
265.5
 21
421.20223331950001
  0
ARC
  8
_0-3_躯体と製品
  6
CONTINUOUS
 62
    7
 10
272.5
 20
455.70223331950001
 40
1
 50
270
 51
0
  0
LINE
  8
_0-3_躯体と製品
  6
CONTINUOUS
 62
    7
 10
275
 20
446.70223331950001
 11
275
 21
460.20223331950001
  0
ARC
  8
_0-3_躯体と製品
  6
CONTINUOUS
 62
    7
 10
266.39999999999998
 20
458.30223331949998
 40
0.5999999999999999
 50
180
 51
0
  0
ARC
  8
_0-3_躯体と製品
  6
CONTINUOUS
 62
    7
 10
262.14999999999998
 20
466.45223331950001
 40
0.75
 50
0
 51
180
  0
LINE
  8
_0-3_躯体と製品
  6
CONTINUOUS
 62
    7
 10
262.89999999999998
 20
466.45223331950001
 11
262.89999999999998
 21
463.20223331950001
  0
LINE
  8
_0-3_躯体と製品
  6
CONTINUOUS
 62
    7
 10
262.89999999999998
 20
463.20223331950001
 11
266.39999999999998
 21
461.20223331950001
  0
LINE
  8
_0-3_躯体と製品
  6
CONTINUOUS
 62
    7
 10
267
 20
459.20223331950001
 11
267
 21
458.30223331949998
  0
ARC
  8
_0-3_躯体と製品
  6
CONTINUOUS
 62
    7
 10
267.5
 20
459.20223331950001
 40
0.5
 50
90
 51
180
  0
LINE
  8
_0-3_躯体と製品
  6
CONTINUOUS
 62
    7
 10
274
 20
461.20223331950001
 11
266.39999999999998
 21
461.20223331950001
  0
LINE
  8
_0-3_躯体と製品
  6
CONTINUOUS
 62
    7
 10
267.5
 20
459.70223331950001
 11
273
 21
459.70223331950001
  0
LINE
  8
_0-3_躯体と製品
  6
CONTINUOUS
 62
    7
 10
279.5
 20
414.6511978863
 11
279.5
 21
421.70223331950001
  0
ARC
  8
_0-3_躯体と製品
  6
CONTINUOUS
 62
    7
 10
280.5
 20
414.6511978863
 40
1
 50
180
 51
267
  0
LINE
  8
_0-3_躯体と製品
  6
CONTINUOUS
 62
    7
 10
277
 20
412.72706486319998
 11
277
 21
420.20223331950001
  0
ARC
  8
_0-3_躯体と製品
  6
CONTINUOUS
 62
    7
 10
279
 20
412.72706486319998
 40
2
 50
180
 51
267
  0
LINE
  8
_0-3_躯体と製品
  6
CONTINUOUS
 62
    7
 10
261.39999999999998
 20
463.20223331950001
 11
261.39999999999998
 21
466.45223331950001
  0
ARC
  8
_0-3_躯体と製品
  6
CONTINUOUS
 62
    7
 10
262.89999999999998
 20
463.20223331950001
 40
1.5
 50
180
 51
240.25511870310004
  0
LINE
  8
_0-3_躯体と製品
  6
CONTINUOUS
 62
    7
 10
262.15579159250001
 20
461.89986860639999
 11
265.80000000000001
 21
459.81746380200002
  0
LINE
  8
_0-3_躯体と製品
  6
CONTINUOUS
 62
    7
 10
265.80000000000001
 20
459.81746380200002
 11
265.80000000000001
 21
458.30223331949998
  0
LINE
  8
_0-4_図枠
  6
CONTINUOUS
 62
    7
 10
681
 20
201
 11
456
 21
201
  0
LINE
  8
_0-4_図枠
  6
CONTINUOUS
 62
    7
 10
681
 20
219
 11
456
 21
219
  0
LINE
  8
_0-4_図枠
  6
CONTINUOUS
 62
    7
 10
681
 20
237
 11
456
 21
237
  0
LINE
  8
_0-4_図枠
  6
CONTINUOUS
 62
    7
 10
681
 20
228
 11
456
 21
228
  0
LINE
  8
_0-4_図枠
  6
CONTINUOUS
 62
    7
 10
681
 20
210
 11
456
 21
210
  0
LINE
  8
_0-4_図枠
  6
CONTINUOUS
 62
    7
 10
681
 20
192
 11
456
 21
192
  0
LINE
  8
_0-4_図枠
  6
CONTINUOUS
 62
    7
 10
681
 20
183
 11
456
 21
183
  0
LINE
  8
_0-4_図枠
  6
CONTINUOUS
 62
    7
 10
681
 20
174
 11
456
 21
174
  0
LINE
  8
_0-4_図枠
  6
CONTINUOUS
 62
    7
 10
681
 20
165
 11
456
 21
165
  0
LINE
  8
_0-4_図枠
  6
CONTINUOUS
 62
    7
 10
681
 20
156
 11
456
 21
156
  0
LINE
  8
_0-4_図枠
  6
CONTINUOUS
 62
    7
 10
681
 20
147
 11
456
 21
147
  0
LINE
  8
_0-4_図枠
  6
CONTINUOUS
 62
    7
 10
681
 20
138
 11
456
 21
138
  0
TEXT
  8
_0-4_図枠
 62
    7
 10
603
 20
229.5
 40
5
 41
1
 50
0
  1
Ｃ
  0
TEXT
  8
_0-4_図枠
 62
    7
 10
633
 20
229.5
 40
5
 41
1
 50
0
  1
Ｄ
  0
TEXT
  8
_0-4_図枠
 62
    7
 10
663
 20
229.5
 40
5
 41
1
 50
0
  1
Ｅ
  0
LINE
  8
_0-4_図枠
  6
CONTINUOUS
 62
    7
 10
681
 20
237
 11
681
 21
138
  0
LINE
  8
_0-4_図枠
  6
CONTINUOUS
 62
    7
 10
591
 20
237
 11
591
 21
138
  0
LINE
  8
_0-4_図枠
  6
CONTINUOUS
 62
    7
 10
621
 20
237
 11
621
 21
138
  0
LINE
  8
_0-4_図枠
  6
CONTINUOUS
 62
    7
 10
651
 20
237
 11
651
 21
138
  0
LINE
  8
_0-4_図枠
  6
CONTINUOUS
 62
    7
 10
531
 20
237
 11
531
 21
138
  0
LINE
  8
_0-4_図枠
  6
CONTINUOUS
 62
    7
 10
561
 20
237
 11
561
 21
138
  0
LINE
  8
_0-4_図枠
  6
CONTINUOUS
 62
    7
 10
456
 20
237
 11
456
 21
138
  0
TEXT
  8
_0-4_図枠
 62
    7
 10
543
 20
229.5
 40
5
 41
1
 50
0
  1
Ｗ
  0
TEXT
  8
_0-4_図枠
 62
    7
 10
573
 20
229.5
 40
5
 41
1
 50
0
  1
Ａ
  0
TEXT
  8
_0-4_図枠
 62
    7
 10
476.5
 20
229.5
 40
5
 41
1
 50
0
  1
タ　イ　プ
  0
ARC
  8
_0-3_躯体と製品
  6
CONTINUOUS
 62
    7
 10
268.5
 20
442.53524317919999
 40
7.5
 50
180
 51
267
  0
ARC
  8
_0-3_躯体と製品
  6
CONTINUOUS
 62
    7
 10
268.5
 20
442.53524317919999
 40
3
 50
180
 51
267
  0
LINE
  8
_0-3_躯体と製品
  6
CONTINUOUS
 62
    7
 10
261
 20
442.53524317919999
 11
261
 21
454.6883494791
  0
LINE
  8
_0-3_躯体と製品
  6
CONTINUOUS
 62
    7
 10
265.5
 20
454.6883494791
 11
261
 21
454.6883494791
  0
LINE
  8
_0-3_躯体と製品
  6
CONTINUOUS
 62
    7
 10
265.5
 20
442.53524317919999
 11
265.5
 21
454.6883494791
  0
LINE
  8
_0-4_図枠
  6
CONTINUOUS
 62
    7
 10
8
 20
585
 11
8
 21
9
  0
LINE
  8
_0-4_図枠
  6
CONTINUOUS
 62
    7
 10
832
 20
585
 11
8
 21
585
  0
LINE
  8
_0-4_図枠
  6
CONTINUOUS
 62
    7
 10
832
 20
9
 11
832
 21
585
  0
LINE
  8
_0-4_図枠
  6
CONTINUOUS
 62
    7
 10
8
 20
9
 11
832
 21
9
  0
LINE
  8
_0-3_躯体と製品
  6
CONTINUOUS
 62
    7
 10
256.5
 20
495.9022333195
 11
281.5
 21
495.9022333195
  0
TEXT
  8
_0-4_図枠
 62
    7
 10
241.58189355569999
 20
524.96656972020003
 40
5
 41
1
 50
0
  1
14
  0
TEXT
  8
_0-4_図枠
 62
    7
 10
208.8182362501
 20
458.75119109309998
 40
5
 41
1
 50
0
  1
17
  0
TEXT
  8
_0-4_図枠
 62
    7
 10
236.88454026240001
 20
459.84993130589999
 40
5
 41
1
 50
0
  1
18
  0
TEXT
  8
_0-4_図枠
 62
    7
 10
238.62573593249999
 20
407.67783813599999
 40
5
 41
1
 50
0
  1
20
  0
LINE
  8
_0-4_図枠
  6
CONTINUOUS
 62
    7
 10
300
 20
48
 11
91
 21
48
  0
LINE
  8
_0-4_図枠
  6
CONTINUOUS
 62
    7
 10
300
 20
39
 11
91
 21
39
  0
LINE
  8
_0-4_図枠
  6
CONTINUOUS
 62
    7
 10
300
 20
129
 11
91
 21
129
  0
LINE
  8
_0-4_図枠
  6
CONTINUOUS
 62
    7
 10
300
 20
138
 11
91
 21
138
  0
LINE
  8
_0-4_図枠
  6
CONTINUOUS
 62
    7
 10
300
 20
57
 11
91
 21
57
  0
LINE
  8
_0-4_図枠
  6
CONTINUOUS
 62
    7
 10
300
 20
66
 11
91
 21
66
  0
LINE
  8
_0-4_図枠
  6
CONTINUOUS
 62
    7
 10
300
 20
75
 11
91
 21
75
  0
LINE
  8
_0-4_図枠
  6
CONTINUOUS
 62
    7
 10
300
 20
84
 11
91
 21
84
  0
LINE
  8
_0-4_図枠
  6
CONTINUOUS
 62
    7
 10
300
 20
93
 11
91
 21
93
  0
LINE
  8
_0-4_図枠
  6
CONTINUOUS
 62
    7
 10
300
 20
102
 11
91
 21
102
  0
LINE
  8
_0-4_図枠
  6
CONTINUOUS
 62
    7
 10
300
 20
111
 11
91
 21
111
  0
LINE
  8
_0-4_図枠
  6
CONTINUOUS
 62
    7
 10
300
 20
120
 11
91
 21
120
  0
LINE
  8
_0-4_図枠
  6
CONTINUOUS
 62
    7
 10
300
 20
147
 11
91
 21
147
  0
LINE
  8
_0-4_図枠
  6
CONTINUOUS
 62
    7
 10
300
 20
156
 11
91
 21
156
  0
LINE
  8
_0-4_図枠
  6
CONTINUOUS
 62
    7
 10
300
 20
165
 11
91
 21
165
  0
LINE
  8
_0-4_図枠
  6
CONTINUOUS
 62
    7
 10
300
 20
174
 11
91
 21
174
  0
LINE
  8
_0-4_図枠
  6
CONTINUOUS
 62
    7
 10
300
 20
183
 11
91
 21
183
  0
LINE
  8
_0-4_図枠
  6
CONTINUOUS
 62
    7
 10
300
 20
192
 11
91
 21
192
  0
LINE
  8
_0-4_図枠
  6
CONTINUOUS
 62
    7
 10
300
 20
201
 11
91
 21
201
  0
LINE
  8
_0-4_図枠
  6
CONTINUOUS
 62
    7
 10
300
 20
210
 11
91
 21
210
  0
LINE
  8
_0-4_図枠
  6
CONTINUOUS
 62
    7
 10
300
 20
219
 11
91
 21
219
  0
LINE
  8
_0-4_図枠
  6
CONTINUOUS
 62
    7
 10
300
 20
228
 11
91
 21
228
  0
LINE
  8
_0-4_図枠
  6
CONTINUOUS
 62
    7
 10
300
 20
237
 11
91
 21
237
  0
TEXT
  8
_0-4_図枠
 62
    7
 10
113.3333333333
 20
193.9166666667
 40
4.9900000000000002
 41
1
 50
0
  1
ＦＹＫ壁フレーム
  0
TEXT
  8
_0-4_図枠
 62
    7
 10
112.9166666667
 20
202.9166666667
 40
5
 41
0.998
 50
0
  1
ＦＹＹフレーム
  0
TEXT
  8
_0-4_図枠
 62
    7
 10
95.166666666669983
 20
49.916666666669983
 40
4.9900000000000002
 41
1
 50
0
  1
20
  0
TEXT
  8
_0-4_図枠
 62
    7
 10
95.166666666669983
 20
58.916666666669983
 40
4.9900000000000002
 41
1
 50
0
  1
19
  0
TEXT
  8
_0-4_図枠
 62
    7
 10
95.166666666669983
 20
85.916666666669983
 40
4.9900000000000002
 41
1
 50
0
  1
16
  0
TEXT
  8
_0-4_図枠
 62
    7
 10
95.166666666669983
 20
76.916666666669983
 40
4.9900000000000002
 41
1
 50
0
  1
17
  0
TEXT
  8
_0-4_図枠
 62
    7
 10
95.166666666669983
 20
67.916666666669983
 40
4.9900000000000002
 41
1
 50
0
  1
18
  0
TEXT
  8
_0-4_図枠
 62
    7
 10
95.166666666669983
 20
94.916666666669983
 40
4.9900000000000002
 41
1
 50
0
  1
15
  0
TEXT
  8
_0-4_図枠
 62
    7
 10
95.166666666669983
 20
103.9166666667
 40
4.9900000000000002
 41
1
 50
0
  1
14
  0
TEXT
  8
_0-4_図枠
 62
    7
 10
95.166666666669983
 20
202.9166666667
 40
5
 41
1
 50
0
  1
 3
  0
TEXT
  8
_0-4_図枠
 62
    7
 10
95.166666666669983
 20
157.9166666667
 40
5
 41
1
 50
0
  1
 8
  0
TEXT
  8
_0-4_図枠
 62
    7
 10
95.166666666669983
 20
130.9166666667
 40
5
 41
1
 50
0
  1
11
  0
TEXT
  8
_0-4_図枠
 62
    7
 10
95.166666666669983
 20
121.9166666667
 40
5
 41
1
 50
0
  1
12
  0
TEXT
  8
_0-4_図枠
 62
    7
 10
95.166666666669983
 20
112.9166666667
 40
5
 41
1
 50
0
  1
13
  0
TEXT
  8
_0-4_図枠
 62
    7
 10
95.166666666669983
 20
139.9166666667
 40
5
 41
1
 50
0
  1
10
  0
TEXT
  8
_0-4_図枠
 62
    7
 10
95.166666666669983
 20
148.9166666667
 40
5
 41
1
 50
0
  1
 9
  0
TEXT
  8
_0-4_図枠
 62
    7
 10
95.166666666669983
 20
166.9166666667
 40
5
 41
1
 50
0
  1
 7
  0
TEXT
  8
_0-4_図枠
 62
    7
 10
95.166666666669983
 20
175.9166666667
 40
4.9900000000000002
 41
1
 50
0
  1
 6
  0
TEXT
  8
_0-4_図枠
 62
    7
 10
95.166666666669983
 20
184.9166666667
 40
4.9900000000000002
 41
1
 50
0
  1
 5
  0
TEXT
  8
_0-4_図枠
 62
    7
 10
95.166666666669983
 20
193.9166666667
 40
4.9900000000000002
 41
1
 50
0
  1
 4
  0
TEXT
  8
_0-4_図枠
 62
    7
 10
95.166666666669983
 20
211.9166666667
 40
5
 41
1
 50
0
  1
 2
  0
TEXT
  8
_0-4_図枠
 62
    7
 10
95.166666666669983
 20
220.9166666667
 40
4.9900000000000002
 41
1
 50
0
  1
 1
  0
TEXT
  8
_0-4_図枠
 62
    7
 10
93.625
 20
229.9166666667
 40
5
 41
0.998
 50
0
  1
No.
  0
TEXT
  8
_0-4_図枠
 62
    7
 10
243.75
 20
229.9166666667
 40
5
 41
0.998
 50
0
  1
規　格
  0
TEXT
  8
_0-4_図枠
 62
    7
 10
143.1666666667
 20
229.9166666667
 40
5
 41
0.998
 50
0
  1
部材名称
  0
TEXT
  8
_0-4_図枠
 62
    7
 10
114.5833333333
 20
148.9166666667
 40
5
 41
1
 50
0
  1
ＦＹＫｻｲﾄﾞｷｬｯﾌﾟ ｼﾞｮｲﾝﾄ
  0
TEXT
  8
_0-4_図枠
 62
    7
 10
114.1666666667
 20
157.9166666667
 40
5
 41
1
 50
0
  1
ＦＹＫ水切ジョイント
  0
TEXT
  8
_0-4_図枠
 62
    7
 10
114.1666666667
 20
166.9166666667
 40
5
 41
1
 50
0
  1
ＦＹＹフレームナット
  0
TEXT
  8
_0-4_図枠
 62
    7
 10
115
 20
175.9166666667
 40
4.9900000000000002
 41
1
 50
0
  1
ＦＹＹホルダースプリング
  0
TEXT
  8
_0-4_図枠
 62
    7
 10
112.9166666667
 20
184.9166666667
 40
4.9900000000000002
 41
1
 50
0
  1
ＦＹＫホルダー
  0
TEXT
  8
_0-4_図枠
 62
    7
 10
112.0833333333
 20
139.9166666667
 40
5
 41
1
 50
0
  1
止水補助板
  0
TEXT
  8
_0-4_図枠
 62
    7
 10
112.5
 20
40.916666666669983
 40
4.9900000000000002
 41
1
 50
0
  1
ブチルテープ
  0
TEXT
  8
_0-4_図枠
 62
    7
 10
113.3333333333
 20
49.916666666669983
 40
4.9900000000000002
 41
1
 50
0
  1
ステンワッシャー
  0
TEXT
  8
_0-4_図枠
 62
    7
 10
113.3333333333
 20
58.916666666669983
 40
4.9900000000000002
 41
1
 50
0
  1
ステスワッシャー
  0
TEXT
  8
_0-4_図枠
 62
    7
 10
113.75
 20
67.916666666669983
 40
4.9900000000000002
 41
1
 50
0
  1
ステンタッピンねじ
  0
TEXT
  8
_0-4_図枠
 62
    7
 10
112.9166666667
 20
76.916666666669983
 40
4.9900000000000002
 41
1
 50
0
  1
アンカープラグ
  0
TEXT
  8
_0-4_図枠
 62
    7
 10
113.75
 20
85.916666666669983
 40
4.9900000000000002
 41
1
 50
0
  1
アジャストアンカー
  0
TEXT
  8
_0-4_図枠
 62
    7
 10
113.3333333333
 20
94.916666666669983
 40
4.9900000000000002
 41
1
 50
0
  1
ステン六角ボルト
  0
TEXT
  8
_0-4_図枠
 62
    7
 10
112.5
 20
121.9166666667
 40
5
 41
1
 50
0
  1
ガスケットＮ
  0
TEXT
  8
_0-4_図枠
 62
    7
 10
211.875
 20
85.916666666669983
 40
4.9900000000000002
 41
1
 50
0
  1
ＡＧ－660
  0
TEXT
  8
_0-4_図枠
 62
    7
 10
113.3333333333
 20
130.9166666667
 40
5
 41
1
 50
0
  1
ウォーターガード
  0
TEXT
  8
_0-4_図枠
 62
    7
 10
95.416666666669983
 20
40.916666666669983
 40
4.9900000000000002
 41
1
 50
0
  1
※
  0
LINE
  8
_0-4_図枠
  6
CONTINUOUS
 62
    7
 10
91
 20
39
 11
91
 21
237
  0
LINE
  8
_0-4_図枠
  6
CONTINUOUS
 62
    7
 10
105
 20
39
 11
105
 21
237
  0
LINE
  8
_0-4_図枠
  6
CONTINUOUS
 62
    7
 10
301
 20
39
 11
301
 21
237
  0
LINE
  8
_0-4_図枠
  6
CONTINUOUS
 62
    7
 10
300
 20
39
 11
300
 21
237
  0
LINE
  8
_0-4_図枠
  6
CONTINUOUS
 62
    7
 10
205
 20
39
 11
205
 21
237
  0
TEXT
  8
_0-4_図枠
 62
    7
 10
113.3333333333
 20
220.9166666667
 40
4.9900000000000002
 41
1
 50
0
  1
ＦＹＫキャップＳ
  0
TEXT
  8
_0-4_図枠
 62
    7
 10
114.5833333333
 20
211.9166666667
 40
5
 41
1
 50
0
  1
ＦＹＫサイドキャップＳ
  0
TEXT
  8
_0-4_図枠
 62
    7
 10
310.3333333333
 20
238.06003367759999
 40
5
 41
1
 50
0
  1
（2000mmセット）
  0
TEXT
  8
_0-4_図枠
 62
    7
 10
312.5833333333
 20
193.9166666667
 40
4.9900000000000002
 41
1
 50
0
  1
2000
  0
TEXT
  8
_0-4_図枠
 62
    7
 10
312.5833333333
 20
202.9166666667
 40
5
 41
0.998
 50
0
  1
2000
  0
TEXT
  8
_0-4_図枠
 62
    7
 10
312.5833333333
 20
211.9166666667
 40
5
 41
0.998
 50
0
  1
2000
  0
TEXT
  8
_0-4_図枠
 62
    7
 10
312.5833333333
 20
220.9166666667
 40
4.9900000000000002
 41
1
 50
0
  1
2000
  0
TEXT
  8
_0-4_図枠
 62
    7
 10
306.4166666667
 20
229.9166666667
 40
5
 41
0.998
 50
0
  1
定尺(mm)
  0
LINE
  8
_0-4_図枠
  6
CONTINUOUS
 62
    7
 10
301
 20
192
 11
368
 21
192
  0
LINE
  8
_0-4_図枠
  6
CONTINUOUS
 62
    7
 10
301
 20
201
 11
368
 21
201
  0
LINE
  8
_0-4_図枠
  6
CONTINUOUS
 62
    7
 10
301
 20
210
 11
368
 21
210
  0
LINE
  8
_0-4_図枠
  6
CONTINUOUS
 62
    7
 10
301
 20
219
 11
368
 21
219
  0
LINE
  8
_0-4_図枠
  6
CONTINUOUS
 62
    7
 10
301
 20
228
 11
368
 21
228
  0
LINE
  8
_0-4_図枠
  6
CONTINUOUS
 62
    7
 10
301
 20
237
 11
368
 21
237
  0
TEXT
  8
_0-4_図枠
 62
    7
 10
358.4166666667
 20
202.9166666667
 40
5
 41
0.998
 50
0
  1
〃
  0
TEXT
  8
_0-4_図枠
 62
    7
 10
342.1666666667
 20
202.9166666667
 40
5
 41
0.998
 50
0
  1
 1
  0
TEXT
  8
_0-4_図枠
 62
    7
 10
342.1666666667
 20
193.9166666667
 40
4.9900000000000002
 41
1
 50
0
  1
 1
  0
TEXT
  8
_0-4_図枠
 62
    7
 10
358.4166666667
 20
193.9166666667
 40
4.9900000000000002
 41
1
 50
0
  1
〃
  0
TEXT
  8
_0-4_図枠
 62
    7
 10
342.1666666667
 20
211.9166666667
 40
5
 41
0.998
 50
0
  1
 1
  0
TEXT
  8
_0-4_図枠
 62
    7
 10
342.1666666667
 20
220.9166666667
 40
4.9900000000000002
 41
1
 50
0
  1
 1
  0
TEXT
  8
_0-4_図枠
 62
    7
 10
339.3333333333
 20
229.9166666667
 40
5
 41
0.998
 50
0
  1
入数
  0
TEXT
  8
_0-4_図枠
 62
    7
 10
358.4166666667
 20
211.9166666667
 40
5
 41
0.998
 50
0
  1
〃
  0
TEXT
  8
_0-4_図枠
 62
    7
 10
358.4166666667
 20
220.9166666667
 40
4.9900000000000002
 41
1
 50
0
  1
本
  0
TEXT
  8
_0-4_図枠
 62
    7
 10
355.3333333333
 20
229.9166666667
 40
5
 41
1
 50
0
  1
単位
  0
LINE
  8
_0-4_図枠
  6
CONTINUOUS
 62
    7
 10
301
 20
147
 11
368
 21
147
  0
LINE
  8
_0-4_図枠
  6
CONTINUOUS
 62
    7
 10
301
 20
156
 11
368
 21
156
  0
LINE
  8
_0-4_図枠
  6
CONTINUOUS
 62
    7
 10
301
 20
165
 11
368
 21
165
  0
LINE
  8
_0-4_図枠
  6
CONTINUOUS
 62
    7
 10
301
 20
174
 11
368
 21
174
  0
LINE
  8
_0-4_図枠
  6
CONTINUOUS
 62
    7
 10
301
 20
183
 11
368
 21
183
  0
LINE
  8
_0-4_図枠
  6
CONTINUOUS
 62
    7
 10
301
 20
192
 11
368
 21
192
  0
TEXT
  8
_0-4_図枠
 62
    7
 10
342.1666666667
 20
166.9166666667
 40
5
 41
1
 50
0
  1
 4
  0
TEXT
  8
_0-4_図枠
 62
    7
 10
342.1666666667
 20
148.9166666667
 40
5
 41
1
 50
0
  1
 1
  0
TEXT
  8
_0-4_図枠
 62
    7
 10
342.1666666667
 20
157.9166666667
 40
5
 41
1
 50
0
  1
 1
  0
TEXT
  8
_0-4_図枠
 62
    7
 10
358.4166666667
 20
148.9166666667
 40
5
 41
0.998
 50
0
  1
〃
  0
TEXT
  8
_0-4_図枠
 62
    7
 10
358.4166666667
 20
157.9166666667
 40
5
 41
0.998
 50
0
  1
〃
  0
TEXT
  8
_0-4_図枠
 62
    7
 10
342.1666666667
 20
175.9166666667
 40
4.9900000000000002
 41
1
 50
0
  1
 4
  0
TEXT
  8
_0-4_図枠
 62
    7
 10
342.1666666667
 20
184.9166666667
 40
4.9900000000000002
 41
1
 50
0
  1
 4
  0
TEXT
  8
_0-4_図枠
 62
    7
 10
358.4166666667
 20
175.9166666667
 40
4.9900000000000002
 41
1
 50
0
  1
〃
  0
TEXT
  8
_0-4_図枠
 62
    7
 10
358.4166666667
 20
166.9166666667
 40
5
 41
0.998
 50
0
  1
〃
  0
TEXT
  8
_0-4_図枠
 62
    7
 10
358.4166666667
 20
184.9166666667
 40
4.9900000000000002
 41
1
 50
0
  1
〃
  0
TEXT
  8
_0-4_図枠
 62
    7
 10
312.5833333333
 20
139.9166666667
 40
5
 41
1
 50
0
  1
2100
  0
TEXT
  8
_0-4_図枠
 62
    7
 10
342.1666666667
 20
139.9166666667
 40
5
 41
1
 50
0
  1
 1
  0
TEXT
  8
_0-4_図枠
 62
    7
 10
358.4166666667
 20
139.9166666667
 40
5
 41
0.998
 50
0
  1
〃
  0
LINE
  8
_0-4_図枠
  6
CONTINUOUS
 62
    7
 10
301
 20
129
 11
368
 21
129
  0
LINE
  8
_0-4_図枠
  6
CONTINUOUS
 62
    7
 10
301
 20
138
 11
368
 21
138
  0
TEXT
  8
_0-4_図枠
 62
    7
 10
312.5833333333
 20
40.916666666669983
 40
4.9900000000000002
 41
1
 50
0
  1
6000
  0
TEXT
  8
_0-4_図枠
 62
    7
 10
312.5833333333
 20
121.9166666667
 40
5
 41
1
 50
0
  1
2000
  0
TEXT
  8
_0-4_図枠
 62
    7
 10
312.5833333333
 20
130.9166666667
 40
5
 41
1
 50
0
  1
2100
  0
LINE
  8
_0-4_図枠
  6
CONTINUOUS
 62
    7
 10
301
 20
39
 11
368
 21
39
  0
LINE
  8
_0-4_図枠
  6
CONTINUOUS
 62
    7
 10
301
 20
48
 11
368
 21
48
  0
LINE
  8
_0-4_図枠
  6
CONTINUOUS
 62
    7
 10
301
 20
57
 11
368
 21
57
  0
LINE
  8
_0-4_図枠
  6
CONTINUOUS
 62
    7
 10
301
 20
66
 11
368
 21
66
  0
LINE
  8
_0-4_図枠
  6
CONTINUOUS
 62
    7
 10
301
 20
75
 11
368
 21
75
  0
LINE
  8
_0-4_図枠
  6
CONTINUOUS
 62
    7
 10
301
 20
84
 11
368
 21
84
  0
LINE
  8
_0-4_図枠
  6
CONTINUOUS
 62
    7
 10
301
 20
93
 11
368
 21
93
  0
LINE
  8
_0-4_図枠
  6
CONTINUOUS
 62
    7
 10
301
 20
102
 11
368
 21
102
  0
LINE
  8
_0-4_図枠
  6
CONTINUOUS
 62
    7
 10
301
 20
111
 11
368
 21
111
  0
LINE
  8
_0-4_図枠
  6
CONTINUOUS
 62
    7
 10
301
 20
120
 11
368
 21
120
  0
TEXT
  8
_0-4_図枠
 62
    7
 10
342.1666666667
 20
49.916666666669983
 40
4.9900000000000002
 41
1
 50
0
  1
 5
  0
TEXT
  8
_0-4_図枠
 62
    7
 10
342.1666666667
 20
40.916666666669983
 40
4.9900000000000002
 41
1
 50
0
  1
 1
  0
TEXT
  8
_0-4_図枠
 62
    7
 10
342.1666666667
 20
58.916666666669983
 40
4.9900000000000002
 41
1
 50
0
  1
 5
  0
TEXT
  8
_0-4_図枠
 62
    7
 10
342.1666666667
 20
67.916666666669983
 40
4.9900000000000002
 41
1
 50
0
  1
 5
  0
TEXT
  8
_0-4_図枠
 62
    7
 10
358.4166666667
 20
40.916666666669983
 40
4.9900000000000002
 41
1
 50
0
  1
巻
  0
TEXT
  8
_0-4_図枠
 62
    7
 10
358.4166666667
 20
58.916666666669983
 40
4.9900000000000002
 41
1
 50
0
  1
枚
  0
TEXT
  8
_0-4_図枠
 62
    7
 10
358.4166666667
 20
49.916666666669983
 40
4.9900000000000002
 41
1
 50
0
  1
〃
  0
TEXT
  8
_0-4_図枠
 62
    7
 10
358.4166666667
 20
67.916666666669983
 40
4.9900000000000002
 41
1
 50
0
  1
〃
  0
TEXT
  8
_0-4_図枠
 62
    7
 10
342.1666666667
 20
94.916666666669983
 40
4.9900000000000002
 41
1
 50
0
  1
 5
  0
TEXT
  8
_0-4_図枠
 62
    7
 10
342.1666666667
 20
85.916666666669983
 40
4.9900000000000002
 41
1
 50
0
  1
 5
  0
TEXT
  8
_0-4_図枠
 62
    7
 10
342.1666666667
 20
76.916666666669983
 40
4.9900000000000002
 41
1
 50
0
  1
 5
  0
TEXT
  8
_0-4_図枠
 62
    7
 10
342.1666666667
 20
103.9166666667
 40
4.9900000000000002
 41
1
 50
0
  1
 5
  0
TEXT
  8
_0-4_図枠
 62
    7
 10
342.1666666667
 20
112.9166666667
 40
5
 41
1
 50
0
  1
 4
  0
TEXT
  8
_0-4_図枠
 62
    7
 10
358.4166666667
 20
94.916666666669983
 40
4.9900000000000002
 41
1
 50
0
  1
〃
  0
TEXT
  8
_0-4_図枠
 62
    7
 10
358.4166666667
 20
76.916666666669983
 40
4.9900000000000002
 41
1
 50
0
  1
〃
  0
TEXT
  8
_0-4_図枠
 62
    7
 10
358.4166666667
 20
85.916666666669983
 40
4.9900000000000002
 41
1
 50
0
  1
〃
  0
TEXT
  8
_0-4_図枠
 62
    7
 10
358.4166666667
 20
103.9166666667
 40
4.9900000000000002
 41
1
 50
0
  1
〃
  0
TEXT
  8
_0-4_図枠
 62
    7
 10
358.4166666667
 20
112.9166666667
 40
5
 41
0.998
 50
0
  1
〃
  0
TEXT
  8
_0-4_図枠
 62
    7
 10
342.1666666667
 20
130.9166666667
 40
5
 41
1
 50
0
  1
 1
  0
TEXT
  8
_0-4_図枠
 62
    7
 10
342.1666666667
 20
121.9166666667
 40
5
 41
1
 50
0
  1
 1
  0
TEXT
  8
_0-4_図枠
 62
    7
 10
358.4166666667
 20
130.9166666667
 40
5
 41
0.998
 50
0
  1
〃
  0
TEXT
  8
_0-4_図枠
 62
    7
 10
358.4166666667
 20
121.9166666667
 40
5
 41
0.998
 50
0
  1
本
  0
LINE
  8
_0-4_図枠
  6
CONTINUOUS
 62
    7
 10
368
 20
39
 11
368
 21
237
  0
LINE
  8
_0-4_図枠
  6
CONTINUOUS
 62
    7
 10
301
 20
39
 11
301
 21
237
  0
LINE
  8
_0-4_図枠
  6
CONTINUOUS
 62
    7
 10
354
 20
39
 11
354
 21
237
  0
LINE
  8
_0-4_図枠
  6
CONTINUOUS
 62
    7
 10
336
 20
39
 11
336
 21
237
  0
TEXT
  8
_0-4_図枠
 62
    7
 10
27.546508709130023
 20
566.4696321568
 40
9
 41
1
 50
0
  1
◇ステンレス１００タイプ（１００ＦＹＫＧ－Ｓ）
  0
CIRCLE
  8
_0-4_図枠
  6
CONTINUOUS
 62
    7
 10
305.25796438409998
 20
517.10781184569998
 40
6
  0
TEXT
  8
_0-4_図枠
 62
    7
 10
302.25796438409998
 20
514.10781184569998
 40
5
 41
1
 50
0
  1
２
  0
LINE
  8
_0-4_図枠
  6
CONTINUOUS
 62
    7
 10
284.02114287929999
 20
480.32455800809998
 11
302.25796438409998
 21
511.911659423
  0
CIRCLE
  8
_0-4_図枠
  6
CONTINUOUS
 62
    7
 10
284.02114287929999
 20
480.32455800809998
 40
0.9
  0
CIRCLE
  8
_0-4_図枠
  6
CONTINUOUS
 62
    7
 10
593.84583711530001
 20
473.40743375630001
 40
6
  0
TEXT
  8
_0-4_図枠
 62
    7
 10
590.84583711530001
 20
470.40743375630001
 40
5
 41
1
 50
0
  1
１
  0
LINE
  8
_0-4_図枠
  6
CONTINUOUS
 62
    7
 10
565.70935597189998
 20
424.67361886980001
 11
590.84583711530001
 21
468.21128133360003
  0
CIRCLE
  8
_0-4_図枠
  6
CONTINUOUS
 62
    7
 10
565.70935597189998
 20
424.67361886980001
 40
0.9
  0
LINE
  8
_0-3_躯体と製品
  6
CONTINUOUS
 62
    7
 10
459.04374571689999
 20
388.13910632289998
 11
458.88925249379997
 21
388
  0
LINE
  8
_0-3_躯体と製品
  6
CONTINUOUS
 62
    7
 10
458.73975827129999
 20
393.20119322519997
 11
458.46717528469998
 21
388
  0
LINE
  8
_0-3_躯体と製品
  6
CONTINUOUS
 62
    7
 10
453.88342284380002
 20
393.45570298040002
 11
453.59750156609999
 21
388
  0
LINE
  8
_0-3_躯体と製品
  6
CONTINUOUS
 62
    7
 10
453.45996144409997
 20
388
 11
453.05196850840002
 21
388.45312206030002
  0
LINE
  8
_0-4_図枠
  6
CONTINUOUS
 62
    7
 10
566.25358271020002
 20
406.52994222780001
 11
589.89006385360005
 21
447.46952848030003
  0
CIRCLE
  8
_0-4_図枠
  6
CONTINUOUS
 62
    7
 10
592.89006385360005
 20
452.66568090300001
 40
6
  0
CIRCLE
  8
_0-4_図枠
  6
CONTINUOUS
 62
    7
 10
566.25358271020002
 20
406.52994222780001
 40
0.9
  0
LINE
  8
_0-4_図枠
  6
CONTINUOUS
 62
    7
 10
449.37824824699999
 20
382.23615693260001
 11
439.68099461510002
 21
365.4400209483
  0
CIRCLE
  8
_0-4_図枠
  6
CONTINUOUS
 62
    7
 10
436.68099461510002
 20
360.24386852560002
 40
6
  0
CIRCLE
  8
_0-4_図枠
  6
CONTINUOUS
 62
    7
 10
449.37824824699999
 20
382.23615693260001
 40
0.9
  0
LINE
  8
_0-4_図枠
  6
CONTINUOUS
 62
    7
 10
454.37398902400002
 20
351.91733860189998
 11
444.33237482930002
 21
334.5247526265
  0
CIRCLE
  8
_0-4_図枠
  6
CONTINUOUS
 62
    7
 10
441.33237482930002
 20
329.32860020380002
 40
6
  0
LINE
  8
_0-4_図枠
  6
CONTINUOUS
 62
    7
 10
460.8374108287
 20
385.1005721473
 11
477.25979649359999
 21
356.65616579419998
  0
CIRCLE
  8
_0-4_図枠
  6
CONTINUOUS
 62
    7
 10
480.25979649359999
 20
351.4600133715
 40
6
  0
LINE
  8
_0-4_図枠
  6
CONTINUOUS
 62
    7
 10
466.67748272810002
 20
392.4886149116
 11
478.45916885989999
 21
372.08213593260001
  0
CIRCLE
  8
_0-4_図枠
  6
CONTINUOUS
 62
    7
 10
481.45916885989999
 20
366.88598350989997
 40
6
  0
LINE
  8
_0-4_図枠
  6
CONTINUOUS
 62
    7
 10
458.5544450374
 20
412.46316968730002
 11
476.37997757649998
 21
443.3378977168
  0
CIRCLE
  8
_0-4_図枠
  6
CONTINUOUS
 62
    7
 10
479.37997757649998
 20
448.53405013960003
 40
6
  0
LINE
  8
_0-4_図枠
  6
CONTINUOUS
 62
    7
 10
474.10382902840001
 20
415.18542233070002
 11
492.39091880080002
 21
446.85959093899999
  0
CIRCLE
  8
_0-4_図枠
  6
CONTINUOUS
 62
    7
 10
495.39091880080002
 20
452.05574336170002
 40
6
  0
LINE
  8
_0-4_図枠
  6
CONTINUOUS
 62
    7
 10
474.02169158420003
 20
390.75133698600001
 11
498.83474583959998
 21
433.7288076474
  0
TEXT
  8
_0-4_図枠
 62
    7
 10
498.83474583959998
 20
435.92496007009998
 40
5
 41
1
 50
0
  1
３
  0
CIRCLE
  8
_0-4_図枠
  6
CONTINUOUS
 62
    7
 10
501.83474583959998
 20
438.92496007009998
 40
6
  0
CIRCLE
  8
_0-4_図枠
  6
CONTINUOUS
 62
    7
 10
474.02169158420003
 20
390.75133698600001
 40
0.9
  0
LINE
  8
_0-4_図枠
  6
CONTINUOUS
 62
    7
 10
506.4733407388
 20
410.59819410009999
 11
520.39865585040002
 21
434.71754738480001
  0
CIRCLE
  8
_0-4_図枠
  6
CONTINUOUS
 62
    7
 10
523.39865585040002
 20
439.9136998075
 40
6
  0
CIRCLE
  8
_0-4_図枠
  6
CONTINUOUS
 62
    7
 10
466.67748272810002
 20
392.4886149116
 40
0.9
  0
CIRCLE
  8
_0-4_図枠
  6
CONTINUOUS
 62
    7
 10
460.8374108287
 20
385.1005721473
 40
0.9
  0
CIRCLE
  8
_0-4_図枠
  6
CONTINUOUS
 62
    7
 10
474.10382902840001
 20
415.18542233070002
 40
0.9
  0
CIRCLE
  8
_0-4_図枠
  6
CONTINUOUS
 62
    7
 10
454.37398902400002
 20
351.91733860189998
 40
0.9
  0
CIRCLE
  8
_0-4_図枠
  6
CONTINUOUS
 62
    7
 10
458.5544450374
 20
412.46316968730002
 40
0.9
  0
CIRCLE
  8
_0-4_図枠
  6
CONTINUOUS
 62
    7
 10
506.4733407388
 20
410.59819410009999
 40
0.9
  0
LINE
  8
_0-3_躯体と製品
  6
CONTINUOUS
 62
    7
 10
462.27350269189998
 20
387.4956829857
 11
462.27350269189998
 21
383
  0
LINE
  8
_0-3_躯体と製品
  6
CONTINUOUS
 62
    7
 10
459.3867513459
 20
387.4956829857
 11
459.3867513459
 21
383
  0
LINE
  8
_0-3_躯体と製品
  6
CONTINUOUS
 62
    7
 10
453.6132486541
 20
387.4956829857
 11
453.6132486541
 21
383
  0
LINE
  8
_0-3_躯体と製品
  6
CONTINUOUS
 62
    7
 10
461.39999999999998
 20
388
 11
462.27350269189998
 21
387.4956829857
  0
LINE
  8
_0-3_躯体と製品
  6
CONTINUOUS
 62
    7
 10
451.60000000000002
 20
388
 11
461.39999999999998
 21
388
  0
LINE
  8
_0-3_躯体と製品
  6
CONTINUOUS
 62
    7
 10
451.60000000000002
 20
388
 11
450.72649730810002
 21
387.4956829857
  0
LINE
  8
_0-3_躯体と製品
  6
CONTINUOUS
 62
    7
 10
450.72649730810002
 20
387.4956829857
 11
450.72649730810002
 21
383
  0
ARC
  8
_0-3_躯体と製品
  6
CONTINUOUS
 62
    7
 10
460.83012701889999
 20
385.38644222469998
 40
2.5558227484280001
 50
55.615752532039998
 51
124.38424746800001
  0
ARC
  8
_0-3_躯体と製品
  6
CONTINUOUS
 62
    7
 10
452.16987298110001
 20
385.38644222469998
 40
2.5558227484280001
 50
55.615752532039998
 51
124.38424746800001
  0
ARC
  8
_0-3_躯体と製品
  6
CONTINUOUS
 62
    7
 10
456.5
 20
378.38884696039997
 40
9.5534180126359995
 50
72.412046226049995
 51
107.587953774
  0
LINE
  8
_0-3_躯体と製品
  6
CONTINUOUS
 62
    7
 10
447.5
 20
383
 11
447.5
 21
381.5
  0
LINE
  8
_0-3_躯体と製品
  6
CONTINUOUS
 62
    7
 10
465.5
 20
383
 11
465.5
 21
381.5
  0
LINE
  8
_0-3_躯体と製品
  6
CONTINUOUS
 62
    7
 10
447.5
 20
383
 11
465.5
 21
383
  0
LINE
  8
_0-4_図枠
  6
CONTINUOUS
 62
    7
 10
288.71769913809999
 20
461.66192605570001
 11
310.18655552439998
 21
498.8470760971
  0
CIRCLE
  8
_0-4_図枠
  6
CONTINUOUS
 62
    7
 10
313.18655552439998
 20
504.04322851979998
 40
6
  0
LINE
  8
_0-4_図枠
  6
CONTINUOUS
 62
    7
 10
288.22089424860002
 20
442.60369984670001
 11
312.11250194540003
 21
401.22222144120002
  0
CIRCLE
  8
_0-4_図枠
  6
CONTINUOUS
 62
    7
 10
315.11250194540003
 20
396.02606901849998
 40
6
  0
CIRCLE
  8
_0-4_図枠
  6
CONTINUOUS
 62
    7
 10
288.22089424860002
 20
442.60369984670001
 40
0.9
  0
CIRCLE
  8
_0-4_図枠
  6
CONTINUOUS
 62
    7
 10
288.71769913809999
 20
461.66192605570001
 40
0.9
  0
TEXT
  8
_0-2_寸法
 62
    7
 10
403.5
 20
467.35554533039999
 40
5
 41
1
 50
0
  1
（キャップ幅）
  0
LINE
  8
_0-3_躯体と製品
  6
CONTINUOUS
 62
    7
 10
458.22463986169998
 20
429.83160336679998
 11
455.87196852509999
 21
384.93996001080001
  0
LINE
  8
_0-3_躯体と製品
  6
CONTINUOUS
 62
    7
 10
456.5
 20
401.92351442789999
 11
456.5
 21
313
  0
LINE
  8
_0-4_図枠
  6
CONTINUOUS
 62
    7
 10
390.69999999999999
 20
439.63581576180002
 11
390.69999999999999
 21
442.25620472600002
  0
LINE
  8
_0-4_図枠
  6
CONTINUOUS
 62
    7
 10
340.69999999999999
 20
442.25620472600002
 11
390.69999999999999
 21
439.63581576180002
  0
LINE
  8
_0-4_図枠
  6
CONTINUOUS
 62
    7
 10
340.69999999999999
 20
442.25620472600002
 11
390.69999999999999
 21
442.25620472600002
  0
ARC
  8
_0-3_躯体と製品
  6
CONTINUOUS
 62
    7
 10
435.5
 20
387.25
 40
9.25
 50
270
 51
288.92464441605
  0
LINE
  8
_0-3_躯体と製品
  6
CONTINUOUS
 62
    7
 10
471.5
 20
379
 11
441.5
 21
379
  0
ARC
  8
_0-3_躯体と製品
  6
CONTINUOUS
 62
    7
 10
435.5
 20
387.25
 40
10.25
 50
270
 51
288.92464441605
  0
ARC
  8
_0-3_躯体と製品
  6
CONTINUOUS
 62
    7
 10
441.5
 20
369.75
 40
8.25
 50
90
 51
108.92464441609999
  0
ARC
  8
_0-3_躯体と製品
  6
CONTINUOUS
 62
    7
 10
477.5
 20
387.25
 40
10.25
 50
251.07535558390001
 51
270
  0
ARC
  8
_0-3_躯体と製品
  6
CONTINUOUS
 62
    7
 10
471.5
 20
369.75
 40
8.25
 50
71.07535558395
 51
90
  0
LINE
  8
_0-3_躯体と製品
  6
CONTINUOUS
 62
    7
 10
456.5
 20
378
 11
456.5
 21
379
  0
ARC
  8
_0-3_躯体と製品
  6
CONTINUOUS
 62
    7
 10
477.5
 20
387.25
 40
9.25
 50
251.07535558390001
 51
270
  0
ARC
  8
_0-3_躯体と製品
  6
CONTINUOUS
 62
    7
 10
471.5
 20
369.75
 40
9.25
 50
71.07535558395
 51
90
  0
ARC
  8
_0-3_躯体と製品
  6
CONTINUOUS
 62
    7
 10
441.5
 20
369.75
 40
9.25
 50
90
 51
108.92464441609999
  0
TEXT
  8
_0-4_図枠
 62
    7
 10
352.19999999999999
 20
442.24048176140002
 40
5
 41
1
 50
0
  1
勾配３度
  0
ARC
  8
_0-3_躯体と製品
  6
CONTINUOUS
 62
    7
 10
284.99086928179997
 20
444.1744242067
 40
4
 50
210.6429610253
 51
324.68656333441004
  0
ARC
  8
_0-3_躯体と製品
  6
CONTINUOUS
 62
    7
 10
284.99086928179997
 20
444.1744242067
 40
3.2000000000000002
 50
210.6429610253
 51
324.68656333441004
  0
LINE
  8
_0-3_躯体と製品
  6
CONTINUOUS
 62
    7
 10
268.10748032819998
 20
435.04552166849999
 11
288.57332213670003
 21
433.97295234820001
  0
LINE
  8
_0-3_躯体と製品
  6
CONTINUOUS
 62
    7
 10
553.21014884670001
 20
420.1039239438
 11
559.32018750300006
 21
419.78371038649999
  0
LINE
  8
_0-3_躯体と製品
  6
CONTINUOUS
 62
    7
 10
553.44566064979995
 20
424.59775685020003
 11
559.5556993061
 21
424.27754329290002
  0
LINE
  8
_0-3_躯体と製品
  6
CONTINUOUS
 62
    7
 10
570.77102012379999
 20
349.07714196529997
 11
570.77102012379999
 21
348.57714196529997
  0
LINE
  8
_0-3_躯体と製品
  6
CONTINUOUS
 62
    7
 10
288.71961030839998
 20
443.9022333195
 11
287.60207584789998
 21
442.3246673932
  0
LINE
  8
_0-3_躯体と製品
  6
CONTINUOUS
 62
    7
 10
289.69999999999999
 20
443.9022333195
 11
288.25487748939997
 21
441.86222818980002
  0
LINE
  8
_0-3_躯体と製品
  6
CONTINUOUS
 62
    7
 10
281.02482846890001
 20
446.57525746380003
 11
286.67941626369998
 21
446.1056639423
  0
LINE
  8
_0-3_躯体と製品
  6
CONTINUOUS
 62
    7
 10
280.78276156290002
 20
447.59880269680002
 11
286.26389313800001
 21
447.14361410100003
  0
LINE
  8
_0-3_躯体と製品
  6
CONTINUOUS
 62
    7
 10
286.803558608
 20
447.60051800809998
 11
286.84493938949998
 21
448.09880269680002
  0
ARC
  8
_0-3_躯体と製品
  6
CONTINUOUS
 62
    7
 10
286.76217782660001
 20
447.10223331949999
 40
1
 50
265.25268174596999
 51
355.252681742275
  0
LINE
  8
_0-3_躯体と製品
  6
CONTINUOUS
 62
    7
 10
287.7587472038
 20
447.01947175660001
 11
287.84150876680002
 21
448.01604113389999
  0
ARC
  8
_0-3_躯体と製品
  6
CONTINUOUS
 62
    7
 10
287.34322407809998
 20
448.05742191540003
 40
0.4999999999354999
 50
355.25268174597801
 51
175.25268174600001
  0
ARC
  8
_0-3_躯体と製品
  6
CONTINUOUS
 62
    7
 10
286.30527391940001
 20
447.64189878960002
 40
0.5
 50
265.25268174596999
 51
355.25268174227199
  0
LINE
  8
_0-3_躯体と製品
  6
CONTINUOUS
 62
    7
 10
281
 20
444.9022333195
 11
289.19999999999999
 21
444.9022333195
  0
LINE
  8
_0-3_躯体と製品
  6
CONTINUOUS
 62
    7
 10
289.69999999999999
 20
444.4022333195
 11
289.69999999999999
 21
443.9022333195
  0
ARC
  8
_0-3_躯体と製品
  6
CONTINUOUS
 62
    7
 10
289.19999999999999
 20
444.4022333195
 40
0.5
 50
0
 51
90
  0
LINE
  8
_0-3_躯体と製品
  6
CONTINUOUS
 62
    7
 10
280.69999999999999
 20
443.9022333195
 11
289.69999999999999
 21
443.9022333195
  0
CIRCLE
  8
_0-3_躯体と製品
  6
CONTINUOUS
 62
    7
 10
290.69999999999999
 20
480.9022333195
 40
1.3999999999999999
  0
LINE
  8
_0-3_躯体と製品
  6
CONTINUOUS
 62
    7
 10
289.5
 20
447.10223331949999
 11
289.5
 21
478.70223331950001
  0
ARC
  8
_0-3_躯体と製品
  6
CONTINUOUS
 62
    7
 10
288.5
 20
447.10223331949999
 40
1
 50
270
 51
0
  0
LINE
  8
_0-3_躯体と製品
  6
CONTINUOUS
 62
    7
 10
288.5
 20
446.10223331949999
 11
280.69999999999999
 21
446.10223331949999
  0
ARC
  8
_0-3_躯体と製品
  6
CONTINUOUS
 62
    7
 10
288.5
 20
447.10223331949999
 40
2.2000000000000002
 50
270
 51
0
  0
LINE
  8
_0-3_躯体と製品
  6
CONTINUOUS
 62
    7
 10
271.69999999999999
 20
479.70223331950001
 11
288.5
 21
479.70223331950001
  0
ARC
  8
_0-3_躯体と製品
  6
CONTINUOUS
 62
    7
 10
288.5
 20
478.70223331950001
 40
2.2000000000000002
 50
0
 51
90
  0
ARC
  8
_0-3_躯体と製品
  6
CONTINUOUS
 62
    7
 10
288.5
 20
478.70223331950001
 40
1
 50
0
 51
90
  0
LINE
  8
_0-3_躯体と製品
  6
CONTINUOUS
 62
    7
 10
281.99511877869998
 20
478.70223331950001
 11
282.79511977869998
 21
479.50223431950002
  0
LINE
  8
_0-3_躯体と製品
  6
CONTINUOUS
 62
    7
 10
283.40933234099998
 20
478.70223331950001
 11
284.20933334099999
 21
479.50223431950002
  0
LINE
  8
_0-3_躯体と製品
  6
CONTINUOUS
 62
    7
 10
284.82354590339997
 20
478.70223331950001
 11
285.62354690339998
 21
479.50223431950002
  0
LINE
  8
_0-3_躯体と製品
  6
CONTINUOUS
 62
    7
 10
286.23775946580002
 20
478.70223331950001
 11
287.03776046579998
 21
479.50223431950002
  0
LINE
  8
_0-3_躯体と製品
  6
CONTINUOUS
 62
    7
 10
287.65197302809997
 20
478.70223331950001
 11
288.36569807500001
 21
479.41595836639999
  0
LINE
  8
_0-3_躯体と製品
  6
CONTINUOUS
 62
    7
 10
288.40000199999997
 20
478.03604872900002
 11
289.08986035449999
 21
478.72590708349998
  0
LINE
  8
_0-3_躯体と製品
  6
CONTINUOUS
 62
    7
 10
288.40000199999997
 20
476.62183516660002
 11
289.19999999999999
 21
477.42183316659998
  0
LINE
  8
_0-3_躯体と製品
  6
CONTINUOUS
 62
    7
 10
288.40000199999997
 20
475.20762160430002
 11
289.19999999999999
 21
476.00761960429998
  0
LINE
  8
_0-3_躯体と製品
  6
CONTINUOUS
 62
    7
 10
288.40000199999997
 20
473.79340804190002
 11
289.19999999999999
 21
474.59340604189998
  0
LINE
  8
_0-3_躯体と製品
  6
CONTINUOUS
 62
    7
 10
288.40000199999997
 20
472.37919447949997
 11
289.19999999999999
 21
473.17919247949999
  0
LINE
  8
_0-3_躯体と製品
  6
CONTINUOUS
 62
    7
 10
288.40000199999997
 20
470.96498091709998
 11
289.19999999999999
 21
471.7649789171
  0
LINE
  8
_0-3_躯体と製品
  6
CONTINUOUS
 62
    7
 10
288.40000199999997
 20
469.55076735479997
 11
289.19999999999999
 21
470.35076535479999
  0
LINE
  8
_0-3_躯体と製品
  6
CONTINUOUS
 62
    7
 10
288.40000199999997
 20
468.13655379239998
 11
289.19999999999999
 21
468.9365517924
  0
LINE
  8
_0-3_躯体と製品
  6
CONTINUOUS
 62
    7
 10
288.40000199999997
 20
466.72234022999999
 11
289.19999999999999
 21
467.52233823
  0
LINE
  8
_0-3_躯体と製品
  6
CONTINUOUS
 62
    7
 10
288.40000199999997
 20
465.30812666769998
 11
289.19999999999999
 21
466.1081246677
  0
LINE
  8
_0-3_躯体と製品
  6
CONTINUOUS
 62
    7
 10
288.40000199999997
 20
463.89391310529999
 11
289.19999999999999
 21
464.6939111053
  0
LINE
  8
_0-3_躯体と製品
  6
CONTINUOUS
 62
    7
 10
288.40000199999997
 20
462.47969954289999
 11
289.19999999999999
 21
463.27969754290001
  0
LINE
  8
_0-3_躯体と製品
  6
CONTINUOUS
 62
    7
 10
288.40000199999997
 20
461.0654859805
 11
289.19999999999999
 21
461.86548398050002
  0
LINE
  8
_0-3_躯体と製品
  6
CONTINUOUS
 62
    7
 10
288.40000199999997
 20
459.65127241819999
 11
289.19999999999999
 21
460.45127041820001
  0
LINE
  8
_0-3_躯体と製品
  6
CONTINUOUS
 62
    7
 10
288.40000199999997
 20
458.2370588558
 11
289.19999999999999
 21
459.03705685580002
  0
LINE
  8
_0-3_躯体と製品
  6
CONTINUOUS
 62
    7
 10
288.40000199999997
 20
456.82284529340001
 11
289.19999999999999
 21
457.62284329340002
  0
LINE
  8
_0-3_躯体と製品
  6
CONTINUOUS
 62
    7
 10
288.40000199999997
 20
455.40863173100001
 11
289.19999999999999
 21
456.20862973099997
  0
LINE
  8
_0-3_躯体と製品
  6
CONTINUOUS
 62
    7
 10
288.40000199999997
 20
453.99441816870001
 11
289.19999999999999
 21
454.79441616870002
  0
LINE
  8
_0-3_躯体と製品
  6
CONTINUOUS
 62
    7
 10
288.40000199999997
 20
452.58020460630001
 11
289.19999999999999
 21
453.38020260629997
  0
LINE
  8
_0-3_躯体と製品
  6
CONTINUOUS
 62
    7
 10
288.40000199999997
 20
451.16599104390002
 11
289.19999999999999
 21
451.96598904389998
  0
LINE
  8
_0-3_躯体と製品
  6
CONTINUOUS
 62
    7
 10
288.40000199999997
 20
449.75177748160002
 11
289.19999999999999
 21
450.55177548159998
  0
LINE
  8
_0-3_躯体と製品
  6
CONTINUOUS
 62
    7
 10
287.90000099999997
 20
478.70223331950001
 11
269.50000199999999
 21
478.70223331950001
  0
LINE
  8
_0-3_躯体と製品
  6
CONTINUOUS
 62
    7
 10
288.40000199999997
 20
449.50223431950002
 11
289.19999999999999
 21
449.50223431950002
  0
LINE
  8
_0-3_躯体と製品
  6
CONTINUOUS
 62
    7
 10
289.19999999999999
 20
478.20223531950001
 11
289.19999999999999
 21
449.50223431950002
  0
LINE
  8
_0-3_躯体と製品
  6
CONTINUOUS
 62
    7
 10
288.40000199999997
 20
478.20223531950001
 11
288.40000199999997
 21
449.50223431950002
  0
ARC
  8
_0-3_躯体と製品
  6
CONTINUOUS
 62
    7
 10
287.90000099999997
 20
478.20223531950001
 40
0.500001
 50
0
 51
90
  0
ARC
  8
_0-3_躯体と製品
  6
CONTINUOUS
 62
    7
 10
287.90000099999997
 20
478.20223531950001
 40
1.2999989999999999
 50
0
 51
90
  0
LINE
  8
_0-3_躯体と製品
  6
CONTINUOUS
 62
    7
 10
287.90000099999997
 20
479.50223431950002
 11
269.50000199999999
 21
479.50223431950002
  0
CIRCLE
  8
_0-3_躯体と製品
  6
CONTINUOUS
 62
    7
 10
290.69999999999999
 20
444.9022333195
 40
1.3999999999999999
  0
LINE
  8
_0-3_躯体と製品
  6
CONTINUOUS
 62
    7
 10
288.5
 20
480.9022333195
 11
271.69999999999999
 21
480.9022333195
  0
LINE
  8
_0-3_躯体と製品
  6
CONTINUOUS
 62
    7
 10
290.69999999999999
 20
447.10223331949999
 11
290.69999999999999
 21
478.70223331950001
  0
LINE
  8
_0-3_躯体と製品
  6
CONTINUOUS
 62
    7
 10
288.5
 20
444.9022333195
 11
280.69999999999999
 21
444.9022333195
  0
LINE
  8
_0-3_躯体と製品
  6
CONTINUOUS
 62
    7
 10
303.7393405816
 20
436.74798416390001
 11
302.75122947900002
 21
437.7360952665
  0
LINE
  8
_0-3_躯体と製品
  6
CONTINUOUS
 62
    7
 10
290.69899233580003
 20
435.64619678600002
 11
288.76250040370002
 21
437.58268871809997
  0
LINE
  8
_0-3_躯体と製品
  6
CONTINUOUS
 62
    7
 10
553.39672427029996
 20
423.66399510309998
 11
552.40861316760004
 21
424.65210620580001
  0
LINE
  8
_0-3_躯体と製品
  6
CONTINUOUS
 62
    7
 10
541.84880444609996
 20
422.48399286590001
 11
538.97675737240002
 21
425.35603993960001
  0
LINE
  8
_0-3_躯体と製品
  6
CONTINUOUS
 62
    7
 10
540.35637602439999
 20
422.56220772519998
 11
538.41988409229998
 21
424.49869965729999
  0
LINE
  8
_0-3_躯体と製品
  6
CONTINUOUS
 62
    7
 10
303.64603831480002
 20
434.96767085789998
 11
303.78827696119998
 21
437.68174591090002
  0
LINE
  8
_0-3_躯体と製品
  6
CONTINUOUS
 62
    7
 10
292.1914207575
 20
435.5679819266
 11
289.31937368379999
 21
438.44002900039999
  0
LINE
  8
_0-3_躯体と製品
  6
CONTINUOUS
 62
    7
 10
293.68384917920002
 20
435.48976706730002
 11
290.81180210550002
 21
438.36181414110001
  0
LINE
  8
_0-3_躯体と製品
  6
CONTINUOUS
 62
    7
 10
295.17627760089999
 20
435.41155220799999
 11
292.3042305271
 21
438.28359928169999
  0
LINE
  8
_0-3_躯体と製品
  6
CONTINUOUS
 62
    7
 10
296.66870602260002
 20
435.33333734870001
 11
293.79665894879997
 21
438.20538442240002
  0
LINE
  8
_0-3_躯体と製品
  6
CONTINUOUS
 62
    7
 10
298.16113444429999
 20
435.25512248939998
 11
295.2890873705
 21
438.12716956309998
  0
LINE
  8
_0-3_躯体と製品
  6
CONTINUOUS
 62
    7
 10
299.65356286600002
 20
435.17690763000002
 11
296.78151579220003
 21
438.04895470380001
  0
LINE
  8
_0-3_躯体と製品
  6
CONTINUOUS
 62
    7
 10
301.1459912876
 20
435.09869277069998
 11
298.27394421389999
 21
437.97073984449997
  0
LINE
  8
_0-3_躯体と製品
  6
CONTINUOUS
 62
    7
 10
302.63841970930002
 20
435.02047791140001
 11
299.76637263560002
 21
437.89252498510001
  0
LINE
  8
_0-3_躯体と製品
  6
CONTINUOUS
 62
    7
 10
303.66891560599998
 20
435.40419557720003
 11
301.25880105729999
 21
437.81431012579998
  0
LINE
  8
_0-3_躯体と製品
  6
CONTINUOUS
 62
    7
 10
538.32397898210002
 20
422.66872114080002
 11
538.46621762849998
 21
425.38279619389999
  0
LINE
  8
_0-3_躯体と製品
  6
CONTINUOUS
 62
    7
 10
543.34123286780004
 20
422.40577800659997
 11
540.46918579409999
 21
425.27782508029998
  0
LINE
  8
_0-3_躯体と製品
  6
CONTINUOUS
 62
    7
 10
544.83366128950001
 20
422.3275631473
 11
541.96161421579995
 21
425.199610221
  0
LINE
  8
_0-3_躯体と製品
  6
CONTINUOUS
 62
    7
 10
546.32608971119998
 20
422.24934828789998
 11
543.45404263750004
 21
425.12139536170002
  0
LINE
  8
_0-3_躯体と製品
  6
CONTINUOUS
 62
    7
 10
547.81851813289995
 20
422.1711334286
 11
544.94647105920001
 21
425.04318050239999
  0
LINE
  8
_0-3_躯体と製品
  6
CONTINUOUS
 62
    7
 10
549.31094655460004
 20
422.09291856930002
 11
546.43889948089998
 21
424.96496564300003
  0
LINE
  8
_0-3_躯体と製品
  6
CONTINUOUS
 62
    7
 10
550.80337497630001
 20
422.01470370999999
 11
547.93132790259995
 21
424.88675078369999
  0
LINE
  8
_0-3_躯体と製品
  6
CONTINUOUS
 62
    7
 10
552.29580339799998
 20
421.93648885070002
 11
549.42375632430003
 21
424.80853592440002
  0
LINE
  8
_0-3_躯体と製品
  6
CONTINUOUS
 62
    7
 10
553.32629929459995
 20
422.32020651639999
 11
550.91618474589995
 21
424.73032106509999
  0
LINE
  8
_0-3_躯体と製品
  6
CONTINUOUS
 62
    7
 10
553.30342200350003
 20
421.88368179719998
 11
553.44566064979995
 21
424.59775685020003
  0
LINE
  8
_0-3_躯体と製品
  6
CONTINUOUS
 62
    7
 10
288.6665952935
 20
435.7527102016
 11
288.80883393980002
 21
438.46678525459998
  0
LINE
  8
_0-3_躯体と製品
  6
CONTINUOUS
 62
    7
 10
579.5
 20
336.07714196529997
 11
572.5
 21
336.07714196529997
  0
LINE
  8
_0-3_躯体と製品
  6
CONTINUOUS
 62
    7
 10
572.5
 20
334.57714196529997
 11
572.5
 21
336.07714196529997
  0
LINE
  8
_0-3_躯体と製品
  6
CONTINUOUS
 62
    7
 10
273.36916010940001
 20
439.27594427290001
 11
579.57850393440003
 21
423.22819256730003
  0
LINE
  8
_0-3_躯体と製品
  6
CONTINUOUS
 62
    7
 10
273.44766404379999
 20
440.773888575
 11
579.65700786870002
 21
424.72613686940002
  0
LINE
  8
_0-3_躯体と製品
  6
CONTINUOUS
 62
    7
 10
579.5
 20
334.57714196529997
 11
572.5
 21
334.57714196529997
  0
ARC
  8
_0-3_躯体と製品
  6
CONTINUOUS
 62
    7
 10
579.5
 20
421.73024826519998
 40
3
 50
0
 51
86.999999999989996
  0
ARC
  8
_0-3_躯体と製品
  6
CONTINUOUS
 62
    7
 10
579.5
 20
337.57714196529997
 40
3
 50
270
 51
0
  0
LINE
  8
_0-3_躯体と製品
  6
CONTINUOUS
 62
    7
 10
582.5
 20
421.73024826519998
 11
582.5
 21
337.57714196529997
  0
CIRCLE
  8
_0-3_躯体と製品
  6
CONTINUOUS
 62
    7
 10
582.5
 20
424.57714196529997
 40
1.3999999999999999
  0
CIRCLE
  8
_0-3_躯体と製品
  6
CONTINUOUS
 62
    7
 10
582.5
 20
334.57714196529997
 40
1.3999999999999999
  0
LINE
  8
_0-3_躯体と製品
  6
CONTINUOUS
 62
    7
 10
581
 20
337.57714196529997
 11
581
 21
421.73024826519998
  0
ARC
  8
_0-3_躯体と製品
  6
CONTINUOUS
 62
    7
 10
579.5
 20
421.73024826519998
 40
1.5
 50
0
 51
87.000000000010004
  0
ARC
  8
_0-3_躯体と製品
  6
CONTINUOUS
 62
    7
 10
579.5
 20
337.57714196529997
 40
1.5
 50
270
 51
0
  0
LINE
  8
_0-3_躯体と製品
  6
CONTINUOUS
 62
    7
 10
552.24623568740003
 20
401.71136519509997
 11
287.60940897739999
 21
415.58039359949998
  0
LINE
  8
_0-3_躯体と製品
  6
CONTINUOUS
 62
    7
 10
288.64042731540002
 20
435.2533954342
 11
303.61987033669999
 21
434.46835609060003
  0
LINE
  8
_0-3_躯体と製品
  6
CONTINUOUS
 62
    7
 10
303.41052651170003
 20
430.4738379515
 11
303.61987033669999
 21
434.46835609060003
  0
ARC
  8
_0-3_躯体と製品
  6
CONTINUOUS
 62
    7
 10
287.12056140129999
 20
415.80628748459998
 40
0.5
 50
357.00000000000102
 51
86.999999999989996
  0
LINE
  8
_0-3_躯体と製品
  6
CONTINUOUS
 62
    7
 10
286.64741461199998
 20
416.33177023010001
 11
287.14672937940003
 21
416.30560225200003
  0
ARC
  8
_0-3_躯体と製品
  6
CONTINUOUS
 62
    7
 10
286.6212466339
 20
415.83245546270001
 40
0.5
 50
86.999999999989996
 51
177
  0
LINE
  8
_0-3_躯体と製品
  6
CONTINUOUS
 62
    7
 10
286.017259954
 20
413.8613643713
 11
286.12193186650001
 21
415.85862344079999
  0
ARC
  8
_0-3_躯体と製品
  6
CONTINUOUS
 62
    7
 10
285.5179451866
 20
413.88753234950002
 40
0.5
 50
266.99999999999
 51
357.00000000000097
  0
LINE
  8
_0-3_躯体と製品
  6
CONTINUOUS
 62
    7
 10
287.20118851870001
 20
407.7910832284
 11
288.6665952935
 21
435.7527102016
  0
ARC
  8
_0-3_躯体と製品
  6
CONTINUOUS
 62
    7
 10
286.75420970760001
 20
408.81588074130002
 40
0.5
 50
266.99999999999
 51
357.00000000000097
  0
LINE
  8
_0-3_躯体と製品
  6
CONTINUOUS
 62
    7
 10
286.22872696209998
 20
408.34273395209999
 11
286.72804172939999
 21
408.31656597390003
  0
ARC
  8
_0-3_躯体と製品
  6
CONTINUOUS
 62
    7
 10
286.25489494020002
 20
408.8420487194
 40
0.5
 50
176.99999999999997
 51
267
  0
LINE
  8
_0-3_躯体と製品
  6
CONTINUOUS
 62
    7
 10
285.80791612910002
 20
409.86684623230002
 11
285.75558017280002
 21
408.86821669760002
  0
ARC
  8
_0-3_躯体と製品
  6
CONTINUOUS
 62
    7
 10
285.30860136170003
 20
409.8930142104
 40
0.5
 50
357.00000000000102
 51
86.999999999989996
  0
LINE
  8
_0-3_躯体と製品
  6
CONTINUOUS
 62
    7
 10
280.44766404379999
 20
413.65256835150001
 11
285.49177720850003
 21
413.38821758210003
  0
LINE
  8
_0-3_躯体と製品
  6
CONTINUOUS
 62
    7
 10
278.89532808749999
 20
410.7298057937
 11
285.3347693398
 21
410.39232897779999
  0
LINE
  8
_0-3_躯体と製品
  6
CONTINUOUS
 62
    7
 10
287.48903627800001
 20
413.28354566960002
 11
315.94997801850002
 21
411.7919709167
  0
ARC
  8
_0-3_躯体と製品
  6
CONTINUOUS
 62
    7
 10
315.87147408419997
 20
410.29402661450001
 40
1.5
 50
266.99999999999
 51
86.999999999989996
  0
LINE
  8
_0-3_躯体と製品
  6
CONTINUOUS
 62
    7
 10
312.29776677820001
 20
408.9792581593
 11
315.7929701498
 21
408.79608231240002
  0
LINE
  8
_0-3_躯体と製品
  6
CONTINUOUS
 62
    7
 10
312.29776677820001
 20
408.9792581593
 11
312.35010273440002
 21
409.977887694
  0
LINE
  8
_0-3_躯体と製品
  6
CONTINUOUS
 62
    7
 10
292.37751203929997
 20
411.0246068189
 11
312.35010273440002
 21
409.977887694
  0
LINE
  8
_0-3_躯体と製品
  6
CONTINUOUS
 62
    7
 10
292.32517608310002
 20
410.02597728410001
 11
292.37751203929997
 21
411.0246068189
  0
LINE
  8
_0-3_躯体と製品
  6
CONTINUOUS
 62
    7
 10
287.33202840929999
 20
410.28765706529998
 11
292.32517608310002
 21
410.02597728410001
  0
LINE
  8
_0-3_躯体と製品
  6
CONTINUOUS
 62
    7
 10
289.2065639141
 20
435.72441164529999
 11
288.69207542800001
 21
436.23890013139999
  0
LINE
  8
_0-3_躯体と製品
  6
CONTINUOUS
 62
    7
 10
288.97105211100001
 20
431.23057873890002
 11
288.45656362490001
 21
431.74506722500001
  0
LINE
  8
_0-3_躯体と製品
  6
CONTINUOUS
 62
    7
 10
290.46348053269998
 20
431.15236387959999
 11
288.52698860060002
 21
433.0888558117
  0
LINE
  8
_0-3_躯体と製品
  6
CONTINUOUS
 62
    7
 10
291.9559089544
 20
431.07414902020003
 11
288.59741357630003
 21
434.43264439839999
  0
LINE
  8
_0-3_躯体と製品
  6
CONTINUOUS
 62
    7
 10
293.44833737610003
 20
430.99593416089999
 11
289.22131936519997
 21
435.22295217189998
  0
LINE
  8
_0-3_躯体と製品
  6
CONTINUOUS
 62
    7
 10
294.9407657978
 20
430.91771930160002
 11
290.71374778680001
 21
435.14473731250001
  0
LINE
  8
_0-3_躯体と製品
  6
CONTINUOUS
 62
    7
 10
296.43319421950002
 20
430.83950444229998
 11
292.20617620849998
 21
435.06652245319998
  0
LINE
  8
_0-3_躯体と製品
  6
CONTINUOUS
 62
    7
 10
297.92562264119999
 20
430.76128958300001
 11
293.69860463020001
 21
434.9883075939
  0
LINE
  8
_0-3_躯体と製品
  6
CONTINUOUS
 62
    7
 10
299.41805106290002
 20
430.68307472369997
 11
295.19103305189998
 21
434.91009273460003
  0
LINE
  8
_0-3_躯体と製品
  6
CONTINUOUS
 62
    7
 10
300.91047948459999
 20
430.60485986430001
 11
296.6834614736
 21
434.83187787529999
  0
LINE
  8
_0-3_躯体と製品
  6
CONTINUOUS
 62
    7
 10
302.40290790620003
 20
430.52664500499998
 11
298.17588989529997
 21
434.75366301589997
  0
LINE
  8
_0-3_躯体と製品
  6
CONTINUOUS
 62
    7
 10
303.43340380289999
 20
430.9103626708
 11
299.668318317
 21
434.6754481566
  0
LINE
  8
_0-3_躯体と製品
  6
CONTINUOUS
 62
    7
 10
303.57425375420002
 20
433.59793984420003
 11
302.6531751604
 21
434.51901843799999
  0
LINE
  8
_0-3_躯体と製品
  6
CONTINUOUS
 62
    7
 10
303.50382877850001
 20
432.25415125749998
 11
301.16074673870003
 21
434.59723329730002
  0
LINE
  8
_0-3_躯体と製品
  6
CONTINUOUS
 62
    7
 10
538.86394760270002
 20
422.64042258450002
 11
538.34945911670002
 21
423.15491107060001
  0
LINE
  8
_0-3_躯体と製品
  6
CONTINUOUS
 62
    7
 10
546.97570744550001
 20
396.68030844219999
 11
551.96885511929997
 21
396.41862866100001
  0
LINE
  8
_0-3_躯体と製品
  6
CONTINUOUS
 62
    7
 10
547.02804340169996
 20
397.67893797689999
 11
546.97570744550001
 21
396.68030844219999
  0
LINE
  8
_0-3_躯体と製品
  6
CONTINUOUS
 62
    7
 10
527.05545270660002
 20
398.72565710179998
 11
547.02804340169996
 21
397.67893797689999
  0
LINE
  8
_0-3_躯体と製品
  6
CONTINUOUS
 62
    7
 10
527.05545270660002
 20
398.72565710179998
 11
527.00311675039995
 21
397.72702756699999
  0
LINE
  8
_0-3_躯体と製品
  6
CONTINUOUS
 62
    7
 10
523.50791337880003
 20
397.91020341389998
 11
527.00311675039995
 21
397.72702756699999
  0
ARC
  8
_0-3_躯体と製品
  6
CONTINUOUS
 62
    7
 10
523.58641731310001
 20
399.40814771599997
 40
1.5
 50
86.999999999989996
 51
267
  0
LINE
  8
_0-3_躯体と製品
  6
CONTINUOUS
 62
    7
 10
523.66492124750005
 20
400.90609201810003
 11
552.12586298799999
 21
399.4145172652
  0
LINE
  8
_0-3_躯体と製品
  6
CONTINUOUS
 62
    7
 10
551.83801522869999
 20
393.92205482409997
 11
553.30342200350003
 21
421.88368179719998
  0
LINE
  8
_0-3_躯体と製品
  6
CONTINUOUS
 62
    7
 10
562.10220964940004
 20
395.29993263879999
 11
561.51901710640004
 21
392.77384820909998
  0
LINE
  8
_0-3_躯体と製品
  6
CONTINUOUS
 62
    7
 10
553.96611418880002
 20
396.3139567485
 11
561.64119259510005
 21
395.91172293339997
  0
LINE
  8
_0-3_躯体と製品
  6
CONTINUOUS
 62
    7
 10
564.8818261033
 20
395.74188852769998
 11
563.70447967120003
 21
395.80359063970002
  0
LINE
  8
_0-3_躯体と製品
  6
CONTINUOUS
 62
    7
 10
563.39646786490005
 20
395.57148709559999
 11
562.68826118419997
 21
392.50390694390001
  0
ARC
  8
_0-3_躯体と製品
  6
CONTINUOUS
 62
    7
 10
553.93994621069999
 20
395.81464198110001
 40
0.5
 50
86.999999999989996
 51
177
  0
LINE
  8
_0-3_躯体と製品
  6
CONTINUOUS
 62
    7
 10
553.44063144330005
 20
395.84080995919999
 11
553.38829548700005
 21
394.84218042449999
  0
ARC
  8
_0-3_躯体と製品
  6
CONTINUOUS
 62
    7
 10
554.14929003559996
 20
399.80916012009999
 40
0.5
 50
176.99999999999997
 51
267
  0
LINE
  8
_0-3_躯体と製品
  6
CONTINUOUS
 62
    7
 10
554.12312205750004
 20
399.30984535269999
 11
565.80510936500002
 21
398.69761834029998
  0
LINE
  8
_0-3_躯体と製品
  6
CONTINUOUS
 62
    7
 10
553.64997526829995
 20
399.83532809820002
 11
553.75464718069998
 21
401.83258716770001
  0
LINE
  8
_0-3_躯体と製品
  6
CONTINUOUS
 62
    7
 10
575.15357154549997
 20
348.07714196529997
 11
570.77102012379999
 21
348.07714196529997
  0
LINE
  8
_0-3_躯体と製品
  6
CONTINUOUS
 62
    7
 10
565.80763774779996
 20
394.9511706838
 11
575.64264534589995
 21
348.68109781070001
  0
LINE
  8
_0-3_躯体と製品
  6
CONTINUOUS
 62
    7
 10
568.58254429850001
 20
396.32546480849999
 11
580.53849440179999
 21
340.07714196529997
  0
ARC
  8
_0-3_躯体と製品
  6
CONTINUOUS
 62
    7
 10
553.25533241339997
 20
401.85875514589998
 40
0.5
 50
357.00000000000102
 51
86.999999999989996
  0
LINE
  8
_0-3_躯体と製品
  6
CONTINUOUS
 62
    7
 10
553.2815003915
 20
402.35806991319998
 11
552.78218562409995
 21
402.38423789140001
  0
ARC
  8
_0-3_躯体と製品
  6
CONTINUOUS
 62
    7
 10
552.75601764600003
 20
401.88492312400001
 40
0.5
 50
86.999999999989996
 51
177
  0
ARC
  8
_0-3_躯体と製品
  6
CONTINUOUS
 62
    7
 10
565.6481014963
 20
395.70172973609999
 40
3
 50
12
 51
86.999999999989996
  0
ARC
  8
_0-3_躯体と製品
  6
CONTINUOUS
 62
    7
 10
564.82949014710005
 20
394.74325899299998
 40
1
 50
12
 51
86.999999999989996
  0
ARC
  8
_0-3_躯体と製品
  6
CONTINUOUS
 62
    7
 10
552.88898071970004
 20
394.86834840260002
 40
0.5
 50
266.99999999999
 51
357.00000000000097
  0
LINE
  8
_0-3_躯体と製品
  6
CONTINUOUS
 62
    7
 10
552.86281274149997
 20
394.36903363520003
 11
552.36349797419996
 21
394.3952016133
  0
ARC
  8
_0-3_躯体と製品
  6
CONTINUOUS
 62
    7
 10
552.38966595229999
 20
394.8945163807
 40
0.5
 50
176.99999999999997
 51
267
  0
ARC
  8
_0-3_躯体と製品
  6
CONTINUOUS
 62
    7
 10
575.6211959812
 20
346.37714196529998
 40
0.5
 50
12
 51
90.000000000000014
  0
LINE
  8
_0-3_躯体と製品
  6
CONTINUOUS
 62
    7
 10
576.11026978159998
 20
346.48109781070002
 11
577.53849440179999
 21
339.76182925950002
  0
LINE
  8
_0-3_躯体と製品
  6
CONTINUOUS
 62
    7
 10
575.6211959812
 20
346.87714196529998
 11
566.37102012380001
 21
346.87714196529998
  0
ARC
  8
_0-3_躯体と製品
  6
CONTINUOUS
 62
    7
 10
575.15357154549997
 20
348.57714196529997
 40
0.5
 50
270
 51
11.999999999999991
  0
LINE
  8
_0-3_躯体と製品
  6
CONTINUOUS
 62
    7
 10
566.37102012380001
 20
348.07714196529997
 11
568.77102012379999
 21
348.07714196529997
  0
LINE
  8
_0-3_躯体と製品
  6
CONTINUOUS
 62
    7
 10
570.77102012379999
 20
349.07714196529997
 11
568.77102012379999
 21
348.07714196529997
  0
LINE
  8
_0-3_躯体と製品
  6
CONTINUOUS
 62
    7
 10
570.77102012379999
 20
348.07714196529997
 11
570.77102012379999
 21
349.07714196529997
  0
ARC
  8
_0-3_躯体と製品
  6
CONTINUOUS
 62
    7
 10
578.03849440179999
 20
338.57714196529997
 40
2.5
 50
270
 51
0
  0
LINE
  8
_0-3_躯体と製品
  6
CONTINUOUS
 62
    7
 10
578.03849440179999
 20
336.07714196529997
 11
577.53849440179999
 21
336.07714196529997
  0
LINE
  8
_0-3_躯体と製品
  6
CONTINUOUS
 62
    7
 10
580.53849440179999
 20
338.57714196529997
 11
580.53849440179999
 21
340.07714196529997
  0
LINE
  8
_0-3_躯体と製品
  6
CONTINUOUS
 62
    7
 10
577.53849440179999
 20
339.76182925950002
 11
577.53849440179999
 21
336.07714196529997
  0
ARC
  8
_0-3_躯体と製品
  6
CONTINUOUS
 62
    7
 10
566.37102012380001
 20
347.47714196530001
 40
0.5999999999999999
 50
90
 51
270
  0
ARC
  8
_0-3_躯体と製品
  6
CONTINUOUS
 62
    7
 10
563.68877888439999
 20
395.50400177929998
 40
0.2999999999999999
 50
86.999999999989996
 51
167
  0
ARC
  8
_0-3_躯体と製品
  6
CONTINUOUS
 62
    7
 10
561.61502461700002
 20
395.41240816599998
 40
0.5
 50
347
 51
86.999999999989981
  0
ARC
  8
_0-3_躯体と製品
  6
CONTINUOUS
 62
    7
 10
562.10363914530001
 20
392.63887757650002
 40
0.5999999999999999
 50
167
 51
347
  0
LINE
  8
_0-3_躯体と製品
  6
CONTINUOUS
 62
    7
 10
538.62843579970001
 20
418.14658967819997
 11
538.11394731359997
 21
418.66107816419998
  0
LINE
  8
_0-3_躯体と製品
  6
CONTINUOUS
 62
    7
 10
553.27725402529995
 20
421.38436702979999
 11
538.29781100399998
 21
422.16940637350001
  0
LINE
  8
_0-3_躯体と製品
  6
CONTINUOUS
 62
    7
 10
538.08846717910001
 20
418.17488823439999
 11
538.29781100399998
 21
422.16940637350001
  0
LINE
  8
_0-3_躯体と製品
  6
CONTINUOUS
 62
    7
 10
540.12086422130005
 20
418.06837481880001
 11
538.18437228920004
 21
420.00486675090002
  0
LINE
  8
_0-3_躯体と製品
  6
CONTINUOUS
 62
    7
 10
541.61329264300002
 20
417.99015995949998
 11
538.25479726490005
 21
421.3486553377
  0
LINE
  8
_0-3_躯体と製品
  6
CONTINUOUS
 62
    7
 10
543.10572106469999
 20
417.9119451002
 11
538.8787030538
 21
422.1389631111
  0
LINE
  8
_0-3_躯体と製品
  6
CONTINUOUS
 62
    7
 10
544.59814948639996
 20
417.83373024090002
 11
540.37113147549996
 21
422.06074825180002
  0
LINE
  8
_0-3_躯体と製品
  6
CONTINUOUS
 62
    7
 10
546.09057790810004
 20
417.75551538159999
 11
541.86355989720005
 21
421.98253339249999
  0
LINE
  8
_0-3_躯体と製品
  6
CONTINUOUS
 62
    7
 10
547.58300632980001
 20
417.67730052220003
 11
543.35598831890002
 21
421.90431853320001
  0
LINE
  8
_0-3_躯体と製品
  6
CONTINUOUS
 62
    7
 10
549.07543475149998
 20
417.59908566289999
 11
544.84841674059999
 21
421.82610367379999
  0
LINE
  8
_0-3_躯体と製品
  6
CONTINUOUS
 62
    7
 10
550.56786317319995
 20
417.52087080360002
 11
546.34084516229996
 21
421.74788881450002
  0
LINE
  8
_0-3_躯体と製品
  6
CONTINUOUS
 62
    7
 10
552.06029159490004
 20
417.44265594429999
 11
547.83327358400004
 21
421.66967395519998
  0
LINE
  8
_0-3_躯体と製品
  6
CONTINUOUS
 62
    7
 10
553.09078749150001
 20
417.82637361000002
 11
549.32570200559996
 21
421.59145909590001
  0
LINE
  8
_0-3_躯体と製品
  6
CONTINUOUS
 62
    7
 10
553.23163744279998
 20
420.51395078349998
 11
552.31055884900002
 21
421.43502937720001
  0
LINE
  8
_0-3_躯体と製品
  6
CONTINUOUS
 62
    7
 10
553.16121246720002
 20
419.17016219670001
 11
550.81813042730005
 21
421.51324423659997
  0
LINE
  8
_0-3_躯体と製品
  6
CONTINUOUS
 62
    7
 10
553.30342200350003
 20
421.88368179719998
 11
288.6665952935
 21
435.7527102016
  0
LINE
  8
_0-3_躯体と製品
  6
CONTINUOUS
 62
    7
 10
551.83801522869999
 20
393.92205482409997
 11
287.20118851870001
 21
407.7910832284
  0
LINE
  8
_0-3_躯体と製品
  6
CONTINUOUS
 62
    7
 10
552.15203096610003
 20
399.9138320326
 11
287.51520425619998
 21
413.78286043700001
  0
LINE
  8
_0-3_躯体と製品
  6
CONTINUOUS
 62
    7
 10
551.96885511929997
 20
396.41862866100001
 11
287.33202840929999
 21
410.28765706529998
  0
LINE
  8
_0-3_躯体と製品
  6
CONTINUOUS
 62
    7
 10
551.89035118490006
 20
394.92068435879997
 11
287.25352447490002
 21
408.78971276319999
  0
LINE
  8
_0-3_躯体と製品
  6
CONTINUOUS
 62
    7
 10
553.06791020039998
 20
417.38984889080001
 11
288.4310834904
 21
431.25887729520002
  0
LINE
  8
_0-3_躯体と製品
  6
CONTINUOUS
 62
    7
 10
552.98940626599995
 20
415.89190458870002
 11
288.35257955600002
 21
429.76093299299998
  0
LINE
  8
_0-3_躯体と製品
  6
CONTINUOUS
 62
    7
 10
538.24547504780003
 20
421.17077683870002
 11
303.56753438049998
 21
433.46972655579998
  0
LINE
  8
_0-3_躯体と製品
  6
CONTINUOUS
 62
    7
 10
412.34389610049999
 20
407.24086590659999
 11
412.4381008217
 21
409.03839906920001
  0
LINE
  8
_0-3_躯体と製品
  6
CONTINUOUS
 62
    7
 10
512.20684957590004
 20
402.0072702823
 11
512.30105429720004
 21
403.80480344490002
  0
ARC
  8
_0-3_躯体と製品
  6
CONTINUOUS
 62
    7
 10
559.16317963430004
 20
416.78782178220001
 40
3
 50
10.1246716554
 51
86.999999999989996
  0
LINE
  8
_0-3_躯体と製品
  6
CONTINUOUS
 62
    7
 10
562.11646236080003
 20
417.31519369770001
 11
576.07007591019999
 21
339.17495782100002
  0
LINE
  8
_0-3_躯体と製品
  6
CONTINUOUS
 62
    7
 10
580.5
 20
339.96601569410001
 11
576.07007591030003
 21
339.17495782060001
  0
LINE
  8
_0-3_躯体と製品
  6
CONTINUOUS
 62
    7
 10
566.54638645060004
 20
418.10625157089999
 11
580.5
 21
339.96601569410001
  0
ARC
  8
_0-3_躯体と製品
  6
CONTINUOUS
 62
    7
 10
559.16317963430004
 20
416.78782178220001
 40
7.5
 50
10.1246716554
 51
86.999999999989996
  0
LINE
  8
_0-3_躯体と製品
  6
CONTINUOUS
 62
    7
 10
506.5
 20
377
 11
506.5
 21
247
  0
LINE
  8
_0-3_躯体と製品
  6
CONTINUOUS
 62
    7
 10
441.5
 20
377
 11
441.5
 21
378
  0
LINE
  8
_0-3_躯体と製品
  6
CONTINUOUS
 62
    7
 10
471.5
 20
378
 11
471.5
 21
377
  0
LINE
  8
_0-3_躯体と製品
  6
CONTINUOUS
 62
    7
 10
441.5
 20
378
 11
471.5
 21
378
  0
LINE
  8
_0-3_躯体と製品
  6
CONTINUOUS
 62
    7
 10
471.5
 20
377
 11
441.5
 21
377
  0
LINE
  8
_0-3_躯体と製品
  6
CONTINUOUS
 62
    7
 10
470.62446233809999
 20
377
 11
471.5
 21
377.87553766190001
  0
LINE
  8
_0-3_躯体と製品
  6
CONTINUOUS
 62
    7
 10
469.21024877579998
 20
377
 11
470.21024877579998
 21
378
  0
LINE
  8
_0-3_躯体と製品
  6
CONTINUOUS
 62
    7
 10
467.79603521339999
 20
377
 11
468.79603521339999
 21
378
  0
LINE
  8
_0-3_躯体と製品
  6
CONTINUOUS
 62
    7
 10
466.381821651
 20
377
 11
467.381821651
 21
378
  0
LINE
  8
_0-3_躯体と製品
  6
CONTINUOUS
 62
    7
 10
464.9676080886
 20
377
 11
465.9676080886
 21
378
  0
LINE
  8
_0-3_躯体と製品
  6
CONTINUOUS
 62
    7
 10
463.5533945263
 20
377
 11
464.5533945263
 21
378
  0
LINE
  8
_0-3_躯体と製品
  6
CONTINUOUS
 62
    7
 10
462.1391809639
 20
377
 11
463.1391809639
 21
378
  0
LINE
  8
_0-3_躯体と製品
  6
CONTINUOUS
 62
    7
 10
460.72496740150001
 20
377
 11
461.72496740150001
 21
378
  0
LINE
  8
_0-3_躯体と製品
  6
CONTINUOUS
 62
    7
 10
459.3107538392
 20
377
 11
460.3107538392
 21
378
  0
LINE
  8
_0-3_躯体と製品
  6
CONTINUOUS
 62
    7
 10
457.89654027680001
 20
377
 11
458.89654027680001
 21
378
  0
LINE
  8
_0-3_躯体と製品
  6
CONTINUOUS
 62
    7
 10
456.48232671440002
 20
377
 11
457.48232671440002
 21
378
  0
LINE
  8
_0-3_躯体と製品
  6
CONTINUOUS
 62
    7
 10
455.06811315200002
 20
377
 11
456.06811315200002
 21
378
  0
LINE
  8
_0-3_躯体と製品
  6
CONTINUOUS
 62
    7
 10
453.65389958970002
 20
377
 11
454.65389958970002
 21
378
  0
LINE
  8
_0-3_躯体と製品
  6
CONTINUOUS
 62
    7
 10
452.23968602730002
 20
377
 11
453.23968602730002
 21
378
  0
LINE
  8
_0-3_躯体と製品
  6
CONTINUOUS
 62
    7
 10
450.82547246489997
 20
377
 11
451.82547246489997
 21
378
  0
LINE
  8
_0-3_躯体と製品
  6
CONTINUOUS
 62
    7
 10
449.41125890249998
 20
377
 11
450.41125890249998
 21
378
  0
LINE
  8
_0-3_躯体と製品
  6
CONTINUOUS
 62
    7
 10
447.99704534019997
 20
377
 11
448.99704534019997
 21
378
  0
LINE
  8
_0-3_躯体と製品
  6
CONTINUOUS
 62
    7
 10
446.58283177779998
 20
377
 11
447.58283177779998
 21
378
  0
LINE
  8
_0-3_躯体と製品
  6
CONTINUOUS
 62
    7
 10
445.16861821539999
 20
377
 11
446.16861821539999
 21
378
  0
LINE
  8
_0-3_躯体と製品
  6
CONTINUOUS
 62
    7
 10
443.75440465309998
 20
377
 11
444.75440465309998
 21
378
  0
LINE
  8
_0-3_躯体と製品
  6
CONTINUOUS
 62
    7
 10
442.34019109069999
 20
377
 11
443.34019109069999
 21
378
  0
LINE
  8
_0-3_躯体と製品
  6
CONTINUOUS
 62
    7
 10
441.5
 20
377.5740224717
 11
441.9259775283
 21
378
  0
LINE
  8
_0-3_躯体と製品
  6
CONTINUOUS
 62
    7
 10
452.44999999999999
 20
379
 11
452.44999999999999
 21
369.69999999999999
  0
LINE
  8
_0-3_躯体と製品
  6
CONTINUOUS
 62
    7
 10
460.55000000000001
 20
379
 11
460.55000000000001
 21
369.69999999999999
  0
LINE
  8
_0-3_躯体と製品
  6
CONTINUOUS
 62
    7
 10
451.75
 20
369
 11
452.44999999999999
 21
369.69999999999999
  0
LINE
  8
_0-3_躯体と製品
  6
CONTINUOUS
 62
    7
 10
451.75
 20
350.371826
 11
451.75
 21
369
  0
LINE
  8
_0-3_躯体と製品
  6
CONTINUOUS
 62
    7
 10
452
 20
338.5
 11
452
 21
339.36330400000003
  0
LINE
  8
_0-3_躯体と製品
  6
CONTINUOUS
 62
    7
 10
449.87497000000002
 20
339.73800399999999
 11
451.75
 21
350.371826
  0
LINE
  8
_0-3_躯体と製品
  6
CONTINUOUS
 62
    7
 10
456
 20
350
 11
457
 21
350
  0
LINE
  8
_0-3_躯体と製品
  6
CONTINUOUS
 62
    7
 10
461.25
 20
369
 11
460.55000000000001
 21
369.69999999999999
  0
LINE
  8
_0-3_躯体と製品
  6
CONTINUOUS
 62
    7
 10
461.25
 20
350.371826
 11
461.25
 21
369
  0
LINE
  8
_0-3_躯体と製品
  6
CONTINUOUS
 62
    7
 10
460
 20
337.5
 11
453
 21
337.5
  0
ARC
  8
_0-3_躯体と製品
  6
CONTINUOUS
 62
    7
 10
460
 20
338.5
 40
1
 50
270
 51
0
  0
LINE
  8
_0-3_躯体と製品
  6
CONTINUOUS
 62
    7
 10
461
 20
338.5
 11
461
 21
339.36330400000003
  0
LINE
  8
_0-3_躯体と製品
  6
CONTINUOUS
 62
    7
 10
463.12502999999998
 20
339.73800399999999
 11
458.93959699999999
 21
339
  0
LINE
  8
_0-3_躯体と製品
  6
CONTINUOUS
 62
    7
 10
456
 20
350
 11
454.06040300000001
 21
339
  0
LINE
  8
_0-3_躯体と製品
  6
CONTINUOUS
 62
    7
 10
457
 20
350
 11
458.93959699999999
 21
339
  0
LINE
  8
_0-3_躯体と製品
  6
CONTINUOUS
 62
    7
 10
463.12502999999998
 20
339.73800399999999
 11
461.25
 21
350.371826
  0
LINE
  8
_0-3_躯体と製品
  6
CONTINUOUS
 62
    7
 10
451.75
 20
369
 11
461.25
 21
369
  0
LINE
  8
_0-3_躯体と製品
  6
CONTINUOUS
 62
    7
 10
452.44999999999999
 20
369.69999999999999
 11
460.55000000000001
 21
369.69999999999999
  0
LINE
  8
_0-3_躯体と製品
  6
CONTINUOUS
 62
    7
 10
449.87497000000002
 20
339.73800399999999
 11
454.06040300000001
 21
339
  0
ARC
  8
_0-3_躯体と製品
  6
CONTINUOUS
 62
    7
 10
453
 20
338.5
 40
1
 50
180
 51
270
  0
LINE
  8
_0-3_躯体と製品
  6
CONTINUOUS
 62
    7
 10
438.5
 20
379
 11
440
 21
379
  0
LINE
  8
_0-3_躯体と製品
  6
CONTINUOUS
 62
    7
 10
440
 20
379
 11
440
 21
379.5
  0
LINE
  8
_0-3_躯体と製品
  6
CONTINUOUS
 62
    7
 10
440
 20
379.5
 11
451.5
 21
379.5
  0
LINE
  8
_0-3_躯体と製品
  6
CONTINUOUS
 62
    7
 10
451.5
 20
379.5
 11
451.5
 21
379
  0
ARC
  8
_0-3_躯体と製品
  6
CONTINUOUS
 62
    7
 10
443.25
 20
388.25
 40
0.75
 50
270
 51
90
  0
ARC
  8
_0-3_躯体と製品
  6
CONTINUOUS
 62
    7
 10
442.25
 20
384.25
 40
0.75
 50
270
 51
90
  0
ARC
  8
_0-3_躯体と製品
  6
CONTINUOUS
 62
    7
 10
440.30000000000001
 20
387.19999999999999
 40
0.2999999999999999
 50
90
 51
180
  0
LINE
  8
_0-3_躯体と製品
  6
CONTINUOUS
 62
    7
 10
440.30000000000001
 20
387.5
 11
443.25
 21
387.5
  0
LINE
  8
_0-3_躯体と製品
  6
CONTINUOUS
 62
    7
 10
440.30000000000001
 20
385
 11
442.25
 21
385
  0
ARC
  8
_0-3_躯体と製品
  6
CONTINUOUS
 62
    7
 10
440.30000000000001
 20
385.30000000000001
 40
0.2999999999999999
 50
180
 51
270
  0
LINE
  8
_0-3_躯体と製品
  6
CONTINUOUS
 62
    7
 10
440
 20
385.30000000000001
 11
440
 21
387.19999999999999
  0
ARC
  8
_0-3_躯体と製品
  6
CONTINUOUS
 62
    7
 10
440.30000000000001
 20
383.19999999999999
 40
0.2999999999999999
 50
90
 51
180
  0
LINE
  8
_0-3_躯体と製品
  6
CONTINUOUS
 62
    7
 10
440.30000000000001
 20
383.5
 11
442.25
 21
383.5
  0
ARC
  8
_0-3_躯体と製品
  6
CONTINUOUS
 62
    7
 10
440.30000000000001
 20
381.80000000000001
 40
0.2999999999999999
 50
180
 51
270
  0
LINE
  8
_0-3_躯体と製品
  6
CONTINUOUS
 62
    7
 10
440
 20
381.80000000000001
 11
440
 21
383.19999999999999
  0
LINE
  8
_0-3_躯体と製品
  6
CONTINUOUS
 62
    7
 10
439
 20
389
 11
443.25
 21
389
  0
ARC
  8
_0-3_躯体と製品
  6
CONTINUOUS
 62
    7
 10
439
 20
388.5
 40
0.5
 50
90
 51
180
  0
LINE
  8
_0-3_躯体と製品
  6
CONTINUOUS
 62
    7
 10
438.5
 20
388.5
 11
438.5
 21
379
  0
LINE
  8
_0-3_躯体と製品
  6
CONTINUOUS
 62
    7
 10
451.5
 20
379
 11
461.5
 21
379
  0
LINE
  8
_0-3_躯体と製品
  6
CONTINUOUS
 62
    7
 10
457
 20
381.5
 11
472.69999999999999
 21
381.5
  0
LINE
  8
_0-3_躯体と製品
  6
CONTINUOUS
 62
    7
 10
440.30000000000001
 20
381.5
 11
456
 21
381.5
  0
LINE
  8
_0-3_躯体と製品
  6
CONTINUOUS
 62
    7
 10
461.5
 20
379
 11
461.5
 21
379.5
  0
LINE
  8
_0-3_躯体と製品
  6
CONTINUOUS
 62
    7
 10
461.5
 20
379.5
 11
473
 21
379.5
  0
LINE
  8
_0-3_躯体と製品
  6
CONTINUOUS
 62
    7
 10
473
 20
379.5
 11
473
 21
379
  0
LINE
  8
_0-3_躯体と製品
  6
CONTINUOUS
 62
    7
 10
473
 20
379
 11
475
 21
379
  0
ARC
  8
_0-3_躯体と製品
  6
CONTINUOUS
 62
    7
 10
474
 20
397
 40
1
 50
0
 51
180
  0
LINE
  8
_0-3_躯体と製品
  6
CONTINUOUS
 62
    7
 10
485.5
 20
380
 11
485.5
 21
379
  0
LINE
  8
_0-3_躯体と製品
  6
CONTINUOUS
 62
    7
 10
485.5
 20
379
 11
487
 21
379
  0
LINE
  8
_0-3_躯体と製品
  6
CONTINUOUS
 62
    7
 10
456.5
 20
381
 11
457
 21
381.5
  0
LINE
  8
_0-3_躯体と製品
  6
CONTINUOUS
 62
    7
 10
475
 20
379
 11
475
 21
380
  0
ARC
  8
_0-3_躯体と製品
  6
CONTINUOUS
 62
    7
 10
472.69999999999999
 20
381.80000000000001
 40
0.2999999999999999
 50
270
 51
0
  0
LINE
  8
_0-3_躯体と製品
  6
CONTINUOUS
 62
    7
 10
472.5
 20
389
 11
469.75
 21
389
  0
ARC
  8
_0-3_躯体と製品
  6
CONTINUOUS
 62
    7
 10
472.5
 20
389.5
 40
0.5
 50
270
 51
0
  0
LINE
  8
_0-3_躯体と製品
  6
CONTINUOUS
 62
    7
 10
473
 20
389.5
 11
473
 21
397
  0
ARC
  8
_0-3_躯体と製品
  6
CONTINUOUS
 62
    7
 10
469.75
 20
388.25
 40
0.75
 50
90
 51
270
  0
ARC
  8
_0-3_躯体と製品
  6
CONTINUOUS
 62
    7
 10
470.75
 20
384.25
 40
0.75
 50
90
 51
270
  0
LINE
  8
_0-3_躯体と製品
  6
CONTINUOUS
 62
    7
 10
472.69999999999999
 20
383.5
 11
470.75
 21
383.5
  0
ARC
  8
_0-3_躯体と製品
  6
CONTINUOUS
 62
    7
 10
472.69999999999999
 20
383.19999999999999
 40
0.2999999999999999
 50
0
 51
90
  0
LINE
  8
_0-3_躯体と製品
  6
CONTINUOUS
 62
    7
 10
473
 20
383.19999999999999
 11
473
 21
381.80000000000001
  0
LINE
  8
_0-3_躯体と製品
  6
CONTINUOUS
 62
    7
 10
472.69999999999999
 20
385
 11
470.75
 21
385
  0
ARC
  8
_0-3_躯体と製品
  6
CONTINUOUS
 62
    7
 10
472.69999999999999
 20
385.30000000000001
 40
0.2999999999999999
 50
270
 51
0
  0
LINE
  8
_0-3_躯体と製品
  6
CONTINUOUS
 62
    7
 10
473
 20
387.19999999999999
 11
473
 21
385.30000000000001
  0
ARC
  8
_0-3_躯体と製品
  6
CONTINUOUS
 62
    7
 10
472.69999999999999
 20
387.19999999999999
 40
0.2999999999999999
 50
0
 51
90
  0
LINE
  8
_0-3_躯体と製品
  6
CONTINUOUS
 62
    7
 10
472.69999999999999
 20
387.5
 11
469.75
 21
387.5
  0
LINE
  8
_0-3_躯体と製品
  6
CONTINUOUS
 62
    7
 10
456.5
 20
381
 11
456
 21
381.5
  0
LINE
  8
_0-3_躯体と製品
  6
CONTINUOUS
 62
    7
 10
445.5
 20
395.2870617369
 11
445.5
 21
388
  0
LINE
  8
_0-3_躯体と製品
  6
CONTINUOUS
 62
    7
 10
440.5
 20
385.89999999999998
 11
445
 21
385.89999999999998
  0
LINE
  8
_0-3_躯体と製品
  6
CONTINUOUS
 62
    7
 10
440.5
 20
385.89999999999998
 11
440.5
 21
387.5
  0
LINE
  8
_0-3_躯体と製品
  6
CONTINUOUS
 62
    7
 10
440.5
 20
387.5
 11
445
 21
387.5
  0
ARC
  8
_0-3_躯体と製品
  6
CONTINUOUS
 62
    7
 10
445
 20
388
 40
2.1000000000000001
 50
270
 51
0
  0
ARC
  8
_0-3_躯体と製品
  6
CONTINUOUS
 62
    7
 10
445
 20
388
 40
0.5
 50
270
 51
0
  0
LINE
  8
_0-3_躯体と製品
  6
CONTINUOUS
 62
    7
 10
472.5
 20
385.89999999999998
 11
468
 21
385.89999999999998
  0
LINE
  8
_0-3_躯体と製品
  6
CONTINUOUS
 62
    7
 10
468
 20
387.5
 11
472.5
 21
387.5
  0
LINE
  8
_0-3_躯体と製品
  6
CONTINUOUS
 62
    7
 10
472.5
 20
387.5
 11
472.5
 21
385.89999999999998
  0
ARC
  8
_0-3_躯体と製品
  6
CONTINUOUS
 62
    7
 10
468
 20
388
 40
2.1000000000000001
 50
180
 51
270
  0
ARC
  8
_0-3_躯体と製品
  6
CONTINUOUS
 62
    7
 10
468
 20
388
 40
0.5
 50
180
 51
270
  0
LINE
  8
_0-3_躯体と製品
  6
CONTINUOUS
 62
    7
 10
447.10000000000002
 20
395.2870617369
 11
447.10000000000002
 21
388
  0
ARC
  8
_0-3_躯体と製品
  6
CONTINUOUS
 62
    7
 10
447.60000000000002
 20
395.2870617369
 40
0.5
 50
86.999999999989996
 51
180
  0
LINE
  8
_0-3_躯体と製品
  6
CONTINUOUS
 62
    7
 10
465.89999999999998
 20
394.35420326569999
 11
465.89999999999998
 21
388
  0
ARC
  8
_0-3_躯体と製品
  6
CONTINUOUS
 62
    7
 10
465.39999999999998
 20
394.35420326569999
 40
0.5
 50
0
 51
86.999999999989996
  0
ARC
  8
_0-3_躯体と製品
  6
CONTINUOUS
 62
    7
 10
447.60000000000002
 20
395.2870617369
 40
2.1000000000000001
 50
86.999999999989996
 51
180
  0
LINE
  8
_0-3_躯体と製品
  6
CONTINUOUS
 62
    7
 10
467.5
 20
394.35420326569999
 11
467.5
 21
388
  0
ARC
  8
_0-3_躯体と製品
  6
CONTINUOUS
 62
    7
 10
465.39999999999998
 20
394.35420326569999
 40
2.1000000000000001
 50
0
 51
86.999999999989996
  0
LINE
  8
_0-3_躯体と製品
  6
CONTINUOUS
 62
    7
 10
460.90528641740002
 20
393.08770270410002
 11
451.71789469769999
 21
393.56919350150002
  0
LINE
  8
_0-3_躯体と製品
  6
CONTINUOUS
 62
    7
 10
451.7702306539
 20
394.56782303620002
 11
451.71789469769999
 21
393.56919350150002
  0
ARC
  8
_0-3_躯体と製品
  6
CONTINUOUS
 62
    7
 10
450.77160111910001
 20
394.62015899250002
 40
1
 50
357.00000000000102
 51
86.999999999989996
  0
LINE
  8
_0-3_躯体と製品
  6
CONTINUOUS
 62
    7
 10
460.95762237359997
 20
394.08633223880003
 11
460.90528641740002
 21
393.08770270410002
  0
ARC
  8
_0-3_躯体と製品
  6
CONTINUOUS
 62
    7
 10
461.95625190840002
 20
394.03399628260001
 40
1
 50
86.999999999989996
 51
177
  0
LINE
  8
_0-3_躯体と製品
  6
CONTINUOUS
 62
    7
 10
465.42616797810001
 20
394.853518033
 11
447.6261679781
 21
395.78637650429999
  0
LINE
  8
_0-3_躯体と製品
  6
CONTINUOUS
 62
    7
 10
465.50990550810002
 20
396.45132528869999
 11
447.70990550810001
 21
397.3841837599
  0
LINE
  8
_0-3_躯体と製品
  6
CONTINUOUS
 62
    7
 10
453.50411139570002
 20
397.08052229660001
 11
453.31570195329999
 21
393.48545597150002
  0
LINE
  8
_0-3_躯体と製品
  6
CONTINUOUS
 62
    7
 10
459.49588860429998
 20
396.76650655920002
 11
459.30747916180002
 21
393.17144023399999
  0
LINE
  8
_0-3_躯体と製品
  6
CONTINUOUS
 62
    7
 10
470.5
 20
387.5
 11
470.5
 21
385.89999999999998
  0
LINE
  8
_0-3_躯体と製品
  6
CONTINUOUS
 62
    7
 10
442.5
 20
387.5
 11
442.5
 21
385.89999999999998
  0
ARC
  8
_0-3_躯体と製品
  6
CONTINUOUS
 62
    7
 10
468.41363481579998
 20
420.32433295150003
 40
1
 50
37.626847362280003
 51
86.999999999989996
  0
LINE
  8
_0-3_躯体と製品
  6
CONTINUOUS
 62
    7
 10
447.19188564299998
 20
423.23898792099999
 11
468.50783953709998
 21
422.12186611409999
  0
ARC
  8
_0-3_躯体と製品
  6
CONTINUOUS
 62
    7
 10
447.09768092169998
 20
421.44145475840003
 40
1.8
 50
86.999999999989996
 51
136.3731526377
  0
LINE
  8
_0-3_躯体と製品
  6
CONTINUOUS
 62
    7
 10
447.15001687799997
 20
422.44008429320002
 11
468.46597077209998
 21
421.32296248630001
  0
LINE
  8
_0-3_躯体と製品
  6
CONTINUOUS
 62
    7
 10
446.37383227819998
 20
422.13141355520003
 11
433.44388118440003
 21
408.56636067860001
  0
ARC
  8
_0-3_躯体と製品
  6
CONTINUOUS
 62
    7
 10
447.09768092169998
 20
421.44145475840003
 40
1
 50
86.999999999989996
 51
136.3731526377
  0
LINE
  8
_0-3_躯体と製品
  6
CONTINUOUS
 62
    7
 10
428.88379802679998
 20
411.08536808420001
 11
429.51740095299999
 21
411.57378115929998
  0
LINE
  8
_0-3_躯体と製品
  6
CONTINUOUS
 62
    7
 10
428.88379802679998
 20
411.08536808420001
 11
430.71534707320001
 21
408.70935709209999
  0
ARC
  8
_0-3_躯体と製品
  6
CONTINUOUS
 62
    7
 10
432.14095364249999
 20
409.80828653010002
 40
1
 50
217.62684873290002
 51
316.37315263772001
  0
ARC
  8
_0-3_躯体と製品
  6
CONTINUOUS
 62
    7
 10
432.14095364249999
 20
409.80828653010002
 40
1.8
 50
217.6268481237
 51
316.37315263772001
  0
LINE
  8
_0-3_躯体と製品
  6
CONTINUOUS
 62
    7
 10
484.86615541409998
 20
408.67307585190002
 11
482.79627900729997
 21
406.50152990390001
  0
LINE
  8
_0-3_躯体と製品
  6
CONTINUOUS
 62
    7
 10
485.44523432890003
 20
408.12110881450002
 11
484.86615541409998
 21
408.67307585190002
  0
LINE
  8
_0-3_躯体と製品
  6
CONTINUOUS
 62
    7
 10
485.44523432890003
 20
408.12110881450002
 11
483.37535792210002
 21
405.9495628665
  0
ARC
  8
_0-3_躯体と製品
  6
CONTINUOUS
 62
    7
 10
482.07243038019999
 20
407.19148871789997
 40
1
 50
217.6268473623
 51
316.37315126712997
  0
ARC
  8
_0-3_躯体と製品
  6
CONTINUOUS
 62
    7
 10
482.07243038019999
 20
407.19148871789997
 40
1.8
 50
217.6268473623
 51
316.37315187627996
  0
LINE
  8
_0-3_躯体と製品
  6
CONTINUOUS
 62
    7
 10
469.83924139969997
 20
421.42326237060001
 11
481.28042673710002
 21
406.58097235510002
  0
LINE
  8
_0-3_躯体と製品
  6
CONTINUOUS
 62
    7
 10
469.20563847350002
 20
420.9348492954
 11
480.64682381099999
 21
406.0925592799
  0
ARC
  8
_0-3_躯体と製品
  6
CONTINUOUS
 62
    7
 10
468.41363481579998
 20
420.32433295150003
 40
1.8
 50
37.626847362280003
 51
86.999999999989996
  0
LINE
  8
_0-3_躯体と製品
  6
CONTINUOUS
 62
    7
 10
429.51740095299999
 20
411.57378115929998
 11
431.34894999940002
 21
409.19777016720002
  0
LINE
  8
_0-3_躯体と製品
  6
CONTINUOUS
 62
    7
 10
445.7947533633
 20
422.68338059259997
 11
432.86480228609997
 21
409.11832773330002
  0
ARC
  8
_0-3_躯体と製品
  6
CONTINUOUS
 62
    7
 10
456.66593384229998
 20
425.88460627699999
 40
0.5999999999999999
 50
357
 51
100.70023299999998
  0
ARC
  8
_0-3_躯体と製品
  6
CONTINUOUS
 62
    7
 10
459.36223358619998
 20
425.74329919510001
 40
0.5999999999999999
 50
73.299767000000003
 51
176.99999999999997
  0
LINE
  8
_0-3_躯体と製品
  6
CONTINUOUS
 62
    7
 10
458.7610019407
 20
425.73550955280001
 11
457.2630576386
 21
425.8140134871
  0
ARC
  8
_0-3_躯体と製品
  6
CONTINUOUS
 62
    7
 10
456.0366318948
 20
422.58032899900002
 40
3.4500000000000002
 50
126.309124
 51
173.76216300000002
  0
ARC
  8
_0-3_躯体と製品
  6
CONTINUOUS
 62
    7
 10
459.64796790010001
 20
422.386557719
 40
3.4500000000000002
 50
0.3127429999988999
 51
47.820489000000002
  0
ARC
  8
_0-3_躯体と製品
  6
CONTINUOUS
 62
    7
 10
457.7242563474
 20
420.28371713270002
 40
6.2999999999999998
 50
47.696869
 51
126.30937100000001
  0
LINE
  8
_0-3_躯体と製品
  6
CONTINUOUS
 62
    7
 10
459.04374571689999
 20
388.13910632289998
 11
453.05196850840002
 21
388.45312206030002
  0
CIRCLE
  8
_0-3_躯体と製品
  6
CONTINUOUS
 62
    7
 10
456.5
 20
396.92351442789999
 40
1.3999999999999999
  0
LINE
  8
_0-3_躯体と製品
  6
CONTINUOUS
 62
    7
 10
460.84575119430002
 20
422.52341914879997
 11
459.6001554357
 21
398.75603622160003
  0
LINE
  8
_0-3_躯体と製品
  6
CONTINUOUS
 62
    7
 10
460.27803030379999
 20
422.55317213990003
 11
459.03243454519998
 21
398.78578921280001
  0
LINE
  8
_0-3_躯体と製品
  6
CONTINUOUS
 62
    7
 10
454.85397398570001
 20
422.8374348863
 11
453.60837822719998
 21
399.0700519591
  0
LINE
  8
_0-3_躯体と製品
  6
CONTINUOUS
 62
    7
 10
455.42169487630002
 20
422.80768189510002
 11
454.17609911770001
 21
399.040298968
  0
LINE
  8
_0-3_躯体と製品
  6
CONTINUOUS
 62
    7
 10
453.60837822719998
 20
399.0700519591
 11
453.50411139570002
 21
397.08052229660001
  0
LINE
  8
_0-3_躯体と製品
  6
CONTINUOUS
 62
    7
 10
454.17609911770001
 20
399.040298968
 11
454.07183228619999
 21
397.05076930550001
  0
LINE
  8
_0-3_躯体と製品
  6
CONTINUOUS
 62
    7
 10
459.03243454519998
 20
398.78578921280001
 11
458.92816771380001
 21
396.79625955030002
  0
LINE
  8
_0-3_躯体と製品
  6
CONTINUOUS
 62
    7
 10
459.6001554357
 20
398.75603622160003
 11
459.49588860429998
 21
396.76650655920002
  0
LINE
  8
_0-3_躯体と製品
  6
CONTINUOUS
 62
    7
 10
453.31570195329999
 20
393.48545597150002
 11
453.05196850840002
 21
388.45312206030002
  0
LINE
  8
_0-3_躯体と製品
  6
CONTINUOUS
 62
    7
 10
459.30747916180002
 20
393.17144023399999
 11
459.04374571689999
 21
388.13910632289998
  0
LINE
  8
_0-3_躯体と製品
  6
CONTINUOUS
 62
    7
 10
268.34299213129998
 20
439.53935457490002
 11
288.80883393980002
 21
438.46678525459998
  0
LINE
  8
_0-0_0
  6
CONTINUOUS
 62
    7
 10
479.4724639012
 20
381.5
 11
475.5
 21
381.5
  0
LINE
  8
_0-0_0
  6
CONTINUOUS
 62
    7
 10
475
 20
379
 11
475
 21
380
  0
ARC
  8
_0-0_0
  6
CONTINUOUS
 62
    7
 10
475.5
 20
382
 40
0.5
 50
180
 51
270
  0
ARC
  8
_0-0_0
  6
CONTINUOUS
 62
    7
 10
475.49999800000001
 20
382
 40
0.500001
 50
180
 51
270
  0
LINE
  8
_0-0_0
  6
CONTINUOUS
 62
    7
 10
475
 20
380.00000199999999
 11
475
 21
379
  0
LINE
  8
_0-0_0
  6
CONTINUOUS
 62
    7
 10
485.5
 20
380.00000199999999
 11
485.5
 21
379
  0
LINE
  8
_0-0_0
  6
CONTINUOUS
 62
    7
 10
487
 20
379
 11
485.5
 21
379
  0
LINE
  8
_0-0_0
  6
CONTINUOUS
 62
    7
 10
487
 20
381.00000199999999
 11
487
 21
379
  0
ARC
  8
_0-0_0
  6
CONTINUOUS
 62
    7
 10
486.5
 20
381.00000199999999
 40
0.5
 50
0
 51
90
  0
LINE
  8
_0-0_0
  6
CONTINUOUS
 62
    7
 10
475.25
 20
384.75000199999999
 11
476.50000000009999
 21
384.75000199999999
  0
LINE
  8
_0-0_0
  6
CONTINUOUS
 62
    7
 10
479.50000000009999
 20
384.75000199999999
 11
480.75
 21
384.75000199999999
  0
LINE
  8
_0-0_0
  6
CONTINUOUS
 62
    7
 10
475
 20
380.00000199999999
 11
482.50594887379998
 21
380.00000199999999
  0
LINE
  8
_0-0_0
  6
CONTINUOUS
 62
    7
 10
482.50594887379998
 20
380.00000199999999
 11
485.5
 21
380.00000199999999
  0
LINE
  8
_0-0_0
  6
CONTINUOUS
 62
    7
 10
480.5
 20
381.50000199999999
 11
475.49999800000001
 21
381.50000199999999
  0
LINE
  8
_0-0_0
  6
CONTINUOUS
 62
    7
 10
486.5
 20
381.50000199999999
 11
482.5
 21
381.50000199999999
  0
ARC
  8
_0-0_0
  6
CONTINUOUS
 62
    7
 10
480.5
 20
382.00000199999999
 40
0.25
 50
270
 51
0
  0
ARC
  8
_0-0_0
  6
CONTINUOUS
 62
    7
 10
475.49999800000001
 20
382
 40
0.2500009999999999
 50
180
 51
270
  0
LINE
  8
_0-0_0
  6
CONTINUOUS
 62
    7
 10
480.75
 20
382.00000199999999
 11
480.75
 21
384.75000199999999
  0
LINE
  8
_0-0_0
  6
CONTINUOUS
 62
    7
 10
475.25
 20
382
 11
475.25
 21
384.75000199999999
  0
LINE
  8
_0-0_0
  6
CONTINUOUS
 62
    7
 10
480.5
 20
381.75000199999999
 11
475.49999800000001
 21
381.75000199999999
  0
LINE
  8
_0-0_0
  6
CONTINUOUS
 62
    7
 10
475
 20
385.00000199999999
 11
475
 21
382
  0
LINE
  8
_0-0_0
  6
CONTINUOUS
 62
    7
 10
481
 20
382.00000199999999
 11
481
 21
385.00000199999999
  0
LINE
  8
_0-0_0
  6
CONTINUOUS
 62
    7
 10
482.5
 20
386.00000199999999
 11
482.5
 21
381.50000199999999
  0
ARC
  8
_0-0_0
  6
CONTINUOUS
 62
    7
 10
482
 20
386.00000199999999
 40
0.5
 50
0
 51
90
  0
ARC
  8
_0-0_0
  6
CONTINUOUS
 62
    7
 10
480.5
 20
382.00000199999999
 40
0.5
 50
270
 51
0
  0
LINE
  8
_0-0_0
  6
CONTINUOUS
 62
    7
 10
482
 20
386.50000199999999
 11
480.75
 21
386.50000199999999
  0
ARC
  8
_0-0_0
  6
CONTINUOUS
 62
    7
 10
480.75
 20
385.50000199999999
 40
1
 50
90
 51
180
  0
LINE
  8
_0-0_0
  6
CONTINUOUS
 62
    7
 10
479.75
 20
385.50000199999999
 11
479.75
 21
385.00000199999999
  0
LINE
  8
_0-0_0
  6
CONTINUOUS
 62
    7
 10
479.75
 20
385.00000199999999
 11
481
 21
385.00000199999999
  0
LINE
  8
_0-0_0
  6
CONTINUOUS
 62
    7
 10
475
 20
385.00000199999999
 11
476.25
 21
385.00000199999999
  0
LINE
  8
_0-0_0
  6
CONTINUOUS
 62
    7
 10
476.25
 20
385.50000199999999
 11
476.25
 21
385.00000199999999
  0
ARC
  8
_0-0_0
  6
CONTINUOUS
 62
    7
 10
475.25
 20
385.50000199999999
 40
1
 50
0
 51
90
  0
LINE
  8
_0-0_0
  6
CONTINUOUS
 62
    7
 10
475.25
 20
386.50000199999999
 11
475
 21
386.50000199999999
  0
LINE
  8
_0-0_0
  6
CONTINUOUS
 62
    7
 10
476.50000000009999
 20
384.75000199999999
 11
476.50000000009999
 21
403.66955785990001
  0
LINE
  8
_0-0_0
  6
CONTINUOUS
 62
    7
 10
479.50000000009999
 20
384.75000199999999
 11
479.50000000009999
 21
403.71259458349999
  0
ARC
  8
_0-0_0
  6
CONTINUOUS
 62
    7
 10
501.40486745240003
 20
401.49066429120001
 40
25
 50
73.590455650790005
 51
175
  0
ARC
  8
_0-0_0
  6
CONTINUOUS
 62
    7
 10
502.54048463509997
 20
402.12573687309998
 40
23.087541006009999
 50
75.801339104809998
 51
176.8159758207
  0
CIRCLE
  8
_0-0_0
  6
CONTINUOUS
 62
    7
 10
483.0655459848
 20
416.4914160358
 40
0.9
  0
LINE
  8
_0-0_0
  6
CONTINUOUS
 62
    7
 10
483.0655459848
 20
416.4914160358
 11
493.5229935214
 21
398.37858558480002
  0
CIRCLE
  8
_0-0_0
  6
CONTINUOUS
 62
    7
 10
496.5229935214
 20
393.18243316209998
 40
6
  0
TEXT
  8
_0-0_0
 62
    7
 10
494.1063268547
 20
391.01576649549997
 40
3.3300000000000001
 41
1
 50
0
  1
11
  0
ARC
  8
_0-0_0
  6
CONTINUOUS
 62
    7
 10
508.32614821829998
 20
424.9927040444
 40
0.5
 50
255.80133910479998
 51
73.590455650789977
  0
LINE
  8
_0-0_0
  6
CONTINUOUS
 62
    7
 10
475
 20
397
 11
475
 21
386.50000199999999
  0
LINE
  8
_0-3_躯体と製品
  6
CONTINUOUS
 62
    7
 10
493.37091317969998
 20
378
 11
477.5
 21
378
  0
LINE
  8
_0-0_0
  6
CONTINUOUS
 62
    7
 10
493.37091317969998
 20
378
 11
493.37091317969998
 21
377
  0
TEXT
  8
_0-4_図枠
 62
    7
 10
433.43099461510002
 20
357.24386852560002
 40
5
 41
1
 50
0
  1
19
  0
TEXT
  8
_0-4_図枠
 62
    7
 10
438.08237482930002
 20
326.32860020380002
 40
5
 41
1
 50
0
  1
16
  0
TEXT
  8
_0-4_図枠
 62
    7
 10
478.45916885989999
 20
363.88598350989997
 40
5
 41
1
 50
0
  1
７
  0
TEXT
  8
_0-4_図枠
 62
    7
 10
477.00979649359999
 20
348.4600133715
 40
5
 41
1
 50
0
  1
15
  0
TEXT
  8
_0-4_図枠
 62
    7
 10
476.12997757649998
 20
445.53405013960003
 40
5
 41
1
 50
0
  1
13
  0
TEXT
  8
_0-4_図枠
 62
    7
 10
492.39091880080002
 20
449.05574336170002
 40
5
 41
1
 50
0
  1
６
  0
TEXT
  8
_0-4_図枠
 62
    7
 10
520.39865585040002
 20
436.9136998075
 40
5
 41
1
 50
0
  1
５
  0
TEXT
  8
_0-4_図枠
 62
    7
 10
589.89006385360005
 20
449.66568090300001
 40
5
 41
1
 50
0
  1
８
  0
TEXT
  8
_0-4_図枠
 62
    7
 10
311.86250194540003
 20
393.02606901849998
 40
5
 41
1
 50
0
  1
12
  0
TEXT
  8
_0-4_図枠
 62
    7
 10
309.93655552439998
 20
501.04322851979998
 40
5
 41
1
 50
0
  1
９
  0
INSERT
  2
-000-BK2
  8
_0-2_寸法
 10
0
 20
3
 41
1
 42
1
 50
0
  0
INSERT
  2
-001-BK3
  8
_0-2_寸法
 10
0
 20
3
 41
1
 42
1
 50
0
  0
INSERT
  2
-002-BK4
  8
_0-2_寸法
 10
0
 20
3
 41
1
 42
1
 50
0
  0
INSERT
  2
-003-BK7
  8
_0-2_寸法
 10
0
 20
3
 41
1
 42
1
 50
0
  0
INSERT
  2
-004-BK8
  8
_0-2_寸法
 10
0
 20
3
 41
1
 42
1
 50
0
  0
INSERT
  2
-005-BK9
  8
_0-2_寸法
 10
0
 20
3
 41
1
 42
1
 50
0
  0
INSERT
  2
-006-BK10
  8
_0-2_寸法
 10
0
 20
3
 41
1
 42
1
 50
0
  0
INSERT
  2
-007-BK11
  8
_0-2_寸法
 10
0
 20
3
 41
1
 42
1
 50
0
  0
INSERT
  2
-008-BK12
  8
_0-2_寸法
 10
0
 20
3
 41
1
 42
1
 50
0
  0
INSERT
  2
-009-BK13
  8
_0-2_寸法
 10
0
 20
3
 41
1
 42
1
 50
0
  0
INSERT
  2
-010-BK14
  8
_0-2_寸法
 10
0
 20
3
 41
1
 42
1
 50
0
  0
INSERT
  2
-011-BK15
  8
_0-2_寸法
 10
0
 20
3
 41
1
 42
1
 50
0
  0
INSERT
  2
-012-BK16
  8
_0-2_寸法
 10
0
 20
3
 41
1
 42
1
 50
0
  0
INSERT
  2
-013-BK17
  8
_0-2_寸法
 10
0
 20
3
 41
1
 42
1
 50
0
  0
INSERT
  2
-014-BK18
  8
_0-2_寸法
 10
0
 20
3
 41
1
 42
1
 50
0
  0
INSERT
  2
-015-BK19
  8
_0-2_寸法
 10
0
 20
3
 41
1
 42
1
 50
0
  0
INSERT
  2
-016-BK20
  8
_0-2_寸法
 10
0
 20
3
 41
1
 42
1
 50
0
  0
INSERT
  2
-017-BK21
  8
_0-2_寸法
 10
0
 20
3
 41
1
 42
1
 50
0
  0
INSERT
  2
-018-BK22
  8
_0-2_寸法
 10
0
 20
3
 41
1
 42
1
 50
0
  0
INSERT
  2
-019-BK23
  8
_0-2_寸法
 10
0
 20
3
 41
1
 42
1
 50
0
  0
INSERT
  2
-020-BK24
  8
_0-2_寸法
 10
0
 20
3
 41
1
 42
1
 50
0
  0
INSERT
  2
-021-BK25
  8
_0-2_寸法
 10
0
 20
3
 41
1
 42
1
 50
0
  0
INSERT
  2
-022-BK26
  8
_0-2_寸法
 10
0
 20
3
 41
1
 42
1
 50
0
  0
INSERT
  2
-023-BK27
  8
_0-2_寸法
 10
0
 20
3
 41
1
 42
1
 50
0
  0
INSERT
  2
-024-BK28
  8
_0-2_寸法
 10
0
 20
3
 41
1
 42
1
 50
0
  0
INSERT
  2
-025-BK29
  8
_0-2_寸法
 10
0
 20
3
 41
1
 42
1
 50
0
  0
INSERT
  2
-026-BK30
  8
_0-2_寸法
 10
0
 20
3
 41
1
 42
1
 50
0
  0
INSERT
  2
-027-BK31
  8
_0-2_寸法
 10
0
 20
3
 41
1
 42
1
 50
0
  0
INSERT
  2
-028-BK32
  8
_0-2_寸法
 10
0
 20
3
 41
1
 42
1
 50
0
  0
INSERT
  2
-029-BK33
  8
_0-2_寸法
 10
0
 20
3
 41
1
 42
1
 50
0
  0
INSERT
  2
-030-BK34
  8
_0-2_寸法
 10
0
 20
3
 41
1
 42
1
 50
0
  0
INSERT
  2
-031-BK35
  8
_0-2_寸法
 10
0
 20
3
 41
1
 42
1
 50
0
  0
INSERT
  2
-032-BK36
  8
_0-2_寸法
 10
0
 20
3
 41
1
 42
1
 50
0
  0
INSERT
  2
-033-BK37
  8
_0-2_寸法
 10
0
 20
3
 41
1
 42
1
 50
0
  0
INSERT
  2
-034-BK38
  8
_0-2_寸法
 10
0
 20
3
 41
1
 42
1
 50
0
  0
INSERT
  2
-035-BK39
  8
_0-2_寸法
 10
0
 20
3
 41
1
 42
1
 50
0
  0
INSERT
  2
-036-BK40
  8
_0-2_寸法
 10
0
 20
3
 41
1
 42
1
 50
0
  0
INSERT
  2
-037-BK41
  8
_0-2_寸法
 10
0
 20
3
 41
1
 42
1
 50
0
  0
INSERT
  2
-038-BK42
  8
_0-2_寸法
 10
0
 20
3
 41
1
 42
1
 50
0
  0
CIRCLE
  8
_0-2_寸法
  6
CONTINUOUS
 62
    7
 10
256.5
 20
375
 40
1.3999999999999999
  0
CIRCLE
  8
_0-2_寸法
  6
CONTINUOUS
 62
    7
 10
506.5
 20
262
 40
1.3999999999999999
  0
CIRCLE
  8
_0-2_寸法
  6
CONTINUOUS
 62
    7
 10
506.5
 20
262
 40
1.3999999999999999
  0
LINE
  8
_0-2_寸法
  6
CONTINUOUS
 62
    7
 10
506.5
 20
261.75
 11
506.5
 21
261.95658795560001
  0
LINE
  8
_0-2_寸法
  6
CONTINUOUS
 62
    7
 10
582.5
 20
332.57714196529997
 11
582.5
 21
261.95658795560001
  0
LINE
  8
_0-2_寸法
  6
CONTINUOUS
 62
    7
 10
507.5
 20
261.95658795560001
 11
581.5
 21
261.95658795560001
  0
CIRCLE
  8
_0-2_寸法
  6
CONTINUOUS
 62
    7
 10
506.5
 20
261.75
 40
1.3999999999999999
  0
CIRCLE
  8
_0-2_寸法
  6
CONTINUOUS
 62
    7
 10
582.5
 20
332.57714196529997
 40
1.3999999999999999
  0
CIRCLE
  8
_0-2_寸法
  6
CONTINUOUS
 62
    7
 10
582.5
 20
261.95658795560001
 40
1.3999999999999999
  0
TEXT
  8
_0-2_寸法
 62
    7
 10
542
 20
261.97829397779998
 40
5
 41
1
 50
0
  1
75
  0
TEXT
  8
_0-4_図枠
 62
    7
 10
212.5
 20
139.9166666667
 40
5
 41
1
 50
0
  1
ＦＳ５００～７００
  0
TEXT
  8
_0-4_図枠
 62
    7
 10
212.2916666667
 20
112.9166666667
 40
5
 41
1
 50
0
  1
なべＭ６×３５
  0
TEXT
  8
_0-4_図枠
 62
    7
 10
212.2916666667
 20
103.9166666667
 40
4.9900000000000002
 41
1
 50
0
  1
なべＭ４×１０
  0
TEXT
  8
_0-4_図枠
 62
    7
 10
112.5
 20
112.9166666667
 40
5
 41
1
 50
0
  1
ステン小ねじ
  0
TEXT
  8
_0-4_図枠
 62
    7
 10
112.5
 20
103.9166666667
 40
4.9900000000000002
 41
1
 50
0
  1
ステン小ねじ
  0
TEXT
  8
_0-4_図枠
 62
    7
 10
211.4583333333
 20
94.916666666669983
 40
4.9900000000000002
 41
1
 50
0
  1
Ｍ６×４０
  0
TEXT
  8
_0-4_図枠
 62
    7
 10
214.7916666667
 20
76.916666666669983
 40
4.9900000000000002
 41
1
 50
0
  1
φ８×４０
  0
TEXT
  8
_0-4_図枠
 62
    7
 10
212.0833333333
 20
67.916666666669983
 40
4.9900000000000002
 41
1
 50
0
  1
なべ５×５０
  0
TEXT
  8
_0-4_図枠
 62
    7
 10
212.9166666667
 20
58.916666666669983
 40
4.9900000000000002
 41
1
 50
0
  1
１.５×１８×６.５穴
  0
TEXT
  8
_0-4_図枠
 62
    7
 10
212.9166666667
 20
49.916666666669983
 40
4.9900000000000002
 41
1
 50
0
  1
１.５×１８×５.５穴
  0
TEXT
  8
_0-4_図枠
 62
    7
 10
212.2916666667
 20
40.916666666669983
 40
4.9900000000000002
 41
1
 50
0
  1
ｔ１．０×ｗ３０
  0
ARC
  8
_0-0_0
  6
CONTINUOUS
 62
    7
 10
356.51666435229998
 20
376.00013885990001
 40
1
 50
90.954841253870001
 51
175
  0
LINE
  8
_0-0_0
  6
CONTINUOUS
 62
    7
 10
354.52427495619997
 20
376.17445034540003
 11
350.59888741920003
 21
331.30706548900002
  0
ARC
  8
_0-0_0
  6
CONTINUOUS
 62
    7
 10
307.70275269889999
 20
335.05999098610005
 40
43.05999098617
 50
185
 51
355.00000000000102
  0
LINE
  8
_0-0_0
  6
CONTINUOUS
 62
    7
 10
355.52046965419999
 20
376.08729460270001
 11
351.59508211730002
 21
331.2199097463
  0
ARC
  8
_0-0_0
  6
CONTINUOUS
 62
    7
 10
307.70275269889999
 20
335.05999098610005
 40
44.05999098617
 50
185
 51
355.00000000000102
  0
ARC
  8
_0-0_0
  6
CONTINUOUS
 62
    7
 10
356.51666435229998
 20
376.00013885990001
 40
2
 50
90.675170818989997
 51
175
  0
CIRCLE
  8
_0-0_0
  6
CONTINUOUS
 62
    7
 10
280.34630149959997
 20
301.14136427930003
 40
0.9
  0
LINE
  8
_0-0_0
  6
CONTINUOUS
 62
    7
 10
280.34630149959997
 20
301.14136427930003
 11
294.22958868609999
 21
325.1879230623
  0
TEXT
  8
_0-0_0
 62
    7
 10
302.75
 20
263
 40
5
 41
1
 50
0
  1
100
  0
CIRCLE
  8
_0-0_0
  6
CONTINUOUS
 62
    7
 10
297.22958868609999
 20
330.38407548500004
 40
6
  0
LINE
  8
_0-0_0
  6
CONTINUOUS
 62
    7
 10
257.5
 20
262
 11
355.5
 21
262
  0
TEXT
  8
_0-0_0
 62
    7
 10
293.97958868609999
 20
327.38407548500004
 40
5
 41
1
 50
0
  1
12
  0
CIRCLE
  8
_0-0_0
  6
CONTINUOUS
 62
    7
 10
256.5
 20
262
 40
1.3999999999999999
  0
CIRCLE
  8
_0-0_0
  6
CONTINUOUS
 62
    7
 10
356.5
 20
262
 40
1.3999999999999999
  0
CIRCLE
  8
_0-0_0
  6
CONTINUOUS
 62
    7
 10
356.5
 20
262
 40
1.3999999999999999
  0
CIRCLE
  8
_0-0_0
  6
CONTINUOUS
 62
    7
 10
256.5
 20
262
 40
0.25
  0
LINE
  8
_0-0_0
  6
CONTINUOUS
 62
    7
 10
256.25
 20
262
 11
256.75
 21
262
  0
LINE
  8
_0-0_0
  6
CONTINUOUS
 62
    7
 10
257
 20
262
 11
257.5
 21
262
  0
CIRCLE
  8
_0-0_0
  6
CONTINUOUS
 62
    7
 10
356.5
 20
262
 40
0.25
  0
LINE
  8
_0-0_0
  6
CONTINUOUS
 62
    7
 10
356.75
 20
262
 11
356.25
 21
262
  0
LINE
  8
_0-0_0
  6
CONTINUOUS
 62
    7
 10
356
 20
262
 11
355.5
 21
262
  0
CIRCLE
  8
_0-0_0
  6
CONTINUOUS
 62
    7
 10
356.5
 20
262
 40
1.3999999999999999
  0
CIRCLE
  8
_0-0_0
  6
CONTINUOUS
 62
    7
 10
356.5
 20
262
 40
0.25
  0
LINE
  8
_0-0_0
  6
CONTINUOUS
 62
    7
 10
356.25
 20
262
 11
356.75
 21
262
  0
LINE
  8
_0-0_0
  6
CONTINUOUS
 62
    7
 10
357
 20
262
 11
357.5
 21
262
  0
LINE
  8
_0-0_0
  6
CONTINUOUS
 62
    7
 10
356.5
 20
377
 11
356.5
 21
247.00000000000003
  0
LINE
  8
_0-0_0
  6
CONTINUOUS
 62
    7
 10
258.5
 20
403.39203883740004
 11
264.8066179786
 21
331.30706548900002
  0
LINE
  8
_0-0_0
  6
CONTINUOUS
 62
    7
 10
257.5
 20
403.3483778945
 11
263.8104232805
 21
331.2199097463
  0
LINE
  8
_0-0_0
  6
CONTINUOUS
 62
    7
 10
256.25
 20
494.59203883740003
 11
256.25
 21
247.00000000000003
  0
LINE
  8
_0-3_躯体と製品
  6
CONTINUOUS
 62
    7
 10
256.5
 20
495.9022333195
 11
256.5
 21
401.5037344015862
  0
LINE
  8
_0-3_躯体と製品
  6
CONTINUOUS
 62
    7
 10
258.5
 20
403.39203883740004
 11
258.5
 21
480.9022333195
  0
LINE
  8
_0-3_躯体と製品
  6
CONTINUOUS
 62
    7
 10
257.5
 20
403.3483778945
 11
257.5
 21
450.9022333195
  0
LINE
  8
_0-3_躯体と製品
  6
CONTINUOUS
 62
    7
 10
356.5
 20
378
 11
435.5
 21
378
  0
LINE
  8
_0-3_躯体と製品
  6
CONTINUOUS
 62
    7
 10
356.5
 20
377
 11
506.5
 21
377
  0
LINE
  8
_0-2_寸法
  6
CONTINUOUS
 62
    7
 10
356.5
 20
262
 11
505.5
 21
262
  0
TEXT
  8
_0-4_図枠
 62
    7
 10
27.951719470540013
 20
549.90447522759996
 40
9
 41
1
 50
0
  1
　　屋根－壁（ストレート壁）
  0
TEXT
  8
_0-2_寸法
 62
    7
 10
428.86501069968904
 20
262.49641287912891
 40
5
 41
1
 50
0
  1
Ｃ
  0
TEXT
  8
_0-4_図枠
 62
    7
 10
214.375
 20
220.9166666667
 40
4.9900000000000002
 41
1
 50
0
  1
１００ＦＹＫ－Ｓ２７５～５００
  0
TEXT
  8
_0-4_図枠
 62
    7
 10
214.375
 20
184.9166666667
 40
4.9900000000000002
 41
1
 50
0
  1
１００ＦＹＫＨ－２７５～５００
  0
TEXT
  8
_0-4_図枠
 62
    7
 10
214.375
 20
157.9166666667
 40
5
 41
1
 50
0
  1
１００ＦＹＫＪ－２７５～５００
  0
TEXT
  8
_0-0_0
 62
    7
 10
632.75
 20
202.5
 40
5
 41
1
 50
0
  1
61
  0
TEXT
  8
_0-0_0
 62
    7
 10
571
 20
202.5
 40
5
 41
1
 50
0
  1
335
  0
TEXT
  8
_0-0_0
 62
    7
 10
541
 20
202.5
 40
5
 41
1
 50
0
  1
350
  0
TEXT
  8
_0-0_0
 62
    7
 10
571
 20
148.5
 40
5
 41
1
 50
0
  1
485
  0
TEXT
  8
_0-0_0
 62
    7
 10
571
 20
157.5
 40
5
 41
1
 50
0
  1
460
  0
TEXT
  8
_0-0_0
 62
    7
 10
571
 20
166.5
 40
5
 41
1
 50
0
  1
435
  0
TEXT
  8
_0-0_0
 62
    7
 10
571
 20
184.5
 40
5
 41
1
 50
0
  1
385
  0
TEXT
  8
_0-0_0
 62
    7
 10
571
 20
193.5
 40
5
 41
1
 50
0
  1
360
  0
TEXT
  8
_0-0_0
 62
    7
 10
541
 20
157.5
 40
5
 41
1
 50
0
  1
475
  0
TEXT
  8
_0-0_0
 62
    7
 10
541
 20
139.5
 40
5
 41
1
 50
0
  1
525
  0
TEXT
  8
_0-0_0
 62
    7
 10
541
 20
148.5
 40
5
 41
1
 50
0
  1
500
  0
TEXT
  8
_0-0_0
 62
    7
 10
571
 20
139.5
 40
5
 41
1
 50
0
  1
510
  0
TEXT
  8
_0-0_0
 62
    7
 10
541
 20
166.5
 40
5
 41
1
 50
0
  1
450
  0
TEXT
  8
_0-0_0
 62
    7
 10
541
 20
175.5
 40
5
 41
1
 50
0
  1
425
  0
TEXT
  8
_0-0_0
 62
    7
 10
541
 20
184.5
 40
5
 41
1
 50
0
  1
400
  0
TEXT
  8
_0-0_0
 62
    7
 10
541
 20
193.5
 40
5
 41
1
 50
0
  1
375
  0
TEXT
  8
_0-0_0
 62
    7
 10
571
 20
175.5
 40
5
 41
1
 50
0
  1
410
  0
TEXT
  8
_0-0_0
 62
    7
 10
632.75
 20
157.5
 40
5
 41
1
 50
0
  1
67
  0
TEXT
  8
_0-0_0
 62
    7
 10
632.75
 20
139.5
 40
5
 41
1
 50
0
  1
70
  0
TEXT
  8
_0-0_0
 62
    7
 10
632.75
 20
148.5
 40
5
 41
1
 50
0
  1
68
  0
TEXT
  8
_0-0_0
 62
    7
 10
632.75
 20
166.5
 40
5
 41
1
 50
0
  1
66
  0
TEXT
  8
_0-0_0
 62
    7
 10
632.75
 20
175.5
 40
5
 41
1
 50
0
  1
64
  0
TEXT
  8
_0-0_0
 62
    7
 10
632.75
 20
184.5
 40
5
 41
1
 50
0
  1
63
  0
TEXT
  8
_0-0_0
 62
    7
 10
632.75
 20
193.5
 40
5
 41
1
 50
0
  1
62
  0
TEXT
  8
_0-0_0
 62
    7
 10
571
 20
220.5
 40
5
 41
1
 50
0
  1
285
  0
TEXT
  8
_0-0_0
 62
    7
 10
541
 20
211.5
 40
5
 41
1
 50
0
  1
325
  0
TEXT
  8
_0-0_0
 62
    7
 10
541
 20
220.5
 40
5
 41
1
 50
0
  1
300
  0
TEXT
  8
_0-0_0
 62
    7
 10
571
 20
211.5
 40
5
 41
1
 50
0
  1
310
  0
TEXT
  8
_0-0_0
 62
    7
 10
632.75
 20
211.5
 40
5
 41
1
 50
0
  1
59
  0
TEXT
  8
_0-0_0
 62
    7
 10
632.75
 20
220.5
 40
5
 41
1
 50
0
  1
58
  0
TEXT
  8
_0-0_0
 62
    7
 10
661
 20
202.5
 40
5
 41
1
 50
0
  1
119
  0
TEXT
  8
_0-0_0
 62
    7
 10
661
 20
157.5
 40
5
 41
1
 50
0
  1
126
  0
TEXT
  8
_0-0_0
 62
    7
 10
661
 20
148.5
 40
5
 41
1
 50
0
  1
127
  0
TEXT
  8
_0-0_0
 62
    7
 10
661
 20
139.5
 40
5
 41
1
 50
0
  1
128
  0
TEXT
  8
_0-0_0
 62
    7
 10
661
 20
175.5
 40
5
 41
1
 50
0
  1
123
  0
TEXT
  8
_0-0_0
 62
    7
 10
661
 20
166.5
 40
5
 41
1
 50
0
  1
124
  0
TEXT
  8
_0-0_0
 62
    7
 10
661
 20
193.5
 40
5
 41
1
 50
0
  1
121
  0
TEXT
  8
_0-0_0
 62
    7
 10
661
 20
184.5
 40
5
 41
1
 50
0
  1
122
  0
TEXT
  8
_0-0_0
 62
    7
 10
661
 20
220.5
 40
5
 41
1
 50
0
  1
117
  0
TEXT
  8
_0-0_0
 62
    7
 10
661
 20
211.5
 40
5
 41
1
 50
0
  1
118
  0
TEXT
  8
_0-0_0
 62
    7
 10
465.75
 20
211.5
 40
5
 41
1
 50
0
  1
　　  〃　 　３２５
  0
TEXT
  8
_0-0_0
 62
    7
 10
465.75
 20
202.5
 40
5
 41
1
 50
0
  1
　　  〃　 　３５０
  0
TEXT
  8
_0-0_0
 62
    7
 10
465.75
 20
193.5
 40
5
 41
1
 50
0
  1
　　  〃　 　３７５
  0
TEXT
  8
_0-0_0
 62
    7
 10
465.75
 20
184.5
 40
5
 41
1
 50
0
  1
　　  〃　 　４００
  0
TEXT
  8
_0-0_0
 62
    7
 10
465.75
 20
175.5
 40
5
 41
1
 50
0
  1
　　  〃　 　４２５
  0
TEXT
  8
_0-0_0
 62
    7
 10
465.75
 20
166.5
 40
5
 41
1
 50
0
  1
　　  〃　 　４５０
  0
TEXT
  8
_0-0_0
 62
    7
 10
465.75
 20
157.5
 40
5
 41
1
 50
0
  1
　　  〃　 　４７５
  0
TEXT
  8
_0-0_0
 62
    7
 10
465.75
 20
148.5
 40
5
 41
1
 50
0
  1
　　  〃　 　５００
  0
TEXT
  8
_0-0_0
 62
    7
 10
465.75
 20
139.5
 40
5
 41
1
 50
0
  1
　　  〃　 　５２５
  0
TEXT
  8
_0-0_0
 62
    7
 10
465.75
 20
220.5
 40
5
 41
1
 50
0
  1
１００ＦＹＫＧ－Ｓ３００
  0
TEXT
  8
_0-0_0
 62
    7
 10
601
 20
211.5
 40
5
 41
1
 50
0
  1
150
  0
TEXT
  8
_0-0_0
 62
    7
 10
601
 20
166.5
 40
5
 41
1
 50
0
  1
275
  0
TEXT
  8
_0-0_0
 62
    7
 10
601
 20
148.5
 40
5
 41
1
 50
0
  1
325
  0
TEXT
  8
_0-0_0
 62
    7
 10
601
 20
157.5
 40
5
 41
1
 50
0
  1
300
  0
TEXT
  8
_0-0_0
 62
    7
 10
601
 20
175.5
 40
5
 41
1
 50
0
  1
250
  0
TEXT
  8
_0-0_0
 62
    7
 10
601
 20
184.5
 40
5
 41
1
 50
0
  1
225
  0
TEXT
  8
_0-0_0
 62
    7
 10
601
 20
193.5
 40
5
 41
1
 50
0
  1
200
  0
TEXT
  8
_0-0_0
 62
    7
 10
601
 20
202.5
 40
5
 41
1
 50
0
  1
175
  0
TEXT
  8
_0-0_0
 62
    7
 10
601
 20
220.5
 40
5
 41
1
 50
0
  1
125
  0
TEXT
  8
_0-0_0
 62
    7
 10
601
 20
139.5
 40
5
 41
1
 50
0
  1
350
  0
ENDSEC
  0
EOF
