  0
SECTION
  2
HEADER
  9
$ACADVER
  1
AC1015
  9
$DWGCODEPAGE
  3
ANSI_932
  9
$EXTMIN
 10
33.5
 20
27
  9
$EXTMAX
 10
857.5
 20
603
  9
$LIMMIN
 10
0
 20
0
  9
$LIMMAX
 10
891
 20
630
  9
$LTSCALE
 40
3
  9
$DIMSCALE
 40
3
  9
$DIMSTYLE
  2
M7DIMSTL
  9
$HANDSEED
  5
7FFFFFFF
  9
$MEASUREMENT
 70
     1
  0
ENDSEC
  0
SECTION
  2
CLASSES
  0
CLASS
  1
CSOFTARXCLASS
  2
CSoftArxClass
  3
CSRasterApi
 90
     0
280
     0
281
     0
  0
CLASS
  1
IMAGEDEF
  2
AcDbRasterImageDef
  3
ISM
 90
     0
280
     0
281
     0
  0
CLASS
  1
RASTERVARIABLES
  2
AcDbRasterVariables
  3
ISM
 90
     0
280
     0
281
     0
  0
CLASS
  1
IMAGE
  2
AcDbRasterImage
  3
ISM
 90
   127
280
     0
281
     0
  0
CLASS
  1
IMAGEDEF_REACTOR
  2
AcDbRasterImageDefReactor
  3
ISM
 90
     1
280
     0
281
     0
  0
CLASS
  1
HATCH
  2
AcDbHatch
  3
M7
 90
     0
280
     0
281
     1
  0
ENDSEC
  0
SECTION
  2
TABLES
  0
TABLE
  2
VPORT
  5
FF
100
AcDbSymbolTable
 70
     5
  0
VPORT
  5
100
100
AcDbSymbolTableRecord
100
AcDbViewportTableRecord
  2
*ACTIVE
 70
     0
 10
0
 20
0
 11
1
 21
1
 12
445.5
 22
315
 13
0
 23
0
 14
0
 24
0
 15
0
 25
0
 16
0
 26
0
 36
1
 17
0
 27
0
 37
0
 40
315
 41
1.414285714286
 42
50
 43
0
 44
0
 50
0
 51
0
 71
     0
 72
   100
 73
     1
 74
     3
 75
     0
 76
     0
 77
     0
 78
     0
  0
ENDTAB
  0
TABLE
  2
LTYPE
  5
101
100
AcDbSymbolTable
 70
     1
  0
LTYPE
  5
102
100
AcDbSymbolTableRecord
100
AcDbLinetypeTableRecord
  2
BYBLOCK
 70
     0
  3

 72
    65
 73
     0
 40
0
  0
LTYPE
  5
103
100
AcDbSymbolTableRecord
100
AcDbLinetypeTableRecord
  2
BYLAYER
 70
     0
  3

 72
    65
 73
     0
 40
0
  0
LTYPE
  5
104
100
AcDbSymbolTableRecord
100
AcDbLinetypeTableRecord
  2
CONTINUOUS
 70
     0
  3
Solid line
 72
    65
 73
     0
 40
0
  0
LTYPE
  5
105
100
AcDbSymbolTableRecord
100
AcDbLinetypeTableRecord
  2
DOT
 70
     0
  3
...............................
 72
    65
 73
     2
 40
2
 49
1
 74
     0
 49
-1
 74
     0
  0
LTYPE
  5
106
100
AcDbSymbolTableRecord
100
AcDbLinetypeTableRecord
  2
DASHED
 70
     0
  3
- - - - - - - - - - - - - - - -
 72
    65
 73
     2
 40
4
 49
2
 74
     0
 49
-2
 74
     0
  0
LTYPE
  5
107
100
AcDbSymbolTableRecord
100
AcDbLinetypeTableRecord
  2
DASHED2
 70
     0
  3
-- -- -- -- -- -- -- -- -- -- -
 72
    65
 73
     2
 40
8
 49
5
 74
     0
 49
-3
 74
     0
  0
LTYPE
  5
108
100
AcDbSymbolTableRecord
100
AcDbLinetypeTableRecord
  2
CENTER
 70
     0
  3
--------- - --------- - -------
 72
    65
 73
     4
 40
23
 49
20
 74
     0
 49
-1
 74
     0
 49
1
 74
     0
 49
-1
 74
     0
  0
LTYPE
  5
109
100
AcDbSymbolTableRecord
100
AcDbLinetypeTableRecord
  2
CENTERX2
 70
     0
  3
-------------- - --------------
 72
    65
 73
     4
 40
43
 49
40
 74
     0
 49
-1
 74
     0
 49
1
 74
     0
 49
-1
 74
     0
  0
LTYPE
  5
10A
100
AcDbSymbolTableRecord
100
AcDbLinetypeTableRecord
  2
CENTER2
 70
     0
  3
------ - ----- - ------ - -----
 72
    65
 73
     4
 40
13
 49
10
 74
     0
 49
-1
 74
     0
 49
1
 74
     0
 49
-1
 74
     0
  0
LTYPE
  5
10B
100
AcDbSymbolTableRecord
100
AcDbLinetypeTableRecord
  2
PHANTOM
 70
     0
  3
-------- - - ------- - - ------
 72
    65
 73
     6
 40
25
 49
20
 74
     0
 49
-1
 74
     0
 49
1
 74
     0
 49
-1
 74
     0
 49
1
 74
     0
 49
-1
 74
     0
  0
LTYPE
  5
10C
100
AcDbSymbolTableRecord
100
AcDbLinetypeTableRecord
  2
PHANTOMX2
 70
     0
  3
------------- - - -------------
 72
    65
 73
     6
 40
45
 49
40
 74
     0
 49
-1
 74
     0
 49
1
 74
     0
 49
-1
 74
     0
 49
1
 74
     0
 49
-1
 74
     0
  0
LTYPE
  5
10D
100
AcDbSymbolTableRecord
100
AcDbLinetypeTableRecord
  2
PHANTOM2
 70
     0
  3
---- - - ---- - - ---- - - ----
 72
    65
 73
     6
 40
15
 49
10
 74
     0
 49
-1
 74
     0
 49
1
 74
     0
 49
-1
 74
     0
 49
1
 74
     0
 49
-1
 74
     0
  0
LTYPE
  5
10E
100
AcDbSymbolTableRecord
100
AcDbLinetypeTableRecord
  2
ACAD_ISO06W100
 70
     0
  3
------------ - - - ------------
 72
    65
 73
     8
 40
47
 49
40
 74
     0
 49
-1
 74
     0
 49
1
 74
     0
 49
-1
 74
     0
 49
1
 74
     0
 49
-1
 74
     0
 49
1
 74
     0
 49
-1
 74
     0
  0
LTYPE
  5
10F
100
AcDbSymbolTableRecord
100
AcDbLinetypeTableRecord
  2
ACAD_ISO14W100
 70
     0
  3
---- - - - -------- - - - -----
 72
    65
 73
     8
 40
27
 49
20
 74
     0
 49
-1
 74
     0
 49
1
 74
     0
 49
-1
 74
     0
 49
1
 74
     0
 49
-1
 74
     0
 49
1
 74
     0
 49
-1
 74
     0
  0
LTYPE
  5
110
100
AcDbSymbolTableRecord
100
AcDbLinetypeTableRecord
  2
ACAD_ISO11W100
 70
     0
  3
------- ------ - ------- ------
 72
    65
 73
     6
 40
44
 49
20
 74
     0
 49
-1
 74
     0
 49
20
 74
     0
 49
-1
 74
     0
 49
1
 74
     0
 49
-1
 74
     0
  0
LTYPE
  5
111
100
AcDbSymbolTableRecord
100
AcDbLinetypeTableRecord
  2
ACAD_ISO13W100
 70
     0
  3
------ ------ - - ------ ------
 72
    65
 73
     8
 40
46
 49
20
 74
     0
 49
-1
 74
     0
 49
20
 74
     0
 49
-1
 74
     0
 49
1
 74
     0
 49
-1
 74
     0
 49
1
 74
     0
 49
-1
 74
     0
  0
LTYPE
  5
112
100
AcDbSymbolTableRecord
100
AcDbLinetypeTableRecord
  2
ACAD_ISO15W100
 70
     0
  3
------ ----- - - - ------ -----
 72
    65
 73
    10
 40
48
 49
20
 74
     0
 49
-1
 74
     0
 49
20
 74
     0
 49
-1
 74
     0
 49
1
 74
     0
 49
-1
 74
     0
 49
1
 74
     0
 49
-1
 74
     0
 49
1
 74
     0
 49
-1
 74
     0
  0
LTYPE
  5
113
100
AcDbSymbolTableRecord
100
AcDbLinetypeTableRecord
  2
HIDDEN
 70
     0
  3
. . . . . . . . . . . . . . . .
 72
    65
 73
     2
 40
1.5
 49
1
 74
     0
 49
-0.5
 74
     0
  0
ENDTAB
  0
TABLE
  2
LAYER
  5
114
100
AcDbSymbolTable
 70
     1
  0
LAYER
  5
115
100
AcDbSymbolTableRecord
100
AcDbLayerTableRecord
  2
0
 70
     0
 62
     7
  6
CONTINUOUS
390
116
  0
LAYER
  5
117
100
AcDbSymbolTableRecord
100
AcDbLayerTableRecord
  2
_0-0_0
 70
     0
 62
     7
  6
CONTINUOUS
390
   278
  0
LAYER
  5
118
100
AcDbSymbolTableRecord
100
AcDbLayerTableRecord
  2
_0-2_寸法
 70
     0
 62
     7
  6
CONTINUOUS
390
   278
  0
LAYER
  5
119
100
AcDbSymbolTableRecord
100
AcDbLayerTableRecord
  2
_0-3_躯体と製品
 70
     0
 62
     7
  6
CONTINUOUS
390
   278
  0
LAYER
  5
11A
100
AcDbSymbolTableRecord
100
AcDbLayerTableRecord
  2
_0-4_図枠
 70
     0
 62
     7
  6
CONTINUOUS
390
   278
  0
ENDTAB
  0
TABLE
  2
STYLE
  5
11B
100
AcDbSymbolTable
 70
     1
  0
STYLE
  5
11C
100
AcDbSymbolTableRecord
100
AcDbTextStyleTableRecord
  2
STANDARD
 70
     0
 40
0
 41
0
 50
0
 71
     0
 42
1
  3
txt
  4
bigfont
  0
STYLE
  5
11D
100
AcDbSymbolTableRecord
100
AcDbTextStyleTableRecord
  2
VSTANDARD
 70
     4
 40
0
 41
0
 50
0
 71
     0
 42
1
  3
txt
  4
bigfont
  0
ENDTAB
  0
TABLE
  2
VIEW
  5
11E
100
AcDbSymbolTable
 70
     0
  0
ENDTAB
  0
TABLE
  2
UCS
  5
11F
100
AcDbSymbolTable
 70
     0
  0
ENDTAB
  0
TABLE
  2
APPID
  5
120
100
AcDbSymbolTable
 70
     1
  0
APPID
  5
121
100
AcDbSymbolTableRecord
100
AcDbRegAppTableRecord
  2
ACAD
 70
     0
  0
ENDTAB
  0
TABLE
  2
DIMSTYLE
  5
122
100
AcDbSymbolTable
 70
     1
100
AcDbDimStyleTable
 71
     0
  0
DIMSTYLE
105
123
100
AcDbSymbolTableRecord
100
AcDbDimStyleTableRecord
  2
M7DIMSTL
 70
     0
  3

  4

  5

  6

  7

 40
3
 41
2.5
 42
0.625
 43
3.75
 44
1.25
 45
0
 46
0
 47
0
 48
0
140
2.5
141
2.5
142
0
143
0.03937007874016
144
1
145
0
146
1
147
0.625
 71
     0
 72
     0
 73
     0
 74
     0
 75
     0
 76
     0
 77
     1
 78
     8
170
     0
171
     3
172
     1
173
     0
174
     0
175
     0
176
     0
177
     0
178
     0
270
     2
271
     2
272
     2
273
     2
274
     3
340
11C
275
     0
280
     0
281
     0
282
     0
283
     0
284
     8
285
     0
286
     0
287
     3
288
     0
  0
ENDTAB
  0
TABLE
  2
BLOCK_RECORD
  5
124
100
AcDbSymbolTable
 70
     2
  0
BLOCK_RECORD
  5
125
100
AcDbSymbolTableRecord
100
AcDbBlockTableRecord
  2
*MODEL_SPACE
  0
BLOCK_RECORD
  5
126
100
AcDbSymbolTableRecord
100
AcDbBlockTableRecord
  2
*PAPER_SPACE
  0
BLOCK_RECORD
  5
127
100
AcDbSymbolTableRecord
100
AcDbBlockTableRecord
  2
_DOT
  0
BLOCK_RECORD
  5
128
100
AcDbSymbolTableRecord
100
AcDbBlockTableRecord
  2
_OPEN30
  0
BLOCK_RECORD
  5
129
100
AcDbSymbolTableRecord
100
AcDbBlockTableRecord
  2
_ClosedBlank
  0
BLOCK_RECORD
  5
12A
100
AcDbSymbolTableRecord
100
AcDbBlockTableRecord
  2
_Origin
  0
BLOCK_RECORD
  5
12B
100
AcDbSymbolTableRecord
100
AcDbBlockTableRecord
  2
_Oblique
  0
BLOCK_RECORD
  5
12C
100
AcDbSymbolTableRecord
100
AcDbBlockTableRecord
  2
_Origin2
  0
BLOCK_RECORD
  5
12D
100
AcDbSymbolTableRecord
100
AcDbBlockTableRecord
  2
_BoxBlank
  0
BLOCK_RECORD
  5
12E
100
AcDbSymbolTableRecord
100
AcDbBlockTableRecord
  2
_BoxFilled
  0
BLOCK_RECORD
  5
12F
100
AcDbSymbolTableRecord
100
AcDbBlockTableRecord
  2
_Integral
  0
BLOCK_RECORD
  5
130
100
AcDbSymbolTableRecord
100
AcDbBlockTableRecord
  2
BK2
  0
BLOCK_RECORD
  5
131
100
AcDbSymbolTableRecord
100
AcDbBlockTableRecord
  2
BK3
  0
BLOCK_RECORD
  5
132
100
AcDbSymbolTableRecord
100
AcDbBlockTableRecord
  2
BK4
  0
BLOCK_RECORD
  5
133
100
AcDbSymbolTableRecord
100
AcDbBlockTableRecord
  2
BK5
  0
BLOCK_RECORD
  5
134
100
AcDbSymbolTableRecord
100
AcDbBlockTableRecord
  2
BK6
  0
BLOCK_RECORD
  5
135
100
AcDbSymbolTableRecord
100
AcDbBlockTableRecord
  2
BK7
  0
BLOCK_RECORD
  5
136
100
AcDbSymbolTableRecord
100
AcDbBlockTableRecord
  2
BK8
  0
BLOCK_RECORD
  5
137
100
AcDbSymbolTableRecord
100
AcDbBlockTableRecord
  2
BK9
  0
BLOCK_RECORD
  5
138
100
AcDbSymbolTableRecord
100
AcDbBlockTableRecord
  2
BK10
  0
BLOCK_RECORD
  5
139
100
AcDbSymbolTableRecord
100
AcDbBlockTableRecord
  2
BK11
  0
BLOCK_RECORD
  5
13A
100
AcDbSymbolTableRecord
100
AcDbBlockTableRecord
  2
BK12
  0
BLOCK_RECORD
  5
13B
100
AcDbSymbolTableRecord
100
AcDbBlockTableRecord
  2
BK13
  0
BLOCK_RECORD
  5
13C
100
AcDbSymbolTableRecord
100
AcDbBlockTableRecord
  2
BK14
  0
BLOCK_RECORD
  5
13D
100
AcDbSymbolTableRecord
100
AcDbBlockTableRecord
  2
BK15
  0
BLOCK_RECORD
  5
13E
100
AcDbSymbolTableRecord
100
AcDbBlockTableRecord
  2
BK16
  0
BLOCK_RECORD
  5
13F
100
AcDbSymbolTableRecord
100
AcDbBlockTableRecord
  2
BK17
  0
BLOCK_RECORD
  5
140
100
AcDbSymbolTableRecord
100
AcDbBlockTableRecord
  2
BK18
  0
BLOCK_RECORD
  5
141
100
AcDbSymbolTableRecord
100
AcDbBlockTableRecord
  2
BK19
  0
BLOCK_RECORD
  5
142
100
AcDbSymbolTableRecord
100
AcDbBlockTableRecord
  2
BK20
  0
BLOCK_RECORD
  5
143
100
AcDbSymbolTableRecord
100
AcDbBlockTableRecord
  2
BK21
  0
BLOCK_RECORD
  5
144
100
AcDbSymbolTableRecord
100
AcDbBlockTableRecord
  2
BK22
  0
BLOCK_RECORD
  5
145
100
AcDbSymbolTableRecord
100
AcDbBlockTableRecord
  2
BK23
  0
BLOCK_RECORD
  5
146
100
AcDbSymbolTableRecord
100
AcDbBlockTableRecord
  2
BK24
  0
BLOCK_RECORD
  5
147
100
AcDbSymbolTableRecord
100
AcDbBlockTableRecord
  2
BK25
  0
BLOCK_RECORD
  5
148
100
AcDbSymbolTableRecord
100
AcDbBlockTableRecord
  2
BK26
  0
BLOCK_RECORD
  5
149
100
AcDbSymbolTableRecord
100
AcDbBlockTableRecord
  2
BK27
  0
BLOCK_RECORD
  5
14A
100
AcDbSymbolTableRecord
100
AcDbBlockTableRecord
  2
BK28
  0
BLOCK_RECORD
  5
14B
100
AcDbSymbolTableRecord
100
AcDbBlockTableRecord
  2
BK29
  0
BLOCK_RECORD
  5
14C
100
AcDbSymbolTableRecord
100
AcDbBlockTableRecord
  2
BK30
  0
BLOCK_RECORD
  5
14D
100
AcDbSymbolTableRecord
100
AcDbBlockTableRecord
  2
BK31
  0
BLOCK_RECORD
  5
14E
100
AcDbSymbolTableRecord
100
AcDbBlockTableRecord
  2
BK32
  0
BLOCK_RECORD
  5
14F
100
AcDbSymbolTableRecord
100
AcDbBlockTableRecord
  2
BK33
  0
BLOCK_RECORD
  5
150
100
AcDbSymbolTableRecord
100
AcDbBlockTableRecord
  2
BK34
  0
BLOCK_RECORD
  5
151
100
AcDbSymbolTableRecord
100
AcDbBlockTableRecord
  2
BK35
  0
BLOCK_RECORD
  5
152
100
AcDbSymbolTableRecord
100
AcDbBlockTableRecord
  2
BK36
  0
BLOCK_RECORD
  5
153
100
AcDbSymbolTableRecord
100
AcDbBlockTableRecord
  2
BK37
  0
BLOCK_RECORD
  5
154
100
AcDbSymbolTableRecord
100
AcDbBlockTableRecord
  2
BK38
  0
BLOCK_RECORD
  5
155
100
AcDbSymbolTableRecord
100
AcDbBlockTableRecord
  2
BK39
  0
BLOCK_RECORD
  5
156
100
AcDbSymbolTableRecord
100
AcDbBlockTableRecord
  2
BK40
  0
BLOCK_RECORD
  5
157
100
AcDbSymbolTableRecord
100
AcDbBlockTableRecord
  2
BK41
  0
BLOCK_RECORD
  5
158
100
AcDbSymbolTableRecord
100
AcDbBlockTableRecord
  2
BK42
  0
ENDTAB
  0
ENDSEC
  0
SECTION
  2
BLOCKS
  0
BLOCK
  5
159
100
AcDbEntity
  8
0
100
AcDbBlockBegin
  2
*MODEL_SPACE
 70
     0
 10
0
 20
0
  3
*MODEL_SPACE
  1

  0
ENDBLK
  5
15A
100
AcDbEntity
  8
0
100
AcDbBlockEnd
  0
BLOCK
  5
15B
100
AcDbEntity
 67
     1
  8
0
100
AcDbBlockBegin
  2
*PAPER_SPACE
 70
     0
 10
0
 20
0
  3
*PAPER_SPACE
  1

  0
ENDBLK
  5
15C
100
AcDbEntity
 67
     1
  8
0
100
AcDbBlockEnd
  0
BLOCK
  5
15D
100
AcDbEntity
 67
     1
  8
0
100
AcDbBlockBegin
  2
_DOT
 70
     0
 10
0
 20
0
  3
_DOT
  1

  0
LWPOLYLINE
  5
15E
100
AcDbEntity
  8
0
  6
BYBLOCK
 62
     0
100
AcDbPolyline
 90
     2
 70
     1
 43
0.5
 10
-0.25
 20
0
 42
1
 10
0.25
 20
0
 42
1
  0
LINE
  5
15F
100
AcDbEntity
  8
0
  6
BYBLOCK
 62
     0
100
AcDbLine
 10
-0.5
 20
0
 11
-1
 21
0
  0
ENDBLK
  5
160
100
AcDbEntity
  8
0
100
AcDbBlockEnd
  0
BLOCK
  5
161
100
AcDbEntity
 67
     1
  8
0
100
AcDbBlockBegin
  2
_OPEN30
 70
     0
 10
0
 20
0
  3
_OPEN30
  1

  0
LINE
  5
162
100
AcDbEntity
  8
0
  6
BYBLOCK
 62
     0
100
AcDbLine
 10
-1
 20
0.26794919
 11
0
 21
0
  0
LINE
  5
163
100
AcDbEntity
  8
0
  6
BYBLOCK
 62
     0
100
AcDbLine
 10
-1
 20
-0.26794919
 11
0
 21
0
  0
LINE
  5
164
100
AcDbEntity
  8
0
  6
BYBLOCK
 62
     0
100
AcDbLine
 10
0
 20
0
 11
-1
 21
0
  0
ENDBLK
  5
165
100
AcDbEntity
  8
0
100
AcDbBlockEnd
  0
BLOCK
  5
166
100
AcDbEntity
 67
     1
  8
0
100
AcDbBlockBegin
  2
_ClosedBlank
 70
     0
 10
0
 20
0
  3
_ClosedBlank
  1

  0
LINE
  5
167
100
AcDbEntity
  8
0
  6
BYBLOCK
 62
     0
100
AcDbLine
 10
-1
 20
0.1666666666667
 11
0
 21
0
  0
LINE
  5
168
100
AcDbEntity
  8
0
  6
BYBLOCK
 62
     0
100
AcDbLine
 10
0
 20
0
 11
-1
 21
-0.1666666666667
  0
LINE
  5
169
100
AcDbEntity
  8
0
  6
BYBLOCK
 62
     0
100
AcDbLine
 10
-1
 20
0.1666666666667
 11
-1
 21
-0.1666666666667
  0
ENDBLK
  5
16A
100
AcDbEntity
  8
0
100
AcDbBlockEnd
  0
BLOCK
  5
16B
100
AcDbEntity
 67
     1
  8
0
100
AcDbBlockBegin
  2
_Origin
 70
     0
 10
0
 20
0
  3
_Origin
  1

  0
CIRCLE
  5
16C
100
AcDbEntity
  8
0
  6
BYBLOCK
 62
     0
100
AcDbCircle
 10
0
 20
0
 40
0.5
  0
LINE
  5
16D
100
AcDbEntity
  8
0
  6
BYBLOCK
 62
     0
100
AcDbLine
 10
0
 20
0
 11
-1
 21
0
  0
ENDBLK
  5
16E
100
AcDbEntity
  8
0
100
AcDbBlockEnd
  0
BLOCK
  5
16F
100
AcDbEntity
 67
     1
  8
0
100
AcDbBlockBegin
  2
_Oblique
 70
     0
 10
0
 20
0
  3
_Oblique
  1

  0
LINE
  5
170
100
AcDbEntity
  8
0
  6
BYBLOCK
 62
     0
100
AcDbLine
 10
-0.5
 20
-0.5
 11
0.5
 21
0.5
  0
ENDBLK
  5
171
100
AcDbEntity
  8
0
100
AcDbBlockEnd
  0
BLOCK
  5
172
100
AcDbEntity
 67
     1
  8
0
100
AcDbBlockBegin
  2
_Origin2
 70
     0
 10
0
 20
0
  3
_Origin2
  1

  0
CIRCLE
  5
173
100
AcDbEntity
  8
0
  6
BYBLOCK
 62
     0
100
AcDbCircle
 10
0
 20
0
 40
0.5
  0
CIRCLE
  5
174
100
AcDbEntity
  8
0
  6
BYBLOCK
 62
     0
100
AcDbCircle
 10
0
 20
0
 40
0.25
  0
LINE
  5
175
100
AcDbEntity
  8
0
  6
BYBLOCK
 62
     0
100
AcDbLine
 10
-0.5
 20
0
 11
-1
 21
0
  0
ENDBLK
  5
176
100
AcDbEntity
  8
0
100
AcDbBlockEnd
  0
BLOCK
  5
177
100
AcDbEntity
 67
     1
  8
0
100
AcDbBlockBegin
  2
_BoxBlank
 70
     0
 10
0
 20
0
  3
_BoxBlank
  1

  0
LINE
  5
178
100
AcDbEntity
  8
0
  6
BYBLOCK
 62
     0
100
AcDbLine
 10
-0.5
 20
-0.5
 11
0.5
 21
-0.5
  0
LINE
  5
179
100
AcDbEntity
  8
0
  6
BYBLOCK
 62
     0
100
AcDbLine
 10
0.5
 20
-0.5
 11
0.5
 21
0.5
  0
LINE
  5
17A
100
AcDbEntity
  8
0
  6
BYBLOCK
 62
     0
100
AcDbLine
 10
0.5
 20
0.5
 11
-0.5
 21
0.5
  0
LINE
  5
17B
100
AcDbEntity
  8
0
  6
BYBLOCK
 62
     0
100
AcDbLine
 10
-0.5
 20
0.5
 11
-0.5
 21
-0.5
  0
LINE
  5
17C
100
AcDbEntity
  8
0
  6
BYBLOCK
 62
     0
100
AcDbLine
 10
-0.5
 20
0
 11
-1
 21
0
  0
ENDBLK
  5
17D
100
AcDbEntity
  8
0
100
AcDbBlockEnd
  0
BLOCK
  5
17E
100
AcDbEntity
 67
     1
  8
0
100
AcDbBlockBegin
  2
_BoxFilled
 70
     0
 10
0
 20
0
  3
_BoxFilled
  1

  0
SOLID
  5
17F
100
AcDbEntity
  8
0
  6
BYBLOCK
 62
     0
100
AcDbTrace
 10
-0.5
 20
0.5
 11
0.5
 21
0.5
 12
-0.5
 22
-0.5
 13
0.5
 23
-0.5
  0
LINE
  5
180
100
AcDbEntity
  8
0
  6
BYBLOCK
 62
     0
100
AcDbLine
 10
-0.5
 20
0
 11
-1
 21
0
  0
ENDBLK
  5
181
100
AcDbEntity
  8
0
100
AcDbBlockEnd
  0
BLOCK
  5
182
100
AcDbEntity
 67
     1
  8
0
100
AcDbBlockBegin
  2
_Integral
 70
     0
 10
0
 20
0
  3
_Integral
  1

  0
ARC
  5
183
100
AcDbEntity
  8
0
  6
BYBLOCK
 62
     0
100
AcDbCircle
 10
0.44488802
 20
-0.09133463
 40
0.45416667
100
AcDbArc
 50
101.999999998
 51
167.9999999799
  0
ARC
  5
184
100
AcDbEntity
  8
0
  6
BYBLOCK
 62
     0
100
AcDbCircle
 10
-0.44488802
 20
0.09133463
 40
0.45416667
100
AcDbArc
 50
282.0000000215
 51
348.0000000034
  0
ENDBLK
  5
185
100
AcDbEntity
  8
0
100
AcDbBlockEnd
  0
BLOCK
  5
186
100
AcDbEntity
  8
_0-2_寸法
100
AcDbBlockBegin
  2
BK2
 70
    64
 10
0
 20
0
  3
BK2
  1

  0
LINE
  5
187
100
AcDbEntity
  8
_0-2_寸法
  6
CONTINUOUS
 62
     0
100
AcDbLine
 10
610
 20
352.0771419653
 11
648
 21
352.0771419653
  0
LINE
  5
188
100
AcDbEntity
  8
_0-2_寸法
  6
CONTINUOUS
 62
     0
100
AcDbLine
 10
535.6525553153
 20
395
 11
648
 21
395
  0
LINE
  5
189
100
AcDbEntity
  8
_0-2_寸法
  6
CONTINUOUS
 62
     0
100
AcDbLine
 10
648
 20
353.0771419653
 11
648
 21
394
  0
TEXT
  5
18A
100
AcDbEntity
  8
_0-2_寸法
  6
CONTINUOUS
 62
     0
100
AcDbText
 10
647
 20
371.0385709827
 40
5
  1
44
 50
90
  7
STANDARD
100
AcDbText
  0
CIRCLE
  5
18B
100
AcDbEntity
  8
_0-2_寸法
  6
CONTINUOUS
 62
     0
100
AcDbCircle
 10
610
 20
352.0771419653
 40
1.4
  0
CIRCLE
  5
18C
100
AcDbEntity
  8
_0-2_寸法
  6
CONTINUOUS
 62
     0
100
AcDbCircle
 10
535.6525553153
 20
395
 40
1.4
  0
CIRCLE
  5
18D
100
AcDbEntity
  8
_0-2_寸法
  6
CONTINUOUS
 62
     0
100
AcDbCircle
 10
648
 20
395
 40
1.4
  0
ENDBLK
  5
18E
100
AcDbEntity
 67
     1
  8
_0-2_寸法
100
AcDbBlockEnd
  0
BLOCK
  5
18F
100
AcDbEntity
  8
_0-2_寸法
100
AcDbBlockBegin
  2
BK3
 70
    64
 10
0
 20
0
  3
BK3
  1

  0
LINE
  5
190
100
AcDbEntity
  8
_0-2_寸法
  6
CONTINUOUS
 62
     0
100
AcDbLine
 10
280
 20
395
 11
227
 21
395
  0
LINE
  5
191
100
AcDbEntity
  8
_0-2_寸法
  6
CONTINUOUS
 62
     0
100
AcDbLine
 10
227
 20
396
 11
227
 21
454.2022333195
  0
TEXT
  5
192
100
AcDbEntity
  8
_0-2_寸法
  6
CONTINUOUS
 62
     0
100
AcDbText
 10
226
 20
423.8511166598
 40
5
  1
D
 50
90
  7
STANDARD
100
AcDbText
  0
CIRCLE
  5
193
100
AcDbEntity
  8
_0-2_寸法
  6
CONTINUOUS
 62
     0
100
AcDbCircle
 10
280
 20
395
 40
1.4
  0
CIRCLE
  5
194
100
AcDbEntity
  8
_0-2_寸法
  6
CONTINUOUS
 62
     0
100
AcDbCircle
 10
227
 20
455.2022333195
 40
1.4
  0
CIRCLE
  5
195
100
AcDbEntity
  8
_0-2_寸法
  6
CONTINUOUS
 62
     0
100
AcDbCircle
 10
227
 20
455.2022333195
 40
1.4
  0
ENDBLK
  5
196
100
AcDbEntity
 67
     1
  8
_0-2_寸法
100
AcDbBlockEnd
  0
BLOCK
  5
197
100
AcDbEntity
  8
_0-2_寸法
100
AcDbBlockBegin
  2
BK4
 70
    64
 10
0
 20
0
  3
BK4
  1

  0
CIRCLE
  5
198
100
AcDbEntity
  8
_0-2_寸法
  6
CONTINUOUS
 62
     0
100
AcDbCircle
 10
227
 20
395
 40
0.25
  0
LINE
  5
199
100
AcDbEntity
  8
_0-2_寸法
  6
CONTINUOUS
 62
     0
100
AcDbLine
 10
227
 20
394.75
 11
227
 21
395.25
  0
LINE
  5
19A
100
AcDbEntity
  8
_0-2_寸法
  6
CONTINUOUS
 62
     0
100
AcDbLine
 10
227
 20
395.5
 11
227
 21
396
  0
ENDBLK
  5
19B
100
AcDbEntity
 67
     1
  8
_0-2_寸法
100
AcDbBlockEnd
  0
BLOCK
  5
19C
100
AcDbEntity
  8
_0-2_寸法
100
AcDbBlockBegin
  2
BK5
 70
    64
 10
0
 20
0
  3
BK5
  1

  0
CIRCLE
  5
19D
100
AcDbEntity
  8
_0-2_寸法
  6
CONTINUOUS
 62
     0
100
AcDbCircle
 10
227
 20
455.2022333195
 40
0.25
  0
LINE
  5
19E
100
AcDbEntity
  8
_0-2_寸法
  6
CONTINUOUS
 62
     0
100
AcDbLine
 10
227
 20
455.4522333195
 11
227
 21
454.9522333195
  0
LINE
  5
19F
100
AcDbEntity
  8
_0-2_寸法
  6
CONTINUOUS
 62
     0
100
AcDbLine
 10
227
 20
454.7022333195
 11
227
 21
454.2022333195
  0
ENDBLK
  5
1A0
100
AcDbEntity
 67
     1
  8
_0-2_寸法
100
AcDbBlockEnd
  0
BLOCK
  5
1A1
100
AcDbEntity
  8
_0-2_寸法
100
AcDbBlockBegin
  2
BK6
 70
    64
 10
0
 20
0
  3
BK6
  1

  0
LINE
  5
1A2
100
AcDbEntity
  8
_0-2_寸法
  6
CONTINUOUS
 62
     0
100
AcDbLine
 10
280
 20
395
 11
207
 21
395
  0
LINE
  5
1A3
100
AcDbEntity
  8
_0-2_寸法
  6
CONTINUOUS
 62
     0
100
AcDbLine
 10
280
 20
514.2022333195
 11
207
 21
514.2022333195
  0
LINE
  5
1A4
100
AcDbEntity
  8
_0-2_寸法
  6
CONTINUOUS
 62
     0
100
AcDbLine
 10
207
 20
396
 11
207
 21
513.2022333195
  0
TEXT
  5
1A5
100
AcDbEntity
  8
_0-2_寸法
  6
CONTINUOUS
 62
     0
100
AcDbText
 10
206
 20
453.3511166598
 40
5
  1
E
 50
90
  7
STANDARD
100
AcDbText
  0
CIRCLE
  5
1A6
100
AcDbEntity
  8
_0-2_寸法
  6
CONTINUOUS
 62
     0
100
AcDbCircle
 10
280
 20
395
 40
1.4
  0
CIRCLE
  5
1A7
100
AcDbEntity
  8
_0-2_寸法
  6
CONTINUOUS
 62
     0
100
AcDbCircle
 10
280
 20
514.2022333195
 40
1.4
  0
CIRCLE
  5
1A8
100
AcDbEntity
  8
_0-2_寸法
  6
CONTINUOUS
 62
     0
100
AcDbCircle
 10
207
 20
514.2022333195
 40
1.4
  0
ENDBLK
  5
1A9
100
AcDbEntity
 67
     1
  8
_0-2_寸法
100
AcDbBlockEnd
  0
BLOCK
  5
1AA
100
AcDbEntity
  8
_0-2_寸法
100
AcDbBlockBegin
  2
BK7
 70
    64
 10
0
 20
0
  3
BK7
  1

  0
CIRCLE
  5
1AB
100
AcDbEntity
  8
_0-2_寸法
  6
CONTINUOUS
 62
     0
100
AcDbCircle
 10
207
 20
395
 40
0.25
  0
LINE
  5
1AC
100
AcDbEntity
  8
_0-2_寸法
  6
CONTINUOUS
 62
     0
100
AcDbLine
 10
207
 20
394.75
 11
207
 21
395.25
  0
LINE
  5
1AD
100
AcDbEntity
  8
_0-2_寸法
  6
CONTINUOUS
 62
     0
100
AcDbLine
 10
207
 20
395.5
 11
207
 21
396
  0
ENDBLK
  5
1AE
100
AcDbEntity
 67
     1
  8
_0-2_寸法
100
AcDbBlockEnd
  0
BLOCK
  5
1AF
100
AcDbEntity
  8
_0-2_寸法
100
AcDbBlockBegin
  2
BK8
 70
    64
 10
0
 20
0
  3
BK8
  1

  0
CIRCLE
  5
1B0
100
AcDbEntity
  8
_0-2_寸法
  6
CONTINUOUS
 62
     0
100
AcDbCircle
 10
207
 20
514.2022333195
 40
0.25
  0
LINE
  5
1B1
100
AcDbEntity
  8
_0-2_寸法
  6
CONTINUOUS
 62
     0
100
AcDbLine
 10
207
 20
514.4522333195
 11
207
 21
513.9522333195
  0
LINE
  5
1B2
100
AcDbEntity
  8
_0-2_寸法
  6
CONTINUOUS
 62
     0
100
AcDbLine
 10
207
 20
513.7022333195
 11
207
 21
513.2022333195
  0
ENDBLK
  5
1B3
100
AcDbEntity
 67
     1
  8
_0-2_寸法
100
AcDbBlockEnd
  0
BLOCK
  5
1B4
100
AcDbEntity
  8
_0-2_寸法
100
AcDbBlockBegin
  2
BK9
 70
    64
 10
0
 20
0
  3
BK9
  1

  0
CIRCLE
  5
1B5
100
AcDbEntity
  8
_0-2_寸法
  6
CONTINUOUS
 62
     0
100
AcDbCircle
 10
282
 20
280
 40
0.25
  0
LINE
  5
1B6
100
AcDbEntity
  8
_0-2_寸法
  6
CONTINUOUS
 62
     0
100
AcDbLine
 10
281.75
 20
280
 11
282.25
 21
280
  0
LINE
  5
1B7
100
AcDbEntity
  8
_0-2_寸法
  6
CONTINUOUS
 62
     0
100
AcDbLine
 10
282.5
 20
280
 11
283
 21
280
  0
ENDBLK
  5
1B8
100
AcDbEntity
 67
     1
  8
_0-2_寸法
100
AcDbBlockEnd
  0
BLOCK
  5
1B9
100
AcDbEntity
  8
_0-2_寸法
100
AcDbBlockBegin
  2
BK10
 70
    64
 10
0
 20
0
  3
BK10
  1

  0
CIRCLE
  5
1BA
100
AcDbEntity
  8
_0-2_寸法
  6
CONTINUOUS
 62
     0
100
AcDbCircle
 10
307
 20
280
 40
0.25
  0
LINE
  5
1BB
100
AcDbEntity
  8
_0-2_寸法
  6
CONTINUOUS
 62
     0
100
AcDbLine
 10
307.25
 20
280
 11
306.75
 21
280
  0
LINE
  5
1BC
100
AcDbEntity
  8
_0-2_寸法
  6
CONTINUOUS
 62
     0
100
AcDbLine
 10
306.5
 20
280
 11
306
 21
280
  0
ENDBLK
  5
1BD
100
AcDbEntity
 67
     1
  8
_0-2_寸法
100
AcDbBlockEnd
  0
BLOCK
  5
1BE
100
AcDbEntity
  8
_0-2_寸法
100
AcDbBlockBegin
  2
BK11
 70
    64
 10
0
 20
0
  3
BK11
  1

  0
CIRCLE
  5
1BF
100
AcDbEntity
  8
_0-2_寸法
  6
CONTINUOUS
 62
     0
100
AcDbCircle
 10
307
 20
280
 40
0.25
  0
LINE
  5
1C0
100
AcDbEntity
  8
_0-2_寸法
  6
CONTINUOUS
 62
     0
100
AcDbLine
 10
306.75
 20
280
 11
307.25
 21
280
  0
LINE
  5
1C1
100
AcDbEntity
  8
_0-2_寸法
  6
CONTINUOUS
 62
     0
100
AcDbLine
 10
307.5
 20
280
 11
308
 21
280
  0
ENDBLK
  5
1C2
100
AcDbEntity
 67
     1
  8
_0-2_寸法
100
AcDbBlockEnd
  0
BLOCK
  5
1C3
100
AcDbEntity
  8
_0-2_寸法
100
AcDbBlockBegin
  2
BK12
 70
    64
 10
0
 20
0
  3
BK12
  1

  0
CIRCLE
  5
1C4
100
AcDbEntity
  8
_0-2_寸法
  6
CONTINUOUS
 62
     0
100
AcDbCircle
 10
407
 20
280
 40
0.25
  0
LINE
  5
1C5
100
AcDbEntity
  8
_0-2_寸法
  6
CONTINUOUS
 62
     0
100
AcDbLine
 10
407.25
 20
280
 11
406.75
 21
280
  0
LINE
  5
1C6
100
AcDbEntity
  8
_0-2_寸法
  6
CONTINUOUS
 62
     0
100
AcDbLine
 10
406.5
 20
280
 11
406
 21
280
  0
ENDBLK
  5
1C7
100
AcDbEntity
 67
     1
  8
_0-2_寸法
100
AcDbBlockEnd
  0
BLOCK
  5
1C8
100
AcDbEntity
  8
_0-2_寸法
100
AcDbBlockBegin
  2
BK13
 70
    64
 10
0
 20
0
  3
BK13
  1

  0
CIRCLE
  5
1C9
100
AcDbEntity
  8
_0-2_寸法
  6
CONTINUOUS
 62
     0
100
AcDbCircle
 10
407
 20
280
 40
0.25
  0
LINE
  5
1CA
100
AcDbEntity
  8
_0-2_寸法
  6
CONTINUOUS
 62
     0
100
AcDbLine
 10
406.75
 20
280
 11
407.25
 21
280
  0
LINE
  5
1CB
100
AcDbEntity
  8
_0-2_寸法
  6
CONTINUOUS
 62
     0
100
AcDbLine
 10
407.5
 20
280
 11
408
 21
280
  0
ENDBLK
  5
1CC
100
AcDbEntity
 67
     1
  8
_0-2_寸法
100
AcDbBlockEnd
  0
BLOCK
  5
1CD
100
AcDbEntity
  8
_0-2_寸法
100
AcDbBlockBegin
  2
BK14
 70
    64
 10
0
 20
0
  3
BK14
  1

  0
CIRCLE
  5
1CE
100
AcDbEntity
  8
_0-2_寸法
  6
CONTINUOUS
 62
     0
100
AcDbCircle
 10
532
 20
280
 40
0.25
  0
LINE
  5
1CF
100
AcDbEntity
  8
_0-2_寸法
  6
CONTINUOUS
 62
     0
100
AcDbLine
 10
532.25
 20
280
 11
531.75
 21
280
  0
LINE
  5
1D0
100
AcDbEntity
  8
_0-2_寸法
  6
CONTINUOUS
 62
     0
100
AcDbLine
 10
531.5
 20
280
 11
531
 21
280
  0
ENDBLK
  5
1D1
100
AcDbEntity
 67
     1
  8
_0-2_寸法
100
AcDbBlockEnd
  0
BLOCK
  5
1D2
100
AcDbEntity
  8
_0-2_寸法
100
AcDbBlockBegin
  2
BK15
 70
    64
 10
0
 20
0
  3
BK15
  1

  0
CIRCLE
  5
1D3
100
AcDbEntity
  8
_0-2_寸法
  6
CONTINUOUS
 62
     0
100
AcDbCircle
 10
532.2462019383
 20
280
 40
0.25
  0
LINE
  5
1D4
100
AcDbEntity
  8
_0-2_寸法
  6
CONTINUOUS
 62
     0
100
AcDbLine
 10
531.9962019383
 20
280
 11
532.4962019383
 21
280
  0
LINE
  5
1D5
100
AcDbEntity
  8
_0-2_寸法
  6
CONTINUOUS
 62
     0
100
AcDbLine
 10
532.7462019383
 20
280
 11
533.2462019383
 21
280
  0
ENDBLK
  5
1D6
100
AcDbEntity
 67
     1
  8
_0-2_寸法
100
AcDbBlockEnd
  0
BLOCK
  5
1D7
100
AcDbEntity
  8
_0-2_寸法
100
AcDbBlockBegin
  2
BK16
 70
    64
 10
0
 20
0
  3
BK16
  1

  0
CIRCLE
  5
1D8
100
AcDbEntity
  8
_0-2_寸法
  6
CONTINUOUS
 62
     0
100
AcDbCircle
 10
608
 20
280
 40
0.25
  0
LINE
  5
1D9
100
AcDbEntity
  8
_0-2_寸法
  6
CONTINUOUS
 62
     0
100
AcDbLine
 10
608.25
 20
280
 11
607.75
 21
280
  0
LINE
  5
1DA
100
AcDbEntity
  8
_0-2_寸法
  6
CONTINUOUS
 62
     0
100
AcDbLine
 10
607.5
 20
280
 11
607
 21
280
  0
ENDBLK
  5
1DB
100
AcDbEntity
 67
     1
  8
_0-2_寸法
100
AcDbBlockEnd
  0
BLOCK
  5
1DC
100
AcDbEntity
  8
_0-2_寸法
100
AcDbBlockBegin
  2
BK17
 70
    64
 10
0
 20
0
  3
BK17
  1

  0
CIRCLE
  5
1DD
100
AcDbEntity
  8
_0-2_寸法
  6
CONTINUOUS
 62
     0
100
AcDbCircle
 10
648
 20
352.0771419653
 40
0.25
  0
LINE
  5
1DE
100
AcDbEntity
  8
_0-2_寸法
  6
CONTINUOUS
 62
     0
100
AcDbLine
 10
648
 20
351.8271419653
 11
648
 21
352.3271419653
  0
LINE
  5
1DF
100
AcDbEntity
  8
_0-2_寸法
  6
CONTINUOUS
 62
     0
100
AcDbLine
 10
648
 20
352.5771419653
 11
648
 21
353.0771419653
  0
ENDBLK
  5
1E0
100
AcDbEntity
 67
     1
  8
_0-2_寸法
100
AcDbBlockEnd
  0
BLOCK
  5
1E1
100
AcDbEntity
  8
_0-2_寸法
100
AcDbBlockBegin
  2
BK18
 70
    64
 10
0
 20
0
  3
BK18
  1

  0
CIRCLE
  5
1E2
100
AcDbEntity
  8
_0-2_寸法
  6
CONTINUOUS
 62
     0
100
AcDbCircle
 10
648
 20
395
 40
0.25
  0
LINE
  5
1E3
100
AcDbEntity
  8
_0-2_寸法
  6
CONTINUOUS
 62
     0
100
AcDbLine
 10
648
 20
395.25
 11
648
 21
394.75
  0
LINE
  5
1E4
100
AcDbEntity
  8
_0-2_寸法
  6
CONTINUOUS
 62
     0
100
AcDbLine
 10
648
 20
394.5
 11
648
 21
394
  0
ENDBLK
  5
1E5
100
AcDbEntity
 67
     1
  8
_0-2_寸法
100
AcDbBlockEnd
  0
BLOCK
  5
1E6
100
AcDbEntity
  8
_0-2_寸法
100
AcDbBlockBegin
  2
BK19
 70
    64
 10
0
 20
0
  3
BK19
  1

  0
LINE
  5
1E7
100
AcDbEntity
  8
_0-2_寸法
  6
CONTINUOUS
 62
     0
100
AcDbLine
 10
610
 20
352.0771419653
 11
668
 21
352.0771419653
  0
LINE
  5
1E8
100
AcDbEntity
  8
_0-2_寸法
  6
CONTINUOUS
 62
     0
100
AcDbLine
 10
610
 20
442.0771419653
 11
668
 21
442.0771419653
  0
LINE
  5
1E9
100
AcDbEntity
  8
_0-2_寸法
  6
CONTINUOUS
 62
     0
100
AcDbLine
 10
668
 20
353.0771419653
 11
668
 21
441.0771419653
  0
TEXT
  5
1EA
100
AcDbEntity
  8
_0-2_寸法
  6
CONTINUOUS
 62
     0
100
AcDbText
 10
667
 20
394.5771419653
 40
5
  1
90
 50
90
  7
STANDARD
100
AcDbText
  0
CIRCLE
  5
1EB
100
AcDbEntity
  8
_0-2_寸法
  6
CONTINUOUS
 62
     0
100
AcDbCircle
 10
610
 20
352.0771419653
 40
1.4
  0
CIRCLE
  5
1EC
100
AcDbEntity
  8
_0-2_寸法
  6
CONTINUOUS
 62
     0
100
AcDbCircle
 10
610
 20
442.0771419653
 40
1.4
  0
CIRCLE
  5
1ED
100
AcDbEntity
  8
_0-2_寸法
  6
CONTINUOUS
 62
     0
100
AcDbCircle
 10
668
 20
442.0771419653
 40
1.4
  0
ENDBLK
  5
1EE
100
AcDbEntity
 67
     1
  8
_0-2_寸法
100
AcDbBlockEnd
  0
BLOCK
  5
1EF
100
AcDbEntity
  8
_0-2_寸法
100
AcDbBlockBegin
  2
BK20
 70
    64
 10
0
 20
0
  3
BK20
  1

  0
CIRCLE
  5
1F0
100
AcDbEntity
  8
_0-2_寸法
  6
CONTINUOUS
 62
     0
100
AcDbCircle
 10
668
 20
352.0771419653
 40
0.25
  0
LINE
  5
1F1
100
AcDbEntity
  8
_0-2_寸法
  6
CONTINUOUS
 62
     0
100
AcDbLine
 10
668
 20
351.8271419653
 11
668
 21
352.3271419653
  0
LINE
  5
1F2
100
AcDbEntity
  8
_0-2_寸法
  6
CONTINUOUS
 62
     0
100
AcDbLine
 10
668
 20
352.5771419653
 11
668
 21
353.0771419653
  0
ENDBLK
  5
1F3
100
AcDbEntity
 67
     1
  8
_0-2_寸法
100
AcDbBlockEnd
  0
BLOCK
  5
1F4
100
AcDbEntity
  8
_0-2_寸法
100
AcDbBlockBegin
  2
BK21
 70
    64
 10
0
 20
0
  3
BK21
  1

  0
CIRCLE
  5
1F5
100
AcDbEntity
  8
_0-2_寸法
  6
CONTINUOUS
 62
     0
100
AcDbCircle
 10
668
 20
442.0771419653
 40
0.25
  0
LINE
  5
1F6
100
AcDbEntity
  8
_0-2_寸法
  6
CONTINUOUS
 62
     0
100
AcDbLine
 10
668
 20
442.3271419653
 11
668
 21
441.8271419653
  0
LINE
  5
1F7
100
AcDbEntity
  8
_0-2_寸法
  6
CONTINUOUS
 62
     0
100
AcDbLine
 10
668
 20
441.5771419653
 11
668
 21
441.0771419653
  0
ENDBLK
  5
1F8
100
AcDbEntity
 67
     1
  8
_0-2_寸法
100
AcDbBlockEnd
  0
BLOCK
  5
1F9
100
AcDbEntity
  8
_0-2_寸法
100
AcDbBlockBegin
  2
BK22
 70
    64
 10
0
 20
0
  3
BK22
  1

  0
LINE
  5
1FA
100
AcDbEntity
  8
_0-2_寸法
  6
CONTINUOUS
 62
     0
100
AcDbLine
 10
483
 20
335
 11
531
 21
335
  0
TEXT
  5
1FB
100
AcDbEntity
  8
_0-2_寸法
  6
CONTINUOUS
 62
     0
100
AcDbText
 10
504.5
 20
336
 40
5
  1
50
  7
STANDARD
100
AcDbText
  0
CIRCLE
  5
1FC
100
AcDbEntity
  8
_0-2_寸法
  6
CONTINUOUS
 62
     0
100
AcDbCircle
 10
482
 20
335
 40
1.4
  0
CIRCLE
  5
1FD
100
AcDbEntity
  8
_0-2_寸法
  6
CONTINUOUS
 62
     0
100
AcDbCircle
 10
532
 20
335
 40
1.4
  0
CIRCLE
  5
1FE
100
AcDbEntity
  8
_0-2_寸法
  6
CONTINUOUS
 62
     0
100
AcDbCircle
 10
532
 20
335
 40
1.4
  0
ENDBLK
  5
1FF
100
AcDbEntity
 67
     1
  8
_0-2_寸法
100
AcDbBlockEnd
  0
BLOCK
  5
200
100
AcDbEntity
  8
_0-2_寸法
100
AcDbBlockBegin
  2
BK23
 70
    64
 10
0
 20
0
  3
BK23
  1

  0
CIRCLE
  5
201
100
AcDbEntity
  8
_0-2_寸法
  6
CONTINUOUS
 62
     0
100
AcDbCircle
 10
482
 20
335
 40
0.25
  0
LINE
  5
202
100
AcDbEntity
  8
_0-2_寸法
  6
CONTINUOUS
 62
     0
100
AcDbLine
 10
481.75
 20
335
 11
482.25
 21
335
  0
LINE
  5
203
100
AcDbEntity
  8
_0-2_寸法
  6
CONTINUOUS
 62
     0
100
AcDbLine
 10
482.5
 20
335
 11
483
 21
335
  0
ENDBLK
  5
204
100
AcDbEntity
 67
     1
  8
_0-2_寸法
100
AcDbBlockEnd
  0
BLOCK
  5
205
100
AcDbEntity
  8
_0-2_寸法
100
AcDbBlockBegin
  2
BK24
 70
    64
 10
0
 20
0
  3
BK24
  1

  0
CIRCLE
  5
206
100
AcDbEntity
  8
_0-2_寸法
  6
CONTINUOUS
 62
     0
100
AcDbCircle
 10
532
 20
335
 40
0.25
  0
LINE
  5
207
100
AcDbEntity
  8
_0-2_寸法
  6
CONTINUOUS
 62
     0
100
AcDbLine
 10
532.25
 20
335
 11
531.75
 21
335
  0
LINE
  5
208
100
AcDbEntity
  8
_0-2_寸法
  6
CONTINUOUS
 62
     0
100
AcDbLine
 10
531.5
 20
335
 11
531
 21
335
  0
ENDBLK
  5
209
100
AcDbEntity
 67
     1
  8
_0-2_寸法
100
AcDbBlockEnd
  0
BLOCK
  5
20A
100
AcDbEntity
  8
_0-2_寸法
100
AcDbBlockBegin
  2
BK25
 70
    64
 10
0
 20
0
  3
BK25
  1

  0
LINE
  5
20B
100
AcDbEntity
  8
_0-2_寸法
  6
CONTINUOUS
 62
     0
100
AcDbLine
 10
608
 20
444.0771419653
 11
608
 21
492.2022333195
  0
LINE
  5
20C
100
AcDbEntity
  8
_0-2_寸法
  6
CONTINUOUS
 62
     0
100
AcDbLine
 10
298
 20
472.3235535431
 11
298
 21
492.2022333195
  0
LINE
  5
20D
100
AcDbEntity
  8
_0-2_寸法
  6
CONTINUOUS
 62
     0
100
AcDbLine
 10
607
 20
492.2022333195
 11
299
 21
492.2022333195
  0
TEXT
  5
20E
100
AcDbEntity
  8
_0-2_寸法
  6
CONTINUOUS
 62
     0
100
AcDbText
 10
451.75
 20
493.2022333195
 40
5
  1
A
  7
STANDARD
100
AcDbText
  0
CIRCLE
  5
20F
100
AcDbEntity
  8
_0-2_寸法
  6
CONTINUOUS
 62
     0
100
AcDbCircle
 10
608
 20
444.0771419653
 40
1.4
  0
CIRCLE
  5
210
100
AcDbEntity
  8
_0-2_寸法
  6
CONTINUOUS
 62
     0
100
AcDbCircle
 10
298
 20
472.3235535431
 40
1.4
  0
CIRCLE
  5
211
100
AcDbEntity
  8
_0-2_寸法
  6
CONTINUOUS
 62
     0
100
AcDbCircle
 10
298
 20
492.2022333195
 40
1.4
  0
ENDBLK
  5
212
100
AcDbEntity
 67
     1
  8
_0-2_寸法
100
AcDbBlockEnd
  0
BLOCK
  5
213
100
AcDbEntity
  8
_0-2_寸法
100
AcDbBlockBegin
  2
BK26
 70
    64
 10
0
 20
0
  3
BK26
  1

  0
CIRCLE
  5
214
100
AcDbEntity
  8
_0-2_寸法
  6
CONTINUOUS
 62
     0
100
AcDbCircle
 10
608
 20
492.2022333195
 40
0.25
  0
LINE
  5
215
100
AcDbEntity
  8
_0-2_寸法
  6
CONTINUOUS
 62
     0
100
AcDbLine
 10
608.25
 20
492.2022333195
 11
607.75
 21
492.2022333195
  0
LINE
  5
216
100
AcDbEntity
  8
_0-2_寸法
  6
CONTINUOUS
 62
     0
100
AcDbLine
 10
607.5
 20
492.2022333195
 11
607
 21
492.2022333195
  0
ENDBLK
  5
217
100
AcDbEntity
 67
     1
  8
_0-2_寸法
100
AcDbBlockEnd
  0
BLOCK
  5
218
100
AcDbEntity
  8
_0-2_寸法
100
AcDbBlockBegin
  2
BK27
 70
    64
 10
0
 20
0
  3
BK27
  1

  0
CIRCLE
  5
219
100
AcDbEntity
  8
_0-2_寸法
  6
CONTINUOUS
 62
     0
100
AcDbCircle
 10
298
 20
492.2022333195
 40
0.25
  0
LINE
  5
21A
100
AcDbEntity
  8
_0-2_寸法
  6
CONTINUOUS
 62
     0
100
AcDbLine
 10
297.75
 20
492.2022333195
 11
298.25
 21
492.2022333195
  0
LINE
  5
21B
100
AcDbEntity
  8
_0-2_寸法
  6
CONTINUOUS
 62
     0
100
AcDbLine
 10
298.5
 20
492.2022333195
 11
299
 21
492.2022333195
  0
ENDBLK
  5
21C
100
AcDbEntity
 67
     1
  8
_0-2_寸法
100
AcDbBlockEnd
  0
BLOCK
  5
21D
100
AcDbEntity
  8
_0-2_寸法
100
AcDbBlockBegin
  2
BK28
 70
    64
 10
0
 20
0
  3
BK28
  1

  0
LINE
  5
21E
100
AcDbEntity
  8
_0-2_寸法
  6
CONTINUOUS
 62
     0
100
AcDbLine
 10
608
 20
444.0771419653
 11
608
 21
574.2022333195
  0
LINE
  5
21F
100
AcDbEntity
  8
_0-2_寸法
  6
CONTINUOUS
 62
     0
100
AcDbLine
 10
283
 20
501.2022333195
 11
283
 21
574.2022333195
  0
LINE
  5
220
100
AcDbEntity
  8
_0-2_寸法
  6
CONTINUOUS
 62
     0
100
AcDbLine
 10
607
 20
574.2022333195
 11
284
 21
574.2022333195
  0
TEXT
  5
221
100
AcDbEntity
  8
_0-2_寸法
  6
CONTINUOUS
 62
     0
100
AcDbText
 10
444.25
 20
575.2022333195
 40
5
  1
W
  7
STANDARD
100
AcDbText
  0
CIRCLE
  5
222
100
AcDbEntity
  8
_0-2_寸法
  6
CONTINUOUS
 62
     0
100
AcDbCircle
 10
608
 20
444.0771419653
 40
1.4
  0
CIRCLE
  5
223
100
AcDbEntity
  8
_0-2_寸法
  6
CONTINUOUS
 62
     0
100
AcDbCircle
 10
283
 20
501.2022333195
 40
1.4
  0
CIRCLE
  5
224
100
AcDbEntity
  8
_0-2_寸法
  6
CONTINUOUS
 62
     0
100
AcDbCircle
 10
283
 20
574.2022333195
 40
1.4
  0
ENDBLK
  5
225
100
AcDbEntity
 67
     1
  8
_0-2_寸法
100
AcDbBlockEnd
  0
BLOCK
  5
226
100
AcDbEntity
  8
_0-2_寸法
100
AcDbBlockBegin
  2
BK29
 70
    64
 10
0
 20
0
  3
BK29
  1

  0
CIRCLE
  5
227
100
AcDbEntity
  8
_0-2_寸法
  6
CONTINUOUS
 62
     0
100
AcDbCircle
 10
608
 20
574.2022333195
 40
0.25
  0
LINE
  5
228
100
AcDbEntity
  8
_0-2_寸法
  6
CONTINUOUS
 62
     0
100
AcDbLine
 10
608.25
 20
574.2022333195
 11
607.75
 21
574.2022333195
  0
LINE
  5
229
100
AcDbEntity
  8
_0-2_寸法
  6
CONTINUOUS
 62
     0
100
AcDbLine
 10
607.5
 20
574.2022333195
 11
607
 21
574.2022333195
  0
ENDBLK
  5
22A
100
AcDbEntity
 67
     1
  8
_0-2_寸法
100
AcDbBlockEnd
  0
BLOCK
  5
22B
100
AcDbEntity
  8
_0-2_寸法
100
AcDbBlockBegin
  2
BK30
 70
    64
 10
0
 20
0
  3
BK30
  1

  0
CIRCLE
  5
22C
100
AcDbEntity
  8
_0-2_寸法
  6
CONTINUOUS
 62
     0
100
AcDbCircle
 10
283
 20
574.2022333195
 40
0.25
  0
LINE
  5
22D
100
AcDbEntity
  8
_0-2_寸法
  6
CONTINUOUS
 62
     0
100
AcDbLine
 10
282.75
 20
574.2022333195
 11
283.25
 21
574.2022333195
  0
LINE
  5
22E
100
AcDbEntity
  8
_0-2_寸法
  6
CONTINUOUS
 62
     0
100
AcDbLine
 10
283.5
 20
574.2022333195
 11
284
 21
574.2022333195
  0
ENDBLK
  5
22F
100
AcDbEntity
 67
     1
  8
_0-2_寸法
100
AcDbBlockEnd
  0
BLOCK
  5
230
100
AcDbEntity
  8
_0-2_寸法
100
AcDbBlockBegin
  2
BK31
 70
    64
 10
0
 20
0
  3
BK31
  1

  0
LINE
  5
231
100
AcDbEntity
  8
_0-2_寸法
  6
CONTINUOUS
 62
     0
100
AcDbLine
 10
316.5
 20
502.4044666391
 11
316.5
 21
544.2022333195
  0
LINE
  5
232
100
AcDbEntity
  8
_0-2_寸法
  6
CONTINUOUS
 62
     0
100
AcDbLine
 10
296.5
 20
516.2022333195
 11
296.5
 21
544.2022333195
  0
LINE
  5
233
100
AcDbEntity
  8
_0-2_寸法
  6
CONTINUOUS
 62
     0
100
AcDbLine
 10
315.5
 20
544.2022333195
 11
297.5
 21
544.2022333195
  0
TEXT
  5
234
100
AcDbEntity
  8
_0-2_寸法
  6
CONTINUOUS
 62
     0
100
AcDbText
 10
304
 20
545.2022333195
 40
5
  1
20
  7
STANDARD
100
AcDbText
  0
CIRCLE
  5
235
100
AcDbEntity
  8
_0-2_寸法
  6
CONTINUOUS
 62
     0
100
AcDbCircle
 10
316.5
 20
502.4044666391
 40
1.4
  0
CIRCLE
  5
236
100
AcDbEntity
  8
_0-2_寸法
  6
CONTINUOUS
 62
     0
100
AcDbCircle
 10
296.5
 20
516.2022333195
 40
1.4
  0
CIRCLE
  5
237
100
AcDbEntity
  8
_0-2_寸法
  6
CONTINUOUS
 62
     0
100
AcDbCircle
 10
296.5
 20
544.2022333195
 40
1.4
  0
ENDBLK
  5
238
100
AcDbEntity
 67
     1
  8
_0-2_寸法
100
AcDbBlockEnd
  0
BLOCK
  5
239
100
AcDbEntity
  8
_0-2_寸法
100
AcDbBlockBegin
  2
BK32
 70
    64
 10
0
 20
0
  3
BK32
  1

  0
CIRCLE
  5
23A
100
AcDbEntity
  8
_0-2_寸法
  6
CONTINUOUS
 62
     0
100
AcDbCircle
 10
316.5
 20
544.2022333195
 40
0.25
  0
LINE
  5
23B
100
AcDbEntity
  8
_0-2_寸法
  6
CONTINUOUS
 62
     0
100
AcDbLine
 10
316.75
 20
544.2022333195
 11
316.25
 21
544.2022333195
  0
LINE
  5
23C
100
AcDbEntity
  8
_0-2_寸法
  6
CONTINUOUS
 62
     0
100
AcDbLine
 10
316
 20
544.2022333195
 11
315.5
 21
544.2022333195
  0
ENDBLK
  5
23D
100
AcDbEntity
 67
     1
  8
_0-2_寸法
100
AcDbBlockEnd
  0
BLOCK
  5
23E
100
AcDbEntity
  8
_0-2_寸法
100
AcDbBlockBegin
  2
BK33
 70
    64
 10
0
 20
0
  3
BK33
  1

  0
CIRCLE
  5
23F
100
AcDbEntity
  8
_0-2_寸法
  6
CONTINUOUS
 62
     0
100
AcDbCircle
 10
296.5
 20
544.2022333195
 40
0.25
  0
LINE
  5
240
100
AcDbEntity
  8
_0-2_寸法
  6
CONTINUOUS
 62
     0
100
AcDbLine
 10
296.25
 20
544.2022333195
 11
296.75
 21
544.2022333195
  0
LINE
  5
241
100
AcDbEntity
  8
_0-2_寸法
  6
CONTINUOUS
 62
     0
100
AcDbLine
 10
297
 20
544.2022333195
 11
297.5
 21
544.2022333195
  0
ENDBLK
  5
242
100
AcDbEntity
 67
     1
  8
_0-2_寸法
100
AcDbBlockEnd
  0
BLOCK
  5
243
100
AcDbEntity
  8
_0-2_寸法
100
AcDbBlockBegin
  2
BK34
 70
    64
 10
0
 20
0
  3
BK34
  1

  0
LINE
  5
244
100
AcDbEntity
  8
_0-2_寸法
  6
CONTINUOUS
 62
     0
100
AcDbLine
 10
316.5
 20
502.4044666391
 11
316.5
 21
559.2022333195
  0
LINE
  5
245
100
AcDbEntity
  8
_0-2_寸法
  6
CONTINUOUS
 62
     0
100
AcDbLine
 10
283
 20
501.2022333195
 11
283
 21
559.2022333195
  0
LINE
  5
246
100
AcDbEntity
  8
_0-2_寸法
  6
CONTINUOUS
 62
     0
100
AcDbLine
 10
315.5
 20
559.2022333195
 11
284
 21
559.2022333195
  0
TEXT
  5
247
100
AcDbEntity
  8
_0-2_寸法
  6
CONTINUOUS
 62
     0
100
AcDbText
 10
294.75
 20
560.2022333195
 40
5
  1
33.5
  7
STANDARD
100
AcDbText
  0
CIRCLE
  5
248
100
AcDbEntity
  8
_0-2_寸法
  6
CONTINUOUS
 62
     0
100
AcDbCircle
 10
316.5
 20
502.4044666391
 40
1.4
  0
CIRCLE
  5
249
100
AcDbEntity
  8
_0-2_寸法
  6
CONTINUOUS
 62
     0
100
AcDbCircle
 10
283
 20
501.2022333195
 40
1.4
  0
CIRCLE
  5
24A
100
AcDbEntity
  8
_0-2_寸法
  6
CONTINUOUS
 62
     0
100
AcDbCircle
 10
283
 20
559.2022333195
 40
1.4
  0
ENDBLK
  5
24B
100
AcDbEntity
 67
     1
  8
_0-2_寸法
100
AcDbBlockEnd
  0
BLOCK
  5
24C
100
AcDbEntity
  8
_0-2_寸法
100
AcDbBlockBegin
  2
BK35
 70
    64
 10
0
 20
0
  3
BK35
  1

  0
CIRCLE
  5
24D
100
AcDbEntity
  8
_0-2_寸法
  6
CONTINUOUS
 62
     0
100
AcDbCircle
 10
316.5
 20
559.2022333195
 40
0.25
  0
LINE
  5
24E
100
AcDbEntity
  8
_0-2_寸法
  6
CONTINUOUS
 62
     0
100
AcDbLine
 10
316.75
 20
559.2022333195
 11
316.25
 21
559.2022333195
  0
LINE
  5
24F
100
AcDbEntity
  8
_0-2_寸法
  6
CONTINUOUS
 62
     0
100
AcDbLine
 10
316
 20
559.2022333195
 11
315.5
 21
559.2022333195
  0
ENDBLK
  5
250
100
AcDbEntity
 67
     1
  8
_0-2_寸法
100
AcDbBlockEnd
  0
BLOCK
  5
251
100
AcDbEntity
  8
_0-2_寸法
100
AcDbBlockBegin
  2
BK36
 70
    64
 10
0
 20
0
  3
BK36
  1

  0
CIRCLE
  5
252
100
AcDbEntity
  8
_0-2_寸法
  6
CONTINUOUS
 62
     0
100
AcDbCircle
 10
283
 20
559.2022333195
 40
0.25
  0
LINE
  5
253
100
AcDbEntity
  8
_0-2_寸法
  6
CONTINUOUS
 62
     0
100
AcDbLine
 10
282.75
 20
559.2022333195
 11
283.25
 21
559.2022333195
  0
LINE
  5
254
100
AcDbEntity
  8
_0-2_寸法
  6
CONTINUOUS
 62
     0
100
AcDbLine
 10
283.5
 20
559.2022333195
 11
284
 21
559.2022333195
  0
ENDBLK
  5
255
100
AcDbEntity
 67
     1
  8
_0-2_寸法
100
AcDbBlockEnd
  0
BLOCK
  5
256
100
AcDbEntity
  8
_0-2_寸法
100
AcDbBlockBegin
  2
BK37
 70
    64
 10
0
 20
0
  3
BK37
  1

  0
LINE
  5
257
100
AcDbEntity
  8
_0-2_寸法
  6
CONTINUOUS
 62
     0
100
AcDbLine
 10
309
 20
514.2022333195
 11
351.5
 21
514.2022333195
  0
LINE
  5
258
100
AcDbEntity
  8
_0-2_寸法
  6
CONTINUOUS
 62
     0
100
AcDbLine
 10
318.5
 20
499.2022333195
 11
351.5
 21
499.2022333195
  0
LINE
  5
259
100
AcDbEntity
  8
_0-2_寸法
  6
CONTINUOUS
 62
     0
100
AcDbLine
 10
351.5
 20
513.2022333195
 11
351.5
 21
500.2022333195
  0
TEXT
  5
25A
100
AcDbEntity
  8
_0-2_寸法
  6
CONTINUOUS
 62
     0
100
AcDbText
 10
350.5
 20
504.2022333195
 40
5
  1
15
 50
90
  7
STANDARD
100
AcDbText
  0
CIRCLE
  5
25B
100
AcDbEntity
  8
_0-2_寸法
  6
CONTINUOUS
 62
     0
100
AcDbCircle
 10
309
 20
514.2022333195
 40
1.4
  0
CIRCLE
  5
25C
100
AcDbEntity
  8
_0-2_寸法
  6
CONTINUOUS
 62
     0
100
AcDbCircle
 10
318.5
 20
499.2022333195
 40
1.4
  0
CIRCLE
  5
25D
100
AcDbEntity
  8
_0-2_寸法
  6
CONTINUOUS
 62
     0
100
AcDbCircle
 10
351.5
 20
499.2022333195
 40
1.4
  0
ENDBLK
  5
25E
100
AcDbEntity
 67
     1
  8
_0-2_寸法
100
AcDbBlockEnd
  0
BLOCK
  5
25F
100
AcDbEntity
  8
_0-2_寸法
100
AcDbBlockBegin
  2
BK38
 70
    64
 10
0
 20
0
  3
BK38
  1

  0
CIRCLE
  5
260
100
AcDbEntity
  8
_0-2_寸法
  6
CONTINUOUS
 62
     0
100
AcDbCircle
 10
351.5
 20
514.2022333195
 40
0.25
  0
LINE
  5
261
100
AcDbEntity
  8
_0-2_寸法
  6
CONTINUOUS
 62
     0
100
AcDbLine
 10
351.5
 20
514.4522333195
 11
351.5
 21
513.9522333195
  0
LINE
  5
262
100
AcDbEntity
  8
_0-2_寸法
  6
CONTINUOUS
 62
     0
100
AcDbLine
 10
351.5
 20
513.7022333195
 11
351.5
 21
513.2022333195
  0
ENDBLK
  5
263
100
AcDbEntity
 67
     1
  8
_0-2_寸法
100
AcDbBlockEnd
  0
BLOCK
  5
264
100
AcDbEntity
  8
_0-2_寸法
100
AcDbBlockBegin
  2
BK39
 70
    64
 10
0
 20
0
  3
BK39
  1

  0
CIRCLE
  5
265
100
AcDbEntity
  8
_0-2_寸法
  6
CONTINUOUS
 62
     0
100
AcDbCircle
 10
351.5
 20
499.2022333195
 40
0.25
  0
LINE
  5
266
100
AcDbEntity
  8
_0-2_寸法
  6
CONTINUOUS
 62
     0
100
AcDbLine
 10
351.5
 20
498.9522333195
 11
351.5
 21
499.4522333195
  0
LINE
  5
267
100
AcDbEntity
  8
_0-2_寸法
  6
CONTINUOUS
 62
     0
100
AcDbLine
 10
351.5
 20
499.7022333195
 11
351.5
 21
500.2022333195
  0
ENDBLK
  5
268
100
AcDbEntity
 67
     1
  8
_0-2_寸法
100
AcDbBlockEnd
  0
BLOCK
  5
269
100
AcDbEntity
  8
_0-2_寸法
100
AcDbBlockBegin
  2
BK40
 70
    64
 10
0
 20
0
  3
BK40
  1

  0
LINE
  5
26A
100
AcDbEntity
  8
_0-2_寸法
  6
CONTINUOUS
 62
     0
100
AcDbLine
 10
318.5
 20
499.2022333195
 11
351.5
 21
499.2022333195
  0
LINE
  5
26B
100
AcDbEntity
  8
_0-2_寸法
  6
CONTINUOUS
 62
     0
100
AcDbLine
 10
318.5
 20
463.2022333195
 11
351.5
 21
463.2022333195
  0
LINE
  5
26C
100
AcDbEntity
  8
_0-2_寸法
  6
CONTINUOUS
 62
     0
100
AcDbLine
 10
351.5
 20
498.2022333195
 11
351.5
 21
464.2022333195
  0
TEXT
  5
26D
100
AcDbEntity
  8
_0-2_寸法
  6
CONTINUOUS
 62
     0
100
AcDbText
 10
350.5
 20
478.7022333195
 40
5
  1
36
 50
90
  7
STANDARD
100
AcDbText
  0
CIRCLE
  5
26E
100
AcDbEntity
  8
_0-2_寸法
  6
CONTINUOUS
 62
     0
100
AcDbCircle
 10
318.5
 20
499.2022333195
 40
1.4
  0
CIRCLE
  5
26F
100
AcDbEntity
  8
_0-2_寸法
  6
CONTINUOUS
 62
     0
100
AcDbCircle
 10
318.5
 20
463.2022333195
 40
1.4
  0
CIRCLE
  5
270
100
AcDbEntity
  8
_0-2_寸法
  6
CONTINUOUS
 62
     0
100
AcDbCircle
 10
351.5
 20
463.2022333195
 40
1.4
  0
ENDBLK
  5
271
100
AcDbEntity
 67
     1
  8
_0-2_寸法
100
AcDbBlockEnd
  0
BLOCK
  5
272
100
AcDbEntity
  8
_0-2_寸法
100
AcDbBlockBegin
  2
BK41
 70
    64
 10
0
 20
0
  3
BK41
  1

  0
CIRCLE
  5
273
100
AcDbEntity
  8
_0-2_寸法
  6
CONTINUOUS
 62
     0
100
AcDbCircle
 10
351.5
 20
499.2022333195
 40
0.25
  0
LINE
  5
274
100
AcDbEntity
  8
_0-2_寸法
  6
CONTINUOUS
 62
     0
100
AcDbLine
 10
351.5
 20
499.4522333195
 11
351.5
 21
498.9522333195
  0
LINE
  5
275
100
AcDbEntity
  8
_0-2_寸法
  6
CONTINUOUS
 62
     0
100
AcDbLine
 10
351.5
 20
498.7022333195
 11
351.5
 21
498.2022333195
  0
ENDBLK
  5
276
100
AcDbEntity
 67
     1
  8
_0-2_寸法
100
AcDbBlockEnd
  0
BLOCK
  5
277
100
AcDbEntity
  8
_0-2_寸法
100
AcDbBlockBegin
  2
BK42
 70
    64
 10
0
 20
0
  3
BK42
  1

  0
CIRCLE
  5
278
100
AcDbEntity
  8
_0-2_寸法
  6
CONTINUOUS
 62
     0
100
AcDbCircle
 10
351.5
 20
463.2022333195
 40
0.25
  0
LINE
  5
279
100
AcDbEntity
  8
_0-2_寸法
  6
CONTINUOUS
 62
     0
100
AcDbLine
 10
351.5
 20
462.9522333195
 11
351.5
 21
463.4522333195
  0
LINE
  5
27A
100
AcDbEntity
  8
_0-2_寸法
  6
CONTINUOUS
 62
     0
100
AcDbLine
 10
351.5
 20
463.7022333195
 11
351.5
 21
464.2022333195
  0
ENDBLK
  5
27B
100
AcDbEntity
 67
     1
  8
_0-2_寸法
100
AcDbBlockEnd
  0
ENDSEC
  0
SECTION
  2
ENTITIES
  0
LINE
  5
27C
100
AcDbEntity
  8
_0-4_図枠
  6
CONTINUOUS
 62
     0
100
AcDbLine
 10
359.5
 20
66
 11
150.5
 21
66
  0
LINE
  5
27D
100
AcDbEntity
  8
_0-4_図枠
  6
CONTINUOUS
 62
     0
100
AcDbLine
 10
359.5
 20
57
 11
150.5
 21
57
  0
LINE
  5
27E
100
AcDbEntity
  8
_0-4_図枠
  6
CONTINUOUS
 62
     0
100
AcDbLine
 10
359.5
 20
147
 11
150.5
 21
147
  0
LINE
  5
27F
100
AcDbEntity
  8
_0-4_図枠
  6
CONTINUOUS
 62
     0
100
AcDbLine
 10
359.5
 20
156
 11
150.5
 21
156
  0
TEXT
  5
280
100
AcDbEntity
  8
_0-2_寸法
  6
CONTINUOUS
 62
     0
100
AcDbText
 10
429
 20
485.6555453304
 40
5
  1
（キャップ幅）
  7
STANDARD
100
AcDbText
  0
TEXT
  5
281
100
AcDbEntity
  8
_0-4_図枠
  6
CONTINUOUS
 62
     0
100
AcDbText
 10
434.5
 20
255.6433670109
 40
5
  1
（2000mmセット）
  7
STANDARD
100
AcDbText
  0
LINE
  5
282
100
AcDbEntity
  8
_0-3_躯体と製品
  6
CONTINUOUS
 62
     0
100
AcDbLine
 10
577.7462356874
 20
419.7113651951
 11
313.1094089774
 21
433.5803935995
  0
LINE
  5
283
100
AcDbEntity
  8
_0-3_躯体と製品
  6
CONTINUOUS
 62
     0
100
AcDbLine
 10
578.8034220035
 20
439.8836817972
 11
314.1665952935
 21
453.7527102016
  0
LINE
  5
284
100
AcDbEntity
  8
_0-3_躯体と製品
  6
CONTINUOUS
 62
     0
100
AcDbLine
 10
577.3380152287
 20
411.9220548241
 11
312.7011885187
 21
425.7910832284
  0
LINE
  5
285
100
AcDbEntity
  8
_0-3_躯体と製品
  6
CONTINUOUS
 62
     0
100
AcDbLine
 10
577.6520309661
 20
417.9138320326
 11
313.0152042562
 21
431.782860437
  0
LINE
  5
286
100
AcDbEntity
  8
_0-3_躯体と製品
  6
CONTINUOUS
 62
     0
100
AcDbLine
 10
577.4688551193
 20
414.418628661
 11
312.8320284093
 21
428.2876570653
  0
LINE
  5
287
100
AcDbEntity
  8
_0-3_躯体と製品
  6
CONTINUOUS
 62
     0
100
AcDbLine
 10
577.3903511849
 20
412.9206843588
 11
312.7535244749
 21
426.7897127632
  0
LINE
  5
288
100
AcDbEntity
  8
_0-3_躯体と製品
  6
CONTINUOUS
 62
     0
100
AcDbLine
 10
578.5679102004
 20
435.3898488908
 11
313.9310834904
 21
449.2588772952
  0
LINE
  5
289
100
AcDbEntity
  8
_0-3_躯体と製品
  6
CONTINUOUS
 62
     0
100
AcDbLine
 10
578.489406266
 20
433.8919045887
 11
313.852579556
 21
447.760932993
  0
LINE
  5
28A
100
AcDbEntity
  8
_0-3_躯体と製品
  6
CONTINUOUS
 62
     0
100
AcDbLine
 10
563.7454750478
 20
439.1707768387
 11
329.0675343805
 21
451.4697265558
  0
LINE
  5
28B
100
AcDbEntity
  8
_0-3_躯体と製品
  6
CONTINUOUS
 62
     0
100
AcDbLine
 10
298.9476640438
 20
458.273888575
 11
605.1570078687
 21
442.2261368694
  0
LINE
  5
28C
100
AcDbEntity
  8
_0-3_躯体と製品
  6
CONTINUOUS
 62
     0
100
AcDbLine
 10
298.8429921313
 20
456.2766295055
 11
605.0523359562
 21
440.2288777999
  0
LINE
  5
28D
100
AcDbEntity
  8
_0-3_躯体と製品
  6
CONTINUOUS
 62
     0
100
AcDbLine
 10
407
 20
395
 11
532
 21
395
  0
TEXT
  5
28E
100
AcDbEntity
  8
_0-4_図枠
  6
CONTINUOUS
 62
     0
100
AcDbText
 10
439.25
 20
211.5
 40
5
  1
2000
  7
STANDARD
100
AcDbText
  0
TEXT
  5
28F
100
AcDbEntity
  8
_0-4_図枠
  6
CONTINUOUS
 62
     0
100
AcDbText
 10
439.25
 20
220.5
 40
5
  1
2000
  7
STANDARD
100
AcDbText
  0
TEXT
  5
290
100
AcDbEntity
  8
_0-4_図枠
  6
CONTINUOUS
 62
     0
100
AcDbText
 10
439.25
 20
229.5
 40
5
  1
2000
  7
STANDARD
100
AcDbText
  0
TEXT
  5
291
100
AcDbEntity
  8
_0-4_図枠
  6
CONTINUOUS
 62
     0
100
AcDbText
 10
439.25
 20
238.5
 40
5
  1
2000
  7
STANDARD
100
AcDbText
  0
TEXT
  5
292
100
AcDbEntity
  8
_0-4_図枠
  6
CONTINUOUS
 62
     0
100
AcDbText
 10
432.25
 20
247.5
 40
5
  1
定尺(mm)
  7
STANDARD
100
AcDbText
  0
LINE
  5
293
100
AcDbEntity
  8
_0-4_図枠
  6
CONTINUOUS
 62
     0
100
AcDbLine
 10
428.5
 20
210
 11
495.5
 21
210
  0
LINE
  5
294
100
AcDbEntity
  8
_0-4_図枠
  6
CONTINUOUS
 62
     0
100
AcDbLine
 10
428.5
 20
219
 11
495.5
 21
219
  0
LINE
  5
295
100
AcDbEntity
  8
_0-4_図枠
  6
CONTINUOUS
 62
     0
100
AcDbLine
 10
428.5
 20
228
 11
495.5
 21
228
  0
LINE
  5
296
100
AcDbEntity
  8
_0-4_図枠
  6
CONTINUOUS
 62
     0
100
AcDbLine
 10
428.5
 20
237
 11
495.5
 21
237
  0
LINE
  5
297
100
AcDbEntity
  8
_0-4_図枠
  6
CONTINUOUS
 62
     0
100
AcDbLine
 10
428.5
 20
246
 11
495.5
 21
246
  0
LINE
  5
298
100
AcDbEntity
  8
_0-4_図枠
  6
CONTINUOUS
 62
     0
100
AcDbLine
 10
428.5
 20
255
 11
495.5
 21
255
  0
LINE
  5
299
100
AcDbEntity
  8
_0-4_図枠
  6
CONTINUOUS
 62
     0
100
AcDbLine
 10
857.5
 20
603
 11
33.5
 21
603
  0
LINE
  5
29A
100
AcDbEntity
  8
_0-4_図枠
  6
CONTINUOUS
 62
     0
100
AcDbLine
 10
33.5
 20
27
 11
857.5
 21
27
  0
LINE
  5
29B
100
AcDbEntity
  8
_0-3_躯体と製品
  6
CONTINUOUS
 62
     0
100
AcDbLine
 10
406.9930969902
 20
396
 11
461
 21
396
  0
LINE
  5
29C
100
AcDbEntity
  8
_0-3_躯体と製品
  6
CONTINUOUS
 62
     0
100
AcDbLine
 10
307
 20
395
 11
307
 21
265
  0
LINE
  5
29D
100
AcDbEntity
  8
_0-3_躯体と製品
  6
CONTINUOUS
 62
     0
100
AcDbLine
 10
407
 20
395
 11
407
 21
265
  0
LINE
  5
29E
100
AcDbEntity
  8
_0-4_図枠
  6
CONTINUOUS
 62
     0
100
AcDbLine
 10
33.5
 20
603
 11
33.5
 21
27
  0
LINE
  5
29F
100
AcDbEntity
  8
_0-4_図枠
  6
CONTINUOUS
 62
     0
100
AcDbLine
 10
359.5
 20
75
 11
150.5
 21
75
  0
LINE
  5
2A0
100
AcDbEntity
  8
_0-4_図枠
  6
CONTINUOUS
 62
     0
100
AcDbLine
 10
359.5
 20
84
 11
150.5
 21
84
  0
LINE
  5
2A1
100
AcDbEntity
  8
_0-4_図枠
  6
CONTINUOUS
 62
     0
100
AcDbLine
 10
359.5
 20
93
 11
150.5
 21
93
  0
LINE
  5
2A2
100
AcDbEntity
  8
_0-4_図枠
  6
CONTINUOUS
 62
     0
100
AcDbLine
 10
359.5
 20
102
 11
150.5
 21
102
  0
LINE
  5
2A3
100
AcDbEntity
  8
_0-4_図枠
  6
CONTINUOUS
 62
     0
100
AcDbLine
 10
359.5
 20
111
 11
150.5
 21
111
  0
LINE
  5
2A4
100
AcDbEntity
  8
_0-4_図枠
  6
CONTINUOUS
 62
     0
100
AcDbLine
 10
359.5
 20
120
 11
150.5
 21
120
  0
LINE
  5
2A5
100
AcDbEntity
  8
_0-4_図枠
  6
CONTINUOUS
 62
     0
100
AcDbLine
 10
359.5
 20
129
 11
150.5
 21
129
  0
LINE
  5
2A6
100
AcDbEntity
  8
_0-4_図枠
  6
CONTINUOUS
 62
     0
100
AcDbLine
 10
359.5
 20
138
 11
150.5
 21
138
  0
LINE
  5
2A7
100
AcDbEntity
  8
_0-4_図枠
  6
CONTINUOUS
 62
     0
100
AcDbLine
 10
359.5
 20
165
 11
150.5
 21
165
  0
LINE
  5
2A8
100
AcDbEntity
  8
_0-4_図枠
  6
CONTINUOUS
 62
     0
100
AcDbLine
 10
359.5
 20
174
 11
150.5
 21
174
  0
LINE
  5
2A9
100
AcDbEntity
  8
_0-4_図枠
  6
CONTINUOUS
 62
     0
100
AcDbLine
 10
359.5
 20
183
 11
150.5
 21
183
  0
LINE
  5
2AA
100
AcDbEntity
  8
_0-4_図枠
  6
CONTINUOUS
 62
     0
100
AcDbLine
 10
359.5
 20
192
 11
150.5
 21
192
  0
LINE
  5
2AB
100
AcDbEntity
  8
_0-4_図枠
  6
CONTINUOUS
 62
     0
100
AcDbLine
 10
359.5
 20
201
 11
150.5
 21
201
  0
LINE
  5
2AC
100
AcDbEntity
  8
_0-4_図枠
  6
CONTINUOUS
 62
     0
100
AcDbLine
 10
359.5
 20
210
 11
150.5
 21
210
  0
LINE
  5
2AD
100
AcDbEntity
  8
_0-4_図枠
  6
CONTINUOUS
 62
     0
100
AcDbLine
 10
359.5
 20
219
 11
150.5
 21
219
  0
LINE
  5
2AE
100
AcDbEntity
  8
_0-4_図枠
  6
CONTINUOUS
 62
     0
100
AcDbLine
 10
359.5
 20
228
 11
150.5
 21
228
  0
LINE
  5
2AF
100
AcDbEntity
  8
_0-4_図枠
  6
CONTINUOUS
 62
     0
100
AcDbLine
 10
359.5
 20
237
 11
150.5
 21
237
  0
LINE
  5
2B0
100
AcDbEntity
  8
_0-4_図枠
  6
CONTINUOUS
 62
     0
100
AcDbLine
 10
359.5
 20
246
 11
150.5
 21
246
  0
LINE
  5
2B1
100
AcDbEntity
  8
_0-4_図枠
  6
CONTINUOUS
 62
     0
100
AcDbLine
 10
359.5
 20
255
 11
150.5
 21
255
  0
TEXT
  5
2B2
100
AcDbEntity
  8
_0-4_図枠
  6
CONTINUOUS
 62
     0
100
AcDbText
 10
169.5
 20
211.5
 40
5
  1
ＦＹＫ壁フレーム
  7
STANDARD
100
AcDbText
  0
TEXT
  5
2B3
100
AcDbEntity
  8
_0-4_図枠
  6
CONTINUOUS
 62
     0
100
AcDbText
 10
169.5
 20
220.5
 40
5
  1
ＦＹＹフレーム
  7
STANDARD
100
AcDbText
  0
TEXT
  5
2B4
100
AcDbEntity
  8
_0-4_図枠
  6
CONTINUOUS
 62
     0
100
AcDbText
 10
169.5
 20
229.5
 40
5
  1
ＦＹＫサイドキャップＡ
  7
STANDARD
100
AcDbText
  0
TEXT
  5
2B5
100
AcDbEntity
  8
_0-4_図枠
  6
CONTINUOUS
 62
     0
100
AcDbText
 10
169.5
 20
238.5
 40
5
  1
ＦＹＫキャップＡ
  7
STANDARD
100
AcDbText
  0
TEXT
  5
2B6
100
AcDbEntity
  8
_0-4_図枠
  6
CONTINUOUS
 62
     0
100
AcDbText
 10
154.25
 20
67.5
 40
5
  1
20
  7
STANDARD
100
AcDbText
  0
TEXT
  5
2B7
100
AcDbEntity
  8
_0-4_図枠
  6
CONTINUOUS
 62
     0
100
AcDbText
 10
154.25
 20
76.5
 40
5
  1
19
  7
STANDARD
100
AcDbText
  0
TEXT
  5
2B8
100
AcDbEntity
  8
_0-4_図枠
  6
CONTINUOUS
 62
     0
100
AcDbText
 10
154.25
 20
103.5
 40
5
  1
16
  7
STANDARD
100
AcDbText
  0
TEXT
  5
2B9
100
AcDbEntity
  8
_0-4_図枠
  6
CONTINUOUS
 62
     0
100
AcDbText
 10
154.25
 20
94.5
 40
5
  1
17
  7
STANDARD
100
AcDbText
  0
TEXT
  5
2BA
100
AcDbEntity
  8
_0-4_図枠
  6
CONTINUOUS
 62
     0
100
AcDbText
 10
154.25
 20
85.5
 40
5
  1
18
  7
STANDARD
100
AcDbText
  0
TEXT
  5
2BB
100
AcDbEntity
  8
_0-4_図枠
  6
CONTINUOUS
 62
     0
100
AcDbText
 10
154.25
 20
112.5
 40
5
  1
15
  7
STANDARD
100
AcDbText
  0
TEXT
  5
2BC
100
AcDbEntity
  8
_0-4_図枠
  6
CONTINUOUS
 62
     0
100
AcDbText
 10
154.25
 20
121.5
 40
5
  1
14
  7
STANDARD
100
AcDbText
  0
TEXT
  5
2BD
100
AcDbEntity
  8
_0-4_図枠
  6
CONTINUOUS
 62
     0
100
AcDbText
 10
154.25
 20
220.5
 40
5
  1
 3
  7
STANDARD
100
AcDbText
  0
TEXT
  5
2BE
100
AcDbEntity
  8
_0-4_図枠
  6
CONTINUOUS
 62
     0
100
AcDbText
 10
154.25
 20
175.5
 40
5
  1
 8
  7
STANDARD
100
AcDbText
  0
TEXT
  5
2BF
100
AcDbEntity
  8
_0-4_図枠
  6
CONTINUOUS
 62
     0
100
AcDbText
 10
154.25
 20
148.5
 40
5
  1
11
  7
STANDARD
100
AcDbText
  0
TEXT
  5
2C0
100
AcDbEntity
  8
_0-4_図枠
  6
CONTINUOUS
 62
     0
100
AcDbText
 10
154.25
 20
139.5
 40
5
  1
12
  7
STANDARD
100
AcDbText
  0
TEXT
  5
2C1
100
AcDbEntity
  8
_0-4_図枠
  6
CONTINUOUS
 62
     0
100
AcDbText
 10
154.25
 20
130.5
 40
5
  1
13
  7
STANDARD
100
AcDbText
  0
TEXT
  5
2C2
100
AcDbEntity
  8
_0-4_図枠
  6
CONTINUOUS
 62
     0
100
AcDbText
 10
154.25
 20
157.5
 40
5
  1
10
  7
STANDARD
100
AcDbText
  0
TEXT
  5
2C3
100
AcDbEntity
  8
_0-4_図枠
  6
CONTINUOUS
 62
     0
100
AcDbText
 10
154.25
 20
166.5
 40
5
  1
 9
  7
STANDARD
100
AcDbText
  0
TEXT
  5
2C4
100
AcDbEntity
  8
_0-4_図枠
  6
CONTINUOUS
 62
     0
100
AcDbText
 10
154.25
 20
184.5
 40
5
  1
 7
  7
STANDARD
100
AcDbText
  0
TEXT
  5
2C5
100
AcDbEntity
  8
_0-4_図枠
  6
CONTINUOUS
 62
     0
100
AcDbText
 10
154.25
 20
193.5
 40
5
  1
 6
  7
STANDARD
100
AcDbText
  0
TEXT
  5
2C6
100
AcDbEntity
  8
_0-4_図枠
  6
CONTINUOUS
 62
     0
100
AcDbText
 10
154.25
 20
202.5
 40
5
  1
 5
  7
STANDARD
100
AcDbText
  0
TEXT
  5
2C7
100
AcDbEntity
  8
_0-4_図枠
  6
CONTINUOUS
 62
     0
100
AcDbText
 10
154.25
 20
211.5
 40
5
  1
 4
  7
STANDARD
100
AcDbText
  0
TEXT
  5
2C8
100
AcDbEntity
  8
_0-4_図枠
  6
CONTINUOUS
 62
     0
100
AcDbText
 10
154.25
 20
229.5
 40
5
  1
 2
  7
STANDARD
100
AcDbText
  0
TEXT
  5
2C9
100
AcDbEntity
  8
_0-4_図枠
  6
CONTINUOUS
 62
     0
100
AcDbText
 10
154.25
 20
238.5
 40
5
  1
 1
  7
STANDARD
100
AcDbText
  0
TEXT
  5
2CA
100
AcDbEntity
  8
_0-4_図枠
  6
CONTINUOUS
 62
     0
100
AcDbText
 10
152.5
 20
247.5
 40
5
  1
No.
  7
STANDARD
100
AcDbText
  0
TEXT
  5
2CB
100
AcDbEntity
  8
_0-4_図枠
  6
CONTINUOUS
 62
     0
100
AcDbText
 10
302
 20
247.5
 40
5
  1
規　格
  7
STANDARD
100
AcDbText
  0
TEXT
  5
2CC
100
AcDbEntity
  8
_0-4_図枠
  6
CONTINUOUS
 62
     0
100
AcDbText
 10
201
 20
247.5
 40
5
  1
部材名称
  7
STANDARD
100
AcDbText
  0
TEXT
  5
2CD
100
AcDbEntity
  8
_0-4_図枠
  6
CONTINUOUS
 62
     0
100
AcDbText
 10
417.5
 20
220.5
 40
5
  1
〃
  7
STANDARD
100
AcDbText
  0
TEXT
  5
2CE
100
AcDbEntity
  8
_0-4_図枠
  6
CONTINUOUS
 62
     0
100
AcDbText
 10
401.25
 20
220.5
 40
5
  1
 1
  7
STANDARD
100
AcDbText
  0
TEXT
  5
2CF
100
AcDbEntity
  8
_0-4_図枠
  6
CONTINUOUS
 62
     0
100
AcDbText
 10
371.25
 20
220.5
 40
5
  1
3000
  7
STANDARD
100
AcDbText
  0
TEXT
  5
2D0
100
AcDbEntity
  8
_0-4_図枠
  6
CONTINUOUS
 62
     0
100
AcDbText
 10
371.25
 20
211.5
 40
5
  1
3000
  7
STANDARD
100
AcDbText
  0
LINE
  5
2D1
100
AcDbEntity
  8
_0-4_図枠
  6
CONTINUOUS
 62
     0
100
AcDbLine
 10
427.5
 20
210
 11
360.5
 21
210
  0
LINE
  5
2D2
100
AcDbEntity
  8
_0-4_図枠
  6
CONTINUOUS
 62
     0
100
AcDbLine
 10
427.5
 20
219
 11
360.5
 21
219
  0
TEXT
  5
2D3
100
AcDbEntity
  8
_0-4_図枠
  6
CONTINUOUS
 62
     0
100
AcDbText
 10
401.25
 20
211.5
 40
5
  1
 1
  7
STANDARD
100
AcDbText
  0
TEXT
  5
2D4
100
AcDbEntity
  8
_0-4_図枠
  6
CONTINUOUS
 62
     0
100
AcDbText
 10
417.5
 20
211.5
 40
5
  1
〃
  7
STANDARD
100
AcDbText
  0
TEXT
  5
2D5
100
AcDbEntity
  8
_0-4_図枠
  6
CONTINUOUS
 62
     0
100
AcDbText
 10
366.5
 20
255.6433670109
 40
5
  1
（3000mmセット）
  7
STANDARD
100
AcDbText
  0
TEXT
  5
2D6
100
AcDbEntity
  8
_0-4_図枠
  6
CONTINUOUS
 62
     0
100
AcDbText
 10
371.25
 20
229.5
 40
5
  1
3000
  7
STANDARD
100
AcDbText
  0
TEXT
  5
2D7
100
AcDbEntity
  8
_0-4_図枠
  6
CONTINUOUS
 62
     0
100
AcDbText
 10
371.25
 20
238.5
 40
5
  1
3000
  7
STANDARD
100
AcDbText
  0
TEXT
  5
2D8
100
AcDbEntity
  8
_0-4_図枠
  6
CONTINUOUS
 62
     0
100
AcDbText
 10
364.25
 20
247.5
 40
5
  1
定尺(mm)
  7
STANDARD
100
AcDbText
  0
LINE
  5
2D9
100
AcDbEntity
  8
_0-4_図枠
  6
CONTINUOUS
 62
     0
100
AcDbLine
 10
427.5
 20
228
 11
360.5
 21
228
  0
LINE
  5
2DA
100
AcDbEntity
  8
_0-4_図枠
  6
CONTINUOUS
 62
     0
100
AcDbLine
 10
427.5
 20
237
 11
360.5
 21
237
  0
LINE
  5
2DB
100
AcDbEntity
  8
_0-4_図枠
  6
CONTINUOUS
 62
     0
100
AcDbLine
 10
427.5
 20
246
 11
360.5
 21
246
  0
LINE
  5
2DC
100
AcDbEntity
  8
_0-4_図枠
  6
CONTINUOUS
 62
     0
100
AcDbLine
 10
427.5
 20
255
 11
360.5
 21
255
  0
TEXT
  5
2DD
100
AcDbEntity
  8
_0-4_図枠
  6
CONTINUOUS
 62
     0
100
AcDbText
 10
401.25
 20
229.5
 40
5
  1
 1
  7
STANDARD
100
AcDbText
  0
TEXT
  5
2DE
100
AcDbEntity
  8
_0-4_図枠
  6
CONTINUOUS
 62
     0
100
AcDbText
 10
401.25
 20
238.5
 40
5
  1
 1
  7
STANDARD
100
AcDbText
  0
TEXT
  5
2DF
100
AcDbEntity
  8
_0-4_図枠
  6
CONTINUOUS
 62
     0
100
AcDbText
 10
398
 20
247.5
 40
5
  1
入数
  7
STANDARD
100
AcDbText
  0
TEXT
  5
2E0
100
AcDbEntity
  8
_0-4_図枠
  6
CONTINUOUS
 62
     0
100
AcDbText
 10
417.5
 20
229.5
 40
5
  1
〃
  7
STANDARD
100
AcDbText
  0
TEXT
  5
2E1
100
AcDbEntity
  8
_0-4_図枠
  6
CONTINUOUS
 62
     0
100
AcDbText
 10
417.5
 20
238.5
 40
5
  1
本
  7
STANDARD
100
AcDbText
  0
TEXT
  5
2E2
100
AcDbEntity
  8
_0-4_図枠
  6
CONTINUOUS
 62
     0
100
AcDbText
 10
414
 20
247.5
 40
5
  1
単位
  7
STANDARD
100
AcDbText
  0
TEXT
  5
2E3
100
AcDbEntity
  8
_0-4_図枠
  6
CONTINUOUS
 62
     0
100
AcDbText
 10
53.45171947054
 20
567.9044752276
 40
10
  1
　　屋根－壁（切欠き壁）
  7
STANDARD
100
AcDbText
  0
TEXT
  5
2E4
100
AcDbEntity
  8
_0-4_図枠
  6
CONTINUOUS
 62
     0
100
AcDbText
 10
53.45171947054
 20
549.6218665319
 40
10
  1
　　Ｓ＝１／２
  7
STANDARD
100
AcDbText
  0
LINE
  5
2E5
100
AcDbEntity
  8
_0-4_図枠
  6
CONTINUOUS
 62
     0
100
AcDbLine
 10
288.970412466
 20
487.9396202917
 11
270.8512972233
 21
519.3228484802
  0
LINE
  5
2E6
100
AcDbEntity
  8
_0-4_図枠
  6
CONTINUOUS
 62
     0
100
AcDbLine
 10
309.5211428793
 20
498.4590379115
 11
327.7579643841
 21
530.0461393265
  0
LINE
  5
2E7
100
AcDbEntity
  8
_0-4_図枠
  6
CONTINUOUS
 62
     0
100
AcDbLine
 10
314.2176991381
 20
479.6619260557
 11
335.6865555244
 21
516.8470760971
  0
LINE
  5
2E8
100
AcDbEntity
  8
_0-3_躯体と製品
  6
CONTINUOUS
 62
     0
100
AcDbLine
 10
303.8616090456
 20
499.2022333195
 11
306.4283121345
 21
501.7689364084
  0
LINE
  5
2E9
100
AcDbEntity
  8
_0-3_躯体と製品
  6
CONTINUOUS
 62
     0
100
AcDbLine
 10
301.0331819208
 20
499.2022333195
 11
306.103317318
 21
504.2723687167
  0
ARC
  5
2EA
100
AcDbEntity
  8
_0-3_躯体と製品
  6
CONTINUOUS
 62
     0
100
AcDbCircle
 10
334.625
 20
506.7022333195
 40
28.625
100
AcDbArc
 50
164.8107132628
 51
195.1892867372
  0
LINE
  5
2EB
100
AcDbEntity
  8
_0-3_躯体と製品
  6
CONTINUOUS
 62
     0
100
AcDbLine
 10
296.6403899538
 20
513.7131839712
 11
300.3596100462
 21
499.6912826679
  0
LINE
  5
2EC
100
AcDbEntity
  8
_0-3_躯体と製品
  6
CONTINUOUS
 62
     0
100
AcDbLine
 10
300.5
 20
500.2022333195
 11
300.5
 21
513.2022333195
  0
LINE
  5
2ED
100
AcDbEntity
  8
_0-3_躯体と製品
  6
CONTINUOUS
 62
     0
100
AcDbLine
 10
282
 20
514.2022333195
 11
282
 21
395
  0
LINE
  5
2EE
100
AcDbEntity
  8
_0-3_躯体と製品
  6
CONTINUOUS
 62
     0
100
AcDbLine
 10
293.7
 20
497.0022333195
 11
293.7
 21
502.5022333195
  0
LINE
  5
2EF
100
AcDbEntity
  8
_0-3_躯体と製品
  6
CONTINUOUS
 62
     0
100
AcDbLine
 10
286.5
 20
501.2022333195
 11
286.5
 21
489.2022333195
  0
LINE
  5
2F0
100
AcDbEntity
  8
_0-3_躯体と製品
  6
CONTINUOUS
 62
     0
100
AcDbLine
 10
292.5
 20
496.5022333195
 11
292.5
 21
501.2022333195
  0
LINE
  5
2F1
100
AcDbEntity
  8
_0-3_躯体と製品
  6
CONTINUOUS
 62
     0
100
AcDbLine
 10
284.5
 20
501.7022333195
 11
284.5
 21
488.7022333195
  0
LINE
  5
2F2
100
AcDbEntity
  8
_0-3_躯体と製品
  6
CONTINUOUS
 62
     0
100
AcDbLine
 10
296.5
 20
505.4022333195
 11
296.5
 21
499.7022333195
  0
LINE
  5
2F3
100
AcDbEntity
  8
_0-3_躯体と製品
  6
CONTINUOUS
 62
     0
100
AcDbLine
 10
295
 20
498.7022333195
 11
295
 21
509.2022333195
  0
LINE
  5
2F4
100
AcDbEntity
  8
_0-3_躯体と製品
  6
CONTINUOUS
 62
     0
100
AcDbLine
 10
294.500001
 20
498.0022353195
 11
294.500001
 21
501.5022333195
  0
LINE
  5
2F5
100
AcDbEntity
  8
_0-3_躯体と製品
  6
CONTINUOUS
 62
     0
100
AcDbLine
 10
293.7
 20
501.5022333195
 11
293.700003
 21
498.0022353195
  0
LINE
  5
2F6
100
AcDbEntity
  8
_0-3_躯体と製品
  6
CONTINUOUS
 62
     0
100
AcDbLine
 10
293.7000013925
 20
499.8776786818
 11
294.500001
 21
500.6776782894
  0
LINE
  5
2F7
100
AcDbEntity
  8
_0-4_図枠
  6
CONTINUOUS
 62
     0
100
AcDbLine
 10
313.7208942486
 20
460.6036998467
 11
337.6125019454
 21
419.2222214412
  0
CIRCLE
  5
2F8
100
AcDbEntity
  8
_0-4_図枠
  6
CONTINUOUS
 62
     0
100
AcDbCircle
 10
313.7208942486
 20
460.6036998467
 40
0.9
  0
CIRCLE
  5
2F9
100
AcDbEntity
  8
_0-4_図枠
  6
CONTINUOUS
 62
     0
100
AcDbCircle
 10
314.2176991381
 20
479.6619260557
 40
0.9
  0
ARC
  5
2FA
100
AcDbEntity
  8
_0-3_躯体と製品
  6
CONTINUOUS
 62
     0
100
AcDbCircle
 10
357.0083261018
 20
364.2227729857
 40
46.22277298569
100
AcDbArc
 50
-175
 51
-4.999999999999
  0
ARC
  5
2FB
100
AcDbEntity
  8
_0-3_躯体と製品
  6
CONTINUOUS
 62
     0
100
AcDbCircle
 10
357.0083261018
 20
364.2227729857
 40
45.22277298569
100
AcDbArc
 50
-175
 51
-4.999999999999
  0
LINE
  5
2FC
100
AcDbEntity
  8
_0-3_躯体と製品
  6
CONTINUOUS
 62
     0
100
AcDbLine
 10
293.8429921313
 20
456.5386684019
 11
314.2565338459
 21
455.4688400134
  0
LINE
  5
2FD
100
AcDbEntity
  8
_0-3_躯体と製品
  6
CONTINUOUS
 62
     0
100
AcDbLine
 10
314.1122060902
 20
462.2022333195
 11
313.195135765
 21
460.2963306218
  0
LINE
  5
2FE
100
AcDbEntity
  8
_0-3_躯体と製品
  6
CONTINUOUS
 62
     0
100
AcDbLine
 10
315
 20
462.2022333195
 11
313.9160237919
 21
459.9494582353
  0
ARC
  5
2FF
100
AcDbEntity
  8
_0-3_躯体と製品
  6
CONTINUOUS
 62
     0
100
AcDbCircle
 10
310.3115836571
 20
461.6838201681
 40
4
100
AcDbArc
 50
-141.6848715852
 51
-25.69563800132
  0
LINE
  5
300
100
AcDbEntity
  8
_0-3_躯体と製品
  6
CONTINUOUS
 62
     0
100
AcDbLine
 10
306
 20
462.2022333195
 11
315
 21
462.2022333195
  0
LINE
  5
301
100
AcDbEntity
  8
_0-3_躯体と製品
  6
CONTINUOUS
 62
     0
100
AcDbLine
 10
306.3
 20
463.2022333195
 11
314.5
 21
463.2022333195
  0
LINE
  5
302
100
AcDbEntity
  8
_0-3_躯体と製品
  6
CONTINUOUS
 62
     0
100
AcDbLine
 10
297
 20
499.2022333195
 11
315.5
 21
499.2022333195
  0
LINE
  5
303
100
AcDbEntity
  8
_0-3_躯体と製品
  6
CONTINUOUS
 62
     0
100
AcDbLine
 10
314.5
 20
464.7022333195
 11
306.5
 21
464.7022333195
  0
LINE
  5
304
100
AcDbEntity
  8
_0-3_躯体と製品
  6
CONTINUOUS
 62
     0
100
AcDbLine
 10
315.5
 20
463.2022333195
 11
306.5
 21
463.2022333195
  0
LINE
  5
305
100
AcDbEntity
  8
_0-3_躯体と製品
  6
CONTINUOUS
 62
     0
100
AcDbLine
 10
296
 20
497.7022333195
 11
314.5
 21
497.7022333195
  0
ARC
  5
306
100
AcDbEntity
  8
_0-3_躯体と製品
  6
CONTINUOUS
 62
     0
100
AcDbCircle
 10
313.400001
 20
496.2022353195
 40
1.299999
100
AcDbArc
 50
0
 51
90
  0
LINE
  5
307
100
AcDbEntity
  8
_0-3_躯体と製品
  6
CONTINUOUS
 62
     0
100
AcDbLine
 10
313.900002
 20
467.5022343195
 11
314.7
 21
467.5022343195
  0
LINE
  5
308
100
AcDbEntity
  8
_0-3_躯体と製品
  6
CONTINUOUS
 62
     0
100
AcDbLine
 10
313.900002
 20
467.7517774816
 11
314.7
 21
468.5517754816
  0
LINE
  5
309
100
AcDbEntity
  8
_0-3_躯体と製品
  6
CONTINUOUS
 62
     0
100
AcDbLine
 10
313.900002
 20
469.1659910439
 11
314.7
 21
469.9659890439
  0
LINE
  5
30A
100
AcDbEntity
  8
_0-3_躯体と製品
  6
CONTINUOUS
 62
     0
100
AcDbLine
 10
313.900002
 20
470.5802046063
 11
314.7
 21
471.3802026063
  0
LINE
  5
30B
100
AcDbEntity
  8
_0-3_躯体と製品
  6
CONTINUOUS
 62
     0
100
AcDbLine
 10
313.900002
 20
471.9944181687
 11
314.7
 21
472.7944161687
  0
LINE
  5
30C
100
AcDbEntity
  8
_0-3_躯体と製品
  6
CONTINUOUS
 62
     0
100
AcDbLine
 10
313.900002
 20
473.408631731
 11
314.7
 21
474.208629731
  0
LINE
  5
30D
100
AcDbEntity
  8
_0-3_躯体と製品
  6
CONTINUOUS
 62
     0
100
AcDbLine
 10
313.900002
 20
474.8228452934
 11
314.7
 21
475.6228432934
  0
LINE
  5
30E
100
AcDbEntity
  8
_0-3_躯体と製品
  6
CONTINUOUS
 62
     0
100
AcDbLine
 10
313.900002
 20
476.2370588558
 11
314.7
 21
477.0370568558
  0
LINE
  5
30F
100
AcDbEntity
  8
_0-3_躯体と製品
  6
CONTINUOUS
 62
     0
100
AcDbLine
 10
313.900002
 20
477.6512724182
 11
314.7
 21
478.4512704182
  0
LINE
  5
310
100
AcDbEntity
  8
_0-3_躯体と製品
  6
CONTINUOUS
 62
     0
100
AcDbLine
 10
313.900002
 20
479.0654859805
 11
314.7
 21
479.8654839805
  0
LINE
  5
311
100
AcDbEntity
  8
_0-3_躯体と製品
  6
CONTINUOUS
 62
     0
100
AcDbLine
 10
313.900002
 20
480.4796995429
 11
314.7
 21
481.2796975429
  0
LINE
  5
312
100
AcDbEntity
  8
_0-3_躯体と製品
  6
CONTINUOUS
 62
     0
100
AcDbLine
 10
313.900002
 20
481.8939131053
 11
314.7
 21
482.6939111053
  0
LINE
  5
313
100
AcDbEntity
  8
_0-3_躯体と製品
  6
CONTINUOUS
 62
     0
100
AcDbLine
 10
313.900002
 20
483.3081266677
 11
314.7
 21
484.1081246677
  0
LINE
  5
314
100
AcDbEntity
  8
_0-3_躯体と製品
  6
CONTINUOUS
 62
     0
100
AcDbLine
 10
313.900002
 20
484.72234023
 11
314.7
 21
485.52233823
  0
LINE
  5
315
100
AcDbEntity
  8
_0-3_躯体と製品
  6
CONTINUOUS
 62
     0
100
AcDbLine
 10
313.900002
 20
486.1365537924
 11
314.7
 21
486.9365517924
  0
LINE
  5
316
100
AcDbEntity
  8
_0-3_躯体と製品
  6
CONTINUOUS
 62
     0
100
AcDbLine
 10
313.900002
 20
487.5507673548
 11
314.7
 21
488.3507653548
  0
LINE
  5
317
100
AcDbEntity
  8
_0-3_躯体と製品
  6
CONTINUOUS
 62
     0
100
AcDbLine
 10
313.900002
 20
488.9649809171
 11
314.7
 21
489.7649789171
  0
LINE
  5
318
100
AcDbEntity
  8
_0-3_躯体と製品
  6
CONTINUOUS
 62
     0
100
AcDbLine
 10
313.900002
 20
490.3791944795
 11
314.7
 21
491.1791924795
  0
LINE
  5
319
100
AcDbEntity
  8
_0-3_躯体と製品
  6
CONTINUOUS
 62
     0
100
AcDbLine
 10
313.900002
 20
491.7934080419
 11
314.7
 21
492.5934060419
  0
LINE
  5
31A
100
AcDbEntity
  8
_0-3_躯体と製品
  6
CONTINUOUS
 62
     0
100
AcDbLine
 10
313.900002
 20
493.2076216043
 11
314.7
 21
494.0076196043
  0
LINE
  5
31B
100
AcDbEntity
  8
_0-3_躯体と製品
  6
CONTINUOUS
 62
     0
100
AcDbLine
 10
313.900002
 20
494.6218351666
 11
314.7
 21
495.4218331666
  0
LINE
  5
31C
100
AcDbEntity
  8
_0-3_躯体と製品
  6
CONTINUOUS
 62
     0
100
AcDbLine
 10
313.900002
 20
496.036048729
 11
314.5898603545
 21
496.7259070835
  0
LINE
  5
31D
100
AcDbEntity
  8
_0-3_躯体と製品
  6
CONTINUOUS
 62
     0
100
AcDbLine
 10
312.7011885187
 20
425.7910832284
 11
314.1665952935
 21
453.7527102016
  0
LINE
  5
31E
100
AcDbEntity
  8
_0-3_躯体と製品
  6
CONTINUOUS
 62
     0
100
AcDbLine
 10
312.989036278
 20
431.2835456696
 11
341.4499780185
 21
429.7919709167
  0
LINE
  5
31F
100
AcDbEntity
  8
_0-3_躯体と製品
  6
CONTINUOUS
 62
     0
100
AcDbLine
 10
312.8320284093
 20
428.2876570653
 11
317.8251760831
 21
428.0259772841
  0
LINE
  5
320
100
AcDbEntity
  8
_0-3_躯体と製品
  6
CONTINUOUS
 62
     0
100
AcDbLine
 10
314.471052111
 20
449.2305787389
 11
313.9565636249
 21
449.745067225
  0
LINE
  5
321
100
AcDbEntity
  8
_0-3_躯体と製品
  6
CONTINUOUS
 62
     0
100
AcDbLine
 10
315.9634805327
 20
449.1523638796
 11
314.0269886006
 21
451.0888558117
  0
LINE
  5
322
100
AcDbEntity
  8
_0-3_躯体と製品
  6
CONTINUOUS
 62
     0
100
AcDbLine
 10
317.4559089544
 20
449.0741490202
 11
314.0974135763
 21
452.4326443984
  0
ARC
  5
323
100
AcDbEntity
  8
_0-3_躯体と製品
  6
CONTINUOUS
 62
     0
100
AcDbCircle
 10
306.859621047
 20
418.8591900155
 40
22.85962104701
100
AcDbArc
 50
180
 51
270.3518506311
  0
ARC
  5
324
100
AcDbEntity
  8
_0-3_躯体と製品
  6
CONTINUOUS
 62
     0
100
AcDbCircle
 10
306.859621047
 20
418.8591900155
 40
23.85962104701
100
AcDbArc
 50
180
 51
269.6481493689
  0
LINE
  5
325
100
AcDbEntity
  8
_0-3_躯体と製品
  6
CONTINUOUS
 62
     0
100
AcDbLine
 10
308.9923893962
 20
394.1743114855
 11
311.9576394205
 21
360.281348617
  0
LINE
  5
326
100
AcDbEntity
  8
_0-3_躯体と製品
  6
CONTINUOUS
 62
     0
100
AcDbLine
 10
307.9961946981
 20
394.0871557427
 11
310.9614447224
 21
360.1941928743
  0
LINE
  5
327
100
AcDbEntity
  8
_0-3_躯体と製品
  6
CONTINUOUS
 62
     0
100
AcDbLine
 10
282
 20
395
 11
307
 21
395
  0
ARC
  5
328
100
AcDbEntity
  8
_0-3_躯体と製品
  6
CONTINUOUS
 62
     0
100
AcDbCircle
 10
307
 20
394
 40
2
100
AcDbArc
 50
5
 51
89.99999999987
  0
ARC
  5
329
100
AcDbEntity
  8
_0-3_躯体と製品
  6
CONTINUOUS
 62
     0
100
AcDbCircle
 10
307
 20
394
 40
1
100
AcDbArc
 50
5
 51
90
  0
LINE
  5
32A
100
AcDbEntity
  8
_0-4_図枠
  6
CONTINUOUS
 62
     0
100
AcDbLine
 10
250.0663603572
 20
458.1038051403
 11
240.5682362501
 21
474.5550386704
  0
LINE
  5
32B
100
AcDbEntity
  8
_0-3_躯体と製品
  6
CONTINUOUS
 62
     0
100
AcDbLine
 10
296.700002
 20
455.2022333195
 11
223
 21
455.2022333195
  0
LINE
  5
32C
100
AcDbEntity
  8
_0-3_躯体と製品
  6
CONTINUOUS
 62
     0
100
AcDbLine
 10
243.042483
 20
457.3246463195
 11
273.999999
 21
455.7022313195
  0
LINE
  5
32D
100
AcDbEntity
  8
_0-3_躯体と製品
  6
CONTINUOUS
 62
     0
100
AcDbLine
 10
249.112764
 20
458.5085753195
 11
247.115505
 21
458.6132483195
  0
LINE
  5
32E
100
AcDbEntity
  8
_0-3_躯体と製品
  6
CONTINUOUS
 62
     0
100
AcDbLine
 10
243.042483
 20
453.0798173195
 11
273.999999
 21
454.7022323195
  0
LINE
  5
32F
100
AcDbEntity
  8
_0-3_躯体と製品
  6
CONTINUOUS
 62
     0
100
AcDbLine
 10
249.112764
 20
451.8958883195
 11
247.115505
 21
451.7912153195
  0
LINE
  5
330
100
AcDbEntity
  8
_0-3_躯体と製品
  6
CONTINUOUS
 62
     0
100
AcDbLine
 10
247.869444
 20
453.3327863195
 11
246
 21
455.2022333195
  0
LINE
  5
331
100
AcDbEntity
  8
_0-3_躯体と製品
  6
CONTINUOUS
 62
     0
100
AcDbLine
 10
245.039742
 20
453.1844903195
 11
245.222919
 21
449.6892863195
  0
LINE
  5
332
100
AcDbEntity
  8
_0-3_躯体と製品
  6
CONTINUOUS
 62
     0
100
AcDbLine
 10
245.222919
 20
449.6892863195
 11
243.120987
 21
451.5818723195
  0
LINE
  5
333
100
AcDbEntity
  8
_0-3_躯体と製品
  6
CONTINUOUS
 62
     0
100
AcDbLine
 10
243.120987
 20
451.5818723195
 11
243.042483
 21
453.0798173195
  0
LINE
  5
334
100
AcDbEntity
  8
_0-3_躯体と製品
  6
CONTINUOUS
 62
     0
100
AcDbLine
 10
247.115505
 20
451.7912153195
 11
247.220178
 21
449.7939563195
  0
LINE
  5
335
100
AcDbEntity
  8
_0-3_躯体と製品
  6
CONTINUOUS
 62
     0
100
AcDbLine
 10
247.220178
 20
449.7939563195
 11
245.222919
 21
449.6892863195
  0
CIRCLE
  5
336
100
AcDbEntity
  8
_0-4_図枠
  6
CONTINUOUS
 62
     0
100
AcDbCircle
 10
237.5682362501
 20
479.7511910931
 40
6
  0
LINE
  5
337
100
AcDbEntity
  8
_0-3_躯体と製品
  6
CONTINUOUS
 62
     0
100
AcDbLine
 10
247.869444
 20
457.0716773195
 11
246
 21
455.2022333195
  0
LINE
  5
338
100
AcDbEntity
  8
_0-3_躯体と製品
  6
CONTINUOUS
 62
     0
100
AcDbLine
 10
245.039742
 20
457.2199733195
 11
245.222919
 21
460.7151773195
  0
LINE
  5
339
100
AcDbEntity
  8
_0-3_躯体と製品
  6
CONTINUOUS
 62
     0
100
AcDbLine
 10
245.222919
 20
460.7151773195
 11
243.120987
 21
458.8225913195
  0
LINE
  5
33A
100
AcDbEntity
  8
_0-3_躯体と製品
  6
CONTINUOUS
 62
     0
100
AcDbLine
 10
243.120987
 20
458.8225913195
 11
243.042483
 21
457.3246463195
  0
LINE
  5
33B
100
AcDbEntity
  8
_0-3_躯体と製品
  6
CONTINUOUS
 62
     0
100
AcDbLine
 10
247.115505
 20
458.6132483195
 11
247.220178
 21
460.6105073195
  0
LINE
  5
33C
100
AcDbEntity
  8
_0-3_躯体と製品
  6
CONTINUOUS
 62
     0
100
AcDbLine
 10
247.220178
 20
460.6105073195
 11
245.222919
 21
460.7151773195
  0
LINE
  5
33D
100
AcDbEntity
  8
_0-3_躯体と製品
  6
CONTINUOUS
 62
     0
100
AcDbLine
 10
288
 20
464.2022333195
 11
288
 21
446.2022333195
  0
ARC
  5
33E
100
AcDbEntity
  8
_0-3_躯体と製品
  6
CONTINUOUS
 62
     0
100
AcDbCircle
 10
286.000002
 20
455.2022333195
 40
5.4
100
AcDbArc
 50
-38.682187
 51
0
  0
LINE
  5
33F
100
AcDbEntity
  8
_0-3_躯体と製品
  6
CONTINUOUS
 62
     0
100
AcDbLine
 10
283
 20
418.8591900155
 11
283
 21
469.2022333195
  0
LINE
  5
340
100
AcDbEntity
  8
_0-3_躯体と製品
  6
CONTINUOUS
 62
     0
100
AcDbLine
 10
284
 20
418.8591900155
 11
284
 21
499.2022333195
  0
LINE
  5
341
100
AcDbEntity
  8
_0-3_躯体と製品
  6
CONTINUOUS
 62
     0
100
AcDbLine
 10
286.5
 20
436.7022333195
 11
286.5
 21
454.7022333195
  0
LINE
  5
342
100
AcDbEntity
  8
_0-3_躯体と製品
  6
CONTINUOUS
 62
     0
100
AcDbLine
 10
284
 20
460.2022333195
 11
284
 21
450.2022333195
  0
LINE
  5
343
100
AcDbEntity
  8
_0-3_躯体と製品
  6
CONTINUOUS
 62
     0
100
AcDbLine
 10
282
 20
454.2022313195
 11
276.999999
 21
455.2022333195
  0
LINE
  5
344
100
AcDbEntity
  8
_0-3_躯体と製品
  6
CONTINUOUS
 62
     0
100
AcDbLine
 10
292
 20
441.2022333195
 11
292
 21
471.2022333195
  0
LINE
  5
345
100
AcDbEntity
  8
_0-3_躯体と製品
  6
CONTINUOUS
 62
     0
100
AcDbLine
 10
294
 20
442.7022333195
 11
294
 21
470.7022333195
  0
ARC
  5
346
100
AcDbEntity
  8
_0-3_躯体と製品
  6
CONTINUOUS
 62
     0
100
AcDbCircle
 10
294
 20
459.5345570062
 40
7.5
100
AcDbArc
 50
180
 51
267
  0
LINE
  5
347
100
AcDbEntity
  8
_0-4_図枠
  6
CONTINUOUS
 62
     0
100
AcDbLine
 10
287.2838028878
 20
448.5859050914
 11
271.6183766197
 21
432.9204788232
  0
LINE
  5
348
100
AcDbEntity
  8
_0-3_躯体と製品
  6
CONTINUOUS
 62
     0
100
AcDbLine
 10
270
 20
451.2022313195
 11
282
 21
451.2022313195
  0
LINE
  5
349
100
AcDbEntity
  8
_0-3_躯体と製品
  6
CONTINUOUS
 62
     0
100
AcDbLine
 10
282
 20
450.2022323195
 11
276.999999
 21
451.2022313195
  0
CIRCLE
  5
34A
100
AcDbEntity
  8
_0-4_図枠
  6
CONTINUOUS
 62
     0
100
AcDbCircle
 10
267.3757359325
 20
428.677838136
 40
6
  0
LINE
  5
34B
100
AcDbEntity
  8
_0-3_躯体と製品
  6
CONTINUOUS
 62
     0
100
AcDbLine
 10
262.199619
 20
451.6431743195
 11
267.19962
 21
449.8233233195
  0
LINE
  5
34C
100
AcDbEntity
  8
_0-3_躯体と製品
  6
CONTINUOUS
 62
     0
100
AcDbLine
 10
265.195509
 20
450.7360043195
 11
264.092208
 21
452.6809283195
  0
LINE
  5
34D
100
AcDbEntity
  8
_0-3_躯体と製品
  6
CONTINUOUS
 62
     0
100
AcDbLine
 10
262.199619
 20
450.5789963195
 11
266.857599
 21
448.8836303195
  0
LINE
  5
34E
100
AcDbEntity
  8
_0-3_躯体と製品
  6
CONTINUOUS
 62
     0
100
AcDbLine
 10
257.206473
 20
450.3173183195
 11
255.209214
 21
450.2126453195
  0
LINE
  5
34F
100
AcDbEntity
  8
_0-3_躯体と製品
  6
CONTINUOUS
 62
     0
100
AcDbLine
 10
255.209214
 20
450.2126453195
 11
254.105913
 21
452.1575693195
  0
LINE
  5
350
100
AcDbEntity
  8
_0-3_躯体と製品
  6
CONTINUOUS
 62
     0
100
AcDbLine
 10
254.105913
 20
452.1575693195
 11
252.108654
 21
452.0528963195
  0
LINE
  5
351
100
AcDbEntity
  8
_0-3_躯体と製品
  6
CONTINUOUS
 62
     0
100
AcDbLine
 10
252.108654
 20
452.0528963195
 11
252.213324
 21
450.0556373195
  0
LINE
  5
352
100
AcDbEntity
  8
_0-3_躯体と製品
  6
CONTINUOUS
 62
     0
100
AcDbLine
 10
252.213324
 20
450.0556373195
 11
250.216065
 21
449.9509643195
  0
LINE
  5
353
100
AcDbEntity
  8
_0-3_躯体と製品
  6
CONTINUOUS
 62
     0
100
AcDbLine
 10
250.216065
 20
449.9509643195
 11
249.112764
 21
451.8958883195
  0
LINE
  5
354
100
AcDbEntity
  8
_0-3_躯体と製品
  6
CONTINUOUS
 62
     0
100
AcDbLine
 10
264.092208
 20
452.6809283195
 11
262.094949
 21
452.5762553195
  0
LINE
  5
355
100
AcDbEntity
  8
_0-3_躯体と製品
  6
CONTINUOUS
 62
     0
100
AcDbLine
 10
262.094949
 20
452.5762553195
 11
262.199619
 21
450.5789963195
  0
LINE
  5
356
100
AcDbEntity
  8
_0-3_躯体と製品
  6
CONTINUOUS
 62
     0
100
AcDbLine
 10
262.199619
 20
450.5789963195
 11
260.20236
 21
450.4743263195
  0
LINE
  5
357
100
AcDbEntity
  8
_0-3_躯体と製品
  6
CONTINUOUS
 62
     0
100
AcDbLine
 10
260.20236
 20
450.4743263195
 11
259.099059
 21
452.4192473195
  0
LINE
  5
358
100
AcDbEntity
  8
_0-3_躯体と製品
  6
CONTINUOUS
 62
     0
100
AcDbLine
 10
259.099059
 20
452.4192473195
 11
257.1018
 21
452.3145773195
  0
LINE
  5
359
100
AcDbEntity
  8
_0-3_躯体と製品
  6
CONTINUOUS
 62
     0
100
AcDbLine
 10
257.1018
 20
452.3145773195
 11
257.206473
 21
450.3173183195
  0
LINE
  5
35A
100
AcDbEntity
  8
_0-3_躯体と製品
  6
CONTINUOUS
 62
     0
100
AcDbLine
 10
266.857599
 20
448.8836303195
 11
273.661221
 21
447.8912753195
  0
LINE
  5
35B
100
AcDbEntity
  8
_0-3_躯体と製品
  6
CONTINUOUS
 62
     0
100
AcDbLine
 10
273.80364
 20
448.8798923195
 11
267.19962
 21
449.8233233195
  0
LINE
  5
35C
100
AcDbEntity
  8
_0-3_躯体と製品
  6
CONTINUOUS
 62
     0
100
AcDbLine
 10
269.085354
 20
452.9426063195
 11
270
 21
451.2022313195
  0
LINE
  5
35D
100
AcDbEntity
  8
_0-3_躯体と製品
  6
CONTINUOUS
 62
     0
100
AcDbLine
 10
269.085354
 20
452.9426063195
 11
267.088095
 21
452.8379363195
  0
LINE
  5
35E
100
AcDbEntity
  8
_0-3_躯体と製品
  6
CONTINUOUS
 62
     0
100
AcDbLine
 10
267.088095
 20
452.8379363195
 11
267.192768
 21
450.8406773195
  0
LINE
  5
35F
100
AcDbEntity
  8
_0-3_躯体と製品
  6
CONTINUOUS
 62
     0
100
AcDbLine
 10
267.192768
 20
450.8406773195
 11
265.195509
 21
450.7360043195
  0
ARC
  5
360
100
AcDbEntity
  8
_0-3_躯体と製品
  6
CONTINUOUS
 62
     0
100
AcDbCircle
 10
273.718953
 20
448.2870863195
 40
0.399999
100
AcDbArc
 50
-98.298466
 51
-8.130102000005
  0
LINE
  5
361
100
AcDbEntity
  8
_0-3_躯体と製品
  6
CONTINUOUS
 62
     0
100
AcDbLine
 10
274.114935
 20
448.2305183195
 11
274.143051
 21
448.4273453195
  0
ARC
  5
362
100
AcDbEntity
  8
_0-3_躯体と製品
  6
CONTINUOUS
 62
     0
100
AcDbCircle
 10
273.747072
 20
448.4839133195
 40
0.399999
100
AcDbArc
 50
-8.130102000005
 51
81.869898
  0
LINE
  5
363
100
AcDbEntity
  8
_0-3_躯体と製品
  6
CONTINUOUS
 62
     0
100
AcDbLine
 10
285
 20
424.7022333195
 11
285
 21
434.2022333195
  0
LINE
  5
364
100
AcDbEntity
  8
_0-3_躯体と製品
  6
CONTINUOUS
 62
     0
100
AcDbLine
 10
286.5
 20
434.2022333195
 11
286.5
 21
430.2022333195
  0
LINE
  5
365
100
AcDbEntity
  8
_0-3_躯体と製品
  6
CONTINUOUS
 62
     0
100
AcDbLine
 10
302.5
 20
430.7270648632
 11
302.5
 21
438.2022333195
  0
LINE
  5
366
100
AcDbEntity
  8
_0-3_躯体と製品
  6
CONTINUOUS
 62
     0
100
AcDbLine
 10
292.75
 20
422.7022333195
 11
284
 21
422.7022333195
  0
LINE
  5
367
100
AcDbEntity
  8
_0-3_躯体と製品
  6
CONTINUOUS
 62
     0
100
AcDbLine
 10
287
 20
424.2022333195
 11
289.5
 21
424.2022333195
  0
LINE
  5
368
100
AcDbEntity
  8
_0-3_躯体と製品
  6
CONTINUOUS
 62
     0
100
AcDbLine
 10
287
 20
428.2022333195
 11
289.5
 21
428.2022333195
  0
LINE
  5
369
100
AcDbEntity
  8
_0-3_躯体と製品
  6
CONTINUOUS
 62
     0
100
AcDbLine
 10
287
 20
429.7022333195
 11
292.75
 21
429.7022333195
  0
LINE
  5
36A
100
AcDbEntity
  8
_0-3_躯体と製品
  6
CONTINUOUS
 62
     0
100
AcDbLine
 10
284
 20
422.7022333195
 11
284
 21
424.2022333195
  0
LINE
  5
36B
100
AcDbEntity
  8
_0-3_躯体と製品
  6
CONTINUOUS
 62
     0
100
AcDbLine
 10
284.5
 20
424.2022333195
 11
284
 21
424.2022333195
  0
ARC
  5
36C
100
AcDbEntity
  8
_0-3_躯体と製品
  6
CONTINUOUS
 62
     0
100
AcDbCircle
 10
284.5
 20
424.7022333195
 40
0.5
100
AcDbArc
 50
-90
 51
0
  0
LINE
  5
36D
100
AcDbEntity
  8
_0-3_躯体と製品
  6
CONTINUOUS
 62
     0
100
AcDbLine
 10
286.5
 20
424.7022333195
 11
286.5
 21
427.7022333195
  0
ARC
  5
36E
100
AcDbEntity
  8
_0-3_躯体と製品
  6
CONTINUOUS
 62
     0
100
AcDbCircle
 10
287
 20
424.7022333195
 40
0.5
100
AcDbArc
 50
180
 51
270
  0
ARC
  5
36F
100
AcDbEntity
  8
_0-3_躯体と製品
  6
CONTINUOUS
 62
     0
100
AcDbCircle
 10
287
 20
427.7022333195
 40
0.5
100
AcDbArc
 50
90
 51
180
  0
ARC
  5
370
100
AcDbEntity
  8
_0-3_躯体と製品
  6
CONTINUOUS
 62
     0
100
AcDbCircle
 10
287
 20
430.2022333195
 40
0.5
100
AcDbArc
 50
180
 51
270
  0
LINE
  5
371
100
AcDbEntity
  8
_0-3_躯体と製品
  6
CONTINUOUS
 62
     0
100
AcDbLine
 10
292.75
 20
428.2022333195
 11
291.5
 21
428.2022333195
  0
LINE
  5
372
100
AcDbEntity
  8
_0-3_躯体と製品
  6
CONTINUOUS
 62
     0
100
AcDbLine
 10
292.75
 20
424.2022333195
 11
291.5
 21
424.2022333195
  0
LINE
  5
373
100
AcDbEntity
  8
_0-3_躯体と製品
  6
CONTINUOUS
 62
     0
100
AcDbLine
 10
291.5
 20
424.2022333195
 11
291.5
 21
423.7022333195
  0
LINE
  5
374
100
AcDbEntity
  8
_0-3_躯体と製品
  6
CONTINUOUS
 62
     0
100
AcDbLine
 10
290.5
 20
424.2022333195
 11
291.5
 21
423.7022333195
  0
LINE
  5
375
100
AcDbEntity
  8
_0-3_躯体と製品
  6
CONTINUOUS
 62
     0
100
AcDbLine
 10
290.5
 20
424.2022333195
 11
290.5
 21
423.7022333195
  0
LINE
  5
376
100
AcDbEntity
  8
_0-3_躯体と製品
  6
CONTINUOUS
 62
     0
100
AcDbLine
 10
289.5
 20
424.2022333195
 11
290.5
 21
423.7022333195
  0
ARC
  5
377
100
AcDbEntity
  8
_0-3_躯体と製品
  6
CONTINUOUS
 62
     0
100
AcDbCircle
 10
292.75
 20
423.4522333195
 40
0.75
100
AcDbArc
 50
-90
 51
90
  0
ARC
  5
378
100
AcDbEntity
  8
_0-3_躯体と製品
  6
CONTINUOUS
 62
     0
100
AcDbCircle
 10
292.75
 20
428.9522333195
 40
0.75
100
AcDbArc
 50
-90
 51
90
  0
LINE
  5
379
100
AcDbEntity
  8
_0-3_躯体と製品
  6
CONTINUOUS
 62
     0
100
AcDbLine
 10
291.5
 20
428.7022333195
 11
291.5
 21
428.2022333195
  0
LINE
  5
37A
100
AcDbEntity
  8
_0-3_躯体と製品
  6
CONTINUOUS
 62
     0
100
AcDbLine
 10
290.5
 20
428.2022333195
 11
291.5
 21
428.7022333195
  0
LINE
  5
37B
100
AcDbEntity
  8
_0-3_躯体と製品
  6
CONTINUOUS
 62
     0
100
AcDbLine
 10
290.5
 20
428.7022333195
 11
290.5
 21
428.2022333195
  0
LINE
  5
37C
100
AcDbEntity
  8
_0-3_躯体と製品
  6
CONTINUOUS
 62
     0
100
AcDbLine
 10
289.5
 20
428.2022333195
 11
290.5
 21
428.7022333195
  0
LINE
  5
37D
100
AcDbEntity
  8
_0-3_躯体と製品
  6
CONTINUOUS
 62
     0
100
AcDbLine
 10
304.3953280875
 20
428.7298057937
 11
310.8347693398
 21
428.3923289778
  0
ARC
  5
37E
100
AcDbEntity
  8
_0-3_躯体と製品
  6
CONTINUOUS
 62
     0
100
AcDbCircle
 10
304.5
 20
430.7270648632
 40
2
100
AcDbArc
 50
180
 51
267
  0
ARC
  5
37F
100
AcDbEntity
  8
_0-3_躯体と製品
  6
CONTINUOUS
 62
     0
100
AcDbCircle
 10
312.2542097076
 20
426.8158807413
 40
0.5
100
AcDbArc
 50
-93.00000000001
 51
-2.999999999999
  0
LINE
  5
380
100
AcDbEntity
  8
_0-3_躯体と製品
  6
CONTINUOUS
 62
     0
100
AcDbLine
 10
311.7287269621
 20
426.3427339521
 11
312.2280417294
 21
426.3165659739
  0
ARC
  5
381
100
AcDbEntity
  8
_0-3_躯体と製品
  6
CONTINUOUS
 62
     0
100
AcDbCircle
 10
311.7548949402
 20
426.8420487194
 40
0.5
100
AcDbArc
 50
177
 51
267
  0
LINE
  5
382
100
AcDbEntity
  8
_0-3_躯体と製品
  6
CONTINUOUS
 62
     0
100
AcDbLine
 10
311.3079161291
 20
427.8668462323
 11
311.2555801728
 21
426.8682166976
  0
ARC
  5
383
100
AcDbEntity
  8
_0-3_躯体と製品
  6
CONTINUOUS
 62
     0
100
AcDbCircle
 10
310.8086013617
 20
427.8930142104
 40
0.5
100
AcDbArc
 50
-2.999999999999
 51
86.99999999999
  0
LINE
  5
384
100
AcDbEntity
  8
_0-3_躯体と製品
  6
CONTINUOUS
 62
     0
100
AcDbLine
 10
293.6074803282
 20
452.0448354955
 11
314.0210220428
 21
450.975007107
  0
LINE
  5
385
100
AcDbEntity
  8
_0-3_躯体と製品
  6
CONTINUOUS
 62
     0
100
AcDbLine
 10
287
 20
436.2022333195
 11
297.75
 21
436.2022333195
  0
LINE
  5
386
100
AcDbEntity
  8
_0-3_躯体と製品
  6
CONTINUOUS
 62
     0
100
AcDbLine
 10
287
 20
434.7022333195
 11
297.75
 21
434.7022333195
  0
LINE
  5
387
100
AcDbEntity
  8
_0-3_躯体と製品
  6
CONTINUOUS
 62
     0
100
AcDbLine
 10
303
 20
441.7022333195
 11
295
 21
441.7022333195
  0
LINE
  5
388
100
AcDbEntity
  8
_0-3_躯体と製品
  6
CONTINUOUS
 62
     0
100
AcDbLine
 10
301.5
 20
439.2022333195
 11
291
 21
439.2022333195
  0
LINE
  5
389
100
AcDbEntity
  8
_0-3_躯体と製品
  6
CONTINUOUS
 62
     0
100
AcDbLine
 10
284.5
 20
450.2022333195
 11
284.5
 21
436.2022333195
  0
ARC
  5
38A
100
AcDbEntity
  8
_0-3_躯体と製品
  6
CONTINUOUS
 62
     0
100
AcDbCircle
 10
295
 20
442.7022333195
 40
1
100
AcDbArc
 50
180
 51
270
  0
ARC
  5
38B
100
AcDbEntity
  8
_0-3_躯体と製品
  6
CONTINUOUS
 62
     0
100
AcDbCircle
 10
290
 20
439.7022333195
 40
1
100
AcDbArc
 50
90
 51
180
  0
ARC
  5
38C
100
AcDbEntity
  8
_0-3_躯体と製品
  6
CONTINUOUS
 62
     0
100
AcDbCircle
 10
289.75
 20
437.4522333195
 40
0.75
100
AcDbArc
 50
180
 51
360
  0
LINE
  5
38D
100
AcDbEntity
  8
_0-3_躯体と製品
  6
CONTINUOUS
 62
     0
100
AcDbLine
 10
284
 20
436.2022333195
 11
284
 21
434.7022333195
  0
ARC
  5
38E
100
AcDbEntity
  8
_0-3_躯体と製品
  6
CONTINUOUS
 62
     0
100
AcDbCircle
 10
284.5
 20
434.2022333195
 40
0.5
100
AcDbArc
 50
0
 51
90
  0
LINE
  5
38F
100
AcDbEntity
  8
_0-3_躯体と製品
  6
CONTINUOUS
 62
     0
100
AcDbLine
 10
284.5
 20
434.7022333195
 11
284
 21
434.7022333195
  0
ARC
  5
390
100
AcDbEntity
  8
_0-3_躯体と製品
  6
CONTINUOUS
 62
     0
100
AcDbCircle
 10
287
 20
436.7022333195
 40
0.5
100
AcDbArc
 50
180
 51
270
  0
ARC
  5
391
100
AcDbEntity
  8
_0-3_躯体と製品
  6
CONTINUOUS
 62
     0
100
AcDbCircle
 10
287
 20
434.2022333195
 40
0.5
100
AcDbArc
 50
90
 51
180
  0
LINE
  5
392
100
AcDbEntity
  8
_0-3_躯体と製品
  6
CONTINUOUS
 62
     0
100
AcDbLine
 10
284.5
 20
436.2022333195
 11
284
 21
436.2022333195
  0
LINE
  5
393
100
AcDbEntity
  8
_0-3_躯体と製品
  6
CONTINUOUS
 62
     0
100
AcDbLine
 10
289
 20
439.7022333195
 11
289
 21
437.4522333195
  0
LINE
  5
394
100
AcDbEntity
  8
_0-3_躯体と製品
  6
CONTINUOUS
 62
     0
100
AcDbLine
 10
290.5
 20
438.7022333195
 11
290.5
 21
437.4522333195
  0
ARC
  5
395
100
AcDbEntity
  8
_0-3_躯体と製品
  6
CONTINUOUS
 62
     0
100
AcDbCircle
 10
291
 20
438.7022333195
 40
0.5
100
AcDbArc
 50
90
 51
180
  0
ARC
  5
396
100
AcDbEntity
  8
_0-3_躯体と製品
  6
CONTINUOUS
 62
     0
100
AcDbCircle
 10
291.5
 20
441.2022333195
 40
0.5
100
AcDbArc
 50
-90
 51
0
  0
LINE
  5
397
100
AcDbEntity
  8
_0-3_躯体と製品
  6
CONTINUOUS
 62
     0
100
AcDbLine
 10
291.5
 20
440.7022333195
 11
290
 21
440.7022333195
  0
ARC
  5
398
100
AcDbEntity
  8
_0-3_躯体と製品
  6
CONTINUOUS
 62
     0
100
AcDbCircle
 10
287.871291
 20
453.6994703195
 40
3
100
AcDbArc
 50
-87.541074
 51
-38.614638
  0
CIRCLE
  5
399
100
AcDbEntity
  8
_0-4_図枠
  6
CONTINUOUS
 62
     0
100
AcDbCircle
 10
287.2838028878
 20
448.5859050914
 40
0.9
  0
LINE
  5
39A
100
AcDbEntity
  8
_0-3_躯体と製品
  6
CONTINUOUS
 62
     0
100
AcDbLine
 10
286.5
 20
446.2022333195
 11
288
 21
446.2022333195
  0
LINE
  5
39B
100
AcDbEntity
  8
_0-3_躯体と製品
  6
CONTINUOUS
 62
     0
100
AcDbLine
 10
283
 20
452.7022333195
 11
282
 21
452.7022333195
  0
LINE
  5
39C
100
AcDbEntity
  8
_0-3_躯体と製品
  6
CONTINUOUS
 62
     0
100
AcDbLine
 10
284
 20
450.2022333195
 11
284.5
 21
450.2022333195
  0
ARC
  5
39D
100
AcDbEntity
  8
_0-3_躯体と製品
  6
CONTINUOUS
 62
     0
100
AcDbCircle
 10
306
 20
432.6511978863
 40
1
100
AcDbArc
 50
180
 51
267
  0
ARC
  5
39E
100
AcDbEntity
  8
_0-3_躯体と製品
  6
CONTINUOUS
 62
     0
100
AcDbCircle
 10
297.75
 20
435.4522333195
 40
0.75
100
AcDbArc
 50
-90
 51
90
  0
ARC
  5
39F
100
AcDbEntity
  8
_0-3_躯体と製品
  6
CONTINUOUS
 62
     0
100
AcDbCircle
 10
301.5
 20
438.2022333195
 40
1
100
AcDbArc
 50
0
 51
90
  0
ARC
  5
3A0
100
AcDbEntity
  8
_0-3_躯体と製品
  6
CONTINUOUS
 62
     0
100
AcDbCircle
 10
303
 20
439.7022333195
 40
2
100
AcDbArc
 50
0
 51
90
  0
LINE
  5
3A1
100
AcDbEntity
  8
_0-3_躯体と製品
  6
CONTINUOUS
 62
     0
100
AcDbLine
 10
305
 20
432.6511978863
 11
305
 21
439.7022333195
  0
ARC
  5
3A2
100
AcDbEntity
  8
_0-3_躯体と製品
  6
CONTINUOUS
 62
     0
100
AcDbCircle
 10
312.6205614013
 20
433.8062874846
 40
0.5
100
AcDbArc
 50
-2.999999999999
 51
86.99999999999
  0
LINE
  5
3A3
100
AcDbEntity
  8
_0-3_躯体と製品
  6
CONTINUOUS
 62
     0
100
AcDbLine
 10
312.147414612
 20
434.3317702301
 11
312.6467293794
 21
434.305602252
  0
ARC
  5
3A4
100
AcDbEntity
  8
_0-3_躯体と製品
  6
CONTINUOUS
 62
     0
100
AcDbCircle
 10
312.1212466339
 20
433.8324554627
 40
0.5
100
AcDbArc
 50
86.99999999999
 51
177
  0
LINE
  5
3A5
100
AcDbEntity
  8
_0-3_躯体と製品
  6
CONTINUOUS
 62
     0
100
AcDbLine
 10
311.517259954
 20
431.8613643713
 11
311.6219318665
 21
433.8586234408
  0
ARC
  5
3A6
100
AcDbEntity
  8
_0-3_躯体と製品
  6
CONTINUOUS
 62
     0
100
AcDbCircle
 10
311.0179451866
 20
431.8875323495
 40
0.5
100
AcDbArc
 50
-93.00000000001
 51
-2.999999999999
  0
LINE
  5
3A7
100
AcDbEntity
  8
_0-3_躯体と製品
  6
CONTINUOUS
 62
     0
100
AcDbLine
 10
305.9476640438
 20
431.6525683515
 11
310.9917772085
 21
431.3882175821
  0
LINE
  5
3A8
100
AcDbEntity
  8
_0-4_図枠
  6
CONTINUOUS
 62
     0
100
AcDbLine
 10
289.3630038442
 20
457.1214677241
 11
269.8771809495
 21
476.6072906188
  0
LINE
  5
3A9
100
AcDbEntity
  8
_0-3_躯体と製品
  6
CONTINUOUS
 62
     0
100
AcDbLine
 10
282
 20
460.2022313195
 11
276.999999
 21
459.2022323195
  0
LINE
  5
3AA
100
AcDbEntity
  8
_0-3_躯体と製品
  6
CONTINUOUS
 62
     0
100
AcDbLine
 10
282
 20
456.2022323195
 11
276.999999
 21
455.2022333195
  0
LINE
  5
3AB
100
AcDbEntity
  8
_0-3_躯体と製品
  6
CONTINUOUS
 62
     0
100
AcDbLine
 10
276.999999
 20
455.2022333195
 11
282
 21
455.2022333195
  0
LINE
  5
3AC
100
AcDbEntity
  8
_0-3_躯体と製品
  6
CONTINUOUS
 62
     0
100
AcDbLine
 10
270
 20
459.2022323195
 11
282
 21
459.2022323195
  0
CIRCLE
  5
3AD
100
AcDbEntity
  8
_0-4_図枠
  6
CONTINUOUS
 62
     0
100
AcDbCircle
 10
265.6345402624
 20
480.8499313059
 40
6
  0
LINE
  5
3AE
100
AcDbEntity
  8
_0-3_躯体と製品
  6
CONTINUOUS
 62
     0
100
AcDbLine
 10
262.199619
 20
458.7612893195
 11
267.19962
 21
460.5811403195
  0
LINE
  5
3AF
100
AcDbEntity
  8
_0-3_躯体と製品
  6
CONTINUOUS
 62
     0
100
AcDbLine
 10
262.199619
 20
459.8254673195
 11
266.857599
 21
461.5208333195
  0
LINE
  5
3B0
100
AcDbEntity
  8
_0-3_躯体と製品
  6
CONTINUOUS
 62
     0
100
AcDbLine
 10
265.195509
 20
459.6684593195
 11
264.092208
 21
457.7235353195
  0
LINE
  5
3B1
100
AcDbEntity
  8
_0-3_躯体と製品
  6
CONTINUOUS
 62
     0
100
AcDbLine
 10
257.206473
 20
460.0871453195
 11
255.209214
 21
460.1918183195
  0
CIRCLE
  5
3B2
100
AcDbEntity
  8
_0-4_図枠
  6
CONTINUOUS
 62
     0
100
AcDbCircle
 10
250.0663603572
 20
458.1038051403
 40
0.9
  0
LINE
  5
3B3
100
AcDbEntity
  8
_0-3_躯体と製品
  6
CONTINUOUS
 62
     0
100
AcDbLine
 10
255.209214
 20
460.1918183195
 11
254.105913
 21
458.2468943195
  0
LINE
  5
3B4
100
AcDbEntity
  8
_0-3_躯体と製品
  6
CONTINUOUS
 62
     0
100
AcDbLine
 10
254.105913
 20
458.2468943195
 11
252.108654
 21
458.3515673195
  0
LINE
  5
3B5
100
AcDbEntity
  8
_0-3_躯体と製品
  6
CONTINUOUS
 62
     0
100
AcDbLine
 10
252.108654
 20
458.3515673195
 11
252.213324
 21
460.3488263195
  0
LINE
  5
3B6
100
AcDbEntity
  8
_0-3_躯体と製品
  6
CONTINUOUS
 62
     0
100
AcDbLine
 10
252.213324
 20
460.3488263195
 11
250.216065
 21
460.4534993195
  0
LINE
  5
3B7
100
AcDbEntity
  8
_0-3_躯体と製品
  6
CONTINUOUS
 62
     0
100
AcDbLine
 10
250.216065
 20
460.4534993195
 11
249.112764
 21
458.5085753195
  0
LINE
  5
3B8
100
AcDbEntity
  8
_0-3_躯体と製品
  6
CONTINUOUS
 62
     0
100
AcDbLine
 10
264.092208
 20
457.7235353195
 11
262.094949
 21
457.8282083195
  0
LINE
  5
3B9
100
AcDbEntity
  8
_0-3_躯体と製品
  6
CONTINUOUS
 62
     0
100
AcDbLine
 10
262.094949
 20
457.8282083195
 11
262.199619
 21
459.8254673195
  0
LINE
  5
3BA
100
AcDbEntity
  8
_0-3_躯体と製品
  6
CONTINUOUS
 62
     0
100
AcDbLine
 10
262.199619
 20
459.8254673195
 11
260.20236
 21
459.9301373195
  0
LINE
  5
3BB
100
AcDbEntity
  8
_0-3_躯体と製品
  6
CONTINUOUS
 62
     0
100
AcDbLine
 10
260.20236
 20
459.9301373195
 11
259.099059
 21
457.9852163195
  0
LINE
  5
3BC
100
AcDbEntity
  8
_0-3_躯体と製品
  6
CONTINUOUS
 62
     0
100
AcDbLine
 10
259.099059
 20
457.9852163195
 11
257.1018
 21
458.0898863195
  0
LINE
  5
3BD
100
AcDbEntity
  8
_0-3_躯体と製品
  6
CONTINUOUS
 62
     0
100
AcDbLine
 10
257.1018
 20
458.0898863195
 11
257.206473
 21
460.0871453195
  0
LINE
  5
3BE
100
AcDbEntity
  8
_0-3_躯体と製品
  6
CONTINUOUS
 62
     0
100
AcDbLine
 10
266.857599
 20
461.5208333195
 11
273.661221
 21
462.5131883195
  0
LINE
  5
3BF
100
AcDbEntity
  8
_0-3_躯体と製品
  6
CONTINUOUS
 62
     0
100
AcDbLine
 10
273.80364
 20
461.5245713195
 11
267.19962
 21
460.5811403195
  0
LINE
  5
3C0
100
AcDbEntity
  8
_0-3_躯体と製品
  6
CONTINUOUS
 62
     0
100
AcDbLine
 10
270
 20
459.2022323195
 11
269.085354
 21
457.4618573195
  0
LINE
  5
3C1
100
AcDbEntity
  8
_0-3_躯体と製品
  6
CONTINUOUS
 62
     0
100
AcDbLine
 10
269.085354
 20
457.4618573195
 11
267.088095
 21
457.5665273195
  0
LINE
  5
3C2
100
AcDbEntity
  8
_0-3_躯体と製品
  6
CONTINUOUS
 62
     0
100
AcDbLine
 10
267.088095
 20
457.5665273195
 11
267.192768
 21
459.5637863195
  0
LINE
  5
3C3
100
AcDbEntity
  8
_0-3_躯体と製品
  6
CONTINUOUS
 62
     0
100
AcDbLine
 10
267.192768
 20
459.5637863195
 11
265.195509
 21
459.6684593195
  0
ARC
  5
3C4
100
AcDbEntity
  8
_0-3_躯体と製品
  6
CONTINUOUS
 62
     0
100
AcDbCircle
 10
273.718953
 20
462.1173773195
 40
0.399999
100
AcDbArc
 50
8.130102000005
 51
98.298466
  0
LINE
  5
3C5
100
AcDbEntity
  8
_0-3_躯体と製品
  6
CONTINUOUS
 62
     0
100
AcDbLine
 10
274.114935
 20
462.1739453195
 11
274.143051
 21
461.9771213195
  0
ARC
  5
3C6
100
AcDbEntity
  8
_0-3_躯体と製品
  6
CONTINUOUS
 62
     0
100
AcDbCircle
 10
273.747072
 20
461.9205503195
 40
0.399999
100
AcDbArc
 50
-81.869898
 51
8.130102000005
  0
LINE
  5
3C7
100
AcDbEntity
  8
_0-3_躯体と製品
  6
CONTINUOUS
 62
     0
100
AcDbLine
 10
273.999999
 20
454.7022323195
 11
273.999999
 21
455.7022313195
  0
LINE
  5
3C8
100
AcDbEntity
  8
_0-3_躯体と製品
  6
CONTINUOUS
 62
     0
100
AcDbLine
 10
283
 20
469.2022333195
 11
283
 21
499.2022333195
  0
LINE
  5
3C9
100
AcDbEntity
  8
_0-3_躯体と製品
  6
CONTINUOUS
 62
     0
100
AcDbLine
 10
282
 20
499.2022333195
 11
282
 21
469.2022333195
  0
LINE
  5
3CA
100
AcDbEntity
  8
_0-3_躯体と製品
  6
CONTINUOUS
 62
     0
100
AcDbLine
 10
282
 20
477.6127639302
 11
283
 21
476.6127639302
  0
LINE
  5
3CB
100
AcDbEntity
  8
_0-3_躯体と製品
  6
CONTINUOUS
 62
     0
100
AcDbLine
 10
286.5
 20
476.2022333195
 11
286.5
 21
486.7022333195
  0
LINE
  5
3CC
100
AcDbEntity
  8
_0-3_躯体と製品
  6
CONTINUOUS
 62
     0
100
AcDbLine
 10
284.5
 20
487.2022333195
 11
284.5
 21
475.7022333195
  0
LINE
  5
3CD
100
AcDbEntity
  8
_0-3_躯体と製品
  6
CONTINUOUS
 62
     0
100
AcDbLine
 10
313.900002
 20
496.2022353195
 11
313.900002
 21
467.5022343195
  0
ARC
  5
3CE
100
AcDbEntity
  8
_0-3_躯体と製品
  6
CONTINUOUS
 62
     0
100
AcDbCircle
 10
298.5
 20
477.2022333195
 40
0.5
100
AcDbArc
 50
0
 51
90
  0
LINE
  5
3CF
100
AcDbEntity
  8
_0-3_躯体と製品
  6
CONTINUOUS
 62
     0
100
AcDbLine
 10
300.5
 20
464.7022333195
 11
300.5
 21
478.2022333195
  0
ARC
  5
3D0
100
AcDbEntity
  8
_0-3_躯体と製品
  6
CONTINUOUS
 62
     0
100
AcDbCircle
 10
293
 20
477.2022333195
 40
0.5
100
AcDbArc
 50
90
 51
180
  0
LINE
  5
3D1
100
AcDbEntity
  8
_0-3_躯体と製品
  6
CONTINUOUS
 62
     0
100
AcDbLine
 10
291.3
 20
477.817463802
 11
291.3
 21
476.3022333195
  0
LINE
  5
3D2
100
AcDbEntity
  8
_0-3_躯体と製品
  6
CONTINUOUS
 62
     0
100
AcDbLine
 10
294.5
 20
471.2022333195
 11
298.5
 21
471.2022333195
  0
LINE
  5
3D3
100
AcDbEntity
  8
_0-3_躯体と製品
  6
CONTINUOUS
 62
     0
100
AcDbLine
 10
298
 20
472.7022333195
 11
293.5
 21
472.7022333195
  0
LINE
  5
3D4
100
AcDbEntity
  8
_0-3_躯体と製品
  6
CONTINUOUS
 62
     0
100
AcDbLine
 10
296
 20
470.3235535431
 11
298
 21
470.3235535431
  0
ARC
  5
3D5
100
AcDbEntity
  8
_0-3_躯体と製品
  6
CONTINUOUS
 62
     0
100
AcDbCircle
 10
299
 20
459.2725181098
 40
3
100
AcDbArc
 50
180
 51
267
  0
LINE
  5
3D6
100
AcDbEntity
  8
_0-3_躯体と製品
  6
CONTINUOUS
 62
     0
100
AcDbLine
 10
286.5
 20
455.7022333195
 11
286.5
 21
473.7022333195
  0
LINE
  5
3D7
100
AcDbEntity
  8
_0-3_躯体と製品
  6
CONTINUOUS
 62
     0
100
AcDbLine
 10
284.5
 20
474.2022333195
 11
284.5
 21
460.2022333195
  0
LINE
  5
3D8
100
AcDbEntity
  8
_0-3_躯体と製品
  6
CONTINUOUS
 62
     0
100
AcDbLine
 10
296
 20
459.2725181098
 11
296
 21
470.3235535431
  0
LINE
  5
3D9
100
AcDbEntity
  8
_0-3_躯体と製品
  6
CONTINUOUS
 62
     0
100
AcDbLine
 10
286.5
 20
459.5345570062
 11
286.5
 21
471.6876633061
  0
LINE
  5
3DA
100
AcDbEntity
  8
_0-3_躯体と製品
  6
CONTINUOUS
 62
     0
100
AcDbLine
 10
291
 20
459.5345570062
 11
291
 21
471.6876633061
  0
CIRCLE
  5
3DB
100
AcDbEntity
  8
_0-4_図枠
  6
CONTINUOUS
 62
     0
100
AcDbCircle
 10
289.3630038442
 20
457.1214677241
 40
0.9
  0
ARC
  5
3DC
100
AcDbEntity
  8
_0-3_躯体と製品
  6
CONTINUOUS
 62
     0
100
AcDbCircle
 10
287.871291
 20
456.7049933195
 40
3
100
AcDbArc
 50
38.614638
 51
87.541074
  0
LINE
  5
3DD
100
AcDbEntity
  8
_0-3_躯体と製品
  6
CONTINUOUS
 62
     0
100
AcDbLine
 10
286.5
 20
464.2022333195
 11
288
 21
464.2022333195
  0
LINE
  5
3DE
100
AcDbEntity
  8
_0-3_躯体と製品
  6
CONTINUOUS
 62
     0
100
AcDbLine
 10
283
 20
457.7022333195
 11
282
 21
457.7022333195
  0
LINE
  5
3DF
100
AcDbEntity
  8
_0-3_躯体と製品
  6
CONTINUOUS
 62
     0
100
AcDbLine
 10
286.5
 20
454.7022333195
 11
286
 21
455.2022333195
  0
LINE
  5
3E0
100
AcDbEntity
  8
_0-3_躯体と製品
  6
CONTINUOUS
 62
     0
100
AcDbLine
 10
286.5
 20
455.7022333195
 11
286
 21
455.2022333195
  0
LINE
  5
3E1
100
AcDbEntity
  8
_0-3_躯体と製品
  6
CONTINUOUS
 62
     0
100
AcDbLine
 10
284
 20
460.2022333195
 11
284.5
 21
460.2022333195
  0
ARC
  5
3E2
100
AcDbEntity
  8
_0-3_躯体と製品
  6
CONTINUOUS
 62
     0
100
AcDbCircle
 10
286.000002
 20
455.2022333195
 40
5.4
100
AcDbArc
 50
0
 51
38.851062
  0
ARC
  5
3E3
100
AcDbEntity
  8
_0-3_躯体と製品
  6
CONTINUOUS
 62
     0
100
AcDbCircle
 10
294
 20
459.5345570062
 40
3
100
AcDbArc
 50
180
 51
267
  0
LINE
  5
3E4
100
AcDbEntity
  8
_0-3_躯体と製品
  6
CONTINUOUS
 62
     0
100
AcDbLine
 10
296
 20
474.2022333195
 11
287
 21
474.2022333195
  0
LINE
  5
3E5
100
AcDbEntity
  8
_0-3_躯体と製品
  6
CONTINUOUS
 62
     0
100
AcDbLine
 10
287
 20
475.7022333195
 11
296
 21
475.7022333195
  0
LINE
  5
3E6
100
AcDbEntity
  8
_0-3_躯体と製品
  6
CONTINUOUS
 62
     0
100
AcDbLine
 10
291
 20
471.6876633061
 11
286.5
 21
471.6876633061
  0
LINE
  5
3E7
100
AcDbEntity
  8
_0-3_躯体と製品
  6
CONTINUOUS
 62
     0
100
AcDbLine
 10
282
 20
469.2022333195
 11
283
 21
469.2022333195
  0
LINE
  5
3E8
100
AcDbEntity
  8
_0-3_躯体と製品
  6
CONTINUOUS
 62
     0
100
AcDbLine
 10
282
 20
470.5416961183
 11
283
 21
469.5416961183
  0
LINE
  5
3E9
100
AcDbEntity
  8
_0-3_躯体と製品
  6
CONTINUOUS
 62
     0
100
AcDbLine
 10
282
 20
471.9559096807
 11
283
 21
470.9559096807
  0
LINE
  5
3EA
100
AcDbEntity
  8
_0-3_躯体と製品
  6
CONTINUOUS
 62
     0
100
AcDbLine
 10
282
 20
473.3701232431
 11
283
 21
472.3701232431
  0
LINE
  5
3EB
100
AcDbEntity
  8
_0-3_躯体と製品
  6
CONTINUOUS
 62
     0
100
AcDbLine
 10
282
 20
474.7843368054
 11
283
 21
473.7843368054
  0
LINE
  5
3EC
100
AcDbEntity
  8
_0-3_躯体と製品
  6
CONTINUOUS
 62
     0
100
AcDbLine
 10
282
 20
476.1985503678
 11
283
 21
475.1985503678
  0
LINE
  5
3ED
100
AcDbEntity
  8
_0-3_躯体と製品
  6
CONTINUOUS
 62
     0
100
AcDbLine
 10
284
 20
475.7022333195
 11
284
 21
474.2022333195
  0
ARC
  5
3EE
100
AcDbEntity
  8
_0-3_躯体と製品
  6
CONTINUOUS
 62
     0
100
AcDbCircle
 10
287
 20
473.7022333195
 40
0.5
100
AcDbArc
 50
90
 51
180
  0
ARC
  5
3EF
100
AcDbEntity
  8
_0-3_躯体と製品
  6
CONTINUOUS
 62
     0
100
AcDbCircle
 10
287
 20
476.2022333195
 40
0.5
100
AcDbArc
 50
180
 51
270
  0
LINE
  5
3F0
100
AcDbEntity
  8
_0-3_躯体と製品
  6
CONTINUOUS
 62
     0
100
AcDbLine
 10
284
 20
474.2022333195
 11
284.5
 21
474.2022333195
  0
LINE
  5
3F1
100
AcDbEntity
  8
_0-3_躯体と製品
  6
CONTINUOUS
 62
     0
100
AcDbLine
 10
284.5
 20
475.7022333195
 11
284
 21
475.7022333195
  0
LINE
  5
3F2
100
AcDbEntity
  8
_0-3_躯体と製品
  6
CONTINUOUS
 62
     0
100
AcDbLine
 10
296.5
 20
474.7022333195
 11
296.5
 21
475.2022333195
  0
ARC
  5
3F3
100
AcDbEntity
  8
_0-3_躯体と製品
  6
CONTINUOUS
 62
     0
100
AcDbCircle
 10
296
 20
474.7022333195
 40
0.5
100
AcDbArc
 50
-90
 51
0
  0
ARC
  5
3F4
100
AcDbEntity
  8
_0-3_躯体と製品
  6
CONTINUOUS
 62
     0
100
AcDbCircle
 10
296
 20
475.2022333195
 40
0.5
100
AcDbArc
 50
0
 51
90
  0
ARC
  5
3F5
100
AcDbEntity
  8
_0-3_躯体と製品
  6
CONTINUOUS
 62
     0
100
AcDbCircle
 10
293.5
 20
471.2022333195
 40
1.5
100
AcDbArc
 50
90
 51
180
  0
ARC
  5
3F6
100
AcDbEntity
  8
_0-3_躯体と製品
  6
CONTINUOUS
 62
     0
100
AcDbCircle
 10
294.5
 20
470.7022333195
 40
0.5
100
AcDbArc
 50
90
 51
180
  0
ARC
  5
3F7
100
AcDbEntity
  8
_0-3_躯体と製品
  6
CONTINUOUS
 62
     0
100
AcDbCircle
 10
291.9
 20
476.3022333195
 40
0.6
100
AcDbArc
 50
180
 51
360
  0
LINE
  5
3F8
100
AcDbEntity
  8
_0-3_躯体と製品
  6
CONTINUOUS
 62
     0
100
AcDbLine
 10
292.5
 20
477.2022333195
 11
292.5
 21
476.3022333195
  0
ARC
  5
3F9
100
AcDbEntity
  8
_0-3_躯体と製品
  6
CONTINUOUS
 62
     0
100
AcDbCircle
 10
306
 20
464.9022333195
 40
1
100
AcDbArc
 50
88.09506709944
 51
180
  0
LINE
  5
3FA
100
AcDbEntity
  8
_0-3_躯体と製品
  6
CONTINUOUS
 62
     0
100
AcDbLine
 10
306.0332412263
 20
465.9016806773
 11
311.5302016939
 21
465.7188539327
  0
LINE
  5
3FB
100
AcDbEntity
  8
_0-3_躯体と製品
  6
CONTINUOUS
 62
     0
100
AcDbLine
 10
313.0293727305
 20
465.6689920932
 11
313.0626139568
 21
466.668439451
  0
ARC
  5
3FC
100
AcDbEntity
  8
_0-3_躯体と製品
  6
CONTINUOUS
 62
     0
100
AcDbCircle
 10
311.546822307
 20
466.2185776115
 40
0.5
100
AcDbArc
 50
-91.90493290056
 51
-1.904932904258
  0
ARC
  5
3FD
100
AcDbEntity
  8
_0-3_躯体と製品
  6
CONTINUOUS
 62
     0
100
AcDbCircle
 10
299
 20
465.2022333195
 40
1
100
AcDbArc
 50
90
 51
270
  0
LINE
  5
3FE
100
AcDbEntity
  8
_0-3_躯体と製品
  6
CONTINUOUS
 62
     0
100
AcDbLine
 10
298
 20
459.2725181098
 11
298
 21
470.3235535431
  0
ARC
  5
3FF
100
AcDbEntity
  8
_0-3_躯体と製品
  6
CONTINUOUS
 62
     0
100
AcDbCircle
 10
306
 20
463.2022333195
 40
1
100
AcDbArc
 50
180
 51
270
  0
LINE
  5
400
100
AcDbEntity
  8
_0-3_躯体と製品
  6
CONTINUOUS
 62
     0
100
AcDbLine
 10
305
 20
464.9022333195
 11
305
 21
463.2022333195
  0
ARC
  5
401
100
AcDbEntity
  8
_0-3_躯体と製品
  6
CONTINUOUS
 62
     0
100
AcDbCircle
 10
300
 20
464.7022333195
 40
0.5
100
AcDbArc
 50
-90
 51
0
  0
LINE
  5
402
100
AcDbEntity
  8
_0-3_躯体と製品
  6
CONTINUOUS
 62
     0
100
AcDbLine
 10
300
 20
464.2022333195
 11
299
 21
464.2022333195
  0
ARC
  5
403
100
AcDbEntity
  8
_0-3_躯体と製品
  6
CONTINUOUS
 62
     0
100
AcDbCircle
 10
299
 20
459.2725181098
 40
1
100
AcDbArc
 50
180
 51
267
  0
ARC
  5
404
100
AcDbEntity
  8
_0-3_躯体と製品
  6
CONTINUOUS
 62
     0
100
AcDbCircle
 10
310.3115836571
 20
461.6838201681
 40
3.2
100
AcDbArc
 50
-141.6848715852
 51
-25.69563800132
  0
ARC
  5
405
100
AcDbEntity
  8
_0-3_躯体と製品
  6
CONTINUOUS
 62
     0
100
AcDbCircle
 10
306.4949999935
 20
460.7072500793
 40
0.4
100
AcDbArc
 50
38.31512841484
 51
218.3151284148
  0
LINE
  5
406
100
AcDbEntity
  8
_0-3_躯体と製品
  6
CONTINUOUS
 62
     0
100
AcDbLine
 10
306.808845072
 20
460.9552445685
 11
307.8008230289
 21
459.6998642544
  0
LINE
  5
407
100
AcDbEntity
  8
_0-3_躯体と製品
  6
CONTINUOUS
 62
     0
100
AcDbLine
 10
306.1811549149
 20
460.45925559
 11
307.1731328718
 21
459.2038752759
  0
LINE
  5
408
100
AcDbEntity
  8
_0-3_躯体と製品
  6
CONTINUOUS
 62
     0
100
AcDbLine
 10
306
 20
464.5920895531
 11
306
 21
463.5022333195
  0
ARC
  5
409
100
AcDbEntity
  8
_0-3_躯体と製品
  6
CONTINUOUS
 62
     0
100
AcDbCircle
 10
306.3
 20
464.5920895531
 40
0.3
100
AcDbArc
 50
88.09506709945
 51
180
  0
LINE
  5
40A
100
AcDbEntity
  8
_0-3_躯体と製品
  6
CONTINUOUS
 62
     0
100
AcDbLine
 10
306.3099723679
 20
464.8919237604
 11
311.9966841464
 21
464.7027859618
  0
ARC
  5
40B
100
AcDbEntity
  8
_0-3_躯体と製品
  6
CONTINUOUS
 62
     0
100
AcDbCircle
 10
312.0299253727
 20
465.7022333195
 40
1
100
AcDbArc
 50
-91.90493290056
 51
-1.904932904257
  0
ARC
  5
40C
100
AcDbEntity
  8
_0-3_躯体と製品
  6
CONTINUOUS
 62
     0
100
AcDbCircle
 10
306.3
 20
463.5022333195
 40
0.3
100
AcDbArc
 50
180
 51
270
  0
ARC
  5
40D
100
AcDbEntity
  8
_0-3_躯体と製品
  6
CONTINUOUS
 62
     0
100
AcDbCircle
 10
306.5
 20
463.7022333195
 40
0.5
100
AcDbArc
 50
180
 51
270
  0
LINE
  5
40E
100
AcDbEntity
  8
_0-3_躯体と製品
  6
CONTINUOUS
 62
     0
100
AcDbLine
 10
306
 20
463.7022333195
 11
306
 21
464.2022333195
  0
ARC
  5
40F
100
AcDbEntity
  8
_0-3_躯体と製品
  6
CONTINUOUS
 62
     0
100
AcDbCircle
 10
306.5
 20
464.2022333195
 40
0.5
100
AcDbArc
 50
90
 51
180
  0
LINE
  5
410
100
AcDbEntity
  8
_0-3_躯体と製品
  6
CONTINUOUS
 62
     0
100
AcDbLine
 10
299
 20
473.7022333195
 11
299
 21
477.2022333195
  0
ARC
  5
411
100
AcDbEntity
  8
_0-3_躯体と製品
  6
CONTINUOUS
 62
     0
100
AcDbCircle
 10
298.5
 20
470.7022333195
 40
0.5
100
AcDbArc
 50
0
 51
90
  0
LINE
  5
412
100
AcDbEntity
  8
_0-3_躯体と製品
  6
CONTINUOUS
 62
     0
100
AcDbLine
 10
299
 20
470.7022333195
 11
299
 21
466.2022333195
  0
ARC
  5
413
100
AcDbEntity
  8
_0-3_躯体と製品
  6
CONTINUOUS
 62
     0
100
AcDbCircle
 10
298
 20
473.7022333195
 40
1
100
AcDbArc
 50
-90
 51
0
  0
LINE
  5
414
100
AcDbEntity
  8
_0-3_躯体と製品
  6
CONTINUOUS
 62
     0
100
AcDbLine
 10
312.0465459859
 20
466.2019569984
 11
312.0631665991
 21
466.7016806773
  0
ARC
  5
415
100
AcDbEntity
  8
_0-3_躯体と製品
  6
CONTINUOUS
 62
     0
100
AcDbCircle
 10
312.5628902779
 20
466.6850600641
 40
0.4999999999355
100
AcDbArc
 50
-1.90493290056
 51
178.0950670994
  0
LINE
  5
416
100
AcDbEntity
  8
_0-3_躯体と製品
  6
CONTINUOUS
 62
     0
100
AcDbLine
 10
293.5
 20
495.5022333195
 11
298.6
 21
495.5022333195
  0
LINE
  5
417
100
AcDbEntity
  8
_0-3_躯体と製品
  6
CONTINUOUS
 62
     0
100
AcDbLine
 10
294
 20
496.7022333195
 11
298.6
 21
496.7022333195
  0
LINE
  5
418
100
AcDbEntity
  8
_0-3_躯体と製品
  6
CONTINUOUS
 62
     0
100
AcDbLine
 10
313.400001
 20
497.5022343195
 11
295.000002
 21
497.5022343195
  0
LINE
  5
419
100
AcDbEntity
  8
_0-3_躯体と製品
  6
CONTINUOUS
 62
     0
100
AcDbLine
 10
313.400001
 20
496.7022333195
 11
295.000002
 21
496.7022333195
  0
LINE
  5
41A
100
AcDbEntity
  8
_0-3_躯体と製品
  6
CONTINUOUS
 62
     0
100
AcDbLine
 10
297.595623842
 20
496.7022333195
 11
298.395624842
 21
497.5022343195
  0
LINE
  5
41B
100
AcDbEntity
  8
_0-3_躯体と製品
  6
CONTINUOUS
 62
     0
100
AcDbLine
 10
297.5
 20
499.2022333195
 11
299.5
 21
499.2022333195
  0
LINE
  5
41C
100
AcDbEntity
  8
_0-3_躯体と製品
  6
CONTINUOUS
 62
     0
100
AcDbLine
 10
299.5
 20
479.2022333195
 11
291.9
 21
479.2022333195
  0
LINE
  5
41D
100
AcDbEntity
  8
_0-3_躯体と製品
  6
CONTINUOUS
 62
     0
100
AcDbLine
 10
293
 20
477.7022333195
 11
298.5
 21
477.7022333195
  0
ARC
  5
41E
100
AcDbEntity
  8
_0-3_躯体と製品
  6
CONTINUOUS
 62
     0
100
AcDbCircle
 10
287
 20
489.2022333195
 40
0.5
100
AcDbArc
 50
180
 51
270
  0
CIRCLE
  5
41F
100
AcDbEntity
  8
_0-4_図枠
  6
CONTINUOUS
 62
     0
100
AcDbCircle
 10
288.970412466
 20
487.9396202917
 40
0.9
  0
LINE
  5
420
100
AcDbEntity
  8
_0-3_躯体と製品
  6
CONTINUOUS
 62
     0
100
AcDbLine
 10
291
 20
487.2022333195
 11
287
 21
487.2022333195
  0
LINE
  5
421
100
AcDbEntity
  8
_0-3_躯体と製品
  6
CONTINUOUS
 62
     0
100
AcDbLine
 10
292.5
 20
488.7022333195
 11
287
 21
488.7022333195
  0
LINE
  5
422
100
AcDbEntity
  8
_0-3_躯体と製品
  6
CONTINUOUS
 62
     0
100
AcDbLine
 10
288.4
 20
481.2022333195
 11
291.9
 21
479.2022333195
  0
LINE
  5
423
100
AcDbEntity
  8
_0-3_躯体と製品
  6
CONTINUOUS
 62
     0
100
AcDbLine
 10
287.6557915925
 20
479.8998686064
 11
291.3
 21
477.817463802
  0
LINE
  5
424
100
AcDbEntity
  8
_0-3_躯体と製品
  6
CONTINUOUS
 62
     0
100
AcDbLine
 10
282
 20
479.0269774926
 11
283
 21
478.0269774926
  0
LINE
  5
425
100
AcDbEntity
  8
_0-3_躯体と製品
  6
CONTINUOUS
 62
     0
100
AcDbLine
 10
282
 20
480.4411910549
 11
283
 21
479.4411910549
  0
LINE
  5
426
100
AcDbEntity
  8
_0-3_躯体と製品
  6
CONTINUOUS
 62
     0
100
AcDbLine
 10
282
 20
481.8554046173
 11
283
 21
480.8554046173
  0
LINE
  5
427
100
AcDbEntity
  8
_0-3_躯体と製品
  6
CONTINUOUS
 62
     0
100
AcDbLine
 10
282
 20
483.2696181797
 11
283
 21
482.2696181797
  0
LINE
  5
428
100
AcDbEntity
  8
_0-3_躯体と製品
  6
CONTINUOUS
 62
     0
100
AcDbLine
 10
282
 20
484.6838317421
 11
283
 21
483.6838317421
  0
LINE
  5
429
100
AcDbEntity
  8
_0-3_躯体と製品
  6
CONTINUOUS
 62
     0
100
AcDbLine
 10
282
 20
486.0980453044
 11
283
 21
485.0980453044
  0
LINE
  5
42A
100
AcDbEntity
  8
_0-3_躯体と製品
  6
CONTINUOUS
 62
     0
100
AcDbLine
 10
282
 20
487.5122588668
 11
283
 21
486.5122588668
  0
LINE
  5
42B
100
AcDbEntity
  8
_0-3_躯体と製品
  6
CONTINUOUS
 62
     0
100
AcDbLine
 10
282
 20
488.9264724292
 11
283
 21
487.9264724292
  0
LINE
  5
42C
100
AcDbEntity
  8
_0-3_躯体と製品
  6
CONTINUOUS
 62
     0
100
AcDbLine
 10
284
 20
488.7022333195
 11
284
 21
487.2022333195
  0
ARC
  5
42D
100
AcDbEntity
  8
_0-3_躯体と製品
  6
CONTINUOUS
 62
     0
100
AcDbCircle
 10
287
 20
486.7022333195
 40
0.5
100
AcDbArc
 50
90
 51
180
  0
LINE
  5
42E
100
AcDbEntity
  8
_0-3_躯体と製品
  6
CONTINUOUS
 62
     0
100
AcDbLine
 10
284
 20
487.2022333195
 11
284.5
 21
487.2022333195
  0
LINE
  5
42F
100
AcDbEntity
  8
_0-3_躯体と製品
  6
CONTINUOUS
 62
     0
100
AcDbLine
 10
284.5
 20
488.7022333195
 11
284
 21
488.7022333195
  0
ARC
  5
430
100
AcDbEntity
  8
_0-3_躯体と製品
  6
CONTINUOUS
 62
     0
100
AcDbCircle
 10
287.65
 20
484.4522333195
 40
0.75
100
AcDbArc
 50
0
 51
180
  0
LINE
  5
431
100
AcDbEntity
  8
_0-3_躯体と製品
  6
CONTINUOUS
 62
     0
100
AcDbLine
 10
288.4
 20
484.4522333195
 11
288.4
 21
481.2022333195
  0
LINE
  5
432
100
AcDbEntity
  8
_0-3_躯体と製品
  6
CONTINUOUS
 62
     0
100
AcDbLine
 10
286.9
 20
481.2022333195
 11
286.9
 21
484.4522333195
  0
ARC
  5
433
100
AcDbEntity
  8
_0-3_躯体と製品
  6
CONTINUOUS
 62
     0
100
AcDbCircle
 10
288.4
 20
481.2022333195
 40
1.5
100
AcDbArc
 50
180
 51
240.2551187031
  0
ARC
  5
434
100
AcDbEntity
  8
_0-3_躯体と製品
  6
CONTINUOUS
 62
     0
100
AcDbCircle
 10
290.1
 20
481.8022333195
 40
0.6
100
AcDbArc
 50
90
 51
270
  0
ARC
  5
435
100
AcDbEntity
  8
_0-3_躯体と製品
  6
CONTINUOUS
 62
     0
100
AcDbCircle
 10
291
 20
482.9022333195
 40
0.5
100
AcDbArc
 50
-90
 51
0
  0
LINE
  5
436
100
AcDbEntity
  8
_0-3_躯体と製品
  6
CONTINUOUS
 62
     0
100
AcDbLine
 10
291
 20
482.4022333195
 11
290.1
 21
482.4022333195
  0
ARC
  5
437
100
AcDbEntity
  8
_0-3_躯体と製品
  6
CONTINUOUS
 62
     0
100
AcDbCircle
 10
291
 20
486.7022333195
 40
0.5
100
AcDbArc
 50
0
 51
90
  0
LINE
  5
438
100
AcDbEntity
  8
_0-3_躯体と製品
  6
CONTINUOUS
 62
     0
100
AcDbLine
 10
291.5
 20
486.7022333195
 11
291.5
 21
482.9022333195
  0
LINE
  5
439
100
AcDbEntity
  8
_0-3_躯体と製品
  6
CONTINUOUS
 62
     0
100
AcDbLine
 10
292
 20
481.2022333195
 11
290.1
 21
481.2022333195
  0
ARC
  5
43A
100
AcDbEntity
  8
_0-3_躯体と製品
  6
CONTINUOUS
 62
     0
100
AcDbCircle
 10
292
 20
482.2022333195
 40
1
100
AcDbArc
 50
-90
 51
0
  0
LINE
  5
43B
100
AcDbEntity
  8
_0-3_躯体と製品
  6
CONTINUOUS
 62
     0
100
AcDbLine
 10
293
 20
482.2022333195
 11
293
 21
488.2022333195
  0
ARC
  5
43C
100
AcDbEntity
  8
_0-3_躯体と製品
  6
CONTINUOUS
 62
     0
100
AcDbCircle
 10
292.5
 20
488.2022333195
 40
0.5
100
AcDbArc
 50
0
 51
90
  0
LINE
  5
43D
100
AcDbEntity
  8
_0-3_躯体と製品
  6
CONTINUOUS
 62
     0
100
AcDbLine
 10
283
 20
499.2022333195
 11
282
 21
499.2022333195
  0
LINE
  5
43E
100
AcDbEntity
  8
_0-3_躯体と製品
  6
CONTINUOUS
 62
     0
100
AcDbLine
 10
282
 20
490.3406859916
 11
283
 21
489.3406859916
  0
LINE
  5
43F
100
AcDbEntity
  8
_0-3_躯体と製品
  6
CONTINUOUS
 62
     0
100
AcDbLine
 10
282
 20
491.7548995539
 11
283
 21
490.7548995539
  0
LINE
  5
440
100
AcDbEntity
  8
_0-3_躯体と製品
  6
CONTINUOUS
 62
     0
100
AcDbLine
 10
282
 20
493.1691131163
 11
283
 21
492.1691131163
  0
LINE
  5
441
100
AcDbEntity
  8
_0-3_躯体と製品
  6
CONTINUOUS
 62
     0
100
AcDbLine
 10
282
 20
494.5833266787
 11
283
 21
493.5833266787
  0
LINE
  5
442
100
AcDbEntity
  8
_0-3_躯体と製品
  6
CONTINUOUS
 62
     0
100
AcDbLine
 10
282
 20
495.997540241
 11
283
 21
494.997540241
  0
LINE
  5
443
100
AcDbEntity
  8
_0-3_躯体と製品
  6
CONTINUOUS
 62
     0
100
AcDbLine
 10
282
 20
497.4117538034
 11
283
 21
496.4117538034
  0
LINE
  5
444
100
AcDbEntity
  8
_0-3_躯体と製品
  6
CONTINUOUS
 62
     0
100
AcDbLine
 10
282
 20
498.8259673658
 11
283
 21
497.8259673658
  0
LINE
  5
445
100
AcDbEntity
  8
_0-3_躯体と製品
  6
CONTINUOUS
 62
     0
100
AcDbLine
 10
283
 20
499.2022333195
 11
284
 21
499.2022333195
  0
ARC
  5
446
100
AcDbEntity
  8
_0-3_躯体と製品
  6
CONTINUOUS
 62
     0
100
AcDbCircle
 10
293.5
 20
496.5022333195
 40
1
100
AcDbArc
 50
180
 51
270
  0
ARC
  5
447
100
AcDbEntity
  8
_0-3_躯体と製品
  6
CONTINUOUS
 62
     0
100
AcDbCircle
 10
294
 20
497.0022333195
 40
0.3
100
AcDbArc
 50
180
 51
270
  0
ARC
  5
448
100
AcDbEntity
  8
_0-3_躯体と製品
  6
CONTINUOUS
 62
     0
100
AcDbCircle
 10
297
 20
499.7022333195
 40
0.5
100
AcDbArc
 50
180
 51
270
  0
ARC
  5
449
100
AcDbEntity
  8
_0-3_躯体と製品
  6
CONTINUOUS
 62
     0
100
AcDbCircle
 10
296
 20
498.7022333195
 40
1
100
AcDbArc
 50
180
 51
270
  0
ARC
  5
44A
100
AcDbEntity
  8
_0-3_躯体と製品
  6
CONTINUOUS
 62
     0
100
AcDbCircle
 10
295.000002
 20
498.0022353195
 40
0.500001
100
AcDbArc
 50
180
 51
270
  0
ARC
  5
44B
100
AcDbEntity
  8
_0-3_躯体と製品
  6
CONTINUOUS
 62
     0
100
AcDbCircle
 10
295.000002
 20
498.0022353195
 40
1.299999
100
AcDbArc
 50
180
 51
270
  0
LINE
  5
44C
100
AcDbEntity
  8
_0-3_躯体と製品
  6
CONTINUOUS
 62
     0
100
AcDbLine
 10
296.1814102797
 20
496.7022333195
 11
296.9814112797
 21
497.5022343195
  0
LINE
  5
44D
100
AcDbEntity
  8
_0-3_躯体と製品
  6
CONTINUOUS
 62
     0
100
AcDbLine
 10
294.7850875053
 20
496.7201241075
 11
295.5671977173
 21
497.5022343195
  0
LINE
  5
44E
100
AcDbEntity
  8
_0-3_躯体と製品
  6
CONTINUOUS
 62
     0
100
AcDbLine
 10
293.9237790449
 20
497.2730292095
 11
294.5184427256
 21
497.8676928902
  0
LINE
  5
44F
100
AcDbEntity
  8
_0-3_躯体と製品
  6
CONTINUOUS
 62
     0
100
AcDbLine
 10
293.7000026047
 20
498.4634663316
 11
294.500001
 21
499.263464727
  0
ARC
  5
450
100
AcDbEntity
  8
_0-3_躯体と製品
  6
CONTINUOUS
 62
     0
100
AcDbCircle
 10
297.5
 20
500.2022333195
 40
1
100
AcDbArc
 50
180
 51
270
  0
ARC
  5
451
100
AcDbEntity
  8
_0-3_躯体と製品
  6
CONTINUOUS
 62
     0
100
AcDbCircle
 10
299.5
 20
478.2022333195
 40
1
100
AcDbArc
 50
0
 51
90
  0
ARC
  5
452
100
AcDbEntity
  8
_0-3_躯体と製品
  6
CONTINUOUS
 62
     0
100
AcDbCircle
 10
298.6
 20
496.1022333195
 40
0.6
100
AcDbArc
 50
-90
 51
90
  0
LINE
  5
453
100
AcDbEntity
  8
_0-3_躯体と製品
  6
CONTINUOUS
 62
     0
100
AcDbLine
 10
304.6666916539
 20
496.7022333195
 11
305.4666926539
 21
497.5022343195
  0
LINE
  5
454
100
AcDbEntity
  8
_0-3_躯体と製品
  6
CONTINUOUS
 62
     0
100
AcDbLine
 10
303.2524780915
 20
496.7022333195
 11
304.0524790915
 21
497.5022343195
  0
LINE
  5
455
100
AcDbEntity
  8
_0-3_躯体と製品
  6
CONTINUOUS
 62
     0
100
AcDbLine
 10
301.8382645292
 20
496.7022333195
 11
302.6382655292
 21
497.5022343195
  0
LINE
  5
456
100
AcDbEntity
  8
_0-3_躯体と製品
  6
CONTINUOUS
 62
     0
100
AcDbLine
 10
300.4240509668
 20
496.7022333195
 11
301.2240519668
 21
497.5022343195
  0
LINE
  5
457
100
AcDbEntity
  8
_0-3_躯体と製品
  6
CONTINUOUS
 62
     0
100
AcDbLine
 10
299.0098374044
 20
496.7022333195
 11
299.8098384044
 21
497.5022343195
  0
ARC
  5
458
100
AcDbEntity
  8
_0-3_躯体と製品
  6
CONTINUOUS
 62
     0
100
AcDbCircle
 10
299.5
 20
500.2022333195
 40
1
100
AcDbArc
 50
-90
 51
0
  0
CIRCLE
  5
459
100
AcDbEntity
  8
_0-4_図枠
  6
CONTINUOUS
 62
     0
100
AcDbCircle
 10
309.5211428793
 20
498.4590379115
 40
0.9
  0
ARC
  5
45A
100
AcDbEntity
  8
_0-3_躯体と製品
  6
CONTINUOUS
 62
     0
100
AcDbCircle
 10
313.400001
 20
496.2022353195
 40
0.500001
100
AcDbArc
 50
0
 51
90
  0
LINE
  5
45B
100
AcDbEntity
  8
_0-3_躯体と製品
  6
CONTINUOUS
 62
     0
100
AcDbLine
 10
313.1519730282
 20
496.7022333195
 11
313.865698075
 21
497.4159583664
  0
LINE
  5
45C
100
AcDbEntity
  8
_0-3_躯体と製品
  6
CONTINUOUS
 62
     0
100
AcDbLine
 10
311.7377594658
 20
496.7022333195
 11
312.5377604658
 21
497.5022343195
  0
LINE
  5
45D
100
AcDbEntity
  8
_0-3_躯体と製品
  6
CONTINUOUS
 62
     0
100
AcDbLine
 10
310.3235459034
 20
496.7022333195
 11
311.1235469034
 21
497.5022343195
  0
LINE
  5
45E
100
AcDbEntity
  8
_0-3_躯体と製品
  6
CONTINUOUS
 62
     0
100
AcDbLine
 10
308.909332341
 20
496.7022333195
 11
309.709333341
 21
497.5022343195
  0
LINE
  5
45F
100
AcDbEntity
  8
_0-3_躯体と製品
  6
CONTINUOUS
 62
     0
100
AcDbLine
 10
307.4951187787
 20
496.7022333195
 11
308.2951197787
 21
497.5022343195
  0
LINE
  5
460
100
AcDbEntity
  8
_0-3_躯体と製品
  6
CONTINUOUS
 62
     0
100
AcDbLine
 10
306.0809052163
 20
496.7022333195
 11
306.8809062163
 21
497.5022343195
  0
CIRCLE
  5
461
100
AcDbEntity
  8
_0-4_図枠
  6
CONTINUOUS
 62
     0
100
AcDbCircle
 10
336.7230726282
 20
362.3022346788
 40
6
  0
LINE
  5
462
100
AcDbEntity
  8
_0-4_図枠
  6
CONTINUOUS
 62
     0
100
AcDbLine
 10
321.3397854418
 20
335.6575996845
 11
333.7230726282
 21
357.1060822561
  0
CIRCLE
  5
463
100
AcDbEntity
  8
_0-4_図枠
  6
CONTINUOUS
 62
     0
100
AcDbCircle
 10
321.3397854418
 20
335.6575996845
 40
0.9
  0
LINE
  5
464
100
AcDbEntity
  8
_0-3_躯体と製品
  6
CONTINUOUS
 62
     0
100
AcDbLine
 10
406.0204696542
 20
394.0872946027
 11
403.0552074813
 21
360.1941928743
  0
LINE
  5
465
100
AcDbEntity
  8
_0-3_躯体と製品
  6
CONTINUOUS
 62
     0
100
AcDbLine
 10
405.0242749562
 20
394.1744503455
 11
402.0590127832
 21
360.281348617
  0
ARC
  5
466
100
AcDbEntity
  8
_0-3_躯体と製品
  6
CONTINUOUS
 62
     0
100
AcDbCircle
 10
407.0166643523
 20
394.00013886
 40
2
100
AcDbArc
 50
90.67517081899
 51
175
  0
ARC
  5
467
100
AcDbEntity
  8
_0-3_躯体と製品
  6
CONTINUOUS
 62
     0
100
AcDbCircle
 10
407.0166643523
 20
394.00013886
 40
1
100
AcDbArc
 50
90.95484125387
 51
175
  0
LINE
  5
468
100
AcDbEntity
  8
_0-4_図枠
  6
CONTINUOUS
 62
     0
100
AcDbLine
 10
366.5
 20
459.7404823922
 11
416.5
 21
457.120093428
  0
LINE
  5
469
100
AcDbEntity
  8
_0-4_図枠
  6
CONTINUOUS
 62
     0
100
AcDbLine
 10
366.5
 20
459.7404823922
 11
416.5
 21
459.7404823922
  0
TEXT
  5
46A
100
AcDbEntity
  8
_0-4_図枠
  6
CONTINUOUS
 62
     0
100
AcDbText
 10
378
 20
459.7247594276
 40
5
  1
勾配３度
  7
STANDARD
100
AcDbText
  0
LINE
  5
46B
100
AcDbEntity
  8
_0-3_躯体と製品
  6
CONTINUOUS
 62
     0
100
AcDbLine
 10
329.1460383148
 20
452.9676708579
 11
329.2359768672
 21
454.6838006697
  0
LINE
  5
46C
100
AcDbEntity
  8
_0-3_躯体と製品
  6
CONTINUOUS
 62
     0
100
AcDbLine
 10
316.1989923358
 20
453.646196786
 11
314.3829756421
 21
455.4622134796
  0
LINE
  5
46D
100
AcDbEntity
  8
_0-3_躯体と製品
  6
CONTINUOUS
 62
     0
100
AcDbLine
 10
317.6914207575
 20
453.5679819266
 11
315.8754040638
 21
455.3839986203
  0
LINE
  5
46E
100
AcDbEntity
  8
_0-3_躯体と製品
  6
CONTINUOUS
 62
     0
100
AcDbLine
 10
319.1838491792
 20
453.4897670673
 11
317.3678324855
 21
455.305783761
  0
LINE
  5
46F
100
AcDbEntity
  8
_0-3_躯体と製品
  6
CONTINUOUS
 62
     0
100
AcDbLine
 10
320.6762776009
 20
453.411552208
 11
318.8602609072
 21
455.2275689017
  0
LINE
  5
470
100
AcDbEntity
  8
_0-3_躯体と製品
  6
CONTINUOUS
 62
     0
100
AcDbLine
 10
322.1687060226
 20
453.3333373487
 11
320.3526893289
 21
455.1493540423
  0
LINE
  5
471
100
AcDbEntity
  8
_0-3_躯体と製品
  6
CONTINUOUS
 62
     0
100
AcDbLine
 10
323.6611344443
 20
453.2551224894
 11
321.8451177506
 21
455.071139183
  0
LINE
  5
472
100
AcDbEntity
  8
_0-3_躯体と製品
  6
CONTINUOUS
 62
     0
100
AcDbLine
 10
325.153562866
 20
453.17690763
 11
323.3375461723
 21
454.9929243237
  0
LINE
  5
473
100
AcDbEntity
  8
_0-3_躯体と製品
  6
CONTINUOUS
 62
     0
100
AcDbLine
 10
326.6459912876
 20
453.0986927707
 11
324.829974594
 21
454.9147094644
  0
LINE
  5
474
100
AcDbEntity
  8
_0-3_躯体と製品
  6
CONTINUOUS
 62
     0
100
AcDbLine
 10
328.1384197093
 20
453.0204779114
 11
326.3224030157
 21
454.8364946051
  0
LINE
  5
475
100
AcDbEntity
  8
_0-3_躯体と製品
  6
CONTINUOUS
 62
     0
100
AcDbLine
 10
329.168915606
 20
453.4041955772
 11
327.8148314374
 21
454.7582797457
  0
LINE
  5
476
100
AcDbEntity
  8
_0-3_躯体と製品
  6
CONTINUOUS
 62
     0
100
AcDbLine
 10
314.1665952935
 20
453.7527102016
 11
314.2565338459
 21
455.4688400134
  0
LINE
  5
477
100
AcDbEntity
  8
_0-3_躯体と製品
  6
CONTINUOUS
 62
     0
100
AcDbLine
 10
314.7065639141
 20
453.7244116453
 11
314.192075428
 21
454.2389001314
  0
LINE
  5
478
100
AcDbEntity
  8
_0-3_躯体と製品
  6
CONTINUOUS
 62
     0
100
AcDbLine
 10
317.8775120393
 20
429.0246068189
 11
337.8501027344
 21
427.977887694
  0
LINE
  5
479
100
AcDbEntity
  8
_0-3_躯体と製品
  6
CONTINUOUS
 62
     0
100
AcDbLine
 10
317.8251760831
 20
428.0259772841
 11
317.8775120393
 21
429.0246068189
  0
CIRCLE
  5
47A
100
AcDbEntity
  8
_0-4_図枠
  6
CONTINUOUS
 62
     0
100
AcDbCircle
 10
340.6125019454
 20
414.0260690185
 40
6
  0
LINE
  5
47B
100
AcDbEntity
  8
_0-3_躯体と製品
  6
CONTINUOUS
 62
     0
100
AcDbLine
 10
337.7977667782
 20
426.9792581593
 11
341.2929701498
 21
426.7960823124
  0
LINE
  5
47C
100
AcDbEntity
  8
_0-3_躯体と製品
  6
CONTINUOUS
 62
     0
100
AcDbLine
 10
337.7977667782
 20
426.9792581593
 11
337.8501027344
 21
427.977887694
  0
ARC
  5
47D
100
AcDbEntity
  8
_0-3_躯体と製品
  6
CONTINUOUS
 62
     0
100
AcDbCircle
 10
341.3714740842
 20
428.2940266145
 40
1.5
100
AcDbArc
 50
-93.00000000001
 51
86.99999999999
  0
LINE
  5
47E
100
AcDbEntity
  8
_0-3_躯体と製品
  6
CONTINUOUS
 62
     0
100
AcDbLine
 10
314.1404273154
 20
453.2533954342
 11
329.1198703367
 21
452.4683560906
  0
LINE
  5
47F
100
AcDbEntity
  8
_0-3_躯体と製品
  6
CONTINUOUS
 62
     0
100
AcDbLine
 10
323.4256226412
 20
448.761289583
 11
319.1986046302
 21
452.9883075939
  0
LINE
  5
480
100
AcDbEntity
  8
_0-3_躯体と製品
  6
CONTINUOUS
 62
     0
100
AcDbLine
 10
324.9180510629
 20
448.6830747236
 11
320.6910330519
 21
452.9100927346
  0
LINE
  5
481
100
AcDbEntity
  8
_0-3_躯体と製品
  6
CONTINUOUS
 62
     0
100
AcDbLine
 10
326.4104794846
 20
448.6048598643
 11
322.1834614736
 21
452.8318778753
  0
LINE
  5
482
100
AcDbEntity
  8
_0-3_躯体と製品
  6
CONTINUOUS
 62
     0
100
AcDbLine
 10
318.9483373761
 20
448.9959341609
 11
314.7213193652
 21
453.2229521719
  0
LINE
  5
483
100
AcDbEntity
  8
_0-3_躯体と製品
  6
CONTINUOUS
 62
     0
100
AcDbLine
 10
320.4407657978
 20
448.9177193016
 11
316.2137477868
 21
453.1447373125
  0
LINE
  5
484
100
AcDbEntity
  8
_0-3_躯体と製品
  6
CONTINUOUS
 62
     0
100
AcDbLine
 10
321.9331942195
 20
448.8395044423
 11
317.7061762085
 21
453.0665224532
  0
LINE
  5
485
100
AcDbEntity
  8
_0-3_躯体と製品
  6
CONTINUOUS
 62
     0
100
AcDbLine
 10
328.9105265117
 20
448.4738379515
 11
329.1198703367
 21
452.4683560906
  0
LINE
  5
486
100
AcDbEntity
  8
_0-3_躯体と製品
  6
CONTINUOUS
 62
     0
100
AcDbLine
 10
327.9029079062
 20
448.526645005
 11
323.6758898953
 21
452.7536630159
  0
LINE
  5
487
100
AcDbEntity
  8
_0-3_躯体と製品
  6
CONTINUOUS
 62
     0
100
AcDbLine
 10
328.9334038029
 20
448.9103626708
 11
325.168318317
 21
452.6754481566
  0
LINE
  5
488
100
AcDbEntity
  8
_0-3_躯体と製品
  6
CONTINUOUS
 62
     0
100
AcDbLine
 10
329.0742537542
 20
451.5979398442
 11
328.1531751604
 21
452.519018438
  0
LINE
  5
489
100
AcDbEntity
  8
_0-3_躯体と製品
  6
CONTINUOUS
 62
     0
100
AcDbLine
 10
329.0038287785
 20
450.2541512575
 11
326.6607467387
 21
452.5972332973
  0
LINE
  5
48A
100
AcDbEntity
  8
_0-3_躯体と製品
  6
CONTINUOUS
 62
     0
100
AcDbLine
 10
315
 20
497.2022333195
 11
315
 21
465.2022333195
  0
LINE
  5
48B
100
AcDbEntity
  8
_0-3_躯体と製品
  6
CONTINUOUS
 62
     0
100
AcDbLine
 10
316.5
 20
498.2022333195
 11
316.5
 21
464.2022333195
  0
LINE
  5
48C
100
AcDbEntity
  8
_0-3_躯体と製品
  6
CONTINUOUS
 62
     0
100
AcDbLine
 10
314.7
 20
496.2022353195
 11
314.7
 21
467.5022343195
  0
ARC
  5
48D
100
AcDbEntity
  8
_0-3_躯体と製品
  6
CONTINUOUS
 62
     0
100
AcDbCircle
 10
314.5
 20
462.7022333195
 40
0.5
100
AcDbArc
 50
0
 51
90
  0
LINE
  5
48E
100
AcDbEntity
  8
_0-3_躯体と製品
  6
CONTINUOUS
 62
     0
100
AcDbLine
 10
315
 20
462.7022333195
 11
315
 21
462.2022333195
  0
ARC
  5
48F
100
AcDbEntity
  8
_0-3_躯体と製品
  6
CONTINUOUS
 62
     0
100
AcDbCircle
 10
314.5
 20
465.2022333195
 40
0.5
100
AcDbArc
 50
-90
 51
0
  0
ARC
  5
490
100
AcDbEntity
  8
_0-3_躯体と製品
  6
CONTINUOUS
 62
     0
100
AcDbCircle
 10
315.5
 20
464.2022333195
 40
1
100
AcDbArc
 50
-90
 51
0
  0
CIRCLE
  5
491
100
AcDbEntity
  8
_0-3_躯体と製品
  6
CONTINUOUS
 62
     0
100
AcDbCircle
 10
316.5
 20
463.2022333195
 40
1.4
  0
ARC
  5
492
100
AcDbEntity
  8
_0-3_躯体と製品
  6
CONTINUOUS
 62
     0
100
AcDbCircle
 10
314.5
 20
497.2022333195
 40
0.5
100
AcDbArc
 50
0
 51
90
  0
ARC
  5
493
100
AcDbEntity
  8
_0-3_躯体と製品
  6
CONTINUOUS
 62
     0
100
AcDbCircle
 10
315.5
 20
498.2022333195
 40
1
100
AcDbArc
 50
0
 51
90
  0
CIRCLE
  5
494
100
AcDbEntity
  8
_0-3_躯体と製品
  6
CONTINUOUS
 62
     0
100
AcDbCircle
 10
316.5
 20
499.2022333195
 40
1.4
  0
LINE
  5
495
100
AcDbEntity
  8
_0-3_躯体と製品
  6
CONTINUOUS
 62
     0
100
AcDbLine
 10
437.8438961005
 20
425.2408659066
 11
437.9381008217
 21
427.0383990692
  0
LINE
  5
496
100
AcDbEntity
  8
_0-4_図枠
  6
CONTINUOUS
 62
     0
100
AcDbLine
 10
416.5
 20
457.120093428
 11
416.5
 21
459.7404823922
  0
CIRCLE
  5
497
100
AcDbEntity
  8
_0-4_図枠
  6
CONTINUOUS
 62
     0
100
AcDbCircle
 10
270.3318935557
 20
545.9665697202
 40
6
  0
LINE
  5
498
100
AcDbEntity
  8
_0-3_躯体と製品
  6
CONTINUOUS
 62
     0
100
AcDbLine
 10
307
 20
589.2022333195
 11
307
 21
514.2022333195
  0
LINE
  5
499
100
AcDbEntity
  8
_0-4_図枠
  6
CONTINUOUS
 62
     0
100
AcDbLine
 10
293.1419097734
 20
506.4584627096
 11
273.3318935557
 21
540.7704172975
  0
TEXT
  5
49A
100
AcDbEntity
  8
_0-4_図枠
  6
CONTINUOUS
 62
     0
100
AcDbText
 10
264.8512972233
 20
521.5190009029
 40
5
  1
４
  7
STANDARD
100
AcDbText
  0
CIRCLE
  5
49B
100
AcDbEntity
  8
_0-4_図枠
  6
CONTINUOUS
 62
     0
100
AcDbCircle
 10
267.8512972233
 20
524.5190009029
 40
6
  0
LINE
  5
49C
100
AcDbEntity
  8
_0-3_躯体と製品
  6
CONTINUOUS
 62
     0
100
AcDbLine
 10
299.5
 20
514.2022333195
 11
297.5
 21
514.2022333195
  0
LINE
  5
49D
100
AcDbEntity
  8
_0-3_躯体と製品
  6
CONTINUOUS
 62
     0
100
AcDbLine
 10
282
 20
514.2022333195
 11
307
 21
514.2022333195
  0
LINE
  5
49E
100
AcDbEntity
  8
_0-3_躯体と製品
  6
CONTINUOUS
 62
     0
100
AcDbLine
 10
284.8772773174
 20
505.7022333195
 11
301.745311
 21
505.7022333195
  0
ARC
  5
49F
100
AcDbEntity
  8
_0-3_躯体と製品
  6
CONTINUOUS
 62
     0
100
AcDbCircle
 10
296.5
 20
507.1808047481
 40
2.021428571429
100
AcDbArc
 50
42.74124453868
 51
90
  0
ARC
  5
4A0
100
AcDbEntity
  8
_0-3_躯体と製品
  6
CONTINUOUS
 62
     0
100
AcDbCircle
 10
296.5
 20
504.223661891
 40
2.021428571429
100
AcDbArc
 50
-90
 51
-42.74124453868
  0
LINE
  5
4A1
100
AcDbEntity
  8
_0-3_躯体と製品
  6
CONTINUOUS
 62
     0
100
AcDbLine
 10
296.5
 20
510.2022333195
 11
296.5
 21
513.2022333195
  0
LINE
  5
4A2
100
AcDbEntity
  8
_0-3_躯体と製品
  6
CONTINUOUS
 62
     0
100
AcDbLine
 10
284.5
 20
509.7022333195
 11
293
 21
509.7022333195
  0
LINE
  5
4A3
100
AcDbEntity
  8
_0-3_躯体と製品
  6
CONTINUOUS
 62
     0
100
AcDbLine
 10
289.5
 20
504.2022333195
 11
289
 21
503.7022333195
  0
LINE
  5
4A4
100
AcDbEntity
  8
_0-3_躯体と製品
  6
CONTINUOUS
 62
     0
100
AcDbLine
 10
289.5
 20
507.2022333195
 11
289
 21
507.7022333195
  0
LINE
  5
4A5
100
AcDbEntity
  8
_0-3_躯体と製品
  6
CONTINUOUS
 62
     0
100
AcDbLine
 10
292
 20
501.7022333195
 11
287
 21
501.7022333195
  0
LINE
  5
4A6
100
AcDbEntity
  8
_0-3_躯体と製品
  6
CONTINUOUS
 62
     0
100
AcDbLine
 10
295.5
 20
511.2022333195
 11
287.5
 21
511.2022333195
  0
LINE
  5
4A7
100
AcDbEntity
  8
_0-3_躯体と製品
  6
CONTINUOUS
 62
     0
100
AcDbLine
 10
287.5
 20
509.7022333195
 11
294.5
 21
509.7022333195
  0
LINE
  5
4A8
100
AcDbEntity
  8
_0-3_躯体と製品
  6
CONTINUOUS
 62
     0
100
AcDbLine
 10
295
 20
507.2022333195
 11
286.5
 21
507.2022333195
  0
LINE
  5
4A9
100
AcDbEntity
  8
_0-3_躯体と製品
  6
CONTINUOUS
 62
     0
100
AcDbLine
 10
295
 20
504.2022333195
 11
286.5
 21
504.2022333195
  0
LINE
  5
4AA
100
AcDbEntity
  8
_0-3_躯体と製品
  6
CONTINUOUS
 62
     0
100
AcDbLine
 10
284
 20
509.2022333195
 11
284
 21
501.7022333195
  0
ARC
  5
4AB
100
AcDbEntity
  8
_0-3_躯体と製品
  6
CONTINUOUS
 62
     0
100
AcDbCircle
 10
284.5
 20
509.2022333195
 40
0.5
100
AcDbArc
 50
90
 51
180
  0
LINE
  5
4AC
100
AcDbEntity
  8
_0-3_躯体と製品
  6
CONTINUOUS
 62
     0
100
AcDbLine
 10
287.5
 20
504.2022333195
 11
287
 21
503.7022333195
  0
LINE
  5
4AD
100
AcDbEntity
  8
_0-3_躯体と製品
  6
CONTINUOUS
 62
     0
100
AcDbLine
 10
288
 20
503.7022333195
 11
287.5
 21
504.2022333195
  0
LINE
  5
4AE
100
AcDbEntity
  8
_0-3_躯体と製品
  6
CONTINUOUS
 62
     0
100
AcDbLine
 10
288.5
 20
504.2022333195
 11
288
 21
503.7022333195
  0
LINE
  5
4AF
100
AcDbEntity
  8
_0-3_躯体と製品
  6
CONTINUOUS
 62
     0
100
AcDbLine
 10
289
 20
503.7022333195
 11
288.5
 21
504.2022333195
  0
LINE
  5
4B0
100
AcDbEntity
  8
_0-3_躯体と製品
  6
CONTINUOUS
 62
     0
100
AcDbLine
 10
287.5
 20
507.2022333195
 11
287
 21
507.7022333195
  0
LINE
  5
4B1
100
AcDbEntity
  8
_0-3_躯体と製品
  6
CONTINUOUS
 62
     0
100
AcDbLine
 10
288
 20
507.7022333195
 11
287.5
 21
507.2022333195
  0
LINE
  5
4B2
100
AcDbEntity
  8
_0-3_躯体と製品
  6
CONTINUOUS
 62
     0
100
AcDbLine
 10
288.5
 20
507.2022333195
 11
288
 21
507.7022333195
  0
LINE
  5
4B3
100
AcDbEntity
  8
_0-3_躯体と製品
  6
CONTINUOUS
 62
     0
100
AcDbLine
 10
289
 20
507.7022333195
 11
288.5
 21
507.2022333195
  0
ARC
  5
4B4
100
AcDbEntity
  8
_0-3_躯体と製品
  6
CONTINUOUS
 62
     0
100
AcDbCircle
 10
285.8
 20
507.4022333195
 40
0.3
100
AcDbArc
 50
90
 51
180
  0
LINE
  5
4B5
100
AcDbEntity
  8
_0-3_躯体と製品
  6
CONTINUOUS
 62
     0
100
AcDbLine
 10
285.8
 20
507.7022333195
 11
287
 21
507.7022333195
  0
LINE
  5
4B6
100
AcDbEntity
  8
_0-3_躯体と製品
  6
CONTINUOUS
 62
     0
100
AcDbLine
 10
285.8
 20
503.7022333195
 11
287
 21
503.7022333195
  0
ARC
  5
4B7
100
AcDbEntity
  8
_0-3_躯体と製品
  6
CONTINUOUS
 62
     0
100
AcDbCircle
 10
285.8
 20
504.0022333195
 40
0.3
100
AcDbArc
 50
180
 51
270
  0
LINE
  5
4B8
100
AcDbEntity
  8
_0-3_躯体と製品
  6
CONTINUOUS
 62
     0
100
AcDbLine
 10
285.5
 20
504.0022333195
 11
285.5
 21
507.4022333195
  0
ARC
  5
4B9
100
AcDbEntity
  8
_0-3_躯体と製品
  6
CONTINUOUS
 62
     0
100
AcDbCircle
 10
287
 20
501.2022333195
 40
0.5
100
AcDbArc
 50
90
 51
180
  0
LINE
  5
4BA
100
AcDbEntity
  8
_0-3_躯体と製品
  6
CONTINUOUS
 62
     0
100
AcDbLine
 10
284
 20
501.7022333195
 11
284.5
 21
501.7022333195
  0
ARC
  5
4BB
100
AcDbEntity
  8
_0-3_躯体と製品
  6
CONTINUOUS
 62
     0
100
AcDbCircle
 10
287.5
 20
510.7022333195
 40
0.5
100
AcDbArc
 50
90
 51
180
  0
LINE
  5
4BC
100
AcDbEntity
  8
_0-3_躯体と製品
  6
CONTINUOUS
 62
     0
100
AcDbLine
 10
287
 20
510.7022333195
 11
287
 21
510.2022333195
  0
ARC
  5
4BD
100
AcDbEntity
  8
_0-3_躯体と製品
  6
CONTINUOUS
 62
     0
100
AcDbCircle
 10
287.5
 20
510.2022333195
 40
0.5
100
AcDbArc
 50
180
 51
270
  0
LINE
  5
4BE
100
AcDbEntity
  8
_0-3_躯体と製品
  6
CONTINUOUS
 62
     0
100
AcDbLine
 10
286.5
 20
504.2022333195
 11
287
 21
503.7022333195
  0
LINE
  5
4BF
100
AcDbEntity
  8
_0-3_躯体と製品
  6
CONTINUOUS
 62
     0
100
AcDbLine
 10
286.5
 20
507.2022333195
 11
287
 21
507.7022333195
  0
LINE
  5
4C0
100
AcDbEntity
  8
_0-3_躯体と製品
  6
CONTINUOUS
 62
     0
100
AcDbLine
 10
286.5
 20
507.2022333195
 11
286.5
 21
504.2022333195
  0
LINE
  5
4C1
100
AcDbEntity
  8
_0-3_躯体と製品
  6
CONTINUOUS
 62
     0
100
AcDbLine
 10
287
 20
507.7022333195
 11
287
 21
503.7022333195
  0
CIRCLE
  5
4C2
100
AcDbEntity
  8
_0-4_図枠
  6
CONTINUOUS
 62
     0
100
AcDbCircle
 10
293.1419097734
 20
506.4584627096
 40
0.9
  0
ARC
  5
4C3
100
AcDbEntity
  8
_0-3_躯体と製品
  6
CONTINUOUS
 62
     0
100
AcDbCircle
 10
294.4
 20
508.3022333195
 40
0.6
100
AcDbArc
 50
-90
 51
90
  0
ARC
  5
4C4
100
AcDbEntity
  8
_0-3_躯体と製品
  6
CONTINUOUS
 62
     0
100
AcDbCircle
 10
294.4
 20
503.1022333195
 40
0.6
100
AcDbArc
 50
-90
 51
90
  0
LINE
  5
4C5
100
AcDbEntity
  8
_0-3_躯体と製品
  6
CONTINUOUS
 62
     0
100
AcDbLine
 10
293
 20
508.9022333195
 11
294.4
 21
508.9022333195
  0
LINE
  5
4C6
100
AcDbEntity
  8
_0-3_躯体と製品
  6
CONTINUOUS
 62
     0
100
AcDbLine
 10
293.7
 20
502.5022333195
 11
294.4
 21
502.5022333195
  0
LINE
  5
4C7
100
AcDbEntity
  8
_0-3_躯体と製品
  6
CONTINUOUS
 62
     0
100
AcDbLine
 10
293
 20
509.7022333195
 11
293
 21
508.9022333195
  0
LINE
  5
4C8
100
AcDbEntity
  8
_0-3_躯体と製品
  6
CONTINUOUS
 62
     0
100
AcDbLine
 10
290
 20
503.7022333195
 11
289.5
 21
504.2022333195
  0
LINE
  5
4C9
100
AcDbEntity
  8
_0-3_躯体と製品
  6
CONTINUOUS
 62
     0
100
AcDbLine
 10
290.5
 20
504.2022333195
 11
290
 21
503.7022333195
  0
LINE
  5
4CA
100
AcDbEntity
  8
_0-3_躯体と製品
  6
CONTINUOUS
 62
     0
100
AcDbLine
 10
291
 20
503.7022333195
 11
290.5
 21
504.2022333195
  0
LINE
  5
4CB
100
AcDbEntity
  8
_0-3_躯体と製品
  6
CONTINUOUS
 62
     0
100
AcDbLine
 10
291.5
 20
504.2022333195
 11
291
 21
503.7022333195
  0
LINE
  5
4CC
100
AcDbEntity
  8
_0-3_躯体と製品
  6
CONTINUOUS
 62
     0
100
AcDbLine
 10
292
 20
503.7022333195
 11
291.5
 21
504.2022333195
  0
LINE
  5
4CD
100
AcDbEntity
  8
_0-3_躯体と製品
  6
CONTINUOUS
 62
     0
100
AcDbLine
 10
290
 20
507.7022333195
 11
289.5
 21
507.2022333195
  0
LINE
  5
4CE
100
AcDbEntity
  8
_0-3_躯体と製品
  6
CONTINUOUS
 62
     0
100
AcDbLine
 10
290.5
 20
507.2022333195
 11
290
 21
507.7022333195
  0
LINE
  5
4CF
100
AcDbEntity
  8
_0-3_躯体と製品
  6
CONTINUOUS
 62
     0
100
AcDbLine
 10
291
 20
507.7022333195
 11
290.5
 21
507.2022333195
  0
LINE
  5
4D0
100
AcDbEntity
  8
_0-3_躯体と製品
  6
CONTINUOUS
 62
     0
100
AcDbLine
 10
291.5
 20
507.2022333195
 11
291
 21
507.7022333195
  0
LINE
  5
4D1
100
AcDbEntity
  8
_0-3_躯体と製品
  6
CONTINUOUS
 62
     0
100
AcDbLine
 10
292
 20
507.7022333195
 11
291.5
 21
507.2022333195
  0
LINE
  5
4D2
100
AcDbEntity
  8
_0-3_躯体と製品
  6
CONTINUOUS
 62
     0
100
AcDbLine
 10
292
 20
503.7022333195
 11
294.5
 21
503.7022333195
  0
LINE
  5
4D3
100
AcDbEntity
  8
_0-3_躯体と製品
  6
CONTINUOUS
 62
     0
100
AcDbLine
 10
292
 20
507.7022333195
 11
294.5
 21
507.7022333195
  0
ARC
  5
4D4
100
AcDbEntity
  8
_0-3_躯体と製品
  6
CONTINUOUS
 62
     0
100
AcDbCircle
 10
292
 20
501.2022333195
 40
0.5
100
AcDbArc
 50
0
 51
90
  0
LINE
  5
4D5
100
AcDbEntity
  8
_0-3_躯体と製品
  6
CONTINUOUS
 62
     0
100
AcDbLine
 10
296.2
 20
505.7022333195
 11
296.5
 21
506.0022333195
  0
ARC
  5
4D6
100
AcDbEntity
  8
_0-3_躯体と製品
  6
CONTINUOUS
 62
     0
100
AcDbCircle
 10
295.5
 20
510.2022333195
 40
1
100
AcDbArc
 50
0
 51
90
  0
ARC
  5
4D7
100
AcDbEntity
  8
_0-3_躯体と製品
  6
CONTINUOUS
 62
     0
100
AcDbCircle
 10
294.5
 20
509.2022333195
 40
0.5
100
AcDbArc
 50
0
 51
90
  0
LINE
  5
4D8
100
AcDbEntity
  8
_0-3_躯体と製品
  6
CONTINUOUS
 62
     0
100
AcDbLine
 10
296.2
 20
505.7022333195
 11
296.5
 21
505.4022333195
  0
LINE
  5
4D9
100
AcDbEntity
  8
_0-3_躯体と製品
  6
CONTINUOUS
 62
     0
100
AcDbLine
 10
296.5
 20
510.2022333195
 11
296.5
 21
506.0022333195
  0
LINE
  5
4DA
100
AcDbEntity
  8
_0-3_躯体と製品
  6
CONTINUOUS
 62
     0
100
AcDbLine
 10
293.7
 20
501.5022333195
 11
294.500001
 21
501.5022333195
  0
LINE
  5
4DB
100
AcDbEntity
  8
_0-3_躯体と製品
  6
CONTINUOUS
 62
     0
100
AcDbLine
 10
293.7000001803
 20
501.291891032
 11
293.9103424678
 21
501.5022333195
  0
LINE
  5
4DC
100
AcDbEntity
  8
_0-3_躯体と製品
  6
CONTINUOUS
 62
     0
100
AcDbLine
 10
295
 20
507.7022333195
 11
292
 21
507.7022333195
  0
LINE
  5
4DD
100
AcDbEntity
  8
_0-3_躯体と製品
  6
CONTINUOUS
 62
     0
100
AcDbLine
 10
295
 20
503.7022333195
 11
292
 21
503.7022333195
  0
ARC
  5
4DE
100
AcDbEntity
  8
_0-3_躯体と製品
  6
CONTINUOUS
 62
     0
100
AcDbCircle
 10
297.5
 20
513.2022333195
 40
1
100
AcDbArc
 50
90
 51
180
  0
LINE
  5
4DF
100
AcDbEntity
  8
_0-3_躯体と製品
  6
CONTINUOUS
 62
     0
100
AcDbLine
 10
300.5
 20
507.154332773
 11
306.8102277387
 21
513.4645605117
  0
LINE
  5
4E0
100
AcDbEntity
  8
_0-3_躯体と製品
  6
CONTINUOUS
 62
     0
100
AcDbLine
 10
300.5
 20
509.9827598977
 11
304.7194734218
 21
514.2022333195
  0
LINE
  5
4E1
100
AcDbEntity
  8
_0-3_躯体と製品
  6
CONTINUOUS
 62
     0
100
AcDbLine
 10
300.5
 20
501.4974785235
 11
306.0015385672
 21
506.9990170907
  0
LINE
  5
4E2
100
AcDbEntity
  8
_0-3_躯体と製品
  6
CONTINUOUS
 62
     0
100
AcDbLine
 10
300.5
 20
504.3259056482
 11
306.1927673621
 21
510.0186730103
  0
ARC
  5
4E3
100
AcDbEntity
  8
_0-3_躯体と製品
  6
CONTINUOUS
 62
     0
100
AcDbCircle
 10
298.5657195747
 20
504.7817545961
 40
0.4204787234043
100
AcDbArc
 50
-14.09578924417
 51
90
  0
ARC
  5
4E4
100
AcDbEntity
  8
_0-3_躯体と製品
  6
CONTINUOUS
 62
     0
100
AcDbCircle
 10
298.5657195747
 20
506.6227120429
 40
0.4204787234043
100
AcDbArc
 50
-90
 51
14.09578924417
  0
LINE
  5
4E5
100
AcDbEntity
  8
_0-3_躯体と製品
  6
CONTINUOUS
 62
     0
100
AcDbLine
 10
298.5657195747
 20
506.2022333195
 11
298.5657195747
 21
505.2022333195
  0
ARC
  5
4E6
100
AcDbEntity
  8
_0-3_躯体と製品
  6
CONTINUOUS
 62
     0
100
AcDbCircle
 10
294.9
 20
505.7022333195
 40
4.2
100
AcDbArc
 50
-42.74124453868
 51
-14.09578924417
  0
ARC
  5
4E7
100
AcDbEntity
  8
_0-3_躯体と製品
  6
CONTINUOUS
 62
     0
100
AcDbCircle
 10
294.9
 20
505.7022333195
 40
4.2
100
AcDbArc
 50
14.09578924417
 51
42.74124453868
  0
LINE
  5
4E8
100
AcDbEntity
  8
_0-3_躯体と製品
  6
CONTINUOUS
 62
     0
100
AcDbLine
 10
300.5
 20
512.8111870224
 11
301.8910462971
 21
514.2022333195
  0
ARC
  5
4E9
100
AcDbEntity
  8
_0-3_躯体と製品
  6
CONTINUOUS
 62
     0
100
AcDbCircle
 10
299.5
 20
513.2022333195
 40
1
100
AcDbArc
 50
0
 51
90
  0
CIRCLE
  5
4EA
100
AcDbEntity
  8
_0-4_図枠
  6
CONTINUOUS
 62
     0
100
AcDbCircle
 10
338.6865555244
 20
522.0432285198
 40
6
  0
TEXT
  5
4EB
100
AcDbEntity
  8
_0-4_図枠
  6
CONTINUOUS
 62
     0
100
AcDbText
 10
327.7579643841
 20
532.2422917492
 40
5
  1
２
  7
STANDARD
100
AcDbText
  0
CIRCLE
  5
4EC
100
AcDbEntity
  8
_0-4_図枠
  6
CONTINUOUS
 62
     0
100
AcDbCircle
 10
330.7579643841
 20
535.2422917492
 40
6
  0
LINE
  5
4ED
100
AcDbEntity
  8
_0-3_躯体と製品
  6
CONTINUOUS
 62
     0
100
AcDbLine
 10
532
 20
395
 11
532
 21
265
  0
LINE
  5
4EE
100
AcDbEntity
  8
_0-4_図枠
  6
CONTINUOUS
 62
     0
100
AcDbLine
 10
857.5
 20
27
 11
857.5
 21
603
  0
TEXT
  5
4EF
100
AcDbEntity
  8
_0-4_図枠
  6
CONTINUOUS
 62
     0
100
AcDbText
 10
699.5
 20
255.6422987527
 40
5
  1
（単位：mm）
  7
STANDARD
100
AcDbText
  0
LINE
  5
4F0
100
AcDbEntity
  8
_0-4_図枠
  6
CONTINUOUS
 62
     0
100
AcDbLine
 10
740.5
 20
219
 11
515.5
 21
219
  0
LINE
  5
4F1
100
AcDbEntity
  8
_0-4_図枠
  6
CONTINUOUS
 62
     0
100
AcDbLine
 10
740.5
 20
237
 11
515.5
 21
237
  0
LINE
  5
4F2
100
AcDbEntity
  8
_0-4_図枠
  6
CONTINUOUS
 62
     0
100
AcDbLine
 10
740.5
 20
255
 11
515.5
 21
255
  0
LINE
  5
4F3
100
AcDbEntity
  8
_0-4_図枠
  6
CONTINUOUS
 62
     0
100
AcDbLine
 10
740.5
 20
246
 11
515.5
 21
246
  0
LINE
  5
4F4
100
AcDbEntity
  8
_0-4_図枠
  6
CONTINUOUS
 62
     0
100
AcDbLine
 10
740.5
 20
228
 11
515.5
 21
228
  0
LINE
  5
4F5
100
AcDbEntity
  8
_0-4_図枠
  6
CONTINUOUS
 62
     0
100
AcDbLine
 10
740.5
 20
210
 11
515.5
 21
210
  0
LINE
  5
4F6
100
AcDbEntity
  8
_0-4_図枠
  6
CONTINUOUS
 62
     0
100
AcDbLine
 10
740.5
 20
201
 11
515.5
 21
201
  0
LINE
  5
4F7
100
AcDbEntity
  8
_0-4_図枠
  6
CONTINUOUS
 62
     0
100
AcDbLine
 10
740.5
 20
192
 11
515.5
 21
192
  0
LINE
  5
4F8
100
AcDbEntity
  8
_0-4_図枠
  6
CONTINUOUS
 62
     0
100
AcDbLine
 10
740.5
 20
183
 11
515.5
 21
183
  0
LINE
  5
4F9
100
AcDbEntity
  8
_0-4_図枠
  6
CONTINUOUS
 62
     0
100
AcDbLine
 10
740.5
 20
174
 11
515.5
 21
174
  0
LINE
  5
4FA
100
AcDbEntity
  8
_0-4_図枠
  6
CONTINUOUS
 62
     0
100
AcDbLine
 10
740.5
 20
165
 11
515.5
 21
165
  0
LINE
  5
4FB
100
AcDbEntity
  8
_0-4_図枠
  6
CONTINUOUS
 62
     0
100
AcDbLine
 10
740.5
 20
156
 11
515.5
 21
156
  0
LINE
  5
4FC
100
AcDbEntity
  8
_0-4_図枠
  6
CONTINUOUS
 62
     0
100
AcDbLine
 10
515.5
 20
255
 11
515.5
 21
156
  0
TEXT
  5
4FD
100
AcDbEntity
  8
_0-4_図枠
  6
CONTINUOUS
 62
     0
100
AcDbText
 10
485.5
 20
220.5
 40
5
  1
〃
  7
STANDARD
100
AcDbText
  0
TEXT
  5
4FE
100
AcDbEntity
  8
_0-4_図枠
  6
CONTINUOUS
 62
     0
100
AcDbText
 10
469.25
 20
220.5
 40
5
  1
 1
  7
STANDARD
100
AcDbText
  0
TEXT
  5
4FF
100
AcDbEntity
  8
_0-4_図枠
  6
CONTINUOUS
 62
     0
100
AcDbText
 10
469.25
 20
211.5
 40
5
  1
 1
  7
STANDARD
100
AcDbText
  0
TEXT
  5
500
100
AcDbEntity
  8
_0-4_図枠
  6
CONTINUOUS
 62
     0
100
AcDbText
 10
485.5
 20
211.5
 40
5
  1
〃
  7
STANDARD
100
AcDbText
  0
TEXT
  5
501
100
AcDbEntity
  8
_0-4_図枠
  6
CONTINUOUS
 62
     0
100
AcDbText
 10
469.25
 20
229.5
 40
5
  1
 1
  7
STANDARD
100
AcDbText
  0
TEXT
  5
502
100
AcDbEntity
  8
_0-4_図枠
  6
CONTINUOUS
 62
     0
100
AcDbText
 10
469.25
 20
238.5
 40
5
  1
 1
  7
STANDARD
100
AcDbText
  0
TEXT
  5
503
100
AcDbEntity
  8
_0-4_図枠
  6
CONTINUOUS
 62
     0
100
AcDbText
 10
466
 20
247.5
 40
5
  1
入数
  7
STANDARD
100
AcDbText
  0
TEXT
  5
504
100
AcDbEntity
  8
_0-4_図枠
  6
CONTINUOUS
 62
     0
100
AcDbText
 10
485.5
 20
229.5
 40
5
  1
〃
  7
STANDARD
100
AcDbText
  0
TEXT
  5
505
100
AcDbEntity
  8
_0-4_図枠
  6
CONTINUOUS
 62
     0
100
AcDbText
 10
485.5
 20
238.5
 40
5
  1
本
  7
STANDARD
100
AcDbText
  0
TEXT
  5
506
100
AcDbEntity
  8
_0-4_図枠
  6
CONTINUOUS
 62
     0
100
AcDbText
 10
482
 20
247.5
 40
5
  1
単位
  7
STANDARD
100
AcDbText
  0
TEXT
  5
507
100
AcDbEntity
  8
_0-4_図枠
  6
CONTINUOUS
 62
     0
100
AcDbText
 10
536
 20
247.5
 40
5
  1
タ　イ　プ
  7
STANDARD
100
AcDbText
  0
TEXT
  5
508
100
AcDbEntity
  8
_0-4_図枠
  6
CONTINUOUS
 62
     0
100
AcDbText
 10
660.5
 20
220.5
 40
5
  1
150
  7
STANDARD
100
AcDbText
  0
TEXT
  5
509
100
AcDbEntity
  8
_0-4_図枠
  6
CONTINUOUS
 62
     0
100
AcDbText
 10
692.25
 20
220.5
 40
5
  1
61
  7
STANDARD
100
AcDbText
  0
LINE
  5
50A
100
AcDbEntity
  8
_0-4_図枠
  6
CONTINUOUS
 62
     0
100
AcDbLine
 10
650.5
 20
255
 11
650.5
 21
156
  0
LINE
  5
50B
100
AcDbEntity
  8
_0-4_図枠
  6
CONTINUOUS
 62
     0
100
AcDbLine
 10
680.5
 20
255
 11
680.5
 21
156
  0
LINE
  5
50C
100
AcDbEntity
  8
_0-4_図枠
  6
CONTINUOUS
 62
     0
100
AcDbLine
 10
590.5
 20
255
 11
590.5
 21
156
  0
LINE
  5
50D
100
AcDbEntity
  8
_0-4_図枠
  6
CONTINUOUS
 62
     0
100
AcDbLine
 10
620.5
 20
255
 11
620.5
 21
156
  0
TEXT
  5
50E
100
AcDbEntity
  8
_0-4_図枠
  6
CONTINUOUS
 62
     0
100
AcDbText
 10
630.5
 20
220.5
 40
5
  1
335
  7
STANDARD
100
AcDbText
  0
TEXT
  5
50F
100
AcDbEntity
  8
_0-4_図枠
  6
CONTINUOUS
 62
     0
100
AcDbText
 10
600.5
 20
220.5
 40
5
  1
350
  7
STANDARD
100
AcDbText
  0
TEXT
  5
510
100
AcDbEntity
  8
_0-4_図枠
  6
CONTINUOUS
 62
     0
100
AcDbText
 10
630.5
 20
166.5
 40
5
  1
485
  7
STANDARD
100
AcDbText
  0
TEXT
  5
511
100
AcDbEntity
  8
_0-4_図枠
  6
CONTINUOUS
 62
     0
100
AcDbText
 10
630.5
 20
175.5
 40
5
  1
460
  7
STANDARD
100
AcDbText
  0
TEXT
  5
512
100
AcDbEntity
  8
_0-4_図枠
  6
CONTINUOUS
 62
     0
100
AcDbText
 10
630.5
 20
184.5
 40
5
  1
435
  7
STANDARD
100
AcDbText
  0
TEXT
  5
513
100
AcDbEntity
  8
_0-4_図枠
  6
CONTINUOUS
 62
     0
100
AcDbText
 10
630.5
 20
202.5
 40
5
  1
385
  7
STANDARD
100
AcDbText
  0
TEXT
  5
514
100
AcDbEntity
  8
_0-4_図枠
  6
CONTINUOUS
 62
     0
100
AcDbText
 10
630.5
 20
211.5
 40
5
  1
360
  7
STANDARD
100
AcDbText
  0
TEXT
  5
515
100
AcDbEntity
  8
_0-4_図枠
  6
CONTINUOUS
 62
     0
100
AcDbText
 10
600.5
 20
175.5
 40
5
  1
475
  7
STANDARD
100
AcDbText
  0
TEXT
  5
516
100
AcDbEntity
  8
_0-4_図枠
  6
CONTINUOUS
 62
     0
100
AcDbText
 10
600.5
 20
157.5
 40
5
  1
525
  7
STANDARD
100
AcDbText
  0
TEXT
  5
517
100
AcDbEntity
  8
_0-4_図枠
  6
CONTINUOUS
 62
     0
100
AcDbText
 10
600.5
 20
166.5
 40
5
  1
500
  7
STANDARD
100
AcDbText
  0
TEXT
  5
518
100
AcDbEntity
  8
_0-4_図枠
  6
CONTINUOUS
 62
     0
100
AcDbText
 10
630.5
 20
157.5
 40
5
  1
510
  7
STANDARD
100
AcDbText
  0
TEXT
  5
519
100
AcDbEntity
  8
_0-4_図枠
  6
CONTINUOUS
 62
     0
100
AcDbText
 10
600.5
 20
184.5
 40
5
  1
450
  7
STANDARD
100
AcDbText
  0
TEXT
  5
51A
100
AcDbEntity
  8
_0-4_図枠
  6
CONTINUOUS
 62
     0
100
AcDbText
 10
600.5
 20
193.5
 40
5
  1
425
  7
STANDARD
100
AcDbText
  0
TEXT
  5
51B
100
AcDbEntity
  8
_0-4_図枠
  6
CONTINUOUS
 62
     0
100
AcDbText
 10
600.5
 20
202.5
 40
5
  1
400
  7
STANDARD
100
AcDbText
  0
TEXT
  5
51C
100
AcDbEntity
  8
_0-4_図枠
  6
CONTINUOUS
 62
     0
100
AcDbText
 10
600.5
 20
211.5
 40
5
  1
375
  7
STANDARD
100
AcDbText
  0
TEXT
  5
51D
100
AcDbEntity
  8
_0-4_図枠
  6
CONTINUOUS
 62
     0
100
AcDbText
 10
630.5
 20
193.5
 40
5
  1
410
  7
STANDARD
100
AcDbText
  0
TEXT
  5
51E
100
AcDbEntity
  8
_0-4_図枠
  6
CONTINUOUS
 62
     0
100
AcDbText
 10
660.5
 20
175.5
 40
5
  1
275
  7
STANDARD
100
AcDbText
  0
TEXT
  5
51F
100
AcDbEntity
  8
_0-4_図枠
  6
CONTINUOUS
 62
     0
100
AcDbText
 10
692.25
 20
175.5
 40
5
  1
67
  7
STANDARD
100
AcDbText
  0
TEXT
  5
520
100
AcDbEntity
  8
_0-4_図枠
  6
CONTINUOUS
 62
     0
100
AcDbText
 10
660.5
 20
157.5
 40
5
  1
325
  7
STANDARD
100
AcDbText
  0
TEXT
  5
521
100
AcDbEntity
  8
_0-4_図枠
  6
CONTINUOUS
 62
     0
100
AcDbText
 10
660.5
 20
166.5
 40
5
  1
300
  7
STANDARD
100
AcDbText
  0
TEXT
  5
522
100
AcDbEntity
  8
_0-4_図枠
  6
CONTINUOUS
 62
     0
100
AcDbText
 10
692.25
 20
157.5
 40
5
  1
70
  7
STANDARD
100
AcDbText
  0
TEXT
  5
523
100
AcDbEntity
  8
_0-4_図枠
  6
CONTINUOUS
 62
     0
100
AcDbText
 10
692.25
 20
166.5
 40
5
  1
68
  7
STANDARD
100
AcDbText
  0
TEXT
  5
524
100
AcDbEntity
  8
_0-4_図枠
  6
CONTINUOUS
 62
     0
100
AcDbText
 10
660.5
 20
184.5
 40
5
  1
250
  7
STANDARD
100
AcDbText
  0
TEXT
  5
525
100
AcDbEntity
  8
_0-4_図枠
  6
CONTINUOUS
 62
     0
100
AcDbText
 10
660.5
 20
193.5
 40
5
  1
225
  7
STANDARD
100
AcDbText
  0
TEXT
  5
526
100
AcDbEntity
  8
_0-4_図枠
  6
CONTINUOUS
 62
     0
100
AcDbText
 10
660.5
 20
202.5
 40
5
  1
200
  7
STANDARD
100
AcDbText
  0
TEXT
  5
527
100
AcDbEntity
  8
_0-4_図枠
  6
CONTINUOUS
 62
     0
100
AcDbText
 10
660.5
 20
211.5
 40
5
  1
175
  7
STANDARD
100
AcDbText
  0
TEXT
  5
528
100
AcDbEntity
  8
_0-4_図枠
  6
CONTINUOUS
 62
     0
100
AcDbText
 10
692.25
 20
184.5
 40
5
  1
66
  7
STANDARD
100
AcDbText
  0
TEXT
  5
529
100
AcDbEntity
  8
_0-4_図枠
  6
CONTINUOUS
 62
     0
100
AcDbText
 10
692.25
 20
193.5
 40
5
  1
64
  7
STANDARD
100
AcDbText
  0
TEXT
  5
52A
100
AcDbEntity
  8
_0-4_図枠
  6
CONTINUOUS
 62
     0
100
AcDbText
 10
692.25
 20
202.5
 40
5
  1
63
  7
STANDARD
100
AcDbText
  0
TEXT
  5
52B
100
AcDbEntity
  8
_0-4_図枠
  6
CONTINUOUS
 62
     0
100
AcDbText
 10
692.25
 20
211.5
 40
5
  1
62
  7
STANDARD
100
AcDbText
  0
TEXT
  5
52C
100
AcDbEntity
  8
_0-4_図枠
  6
CONTINUOUS
 62
     0
100
AcDbText
 10
630.5
 20
238.5
 40
5
  1
285
  7
STANDARD
100
AcDbText
  0
TEXT
  5
52D
100
AcDbEntity
  8
_0-4_図枠
  6
CONTINUOUS
 62
     0
100
AcDbText
 10
600.5
 20
229.5
 40
5
  1
325
  7
STANDARD
100
AcDbText
  0
TEXT
  5
52E
100
AcDbEntity
  8
_0-4_図枠
  6
CONTINUOUS
 62
     0
100
AcDbText
 10
600.5
 20
238.5
 40
5
  1
300
  7
STANDARD
100
AcDbText
  0
TEXT
  5
52F
100
AcDbEntity
  8
_0-4_図枠
  6
CONTINUOUS
 62
     0
100
AcDbText
 10
602.5
 20
247.5
 40
5
  1
Ｗ
  7
STANDARD
100
AcDbText
  0
TEXT
  5
530
100
AcDbEntity
  8
_0-4_図枠
  6
CONTINUOUS
 62
     0
100
AcDbText
 10
630.5
 20
229.5
 40
5
  1
310
  7
STANDARD
100
AcDbText
  0
TEXT
  5
531
100
AcDbEntity
  8
_0-4_図枠
  6
CONTINUOUS
 62
     0
100
AcDbText
 10
632.5
 20
247.5
 40
5
  1
Ａ
  7
STANDARD
100
AcDbText
  0
TEXT
  5
532
100
AcDbEntity
  8
_0-4_図枠
  6
CONTINUOUS
 62
     0
100
AcDbText
 10
660.5
 20
229.5
 40
5
  1
125
  7
STANDARD
100
AcDbText
  0
TEXT
  5
533
100
AcDbEntity
  8
_0-4_図枠
  6
CONTINUOUS
 62
     0
100
AcDbText
 10
660.5
 20
238.5
 40
5
  1
100
  7
STANDARD
100
AcDbText
  0
TEXT
  5
534
100
AcDbEntity
  8
_0-4_図枠
  6
CONTINUOUS
 62
     0
100
AcDbText
 10
662.5
 20
247.5
 40
5
  1
Ｃ
  7
STANDARD
100
AcDbText
  0
TEXT
  5
535
100
AcDbEntity
  8
_0-4_図枠
  6
CONTINUOUS
 62
     0
100
AcDbText
 10
692.25
 20
229.5
 40
5
  1
59
  7
STANDARD
100
AcDbText
  0
TEXT
  5
536
100
AcDbEntity
  8
_0-4_図枠
  6
CONTINUOUS
 62
     0
100
AcDbText
 10
692.25
 20
238.5
 40
5
  1
58
  7
STANDARD
100
AcDbText
  0
TEXT
  5
537
100
AcDbEntity
  8
_0-4_図枠
  6
CONTINUOUS
 62
     0
100
AcDbText
 10
692.5
 20
247.5
 40
5
  1
Ｄ
  7
STANDARD
100
AcDbText
  0
TEXT
  5
538
100
AcDbEntity
  8
_0-4_図枠
  6
CONTINUOUS
 62
     0
100
AcDbText
 10
720.5
 20
220.5
 40
5
  1
119
  7
STANDARD
100
AcDbText
  0
LINE
  5
539
100
AcDbEntity
  8
_0-4_図枠
  6
CONTINUOUS
 62
     0
100
AcDbLine
 10
740.5
 20
255
 11
740.5
 21
156
  0
LINE
  5
53A
100
AcDbEntity
  8
_0-4_図枠
  6
CONTINUOUS
 62
     0
100
AcDbLine
 10
710.5
 20
255
 11
710.5
 21
156
  0
TEXT
  5
53B
100
AcDbEntity
  8
_0-4_図枠
  6
CONTINUOUS
 62
     0
100
AcDbText
 10
720.5
 20
175.5
 40
5
  1
126
  7
STANDARD
100
AcDbText
  0
TEXT
  5
53C
100
AcDbEntity
  8
_0-4_図枠
  6
CONTINUOUS
 62
     0
100
AcDbText
 10
720.5
 20
166.5
 40
5
  1
127
  7
STANDARD
100
AcDbText
  0
TEXT
  5
53D
100
AcDbEntity
  8
_0-4_図枠
  6
CONTINUOUS
 62
     0
100
AcDbText
 10
720.5
 20
157.5
 40
5
  1
128
  7
STANDARD
100
AcDbText
  0
TEXT
  5
53E
100
AcDbEntity
  8
_0-4_図枠
  6
CONTINUOUS
 62
     0
100
AcDbText
 10
720.5
 20
193.5
 40
5
  1
123
  7
STANDARD
100
AcDbText
  0
TEXT
  5
53F
100
AcDbEntity
  8
_0-4_図枠
  6
CONTINUOUS
 62
     0
100
AcDbText
 10
720.5
 20
184.5
 40
5
  1
124
  7
STANDARD
100
AcDbText
  0
TEXT
  5
540
100
AcDbEntity
  8
_0-4_図枠
  6
CONTINUOUS
 62
     0
100
AcDbText
 10
720.5
 20
211.5
 40
5
  1
121
  7
STANDARD
100
AcDbText
  0
TEXT
  5
541
100
AcDbEntity
  8
_0-4_図枠
  6
CONTINUOUS
 62
     0
100
AcDbText
 10
720.5
 20
202.5
 40
5
  1
122
  7
STANDARD
100
AcDbText
  0
TEXT
  5
542
100
AcDbEntity
  8
_0-4_図枠
  6
CONTINUOUS
 62
     0
100
AcDbText
 10
720.5
 20
238.5
 40
5
  1
117
  7
STANDARD
100
AcDbText
  0
TEXT
  5
543
100
AcDbEntity
  8
_0-4_図枠
  6
CONTINUOUS
 62
     0
100
AcDbText
 10
720.5
 20
229.5
 40
5
  1
118
  7
STANDARD
100
AcDbText
  0
TEXT
  5
544
100
AcDbEntity
  8
_0-4_図枠
  6
CONTINUOUS
 62
     0
100
AcDbText
 10
722.5
 20
247.5
 40
5
  1
Ｅ
  7
STANDARD
100
AcDbText
  0
LINE
  5
545
100
AcDbEntity
  8
_0-3_躯体と製品
  6
CONTINUOUS
 62
     0
100
AcDbLine
 10
577.795803398
 20
439.9364888507
 11
575.9797867043
 21
441.7525055443
  0
LINE
  5
546
100
AcDbEntity
  8
_0-3_躯体と製品
  6
CONTINUOUS
 62
     0
100
AcDbLine
 10
572.4757074455
 20
414.6803084422
 11
577.4688551193
 21
414.418628661
  0
LINE
  5
547
100
AcDbEntity
  8
_0-3_躯体と製品
  6
CONTINUOUS
 62
     0
100
AcDbLine
 10
549.1649212475
 20
418.9060920181
 11
577.625862988
 21
417.4145172652
  0
LINE
  5
548
100
AcDbEntity
  8
_0-3_躯体と製品
  6
CONTINUOUS
 62
     0
100
AcDbLine
 10
578.7772540253
 20
439.3843670298
 11
563.797811004
 21
440.1694063735
  0
LINE
  5
549
100
AcDbEntity
  8
_0-3_躯体と製品
  6
CONTINUOUS
 62
     0
100
AcDbLine
 10
577.5602915949
 20
435.4426559443
 11
573.333273584
 21
439.6696739552
  0
LINE
  5
54A
100
AcDbEntity
  8
_0-3_躯体と製品
  6
CONTINUOUS
 62
     0
100
AcDbLine
 10
578.5907874915
 20
435.82637361
 11
574.8257020057
 21
439.5914590959
  0
LINE
  5
54B
100
AcDbEntity
  8
_0-3_躯体と製品
  6
CONTINUOUS
 62
     0
100
AcDbLine
 10
578.6612124672
 20
437.1701621967
 11
576.3181304273
 21
439.5132442366
  0
LINE
  5
54C
100
AcDbEntity
  8
_0-3_躯体と製品
  6
CONTINUOUS
 62
     0
100
AcDbLine
 10
484.2397582713
 20
411.2011932252
 11
483.9671752847
 21
406
  0
LINE
  5
54D
100
AcDbEntity
  8
_0-3_躯体と製品
  6
CONTINUOUS
 62
     0
100
AcDbLine
 10
479.3834228438
 20
411.4557029804
 11
479.0975015661
 21
406
  0
LINE
  5
54E
100
AcDbEntity
  8
_0-4_図枠
  6
CONTINUOUS
 62
     0
100
AcDbLine
 10
492.1774827281
 20
410.4886149116
 11
503.9591688599
 21
390.0821359326
  0
LINE
  5
54F
100
AcDbEntity
  8
_0-3_躯体と製品
  6
CONTINUOUS
 62
     0
100
AcDbLine
 10
483.7246398617
 20
447.8316033668
 11
481.3719685251
 21
402.9399600108
  0
LINE
  5
550
100
AcDbEntity
  8
_0-3_躯体と製品
  6
CONTINUOUS
 62
     0
100
AcDbLine
 10
482
 20
419.9235144279
 11
482
 21
331.4720677405
  0
LINE
  5
551
100
AcDbEntity
  8
_0-3_躯体と製品
  6
CONTINUOUS
 62
     0
100
AcDbLine
 10
498.5
 20
407.5
 11
498.5
 21
415
  0
LINE
  5
552
100
AcDbEntity
  8
_0-3_躯体と製品
  6
CONTINUOUS
 62
     0
100
AcDbLine
 10
471
 20
413.2870617369
 11
471
 21
406
  0
LINE
  5
553
100
AcDbEntity
  8
_0-3_躯体と製品
  6
CONTINUOUS
 62
     0
100
AcDbLine
 10
472.6
 20
413.2870617369
 11
472.6
 21
406
  0
LINE
  5
554
100
AcDbEntity
  8
_0-3_躯体と製品
  6
CONTINUOUS
 62
     0
100
AcDbLine
 10
491.4
 20
412.3542032657
 11
491.4
 21
406
  0
LINE
  5
555
100
AcDbEntity
  8
_0-3_躯体と製品
  6
CONTINUOUS
 62
     0
100
AcDbLine
 10
493
 20
412.3542032657
 11
493
 21
406
  0
LINE
  5
556
100
AcDbEntity
  8
_0-3_躯体と製品
  6
CONTINUOUS
 62
     0
100
AcDbLine
 10
478.8157019533
 20
411.4854559715
 11
478.5519685084
 21
406.4531220603
  0
LINE
  5
557
100
AcDbEntity
  8
_0-3_躯体と製品
  6
CONTINUOUS
 62
     0
100
AcDbLine
 10
484.8074791618
 20
411.171440234
 11
484.5437457169
 21
406.1391063229
  0
CIRCLE
  5
558
100
AcDbEntity
  8
_0-4_図枠
  6
CONTINUOUS
 62
     0
100
AcDbCircle
 10
505.7597964936
 20
369.4600133715
 40
6
  0
CIRCLE
  5
559
100
AcDbEntity
  8
_0-4_図枠
  6
CONTINUOUS
 62
     0
100
AcDbCircle
 10
506.9591688599
 20
384.8859835099
 40
6
  0
LINE
  5
55A
100
AcDbEntity
  8
_0-4_図枠
  6
CONTINUOUS
 62
     0
100
AcDbLine
 10
479.873989024
 20
369.9173386019
 11
469.8323748293
 21
352.5247526265
  0
LINE
  5
55B
100
AcDbEntity
  8
_0-3_躯体と製品
  6
CONTINUOUS
 62
     0
100
AcDbLine
 10
475.37497
 20
357.738004
 11
477.25
 21
368.371826
  0
LINE
  5
55C
100
AcDbEntity
  8
_0-3_躯体と製品
  6
CONTINUOUS
 62
     0
100
AcDbLine
 10
481.5
 20
368
 11
479.560403
 21
357
  0
LINE
  5
55D
100
AcDbEntity
  8
_0-3_躯体と製品
  6
CONTINUOUS
 62
     0
100
AcDbLine
 10
482.5
 20
368
 11
484.439597
 21
357
  0
LINE
  5
55E
100
AcDbEntity
  8
_0-3_躯体と製品
  6
CONTINUOUS
 62
     0
100
AcDbLine
 10
488.62503
 20
357.738004
 11
486.75
 21
368.371826
  0
LINE
  5
55F
100
AcDbEntity
  8
_0-3_躯体と製品
  6
CONTINUOUS
 62
     0
100
AcDbLine
 10
475.37497
 20
357.738004
 11
479.560403
 21
357
  0
ARC
  5
560
100
AcDbEntity
  8
_0-3_躯体と製品
  6
CONTINUOUS
 62
     0
100
AcDbCircle
 10
478.5
 20
356.5
 40
1
100
AcDbArc
 50
180
 51
270
  0
CIRCLE
  5
561
100
AcDbEntity
  8
_0-4_図枠
  6
CONTINUOUS
 62
     0
100
AcDbCircle
 10
466.8323748293
 20
347.3286002038
 40
6
  0
LINE
  5
562
100
AcDbEntity
  8
_0-3_躯体と製品
  6
CONTINUOUS
 62
     0
100
AcDbLine
 10
477.5
 20
356.5
 11
477.5
 21
357.363304
  0
ARC
  5
563
100
AcDbEntity
  8
_0-3_躯体と製品
  6
CONTINUOUS
 62
     0
100
AcDbCircle
 10
485.5
 20
356.5
 40
1
100
AcDbArc
 50
-90
 51
0
  0
LINE
  5
564
100
AcDbEntity
  8
_0-3_躯体と製品
  6
CONTINUOUS
 62
     0
100
AcDbLine
 10
488.62503
 20
357.738004
 11
484.439597
 21
357
  0
LINE
  5
565
100
AcDbEntity
  8
_0-3_躯体と製品
  6
CONTINUOUS
 62
     0
100
AcDbLine
 10
485.5
 20
355.5
 11
478.5
 21
355.5
  0
LINE
  5
566
100
AcDbEntity
  8
_0-3_躯体と製品
  6
CONTINUOUS
 62
     0
100
AcDbLine
 10
486.5
 20
356.5
 11
486.5
 21
357.363304
  0
LINE
  5
567
100
AcDbEntity
  8
_0-3_躯体と製品
  6
CONTINUOUS
 62
     0
100
AcDbLine
 10
477.1
 20
406
 11
486.9
 21
406
  0
ARC
  5
568
100
AcDbEntity
  8
_0-3_躯体と製品
  6
CONTINUOUS
 62
     0
100
AcDbCircle
 10
477.6698729811
 20
403.3864422247
 40
2.555822748428
100
AcDbArc
 50
55.61575253204
 51
124.384247468
  0
LINE
  5
569
100
AcDbEntity
  8
_0-3_躯体と製品
  6
CONTINUOUS
 62
     0
100
AcDbLine
 10
473
 20
401
 11
491
 21
401
  0
LINE
  5
56A
100
AcDbEntity
  8
_0-3_躯体と製品
  6
CONTINUOUS
 62
     0
100
AcDbLine
 10
497
 20
397
 11
467
 21
397
  0
LINE
  5
56B
100
AcDbEntity
  8
_0-3_躯体と製品
  6
CONTINUOUS
 62
     0
100
AcDbLine
 10
467
 20
396
 11
497
 21
396
  0
LINE
  5
56C
100
AcDbEntity
  8
_0-3_躯体と製品
  6
CONTINUOUS
 62
     0
100
AcDbLine
 10
497
 20
395
 11
467
 21
395
  0
LINE
  5
56D
100
AcDbEntity
  8
_0-3_躯体と製品
  6
CONTINUOUS
 62
     0
100
AcDbLine
 10
477.7396860273
 20
395
 11
478.7396860273
 21
396
  0
LINE
  5
56E
100
AcDbEntity
  8
_0-3_躯体と製品
  6
CONTINUOUS
 62
     0
100
AcDbLine
 10
477.25
 20
387
 11
486.75
 21
387
  0
LINE
  5
56F
100
AcDbEntity
  8
_0-3_躯体と製品
  6
CONTINUOUS
 62
     0
100
AcDbLine
 10
477.95
 20
387.7
 11
486.05
 21
387.7
  0
LINE
  5
570
100
AcDbEntity
  8
_0-3_躯体と製品
  6
CONTINUOUS
 62
     0
100
AcDbLine
 10
477
 20
397
 11
487
 21
397
  0
LINE
  5
571
100
AcDbEntity
  8
_0-3_躯体と製品
  6
CONTINUOUS
 62
     0
100
AcDbLine
 10
465.8
 20
399.5
 11
481.5
 21
399.5
  0
LINE
  5
572
100
AcDbEntity
  8
_0-4_図枠
  6
CONTINUOUS
 62
     0
100
AcDbLine
 10
474.878248247
 20
400.2361569326
 11
465.1809946151
 21
383.4400209483
  0
LINE
  5
573
100
AcDbEntity
  8
_0-3_躯体と製品
  6
CONTINUOUS
 62
     0
100
AcDbLine
 10
477.25
 20
368.371826
 11
477.25
 21
387
  0
CIRCLE
  5
574
100
AcDbEntity
  8
_0-4_図枠
  6
CONTINUOUS
 62
     0
100
AcDbCircle
 10
462.1809946151
 20
378.2438685256
 40
6
  0
ARC
  5
575
100
AcDbEntity
  8
_0-3_躯体と製品
  6
CONTINUOUS
 62
     0
100
AcDbCircle
 10
461
 20
405.25
 40
9.25
100
AcDbArc
 50
-90
 51
-71.07535558395
  0
ARC
  5
576
100
AcDbEntity
  8
_0-3_躯体と製品
  6
CONTINUOUS
 62
     0
100
AcDbCircle
 10
461
 20
405.25
 40
10.25
100
AcDbArc
 50
-90
 51
-71.07535558395
  0
LINE
  5
577
100
AcDbEntity
  8
_0-3_躯体と製品
  6
CONTINUOUS
 62
     0
100
AcDbLine
 10
477.95
 20
397
 11
477.95
 21
387.7
  0
LINE
  5
578
100
AcDbEntity
  8
_0-3_躯体と製品
  6
CONTINUOUS
 62
     0
100
AcDbLine
 10
469.2544046531
 20
395
 11
470.2544046531
 21
396
  0
ARC
  5
579
100
AcDbEntity
  8
_0-3_躯体と製品
  6
CONTINUOUS
 62
     0
100
AcDbCircle
 10
467
 20
387.75
 40
8.25
100
AcDbArc
 50
90
 51
108.9246444161
  0
LINE
  5
57A
100
AcDbEntity
  8
_0-3_躯体と製品
  6
CONTINUOUS
 62
     0
100
AcDbLine
 10
467
 20
395
 11
467
 21
396
  0
LINE
  5
57B
100
AcDbEntity
  8
_0-3_躯体と製品
  6
CONTINUOUS
 62
     0
100
AcDbLine
 10
467.8401910907
 20
395
 11
468.8401910907
 21
396
  0
LINE
  5
57C
100
AcDbEntity
  8
_0-3_躯体と製品
  6
CONTINUOUS
 62
     0
100
AcDbLine
 10
467
 20
395.5740224717
 11
467.4259775283
 21
396
  0
LINE
  5
57D
100
AcDbEntity
  8
_0-3_躯体と製品
  6
CONTINUOUS
 62
     0
100
AcDbLine
 10
476.3254724649
 20
395
 11
477.3254724649
 21
396
  0
LINE
  5
57E
100
AcDbEntity
  8
_0-3_躯体と製品
  6
CONTINUOUS
 62
     0
100
AcDbLine
 10
474.9112589025
 20
395
 11
475.9112589025
 21
396
  0
LINE
  5
57F
100
AcDbEntity
  8
_0-3_躯体と製品
  6
CONTINUOUS
 62
     0
100
AcDbLine
 10
473.4970453402
 20
395
 11
474.4970453402
 21
396
  0
LINE
  5
580
100
AcDbEntity
  8
_0-3_躯体と製品
  6
CONTINUOUS
 62
     0
100
AcDbLine
 10
472.0828317778
 20
395
 11
473.0828317778
 21
396
  0
LINE
  5
581
100
AcDbEntity
  8
_0-3_躯体と製品
  6
CONTINUOUS
 62
     0
100
AcDbLine
 10
470.6686182154
 20
395
 11
471.6686182154
 21
396
  0
LINE
  5
582
100
AcDbEntity
  8
_0-3_躯体と製品
  6
CONTINUOUS
 62
     0
100
AcDbLine
 10
477.25
 20
387
 11
477.95
 21
387.7
  0
LINE
  5
583
100
AcDbEntity
  8
_0-3_躯体と製品
  6
CONTINUOUS
 62
     0
100
AcDbLine
 10
465.5
 20
397.5
 11
477
 21
397.5
  0
LINE
  5
584
100
AcDbEntity
  8
_0-3_躯体と製品
  6
CONTINUOUS
 62
     0
100
AcDbLine
 10
466
 20
403.9
 11
470.5
 21
403.9
  0
LINE
  5
585
100
AcDbEntity
  8
_0-3_躯体と製品
  6
CONTINUOUS
 62
     0
100
AcDbLine
 10
466
 20
405.5
 11
470.5
 21
405.5
  0
LINE
  5
586
100
AcDbEntity
  8
_0-3_躯体と製品
  6
CONTINUOUS
 62
     0
100
AcDbLine
 10
464
 20
397
 11
465.5
 21
397
  0
LINE
  5
587
100
AcDbEntity
  8
_0-3_躯体と製品
  6
CONTINUOUS
 62
     0
100
AcDbLine
 10
465.5
 20
397
 11
465.5
 21
397.5
  0
ARC
  5
588
100
AcDbEntity
  8
_0-3_躯体と製品
  6
CONTINUOUS
 62
     0
100
AcDbCircle
 10
468.75
 20
406.25
 40
0.75
100
AcDbArc
 50
-90
 51
90
  0
ARC
  5
589
100
AcDbEntity
  8
_0-3_躯体と製品
  6
CONTINUOUS
 62
     0
100
AcDbCircle
 10
467.75
 20
402.25
 40
0.75
100
AcDbArc
 50
-90
 51
90
  0
ARC
  5
58A
100
AcDbEntity
  8
_0-3_躯体と製品
  6
CONTINUOUS
 62
     0
100
AcDbCircle
 10
465.8
 20
405.2
 40
0.3
100
AcDbArc
 50
90
 51
180
  0
LINE
  5
58B
100
AcDbEntity
  8
_0-3_躯体と製品
  6
CONTINUOUS
 62
     0
100
AcDbLine
 10
465.8
 20
405.5
 11
468.75
 21
405.5
  0
LINE
  5
58C
100
AcDbEntity
  8
_0-3_躯体と製品
  6
CONTINUOUS
 62
     0
100
AcDbLine
 10
465.8
 20
403
 11
467.75
 21
403
  0
ARC
  5
58D
100
AcDbEntity
  8
_0-3_躯体と製品
  6
CONTINUOUS
 62
     0
100
AcDbCircle
 10
465.8
 20
403.3
 40
0.3
100
AcDbArc
 50
180
 51
270
  0
LINE
  5
58E
100
AcDbEntity
  8
_0-3_躯体と製品
  6
CONTINUOUS
 62
     0
100
AcDbLine
 10
465.5
 20
403.3
 11
465.5
 21
405.2
  0
ARC
  5
58F
100
AcDbEntity
  8
_0-3_躯体と製品
  6
CONTINUOUS
 62
     0
100
AcDbCircle
 10
465.8
 20
401.2
 40
0.3
100
AcDbArc
 50
90
 51
180
  0
LINE
  5
590
100
AcDbEntity
  8
_0-3_躯体と製品
  6
CONTINUOUS
 62
     0
100
AcDbLine
 10
465.8
 20
401.5
 11
467.75
 21
401.5
  0
ARC
  5
591
100
AcDbEntity
  8
_0-3_躯体と製品
  6
CONTINUOUS
 62
     0
100
AcDbCircle
 10
465.8
 20
399.8
 40
0.3
100
AcDbArc
 50
180
 51
270
  0
LINE
  5
592
100
AcDbEntity
  8
_0-3_躯体と製品
  6
CONTINUOUS
 62
     0
100
AcDbLine
 10
465.5
 20
399.8
 11
465.5
 21
401.2
  0
LINE
  5
593
100
AcDbEntity
  8
_0-3_躯体と製品
  6
CONTINUOUS
 62
     0
100
AcDbLine
 10
464.5
 20
407
 11
468.75
 21
407
  0
ARC
  5
594
100
AcDbEntity
  8
_0-3_躯体と製品
  6
CONTINUOUS
 62
     0
100
AcDbCircle
 10
464.5
 20
406.5
 40
0.5
100
AcDbArc
 50
90
 51
180
  0
LINE
  5
595
100
AcDbEntity
  8
_0-3_躯体と製品
  6
CONTINUOUS
 62
     0
100
AcDbLine
 10
464
 20
406.5
 11
464
 21
397
  0
LINE
  5
596
100
AcDbEntity
  8
_0-3_躯体と製品
  6
CONTINUOUS
 62
     0
100
AcDbLine
 10
466
 20
403.9
 11
466
 21
405.5
  0
LINE
  5
597
100
AcDbEntity
  8
_0-3_躯体と製品
  6
CONTINUOUS
 62
     0
100
AcDbLine
 10
468
 20
405.5
 11
468
 21
403.9
  0
ARC
  5
598
100
AcDbEntity
  8
_0-3_躯体と製品
  6
CONTINUOUS
 62
     0
100
AcDbCircle
 10
467
 20
387.75
 40
9.25
100
AcDbArc
 50
90
 51
108.9246444161
  0
CIRCLE
  5
599
100
AcDbEntity
  8
_0-4_図枠
  6
CONTINUOUS
 62
     0
100
AcDbCircle
 10
474.878248247
 20
400.2361569326
 40
0.9
  0
LINE
  5
59A
100
AcDbEntity
  8
_0-3_躯体と製品
  6
CONTINUOUS
 62
     0
100
AcDbLine
 10
477.1
 20
406
 11
476.2264973081
 21
405.4956829857
  0
LINE
  5
59B
100
AcDbEntity
  8
_0-3_躯体と製品
  6
CONTINUOUS
 62
     0
100
AcDbLine
 10
476.2264973081
 20
405.4956829857
 11
476.2264973081
 21
401
  0
LINE
  5
59C
100
AcDbEntity
  8
_0-3_躯体と製品
  6
CONTINUOUS
 62
     0
100
AcDbLine
 10
473
 20
401
 11
473
 21
399.5
  0
LINE
  5
59D
100
AcDbEntity
  8
_0-3_躯体と製品
  6
CONTINUOUS
 62
     0
100
AcDbLine
 10
477
 20
397.5
 11
477
 21
397
  0
ARC
  5
59E
100
AcDbEntity
  8
_0-3_躯体と製品
  6
CONTINUOUS
 62
     0
100
AcDbCircle
 10
470.5
 20
406
 40
2.1
100
AcDbArc
 50
-90
 51
0
  0
ARC
  5
59F
100
AcDbEntity
  8
_0-3_躯体と製品
  6
CONTINUOUS
 62
     0
100
AcDbCircle
 10
470.5
 20
406
 40
0.5
100
AcDbArc
 50
-90
 51
0
  0
LINE
  5
5A0
100
AcDbEntity
  8
_0-4_図枠
  6
CONTINUOUS
 62
     0
100
AcDbLine
 10
486.3374108287
 20
403.1005721473
 11
502.7597964936
 21
374.6561657942
  0
LINE
  5
5A1
100
AcDbEntity
  8
_0-3_躯体と製品
  6
CONTINUOUS
 62
     0
100
AcDbLine
 10
486.75
 20
368.371826
 11
486.75
 21
387
  0
CIRCLE
  5
5A2
100
AcDbEntity
  8
_0-4_図枠
  6
CONTINUOUS
 62
     0
100
AcDbCircle
 10
479.873989024
 20
369.9173386019
 40
0.9
  0
LINE
  5
5A3
100
AcDbEntity
  8
_0-3_躯体と製品
  6
CONTINUOUS
 62
     0
100
AcDbLine
 10
481.5
 20
368
 11
482.5
 21
368
  0
LINE
  5
5A4
100
AcDbEntity
  8
_0-3_躯体と製品
  6
CONTINUOUS
 62
     0
100
AcDbLine
 10
494.7102487758
 20
395
 11
495.7102487758
 21
396
  0
LINE
  5
5A5
100
AcDbEntity
  8
_0-3_躯体と製品
  6
CONTINUOUS
 62
     0
100
AcDbLine
 10
482.5
 20
399.5
 11
498.2
 21
399.5
  0
LINE
  5
5A6
100
AcDbEntity
  8
_0-3_躯体と製品
  6
CONTINUOUS
 62
     0
100
AcDbLine
 10
487
 20
397.5
 11
498.5
 21
397.5
  0
ARC
  5
5A7
100
AcDbEntity
  8
_0-3_躯体と製品
  6
CONTINUOUS
 62
     0
100
AcDbCircle
 10
495.25
 20
406.25
 40
0.75
100
AcDbArc
 50
90
 51
270
  0
LINE
  5
5A8
100
AcDbEntity
  8
_0-3_躯体と製品
  6
CONTINUOUS
 62
     0
100
AcDbLine
 10
498
 20
403.9
 11
493.5
 21
403.9
  0
LINE
  5
5A9
100
AcDbEntity
  8
_0-3_躯体と製品
  6
CONTINUOUS
 62
     0
100
AcDbLine
 10
493.5
 20
405.5
 11
498
 21
405.5
  0
LINE
  5
5AA
100
AcDbEntity
  8
_0-3_躯体と製品
  6
CONTINUOUS
 62
     0
100
AcDbLine
 10
482
 20
396
 11
482
 21
397
  0
LINE
  5
5AB
100
AcDbEntity
  8
_0-3_躯体と製品
  6
CONTINUOUS
 62
     0
100
AcDbLine
 10
486.05
 20
397
 11
486.05
 21
387.7
  0
LINE
  5
5AC
100
AcDbEntity
  8
_0-3_躯体と製品
  6
CONTINUOUS
 62
     0
100
AcDbLine
 10
486.2249674015
 20
395
 11
487.2249674015
 21
396
  0
LINE
  5
5AD
100
AcDbEntity
  8
_0-3_躯体と製品
  6
CONTINUOUS
 62
     0
100
AcDbLine
 10
486.75
 20
387
 11
486.05
 21
387.7
  0
LINE
  5
5AE
100
AcDbEntity
  8
_0-3_躯体と製品
  6
CONTINUOUS
 62
     0
100
AcDbLine
 10
484.8107538392
 20
395
 11
485.8107538392
 21
396
  0
LINE
  5
5AF
100
AcDbEntity
  8
_0-3_躯体と製品
  6
CONTINUOUS
 62
     0
100
AcDbLine
 10
483.3965402768
 20
395
 11
484.3965402768
 21
396
  0
LINE
  5
5B0
100
AcDbEntity
  8
_0-3_躯体と製品
  6
CONTINUOUS
 62
     0
100
AcDbLine
 10
481.9823267144
 20
395
 11
482.9823267144
 21
396
  0
LINE
  5
5B1
100
AcDbEntity
  8
_0-3_躯体と製品
  6
CONTINUOUS
 62
     0
100
AcDbLine
 10
480.568113152
 20
395
 11
481.568113152
 21
396
  0
LINE
  5
5B2
100
AcDbEntity
  8
_0-3_躯体と製品
  6
CONTINUOUS
 62
     0
100
AcDbLine
 10
479.1538995897
 20
395
 11
480.1538995897
 21
396
  0
LINE
  5
5B3
100
AcDbEntity
  8
_0-3_躯体と製品
  6
CONTINUOUS
 62
     0
100
AcDbLine
 10
493.2960352134
 20
395
 11
494.2960352134
 21
396
  0
LINE
  5
5B4
100
AcDbEntity
  8
_0-3_躯体と製品
  6
CONTINUOUS
 62
     0
100
AcDbLine
 10
491.881821651
 20
395
 11
492.881821651
 21
396
  0
LINE
  5
5B5
100
AcDbEntity
  8
_0-3_躯体と製品
  6
CONTINUOUS
 62
     0
100
AcDbLine
 10
490.4676080886
 20
395
 11
491.4676080886
 21
396
  0
LINE
  5
5B6
100
AcDbEntity
  8
_0-3_躯体と製品
  6
CONTINUOUS
 62
     0
100
AcDbLine
 10
489.0533945263
 20
395
 11
490.0533945263
 21
396
  0
LINE
  5
5B7
100
AcDbEntity
  8
_0-3_躯体と製品
  6
CONTINUOUS
 62
     0
100
AcDbLine
 10
487.6391809639
 20
395
 11
488.6391809639
 21
396
  0
CIRCLE
  5
5B8
100
AcDbEntity
  8
_0-4_図枠
  6
CONTINUOUS
 62
     0
100
AcDbCircle
 10
486.3374108287
 20
403.1005721473
 40
0.9
  0
ARC
  5
5B9
100
AcDbEntity
  8
_0-3_躯体と製品
  6
CONTINUOUS
 62
     0
100
AcDbCircle
 10
486.3301270189
 20
403.3864422247
 40
2.555822748428
100
AcDbArc
 50
55.61575253204
 51
124.384247468
  0
LINE
  5
5BA
100
AcDbEntity
  8
_0-3_躯体と製品
  6
CONTINUOUS
 62
     0
100
AcDbLine
 10
484.5437457169
 20
406.1391063229
 11
484.3892524938
 21
406
  0
LINE
  5
5BB
100
AcDbEntity
  8
_0-3_躯体と製品
  6
CONTINUOUS
 62
     0
100
AcDbLine
 10
478.9599614441
 20
406
 11
478.5519685084
 21
406.4531220603
  0
LINE
  5
5BC
100
AcDbEntity
  8
_0-3_躯体と製品
  6
CONTINUOUS
 62
     0
100
AcDbLine
 10
484.8867513459
 20
405.4956829857
 11
484.8867513459
 21
401
  0
LINE
  5
5BD
100
AcDbEntity
  8
_0-3_躯体と製品
  6
CONTINUOUS
 62
     0
100
AcDbLine
 10
479.1132486541
 20
405.4956829857
 11
479.1132486541
 21
401
  0
ARC
  5
5BE
100
AcDbEntity
  8
_0-3_躯体と製品
  6
CONTINUOUS
 62
     0
100
AcDbCircle
 10
482
 20
396.3888469604
 40
9.553418012636
100
AcDbArc
 50
72.41204622605
 51
107.587953774
  0
LINE
  5
5BF
100
AcDbEntity
  8
_0-3_躯体と製品
  6
CONTINUOUS
 62
     0
100
AcDbLine
 10
482
 20
399
 11
482.5
 21
399.5
  0
LINE
  5
5C0
100
AcDbEntity
  8
_0-3_躯体と製品
  6
CONTINUOUS
 62
     0
100
AcDbLine
 10
482
 20
399
 11
481.5
 21
399.5
  0
LINE
  5
5C1
100
AcDbEntity
  8
_0-3_躯体と製品
  6
CONTINUOUS
 62
     0
100
AcDbLine
 10
484.5437457169
 20
406.1391063229
 11
478.5519685084
 21
406.4531220603
  0
LINE
  5
5C2
100
AcDbEntity
  8
_0-3_躯体と製品
  6
CONTINUOUS
 62
     0
100
AcDbLine
 10
487.7735026919
 20
405.4956829857
 11
487.7735026919
 21
401
  0
LINE
  5
5C3
100
AcDbEntity
  8
_0-3_躯体と製品
  6
CONTINUOUS
 62
     0
100
AcDbLine
 10
486.9
 20
406
 11
487.7735026919
 21
405.4956829857
  0
LINE
  5
5C4
100
AcDbEntity
  8
_0-3_躯体と製品
  6
CONTINUOUS
 62
     0
100
AcDbLine
 10
491
 20
401
 11
491
 21
399.5
  0
LINE
  5
5C5
100
AcDbEntity
  8
_0-3_躯体と製品
  6
CONTINUOUS
 62
     0
100
AcDbLine
 10
487
 20
397
 11
487
 21
397.5
  0
ARC
  5
5C6
100
AcDbEntity
  8
_0-3_躯体と製品
  6
CONTINUOUS
 62
     0
100
AcDbCircle
 10
493.5
 20
406
 40
2.1
100
AcDbArc
 50
180
 51
270
  0
ARC
  5
5C7
100
AcDbEntity
  8
_0-3_躯体と製品
  6
CONTINUOUS
 62
     0
100
AcDbCircle
 10
493.5
 20
406
 40
0.5
100
AcDbArc
 50
180
 51
270
  0
ARC
  5
5C8
100
AcDbEntity
  8
_0-3_躯体と製品
  6
CONTINUOUS
 62
     0
100
AcDbCircle
 10
503
 20
405.25
 40
9.25
100
AcDbArc
 50
-108.9246444161
 51
-90
  0
ARC
  5
5C9
100
AcDbEntity
  8
_0-3_躯体と製品
  6
CONTINUOUS
 62
     0
100
AcDbCircle
 10
503
 20
405.25
 40
10.25
100
AcDbArc
 50
-108.9246444161
 51
-90
  0
ARC
  5
5CA
100
AcDbEntity
  8
_0-3_躯体と製品
  6
CONTINUOUS
 62
     0
100
AcDbCircle
 10
497
 20
387.75
 40
8.25
100
AcDbArc
 50
71.07535558395
 51
90
  0
LINE
  5
5CB
100
AcDbEntity
  8
_0-3_躯体と製品
  6
CONTINUOUS
 62
     0
100
AcDbLine
 10
497
 20
396
 11
497
 21
395
  0
LINE
  5
5CC
100
AcDbEntity
  8
_0-3_躯体と製品
  6
CONTINUOUS
 62
     0
100
AcDbLine
 10
496.1244623381
 20
395
 11
497
 21
395.8755376619
  0
LINE
  5
5CD
100
AcDbEntity
  8
_0-3_躯体と製品
  6
CONTINUOUS
 62
     0
100
AcDbLine
 10
504.9724639012
 20
399.5
 11
501
 21
399.5
  0
LINE
  5
5CE
100
AcDbEntity
  8
_0-3_躯体と製品
  6
CONTINUOUS
 62
     0
100
AcDbLine
 10
498.5
 20
397.5
 11
498.5
 21
397
  0
LINE
  5
5CF
100
AcDbEntity
  8
_0-3_躯体と製品
  6
CONTINUOUS
 62
     0
100
AcDbLine
 10
498.5
 20
397
 11
500.5
 21
397
  0
LINE
  5
5D0
100
AcDbEntity
  8
_0-3_躯体と製品
  6
CONTINUOUS
 62
     0
100
AcDbLine
 10
500.5
 20
397
 11
500.5
 21
398
  0
ARC
  5
5D1
100
AcDbEntity
  8
_0-3_躯体と製品
  6
CONTINUOUS
 62
     0
100
AcDbCircle
 10
501
 20
400
 40
0.5
100
AcDbArc
 50
180
 51
270
  0
ARC
  5
5D2
100
AcDbEntity
  8
_0-3_躯体と製品
  6
CONTINUOUS
 62
     0
100
AcDbCircle
 10
498.2
 20
399.8
 40
0.3
100
AcDbArc
 50
-90
 51
0
  0
LINE
  5
5D3
100
AcDbEntity
  8
_0-3_躯体と製品
  6
CONTINUOUS
 62
     0
100
AcDbLine
 10
498
 20
407
 11
495.25
 21
407
  0
ARC
  5
5D4
100
AcDbEntity
  8
_0-3_躯体と製品
  6
CONTINUOUS
 62
     0
100
AcDbCircle
 10
498
 20
407.5
 40
0.5
100
AcDbArc
 50
-90
 51
0
  0
ARC
  5
5D5
100
AcDbEntity
  8
_0-3_躯体と製品
  6
CONTINUOUS
 62
     0
100
AcDbCircle
 10
496.25
 20
402.25
 40
0.75
100
AcDbArc
 50
90
 51
270
  0
LINE
  5
5D6
100
AcDbEntity
  8
_0-3_躯体と製品
  6
CONTINUOUS
 62
     0
100
AcDbLine
 10
498.2
 20
401.5
 11
496.25
 21
401.5
  0
ARC
  5
5D7
100
AcDbEntity
  8
_0-3_躯体と製品
  6
CONTINUOUS
 62
     0
100
AcDbCircle
 10
498.2
 20
401.2
 40
0.3
100
AcDbArc
 50
0
 51
90
  0
LINE
  5
5D8
100
AcDbEntity
  8
_0-3_躯体と製品
  6
CONTINUOUS
 62
     0
100
AcDbLine
 10
498.5
 20
401.2
 11
498.5
 21
399.8
  0
LINE
  5
5D9
100
AcDbEntity
  8
_0-3_躯体と製品
  6
CONTINUOUS
 62
     0
100
AcDbLine
 10
498.2
 20
403
 11
496.25
 21
403
  0
ARC
  5
5DA
100
AcDbEntity
  8
_0-3_躯体と製品
  6
CONTINUOUS
 62
     0
100
AcDbCircle
 10
498.2
 20
403.3
 40
0.3
100
AcDbArc
 50
-90
 51
0
  0
LINE
  5
5DB
100
AcDbEntity
  8
_0-3_躯体と製品
  6
CONTINUOUS
 62
     0
100
AcDbLine
 10
498.5
 20
405.2
 11
498.5
 21
403.3
  0
ARC
  5
5DC
100
AcDbEntity
  8
_0-3_躯体と製品
  6
CONTINUOUS
 62
     0
100
AcDbCircle
 10
498.2
 20
405.2
 40
0.3
100
AcDbArc
 50
0
 51
90
  0
LINE
  5
5DD
100
AcDbEntity
  8
_0-3_躯体と製品
  6
CONTINUOUS
 62
     0
100
AcDbLine
 10
498.2
 20
405.5
 11
495.25
 21
405.5
  0
LINE
  5
5DE
100
AcDbEntity
  8
_0-3_躯体と製品
  6
CONTINUOUS
 62
     0
100
AcDbLine
 10
498
 20
405.5
 11
498
 21
403.9
  0
LINE
  5
5DF
100
AcDbEntity
  8
_0-3_躯体と製品
  6
CONTINUOUS
 62
     0
100
AcDbLine
 10
496
 20
405.5
 11
496
 21
403.9
  0
ARC
  5
5E0
100
AcDbEntity
  8
_0-3_躯体と製品
  6
CONTINUOUS
 62
     0
100
AcDbCircle
 10
497
 20
387.75
 40
9.25
100
AcDbArc
 50
71.07535558395
 51
90
  0
LINE
  5
5E1
100
AcDbEntity
  8
_0-4_図枠
  6
CONTINUOUS
 62
     0
100
AcDbLine
 10
499.6038290284
 20
433.1854223307
 11
517.8909188008
 21
464.859590939
  0
LINE
  5
5E2
100
AcDbEntity
  8
_0-4_図枠
  6
CONTINUOUS
 62
     0
100
AcDbLine
 10
499.5216915842
 20
408.751336986
 11
524.3347458396
 21
451.7288076474
  0
LINE
  5
5E3
100
AcDbEntity
  8
_0-4_図枠
  6
CONTINUOUS
 62
     0
100
AcDbLine
 10
484.0544450374
 20
430.4631696873
 11
501.8799775765
 21
461.3378977168
  0
LINE
  5
5E4
100
AcDbEntity
  8
_0-3_躯体と製品
  6
CONTINUOUS
 62
     0
100
AcDbLine
 10
486.4052864174
 20
411.0877027041
 11
477.2178946977
 21
411.5691935015
  0
LINE
  5
5E5
100
AcDbEntity
  8
_0-3_躯体と製品
  6
CONTINUOUS
 62
     0
100
AcDbLine
 10
490.9261679781
 20
412.853518033
 11
473.1261679781
 21
413.7863765043
  0
LINE
  5
5E6
100
AcDbEntity
  8
_0-3_躯体と製品
  6
CONTINUOUS
 62
     0
100
AcDbLine
 10
491.0099055081
 20
414.4513252887
 11
473.2099055081
 21
415.3841837599
  0
LINE
  5
5E7
100
AcDbEntity
  8
_0-3_躯体と製品
  6
CONTINUOUS
 62
     0
100
AcDbLine
 10
472.691885643
 20
441.238987921
 11
494.0078395371
 21
440.1218661141
  0
LINE
  5
5E8
100
AcDbEntity
  8
_0-3_躯体と製品
  6
CONTINUOUS
 62
     0
100
AcDbLine
 10
472.650016878
 20
440.4400842932
 11
493.9659707721
 21
439.3229624863
  0
ARC
  5
5E9
100
AcDbEntity
  8
_0-3_躯体と製品
  6
CONTINUOUS
 62
     0
100
AcDbCircle
 10
481.5366318948
 20
440.580328999
 40
3.45
100
AcDbArc
 50
126.309124
 51
173.762163
  0
LINE
  5
5EA
100
AcDbEntity
  8
_0-3_躯体と製品
  6
CONTINUOUS
 62
     0
100
AcDbLine
 10
471.8738322782
 20
440.1314135552
 11
458.9438811844
 21
426.5663606786
  0
LINE
  5
5EB
100
AcDbEntity
  8
_0-3_躯体と製品
  6
CONTINUOUS
 62
     0
100
AcDbLine
 10
471.2947533633
 20
440.6833805926
 11
458.3648022861
 21
427.1183277333
  0
LINE
  5
5EC
100
AcDbEntity
  8
_0-3_躯体と製品
  6
CONTINUOUS
 62
     0
100
AcDbLine
 10
454.3837980268
 20
429.0853680842
 11
455.017400953
 21
429.5737811593
  0
LINE
  5
5ED
100
AcDbEntity
  8
_0-3_躯体と製品
  6
CONTINUOUS
 62
     0
100
AcDbLine
 10
454.3837980268
 20
429.0853680842
 11
456.2153470732
 21
426.7093570921
  0
ARC
  5
5EE
100
AcDbEntity
  8
_0-3_躯体と製品
  6
CONTINUOUS
 62
     0
100
AcDbCircle
 10
457.6409536425
 20
427.8082865301
 40
1
100
AcDbArc
 50
-142.3731512671
 51
-43.62684736228
  0
ARC
  5
5EF
100
AcDbEntity
  8
_0-3_躯体と製品
  6
CONTINUOUS
 62
     0
100
AcDbCircle
 10
457.6409536425
 20
427.8082865301
 40
1.8
100
AcDbArc
 50
-142.3731518763
 51
-43.62684736228
  0
LINE
  5
5F0
100
AcDbEntity
  8
_0-3_躯体と製品
  6
CONTINUOUS
 62
     0
100
AcDbLine
 10
455.017400953
 20
429.5737811593
 11
456.8489499994
 21
427.1977701672
  0
ARC
  5
5F1
100
AcDbEntity
  8
_0-3_躯体と製品
  6
CONTINUOUS
 62
     0
100
AcDbCircle
 10
473.1
 20
413.2870617369
 40
0.5
100
AcDbArc
 50
86.99999999999
 51
180
  0
ARC
  5
5F2
100
AcDbEntity
  8
_0-3_躯体と製品
  6
CONTINUOUS
 62
     0
100
AcDbCircle
 10
473.1
 20
413.2870617369
 40
2.1
100
AcDbArc
 50
86.99999999999
 51
180
  0
LINE
  5
5F3
100
AcDbEntity
  8
_0-3_躯体と製品
  6
CONTINUOUS
 62
     0
100
AcDbLine
 10
477.2702306539
 20
412.5678230362
 11
477.2178946977
 21
411.5691935015
  0
ARC
  5
5F4
100
AcDbEntity
  8
_0-3_躯体と製品
  6
CONTINUOUS
 62
     0
100
AcDbCircle
 10
476.2716011191
 20
412.6201589925
 40
1
100
AcDbArc
 50
-2.999999999999
 51
86.99999999999
  0
ARC
  5
5F5
100
AcDbEntity
  8
_0-3_躯体と製品
  6
CONTINUOUS
 62
     0
100
AcDbCircle
 10
472.5976809217
 20
439.4414547584
 40
1.8
100
AcDbArc
 50
86.99999999999
 51
136.3731526377
  0
ARC
  5
5F6
100
AcDbEntity
  8
_0-3_躯体と製品
  6
CONTINUOUS
 62
     0
100
AcDbCircle
 10
472.5976809217
 20
439.4414547584
 40
1
100
AcDbArc
 50
86.99999999999
 51
136.3731526377
  0
CIRCLE
  5
5F7
100
AcDbEntity
  8
_0-4_図枠
  6
CONTINUOUS
 62
     0
100
AcDbCircle
 10
484.0544450374
 20
430.4631696873
 40
0.9
  0
LINE
  5
5F8
100
AcDbEntity
  8
_0-3_躯体と製品
  6
CONTINUOUS
 62
     0
100
AcDbLine
 10
495.3392413997
 20
439.4232623706
 11
506.7804267371
 21
424.5809723551
  0
LINE
  5
5F9
100
AcDbEntity
  8
_0-3_躯体と製品
  6
CONTINUOUS
 62
     0
100
AcDbLine
 10
494.7056384735
 20
438.9348492954
 11
506.146823811
 21
424.0925592799
  0
LINE
  5
5FA
100
AcDbEntity
  8
_0-3_躯体と製品
  6
CONTINUOUS
 62
     0
100
AcDbLine
 10
486.3457511943
 20
440.5234191488
 11
485.1001554357
 21
416.7560362216
  0
LINE
  5
5FB
100
AcDbEntity
  8
_0-3_躯体と製品
  6
CONTINUOUS
 62
     0
100
AcDbLine
 10
485.7780303038
 20
440.5531721399
 11
484.5324345452
 21
416.7857892128
  0
LINE
  5
5FC
100
AcDbEntity
  8
_0-3_躯体と製品
  6
CONTINUOUS
 62
     0
100
AcDbLine
 10
480.3539739857
 20
440.8374348863
 11
479.1083782272
 21
417.0700519591
  0
LINE
  5
5FD
100
AcDbEntity
  8
_0-3_躯体と製品
  6
CONTINUOUS
 62
     0
100
AcDbLine
 10
480.9216948763
 20
440.8076818951
 11
479.6760991177
 21
417.040298968
  0
ARC
  5
5FE
100
AcDbEntity
  8
_0-3_躯体と製品
  6
CONTINUOUS
 62
     0
100
AcDbCircle
 10
487.4562519084
 20
412.0339962826
 40
1
100
AcDbArc
 50
86.99999999999
 51
177
  0
LINE
  5
5FF
100
AcDbEntity
  8
_0-3_躯体と製品
  6
CONTINUOUS
 62
     0
100
AcDbLine
 10
486.4576223736
 20
412.0863322388
 11
486.4052864174
 21
411.0877027041
  0
LINE
  5
600
100
AcDbEntity
  8
_0-3_躯体と製品
  6
CONTINUOUS
 62
     0
100
AcDbLine
 10
479.0041113957
 20
415.0805222966
 11
478.8157019533
 21
411.4854559715
  0
LINE
  5
601
100
AcDbEntity
  8
_0-3_躯体と製品
  6
CONTINUOUS
 62
     0
100
AcDbLine
 10
484.9958886043
 20
414.7665065592
 11
484.8074791618
 21
411.171440234
  0
CIRCLE
  5
602
100
AcDbEntity
  8
_0-3_躯体と製品
  6
CONTINUOUS
 62
     0
100
AcDbCircle
 10
482
 20
414.9235144279
 40
1.4
  0
LINE
  5
603
100
AcDbEntity
  8
_0-3_躯体と製品
  6
CONTINUOUS
 62
     0
100
AcDbLine
 10
479.1083782272
 20
417.0700519591
 11
479.0041113957
 21
415.0805222966
  0
LINE
  5
604
100
AcDbEntity
  8
_0-3_躯体と製品
  6
CONTINUOUS
 62
     0
100
AcDbLine
 10
479.6760991177
 20
417.040298968
 11
479.5718322862
 21
415.0507693055
  0
LINE
  5
605
100
AcDbEntity
  8
_0-3_躯体と製品
  6
CONTINUOUS
 62
     0
100
AcDbLine
 10
484.5324345452
 20
416.7857892128
 11
484.4281677138
 21
414.7962595503
  0
LINE
  5
606
100
AcDbEntity
  8
_0-3_躯体と製品
  6
CONTINUOUS
 62
     0
100
AcDbLine
 10
485.1001554357
 20
416.7560362216
 11
484.9958886043
 21
414.7665065592
  0
CIRCLE
  5
607
100
AcDbEntity
  8
_0-4_図枠
  6
CONTINUOUS
 62
     0
100
AcDbCircle
 10
492.1774827281
 20
410.4886149116
 40
0.9
  0
ARC
  5
608
100
AcDbEntity
  8
_0-3_躯体と製品
  6
CONTINUOUS
 62
     0
100
AcDbCircle
 10
490.9
 20
412.3542032657
 40
0.5
100
AcDbArc
 50
0
 51
86.99999999999
  0
ARC
  5
609
100
AcDbEntity
  8
_0-3_躯体と製品
  6
CONTINUOUS
 62
     0
100
AcDbCircle
 10
490.9
 20
412.3542032657
 40
2.1
100
AcDbArc
 50
0
 51
86.99999999999
  0
CIRCLE
  5
60A
100
AcDbEntity
  8
_0-4_図枠
  6
CONTINUOUS
 62
     0
100
AcDbCircle
 10
499.5216915842
 20
408.751336986
 40
0.9
  0
ARC
  5
60B
100
AcDbEntity
  8
_0-3_躯体と製品
  6
CONTINUOUS
 62
     0
100
AcDbCircle
 10
499.5
 20
415
 40
1
100
AcDbArc
 50
0
 51
180
  0
CIRCLE
  5
60C
100
AcDbEntity
  8
_0-3_躯体と製品
  6
CONTINUOUS
 62
     0
100
AcDbCircle
 10
499.5523359562
 20
415.9986295348
 40
1.4
  0
LINE
  5
60D
100
AcDbEntity
  8
_0-3_躯体と製品
  6
CONTINUOUS
 62
     0
100
AcDbLine
 10
510.3661554141
 20
426.6730758519
 11
508.2962790073
 21
424.5015299039
  0
LINE
  5
60E
100
AcDbEntity
  8
_0-3_躯体と製品
  6
CONTINUOUS
 62
     0
100
AcDbLine
 10
510.9452343289
 20
426.1211088145
 11
510.3661554141
 21
426.6730758519
  0
LINE
  5
60F
100
AcDbEntity
  8
_0-3_躯体と製品
  6
CONTINUOUS
 62
     0
100
AcDbLine
 10
510.9452343289
 20
426.1211088145
 11
508.8753579221
 21
423.9495628665
  0
ARC
  5
610
100
AcDbEntity
  8
_0-3_躯体と製品
  6
CONTINUOUS
 62
     0
100
AcDbCircle
 10
507.5724303802
 20
425.1914887179
 40
1
100
AcDbArc
 50
-142.3731526377
 51
-43.62684873287
  0
ARC
  5
611
100
AcDbEntity
  8
_0-3_躯体と製品
  6
CONTINUOUS
 62
     0
100
AcDbCircle
 10
507.5724303802
 20
425.1914887179
 40
1.8
100
AcDbArc
 50
-142.3731526377
 51
-43.62684812372
  0
ARC
  5
612
100
AcDbEntity
  8
_0-3_躯体と製品
  6
CONTINUOUS
 62
     0
100
AcDbCircle
 10
493.9136348158
 20
438.3243329515
 40
1.8
100
AcDbArc
 50
37.62684736228
 51
86.99999999999
  0
ARC
  5
613
100
AcDbEntity
  8
_0-3_躯体と製品
  6
CONTINUOUS
 62
     0
100
AcDbCircle
 10
485.1479679001
 20
440.386557719
 40
3.45
100
AcDbArc
 50
0.3127429999989
 51
47.820489
  0
ARC
  5
614
100
AcDbEntity
  8
_0-3_躯体と製品
  6
CONTINUOUS
 62
     0
100
AcDbCircle
 10
493.9136348158
 20
438.3243329515
 40
1
100
AcDbArc
 50
37.62684736228
 51
86.99999999999
  0
ARC
  5
615
100
AcDbEntity
  8
_0-3_躯体と製品
  6
CONTINUOUS
 62
     0
100
AcDbCircle
 10
483.2242563474
 20
438.2837171327
 40
6.3
100
AcDbArc
 50
47.696869
 51
126.309371
  0
ARC
  5
616
100
AcDbEntity
  8
_0-3_躯体と製品
  6
CONTINUOUS
 62
     0
100
AcDbCircle
 10
482.1659338423
 20
443.884606277
 40
0.6
100
AcDbArc
 50
-3
 51
100.700233
  0
ARC
  5
617
100
AcDbEntity
  8
_0-3_躯体と製品
  6
CONTINUOUS
 62
     0
100
AcDbCircle
 10
484.8622335862
 20
443.7432991951
 40
0.6
100
AcDbArc
 50
73.299767
 51
177
  0
LINE
  5
618
100
AcDbEntity
  8
_0-3_躯体と製品
  6
CONTINUOUS
 62
     0
100
AcDbLine
 10
484.2610019407
 20
443.7355095528
 11
482.7630576386
 21
443.8140134871
  0
CIRCLE
  5
619
100
AcDbEntity
  8
_0-4_図枠
  6
CONTINUOUS
 62
     0
100
AcDbCircle
 10
499.6038290284
 20
433.1854223307
 40
0.9
  0
CIRCLE
  5
61A
100
AcDbEntity
  8
_0-4_図枠
  6
CONTINUOUS
 62
     0
100
AcDbCircle
 10
504.8799775765
 20
466.5340501396
 40
6
  0
CIRCLE
  5
61B
100
AcDbEntity
  8
_0-4_図枠
  6
CONTINUOUS
 62
     0
100
AcDbCircle
 10
527.3347458396
 20
456.9249600701
 40
6
  0
CIRCLE
  5
61C
100
AcDbEntity
  8
_0-4_図枠
  6
CONTINUOUS
 62
     0
100
AcDbCircle
 10
548.8986558504
 20
457.9136998075
 40
6
  0
LINE
  5
61D
100
AcDbEntity
  8
_0-4_図枠
  6
CONTINUOUS
 62
     0
100
AcDbLine
 10
531.9733407388
 20
428.5981941001
 11
545.8986558504
 21
452.7175473848
  0
CIRCLE
  5
61E
100
AcDbEntity
  8
_0-4_図枠
  6
CONTINUOUS
 62
     0
100
AcDbCircle
 10
531.9733407388
 20
428.5981941001
 40
0.9
  0
LINE
  5
61F
100
AcDbEntity
  8
_0-3_躯体と製品
  6
CONTINUOUS
 62
     0
100
AcDbLine
 10
537.7068495759
 20
420.0072702823
 11
537.8010542972
 21
421.8048034449
  0
LINE
  5
620
100
AcDbEntity
  8
_0-3_躯体と製品
  6
CONTINUOUS
 62
     0
100
AcDbLine
 10
552.5554527066
 20
416.7256571018
 11
572.5280434017
 21
415.6789379769
  0
LINE
  5
621
100
AcDbEntity
  8
_0-3_躯体と製品
  6
CONTINUOUS
 62
     0
100
AcDbLine
 10
549.0079133788
 20
415.9102034139
 11
552.5031167504
 21
415.727027567
  0
ARC
  5
622
100
AcDbEntity
  8
_0-3_躯体と製品
  6
CONTINUOUS
 62
     0
100
AcDbCircle
 10
549.0864173131
 20
417.408147716
 40
1.5
100
AcDbArc
 50
86.99999999999
 51
267
  0
LINE
  5
623
100
AcDbEntity
  8
_0-3_躯体と製品
  6
CONTINUOUS
 62
     0
100
AcDbLine
 10
552.5554527066
 20
416.7256571018
 11
552.5031167504
 21
415.727027567
  0
LINE
  5
624
100
AcDbEntity
  8
_0-3_躯体と製品
  6
CONTINUOUS
 62
     0
100
AcDbLine
 10
572.5280434017
 20
415.6789379769
 11
572.4757074455
 21
414.6803084422
  0
LINE
  5
625
100
AcDbEntity
  8
_0-3_躯体と製品
  6
CONTINUOUS
 62
     0
100
AcDbLine
 10
568.8412328678
 20
440.4057780066
 11
567.0252161742
 21
442.2217947002
  0
LINE
  5
626
100
AcDbEntity
  8
_0-3_躯体と製品
  6
CONTINUOUS
 62
     0
100
AcDbLine
 10
570.3336612895
 20
440.3275631473
 11
568.5176445959
 21
442.1435798409
  0
LINE
  5
627
100
AcDbEntity
  8
_0-3_躯体と製品
  6
CONTINUOUS
 62
     0
100
AcDbLine
 10
570.0981494864
 20
435.8337302409
 11
565.8711314755
 21
440.0607482518
  0
LINE
  5
628
100
AcDbEntity
  8
_0-3_躯体と製品
  6
CONTINUOUS
 62
     0
100
AcDbLine
 10
571.5905779081
 20
435.7555153816
 11
567.3635598972
 21
439.9825333925
  0
LINE
  5
629
100
AcDbEntity
  8
_0-3_躯体と製品
  6
CONTINUOUS
 62
     0
100
AcDbLine
 10
563.8239789821
 20
440.6687211408
 11
563.9139175345
 21
442.3848509526
  0
LINE
  5
62A
100
AcDbEntity
  8
_0-3_躯体と製品
  6
CONTINUOUS
 62
     0
100
AcDbLine
 10
565.8563760244
 20
440.5622077252
 11
564.0403593308
 21
442.3782244189
  0
LINE
  5
62B
100
AcDbEntity
  8
_0-3_躯体と製品
  6
CONTINUOUS
 62
     0
100
AcDbLine
 10
567.3488044461
 20
440.4839928659
 11
565.5327877525
 21
442.3000095596
  0
LINE
  5
62C
100
AcDbEntity
  8
_0-3_躯体と製品
  6
CONTINUOUS
 62
     0
100
AcDbLine
 10
564.3639476027
 20
440.6404225845
 11
563.8494591167
 21
441.1549110706
  0
LINE
  5
62D
100
AcDbEntity
  8
_0-3_躯体と製品
  6
CONTINUOUS
 62
     0
100
AcDbLine
 10
564.1284357997
 20
436.1465896782
 11
563.6139473136
 21
436.6610781642
  0
LINE
  5
62E
100
AcDbEntity
  8
_0-3_躯体と製品
  6
CONTINUOUS
 62
     0
100
AcDbLine
 10
563.5884671791
 20
436.1748882344
 11
563.797811004
 21
440.1694063735
  0
LINE
  5
62F
100
AcDbEntity
  8
_0-3_躯体と製品
  6
CONTINUOUS
 62
     0
100
AcDbLine
 10
565.6208642213
 20
436.0683748188
 11
563.6843722892
 21
438.0048667509
  0
LINE
  5
630
100
AcDbEntity
  8
_0-3_躯体と製品
  6
CONTINUOUS
 62
     0
100
AcDbLine
 10
567.113292643
 20
435.9901599595
 11
563.7547972649
 21
439.3486553377
  0
LINE
  5
631
100
AcDbEntity
  8
_0-3_躯体と製品
  6
CONTINUOUS
 62
     0
100
AcDbLine
 10
568.6057210647
 20
435.9119451002
 11
564.3787030538
 21
440.1389631111
  0
LINE
  5
632
100
AcDbEntity
  8
_0-3_躯体と製品
  6
CONTINUOUS
 62
     0
100
AcDbLine
 10
571.8260897112
 20
440.2493482879
 11
570.0100730176
 21
442.0653649816
  0
LINE
  5
633
100
AcDbEntity
  8
_0-3_躯体と製品
  6
CONTINUOUS
 62
     0
100
AcDbLine
 10
573.3185181329
 20
440.1711334286
 11
571.5025014392
 21
441.9871501223
  0
LINE
  5
634
100
AcDbEntity
  8
_0-3_躯体と製品
  6
CONTINUOUS
 62
     0
100
AcDbLine
 10
574.8109465546
 20
440.0929185693
 11
572.9949298609
 21
441.908935263
  0
LINE
  5
635
100
AcDbEntity
  8
_0-3_躯体と製品
  6
CONTINUOUS
 62
     0
100
AcDbLine
 10
576.3033749763
 20
440.01470371
 11
574.4873582826
 21
441.8307204036
  0
LINE
  5
636
100
AcDbEntity
  8
_0-3_躯体と製品
  6
CONTINUOUS
 62
     0
100
AcDbLine
 10
573.0830063298
 20
435.6773005222
 11
568.8559883189
 21
439.9043185332
  0
LINE
  5
637
100
AcDbEntity
  8
_0-3_躯体と製品
  6
CONTINUOUS
 62
     0
100
AcDbLine
 10
574.5754347515
 20
435.5990856629
 11
570.3484167406
 21
439.8261036738
  0
LINE
  5
638
100
AcDbEntity
  8
_0-3_躯体と製品
  6
CONTINUOUS
 62
     0
100
AcDbLine
 10
576.0678631732
 20
435.5208708036
 11
571.8408451623
 21
439.7478888145
  0
TEXT
  5
639
100
AcDbEntity
  8
_0-4_図枠
  6
CONTINUOUS
 62
     0
100
AcDbText
 10
524.3347458396
 20
453.9249600701
 40
5
  1
３
  7
STANDARD
100
AcDbText
  0
CIRCLE
  5
63A
100
AcDbEntity
  8
_0-4_図枠
  6
CONTINUOUS
 62
     0
100
AcDbCircle
 10
520.8909188008
 20
470.0557433617
 40
6
  0
LINE
  5
63B
100
AcDbEntity
  8
_0-3_躯体と製品
  6
CONTINUOUS
 62
     0
100
AcDbLine
 10
591.3076377478
 20
412.9511706838
 11
601.1426453459
 21
366.6810978107
  0
LINE
  5
63C
100
AcDbEntity
  8
_0-3_躯体と製品
  6
CONTINUOUS
 62
     0
100
AcDbLine
 10
594.0825442985
 20
414.3254648085
 11
606.0384944018
 21
358.0771419653
  0
LINE
  5
63D
100
AcDbEntity
  8
_0-3_躯体と製品
  6
CONTINUOUS
 62
     0
100
AcDbLine
 10
606
 20
355.0771419653
 11
606
 21
439.2302482652
  0
LINE
  5
63E
100
AcDbEntity
  8
_0-3_躯体と製品
  6
CONTINUOUS
 62
     0
100
AcDbLine
 10
608
 20
439.2302482652
 11
608
 21
355.0771419653
  0
LINE
  5
63F
100
AcDbEntity
  8
_0-3_躯体と製品
  6
CONTINUOUS
 62
     0
100
AcDbLine
 10
587.6164623608
 20
434.3145075247
 11
601.5700759102
 21
356.174271648
  0
LINE
  5
640
100
AcDbEntity
  8
_0-3_躯体と製品
  6
CONTINUOUS
 62
     0
100
AcDbLine
 10
592.0463864506
 20
435.1055653979
 11
606
 21
356.9653295211
  0
LINE
  5
641
100
AcDbEntity
  8
_0-3_躯体と製品
  6
CONTINUOUS
 62
     0
100
AcDbLine
 10
601.6102697816
 20
364.4810978107
 11
603.0384944018
 21
357.7618292595
  0
LINE
  5
642
100
AcDbEntity
  8
_0-3_躯体と製品
  6
CONTINUOUS
 62
     0
100
AcDbLine
 10
605
 20
352.0771419653
 11
598
 21
352.0771419653
  0
LINE
  5
643
100
AcDbEntity
  8
_0-3_躯体と製品
  6
CONTINUOUS
 62
     0
100
AcDbLine
 10
605
 20
354.0771419653
 11
598
 21
354.0771419653
  0
LINE
  5
644
100
AcDbEntity
  8
_0-3_躯体と製品
  6
CONTINUOUS
 62
     0
100
AcDbLine
 10
598
 20
352.0771419653
 11
598
 21
354.0771419653
  0
ARC
  5
645
100
AcDbEntity
  8
_0-3_躯体と製品
  6
CONTINUOUS
 62
     0
100
AcDbCircle
 10
603.5384944018
 20
356.5771419653
 40
2.5
100
AcDbArc
 50
-90
 51
0
  0
LINE
  5
646
100
AcDbEntity
  8
_0-3_躯体と製品
  6
CONTINUOUS
 62
     0
100
AcDbLine
 10
603.5384944018
 20
354.0771419653
 11
603.0384944018
 21
354.0771419653
  0
LINE
  5
647
100
AcDbEntity
  8
_0-3_躯体と製品
  6
CONTINUOUS
 62
     0
100
AcDbLine
 10
606.0384944018
 20
356.5771419653
 11
606.0384944018
 21
358.0771419653
  0
LINE
  5
648
100
AcDbEntity
  8
_0-3_躯体と製品
  6
CONTINUOUS
 62
     0
100
AcDbLine
 10
603.0384944018
 20
357.7618292595
 11
603.0384944018
 21
354.0771419653
  0
ARC
  5
649
100
AcDbEntity
  8
_0-3_躯体と製品
  6
CONTINUOUS
 62
     0
100
AcDbCircle
 10
605
 20
355.0771419653
 40
3
100
AcDbArc
 50
-90
 51
0
  0
ARC
  5
64A
100
AcDbEntity
  8
_0-3_躯体と製品
  6
CONTINUOUS
 62
     0
100
AcDbCircle
 10
605
 20
355.0771419653
 40
1
100
AcDbArc
 50
-90
 51
0
  0
CIRCLE
  5
64B
100
AcDbEntity
  8
_0-3_躯体と製品
  6
CONTINUOUS
 62
     0
100
AcDbCircle
 10
608
 20
352.0771419653
 40
1.4
  0
LINE
  5
64C
100
AcDbEntity
  8
_0-3_躯体と製品
  6
CONTINUOUS
 62
     0
100
AcDbLine
 10
606
 20
356.9653295211
 11
601.5700759103
 21
356.1742716476
  0
LINE
  5
64D
100
AcDbEntity
  8
_0-3_躯体と製品
  6
CONTINUOUS
 62
     0
100
AcDbLine
 10
601.1211959812
 20
364.8771419653
 11
591.8710201238
 21
364.8771419653
  0
LINE
  5
64E
100
AcDbEntity
  8
_0-3_躯体と製品
  6
CONTINUOUS
 62
     0
100
AcDbLine
 10
591.8710201238
 20
366.0771419653
 11
594.2710201238
 21
366.0771419653
  0
ARC
  5
64F
100
AcDbEntity
  8
_0-3_躯体と製品
  6
CONTINUOUS
 62
     0
100
AcDbCircle
 10
591.8710201238
 20
365.4771419653
 40
0.6
100
AcDbArc
 50
90
 51
270
  0
ARC
  5
650
100
AcDbEntity
  8
_0-3_躯体と製品
  6
CONTINUOUS
 62
     0
100
AcDbCircle
 10
601.1211959812
 20
364.3771419653
 40
0.5
100
AcDbArc
 50
12
 51
90
  0
LINE
  5
651
100
AcDbEntity
  8
_0-3_躯体と製品
  6
CONTINUOUS
 62
     0
100
AcDbLine
 10
596.2710201238
 20
367.0771419653
 11
596.2710201238
 21
366.5771419653
  0
LINE
  5
652
100
AcDbEntity
  8
_0-3_躯体と製品
  6
CONTINUOUS
 62
     0
100
AcDbLine
 10
600.6535715455
 20
366.0771419653
 11
596.2710201238
 21
366.0771419653
  0
ARC
  5
653
100
AcDbEntity
  8
_0-3_躯体と製品
  6
CONTINUOUS
 62
     0
100
AcDbCircle
 10
600.6535715455
 20
366.5771419653
 40
0.5
100
AcDbArc
 50
-90
 51
12
  0
LINE
  5
654
100
AcDbEntity
  8
_0-3_躯体と製品
  6
CONTINUOUS
 62
     0
100
AcDbLine
 10
596.2710201238
 20
367.0771419653
 11
594.2710201238
 21
366.0771419653
  0
LINE
  5
655
100
AcDbEntity
  8
_0-3_躯体と製品
  6
CONTINUOUS
 62
     0
100
AcDbLine
 10
596.2710201238
 20
366.0771419653
 11
596.2710201238
 21
367.0771419653
  0
LINE
  5
656
100
AcDbEntity
  8
_0-4_図枠
  6
CONTINUOUS
 62
     0
100
AcDbLine
 10
591.7535827102
 20
424.5299422278
 11
615.3900638536
 21
465.4695284803
  0
LINE
  5
657
100
AcDbEntity
  8
_0-4_図枠
  6
CONTINUOUS
 62
     0
100
AcDbLine
 10
591.2093559719
 20
441.9649317812
 11
616.3458371153
 21
485.5025942451
  0
LINE
  5
658
100
AcDbEntity
  8
_0-3_躯体と製品
  6
CONTINUOUS
 62
     0
100
AcDbLine
 10
577.3380152287
 20
411.9220548241
 11
578.8034220035
 21
439.8836817972
  0
ARC
  5
659
100
AcDbEntity
  8
_0-3_躯体と製品
  6
CONTINUOUS
 62
     0
100
AcDbCircle
 10
591.1481014963
 20
413.7017297361
 40
3
100
AcDbArc
 50
12
 51
86.99999999999
  0
LINE
  5
65A
100
AcDbEntity
  8
_0-3_躯体と製品
  6
CONTINUOUS
 62
     0
100
AcDbLine
 10
579.1499752683
 20
417.8353280982
 11
579.2546471807
 21
419.8325871677
  0
LINE
  5
65B
100
AcDbEntity
  8
_0-3_躯体と製品
  6
CONTINUOUS
 62
     0
100
AcDbLine
 10
579.4661141888
 20
414.3139567485
 11
587.1411925951
 21
413.9117229334
  0
LINE
  5
65C
100
AcDbEntity
  8
_0-3_躯体と製品
  6
CONTINUOUS
 62
     0
100
AcDbLine
 10
579.6231220575
 20
417.3098453527
 11
591.305109365
 21
416.6976183403
  0
ARC
  5
65D
100
AcDbEntity
  8
_0-3_躯体と製品
  6
CONTINUOUS
 62
     0
100
AcDbCircle
 10
579.4399462107
 20
413.8146419811
 40
0.5
100
AcDbArc
 50
86.99999999999
 51
177
  0
LINE
  5
65E
100
AcDbEntity
  8
_0-3_躯体と製品
  6
CONTINUOUS
 62
     0
100
AcDbLine
 10
578.9406314433
 20
413.8408099592
 11
578.888295487
 21
412.8421804245
  0
ARC
  5
65F
100
AcDbEntity
  8
_0-3_躯体と製品
  6
CONTINUOUS
 62
     0
100
AcDbCircle
 10
579.6492900356
 20
417.8091601201
 40
0.5
100
AcDbArc
 50
177
 51
267
  0
ARC
  5
660
100
AcDbEntity
  8
_0-3_躯体と製品
  6
CONTINUOUS
 62
     0
100
AcDbCircle
 10
578.3889807197
 20
412.8683484026
 40
0.5
100
AcDbArc
 50
-93.00000000001
 51
-2.999999999999
  0
LINE
  5
661
100
AcDbEntity
  8
_0-3_躯体と製品
  6
CONTINUOUS
 62
     0
100
AcDbLine
 10
578.3628127415
 20
412.3690336352
 11
577.8634979742
 21
412.3952016133
  0
ARC
  5
662
100
AcDbEntity
  8
_0-3_躯体と製品
  6
CONTINUOUS
 62
     0
100
AcDbCircle
 10
577.8896659523
 20
412.8945163807
 40
0.5
100
AcDbArc
 50
177
 51
267
  0
LINE
  5
663
100
AcDbEntity
  8
_0-3_躯体と製品
  6
CONTINUOUS
 62
     0
100
AcDbLine
 10
587.6022096494
 20
413.2999326388
 11
587.0190171064
 21
410.7738482091
  0
LINE
  5
664
100
AcDbEntity
  8
_0-3_躯体と製品
  6
CONTINUOUS
 62
     0
100
AcDbLine
 10
590.3818261033
 20
413.7418885277
 11
589.2044796712
 21
413.8035906397
  0
LINE
  5
665
100
AcDbEntity
  8
_0-3_躯体と製品
  6
CONTINUOUS
 62
     0
100
AcDbLine
 10
588.8964678649
 20
413.5714870956
 11
588.1882611842
 21
410.5039069439
  0
ARC
  5
666
100
AcDbEntity
  8
_0-3_躯体と製品
  6
CONTINUOUS
 62
     0
100
AcDbCircle
 10
590.3294901471
 20
412.743258993
 40
1
100
AcDbArc
 50
12
 51
86.99999999999
  0
ARC
  5
667
100
AcDbEntity
  8
_0-3_躯体と製品
  6
CONTINUOUS
 62
     0
100
AcDbCircle
 10
589.1887788844
 20
413.5040017793
 40
0.3
100
AcDbArc
 50
86.99999999999
 51
167
  0
ARC
  5
668
100
AcDbEntity
  8
_0-3_躯体と製品
  6
CONTINUOUS
 62
     0
100
AcDbCircle
 10
587.115024617
 20
413.412408166
 40
0.5
100
AcDbArc
 50
-13
 51
86.99999999999
  0
ARC
  5
669
100
AcDbEntity
  8
_0-3_躯体と製品
  6
CONTINUOUS
 62
     0
100
AcDbCircle
 10
587.6036391453
 20
410.6388775765
 40
0.6
100
AcDbArc
 50
167
 51
347
  0
ARC
  5
66A
100
AcDbEntity
  8
_0-3_躯体と製品
  6
CONTINUOUS
 62
     0
100
AcDbCircle
 10
578.7553324134
 20
419.8587551459
 40
0.5
100
AcDbArc
 50
-2.999999999999
 51
86.99999999999
  0
LINE
  5
66B
100
AcDbEntity
  8
_0-3_躯体と製品
  6
CONTINUOUS
 62
     0
100
AcDbLine
 10
578.7815003915
 20
420.3580699132
 11
578.2821856241
 21
420.3842378914
  0
ARC
  5
66C
100
AcDbEntity
  8
_0-3_躯体と製品
  6
CONTINUOUS
 62
     0
100
AcDbCircle
 10
578.256017646
 20
419.884923124
 40
0.5
100
AcDbArc
 50
86.99999999999
 51
177
  0
CIRCLE
  5
66D
100
AcDbEntity
  8
_0-4_図枠
  6
CONTINUOUS
 62
     0
100
AcDbCircle
 10
591.7535827102
 20
424.5299422278
 40
0.9
  0
CIRCLE
  5
66E
100
AcDbEntity
  8
_0-4_図枠
  6
CONTINUOUS
 62
     0
100
AcDbCircle
 10
591.2093559719
 20
441.9649317812
 40
0.9
  0
ARC
  5
66F
100
AcDbEntity
  8
_0-3_躯体と製品
  6
CONTINUOUS
 62
     0
100
AcDbCircle
 10
584.6631796343
 20
433.7871356092
 40
3
100
AcDbArc
 50
10.1246716554
 51
86.99999999999
  0
ARC
  5
670
100
AcDbEntity
  8
_0-3_躯体と製品
  6
CONTINUOUS
 62
     0
100
AcDbCircle
 10
584.6631796343
 20
433.7871356092
 40
7.5
100
AcDbArc
 50
10.1246716554
 51
86.99999999999
  0
LINE
  5
671
100
AcDbEntity
  8
_0-3_躯体と製品
  6
CONTINUOUS
 62
     0
100
AcDbLine
 10
578.8262992946
 20
440.3202065164
 11
577.472215126
 21
441.674290685
  0
LINE
  5
672
100
AcDbEntity
  8
_0-3_躯体と製品
  6
CONTINUOUS
 62
     0
100
AcDbLine
 10
578.8034220035
 20
439.8836817972
 11
578.8933605559
 21
441.599811609
  0
LINE
  5
673
100
AcDbEntity
  8
_0-3_躯体と製品
  6
CONTINUOUS
 62
     0
100
AcDbLine
 10
578.6578487528
 20
437.1059787026
 11
584.820187503
 21
436.7830242135
  0
LINE
  5
674
100
AcDbEntity
  8
_0-3_躯体と製品
  6
CONTINUOUS
 62
     0
100
AcDbLine
 10
578.8933605559
 20
441.599811609
 11
585.0556993061
 21
441.2768571199
  0
LINE
  5
675
100
AcDbEntity
  8
_0-3_躯体と製品
  6
CONTINUOUS
 62
     0
100
AcDbLine
 10
578.7316374428
 20
438.5139507835
 11
577.810558849
 21
439.4350293772
  0
ARC
  5
676
100
AcDbEntity
  8
_0-3_躯体と製品
  6
CONTINUOUS
 62
     0
100
AcDbCircle
 10
605
 20
439.2302482652
 40
3
100
AcDbArc
 50
0
 51
86.99999999999
  0
ARC
  5
677
100
AcDbEntity
  8
_0-3_躯体と製品
  6
CONTINUOUS
 62
     0
100
AcDbCircle
 10
605
 20
439.2302482652
 40
1
100
AcDbArc
 50
0
 51
86.99999999999
  0
CIRCLE
  5
678
100
AcDbEntity
  8
_0-3_躯体と製品
  6
CONTINUOUS
 62
     0
100
AcDbCircle
 10
608
 20
442.0771419653
 40
1.4
  0
CIRCLE
  5
679
100
AcDbEntity
  8
_0-4_図枠
  6
CONTINUOUS
 62
     0
100
AcDbCircle
 10
618.3900638536
 20
470.665680903
 40
6
  0
TEXT
  5
67A
100
AcDbEntity
  8
_0-4_図枠
  6
CONTINUOUS
 62
     0
100
AcDbText
 10
616.3458371153
 20
487.6987466678
 40
5
  1
１
  7
STANDARD
100
AcDbText
  0
CIRCLE
  5
67B
100
AcDbEntity
  8
_0-4_図枠
  6
CONTINUOUS
 62
     0
100
AcDbCircle
 10
619.3458371153
 20
490.6987466678
 40
6
  0
LINE
  5
67C
100
AcDbEntity
  8
_0-0_0
  6
CONTINUOUS
 62
     0
100
AcDbLine
 10
503
 20
396
 11
503
 21
395
  0
ARC
  5
67D
100
AcDbEntity
  8
_0-0_0
  6
CONTINUOUS
 62
     0
100
AcDbCircle
 10
500.999998
 20
400
 40
0.500001
100
AcDbArc
 50
180
 51
270
  0
LINE
  5
67E
100
AcDbEntity
  8
_0-0_0
  6
CONTINUOUS
 62
     0
100
AcDbLine
 10
500.5
 20
398.000002
 11
500.5
 21
397
  0
LINE
  5
67F
100
AcDbEntity
  8
_0-0_0
  6
CONTINUOUS
 62
     0
100
AcDbLine
 10
511
 20
398.000002
 11
511
 21
397
  0
LINE
  5
680
100
AcDbEntity
  8
_0-0_0
  6
CONTINUOUS
 62
     0
100
AcDbLine
 10
512.5
 20
397
 11
511
 21
397
  0
LINE
  5
681
100
AcDbEntity
  8
_0-0_0
  6
CONTINUOUS
 62
     0
100
AcDbLine
 10
512.5
 20
399.000002
 11
512.5
 21
397
  0
ARC
  5
682
100
AcDbEntity
  8
_0-0_0
  6
CONTINUOUS
 62
     0
100
AcDbCircle
 10
512
 20
399.000002
 40
0.5
100
AcDbArc
 50
0
 51
90
  0
LINE
  5
683
100
AcDbEntity
  8
_0-0_0
  6
CONTINUOUS
 62
     0
100
AcDbLine
 10
500.75
 20
402.750002
 11
502.0000000001
 21
402.750002
  0
LINE
  5
684
100
AcDbEntity
  8
_0-0_0
  6
CONTINUOUS
 62
     0
100
AcDbLine
 10
505.0000000001
 20
402.750002
 11
506.25
 21
402.750002
  0
LINE
  5
685
100
AcDbEntity
  8
_0-0_0
  6
CONTINUOUS
 62
     0
100
AcDbLine
 10
500.5
 20
398.000002
 11
508.0059488738
 21
398.000002
  0
LINE
  5
686
100
AcDbEntity
  8
_0-0_0
  6
CONTINUOUS
 62
     0
100
AcDbLine
 10
508.0059488738
 20
398.000002
 11
511
 21
398.000002
  0
LINE
  5
687
100
AcDbEntity
  8
_0-0_0
  6
CONTINUOUS
 62
     0
100
AcDbLine
 10
506
 20
399.500002
 11
500.999998
 21
399.500002
  0
LINE
  5
688
100
AcDbEntity
  8
_0-0_0
  6
CONTINUOUS
 62
     0
100
AcDbLine
 10
512
 20
399.500002
 11
508
 21
399.500002
  0
ARC
  5
689
100
AcDbEntity
  8
_0-0_0
  6
CONTINUOUS
 62
     0
100
AcDbCircle
 10
506
 20
400.000002
 40
0.25
100
AcDbArc
 50
-90
 51
0
  0
ARC
  5
68A
100
AcDbEntity
  8
_0-0_0
  6
CONTINUOUS
 62
     0
100
AcDbCircle
 10
500.999998
 20
400
 40
0.250001
100
AcDbArc
 50
180
 51
270
  0
LINE
  5
68B
100
AcDbEntity
  8
_0-0_0
  6
CONTINUOUS
 62
     0
100
AcDbLine
 10
506.25
 20
400.000002
 11
506.25
 21
402.750002
  0
LINE
  5
68C
100
AcDbEntity
  8
_0-0_0
  6
CONTINUOUS
 62
     0
100
AcDbLine
 10
500.75
 20
400
 11
500.75
 21
402.750002
  0
LINE
  5
68D
100
AcDbEntity
  8
_0-0_0
  6
CONTINUOUS
 62
     0
100
AcDbLine
 10
506
 20
399.750002
 11
500.999998
 21
399.750002
  0
LINE
  5
68E
100
AcDbEntity
  8
_0-0_0
  6
CONTINUOUS
 62
     0
100
AcDbLine
 10
500.5
 20
403.000002
 11
500.5
 21
400
  0
LINE
  5
68F
100
AcDbEntity
  8
_0-0_0
  6
CONTINUOUS
 62
     0
100
AcDbLine
 10
506.5
 20
400.000002
 11
506.5
 21
403.000002
  0
LINE
  5
690
100
AcDbEntity
  8
_0-0_0
  6
CONTINUOUS
 62
     0
100
AcDbLine
 10
508
 20
404.000002
 11
508
 21
399.500002
  0
ARC
  5
691
100
AcDbEntity
  8
_0-0_0
  6
CONTINUOUS
 62
     0
100
AcDbCircle
 10
507.5
 20
404.000002
 40
0.5
100
AcDbArc
 50
0
 51
90
  0
ARC
  5
692
100
AcDbEntity
  8
_0-0_0
  6
CONTINUOUS
 62
     0
100
AcDbCircle
 10
506
 20
400.000002
 40
0.5
100
AcDbArc
 50
-90
 51
0
  0
LINE
  5
693
100
AcDbEntity
  8
_0-0_0
  6
CONTINUOUS
 62
     0
100
AcDbLine
 10
507.5
 20
404.500002
 11
506.25
 21
404.500002
  0
ARC
  5
694
100
AcDbEntity
  8
_0-0_0
  6
CONTINUOUS
 62
     0
100
AcDbCircle
 10
506.25
 20
403.500002
 40
1
100
AcDbArc
 50
90
 51
180
  0
LINE
  5
695
100
AcDbEntity
  8
_0-0_0
  6
CONTINUOUS
 62
     0
100
AcDbLine
 10
505.25
 20
403.500002
 11
505.25
 21
403.000002
  0
LINE
  5
696
100
AcDbEntity
  8
_0-0_0
  6
CONTINUOUS
 62
     0
100
AcDbLine
 10
505.25
 20
403.000002
 11
506.5
 21
403.000002
  0
LINE
  5
697
100
AcDbEntity
  8
_0-0_0
  6
CONTINUOUS
 62
     0
100
AcDbLine
 10
500.5
 20
403.000002
 11
501.75
 21
403.000002
  0
LINE
  5
698
100
AcDbEntity
  8
_0-0_0
  6
CONTINUOUS
 62
     0
100
AcDbLine
 10
501.75
 20
403.500002
 11
501.75
 21
403.000002
  0
ARC
  5
699
100
AcDbEntity
  8
_0-0_0
  6
CONTINUOUS
 62
     0
100
AcDbCircle
 10
500.75
 20
403.500002
 40
1
100
AcDbArc
 50
0
 51
90
  0
LINE
  5
69A
100
AcDbEntity
  8
_0-0_0
  6
CONTINUOUS
 62
     0
100
AcDbLine
 10
500.75
 20
404.500002
 11
500.5
 21
404.500002
  0
LINE
  5
69B
100
AcDbEntity
  8
_0-0_0
  6
CONTINUOUS
 62
     0
100
AcDbLine
 10
502.0000000001
 20
402.750002
 11
502.0000000001
 21
421.6695578599
  0
LINE
  5
69C
100
AcDbEntity
  8
_0-0_0
  6
CONTINUOUS
 62
     0
100
AcDbLine
 10
505.0000000001
 20
402.750002
 11
505.0000000001
 21
421.7125945835
  0
ARC
  5
69D
100
AcDbEntity
  8
_0-0_0
  6
CONTINUOUS
 62
     0
100
AcDbCircle
 10
526.9048674524
 20
419.4906642912
 40
25
100
AcDbArc
 50
73.59045565079
 51
175
  0
ARC
  5
69E
100
AcDbEntity
  8
_0-0_0
  6
CONTINUOUS
 62
     0
100
AcDbCircle
 10
528.0404846351
 20
420.1257368731
 40
23.08754100601
100
AcDbArc
 50
75.80133910481
 51
176.8159758207
  0
ARC
  5
69F
100
AcDbEntity
  8
_0-0_0
  6
CONTINUOUS
 62
     0
100
AcDbCircle
 10
533.8261482183
 20
442.9927040444
 40
0.5
100
AcDbArc
 50
-104.1986608952
 51
73.59045565079
  0
LINE
  5
6A0
100
AcDbEntity
  8
_0-3_躯体と製品
  6
CONTINUOUS
 62
     0
100
AcDbLine
 10
500.5
 20
404.500002
 11
500.5
 21
415
  0
LINE
  5
6A1
100
AcDbEntity
  8
_0-4_図枠
  6
CONTINUOUS
 62
     0
100
AcDbLine
 10
508.5655459848
 20
434.4914160358
 11
519.0229935214
 21
416.3785855848
  0
CIRCLE
  5
6A2
100
AcDbEntity
  8
_0-4_図枠
  6
CONTINUOUS
 62
     0
100
AcDbCircle
 10
508.5655459848
 20
434.4914160358
 40
0.9
  0
CIRCLE
  5
6A3
100
AcDbEntity
  8
_0-4_図枠
  6
CONTINUOUS
 62
     0
100
AcDbCircle
 10
522.0229935214
 20
411.1824331621
 40
6
  0
TEXT
  5
6A4
100
AcDbEntity
  8
_0-4_図枠
  6
CONTINUOUS
 62
     0
100
AcDbText
 10
518.7729935214
 20
408.1824331621
 40
5
  1
11
  7
STANDARD
100
AcDbText
  0
LINE
  5
6A5
100
AcDbEntity
  8
_0-4_図枠
  6
CONTINUOUS
 62
     0
100
AcDbLine
 10
428.5
 20
165
 11
495.5
 21
165
  0
LINE
  5
6A6
100
AcDbEntity
  8
_0-4_図枠
  6
CONTINUOUS
 62
     0
100
AcDbLine
 10
428.5
 20
174
 11
495.5
 21
174
  0
LINE
  5
6A7
100
AcDbEntity
  8
_0-4_図枠
  6
CONTINUOUS
 62
     0
100
AcDbLine
 10
428.5
 20
183
 11
495.5
 21
183
  0
LINE
  5
6A8
100
AcDbEntity
  8
_0-4_図枠
  6
CONTINUOUS
 62
     0
100
AcDbLine
 10
428.5
 20
192
 11
495.5
 21
192
  0
LINE
  5
6A9
100
AcDbEntity
  8
_0-4_図枠
  6
CONTINUOUS
 62
     0
100
AcDbLine
 10
428.5
 20
201
 11
495.5
 21
201
  0
LINE
  5
6AA
100
AcDbEntity
  8
_0-4_図枠
  6
CONTINUOUS
 62
     0
100
AcDbLine
 10
428.5
 20
210
 11
495.5
 21
210
  0
TEXT
  5
6AB
100
AcDbEntity
  8
_0-4_図枠
  6
CONTINUOUS
 62
     0
100
AcDbText
 10
169.5
 20
166.5
 40
5
  1
ＦＹＫｻｲﾄﾞｷｬｯﾌﾟ ｼﾞｮｲﾝﾄ
  7
STANDARD
100
AcDbText
  0
TEXT
  5
6AC
100
AcDbEntity
  8
_0-4_図枠
  6
CONTINUOUS
 62
     0
100
AcDbText
 10
169.5
 20
175.5
 40
5
  1
ＦＹＫ水切ジョイント
  7
STANDARD
100
AcDbText
  0
TEXT
  5
6AD
100
AcDbEntity
  8
_0-4_図枠
  6
CONTINUOUS
 62
     0
100
AcDbText
 10
169.5
 20
184.5
 40
5
  1
ＦＹＹフレームナット
  7
STANDARD
100
AcDbText
  0
TEXT
  5
6AE
100
AcDbEntity
  8
_0-4_図枠
  6
CONTINUOUS
 62
     0
100
AcDbText
 10
169.5
 20
193.5
 40
5
  1
ＦＹＹホルダースプリング
  7
STANDARD
100
AcDbText
  0
TEXT
  5
6AF
100
AcDbEntity
  8
_0-4_図枠
  6
CONTINUOUS
 62
     0
100
AcDbText
 10
169.5
 20
202.5
 40
5
  1
ＦＹＫホルダー
  7
STANDARD
100
AcDbText
  0
LINE
  5
6B0
100
AcDbEntity
  8
_0-4_図枠
  6
CONTINUOUS
 62
     0
100
AcDbLine
 10
427.5
 20
165
 11
360.5
 21
165
  0
LINE
  5
6B1
100
AcDbEntity
  8
_0-4_図枠
  6
CONTINUOUS
 62
     0
100
AcDbLine
 10
427.5
 20
174
 11
360.5
 21
174
  0
LINE
  5
6B2
100
AcDbEntity
  8
_0-4_図枠
  6
CONTINUOUS
 62
     0
100
AcDbLine
 10
427.5
 20
183
 11
360.5
 21
183
  0
LINE
  5
6B3
100
AcDbEntity
  8
_0-4_図枠
  6
CONTINUOUS
 62
     0
100
AcDbLine
 10
427.5
 20
192
 11
360.5
 21
192
  0
LINE
  5
6B4
100
AcDbEntity
  8
_0-4_図枠
  6
CONTINUOUS
 62
     0
100
AcDbLine
 10
427.5
 20
201
 11
360.5
 21
201
  0
LINE
  5
6B5
100
AcDbEntity
  8
_0-4_図枠
  6
CONTINUOUS
 62
     0
100
AcDbLine
 10
427.5
 20
210
 11
360.5
 21
210
  0
TEXT
  5
6B6
100
AcDbEntity
  8
_0-4_図枠
  6
CONTINUOUS
 62
     0
100
AcDbText
 10
401.25
 20
184.5
 40
5
  1
 6
  7
STANDARD
100
AcDbText
  0
TEXT
  5
6B7
100
AcDbEntity
  8
_0-4_図枠
  6
CONTINUOUS
 62
     0
100
AcDbText
 10
401.25
 20
166.5
 40
5
  1
 1
  7
STANDARD
100
AcDbText
  0
TEXT
  5
6B8
100
AcDbEntity
  8
_0-4_図枠
  6
CONTINUOUS
 62
     0
100
AcDbText
 10
401.25
 20
175.5
 40
5
  1
 1
  7
STANDARD
100
AcDbText
  0
TEXT
  5
6B9
100
AcDbEntity
  8
_0-4_図枠
  6
CONTINUOUS
 62
     0
100
AcDbText
 10
417.5
 20
166.5
 40
5
  1
〃
  7
STANDARD
100
AcDbText
  0
TEXT
  5
6BA
100
AcDbEntity
  8
_0-4_図枠
  6
CONTINUOUS
 62
     0
100
AcDbText
 10
417.5
 20
175.5
 40
5
  1
〃
  7
STANDARD
100
AcDbText
  0
TEXT
  5
6BB
100
AcDbEntity
  8
_0-4_図枠
  6
CONTINUOUS
 62
     0
100
AcDbText
 10
401.25
 20
193.5
 40
5
  1
 6
  7
STANDARD
100
AcDbText
  0
TEXT
  5
6BC
100
AcDbEntity
  8
_0-4_図枠
  6
CONTINUOUS
 62
     0
100
AcDbText
 10
401.25
 20
202.5
 40
5
  1
 6
  7
STANDARD
100
AcDbText
  0
TEXT
  5
6BD
100
AcDbEntity
  8
_0-4_図枠
  6
CONTINUOUS
 62
     0
100
AcDbText
 10
417.5
 20
193.5
 40
5
  1
〃
  7
STANDARD
100
AcDbText
  0
TEXT
  5
6BE
100
AcDbEntity
  8
_0-4_図枠
  6
CONTINUOUS
 62
     0
100
AcDbText
 10
417.5
 20
184.5
 40
5
  1
〃
  7
STANDARD
100
AcDbText
  0
TEXT
  5
6BF
100
AcDbEntity
  8
_0-4_図枠
  6
CONTINUOUS
 62
     0
100
AcDbText
 10
417.5
 20
202.5
 40
5
  1
〃
  7
STANDARD
100
AcDbText
  0
TEXT
  5
6C0
100
AcDbEntity
  8
_0-4_図枠
  6
CONTINUOUS
 62
     0
100
AcDbText
 10
469.25
 20
184.5
 40
5
  1
 4
  7
STANDARD
100
AcDbText
  0
TEXT
  5
6C1
100
AcDbEntity
  8
_0-4_図枠
  6
CONTINUOUS
 62
     0
100
AcDbText
 10
469.25
 20
166.5
 40
5
  1
 1
  7
STANDARD
100
AcDbText
  0
TEXT
  5
6C2
100
AcDbEntity
  8
_0-4_図枠
  6
CONTINUOUS
 62
     0
100
AcDbText
 10
469.25
 20
175.5
 40
5
  1
 1
  7
STANDARD
100
AcDbText
  0
TEXT
  5
6C3
100
AcDbEntity
  8
_0-4_図枠
  6
CONTINUOUS
 62
     0
100
AcDbText
 10
485.5
 20
166.5
 40
5
  1
〃
  7
STANDARD
100
AcDbText
  0
TEXT
  5
6C4
100
AcDbEntity
  8
_0-4_図枠
  6
CONTINUOUS
 62
     0
100
AcDbText
 10
485.5
 20
175.5
 40
5
  1
〃
  7
STANDARD
100
AcDbText
  0
TEXT
  5
6C5
100
AcDbEntity
  8
_0-4_図枠
  6
CONTINUOUS
 62
     0
100
AcDbText
 10
469.25
 20
193.5
 40
5
  1
 4
  7
STANDARD
100
AcDbText
  0
TEXT
  5
6C6
100
AcDbEntity
  8
_0-4_図枠
  6
CONTINUOUS
 62
     0
100
AcDbText
 10
469.25
 20
202.5
 40
5
  1
 4
  7
STANDARD
100
AcDbText
  0
TEXT
  5
6C7
100
AcDbEntity
  8
_0-4_図枠
  6
CONTINUOUS
 62
     0
100
AcDbText
 10
485.5
 20
193.5
 40
5
  1
〃
  7
STANDARD
100
AcDbText
  0
TEXT
  5
6C8
100
AcDbEntity
  8
_0-4_図枠
  6
CONTINUOUS
 62
     0
100
AcDbText
 10
485.5
 20
184.5
 40
5
  1
〃
  7
STANDARD
100
AcDbText
  0
TEXT
  5
6C9
100
AcDbEntity
  8
_0-4_図枠
  6
CONTINUOUS
 62
     0
100
AcDbText
 10
485.5
 20
202.5
 40
5
  1
〃
  7
STANDARD
100
AcDbText
  0
TEXT
  5
6CA
100
AcDbEntity
  8
_0-4_図枠
  6
CONTINUOUS
 62
     0
100
AcDbText
 10
169.5
 20
157.5
 40
5
  1
止水補助板
  7
STANDARD
100
AcDbText
  0
TEXT
  5
6CB
100
AcDbEntity
  8
_0-4_図枠
  6
CONTINUOUS
 62
     0
100
AcDbText
 10
439.25
 20
157.5
 40
5
  1
2100
  7
STANDARD
100
AcDbText
  0
TEXT
  5
6CC
100
AcDbEntity
  8
_0-4_図枠
  6
CONTINUOUS
 62
     0
100
AcDbText
 10
371.25
 20
157.5
 40
5
  1
3100
  7
STANDARD
100
AcDbText
  0
TEXT
  5
6CD
100
AcDbEntity
  8
_0-4_図枠
  6
CONTINUOUS
 62
     0
100
AcDbText
 10
401.25
 20
157.5
 40
5
  1
 1
  7
STANDARD
100
AcDbText
  0
TEXT
  5
6CE
100
AcDbEntity
  8
_0-4_図枠
  6
CONTINUOUS
 62
     0
100
AcDbText
 10
417.5
 20
157.5
 40
5
  1
〃
  7
STANDARD
100
AcDbText
  0
TEXT
  5
6CF
100
AcDbEntity
  8
_0-4_図枠
  6
CONTINUOUS
 62
     0
100
AcDbText
 10
469.25
 20
157.5
 40
5
  1
 1
  7
STANDARD
100
AcDbText
  0
TEXT
  5
6D0
100
AcDbEntity
  8
_0-4_図枠
  6
CONTINUOUS
 62
     0
100
AcDbText
 10
485.5
 20
157.5
 40
5
  1
〃
  7
STANDARD
100
AcDbText
  0
LINE
  5
6D1
100
AcDbEntity
  8
_0-4_図枠
  6
CONTINUOUS
 62
     0
100
AcDbLine
 10
428.5
 20
147
 11
495.5
 21
147
  0
LINE
  5
6D2
100
AcDbEntity
  8
_0-4_図枠
  6
CONTINUOUS
 62
     0
100
AcDbLine
 10
428.5
 20
156
 11
495.5
 21
156
  0
LINE
  5
6D3
100
AcDbEntity
  8
_0-4_図枠
  6
CONTINUOUS
 62
     0
100
AcDbLine
 10
427.5
 20
147
 11
360.5
 21
147
  0
LINE
  5
6D4
100
AcDbEntity
  8
_0-4_図枠
  6
CONTINUOUS
 62
     0
100
AcDbLine
 10
427.5
 20
156
 11
360.5
 21
156
  0
TEXT
  5
6D5
100
AcDbEntity
  8
_0-4_図枠
  6
CONTINUOUS
 62
     0
100
AcDbText
 10
439.25
 20
58.5
 40
5
  1
6000
  7
STANDARD
100
AcDbText
  0
TEXT
  5
6D6
100
AcDbEntity
  8
_0-4_図枠
  6
CONTINUOUS
 62
     0
100
AcDbText
 10
439.25
 20
139.5
 40
5
  1
2000
  7
STANDARD
100
AcDbText
  0
TEXT
  5
6D7
100
AcDbEntity
  8
_0-4_図枠
  6
CONTINUOUS
 62
     0
100
AcDbText
 10
439.25
 20
148.5
 40
5
  1
2100
  7
STANDARD
100
AcDbText
  0
LINE
  5
6D8
100
AcDbEntity
  8
_0-4_図枠
  6
CONTINUOUS
 62
     0
100
AcDbLine
 10
428.5
 20
57
 11
495.5
 21
57
  0
LINE
  5
6D9
100
AcDbEntity
  8
_0-4_図枠
  6
CONTINUOUS
 62
     0
100
AcDbLine
 10
428.5
 20
66
 11
495.5
 21
66
  0
LINE
  5
6DA
100
AcDbEntity
  8
_0-4_図枠
  6
CONTINUOUS
 62
     0
100
AcDbLine
 10
428.5
 20
75
 11
495.5
 21
75
  0
LINE
  5
6DB
100
AcDbEntity
  8
_0-4_図枠
  6
CONTINUOUS
 62
     0
100
AcDbLine
 10
428.5
 20
84
 11
495.5
 21
84
  0
LINE
  5
6DC
100
AcDbEntity
  8
_0-4_図枠
  6
CONTINUOUS
 62
     0
100
AcDbLine
 10
428.5
 20
93
 11
495.5
 21
93
  0
LINE
  5
6DD
100
AcDbEntity
  8
_0-4_図枠
  6
CONTINUOUS
 62
     0
100
AcDbLine
 10
428.5
 20
102
 11
495.5
 21
102
  0
LINE
  5
6DE
100
AcDbEntity
  8
_0-4_図枠
  6
CONTINUOUS
 62
     0
100
AcDbLine
 10
428.5
 20
111
 11
495.5
 21
111
  0
LINE
  5
6DF
100
AcDbEntity
  8
_0-4_図枠
  6
CONTINUOUS
 62
     0
100
AcDbLine
 10
428.5
 20
120
 11
495.5
 21
120
  0
LINE
  5
6E0
100
AcDbEntity
  8
_0-4_図枠
  6
CONTINUOUS
 62
     0
100
AcDbLine
 10
428.5
 20
129
 11
495.5
 21
129
  0
LINE
  5
6E1
100
AcDbEntity
  8
_0-4_図枠
  6
CONTINUOUS
 62
     0
100
AcDbLine
 10
428.5
 20
138
 11
495.5
 21
138
  0
TEXT
  5
6E2
100
AcDbEntity
  8
_0-4_図枠
  6
CONTINUOUS
 62
     0
100
AcDbText
 10
169.5
 20
58.5
 40
5
  1
ブチルテープ
  7
STANDARD
100
AcDbText
  0
TEXT
  5
6E3
100
AcDbEntity
  8
_0-4_図枠
  6
CONTINUOUS
 62
     0
100
AcDbText
 10
169.5
 20
67.5
 40
5
  1
ステンワッシャー
  7
STANDARD
100
AcDbText
  0
TEXT
  5
6E4
100
AcDbEntity
  8
_0-4_図枠
  6
CONTINUOUS
 62
     0
100
AcDbText
 10
169.5
 20
76.5
 40
5
  1
ステスワッシャー
  7
STANDARD
100
AcDbText
  0
TEXT
  5
6E5
100
AcDbEntity
  8
_0-4_図枠
  6
CONTINUOUS
 62
     0
100
AcDbText
 10
169.5
 20
85.5
 40
5
  1
ステンタッピンねじ
  7
STANDARD
100
AcDbText
  0
TEXT
  5
6E6
100
AcDbEntity
  8
_0-4_図枠
  6
CONTINUOUS
 62
     0
100
AcDbText
 10
169.5
 20
94.5
 40
5
  1
アンカープラグ
  7
STANDARD
100
AcDbText
  0
TEXT
  5
6E7
100
AcDbEntity
  8
_0-4_図枠
  6
CONTINUOUS
 62
     0
100
AcDbText
 10
169.5
 20
103.5
 40
5
  1
アジャストアンカー
  7
STANDARD
100
AcDbText
  0
TEXT
  5
6E8
100
AcDbEntity
  8
_0-4_図枠
  6
CONTINUOUS
 62
     0
100
AcDbText
 10
169.5
 20
112.5
 40
5
  1
ステン六角ボルト
  7
STANDARD
100
AcDbText
  0
TEXT
  5
6E9
100
AcDbEntity
  8
_0-4_図枠
  6
CONTINUOUS
 62
     0
100
AcDbText
 10
169.5
 20
139.5
 40
5
  1
ガスケットＮ
  7
STANDARD
100
AcDbText
  0
TEXT
  5
6EA
100
AcDbEntity
  8
_0-4_図枠
  6
CONTINUOUS
 62
     0
100
AcDbText
 10
371.25
 20
58.5
 40
5
  1
6000
  7
STANDARD
100
AcDbText
  0
LINE
  5
6EB
100
AcDbEntity
  8
_0-4_図枠
  6
CONTINUOUS
 62
     0
100
AcDbLine
 10
427.5
 20
57
 11
360.5
 21
57
  0
LINE
  5
6EC
100
AcDbEntity
  8
_0-4_図枠
  6
CONTINUOUS
 62
     0
100
AcDbLine
 10
427.5
 20
66
 11
360.5
 21
66
  0
LINE
  5
6ED
100
AcDbEntity
  8
_0-4_図枠
  6
CONTINUOUS
 62
     0
100
AcDbLine
 10
427.5
 20
75
 11
360.5
 21
75
  0
LINE
  5
6EE
100
AcDbEntity
  8
_0-4_図枠
  6
CONTINUOUS
 62
     0
100
AcDbLine
 10
427.5
 20
84
 11
360.5
 21
84
  0
LINE
  5
6EF
100
AcDbEntity
  8
_0-4_図枠
  6
CONTINUOUS
 62
     0
100
AcDbLine
 10
427.5
 20
93
 11
360.5
 21
93
  0
LINE
  5
6F0
100
AcDbEntity
  8
_0-4_図枠
  6
CONTINUOUS
 62
     0
100
AcDbLine
 10
427.5
 20
102
 11
360.5
 21
102
  0
LINE
  5
6F1
100
AcDbEntity
  8
_0-4_図枠
  6
CONTINUOUS
 62
     0
100
AcDbLine
 10
427.5
 20
111
 11
360.5
 21
111
  0
LINE
  5
6F2
100
AcDbEntity
  8
_0-4_図枠
  6
CONTINUOUS
 62
     0
100
AcDbLine
 10
427.5
 20
120
 11
360.5
 21
120
  0
LINE
  5
6F3
100
AcDbEntity
  8
_0-4_図枠
  6
CONTINUOUS
 62
     0
100
AcDbLine
 10
427.5
 20
129
 11
360.5
 21
129
  0
LINE
  5
6F4
100
AcDbEntity
  8
_0-4_図枠
  6
CONTINUOUS
 62
     0
100
AcDbLine
 10
427.5
 20
138
 11
360.5
 21
138
  0
TEXT
  5
6F5
100
AcDbEntity
  8
_0-4_図枠
  6
CONTINUOUS
 62
     0
100
AcDbText
 10
401.25
 20
67.5
 40
5
  1
 6
  7
STANDARD
100
AcDbText
  0
TEXT
  5
6F6
100
AcDbEntity
  8
_0-4_図枠
  6
CONTINUOUS
 62
     0
100
AcDbText
 10
401.25
 20
58.5
 40
5
  1
 1
  7
STANDARD
100
AcDbText
  0
TEXT
  5
6F7
100
AcDbEntity
  8
_0-4_図枠
  6
CONTINUOUS
 62
     0
100
AcDbText
 10
401.25
 20
76.5
 40
5
  1
 6
  7
STANDARD
100
AcDbText
  0
TEXT
  5
6F8
100
AcDbEntity
  8
_0-4_図枠
  6
CONTINUOUS
 62
     0
100
AcDbText
 10
401.25
 20
85.5
 40
5
  1
 6
  7
STANDARD
100
AcDbText
  0
TEXT
  5
6F9
100
AcDbEntity
  8
_0-4_図枠
  6
CONTINUOUS
 62
     0
100
AcDbText
 10
417.5
 20
58.5
 40
5
  1
巻
  7
STANDARD
100
AcDbText
  0
TEXT
  5
6FA
100
AcDbEntity
  8
_0-4_図枠
  6
CONTINUOUS
 62
     0
100
AcDbText
 10
417.5
 20
76.5
 40
5
  1
枚
  7
STANDARD
100
AcDbText
  0
TEXT
  5
6FB
100
AcDbEntity
  8
_0-4_図枠
  6
CONTINUOUS
 62
     0
100
AcDbText
 10
417.5
 20
67.5
 40
5
  1
〃
  7
STANDARD
100
AcDbText
  0
TEXT
  5
6FC
100
AcDbEntity
  8
_0-4_図枠
  6
CONTINUOUS
 62
     0
100
AcDbText
 10
417.5
 20
85.5
 40
5
  1
〃
  7
STANDARD
100
AcDbText
  0
TEXT
  5
6FD
100
AcDbEntity
  8
_0-4_図枠
  6
CONTINUOUS
 62
     0
100
AcDbText
 10
401.25
 20
112.5
 40
5
  1
 6
  7
STANDARD
100
AcDbText
  0
TEXT
  5
6FE
100
AcDbEntity
  8
_0-4_図枠
  6
CONTINUOUS
 62
     0
100
AcDbText
 10
401.25
 20
103.5
 40
5
  1
 6
  7
STANDARD
100
AcDbText
  0
TEXT
  5
6FF
100
AcDbEntity
  8
_0-4_図枠
  6
CONTINUOUS
 62
     0
100
AcDbText
 10
401.25
 20
94.5
 40
5
  1
 6
  7
STANDARD
100
AcDbText
  0
TEXT
  5
700
100
AcDbEntity
  8
_0-4_図枠
  6
CONTINUOUS
 62
     0
100
AcDbText
 10
401.25
 20
121.5
 40
5
  1
 6
  7
STANDARD
100
AcDbText
  0
TEXT
  5
701
100
AcDbEntity
  8
_0-4_図枠
  6
CONTINUOUS
 62
     0
100
AcDbText
 10
401.25
 20
130.5
 40
5
  1
 6
  7
STANDARD
100
AcDbText
  0
TEXT
  5
702
100
AcDbEntity
  8
_0-4_図枠
  6
CONTINUOUS
 62
     0
100
AcDbText
 10
417.5
 20
112.5
 40
5
  1
〃
  7
STANDARD
100
AcDbText
  0
TEXT
  5
703
100
AcDbEntity
  8
_0-4_図枠
  6
CONTINUOUS
 62
     0
100
AcDbText
 10
417.5
 20
94.5
 40
5
  1
〃
  7
STANDARD
100
AcDbText
  0
TEXT
  5
704
100
AcDbEntity
  8
_0-4_図枠
  6
CONTINUOUS
 62
     0
100
AcDbText
 10
417.5
 20
103.5
 40
5
  1
〃
  7
STANDARD
100
AcDbText
  0
TEXT
  5
705
100
AcDbEntity
  8
_0-4_図枠
  6
CONTINUOUS
 62
     0
100
AcDbText
 10
417.5
 20
121.5
 40
5
  1
〃
  7
STANDARD
100
AcDbText
  0
TEXT
  5
706
100
AcDbEntity
  8
_0-4_図枠
  6
CONTINUOUS
 62
     0
100
AcDbText
 10
417.5
 20
130.5
 40
5
  1
〃
  7
STANDARD
100
AcDbText
  0
TEXT
  5
707
100
AcDbEntity
  8
_0-4_図枠
  6
CONTINUOUS
 62
     0
100
AcDbText
 10
371.25
 20
139.5
 40
5
  1
3000
  7
STANDARD
100
AcDbText
  0
TEXT
  5
708
100
AcDbEntity
  8
_0-4_図枠
  6
CONTINUOUS
 62
     0
100
AcDbText
 10
371.25
 20
148.5
 40
5
  1
3100
  7
STANDARD
100
AcDbText
  0
TEXT
  5
709
100
AcDbEntity
  8
_0-4_図枠
  6
CONTINUOUS
 62
     0
100
AcDbText
 10
401.25
 20
148.5
 40
5
  1
 1
  7
STANDARD
100
AcDbText
  0
TEXT
  5
70A
100
AcDbEntity
  8
_0-4_図枠
  6
CONTINUOUS
 62
     0
100
AcDbText
 10
401.25
 20
139.5
 40
5
  1
 1
  7
STANDARD
100
AcDbText
  0
TEXT
  5
70B
100
AcDbEntity
  8
_0-4_図枠
  6
CONTINUOUS
 62
     0
100
AcDbText
 10
417.5
 20
148.5
 40
5
  1
〃
  7
STANDARD
100
AcDbText
  0
TEXT
  5
70C
100
AcDbEntity
  8
_0-4_図枠
  6
CONTINUOUS
 62
     0
100
AcDbText
 10
417.5
 20
139.5
 40
5
  1
本
  7
STANDARD
100
AcDbText
  0
TEXT
  5
70D
100
AcDbEntity
  8
_0-4_図枠
  6
CONTINUOUS
 62
     0
100
AcDbText
 10
469.25
 20
67.5
 40
5
  1
 5
  7
STANDARD
100
AcDbText
  0
TEXT
  5
70E
100
AcDbEntity
  8
_0-4_図枠
  6
CONTINUOUS
 62
     0
100
AcDbText
 10
469.25
 20
58.5
 40
5
  1
 1
  7
STANDARD
100
AcDbText
  0
TEXT
  5
70F
100
AcDbEntity
  8
_0-4_図枠
  6
CONTINUOUS
 62
     0
100
AcDbText
 10
469.25
 20
76.5
 40
5
  1
 5
  7
STANDARD
100
AcDbText
  0
TEXT
  5
710
100
AcDbEntity
  8
_0-4_図枠
  6
CONTINUOUS
 62
     0
100
AcDbText
 10
469.25
 20
85.5
 40
5
  1
 5
  7
STANDARD
100
AcDbText
  0
TEXT
  5
711
100
AcDbEntity
  8
_0-4_図枠
  6
CONTINUOUS
 62
     0
100
AcDbText
 10
485.5
 20
58.5
 40
5
  1
巻
  7
STANDARD
100
AcDbText
  0
TEXT
  5
712
100
AcDbEntity
  8
_0-4_図枠
  6
CONTINUOUS
 62
     0
100
AcDbText
 10
485.5
 20
76.5
 40
5
  1
枚
  7
STANDARD
100
AcDbText
  0
TEXT
  5
713
100
AcDbEntity
  8
_0-4_図枠
  6
CONTINUOUS
 62
     0
100
AcDbText
 10
485.5
 20
67.5
 40
5
  1
〃
  7
STANDARD
100
AcDbText
  0
TEXT
  5
714
100
AcDbEntity
  8
_0-4_図枠
  6
CONTINUOUS
 62
     0
100
AcDbText
 10
485.5
 20
85.5
 40
5
  1
〃
  7
STANDARD
100
AcDbText
  0
TEXT
  5
715
100
AcDbEntity
  8
_0-4_図枠
  6
CONTINUOUS
 62
     0
100
AcDbText
 10
469.25
 20
112.5
 40
5
  1
 5
  7
STANDARD
100
AcDbText
  0
TEXT
  5
716
100
AcDbEntity
  8
_0-4_図枠
  6
CONTINUOUS
 62
     0
100
AcDbText
 10
469.25
 20
103.5
 40
5
  1
 5
  7
STANDARD
100
AcDbText
  0
TEXT
  5
717
100
AcDbEntity
  8
_0-4_図枠
  6
CONTINUOUS
 62
     0
100
AcDbText
 10
469.25
 20
94.5
 40
5
  1
 5
  7
STANDARD
100
AcDbText
  0
TEXT
  5
718
100
AcDbEntity
  8
_0-4_図枠
  6
CONTINUOUS
 62
     0
100
AcDbText
 10
469.25
 20
121.5
 40
5
  1
 5
  7
STANDARD
100
AcDbText
  0
TEXT
  5
719
100
AcDbEntity
  8
_0-4_図枠
  6
CONTINUOUS
 62
     0
100
AcDbText
 10
469.25
 20
130.5
 40
5
  1
 4
  7
STANDARD
100
AcDbText
  0
TEXT
  5
71A
100
AcDbEntity
  8
_0-4_図枠
  6
CONTINUOUS
 62
     0
100
AcDbText
 10
485.5
 20
112.5
 40
5
  1
〃
  7
STANDARD
100
AcDbText
  0
TEXT
  5
71B
100
AcDbEntity
  8
_0-4_図枠
  6
CONTINUOUS
 62
     0
100
AcDbText
 10
485.5
 20
94.5
 40
5
  1
〃
  7
STANDARD
100
AcDbText
  0
TEXT
  5
71C
100
AcDbEntity
  8
_0-4_図枠
  6
CONTINUOUS
 62
     0
100
AcDbText
 10
485.5
 20
103.5
 40
5
  1
〃
  7
STANDARD
100
AcDbText
  0
TEXT
  5
71D
100
AcDbEntity
  8
_0-4_図枠
  6
CONTINUOUS
 62
     0
100
AcDbText
 10
485.5
 20
121.5
 40
5
  1
〃
  7
STANDARD
100
AcDbText
  0
TEXT
  5
71E
100
AcDbEntity
  8
_0-4_図枠
  6
CONTINUOUS
 62
     0
100
AcDbText
 10
485.5
 20
130.5
 40
5
  1
〃
  7
STANDARD
100
AcDbText
  0
TEXT
  5
71F
100
AcDbEntity
  8
_0-4_図枠
  6
CONTINUOUS
 62
     0
100
AcDbText
 10
469.25
 20
148.5
 40
5
  1
 1
  7
STANDARD
100
AcDbText
  0
TEXT
  5
720
100
AcDbEntity
  8
_0-4_図枠
  6
CONTINUOUS
 62
     0
100
AcDbText
 10
469.25
 20
139.5
 40
5
  1
 1
  7
STANDARD
100
AcDbText
  0
TEXT
  5
721
100
AcDbEntity
  8
_0-4_図枠
  6
CONTINUOUS
 62
     0
100
AcDbText
 10
485.5
 20
148.5
 40
5
  1
〃
  7
STANDARD
100
AcDbText
  0
TEXT
  5
722
100
AcDbEntity
  8
_0-4_図枠
  6
CONTINUOUS
 62
     0
100
AcDbText
 10
485.5
 20
139.5
 40
5
  1
本
  7
STANDARD
100
AcDbText
  0
TEXT
  5
723
100
AcDbEntity
  8
_0-4_図枠
  6
CONTINUOUS
 62
     0
100
AcDbText
 10
169.5
 20
148.5
 40
5
  1
ウォーターガード
  7
STANDARD
100
AcDbText
  0
TEXT
  5
724
100
AcDbEntity
  8
_0-4_図枠
  6
CONTINUOUS
 62
     0
100
AcDbText
 10
545.8986558504
 20
454.9136998075
 40
5
  1
５
  7
STANDARD
100
AcDbText
  0
TEXT
  5
725
100
AcDbEntity
  8
_0-4_図枠
  6
CONTINUOUS
 62
     0
100
AcDbText
 10
517.8909188008
 20
467.0557433617
 40
5
  1
６
  7
STANDARD
100
AcDbText
  0
TEXT
  5
726
100
AcDbEntity
  8
_0-4_図枠
  6
CONTINUOUS
 62
     0
100
AcDbText
 10
503.9591688599
 20
381.8859835099
 40
5
  1
７
  7
STANDARD
100
AcDbText
  0
TEXT
  5
727
100
AcDbEntity
  8
_0-4_図枠
  6
CONTINUOUS
 62
     0
100
AcDbText
 10
615.3900638536
 20
467.665680903
 40
5
  1
８
  7
STANDARD
100
AcDbText
  0
TEXT
  5
728
100
AcDbEntity
  8
_0-4_図枠
  6
CONTINUOUS
 62
     0
100
AcDbText
 10
335.4365555244
 20
519.0432285198
 40
5
  1
９
  7
STANDARD
100
AcDbText
  0
TEXT
  5
729
100
AcDbEntity
  8
_0-4_図枠
  6
CONTINUOUS
 62
     0
100
AcDbText
 10
333.4730726282
 20
359.3022346788
 40
5
  1
10
  7
STANDARD
100
AcDbText
  0
TEXT
  5
72A
100
AcDbEntity
  8
_0-4_図枠
  6
CONTINUOUS
 62
     0
100
AcDbText
 10
337.3625019454
 20
411.0260690185
 40
5
  1
12
  7
STANDARD
100
AcDbText
  0
TEXT
  5
72B
100
AcDbEntity
  8
_0-4_図枠
  6
CONTINUOUS
 62
     0
100
AcDbText
 10
501.6299775765
 20
463.5340501395
 40
5
  1
13
  7
STANDARD
100
AcDbText
  0
TEXT
  5
72C
100
AcDbEntity
  8
_0-4_図枠
  6
CONTINUOUS
 62
     0
100
AcDbText
 10
267.0818935557
 20
542.9665697202
 40
5
  1
14
  7
STANDARD
100
AcDbText
  0
TEXT
  5
72D
100
AcDbEntity
  8
_0-4_図枠
  6
CONTINUOUS
 62
     0
100
AcDbText
 10
502.5097964936
 20
366.4600133715
 40
5
  1
15
  7
STANDARD
100
AcDbText
  0
TEXT
  5
72E
100
AcDbEntity
  8
_0-4_図枠
  6
CONTINUOUS
 62
     0
100
AcDbText
 10
463.5823748293
 20
344.3286002038
 40
5
  1
16
  7
STANDARD
100
AcDbText
  0
TEXT
  5
72F
100
AcDbEntity
  8
_0-4_図枠
  6
CONTINUOUS
 62
     0
100
AcDbText
 10
234.3182362501
 20
476.7511910931
 40
5
  1
17
  7
STANDARD
100
AcDbText
  0
TEXT
  5
730
100
AcDbEntity
  8
_0-4_図枠
  6
CONTINUOUS
 62
     0
100
AcDbText
 10
262.3845402624
 20
477.8499313059
 40
5
  1
18
  7
STANDARD
100
AcDbText
  0
TEXT
  5
731
100
AcDbEntity
  8
_0-4_図枠
  6
CONTINUOUS
 62
     0
100
AcDbText
 10
458.9309946151
 20
375.2438685256
 40
5
  1
19
  7
STANDARD
100
AcDbText
  0
TEXT
  5
732
100
AcDbEntity
  8
_0-4_図枠
  6
CONTINUOUS
 62
     0
100
AcDbText
 10
264.1257359325
 20
425.677838136
 40
5
  1
20
  7
STANDARD
100
AcDbText
  0
TEXT
  5
733
100
AcDbEntity
  8
_0-4_図枠
  6
CONTINUOUS
 62
     0
100
AcDbText
 10
154.5
 20
58.5
 40
5
  1
※
  7
STANDARD
100
AcDbText
  0
LINE
  5
734
100
AcDbEntity
  8
_0-4_図枠
  6
CONTINUOUS
 62
     0
100
AcDbLine
 10
150.5
 20
57
 11
150.5
 21
255
  0
LINE
  5
735
100
AcDbEntity
  8
_0-4_図枠
  6
CONTINUOUS
 62
     0
100
AcDbLine
 10
495.5
 20
57
 11
495.5
 21
255
  0
LINE
  5
736
100
AcDbEntity
  8
_0-4_図枠
  6
CONTINUOUS
 62
     0
100
AcDbLine
 10
164.5
 20
57
 11
164.5
 21
255
  0
LINE
  5
737
100
AcDbEntity
  8
_0-4_図枠
  6
CONTINUOUS
 62
     0
100
AcDbLine
 10
428.5
 20
57
 11
428.5
 21
255
  0
LINE
  5
738
100
AcDbEntity
  8
_0-4_図枠
  6
CONTINUOUS
 62
     0
100
AcDbLine
 10
427.5
 20
57
 11
427.5
 21
255
  0
LINE
  5
739
100
AcDbEntity
  8
_0-4_図枠
  6
CONTINUOUS
 62
     0
100
AcDbLine
 10
413.5
 20
57
 11
413.5
 21
255
  0
LINE
  5
73A
100
AcDbEntity
  8
_0-4_図枠
  6
CONTINUOUS
 62
     0
100
AcDbLine
 10
395.5
 20
57
 11
395.5
 21
255
  0
LINE
  5
73B
100
AcDbEntity
  8
_0-4_図枠
  6
CONTINUOUS
 62
     0
100
AcDbLine
 10
360.5
 20
57
 11
360.5
 21
255
  0
LINE
  5
73C
100
AcDbEntity
  8
_0-4_図枠
  6
CONTINUOUS
 62
     0
100
AcDbLine
 10
359.5
 20
57
 11
359.5
 21
255
  0
LINE
  5
73D
100
AcDbEntity
  8
_0-4_図枠
  6
CONTINUOUS
 62
     0
100
AcDbLine
 10
264.5
 20
57
 11
264.5
 21
255
  0
LINE
  5
73E
100
AcDbEntity
  8
_0-4_図枠
  6
CONTINUOUS
 62
     0
100
AcDbLine
 10
481.5
 20
57
 11
481.5
 21
255
  0
LINE
  5
73F
100
AcDbEntity
  8
_0-4_図枠
  6
CONTINUOUS
 62
     0
100
AcDbLine
 10
463.5
 20
57
 11
463.5
 21
255
  0
TEXT
  5
740
100
AcDbEntity
  8
_0-4_図枠
  6
CONTINUOUS
 62
     0
100
AcDbText
 10
53.04650870913
 20
584.4696321568
 40
10
  1
◇アルミ１００タイプ（１００ＦＹＫＧ－Ａ）
  7
STANDARD
100
AcDbText
  0
TEXT
  5
741
100
AcDbEntity
  8
_0-4_図枠
  6
CONTINUOUS
 62
     0
100
AcDbText
 10
525.25
 20
229.5
 40
5
  1
　　  〃　 　３２５
  7
STANDARD
100
AcDbText
  0
TEXT
  5
742
100
AcDbEntity
  8
_0-4_図枠
  6
CONTINUOUS
 62
     0
100
AcDbText
 10
525.25
 20
220.5
 40
5
  1
　　  〃　 　３５０
  7
STANDARD
100
AcDbText
  0
TEXT
  5
743
100
AcDbEntity
  8
_0-4_図枠
  6
CONTINUOUS
 62
     0
100
AcDbText
 10
525.25
 20
211.5
 40
5
  1
　　  〃　 　３７５
  7
STANDARD
100
AcDbText
  0
TEXT
  5
744
100
AcDbEntity
  8
_0-4_図枠
  6
CONTINUOUS
 62
     0
100
AcDbText
 10
525.25
 20
202.5
 40
5
  1
　　  〃　 　４００
  7
STANDARD
100
AcDbText
  0
TEXT
  5
745
100
AcDbEntity
  8
_0-4_図枠
  6
CONTINUOUS
 62
     0
100
AcDbText
 10
525.25
 20
193.5
 40
5
  1
　　  〃　 　４２５
  7
STANDARD
100
AcDbText
  0
TEXT
  5
746
100
AcDbEntity
  8
_0-4_図枠
  6
CONTINUOUS
 62
     0
100
AcDbText
 10
525.25
 20
184.5
 40
5
  1
　　  〃　 　４５０
  7
STANDARD
100
AcDbText
  0
TEXT
  5
747
100
AcDbEntity
  8
_0-4_図枠
  6
CONTINUOUS
 62
     0
100
AcDbText
 10
525.25
 20
175.5
 40
5
  1
　　  〃　 　４７５
  7
STANDARD
100
AcDbText
  0
TEXT
  5
748
100
AcDbEntity
  8
_0-4_図枠
  6
CONTINUOUS
 62
     0
100
AcDbText
 10
525.25
 20
166.5
 40
5
  1
　　  〃　 　５００
  7
STANDARD
100
AcDbText
  0
TEXT
  5
749
100
AcDbEntity
  8
_0-4_図枠
  6
CONTINUOUS
 62
     0
100
AcDbText
 10
525.25
 20
157.5
 40
5
  1
　　  〃　 　５２５
  7
STANDARD
100
AcDbText
  0
TEXT
  5
74A
100
AcDbEntity
  8
_0-4_図枠
  6
CONTINUOUS
 62
     0
100
AcDbText
 10
525.25
 20
238.5
 40
5
  1
１００ＦＹＫＧ－Ａ３００
  7
STANDARD
100
AcDbText
  0
INSERT
  5
74B
100
AcDbEntity
  8
_0-2_寸法
100
AcDbBlockReference
  2
BK2
 10
0
 20
0
  0
INSERT
  5
74C
100
AcDbEntity
  8
_0-2_寸法
100
AcDbBlockReference
  2
BK3
 10
0
 20
0
  0
INSERT
  5
74D
100
AcDbEntity
  8
_0-2_寸法
100
AcDbBlockReference
  2
BK4
 10
0
 20
0
  0
INSERT
  5
74E
100
AcDbEntity
  8
_0-2_寸法
100
AcDbBlockReference
  2
BK5
 10
0
 20
0
  0
INSERT
  5
74F
100
AcDbEntity
  8
_0-2_寸法
100
AcDbBlockReference
  2
BK6
 10
0
 20
0
  0
INSERT
  5
750
100
AcDbEntity
  8
_0-2_寸法
100
AcDbBlockReference
  2
BK7
 10
0
 20
0
  0
INSERT
  5
751
100
AcDbEntity
  8
_0-2_寸法
100
AcDbBlockReference
  2
BK8
 10
0
 20
0
  0
INSERT
  5
752
100
AcDbEntity
  8
_0-2_寸法
100
AcDbBlockReference
  2
BK9
 10
0
 20
0
  0
INSERT
  5
753
100
AcDbEntity
  8
_0-2_寸法
100
AcDbBlockReference
  2
BK10
 10
0
 20
0
  0
INSERT
  5
754
100
AcDbEntity
  8
_0-2_寸法
100
AcDbBlockReference
  2
BK11
 10
0
 20
0
  0
INSERT
  5
755
100
AcDbEntity
  8
_0-2_寸法
100
AcDbBlockReference
  2
BK12
 10
0
 20
0
  0
INSERT
  5
756
100
AcDbEntity
  8
_0-2_寸法
100
AcDbBlockReference
  2
BK13
 10
0
 20
0
  0
INSERT
  5
757
100
AcDbEntity
  8
_0-2_寸法
100
AcDbBlockReference
  2
BK14
 10
0
 20
0
  0
INSERT
  5
758
100
AcDbEntity
  8
_0-2_寸法
100
AcDbBlockReference
  2
BK15
 10
0
 20
0
  0
INSERT
  5
759
100
AcDbEntity
  8
_0-2_寸法
100
AcDbBlockReference
  2
BK16
 10
0
 20
0
  0
INSERT
  5
75A
100
AcDbEntity
  8
_0-2_寸法
100
AcDbBlockReference
  2
BK17
 10
0
 20
0
  0
INSERT
  5
75B
100
AcDbEntity
  8
_0-2_寸法
100
AcDbBlockReference
  2
BK18
 10
0
 20
0
  0
INSERT
  5
75C
100
AcDbEntity
  8
_0-2_寸法
100
AcDbBlockReference
  2
BK19
 10
0
 20
0
  0
INSERT
  5
75D
100
AcDbEntity
  8
_0-2_寸法
100
AcDbBlockReference
  2
BK20
 10
0
 20
0
  0
INSERT
  5
75E
100
AcDbEntity
  8
_0-2_寸法
100
AcDbBlockReference
  2
BK21
 10
0
 20
0
  0
INSERT
  5
75F
100
AcDbEntity
  8
_0-2_寸法
100
AcDbBlockReference
  2
BK22
 10
0
 20
0
  0
INSERT
  5
760
100
AcDbEntity
  8
_0-2_寸法
100
AcDbBlockReference
  2
BK23
 10
0
 20
0
  0
INSERT
  5
761
100
AcDbEntity
  8
_0-2_寸法
100
AcDbBlockReference
  2
BK24
 10
0
 20
0
  0
INSERT
  5
762
100
AcDbEntity
  8
_0-2_寸法
100
AcDbBlockReference
  2
BK25
 10
0
 20
0
  0
INSERT
  5
763
100
AcDbEntity
  8
_0-2_寸法
100
AcDbBlockReference
  2
BK26
 10
0
 20
0
  0
INSERT
  5
764
100
AcDbEntity
  8
_0-2_寸法
100
AcDbBlockReference
  2
BK27
 10
0
 20
0
  0
INSERT
  5
765
100
AcDbEntity
  8
_0-2_寸法
100
AcDbBlockReference
  2
BK28
 10
0
 20
0
  0
INSERT
  5
766
100
AcDbEntity
  8
_0-2_寸法
100
AcDbBlockReference
  2
BK29
 10
0
 20
0
  0
INSERT
  5
767
100
AcDbEntity
  8
_0-2_寸法
100
AcDbBlockReference
  2
BK30
 10
0
 20
0
  0
INSERT
  5
768
100
AcDbEntity
  8
_0-2_寸法
100
AcDbBlockReference
  2
BK31
 10
0
 20
0
  0
INSERT
  5
769
100
AcDbEntity
  8
_0-2_寸法
100
AcDbBlockReference
  2
BK32
 10
0
 20
0
  0
INSERT
  5
76A
100
AcDbEntity
  8
_0-2_寸法
100
AcDbBlockReference
  2
BK33
 10
0
 20
0
  0
INSERT
  5
76B
100
AcDbEntity
  8
_0-2_寸法
100
AcDbBlockReference
  2
BK34
 10
0
 20
0
  0
INSERT
  5
76C
100
AcDbEntity
  8
_0-2_寸法
100
AcDbBlockReference
  2
BK35
 10
0
 20
0
  0
INSERT
  5
76D
100
AcDbEntity
  8
_0-2_寸法
100
AcDbBlockReference
  2
BK36
 10
0
 20
0
  0
INSERT
  5
76E
100
AcDbEntity
  8
_0-2_寸法
100
AcDbBlockReference
  2
BK37
 10
0
 20
0
  0
INSERT
  5
76F
100
AcDbEntity
  8
_0-2_寸法
100
AcDbBlockReference
  2
BK38
 10
0
 20
0
  0
INSERT
  5
770
100
AcDbEntity
  8
_0-2_寸法
100
AcDbBlockReference
  2
BK39
 10
0
 20
0
  0
INSERT
  5
771
100
AcDbEntity
  8
_0-2_寸法
100
AcDbBlockReference
  2
BK40
 10
0
 20
0
  0
INSERT
  5
772
100
AcDbEntity
  8
_0-2_寸法
100
AcDbBlockReference
  2
BK41
 10
0
 20
0
  0
INSERT
  5
773
100
AcDbEntity
  8
_0-2_寸法
100
AcDbBlockReference
  2
BK42
 10
0
 20
0
  0
LINE
  5
774
100
AcDbEntity
  8
_0-2_寸法
  6
CONTINUOUS
 62
     0
100
AcDbLine
 10
282
 20
393
 11
282
 21
280
  0
LINE
  5
775
100
AcDbEntity
  8
_0-2_寸法
  6
CONTINUOUS
 62
     0
100
AcDbLine
 10
283
 20
280
 11
306
 21
280
  0
CIRCLE
  5
776
100
AcDbEntity
  8
_0-2_寸法
  6
CONTINUOUS
 62
     0
100
AcDbCircle
 10
282
 20
393
 40
1.4
  0
CIRCLE
  5
777
100
AcDbEntity
  8
_0-2_寸法
  6
CONTINUOUS
 62
     0
100
AcDbCircle
 10
307
 20
280
 40
1.4
  0
CIRCLE
  5
778
100
AcDbEntity
  8
_0-2_寸法
  6
CONTINUOUS
 62
     0
100
AcDbCircle
 10
307
 20
280
 40
1.4
  0
LINE
  5
779
100
AcDbEntity
  8
_0-2_寸法
  6
CONTINUOUS
 62
     0
100
AcDbLine
 10
307
 20
279.75
 11
307
 21
280
  0
LINE
  5
77A
100
AcDbEntity
  8
_0-2_寸法
  6
CONTINUOUS
 62
     0
100
AcDbLine
 10
308
 20
280
 11
406
 21
280
  0
CIRCLE
  5
77B
100
AcDbEntity
  8
_0-2_寸法
  6
CONTINUOUS
 62
     0
100
AcDbCircle
 10
307
 20
279.75
 40
1.4
  0
CIRCLE
  5
77C
100
AcDbEntity
  8
_0-2_寸法
  6
CONTINUOUS
 62
     0
100
AcDbCircle
 10
407
 20
280
 40
1.4
  0
CIRCLE
  5
77D
100
AcDbEntity
  8
_0-2_寸法
  6
CONTINUOUS
 62
     0
100
AcDbCircle
 10
407
 20
280
 40
1.4
  0
LINE
  5
77E
100
AcDbEntity
  8
_0-2_寸法
  6
CONTINUOUS
 62
     0
100
AcDbLine
 10
407
 20
279.75
 11
407
 21
280
  0
LINE
  5
77F
100
AcDbEntity
  8
_0-2_寸法
  6
CONTINUOUS
 62
     0
100
AcDbLine
 10
408
 20
280
 11
531
 21
280
  0
CIRCLE
  5
780
100
AcDbEntity
  8
_0-2_寸法
  6
CONTINUOUS
 62
     0
100
AcDbCircle
 10
407
 20
279.75
 40
1.4
  0
CIRCLE
  5
781
100
AcDbEntity
  8
_0-2_寸法
  6
CONTINUOUS
 62
     0
100
AcDbCircle
 10
532
 20
280
 40
1.4
  0
CIRCLE
  5
782
100
AcDbEntity
  8
_0-2_寸法
  6
CONTINUOUS
 62
     0
100
AcDbCircle
 10
532
 20
280
 40
1.4
  0
LINE
  5
783
100
AcDbEntity
  8
_0-2_寸法
  6
CONTINUOUS
 62
     0
100
AcDbLine
 10
532.2462019383
 20
280.0434120444
 11
532.2462019383
 21
280
  0
LINE
  5
784
100
AcDbEntity
  8
_0-2_寸法
  6
CONTINUOUS
 62
     0
100
AcDbLine
 10
608
 20
350.0771419653
 11
608
 21
280
  0
LINE
  5
785
100
AcDbEntity
  8
_0-2_寸法
  6
CONTINUOUS
 62
     0
100
AcDbLine
 10
533.2462019383
 20
280
 11
607
 21
280
  0
CIRCLE
  5
786
100
AcDbEntity
  8
_0-2_寸法
  6
CONTINUOUS
 62
     0
100
AcDbCircle
 10
532.2462019383
 20
280.0434120444
 40
1.4
  0
CIRCLE
  5
787
100
AcDbEntity
  8
_0-2_寸法
  6
CONTINUOUS
 62
     0
100
AcDbCircle
 10
608
 20
350.0771419653
 40
1.4
  0
CIRCLE
  5
788
100
AcDbEntity
  8
_0-2_寸法
  6
CONTINUOUS
 62
     0
100
AcDbCircle
 10
608
 20
280
 40
1.4
  0
TEXT
  5
789
100
AcDbEntity
  8
_0-2_寸法
  6
CONTINUOUS
 62
     0
100
AcDbText
 10
292
 20
280
 40
5
  1
25
  7
STANDARD
100
AcDbText
  0
TEXT
  5
78A
100
AcDbEntity
  8
_0-2_寸法
  6
CONTINUOUS
 62
     0
100
AcDbText
 10
353.25
 20
280
 40
5
  1
100
  7
STANDARD
100
AcDbText
  0
TEXT
  5
78B
100
AcDbEntity
  8
_0-2_寸法
  6
CONTINUOUS
 62
     0
100
AcDbText
 10
467
 20
280
 40
5
  1
Ｃ
  7
STANDARD
100
AcDbText
  0
TEXT
  5
78C
100
AcDbEntity
  8
_0-2_寸法
  6
CONTINUOUS
 62
     0
100
AcDbText
 10
567.5
 20
280
 40
5
  1
75
  7
STANDARD
100
AcDbText
  0
TEXT
  5
78D
100
AcDbEntity
  8
_0-4_図枠
  6
CONTINUOUS
 62
     0
100
AcDbText
 10
269.5
 20
238.5
 40
5
  1
１００ＦＹＫ－Ａ３００～５２５
  7
STANDARD
100
AcDbText
  0
TEXT
  5
78E
100
AcDbEntity
  8
_0-4_図枠
  6
CONTINUOUS
 62
     0
100
AcDbText
 10
269.5
 20
202.5
 40
5
  1
１００ＦＹＫＨ－３００～５２５
  7
STANDARD
100
AcDbText
  0
TEXT
  5
78F
100
AcDbEntity
  8
_0-4_図枠
  6
CONTINUOUS
 62
     0
100
AcDbText
 10
269.5
 20
175.5
 40
5
  1
１００ＦＹＫＪ－３００～５２５
  7
STANDARD
100
AcDbText
  0
TEXT
  5
790
100
AcDbEntity
  8
_0-4_図枠
  6
CONTINUOUS
 62
     0
100
AcDbText
 10
269.5
 20
157.5
 40
5
  1
ＦＳ５００～７００
  7
STANDARD
100
AcDbText
  0
TEXT
  5
791
100
AcDbEntity
  8
_0-4_図枠
  6
CONTINUOUS
 62
     0
100
AcDbText
 10
169.5
 20
130.5
 40
5
  1
ステン小ねじ
  7
STANDARD
100
AcDbText
  0
TEXT
  5
792
100
AcDbEntity
  8
_0-4_図枠
  6
CONTINUOUS
 62
     0
100
AcDbText
 10
169.5
 20
121.5
 40
5
  1
ステン小ねじ
  7
STANDARD
100
AcDbText
  0
TEXT
  5
793
100
AcDbEntity
  8
_0-4_図枠
  6
CONTINUOUS
 62
     0
100
AcDbText
 10
269.5
 20
130.5
 40
5
  1
なべＭ６×３５
  7
STANDARD
100
AcDbText
  0
TEXT
  5
794
100
AcDbEntity
  8
_0-4_図枠
  6
CONTINUOUS
 62
     0
100
AcDbText
 10
269.5
 20
121.5
 40
5
  1
なべＭ４×１０
  7
STANDARD
100
AcDbText
  0
TEXT
  5
795
100
AcDbEntity
  8
_0-4_図枠
  6
CONTINUOUS
 62
     0
100
AcDbText
 10
269.5
 20
112.5
 40
5
  1
Ｍ６×４０
  7
STANDARD
100
AcDbText
  0
TEXT
  5
796
100
AcDbEntity
  8
_0-4_図枠
  6
CONTINUOUS
 62
     0
100
AcDbText
 10
269.5
 20
103.5
 40
5
  1
ＡＧ－６６０
  7
STANDARD
100
AcDbText
  0
TEXT
  5
797
100
AcDbEntity
  8
_0-4_図枠
  6
CONTINUOUS
 62
     0
100
AcDbText
 10
269.5
 20
94.5
 40
5
  1
φ８×４０
  7
STANDARD
100
AcDbText
  0
TEXT
  5
798
100
AcDbEntity
  8
_0-4_図枠
  6
CONTINUOUS
 62
     0
100
AcDbText
 10
269.5
 20
85.5
 40
5
  1
なべ５×５０
  7
STANDARD
100
AcDbText
  0
TEXT
  5
799
100
AcDbEntity
  8
_0-4_図枠
  6
CONTINUOUS
 62
     0
100
AcDbText
 10
269.5
 20
76.5
 40
5
  1
１.５×１８×６.５穴
  7
STANDARD
100
AcDbText
  0
TEXT
  5
79A
100
AcDbEntity
  8
_0-4_図枠
  6
CONTINUOUS
 62
     0
100
AcDbText
 10
269.5
 20
67.5
 40
5
  1
１.５×１８×５.５穴
  7
STANDARD
100
AcDbText
  0
TEXT
  5
79B
100
AcDbEntity
  8
_0-4_図枠
  6
CONTINUOUS
 62
     0
100
AcDbText
 10
269.5
 20
58.5
 40
5
  1
ｔ１．０×ｗ３０
  7
STANDARD
100
AcDbText
  0
ENDSEC
  0
SECTION
  2
OBJECTS
  0
DICTIONARY
  5
79C
100
AcDbDictionary
  3
ACAD_GROUP
350
79D
  3
ACAD_IMAGE_DICT
350
79E
  3
ACAD_MLINESTYLE
350
79F
  0
DICTIONARY
  5
79D
330
79C
100
AcDbDictionary
  0
DICTIONARY
  5
79E
100
AcDbDictionary
  0
DICTIONARY
  5
79F
100
AcDbDictionary
  3
STANDARD
350
7A0
  0
RASTERVARIABLES
  5
7A1
100
AcDbRasterVariables
 90
     0
 70
     1
 71
     1
 72
     0
  0
MLINESTYLE
  5
7A0
100
AcDbMlineStyle
  2
STANDARD
 70
     0
  3

 62
   256
 51
90
 52
90
 71
     0
  0
ENDSEC
  0
EOF
