  0
SECTION
  2
HEADER
  9
$ACADVER
  1
AC1009
  9
$INSBASE
 10
0
 20
0
 30
0
  9
$EXTMIN
 10
0
 20
0
  9
$EXTMAX
 10
420
 20
297
  9
$LIMMIN
 10
0
 20
0
  9
$LIMMAX
 10
420
 20
297
  9
$LTSCALE
 40
1
  0
ENDSEC
  0
SECTION
  2
TABLES
  0
TABLE
  2
LTYPE
 70
     9
  0
LTYPE
  2
CONTINUOUS
 70
    64
  3
実線
 72
    65
 73
     0
 40
0.0
  0
LTYPE
  2
DASHED1
 70
    64
  3
--  --  --  --  --  --  --  --  
 72
    65
 73
     2
 40
2.5
 49
1.25
 49
-1.25
  0
LTYPE
  2
DASHED2
 70
    64
  3
----    ----    ----    ----    
 72
    65
 73
     2
 40
5.0
 49
2.5
 49
-2.5
  0
LTYPE
  2
DASHED3
 70
    64
  3
------  ------  ------  ------  
 72
    65
 73
     2
 40
5.0
 49
3.75
 49
-1.25
  0
LTYPE
  2
CENTER1
 70
    64
  3
----- - ----- - ----- - ----- - 
 72
    65
 73
     4
 40
10.0
 49
6.25
 49
-1.25
 49
1.25
 49
-1.25
  0
LTYPE
  2
CENTER2
 70
    64
  3
----------  --  ----------  --  
 72
    65
 73
     4
 40
20.0
 49
12.5
 49
-2.5
 49
2.5
 49
-2.5
  0
LTYPE
  2
PHANTOM1
 70
    64
  3
--- - - --- - - --- - - --- - - 
 72
    65
 73
     6
 40
10.0
 49
3.25
 49
-1.25
 49
1.25
 49
-1.25
 49
1.25
 49
-1.25
  0
LTYPE
  2
PHANTOM2
 70
    64
  3
--------  -  -  --------  -  -  
 72
    65
 73
     6
 40
20.0
 49
10.0
 49
-2.5
 49
1.25
 49
-2.5
 49
1.25
 49
-2.5
  0
LTYPE
  2
DOT
 70
    64
  3
-   -   -   -   -   -   -   -   
 72
    65
 73
     2
 40
2.5
 49
0.625
 49
-1.875
  0
LTYPE
  2
DUMMY
 70
    64
  3
ダミー
 72
    65
 73
     0
 40
0.0
  0
LTYPE
  2
RAND1
 70
    64
  3
ランダム線1
 72
    65
 73
     4
 40
10.0
 49
1.0
 49
-2.0
 49
3.0
 49
-4.0
  0
LTYPE
  2
RAND2
 70
    64
  3
ランダム線2
 72
    65
 73
     4
 40
14.0
 49
2.0
 49
-3.0
 49
4.0
 49
-5.0
  0
LTYPE
  2
RAND3
 70
    64
  3
ランダム線3
 72
    65
 73
     4
 40
18.0
 49
3.0
 49
-4.0
 49
5.0
 49
-6.0
  0
LTYPE
  2
RAND4
 70
    64
  3
ランダム線4
 72
    65
 73
     4
 40
22.0
 49
4.0
 49
-5.0
 49
6.0
 49
-7.0
  0
LTYPE
  2
RAND5
 70
    64
  3
ランダム線5
 72
    65
 73
     4
 40
26.0
 49
5.0
 49
-6.0
 49
7.0
 49
-8.0
  0
LTYPE
  2
LONG1
 70
    64
  3
----------  --  ----------  --  
 72
    65
 73
     4
 40
40.0
 49
32.5
 49
-2.5
 49
2.5
 49
-2.5
  0
LTYPE
  2
LONG2
 70
    64
  3
--------  -  -  --------  -  -  
 72
    65
 73
     6
 40
40.0
 49
30.0
 49
-2.5
 49
1.25
 49
-2.5
 49
1.25
 49
-2.5
  0
LTYPE
  2
LONG3
 70
    64
  3
+++++++++++++++..+++++++++++++++
 72
    65
 73
     2
 40
40.0
 49
37.5
 49
-2.5
  0
LTYPE
  2
LONG4
 70
    64
  3
+++++++++++++++..+++++++++++++++
 72
    65
 73
     2
 40
80.0
 49
75.0
 49
-5.0
  0
LTYPE
  2
LONG5
 70
    64
  3
----------  --  ----------  --  
 72
    65
 73
     4
 40
60.0
 49
37.5
 49
-7.5
 49
7.5
 49
-7.5
  0
LTYPE
  2
dashed
 70
   64
  3
-------   -------------   ------
 72
   65
 73
    2
 40
7.5
 49
6
 49
-1.5
  0
LTYPE
  2
dashed_spaced
 70
   64
  3
----        --------        ----
 72
   65
 73
    2
 40
12
 49
6
 49
-6
  0
LTYPE
  2
long_dashed_dotted
 70
   64
  3
------------- --- --------------
 72
   65
 73
    4
 40
15.25
 49
12
 49
-1.5
 49
0.25
 49
-1.5
  0
LTYPE
  2
long_dashed_double-dotted
 70
   64
  3
----------- --- --- ------------
 72
   65
 73
    6
 40
17
 49
12
 49
-1.5
 49
0.25
 49
-1.5
 49
0.25
 49
-1.5
  0
LTYPE
  2
long_dashed_triplicate-dotted
 70
   64
  3
--------- --- --- --- ----------
 72
   65
 73
    8
 40
18.75
 49
12
 49
-1.5
 49
0.25
 49
-1.5
 49
0.25
 49
-1.5
 49
0.25
 49
-1.5
  0
LTYPE
  2
dotted
 70
   64
  3
   -       -       -       -    
 72
   65
 73
    2
 40
1.75
 49
0.25
 49
-1.5
  0
LTYPE
  2
chain
 70
   64
  3
-------------- -- --------------
 72
   65
 73
    4
 40
18.5
 49
12
 49
-1.5
 49
3.5
 49
-1.5
  0
LTYPE
  2
chain_double_dash
 70
   64
  3
------------ -- -- -------------
 72
   65
 73
    6
 40
23.5
 49
12
 49
-1.5
 49
3.5
 49
-1.5
 49
3.5
 49
-1.5
  0
LTYPE
  2
dashed_dotted
 70
   64
  3
-----------     -     ----------
 72
   65
 73
    4
 40
9.25
 49
6
 49
-1.5
 49
0.25
 49
-1.5
  0
LTYPE
  2
double-dashed_dotted
 70
   64
  3
------   -----------   -   -----
 72
   65
 73
    6
 40
16.75
 49
6
 49
-1.5
 49
6
 49
-1.5
 49
0.25
 49
-1.5
  0
LTYPE
  2
dashed_double-dotted
 70
   64
  3
---------    -    -    ---------
 72
   65
 73
    6
 40
11
 49
6
 49
-1.5
 49
0.25
 49
-1.5
 49
0.25
 49
-1.5
  0
LTYPE
  2
double-dashed_double-dotted
 70
   64
  3
-----   ---------   -   -   ----
 72
   65
 73
    8
 40
18.5
 49
6
 49
-1.5
 49
6
 49
-1.5
 49
0.25
 49
-1.5
 49
0.25
 49
-1.5
  0
LTYPE
  2
dashed_triplicate-dotted
 70
   64
  3
-------    -    -    -    ------
 72
   65
 73
    8
 40
12.75
 49
6
 49
-1.5
 49
0.25
 49
-1.5
 49
0.25
 49
-1.5
 49
0.25
 49
-1.5
  0
LTYPE
  2
double-dashed_triplicate-dotted
 70
   64
  3
-----  ---------  -  -  -  -----
 72
   65
 73
   10
 40
20.25
 49
6
 49
-1.5
 49
6
 49
-1.5
 49
0.25
 49
-1.5
 49
0.25
 49
-1.5
 49
0.25
 49
-1.5
  0
LTYPE
  2
undefined
 70
   64
  3
--------------------------------
 72
   65
 73
    0
 40
0
  0
ENDTAB
  0
TABLE
  2
STYLE
  5
3
100
AcDbSymbolTable
 70
     1
  0
STYLE
  5
10
100
AcDbSymbolTableRecord
100
AcDbTextStyleTableRecord
  2
STANDARD
 70
     0
 40
0.0
 41
1.0
 50
0.0
 71
     0
 42
0.2
  3
txt
  4
bigfont.shx
  0
STYLE
  5
26
100
AcDbSymbolTableRecord
100
AcDbTextStyleTableRecord
  2
TATEGAKI
 70
    68
 40
0.0
 41
1.0
 50
0.0
 71
     0
 42
1.0
  3
txt
  4
bigfont.shx
  0
ENDTAB
  0
TABLE
  2
LAYER
 70
    7
  0
LAYER
  2
_0-0_図面枠
 70
   64
 62
    7
  6
CONTINUOUS
  0
LAYER
  2
_1-0_躯体
 70
   64
 62
    7
  6
CONTINUOUS
  0
LAYER
  2
_1-5_ホルダ__
 70
   64
 62
    7
  6
CONTINUOUS
  0
LAYER
  2
_1-7_カバ__
 70
   64
 62
    7
  6
CONTINUOUS
  0
LAYER
  2
_1-8_小物
 70
   64
 62
    7
  6
CONTINUOUS
  0
LAYER
  2
_1-f_寸法
 70
   64
 62
    7
  6
CONTINUOUS
  0
LAYER
  2
ADD_LINE
 70
   64
 62
    7
  6
CONTINUOUS
  0
ENDTAB
  0
ENDSEC
  0
SECTION
  2
BLOCKS
  0
BLOCK
  2
-000-
 70
   64
 10
0
 20
0
 30
0
  0
LINE
  8
_1-8_小物
  6
CONTINUOUS
 62
    4
 10
-61.787483860264587
 20
-19
 11
-59.787483860264587
 21
-19
  0
LINE
  8
_1-8_小物
  6
CONTINUOUS
 62
    4
 10
-62.120817193597929
 20
-19.707106781186582
 11
-62.120817193597929
 21
-18.292893218813447
  0
LINE
  8
_1-8_小物
  6
CONTINUOUS
 62
    4
 10
-62.120817193597929
 20
-18.292893218813447
 11
-59.454150526931244
 21
-18.292893218813447
  0
LINE
  8
_1-8_小物
  6
CONTINUOUS
 62
    4
 10
-59.454150526931244
 20
-19.707106781186582
 11
-59.454150526931244
 21
-18.292893218813447
  0
LINE
  8
_1-8_小物
  6
CONTINUOUS
 62
    4
 10
-62.120817193597929
 20
-19.707106781186582
 11
-59.454150526931244
 21
-19.707106781186582
  0
ENDBLK
  0
BLOCK
  2
-001-_1_
 70
   64
 10
0
 20
0
 30
0
  0
LINE
  8
_1-8_小物
  6
CONTINUOUS
 62
    4
 10
-118.45415052693124
 20
-19
 11
-120.45415052693124
 21
-19
  0
LINE
  8
_1-8_小物
  6
CONTINUOUS
 62
    4
 10
-118.12081719359792
 20
-19.707106781186582
 11
-118.12081719359792
 21
-18.292893218813447
  0
LINE
  8
_1-8_小物
  6
CONTINUOUS
 62
    4
 10
-118.12081719359792
 20
-18.292893218813447
 11
-120.78748386026459
 21
-18.292893218813447
  0
LINE
  8
_1-8_小物
  6
CONTINUOUS
 62
    4
 10
-120.78748386026459
 20
-19.707106781186582
 11
-120.78748386026459
 21
-18.292893218813447
  0
LINE
  8
_1-8_小物
  6
CONTINUOUS
 62
    4
 10
-118.12081719359792
 20
-19.707106781186582
 11
-120.78748386026459
 21
-19.707106781186582
  0
ENDBLK
  0
BLOCK
  2
-002-_2_
 70
   64
 10
0
 20
0
 30
0
  0
LINE
  8
_1-8_小物
  6
CONTINUOUS
 62
    4
 10
138.21251613973538
 20
-19
 11
140.21251613973538
 21
-19
  0
LINE
  8
_1-8_小物
  6
CONTINUOUS
 62
    4
 10
137.87918280640207
 20
-19.707106781186582
 11
137.87918280640207
 21
-18.292893218813447
  0
LINE
  8
_1-8_小物
  6
CONTINUOUS
 62
    4
 10
137.87918280640207
 20
-18.292893218813447
 11
140.54584947306876
 21
-18.292893218813447
  0
LINE
  8
_1-8_小物
  6
CONTINUOUS
 62
    4
 10
140.54584947306876
 20
-19.707106781186582
 11
140.54584947306876
 21
-18.292893218813447
  0
LINE
  8
_1-8_小物
  6
CONTINUOUS
 62
    4
 10
137.87918280640207
 20
-19.707106781186582
 11
140.54584947306876
 21
-19.707106781186582
  0
ENDBLK
  0
BLOCK
  2
-003-_3_
 70
   64
 10
0
 20
0
 30
0
  0
LINE
  8
_1-8_小物
  6
CONTINUOUS
 62
    4
 10
81.545849473068756
 20
-19
 11
79.545849473068756
 21
-19
  0
LINE
  8
_1-8_小物
  6
CONTINUOUS
 62
    4
 10
81.879182806402071
 20
-19.707106781186582
 11
81.879182806402071
 21
-18.292893218813447
  0
LINE
  8
_1-8_小物
  6
CONTINUOUS
 62
    4
 10
81.879182806402071
 20
-18.292893218813447
 11
79.212516139735385
 21
-18.292893218813447
  0
LINE
  8
_1-8_小物
  6
CONTINUOUS
 62
    4
 10
79.212516139735385
 20
-19.707106781186582
 11
79.212516139735385
 21
-18.292893218813447
  0
LINE
  8
_1-8_小物
  6
CONTINUOUS
 62
    4
 10
81.879182806402071
 20
-19.707106781186582
 11
79.212516139735385
 21
-19.707106781186582
  0
ENDBLK
  0
BLOCK
  2
-004-$QLE
 70
   64
 10
0
 20
0
 30
0
  0
LINE
  8
_1-f_寸法
  6
CONTINUOUS
 62
    4
 10
-71.61283566666657
 20
85.500000666666693
 11
-68.825844671965456
 21
90.327210669725929
  0
LINE
  8
_1-f_寸法
  6
CONTINUOUS
 62
    4
 10
-68.825844671965456
 20
90.327210669725929
 11
-49.305844671965474
 21
90.327210669725929
  0
POINT
  8
_1-f_寸法
 62
    4
 10
-71.61283566666657
 20
85.500000666666693
  0
TEXT
  8
_1-f_寸法
 62
    4
 10
-68.505844671965463
 20
90.327210669725929
 40
3.2000000000000002
 41
1
 50
0
  1
野縁受(別途)
  0
ENDBLK
  0
BLOCK
  2
-005-$QLE_1_
 70
   64
 10
0
 20
0
 30
0
  0
LINE
  8
_1-f_寸法
  6
CONTINUOUS
 62
    4
 10
-73.58333366666659
 20
69.916667166666684
 11
-69.349061172536722
 21
77.250642259591018
  0
LINE
  8
_1-f_寸法
  6
CONTINUOUS
 62
    4
 10
-69.349061172536722
 20
77.250642259591018
 11
-53.029061172536728
 21
77.250642259591018
  0
POINT
  8
_1-f_寸法
 62
    4
 10
-73.58333366666659
 20
69.916667166666684
  0
TEXT
  8
_1-f_寸法
 62
    4
 10
-69.029061172536728
 20
77.250642259591018
 40
3.2000000000000002
 41
1
 50
0
  1
野縁(別途)
  0
ENDBLK
  0
BLOCK
  2
-006-_4_
 70
   64
 10
0
 20
0
 30
0
  0
LINE
  8
_1-8_小物
  6
CONTINUOUS
 62
    4
 10
-117.69999954999992
 20
62.633333333333269
 11
-112.2999995499997
 21
62.633333333333269
  0
LINE
  8
_1-8_小物
  6
CONTINUOUS
 62
    4
 10
-117.69999954999992
 20
62.18333333333328
 11
-112.2999995499997
 21
62.18333333333328
  0
LINE
  8
_1-8_小物
  6
CONTINUOUS
 62
    4
 10
-117.69999954999992
 20
62.633333333333269
 11
-117.69999954999992
 21
62.18333333333328
  0
LINE
  8
_1-8_小物
  6
CONTINUOUS
 62
    4
 10
-112.2999995499997
 20
62.633333333333269
 11
-112.2999995499997
 21
62.18333333333328
  0
LINE
  8
_1-8_小物
  6
DASHED1
 62
    4
 10
-115.82499954999992
 20
62.633333333333269
 11
-115.82499954999992
 21
62.18333333333328
  0
LINE
  8
_1-8_小物
  6
DASHED1
 62
    4
 10
-114.1749995499997
 20
62.633333333333269
 11
-114.1749995499997
 21
62.18333333333328
  0
LINE
  8
_1-8_小物
  6
CONTINUOUS
 62
    4
 10
-114.64000000000043
 20
64.792202033333353
 11
-114.64000000000043
 21
65.025009533333218
  0
LINE
  8
_1-8_小物
  6
CONTINUOUS
 62
    4
 10
-115.36000000000004
 20
64.813343033333126
 11
-115.36000000000004
 21
64.580535533333489
  0
LINE
  8
_1-8_小物
  6
CONTINUOUS
 62
    4
 10
-114.64000000000043
 20
65.025009533333218
 11
-115.36000000000004
 21
64.813343033333126
  0
LINE
  8
_1-8_小物
  6
CONTINUOUS
 62
    4
 10
-114.47499940000044
 20
65.120272733333479
 11
-115.5249997
 21
64.908605333333355
  0
LINE
  8
_1-8_小物
  6
CONTINUOUS
 62
    4
 10
-114.47499940000044
 20
65.120272733333479
 11
-114.64000000000043
 21
65.025009533333218
  0
LINE
  8
_1-8_小物
  6
CONTINUOUS
 62
    4
 10
-115.5249997
 20
64.908605333333355
 11
-115.36000000000004
 21
65.003868533333446
  0
LINE
  8
_1-8_小物
  6
CONTINUOUS
 62
    4
 10
-115.36000000000004
 20
64.813343033333126
 11
-115.5249997
 21
64.908605333333355
  0
LINE
  8
_1-8_小物
  6
CONTINUOUS
 62
    4
 10
-114.64000000000043
 20
64.368868133333194
 11
-114.64000000000043
 21
64.601676533333261
  0
LINE
  8
_1-8_小物
  6
CONTINUOUS
 62
    4
 10
-115.36000000000004
 20
64.390009133333365
 11
-115.36000000000004
 21
64.157201633333329
  0
LINE
  8
_1-8_小物
  6
CONTINUOUS
 62
    4
 10
-114.64000000000043
 20
64.792202033333353
 11
-115.36000000000004
 21
64.580535533333489
  0
LINE
  8
_1-8_小物
  6
CONTINUOUS
 62
    4
 10
-114.64000000000043
 20
64.601676533333261
 11
-115.36000000000004
 21
64.390009133333365
  0
LINE
  8
_1-8_小物
  6
CONTINUOUS
 62
    4
 10
-114.47499940000044
 20
64.69693883333332
 11
-115.5249997
 21
64.485272333333228
  0
LINE
  8
_1-8_小物
  6
CONTINUOUS
 62
    4
 10
-114.47499940000044
 20
64.69693883333332
 11
-114.64000000000043
 21
64.792202033333353
  0
LINE
  8
_1-8_小物
  6
CONTINUOUS
 62
    4
 10
-114.47499940000044
 20
64.69693883333332
 11
-114.64000000000043
 21
64.601676533333261
  0
LINE
  8
_1-8_小物
  6
CONTINUOUS
 62
    4
 10
-115.5249997
 20
64.485272333333228
 11
-115.36000000000004
 21
64.580535533333489
  0
LINE
  8
_1-8_小物
  6
CONTINUOUS
 62
    4
 10
-115.36000000000004
 20
64.390009133333365
 11
-115.5249997
 21
64.485272333333228
  0
LINE
  8
_1-8_小物
  6
CONTINUOUS
 62
    4
 10
-114.64000000000043
 20
63.945535133333408
 11
-114.64000000000043
 21
64.178342633333443
  0
LINE
  8
_1-8_小物
  6
CONTINUOUS
 62
    4
 10
-115.36000000000004
 20
63.966676133333351
 11
-115.36000000000004
 21
63.733868633333316
  0
LINE
  8
_1-8_小物
  6
CONTINUOUS
 62
    4
 10
-114.64000000000043
 20
64.368868133333194
 11
-115.36000000000004
 21
64.157201633333329
  0
LINE
  8
_1-8_小物
  6
CONTINUOUS
 62
    4
 10
-114.64000000000043
 20
64.178342633333443
 11
-115.36000000000004
 21
63.966676133333351
  0
LINE
  8
_1-8_小物
  6
CONTINUOUS
 62
    4
 10
-114.47499940000044
 20
64.273605833333306
 11
-115.5249997
 21
64.061939333333214
  0
LINE
  8
_1-8_小物
  6
CONTINUOUS
 62
    4
 10
-114.47499940000044
 20
64.273605833333306
 11
-114.64000000000043
 21
64.368868133333194
  0
LINE
  8
_1-8_小物
  6
CONTINUOUS
 62
    4
 10
-114.47499940000044
 20
64.273605833333306
 11
-114.64000000000043
 21
64.178342633333443
  0
LINE
  8
_1-8_小物
  6
CONTINUOUS
 62
    4
 10
-115.5249997
 20
64.061939333333214
 11
-115.36000000000004
 21
64.157201633333329
  0
LINE
  8
_1-8_小物
  6
CONTINUOUS
 62
    4
 10
-115.36000000000004
 20
63.966676133333351
 11
-115.5249997
 21
64.061939333333214
  0
LINE
  8
_1-8_小物
  6
CONTINUOUS
 62
    4
 10
-114.64000000000043
 20
63.52220213333328
 11
-114.64000000000043
 21
63.755009633333316
  0
LINE
  8
_1-8_小物
  6
CONTINUOUS
 62
    4
 10
-115.36000000000004
 20
63.543343133333224
 11
-115.36000000000004
 21
63.310534733333384
  0
LINE
  8
_1-8_小物
  6
CONTINUOUS
 62
    4
 10
-114.64000000000043
 20
63.945535133333408
 11
-115.36000000000004
 21
63.733868633333316
  0
LINE
  8
_1-8_小物
  6
CONTINUOUS
 62
    4
 10
-114.64000000000043
 20
63.755009633333316
 11
-115.36000000000004
 21
63.543343133333224
  0
LINE
  8
_1-8_小物
  6
CONTINUOUS
 62
    4
 10
-114.47499940000044
 20
63.850271933333318
 11
-115.5249997
 21
63.638605433333453
  0
LINE
  8
_1-8_小物
  6
CONTINUOUS
 62
    4
 10
-114.47499940000044
 20
63.850271933333318
 11
-114.64000000000043
 21
63.945535133333408
  0
LINE
  8
_1-8_小物
  6
CONTINUOUS
 62
    4
 10
-114.47499940000044
 20
63.850271933333318
 11
-114.64000000000043
 21
63.755009633333316
  0
LINE
  8
_1-8_小物
  6
CONTINUOUS
 62
    4
 10
-115.5249997
 20
63.638605433333453
 11
-115.36000000000004
 21
63.733868633333316
  0
LINE
  8
_1-8_小物
  6
CONTINUOUS
 62
    4
 10
-115.36000000000004
 20
63.543343133333224
 11
-115.5249997
 21
63.638605433333453
  0
LINE
  8
_1-8_小物
  6
CONTINUOUS
 62
    4
 10
-114.64000000000043
 20
63.098868233333292
 11
-114.64000000000043
 21
63.331676633333359
  0
LINE
  8
_1-8_小物
  6
CONTINUOUS
 62
    4
 10
-115.36000000000004
 20
63.120009233333178
 11
-115.36000000000004
 21
62.887201733333427
  0
LINE
  8
_1-8_小物
  6
CONTINUOUS
 62
    4
 10
-114.64000000000043
 20
63.52220213333328
 11
-115.36000000000004
 21
63.310534733333384
  0
LINE
  8
_1-8_小物
  6
CONTINUOUS
 62
    4
 10
-114.64000000000043
 20
63.331676633333359
 11
-115.36000000000004
 21
63.120009233333178
  0
LINE
  8
_1-8_小物
  6
CONTINUOUS
 62
    4
 10
-114.47499940000044
 20
63.426938933333417
 11
-115.5249997
 21
63.215272433333325
  0
LINE
  8
_1-8_小物
  6
CONTINUOUS
 62
    4
 10
-114.47499940000044
 20
63.426938933333417
 11
-114.64000000000043
 21
63.52220213333328
  0
LINE
  8
_1-8_小物
  6
CONTINUOUS
 62
    4
 10
-114.47499940000044
 20
63.426938933333417
 11
-114.64000000000043
 21
63.331676633333359
  0
LINE
  8
_1-8_小物
  6
CONTINUOUS
 62
    4
 10
-115.5249997
 20
63.215272433333325
 11
-115.36000000000004
 21
63.310534733333384
  0
LINE
  8
_1-8_小物
  6
CONTINUOUS
 62
    4
 10
-115.36000000000004
 20
63.120009233333178
 11
-115.5249997
 21
63.215272433333325
  0
LINE
  8
_1-8_小物
  6
CONTINUOUS
 62
    4
 10
-114.64000000000043
 20
62.675535233333505
 11
-115.36000000000004
 21
62.463868733333413
  0
LINE
  8
_1-8_小物
  6
CONTINUOUS
 62
    4
 10
-114.64000000000043
 20
62.485009733333186
 11
-115.36000000000004
 21
62.273343233333264
  0
LINE
  8
_1-8_小物
  6
CONTINUOUS
 62
    4
 10
-114.47499940000044
 20
62.580272033333245
 11
-115.5249997
 21
62.368605533333152
  0
LINE
  8
_1-8_小物
  6
CONTINUOUS
 62
    4
 10
-114.47499940000044
 20
62.580272033333245
 11
-114.64000000000043
 21
62.675535233333505
  0
LINE
  8
_1-8_小物
  6
CONTINUOUS
 62
    4
 10
-114.47499940000044
 20
62.580272033333245
 11
-114.64000000000043
 21
62.485009733333186
  0
LINE
  8
_1-8_小物
  6
CONTINUOUS
 62
    4
 10
-115.5249997
 20
62.368605533333152
 11
-115.36000000000004
 21
62.463868733333413
  0
LINE
  8
_1-8_小物
  6
CONTINUOUS
 62
    4
 10
-115.36000000000004
 20
62.273343233333264
 11
-115.5249997
 21
62.368605533333152
  0
LINE
  8
_1-8_小物
  6
CONTINUOUS
 62
    4
 10
-114.64000000000043
 20
62.18333333333328
 11
-114.64000000000043
 21
62.485009733333186
  0
LINE
  8
_1-8_小物
  6
CONTINUOUS
 62
    4
 10
-114.64000000000043
 20
62.675535233333505
 11
-114.64000000000043
 21
62.908342733333313
  0
LINE
  8
_1-8_小物
  6
CONTINUOUS
 62
    4
 10
-115.36000000000004
 20
62.696676233333278
 11
-115.36000000000004
 21
62.463868733333413
  0
LINE
  8
_1-8_小物
  6
CONTINUOUS
 62
    4
 10
-114.64000000000043
 20
63.098868233333292
 11
-115.36000000000004
 21
62.887201733333427
  0
LINE
  8
_1-8_小物
  6
CONTINUOUS
 62
    4
 10
-114.64000000000043
 20
62.908342733333313
 11
-115.36000000000004
 21
62.696676233333278
  0
LINE
  8
_1-8_小物
  6
CONTINUOUS
 62
    4
 10
-114.47499940000044
 20
63.003605933333404
 11
-115.5249997
 21
62.791939433333312
  0
LINE
  8
_1-8_小物
  6
CONTINUOUS
 62
    4
 10
-114.47499940000044
 20
63.003605933333404
 11
-114.64000000000043
 21
63.098868233333292
  0
LINE
  8
_1-8_小物
  6
CONTINUOUS
 62
    4
 10
-114.47499940000044
 20
63.003605933333404
 11
-114.64000000000043
 21
62.908342733333313
  0
LINE
  8
_1-8_小物
  6
CONTINUOUS
 62
    4
 10
-115.5249997
 20
62.791939433333312
 11
-115.36000000000004
 21
62.887201733333427
  0
LINE
  8
_1-8_小物
  6
CONTINUOUS
 62
    4
 10
-115.36000000000004
 20
62.696676233333278
 11
-115.5249997
 21
62.791939433333312
  0
ARC
  8
_1-8_小物
  6
CONTINUOUS
 62
    4
 10
-114.24999939999989
 20
61.904294633333222
 40
0.2999996999999999
 50
299.99999999998971
 51
0
  0
ARC
  8
_1-8_小物
  6
CONTINUOUS
 62
    4
 10
-115.74999969999975
 20
61.904294633333222
 40
0.2999996999999999
 50
180
 51
239.99999999995677
  0
ARC
  8
_1-8_小物
  6
CONTINUOUS
 62
    4
 10
-115.0000000000001
 20
63.203333033333251
 40
1.8
 50
239.99999999999224
 51
299.99999999999886
  0
LINE
  8
_1-8_小物
  6
CONTINUOUS
 62
    4
 10
-113.94999970000002
 20
62.18333333333328
 11
-113.94999970000002
 21
61.904294633333222
  0
LINE
  8
_1-8_小物
  6
CONTINUOUS
 62
    4
 10
-116.04999939999992
 20
62.18333333333328
 11
-113.94999970000002
 21
62.18333333333328
  0
LINE
  8
_1-8_小物
  6
CONTINUOUS
 62
    4
 10
-116.04999939999992
 20
62.18333333333328
 11
-116.04999939999992
 21
61.904294633333222
  0
LINE
  8
_1-8_小物
  6
CONTINUOUS
 62
    4
 10
-115.36000000000004
 20
62.273343233333264
 11
-115.36000000000004
 21
62.18333333333328
  0
LINE
  8
_1-8_小物
  6
CONTINUOUS
 62
    4
 10
-114.64000000000043
 20
67.755534833333172
 11
-114.64000000000043
 21
67.988343233333239
  0
LINE
  8
_1-8_小物
  6
CONTINUOUS
 62
    4
 10
-115.36000000000004
 20
67.776675833333286
 11
-115.36000000000004
 21
67.543868333333251
  0
LINE
  8
_1-8_小物
  6
CONTINUOUS
 62
    4
 10
-114.64000000000043
 20
68.178868733333331
 11
-115.36000000000004
 21
67.967202233333296
  0
LINE
  8
_1-8_小物
  6
CONTINUOUS
 62
    4
 10
-114.64000000000043
 20
67.988343233333239
 11
-115.36000000000004
 21
67.776675833333286
  0
LINE
  8
_1-8_小物
  6
CONTINUOUS
 62
    4
 10
-114.47499940000044
 20
68.083605533333468
 11
-115.5249997
 21
67.871939033333433
  0
LINE
  8
_1-8_小物
  6
CONTINUOUS
 62
    4
 10
-114.47499940000044
 20
68.083605533333468
 11
-114.64000000000043
 21
68.178868733333331
  0
LINE
  8
_1-8_小物
  6
CONTINUOUS
 62
    4
 10
-114.47499940000044
 20
68.083605533333468
 11
-114.64000000000043
 21
67.988343233333239
  0
LINE
  8
_1-8_小物
  6
CONTINUOUS
 62
    4
 10
-115.5249997
 20
67.871939033333433
 11
-115.36000000000004
 21
67.967202233333296
  0
LINE
  8
_1-8_小物
  6
CONTINUOUS
 62
    4
 10
-115.36000000000004
 20
67.776675833333286
 11
-115.5249997
 21
67.871939033333433
  0
LINE
  8
_1-8_小物
  6
CONTINUOUS
 62
    4
 10
-114.64000000000043
 20
67.332201833333158
 11
-114.64000000000043
 21
67.565009333333194
  0
LINE
  8
_1-8_小物
  6
CONTINUOUS
 62
    4
 10
-115.36000000000004
 20
67.353342833333329
 11
-115.36000000000004
 21
67.120535333333294
  0
LINE
  8
_1-8_小物
  6
CONTINUOUS
 62
    4
 10
-114.64000000000043
 20
67.755534833333172
 11
-115.36000000000004
 21
67.543868333333251
  0
LINE
  8
_1-8_小物
  6
CONTINUOUS
 62
    4
 10
-114.64000000000043
 20
67.565009333333194
 11
-115.36000000000004
 21
67.353342833333329
  0
LINE
  8
_1-8_小物
  6
CONTINUOUS
 62
    4
 10
-114.47499940000044
 20
67.660272533333341
 11
-115.5249997
 21
67.448606033333419
  0
LINE
  8
_1-8_小物
  6
CONTINUOUS
 62
    4
 10
-114.47499940000044
 20
67.660272533333341
 11
-114.64000000000043
 21
67.755534833333172
  0
LINE
  8
_1-8_小物
  6
CONTINUOUS
 62
    4
 10
-114.47499940000044
 20
67.660272533333341
 11
-114.64000000000043
 21
67.565009333333194
  0
LINE
  8
_1-8_小物
  6
CONTINUOUS
 62
    4
 10
-115.5249997
 20
67.448606033333419
 11
-115.36000000000004
 21
67.543868333333251
  0
LINE
  8
_1-8_小物
  6
CONTINUOUS
 62
    4
 10
-115.36000000000004
 20
67.353342833333329
 11
-115.5249997
 21
67.448606033333419
  0
LINE
  8
_1-8_小物
  6
CONTINUOUS
 62
    4
 10
-114.64000000000043
 20
66.908868833333258
 11
-114.64000000000043
 21
67.141676333333294
  0
LINE
  8
_1-8_小物
  6
CONTINUOUS
 62
    4
 10
-115.36000000000004
 20
66.930009833333202
 11
-115.36000000000004
 21
66.697201433333362
  0
LINE
  8
_1-8_小物
  6
CONTINUOUS
 62
    4
 10
-114.64000000000043
 20
67.332201833333158
 11
-115.36000000000004
 21
67.120535333333294
  0
LINE
  8
_1-8_小物
  6
CONTINUOUS
 62
    4
 10
-114.64000000000043
 20
67.141676333333294
 11
-115.36000000000004
 21
66.930009833333202
  0
LINE
  8
_1-8_小物
  6
CONTINUOUS
 62
    4
 10
-114.47499940000044
 20
67.236938633333295
 11
-115.5249997
 21
67.02527213333326
  0
LINE
  8
_1-8_小物
  6
CONTINUOUS
 62
    4
 10
-114.47499940000044
 20
67.236938633333295
 11
-114.64000000000043
 21
67.332201833333158
  0
LINE
  8
_1-8_小物
  6
CONTINUOUS
 62
    4
 10
-114.47499940000044
 20
67.236938633333295
 11
-114.64000000000043
 21
67.141676333333294
  0
LINE
  8
_1-8_小物
  6
CONTINUOUS
 62
    4
 10
-115.5249997
 20
67.02527213333326
 11
-115.36000000000004
 21
67.120535333333294
  0
LINE
  8
_1-8_小物
  6
CONTINUOUS
 62
    4
 10
-115.36000000000004
 20
66.930009833333202
 11
-115.5249997
 21
67.02527213333326
  0
LINE
  8
_1-8_小物
  6
CONTINUOUS
 62
    4
 10
-114.64000000000043
 20
66.48553493333327
 11
-114.64000000000043
 21
66.71834333333328
  0
LINE
  8
_1-8_小物
  6
CONTINUOUS
 62
    4
 10
-115.36000000000004
 20
66.506675933333383
 11
-115.36000000000004
 21
66.273868433333348
  0
LINE
  8
_1-8_小物
  6
CONTINUOUS
 62
    4
 10
-114.64000000000043
 20
66.908868833333258
 11
-115.36000000000004
 21
66.697201433333362
  0
LINE
  8
_1-8_小物
  6
CONTINUOUS
 62
    4
 10
-114.64000000000043
 20
66.71834333333328
 11
-115.36000000000004
 21
66.506675933333383
  0
LINE
  8
_1-8_小物
  6
CONTINUOUS
 62
    4
 10
-114.47499940000044
 20
66.813605633333168
 11
-115.5249997
 21
66.601939133333303
  0
LINE
  8
_1-8_小物
  6
CONTINUOUS
 62
    4
 10
-114.47499940000044
 20
66.813605633333168
 11
-114.64000000000043
 21
66.908868833333258
  0
LINE
  8
_1-8_小物
  6
CONTINUOUS
 62
    4
 10
-114.47499940000044
 20
66.813605633333168
 11
-114.64000000000043
 21
66.71834333333328
  0
LINE
  8
_1-8_小物
  6
CONTINUOUS
 62
    4
 10
-115.5249997
 20
66.601939133333303
 11
-115.36000000000004
 21
66.697201433333362
  0
LINE
  8
_1-8_小物
  6
CONTINUOUS
 62
    4
 10
-115.36000000000004
 20
66.506675933333383
 11
-115.5249997
 21
66.601939133333303
  0
LINE
  8
_1-8_小物
  6
CONTINUOUS
 62
    4
 10
-114.64000000000043
 20
66.226456433333283
 11
-114.64000000000043
 21
66.295009433333291
  0
LINE
  8
_1-8_小物
  6
CONTINUOUS
 62
    4
 10
-115.36000000000004
 20
66.083342933333427
 11
-115.36000000000004
 21
65.850535433333391
  0
LINE
  8
_1-8_小物
  6
CONTINUOUS
 62
    4
 10
-114.64000000000043
 20
66.48553493333327
 11
-115.36000000000004
 21
66.273868433333348
  0
LINE
  8
_1-8_小物
  6
CONTINUOUS
 62
    4
 10
-114.64000000000043
 20
66.295009433333291
 11
-115.10795140000019
 21
66.157440833333453
  0
LINE
  8
_1-8_小物
  6
CONTINUOUS
 62
    4
 10
-115.44489250000007
 20
66.194753933333118
 11
-114.47499940000044
 21
66.390272633333382
  0
LINE
  8
_1-8_小物
  6
CONTINUOUS
 62
    4
 10
-114.47499940000044
 20
66.390272633333382
 11
-114.64000000000043
 21
66.48553493333327
  0
LINE
  8
_1-8_小物
  6
CONTINUOUS
 62
    4
 10
-114.47499940000044
 20
66.390272633333382
 11
-114.64000000000043
 21
66.295009433333291
  0
LINE
  8
_1-8_小物
  6
CONTINUOUS
 62
    4
 10
-115.47794590000004
 20
66.205772633333368
 11
-115.36000000000004
 21
66.273868433333348
  0
LINE
  8
_1-8_小物
  6
CONTINUOUS
 62
    4
 10
-115.36000000000004
 20
66.083342933333427
 11
-115.5249997
 21
66.17860613333329
  0
LINE
  8
_1-8_小物
  6
CONTINUOUS
 62
    4
 10
-114.64000000000043
 20
65.638868033333097
 11
-114.64000000000043
 21
65.871676433333391
  0
LINE
  8
_1-8_小物
  6
CONTINUOUS
 62
    4
 10
-115.36000000000004
 20
65.660009933333299
 11
-115.36000000000004
 21
65.427201533333232
  0
LINE
  8
_1-8_小物
  6
CONTINUOUS
 62
    4
 10
-114.64000000000043
 20
66.062201933333256
 11
-115.36000000000004
 21
65.850535433333391
  0
LINE
  8
_1-8_小物
  6
CONTINUOUS
 62
    4
 10
-114.64000000000043
 20
65.871676433333391
 11
-115.36000000000004
 21
65.660009933333299
  0
LINE
  8
_1-8_小物
  6
CONTINUOUS
 62
    4
 10
-114.47499940000044
 20
65.966938733333393
 11
-115.5249997
 21
65.755272233333358
  0
LINE
  8
_1-8_小物
  6
CONTINUOUS
 62
    4
 10
-114.47499940000044
 20
65.966938733333393
 11
-114.64000000000043
 21
66.062201933333256
  0
LINE
  8
_1-8_小物
  6
CONTINUOUS
 62
    4
 10
-114.47499940000044
 20
65.966938733333393
 11
-114.64000000000043
 21
65.871676433333391
  0
LINE
  8
_1-8_小物
  6
CONTINUOUS
 62
    4
 10
-115.5249997
 20
65.755272233333358
 11
-115.36000000000004
 21
65.850535433333391
  0
LINE
  8
_1-8_小物
  6
CONTINUOUS
 62
    4
 10
-115.36000000000004
 20
65.660009933333299
 11
-115.5249997
 21
65.755272233333358
  0
LINE
  8
_1-8_小物
  6
CONTINUOUS
 62
    4
 10
-114.64000000000043
 20
65.215535033333367
 11
-114.64000000000043
 21
65.448342533333346
  0
LINE
  8
_1-8_小物
  6
CONTINUOUS
 62
    4
 10
-115.36000000000004
 20
65.236676033333254
 11
-115.36000000000004
 21
65.003868533333446
  0
LINE
  8
_1-8_小物
  6
CONTINUOUS
 62
    4
 10
-114.64000000000043
 20
65.638868033333097
 11
-115.36000000000004
 21
65.427201533333232
  0
LINE
  8
_1-8_小物
  6
CONTINUOUS
 62
    4
 10
-114.64000000000043
 20
65.448342533333346
 11
-115.36000000000004
 21
65.236676033333254
  0
LINE
  8
_1-8_小物
  6
CONTINUOUS
 62
    4
 10
-114.47499940000044
 20
65.543605733333266
 11
-115.5249997
 21
65.331939233333401
  0
LINE
  8
_1-8_小物
  6
CONTINUOUS
 62
    4
 10
-114.47499940000044
 20
65.543605733333266
 11
-114.64000000000043
 21
65.638868033333097
  0
LINE
  8
_1-8_小物
  6
CONTINUOUS
 62
    4
 10
-114.47499940000044
 20
65.543605733333266
 11
-114.64000000000043
 21
65.448342533333346
  0
LINE
  8
_1-8_小物
  6
CONTINUOUS
 62
    4
 10
-115.5249997
 20
65.331939233333401
 11
-115.36000000000004
 21
65.427201533333232
  0
LINE
  8
_1-8_小物
  6
CONTINUOUS
 62
    4
 10
-115.36000000000004
 20
65.236676033333254
 11
-115.5249997
 21
65.331939233333401
  0
LINE
  8
_1-8_小物
  6
CONTINUOUS
 62
    4
 10
-114.64000000000043
 20
65.215535033333367
 11
-115.36000000000004
 21
65.003868533333446
  0
LINE
  8
_1-8_小物
  6
CONTINUOUS
 62
    4
 10
-114.47499940000044
 20
65.120272733333479
 11
-114.64000000000043
 21
65.215535033333367
  0
LINE
  8
_1-8_小物
  6
CONTINUOUS
 62
    4
 10
-114.74526669999999
 20
69.03725363333325
 11
-115.26447759999972
 21
68.824454033333382
  0
LINE
  8
_1-8_小物
  6
CONTINUOUS
 62
    4
 10
-115.44781209999995
 20
68.718605933333322
 11
-114.55996930000047
 21
68.930272433333243
  0
LINE
  8
_1-8_小物
  6
CONTINUOUS
 62
    4
 10
-114.72496990000046
 20
68.835009233333381
 11
-115.2828124
 21
68.623342733333459
  0
LINE
  8
_1-8_小物
  6
CONTINUOUS
 62
    4
 10
-115.30307140000005
 20
68.401120133333336
 11
-114.70278130000007
 21
68.613919733333489
  0
LINE
  8
_1-8_小物
  6
CONTINUOUS
 62
    4
 10
-114.51748480000006
 20
68.50693943333323
 11
-115.48640590000024
 21
68.295272033333333
  0
LINE
  8
_1-8_小物
  6
CONTINUOUS
 62
    4
 10
-115.32140619999971
 20
68.200009733333331
 11
-114.68248450000002
 21
68.411676233333367
  0
LINE
  8
_1-8_小物
  6
CONTINUOUS
 62
    4
 10
-115.32140619999971
 20
68.200009733333331
 11
-115.34215210000012
 21
67.972448333333318
  0
LINE
  8
_1-8_小物
  6
CONTINUOUS
 62
    4
 10
-115.2828124
 20
68.623342733333459
 11
-115.30307140000005
 21
68.401120133333336
  0
LINE
  8
_1-8_小物
  6
CONTINUOUS
 62
    4
 10
-114.70278130000007
 20
68.613919733333489
 11
-114.72496990000046
 21
68.835009233333381
  0
LINE
  8
_1-8_小物
  6
CONTINUOUS
 62
    4
 10
-114.65857240000005
 20
68.173408433333236
 11
-114.68248450000002
 21
68.411676233333367
  0
LINE
  8
_1-8_小物
  6
CONTINUOUS
 62
    4
 10
-114.55996930000047
 20
68.930272433333243
 11
-114.74526669999999
 21
69.03725363333325
  0
LINE
  8
_1-8_小物
  6
CONTINUOUS
 62
    4
 10
-114.72496990000046
 20
68.835009233333381
 11
-114.55996930000047
 21
68.930272433333243
  0
LINE
  8
_1-8_小物
  6
CONTINUOUS
 62
    4
 10
-114.51748480000006
 20
68.50693943333323
 11
-114.70278130000007
 21
68.613919733333489
  0
LINE
  8
_1-8_小物
  6
CONTINUOUS
 62
    4
 10
-114.51748480000006
 20
68.50693943333323
 11
-114.68248450000002
 21
68.411676233333367
  0
LINE
  8
_1-8_小物
  6
CONTINUOUS
 62
    4
 10
-115.44781209999995
 20
68.718605933333322
 11
-115.26447759999972
 21
68.824454033333382
  0
LINE
  8
_1-8_小物
  6
CONTINUOUS
 62
    4
 10
-115.2828124
 20
68.623342733333459
 11
-115.44781209999995
 21
68.718605933333322
  0
LINE
  8
_1-8_小物
  6
CONTINUOUS
 62
    4
 10
-115.48640590000024
 20
68.295272033333333
 11
-115.30307140000005
 21
68.401120133333336
  0
LINE
  8
_1-8_小物
  6
CONTINUOUS
 62
    4
 10
-115.32140619999971
 20
68.200009733333331
 11
-115.48640590000024
 21
68.295272033333333
  0
LINE
  8
_1-8_小物
  6
CONTINUOUS
 62
    4
 10
-115.0000000000001
 20
69.773342933333311
 11
-114.74526669999999
 21
69.03725363333325
  0
LINE
  8
_1-8_小物
  6
CONTINUOUS
 62
    4
 10
-115.26447759999972
 20
68.824454033333382
 11
-115.0000000000001
 21
69.773342933333311
  0
LINE
  8
_1-8_小物
  6
CONTINUOUS
 62
    4
 10
-114.64000000000043
 20
66.226456433333283
 11
-114.64000000000043
 21
66.062201933333256
  0
LINE
  8
_1-8_小物
  6
CONTINUOUS
 62
    4
 10
-115.47794590000004
 20
66.205772633333368
 11
-115.5249997
 21
66.17860613333329
  0
LINE
  8
_1-8_小物
  6
CONTINUOUS
 62
    4
 10
-115.36000000000004
 20
66.083342933333427
 11
-115.10795140000019
 21
66.157440833333453
  0
LINE
  8
_1-8_小物
  6
CONTINUOUS
 62
    4
 10
-115.44489250000007
 20
66.194753933333118
 11
-115.5249997
 21
66.17860613333329
  0
LINE
  8
_1-8_小物
  6
CENTER2
 62
    4
 10
-115.0000000000001
 20
70.673342933333174
 11
-115.0000000000001
 21
60.503333033333206
  0
ENDBLK
  0
BLOCK
  2
-007-$QLE_2_
 70
   64
 10
0
 20
0
 30
0
  0
LINE
  8
_1-f_寸法
  6
CONTINUOUS
 62
    4
 10
128.38716433333332
 20
85.500000666666608
 11
131.17415532803443
 21
90.327210669725844
  0
LINE
  8
_1-f_寸法
  6
CONTINUOUS
 62
    4
 10
131.17415532803443
 20
90.327210669725844
 11
150.69415532803441
 21
90.327210669725844
  0
POINT
  8
_1-f_寸法
 62
    4
 10
128.38716433333332
 20
85.500000666666608
  0
TEXT
  8
_1-f_寸法
 62
    4
 10
131.49415532803442
 20
90.327210669725844
 40
3.2000000000000002
 41
1
 50
0
  1
野縁受(別途)
  0
ENDBLK
  0
BLOCK
  2
-008-$QLE_3_
 70
   64
 10
0
 20
0
 30
0
  0
LINE
  8
_1-f_寸法
  6
CONTINUOUS
 62
    4
 10
126.4166663333333
 20
69.916667166666599
 11
130.65093882746316
 21
77.250642259590933
  0
LINE
  8
_1-f_寸法
  6
CONTINUOUS
 62
    4
 10
130.65093882746316
 20
77.250642259590933
 11
146.97093882746304
 21
77.250642259590933
  0
POINT
  8
_1-f_寸法
 62
    4
 10
126.4166663333333
 20
69.916667166666599
  0
TEXT
  8
_1-f_寸法
 62
    4
 10
130.97093882746316
 20
77.250642259590933
 40
3.2000000000000002
 41
1
 50
0
  1
野縁(別途)
  0
ENDBLK
  0
BLOCK
  2
-009-$QLE_4_
 70
   64
 10
0
 20
0
 30
0
  0
LINE
  8
_1-f_寸法
  6
CONTINUOUS
 62
    4
 10
134.99999983333333
 20
66.500000333333276
 11
136.86004207030317
 21
69.721687991989143
  0
LINE
  8
_1-f_寸法
  6
CONTINUOUS
 62
    4
 10
136.86004207030317
 20
69.721687991989143
 11
153.18004207030322
 21
69.721687991989143
  0
POINT
  8
_1-f_寸法
 62
    4
 10
134.99999983333333
 20
66.500000333333276
  0
TEXT
  8
_1-f_寸法
 62
    4
 10
137.18004207030322
 20
69.721687991989143
 40
3.2000000000000002
 41
1
 50
0
  1
天井仕上面
  0
ENDBLK
  0
BLOCK
  2
-010-$QLE_5_
 70
   64
 10
0
 20
0
 30
0
  0
LINE
  8
_1-f_寸法
  6
CONTINUOUS
 62
    4
 10
-65.000000499999913
 20
66.500000999999941
 11
-63.139958263030053
 21
69.721688658655808
  0
LINE
  8
_1-f_寸法
  6
CONTINUOUS
 62
    4
 10
-63.139958263030053
 20
69.721688658655808
 11
-46.81995826303006
 21
69.721688658655808
  0
POINT
  8
_1-f_寸法
 62
    4
 10
-65.000000499999913
 20
66.500000999999941
  0
TEXT
  8
_1-f_寸法
 62
    4
 10
-62.81995826303006
 20
69.721688658655808
 40
3.2000000000000002
 41
1
 50
0
  1
天井仕上面
  0
ENDBLK
  0
BLOCK
  2
-011-_5_
 70
   64
 10
0
 20
0
 30
0
  0
LINE
  8
_1-8_小物
  6
CONTINUOUS
 62
    4
 10
92.699999999999818
 20
56.166666587199359
 11
92.699999999999818
 21
50.166666587200041
  0
LINE
  8
_1-8_小物
  6
CONTINUOUS
 62
    4
 10
92.699999999999818
 20
50.166666587200041
 11
92.199999999999704
 21
50.166666587200041
  0
ARC
  8
_1-8_小物
  6
CONTINUOUS
 62
    4
 10
92.066667164194655
 20
53.1666665871997
 40
1.5999999999998398
 50
324.29996100000506
 51
0
  0
ARC
  8
_1-8_小物
  6
CONTINUOUS
 62
    4
 10
92.71633316419468
 20
53.633499587199765
 40
0.7999999999999201
 50
35.70005899999191
 51
91.169858000005419
  0
ARC
  8
_1-8_小物
  6
CONTINUOUS
 62
    4
 10
92.066667164194655
 20
53.1666665871997
 40
1.5999999999998398
 50
0
 51
35.700039000000658
  0
ARC
  8
_1-8_小物
  6
CONTINUOUS
 62
    4
 10
92.71633316419468
 20
52.699833587199635
 40
0.7999999999999201
 50
268.83014199999451
 51
324.29994100000806
  0
LINE
  8
_1-8_小物
  6
CONTINUOUS
 62
    4
 10
92.699999999999818
 20
56.166666587199359
 11
92.199999999999704
 21
56.166666587199359
  0
LINE
  8
_1-8_小物
  6
CONTINUOUS
 62
    4
 10
92.199999999999704
 20
56.166666587199359
 11
92.199999999999704
 21
50.166666587200041
  0
LINE
  8
_1-8_小物
  6
CONTINUOUS
 62
    4
 10
92.699999999999704
 20
52.249999920532389
 11
92.199999999999704
 21
52.249999920532389
  0
LINE
  8
_1-8_小物
  6
CONTINUOUS
 62
    4
 10
92.699999999999704
 20
54.083333253866044
 11
92.199999999999704
 21
54.083333253866044
  0
ENDBLK
  0
BLOCK
  2
-012-_6_
 70
   64
 10
0
 20
0
 30
0
  0
LINE
  8
_1-8_小物
  6
CONTINUOUS
 62
    4
 10
89.617577666666421
 20
51.586081587199885
 11
87.96657266666648
 21
51.821939587199893
  0
LINE
  8
_1-8_小物
  6
CONTINUOUS
 62
    4
 10
86.716572666667616
 20
52.010857587199951
 11
87.881067666667718
 21
51.587016587199912
  0
LINE
  8
_1-8_小物
  6
CONTINUOUS
 62
    4
 10
87.881067666667718
 20
51.587016587199912
 11
89.581972666666616
 21
51.338927587199976
  0
ARC
  8
_1-8_小物
  6
CONTINUOUS
 62
    4
 10
89.603435666666428
 20
51.487086587199826
 40
0.0999999999999899
 50
351.86989799997593
 51
81.86989800004045
  0
LINE
  8
_1-8_小物
  6
CONTINUOUS
 62
    4
 10
89.695400666666501
 20
51.423738587200035
 11
89.702429666666717
 21
51.472944587199947
  0
ARC
  8
_1-8_小物
  6
CONTINUOUS
 62
    4
 10
89.596405666666442
 20
51.437880587199913
 40
0.0999999999999899
 50
261.7015340000263
 51
351.86989800004045
  0
LINE
  8
_1-8_小物
  6
CONTINUOUS
 62
    4
 10
82.472396666667578
 20
54.5448975871995
 11
81.946913666667569
 21
54.071751587199685
  0
LINE
  8
_1-8_小物
  6
CONTINUOUS
 62
    4
 10
81.927287666667667
 20
53.697270587199739
 11
89.666666666666629
 21
53.291666587199813
  0
LINE
  8
_1-8_小物
  6
CONTINUOUS
 62
    4
 10
82.472396666667578
 20
54.544902587199488
 11
81.946913666667569
 21
54.071756587199673
  0
LINE
  8
_1-8_小物
  6
CONTINUOUS
 62
    4
 10
81.927287666667667
 20
52.63606258719966
 11
89.666666666666629
 21
53.0416665871997
  0
LINE
  8
_1-8_小物
  6
CONTINUOUS
 62
    4
 10
82.472396666667578
 20
51.788429587199914
 11
81.946913666667569
 21
52.261576587199727
  0
LINE
  8
_1-8_小物
  6
CONTINUOUS
 62
    4
 10
89.617577666666421
 20
54.747251587199514
 11
87.96657266666648
 21
54.511393587199507
  0
LINE
  8
_1-8_小物
  6
CONTINUOUS
 62
    4
 10
87.881067666667718
 20
54.746316587199715
 11
89.581972666666616
 21
54.994405587199651
  0
LINE
  8
_1-8_小物
  6
CONTINUOUS
 62
    4
 10
88.43800566666755
 20
53.731572587199764
 11
87.938691666667523
 21
53.757740587199521
  0
LINE
  8
_1-8_小物
  6
CONTINUOUS
 62
    4
 10
88.43800566666755
 20
52.601760587199635
 11
87.938691666667523
 21
52.575592587199878
  0
LINE
  8
_1-8_小物
  6
CONTINUOUS
 62
    4
 10
91.666666666666515
 20
54.166666587199472
 11
88.666666666666515
 21
54.166666587199472
  0
LINE
  8
_1-8_小物
  6
CONTINUOUS
 62
    4
 10
91.666666666666515
 20
52.166666587199813
 11
88.666666666666515
 21
52.166666587199813
  0
ARC
  8
_1-8_小物
  6
CONTINUOUS
 62
    4
 10
89.603435666666428
 20
54.846246587199573
 40
0.0999999999999899
 50
278.13010199995955
 51
8.1301020000240669
  0
LINE
  8
_1-8_小物
  6
CONTINUOUS
 62
    4
 10
89.695400666666501
 20
54.909594587199592
 11
89.702429666666717
 21
54.860388587199679
  0
ARC
  8
_1-8_小物
  6
CONTINUOUS
 62
    4
 10
89.596405666666442
 20
54.895452587199713
 40
0.0999999999999899
 50
8.1301019999595656
 51
98.298465999971356
  0
LINE
  8
_1-8_小物
  6
CONTINUOUS
 62
    4
 10
89.666666666666629
 20
53.291666587199813
 11
89.666666666666629
 21
53.1666665871997
  0
LINE
  8
_1-8_小物
  6
CONTINUOUS
 62
    4
 10
91.666666666666515
 20
54.416666587199586
 11
90.416666666666629
 21
54.166666587199472
  0
LINE
  8
_1-8_小物
  6
CONTINUOUS
 62
    4
 10
91.666666666666515
 20
53.4166665871997
 11
90.416666666666629
 21
53.1666665871997
  0
LINE
  8
_1-8_小物
  6
CONTINUOUS
 62
    4
 10
91.666666666666515
 20
52.916666587199813
 11
90.416666666666629
 21
53.1666665871997
  0
LINE
  8
_1-8_小物
  6
CONTINUOUS
 62
    4
 10
90.416666666666629
 20
53.1666665871997
 11
91.666666666666515
 21
53.1666665871997
  0
LINE
  8
_1-8_小物
  6
CONTINUOUS
 62
    4
 10
89.666666666666629
 20
53.0416665871997
 11
89.666666666666629
 21
53.1666665871997
  0
LINE
  8
_1-8_小物
  6
CONTINUOUS
 62
    4
 10
91.666666666666515
 20
51.916666587199813
 11
90.416666666666629
 21
52.166666587199813
  0
LINE
  8
_1-8_小物
  6
CONTINUOUS
 62
    4
 10
88.666666666666515
 20
54.166666587199472
 11
88.43800566666755
 21
53.731572587199764
  0
LINE
  8
_1-8_小物
  6
CONTINUOUS
 62
    4
 10
88.666666666666515
 20
52.166666587199813
 11
88.43800566666755
 21
52.601760587199635
  0
LINE
  8
_1-8_小物
  6
CONTINUOUS
 62
    4
 10
82.666666666667538
 20
53.1666665871997
 11
83.134028031939692
 21
52.699305221927546
  0
LINE
  8
_1-8_小物
  6
CONTINUOUS
 62
    4
 10
86.702358704130688
 20
54.051257125569748
 11
87.96657266666648
 21
54.511393587199507
  0
LINE
  8
_1-8_小物
  6
CONTINUOUS
 62
    4
 10
86.702358704130688
 20
52.282076048829879
 11
87.96657266666648
 21
51.821939587199893
  0
LINE
  8
_1-8_小物
  6
CONTINUOUS
 62
    4
 10
82.426602666667577
 20
53.671102587199641
 11
82.472396666667578
 21
54.544902587199488
  0
LINE
  8
_1-8_小物
  6
CONTINUOUS
 62
    4
 10
84.219998666667607
 20
54.453315587199711
 11
83.720683666667696
 21
54.479483587199582
  0
LINE
  8
_1-8_小物
  6
CONTINUOUS
 62
    4
 10
82.426602666667577
 20
52.662230587199758
 11
82.472396666667578
 21
51.788429587199914
  0
LINE
  8
_1-8_小物
  6
CONTINUOUS
 62
    4
 10
84.219998666667607
 20
51.880017587199916
 11
83.720683666667696
 21
51.853849587199818
  0
LINE
  8
_1-8_小物
  6
CONTINUOUS
 62
    4
 10
83.134027666667407
 20
53.634027587199682
 11
82.666666666667538
 21
53.1666665871997
  0
LINE
  8
_1-8_小物
  6
CONTINUOUS
 62
    4
 10
82.945543666667731
 20
54.019420587199704
 11
82.971711666667488
 21
54.518734587199617
  0
LINE
  8
_1-8_小物
  6
CONTINUOUS
 62
    4
 10
83.444858666667415
 20
53.99325258719972
 11
82.945543666667731
 21
54.019420587199704
  0
LINE
  8
_1-8_小物
  6
CONTINUOUS
 62
    4
 10
83.720683666667696
 20
54.479483587199582
 11
83.444858666667415
 21
53.99325258719972
  0
LINE
  8
_1-8_小物
  6
CONTINUOUS
 62
    4
 10
82.971711666667488
 20
54.518734587199617
 11
82.472396666667578
 21
54.544902587199488
  0
LINE
  8
_1-8_小物
  6
CONTINUOUS
 62
    4
 10
82.945543666667731
 20
52.313912587199809
 11
82.971711666667488
 21
51.814597587199898
  0
LINE
  8
_1-8_小物
  6
CONTINUOUS
 62
    4
 10
83.444858666667415
 20
52.340080587199679
 11
82.945543666667731
 21
52.313912587199809
  0
LINE
  8
_1-8_小物
  6
CONTINUOUS
 62
    4
 10
83.720683666667696
 20
51.853849587199818
 11
83.444858666667415
 21
52.340080587199679
  0
LINE
  8
_1-8_小物
  6
CONTINUOUS
 62
    4
 10
82.971711666667488
 20
51.814597587199898
 11
82.472396666667578
 21
51.788429587199914
  0
LINE
  8
_1-8_小物
  6
CONTINUOUS
 62
    4
 10
86.716572666667616
 20
54.322475587199676
 11
87.881067666667718
 21
54.746316587199715
  0
LINE
  8
_1-8_小物
  6
CONTINUOUS
 62
    4
 10
87.938691666667523
 20
53.757740587199521
 11
87.964859666667621
 21
54.257055587199432
  0
LINE
  8
_1-8_小物
  6
CONTINUOUS
 62
    4
 10
87.964859666667621
 20
54.257055587199432
 11
87.465544666667483
 21
54.283223587199757
  0
LINE
  8
_1-8_小物
  6
CONTINUOUS
 62
    4
 10
86.690404666667519
 20
53.823160587199766
 11
86.716572666667616
 21
54.322475587199676
  0
LINE
  8
_1-8_小物
  6
CONTINUOUS
 62
    4
 10
87.189718666667432
 20
53.796992587199668
 11
86.690404666667519
 21
53.823160587199766
  0
LINE
  8
_1-8_小物
  6
CONTINUOUS
 62
    4
 10
87.465544666667483
 20
54.283223587199757
 11
87.189718666667432
 21
53.796992587199668
  0
LINE
  8
_1-8_小物
  6
CONTINUOUS
 62
    4
 10
86.716572666667616
 20
54.322475587199676
 11
86.217257666667592
 21
54.348643587199433
  0
LINE
  8
_1-8_小物
  6
CONTINUOUS
 62
    4
 10
85.442117666667627
 20
53.888580587199669
 11
85.468285666667498
 21
54.38789558719958
  0
LINE
  8
_1-8_小物
  6
CONTINUOUS
 62
    4
 10
85.94143166666754
 20
53.862412587199572
 11
85.442117666667627
 21
53.888580587199669
  0
LINE
  8
_1-8_小物
  6
CONTINUOUS
 62
    4
 10
86.217257666667592
 20
54.348643587199433
 11
85.94143166666754
 21
53.862412587199572
  0
LINE
  8
_1-8_小物
  6
CONTINUOUS
 62
    4
 10
85.468285666667498
 20
54.38789558719958
 11
84.968970666667474
 21
54.414063587199678
  0
LINE
  8
_1-8_小物
  6
CONTINUOUS
 62
    4
 10
84.193830666667509
 20
53.954000587199573
 11
84.219998666667607
 21
54.453315587199711
  0
LINE
  8
_1-8_小物
  6
CONTINUOUS
 62
    4
 10
84.693145666667533
 20
53.927832587199703
 11
84.193830666667509
 21
53.954000587199573
  0
LINE
  8
_1-8_小物
  6
CONTINUOUS
 62
    4
 10
84.968970666667474
 20
54.414063587199678
 11
84.693145666667533
 21
53.927832587199703
  0
LINE
  8
_1-8_小物
  6
CONTINUOUS
 62
    4
 10
87.938691666667523
 20
52.575592587199878
 11
87.964859666667621
 21
52.076277587199627
  0
LINE
  8
_1-8_小物
  6
CONTINUOUS
 62
    4
 10
87.964859666667621
 20
52.076277587199627
 11
87.465544666667483
 21
52.05010958719987
  0
LINE
  8
_1-8_小物
  6
CONTINUOUS
 62
    4
 10
86.690404666667519
 20
52.510172587199634
 11
86.716572666667616
 21
52.010857587199951
  0
LINE
  8
_1-8_小物
  6
CONTINUOUS
 62
    4
 10
87.189718666667432
 20
52.536340587199732
 11
86.690404666667519
 21
52.510172587199634
  0
LINE
  8
_1-8_小物
  6
CONTINUOUS
 62
    4
 10
87.465544666667483
 20
52.05010958719987
 11
87.189718666667432
 21
52.536340587199732
  0
LINE
  8
_1-8_小物
  6
CONTINUOUS
 62
    4
 10
86.716572666667616
 20
52.010857587199951
 11
86.217257666667592
 21
51.984689587199966
  0
LINE
  8
_1-8_小物
  6
CONTINUOUS
 62
    4
 10
85.442117666667627
 20
52.44475258719973
 11
85.468285666667498
 21
51.94543758719982
  0
LINE
  8
_1-8_小物
  6
CONTINUOUS
 62
    4
 10
85.94143166666754
 20
52.470920587199828
 11
85.442117666667627
 21
52.44475258719973
  0
LINE
  8
_1-8_小物
  6
CONTINUOUS
 62
    4
 10
86.217257666667592
 20
51.984689587199966
 11
85.94143166666754
 21
52.470920587199828
  0
LINE
  8
_1-8_小物
  6
CONTINUOUS
 62
    4
 10
85.468285666667498
 20
51.94543758719982
 11
84.968970666667474
 21
51.919269587199949
  0
LINE
  8
_1-8_小物
  6
CONTINUOUS
 62
    4
 10
84.193830666667509
 20
52.379332587199826
 11
84.219998666667607
 21
51.880017587199916
  0
LINE
  8
_1-8_小物
  6
CONTINUOUS
 62
    4
 10
84.693145666667533
 20
52.405500587199811
 11
84.193830666667509
 21
52.379332587199826
  0
LINE
  8
_1-8_小物
  6
CONTINUOUS
 62
    4
 10
84.968970666667474
 20
51.919269587199949
 11
84.693145666667533
 21
52.405500587199811
  0
LINE
  8
_1-8_小物
  6
CONTINUOUS
 62
    4
 10
81.946913666667569
 20
54.071756587199673
 11
81.927287666667667
 21
53.697270587199739
  0
LINE
  8
_1-8_小物
  6
CONTINUOUS
 62
    4
 10
81.946913666667569
 20
52.261576587199727
 11
81.927287666667667
 21
52.63606258719966
  0
LINE
  8
_1-8_小物
  6
CONTINUOUS
 62
    4
 10
91.666666666666515
 20
54.416666587199586
 11
91.666666666666515
 21
51.916666587199813
  0
ENDBLK
  0
BLOCK
  2
-013-_7_
 70
   64
 10
0
 20
0
 30
0
  0
LINE
  8
_1-7_カバ__
  6
CENTER2
 62
    4
 10
-100.00000000000004
 20
53.5
 11
-100.00000000000004
 21
57.333333333333258
  0
ARC
  8
_1-7_カバ__
  6
CONTINUOUS
 62
    4
 10
-72.166666666666742
 20
55.666666666666629
 40
0.1666666666666666
 50
270
 51
0
  0
LINE
  8
_1-7_カバ__
  6
CONTINUOUS
 62
    4
 10
-72.000000000000057
 20
55.666666666666629
 11
-72.000000000000057
 21
59.333333333333258
  0
ARC
  8
_1-7_カバ__
  6
CONTINUOUS
 62
    4
 10
-72.166666666666742
 20
59.333333333333258
 40
0.1666666666666666
 50
0
 51
90
  0
ARC
  8
_1-7_カバ__
  6
CONTINUOUS
 62
    4
 10
-72.166666666666742
 20
55.666666666666629
 40
0.5
 50
270
 51
0
  0
LINE
  8
_1-7_カバ__
  6
CONTINUOUS
 62
    4
 10
-71.666666666666742
 20
55.666666666666629
 11
-71.666666666666742
 21
59.333333333333258
  0
ARC
  8
_1-7_カバ__
  6
CONTINUOUS
 62
    4
 10
-72.166666666666742
 20
59.333333333333258
 40
0.5
 50
0
 51
90
  0
ARC
  8
_1-7_カバ__
  6
CONTINUOUS
 62
    4
 10
-127.83333333333339
 20
55.666666666666657
 40
0.1666666666666666
 50
180
 51
270
  0
LINE
  8
_1-7_カバ__
  6
CONTINUOUS
 62
    4
 10
-128.00000000000006
 20
55.666666666666657
 11
-128.00000000000006
 21
59.333333333333286
  0
ARC
  8
_1-7_カバ__
  6
CONTINUOUS
 62
    4
 10
-127.83333333333339
 20
59.333333333333286
 40
0.1666666666666666
 50
90
 51
180
  0
ARC
  8
_1-7_カバ__
  6
CONTINUOUS
 62
    4
 10
-127.83333333333339
 20
55.666666666666657
 40
0.5
 50
180
 51
270
  0
LINE
  8
_1-7_カバ__
  6
CONTINUOUS
 62
    4
 10
-128.33333333333337
 20
55.666666666666657
 11
-128.33333333333337
 21
59.333333333333286
  0
ARC
  8
_1-7_カバ__
  6
CONTINUOUS
 62
    4
 10
-127.83333333333339
 20
59.333333333333286
 40
0.5
 50
90
 51
180
  0
LINE
  8
_1-7_カバ__
  6
CONTINUOUS
 62
    4
 10
-72.166666666666742
 20
55.5
 11
-100.00000000000004
 21
55.5
  0
LINE
  8
_1-7_カバ__
  6
CONTINUOUS
 62
    4
 10
-72.166666666666742
 20
55.166666666666629
 11
-100.00000000000004
 21
55.166666666666657
  0
LINE
  8
_1-7_カバ__
  6
CONTINUOUS
 62
    4
 10
-127.83333333333339
 20
55.5
 11
-100.00000000000004
 21
55.5
  0
LINE
  8
_1-7_カバ__
  6
CONTINUOUS
 62
    4
 10
-127.83333333333339
 20
55.166666666666657
 11
-100.00000000000004
 21
55.166666666666657
  0
LINE
  8
_1-7_カバ__
  6
CONTINUOUS
 62
    4
 10
-75.000000000000057
 20
59.499999999999915
 11
-75.000000000000057
 21
59.833333333333258
  0
LINE
  8
_1-7_カバ__
  6
CONTINUOUS
 62
    4
 10
-72.166666666666742
 20
59.499999999999915
 11
-75.000000000000057
 21
59.499999999999915
  0
LINE
  8
_1-7_カバ__
  6
CONTINUOUS
 62
    4
 10
-72.166666666666742
 20
59.833333333333258
 11
-75.000000000000057
 21
59.833333333333258
  0
LINE
  8
_1-7_カバ__
  6
CONTINUOUS
 62
    4
 10
-125.00000000000004
 20
59.499999999999943
 11
-125.00000000000004
 21
59.833333333333286
  0
LINE
  8
_1-7_カバ__
  6
CONTINUOUS
 62
    4
 10
-127.83333333333339
 20
59.499999999999943
 11
-125.00000000000004
 21
59.499999999999943
  0
LINE
  8
_1-7_カバ__
  6
CONTINUOUS
 62
    4
 10
-127.83333333333339
 20
59.833333333333286
 11
-125.00000000000004
 21
59.833333333333286
  0
LINE
  8
_1-7_カバ__
  6
DASHED1
 62
    4
 10
-100.75000000000004
 20
55.5
 11
-101.08333333333337
 21
55.166666666666657
  0
LINE
  8
_1-7_カバ__
  6
DASHED1
 62
    4
 10
-99.250000000000043
 20
55.5
 11
-98.916666666666714
 21
55.166666666666629
  0
ENDBLK
  0
BLOCK
  2
-014-_8_
 70
   64
 10
0
 20
0
 30
0
  0
LINE
  8
_1-8_小物
  6
CONTINUOUS
 62
    4
 10
-99.000000000000028
 20
55.166666666666742
 11
-101.00000000000003
 21
55.166666666666742
  0
LINE
  8
_1-8_小物
  6
CONTINUOUS
 62
    4
 10
-100.99999999999991
 20
55.166666666666742
 11
-100.99999999999991
 21
55.233333333333405
  0
LINE
  8
_1-8_小物
  6
CONTINUOUS
 62
    4
 10
-99.000000000000142
 20
55.233333333333405
 11
-99.500000000000142
 21
55.733333333333405
  0
LINE
  8
_1-8_小物
  6
CONTINUOUS
 62
    4
 10
-99.500000000000142
 20
55.733333333333405
 11
-100.49999999999991
 21
55.733333333333405
  0
LINE
  8
_1-8_小物
  6
CONTINUOUS
 62
    4
 10
-100.99999999999991
 20
55.233333333333405
 11
-100.49999999999991
 21
55.733333333333405
  0
LINE
  8
_1-8_小物
  6
CONTINUOUS
 62
    4
 10
-99.000000000000142
 20
55.233333333333405
 11
-99.000000000000142
 21
55.166666666666742
  0
LINE
  8
_1-8_小物
  6
CONTINUOUS
 62
    4
 10
-100.99999999999991
 20
55.233333333333405
 11
-99.000000000000142
 21
55.233333333333405
  0
LINE
  8
_1-8_小物
  6
CONTINUOUS
 62
    4
 10
-100.49999999999991
 20
58.797580011509126
 11
-100.68750000000003
 21
58.905833333333391
  0
LINE
  8
_1-8_小物
  6
CONTINUOUS
 62
    4
 10
-100.68750000000003
 20
58.905833333333391
 11
-100.49999999999997
 21
59.014086655157627
  0
LINE
  8
_1-8_小物
  6
CONTINUOUS
 62
    4
 10
-100.49999999999991
 20
58.797580011509126
 11
-99.500000000000085
 21
59.032580011509054
  0
LINE
  8
_1-8_小物
  6
CONTINUOUS
 62
    4
 10
-99.312500000000028
 20
59.140833333333376
 11
-99.500000000000085
 21
59.032580011509054
  0
LINE
  8
_1-8_小物
  6
CONTINUOUS
 62
    4
 10
-99.500000000000099
 20
59.24908665515764
 11
-99.312500000000028
 21
59.140833333333376
  0
LINE
  8
_1-8_小物
  6
CONTINUOUS
 62
    4
 10
-100.49999999999997
 20
59.014086655157627
 11
-99.500000000000099
 21
59.24908665515764
  0
LINE
  8
_1-8_小物
  6
CONTINUOUS
 62
    4
 10
-100.68750000000003
 20
58.905833333333391
 11
-99.312500000000028
 21
59.140833333333376
  0
LINE
  8
_1-8_小物
  6
CONTINUOUS
 62
    4
 10
-100.49999999999991
 20
58.327580011509099
 11
-100.68750000000003
 21
58.435833333333363
  0
LINE
  8
_1-8_小物
  6
CONTINUOUS
 62
    4
 10
-100.68750000000003
 20
58.435833333333363
 11
-100.49999999999997
 21
58.544086655157628
  0
LINE
  8
_1-8_小物
  6
CONTINUOUS
 62
    4
 10
-100.49999999999991
 20
58.327580011509099
 11
-99.500000000000085
 21
58.562580011509056
  0
LINE
  8
_1-8_小物
  6
CONTINUOUS
 62
    4
 10
-99.312500000000028
 20
58.670833333333348
 11
-99.500000000000085
 21
58.562580011509056
  0
LINE
  8
_1-8_小物
  6
CONTINUOUS
 62
    4
 10
-99.500000000000099
 20
58.779086655157613
 11
-99.312500000000028
 21
58.670833333333348
  0
LINE
  8
_1-8_小物
  6
CONTINUOUS
 62
    4
 10
-100.49999999999997
 20
58.544086655157628
 11
-99.500000000000099
 21
58.779086655157613
  0
LINE
  8
_1-8_小物
  6
CONTINUOUS
 62
    4
 10
-100.68750000000003
 20
58.435833333333363
 11
-99.312500000000028
 21
58.670833333333348
  0
LINE
  8
_1-8_小物
  6
CONTINUOUS
 62
    4
 10
-100.49999999999991
 20
57.8575800115091
 11
-100.68750000000003
 21
57.965833333333421
  0
LINE
  8
_1-8_小物
  6
CONTINUOUS
 62
    4
 10
-100.68750000000003
 20
57.965833333333421
 11
-100.49999999999997
 21
58.074086655157686
  0
LINE
  8
_1-8_小物
  6
CONTINUOUS
 62
    4
 10
-100.49999999999991
 20
57.8575800115091
 11
-99.500000000000085
 21
58.092580011509114
  0
LINE
  8
_1-8_小物
  6
CONTINUOUS
 62
    4
 10
-99.312500000000028
 20
58.20083333333335
 11
-99.500000000000085
 21
58.092580011509114
  0
LINE
  8
_1-8_小物
  6
CONTINUOUS
 62
    4
 10
-99.500000000000099
 20
58.309086655157671
 11
-99.312500000000028
 21
58.20083333333335
  0
LINE
  8
_1-8_小物
  6
CONTINUOUS
 62
    4
 10
-100.49999999999997
 20
58.074086655157686
 11
-99.500000000000099
 21
58.309086655157671
  0
LINE
  8
_1-8_小物
  6
CONTINUOUS
 62
    4
 10
-100.68750000000003
 20
57.965833333333421
 11
-99.312500000000028
 21
58.20083333333335
  0
LINE
  8
_1-8_小物
  6
CONTINUOUS
 62
    4
 10
-100.49999999999991
 20
57.387580011509101
 11
-100.68750000000003
 21
57.495833333333394
  0
LINE
  8
_1-8_小物
  6
CONTINUOUS
 62
    4
 10
-100.68750000000003
 20
57.495833333333394
 11
-100.49999999999997
 21
57.604086655157658
  0
LINE
  8
_1-8_小物
  6
CONTINUOUS
 62
    4
 10
-100.49999999999991
 20
57.387580011509101
 11
-99.500000000000085
 21
57.622580011509086
  0
LINE
  8
_1-8_小物
  6
CONTINUOUS
 62
    4
 10
-99.312500000000028
 20
57.730833333333351
 11
-99.500000000000085
 21
57.622580011509086
  0
LINE
  8
_1-8_小物
  6
CONTINUOUS
 62
    4
 10
-99.500000000000099
 20
57.839086655157644
 11
-99.312500000000028
 21
57.730833333333351
  0
LINE
  8
_1-8_小物
  6
CONTINUOUS
 62
    4
 10
-100.49999999999997
 20
57.604086655157658
 11
-99.500000000000099
 21
57.839086655157644
  0
LINE
  8
_1-8_小物
  6
CONTINUOUS
 62
    4
 10
-100.68750000000003
 20
57.495833333333394
 11
-99.312500000000028
 21
57.730833333333351
  0
LINE
  8
_1-8_小物
  6
CONTINUOUS
 62
    4
 10
-100.49999999999991
 20
56.917580011509159
 11
-100.68750000000003
 21
57.025833333333395
  0
LINE
  8
_1-8_小物
  6
CONTINUOUS
 62
    4
 10
-100.68750000000003
 20
57.025833333333395
 11
-100.49999999999997
 21
57.134086655157716
  0
LINE
  8
_1-8_小物
  6
CONTINUOUS
 62
    4
 10
-100.49999999999991
 20
56.917580011509159
 11
-99.500000000000085
 21
57.152580011509144
  0
LINE
  8
_1-8_小物
  6
CONTINUOUS
 62
    4
 10
-99.312500000000028
 20
57.260833333333409
 11
-99.500000000000085
 21
57.152580011509144
  0
LINE
  8
_1-8_小物
  6
CONTINUOUS
 62
    4
 10
-99.500000000000099
 20
57.369086655157645
 11
-99.312500000000028
 21
57.260833333333409
  0
LINE
  8
_1-8_小物
  6
CONTINUOUS
 62
    4
 10
-100.49999999999997
 20
57.134086655157716
 11
-99.500000000000099
 21
57.369086655157645
  0
LINE
  8
_1-8_小物
  6
CONTINUOUS
 62
    4
 10
-100.68750000000003
 20
57.025833333333395
 11
-99.312500000000028
 21
57.260833333333409
  0
LINE
  8
_1-8_小物
  6
CONTINUOUS
 62
    4
 10
-100.49999999999991
 20
56.447580011509132
 11
-100.68750000000003
 21
56.555833333333396
  0
LINE
  8
_1-8_小物
  6
CONTINUOUS
 62
    4
 10
-100.68750000000003
 20
56.555833333333396
 11
-100.49999999999997
 21
56.664086655157689
  0
LINE
  8
_1-8_小物
  6
CONTINUOUS
 62
    4
 10
-100.49999999999991
 20
56.447580011509132
 11
-99.500000000000085
 21
56.682580011509117
  0
LINE
  8
_1-8_小物
  6
CONTINUOUS
 62
    4
 10
-99.312500000000028
 20
56.790833333333381
 11
-99.500000000000085
 21
56.682580011509117
  0
LINE
  8
_1-8_小物
  6
CONTINUOUS
 62
    4
 10
-99.500000000000099
 20
56.899086655157646
 11
-99.312500000000028
 21
56.790833333333381
  0
LINE
  8
_1-8_小物
  6
CONTINUOUS
 62
    4
 10
-100.49999999999997
 20
56.664086655157689
 11
-99.500000000000099
 21
56.899086655157646
  0
LINE
  8
_1-8_小物
  6
CONTINUOUS
 62
    4
 10
-100.68750000000003
 20
56.555833333333396
 11
-99.312500000000028
 21
56.790833333333381
  0
LINE
  8
_1-8_小物
  6
CONTINUOUS
 62
    4
 10
-100.49999999999991
 20
55.97758001150919
 11
-100.68750000000003
 21
56.085833333333454
  0
LINE
  8
_1-8_小物
  6
CONTINUOUS
 62
    4
 10
-100.68750000000003
 20
56.085833333333454
 11
-100.49999999999997
 21
56.19408665515769
  0
LINE
  8
_1-8_小物
  6
CONTINUOUS
 62
    4
 10
-100.49999999999991
 20
55.97758001150919
 11
-99.500000000000085
 21
56.212580011509118
  0
LINE
  8
_1-8_小物
  6
CONTINUOUS
 62
    4
 10
-99.312500000000028
 20
56.320833333333439
 11
-99.500000000000085
 21
56.212580011509118
  0
LINE
  8
_1-8_小物
  6
CONTINUOUS
 62
    4
 10
-99.500000000000099
 20
56.429086655157704
 11
-99.312500000000028
 21
56.320833333333439
  0
LINE
  8
_1-8_小物
  6
CONTINUOUS
 62
    4
 10
-100.49999999999997
 20
56.19408665515769
 11
-99.500000000000099
 21
56.429086655157704
  0
LINE
  8
_1-8_小物
  6
CONTINUOUS
 62
    4
 10
-100.68750000000003
 20
56.085833333333454
 11
-99.312500000000028
 21
56.320833333333439
  0
LINE
  8
_1-8_小物
  6
CONTINUOUS
 62
    4
 10
-99.500000000000142
 20
59.24908665515764
 11
-99.500000000000142
 21
59.502580011509053
  0
LINE
  8
_1-8_小物
  6
CONTINUOUS
 62
    4
 10
-99.500000000000142
 20
58.779086655157613
 11
-99.500000000000142
 21
59.032580011509054
  0
LINE
  8
_1-8_小物
  6
CONTINUOUS
 62
    4
 10
-99.500000000000142
 20
58.309086655157671
 11
-99.500000000000142
 21
58.562580011509027
  0
LINE
  8
_1-8_小物
  6
CONTINUOUS
 62
    4
 10
-99.500000000000142
 20
57.839086655157644
 11
-99.500000000000142
 21
58.092580011509114
  0
LINE
  8
_1-8_小物
  6
CONTINUOUS
 62
    4
 10
-99.500000000000142
 20
57.369086655157645
 11
-99.500000000000142
 21
57.622580011509086
  0
LINE
  8
_1-8_小物
  6
CONTINUOUS
 62
    4
 10
-99.500000000000142
 20
56.899086655157646
 11
-99.500000000000142
 21
57.152580011509144
  0
LINE
  8
_1-8_小物
  6
CONTINUOUS
 62
    4
 10
-99.500000000000142
 20
55.733333333333405
 11
-99.500000000000142
 21
56.212580011509118
  0
LINE
  8
_1-8_小物
  6
CONTINUOUS
 62
    4
 10
-99.500000000000142
 20
56.429086655157704
 11
-99.500000000000142
 21
56.682580011509117
  0
LINE
  8
_1-8_小物
  6
CONTINUOUS
 62
    4
 10
-100.49999999999991
 20
55.733333333333405
 11
-100.49999999999991
 21
55.97758001150919
  0
LINE
  8
_1-8_小物
  6
CONTINUOUS
 62
    4
 10
-100.49999999999991
 20
56.194086655157719
 11
-100.49999999999991
 21
56.447580011509132
  0
LINE
  8
_1-8_小物
  6
CONTINUOUS
 62
    4
 10
-100.49999999999991
 20
56.664086655157689
 11
-100.49999999999991
 21
56.917580011509159
  0
LINE
  8
_1-8_小物
  6
CONTINUOUS
 62
    4
 10
-100.49999999999991
 20
57.134086655157716
 11
-100.49999999999991
 21
57.387580011509101
  0
LINE
  8
_1-8_小物
  6
CONTINUOUS
 62
    4
 10
-100.49999999999991
 20
57.604086655157658
 11
-100.49999999999991
 21
57.8575800115091
  0
LINE
  8
_1-8_小物
  6
CONTINUOUS
 62
    4
 10
-100.49999999999991
 20
58.074086655157686
 11
-100.49999999999991
 21
58.327580011509099
  0
LINE
  8
_1-8_小物
  6
CONTINUOUS
 62
    4
 10
-100.49999999999991
 20
58.544086655157713
 11
-100.49999999999991
 21
58.797580011509126
  0
LINE
  8
_1-8_小物
  6
CONTINUOUS
 62
    4
 10
-100.56666666666658
 20
59.506666666666717
 11
-100.56666666666658
 21
60.503333333333387
  0
LINE
  8
_1-8_小物
  6
CONTINUOUS
 62
    4
 10
-99.433333333333479
 20
59.506666666666717
 11
-100.56666666666658
 21
59.506666666666717
  0
LINE
  8
_1-8_小物
  6
CONTINUOUS
 62
    4
 10
-99.433333333333479
 20
59.506666666666717
 11
-99.433333333333479
 21
60.503333333333387
  0
LINE
  8
_1-8_小物
  6
CONTINUOUS
 62
    4
 10
-99.433333333333479
 20
60.503333333333387
 11
-100.00000000000003
 21
60.830498485874159
  0
LINE
  8
_1-8_小物
  6
CONTINUOUS
 62
    4
 10
-100.56666666666658
 20
60.503333333333387
 11
-100.00000000000003
 21
60.830498485874159
  0
LINE
  8
_1-8_小物
  6
CONTINUOUS
 62
    4
 10
-100.00000000000003
 20
60.715028432036206
 11
-100.46666666666667
 21
60.445598306414468
  0
LINE
  8
_1-8_小物
  6
CONTINUOUS
 62
    4
 10
-100.46666666666667
 20
59.506666666666717
 11
-100.46666666666667
 21
60.445598306414468
  0
LINE
  8
_1-8_小物
  6
CONTINUOUS
 62
    4
 10
-100.00000000000003
 20
60.715028432036206
 11
-100.21306678169115
 21
59.506666666666717
  0
LINE
  8
_1-8_小物
  6
CONTINUOUS
 62
    4
 10
-100.49999999999991
 20
59.014086655157655
 11
-100.49999999999991
 21
59.506666666666717
  0
LINE
  8
_1-8_小物
  6
CONTINUOUS
 62
    4
 10
-100.00000000000003
 20
60.830498485874159
 11
-100.00000000000003
 21
60.715028432036206
  0
LINE
  8
_1-8_小物
  6
CENTER2
 62
    4
 10
-100.00000000000003
 20
54.8333333333334
 11
-100.00000000000003
 21
61.163831819207445
  0
ENDBLK
  0
BLOCK
  2
-015-_9_
 70
   64
 10
0
 20
0
 30
0
  0
ARC
  8
_1-8_小物
  6
CONTINUOUS
 62
    4
 10
99.999999999999943
 20
54.999999920533043
 40
0.1666666666666666
 50
90
 51
180
  0
ARC
  8
_1-8_小物
  6
CONTINUOUS
 62
    4
 10
99.999999999999943
 20
54.999999920533043
 40
0.5
 50
90
 51
180
  0
ARC
  8
_1-8_小物
  6
CONTINUOUS
 62
    4
 10
127.83333333769968
 20
55.666666587199757
 40
0.1666666666666666
 50
270
 51
0
  0
LINE
  8
_1-8_小物
  6
CONTINUOUS
 62
    4
 10
128.00000000436643
 20
55.666666587199757
 11
128.00000000436643
 21
59.333333253866414
  0
ARC
  8
_1-8_小物
  6
CONTINUOUS
 62
    4
 10
127.83333333769968
 20
59.333333253866414
 40
0.1666666666666666
 50
0
 51
90
  0
ARC
  8
_1-8_小物
  6
CONTINUOUS
 62
    4
 10
127.83333333769968
 20
59.333333253866414
 40
0.5
 50
0
 51
90
  0
LINE
  8
_1-8_小物
  6
CONTINUOUS
 62
    4
 10
128.33333333769968
 20
55.666666587199757
 11
128.33333333769968
 21
59.333333253866414
  0
ARC
  8
_1-8_小物
  6
CONTINUOUS
 62
    4
 10
127.83333333769968
 20
55.666666587199757
 40
0.5
 50
270
 51
0
  0
LINE
  8
_1-8_小物
  6
CONTINUOUS
 62
    4
 10
125.00000000436643
 20
59.499999920533043
 11
125.00000000436643
 21
59.833333253866414
  0
LINE
  8
_1-8_小物
  6
CONTINUOUS
 62
    4
 10
127.83333333769968
 20
59.499999920533043
 11
125.00000000436643
 21
59.499999920533043
  0
LINE
  8
_1-8_小物
  6
CONTINUOUS
 62
    4
 10
127.83333333769968
 20
59.833333253866414
 11
125.00000000436643
 21
59.833333253866414
  0
LINE
  8
_1-8_小物
  6
CONTINUOUS
 62
    4
 10
99.999999999999943
 20
55.166666587199757
 11
127.83333333769968
 21
55.166666587199757
  0
LINE
  8
_1-8_小物
  6
CONTINUOUS
 62
    4
 10
99.999999999999943
 20
55.499999920533043
 11
127.83333333769968
 21
55.499999920533043
  0
LINE
  8
_1-8_小物
  6
CENTER2
 62
    4
 10
114.16666666884987
 20
53.499999920533043
 11
114.16666666884987
 21
57.3333332538663
  0
ARC
  8
_1-8_小物
  6
CONTINUOUS
 62
    4
 10
95.666666666666345
 20
40.499999920533043
 40
0.1666666666666666
 50
180
 51
270
  0
LINE
  8
_1-8_小物
  6
CONTINUOUS
 62
    4
 10
99.333333333333314
 20
40.333333253866385
 11
95.666666666666345
 21
40.333333253866385
  0
ARC
  8
_1-8_小物
  6
CONTINUOUS
 62
    4
 10
99.333333333333314
 20
40.499999920533043
 40
0.1666666666666666
 50
270
 51
0
  0
ARC
  8
_1-8_小物
  6
CONTINUOUS
 62
    4
 10
99.333333333333314
 20
40.499999920533043
 40
0.5
 50
270
 51
0
  0
LINE
  8
_1-8_小物
  6
CONTINUOUS
 62
    4
 10
99.333333333333314
 20
39.999999920533043
 11
95.666666666666345
 21
39.999999920533043
  0
ARC
  8
_1-8_小物
  6
CONTINUOUS
 62
    4
 10
95.666666666666345
 20
40.499999920533043
 40
0.5
 50
180
 51
270
  0
LINE
  8
_1-8_小物
  6
CONTINUOUS
 62
    4
 10
95.499999999999659
 20
43.333333253866215
 11
95.166666666666345
 21
43.333333253866215
  0
LINE
  8
_1-8_小物
  6
CONTINUOUS
 62
    4
 10
95.499999999999659
 20
40.499999920533043
 11
95.499999999999659
 21
43.333333253866215
  0
LINE
  8
_1-8_小物
  6
CONTINUOUS
 62
    4
 10
95.166666666666345
 20
40.499999920533043
 11
95.166666666666345
 21
43.333333253866215
  0
LINE
  8
_1-8_小物
  6
CONTINUOUS
 62
    4
 10
99.499999999999943
 20
54.999993567607248
 11
99.499999999999943
 21
40.499999920533043
  0
LINE
  8
_1-8_小物
  6
CONTINUOUS
 62
    4
 10
99.833333333333314
 20
54.999993567607248
 11
99.833333333333314
 21
40.499999920533043
  0
LINE
  8
_1-8_小物
  6
DASHED1
 62
    4
 10
114.91666666884987
 20
55.499999920533043
 11
115.25000000218319
 21
55.166666587199757
  0
LINE
  8
_1-8_小物
  6
DASHED1
 62
    4
 10
113.41666666884987
 20
55.499999920533043
 11
113.08333333551656
 21
55.166666587199757
  0
ENDBLK
  0
BLOCK
  2
-016-_10_
 70
   64
 10
0
 20
0
 30
0
  0
ARC
  8
_1-8_小物
  6
CONTINUOUS
 62
    4
 10
-75.000000000000057
 20
59.733333333333235
 40
0.0999999999999999
 50
90
 51
180
  0
LINE
  8
_1-8_小物
  6
CONTINUOUS
 62
    4
 10
-72.166666666666742
 20
60.499999999999915
 11
-72.166666666666742
 21
60.959067386621541
  0
ARC
  8
_1-8_小物
  6
CONTINUOUS
 62
    4
 10
-72.3333333333334
 20
60.499999999999915
 40
0.1666666666666666
 50
270
 51
0
  0
LINE
  8
_1-8_小物
  6
CONTINUOUS
 62
    4
 10
-71.666666666666742
 20
60.499999999999915
 11
-71.666666666666742
 21
60.999999999999915
  0
ARC
  8
_1-8_小物
  6
CONTINUOUS
 62
    4
 10
-72.3333333333334
 20
60.499999999999915
 40
0.6666666666666666
 50
270
 51
0
  0
LINE
  8
_1-8_小物
  6
CONTINUOUS
 62
    4
 10
-72.3333333333334
 20
60.333333333333258
 11
-74.933333333333394
 21
60.333333333333258
  0
ARC
  8
_1-8_小物
  6
CONTINUOUS
 62
    4
 10
-74.933333333333394
 20
59.833333333333258
 40
0.5
 50
90
 51
180
  0
ARC
  8
_1-8_小物
  6
CONTINUOUS
 62
    4
 10
-72.578689142478083
 20
63.458670406543774
 40
0.4999999999999946
 50
9.360190801908173
 51
169.36019080191218
  0
LINE
  8
_1-8_小物
  6
CONTINUOUS
 62
    4
 10
-72.166666666666742
 20
60.959067386621541
 11
-72.547943148052525
 21
63.272144707028644
  0
ARC
  8
_1-8_小物
  6
CONTINUOUS
 62
    4
 10
-72.580832661472527
 20
63.266723358662716
 40
0.0333333333333333
 50
9.360190801902732
 51
169.36019080193321
  0
ARC
  8
_1-8_小物
  6
CONTINUOUS
 62
    4
 10
-73.055183782018673
 20
62.27631984157199
 40
0.25
 50
169.36019080192622
 51
349.36019080191221
  0
LINE
  8
_1-8_小物
  6
CONTINUOUS
 62
    4
 10
-73.300885607572496
 20
62.322478404369292
 11
-73.070092793585729
 21
63.550987532138492
  0
LINE
  8
_1-8_小物
  6
CONTINUOUS
 62
    4
 10
-71.666666666666742
 20
60.999999999999915
 11
-72.085346441177649
 21
63.539990632032811
  0
LINE
  8
_1-8_小物
  6
CONTINUOUS
 62
    4
 10
-72.3333333333334
 20
59.833333333333258
 11
-75.000000000000057
 21
59.833333333333258
  0
ARC
  8
_1-8_小物
  6
CONTINUOUS
 62
    4
 10
-73.145110109408449
 20
59.092281886537421
 40
0.1666666666666666
 50
2.7194820399587796
 51
92.719482039968085
  0
ARC
  8
_1-8_小物
  6
CONTINUOUS
 62
    4
 10
-72.986538825481659
 20
59.266668535881252
 40
0.3333333333333333
 50
2.7194820399634283
 51
92.719482039963196
  0
LINE
  8
_1-8_小物
  6
CONTINUOUS
 62
    4
 10
-72.653580892211039
 20
59.28248390129832
 11
-72.63776552679397
 21
58.949525968027757
  0
ARC
  8
_1-8_小物
  6
CONTINUOUS
 62
    4
 10
-72.80424449342928
 20
58.94161828531918
 40
0.1666666666666666
 50
182.71948203995831
 51
2.7194820399685682
  0
LINE
  8
_1-8_小物
  6
CONTINUOUS
 62
    4
 10
-72.978631142773111
 20
59.100189569245941
 11
-72.97072346006459
 21
58.933710602610688
  0
LINE
  8
_1-8_小物
  6
CONTINUOUS
 62
    4
 10
-75.10000000000008
 20
59.604851858652069
 11
-75.10000000000008
 21
59.733333333333235
  0
LINE
  8
_1-8_小物
  6
CONTINUOUS
 62
    4
 10
-73.15301779211697
 20
59.258760853172703
 11
-75.084184634583011
 21
59.167031219357114
  0
LINE
  8
_1-8_小物
  6
CONTINUOUS
 62
    4
 10
-75.433333333333394
 20
59.499989152627705
 11
-75.433333333333394
 21
59.833333333333258
  0
ARC
  8
_1-8_小物
  6
CONTINUOUS
 62
    4
 10
-75.000000000000057
 20
59.604851858652069
 40
0.0999999999999999
 50
180
 51
272.71948203995549
  0
ARC
  8
_1-8_小物
  6
CONTINUOUS
 62
    4
 10
-75.10000000000008
 20
59.499989152627705
 40
0.3333333333333333
 50
180
 51
272.71948203995851
  0
LINE
  8
_1-8_小物
  6
CONTINUOUS
 62
    4
 10
-73.0023541908987
 20
59.599626469151815
 11
-74.99525539037495
 21
59.504964478670928
  0
LINE
  8
_1-8_小物
  6
CONTINUOUS
 62
    4
 10
-72.80948195646485
 20
62.230161278774574
 11
-72.61359290487971
 21
63.272877833702353
  0
ENDBLK
  0
BLOCK
  2
-017-_11_
 70
   64
 10
0
 20
0
 30
0
  0
ARC
  8
_1-8_小物
  6
CONTINUOUS
 62
    4
 10
-124.99999999999994
 20
59.733333333333235
 40
0.0999999999999999
 50
0
 51
90
  0
LINE
  8
_1-8_小物
  6
CONTINUOUS
 62
    4
 10
-127.83333333333326
 20
60.499999999999915
 11
-127.83333333333326
 21
60.959067386621541
  0
ARC
  8
_1-8_小物
  6
CONTINUOUS
 62
    4
 10
-127.66666666666661
 20
60.499999999999915
 40
0.1666666666666666
 50
180
 51
270
  0
LINE
  8
_1-8_小物
  6
CONTINUOUS
 62
    4
 10
-128.33333333333326
 20
60.499999999999915
 11
-128.33333333333326
 21
60.999999999999915
  0
ARC
  8
_1-8_小物
  6
CONTINUOUS
 62
    4
 10
-127.66666666666661
 20
60.499999999999915
 40
0.6666666666666666
 50
180
 51
270
  0
LINE
  8
_1-8_小物
  6
CONTINUOUS
 62
    4
 10
-127.66666666666661
 20
60.333333333333258
 11
-125.06666666666661
 21
60.333333333333258
  0
ARC
  8
_1-8_小物
  6
CONTINUOUS
 62
    4
 10
-125.06666666666661
 20
59.833333333333258
 40
0.5
 50
0
 51
90
  0
ARC
  8
_1-8_小物
  6
CONTINUOUS
 62
    4
 10
-127.42131085752192
 20
63.458670406543774
 40
0.4999999999999946
 50
10.639809198087802
 51
170.63980919809185
  0
LINE
  8
_1-8_小物
  6
CONTINUOUS
 62
    4
 10
-127.83333333333326
 20
60.959067386621541
 11
-127.45205685194748
 21
63.272144707028644
  0
ARC
  8
_1-8_小物
  6
CONTINUOUS
 62
    4
 10
-127.41916733852747
 20
63.266723358662716
 40
0.0333333333333333
 50
10.639809198071303
 51
170.63980919810521
  0
ARC
  8
_1-8_小物
  6
CONTINUOUS
 62
    4
 10
-126.94481621798133
 20
62.27631984157199
 40
0.25
 50
190.63980919808779
 51
10.639809198075
  0
LINE
  8
_1-8_小物
  6
CONTINUOUS
 62
    4
 10
-126.69911439242752
 20
62.322478404369292
 11
-126.92990720641427
 21
63.550987532138492
  0
LINE
  8
_1-8_小物
  6
CONTINUOUS
 62
    4
 10
-128.33333333333326
 20
60.999999999999915
 11
-127.91465355882235
 21
63.539990632032811
  0
LINE
  8
_1-8_小物
  6
CONTINUOUS
 62
    4
 10
-127.66666666666661
 20
59.833333333333258
 11
-124.99999999999994
 21
59.833333333333258
  0
ARC
  8
_1-8_小物
  6
CONTINUOUS
 62
    4
 10
-126.85488989059155
 20
59.092281886537421
 40
0.1666666666666666
 50
87.280517960041692
 51
177.28051796004169
  0
ARC
  8
_1-8_小物
  6
CONTINUOUS
 62
    4
 10
-127.01346117451834
 20
59.266668535881252
 40
0.3333333333333333
 50
87.280517960039248
 51
177.2805179600368
  0
LINE
  8
_1-8_小物
  6
CONTINUOUS
 62
    4
 10
-127.34641910778896
 20
59.28248390129832
 11
-127.36223447320604
 21
58.949525968027757
  0
ARC
  8
_1-8_小物
  6
CONTINUOUS
 62
    4
 10
-127.19575550657072
 20
58.94161828531918
 40
0.1666666666666666
 50
177.28051796003194
 51
357.28051796004149
  0
LINE
  8
_1-8_小物
  6
CONTINUOUS
 62
    4
 10
-127.02136885722689
 20
59.100189569245941
 11
-127.02927653993542
 21
58.933710602610688
  0
LINE
  8
_1-8_小物
  6
CONTINUOUS
 62
    4
 10
-124.89999999999992
 20
59.604851858652069
 11
-124.89999999999992
 21
59.733333333333235
  0
LINE
  8
_1-8_小物
  6
CONTINUOUS
 62
    4
 10
-126.84698220788304
 20
59.258760853172703
 11
-124.915815365417
 21
59.167031219357114
  0
LINE
  8
_1-8_小物
  6
CONTINUOUS
 62
    4
 10
-124.56666666666661
 20
59.499989152627705
 11
-124.56666666666661
 21
59.833333333333258
  0
ARC
  8
_1-8_小物
  6
CONTINUOUS
 62
    4
 10
-124.99999999999994
 20
59.604851858652069
 40
0.0999999999999999
 50
267.28051796004445
 51
0
  0
ARC
  8
_1-8_小物
  6
CONTINUOUS
 62
    4
 10
-124.89999999999992
 20
59.499989152627705
 40
0.3333333333333333
 50
267.2805179600366
 51
0
  0
LINE
  8
_1-8_小物
  6
CONTINUOUS
 62
    4
 10
-126.9976458091013
 20
59.599626469151815
 11
-125.00474460962505
 21
59.504964478670928
  0
LINE
  8
_1-8_小物
  6
CONTINUOUS
 62
    4
 10
-127.19051804353516
 20
62.230161278774574
 11
-127.3864070951203
 21
63.272877833702353
  0
ENDBLK
  0
BLOCK
  2
-018-_12_
 70
   64
 10
0
 20
0
 30
0
  0
ARC
  8
_1-8_小物
  6
CONTINUOUS
 62
    4
 10
125.00000000436643
 20
59.733333253866391
 40
0.0999999999999999
 50
90
 51
180
  0
LINE
  8
_1-8_小物
  6
CONTINUOUS
 62
    4
 10
127.83333333769974
 20
60.499999920533071
 11
127.83333333769974
 21
60.959067307154697
  0
ARC
  8
_1-8_小物
  6
CONTINUOUS
 62
    4
 10
127.66666667103311
 20
60.499999920533071
 40
0.1666666666666666
 50
270
 51
0
  0
LINE
  8
_1-8_小物
  6
CONTINUOUS
 62
    4
 10
128.33333333769974
 20
60.499999920533071
 11
128.33333333769974
 21
60.999999920533071
  0
ARC
  8
_1-8_小物
  6
CONTINUOUS
 62
    4
 10
127.66666667103311
 20
60.499999920533071
 40
0.6666666666666666
 50
270
 51
0
  0
LINE
  8
_1-8_小物
  6
CONTINUOUS
 62
    4
 10
127.66666667103311
 20
60.333333253866414
 11
125.06666667103309
 21
60.333333253866414
  0
ARC
  8
_1-8_小物
  6
CONTINUOUS
 62
    4
 10
125.06666667103309
 20
59.833333253866414
 40
0.5
 50
90
 51
180
  0
ARC
  8
_1-8_小物
  6
CONTINUOUS
 62
    4
 10
127.4213108618884
 20
63.458670327076931
 40
0.4999999999999946
 50
9.3601908019113864
 51
169.36019080191218
  0
LINE
  8
_1-8_小物
  6
CONTINUOUS
 62
    4
 10
127.83333333769974
 20
60.959067307154697
 11
127.45205685631396
 21
63.272144627561829
  0
ARC
  8
_1-8_小物
  6
CONTINUOUS
 62
    4
 10
127.41916734289396
 20
63.266723279195872
 40
0.0333333333333333
 50
9.3601908019509352
 51
169.36019080189422
  0
ARC
  8
_1-8_小物
  6
CONTINUOUS
 62
    4
 10
126.94481622234781
 20
62.276319762105146
 40
0.25
 50
169.3601908019198
 51
349.36019080191102
  0
LINE
  8
_1-8_小物
  6
CONTINUOUS
 62
    4
 10
126.69911439679402
 20
62.322478324902477
 11
126.92990721078075
 21
63.550987452671649
  0
LINE
  8
_1-8_小物
  6
CONTINUOUS
 62
    4
 10
128.33333333769974
 20
60.999999920533071
 11
127.91465356318884
 21
63.539990552565996
  0
LINE
  8
_1-8_小物
  6
CONTINUOUS
 62
    4
 10
127.66666667103311
 20
59.833333253866414
 11
125.00000000436643
 21
59.833333253866414
  0
ARC
  8
_1-8_小物
  6
CONTINUOUS
 62
    4
 10
126.85488989495803
 20
59.092281807070577
 40
0.1666666666666666
 50
2.7194820399578528
 51
92.719482039968085
  0
ARC
  8
_1-8_小物
  6
CONTINUOUS
 62
    4
 10
127.01346117888482
 20
59.266668456414436
 40
0.3333333333333333
 50
2.7194820399583164
 51
92.71948203995855
  0
LINE
  8
_1-8_小物
  6
CONTINUOUS
 62
    4
 10
127.34641911215544
 20
59.282483821831477
 11
127.36223447757254
 21
58.949525888560913
  0
ARC
  8
_1-8_小物
  6
CONTINUOUS
 62
    4
 10
127.1957555109372
 20
58.941618205852365
 40
0.1666666666666666
 50
182.7194820399676
 51
2.7194820399578816
  0
LINE
  8
_1-8_小物
  6
CONTINUOUS
 62
    4
 10
127.02136886159337
 20
59.100189489779098
 11
127.02927654430192
 21
58.933710523143873
  0
LINE
  8
_1-8_小物
  6
CONTINUOUS
 62
    4
 10
124.9000000043664
 20
59.604851779185225
 11
124.9000000043664
 21
59.733333253866391
  0
LINE
  8
_1-8_小物
  6
CONTINUOUS
 62
    4
 10
126.84698221224954
 20
59.258760773705859
 11
124.91581536978345
 21
59.16703113989027
  0
LINE
  8
_1-8_小物
  6
CONTINUOUS
 62
    4
 10
124.56666667103309
 20
59.499989073160862
 11
124.56666667103309
 21
59.833333253866414
  0
ARC
  8
_1-8_小物
  6
CONTINUOUS
 62
    4
 10
125.00000000436643
 20
59.604851779185225
 40
0.0999999999999999
 50
180
 51
272.71948203995549
  0
ARC
  8
_1-8_小物
  6
CONTINUOUS
 62
    4
 10
124.9000000043664
 20
59.499989073160862
 40
0.3333333333333333
 50
180
 51
272.71948203995851
  0
LINE
  8
_1-8_小物
  6
CONTINUOUS
 62
    4
 10
126.99764581346778
 20
59.599626389685
 11
125.00474461399153
 21
59.504964399204084
  0
LINE
  8
_1-8_小物
  6
CONTINUOUS
 62
    4
 10
127.19051804790166
 20
62.230161199307759
 11
127.38640709948675
 21
63.272877754235537
  0
ENDBLK
  0
BLOCK
  2
-019-_13_
 70
   64
 10
0
 20
0
 30
0
  0
ARC
  8
_1-8_小物
  6
CONTINUOUS
 62
    4
 10
95.266666666666367
 20
43.333333253866215
 40
0.0999999999999999
 50
90
 51
180
  0
LINE
  8
_1-8_小物
  6
CONTINUOUS
 62
    4
 10
94.499999999999659
 20
40.499999920532929
 11
94.040932613378061
 21
40.499999920532929
  0
ARC
  8
_1-8_小物
  6
CONTINUOUS
 62
    4
 10
94.499999999999659
 20
40.666666587199558
 40
0.1666666666666666
 50
270
 51
0
  0
LINE
  8
_1-8_小物
  6
CONTINUOUS
 62
    4
 10
94.499999999999659
 20
39.999999920532929
 11
93.999999999999659
 21
39.999999920532929
  0
ARC
  8
_1-8_小物
  6
CONTINUOUS
 62
    4
 10
94.499999999999659
 20
40.666666587199558
 40
0.6666666666666666
 50
270
 51
0
  0
LINE
  8
_1-8_小物
  6
CONTINUOUS
 62
    4
 10
94.666666666666345
 20
40.666666587199558
 11
94.666666666666345
 21
43.26666658719958
  0
ARC
  8
_1-8_小物
  6
CONTINUOUS
 62
    4
 10
95.166666666666345
 20
43.26666658719958
 40
0.5
 50
90
 51
180
  0
ARC
  8
_1-8_小物
  6
CONTINUOUS
 62
    4
 10
91.541329593455828
 20
40.91202239634427
 40
0.4999999999999946
 50
100.6398091980884
 51
260.63980919809183
  0
LINE
  8
_1-8_小物
  6
CONTINUOUS
 62
    4
 10
94.040932613378061
 20
40.499999920532929
 11
91.727855292970958
 21
40.881276401918683
  0
ARC
  8
_1-8_小物
  6
CONTINUOUS
 62
    4
 10
91.733276641336886
 20
40.914165915338714
 40
0.0333333333333333
 50
100.6398091980668
 51
260.63980919810518
  0
ARC
  8
_1-8_小物
  6
CONTINUOUS
 62
    4
 10
92.723680158427612
 20
41.388517035884831
 40
0.25
 50
280.63980919808898
 51
100.63980919807381
  0
LINE
  8
_1-8_小物
  6
CONTINUOUS
 62
    4
 10
92.67752159563031
 20
41.634218861438654
 11
91.44901246786111
 21
41.403426047451887
  0
LINE
  8
_1-8_小物
  6
CONTINUOUS
 62
    4
 10
93.999999999999659
 20
39.999999920532929
 11
91.460009367966791
 21
40.418679695043835
  0
LINE
  8
_1-8_小物
  6
CONTINUOUS
 62
    4
 10
95.166666666666345
 20
40.666666587199558
 11
95.166666666666345
 21
43.333333253866215
  0
ARC
  8
_1-8_小物
  6
CONTINUOUS
 62
    4
 10
95.907718113462181
 20
41.478443363274607
 40
0.1666666666666666
 50
177.2805179600324
 51
267.28051796003189
  0
ARC
  8
_1-8_小物
  6
CONTINUOUS
 62
    4
 10
95.733331464118351
 20
41.319872079347817
 40
0.3333333333333333
 50
177.2805179600368
 51
267.28051796003172
  0
LINE
  8
_1-8_小物
  6
CONTINUOUS
 62
    4
 10
95.717516098701253
 20
40.986914146077225
 11
96.050474031971817
 21
40.971098780660128
  0
ARC
  8
_1-8_小物
  6
CONTINUOUS
 62
    4
 10
96.058381714680422
 20
41.137577747295438
 40
0.1666666666666666
 50
267.28051796003189
 51
87.280517960051895
  0
LINE
  8
_1-8_小物
  6
CONTINUOUS
 62
    4
 10
95.899810430753632
 20
41.311964396639297
 11
96.066289397388914
 21
41.30405671393072
  0
LINE
  8
_1-8_小物
  6
CONTINUOUS
 62
    4
 10
95.395148141347534
 20
43.433333253866238
 11
95.266666666666367
 21
43.433333253866238
  0
LINE
  8
_1-8_小物
  6
CONTINUOUS
 62
    4
 10
95.741239146826899
 20
41.486351045983099
 11
95.832968780642489
 21
43.417517888449225
  0
LINE
  8
_1-8_小物
  6
CONTINUOUS
 62
    4
 10
95.500010847371868
 20
43.76666658719958
 11
95.166666666666345
 21
43.76666658719958
  0
ARC
  8
_1-8_小物
  6
CONTINUOUS
 62
    4
 10
95.395148141347534
 20
43.333333253866215
 40
0.0999999999999999
 50
357.28051796006076
 51
90
  0
ARC
  8
_1-8_小物
  6
CONTINUOUS
 62
    4
 10
95.500010847371868
 20
43.433333253866238
 40
0.3333333333333333
 50
357.28051796004121
 51
90
  0
LINE
  8
_1-8_小物
  6
CONTINUOUS
 62
    4
 10
95.400373530847787
 20
41.335687444764886
 11
95.495035521328646
 21
43.328588644241137
  0
LINE
  8
_1-8_小物
  6
CONTINUOUS
 62
    4
 10
92.769838721225028
 20
41.14281521033098
 11
91.727122166297249
 21
40.946926158745924
  0
ENDBLK
  0
BLOCK
  2
-020-_14_
 70
   64
 10
0
 20
0
 30
0
  0
LINE
  8
_1-8_小物
  6
CONTINUOUS
 62
    4
 10
115.1666666688501
 20
55.166666587199757
 11
113.1666666688501
 21
55.166666587199757
  0
LINE
  8
_1-8_小物
  6
CONTINUOUS
 62
    4
 10
113.16666666885016
 20
55.166666587199757
 11
113.16666666885016
 21
55.233333253866419
  0
LINE
  8
_1-8_小物
  6
CONTINUOUS
 62
    4
 10
115.16666666884993
 20
55.233333253866419
 11
114.66666666884993
 21
55.733333253866419
  0
LINE
  8
_1-8_小物
  6
CONTINUOUS
 62
    4
 10
114.66666666884993
 20
55.733333253866419
 11
113.66666666885016
 21
55.733333253866419
  0
LINE
  8
_1-8_小物
  6
CONTINUOUS
 62
    4
 10
113.16666666885016
 20
55.233333253866419
 11
113.66666666885016
 21
55.733333253866419
  0
LINE
  8
_1-8_小物
  6
CONTINUOUS
 62
    4
 10
115.16666666884993
 20
55.233333253866419
 11
115.16666666884993
 21
55.166666587199757
  0
LINE
  8
_1-8_小物
  6
CONTINUOUS
 62
    4
 10
113.16666666885016
 20
55.233333253866419
 11
115.16666666884993
 21
55.233333253866419
  0
LINE
  8
_1-8_小物
  6
CONTINUOUS
 62
    4
 10
113.66666666885016
 20
58.79757993204214
 11
113.4791666688501
 21
58.905833253866405
  0
LINE
  8
_1-8_小物
  6
CONTINUOUS
 62
    4
 10
113.4791666688501
 20
58.905833253866405
 11
113.6666666688501
 21
59.014086575690641
  0
LINE
  8
_1-8_小物
  6
CONTINUOUS
 62
    4
 10
113.66666666885016
 20
58.79757993204214
 11
114.66666666884998
 21
59.032579932042069
  0
LINE
  8
_1-8_小物
  6
CONTINUOUS
 62
    4
 10
114.8541666688501
 20
59.14083325386639
 11
114.66666666884998
 21
59.032579932042069
  0
LINE
  8
_1-8_小物
  6
CONTINUOUS
 62
    4
 10
114.66666666884998
 20
59.249086575690654
 11
114.8541666688501
 21
59.14083325386639
  0
LINE
  8
_1-8_小物
  6
CONTINUOUS
 62
    4
 10
113.6666666688501
 20
59.014086575690641
 11
114.66666666884998
 21
59.249086575690654
  0
LINE
  8
_1-8_小物
  6
CONTINUOUS
 62
    4
 10
113.4791666688501
 20
58.905833253866405
 11
114.8541666688501
 21
59.14083325386639
  0
LINE
  8
_1-8_小物
  6
CONTINUOUS
 62
    4
 10
113.66666666885016
 20
58.327579932042113
 11
113.4791666688501
 21
58.435833253866377
  0
LINE
  8
_1-8_小物
  6
CONTINUOUS
 62
    4
 10
113.4791666688501
 20
58.435833253866377
 11
113.6666666688501
 21
58.544086575690642
  0
LINE
  8
_1-8_小物
  6
CONTINUOUS
 62
    4
 10
113.66666666885016
 20
58.327579932042113
 11
114.66666666884998
 21
58.56257993204207
  0
LINE
  8
_1-8_小物
  6
CONTINUOUS
 62
    4
 10
114.8541666688501
 20
58.670833253866363
 11
114.66666666884998
 21
58.56257993204207
  0
LINE
  8
_1-8_小物
  6
CONTINUOUS
 62
    4
 10
114.66666666884998
 20
58.779086575690627
 11
114.8541666688501
 21
58.670833253866363
  0
LINE
  8
_1-8_小物
  6
CONTINUOUS
 62
    4
 10
113.6666666688501
 20
58.544086575690642
 11
114.66666666884998
 21
58.779086575690627
  0
LINE
  8
_1-8_小物
  6
CONTINUOUS
 62
    4
 10
113.4791666688501
 20
58.435833253866377
 11
114.8541666688501
 21
58.670833253866363
  0
LINE
  8
_1-8_小物
  6
CONTINUOUS
 62
    4
 10
113.66666666885016
 20
57.857579932042114
 11
113.4791666688501
 21
57.965833253866435
  0
LINE
  8
_1-8_小物
  6
CONTINUOUS
 62
    4
 10
113.4791666688501
 20
57.965833253866435
 11
113.6666666688501
 21
58.0740865756907
  0
LINE
  8
_1-8_小物
  6
CONTINUOUS
 62
    4
 10
113.66666666885016
 20
57.857579932042114
 11
114.66666666884998
 21
58.092579932042128
  0
LINE
  8
_1-8_小物
  6
CONTINUOUS
 62
    4
 10
114.8541666688501
 20
58.200833253866364
 11
114.66666666884998
 21
58.092579932042128
  0
LINE
  8
_1-8_小物
  6
CONTINUOUS
 62
    4
 10
114.66666666884998
 20
58.309086575690685
 11
114.8541666688501
 21
58.200833253866364
  0
LINE
  8
_1-8_小物
  6
CONTINUOUS
 62
    4
 10
113.6666666688501
 20
58.0740865756907
 11
114.66666666884998
 21
58.309086575690685
  0
LINE
  8
_1-8_小物
  6
CONTINUOUS
 62
    4
 10
113.4791666688501
 20
57.965833253866435
 11
114.8541666688501
 21
58.200833253866364
  0
LINE
  8
_1-8_小物
  6
CONTINUOUS
 62
    4
 10
113.66666666885016
 20
57.387579932042115
 11
113.4791666688501
 21
57.495833253866408
  0
LINE
  8
_1-8_小物
  6
CONTINUOUS
 62
    4
 10
113.4791666688501
 20
57.495833253866408
 11
113.6666666688501
 21
57.604086575690673
  0
LINE
  8
_1-8_小物
  6
CONTINUOUS
 62
    4
 10
113.66666666885016
 20
57.387579932042115
 11
114.66666666884998
 21
57.6225799320421
  0
LINE
  8
_1-8_小物
  6
CONTINUOUS
 62
    4
 10
114.8541666688501
 20
57.730833253866365
 11
114.66666666884998
 21
57.6225799320421
  0
LINE
  8
_1-8_小物
  6
CONTINUOUS
 62
    4
 10
114.66666666884998
 20
57.839086575690658
 11
114.8541666688501
 21
57.730833253866365
  0
LINE
  8
_1-8_小物
  6
CONTINUOUS
 62
    4
 10
113.6666666688501
 20
57.604086575690673
 11
114.66666666884998
 21
57.839086575690658
  0
LINE
  8
_1-8_小物
  6
CONTINUOUS
 62
    4
 10
113.4791666688501
 20
57.495833253866408
 11
114.8541666688501
 21
57.730833253866365
  0
LINE
  8
_1-8_小物
  6
CONTINUOUS
 62
    4
 10
113.66666666885016
 20
56.917579932042173
 11
113.4791666688501
 21
57.025833253866409
  0
LINE
  8
_1-8_小物
  6
CONTINUOUS
 62
    4
 10
113.4791666688501
 20
57.025833253866409
 11
113.6666666688501
 21
57.134086575690731
  0
LINE
  8
_1-8_小物
  6
CONTINUOUS
 62
    4
 10
113.66666666885016
 20
56.917579932042173
 11
114.66666666884998
 21
57.152579932042158
  0
LINE
  8
_1-8_小物
  6
CONTINUOUS
 62
    4
 10
114.8541666688501
 20
57.260833253866423
 11
114.66666666884998
 21
57.152579932042158
  0
LINE
  8
_1-8_小物
  6
CONTINUOUS
 62
    4
 10
114.66666666884998
 20
57.369086575690659
 11
114.8541666688501
 21
57.260833253866423
  0
LINE
  8
_1-8_小物
  6
CONTINUOUS
 62
    4
 10
113.6666666688501
 20
57.134086575690731
 11
114.66666666884998
 21
57.369086575690659
  0
LINE
  8
_1-8_小物
  6
CONTINUOUS
 62
    4
 10
113.4791666688501
 20
57.025833253866409
 11
114.8541666688501
 21
57.260833253866423
  0
LINE
  8
_1-8_小物
  6
CONTINUOUS
 62
    4
 10
113.66666666885016
 20
56.447579932042146
 11
113.4791666688501
 21
56.55583325386641
  0
LINE
  8
_1-8_小物
  6
CONTINUOUS
 62
    4
 10
113.4791666688501
 20
56.55583325386641
 11
113.6666666688501
 21
56.664086575690703
  0
LINE
  8
_1-8_小物
  6
CONTINUOUS
 62
    4
 10
113.66666666885016
 20
56.447579932042146
 11
114.66666666884998
 21
56.682579932042131
  0
LINE
  8
_1-8_小物
  6
CONTINUOUS
 62
    4
 10
114.8541666688501
 20
56.790833253866396
 11
114.66666666884998
 21
56.682579932042131
  0
LINE
  8
_1-8_小物
  6
CONTINUOUS
 62
    4
 10
114.66666666884998
 20
56.89908657569066
 11
114.8541666688501
 21
56.790833253866396
  0
LINE
  8
_1-8_小物
  6
CONTINUOUS
 62
    4
 10
113.6666666688501
 20
56.664086575690703
 11
114.66666666884998
 21
56.89908657569066
  0
LINE
  8
_1-8_小物
  6
CONTINUOUS
 62
    4
 10
113.4791666688501
 20
56.55583325386641
 11
114.8541666688501
 21
56.790833253866396
  0
LINE
  8
_1-8_小物
  6
CONTINUOUS
 62
    4
 10
113.66666666885016
 20
55.977579932042204
 11
113.4791666688501
 21
56.085833253866468
  0
LINE
  8
_1-8_小物
  6
CONTINUOUS
 62
    4
 10
113.4791666688501
 20
56.085833253866468
 11
113.6666666688501
 21
56.194086575690704
  0
LINE
  8
_1-8_小物
  6
CONTINUOUS
 62
    4
 10
113.66666666885016
 20
55.977579932042204
 11
114.66666666884998
 21
56.212579932042132
  0
LINE
  8
_1-8_小物
  6
CONTINUOUS
 62
    4
 10
114.8541666688501
 20
56.320833253866454
 11
114.66666666884998
 21
56.212579932042132
  0
LINE
  8
_1-8_小物
  6
CONTINUOUS
 62
    4
 10
114.66666666884998
 20
56.429086575690718
 11
114.8541666688501
 21
56.320833253866454
  0
LINE
  8
_1-8_小物
  6
CONTINUOUS
 62
    4
 10
113.6666666688501
 20
56.194086575690704
 11
114.66666666884998
 21
56.429086575690718
  0
LINE
  8
_1-8_小物
  6
CONTINUOUS
 62
    4
 10
113.4791666688501
 20
56.085833253866468
 11
114.8541666688501
 21
56.320833253866454
  0
LINE
  8
_1-8_小物
  6
CONTINUOUS
 62
    4
 10
114.66666666884993
 20
59.249086575690654
 11
114.66666666884993
 21
59.502579932042067
  0
LINE
  8
_1-8_小物
  6
CONTINUOUS
 62
    4
 10
114.66666666884993
 20
58.779086575690627
 11
114.66666666884993
 21
59.032579932042069
  0
LINE
  8
_1-8_小物
  6
CONTINUOUS
 62
    4
 10
114.66666666884993
 20
58.309086575690685
 11
114.66666666884993
 21
58.562579932042041
  0
LINE
  8
_1-8_小物
  6
CONTINUOUS
 62
    4
 10
114.66666666884993
 20
57.839086575690658
 11
114.66666666884993
 21
58.092579932042128
  0
LINE
  8
_1-8_小物
  6
CONTINUOUS
 62
    4
 10
114.66666666884993
 20
57.369086575690659
 11
114.66666666884993
 21
57.6225799320421
  0
LINE
  8
_1-8_小物
  6
CONTINUOUS
 62
    4
 10
114.66666666884993
 20
56.89908657569066
 11
114.66666666884993
 21
57.152579932042158
  0
LINE
  8
_1-8_小物
  6
CONTINUOUS
 62
    4
 10
114.66666666884993
 20
55.733333253866419
 11
114.66666666884993
 21
56.212579932042132
  0
LINE
  8
_1-8_小物
  6
CONTINUOUS
 62
    4
 10
114.66666666884993
 20
56.429086575690718
 11
114.66666666884993
 21
56.682579932042131
  0
LINE
  8
_1-8_小物
  6
CONTINUOUS
 62
    4
 10
113.66666666885016
 20
55.733333253866419
 11
113.66666666885016
 21
55.977579932042204
  0
LINE
  8
_1-8_小物
  6
CONTINUOUS
 62
    4
 10
113.66666666885016
 20
56.194086575690733
 11
113.66666666885016
 21
56.447579932042146
  0
LINE
  8
_1-8_小物
  6
CONTINUOUS
 62
    4
 10
113.66666666885016
 20
56.664086575690703
 11
113.66666666885016
 21
56.917579932042173
  0
LINE
  8
_1-8_小物
  6
CONTINUOUS
 62
    4
 10
113.66666666885016
 20
57.134086575690731
 11
113.66666666885016
 21
57.387579932042115
  0
LINE
  8
_1-8_小物
  6
CONTINUOUS
 62
    4
 10
113.66666666885016
 20
57.604086575690673
 11
113.66666666885016
 21
57.857579932042114
  0
LINE
  8
_1-8_小物
  6
CONTINUOUS
 62
    4
 10
113.66666666885016
 20
58.0740865756907
 11
113.66666666885016
 21
58.327579932042113
  0
LINE
  8
_1-8_小物
  6
CONTINUOUS
 62
    4
 10
113.66666666885016
 20
58.544086575690727
 11
113.66666666885016
 21
58.79757993204214
  0
LINE
  8
_1-8_小物
  6
CONTINUOUS
 62
    4
 10
113.60000000218349
 20
59.506666587199732
 11
113.60000000218349
 21
60.503333253866401
  0
LINE
  8
_1-8_小物
  6
CONTINUOUS
 62
    4
 10
114.73333333551659
 20
59.506666587199732
 11
113.60000000218349
 21
59.506666587199732
  0
LINE
  8
_1-8_小物
  6
CONTINUOUS
 62
    4
 10
114.73333333551659
 20
59.506666587199732
 11
114.73333333551659
 21
60.503333253866401
  0
LINE
  8
_1-8_小物
  6
CONTINUOUS
 62
    4
 10
114.73333333551659
 20
60.503333253866401
 11
114.1666666688501
 21
60.830498406407173
  0
LINE
  8
_1-8_小物
  6
CONTINUOUS
 62
    4
 10
113.60000000218349
 20
60.503333253866401
 11
114.1666666688501
 21
60.830498406407173
  0
LINE
  8
_1-8_小物
  6
CONTINUOUS
 62
    4
 10
114.1666666688501
 20
60.71502835256922
 11
113.7000000021834
 21
60.445598226947482
  0
LINE
  8
_1-8_小物
  6
CONTINUOUS
 62
    4
 10
113.7000000021834
 20
59.506666587199732
 11
113.7000000021834
 21
60.445598226947482
  0
LINE
  8
_1-8_小物
  6
CONTINUOUS
 62
    4
 10
114.1666666688501
 20
60.71502835256922
 11
113.95359988715893
 21
59.506666587199732
  0
LINE
  8
_1-8_小物
  6
CONTINUOUS
 62
    4
 10
113.66666666885016
 20
59.014086575690669
 11
113.66666666885016
 21
59.506666587199732
  0
LINE
  8
_1-8_小物
  6
CONTINUOUS
 62
    4
 10
114.1666666688501
 20
60.830498406407173
 11
114.1666666688501
 21
60.71502835256922
  0
LINE
  8
_1-8_小物
  6
CENTER2
 62
    4
 10
114.1666666688501
 20
54.833333253866414
 11
114.1666666688501
 21
61.163831739740459
  0
ENDBLK
  0
BLOCK
  2
-021-_15_
 70
   64
 10
0
 20
0
 30
0
  0
LINE
  8
_0-0_図面枠
  6
CONTINUOUS
 62
    7
 10
-24.810007453201848
 20
116.2500270181136
 11
-24.279677367301844
 21
116.55618006006358
  0
LINE
  8
_0-0_図面枠
  6
CONTINUOUS
 62
    7
 10
-25.715874111051818
 20
118.20168690416358
 11
-24.810007453201848
 21
116.2500270181136
  0
LINE
  8
_0-0_図面枠
  6
CONTINUOUS
 62
    7
 10
-22.335133719051811
 20
117.67874121381357
 11
-25.715874111051818
 21
118.20168690416358
  0
LINE
  8
_0-0_図面枠
  6
CONTINUOUS
 62
    7
 10
-22.865463804951816
 20
117.37258817186358
 11
-22.335133719051811
 21
117.67874121381357
  0
LINE
  8
_0-0_図面枠
  6
CONTINUOUS
 62
    7
 10
-18.269269727201817
 20
114.71926180846361
 11
-22.865463804951816
 21
117.37258817186358
  0
LINE
  8
_0-0_図面枠
  6
CONTINUOUS
 62
    7
 10
-13.67307564950184
 20
117.37258817186358
 11
-18.269269727201817
 21
114.71926180846361
  0
LINE
  8
_0-0_図面枠
  6
CONTINUOUS
 62
    7
 10
-14.203405735401844
 20
117.67874121381357
 11
-13.67307564950184
 21
117.37258817186358
  0
LINE
  8
_0-0_図面枠
  6
CONTINUOUS
 62
    7
 10
-10.822665343401837
 20
118.20168690416358
 11
-14.203405735401844
 21
117.67874121381357
  0
LINE
  8
_0-0_図面枠
  6
CONTINUOUS
 62
    7
 10
-11.728532001251807
 20
116.2500270181136
 11
-10.822665343401837
 21
118.20168690416358
  0
LINE
  8
_0-0_図面枠
  6
CONTINUOUS
 62
    7
 10
-12.258862087151812
 20
116.55618006006358
 11
-11.728532001251807
 21
116.2500270181136
  0
LINE
  8
_0-0_図面枠
  6
CONTINUOUS
 62
    7
 10
-16.855056164851845
 20
113.90285369661359
 11
-12.258862087151812
 21
116.55618006006358
  0
LINE
  8
_0-0_図面枠
  6
CONTINUOUS
 62
    7
 10
-12.258862087151812
 20
111.24952733321362
 11
-16.855056164851845
 21
113.90285369661359
  0
LINE
  8
_0-0_図面枠
  6
CONTINUOUS
 62
    7
 10
-11.728532001251807
 20
111.5556803751636
 11
-12.258862087151812
 21
111.24952733321362
  0
LINE
  8
_0-0_図面枠
  6
CONTINUOUS
 62
    7
 10
-10.822665343401837
 20
109.6040204890636
 11
-11.728532001251807
 21
111.5556803751636
  0
LINE
  8
_0-0_図面枠
  6
CONTINUOUS
 62
    7
 10
-14.203405735401844
 20
110.12696617946358
 11
-10.822665343401837
 21
109.6040204890636
  0
LINE
  8
_0-0_図面枠
  6
CONTINUOUS
 62
    7
 10
-13.67307564950184
 20
110.43311922141362
 11
-14.203405735401844
 21
110.12696617946358
  0
LINE
  8
_0-0_図面枠
  6
CONTINUOUS
 62
    7
 10
-18.269269727201817
 20
113.08644558481359
 11
-13.67307564950184
 21
110.43311922141362
  0
LINE
  8
_0-0_図面枠
  6
CONTINUOUS
 62
    7
 10
-22.865463804951816
 20
110.43311922141362
 11
-18.269269727201817
 21
113.08644558481359
  0
LINE
  8
_0-0_図面枠
  6
CONTINUOUS
 62
    7
 10
-22.335133719051811
 20
110.12696617946358
 11
-22.865463804951816
 21
110.43311922141362
  0
LINE
  8
_0-0_図面枠
  6
CONTINUOUS
 62
    7
 10
-25.715874111051818
 20
109.6040204890636
 11
-22.335133719051811
 21
110.12696617946358
  0
LINE
  8
_0-0_図面枠
  6
CONTINUOUS
 62
    7
 10
-24.810007453201848
 20
111.5556803751636
 11
-25.715874111051818
 21
109.6040204890636
  0
LINE
  8
_0-0_図面枠
  6
CONTINUOUS
 62
    7
 10
-24.279677367301844
 20
111.24952733321362
 11
-24.810007453201848
 21
111.5556803751636
  0
LINE
  8
_0-0_図面枠
  6
CONTINUOUS
 62
    7
 10
-19.68348328960181
 20
113.90285369661359
 11
-24.279677367301844
 21
111.24952733321362
  0
LINE
  8
_0-0_図面枠
  6
CONTINUOUS
 62
    7
 10
-24.279677367301844
 20
116.55618006006358
 11
-19.68348328960181
 21
113.90285369661359
  0
LINE
  8
_0-0_図面枠
  6
CONTINUOUS
 62
    7
 10
-10.822665343401837
 20
118.20168690416358
 11
-10.822665343401837
 21
118.81409251311362
  0
LINE
  8
_0-0_図面枠
  6
CONTINUOUS
 62
    7
 10
-14.203405735401844
 20
117.67874121381357
 11
-14.203405735401844
 21
118.29114682271359
  0
LINE
  8
_0-0_図面枠
  6
CONTINUOUS
 62
    7
 10
-10.822665343401837
 20
118.81409251311362
 11
-14.203405735401844
 21
118.29114682271359
  0
LINE
  8
_0-0_図面枠
  6
CONTINUOUS
 62
    7
 10
-22.335133719051811
 20
117.67874121381357
 11
-22.335133719051811
 21
118.29114682271359
  0
LINE
  8
_0-0_図面枠
  6
CONTINUOUS
 62
    7
 10
-25.715874111051818
 20
118.20168690416358
 11
-25.715874111051818
 21
118.81409251311362
  0
LINE
  8
_0-0_図面枠
  6
CONTINUOUS
 62
    7
 10
-22.335133719051811
 20
118.29114682271359
 11
-25.715874111051818
 21
118.81409251311362
  0
LINE
  8
_0-0_図面枠
  6
CONTINUOUS
 62
    7
 10
-18.269269727201817
 20
114.71926180846361
 11
-18.269269727201817
 21
115.33166741736358
  0
LINE
  8
_0-0_図面枠
  6
CONTINUOUS
 62
    7
 10
-14.203405735401844
 20
117.67884073886358
 11
-18.269269727201817
 21
115.33166741736358
  0
LINE
  8
_0-0_図面枠
  6
CONTINUOUS
 62
    7
 10
-18.269269727201817
 20
115.33166741736358
 11
-22.335133719051811
 21
117.67884073886358
  0
LINE
  8
_0-0_図面枠
  6
CONTINUOUS
 62
    7
 10
-12.258862087151812
 20
111.24952733321362
 11
-12.258862087151812
 21
111.86193294211358
  0
LINE
  8
_0-0_図面枠
  6
CONTINUOUS
 62
    7
 10
-12.258862087151812
 20
111.86193294211358
 11
-16.324639878401825
 21
114.20905650111359
  0
LINE
  8
_0-0_図面枠
  6
CONTINUOUS
 62
    7
 10
-24.279677367301844
 20
111.24952733321362
 11
-24.279677367301844
 21
111.86193294211358
  0
LINE
  8
_0-0_図面枠
  6
CONTINUOUS
 62
    7
 10
-20.21389957605183
 20
114.20905650111359
 11
-24.279677367301844
 21
111.86193294211358
  0
LINE
  8
_0-0_図面枠
  6
CONTINUOUS
 62
    7
 10
-24.810007453201848
 20
111.5556803751636
 11
-24.810007453201848
 21
112.16808598406357
  0
LINE
  8
_0-0_図面枠
  6
CONTINUOUS
 62
    7
 10
-24.279677367301844
 20
111.86193294211358
 11
-24.810007453201848
 21
112.16808598406357
  0
LINE
  8
_0-0_図面枠
  6
CONTINUOUS
 62
    7
 10
-25.715874111051818
 20
109.6040204890636
 11
-25.715874111051818
 21
110.21642609801359
  0
LINE
  8
_0-0_図面枠
  6
CONTINUOUS
 62
    7
 10
-24.810007453201848
 20
112.16808598406357
 11
-25.715874111051818
 21
110.21642609801359
  0
LINE
  8
_0-0_図面枠
  6
CONTINUOUS
 62
    7
 10
-11.728532001251807
 20
111.5556803751636
 11
-11.728532001251807
 21
112.16808598406357
  0
LINE
  8
_0-0_図面枠
  6
CONTINUOUS
 62
    7
 10
-11.728532001251807
 20
112.16808598406357
 11
-12.258862087151812
 21
111.86193294211358
  0
LINE
  8
_0-0_図面枠
  6
CONTINUOUS
 62
    7
 10
-10.822665343401837
 20
109.6040204890636
 11
-10.822665343401837
 21
110.21642609801359
  0
LINE
  8
_0-0_図面枠
  6
CONTINUOUS
 62
    7
 10
-10.822665343401837
 20
110.21642609801359
 11
-11.728532001251807
 21
112.16808598406357
  0
LINE
  8
_0-0_図面枠
  6
CONTINUOUS
 62
    7
 10
-22.335133719051811
 20
110.12696617946358
 11
-22.335133719051811
 21
110.73927226331358
  0
LINE
  8
_0-0_図面枠
  6
CONTINUOUS
 62
    7
 10
-14.203405735401844
 20
110.12696617946358
 11
-14.203405735401844
 21
110.73927226331358
  0
LINE
  8
ADD_LINE
  6
DOT
 62
    4
 10
-25.715874111051818
 20
118.20168690416358
 11
-10.823068770943877
 21
109.60332173206359
  0
LINE
  8
ADD_LINE
  6
DOT
 62
    4
 10
-10.822665343401837
 20
118.20168690416358
 11
-25.715470683509778
 21
109.60332173206359
  0
ENDBLK
  0
BLOCK
  2
-022-_16_
 70
   64
 10
0
 20
0
 30
0
  0
LINE
  8
_0-0_図面枠
  6
CONTINUOUS
 62
    7
 10
175.96987275189582
 20
116.61597708416321
 11
176.50020283779583
 21
116.92213012611319
  0
LINE
  8
_0-0_図面枠
  6
CONTINUOUS
 62
    7
 10
175.06400609404585
 20
118.56763697021319
 11
175.96987275189582
 21
116.61597708416321
  0
LINE
  8
_0-0_図面枠
  6
CONTINUOUS
 62
    7
 10
178.44474648604586
 20
118.04469127986317
 11
175.06400609404585
 21
118.56763697021319
  0
LINE
  8
_0-0_図面枠
  6
CONTINUOUS
 62
    7
 10
177.91441640014585
 20
117.73853823791319
 11
178.44474648604586
 21
118.04469127986317
  0
LINE
  8
_0-0_図面枠
  6
CONTINUOUS
 62
    7
 10
182.51061047789585
 20
115.08521187451322
 11
177.91441640014585
 21
117.73853823791319
  0
LINE
  8
_0-0_図面枠
  6
CONTINUOUS
 62
    7
 10
187.10680455559583
 20
117.73853823791319
 11
182.51061047789585
 21
115.08521187451322
  0
LINE
  8
_0-0_図面枠
  6
CONTINUOUS
 62
    7
 10
186.57647446969582
 20
118.04469127986317
 11
187.10680455559583
 21
117.73853823791319
  0
LINE
  8
_0-0_図面枠
  6
CONTINUOUS
 62
    7
 10
189.95721486169583
 20
118.56763697021319
 11
186.57647446969582
 21
118.04469127986317
  0
LINE
  8
_0-0_図面枠
  6
CONTINUOUS
 62
    7
 10
189.05134820384586
 20
116.61597708416321
 11
189.95721486169583
 21
118.56763697021319
  0
LINE
  8
_0-0_図面枠
  6
CONTINUOUS
 62
    7
 10
188.52101811794586
 20
116.92213012611319
 11
189.05134820384586
 21
116.61597708416321
  0
LINE
  8
_0-0_図面枠
  6
CONTINUOUS
 62
    7
 10
183.92482404024582
 20
114.2688037626632
 11
188.52101811794586
 21
116.92213012611319
  0
LINE
  8
_0-0_図面枠
  6
CONTINUOUS
 62
    7
 10
188.52101811794586
 20
111.61547739926323
 11
183.92482404024582
 21
114.2688037626632
  0
LINE
  8
_0-0_図面枠
  6
CONTINUOUS
 62
    7
 10
189.05134820384586
 20
111.92163044121321
 11
188.52101811794586
 21
111.61547739926323
  0
LINE
  8
_0-0_図面枠
  6
CONTINUOUS
 62
    7
 10
189.95721486169583
 20
109.96997055511321
 11
189.05134820384586
 21
111.92163044121321
  0
LINE
  8
_0-0_図面枠
  6
CONTINUOUS
 62
    7
 10
186.57647446969582
 20
110.49291624551319
 11
189.95721486169583
 21
109.96997055511321
  0
LINE
  8
_0-0_図面枠
  6
CONTINUOUS
 62
    7
 10
187.10680455559583
 20
110.79906928746323
 11
186.57647446969582
 21
110.49291624551319
  0
LINE
  8
_0-0_図面枠
  6
CONTINUOUS
 62
    7
 10
182.51061047789585
 20
113.4523956508632
 11
187.10680455559583
 21
110.79906928746323
  0
LINE
  8
_0-0_図面枠
  6
CONTINUOUS
 62
    7
 10
177.91441640014585
 20
110.79906928746323
 11
182.51061047789585
 21
113.4523956508632
  0
LINE
  8
_0-0_図面枠
  6
CONTINUOUS
 62
    7
 10
178.44474648604586
 20
110.49291624551319
 11
177.91441640014585
 21
110.79906928746323
  0
LINE
  8
_0-0_図面枠
  6
CONTINUOUS
 62
    7
 10
175.06400609404585
 20
109.96997055511321
 11
178.44474648604586
 21
110.49291624551319
  0
LINE
  8
_0-0_図面枠
  6
CONTINUOUS
 62
    7
 10
175.96987275189582
 20
111.92163044121321
 11
175.06400609404585
 21
109.96997055511321
  0
LINE
  8
_0-0_図面枠
  6
CONTINUOUS
 62
    7
 10
176.50020283779583
 20
111.61547739926323
 11
175.96987275189582
 21
111.92163044121321
  0
LINE
  8
_0-0_図面枠
  6
CONTINUOUS
 62
    7
 10
181.09639691549586
 20
114.2688037626632
 11
176.50020283779583
 21
111.61547739926323
  0
LINE
  8
_0-0_図面枠
  6
CONTINUOUS
 62
    7
 10
176.50020283779583
 20
116.92213012611319
 11
181.09639691549586
 21
114.2688037626632
  0
LINE
  8
_0-0_図面枠
  6
CONTINUOUS
 62
    7
 10
189.95721486169583
 20
118.56763697021319
 11
189.95721486169583
 21
119.18004257916323
  0
LINE
  8
_0-0_図面枠
  6
CONTINUOUS
 62
    7
 10
186.57647446969582
 20
118.04469127986317
 11
186.57647446969582
 21
118.65709688876319
  0
LINE
  8
_0-0_図面枠
  6
CONTINUOUS
 62
    7
 10
189.95721486169583
 20
119.18004257916323
 11
186.57647446969582
 21
118.65709688876319
  0
LINE
  8
_0-0_図面枠
  6
CONTINUOUS
 62
    7
 10
178.44474648604586
 20
118.04469127986317
 11
178.44474648604586
 21
118.65709688876319
  0
LINE
  8
_0-0_図面枠
  6
CONTINUOUS
 62
    7
 10
175.06400609404585
 20
118.56763697021319
 11
175.06400609404585
 21
119.18004257916323
  0
LINE
  8
_0-0_図面枠
  6
CONTINUOUS
 62
    7
 10
178.44474648604586
 20
118.65709688876319
 11
175.06400609404585
 21
119.18004257916323
  0
LINE
  8
_0-0_図面枠
  6
CONTINUOUS
 62
    7
 10
182.51061047789585
 20
115.08521187451322
 11
182.51061047789585
 21
115.69761748341318
  0
LINE
  8
_0-0_図面枠
  6
CONTINUOUS
 62
    7
 10
186.57647446969582
 20
118.04479080491319
 11
182.51061047789585
 21
115.69761748341318
  0
LINE
  8
_0-0_図面枠
  6
CONTINUOUS
 62
    7
 10
182.51061047789585
 20
115.69761748341318
 11
178.44474648604586
 21
118.04479080491319
  0
LINE
  8
_0-0_図面枠
  6
CONTINUOUS
 62
    7
 10
188.52101811794586
 20
111.61547739926323
 11
188.52101811794586
 21
112.22788300816319
  0
LINE
  8
_0-0_図面枠
  6
CONTINUOUS
 62
    7
 10
188.52101811794586
 20
112.22788300816319
 11
184.45524032669584
 21
114.5750065671632
  0
LINE
  8
_0-0_図面枠
  6
CONTINUOUS
 62
    7
 10
176.50020283779583
 20
111.61547739926323
 11
176.50020283779583
 21
112.22788300816319
  0
LINE
  8
_0-0_図面枠
  6
CONTINUOUS
 62
    7
 10
180.56598062904584
 20
114.5750065671632
 11
176.50020283779583
 21
112.22788300816319
  0
LINE
  8
_0-0_図面枠
  6
CONTINUOUS
 62
    7
 10
175.96987275189582
 20
111.92163044121321
 11
175.96987275189582
 21
112.53403605011317
  0
LINE
  8
_0-0_図面枠
  6
CONTINUOUS
 62
    7
 10
176.50020283779583
 20
112.22788300816319
 11
175.96987275189582
 21
112.53403605011317
  0
LINE
  8
_0-0_図面枠
  6
CONTINUOUS
 62
    7
 10
175.06400609404585
 20
109.96997055511321
 11
175.06400609404585
 21
110.58237616406319
  0
LINE
  8
_0-0_図面枠
  6
CONTINUOUS
 62
    7
 10
175.96987275189582
 20
112.53403605011317
 11
175.06400609404585
 21
110.58237616406319
  0
LINE
  8
_0-0_図面枠
  6
CONTINUOUS
 62
    7
 10
189.05134820384586
 20
111.92163044121321
 11
189.05134820384586
 21
112.53403605011317
  0
LINE
  8
_0-0_図面枠
  6
CONTINUOUS
 62
    7
 10
189.05134820384586
 20
112.53403605011317
 11
188.52101811794586
 21
112.22788300816319
  0
LINE
  8
_0-0_図面枠
  6
CONTINUOUS
 62
    7
 10
189.95721486169583
 20
109.96997055511321
 11
189.95721486169583
 21
110.58237616406319
  0
LINE
  8
_0-0_図面枠
  6
CONTINUOUS
 62
    7
 10
189.95721486169583
 20
110.58237616406319
 11
189.05134820384586
 21
112.53403605011317
  0
LINE
  8
_0-0_図面枠
  6
CONTINUOUS
 62
    7
 10
178.44474648604586
 20
110.49291624551319
 11
178.44474648604586
 21
111.10522232936319
  0
LINE
  8
_0-0_図面枠
  6
CONTINUOUS
 62
    7
 10
186.57647446969582
 20
110.49291624551319
 11
186.57647446969582
 21
111.10522232936319
  0
LINE
  8
ADD_LINE
  6
DOT
 62
    4
 10
175.06400609404585
 20
118.56763697021319
 11
189.95681143415379
 21
109.9692717981132
  0
LINE
  8
ADD_LINE
  6
DOT
 62
    4
 10
189.95721486169583
 20
118.56763697021319
 11
175.06440952158789
 21
109.9692717981132
  0
ENDBLK
  0
ENDSEC
  0
SECTION
  2
ENTITIES
  0
LINE
  8
_0-0_図面枠
  6
CONTINUOUS
 62
    6
 10
410.00000000000006
 20
287
 11
10
 21
287.00000000000006
  0
LINE
  8
_0-0_図面枠
  6
CONTINUOUS
 62
    6
 10
410
 20
9.9999999999998863
 11
410.00000000000006
 21
287
  0
LINE
  8
_0-0_図面枠
  6
CONTINUOUS
 62
    6
 10
9.9999999999999147
 20
10
 11
410
 21
9.9999999999998863
  0
LINE
  8
_0-0_図面枠
  6
CONTINUOUS
 62
    6
 10
10
 20
287.00000000000006
 11
9.9999999999999147
 21
10
  0
LINE
  8
ADD_LINE
  6
DOT
 62
    4
 10
0
 20
148.5
 11
420
 21
148.5
  0
LINE
  8
_0-0_図面枠
  6
CONTINUOUS
 62
    6
 10
210
 20
287
 11
210.00000000000003
 21
9.9999999999999432
  0
LINE
  8
_0-0_図面枠
  6
CONTINUOUS
 62
    4
 10
182.14999999999998
 20
50.199999999999974
 11
40
 21
50.199999999999974
  0
LINE
  8
_0-0_図面枠
  6
CONTINUOUS
 62
    4
 10
182.14999999999998
 20
62.199999999999974
 11
40
 21
62.199999999999974
  0
LINE
  8
_0-0_図面枠
  6
CONTINUOUS
 62
    4
 10
182.14999999999998
 20
56.199999999999974
 11
40
 21
56.199999999999974
  0
LINE
  8
_0-0_図面枠
  6
CONTINUOUS
 62
    4
 10
182.14999999999998
 20
68.199999999999974
 11
40
 21
68.199999999999974
  0
LINE
  8
_0-0_図面枠
  6
CONTINUOUS
 62
    4
 10
182.14999999999998
 20
104.20000000000003
 11
40
 21
104.20000000000003
  0
LINE
  8
_0-0_図面枠
  6
CONTINUOUS
 62
    4
 10
182.14999999999998
 20
98.200000000000031
 11
40
 21
98.200000000000031
  0
LINE
  8
_0-0_図面枠
  6
CONTINUOUS
 62
    4
 10
182.14999999999998
 20
92.200000000000031
 11
40
 21
92.200000000000031
  0
LINE
  8
_0-0_図面枠
  6
CONTINUOUS
 62
    4
 10
182.14999999999998
 20
86.200000000000031
 11
40
 21
86.200000000000031
  0
LINE
  8
_0-0_図面枠
  6
CONTINUOUS
 62
    4
 10
182.14999999999998
 20
80.200000000000031
 11
40
 21
80.200000000000031
  0
LINE
  8
_0-0_図面枠
  6
CONTINUOUS
 62
    4
 10
182.14999999999998
 20
74.199999999999974
 11
40
 21
74.199999999999974
  0
LINE
  8
_0-0_図面枠
  6
CONTINUOUS
 62
    4
 10
182.14999999999998
 20
114.99999999999999
 11
40
 21
114.99999999999999
  0
LINE
  8
_0-0_図面枠
  6
CONTINUOUS
 62
    4
 10
182.14999999999998
 20
44.199999999999974
 11
40
 21
44.199999999999974
  0
LINE
  8
_0-0_図面枠
  6
CONTINUOUS
 62
    4
 10
182.14999999999998
 20
38.199999999999974
 11
40
 21
38.199999999999974
  0
LINE
  8
_0-0_図面枠
  6
CONTINUOUS
 62
    4
 10
182.14999999999998
 20
32.199999999999974
 11
40
 21
32.199999999999974
  0
LINE
  8
_0-0_図面枠
  6
CONTINUOUS
 62
    4
 10
182.14999999999998
 20
26.199999999999974
 11
40
 21
26.199999999999974
  0
TEXT
  8
_0-0_図面枠
 62
    4
 10
165.551264
 20
110.20001049999995
 40
3.2000000000000002
 41
1
 50
0
  1
使用
  0
TEXT
  8
_0-0_図面枠
 62
    4
 10
150.50638249999994
 20
110.20001049999995
 40
3.2000000000000002
 41
1
 50
0
  1
定　尺
  0
TEXT
  8
_0-0_図面枠
 62
    4
 10
148.34354749999997
 20
105.40000399999995
 40
3.2000000000000002
 41
1
 50
0
  1
（ｍｍ）
  0
TEXT
  8
_0-0_図面枠
 62
    4
 10
165.551264
 20
105.40000399999995
 40
3.2000000000000002
 41
1
 50
0
  1
数量
  0
TEXT
  8
_0-0_図面枠
 62
    4
 10
40.497067999999985
 20
99.427549499999927
 40
3.2000000000000002
 41
1
 50
0
  1
　１
  0
TEXT
  8
_0-0_図面枠
 62
    4
 10
149.270477
 20
99.400003999999953
 40
3.2000000000000002
 41
1
 50
0
  1
３０００
  0
TEXT
  8
_0-0_図面枠
 62
    4
 10
177.00512500000002
 20
99.400003999999953
 40
3.2000000000000002
 41
1
 50
0
  1
本
  0
TEXT
  8
_0-0_図面枠
 62
    4
 10
43.586831999999987
 20
93.427549499999927
 40
3.2000000000000002
 41
1
 50
0
  1
２
  0
TEXT
  8
_0-0_図面枠
 62
    4
 10
43.586831999999987
 20
87.427549499999927
 40
3.2000000000000002
 41
1
 50
0
  1
３
  0
TEXT
  8
_0-0_図面枠
 62
    4
 10
43.586831999999987
 20
81.427549499999927
 40
3.2000000000000002
 41
1
 50
0
  1
４
  0
TEXT
  8
_0-0_図面枠
 62
    4
 10
43.586831999999987
 20
75.427560999999955
 40
3.2000000000000002
 41
1
 50
0
  1
５
  0
TEXT
  8
_0-0_図面枠
 62
    4
 10
43.586831999999987
 20
69.427560999999955
 40
3.2000000000000002
 41
1
 50
0
  1
６
  0
LINE
  8
_0-0_図面枠
  6
CONTINUOUS
 62
    4
 10
382.15000000000009
 20
104.19999999999997
 11
240
 21
104.19999999999997
  0
LINE
  8
_0-0_図面枠
  6
CONTINUOUS
 62
    4
 10
382.15000000000009
 20
98.199999999999974
 11
240
 21
98.199999999999974
  0
LINE
  8
_0-0_図面枠
  6
CONTINUOUS
 62
    4
 10
382.15000000000009
 20
92.199999999999974
 11
240
 21
92.199999999999974
  0
LINE
  8
_0-0_図面枠
  6
CONTINUOUS
 62
    4
 10
382.15000000000009
 20
86.199999999999974
 11
240
 21
86.199999999999974
  0
LINE
  8
_0-0_図面枠
  6
CONTINUOUS
 62
    4
 10
382.15000000000009
 20
80.199999999999974
 11
240
 21
80.199999999999974
  0
LINE
  8
_0-0_図面枠
  6
CONTINUOUS
 62
    4
 10
382.15000000000009
 20
74.199999999999974
 11
240
 21
74.199999999999974
  0
LINE
  8
_0-0_図面枠
  6
CONTINUOUS
 62
    4
 10
382.15000000000009
 20
68.199999999999974
 11
240
 21
68.199999999999974
  0
LINE
  8
_0-0_図面枠
  6
CONTINUOUS
 62
    4
 10
382.15000000000009
 20
62.199999999999974
 11
240
 21
62.199999999999974
  0
LINE
  8
_0-0_図面枠
  6
CONTINUOUS
 62
    4
 10
382.15000000000009
 20
56.199999999999974
 11
240
 21
56.199999999999974
  0
LINE
  8
_0-0_図面枠
  6
CONTINUOUS
 62
    4
 10
382.15000000000009
 20
50.199999999999974
 11
240
 21
50.199999999999974
  0
LINE
  8
_0-0_図面枠
  6
CONTINUOUS
 62
    4
 10
382.15000000000009
 20
38.199999999999974
 11
240
 21
38.199999999999974
  0
LINE
  8
_0-0_図面枠
  6
CONTINUOUS
 62
    4
 10
382.15000000000009
 20
114.99999999999999
 11
240
 21
114.99999999999999
  0
LINE
  8
_0-0_図面枠
  6
CONTINUOUS
 62
    4
 10
382.15000000000009
 20
26.199999999999974
 11
240
 21
26.199999999999974
  0
LINE
  8
_0-0_図面枠
  6
CONTINUOUS
 62
    4
 10
382.15000000000009
 20
20.199999999999989
 11
240
 21
20.199999999999989
  0
LINE
  8
_0-0_図面枠
  6
CONTINUOUS
 62
    4
 10
382.15000000000009
 20
44.199999999999974
 11
240
 21
44.199999999999974
  0
LINE
  8
_0-0_図面枠
  6
CONTINUOUS
 62
    4
 10
382.15000000000009
 20
32.199999999999974
 11
240
 21
32.199999999999974
  0
TEXT
  8
_0-0_図面枠
 62
    4
 10
365.55123000000003
 20
110.2000105
 40
3.2000000000000002
 41
1
 50
0
  1
使用
  0
TEXT
  8
_0-0_図面枠
 62
    4
 10
350.50632500000006
 20
110.20002199999998
 40
3.2000000000000002
 41
1
 50
0
  1
定　尺
  0
TEXT
  8
_0-0_図面枠
 62
    4
 10
348.34349000000003
 20
105.40001499999998
 40
3.2000000000000002
 41
1
 50
0
  1
（ｍｍ）
  0
TEXT
  8
_0-0_図面枠
 62
    4
 10
365.55123000000003
 20
105.40000400000001
 40
3.2000000000000002
 41
1
 50
0
  1
数量
  0
TEXT
  8
_0-0_図面枠
 62
    4
 10
240.4970505
 20
99.427549499999984
 40
3.2000000000000002
 41
1
 50
0
  1
　１
  0
TEXT
  8
_0-0_図面枠
 62
    4
 10
243.5868145
 20
93.427549499999984
 40
3.2000000000000002
 41
1
 50
0
  1
２
  0
TEXT
  8
_0-0_図面枠
 62
    4
 10
243.5868145
 20
87.427549499999984
 40
3.2000000000000002
 41
1
 50
0
  1
３
  0
TEXT
  8
_0-0_図面枠
 62
    4
 10
243.5868145
 20
81.427549499999984
 40
3.2000000000000002
 41
1
 50
0
  1
４
  0
TEXT
  8
_0-0_図面枠
 62
    4
 10
243.5868145
 20
75.427560999999983
 40
3.2000000000000002
 41
1
 50
0
  1
５
  0
TEXT
  8
_0-0_図面枠
 62
    4
 10
243.5868145
 20
69.427560999999983
 40
3.2000000000000002
 41
1
 50
0
  1
６
  0
TEXT
  8
_0-0_図面枠
 62
    4
 10
169.36022149999991
 20
99.449991499999996
 40
3.2000000000000002
 41
1
 50
0
  1
１
  0
TEXT
  8
_0-0_図面枠
 62
    4
 10
378.55000000000007
 20
112.8
 40
3.2000000000000002
 41
1
 50
0
  1
単位
  7
TATEGAKI
  0
LINE
  8
_0-0_図面枠
  6
CONTINUOUS
 62
    4
 10
182.14999999999998
 20
20.199999999999989
 11
40
 21
20.199999999999989
  0
LINE
  8
_0-0_図面枠
  6
CONTINUOUS
 62
    4
 10
40
 20
20.199999999999989
 11
40
 21
114.99999999999999
  0
LINE
  8
_0-0_図面枠
  6
CONTINUOUS
 62
    4
 10
47.200000000000017
 20
20.199999999999989
 11
47.200000000000017
 21
114.99999999999999
  0
LINE
  8
_0-0_図面枠
  6
CONTINUOUS
 62
    4
 10
182.14999999999998
 20
20.199999999999989
 11
182.14999999999998
 21
114.99999999999999
  0
LINE
  8
_0-0_図面枠
  6
CONTINUOUS
 62
    4
 10
162.94999999999999
 20
20.199999999999989
 11
162.94999999999999
 21
114.99999999999999
  0
LINE
  8
_0-0_図面枠
  6
CONTINUOUS
 62
    4
 10
147.95000000000002
 20
20.199999999999989
 11
147.95000000000002
 21
114.99999999999999
  0
LINE
  8
_0-0_図面枠
  6
CONTINUOUS
 62
    4
 10
174.95000000000005
 20
20.199999999999989
 11
174.95000000000005
 21
114.99999999999999
  0
LINE
  8
_0-0_図面枠
  6
CONTINUOUS
 62
    4
 10
146.95000000000002
 20
20.199999999999989
 11
146.95000000000002
 21
114.99999999999999
  0
LINE
  8
_0-0_図面枠
  6
CONTINUOUS
 62
    4
 10
240
 20
20.199999999999989
 11
240
 21
114.99999999999999
  0
LINE
  8
_0-0_図面枠
  6
CONTINUOUS
 62
    4
 10
247.20000000000005
 20
20.199999999999989
 11
247.20000000000005
 21
114.99999999999999
  0
LINE
  8
_0-0_図面枠
  6
CONTINUOUS
 62
    4
 10
346.95000000000005
 20
20.199999999999989
 11
346.95000000000005
 21
114.99999999999999
  0
LINE
  8
_0-0_図面枠
  6
CONTINUOUS
 62
    4
 10
382.15000000000009
 20
20.199999999999989
 11
382.15000000000009
 21
114.99999999999999
  0
LINE
  8
_0-0_図面枠
  6
CONTINUOUS
 62
    4
 10
374.95000000000005
 20
20.199999999999989
 11
374.95000000000005
 21
114.99999999999999
  0
LINE
  8
_0-0_図面枠
  6
CONTINUOUS
 62
    4
 10
362.95000000000005
 20
20.199999999999989
 11
362.95000000000005
 21
114.99999999999999
  0
LINE
  8
_0-0_図面枠
  6
CONTINUOUS
 62
    4
 10
347.95000000000005
 20
20.199999999999989
 11
347.95000000000005
 21
114.99999999999999
  0
TEXT
  8
_0-0_図面枠
 62
    4
 10
69.300000000000011
 20
108.00000000000001
 40
3.2000000000000002
 41
1
 50
0
  1
部材名称
  0
TEXT
  8
_0-0_図面枠
 62
    4
 10
178.54999999999995
 20
112.80000000000001
 40
3.2000000000000002
 41
1
 50
0
  1
単位
  7
TATEGAKI
  0
LINE
  8
_0-0_図面枠
  6
CONTINUOUS
 62
    4
 10
100.86666666666669
 20
20.199999999999989
 11
100.86666666666669
 21
114.99999999999999
  0
TEXT
  8
_0-0_図面枠
 62
    4
 10
119.10833333333336
 20
108
 40
3.2000000000000002
 41
1
 50
0
  1
規　格
  0
LINE
  8
_0-0_図面枠
  6
CONTINUOUS
 62
    4
 10
300.86666666666667
 20
20.199999999999989
 11
300.86666666666667
 21
114.99999999999999
  0
TEXT
  8
_0-0_図面枠
 62
    4
 10
267.63333333333333
 20
107.99999999999999
 40
3.2000000000000002
 41
1
 50
0
  1
部材名称
  0
TEXT
  8
_0-0_図面枠
 62
    4
 10
319.10833333333335
 20
107.99999999999999
 40
3.2000000000000002
 41
1
 50
0
  1
規　格
  0
TEXT
  8
_0-0_図面枠
 62
    4
 10
169.36022149999991
 20
93.45000299999991
 40
3.2000000000000002
 41
1
 50
0
  1
６
  0
TEXT
  8
_0-0_図面枠
 62
    4
 10
177.00512500000002
 20
93.400003999999953
 40
3.2000000000000002
 41
1
 50
0
  1
個
  0
TEXT
  8
_0-0_図面枠
 62
    4
 10
169.36022149999991
 20
88.050002999999975
 40
3.2000000000000002
 41
1
 50
0
  1
６
  0
TEXT
  8
_0-0_図面枠
 62
    4
 10
177.00512500000002
 20
87.999992500000047
 40
3.2000000000000002
 41
1
 50
0
  1
本
  0
TEXT
  8
_0-0_図面枠
 62
    4
 10
48.400007499999987
 20
88.000009500000061
 40
3.2000000000000002
 41
1
 50
0
  1
ステンドリリングねじ
  0
TEXT
  8
_0-0_図面枠
 62
    4
 10
102.0666796666667
 20
88.000009500000061
 40
3.2000000000000002
 41
1
 50
0
  1
皿(Ｄ６)４×１６
  0
TEXT
  8
_0-0_図面枠
 62
    4
 10
166.27045749999996
 20
81.45000850000001
 40
3.2000000000000002
 41
1
 50
0
  1
１２
  0
TEXT
  8
_0-0_図面枠
 62
    4
 10
48.400007499999987
 20
81.400009500000053
 40
3.2000000000000002
 41
1
 50
0
  1
ステンタッピンねじ
  0
TEXT
  8
_0-0_図面枠
 62
    4
 10
48.400007499999987
 20
75.400009500000053
 40
3.2000000000000002
 41
1
 50
0
  1
ステンワッシャー
  0
TEXT
  8
_0-0_図面枠
 62
    4
 10
166.27045749999996
 20
75.45000850000001
 40
3.2000000000000002
 41
1
 50
0
  1
１２
  0
TEXT
  8
_0-0_図面枠
 62
    4
 10
177.00512500000002
 20
75.400009500000053
 40
3.2000000000000002
 41
1
 50
0
  1
枚
  0
TEXT
  8
_0-0_図面枠
 62
    4
 10
177.00512500000002
 20
81.399992500000039
 40
3.2000000000000002
 41
1
 50
0
  1
本
  0
TEXT
  8
_0-0_図面枠
 62
    4
 10
149.270477
 20
69.400009499999996
 40
3.2000000000000002
 41
1
 50
0
  1
３１００
  0
TEXT
  8
_0-0_図面枠
 62
    4
 10
169.36022149999991
 20
69.449997499999981
 40
3.2000000000000002
 41
1
 50
0
  1
２
  0
TEXT
  8
_0-0_図面枠
 62
    4
 10
177.00512500000002
 20
69.400009499999996
 40
3.2000000000000002
 41
1
 50
0
  1
本
  0
TEXT
  8
_0-0_図面枠
 62
    4
 10
102.06669116666673
 20
81.400009500000053
 40
3.2000000000000002
 41
1
 50
0
  1
なべ４×３０
  0
TEXT
  8
_0-0_図面枠
 62
    4
 10
102.0666336666667
 20
75.400004000000038
 40
3.2000000000000002
 41
1
 50
0
  1
１．５×１８×４．５穴
  0
TEXT
  8
_0-0_図面枠
 62
    4
 10
349.27047700000003
 20
99.400003999999896
 40
3.2000000000000002
 41
1
 50
0
  1
３０００
  0
TEXT
  8
_0-0_図面枠
 62
    4
 10
377.00512500000002
 20
99.400003999999896
 40
3.2000000000000002
 41
1
 50
0
  1
本
  0
TEXT
  8
_0-0_図面枠
 62
    4
 10
369.36022149999997
 20
99.449991499999939
 40
3.2000000000000002
 41
1
 50
0
  1
１
  0
TEXT
  8
_0-0_図面枠
 62
    4
 10
369.36022149999997
 20
93.450002999999853
 40
3.2000000000000002
 41
1
 50
0
  1
６
  0
TEXT
  8
_0-0_図面枠
 62
    4
 10
377.00512500000002
 20
93.400003999999896
 40
3.2000000000000002
 41
1
 50
0
  1
個
  0
TEXT
  8
_0-0_図面枠
 62
    4
 10
377.00512500000002
 20
87.999992499999991
 40
3.2000000000000002
 41
1
 50
0
  1
本
  0
TEXT
  8
_0-0_図面枠
 62
    4
 10
248.40000750000002
 20
88.000009500000004
 40
3.2000000000000002
 41
1
 50
0
  1
ステンドリリングねじ
  0
TEXT
  8
_0-0_図面枠
 62
    4
 10
302.06667966666674
 20
88.000009500000004
 40
3.2000000000000002
 41
1
 50
0
  1
皿(Ｄ６)４×１６
  0
TEXT
  8
_0-0_図面枠
 62
    4
 10
366.27045750000002
 20
81.450008499999953
 40
3.2000000000000002
 41
1
 50
0
  1
１２
  0
TEXT
  8
_0-0_図面枠
 62
    4
 10
248.40000750000002
 20
81.400009499999996
 40
3.2000000000000002
 41
1
 50
0
  1
ステンタッピンねじ
  0
TEXT
  8
_0-0_図面枠
 62
    4
 10
248.40000750000002
 20
75.400009499999996
 40
3.2000000000000002
 41
1
 50
0
  1
ステンワッシャー
  0
TEXT
  8
_0-0_図面枠
 62
    4
 10
366.27045750000002
 20
75.450008499999953
 40
3.2000000000000002
 41
1
 50
0
  1
１２
  0
TEXT
  8
_0-0_図面枠
 62
    4
 10
377.00512500000002
 20
75.400009499999996
 40
3.2000000000000002
 41
1
 50
0
  1
枚
  0
TEXT
  8
_0-0_図面枠
 62
    4
 10
377.00512500000002
 20
81.399992499999982
 40
3.2000000000000002
 41
1
 50
0
  1
本
  0
TEXT
  8
_0-0_図面枠
 62
    4
 10
302.06669116666677
 20
81.400009499999996
 40
3.2000000000000002
 41
1
 50
0
  1
なべ４×３０
  0
TEXT
  8
_0-0_図面枠
 62
    4
 10
302.06663366666675
 20
75.400003999999981
 40
3.2000000000000002
 41
1
 50
0
  1
１．５×１８×４．５穴
  0
TEXT
  8
_0-0_図面枠
 62
    4
 10
349.27047700000003
 20
63.400009499999939
 40
3.2000000000000002
 41
1
 50
0
  1
３１００
  0
TEXT
  8
_0-0_図面枠
 62
    4
 10
369.36022149999997
 20
63.449997499999924
 40
3.2000000000000002
 41
1
 50
0
  1
２
  0
TEXT
  8
_0-0_図面枠
 62
    4
 10
377.00512500000002
 20
63.400009499999939
 40
3.2000000000000002
 41
1
 50
0
  1
本
  0
TEXT
  8
_0-0_図面枠
 62
    4
 10
243.5868145
 20
63.427555499999968
 40
3.2000000000000002
 41
1
 50
0
  1
７
  0
TEXT
  8
_0-0_図面枠
 62
    4
 10
377.00512500000013
 20
69.399992499999982
 40
3.2000000000000002
 41
1
 50
0
  1
本
  0
TEXT
  8
_0-0_図面枠
 62
    4
 10
369.36022149999997
 20
87.450002999999853
 40
3.2000000000000002
 41
1
 50
0
  1
６
  0
TEXT
  8
_0-0_図面枠
 62
    4
 10
102.0666796666667
 20
94.000009500000061
 40
3.2000000000000002
 41
1
 50
0
  1
Ｌ＝１２０
  0
TEXT
  8
_0-0_図面枠
 62
    4
 10
302.06667966666669
 20
94.000009500000004
 40
3.2000000000000002
 41
1
 50
0
  1
Ｌ＝９５
  0
TEXT
  8
_0-0_図面枠
 62
    4
 10
122.30833333333337
 20
99.600000000000037
 40
3.2000000000000002
 41
1
 50
0
  1
―
  0
TEXT
  8
_0-0_図面枠
 62
    4
 10
122.30833333333335
 20
69.59999999999998
 40
3.2000000000000002
 41
1
 50
0
  1
―
  0
TEXT
  8
_0-0_図面枠
 62
    4
 10
322.30833333333328
 20
99.59999999999998
 40
3.2000000000000002
 41
1
 50
0
  1
―
  0
TEXT
  8
_0-0_図面枠
 62
    4
 10
322.30833333333328
 20
63.599999999999966
 40
3.2000000000000002
 41
1
 50
0
  1
―
  0
TEXT
  8
_0-0_図面枠
 62
    4
 10
153.84999999999999
 20
93.600000000000037
 40
3.2000000000000002
 41
1
 50
0
  1
―
  0
TEXT
  8
_0-0_図面枠
 62
    4
 10
153.84999999999999
 20
87.600000000000037
 40
3.2000000000000002
 41
1
 50
0
  1
―
  0
TEXT
  8
_0-0_図面枠
 62
    4
 10
153.84999999999999
 20
81.600000000000037
 40
3.2000000000000002
 41
1
 50
0
  1
―
  0
TEXT
  8
_0-0_図面枠
 62
    4
 10
153.84999999999999
 20
75.600000000000023
 40
3.2000000000000002
 41
1
 50
0
  1
―
  0
TEXT
  8
_0-0_図面枠
 62
    4
 10
353.85000000000002
 20
93.59999999999998
 40
3.2000000000000002
 41
1
 50
0
  1
―
  0
TEXT
  8
_0-0_図面枠
 62
    4
 10
353.85000000000002
 20
87.59999999999998
 40
3.2000000000000002
 41
1
 50
0
  1
―
  0
TEXT
  8
_0-0_図面枠
 62
    4
 10
353.85000000000002
 20
81.59999999999998
 40
3.2000000000000002
 41
1
 50
0
  1
―
  0
TEXT
  8
_0-0_図面枠
 62
    4
 10
353.85000000000002
 20
75.599999999999966
 40
3.2000000000000002
 41
1
 50
0
  1
―
  0
TEXT
  8
_0-0_図面枠
 62
    4
 10
353.85000000000002
 20
69.599999999999966
 40
3.2000000000000002
 41
1
 50
0
  1
―
  0
TEXT
  8
_0-0_図面枠
 62
    4
 10
302.06669116666689
 20
69.400009499999996
 40
3.2000000000000002
 41
1
 50
0
  1
Φ６×３０
  0
TEXT
  8
_0-0_図面枠
 62
    4
 10
369.36022149999997
 20
69.449997499999924
 40
3.2000000000000002
 41
1
 50
0
  1
６
  0
TEXT
  8
_0-0_図面枠
 62
    4
 10
43.586831999999987
 20
63.427555499999954
 40
3.2000000000000002
 41
1
 50
0
  1
※
  0
TEXT
  8
_0-0_図面枠
 62
    4
 10
169.36022149999991
 20
63.450002999999953
 40
3.2000000000000002
 41
1
 50
0
  1
１
  0
TEXT
  8
_0-0_図面枠
 62
    4
 10
177.00512500000002
 20
63.400003999999939
 40
3.2000000000000002
 41
1
 50
0
  1
個
  0
TEXT
  8
_0-0_図面枠
 62
    4
 10
153.85000000000002
 20
63.599999999999966
 40
3.2000000000000002
 41
1
 50
0
  1
―
  0
TEXT
  8
_0-0_図面枠
 62
    4
 10
102.06667966666669
 20
63.400003999999939
 40
3.2000000000000002
 41
1
 50
0
  1
ＡＬ　ｔ＝１．５
  0
TEXT
  8
_0-0_図面枠
 62
    4
 10
48.400007499999987
 20
63.400003999999939
 40
3.2000000000000002
 41
1
 50
0
  1
ジョイントプレート
  0
TEXT
  8
_0-0_図面枠
 62
    4
 10
43.586831999999987
 20
57.427555499999968
 40
3.2000000000000002
 41
1
 50
0
  1
※
  0
TEXT
  8
_0-0_図面枠
 62
    4
 10
169.36022149999991
 20
57.450002999999967
 40
3.2000000000000002
 41
1
 50
0
  1
２
  0
TEXT
  8
_0-0_図面枠
 62
    4
 10
177.00512500000002
 20
57.400009499999996
 40
3.2000000000000002
 41
1
 50
0
  1
本
  0
TEXT
  8
_0-0_図面枠
 62
    4
 10
102.06669116666673
 20
57.400009499999982
 40
3.2000000000000002
 41
1
 50
0
  1
１.５×(１×１９)Ｌ＝６００
  0
TEXT
  8
_0-0_図面枠
 62
    4
 10
48.400007500000015
 20
57.400009499999996
 40
3.2000000000000002
 41
1
 50
0
  1
落下防止ワイヤー
  0
TEXT
  8
_0-0_図面枠
 62
    4
 10
153.84999999999999
 20
57.599999999999966
 40
3.2000000000000002
 41
1
 50
0
  1
―
  0
TEXT
  8
_0-0_図面枠
 62
    4
 10
243.58683199999999
 20
57.42755549999994
 40
3.2000000000000002
 41
1
 50
0
  1
※
  0
TEXT
  8
_0-0_図面枠
 62
    4
 10
369.36022149999991
 20
57.450002999999938
 40
3.2000000000000002
 41
1
 50
0
  1
１
  0
TEXT
  8
_0-0_図面枠
 62
    4
 10
377.00512500000002
 20
57.400003999999925
 40
3.2000000000000002
 41
1
 50
0
  1
個
  0
TEXT
  8
_0-0_図面枠
 62
    4
 10
353.85000000000002
 20
57.599999999999937
 40
3.2000000000000002
 41
1
 50
0
  1
―
  0
TEXT
  8
_0-0_図面枠
 62
    4
 10
302.06667966666669
 20
57.400003999999925
 40
3.2000000000000002
 41
1
 50
0
  1
ＡＬ　ｔ＝１．５
  0
TEXT
  8
_0-0_図面枠
 62
    4
 10
248.40000749999999
 20
57.400003999999925
 40
3.2000000000000002
 41
1
 50
0
  1
ジョイントプレート
  0
TEXT
  8
_0-0_図面枠
 62
    4
 10
243.58683199999999
 20
51.427555499999954
 40
3.2000000000000002
 41
1
 50
0
  1
※
  0
TEXT
  8
_0-0_図面枠
 62
    4
 10
369.36022149999991
 20
51.450002999999953
 40
3.2000000000000002
 41
1
 50
0
  1
２
  0
TEXT
  8
_0-0_図面枠
 62
    4
 10
377.00512500000002
 20
51.400009499999982
 40
3.2000000000000002
 41
1
 50
0
  1
本
  0
TEXT
  8
_0-0_図面枠
 62
    4
 10
302.06669116666671
 20
51.400009499999967
 40
3.2000000000000002
 41
1
 50
0
  1
１.５×(１×１９)Ｌ＝６００
  0
TEXT
  8
_0-0_図面枠
 62
    4
 10
248.40000750000002
 20
51.400009499999982
 40
3.2000000000000002
 41
1
 50
0
  1
落下防止ワイヤー
  0
TEXT
  8
_0-0_図面枠
 62
    4
 10
353.84999999999997
 20
51.599999999999966
 40
3.2000000000000002
 41
1
 50
0
  1
―
  0
TEXT
  8
_0-0_図面枠
 62
    4
 10
41.666666666666686
 20
128
 40
3
 41
1
 50
0
  1
（落下防止ワイヤー）
  0
INSERT
  2
-000-
  8
_1-8_小物
 10
210
 20
148.5
 41
1
 42
1
 50
0
  0
LINE
  8
_1-8_小物
  6
CONTINUOUS
 62
    4
 10
157.03985321657842
 20
131.84018902839435
 11
151.17656837665947
 21
130.18752043233465
  0
LINE
  8
_1-8_小物
  6
CONTINUOUS
 62
    4
 10
157.16066740562403
 20
131.35707331101597
 11
151.24647145802518
 21
129.68796469593613
  0
LINE
  8
_1-8_小物
  6
CONTINUOUS
 62
    4
 10
157.03985321657842
 20
127.15981097160562
 11
151.17656837665947
 21
128.81247956766532
  0
LINE
  8
_1-8_小物
  6
CONTINUOUS
 62
    4
 10
157.16066740562403
 20
127.64292668898401
 11
151.24647145802518
 21
129.31203530406384
  0
LINE
  8
_1-8_小物
  6
CONTINUOUS
 62
    4
 10
157.1606675134222
 20
127.64292665856117
 11
157.1606675134222
 21
127.64292665856117
  0
LINE
  8
_1-8_小物
  6
CONTINUOUS
 62
    4
 10
157.1606675134222
 20
127.64292665856117
 11
157.6334904430544
 21
127.54220923628057
  0
LINE
  8
_1-8_小物
  6
CONTINUOUS
 62
    4
 10
157.6334904430544
 20
127.54220923628057
 11
158.1239067754791
 21
127.50097829566566
  0
LINE
  8
_1-8_小物
  6
CONTINUOUS
 62
    4
 10
158.1239067754791
 20
127.50097829566566
 11
158.61701545859825
 21
127.52048661798315
  0
LINE
  8
_1-8_小物
  6
CONTINUOUS
 62
    4
 10
158.61701545859825
 20
127.52048661798315
 11
159.09783363460025
 21
127.60014145273114
  0
LINE
  8
_1-8_小物
  6
CONTINUOUS
 62
    4
 10
159.09783363460025
 20
127.60014145273114
 11
159.55175188651307
 21
127.73752252806307
  0
LINE
  8
_1-8_小物
  6
CONTINUOUS
 62
    4
 10
159.55175188651307
 20
127.73752252806307
 11
159.96497813794605
 21
127.92845558952315
  0
LINE
  8
_1-8_小物
  6
CONTINUOUS
 62
    4
 10
159.96497813794605
 20
127.92845558952315
 11
160.32495671835193
 21
128.16713923265576
  0
LINE
  8
_1-8_小物
  6
CONTINUOUS
 62
    4
 10
160.32495671835193
 20
128.16713923265576
 11
160.62074986072309
 21
128.446321175744
  0
LINE
  8
_1-8_小物
  6
CONTINUOUS
 62
    4
 10
160.62074986072309
 20
128.446321175744
 11
160.84337004010709
 21
128.75751861672009
  0
LINE
  8
_1-8_小物
  6
CONTINUOUS
 62
    4
 10
160.84337004010709
 20
128.75751861672009
 11
160.98605305500459
 21
129.0912759788134
  0
LINE
  8
_1-8_小物
  6
CONTINUOUS
 62
    4
 10
160.98605305500459
 20
129.0912759788134
 11
161.04446355420905
 21
129.43745221346614
  0
LINE
  8
_1-8_小物
  6
CONTINUOUS
 62
    4
 10
161.04446355420905
 20
129.43745221346614
 11
161.01682676425926
 21
129.78552893096199
  0
LINE
  8
_1-8_小物
  6
CONTINUOUS
 62
    4
 10
161.01682676425926
 20
129.78552893096199
 11
160.90398241503294
 21
130.12492999637519
  0
LINE
  8
_1-8_小物
  6
CONTINUOUS
 62
    4
 10
160.90398241503294
 20
130.12492999637519
 11
160.70935922497938
 21
130.44534288007836
  0
LINE
  8
_1-8_小物
  6
CONTINUOUS
 62
    4
 10
160.70935922497938
 20
130.44534288007836
 11
160.43887072124426
 21
130.73703199873694
  0
LINE
  8
_1-8_小物
  6
CONTINUOUS
 62
    4
 10
160.43887072124426
 20
130.73703199873694
 11
160.10073556013975
 21
130.99113452608228
  0
LINE
  8
_1-8_小物
  6
CONTINUOUS
 62
    4
 10
160.10073556013975
 20
130.99113452608228
 11
159.70522780743138
 21
131.19992968540308
  0
LINE
  8
_1-8_小物
  6
CONTINUOUS
 62
    4
 10
159.70522780743138
 20
131.19992968540308
 11
159.26436476604863
 21
131.35707334143885
  0
LINE
  8
_1-8_小物
  6
CONTINUOUS
 62
    4
 10
159.26436476604863
 20
131.35707334143885
 11
158.79154183641643
 21
131.45779076371943
  0
LINE
  8
_1-8_小物
  6
CONTINUOUS
 62
    4
 10
158.79154183641643
 20
131.45779076371943
 11
158.30112550399173
 21
131.49902170433435
  0
LINE
  8
_1-8_小物
  6
CONTINUOUS
 62
    4
 10
158.30112550399173
 20
131.49902170433435
 11
157.80801682087258
 21
131.47951338201685
  0
LINE
  8
_1-8_小物
  6
CONTINUOUS
 62
    4
 10
157.80801682087258
 20
131.47951338201685
 11
157.32719864487058
 21
131.39985854726888
  0
LINE
  8
_1-8_小物
  6
CONTINUOUS
 62
    4
 10
157.32719864487058
 20
131.39985854726888
 11
157.160667405624
 21
131.35707331101594
  0
LINE
  8
_1-8_小物
  6
CONTINUOUS
 62
    4
 10
157.039853303781
 20
127.15981094702609
 11
157.039853303781
 21
127.15981094702609
  0
LINE
  8
_1-8_小物
  6
CONTINUOUS
 62
    4
 10
157.039853303781
 20
127.15981094702609
 11
157.5994947731449
 21
127.04264060375607
  0
LINE
  8
_1-8_小物
  6
CONTINUOUS
 62
    4
 10
157.5994947731449
 20
127.04264060375607
 11
158.1777625865289
 21
127.00013588225708
  0
LINE
  8
_1-8_小物
  6
CONTINUOUS
 62
    4
 10
158.1777625865289
 20
127.00013588225708
 11
158.75708636904091
 21
127.03358826698343
  0
LINE
  8
_1-8_小物
  6
CONTINUOUS
 62
    4
 10
158.75708636904091
 20
127.03358826698343
 11
159.31986366070132
 21
127.14198132415292
  0
LINE
  8
_1-8_小物
  6
CONTINUOUS
 62
    4
 10
159.31986366070132
 20
127.14198132415292
 11
159.84899475828206
 21
127.32202158557301
  0
LINE
  8
_1-8_小物
  6
CONTINUOUS
 62
    4
 10
159.84899475828206
 20
127.32202158557301
 11
160.32840228113639
 21
127.56823861900521
  0
LINE
  8
_1-8_小物
  6
CONTINUOUS
 62
    4
 10
160.32840228113639
 20
127.56823861900521
 11
160.74351967427432
 21
127.87315124448051
  0
LINE
  8
_1-8_小物
  6
CONTINUOUS
 62
    4
 10
160.74351967427432
 20
127.87315124448051
 11
161.08173380576486
 21
128.22749484616708
  0
LINE
  8
_1-8_小物
  6
CONTINUOUS
 62
    4
 10
161.08173380576486
 20
128.22749484616708
 11
161.33276821036728
 21
128.62050287303418
  0
LINE
  8
_1-8_小物
  6
CONTINUOUS
 62
    4
 10
161.33276821036728
 20
128.62050287303418
 11
161.48899533472729
 21
129.04023397505711
  0
LINE
  8
_1-8_小物
  6
CONTINUOUS
 62
    4
 10
161.48899533472729
 20
129.04023397505711
 11
161.54566829672595
 21
129.47393483509512
  0
LINE
  8
_1-8_小物
  6
CONTINUOUS
 62
    4
 10
161.54566829672595
 20
129.47393483509512
 11
161.5010651170908
 21
129.90842767197913
  0
LINE
  8
_1-8_小物
  6
CONTINUOUS
 62
    4
 10
161.5010651170908
 20
129.90842767197913
 11
161.35654104086481
 21
130.33051064072444
  0
LINE
  8
_1-8_小物
  6
CONTINUOUS
 62
    4
 10
161.35654104086481
 20
130.33051064072444
 11
161.11648735897137
 21
130.72735896391001
  0
LINE
  8
_1-8_小物
  6
CONTINUOUS
 62
    4
 10
161.11648735897137
 20
130.72735896391001
 11
160.78819798106178
 21
131.08691460605075
  0
LINE
  8
_1-8_小物
  6
CONTINUOUS
 62
    4
 10
160.78819798106178
 20
131.08691460605075
 11
160.38164781376139
 21
131.3982526509042
  0
LINE
  8
_1-8_小物
  6
CONTINUOUS
 62
    4
 10
160.38164781376139
 20
131.3982526509042
 11
159.9091896781793
 21
131.6519132495221
  0
LINE
  8
_1-8_小物
  6
CONTINUOUS
 62
    4
 10
159.9091896781793
 20
131.6519132495221
 11
159.38517897568983
 21
131.84018905297393
  0
LINE
  8
_1-8_小物
  6
CONTINUOUS
 62
    4
 10
159.38517897568983
 20
131.84018905297393
 11
158.82553750632593
 21
131.95735939624393
  0
LINE
  8
_1-8_小物
  6
CONTINUOUS
 62
    4
 10
158.82553750632593
 20
131.95735939624393
 11
158.24726969294193
 21
131.99986411774293
  0
LINE
  8
_1-8_小物
  6
CONTINUOUS
 62
    4
 10
158.24726969294193
 20
131.99986411774293
 11
157.66794591042992
 21
131.96641173301657
  0
LINE
  8
_1-8_小物
  6
CONTINUOUS
 62
    4
 10
157.66794591042992
 20
131.96641173301657
 11
157.10516861876951
 21
131.85801867584706
  0
LINE
  8
_1-8_小物
  6
CONTINUOUS
 62
    4
 10
157.10516861876951
 20
131.85801867584706
 11
157.03985321657842
 21
131.84018902839435
  0
ARC
  8
_1-8_小物
  6
CONTINUOUS
 62
    4
 10
149.88841540894515
 20
124.49999999999997
 40
5
 50
74.23983426036601
 51
82.444482010074083
  0
ARC
  8
_1-8_小物
  6
CONTINUOUS
 62
    4
 10
149.82008748449641
 20
123.99999999999997
 40
5
 50
74.258588419679057
 51
81.653895699843488
  0
ARC
  8
_1-8_小物
  6
CONTINUOUS
 62
    4
 10
149.82008748449641
 20
135
 40
5
 50
278.34610430015653
 51
285.74141158032086
  0
ARC
  8
_1-8_小物
  6
CONTINUOUS
 62
    4
 10
149.88841540894515
 20
134.5
 40
5
 50
277.55551798992593
 51
285.76016573963392
  0
INSERT
  2
-001-_1_
  8
_1-8_小物
 10
210
 20
148.5
 41
1
 42
1
 50
0
  0
LINE
  8
_1-8_小物
  6
CONTINUOUS
 62
    4
 10
82.718512396225748
 20
131.84018902839435
 11
88.581797236144695
 21
130.18752043233465
  0
LINE
  8
_1-8_小物
  6
CONTINUOUS
 62
    4
 10
82.597698207180116
 20
131.35707331101597
 11
88.511894154779
 21
129.68796469593613
  0
LINE
  8
_1-8_小物
  6
CONTINUOUS
 62
    4
 10
82.718512396225748
 20
127.15981097160562
 11
88.581797236144695
 21
128.81247956766532
  0
LINE
  8
_1-8_小物
  6
CONTINUOUS
 62
    4
 10
82.597698207180116
 20
127.64292668898401
 11
88.511894154779
 21
129.31203530406384
  0
LINE
  8
_1-8_小物
  6
CONTINUOUS
 62
    4
 10
82.597698207180201
 20
131.35707331101594
 11
82.597698207180201
 21
131.35707331101594
  0
LINE
  8
_1-8_小物
  6
CONTINUOUS
 62
    4
 10
82.597698207180201
 20
131.35707331101594
 11
82.124875283394388
 21
131.45779074697211
  0
LINE
  8
_1-8_小物
  6
CONTINUOUS
 62
    4
 10
82.124875283394388
 20
131.45779074697211
 11
81.634458953363037
 21
131.49902170177148
  0
LINE
  8
_1-8_小物
  6
CONTINUOUS
 62
    4
 10
81.634458953363037
 20
131.49902170177148
 11
81.141350269111499
 21
131.47951339371627
  0
LINE
  8
_1-8_小物
  6
CONTINUOUS
 62
    4
 10
81.141350269111499
 20
131.47951339371627
 11
80.660532088485724
 21
131.39985857287513
  0
LINE
  8
_1-8_小物
  6
CONTINUOUS
 62
    4
 10
80.660532088485724
 20
131.39985857287513
 11
80.206613828598293
 21
131.262477510672
  0
LINE
  8
_1-8_小物
  6
CONTINUOUS
 62
    4
 10
80.206613828598293
 20
131.262477510672
 11
79.79338756608216
 21
131.07154446116377
  0
LINE
  8
_1-8_小物
  6
CONTINUOUS
 62
    4
 10
79.79338756608216
 20
131.07154446116377
 11
79.433408971821308
 21
130.8328608284429
  0
LINE
  8
_1-8_小物
  6
CONTINUOUS
 62
    4
 10
79.433408971821308
 20
130.8328608284429
 11
79.137615813244381
 21
130.55367889390996
  0
LINE
  8
_1-8_小物
  6
CONTINUOUS
 62
    4
 10
79.137615813244381
 20
130.55367889390996
 11
78.914995615796187
 21
130.24248145937278
  0
LINE
  8
_1-8_小物
  6
CONTINUOUS
 62
    4
 10
78.914995615796187
 20
130.24248145937278
 11
78.772312581524943
 21
129.90872410140634
  0
LINE
  8
_1-8_小物
  6
CONTINUOUS
 62
    4
 10
78.772312581524943
 20
129.90872410140634
 11
78.71390206222587
 21
129.56254786844303
  0
LINE
  8
_1-8_小物
  6
CONTINUOUS
 62
    4
 10
78.71390206222587
 20
129.56254786844303
 11
78.741538831970715
 21
129.2144711501478
  0
LINE
  8
_1-8_小物
  6
CONTINUOUS
 62
    4
 10
78.741538831970715
 20
129.2144711501478
 11
78.854383161495676
 21
128.8750700814708
  0
LINE
  8
_1-8_小物
  6
CONTINUOUS
 62
    4
 10
78.854383161495676
 20
128.8750700814708
 11
79.0490063329501
 21
128.55465719213848
  0
LINE
  8
_1-8_小物
  6
CONTINUOUS
 62
    4
 10
79.0490063329501
 20
128.55465719213848
 11
79.319494819753459
 21
128.26296806565651
  0
LINE
  8
_1-8_小物
  6
CONTINUOUS
 62
    4
 10
79.319494819753459
 20
128.26296806565651
 11
79.657629966107976
 21
128.0088655285312
  0
LINE
  8
_1-8_小物
  6
CONTINUOUS
 62
    4
 10
79.657629966107976
 20
128.0088655285312
 11
80.053137706696333
 21
127.80007035777102
  0
LINE
  8
_1-8_小物
  6
CONTINUOUS
 62
    4
 10
80.053137706696333
 20
127.80007035777102
 11
80.494000738957297
 21
127.64292668898406
  0
LINE
  8
_1-8_小物
  6
CONTINUOUS
 62
    4
 10
80.494000738957297
 20
127.64292668898406
 11
80.96682366274311
 21
127.54220925302788
  0
LINE
  8
_1-8_小物
  6
CONTINUOUS
 62
    4
 10
80.96682366274311
 20
127.54220925302788
 11
81.457239992774475
 21
127.50097829822853
  0
LINE
  8
_1-8_小物
  6
CONTINUOUS
 62
    4
 10
81.457239992774475
 20
127.50097829822853
 11
81.950348677026014
 21
127.52048660628371
  0
LINE
  8
_1-8_小物
  6
CONTINUOUS
 62
    4
 10
81.950348677026014
 20
127.52048660628371
 11
82.431166857651789
 21
127.60014142712487
  0
LINE
  8
_1-8_小物
  6
CONTINUOUS
 62
    4
 10
82.431166857651789
 20
127.60014142712487
 11
82.597698099381958
 21
127.64292665856115
  0
LINE
  8
_1-8_小物
  6
CONTINUOUS
 62
    4
 10
82.718512396225748
 20
131.84018902839435
 11
82.718512396225748
 21
131.84018902839435
  0
LINE
  8
_1-8_小物
  6
CONTINUOUS
 62
    4
 10
82.718512396225748
 20
131.84018902839435
 11
82.158870931227966
 21
131.9573593833947
  0
LINE
  8
_1-8_小物
  6
CONTINUOUS
 62
    4
 10
82.158870931227966
 20
131.9573593833947
 11
81.580603119427835
 21
131.99986411701445
  0
LINE
  8
_1-8_小物
  6
CONTINUOUS
 62
    4
 10
81.580603119427835
 20
131.99986411701445
 11
81.001279335669281
 21
131.96641174443101
  0
LINE
  8
_1-8_小物
  6
CONTINUOUS
 62
    4
 10
81.001279335669281
 20
131.96641174443101
 11
80.438502039969819
 21
131.8580186990576
  0
LINE
  8
_1-8_小物
  6
CONTINUOUS
 62
    4
 10
80.438502039969819
 20
131.8580186990576
 11
79.909370935680229
 21
131.67797844872834
  0
LINE
  8
_1-8_小物
  6
CONTINUOUS
 62
    4
 10
79.909370935680229
 20
131.67797844872834
 11
79.429963403651087
 21
131.43176142534475
  0
LINE
  8
_1-8_小物
  6
CONTINUOUS
 62
    4
 10
79.429963403651087
 20
131.43176142534475
 11
79.014845999151206
 21
131.12684880857049
  0
LINE
  8
_1-8_小物
  6
CONTINUOUS
 62
    4
 10
79.014845999151206
 20
131.12684880857049
 11
78.676631854456744
 21
130.77250521397306
  0
LINE
  8
_1-8_小物
  6
CONTINUOUS
 62
    4
 10
78.676631854456744
 20
130.77250521397306
 11
78.425597435209639
 21
130.37949719236775
  0
LINE
  8
_1-8_小物
  6
CONTINUOUS
 62
    4
 10
78.425597435209639
 20
130.37949719236775
 11
78.269370295209171
 21
129.95976609361941
  0
LINE
  8
_1-8_小物
  6
CONTINUOUS
 62
    4
 10
78.269370295209171
 20
129.95976609361941
 11
78.212697317049489
 21
129.52606523476931
  0
LINE
  8
_1-8_小物
  6
CONTINUOUS
 62
    4
 10
78.212697317049489
 20
129.52606523476931
 11
78.257300480494095
 21
129.0915723969504
  0
LINE
  8
_1-8_小物
  6
CONTINUOUS
 62
    4
 10
78.257300480494095
 20
129.0915723969504
 11
78.401824540991996
 21
128.66948942517578
  0
LINE
  8
_1-8_小物
  6
CONTINUOUS
 62
    4
 10
78.401824540991996
 20
128.66948942517578
 11
78.641878208097665
 21
128.27264109695858
  0
LINE
  8
_1-8_小物
  6
CONTINUOUS
 62
    4
 10
78.641878208097665
 20
128.27264109695858
 11
78.970167572609114
 21
127.91308544793674
  0
LINE
  8
_1-8_小物
  6
CONTINUOUS
 62
    4
 10
78.970167572609114
 20
127.91308544793674
 11
79.376717728308108
 21
127.60174739456183
  0
LINE
  8
_1-8_小物
  6
CONTINUOUS
 62
    4
 10
79.376717728308108
 20
127.60174739456183
 11
79.849175854438016
 21
127.34808678604097
  0
LINE
  8
_1-8_小物
  6
CONTINUOUS
 62
    4
 10
79.849175854438016
 20
127.34808678604097
 11
80.37318654991175
 21
127.15981097160564
  0
LINE
  8
_1-8_小物
  6
CONTINUOUS
 62
    4
 10
80.37318654991175
 20
127.15981097160564
 11
80.932828014909546
 21
127.04264061660528
  0
LINE
  8
_1-8_小物
  6
CONTINUOUS
 62
    4
 10
80.932828014909546
 20
127.04264061660528
 11
81.511095826709678
 21
127.00013588298553
  0
LINE
  8
_1-8_小物
  6
CONTINUOUS
 62
    4
 10
81.511095826709678
 20
127.00013588298553
 11
82.090419610468231
 21
127.03358825556899
  0
LINE
  8
_1-8_小物
  6
CONTINUOUS
 62
    4
 10
82.090419610468231
 20
127.03358825556899
 11
82.653196906167693
 21
127.1419813009424
  0
LINE
  8
_1-8_小物
  6
CONTINUOUS
 62
    4
 10
82.653196906167693
 20
127.1419813009424
 11
82.718512309023168
 21
127.15981094702607
  0
ARC
  8
_1-8_小物
  6
CONTINUOUS
 62
    4
 10
89.869950203859005
 20
124.49999999999997
 40
5
 50
97.555517989925761
 51
105.76016573963415
  0
ARC
  8
_1-8_小物
  6
CONTINUOUS
 62
    4
 10
89.938278128307758
 20
123.99999999999997
 40
5
 50
98.346104300156512
 51
105.74141158032096
  0
ARC
  8
_1-8_小物
  6
CONTINUOUS
 62
    4
 10
89.938278128307758
 20
135
 40
5
 50
254.25858841967909
 51
261.65389569984347
  0
ARC
  8
_1-8_小物
  6
CONTINUOUS
 62
    4
 10
89.869950203859005
 20
134.5
 40
5
 50
254.23983426036591
 51
262.44448201007424
  0
LINE
  8
_1-8_小物
  6
CONTINUOUS
 62
    4
 10
91.879182806402085
 20
129.24999999999997
 11
118.21251613973541
 21
129.24999999999997
  0
LINE
  8
_1-8_小物
  6
CONTINUOUS
 62
    4
 10
91.879182806402085
 20
129.75
 11
118.21251613973541
 21
129.75
  0
LINE
  8
_1-8_小物
  6
CONTINUOUS
 62
    4
 10
147.87918280640207
 20
129.24999999999997
 11
121.54584947306876
 21
129.24999999999997
  0
LINE
  8
_1-8_小物
  6
CONTINUOUS
 62
    4
 10
147.87918280640207
 20
129.75
 11
121.54584947306876
 21
129.75
  0
TEXT
  8
_0-0_図面枠
 62
    4
 10
241.66666666666663
 20
128
 40
3
 41
1
 50
0
  1
（落下防止ワイヤー）
  0
INSERT
  2
-002-_2_
  8
_1-8_小物
 10
210
 20
148.5
 41
1
 42
1
 50
0
  0
LINE
  8
_1-8_小物
  6
CONTINUOUS
 62
    4
 10
357.03985321657842
 20
131.84018902839435
 11
351.17656837665947
 21
130.18752043233465
  0
LINE
  8
_1-8_小物
  6
CONTINUOUS
 62
    4
 10
357.16066740562405
 20
131.35707331101597
 11
351.24647145802516
 21
129.68796469593613
  0
LINE
  8
_1-8_小物
  6
CONTINUOUS
 62
    4
 10
357.03985321657842
 20
127.15981097160562
 11
351.17656837665947
 21
128.81247956766532
  0
LINE
  8
_1-8_小物
  6
CONTINUOUS
 62
    4
 10
357.16066740562405
 20
127.64292668898401
 11
351.24647145802516
 21
129.31203530406384
  0
LINE
  8
_1-8_小物
  6
CONTINUOUS
 62
    4
 10
357.1606675134222
 20
127.64292665856115
 11
357.1606675134222
 21
127.64292665856115
  0
LINE
  8
_1-8_小物
  6
CONTINUOUS
 62
    4
 10
357.1606675134222
 20
127.64292665856115
 11
357.63349044305437
 21
127.54220923628056
  0
LINE
  8
_1-8_小物
  6
CONTINUOUS
 62
    4
 10
357.63349044305437
 20
127.54220923628056
 11
358.1239067754791
 21
127.50097829566566
  0
LINE
  8
_1-8_小物
  6
CONTINUOUS
 62
    4
 10
358.1239067754791
 20
127.50097829566566
 11
358.61701545859825
 21
127.52048661798315
  0
LINE
  8
_1-8_小物
  6
CONTINUOUS
 62
    4
 10
358.61701545859825
 20
127.52048661798315
 11
359.09783363460025
 21
127.60014145273114
  0
LINE
  8
_1-8_小物
  6
CONTINUOUS
 62
    4
 10
359.09783363460025
 20
127.60014145273114
 11
359.55175188651305
 21
127.73752252806307
  0
LINE
  8
_1-8_小物
  6
CONTINUOUS
 62
    4
 10
359.55175188651305
 20
127.73752252806307
 11
359.96497813794605
 21
127.92845558952317
  0
LINE
  8
_1-8_小物
  6
CONTINUOUS
 62
    4
 10
359.96497813794605
 20
127.92845558952317
 11
360.32495671835193
 21
128.16713923265576
  0
LINE
  8
_1-8_小物
  6
CONTINUOUS
 62
    4
 10
360.32495671835193
 20
128.16713923265576
 11
360.62074986072309
 21
128.44632117574403
  0
LINE
  8
_1-8_小物
  6
CONTINUOUS
 62
    4
 10
360.62074986072309
 20
128.44632117574403
 11
360.84337004010706
 21
128.75751861672009
  0
LINE
  8
_1-8_小物
  6
CONTINUOUS
 62
    4
 10
360.84337004010706
 20
128.75751861672009
 11
360.98605305500456
 21
129.09127597881343
  0
LINE
  8
_1-8_小物
  6
CONTINUOUS
 62
    4
 10
360.98605305500456
 20
129.09127597881343
 11
361.04446355420902
 21
129.43745221346614
  0
LINE
  8
_1-8_小物
  6
CONTINUOUS
 62
    4
 10
361.04446355420902
 20
129.43745221346614
 11
361.01682676425924
 21
129.78552893096202
  0
LINE
  8
_1-8_小物
  6
CONTINUOUS
 62
    4
 10
361.01682676425924
 20
129.78552893096202
 11
360.90398241503294
 21
130.12492999637522
  0
LINE
  8
_1-8_小物
  6
CONTINUOUS
 62
    4
 10
360.90398241503294
 20
130.12492999637522
 11
360.70935922497932
 21
130.44534288007839
  0
LINE
  8
_1-8_小物
  6
CONTINUOUS
 62
    4
 10
360.70935922497932
 20
130.44534288007839
 11
360.4388707212442
 21
130.73703199873694
  0
LINE
  8
_1-8_小物
  6
CONTINUOUS
 62
    4
 10
360.4388707212442
 20
130.73703199873694
 11
360.1007355601397
 21
130.99113452608228
  0
LINE
  8
_1-8_小物
  6
CONTINUOUS
 62
    4
 10
360.1007355601397
 20
130.99113452608228
 11
359.70522780743136
 21
131.19992968540308
  0
LINE
  8
_1-8_小物
  6
CONTINUOUS
 62
    4
 10
359.70522780743136
 20
131.19992968540308
 11
359.26436476604857
 21
131.35707334143885
  0
LINE
  8
_1-8_小物
  6
CONTINUOUS
 62
    4
 10
359.26436476604857
 20
131.35707334143885
 11
358.7915418364164
 21
131.45779076371943
  0
LINE
  8
_1-8_小物
  6
CONTINUOUS
 62
    4
 10
358.7915418364164
 20
131.45779076371943
 11
358.30112550399167
 21
131.49902170433435
  0
LINE
  8
_1-8_小物
  6
CONTINUOUS
 62
    4
 10
358.30112550399167
 20
131.49902170433435
 11
357.80801682087252
 21
131.47951338201685
  0
LINE
  8
_1-8_小物
  6
CONTINUOUS
 62
    4
 10
357.80801682087252
 20
131.47951338201685
 11
357.32719864487052
 21
131.39985854726888
  0
LINE
  8
_1-8_小物
  6
CONTINUOUS
 62
    4
 10
357.32719864487052
 20
131.39985854726888
 11
357.16066740562394
 21
131.35707331101594
  0
LINE
  8
_1-8_小物
  6
CONTINUOUS
 62
    4
 10
357.039853303781
 20
127.15981094702607
 11
357.039853303781
 21
127.15981094702607
  0
LINE
  8
_1-8_小物
  6
CONTINUOUS
 62
    4
 10
357.039853303781
 20
127.15981094702607
 11
357.5994947731449
 21
127.04264060375607
  0
LINE
  8
_1-8_小物
  6
CONTINUOUS
 62
    4
 10
357.5994947731449
 20
127.04264060375607
 11
358.1777625865289
 21
127.00013588225708
  0
LINE
  8
_1-8_小物
  6
CONTINUOUS
 62
    4
 10
358.1777625865289
 20
127.00013588225708
 11
358.75708636904091
 21
127.03358826698343
  0
LINE
  8
_1-8_小物
  6
CONTINUOUS
 62
    4
 10
358.75708636904091
 20
127.03358826698343
 11
359.31986366070134
 21
127.14198132415294
  0
LINE
  8
_1-8_小物
  6
CONTINUOUS
 62
    4
 10
359.31986366070134
 20
127.14198132415294
 11
359.84899475828206
 21
127.32202158557303
  0
LINE
  8
_1-8_小物
  6
CONTINUOUS
 62
    4
 10
359.84899475828206
 20
127.32202158557303
 11
360.32840228113639
 21
127.56823861900523
  0
LINE
  8
_1-8_小物
  6
CONTINUOUS
 62
    4
 10
360.32840228113639
 20
127.56823861900523
 11
360.7435196742743
 21
127.87315124448052
  0
LINE
  8
_1-8_小物
  6
CONTINUOUS
 62
    4
 10
360.7435196742743
 20
127.87315124448052
 11
361.08173380576483
 21
128.2274948461671
  0
LINE
  8
_1-8_小物
  6
CONTINUOUS
 62
    4
 10
361.08173380576483
 20
128.2274948461671
 11
361.33276821036725
 21
128.62050287303421
  0
LINE
  8
_1-8_小物
  6
CONTINUOUS
 62
    4
 10
361.33276821036725
 20
128.62050287303421
 11
361.48899533472729
 21
129.04023397505713
  0
LINE
  8
_1-8_小物
  6
CONTINUOUS
 62
    4
 10
361.48899533472729
 20
129.04023397505713
 11
361.54566829672592
 21
129.47393483509512
  0
LINE
  8
_1-8_小物
  6
CONTINUOUS
 62
    4
 10
361.54566829672592
 20
129.47393483509512
 11
361.50106511709077
 21
129.90842767197915
  0
LINE
  8
_1-8_小物
  6
CONTINUOUS
 62
    4
 10
361.50106511709077
 20
129.90842767197915
 11
361.35654104086478
 21
130.33051064072447
  0
LINE
  8
_1-8_小物
  6
CONTINUOUS
 62
    4
 10
361.35654104086478
 20
130.33051064072447
 11
361.11648735897131
 21
130.72735896391001
  0
LINE
  8
_1-8_小物
  6
CONTINUOUS
 62
    4
 10
361.11648735897131
 20
130.72735896391001
 11
360.78819798106173
 21
131.08691460605075
  0
LINE
  8
_1-8_小物
  6
CONTINUOUS
 62
    4
 10
360.78819798106173
 20
131.08691460605075
 11
360.38164781376133
 21
131.3982526509042
  0
LINE
  8
_1-8_小物
  6
CONTINUOUS
 62
    4
 10
360.38164781376133
 20
131.3982526509042
 11
359.90918967817925
 21
131.6519132495221
  0
LINE
  8
_1-8_小物
  6
CONTINUOUS
 62
    4
 10
359.90918967817925
 20
131.6519132495221
 11
359.38517897568977
 21
131.84018905297393
  0
LINE
  8
_1-8_小物
  6
CONTINUOUS
 62
    4
 10
359.38517897568977
 20
131.84018905297393
 11
358.82553750632587
 21
131.95735939624393
  0
LINE
  8
_1-8_小物
  6
CONTINUOUS
 62
    4
 10
358.82553750632587
 20
131.95735939624393
 11
358.24726969294187
 21
131.99986411774293
  0
LINE
  8
_1-8_小物
  6
CONTINUOUS
 62
    4
 10
358.24726969294187
 20
131.99986411774293
 11
357.66794591042986
 21
131.96641173301657
  0
LINE
  8
_1-8_小物
  6
CONTINUOUS
 62
    4
 10
357.66794591042986
 20
131.96641173301657
 11
357.10516861876948
 21
131.85801867584706
  0
LINE
  8
_1-8_小物
  6
CONTINUOUS
 62
    4
 10
357.10516861876948
 20
131.85801867584706
 11
357.03985321657842
 21
131.84018902839438
  0
ARC
  8
_1-8_小物
  6
CONTINUOUS
 62
    4
 10
349.88841540894515
 20
124.49999999999997
 40
5
 50
74.239834260366322
 51
82.444482010074083
  0
ARC
  8
_1-8_小物
  6
CONTINUOUS
 62
    4
 10
349.82008748449636
 20
123.99999999999997
 40
5
 50
74.258588419678418
 51
81.653895699842849
  0
ARC
  8
_1-8_小物
  6
CONTINUOUS
 62
    4
 10
349.82008748449636
 20
135
 40
5
 50
278.34610430015715
 51
285.7414115803216
  0
ARC
  8
_1-8_小物
  6
CONTINUOUS
 62
    4
 10
349.88841540894515
 20
134.5
 40
5
 50
277.55551798992593
 51
285.76016573963363
  0
INSERT
  2
-003-_3_
  8
_1-8_小物
 10
210
 20
148.5
 41
1
 42
1
 50
0
  0
LINE
  8
_1-8_小物
  6
CONTINUOUS
 62
    4
 10
282.71851239622572
 20
131.84018902839435
 11
288.58179723614467
 21
130.18752043233465
  0
LINE
  8
_1-8_小物
  6
CONTINUOUS
 62
    4
 10
282.59769820718009
 20
131.35707331101597
 11
288.51189415477899
 21
129.68796469593613
  0
LINE
  8
_1-8_小物
  6
CONTINUOUS
 62
    4
 10
282.71851239622572
 20
127.15981097160562
 11
288.58179723614467
 21
128.81247956766532
  0
LINE
  8
_1-8_小物
  6
CONTINUOUS
 62
    4
 10
282.59769820718009
 20
127.64292668898401
 11
288.51189415477899
 21
129.31203530406384
  0
LINE
  8
_1-8_小物
  6
CONTINUOUS
 62
    4
 10
282.5976982071802
 20
131.35707331101594
 11
282.5976982071802
 21
131.35707331101594
  0
LINE
  8
_1-8_小物
  6
CONTINUOUS
 62
    4
 10
282.5976982071802
 20
131.35707331101594
 11
282.12487528339437
 21
131.45779074697211
  0
LINE
  8
_1-8_小物
  6
CONTINUOUS
 62
    4
 10
282.12487528339437
 20
131.45779074697211
 11
281.63445895336304
 21
131.49902170177148
  0
LINE
  8
_1-8_小物
  6
CONTINUOUS
 62
    4
 10
281.63445895336304
 20
131.49902170177148
 11
281.14135026911151
 21
131.47951339371627
  0
LINE
  8
_1-8_小物
  6
CONTINUOUS
 62
    4
 10
281.14135026911151
 20
131.47951339371627
 11
280.6605320884857
 21
131.39985857287513
  0
LINE
  8
_1-8_小物
  6
CONTINUOUS
 62
    4
 10
280.6605320884857
 20
131.39985857287513
 11
280.20661382859828
 21
131.262477510672
  0
LINE
  8
_1-8_小物
  6
CONTINUOUS
 62
    4
 10
280.20661382859828
 20
131.262477510672
 11
279.79338756608217
 21
131.07154446116377
  0
LINE
  8
_1-8_小物
  6
CONTINUOUS
 62
    4
 10
279.79338756608217
 20
131.07154446116377
 11
279.43340897182128
 21
130.8328608284429
  0
LINE
  8
_1-8_小物
  6
CONTINUOUS
 62
    4
 10
279.43340897182128
 20
130.8328608284429
 11
279.13761581324439
 21
130.55367889390996
  0
LINE
  8
_1-8_小物
  6
CONTINUOUS
 62
    4
 10
279.13761581324439
 20
130.55367889390996
 11
278.91499561579622
 21
130.24248145937278
  0
LINE
  8
_1-8_小物
  6
CONTINUOUS
 62
    4
 10
278.91499561579622
 20
130.24248145937278
 11
278.77231258152494
 21
129.90872410140634
  0
LINE
  8
_1-8_小物
  6
CONTINUOUS
 62
    4
 10
278.77231258152494
 20
129.90872410140634
 11
278.71390206222588
 21
129.56254786844303
  0
LINE
  8
_1-8_小物
  6
CONTINUOUS
 62
    4
 10
278.71390206222588
 20
129.56254786844303
 11
278.74153883197073
 21
129.2144711501478
  0
LINE
  8
_1-8_小物
  6
CONTINUOUS
 62
    4
 10
278.74153883197073
 20
129.2144711501478
 11
278.85438316149566
 21
128.8750700814708
  0
LINE
  8
_1-8_小物
  6
CONTINUOUS
 62
    4
 10
278.85438316149566
 20
128.8750700814708
 11
279.04900633295011
 21
128.55465719213848
  0
LINE
  8
_1-8_小物
  6
CONTINUOUS
 62
    4
 10
279.04900633295011
 20
128.55465719213848
 11
279.31949481975346
 21
128.26296806565651
  0
LINE
  8
_1-8_小物
  6
CONTINUOUS
 62
    4
 10
279.31949481975346
 20
128.26296806565651
 11
279.657629966108
 21
128.0088655285312
  0
LINE
  8
_1-8_小物
  6
CONTINUOUS
 62
    4
 10
279.657629966108
 20
128.0088655285312
 11
280.0531377066963
 21
127.80007035777102
  0
LINE
  8
_1-8_小物
  6
CONTINUOUS
 62
    4
 10
280.0531377066963
 20
127.80007035777102
 11
280.49400073895731
 21
127.64292668898406
  0
LINE
  8
_1-8_小物
  6
CONTINUOUS
 62
    4
 10
280.49400073895731
 20
127.64292668898406
 11
280.96682366274314
 21
127.54220925302788
  0
LINE
  8
_1-8_小物
  6
CONTINUOUS
 62
    4
 10
280.96682366274314
 20
127.54220925302788
 11
281.45723999277448
 21
127.50097829822853
  0
LINE
  8
_1-8_小物
  6
CONTINUOUS
 62
    4
 10
281.45723999277448
 20
127.50097829822853
 11
281.950348677026
 21
127.52048660628371
  0
LINE
  8
_1-8_小物
  6
CONTINUOUS
 62
    4
 10
281.950348677026
 20
127.52048660628371
 11
282.43116685765176
 21
127.60014142712487
  0
LINE
  8
_1-8_小物
  6
CONTINUOUS
 62
    4
 10
282.43116685765176
 20
127.60014142712487
 11
282.59769809938194
 21
127.64292665856115
  0
LINE
  8
_1-8_小物
  6
CONTINUOUS
 62
    4
 10
282.71851239622572
 20
131.84018902839438
 11
282.71851239622572
 21
131.84018902839438
  0
LINE
  8
_1-8_小物
  6
CONTINUOUS
 62
    4
 10
282.71851239622572
 20
131.84018902839438
 11
282.15887093122791
 21
131.9573593833947
  0
LINE
  8
_1-8_小物
  6
CONTINUOUS
 62
    4
 10
282.15887093122791
 20
131.9573593833947
 11
281.58060311942779
 21
131.99986411701445
  0
LINE
  8
_1-8_小物
  6
CONTINUOUS
 62
    4
 10
281.58060311942779
 20
131.99986411701445
 11
281.00127933566927
 21
131.96641174443101
  0
LINE
  8
_1-8_小物
  6
CONTINUOUS
 62
    4
 10
281.00127933566927
 20
131.96641174443101
 11
280.43850203996976
 21
131.8580186990576
  0
LINE
  8
_1-8_小物
  6
CONTINUOUS
 62
    4
 10
280.43850203996976
 20
131.8580186990576
 11
279.90937093568022
 21
131.67797844872834
  0
LINE
  8
_1-8_小物
  6
CONTINUOUS
 62
    4
 10
279.90937093568022
 20
131.67797844872834
 11
279.42996340365107
 21
131.43176142534472
  0
LINE
  8
_1-8_小物
  6
CONTINUOUS
 62
    4
 10
279.42996340365107
 20
131.43176142534472
 11
279.01484599915119
 21
131.12684880857049
  0
LINE
  8
_1-8_小物
  6
CONTINUOUS
 62
    4
 10
279.01484599915119
 20
131.12684880857049
 11
278.67663185445673
 21
130.77250521397303
  0
LINE
  8
_1-8_小物
  6
CONTINUOUS
 62
    4
 10
278.67663185445673
 20
130.77250521397303
 11
278.42559743520962
 21
130.37949719236772
  0
LINE
  8
_1-8_小物
  6
CONTINUOUS
 62
    4
 10
278.42559743520962
 20
130.37949719236772
 11
278.26937029520917
 21
129.95976609361938
  0
LINE
  8
_1-8_小物
  6
CONTINUOUS
 62
    4
 10
278.26937029520917
 20
129.95976609361938
 11
278.2126973170495
 21
129.52606523476928
  0
LINE
  8
_1-8_小物
  6
CONTINUOUS
 62
    4
 10
278.2126973170495
 20
129.52606523476928
 11
278.25730048049411
 21
129.09157239695037
  0
LINE
  8
_1-8_小物
  6
CONTINUOUS
 62
    4
 10
278.25730048049411
 20
129.09157239695037
 11
278.40182454099198
 21
128.66948942517575
  0
LINE
  8
_1-8_小物
  6
CONTINUOUS
 62
    4
 10
278.40182454099198
 20
128.66948942517575
 11
278.64187820809769
 21
128.27264109695858
  0
LINE
  8
_1-8_小物
  6
CONTINUOUS
 62
    4
 10
278.64187820809769
 20
128.27264109695858
 11
278.97016757260911
 21
127.91308544793672
  0
LINE
  8
_1-8_小物
  6
CONTINUOUS
 62
    4
 10
278.97016757260911
 20
127.91308544793672
 11
279.37671772830811
 21
127.60174739456181
  0
LINE
  8
_1-8_小物
  6
CONTINUOUS
 62
    4
 10
279.37671772830811
 20
127.60174739456181
 11
279.84917585443804
 21
127.34808678604097
  0
LINE
  8
_1-8_小物
  6
CONTINUOUS
 62
    4
 10
279.84917585443804
 20
127.34808678604097
 11
280.37318654991179
 21
127.15981097160564
  0
LINE
  8
_1-8_小物
  6
CONTINUOUS
 62
    4
 10
280.37318654991179
 20
127.15981097160564
 11
280.93282801490955
 21
127.04264061660528
  0
LINE
  8
_1-8_小物
  6
CONTINUOUS
 62
    4
 10
280.93282801490955
 20
127.04264061660528
 11
281.51109582670972
 21
127.00013588298553
  0
LINE
  8
_1-8_小物
  6
CONTINUOUS
 62
    4
 10
281.51109582670972
 20
127.00013588298553
 11
282.09041961046825
 21
127.03358825556899
  0
LINE
  8
_1-8_小物
  6
CONTINUOUS
 62
    4
 10
282.09041961046825
 20
127.03358825556899
 11
282.65319690616769
 21
127.14198130094242
  0
LINE
  8
_1-8_小物
  6
CONTINUOUS
 62
    4
 10
282.65319690616769
 20
127.14198130094242
 11
282.71851230902314
 21
127.15981094702607
  0
ARC
  8
_1-8_小物
  6
CONTINUOUS
 62
    4
 10
289.86995020385899
 20
124.49999999999997
 40
5
 50
97.555517989925917
 51
105.76016573963432
  0
ARC
  8
_1-8_小物
  6
CONTINUOUS
 62
    4
 10
289.93827812830773
 20
123.99999999999997
 40
5
 50
98.346104300156512
 51
105.74141158032096
  0
ARC
  8
_1-8_小物
  6
CONTINUOUS
 62
    4
 10
289.93827812830773
 20
135
 40
5
 50
254.25858841967909
 51
261.65389569984347
  0
ARC
  8
_1-8_小物
  6
CONTINUOUS
 62
    4
 10
289.86995020385899
 20
134.5
 40
5
 50
254.23983426036577
 51
262.44448201007407
  0
LINE
  8
_1-8_小物
  6
CONTINUOUS
 62
    4
 10
291.87918280640207
 20
129.24999999999997
 11
318.21251613973538
 21
129.24999999999997
  0
LINE
  8
_1-8_小物
  6
CONTINUOUS
 62
    4
 10
291.87918280640207
 20
129.75
 11
318.21251613973538
 21
129.75
  0
LINE
  8
_1-8_小物
  6
CONTINUOUS
 62
    4
 10
347.87918280640207
 20
129.24999999999997
 11
321.54584947306876
 21
129.24999999999997
  0
LINE
  8
_1-8_小物
  6
CONTINUOUS
 62
    4
 10
347.87918280640207
 20
129.75
 11
321.54584947306876
 21
129.75
  0
TEXT
  8
_0-0_図面枠
 62
    4
 10
20
 20
280
 40
3.2000000000000002
 41
1
 50
0
  1
（ステンレス５０タイプ）
  0
TEXT
  8
_0-0_図面枠
 62
    4
 10
220
 20
280
 40
3.2000000000000002
 41
1
 50
0
  1
（ステンレス５０タイプ）
  0
TEXT
  8
_0-0_図面枠
 62
    4
 10
30
 20
270
 40
3.2000000000000002
 41
1
 50
0
  1
◇天井＋天井（５０ＵＵＧ－Ｓ）　Ｓ＝１／３
  0
TEXT
  8
_0-0_図面枠
 62
    4
 10
230
 20
270
 40
3.2000000000000002
 41
1
 50
0
  1
◇天井＋天井コーナー（５０ＵＣＧ－Ｓ）　Ｓ＝１／３
  0
TEXT
  8
_0-0_図面枠
 62
    4
 10
48.400007499999987
 20
69.400003999999953
 40
3.2000000000000002
 41
1
 50
0
  1
ガスケットＧＳ
  0
TEXT
  8
_0-0_図面枠
 62
    4
 10
248.40000750000002
 20
63.400003999999896
 40
3.2000000000000002
 41
1
 50
0
  1
ガスケットＧＳ
  0
TEXT
  8
_0-0_図面枠
 62
    4
 10
48.400007499999987
 20
99.400003999999953
 40
3.2000000000000002
 41
1
 50
0
  1
ＵＵＧキャップ(Ａ)Ｓ
  0
TEXT
  8
_0-0_図面枠
 62
    4
 10
48.400007499999987
 20
93.400003999999953
 40
3.2000000000000002
 41
1
 50
0
  1
ＵＵＧホルダー(Ａ)
  0
TEXT
  8
_0-0_図面枠
 62
    4
 10
248.40000750000002
 20
99.400003999999896
 40
3.2000000000000002
 41
1
 50
0
  1
ＵＣＧキャップ(Ａ)Ｓ
  0
TEXT
  8
_0-0_図面枠
 62
    4
 10
248.40000750000002
 20
93.400003999999896
 40
3.2000000000000002
 41
1
 50
0
  1
ＵＣＧホルダー(Ａ)
  0
TEXT
  8
_0-0_図面枠
 62
    4
 10
248.40000750000013
 20
69.400003999999953
 40
3.2000000000000002
 41
1
 50
0
  1
アンカープラグ
  0
LINE
  8
_1-0_躯体
  6
CONTINUOUS
 62
    4
 10
86.083333666666604
 20
232.33333366666673
 11
97.749999666666639
 21
232.33333366666673
  0
LINE
  8
_1-0_躯体
  6
CONTINUOUS
 62
    4
 10
99.999999666666639
 20
234.00000066666669
 11
101.66666666666664
 21
234.00000066666669
  0
LINE
  8
_1-0_躯体
  6
CONTINUOUS
 62
    4
 10
83.833333666666604
 20
234.00000066666669
 11
73.33333366666659
 21
234.00000066666669
  0
LINE
  8
_1-0_躯体
  6
CONTINUOUS
 62
    4
 10
101.66666666666664
 20
234.00000066666669
 11
101.66666666666664
 21
221.33333366666673
  0
LINE
  8
_1-0_躯体
  6
CONTINUOUS
 62
    4
 10
101.66666666666664
 20
211.66666666666666
 11
101.66666666666664
 21
215.00000066666666
  0
LINE
  8
_1-0_躯体
  6
CONTINUOUS
 62
    4
 10
101.66666666666664
 20
215.00000066666666
 11
73.33333366666659
 21
215.00000066666666
  0
LINE
  8
_1-0_躯体
  6
CONTINUOUS
 62
    4
 10
73.33333366666659
 20
213.66666666666666
 11
101.66666666666664
 21
213.66666666666666
  0
LINE
  8
_1-0_躯体
  6
CONTINUOUS
 62
    4
 10
97.999999666666639
 20
221.33333366666673
 11
101.66666666666664
 21
221.33333366666673
  0
LINE
  8
_1-0_躯体
  6
CONTINUOUS
 62
    4
 10
85.833333666666604
 20
221.33333366666673
 11
73.33333366666659
 21
221.33333366666673
  0
LINE
  8
_1-0_躯体
  6
CONTINUOUS
 62
    4
 10
73.33333366666659
 20
214.3333336666667
 11
101.66666666666664
 21
214.3333336666667
  0
LINE
  8
_1-0_躯体
  6
CONTINUOUS
 62
    4
 10
84.583333666666604
 20
215.16666666666666
 11
85.54398866666665
 21
215.16666666666666
  0
LINE
  8
_1-0_躯体
  6
CONTINUOUS
 62
    4
 10
84.583333666666604
 20
215.00000066666666
 11
85.583333666666604
 21
215.00000066666666
  0
LINE
  8
_1-0_躯体
  6
CONTINUOUS
 62
    4
 10
91.583333666666604
 20
215.00000066666666
 11
91.916666666666643
 21
215.16666666666666
  0
LINE
  8
_1-0_躯体
  6
CONTINUOUS
 62
    4
 10
91.916666666666643
 20
215.16666666666666
 11
92.249999666666639
 21
215.00000066666666
  0
LINE
  8
_1-0_躯体
  6
CONTINUOUS
 62
    4
 10
90.249999666666639
 20
215.00000066666666
 11
91.583333666666604
 21
215.00000066666666
  0
LINE
  8
_1-0_躯体
  6
CONTINUOUS
 62
    4
 10
90.289344666666651
 20
215.16666666666666
 11
91.54398866666665
 21
215.16666666666666
  0
LINE
  8
_1-0_躯体
  6
CONTINUOUS
 62
    4
 10
91.54398866666665
 20
215.16666666666666
 11
91.916666666666643
 21
215.35300566666666
  0
LINE
  8
_1-0_躯体
  6
CONTINUOUS
 62
    4
 10
91.916666666666643
 20
215.35300566666666
 11
92.289344666666636
 21
215.16666666666666
  0
LINE
  8
_1-0_躯体
  6
CONTINUOUS
 62
    4
 10
84.749999666666639
 20
220.33333366666673
 11
84.916666666666643
 21
220.33333366666673
  0
LINE
  8
_1-0_躯体
  6
CONTINUOUS
 62
    4
 10
84.916666666666643
 20
220.33333366666673
 11
84.916666666666643
 21
220.83333366666673
  0
ARC
  8
_1-0_躯体
  6
CONTINUOUS
 62
    4
 10
84.416666666666643
 20
220.83333366666673
 40
0.5
 50
0
 51
90
  0
LINE
  8
_1-0_躯体
  6
CONTINUOUS
 62
    4
 10
84.083333666666604
 20
221.33333366666673
 11
84.416666666666643
 21
221.33333366666673
  0
ARC
  8
_1-0_躯体
  6
CONTINUOUS
 62
    4
 10
84.083333666666604
 20
220.83333366666673
 40
0.5
 50
90
 51
180
  0
LINE
  8
_1-0_躯体
  6
CONTINUOUS
 62
    4
 10
83.583333666666604
 20
220.83333366666673
 11
83.583333666666604
 21
216.00000066666666
  0
ARC
  8
_1-0_躯体
  6
CONTINUOUS
 62
    4
 10
84.416666666666643
 20
220.83333366666673
 40
0.3333329999999999
 50
0
 51
90
  0
LINE
  8
_1-0_躯体
  6
CONTINUOUS
 62
    4
 10
84.083333666666604
 20
221.16666666666669
 11
84.416666666666643
 21
221.16666666666669
  0
ARC
  8
_1-0_躯体
  6
CONTINUOUS
 62
    4
 10
84.083333666666604
 20
220.83333366666673
 40
0.3333329999999999
 50
90
 51
180
  0
ARC
  8
_1-0_躯体
  6
CONTINUOUS
 62
    4
 10
84.583333666666604
 20
216.00000066666666
 40
0.8333329999999998
 50
180
 51
270
  0
LINE
  8
_1-0_躯体
  6
CONTINUOUS
 62
    4
 10
83.749999666666639
 20
220.83333366666673
 11
83.749999666666639
 21
216.00000066666666
  0
LINE
  8
_1-0_躯体
  6
CONTINUOUS
 62
    4
 10
84.749999666666639
 20
220.33333366666673
 11
84.749999666666639
 21
220.83333366666673
  0
ARC
  8
_1-0_躯体
  6
CONTINUOUS
 62
    4
 10
84.583333666666604
 20
216.00000066666666
 40
1
 50
180
 51
270
  0
LINE
  8
_1-0_躯体
  6
CONTINUOUS
 62
    4
 10
99.083333666666604
 20
220.33333366666673
 11
98.916666666666643
 21
220.33333366666673
  0
LINE
  8
_1-0_躯体
  6
CONTINUOUS
 62
    4
 10
98.916666666666643
 20
220.33333366666673
 11
98.916666666666643
 21
220.83333366666673
  0
ARC
  8
_1-0_躯体
  6
CONTINUOUS
 62
    4
 10
99.416666666666643
 20
220.83333366666673
 40
0.5
 50
90
 51
180
  0
LINE
  8
_1-0_躯体
  6
CONTINUOUS
 62
    4
 10
99.749999666666639
 20
221.33333366666673
 11
99.416666666666643
 21
221.33333366666673
  0
ARC
  8
_1-0_躯体
  6
CONTINUOUS
 62
    4
 10
99.749999666666639
 20
220.83333366666673
 40
0.5
 50
0
 51
90
  0
LINE
  8
_1-0_躯体
  6
CONTINUOUS
 62
    4
 10
100.24999966666664
 20
220.83333366666673
 11
100.24999966666664
 21
216.00000066666666
  0
ARC
  8
_1-0_躯体
  6
CONTINUOUS
 62
    4
 10
99.416666666666643
 20
220.83333366666673
 40
0.3333329999999999
 50
90
 51
180
  0
LINE
  8
_1-0_躯体
  6
CONTINUOUS
 62
    4
 10
99.749999666666639
 20
221.16666666666669
 11
99.416666666666643
 21
221.16666666666669
  0
ARC
  8
_1-0_躯体
  6
CONTINUOUS
 62
    4
 10
99.749999666666639
 20
220.83333366666673
 40
0.3333329999999999
 50
0
 51
90
  0
ARC
  8
_1-0_躯体
  6
CONTINUOUS
 62
    4
 10
99.249999666666639
 20
216.00000066666666
 40
0.8333329999999998
 50
270
 51
0
  0
LINE
  8
_1-0_躯体
  6
CONTINUOUS
 62
    4
 10
100.0833336666666
 20
220.83333366666673
 11
100.0833336666666
 21
216.00000066666666
  0
LINE
  8
_1-0_躯体
  6
CONTINUOUS
 62
    4
 10
99.083333666666604
 20
220.33333366666673
 11
99.083333666666604
 21
220.83333366666673
  0
ARC
  8
_1-0_躯体
  6
CONTINUOUS
 62
    4
 10
99.249999666666639
 20
216.00000066666666
 40
1
 50
270
 51
0
  0
LINE
  8
_1-0_躯体
  6
CONTINUOUS
 62
    4
 10
85.583333666666604
 20
215.00000066666666
 11
85.916666666666643
 21
215.16666666666666
  0
LINE
  8
_1-0_躯体
  6
CONTINUOUS
 62
    4
 10
85.916666666666643
 20
215.16666666666666
 11
86.416666666666643
 21
215.00000066666666
  0
LINE
  8
_1-0_躯体
  6
CONTINUOUS
 62
    4
 10
85.54398866666665
 20
215.16666666666666
 11
85.903878666666643
 21
215.34661166666666
  0
LINE
  8
_1-0_躯体
  6
CONTINUOUS
 62
    4
 10
85.903878666666643
 20
215.34661166666666
 11
86.416666666666643
 21
215.17568266666663
  0
LINE
  8
_1-0_躯体
  6
CONTINUOUS
 62
    4
 10
86.916666666666643
 20
215.16666666666666
 11
86.416666666666643
 21
215.00000066666666
  0
LINE
  8
_1-0_躯体
  6
CONTINUOUS
 62
    4
 10
86.416666666666643
 20
215.17568266666663
 11
86.916666666666643
 21
215.34234866666671
  0
LINE
  8
_1-0_躯体
  6
CONTINUOUS
 62
    4
 10
87.916666666666643
 20
215.16666666666666
 11
87.416666666666643
 21
215.00000066666666
  0
LINE
  8
_1-0_躯体
  6
CONTINUOUS
 62
    4
 10
87.416666666666643
 20
215.17568266666663
 11
87.916666666666643
 21
215.34234866666671
  0
LINE
  8
_1-0_躯体
  6
CONTINUOUS
 62
    4
 10
86.916666666666643
 20
215.16666666666666
 11
87.416666666666643
 21
215.00000066666666
  0
LINE
  8
_1-0_躯体
  6
CONTINUOUS
 62
    4
 10
87.416666666666643
 20
215.17568266666663
 11
86.916666666666643
 21
215.34234866666671
  0
LINE
  8
_1-0_躯体
  6
CONTINUOUS
 62
    4
 10
89.916666666666643
 20
215.16666666666666
 11
89.416666666666643
 21
215.00000066666666
  0
LINE
  8
_1-0_躯体
  6
CONTINUOUS
 62
    4
 10
89.929454666666643
 20
215.34661166666666
 11
89.416666666666643
 21
215.17568266666663
  0
LINE
  8
_1-0_躯体
  6
CONTINUOUS
 62
    4
 10
88.916666666666643
 20
215.16666666666666
 11
89.416666666666643
 21
215.00000066666666
  0
LINE
  8
_1-0_躯体
  6
CONTINUOUS
 62
    4
 10
89.416666666666643
 20
215.17568266666663
 11
88.916666666666643
 21
215.34234866666671
  0
LINE
  8
_1-0_躯体
  6
CONTINUOUS
 62
    4
 10
87.916666666666643
 20
215.16666666666666
 11
88.416666666666643
 21
215.00000066666666
  0
LINE
  8
_1-0_躯体
  6
CONTINUOUS
 62
    4
 10
88.416666666666643
 20
215.17568266666663
 11
87.916666666666643
 21
215.34234866666671
  0
LINE
  8
_1-0_躯体
  6
CONTINUOUS
 62
    4
 10
88.916666666666643
 20
215.16666666666666
 11
88.416666666666643
 21
215.00000066666666
  0
LINE
  8
_1-0_躯体
  6
CONTINUOUS
 62
    4
 10
88.416666666666643
 20
215.17568266666663
 11
88.916666666666643
 21
215.34234866666671
  0
LINE
  8
_1-0_躯体
  6
CONTINUOUS
 62
    4
 10
90.249999666666639
 20
215.00000066666666
 11
89.916666666666643
 21
215.16666666666666
  0
LINE
  8
_1-0_躯体
  6
CONTINUOUS
 62
    4
 10
90.289344666666651
 20
215.16666666666666
 11
89.929454666666643
 21
215.34661166666666
  0
LINE
  8
_1-0_躯体
  6
CONTINUOUS
 62
    4
 10
93.583333666666604
 20
215.00000066666666
 11
92.249999666666639
 21
215.00000066666666
  0
LINE
  8
_1-0_躯体
  6
CONTINUOUS
 62
    4
 10
93.54398866666665
 20
215.16666666666666
 11
92.289344666666636
 21
215.16666666666666
  0
LINE
  8
_1-0_躯体
  6
CONTINUOUS
 62
    4
 10
98.249999666666639
 20
215.00000066666666
 11
97.916666666666643
 21
215.16666666666666
  0
LINE
  8
_1-0_躯体
  6
CONTINUOUS
 62
    4
 10
97.916666666666643
 20
215.16666666666666
 11
97.416666666666643
 21
215.00000066666666
  0
LINE
  8
_1-0_躯体
  6
CONTINUOUS
 62
    4
 10
98.289344666666636
 20
215.16666666666666
 11
97.929454666666643
 21
215.34661166666666
  0
LINE
  8
_1-0_躯体
  6
CONTINUOUS
 62
    4
 10
97.929454666666643
 20
215.34661166666666
 11
97.416666666666643
 21
215.17568266666663
  0
LINE
  8
_1-0_躯体
  6
CONTINUOUS
 62
    4
 10
96.916666666666643
 20
215.16666666666666
 11
97.416666666666643
 21
215.00000066666666
  0
LINE
  8
_1-0_躯体
  6
CONTINUOUS
 62
    4
 10
97.416666666666643
 20
215.17568266666663
 11
96.916666666666643
 21
215.34234866666671
  0
LINE
  8
_1-0_躯体
  6
CONTINUOUS
 62
    4
 10
95.916666666666643
 20
215.16666666666666
 11
96.416666666666643
 21
215.00000066666666
  0
LINE
  8
_1-0_躯体
  6
CONTINUOUS
 62
    4
 10
96.416666666666643
 20
215.17568266666663
 11
95.916666666666643
 21
215.34234866666671
  0
LINE
  8
_1-0_躯体
  6
CONTINUOUS
 62
    4
 10
96.916666666666643
 20
215.16666666666666
 11
96.416666666666643
 21
215.00000066666666
  0
LINE
  8
_1-0_躯体
  6
CONTINUOUS
 62
    4
 10
96.416666666666643
 20
215.17568266666663
 11
96.916666666666643
 21
215.34234866666671
  0
LINE
  8
_1-0_躯体
  6
CONTINUOUS
 62
    4
 10
93.916666666666643
 20
215.16666666666666
 11
94.416666666666643
 21
215.00000066666666
  0
LINE
  8
_1-0_躯体
  6
CONTINUOUS
 62
    4
 10
93.903878666666643
 20
215.34661166666666
 11
94.416666666666643
 21
215.17568266666663
  0
LINE
  8
_1-0_躯体
  6
CONTINUOUS
 62
    4
 10
94.916666666666643
 20
215.16666666666666
 11
94.416666666666643
 21
215.00000066666666
  0
LINE
  8
_1-0_躯体
  6
CONTINUOUS
 62
    4
 10
94.416666666666643
 20
215.17568266666663
 11
94.916666666666643
 21
215.34234866666671
  0
LINE
  8
_1-0_躯体
  6
CONTINUOUS
 62
    4
 10
95.916666666666643
 20
215.16666666666666
 11
95.416666666666643
 21
215.00000066666666
  0
LINE
  8
_1-0_躯体
  6
CONTINUOUS
 62
    4
 10
95.416666666666643
 20
215.17568266666663
 11
95.916666666666643
 21
215.34234866666671
  0
LINE
  8
_1-0_躯体
  6
CONTINUOUS
 62
    4
 10
94.916666666666643
 20
215.16666666666666
 11
95.416666666666643
 21
215.00000066666666
  0
LINE
  8
_1-0_躯体
  6
CONTINUOUS
 62
    4
 10
95.416666666666643
 20
215.17568266666663
 11
94.916666666666643
 21
215.34234866666671
  0
LINE
  8
_1-0_躯体
  6
CONTINUOUS
 62
    4
 10
93.583333666666604
 20
215.00000066666666
 11
93.916666666666643
 21
215.16666666666666
  0
LINE
  8
_1-0_躯体
  6
CONTINUOUS
 62
    4
 10
93.54398866666665
 20
215.16666666666666
 11
93.903878666666643
 21
215.34661166666666
  0
LINE
  8
_1-0_躯体
  6
CONTINUOUS
 62
    4
 10
99.249999666666639
 20
215.16666666666666
 11
98.289344666666636
 21
215.16666666666666
  0
LINE
  8
_1-0_躯体
  6
CONTINUOUS
 62
    4
 10
99.249999666666639
 20
215.00000066666666
 11
98.249999666666639
 21
215.00000066666666
  0
LINE
  8
_1-0_躯体
  6
CONTINUOUS
 62
    4
 10
83.999999666666639
 20
221.00000066666669
 11
84.366666666666646
 21
221.16666666666669
  0
LINE
  8
_1-0_躯体
  6
CONTINUOUS
 62
    4
 10
84.366666666666646
 20
221.16666666666669
 11
84.872943666666643
 21
219.97162366666669
  0
ARC
  8
_1-0_躯体
  6
CONTINUOUS
 62
    4
 10
85.333333666666604
 20
220.16666666666669
 40
0.5
 50
202.95984199999688
 51
0
  0
LINE
  8
_1-0_躯体
  6
CONTINUOUS
 62
    4
 10
83.999999666666639
 20
221.00000066666669
 11
83.999999666666639
 21
219.33333366666673
  0
LINE
  8
_1-0_躯体
  6
CONTINUOUS
 62
    4
 10
84.199999666666614
 20
221.0909096666667
 11
84.199999666666614
 21
219.33333366666673
  0
LINE
  8
_1-0_躯体
  6
CONTINUOUS
 62
    4
 10
85.833333666666604
 20
220.16666666666669
 11
85.833333666666604
 21
225.13076866666668
  0
ARC
  8
_1-0_躯体
  6
CONTINUOUS
 62
    4
 10
85.166666666666643
 20
219.33333366666673
 40
1.1666669999999999
 50
180
 51
270
  0
LINE
  8
_1-0_躯体
  6
CONTINUOUS
 62
    4
 10
85.166666666666643
 20
218.16666666666666
 11
98.666666666666643
 21
218.16666666666666
  0
LINE
  8
_1-0_躯体
  6
CONTINUOUS
 62
    4
 10
83.833333666666604
 20
234.20000066666665
 11
83.833333666666604
 21
225.66666666666669
  0
LINE
  8
_1-0_躯体
  6
CONTINUOUS
 62
    4
 10
99.999999666666639
 20
234.20000066666665
 11
99.999999666666639
 21
225.66666666666669
  0
ARC
  8
_1-0_躯体
  6
CONTINUOUS
 62
    4
 10
85.166666666666643
 20
219.33333366666673
 40
0.9666669999999998
 50
180
 51
270
  0
LINE
  8
_1-0_躯体
  6
CONTINUOUS
 62
    4
 10
98.666666666666643
 20
218.36666666666662
 11
85.166666666666643
 21
218.36666666666662
  0
LINE
  8
_1-0_躯体
  6
CONTINUOUS
 62
    4
 10
83.833333666666604
 20
225.66666666666669
 11
85.833333666666604
 21
225.13076866666668
  0
LINE
  8
_1-0_躯体
  6
CONTINUOUS
 62
    4
 10
83.833333666666604
 20
234.20000066666665
 11
99.999999666666639
 21
234.20000066666665
  0
ARC
  8
_1-0_躯体
  6
CONTINUOUS
 62
    4
 10
86.083333666666604
 20
227.16666666666669
 40
0.8333329999999998
 50
180
 51
270
  0
ARC
  8
_1-0_躯体
  6
CONTINUOUS
 62
    4
 10
86.083333666666604
 20
231.50000066666669
 40
0.8333329999999998
 50
90
 51
180
  0
LINE
  8
_1-0_躯体
  6
CONTINUOUS
 62
    4
 10
85.249999666666639
 20
227.16666666666669
 11
85.249999666666639
 21
231.50000066666669
  0
LINE
  8
_1-0_躯体
  6
CONTINUOUS
 62
    4
 10
86.083333666666604
 20
226.33333366666673
 11
86.916666666666643
 21
226.33333366666673
  0
ARC
  8
_1-0_躯体
  6
CONTINUOUS
 62
    4
 10
88.583333666666604
 20
220.66666666666669
 40
1
 50
180
 51
0
  0
ARC
  8
_1-0_躯体
  6
CONTINUOUS
 62
    4
 10
86.916666666666643
 20
225.66666666666669
 40
0.666667
 50
0
 51
90
  0
LINE
  8
_1-0_躯体
  6
CONTINUOUS
 62
    4
 10
87.583333666666604
 20
220.66666666666669
 11
87.583333666666604
 21
225.66666666666669
  0
ARC
  8
_1-0_躯体
  6
CONTINUOUS
 62
    4
 10
90.249999666666639
 20
225.66666666666669
 40
0.666667
 50
90
 51
180
  0
LINE
  8
_1-0_躯体
  6
CONTINUOUS
 62
    4
 10
89.583333666666604
 20
220.66666666666669
 11
89.583333666666604
 21
225.66666666666669
  0
ARC
  8
_1-0_躯体
  6
CONTINUOUS
 62
    4
 10
93.583333666666604
 20
225.66666666666669
 40
0.666667
 50
0
 51
90
  0
LINE
  8
_1-0_躯体
  6
CONTINUOUS
 62
    4
 10
90.249999666666639
 20
226.33333366666673
 11
93.583333666666604
 21
226.33333366666673
  0
LINE
  8
_1-0_躯体
  6
CONTINUOUS
 62
    4
 10
99.833333666666604
 20
221.00000066666669
 11
99.46666666666664
 21
221.16666666666669
  0
LINE
  8
_1-0_躯体
  6
CONTINUOUS
 62
    4
 10
99.46666666666664
 20
221.16666666666669
 11
98.960389666666643
 21
219.97162366666669
  0
ARC
  8
_1-0_躯体
  6
CONTINUOUS
 62
    4
 10
98.499999666666639
 20
220.16666666666669
 40
0.5
 50
180
 51
337.04015800000315
  0
ARC
  8
_1-0_躯体
  6
CONTINUOUS
 62
    4
 10
98.666666666666643
 20
219.33333366666673
 40
1.1666669999999999
 50
270
 51
0
  0
LINE
  8
_1-0_躯体
  6
CONTINUOUS
 62
    4
 10
99.833333666666604
 20
221.00000066666669
 11
99.833333666666604
 21
219.33333366666673
  0
ARC
  8
_1-0_躯体
  6
CONTINUOUS
 62
    4
 10
98.666666666666643
 20
219.33333366666673
 40
0.9666669999999998
 50
270
 51
0
  0
LINE
  8
_1-0_躯体
  6
CONTINUOUS
 62
    4
 10
99.633333666666601
 20
221.0909096666667
 11
99.633333666666601
 21
219.33333366666673
  0
LINE
  8
_1-0_躯体
  6
CONTINUOUS
 62
    4
 10
97.999999666666639
 20
220.16666666666669
 11
97.999999666666639
 21
225.13076866666668
  0
LINE
  8
_1-0_躯体
  6
CONTINUOUS
 62
    4
 10
99.999999666666639
 20
225.66666666666669
 11
97.999999666666639
 21
225.13076866666668
  0
ARC
  8
_1-0_躯体
  6
CONTINUOUS
 62
    4
 10
95.249999666666639
 20
220.66666666666669
 40
1
 50
180
 51
0
  0
ARC
  8
_1-0_躯体
  6
CONTINUOUS
 62
    4
 10
96.916666666666643
 20
225.66666666666669
 40
0.666667
 50
90
 51
180
  0
LINE
  8
_1-0_躯体
  6
CONTINUOUS
 62
    4
 10
96.249999666666639
 20
220.66666666666669
 11
96.249999666666639
 21
225.66666666666669
  0
LINE
  8
_1-0_躯体
  6
CONTINUOUS
 62
    4
 10
94.249999666666639
 20
220.66666666666669
 11
94.249999666666639
 21
225.66666666666669
  0
ARC
  8
_1-0_躯体
  6
CONTINUOUS
 62
    4
 10
97.749999666666639
 20
227.16666666666669
 40
0.8333329999999998
 50
270
 51
0
  0
ARC
  8
_1-0_躯体
  6
CONTINUOUS
 62
    4
 10
97.749999666666639
 20
231.50000066666669
 40
0.8333329999999998
 50
0
 51
90
  0
LINE
  8
_1-0_躯体
  6
CONTINUOUS
 62
    4
 10
98.583333666666604
 20
227.16666666666669
 11
98.583333666666604
 21
231.50000066666669
  0
LINE
  8
_1-0_躯体
  6
CONTINUOUS
 62
    4
 10
97.749999666666639
 20
226.33333366666673
 11
96.916666666666643
 21
226.33333366666673
  0
LINE
  8
_1-0_躯体
  6
CONTINUOUS
 62
    4
 10
73.33333366666659
 20
212.3333336666667
 11
101.66666666666664
 21
212.3333336666667
  0
LINE
  8
_1-0_躯体
  6
CONTINUOUS
 62
    4
 10
101.66666666666664
 20
213.00000066666666
 11
73.33333366666659
 21
213.00000066666666
  0
LINE
  8
_1-0_躯体
  6
CONTINUOUS
 62
    4
 10
101.66666666666664
 20
211.66666666666666
 11
73.33333366666659
 21
211.66666666666666
  0
LINE
  8
_1-0_躯体
  6
CONTINUOUS
 62
    4
 10
78.141588679351884
 20
211.66666666666666
 11
74.448598677058129
 21
211.66666666666666
  0
ARC
  8
_1-0_躯体
  6
CONTINUOUS
 62
    4
 10
122.24999933333334
 20
231.50000066666669
 40
0.8333329999999998
 50
90
 51
180
  0
ARC
  8
_1-0_躯体
  6
CONTINUOUS
 62
    4
 10
133.91666633333338
 20
231.50000066666669
 40
0.8333329999999998
 50
0
 51
90
  0
LINE
  8
_1-0_躯体
  6
CONTINUOUS
 62
    4
 10
122.24999933333334
 20
232.33333366666673
 11
133.91666633333338
 21
232.33333366666673
  0
LINE
  8
_1-0_躯体
  6
CONTINUOUS
 62
    4
 10
136.16666633333341
 20
234.00000066666669
 11
146.66666633333341
 21
234.00000066666669
  0
LINE
  8
_1-0_躯体
  6
CONTINUOUS
 62
    4
 10
119.99999933333334
 20
234.00000066666669
 11
118.33333333333334
 21
234.00000066666669
  0
LINE
  8
_1-0_躯体
  6
CONTINUOUS
 62
    4
 10
118.33333333333334
 20
234.00000066666669
 11
118.33333333333334
 21
221.33333366666673
  0
LINE
  8
_1-0_躯体
  6
CONTINUOUS
 62
    4
 10
146.66666633333341
 20
215.00000066666666
 11
118.33333333333334
 21
215.00000066666666
  0
LINE
  8
_1-0_躯体
  6
CONTINUOUS
 62
    4
 10
146.66666633333341
 20
214.3333336666667
 11
118.33333333333334
 21
214.3333336666667
  0
LINE
  8
_1-0_躯体
  6
CONTINUOUS
 62
    4
 10
146.66666633333341
 20
213.66666666666666
 11
118.33333333333334
 21
213.66666666666666
  0
LINE
  8
_1-0_躯体
  6
CONTINUOUS
 62
    4
 10
121.99999933333334
 20
221.33333366666673
 11
118.33333333333334
 21
221.33333366666673
  0
LINE
  8
_1-0_躯体
  6
CONTINUOUS
 62
    4
 10
120.74999933333334
 20
215.16666666666666
 11
121.71065533333339
 21
215.16666666666666
  0
LINE
  8
_1-0_躯体
  6
CONTINUOUS
 62
    4
 10
120.74999933333334
 20
215.00000066666666
 11
121.74999933333334
 21
215.00000066666666
  0
LINE
  8
_1-0_躯体
  6
CONTINUOUS
 62
    4
 10
127.74999933333334
 20
215.00000066666666
 11
128.08333333333334
 21
215.16666666666666
  0
LINE
  8
_1-0_躯体
  6
CONTINUOUS
 62
    4
 10
128.08333333333334
 20
215.16666666666666
 11
128.41666633333338
 21
215.00000066666666
  0
LINE
  8
_1-0_躯体
  6
CONTINUOUS
 62
    4
 10
126.41666633333338
 20
215.00000066666666
 11
127.74999933333334
 21
215.00000066666666
  0
LINE
  8
_1-0_躯体
  6
CONTINUOUS
 62
    4
 10
126.45601133333341
 20
215.16666666666666
 11
127.71065533333339
 21
215.16666666666666
  0
LINE
  8
_1-0_躯体
  6
CONTINUOUS
 62
    4
 10
127.71065533333339
 20
215.16666666666666
 11
128.08333333333334
 21
215.35300566666666
  0
LINE
  8
_1-0_躯体
  6
CONTINUOUS
 62
    4
 10
128.08333333333334
 20
215.35300566666666
 11
128.45601133333341
 21
215.16666666666666
  0
LINE
  8
_1-0_躯体
  6
CONTINUOUS
 62
    4
 10
120.91666633333338
 20
220.33333366666673
 11
121.08333333333334
 21
220.33333366666673
  0
LINE
  8
_1-0_躯体
  6
CONTINUOUS
 62
    4
 10
121.08333333333334
 20
220.33333366666673
 11
121.08333333333334
 21
220.83333366666673
  0
ARC
  8
_1-0_躯体
  6
CONTINUOUS
 62
    4
 10
120.58333333333334
 20
220.83333366666673
 40
0.5
 50
0
 51
90
  0
LINE
  8
_1-0_躯体
  6
CONTINUOUS
 62
    4
 10
120.24999933333334
 20
221.33333366666673
 11
120.58333333333334
 21
221.33333366666673
  0
ARC
  8
_1-0_躯体
  6
CONTINUOUS
 62
    4
 10
120.24999933333334
 20
220.83333366666673
 40
0.5
 50
90
 51
180
  0
LINE
  8
_1-0_躯体
  6
CONTINUOUS
 62
    4
 10
119.74999933333334
 20
220.83333366666673
 11
119.74999933333334
 21
216.00000066666666
  0
ARC
  8
_1-0_躯体
  6
CONTINUOUS
 62
    4
 10
120.58333333333334
 20
220.83333366666673
 40
0.3333329999999999
 50
0
 51
90
  0
LINE
  8
_1-0_躯体
  6
CONTINUOUS
 62
    4
 10
120.24999933333334
 20
221.16666666666669
 11
120.58333333333334
 21
221.16666666666669
  0
ARC
  8
_1-0_躯体
  6
CONTINUOUS
 62
    4
 10
120.24999933333334
 20
220.83333366666673
 40
0.3333329999999999
 50
90
 51
180
  0
ARC
  8
_1-0_躯体
  6
CONTINUOUS
 62
    4
 10
120.74999933333334
 20
216.00000066666666
 40
0.8333329999999998
 50
180
 51
270
  0
LINE
  8
_1-0_躯体
  6
CONTINUOUS
 62
    4
 10
119.91666633333338
 20
220.83333366666673
 11
119.91666633333338
 21
216.00000066666666
  0
LINE
  8
_1-0_躯体
  6
CONTINUOUS
 62
    4
 10
120.91666633333338
 20
220.33333366666673
 11
120.91666633333338
 21
220.83333366666673
  0
ARC
  8
_1-0_躯体
  6
CONTINUOUS
 62
    4
 10
120.74999933333334
 20
216.00000066666666
 40
1
 50
180
 51
270
  0
LINE
  8
_1-0_躯体
  6
CONTINUOUS
 62
    4
 10
135.24999933333334
 20
220.33333366666673
 11
135.08333333333337
 21
220.33333366666673
  0
LINE
  8
_1-0_躯体
  6
CONTINUOUS
 62
    4
 10
135.08333333333337
 20
220.33333366666673
 11
135.08333333333337
 21
220.83333366666673
  0
ARC
  8
_1-0_躯体
  6
CONTINUOUS
 62
    4
 10
135.58333333333337
 20
220.83333366666673
 40
0.5
 50
90
 51
180
  0
LINE
  8
_1-0_躯体
  6
CONTINUOUS
 62
    4
 10
135.91666633333341
 20
221.33333366666673
 11
135.58333333333337
 21
221.33333366666673
  0
ARC
  8
_1-0_躯体
  6
CONTINUOUS
 62
    4
 10
135.91666633333341
 20
220.83333366666673
 40
0.5
 50
0
 51
90
  0
LINE
  8
_1-0_躯体
  6
CONTINUOUS
 62
    4
 10
136.41666633333341
 20
220.83333366666673
 11
136.41666633333341
 21
216.00000066666666
  0
ARC
  8
_1-0_躯体
  6
CONTINUOUS
 62
    4
 10
135.58333333333337
 20
220.83333366666673
 40
0.3333329999999999
 50
90
 51
180
  0
LINE
  8
_1-0_躯体
  6
CONTINUOUS
 62
    4
 10
135.91666633333341
 20
221.16666666666669
 11
135.58333333333337
 21
221.16666666666669
  0
ARC
  8
_1-0_躯体
  6
CONTINUOUS
 62
    4
 10
135.91666633333341
 20
220.83333366666673
 40
0.3333329999999999
 50
0
 51
90
  0
ARC
  8
_1-0_躯体
  6
CONTINUOUS
 62
    4
 10
135.41666633333341
 20
216.00000066666666
 40
0.8333329999999998
 50
270
 51
0
  0
LINE
  8
_1-0_躯体
  6
CONTINUOUS
 62
    4
 10
136.24999933333334
 20
220.83333366666673
 11
136.24999933333334
 21
216.00000066666666
  0
LINE
  8
_1-0_躯体
  6
CONTINUOUS
 62
    4
 10
135.24999933333334
 20
220.33333366666673
 11
135.24999933333334
 21
220.83333366666673
  0
ARC
  8
_1-0_躯体
  6
CONTINUOUS
 62
    4
 10
135.41666633333341
 20
216.00000066666666
 40
1
 50
270
 51
0
  0
LINE
  8
_1-0_躯体
  6
CONTINUOUS
 62
    4
 10
121.74999933333334
 20
215.00000066666666
 11
122.08333333333334
 21
215.16666666666666
  0
LINE
  8
_1-0_躯体
  6
CONTINUOUS
 62
    4
 10
122.08333333333334
 20
215.16666666666666
 11
122.58333333333334
 21
215.00000066666666
  0
LINE
  8
_1-0_躯体
  6
CONTINUOUS
 62
    4
 10
121.71065533333339
 20
215.16666666666666
 11
122.07054433333332
 21
215.34661166666666
  0
LINE
  8
_1-0_躯体
  6
CONTINUOUS
 62
    4
 10
122.07054433333332
 20
215.34661166666666
 11
122.58333333333334
 21
215.17568266666663
  0
LINE
  8
_1-0_躯体
  6
CONTINUOUS
 62
    4
 10
123.08333333333334
 20
215.16666666666666
 11
122.58333333333334
 21
215.00000066666666
  0
LINE
  8
_1-0_躯体
  6
CONTINUOUS
 62
    4
 10
122.58333333333334
 20
215.17568266666663
 11
123.08333333333334
 21
215.34234866666671
  0
LINE
  8
_1-0_躯体
  6
CONTINUOUS
 62
    4
 10
124.08333333333334
 20
215.16666666666666
 11
123.58333333333334
 21
215.00000066666666
  0
LINE
  8
_1-0_躯体
  6
CONTINUOUS
 62
    4
 10
123.58333333333334
 20
215.17568266666663
 11
124.08333333333334
 21
215.34234866666671
  0
LINE
  8
_1-0_躯体
  6
CONTINUOUS
 62
    4
 10
123.08333333333334
 20
215.16666666666666
 11
123.58333333333334
 21
215.00000066666666
  0
LINE
  8
_1-0_躯体
  6
CONTINUOUS
 62
    4
 10
123.58333333333334
 20
215.17568266666663
 11
123.08333333333334
 21
215.34234866666671
  0
LINE
  8
_1-0_躯体
  6
CONTINUOUS
 62
    4
 10
126.08333333333334
 20
215.16666666666666
 11
125.58333333333334
 21
215.00000066666666
  0
LINE
  8
_1-0_躯体
  6
CONTINUOUS
 62
    4
 10
126.09612133333334
 20
215.34661166666666
 11
125.58333333333334
 21
215.17568266666663
  0
LINE
  8
_1-0_躯体
  6
CONTINUOUS
 62
    4
 10
125.08333333333334
 20
215.16666666666666
 11
125.58333333333334
 21
215.00000066666666
  0
LINE
  8
_1-0_躯体
  6
CONTINUOUS
 62
    4
 10
125.58333333333334
 20
215.17568266666663
 11
125.08333333333334
 21
215.34234866666671
  0
LINE
  8
_1-0_躯体
  6
CONTINUOUS
 62
    4
 10
124.08333333333334
 20
215.16666666666666
 11
124.58333333333334
 21
215.00000066666666
  0
LINE
  8
_1-0_躯体
  6
CONTINUOUS
 62
    4
 10
124.58333333333334
 20
215.17568266666663
 11
124.08333333333334
 21
215.34234866666671
  0
LINE
  8
_1-0_躯体
  6
CONTINUOUS
 62
    4
 10
125.08333333333334
 20
215.16666666666666
 11
124.58333333333334
 21
215.00000066666666
  0
LINE
  8
_1-0_躯体
  6
CONTINUOUS
 62
    4
 10
124.58333333333334
 20
215.17568266666663
 11
125.08333333333334
 21
215.34234866666671
  0
LINE
  8
_1-0_躯体
  6
CONTINUOUS
 62
    4
 10
126.41666633333338
 20
215.00000066666666
 11
126.08333333333334
 21
215.16666666666666
  0
LINE
  8
_1-0_躯体
  6
CONTINUOUS
 62
    4
 10
126.45601133333341
 20
215.16666666666666
 11
126.09612133333334
 21
215.34661166666666
  0
LINE
  8
_1-0_躯体
  6
CONTINUOUS
 62
    4
 10
129.74999933333334
 20
215.00000066666666
 11
128.41666633333338
 21
215.00000066666666
  0
LINE
  8
_1-0_躯体
  6
CONTINUOUS
 62
    4
 10
129.71065533333339
 20
215.16666666666666
 11
128.45601133333341
 21
215.16666666666666
  0
LINE
  8
_1-0_躯体
  6
CONTINUOUS
 62
    4
 10
134.41666633333338
 20
215.00000066666666
 11
134.08333333333334
 21
215.16666666666666
  0
LINE
  8
_1-0_躯体
  6
CONTINUOUS
 62
    4
 10
134.08333333333334
 20
215.16666666666666
 11
133.58333333333334
 21
215.00000066666666
  0
LINE
  8
_1-0_躯体
  6
CONTINUOUS
 62
    4
 10
134.45601133333341
 20
215.16666666666666
 11
134.09612133333334
 21
215.34661166666666
  0
LINE
  8
_1-0_躯体
  6
CONTINUOUS
 62
    4
 10
134.09612133333334
 20
215.34661166666666
 11
133.58333333333334
 21
215.17568266666663
  0
LINE
  8
_1-0_躯体
  6
CONTINUOUS
 62
    4
 10
133.08333333333334
 20
215.16666666666666
 11
133.58333333333334
 21
215.00000066666666
  0
LINE
  8
_1-0_躯体
  6
CONTINUOUS
 62
    4
 10
133.58333333333334
 20
215.17568266666663
 11
133.08333333333334
 21
215.34234866666671
  0
LINE
  8
_1-0_躯体
  6
CONTINUOUS
 62
    4
 10
132.08333333333334
 20
215.16666666666666
 11
132.58333333333334
 21
215.00000066666666
  0
LINE
  8
_1-0_躯体
  6
CONTINUOUS
 62
    4
 10
132.58333333333334
 20
215.17568266666663
 11
132.08333333333334
 21
215.34234866666671
  0
LINE
  8
_1-0_躯体
  6
CONTINUOUS
 62
    4
 10
133.08333333333334
 20
215.16666666666666
 11
132.58333333333334
 21
215.00000066666666
  0
LINE
  8
_1-0_躯体
  6
CONTINUOUS
 62
    4
 10
132.58333333333334
 20
215.17568266666663
 11
133.08333333333334
 21
215.34234866666671
  0
LINE
  8
_1-0_躯体
  6
CONTINUOUS
 62
    4
 10
130.08333333333334
 20
215.16666666666666
 11
130.58333333333334
 21
215.00000066666666
  0
LINE
  8
_1-0_躯体
  6
CONTINUOUS
 62
    4
 10
130.07054433333334
 20
215.34661166666666
 11
130.58333333333334
 21
215.17568266666663
  0
LINE
  8
_1-0_躯体
  6
CONTINUOUS
 62
    4
 10
131.08333333333334
 20
215.16666666666666
 11
130.58333333333334
 21
215.00000066666666
  0
LINE
  8
_1-0_躯体
  6
CONTINUOUS
 62
    4
 10
130.58333333333334
 20
215.17568266666663
 11
131.08333333333334
 21
215.34234866666671
  0
LINE
  8
_1-0_躯体
  6
CONTINUOUS
 62
    4
 10
132.08333333333334
 20
215.16666666666666
 11
131.58333333333334
 21
215.00000066666666
  0
LINE
  8
_1-0_躯体
  6
CONTINUOUS
 62
    4
 10
131.58333333333334
 20
215.17568266666663
 11
132.08333333333334
 21
215.34234866666671
  0
LINE
  8
_1-0_躯体
  6
CONTINUOUS
 62
    4
 10
131.08333333333334
 20
215.16666666666666
 11
131.58333333333334
 21
215.00000066666666
  0
LINE
  8
_1-0_躯体
  6
CONTINUOUS
 62
    4
 10
131.58333333333334
 20
215.17568266666663
 11
131.08333333333334
 21
215.34234866666671
  0
LINE
  8
_1-0_躯体
  6
CONTINUOUS
 62
    4
 10
129.74999933333334
 20
215.00000066666666
 11
130.08333333333334
 21
215.16666666666666
  0
LINE
  8
_1-0_躯体
  6
CONTINUOUS
 62
    4
 10
129.71065533333339
 20
215.16666666666666
 11
130.07054433333334
 21
215.34661166666666
  0
LINE
  8
_1-0_躯体
  6
CONTINUOUS
 62
    4
 10
135.41666633333341
 20
215.16666666666666
 11
134.45601133333341
 21
215.16666666666666
  0
LINE
  8
_1-0_躯体
  6
CONTINUOUS
 62
    4
 10
135.41666633333341
 20
215.00000066666666
 11
134.41666633333338
 21
215.00000066666666
  0
LINE
  8
_1-0_躯体
  6
CONTINUOUS
 62
    4
 10
120.16666633333338
 20
221.00000066666669
 11
120.53333333333339
 21
221.16666666666669
  0
LINE
  8
_1-0_躯体
  6
CONTINUOUS
 62
    4
 10
120.53333333333339
 20
221.16666666666669
 11
121.03961033333334
 21
219.97162366666669
  0
ARC
  8
_1-0_躯体
  6
CONTINUOUS
 62
    4
 10
121.49999933333334
 20
220.16666666666669
 40
0.5
 50
202.95984199999688
 51
0
  0
LINE
  8
_1-0_躯体
  6
CONTINUOUS
 62
    4
 10
120.16666633333338
 20
221.00000066666669
 11
120.16666633333338
 21
219.33333366666673
  0
LINE
  8
_1-0_躯体
  6
CONTINUOUS
 62
    4
 10
120.36666633333334
 20
221.0909096666667
 11
120.36666633333334
 21
219.33333366666673
  0
LINE
  8
_1-0_躯体
  6
CONTINUOUS
 62
    4
 10
121.99999933333334
 20
220.16666666666669
 11
121.99999933333334
 21
225.13076866666668
  0
ARC
  8
_1-0_躯体
  6
CONTINUOUS
 62
    4
 10
121.33333333333334
 20
219.33333366666673
 40
1.1666669999999999
 50
180
 51
270
  0
LINE
  8
_1-0_躯体
  6
CONTINUOUS
 62
    4
 10
121.33333333333334
 20
218.16666666666666
 11
134.83333333333337
 21
218.16666666666666
  0
LINE
  8
_1-0_躯体
  6
CONTINUOUS
 62
    4
 10
119.99999933333334
 20
234.20000066666665
 11
119.99999933333334
 21
225.66666666666669
  0
LINE
  8
_1-0_躯体
  6
CONTINUOUS
 62
    4
 10
136.16666633333341
 20
234.20000066666665
 11
136.16666633333341
 21
225.66666666666669
  0
ARC
  8
_1-0_躯体
  6
CONTINUOUS
 62
    4
 10
121.33333333333334
 20
219.33333366666673
 40
0.9666669999999998
 50
180
 51
270
  0
LINE
  8
_1-0_躯体
  6
CONTINUOUS
 62
    4
 10
134.83333333333337
 20
218.36666666666662
 11
121.33333333333334
 21
218.36666666666662
  0
LINE
  8
_1-0_躯体
  6
CONTINUOUS
 62
    4
 10
119.99999933333334
 20
225.66666666666669
 11
121.99999933333334
 21
225.13076866666668
  0
LINE
  8
_1-0_躯体
  6
CONTINUOUS
 62
    4
 10
119.99999933333334
 20
234.20000066666665
 11
136.16666633333341
 21
234.20000066666665
  0
ARC
  8
_1-0_躯体
  6
CONTINUOUS
 62
    4
 10
122.24999933333334
 20
227.16666666666669
 40
0.8333329999999998
 50
180
 51
270
  0
LINE
  8
_1-0_躯体
  6
CONTINUOUS
 62
    4
 10
121.41666633333338
 20
227.16666666666669
 11
121.41666633333338
 21
231.50000066666669
  0
LINE
  8
_1-0_躯体
  6
CONTINUOUS
 62
    4
 10
122.24999933333334
 20
226.33333366666673
 11
123.08333333333334
 21
226.33333366666673
  0
ARC
  8
_1-0_躯体
  6
CONTINUOUS
 62
    4
 10
124.74999933333334
 20
220.66666666666669
 40
1
 50
180
 51
0
  0
ARC
  8
_1-0_躯体
  6
CONTINUOUS
 62
    4
 10
123.08333333333334
 20
225.66666666666669
 40
0.666667
 50
0
 51
90
  0
LINE
  8
_1-0_躯体
  6
CONTINUOUS
 62
    4
 10
123.74999933333334
 20
220.66666666666669
 11
123.74999933333334
 21
225.66666666666669
  0
ARC
  8
_1-0_躯体
  6
CONTINUOUS
 62
    4
 10
126.41666633333338
 20
225.66666666666669
 40
0.666667
 50
90
 51
180
  0
LINE
  8
_1-0_躯体
  6
CONTINUOUS
 62
    4
 10
125.74999933333334
 20
220.66666666666669
 11
125.74999933333334
 21
225.66666666666669
  0
ARC
  8
_1-0_躯体
  6
CONTINUOUS
 62
    4
 10
129.74999933333334
 20
225.66666666666669
 40
0.666667
 50
0
 51
90
  0
LINE
  8
_1-0_躯体
  6
CONTINUOUS
 62
    4
 10
126.41666633333338
 20
226.33333366666673
 11
129.74999933333334
 21
226.33333366666673
  0
LINE
  8
_1-0_躯体
  6
CONTINUOUS
 62
    4
 10
135.99999933333334
 20
221.00000066666669
 11
135.63333333333333
 21
221.16666666666669
  0
LINE
  8
_1-0_躯体
  6
CONTINUOUS
 62
    4
 10
135.63333333333333
 20
221.16666666666669
 11
135.12705533333337
 21
219.97162366666669
  0
ARC
  8
_1-0_躯体
  6
CONTINUOUS
 62
    4
 10
134.66666633333338
 20
220.16666666666669
 40
0.5
 50
180
 51
337.04015800000315
  0
ARC
  8
_1-0_躯体
  6
CONTINUOUS
 62
    4
 10
134.83333333333337
 20
219.33333366666673
 40
1.1666669999999999
 50
270
 51
0
  0
LINE
  8
_1-0_躯体
  6
CONTINUOUS
 62
    4
 10
135.99999933333334
 20
221.00000066666669
 11
135.99999933333334
 21
219.33333366666673
  0
ARC
  8
_1-0_躯体
  6
CONTINUOUS
 62
    4
 10
134.83333333333337
 20
219.33333366666673
 40
0.9666669999999998
 50
270
 51
0
  0
LINE
  8
_1-0_躯体
  6
CONTINUOUS
 62
    4
 10
135.7999993333334
 20
221.0909096666667
 11
135.7999993333334
 21
219.33333366666673
  0
LINE
  8
_1-0_躯体
  6
CONTINUOUS
 62
    4
 10
134.16666633333338
 20
220.16666666666669
 11
134.16666633333338
 21
225.13076866666668
  0
LINE
  8
_1-0_躯体
  6
CONTINUOUS
 62
    4
 10
136.16666633333341
 20
225.66666666666669
 11
134.16666633333338
 21
225.13076866666668
  0
ARC
  8
_1-0_躯体
  6
CONTINUOUS
 62
    4
 10
131.41666633333338
 20
220.66666666666669
 40
1
 50
180
 51
0
  0
ARC
  8
_1-0_躯体
  6
CONTINUOUS
 62
    4
 10
133.08333333333334
 20
225.66666666666669
 40
0.666667
 50
90
 51
180
  0
LINE
  8
_1-0_躯体
  6
CONTINUOUS
 62
    4
 10
132.41666633333338
 20
220.66666666666669
 11
132.41666633333338
 21
225.66666666666669
  0
LINE
  8
_1-0_躯体
  6
CONTINUOUS
 62
    4
 10
130.41666633333338
 20
220.66666666666669
 11
130.41666633333338
 21
225.66666666666669
  0
ARC
  8
_1-0_躯体
  6
CONTINUOUS
 62
    4
 10
133.91666633333338
 20
227.16666666666669
 40
0.8333329999999998
 50
270
 51
0
  0
LINE
  8
_1-0_躯体
  6
CONTINUOUS
 62
    4
 10
134.74999933333334
 20
227.16666666666669
 11
134.74999933333334
 21
231.50000066666669
  0
LINE
  8
_1-0_躯体
  6
CONTINUOUS
 62
    4
 10
133.91666633333338
 20
226.33333366666673
 11
133.08333333333334
 21
226.33333366666673
  0
LINE
  8
_1-0_躯体
  6
CONTINUOUS
 62
    4
 10
146.66666633333341
 20
213.00000066666666
 11
118.33333333333334
 21
213.00000066666666
  0
LINE
  8
_1-0_躯体
  6
CONTINUOUS
 62
    4
 10
146.66666633333341
 20
212.3333336666667
 11
118.33333333333334
 21
212.3333336666667
  0
LINE
  8
_1-0_躯体
  6
CONTINUOUS
 62
    4
 10
118.33333333333334
 20
211.66666666666666
 11
146.66666633333341
 21
211.66666666666666
  0
LINE
  8
_1-0_躯体
  6
CENTER2
 62
    4
 10
110
 20
234.20000066666665
 11
110
 21
198.00000033333336
  0
INSERT
  2
-004-$QLE
  8
_1-f_寸法
 10
210
 20
148.5
 41
1
 42
1
 50
0
  0
INSERT
  2
-005-$QLE_1_
  8
_1-f_寸法
 10
210
 20
148.5
 41
1
 42
1
 50
0
  0
LINE
  8
_1-0_躯体
  6
CONTINUOUS
 62
    4
 10
118.33333333333334
 20
211.66666666666666
 11
118.33333333333334
 21
215.00000066666666
  0
LINE
  8
_1-f_寸法
  6
CONTINUOUS
 62
    4
 10
138.33333333333331
 20
201.66666666666666
 11
138.33333333333331
 21
195.06666666666666
  0
LINE
  8
_1-f_寸法
  6
CONTINUOUS
 62
    4
 10
81.666666666666657
 20
201.66666666666666
 11
81.666666666666657
 21
195.06666666666666
  0
POINT
  8
_1-f_寸法
 62
    4
 10
81.666666666666657
 20
196.66666666666666
  0
POINT
  8
_1-f_寸法
 62
    4
 10
138.33333333333331
 20
196.66666666666666
  0
LINE
  8
_1-f_寸法
  6
CONTINUOUS
 62
    4
 10
81.666666666666657
 20
196.66666666666666
 11
138.33333333333331
 21
196.66666666666666
  0
TEXT
  8
_1-f_寸法
 62
    4
 10
107.59999999999998
 20
196.66666666666666
 40
3.2000000000000002
 41
1
 50
0
  1
170
  0
CIRCLE
  8
_1-f_寸法
  6
CONTINUOUS
 62
    4
 10
128.33333333333331
 20
200
 40
1.6666666666666665
  0
TEXT
  8
_1-f_寸法
 62
    4
 10
127.70833333333331
 20
198.75
 40
2.5
 41
1
 50
0
  1
1
  0
LINE
  8
_1-f_寸法
  6
CONTINUOUS
 62
    4
 10
127.50000000000001
 20
201.44337567297407
 11
126.16826982387218
 21
203.75000000000003
  0
CIRCLE
  8
_1-f_寸法
  6
CONTINUOUS
 62
    4
 10
116.66666666666666
 20
200
 40
1.6666666666666665
  0
TEXT
  8
_1-f_寸法
 62
    4
 10
116.04166666666666
 20
198.75
 40
2.5
 41
1
 50
0
  1
3
  0
LINE
  8
_1-f_寸法
  6
CONTINUOUS
 62
    4
 10
110.49999999999996
 20
203.50000000000006
 11
115.21719014127299
 21
200.82267586576396
  0
CIRCLE
  8
_1-f_寸法
  6
CONTINUOUS
 62
    4
 10
89.999999999999972
 20
206.66666666666666
 40
1.6666666666666665
  0
TEXT
  8
_1-f_寸法
 62
    4
 10
89.374999999999972
 20
205.41666666666666
 40
2.5
 41
1
 50
0
  1
4
  0
CIRCLE
  8
_1-f_寸法
  6
CONTINUOUS
 62
    4
 10
100
 20
206.66666666666666
 40
1.6666666666666665
  0
TEXT
  8
_1-f_寸法
 62
    4
 10
99.375
 20
205.41666666666666
 40
2.5
 41
1
 50
0
  1
5
  0
LINE
  8
_1-f_寸法
  6
CONTINUOUS
 62
    4
 10
94.999999999999901
 20
210.29333318333329
 11
91.349137015949964
 21
207.64524067509493
  0
LINE
  8
_1-f_寸法
  6
CONTINUOUS
 62
    4
 10
96.762500450000303
 20
210.9083333333333
 11
98.988791320107183
 21
207.99151940696919
  0
CIRCLE
  8
_1-f_寸法
  6
CONTINUOUS
 62
    4
 10
78.333333333333371
 20
218.33333333333331
 40
1.6666666666666665
  0
TEXT
  8
_1-f_寸法
 62
    4
 10
77.708333333333314
 20
217.08333333333331
 40
2.5
 41
1
 50
0
  1
6
  0
LINE
  8
_1-f_寸法
  6
CONTINUOUS
 62
    4
 10
79.033201290960506
 20
216.82073205749603
 11
82.01404540537763
 21
210.37833308580085
  0
INSERT
  2
-006-_4_
  8
_1-8_小物
 10
210
 20
148.5
 41
1
 42
1
 50
0
  0
LINE
  8
_1-0_躯体
  6
CONTINUOUS
 62
    6
 10
301.66666666666652
 20
234.00000066666661
 11
301.66666666666652
 21
184.44145355866914
  0
ARC
  8
_1-0_躯体
  6
CONTINUOUS
 62
    4
 10
322.24999933333322
 20
231.50000066666661
 40
0.8333329999999998
 50
90
 51
180
  0
ARC
  8
_1-0_躯体
  6
CONTINUOUS
 62
    4
 10
333.91666633333324
 20
231.50000066666661
 40
0.8333329999999998
 50
0
 51
90
  0
LINE
  8
_1-0_躯体
  6
CONTINUOUS
 62
    4
 10
322.24999933333322
 20
232.33333366666665
 11
333.91666633333324
 21
232.33333366666665
  0
LINE
  8
_1-0_躯体
  6
CONTINUOUS
 62
    4
 10
336.1666663333333
 20
234.00000066666661
 11
346.66666633333335
 21
234.00000066666661
  0
LINE
  8
_1-0_躯体
  6
CONTINUOUS
 62
    4
 10
319.99999933333322
 20
234.00000066666661
 11
318.3333333333332
 21
234.00000066666661
  0
LINE
  8
_1-0_躯体
  6
CONTINUOUS
 62
    4
 10
318.3333333333332
 20
234.00000066666661
 11
318.3333333333332
 21
221.33333366666665
  0
LINE
  8
_1-0_躯体
  6
CONTINUOUS
 62
    4
 10
346.66666633333335
 20
215.00000066666658
 11
318.3333333333332
 21
215.00000066666658
  0
LINE
  8
_1-0_躯体
  6
CONTINUOUS
 62
    4
 10
346.66666633333335
 20
214.33333366666662
 11
318.3333333333332
 21
214.33333366666662
  0
LINE
  8
_1-0_躯体
  6
CONTINUOUS
 62
    4
 10
346.66666633333335
 20
213.66666666666657
 11
318.3333333333332
 21
213.66666666666657
  0
LINE
  8
_1-0_躯体
  6
CONTINUOUS
 62
    4
 10
321.99999933333322
 20
221.33333366666665
 11
318.3333333333332
 21
221.33333366666665
  0
LINE
  8
_1-0_躯体
  6
CONTINUOUS
 62
    4
 10
320.74999933333322
 20
215.16666666666657
 11
321.71065533333331
 21
215.16666666666657
  0
LINE
  8
_1-0_躯体
  6
CONTINUOUS
 62
    4
 10
320.74999933333322
 20
215.00000066666658
 11
321.74999933333322
 21
215.00000066666658
  0
LINE
  8
_1-0_躯体
  6
CONTINUOUS
 62
    4
 10
327.74999933333322
 20
215.00000066666658
 11
328.0833333333332
 21
215.16666666666657
  0
LINE
  8
_1-0_躯体
  6
CONTINUOUS
 62
    4
 10
328.0833333333332
 20
215.16666666666657
 11
328.41666633333324
 21
215.00000066666658
  0
LINE
  8
_1-0_躯体
  6
CONTINUOUS
 62
    4
 10
326.41666633333324
 20
215.00000066666658
 11
327.74999933333322
 21
215.00000066666658
  0
LINE
  8
_1-0_躯体
  6
CONTINUOUS
 62
    4
 10
326.45601133333332
 20
215.16666666666657
 11
327.71065533333331
 21
215.16666666666657
  0
LINE
  8
_1-0_躯体
  6
CONTINUOUS
 62
    4
 10
327.71065533333331
 20
215.16666666666657
 11
328.0833333333332
 21
215.3530056666666
  0
LINE
  8
_1-0_躯体
  6
CONTINUOUS
 62
    4
 10
328.0833333333332
 20
215.3530056666666
 11
328.45601133333332
 21
215.16666666666657
  0
LINE
  8
_1-0_躯体
  6
CONTINUOUS
 62
    4
 10
320.91666633333324
 20
220.33333366666665
 11
321.0833333333332
 21
220.33333366666665
  0
LINE
  8
_1-0_躯体
  6
CONTINUOUS
 62
    4
 10
321.0833333333332
 20
220.33333366666665
 11
321.0833333333332
 21
220.83333366666665
  0
ARC
  8
_1-0_躯体
  6
CONTINUOUS
 62
    4
 10
320.5833333333332
 20
220.83333366666665
 40
0.5
 50
0
 51
90
  0
LINE
  8
_1-0_躯体
  6
CONTINUOUS
 62
    4
 10
320.24999933333322
 20
221.33333366666665
 11
320.5833333333332
 21
221.33333366666665
  0
ARC
  8
_1-0_躯体
  6
CONTINUOUS
 62
    4
 10
320.24999933333322
 20
220.83333366666665
 40
0.5
 50
90
 51
180
  0
LINE
  8
_1-0_躯体
  6
CONTINUOUS
 62
    4
 10
319.74999933333322
 20
220.83333366666665
 11
319.74999933333322
 21
216.00000066666658
  0
ARC
  8
_1-0_躯体
  6
CONTINUOUS
 62
    4
 10
320.5833333333332
 20
220.83333366666665
 40
0.3333329999999999
 50
0
 51
90
  0
LINE
  8
_1-0_躯体
  6
CONTINUOUS
 62
    4
 10
320.24999933333322
 20
221.16666666666663
 11
320.5833333333332
 21
221.16666666666663
  0
ARC
  8
_1-0_躯体
  6
CONTINUOUS
 62
    4
 10
320.24999933333322
 20
220.83333366666665
 40
0.3333329999999999
 50
90
 51
180
  0
ARC
  8
_1-0_躯体
  6
CONTINUOUS
 62
    4
 10
320.74999933333322
 20
216.00000066666658
 40
0.8333329999999998
 50
180
 51
270
  0
LINE
  8
_1-0_躯体
  6
CONTINUOUS
 62
    4
 10
319.91666633333324
 20
220.83333366666665
 11
319.91666633333324
 21
216.00000066666658
  0
LINE
  8
_1-0_躯体
  6
CONTINUOUS
 62
    4
 10
320.91666633333324
 20
220.33333366666665
 11
320.91666633333324
 21
220.83333366666665
  0
ARC
  8
_1-0_躯体
  6
CONTINUOUS
 62
    4
 10
320.74999933333322
 20
216.00000066666658
 40
1
 50
180
 51
270
  0
LINE
  8
_1-0_躯体
  6
CONTINUOUS
 62
    4
 10
335.24999933333322
 20
220.33333366666665
 11
335.08333333333326
 21
220.33333366666665
  0
LINE
  8
_1-0_躯体
  6
CONTINUOUS
 62
    4
 10
335.08333333333326
 20
220.33333366666665
 11
335.08333333333326
 21
220.83333366666665
  0
ARC
  8
_1-0_躯体
  6
CONTINUOUS
 62
    4
 10
335.58333333333326
 20
220.83333366666665
 40
0.5
 50
90
 51
180
  0
LINE
  8
_1-0_躯体
  6
CONTINUOUS
 62
    4
 10
335.9166663333333
 20
221.33333366666665
 11
335.58333333333326
 21
221.33333366666665
  0
ARC
  8
_1-0_躯体
  6
CONTINUOUS
 62
    4
 10
335.9166663333333
 20
220.83333366666665
 40
0.5
 50
0
 51
90
  0
LINE
  8
_1-0_躯体
  6
CONTINUOUS
 62
    4
 10
336.4166663333333
 20
220.83333366666665
 11
336.4166663333333
 21
216.00000066666658
  0
ARC
  8
_1-0_躯体
  6
CONTINUOUS
 62
    4
 10
335.58333333333326
 20
220.83333366666665
 40
0.3333329999999999
 50
90
 51
180
  0
LINE
  8
_1-0_躯体
  6
CONTINUOUS
 62
    4
 10
335.9166663333333
 20
221.16666666666663
 11
335.58333333333326
 21
221.16666666666663
  0
ARC
  8
_1-0_躯体
  6
CONTINUOUS
 62
    4
 10
335.9166663333333
 20
220.83333366666665
 40
0.3333329999999999
 50
0
 51
90
  0
ARC
  8
_1-0_躯体
  6
CONTINUOUS
 62
    4
 10
335.4166663333333
 20
216.00000066666658
 40
0.8333329999999998
 50
270
 51
0
  0
LINE
  8
_1-0_躯体
  6
CONTINUOUS
 62
    4
 10
336.24999933333322
 20
220.83333366666665
 11
336.24999933333322
 21
216.00000066666658
  0
LINE
  8
_1-0_躯体
  6
CONTINUOUS
 62
    4
 10
335.24999933333322
 20
220.33333366666665
 11
335.24999933333322
 21
220.83333366666665
  0
ARC
  8
_1-0_躯体
  6
CONTINUOUS
 62
    4
 10
335.4166663333333
 20
216.00000066666658
 40
1
 50
270
 51
0
  0
LINE
  8
_1-0_躯体
  6
CONTINUOUS
 62
    4
 10
321.74999933333322
 20
215.00000066666658
 11
322.0833333333332
 21
215.16666666666657
  0
LINE
  8
_1-0_躯体
  6
CONTINUOUS
 62
    4
 10
322.0833333333332
 20
215.16666666666657
 11
322.5833333333332
 21
215.00000066666658
  0
LINE
  8
_1-0_躯体
  6
CONTINUOUS
 62
    4
 10
321.71065533333331
 20
215.16666666666657
 11
322.07054433333315
 21
215.3466116666666
  0
LINE
  8
_1-0_躯体
  6
CONTINUOUS
 62
    4
 10
322.07054433333315
 20
215.3466116666666
 11
322.5833333333332
 21
215.17568266666655
  0
LINE
  8
_1-0_躯体
  6
CONTINUOUS
 62
    4
 10
323.0833333333332
 20
215.16666666666657
 11
322.5833333333332
 21
215.00000066666658
  0
LINE
  8
_1-0_躯体
  6
CONTINUOUS
 62
    4
 10
322.5833333333332
 20
215.17568266666655
 11
323.0833333333332
 21
215.34234866666662
  0
LINE
  8
_1-0_躯体
  6
CONTINUOUS
 62
    4
 10
324.0833333333332
 20
215.16666666666657
 11
323.5833333333332
 21
215.00000066666658
  0
LINE
  8
_1-0_躯体
  6
CONTINUOUS
 62
    4
 10
323.5833333333332
 20
215.17568266666655
 11
324.0833333333332
 21
215.34234866666662
  0
LINE
  8
_1-0_躯体
  6
CONTINUOUS
 62
    4
 10
323.0833333333332
 20
215.16666666666657
 11
323.5833333333332
 21
215.00000066666658
  0
LINE
  8
_1-0_躯体
  6
CONTINUOUS
 62
    4
 10
323.5833333333332
 20
215.17568266666655
 11
323.0833333333332
 21
215.34234866666662
  0
LINE
  8
_1-0_躯体
  6
CONTINUOUS
 62
    4
 10
326.0833333333332
 20
215.16666666666657
 11
325.5833333333332
 21
215.00000066666658
  0
LINE
  8
_1-0_躯体
  6
CONTINUOUS
 62
    4
 10
326.0961213333332
 20
215.3466116666666
 11
325.5833333333332
 21
215.17568266666655
  0
LINE
  8
_1-0_躯体
  6
CONTINUOUS
 62
    4
 10
325.0833333333332
 20
215.16666666666657
 11
325.5833333333332
 21
215.00000066666658
  0
LINE
  8
_1-0_躯体
  6
CONTINUOUS
 62
    4
 10
325.5833333333332
 20
215.17568266666655
 11
325.0833333333332
 21
215.34234866666662
  0
LINE
  8
_1-0_躯体
  6
CONTINUOUS
 62
    4
 10
324.0833333333332
 20
215.16666666666657
 11
324.5833333333332
 21
215.00000066666658
  0
LINE
  8
_1-0_躯体
  6
CONTINUOUS
 62
    4
 10
324.5833333333332
 20
215.17568266666655
 11
324.0833333333332
 21
215.34234866666662
  0
LINE
  8
_1-0_躯体
  6
CONTINUOUS
 62
    4
 10
325.0833333333332
 20
215.16666666666657
 11
324.5833333333332
 21
215.00000066666658
  0
LINE
  8
_1-0_躯体
  6
CONTINUOUS
 62
    4
 10
324.5833333333332
 20
215.17568266666655
 11
325.0833333333332
 21
215.34234866666662
  0
LINE
  8
_1-0_躯体
  6
CONTINUOUS
 62
    4
 10
326.41666633333324
 20
215.00000066666658
 11
326.0833333333332
 21
215.16666666666657
  0
LINE
  8
_1-0_躯体
  6
CONTINUOUS
 62
    4
 10
326.45601133333332
 20
215.16666666666657
 11
326.0961213333332
 21
215.3466116666666
  0
LINE
  8
_1-0_躯体
  6
CONTINUOUS
 62
    4
 10
329.74999933333322
 20
215.00000066666658
 11
328.41666633333324
 21
215.00000066666658
  0
LINE
  8
_1-0_躯体
  6
CONTINUOUS
 62
    4
 10
329.71065533333331
 20
215.16666666666657
 11
328.45601133333332
 21
215.16666666666657
  0
LINE
  8
_1-0_躯体
  6
CONTINUOUS
 62
    4
 10
334.41666633333324
 20
215.00000066666658
 11
334.0833333333332
 21
215.16666666666657
  0
LINE
  8
_1-0_躯体
  6
CONTINUOUS
 62
    4
 10
334.0833333333332
 20
215.16666666666657
 11
333.5833333333332
 21
215.00000066666658
  0
LINE
  8
_1-0_躯体
  6
CONTINUOUS
 62
    4
 10
334.45601133333332
 20
215.16666666666657
 11
334.0961213333332
 21
215.3466116666666
  0
LINE
  8
_1-0_躯体
  6
CONTINUOUS
 62
    4
 10
334.0961213333332
 20
215.3466116666666
 11
333.5833333333332
 21
215.17568266666655
  0
LINE
  8
_1-0_躯体
  6
CONTINUOUS
 62
    4
 10
333.0833333333332
 20
215.16666666666657
 11
333.5833333333332
 21
215.00000066666658
  0
LINE
  8
_1-0_躯体
  6
CONTINUOUS
 62
    4
 10
333.5833333333332
 20
215.17568266666655
 11
333.0833333333332
 21
215.34234866666662
  0
LINE
  8
_1-0_躯体
  6
CONTINUOUS
 62
    4
 10
332.0833333333332
 20
215.16666666666657
 11
332.5833333333332
 21
215.00000066666658
  0
LINE
  8
_1-0_躯体
  6
CONTINUOUS
 62
    4
 10
332.5833333333332
 20
215.17568266666655
 11
332.0833333333332
 21
215.34234866666662
  0
LINE
  8
_1-0_躯体
  6
CONTINUOUS
 62
    4
 10
333.0833333333332
 20
215.16666666666657
 11
332.5833333333332
 21
215.00000066666658
  0
LINE
  8
_1-0_躯体
  6
CONTINUOUS
 62
    4
 10
332.5833333333332
 20
215.17568266666655
 11
333.0833333333332
 21
215.34234866666662
  0
LINE
  8
_1-0_躯体
  6
CONTINUOUS
 62
    4
 10
330.0833333333332
 20
215.16666666666657
 11
330.5833333333332
 21
215.00000066666658
  0
LINE
  8
_1-0_躯体
  6
CONTINUOUS
 62
    4
 10
330.07054433333326
 20
215.3466116666666
 11
330.5833333333332
 21
215.17568266666655
  0
LINE
  8
_1-0_躯体
  6
CONTINUOUS
 62
    4
 10
331.0833333333332
 20
215.16666666666657
 11
330.5833333333332
 21
215.00000066666658
  0
LINE
  8
_1-0_躯体
  6
CONTINUOUS
 62
    4
 10
330.5833333333332
 20
215.17568266666655
 11
331.0833333333332
 21
215.34234866666662
  0
LINE
  8
_1-0_躯体
  6
CONTINUOUS
 62
    4
 10
332.0833333333332
 20
215.16666666666657
 11
331.5833333333332
 21
215.00000066666658
  0
LINE
  8
_1-0_躯体
  6
CONTINUOUS
 62
    4
 10
331.5833333333332
 20
215.17568266666655
 11
332.0833333333332
 21
215.34234866666662
  0
LINE
  8
_1-0_躯体
  6
CONTINUOUS
 62
    4
 10
331.0833333333332
 20
215.16666666666657
 11
331.5833333333332
 21
215.00000066666658
  0
LINE
  8
_1-0_躯体
  6
CONTINUOUS
 62
    4
 10
331.5833333333332
 20
215.17568266666655
 11
331.0833333333332
 21
215.34234866666662
  0
LINE
  8
_1-0_躯体
  6
CONTINUOUS
 62
    4
 10
329.74999933333322
 20
215.00000066666658
 11
330.0833333333332
 21
215.16666666666657
  0
LINE
  8
_1-0_躯体
  6
CONTINUOUS
 62
    4
 10
329.71065533333331
 20
215.16666666666657
 11
330.07054433333326
 21
215.3466116666666
  0
LINE
  8
_1-0_躯体
  6
CONTINUOUS
 62
    4
 10
335.4166663333333
 20
215.16666666666657
 11
334.45601133333332
 21
215.16666666666657
  0
LINE
  8
_1-0_躯体
  6
CONTINUOUS
 62
    4
 10
335.4166663333333
 20
215.00000066666658
 11
334.41666633333324
 21
215.00000066666658
  0
LINE
  8
_1-0_躯体
  6
CONTINUOUS
 62
    4
 10
320.16666633333324
 20
221.00000066666661
 11
320.5333333333333
 21
221.16666666666663
  0
LINE
  8
_1-0_躯体
  6
CONTINUOUS
 62
    4
 10
320.5333333333333
 20
221.16666666666663
 11
321.03961033333326
 21
219.9716236666666
  0
ARC
  8
_1-0_躯体
  6
CONTINUOUS
 62
    4
 10
321.49999933333322
 20
220.16666666666663
 40
0.5
 50
202.95984199999862
 51
0
  0
LINE
  8
_1-0_躯体
  6
CONTINUOUS
 62
    4
 10
320.16666633333324
 20
221.00000066666661
 11
320.16666633333324
 21
219.33333366666665
  0
LINE
  8
_1-0_躯体
  6
CONTINUOUS
 62
    4
 10
320.36666633333323
 20
221.09090966666662
 11
320.36666633333323
 21
219.33333366666665
  0
LINE
  8
_1-0_躯体
  6
CONTINUOUS
 62
    4
 10
321.99999933333322
 20
220.16666666666663
 11
321.99999933333322
 21
225.1307686666666
  0
ARC
  8
_1-0_躯体
  6
CONTINUOUS
 62
    4
 10
321.3333333333332
 20
219.33333366666665
 40
1.1666669999999999
 50
180
 51
270
  0
LINE
  8
_1-0_躯体
  6
CONTINUOUS
 62
    4
 10
321.3333333333332
 20
218.16666666666657
 11
334.83333333333326
 21
218.16666666666657
  0
LINE
  8
_1-0_躯体
  6
CONTINUOUS
 62
    4
 10
319.99999933333322
 20
234.2000006666666
 11
319.99999933333322
 21
225.66666666666663
  0
LINE
  8
_1-0_躯体
  6
CONTINUOUS
 62
    4
 10
336.1666663333333
 20
234.2000006666666
 11
336.1666663333333
 21
225.66666666666663
  0
ARC
  8
_1-0_躯体
  6
CONTINUOUS
 62
    4
 10
321.3333333333332
 20
219.33333366666665
 40
0.9666669999999998
 50
180
 51
270
  0
LINE
  8
_1-0_躯体
  6
CONTINUOUS
 62
    4
 10
334.83333333333326
 20
218.36666666666656
 11
321.3333333333332
 21
218.36666666666656
  0
LINE
  8
_1-0_躯体
  6
CONTINUOUS
 62
    4
 10
319.99999933333322
 20
225.66666666666663
 11
321.99999933333322
 21
225.1307686666666
  0
LINE
  8
_1-0_躯体
  6
CONTINUOUS
 62
    4
 10
319.99999933333322
 20
234.2000006666666
 11
336.1666663333333
 21
234.2000006666666
  0
ARC
  8
_1-0_躯体
  6
CONTINUOUS
 62
    4
 10
322.24999933333322
 20
227.16666666666663
 40
0.8333329999999998
 50
180
 51
270
  0
LINE
  8
_1-0_躯体
  6
CONTINUOUS
 62
    4
 10
321.41666633333324
 20
227.16666666666663
 11
321.41666633333324
 21
231.50000066666661
  0
LINE
  8
_1-0_躯体
  6
CONTINUOUS
 62
    4
 10
322.24999933333322
 20
226.33333366666665
 11
323.0833333333332
 21
226.33333366666665
  0
ARC
  8
_1-0_躯体
  6
CONTINUOUS
 62
    4
 10
324.74999933333322
 20
220.66666666666663
 40
1
 50
180
 51
0
  0
ARC
  8
_1-0_躯体
  6
CONTINUOUS
 62
    4
 10
323.0833333333332
 20
225.66666666666663
 40
0.666667
 50
0
 51
90
  0
LINE
  8
_1-0_躯体
  6
CONTINUOUS
 62
    4
 10
323.74999933333322
 20
220.66666666666663
 11
323.74999933333322
 21
225.66666666666663
  0
ARC
  8
_1-0_躯体
  6
CONTINUOUS
 62
    4
 10
326.41666633333324
 20
225.66666666666663
 40
0.666667
 50
90
 51
180
  0
LINE
  8
_1-0_躯体
  6
CONTINUOUS
 62
    4
 10
325.74999933333322
 20
220.66666666666663
 11
325.74999933333322
 21
225.66666666666663
  0
ARC
  8
_1-0_躯体
  6
CONTINUOUS
 62
    4
 10
329.74999933333322
 20
225.66666666666663
 40
0.666667
 50
0
 51
90
  0
LINE
  8
_1-0_躯体
  6
CONTINUOUS
 62
    4
 10
326.41666633333324
 20
226.33333366666665
 11
329.74999933333322
 21
226.33333366666665
  0
LINE
  8
_1-0_躯体
  6
CONTINUOUS
 62
    4
 10
335.99999933333322
 20
221.00000066666661
 11
335.63333333333321
 21
221.16666666666663
  0
LINE
  8
_1-0_躯体
  6
CONTINUOUS
 62
    4
 10
335.63333333333321
 20
221.16666666666663
 11
335.12705533333326
 21
219.9716236666666
  0
ARC
  8
_1-0_躯体
  6
CONTINUOUS
 62
    4
 10
334.66666633333324
 20
220.16666666666663
 40
0.5
 50
180
 51
337.04015800000138
  0
ARC
  8
_1-0_躯体
  6
CONTINUOUS
 62
    4
 10
334.83333333333326
 20
219.33333366666665
 40
1.1666669999999999
 50
270
 51
0
  0
LINE
  8
_1-0_躯体
  6
CONTINUOUS
 62
    4
 10
335.99999933333322
 20
221.00000066666661
 11
335.99999933333322
 21
219.33333366666665
  0
ARC
  8
_1-0_躯体
  6
CONTINUOUS
 62
    4
 10
334.83333333333326
 20
219.33333366666665
 40
0.9666669999999998
 50
270
 51
0
  0
LINE
  8
_1-0_躯体
  6
CONTINUOUS
 62
    4
 10
335.79999933333329
 20
221.09090966666662
 11
335.79999933333329
 21
219.33333366666665
  0
LINE
  8
_1-0_躯体
  6
CONTINUOUS
 62
    4
 10
334.16666633333324
 20
220.16666666666663
 11
334.16666633333324
 21
225.1307686666666
  0
LINE
  8
_1-0_躯体
  6
CONTINUOUS
 62
    4
 10
336.1666663333333
 20
225.66666666666663
 11
334.16666633333324
 21
225.1307686666666
  0
ARC
  8
_1-0_躯体
  6
CONTINUOUS
 62
    4
 10
331.41666633333324
 20
220.66666666666663
 40
1
 50
180
 51
0
  0
ARC
  8
_1-0_躯体
  6
CONTINUOUS
 62
    4
 10
333.0833333333332
 20
225.66666666666663
 40
0.666667
 50
90
 51
180
  0
LINE
  8
_1-0_躯体
  6
CONTINUOUS
 62
    4
 10
332.41666633333324
 20
220.66666666666663
 11
332.41666633333324
 21
225.66666666666663
  0
LINE
  8
_1-0_躯体
  6
CONTINUOUS
 62
    4
 10
330.41666633333324
 20
220.66666666666663
 11
330.41666633333324
 21
225.66666666666663
  0
ARC
  8
_1-0_躯体
  6
CONTINUOUS
 62
    4
 10
333.91666633333324
 20
227.16666666666663
 40
0.8333329999999998
 50
270
 51
0
  0
LINE
  8
_1-0_躯体
  6
CONTINUOUS
 62
    4
 10
334.74999933333322
 20
227.16666666666663
 11
334.74999933333322
 21
231.50000066666661
  0
LINE
  8
_1-0_躯体
  6
CONTINUOUS
 62
    4
 10
333.91666633333324
 20
226.33333366666665
 11
333.0833333333332
 21
226.33333366666665
  0
LINE
  8
_1-0_躯体
  6
CONTINUOUS
 62
    4
 10
346.66666633333335
 20
213.00000066666658
 11
318.3333333333332
 21
213.00000066666658
  0
LINE
  8
_1-0_躯体
  6
CONTINUOUS
 62
    4
 10
346.66666633333335
 20
212.33333366666662
 11
318.3333333333332
 21
212.33333366666662
  0
LINE
  8
_1-0_躯体
  6
CONTINUOUS
 62
    4
 10
318.3333333333332
 20
211.66666666666657
 11
346.66666633333335
 21
211.66666666666657
  0
INSERT
  2
-007-$QLE_2_
  8
_1-f_寸法
 10
210
 20
148.5
 41
1
 42
1
 50
0
  0
INSERT
  2
-008-$QLE_3_
  8
_1-f_寸法
 10
210
 20
148.5
 41
1
 42
1
 50
0
  0
LINE
  8
_1-0_躯体
  6
CONTINUOUS
 62
    4
 10
318.3333333333332
 20
211.66666666666657
 11
318.3333333333332
 21
215.00000066666658
  0
LINE
  8
_1-0_躯体
  6
CENTER2
 62
    4
 10
309.99999999999983
 20
234.2000006666666
 11
309.99999999999983
 21
198.00000033333328
  0
LINE
  8
_1-f_寸法
  6
CONTINUOUS
 62
    4
 10
338.33333333333331
 20
180
 11
338.33333333333331
 21
173.40000000000001
  0
LINE
  8
_1-f_寸法
  6
CONTINUOUS
 62
    4
 10
301.66666666666663
 20
180
 11
301.66666666666663
 21
173.40000000000001
  0
POINT
  8
_1-f_寸法
 62
    4
 10
301.66666666666663
 20
175
  0
POINT
  8
_1-f_寸法
 62
    4
 10
338.33333333333331
 20
175
  0
LINE
  8
_1-f_寸法
  6
CONTINUOUS
 62
    4
 10
301.66666666666663
 20
175
 11
338.33333333333331
 21
175
  0
TEXT
  8
_1-f_寸法
 62
    4
 10
317.59999999999997
 20
175
 40
3.2000000000000002
 41
1
 50
0
  1
110
  0
LINE
  8
_1-f_寸法
  6
CONTINUOUS
 62
    4
 10
285
 20
211.66666666666666
 11
316.66666666666663
 21
211.66666666666666
  0
LINE
  8
_1-f_寸法
  6
CONTINUOUS
 62
    4
 10
118.33333333333334
 20
235
 11
118.33333333333334
 21
241.59999999999997
  0
LINE
  8
_1-f_寸法
  6
CONTINUOUS
 62
    4
 10
101.66666666666664
 20
235
 11
101.66666666666664
 21
241.59999999999997
  0
POINT
  8
_1-f_寸法
 62
    4
 10
101.66666666666664
 20
240
  0
POINT
  8
_1-f_寸法
 62
    4
 10
118.33333333333334
 20
240
  0
LINE
  8
_1-f_寸法
  6
CONTINUOUS
 62
    4
 10
101.66666666666664
 20
240
 11
118.33333333333334
 21
240
  0
TEXT
  8
_1-f_寸法
 62
    4
 10
108.39999999999999
 20
240
 40
3.2000000000000002
 41
1
 50
0
  1
50
  0
LINE
  8
_1-f_寸法
  6
CONTINUOUS
 62
    4
 10
318.3333333333332
 20
234.99999999999991
 11
318.3333333333332
 21
241.59999999999991
  0
LINE
  8
_1-f_寸法
  6
CONTINUOUS
 62
    4
 10
301.66666666666652
 20
234.99999999999991
 11
301.66666666666652
 21
241.59999999999991
  0
POINT
  8
_1-f_寸法
 62
    4
 10
301.66666666666652
 20
239.99999999999991
  0
POINT
  8
_1-f_寸法
 62
    4
 10
318.3333333333332
 20
239.99999999999991
  0
LINE
  8
_1-f_寸法
  6
CONTINUOUS
 62
    4
 10
301.66666666666652
 20
239.99999999999991
 11
318.3333333333332
 21
239.99999999999991
  0
TEXT
  8
_1-f_寸法
 62
    4
 10
308.39999999999986
 20
239.99999999999991
 40
3.2000000000000002
 41
1
 50
0
  1
50
  0
INSERT
  2
-009-$QLE_4_
  8
_1-f_寸法
 10
210
 20
148.5
 41
1
 42
1
 50
0
  0
INSERT
  2
-010-$QLE_5_
  8
_1-f_寸法
 10
210
 20
148.5
 41
1
 42
1
 50
0
  0
CIRCLE
  8
_1-f_寸法
  6
CONTINUOUS
 62
    4
 10
328.33333333333331
 20
200
 40
1.6666666666666665
  0
TEXT
  8
_1-f_寸法
 62
    4
 10
327.70833333333331
 20
198.75
 40
2.5
 41
1
 50
0
  1
3
  0
CIRCLE
  8
_1-f_寸法
  6
CONTINUOUS
 62
    4
 10
298.33333333333331
 20
186.66666666666666
 40
1.6666666666666665
  0
TEXT
  8
_1-f_寸法
 62
    4
 10
297.70833333333331
 20
185.41666666666666
 40
2.5
 41
1
 50
0
  1
7
  0
CIRCLE
  8
_1-f_寸法
  6
CONTINUOUS
 62
    4
 10
335
 20
200
 40
1.6666666666666665
  0
TEXT
  8
_1-f_寸法
 62
    4
 10
334.375
 20
198.75
 40
2.5
 41
1
 50
0
  1
1
  0
LINE
  8
_1-f_寸法
  6
CONTINUOUS
 62
    4
 10
338.33333333333331
 20
185
 11
338.33333333333331
 21
201.66666666666666
  0
LINE
  8
_1-f_寸法
  6
CONTINUOUS
 62
    4
 10
340
 20
188.5
 11
311.66666666666663
 21
188.5
  0
LINE
  8
_1-f_寸法
  6
CONTINUOUS
 62
    4
 10
345
 20
188.5
 11
353.26666666666665
 21
188.5
  0
LINE
  8
_1-f_寸法
  6
CONTINUOUS
 62
    4
 10
345
 20
211.66666666666657
 11
353.26666666666665
 21
211.66666666666657
  0
POINT
  8
_1-f_寸法
 62
    4
 10
351.66666666666663
 20
211.66666666666657
  0
POINT
  8
_1-f_寸法
 62
    4
 10
351.66666666666663
 20
188.5
  0
LINE
  8
_1-f_寸法
  6
CONTINUOUS
 62
    4
 10
351.66666666666663
 20
211.66666666666657
 11
351.66666666666663
 21
188.5
  0
TEXT
  8
_1-f_寸法
 62
    4
 10
351.66666666666663
 20
196.88333333333333
 40
3.2000000000000002
 41
1
 50
90
  1
69.5
  0
LINE
  8
_1-f_寸法
  6
CONTINUOUS
 62
    4
 10
334.16666666666663
 20
201.44337567297407
 11
332.83493653641909
 21
203.74999992053304
  0
LINE
  8
_1-f_寸法
  6
CONTINUOUS
 62
    4
 10
324.57118532310596
 20
203.49999992053307
 11
327.11307505455233
 21
201.13523015765273
  0
LINE
  8
_1-f_寸法
  6
CONTINUOUS
 62
    4
 10
299.77670900630739
 20
187.5
 11
302.44046275897711
 21
189.03791894615875
  0
CIRCLE
  8
_1-f_寸法
  6
CONTINUOUS
 62
    4
 10
106.66666666666666
 20
213.33333333333331
 40
1.6666666666666665
  0
TEXT
  8
_1-f_寸法
 62
    4
 10
106.04166666666666
 20
212.08333333333331
 40
2.5
 41
1
 50
0
  1
2
  0
LINE
  8
_1-f_寸法
  6
CONTINUOUS
 62
    4
 10
105.83333333333333
 20
211.88995766035924
 11
103.70293386305403
 21
208.19999753741769
  0
LINE
  8
_1-0_躯体
  6
CONTINUOUS
 62
    4
 10
134.16666633333338
 20
221.33333366666673
 11
146.66666633333341
 21
221.33333366666673
  0
LINE
  8
_1-0_躯体
  6
CONTINUOUS
 62
    4
 10
334.16666633333324
 20
221.33333366666665
 11
346.66666633333335
 21
221.33333366666665
  0
CIRCLE
  8
_1-f_寸法
  6
CONTINUOUS
 62
    4
 10
305.83333333333331
 20
206.66666666666666
 40
1.6666666666666665
  0
TEXT
  8
_1-f_寸法
 62
    4
 10
305.20833333333331
 20
205.41666666666666
 40
2.5
 41
1
 50
0
  1
4
  0
LINE
  8
_1-f_寸法
  6
CONTINUOUS
 62
    4
 10
305
 20
205.22329099369259
 11
302.94658194150486
 21
201.66666658719967
  0
CIRCLE
  8
_1-f_寸法
  6
CONTINUOUS
 62
    4
 10
295
 20
196.66666666666666
 40
1.6666666666666665
  0
TEXT
  8
_1-f_寸法
 62
    4
 10
294.375
 20
195.41666666666666
 40
2.5
 41
1
 50
0
  1
6
  0
LINE
  8
_1-f_寸法
  6
CONTINUOUS
 62
    4
 10
296.17851130197755
 20
197.84517796864421
 11
299.3333332538665
 21
200.99999992053313
  0
LINE
  8
_1-f_寸法
  6
CONTINUOUS
 62
    4
 10
285.00000000000034
 20
201.6666665871997
 11
278.39999999999998
 21
201.6666665871997
  0
LINE
  8
_1-f_寸法
  6
CONTINUOUS
 62
    4
 10
285.00000000000034
 20
211.66666666666657
 11
278.39999999999998
 21
211.66666666666657
  0
POINT
  8
_1-f_寸法
 62
    4
 10
280
 20
211.66666666666657
  0
POINT
  8
_1-f_寸法
 62
    4
 10
280
 20
201.6666665871997
  0
LINE
  8
_1-f_寸法
  6
CONTINUOUS
 62
    4
 10
280
 20
211.66666666666657
 11
280
 21
201.6666665871997
  0
TEXT
  8
_1-f_寸法
 62
    4
 10
280
 20
205.06666662693317
 40
3.2000000000000002
 41
1
 50
90
  1
30
  0
CIRCLE
  8
_1-f_寸法
  6
CONTINUOUS
 62
    4
 10
298.33333333333331
 20
206.66666666666666
 40
1.6666666666666665
  0
TEXT
  8
_1-f_寸法
 62
    4
 10
297.70833333333331
 20
205.41666666666666
 40
2.5
 41
1
 50
0
  1
5
  0
LINE
  8
_1-f_寸法
  6
CONTINUOUS
 62
    4
 10
299.76554881561538
 20
205.81429550919518
 11
302.44999999999982
 21
204.21666666666684
  0
LINE
  8
_1-f_寸法
  6
CONTINUOUS
 62
    4
 10
300
 20
209.33333325386639
 11
293.39999999999998
 21
209.33333325386639
  0
LINE
  8
_1-f_寸法
  6
CONTINUOUS
 62
    4
 10
300
 20
211.66666666666666
 11
293.39999999999998
 21
211.66666666666666
  0
POINT
  8
_1-f_寸法
 62
    4
 10
295
 20
211.66666666666666
  0
POINT
  8
_1-f_寸法
 62
    4
 10
295
 20
209.33333325386639
  0
LINE
  8
_1-f_寸法
  6
CONTINUOUS
 62
    4
 10
295
 20
211.66666666666666
 11
295
 21
209.33333325386639
  0
TEXT
  8
_1-f_寸法
 62
    4
 10
295
 20
209.69999996026652
 40
3.2000000000000002
 41
1
 50
90
  1
7
  0
CIRCLE
  8
_1-f_寸法
  6
CONTINUOUS
 62
    4
 10
315
 20
196.66666666666666
 40
1.6666666666666665
  0
TEXT
  8
_1-f_寸法
 62
    4
 10
314.375
 20
195.41666666666666
 40
2.5
 41
1
 50
0
  1
2
  0
LINE
  8
_1-f_寸法
  6
CONTINUOUS
 62
    4
 10
313.56500993636905
 20
197.5143584119717
 11
306.53589698038678
 21
201.66666662693319
  0
LINE
  8
_1-0_躯体
  6
CENTER2
 62
    4
 10
304.7384606274403
 20
201.6666665871997
 11
285.00000000000034
 21
201.6666665871997
  0
LINE
  8
_1-5_ホルダ__
  6
CONTINUOUS
 62
    4
 10
101.66666666666666
 20
209.33333333333331
 11
101.66666666666666
 21
211.66666666666666
  0
LINE
  8
_1-5_ホルダ__
  6
CONTINUOUS
 62
    4
 10
86.666666666666586
 20
204
 11
86.666666666666586
 21
211.66666666666666
  0
LINE
  8
_1-5_ホルダ__
  6
CONTINUOUS
 62
    4
 10
86.666666666666586
 20
204.00000000000003
 11
126.66666666666666
 21
204
  0
LINE
  8
_1-5_ホルダ__
  6
CONTINUOUS
 62
    4
 10
101.66666666666666
 20
211.66666666666666
 11
86.666666666666586
 21
211.66666666666666
  0
LINE
  8
_1-5_ホルダ__
  6
DASHED1
 62
    4
 10
97.499999999999915
 20
211.13333333333333
 11
97.499999999999915
 21
211.66666666666666
  0
LINE
  8
_1-5_ホルダ__
  6
DASHED1
 62
    4
 10
92.499999999999915
 20
211.13333333333316
 11
92.499999999999915
 21
211.66666666666666
  0
ARC
  8
_1-5_ホルダ__
  6
CONTINUOUS
 62
    4
 10
120.66666666666652
 20
206.83333333333329
 40
0.8333333333333334
 50
90
 51
270
  0
ARC
  8
_1-5_ホルダ__
  6
CONTINUOUS
 62
    4
 10
122.66666666666666
 20
206.83333333333329
 40
0.8333333333333334
 50
270
 51
90
  0
LINE
  8
_1-5_ホルダ__
  6
CONTINUOUS
 62
    4
 10
122.66666666666666
 20
205.99999999999994
 11
120.66666666666652
 21
205.99999999999994
  0
LINE
  8
_1-5_ホルダ__
  6
CONTINUOUS
 62
    4
 10
120.66666666666652
 20
207.66666666666663
 11
122.66666666666666
 21
207.66666666666663
  0
LINE
  8
_1-5_ホルダ__
  6
CONTINUOUS
 62
    4
 10
101.66666666666666
 20
211.13333333333333
 11
86.666666666666586
 21
211.13333333333333
  0
LINE
  8
_1-5_ホルダ__
  6
CENTER2
 62
    4
 10
94.999999999999915
 20
212.66666666666666
 11
94.999999999999915
 21
210.13333333333333
  0
LINE
  8
_1-5_ホルダ__
  6
CONTINUOUS
 62
    4
 10
126.66666666666666
 20
204
 11
126.66666666666666
 21
205.33333333333331
  0
LINE
  8
_1-5_ホルダ__
  6
CONTINUOUS
 62
    4
 10
122.66666666666666
 20
209.33333333333331
 11
101.66666666666666
 21
209.33333333333331
  0
ARC
  8
_1-5_ホルダ__
  6
CONTINUOUS
 62
    4
 10
122.66666666666666
 20
205.33333333333331
 40
4
 50
0
 51
90
  0
LINE
  8
_1-5_ホルダ__
  6
DASHED1
 62
    4
 10
126.66666666666666
 20
205.03333333333333
 11
86.666666666666586
 21
205.03333333333333
  0
LINE
  8
_1-5_ホルダ__
  6
DASHED1
 62
    4
 10
126.66666666666666
 20
204.5
 11
86.666666666666586
 21
204.5
  0
ARC
  8
_1-5_ホルダ__
  6
CONTINUOUS
 62
    4
 10
329.33333333333314
 20
206.49999992053304
 40
0.8333333333333332
 50
270
 51
90
  0
ARC
  8
_1-5_ホルダ__
  6
CONTINUOUS
 62
    4
 10
327.33333333333314
 20
206.49999992053304
 40
0.8333333333333332
 50
90
 51
270
  0
LINE
  8
_1-5_ホルダ__
  6
CONTINUOUS
 62
    4
 10
327.33333333333314
 20
205.6666665871997
 11
329.33333333333314
 21
205.6666665871997
  0
LINE
  8
_1-5_ホルダ__
  6
CONTINUOUS
 62
    4
 10
329.33333333333314
 20
207.33333325386639
 11
327.33333333333314
 21
207.33333325386639
  0
LINE
  8
_1-5_ホルダ__
  6
CONTINUOUS
 62
    4
 10
302.1999999999997
 20
197.33333325386639
 11
301.66666666666652
 21
197.33333325386639
  0
ARC
  8
_1-5_ホルダ__
  6
CONTINUOUS
 62
    4
 10
304.99999999999983
 20
198.99999992053304
 40
1.6666666666666665
 50
270
 51
0
  0
ARC
  8
_1-5_ホルダ__
  6
CONTINUOUS
 62
    4
 10
304.99999999999983
 20
198.99999992053304
 40
1.6666666666666665
 50
270
 51
0
  0
LINE
  8
_1-5_ホルダ__
  6
CONTINUOUS
 62
    4
 10
306.66666666666652
 20
203.36666658719969
 11
306.66666666666652
 21
198.99999992053304
  0
ARC
  8
_1-5_ホルダ__
  6
CONTINUOUS
 62
    4
 10
308.33333333333314
 20
203.36666658719969
 40
1.6666666666666665
 50
90
 51
180
  0
LINE
  8
_1-5_ホルダ__
  6
CONTINUOUS
 62
    4
 10
304.99999999999983
 20
197.33333325386639
 11
301.66666666666652
 21
197.33333325386639
  0
LINE
  8
_1-5_ホルダ__
  6
CONTINUOUS
 62
    4
 10
308.33333333333314
 20
203.99999992053304
 11
308.33333333333314
 21
205.03333325386635
  0
LINE
  8
_1-5_ホルダ__
  6
CONTINUOUS
 62
    4
 10
302.1999999999997
 20
209.33333325386639
 11
302.1999999999997
 21
197.33333325386639
  0
LINE
  8
_1-5_ホルダ__
  6
CONTINUOUS
 62
    4
 10
301.66666666666652
 20
209.33333325386639
 11
301.66666666666652
 21
197.33333325386639
  0
LINE
  8
_1-5_ホルダ__
  6
DASHED1
 62
    4
 10
301.66666666666652
 20
199.1666665871997
 11
302.1999999999997
 21
199.1666665871997
  0
LINE
  8
_1-5_ホルダ__
  6
DASHED1
 62
    4
 10
301.66666666666652
 20
204.1666665871997
 11
302.1999999999997
 21
204.1666665871997
  0
LINE
  8
_1-5_ホルダ__
  6
CENTER2
 62
    4
 10
299.99999999999983
 20
201.6666665871997
 11
303.86666666666639
 21
201.6666665871997
  0
LINE
  8
_1-5_ホルダ__
  6
CONTINUOUS
 62
    4
 10
308.33333333333314
 20
203.99999992053304
 11
333.33333333333314
 21
203.99999992053304
  0
LINE
  8
_1-5_ホルダ__
  6
CONTINUOUS
 62
    4
 10
301.66666666666652
 20
209.33333325386639
 11
329.33333333333314
 21
209.33333325386639
  0
LINE
  8
_1-5_ホルダ__
  6
CONTINUOUS
 62
    4
 10
333.33333333333314
 20
203.99999992053304
 11
333.33333333333314
 21
205.33333325386639
  0
ARC
  8
_1-5_ホルダ__
  6
CONTINUOUS
 62
    4
 10
329.33333333333314
 20
205.33333325386639
 40
4
 50
0
 51
90
  0
LINE
  8
_1-5_ホルダ__
  6
DASHED1
 62
    4
 10
333.33333333333314
 20
205.03333325386635
 11
308.33333333333314
 21
205.03333325386635
  0
LINE
  8
_1-5_ホルダ__
  6
DASHED1
 62
    4
 10
308.33333333333314
 20
204.53333325386637
 11
333.33333333333314
 21
204.53333325386637
  0
INSERT
  2
-011-_5_
  8
_1-8_小物
 10
210
 20
148.5
 41
1
 42
1
 50
0
  0
INSERT
  2
-012-_6_
  8
_1-8_小物
 10
210
 20
148.5
 41
1
 42
1
 50
0
  0
INSERT
  2
-013-_7_
  8
_1-7_カバ__
 10
210
 20
148.5
 41
1
 42
1
 50
0
  0
INSERT
  2
-014-_8_
  8
_1-8_小物
 10
210
 20
148.5
 41
1
 42
1
 50
0
  0
LINE
  8
_1-8_小物
  6
CONTINUOUS
 62
    4
 10
338.33333333333331
 20
201.66666666666666
 11
338.33333333333331
 21
210.14947140226437
  0
INSERT
  2
-015-_9_
  8
_1-8_小物
 10
210
 20
148.5
 41
1
 42
1
 50
0
  0
LINE
  8
_1-f_寸法
  6
CONTINUOUS
 62
    4
 10
148.33333333333337
 20
203.66666666666663
 11
154.93333333333337
 21
203.66666666666663
  0
LINE
  8
_1-f_寸法
  6
CONTINUOUS
 62
    4
 10
148.33333333333337
 20
211.66666666666666
 11
154.93333333333337
 21
211.66666666666666
  0
POINT
  8
_1-f_寸法
 62
    4
 10
153.33333333333337
 20
211.66666666666666
  0
POINT
  8
_1-f_寸法
 62
    4
 10
153.33333333333337
 20
203.66666666666663
  0
LINE
  8
_1-f_寸法
  6
CONTINUOUS
 62
    4
 10
153.33333333333337
 20
211.66666666666666
 11
153.33333333333337
 21
203.66666666666663
  0
TEXT
  8
_1-f_寸法
 62
    4
 10
153.33333333333337
 20
206.06666666666666
 40
3.2000000000000002
 41
1
 50
90
  1
24
  0
LINE
  8
_1-f_寸法
  6
CONTINUOUS
 62
    4
 10
148.33333333333337
 20
203.66666666666663
 11
140.00000000000003
 21
203.66666666666663
  0
LINE
  8
_1-f_寸法
  6
CONTINUOUS
 62
    4
 10
340
 20
203.66666658719976
 11
346.59999999999997
 21
203.66666658719976
  0
LINE
  8
_1-f_寸法
  6
CONTINUOUS
 62
    4
 10
340
 20
211.66666666666657
 11
346.59999999999997
 21
211.66666666666657
  0
POINT
  8
_1-f_寸法
 62
    4
 10
345
 20
211.66666666666657
  0
POINT
  8
_1-f_寸法
 62
    4
 10
345
 20
203.66666658719976
  0
LINE
  8
_1-f_寸法
  6
CONTINUOUS
 62
    4
 10
345
 20
211.66666666666657
 11
345
 21
203.66666658719976
  0
TEXT
  8
_1-f_寸法
 62
    4
 10
345
 20
206.0666666269332
 40
3.2000000000000002
 41
1
 50
90
  1
24
  0
LINE
  8
_1-f_寸法
  6
CONTINUOUS
 62
    4
 10
340
 20
188.49999992053304
 11
346.59999999999997
 21
188.49999992053304
  0
POINT
  8
_1-f_寸法
 62
    4
 10
345
 20
188.49999992053304
  0
LINE
  8
_1-f_寸法
  6
CONTINUOUS
 62
    4
 10
345
 20
203.66666658719976
 11
345
 21
188.49999992053304
  0
TEXT
  8
_1-f_寸法
 62
    4
 10
345
 20
192.8833332538664
 40
3.2000000000000002
 41
1
 50
90
  1
45.5
  0
LINE
  8
_1-f_寸法
  6
CONTINUOUS
 62
    4
 10
309.83333333333331
 20
185
 11
309.83333333333331
 21
178.40000000000001
  0
LINE
  8
_1-f_寸法
  6
CONTINUOUS
 62
    4
 10
301.66666666666652
 20
185
 11
301.66666666666652
 21
178.40000000000001
  0
POINT
  8
_1-f_寸法
 62
    4
 10
301.66666666666652
 20
180
  0
POINT
  8
_1-f_寸法
 62
    4
 10
309.83333333333331
 20
180
  0
LINE
  8
_1-f_寸法
  6
CONTINUOUS
 62
    4
 10
301.66666666666652
 20
180
 11
309.83333333333331
 21
180
  0
TEXT
  8
_1-f_寸法
 62
    4
 10
302.54999999999984
 20
180
 40
3.2000000000000002
 41
1
 50
0
  1
24.5
  0
LINE
  8
_1-f_寸法
  6
CONTINUOUS
 62
    4
 10
338.33333333333331
 20
185
 11
338.33333333333331
 21
178.40000000000001
  0
POINT
  8
_1-f_寸法
 62
    4
 10
338.33333333333331
 20
180
  0
LINE
  8
_1-f_寸法
  6
CONTINUOUS
 62
    4
 10
309.83333333333331
 20
180
 11
338.33333333333331
 21
180
  0
TEXT
  8
_1-f_寸法
 62
    4
 10
320.88333333333333
 20
180
 40
3.2000000000000002
 41
1
 50
0
  1
85.5
  0
INSERT
  2
-016-_10_
  8
_1-8_小物
 10
210
 20
148.5
 41
1
 42
1
 50
0
  0
INSERT
  2
-017-_11_
  8
_1-8_小物
 10
210
 20
148.5
 41
1
 42
1
 50
0
  0
INSERT
  2
-018-_12_
  8
_1-8_小物
 10
210
 20
148.5
 41
1
 42
1
 50
0
  0
INSERT
  2
-019-_13_
  8
_1-8_小物
 10
210
 20
148.5
 41
1
 42
1
 50
0
  0
INSERT
  2
-020-_14_
  8
_1-8_小物
 10
210
 20
148.5
 41
1
 42
1
 50
0
  0
LINE
  8
_0-0_図面枠
  6
CONTINUOUS
 62
    2
 10
165.00000000000003
 20
246.99999999999989
 11
210.00000000000003
 21
246.99999999999989
  0
LINE
  8
_0-0_図面枠
  6
CONTINUOUS
 62
    2
 10
165.00000000000003
 20
246.99999999999994
 11
165.00000000000003
 21
287
  0
LINE
  8
_0-0_図面枠
  6
CONTINUOUS
 62
    2
 10
184.7618191860187
 20
279.31988384078551
 11
184.7618191860187
 21
276.31988384078551
  0
LINE
  8
_0-0_図面枠
  6
CONTINUOUS
 62
    2
 10
170.03938732168322
 20
270.81988384078551
 11
170.03938732168322
 21
267.81988384078551
  0
LINE
  8
_0-0_図面枠
  6
CONTINUOUS
 62
    2
 10
170.03938732168322
 20
267.81988384078551
 11
184.7618191860187
 21
276.31988384078551
  0
LINE
  8
_0-0_図面枠
  6
CONTINUOUS
 62
    2
 10
184.7618191860187
 20
276.31988384078551
 11
193.42207322386307
 21
271.31988384078551
  0
LINE
  8
_0-0_図面枠
  6
CONTINUOUS
 62
    2
 10
184.7618191860187
 20
279.31988384078551
 11
193.42207322386307
 21
274.31988384078551
  0
LINE
  8
_0-0_図面枠
  6
CONTINUOUS
 62
    2
 10
170.03938732168322
 20
267.81988384078551
 11
178.69964135952759
 21
262.81988384078551
  0
LINE
  8
_0-0_図面枠
  6
CONTINUOUS
 62
    2
 10
170.03938732168322
 20
270.81988384078551
 11
172.63746353303654
 21
269.31988384078551
  0
INSERT
  2
-021-_15_
  8
_0-0_図面枠
 10
210
 20
148.5
 41
1
 42
1
 50
0
  0
LINE
  8
_0-0_図面枠
  6
CONTINUOUS
 62
    3
 10
179.56566676331207
 20
277.2698838407855
 11
188.22592080115649
 21
282.2698838407855
  0
LINE
  8
_0-0_図面枠
  6
CONTINUOUS
 62
    3
 10
179.56566676331207
 20
276.31988384078551
 11
179.56566676331207
 21
277.2698838407855
  0
LINE
  8
_0-0_図面枠
  6
CONTINUOUS
 62
    3
 10
179.56566676331207
 20
276.31988384078551
 11
188.22592080115649
 21
281.31988384078545
  0
LINE
  8
_0-0_図面枠
  6
CONTINUOUS
 62
    3
 10
175.23553974438991
 20
274.7698838407855
 11
166.57528570654549
 21
269.7698838407855
  0
LINE
  8
_0-0_図面枠
  6
CONTINUOUS
 62
    3
 10
175.23553974438991
 20
273.81988384078551
 11
175.23553974438991
 21
274.7698838407855
  0
LINE
  8
_0-0_図面枠
  6
CONTINUOUS
 62
    3
 10
175.23553974438991
 20
273.81988384078551
 11
166.57528570654549
 21
268.81988384078551
  0
LINE
  8
_0-0_図面枠
  6
CONTINUOUS
 62
    3
 10
175.23553974438991
 20
274.7698838407855
 11
178.65634008933839
 21
272.79488384078553
  0
LINE
  8
_0-0_図面枠
  6
CONTINUOUS
 62
    3
 10
175.23553974438991
 20
273.81988384078551
 11
177.83361595574323
 21
272.31988384078551
  0
LINE
  8
_0-0_図面枠
  6
CONTINUOUS
 62
    3
 10
179.56566676331207
 20
276.31988384078551
 11
182.16374297466538
 21
274.81988384078551
  0
TEXT
  8
_0-0_図面枠
 62
    4
 10
178.59820685518591
 20
267.65215495316613
 40
2.5
 41
1
 50
0
  1
-25
  0
TEXT
  8
_0-0_図面枠
 62
    4
 10
201.11406054545702
 20
267.65215495316608
 40
2.5
 41
1
 50
0
  1
+25
  0
TEXT
  8
_0-0_図面枠
 62
    4
 10
178.59780344931661
 20
254.65331953359549
 40
2.5
 41
1
 50
0
  1
-25
  0
TEXT
  8
_0-0_図面枠
 62
    4
 10
201.11406054545702
 20
254.65262076405384
 40
2.5
 41
1
 50
0
  1
+25
  0
LINE
  8
_0-0_図面枠
  6
CONTINUOUS
 62
    2
 10
365.00000000000006
 20
246.99999999999989
 11
410.00000000000006
 21
246.99999999999989
  0
LINE
  8
_0-0_図面枠
  6
CONTINUOUS
 62
    2
 10
382.51081219164189
 20
277.68583390683511
 11
382.51081219164189
 21
274.68583390683511
  0
LINE
  8
_0-0_図面枠
  6
CONTINUOUS
 62
    2
 10
382.51081219164189
 20
274.68583390683511
 11
391.17106622948626
 21
269.68583390683511
  0
LINE
  8
_0-0_図面枠
  6
CONTINUOUS
 62
    2
 10
382.51081219164189
 20
277.68583390683511
 11
391.17106622948626
 21
272.68583390683511
  0
LINE
  8
_0-0_図面枠
  6
CONTINUOUS
 62
    2
 10
375.14959625947415
 20
266.43583390683511
 11
372.9845327500131
 21
265.18583390683511
  0
LINE
  8
_0-0_図面枠
  6
CONTINUOUS
 62
    2
 10
375.14959625947415
 20
270.43583390683511
 11
382.51081219164189
 21
274.68583390683511
  0
LINE
  8
_0-0_図面枠
  6
CONTINUOUS
 62
    2
 10
375.14959625947415
 20
270.43583390683511
 11
375.14959625947415
 21
266.43583390683511
  0
LINE
  8
_0-0_図面枠
  6
CONTINUOUS
 62
    2
 10
375.14959625947415
 20
270.43583390683511
 11
383.80985029731852
 21
265.43583390683511
  0
LINE
  8
_0-0_図面枠
  6
CONTINUOUS
 62
    2
 10
375.14959625947415
 20
266.43583390683511
 11
383.80985029731852
 21
261.43583390683511
  0
LINE
  8
_0-0_図面枠
  6
CONTINUOUS
 62
    2
 10
372.9845327500131
 20
265.18583390683511
 11
381.64478678785747
 21
260.18583390683511
  0
INSERT
  2
-022-_16_
  8
_0-0_図面枠
 10
210
 20
148.5
 41
1
 42
1
 50
0
  0
LINE
  8
_0-0_図面枠
  6
CONTINUOUS
 62
    2
 10
365.00000000000006
 20
246.99999999999994
 11
365.00000000000006
 21
287
  0
LINE
  8
_0-0_図面枠
  6
CONTINUOUS
 62
    3
 10
377.31465976893526
 20
275.6358339068351
 11
385.97491380677968
 21
280.6358339068351
  0
LINE
  8
_0-0_図面枠
  6
CONTINUOUS
 62
    3
 10
377.31465976893526
 20
274.68583390683511
 11
377.31465976893526
 21
275.6358339068351
  0
LINE
  8
_0-0_図面枠
  6
CONTINUOUS
 62
    3
 10
377.31465976893526
 20
274.68583390683511
 11
385.97491380677968
 21
279.68583390683511
  0
LINE
  8
_0-0_図面枠
  6
CONTINUOUS
 62
    3
 10
377.31465976893526
 20
274.68583390683511
 11
379.91273598028857
 21
273.18583390683511
  0
LINE
  8
_0-0_図面枠
  6
CONTINUOUS
 62
    3
 10
372.9845327500131
 20
253.36416609316473
 11
372.9845327500131
 21
276.1358339068351
  0
TEXT
  8
_0-0_図面枠
 62
    4
 10
379.37808706028358
 20
268.01810501921574
 40
2.5
 41
1
 50
0
  1
-25
  0
TEXT
  8
_0-0_図面枠
 62
    4
 10
401.89394075055469
 20
268.01810501921568
 40
2.5
 41
1
 50
0
  1
+25
  0
TEXT
  8
_0-0_図面枠
 62
    4
 10
401.89394075055469
 20
255.01857083010344
 40
2.5
 41
1
 50
0
  1
+25
  0
TEXT
  8
_0-0_図面枠
 62
    4
 10
379.37768365441428
 20
255.0192695996451
 40
2.5
 41
1
 50
0
  1
-25
  0
ENDSEC
  0
EOF
