  0
SECTION
  2
HEADER
  9
$ACADVER
  1
AC1009
  9
$INSBASE
 10
0
 20
0
 30
0
  9
$EXTMIN
 10
0
 20
0
  9
$EXTMAX
 10
420
 20
297
  9
$LIMMIN
 10
0
 20
0
  9
$LIMMAX
 10
420
 20
297
  9
$LTSCALE
 40
1
  0
ENDSEC
  0
SECTION
  2
TABLES
  0
TABLE
  2
LTYPE
 70
     9
  0
LTYPE
  2
CONTINUOUS
 70
    64
  3
実線
 72
    65
 73
     0
 40
0.0
  0
LTYPE
  2
DASHED1
 70
    64
  3
--  --  --  --  --  --  --  --  
 72
    65
 73
     2
 40
2.5
 49
1.25
 49
-1.25
  0
LTYPE
  2
DASHED2
 70
    64
  3
----    ----    ----    ----    
 72
    65
 73
     2
 40
5.0
 49
2.5
 49
-2.5
  0
LTYPE
  2
DASHED3
 70
    64
  3
------  ------  ------  ------  
 72
    65
 73
     2
 40
5.0
 49
3.75
 49
-1.25
  0
LTYPE
  2
CENTER1
 70
    64
  3
----- - ----- - ----- - ----- - 
 72
    65
 73
     4
 40
10.0
 49
6.25
 49
-1.25
 49
1.25
 49
-1.25
  0
LTYPE
  2
CENTER2
 70
    64
  3
----------  --  ----------  --  
 72
    65
 73
     4
 40
20.0
 49
12.5
 49
-2.5
 49
2.5
 49
-2.5
  0
LTYPE
  2
PHANTOM1
 70
    64
  3
--- - - --- - - --- - - --- - - 
 72
    65
 73
     6
 40
10.0
 49
3.25
 49
-1.25
 49
1.25
 49
-1.25
 49
1.25
 49
-1.25
  0
LTYPE
  2
PHANTOM2
 70
    64
  3
--------  -  -  --------  -  -  
 72
    65
 73
     6
 40
20.0
 49
10.0
 49
-2.5
 49
1.25
 49
-2.5
 49
1.25
 49
-2.5
  0
LTYPE
  2
DOT
 70
    64
  3
-   -   -   -   -   -   -   -   
 72
    65
 73
     2
 40
2.5
 49
0.625
 49
-1.875
  0
LTYPE
  2
DUMMY
 70
    64
  3
ダミー
 72
    65
 73
     0
 40
0.0
  0
LTYPE
  2
RAND1
 70
    64
  3
ランダム線1
 72
    65
 73
     4
 40
10.0
 49
1.0
 49
-2.0
 49
3.0
 49
-4.0
  0
LTYPE
  2
RAND2
 70
    64
  3
ランダム線2
 72
    65
 73
     4
 40
14.0
 49
2.0
 49
-3.0
 49
4.0
 49
-5.0
  0
LTYPE
  2
RAND3
 70
    64
  3
ランダム線3
 72
    65
 73
     4
 40
18.0
 49
3.0
 49
-4.0
 49
5.0
 49
-6.0
  0
LTYPE
  2
RAND4
 70
    64
  3
ランダム線4
 72
    65
 73
     4
 40
22.0
 49
4.0
 49
-5.0
 49
6.0
 49
-7.0
  0
LTYPE
  2
RAND5
 70
    64
  3
ランダム線5
 72
    65
 73
     4
 40
26.0
 49
5.0
 49
-6.0
 49
7.0
 49
-8.0
  0
LTYPE
  2
LONG1
 70
    64
  3
----------  --  ----------  --  
 72
    65
 73
     4
 40
40.0
 49
32.5
 49
-2.5
 49
2.5
 49
-2.5
  0
LTYPE
  2
LONG2
 70
    64
  3
--------  -  -  --------  -  -  
 72
    65
 73
     6
 40
40.0
 49
30.0
 49
-2.5
 49
1.25
 49
-2.5
 49
1.25
 49
-2.5
  0
LTYPE
  2
LONG3
 70
    64
  3
+++++++++++++++..+++++++++++++++
 72
    65
 73
     2
 40
40.0
 49
37.5
 49
-2.5
  0
LTYPE
  2
LONG4
 70
    64
  3
+++++++++++++++..+++++++++++++++
 72
    65
 73
     2
 40
80.0
 49
75.0
 49
-5.0
  0
LTYPE
  2
LONG5
 70
    64
  3
----------  --  ----------  --  
 72
    65
 73
     4
 40
60.0
 49
37.5
 49
-7.5
 49
7.5
 49
-7.5
  0
LTYPE
  2
dashed
 70
   64
  3
-------   -------------   ------
 72
   65
 73
    2
 40
7.5
 49
6
 49
-1.5
  0
LTYPE
  2
dashed_spaced
 70
   64
  3
----        --------        ----
 72
   65
 73
    2
 40
12
 49
6
 49
-6
  0
LTYPE
  2
long_dashed_dotted
 70
   64
  3
------------- --- --------------
 72
   65
 73
    4
 40
15.25
 49
12
 49
-1.5
 49
0.25
 49
-1.5
  0
LTYPE
  2
long_dashed_double-dotted
 70
   64
  3
----------- --- --- ------------
 72
   65
 73
    6
 40
17
 49
12
 49
-1.5
 49
0.25
 49
-1.5
 49
0.25
 49
-1.5
  0
LTYPE
  2
long_dashed_triplicate-dotted
 70
   64
  3
--------- --- --- --- ----------
 72
   65
 73
    8
 40
18.75
 49
12
 49
-1.5
 49
0.25
 49
-1.5
 49
0.25
 49
-1.5
 49
0.25
 49
-1.5
  0
LTYPE
  2
dotted
 70
   64
  3
   -       -       -       -    
 72
   65
 73
    2
 40
1.75
 49
0.25
 49
-1.5
  0
LTYPE
  2
chain
 70
   64
  3
-------------- -- --------------
 72
   65
 73
    4
 40
18.5
 49
12
 49
-1.5
 49
3.5
 49
-1.5
  0
LTYPE
  2
chain_double_dash
 70
   64
  3
------------ -- -- -------------
 72
   65
 73
    6
 40
23.5
 49
12
 49
-1.5
 49
3.5
 49
-1.5
 49
3.5
 49
-1.5
  0
LTYPE
  2
dashed_dotted
 70
   64
  3
-----------     -     ----------
 72
   65
 73
    4
 40
9.25
 49
6
 49
-1.5
 49
0.25
 49
-1.5
  0
LTYPE
  2
double-dashed_dotted
 70
   64
  3
------   -----------   -   -----
 72
   65
 73
    6
 40
16.75
 49
6
 49
-1.5
 49
6
 49
-1.5
 49
0.25
 49
-1.5
  0
LTYPE
  2
dashed_double-dotted
 70
   64
  3
---------    -    -    ---------
 72
   65
 73
    6
 40
11
 49
6
 49
-1.5
 49
0.25
 49
-1.5
 49
0.25
 49
-1.5
  0
LTYPE
  2
double-dashed_double-dotted
 70
   64
  3
-----   ---------   -   -   ----
 72
   65
 73
    8
 40
18.5
 49
6
 49
-1.5
 49
6
 49
-1.5
 49
0.25
 49
-1.5
 49
0.25
 49
-1.5
  0
LTYPE
  2
dashed_triplicate-dotted
 70
   64
  3
-------    -    -    -    ------
 72
   65
 73
    8
 40
12.75
 49
6
 49
-1.5
 49
0.25
 49
-1.5
 49
0.25
 49
-1.5
 49
0.25
 49
-1.5
  0
LTYPE
  2
double-dashed_triplicate-dotted
 70
   64
  3
-----  ---------  -  -  -  -----
 72
   65
 73
   10
 40
20.25
 49
6
 49
-1.5
 49
6
 49
-1.5
 49
0.25
 49
-1.5
 49
0.25
 49
-1.5
 49
0.25
 49
-1.5
  0
LTYPE
  2
undefined
 70
   64
  3
--------------------------------
 72
   65
 73
    0
 40
0
  0
ENDTAB
  0
TABLE
  2
STYLE
  5
3
100
AcDbSymbolTable
 70
     1
  0
STYLE
  5
10
100
AcDbSymbolTableRecord
100
AcDbTextStyleTableRecord
  2
STANDARD
 70
     0
 40
0.0
 41
1.0
 50
0.0
 71
     0
 42
0.2
  3
txt
  4
bigfont.shx
  0
STYLE
  5
26
100
AcDbSymbolTableRecord
100
AcDbTextStyleTableRecord
  2
TATEGAKI
 70
    68
 40
0.0
 41
1.0
 50
0.0
 71
     0
 42
1.0
  3
txt
  4
bigfont.shx
  0
ENDTAB
  0
TABLE
  2
LAYER
 70
    8
  0
LAYER
  2
_0-0_図面枠
 70
   64
 62
    7
  6
CONTINUOUS
  0
LAYER
  2
_1-0_躯体
 70
   64
 62
    7
  6
CONTINUOUS
  0
LAYER
  2
_1-4_フレ__ム
 70
   64
 62
    7
  6
CONTINUOUS
  0
LAYER
  2
_1-5_ホルダ__
 70
   64
 62
    7
  6
CONTINUOUS
  0
LAYER
  2
_1-7_カバ__
 70
   64
 62
    7
  6
CONTINUOUS
  0
LAYER
  2
_1-8_小物
 70
   64
 62
    7
  6
CONTINUOUS
  0
LAYER
  2
_1-f_寸法
 70
   64
 62
    7
  6
CONTINUOUS
  0
LAYER
  2
ADD_LINE
 70
   64
 62
    7
  6
CONTINUOUS
  0
ENDTAB
  0
ENDSEC
  0
SECTION
  2
BLOCKS
  0
BLOCK
  2
-000-
 70
   64
 10
0
 20
0
 30
0
  0
LINE
  8
_1-8_小物
  6
CONTINUOUS
 62
    4
 10
-61.787483860264473
 20
-19
 11
-59.787483860264473
 21
-19
  0
LINE
  8
_1-8_小物
  6
CONTINUOUS
 62
    4
 10
-62.120817193597816
 20
-19.707106781186582
 11
-62.120817193597816
 21
-18.292893218813447
  0
LINE
  8
_1-8_小物
  6
CONTINUOUS
 62
    4
 10
-62.120817193597816
 20
-18.292893218813447
 11
-59.45415052693113
 21
-18.292893218813447
  0
LINE
  8
_1-8_小物
  6
CONTINUOUS
 62
    4
 10
-59.45415052693113
 20
-19.707106781186582
 11
-59.45415052693113
 21
-18.292893218813447
  0
LINE
  8
_1-8_小物
  6
CONTINUOUS
 62
    4
 10
-62.120817193597816
 20
-19.707106781186582
 11
-59.45415052693113
 21
-19.707106781186582
  0
ENDBLK
  0
BLOCK
  2
-001-_1_
 70
   64
 10
0
 20
0
 30
0
  0
LINE
  8
_1-8_小物
  6
CONTINUOUS
 62
    4
 10
-118.45415052693113
 20
-19
 11
-120.45415052693113
 21
-19
  0
LINE
  8
_1-8_小物
  6
CONTINUOUS
 62
    4
 10
-118.1208171935978
 20
-19.707106781186582
 11
-118.1208171935978
 21
-18.292893218813447
  0
LINE
  8
_1-8_小物
  6
CONTINUOUS
 62
    4
 10
-118.1208171935978
 20
-18.292893218813447
 11
-120.78748386026447
 21
-18.292893218813447
  0
LINE
  8
_1-8_小物
  6
CONTINUOUS
 62
    4
 10
-120.78748386026447
 20
-19.707106781186582
 11
-120.78748386026447
 21
-18.292893218813447
  0
LINE
  8
_1-8_小物
  6
CONTINUOUS
 62
    4
 10
-118.1208171935978
 20
-19.707106781186582
 11
-120.78748386026447
 21
-19.707106781186582
  0
ENDBLK
  0
BLOCK
  2
-002-_2_
 70
   64
 10
0
 20
0
 30
0
  0
LINE
  8
_1-8_小物
  6
CONTINUOUS
 62
    4
 10
138.21251613973556
 20
-19
 11
140.21251613973556
 21
-19
  0
LINE
  8
_1-8_小物
  6
CONTINUOUS
 62
    4
 10
137.87918280640224
 20
-19.707106781186582
 11
137.87918280640224
 21
-18.292893218813447
  0
LINE
  8
_1-8_小物
  6
CONTINUOUS
 62
    4
 10
137.87918280640224
 20
-18.292893218813447
 11
140.54584947306887
 21
-18.292893218813447
  0
LINE
  8
_1-8_小物
  6
CONTINUOUS
 62
    4
 10
140.54584947306887
 20
-19.707106781186582
 11
140.54584947306887
 21
-18.292893218813447
  0
LINE
  8
_1-8_小物
  6
CONTINUOUS
 62
    4
 10
137.87918280640224
 20
-19.707106781186582
 11
140.54584947306887
 21
-19.707106781186582
  0
ENDBLK
  0
BLOCK
  2
-003-_3_
 70
   64
 10
0
 20
0
 30
0
  0
LINE
  8
_1-8_小物
  6
CONTINUOUS
 62
    4
 10
81.54584947306887
 20
-19
 11
79.54584947306887
 21
-19
  0
LINE
  8
_1-8_小物
  6
CONTINUOUS
 62
    4
 10
81.879182806402184
 20
-19.707106781186582
 11
81.879182806402184
 21
-18.292893218813447
  0
LINE
  8
_1-8_小物
  6
CONTINUOUS
 62
    4
 10
81.879182806402184
 20
-18.292893218813447
 11
79.212516139735499
 21
-18.292893218813447
  0
LINE
  8
_1-8_小物
  6
CONTINUOUS
 62
    4
 10
79.212516139735499
 20
-19.707106781186582
 11
79.212516139735499
 21
-18.292893218813447
  0
LINE
  8
_1-8_小物
  6
CONTINUOUS
 62
    4
 10
81.879182806402184
 20
-19.707106781186582
 11
79.212516139735499
 21
-19.707106781186582
  0
ENDBLK
  0
BLOCK
  2
-004-$QLE
 70
   64
 10
0
 20
0
 30
0
  0
LINE
  8
_1-f_寸法
  6
CONTINUOUS
 62
    4
 10
-46.612835666666626
 20
85.500000666666693
 11
-43.825844671965513
 21
90.327210669725929
  0
LINE
  8
_1-f_寸法
  6
CONTINUOUS
 62
    4
 10
-43.825844671965513
 20
90.327210669725929
 11
-24.305844671965531
 21
90.327210669725929
  0
POINT
  8
_1-f_寸法
 62
    4
 10
-46.612835666666626
 20
85.500000666666693
  0
TEXT
  8
_1-f_寸法
 62
    4
 10
-43.505844671965519
 20
90.327210669725929
 40
3.2000000000000002
 41
1
 50
0
  1
野縁受(別途)
  0
ENDBLK
  0
BLOCK
  2
-005-$QLE_1_
 70
   64
 10
0
 20
0
 30
0
  0
LINE
  8
_1-f_寸法
  6
CONTINUOUS
 62
    4
 10
-48.583333666666647
 20
69.916667166666684
 11
-44.349061172536778
 21
77.250642259591018
  0
LINE
  8
_1-f_寸法
  6
CONTINUOUS
 62
    4
 10
-44.349061172536778
 20
77.250642259591018
 11
-28.029061172536757
 21
77.250642259591018
  0
POINT
  8
_1-f_寸法
 62
    4
 10
-48.583333666666647
 20
69.916667166666684
  0
TEXT
  8
_1-f_寸法
 62
    4
 10
-44.029061172536785
 20
77.250642259591018
 40
3.2000000000000002
 41
1
 50
0
  1
野縁(別途)
  0
ENDBLK
  0
BLOCK
  2
-006-$QLE_2_
 70
   64
 10
0
 20
0
 30
0
  0
LINE
  8
_1-f_寸法
  6
CONTINUOUS
 62
    4
 10
-40.000000499999942
 20
66.500000999999941
 11
-38.13995826303011
 21
69.721688658655808
  0
LINE
  8
_1-f_寸法
  6
CONTINUOUS
 62
    4
 10
-38.13995826303011
 20
69.721688658655808
 11
-21.819958263030088
 21
69.721688658655808
  0
POINT
  8
_1-f_寸法
 62
    4
 10
-40.000000499999942
 20
66.500000999999941
  0
TEXT
  8
_1-f_寸法
 62
    4
 10
-37.819958263030117
 20
69.721688658655808
 40
3.2000000000000002
 41
1
 50
0
  1
天井仕上面
  0
ENDBLK
  0
BLOCK
  2
-007-_4_
 70
   64
 10
0
 20
0
 30
0
  0
LINE
  8
_1-8_小物
  6
CONTINUOUS
 62
    4
 10
-142.69999954999994
 20
62.633333333333269
 11
-137.29999954999971
 21
62.633333333333269
  0
LINE
  8
_1-8_小物
  6
CONTINUOUS
 62
    4
 10
-142.69999954999994
 20
62.18333333333328
 11
-137.29999954999971
 21
62.18333333333328
  0
LINE
  8
_1-8_小物
  6
CONTINUOUS
 62
    4
 10
-142.69999954999994
 20
62.633333333333269
 11
-142.69999954999994
 21
62.18333333333328
  0
LINE
  8
_1-8_小物
  6
CONTINUOUS
 62
    4
 10
-137.29999954999971
 20
62.633333333333269
 11
-137.29999954999971
 21
62.18333333333328
  0
LINE
  8
_1-8_小物
  6
DASHED1
 62
    4
 10
-140.82499954999992
 20
62.633333333333269
 11
-140.82499954999992
 21
62.18333333333328
  0
LINE
  8
_1-8_小物
  6
DASHED1
 62
    4
 10
-139.17499954999971
 20
62.633333333333269
 11
-139.17499954999971
 21
62.18333333333328
  0
LINE
  8
_1-8_小物
  6
CONTINUOUS
 62
    4
 10
-139.64000000000044
 20
64.792202033333353
 11
-139.64000000000044
 21
65.025009533333218
  0
LINE
  8
_1-8_小物
  6
CONTINUOUS
 62
    4
 10
-140.36000000000004
 20
64.813343033333126
 11
-140.36000000000004
 21
64.580535533333489
  0
LINE
  8
_1-8_小物
  6
CONTINUOUS
 62
    4
 10
-139.64000000000044
 20
65.025009533333218
 11
-140.36000000000004
 21
64.813343033333126
  0
LINE
  8
_1-8_小物
  6
CONTINUOUS
 62
    4
 10
-139.47499940000046
 20
65.120272733333479
 11
-140.5249997
 21
64.908605333333355
  0
LINE
  8
_1-8_小物
  6
CONTINUOUS
 62
    4
 10
-139.47499940000046
 20
65.120272733333479
 11
-139.64000000000044
 21
65.025009533333218
  0
LINE
  8
_1-8_小物
  6
CONTINUOUS
 62
    4
 10
-140.5249997
 20
64.908605333333355
 11
-140.36000000000004
 21
65.003868533333446
  0
LINE
  8
_1-8_小物
  6
CONTINUOUS
 62
    4
 10
-140.36000000000004
 20
64.813343033333126
 11
-140.5249997
 21
64.908605333333355
  0
LINE
  8
_1-8_小物
  6
CONTINUOUS
 62
    4
 10
-139.64000000000044
 20
64.368868133333194
 11
-139.64000000000044
 21
64.601676533333261
  0
LINE
  8
_1-8_小物
  6
CONTINUOUS
 62
    4
 10
-140.36000000000004
 20
64.390009133333365
 11
-140.36000000000004
 21
64.157201633333329
  0
LINE
  8
_1-8_小物
  6
CONTINUOUS
 62
    4
 10
-139.64000000000044
 20
64.792202033333353
 11
-140.36000000000004
 21
64.580535533333489
  0
LINE
  8
_1-8_小物
  6
CONTINUOUS
 62
    4
 10
-139.64000000000044
 20
64.601676533333261
 11
-140.36000000000004
 21
64.390009133333365
  0
LINE
  8
_1-8_小物
  6
CONTINUOUS
 62
    4
 10
-139.47499940000046
 20
64.69693883333332
 11
-140.5249997
 21
64.485272333333228
  0
LINE
  8
_1-8_小物
  6
CONTINUOUS
 62
    4
 10
-139.47499940000046
 20
64.69693883333332
 11
-139.64000000000044
 21
64.792202033333353
  0
LINE
  8
_1-8_小物
  6
CONTINUOUS
 62
    4
 10
-139.47499940000046
 20
64.69693883333332
 11
-139.64000000000044
 21
64.601676533333261
  0
LINE
  8
_1-8_小物
  6
CONTINUOUS
 62
    4
 10
-140.5249997
 20
64.485272333333228
 11
-140.36000000000004
 21
64.580535533333489
  0
LINE
  8
_1-8_小物
  6
CONTINUOUS
 62
    4
 10
-140.36000000000004
 20
64.390009133333365
 11
-140.5249997
 21
64.485272333333228
  0
LINE
  8
_1-8_小物
  6
CONTINUOUS
 62
    4
 10
-139.64000000000044
 20
63.945535133333408
 11
-139.64000000000044
 21
64.178342633333443
  0
LINE
  8
_1-8_小物
  6
CONTINUOUS
 62
    4
 10
-140.36000000000004
 20
63.966676133333351
 11
-140.36000000000004
 21
63.733868633333316
  0
LINE
  8
_1-8_小物
  6
CONTINUOUS
 62
    4
 10
-139.64000000000044
 20
64.368868133333194
 11
-140.36000000000004
 21
64.157201633333329
  0
LINE
  8
_1-8_小物
  6
CONTINUOUS
 62
    4
 10
-139.64000000000044
 20
64.178342633333443
 11
-140.36000000000004
 21
63.966676133333351
  0
LINE
  8
_1-8_小物
  6
CONTINUOUS
 62
    4
 10
-139.47499940000046
 20
64.273605833333306
 11
-140.5249997
 21
64.061939333333214
  0
LINE
  8
_1-8_小物
  6
CONTINUOUS
 62
    4
 10
-139.47499940000046
 20
64.273605833333306
 11
-139.64000000000044
 21
64.368868133333194
  0
LINE
  8
_1-8_小物
  6
CONTINUOUS
 62
    4
 10
-139.47499940000046
 20
64.273605833333306
 11
-139.64000000000044
 21
64.178342633333443
  0
LINE
  8
_1-8_小物
  6
CONTINUOUS
 62
    4
 10
-140.5249997
 20
64.061939333333214
 11
-140.36000000000004
 21
64.157201633333329
  0
LINE
  8
_1-8_小物
  6
CONTINUOUS
 62
    4
 10
-140.36000000000004
 20
63.966676133333351
 11
-140.5249997
 21
64.061939333333214
  0
LINE
  8
_1-8_小物
  6
CONTINUOUS
 62
    4
 10
-139.64000000000044
 20
63.52220213333328
 11
-139.64000000000044
 21
63.755009633333316
  0
LINE
  8
_1-8_小物
  6
CONTINUOUS
 62
    4
 10
-140.36000000000004
 20
63.543343133333224
 11
-140.36000000000004
 21
63.310534733333384
  0
LINE
  8
_1-8_小物
  6
CONTINUOUS
 62
    4
 10
-139.64000000000044
 20
63.945535133333408
 11
-140.36000000000004
 21
63.733868633333316
  0
LINE
  8
_1-8_小物
  6
CONTINUOUS
 62
    4
 10
-139.64000000000044
 20
63.755009633333316
 11
-140.36000000000004
 21
63.543343133333224
  0
LINE
  8
_1-8_小物
  6
CONTINUOUS
 62
    4
 10
-139.47499940000046
 20
63.850271933333318
 11
-140.5249997
 21
63.638605433333453
  0
LINE
  8
_1-8_小物
  6
CONTINUOUS
 62
    4
 10
-139.47499940000046
 20
63.850271933333318
 11
-139.64000000000044
 21
63.945535133333408
  0
LINE
  8
_1-8_小物
  6
CONTINUOUS
 62
    4
 10
-139.47499940000046
 20
63.850271933333318
 11
-139.64000000000044
 21
63.755009633333316
  0
LINE
  8
_1-8_小物
  6
CONTINUOUS
 62
    4
 10
-140.5249997
 20
63.638605433333453
 11
-140.36000000000004
 21
63.733868633333316
  0
LINE
  8
_1-8_小物
  6
CONTINUOUS
 62
    4
 10
-140.36000000000004
 20
63.543343133333224
 11
-140.5249997
 21
63.638605433333453
  0
LINE
  8
_1-8_小物
  6
CONTINUOUS
 62
    4
 10
-139.64000000000044
 20
63.098868233333292
 11
-139.64000000000044
 21
63.331676633333359
  0
LINE
  8
_1-8_小物
  6
CONTINUOUS
 62
    4
 10
-140.36000000000004
 20
63.120009233333178
 11
-140.36000000000004
 21
62.887201733333427
  0
LINE
  8
_1-8_小物
  6
CONTINUOUS
 62
    4
 10
-139.64000000000044
 20
63.52220213333328
 11
-140.36000000000004
 21
63.310534733333384
  0
LINE
  8
_1-8_小物
  6
CONTINUOUS
 62
    4
 10
-139.64000000000044
 20
63.331676633333359
 11
-140.36000000000004
 21
63.120009233333178
  0
LINE
  8
_1-8_小物
  6
CONTINUOUS
 62
    4
 10
-139.47499940000046
 20
63.426938933333417
 11
-140.5249997
 21
63.215272433333325
  0
LINE
  8
_1-8_小物
  6
CONTINUOUS
 62
    4
 10
-139.47499940000046
 20
63.426938933333417
 11
-139.64000000000044
 21
63.52220213333328
  0
LINE
  8
_1-8_小物
  6
CONTINUOUS
 62
    4
 10
-139.47499940000046
 20
63.426938933333417
 11
-139.64000000000044
 21
63.331676633333359
  0
LINE
  8
_1-8_小物
  6
CONTINUOUS
 62
    4
 10
-140.5249997
 20
63.215272433333325
 11
-140.36000000000004
 21
63.310534733333384
  0
LINE
  8
_1-8_小物
  6
CONTINUOUS
 62
    4
 10
-140.36000000000004
 20
63.120009233333178
 11
-140.5249997
 21
63.215272433333325
  0
LINE
  8
_1-8_小物
  6
CONTINUOUS
 62
    4
 10
-139.64000000000044
 20
62.675535233333505
 11
-140.36000000000004
 21
62.463868733333413
  0
LINE
  8
_1-8_小物
  6
CONTINUOUS
 62
    4
 10
-139.64000000000044
 20
62.485009733333186
 11
-140.36000000000004
 21
62.273343233333264
  0
LINE
  8
_1-8_小物
  6
CONTINUOUS
 62
    4
 10
-139.47499940000046
 20
62.580272033333245
 11
-140.5249997
 21
62.368605533333152
  0
LINE
  8
_1-8_小物
  6
CONTINUOUS
 62
    4
 10
-139.47499940000046
 20
62.580272033333245
 11
-139.64000000000044
 21
62.675535233333505
  0
LINE
  8
_1-8_小物
  6
CONTINUOUS
 62
    4
 10
-139.47499940000046
 20
62.580272033333245
 11
-139.64000000000044
 21
62.485009733333186
  0
LINE
  8
_1-8_小物
  6
CONTINUOUS
 62
    4
 10
-140.5249997
 20
62.368605533333152
 11
-140.36000000000004
 21
62.463868733333413
  0
LINE
  8
_1-8_小物
  6
CONTINUOUS
 62
    4
 10
-140.36000000000004
 20
62.273343233333264
 11
-140.5249997
 21
62.368605533333152
  0
LINE
  8
_1-8_小物
  6
CONTINUOUS
 62
    4
 10
-139.64000000000044
 20
62.18333333333328
 11
-139.64000000000044
 21
62.485009733333186
  0
LINE
  8
_1-8_小物
  6
CONTINUOUS
 62
    4
 10
-139.64000000000044
 20
62.675535233333505
 11
-139.64000000000044
 21
62.908342733333313
  0
LINE
  8
_1-8_小物
  6
CONTINUOUS
 62
    4
 10
-140.36000000000004
 20
62.696676233333278
 11
-140.36000000000004
 21
62.463868733333413
  0
LINE
  8
_1-8_小物
  6
CONTINUOUS
 62
    4
 10
-139.64000000000044
 20
63.098868233333292
 11
-140.36000000000004
 21
62.887201733333427
  0
LINE
  8
_1-8_小物
  6
CONTINUOUS
 62
    4
 10
-139.64000000000044
 20
62.908342733333313
 11
-140.36000000000004
 21
62.696676233333278
  0
LINE
  8
_1-8_小物
  6
CONTINUOUS
 62
    4
 10
-139.47499940000046
 20
63.003605933333404
 11
-140.5249997
 21
62.791939433333312
  0
LINE
  8
_1-8_小物
  6
CONTINUOUS
 62
    4
 10
-139.47499940000046
 20
63.003605933333404
 11
-139.64000000000044
 21
63.098868233333292
  0
LINE
  8
_1-8_小物
  6
CONTINUOUS
 62
    4
 10
-139.47499940000046
 20
63.003605933333404
 11
-139.64000000000044
 21
62.908342733333313
  0
LINE
  8
_1-8_小物
  6
CONTINUOUS
 62
    4
 10
-140.5249997
 20
62.791939433333312
 11
-140.36000000000004
 21
62.887201733333427
  0
LINE
  8
_1-8_小物
  6
CONTINUOUS
 62
    4
 10
-140.36000000000004
 20
62.696676233333278
 11
-140.5249997
 21
62.791939433333312
  0
ARC
  8
_1-8_小物
  6
CONTINUOUS
 62
    4
 10
-139.24999939999989
 20
61.904294633333222
 40
0.2999996999999999
 50
299.99999999998732
 51
0
  0
ARC
  8
_1-8_小物
  6
CONTINUOUS
 62
    4
 10
-140.74999969999976
 20
61.904294633333222
 40
0.2999996999999999
 50
180
 51
239.99999999995677
  0
ARC
  8
_1-8_小物
  6
CONTINUOUS
 62
    4
 10
-140.00000000000011
 20
63.203333033333251
 40
1.8
 50
239.99999999999261
 51
299.99999999999801
  0
LINE
  8
_1-8_小物
  6
CONTINUOUS
 62
    4
 10
-138.94999970000003
 20
62.18333333333328
 11
-138.94999970000003
 21
61.904294633333222
  0
LINE
  8
_1-8_小物
  6
CONTINUOUS
 62
    4
 10
-141.04999939999993
 20
62.18333333333328
 11
-138.94999970000003
 21
62.18333333333328
  0
LINE
  8
_1-8_小物
  6
CONTINUOUS
 62
    4
 10
-141.04999939999993
 20
62.18333333333328
 11
-141.04999939999993
 21
61.904294633333222
  0
LINE
  8
_1-8_小物
  6
CONTINUOUS
 62
    4
 10
-140.36000000000004
 20
62.273343233333264
 11
-140.36000000000004
 21
62.18333333333328
  0
LINE
  8
_1-8_小物
  6
CONTINUOUS
 62
    4
 10
-139.64000000000044
 20
67.755534833333172
 11
-139.64000000000044
 21
67.988343233333239
  0
LINE
  8
_1-8_小物
  6
CONTINUOUS
 62
    4
 10
-140.36000000000004
 20
67.776675833333286
 11
-140.36000000000004
 21
67.543868333333251
  0
LINE
  8
_1-8_小物
  6
CONTINUOUS
 62
    4
 10
-139.64000000000044
 20
68.178868733333331
 11
-140.36000000000004
 21
67.967202233333296
  0
LINE
  8
_1-8_小物
  6
CONTINUOUS
 62
    4
 10
-139.64000000000044
 20
67.988343233333239
 11
-140.36000000000004
 21
67.776675833333286
  0
LINE
  8
_1-8_小物
  6
CONTINUOUS
 62
    4
 10
-139.47499940000046
 20
68.083605533333468
 11
-140.5249997
 21
67.871939033333433
  0
LINE
  8
_1-8_小物
  6
CONTINUOUS
 62
    4
 10
-139.47499940000046
 20
68.083605533333468
 11
-139.64000000000044
 21
68.178868733333331
  0
LINE
  8
_1-8_小物
  6
CONTINUOUS
 62
    4
 10
-139.47499940000046
 20
68.083605533333468
 11
-139.64000000000044
 21
67.988343233333239
  0
LINE
  8
_1-8_小物
  6
CONTINUOUS
 62
    4
 10
-140.5249997
 20
67.871939033333433
 11
-140.36000000000004
 21
67.967202233333296
  0
LINE
  8
_1-8_小物
  6
CONTINUOUS
 62
    4
 10
-140.36000000000004
 20
67.776675833333286
 11
-140.5249997
 21
67.871939033333433
  0
LINE
  8
_1-8_小物
  6
CONTINUOUS
 62
    4
 10
-139.64000000000044
 20
67.332201833333158
 11
-139.64000000000044
 21
67.565009333333194
  0
LINE
  8
_1-8_小物
  6
CONTINUOUS
 62
    4
 10
-140.36000000000004
 20
67.353342833333329
 11
-140.36000000000004
 21
67.120535333333294
  0
LINE
  8
_1-8_小物
  6
CONTINUOUS
 62
    4
 10
-139.64000000000044
 20
67.755534833333172
 11
-140.36000000000004
 21
67.543868333333251
  0
LINE
  8
_1-8_小物
  6
CONTINUOUS
 62
    4
 10
-139.64000000000044
 20
67.565009333333194
 11
-140.36000000000004
 21
67.353342833333329
  0
LINE
  8
_1-8_小物
  6
CONTINUOUS
 62
    4
 10
-139.47499940000046
 20
67.660272533333341
 11
-140.5249997
 21
67.448606033333419
  0
LINE
  8
_1-8_小物
  6
CONTINUOUS
 62
    4
 10
-139.47499940000046
 20
67.660272533333341
 11
-139.64000000000044
 21
67.755534833333172
  0
LINE
  8
_1-8_小物
  6
CONTINUOUS
 62
    4
 10
-139.47499940000046
 20
67.660272533333341
 11
-139.64000000000044
 21
67.565009333333194
  0
LINE
  8
_1-8_小物
  6
CONTINUOUS
 62
    4
 10
-140.5249997
 20
67.448606033333419
 11
-140.36000000000004
 21
67.543868333333251
  0
LINE
  8
_1-8_小物
  6
CONTINUOUS
 62
    4
 10
-140.36000000000004
 20
67.353342833333329
 11
-140.5249997
 21
67.448606033333419
  0
LINE
  8
_1-8_小物
  6
CONTINUOUS
 62
    4
 10
-139.64000000000044
 20
66.908868833333258
 11
-139.64000000000044
 21
67.141676333333294
  0
LINE
  8
_1-8_小物
  6
CONTINUOUS
 62
    4
 10
-140.36000000000004
 20
66.930009833333202
 11
-140.36000000000004
 21
66.697201433333362
  0
LINE
  8
_1-8_小物
  6
CONTINUOUS
 62
    4
 10
-139.64000000000044
 20
67.332201833333158
 11
-140.36000000000004
 21
67.120535333333294
  0
LINE
  8
_1-8_小物
  6
CONTINUOUS
 62
    4
 10
-139.64000000000044
 20
67.141676333333294
 11
-140.36000000000004
 21
66.930009833333202
  0
LINE
  8
_1-8_小物
  6
CONTINUOUS
 62
    4
 10
-139.47499940000046
 20
67.236938633333295
 11
-140.5249997
 21
67.02527213333326
  0
LINE
  8
_1-8_小物
  6
CONTINUOUS
 62
    4
 10
-139.47499940000046
 20
67.236938633333295
 11
-139.64000000000044
 21
67.332201833333158
  0
LINE
  8
_1-8_小物
  6
CONTINUOUS
 62
    4
 10
-139.47499940000046
 20
67.236938633333295
 11
-139.64000000000044
 21
67.141676333333294
  0
LINE
  8
_1-8_小物
  6
CONTINUOUS
 62
    4
 10
-140.5249997
 20
67.02527213333326
 11
-140.36000000000004
 21
67.120535333333294
  0
LINE
  8
_1-8_小物
  6
CONTINUOUS
 62
    4
 10
-140.36000000000004
 20
66.930009833333202
 11
-140.5249997
 21
67.02527213333326
  0
LINE
  8
_1-8_小物
  6
CONTINUOUS
 62
    4
 10
-139.64000000000044
 20
66.48553493333327
 11
-139.64000000000044
 21
66.71834333333328
  0
LINE
  8
_1-8_小物
  6
CONTINUOUS
 62
    4
 10
-140.36000000000004
 20
66.506675933333383
 11
-140.36000000000004
 21
66.273868433333348
  0
LINE
  8
_1-8_小物
  6
CONTINUOUS
 62
    4
 10
-139.64000000000044
 20
66.908868833333258
 11
-140.36000000000004
 21
66.697201433333362
  0
LINE
  8
_1-8_小物
  6
CONTINUOUS
 62
    4
 10
-139.64000000000044
 20
66.71834333333328
 11
-140.36000000000004
 21
66.506675933333383
  0
LINE
  8
_1-8_小物
  6
CONTINUOUS
 62
    4
 10
-139.47499940000046
 20
66.813605633333168
 11
-140.5249997
 21
66.601939133333303
  0
LINE
  8
_1-8_小物
  6
CONTINUOUS
 62
    4
 10
-139.47499940000046
 20
66.813605633333168
 11
-139.64000000000044
 21
66.908868833333258
  0
LINE
  8
_1-8_小物
  6
CONTINUOUS
 62
    4
 10
-139.47499940000046
 20
66.813605633333168
 11
-139.64000000000044
 21
66.71834333333328
  0
LINE
  8
_1-8_小物
  6
CONTINUOUS
 62
    4
 10
-140.5249997
 20
66.601939133333303
 11
-140.36000000000004
 21
66.697201433333362
  0
LINE
  8
_1-8_小物
  6
CONTINUOUS
 62
    4
 10
-140.36000000000004
 20
66.506675933333383
 11
-140.5249997
 21
66.601939133333303
  0
LINE
  8
_1-8_小物
  6
CONTINUOUS
 62
    4
 10
-139.64000000000044
 20
66.226456433333283
 11
-139.64000000000044
 21
66.295009433333291
  0
LINE
  8
_1-8_小物
  6
CONTINUOUS
 62
    4
 10
-140.36000000000004
 20
66.083342933333427
 11
-140.36000000000004
 21
65.850535433333391
  0
LINE
  8
_1-8_小物
  6
CONTINUOUS
 62
    4
 10
-139.64000000000044
 20
66.48553493333327
 11
-140.36000000000004
 21
66.273868433333348
  0
LINE
  8
_1-8_小物
  6
CONTINUOUS
 62
    4
 10
-139.64000000000044
 20
66.295009433333291
 11
-140.10795140000019
 21
66.157440833333453
  0
LINE
  8
_1-8_小物
  6
CONTINUOUS
 62
    4
 10
-140.44489250000007
 20
66.194753933333118
 11
-139.47499940000046
 21
66.390272633333382
  0
LINE
  8
_1-8_小物
  6
CONTINUOUS
 62
    4
 10
-139.47499940000046
 20
66.390272633333382
 11
-139.64000000000044
 21
66.48553493333327
  0
LINE
  8
_1-8_小物
  6
CONTINUOUS
 62
    4
 10
-139.47499940000046
 20
66.390272633333382
 11
-139.64000000000044
 21
66.295009433333291
  0
LINE
  8
_1-8_小物
  6
CONTINUOUS
 62
    4
 10
-140.47794590000004
 20
66.205772633333368
 11
-140.36000000000004
 21
66.273868433333348
  0
LINE
  8
_1-8_小物
  6
CONTINUOUS
 62
    4
 10
-140.36000000000004
 20
66.083342933333427
 11
-140.5249997
 21
66.17860613333329
  0
LINE
  8
_1-8_小物
  6
CONTINUOUS
 62
    4
 10
-139.64000000000044
 20
65.638868033333097
 11
-139.64000000000044
 21
65.871676433333391
  0
LINE
  8
_1-8_小物
  6
CONTINUOUS
 62
    4
 10
-140.36000000000004
 20
65.660009933333299
 11
-140.36000000000004
 21
65.427201533333232
  0
LINE
  8
_1-8_小物
  6
CONTINUOUS
 62
    4
 10
-139.64000000000044
 20
66.062201933333256
 11
-140.36000000000004
 21
65.850535433333391
  0
LINE
  8
_1-8_小物
  6
CONTINUOUS
 62
    4
 10
-139.64000000000044
 20
65.871676433333391
 11
-140.36000000000004
 21
65.660009933333299
  0
LINE
  8
_1-8_小物
  6
CONTINUOUS
 62
    4
 10
-139.47499940000046
 20
65.966938733333393
 11
-140.5249997
 21
65.755272233333358
  0
LINE
  8
_1-8_小物
  6
CONTINUOUS
 62
    4
 10
-139.47499940000046
 20
65.966938733333393
 11
-139.64000000000044
 21
66.062201933333256
  0
LINE
  8
_1-8_小物
  6
CONTINUOUS
 62
    4
 10
-139.47499940000046
 20
65.966938733333393
 11
-139.64000000000044
 21
65.871676433333391
  0
LINE
  8
_1-8_小物
  6
CONTINUOUS
 62
    4
 10
-140.5249997
 20
65.755272233333358
 11
-140.36000000000004
 21
65.850535433333391
  0
LINE
  8
_1-8_小物
  6
CONTINUOUS
 62
    4
 10
-140.36000000000004
 20
65.660009933333299
 11
-140.5249997
 21
65.755272233333358
  0
LINE
  8
_1-8_小物
  6
CONTINUOUS
 62
    4
 10
-139.64000000000044
 20
65.215535033333367
 11
-139.64000000000044
 21
65.448342533333346
  0
LINE
  8
_1-8_小物
  6
CONTINUOUS
 62
    4
 10
-140.36000000000004
 20
65.236676033333254
 11
-140.36000000000004
 21
65.003868533333446
  0
LINE
  8
_1-8_小物
  6
CONTINUOUS
 62
    4
 10
-139.64000000000044
 20
65.638868033333097
 11
-140.36000000000004
 21
65.427201533333232
  0
LINE
  8
_1-8_小物
  6
CONTINUOUS
 62
    4
 10
-139.64000000000044
 20
65.448342533333346
 11
-140.36000000000004
 21
65.236676033333254
  0
LINE
  8
_1-8_小物
  6
CONTINUOUS
 62
    4
 10
-139.47499940000046
 20
65.543605733333266
 11
-140.5249997
 21
65.331939233333401
  0
LINE
  8
_1-8_小物
  6
CONTINUOUS
 62
    4
 10
-139.47499940000046
 20
65.543605733333266
 11
-139.64000000000044
 21
65.638868033333097
  0
LINE
  8
_1-8_小物
  6
CONTINUOUS
 62
    4
 10
-139.47499940000046
 20
65.543605733333266
 11
-139.64000000000044
 21
65.448342533333346
  0
LINE
  8
_1-8_小物
  6
CONTINUOUS
 62
    4
 10
-140.5249997
 20
65.331939233333401
 11
-140.36000000000004
 21
65.427201533333232
  0
LINE
  8
_1-8_小物
  6
CONTINUOUS
 62
    4
 10
-140.36000000000004
 20
65.236676033333254
 11
-140.5249997
 21
65.331939233333401
  0
LINE
  8
_1-8_小物
  6
CONTINUOUS
 62
    4
 10
-139.64000000000044
 20
65.215535033333367
 11
-140.36000000000004
 21
65.003868533333446
  0
LINE
  8
_1-8_小物
  6
CONTINUOUS
 62
    4
 10
-139.47499940000046
 20
65.120272733333479
 11
-139.64000000000044
 21
65.215535033333367
  0
LINE
  8
_1-8_小物
  6
CONTINUOUS
 62
    4
 10
-139.7452667
 20
69.03725363333325
 11
-140.26447759999974
 21
68.824454033333382
  0
LINE
  8
_1-8_小物
  6
CONTINUOUS
 62
    4
 10
-140.44781209999996
 20
68.718605933333322
 11
-139.55996930000049
 21
68.930272433333243
  0
LINE
  8
_1-8_小物
  6
CONTINUOUS
 62
    4
 10
-139.72496990000047
 20
68.835009233333381
 11
-140.28281240000001
 21
68.623342733333459
  0
LINE
  8
_1-8_小物
  6
CONTINUOUS
 62
    4
 10
-140.30307140000005
 20
68.401120133333336
 11
-139.70278130000008
 21
68.613919733333489
  0
LINE
  8
_1-8_小物
  6
CONTINUOUS
 62
    4
 10
-139.51748480000006
 20
68.50693943333323
 11
-140.48640590000025
 21
68.295272033333333
  0
LINE
  8
_1-8_小物
  6
CONTINUOUS
 62
    4
 10
-140.32140619999973
 20
68.200009733333331
 11
-139.68248450000002
 21
68.411676233333367
  0
LINE
  8
_1-8_小物
  6
CONTINUOUS
 62
    4
 10
-140.32140619999973
 20
68.200009733333331
 11
-140.34215210000013
 21
67.972448333333318
  0
LINE
  8
_1-8_小物
  6
CONTINUOUS
 62
    4
 10
-140.28281240000001
 20
68.623342733333459
 11
-140.30307140000005
 21
68.401120133333336
  0
LINE
  8
_1-8_小物
  6
CONTINUOUS
 62
    4
 10
-139.70278130000008
 20
68.613919733333489
 11
-139.72496990000047
 21
68.835009233333381
  0
LINE
  8
_1-8_小物
  6
CONTINUOUS
 62
    4
 10
-139.65857240000005
 20
68.173408433333236
 11
-139.68248450000002
 21
68.411676233333367
  0
LINE
  8
_1-8_小物
  6
CONTINUOUS
 62
    4
 10
-139.55996930000049
 20
68.930272433333243
 11
-139.7452667
 21
69.03725363333325
  0
LINE
  8
_1-8_小物
  6
CONTINUOUS
 62
    4
 10
-139.72496990000047
 20
68.835009233333381
 11
-139.55996930000049
 21
68.930272433333243
  0
LINE
  8
_1-8_小物
  6
CONTINUOUS
 62
    4
 10
-139.51748480000006
 20
68.50693943333323
 11
-139.70278130000008
 21
68.613919733333489
  0
LINE
  8
_1-8_小物
  6
CONTINUOUS
 62
    4
 10
-139.51748480000006
 20
68.50693943333323
 11
-139.68248450000002
 21
68.411676233333367
  0
LINE
  8
_1-8_小物
  6
CONTINUOUS
 62
    4
 10
-140.44781209999996
 20
68.718605933333322
 11
-140.26447759999974
 21
68.824454033333382
  0
LINE
  8
_1-8_小物
  6
CONTINUOUS
 62
    4
 10
-140.28281240000001
 20
68.623342733333459
 11
-140.44781209999996
 21
68.718605933333322
  0
LINE
  8
_1-8_小物
  6
CONTINUOUS
 62
    4
 10
-140.48640590000025
 20
68.295272033333333
 11
-140.30307140000005
 21
68.401120133333336
  0
LINE
  8
_1-8_小物
  6
CONTINUOUS
 62
    4
 10
-140.32140619999973
 20
68.200009733333331
 11
-140.48640590000025
 21
68.295272033333333
  0
LINE
  8
_1-8_小物
  6
CONTINUOUS
 62
    4
 10
-140.00000000000011
 20
69.773342933333311
 11
-139.7452667
 21
69.03725363333325
  0
LINE
  8
_1-8_小物
  6
CONTINUOUS
 62
    4
 10
-140.26447759999974
 20
68.824454033333382
 11
-140.00000000000011
 21
69.773342933333311
  0
LINE
  8
_1-8_小物
  6
CONTINUOUS
 62
    4
 10
-139.64000000000044
 20
66.226456433333283
 11
-139.64000000000044
 21
66.062201933333256
  0
LINE
  8
_1-8_小物
  6
CONTINUOUS
 62
    4
 10
-140.47794590000004
 20
66.205772633333368
 11
-140.5249997
 21
66.17860613333329
  0
LINE
  8
_1-8_小物
  6
CONTINUOUS
 62
    4
 10
-140.36000000000004
 20
66.083342933333427
 11
-140.10795140000019
 21
66.157440833333453
  0
LINE
  8
_1-8_小物
  6
CONTINUOUS
 62
    4
 10
-140.44489250000007
 20
66.194753933333118
 11
-140.5249997
 21
66.17860613333329
  0
LINE
  8
_1-8_小物
  6
CENTER2
 62
    4
 10
-140.00000000000011
 20
70.673342933333174
 11
-140.00000000000011
 21
60.503333033333206
  0
ENDBLK
  0
BLOCK
  2
-008-_5_
 70
   64
 10
0
 20
0
 30
0
  0
LINE
  8
_1-8_小物
  6
CONTINUOUS
 62
    4
 10
-135.66666558460466
 20
54.733333333333405
 11
-137.66666558460466
 21
54.733333333333405
  0
LINE
  8
_1-8_小物
  6
CONTINUOUS
 62
    4
 10
-137.66666558460454
 20
54.733333333333405
 11
-137.66666558460454
 21
54.800000000000097
  0
LINE
  8
_1-8_小物
  6
CONTINUOUS
 62
    4
 10
-135.66666558460477
 20
54.800000000000097
 11
-136.16666558460477
 21
55.300000000000097
  0
LINE
  8
_1-8_小物
  6
CONTINUOUS
 62
    4
 10
-136.16666558460477
 20
55.300000000000097
 11
-137.16666558460454
 21
55.300000000000097
  0
LINE
  8
_1-8_小物
  6
CONTINUOUS
 62
    4
 10
-137.66666558460454
 20
54.800000000000097
 11
-137.16666558460454
 21
55.300000000000097
  0
LINE
  8
_1-8_小物
  6
CONTINUOUS
 62
    4
 10
-135.66666558460477
 20
54.800000000000097
 11
-135.66666558460477
 21
54.733333333333405
  0
LINE
  8
_1-8_小物
  6
CONTINUOUS
 62
    4
 10
-137.66666558460454
 20
54.800000000000097
 11
-135.66666558460477
 21
54.800000000000097
  0
LINE
  8
_1-8_小物
  6
CONTINUOUS
 62
    4
 10
-137.16666558460454
 20
58.364246678175789
 11
-137.35416558460466
 21
58.472500000000082
  0
LINE
  8
_1-8_小物
  6
CONTINUOUS
 62
    4
 10
-137.35416558460466
 20
58.472500000000082
 11
-137.1666655846046
 21
58.580753321824318
  0
LINE
  8
_1-8_小物
  6
CONTINUOUS
 62
    4
 10
-137.16666558460454
 20
58.364246678175789
 11
-136.16666558460471
 21
58.599246678175746
  0
LINE
  8
_1-8_小物
  6
CONTINUOUS
 62
    4
 10
-135.97916558460466
 20
58.707500000000039
 11
-136.16666558460471
 21
58.599246678175746
  0
LINE
  8
_1-8_小物
  6
CONTINUOUS
 62
    4
 10
-136.16666558460471
 20
58.815753321824332
 11
-135.97916558460466
 21
58.707500000000039
  0
LINE
  8
_1-8_小物
  6
CONTINUOUS
 62
    4
 10
-137.1666655846046
 20
58.580753321824318
 11
-136.16666558460471
 21
58.815753321824332
  0
LINE
  8
_1-8_小物
  6
CONTINUOUS
 62
    4
 10
-137.35416558460466
 20
58.472500000000082
 11
-135.97916558460466
 21
58.707500000000039
  0
LINE
  8
_1-8_小物
  6
CONTINUOUS
 62
    4
 10
-137.16666558460454
 20
57.894246678175762
 11
-137.35416558460466
 21
58.002500000000055
  0
LINE
  8
_1-8_小物
  6
CONTINUOUS
 62
    4
 10
-137.35416558460466
 20
58.002500000000055
 11
-137.1666655846046
 21
58.110753321824319
  0
LINE
  8
_1-8_小物
  6
CONTINUOUS
 62
    4
 10
-137.16666558460454
 20
57.894246678175762
 11
-136.16666558460471
 21
58.129246678175747
  0
LINE
  8
_1-8_小物
  6
CONTINUOUS
 62
    4
 10
-135.97916558460466
 20
58.237500000000011
 11
-136.16666558460471
 21
58.129246678175747
  0
LINE
  8
_1-8_小物
  6
CONTINUOUS
 62
    4
 10
-136.16666558460471
 20
58.345753321824304
 11
-135.97916558460466
 21
58.237500000000011
  0
LINE
  8
_1-8_小物
  6
CONTINUOUS
 62
    4
 10
-137.1666655846046
 20
58.110753321824319
 11
-136.16666558460471
 21
58.345753321824304
  0
LINE
  8
_1-8_小物
  6
CONTINUOUS
 62
    4
 10
-137.35416558460466
 20
58.002500000000055
 11
-135.97916558460466
 21
58.237500000000011
  0
LINE
  8
_1-8_小物
  6
CONTINUOUS
 62
    4
 10
-137.16666558460454
 20
57.424246678175791
 11
-137.35416558460466
 21
57.532500000000084
  0
LINE
  8
_1-8_小物
  6
CONTINUOUS
 62
    4
 10
-137.35416558460466
 20
57.532500000000084
 11
-137.1666655846046
 21
57.640753321824377
  0
LINE
  8
_1-8_小物
  6
CONTINUOUS
 62
    4
 10
-137.16666558460454
 20
57.424246678175791
 11
-136.16666558460471
 21
57.659246678175805
  0
LINE
  8
_1-8_小物
  6
CONTINUOUS
 62
    4
 10
-135.97916558460466
 20
57.767500000000041
 11
-136.16666558460471
 21
57.659246678175805
  0
LINE
  8
_1-8_小物
  6
CONTINUOUS
 62
    4
 10
-136.16666558460471
 20
57.875753321824334
 11
-135.97916558460466
 21
57.767500000000041
  0
LINE
  8
_1-8_小物
  6
CONTINUOUS
 62
    4
 10
-137.1666655846046
 20
57.640753321824377
 11
-136.16666558460471
 21
57.875753321824334
  0
LINE
  8
_1-8_小物
  6
CONTINUOUS
 62
    4
 10
-137.35416558460466
 20
57.532500000000084
 11
-135.97916558460466
 21
57.767500000000041
  0
LINE
  8
_1-8_小物
  6
CONTINUOUS
 62
    4
 10
-137.16666558460454
 20
56.954246678175792
 11
-137.35416558460466
 21
57.062500000000057
  0
LINE
  8
_1-8_小物
  6
CONTINUOUS
 62
    4
 10
-137.35416558460466
 20
57.062500000000057
 11
-137.1666655846046
 21
57.17075332182435
  0
LINE
  8
_1-8_小物
  6
CONTINUOUS
 62
    4
 10
-137.16666558460454
 20
56.954246678175792
 11
-136.16666558460471
 21
57.189246678175778
  0
LINE
  8
_1-8_小物
  6
CONTINUOUS
 62
    4
 10
-135.97916558460466
 20
57.297500000000042
 11
-136.16666558460471
 21
57.189246678175778
  0
LINE
  8
_1-8_小物
  6
CONTINUOUS
 62
    4
 10
-136.16666558460471
 20
57.405753321824307
 11
-135.97916558460466
 21
57.297500000000042
  0
LINE
  8
_1-8_小物
  6
CONTINUOUS
 62
    4
 10
-137.1666655846046
 20
57.17075332182435
 11
-136.16666558460471
 21
57.405753321824307
  0
LINE
  8
_1-8_小物
  6
CONTINUOUS
 62
    4
 10
-137.35416558460466
 20
57.062500000000057
 11
-135.97916558460466
 21
57.297500000000042
  0
LINE
  8
_1-8_小物
  6
CONTINUOUS
 62
    4
 10
-137.16666558460454
 20
56.48424667817585
 11
-137.35416558460466
 21
56.592500000000086
  0
LINE
  8
_1-8_小物
  6
CONTINUOUS
 62
    4
 10
-137.35416558460466
 20
56.592500000000086
 11
-137.1666655846046
 21
56.700753321824379
  0
LINE
  8
_1-8_小物
  6
CONTINUOUS
 62
    4
 10
-137.16666558460454
 20
56.48424667817585
 11
-136.16666558460471
 21
56.719246678175807
  0
LINE
  8
_1-8_小物
  6
CONTINUOUS
 62
    4
 10
-135.97916558460466
 20
56.8275000000001
 11
-136.16666558460471
 21
56.719246678175807
  0
LINE
  8
_1-8_小物
  6
CONTINUOUS
 62
    4
 10
-136.16666558460471
 20
56.935753321824336
 11
-135.97916558460466
 21
56.8275000000001
  0
LINE
  8
_1-8_小物
  6
CONTINUOUS
 62
    4
 10
-137.1666655846046
 20
56.700753321824379
 11
-136.16666558460471
 21
56.935753321824336
  0
LINE
  8
_1-8_小物
  6
CONTINUOUS
 62
    4
 10
-137.35416558460466
 20
56.592500000000086
 11
-135.97916558460466
 21
56.8275000000001
  0
LINE
  8
_1-8_小物
  6
CONTINUOUS
 62
    4
 10
-137.16666558460454
 20
56.014246678175823
 11
-137.35416558460466
 21
56.122500000000088
  0
LINE
  8
_1-8_小物
  6
CONTINUOUS
 62
    4
 10
-137.35416558460466
 20
56.122500000000088
 11
-137.1666655846046
 21
56.230753321824352
  0
LINE
  8
_1-8_小物
  6
CONTINUOUS
 62
    4
 10
-137.16666558460454
 20
56.014246678175823
 11
-136.16666558460471
 21
56.24924667817578
  0
LINE
  8
_1-8_小物
  6
CONTINUOUS
 62
    4
 10
-135.97916558460466
 20
56.357500000000073
 11
-136.16666558460471
 21
56.24924667817578
  0
LINE
  8
_1-8_小物
  6
CONTINUOUS
 62
    4
 10
-136.16666558460471
 20
56.465753321824337
 11
-135.97916558460466
 21
56.357500000000073
  0
LINE
  8
_1-8_小物
  6
CONTINUOUS
 62
    4
 10
-137.1666655846046
 20
56.230753321824352
 11
-136.16666558460471
 21
56.465753321824337
  0
LINE
  8
_1-8_小物
  6
CONTINUOUS
 62
    4
 10
-137.35416558460466
 20
56.122500000000088
 11
-135.97916558460466
 21
56.357500000000073
  0
LINE
  8
_1-8_小物
  6
CONTINUOUS
 62
    4
 10
-137.16666558460454
 20
55.544246678175853
 11
-137.35416558460466
 21
55.652500000000146
  0
LINE
  8
_1-8_小物
  6
CONTINUOUS
 62
    4
 10
-137.35416558460466
 20
55.652500000000146
 11
-137.1666655846046
 21
55.760753321824382
  0
LINE
  8
_1-8_小物
  6
CONTINUOUS
 62
    4
 10
-137.16666558460454
 20
55.544246678175853
 11
-136.16666558460471
 21
55.779246678175809
  0
LINE
  8
_1-8_小物
  6
CONTINUOUS
 62
    4
 10
-135.97916558460466
 20
55.887500000000102
 11
-136.16666558460471
 21
55.779246678175809
  0
LINE
  8
_1-8_小物
  6
CONTINUOUS
 62
    4
 10
-136.16666558460471
 20
55.995753321824395
 11
-135.97916558460466
 21
55.887500000000102
  0
LINE
  8
_1-8_小物
  6
CONTINUOUS
 62
    4
 10
-137.1666655846046
 20
55.760753321824382
 11
-136.16666558460471
 21
55.995753321824395
  0
LINE
  8
_1-8_小物
  6
CONTINUOUS
 62
    4
 10
-137.35416558460466
 20
55.652500000000146
 11
-135.97916558460466
 21
55.887500000000102
  0
LINE
  8
_1-8_小物
  6
CONTINUOUS
 62
    4
 10
-136.16666558460477
 20
58.815753321824332
 11
-136.16666558460477
 21
59.069246678175716
  0
LINE
  8
_1-8_小物
  6
CONTINUOUS
 62
    4
 10
-136.16666558460477
 20
58.345753321824304
 11
-136.16666558460477
 21
58.599246678175746
  0
LINE
  8
_1-8_小物
  6
CONTINUOUS
 62
    4
 10
-136.16666558460477
 20
57.875753321824334
 11
-136.16666558460477
 21
58.129246678175718
  0
LINE
  8
_1-8_小物
  6
CONTINUOUS
 62
    4
 10
-136.16666558460477
 20
57.405753321824307
 11
-136.16666558460477
 21
57.659246678175805
  0
LINE
  8
_1-8_小物
  6
CONTINUOUS
 62
    4
 10
-136.16666558460477
 20
56.935753321824336
 11
-136.16666558460477
 21
57.189246678175778
  0
LINE
  8
_1-8_小物
  6
CONTINUOUS
 62
    4
 10
-136.16666558460477
 20
56.465753321824337
 11
-136.16666558460477
 21
56.719246678175807
  0
LINE
  8
_1-8_小物
  6
CONTINUOUS
 62
    4
 10
-136.16666558460477
 20
55.300000000000097
 11
-136.16666558460477
 21
55.779246678175809
  0
LINE
  8
_1-8_小物
  6
CONTINUOUS
 62
    4
 10
-136.16666558460477
 20
55.995753321824395
 11
-136.16666558460477
 21
56.24924667817578
  0
LINE
  8
_1-8_小物
  6
CONTINUOUS
 62
    4
 10
-137.16666558460454
 20
55.300000000000097
 11
-137.16666558460454
 21
55.544246678175853
  0
LINE
  8
_1-8_小物
  6
CONTINUOUS
 62
    4
 10
-137.16666558460454
 20
55.76075332182441
 11
-137.16666558460454
 21
56.014246678175823
  0
LINE
  8
_1-8_小物
  6
CONTINUOUS
 62
    4
 10
-137.16666558460454
 20
56.230753321824352
 11
-137.16666558460454
 21
56.48424667817585
  0
LINE
  8
_1-8_小物
  6
CONTINUOUS
 62
    4
 10
-137.16666558460454
 20
56.700753321824379
 11
-137.16666558460454
 21
56.954246678175792
  0
LINE
  8
_1-8_小物
  6
CONTINUOUS
 62
    4
 10
-137.16666558460454
 20
57.17075332182435
 11
-137.16666558460454
 21
57.424246678175791
  0
LINE
  8
_1-8_小物
  6
CONTINUOUS
 62
    4
 10
-137.16666558460454
 20
57.640753321824377
 11
-137.16666558460454
 21
57.894246678175762
  0
LINE
  8
_1-8_小物
  6
CONTINUOUS
 62
    4
 10
-137.16666558460454
 20
58.110753321824404
 11
-137.16666558460454
 21
58.364246678175789
  0
LINE
  8
_1-8_小物
  6
CONTINUOUS
 62
    4
 10
-137.23333225127121
 20
59.073333333333409
 11
-137.23333225127121
 21
60.070000000000078
  0
LINE
  8
_1-8_小物
  6
CONTINUOUS
 62
    4
 10
-136.09999891793811
 20
59.073333333333409
 11
-137.23333225127121
 21
59.073333333333409
  0
LINE
  8
_1-8_小物
  6
CONTINUOUS
 62
    4
 10
-136.09999891793811
 20
59.073333333333409
 11
-136.09999891793811
 21
60.070000000000078
  0
LINE
  8
_1-8_小物
  6
CONTINUOUS
 62
    4
 10
-136.09999891793811
 20
60.070000000000078
 11
-136.66666558460466
 21
60.397165152540822
  0
LINE
  8
_1-8_小物
  6
CONTINUOUS
 62
    4
 10
-137.23333225127121
 20
60.070000000000078
 11
-136.66666558460466
 21
60.397165152540822
  0
LINE
  8
_1-8_小物
  6
CONTINUOUS
 62
    4
 10
-136.66666558460466
 20
60.281695098702869
 11
-137.1333322512713
 21
60.01226497308113
  0
LINE
  8
_1-8_小物
  6
CONTINUOUS
 62
    4
 10
-137.1333322512713
 20
59.073333333333409
 11
-137.1333322512713
 21
60.01226497308113
  0
LINE
  8
_1-8_小物
  6
CONTINUOUS
 62
    4
 10
-136.66666558460466
 20
60.281695098702869
 11
-136.87973236629577
 21
59.073333333333409
  0
LINE
  8
_1-8_小物
  6
CONTINUOUS
 62
    4
 10
-137.16666558460454
 20
58.580753321824346
 11
-137.16666558460454
 21
59.073333333333409
  0
LINE
  8
_1-8_小物
  6
CONTINUOUS
 62
    4
 10
-136.66666558460466
 20
60.397165152540822
 11
-136.66666558460466
 21
60.281695098702869
  0
LINE
  8
_1-8_小物
  6
CENTER2
 62
    4
 10
-136.66666558460466
 20
54.400000000000091
 11
-136.66666558460466
 21
60.730498485874136
  0
ENDBLK
  0
BLOCK
  2
-009-_6_
 70
   64
 10
0
 20
0
 30
0
  0
LINE
  8
_1-8_小物
  6
CONTINUOUS
 62
    4
 10
-62.333332251258639
 20
54.733333333333405
 11
-64.333332251258639
 21
54.733333333333405
  0
LINE
  8
_1-8_小物
  6
CONTINUOUS
 62
    4
 10
-64.333332251258526
 20
54.733333333333405
 11
-64.333332251258526
 21
54.800000000000097
  0
LINE
  8
_1-8_小物
  6
CONTINUOUS
 62
    4
 10
-62.333332251258753
 20
54.800000000000097
 11
-62.833332251258753
 21
55.300000000000097
  0
LINE
  8
_1-8_小物
  6
CONTINUOUS
 62
    4
 10
-62.833332251258753
 20
55.300000000000097
 11
-63.833332251258526
 21
55.300000000000097
  0
LINE
  8
_1-8_小物
  6
CONTINUOUS
 62
    4
 10
-64.333332251258526
 20
54.800000000000097
 11
-63.833332251258526
 21
55.300000000000097
  0
LINE
  8
_1-8_小物
  6
CONTINUOUS
 62
    4
 10
-62.333332251258753
 20
54.800000000000097
 11
-62.333332251258753
 21
54.733333333333405
  0
LINE
  8
_1-8_小物
  6
CONTINUOUS
 62
    4
 10
-64.333332251258526
 20
54.800000000000097
 11
-62.333332251258753
 21
54.800000000000097
  0
LINE
  8
_1-8_小物
  6
CONTINUOUS
 62
    4
 10
-63.833332251258526
 20
58.364246678175789
 11
-64.020832251258639
 21
58.472500000000082
  0
LINE
  8
_1-8_小物
  6
CONTINUOUS
 62
    4
 10
-64.020832251258639
 20
58.472500000000082
 11
-63.833332251258582
 21
58.580753321824318
  0
LINE
  8
_1-8_小物
  6
CONTINUOUS
 62
    4
 10
-63.833332251258526
 20
58.364246678175789
 11
-62.833332251258696
 21
58.599246678175746
  0
LINE
  8
_1-8_小物
  6
CONTINUOUS
 62
    4
 10
-62.645832251258639
 20
58.707500000000039
 11
-62.833332251258696
 21
58.599246678175746
  0
LINE
  8
_1-8_小物
  6
CONTINUOUS
 62
    4
 10
-62.833332251258696
 20
58.815753321824332
 11
-62.645832251258639
 21
58.707500000000039
  0
LINE
  8
_1-8_小物
  6
CONTINUOUS
 62
    4
 10
-63.833332251258582
 20
58.580753321824318
 11
-62.833332251258696
 21
58.815753321824332
  0
LINE
  8
_1-8_小物
  6
CONTINUOUS
 62
    4
 10
-64.020832251258639
 20
58.472500000000082
 11
-62.645832251258639
 21
58.707500000000039
  0
LINE
  8
_1-8_小物
  6
CONTINUOUS
 62
    4
 10
-63.833332251258526
 20
57.894246678175762
 11
-64.020832251258639
 21
58.002500000000055
  0
LINE
  8
_1-8_小物
  6
CONTINUOUS
 62
    4
 10
-64.020832251258639
 20
58.002500000000055
 11
-63.833332251258582
 21
58.110753321824319
  0
LINE
  8
_1-8_小物
  6
CONTINUOUS
 62
    4
 10
-63.833332251258526
 20
57.894246678175762
 11
-62.833332251258696
 21
58.129246678175747
  0
LINE
  8
_1-8_小物
  6
CONTINUOUS
 62
    4
 10
-62.645832251258639
 20
58.237500000000011
 11
-62.833332251258696
 21
58.129246678175747
  0
LINE
  8
_1-8_小物
  6
CONTINUOUS
 62
    4
 10
-62.833332251258696
 20
58.345753321824304
 11
-62.645832251258639
 21
58.237500000000011
  0
LINE
  8
_1-8_小物
  6
CONTINUOUS
 62
    4
 10
-63.833332251258582
 20
58.110753321824319
 11
-62.833332251258696
 21
58.345753321824304
  0
LINE
  8
_1-8_小物
  6
CONTINUOUS
 62
    4
 10
-64.020832251258639
 20
58.002500000000055
 11
-62.645832251258639
 21
58.237500000000011
  0
LINE
  8
_1-8_小物
  6
CONTINUOUS
 62
    4
 10
-63.833332251258526
 20
57.424246678175791
 11
-64.020832251258639
 21
57.532500000000084
  0
LINE
  8
_1-8_小物
  6
CONTINUOUS
 62
    4
 10
-64.020832251258639
 20
57.532500000000084
 11
-63.833332251258582
 21
57.640753321824377
  0
LINE
  8
_1-8_小物
  6
CONTINUOUS
 62
    4
 10
-63.833332251258526
 20
57.424246678175791
 11
-62.833332251258696
 21
57.659246678175805
  0
LINE
  8
_1-8_小物
  6
CONTINUOUS
 62
    4
 10
-62.645832251258639
 20
57.767500000000041
 11
-62.833332251258696
 21
57.659246678175805
  0
LINE
  8
_1-8_小物
  6
CONTINUOUS
 62
    4
 10
-62.833332251258696
 20
57.875753321824334
 11
-62.645832251258639
 21
57.767500000000041
  0
LINE
  8
_1-8_小物
  6
CONTINUOUS
 62
    4
 10
-63.833332251258582
 20
57.640753321824377
 11
-62.833332251258696
 21
57.875753321824334
  0
LINE
  8
_1-8_小物
  6
CONTINUOUS
 62
    4
 10
-64.020832251258639
 20
57.532500000000084
 11
-62.645832251258639
 21
57.767500000000041
  0
LINE
  8
_1-8_小物
  6
CONTINUOUS
 62
    4
 10
-63.833332251258526
 20
56.954246678175792
 11
-64.020832251258639
 21
57.062500000000057
  0
LINE
  8
_1-8_小物
  6
CONTINUOUS
 62
    4
 10
-64.020832251258639
 20
57.062500000000057
 11
-63.833332251258582
 21
57.17075332182435
  0
LINE
  8
_1-8_小物
  6
CONTINUOUS
 62
    4
 10
-63.833332251258526
 20
56.954246678175792
 11
-62.833332251258696
 21
57.189246678175778
  0
LINE
  8
_1-8_小物
  6
CONTINUOUS
 62
    4
 10
-62.645832251258639
 20
57.297500000000042
 11
-62.833332251258696
 21
57.189246678175778
  0
LINE
  8
_1-8_小物
  6
CONTINUOUS
 62
    4
 10
-62.833332251258696
 20
57.405753321824307
 11
-62.645832251258639
 21
57.297500000000042
  0
LINE
  8
_1-8_小物
  6
CONTINUOUS
 62
    4
 10
-63.833332251258582
 20
57.17075332182435
 11
-62.833332251258696
 21
57.405753321824307
  0
LINE
  8
_1-8_小物
  6
CONTINUOUS
 62
    4
 10
-64.020832251258639
 20
57.062500000000057
 11
-62.645832251258639
 21
57.297500000000042
  0
LINE
  8
_1-8_小物
  6
CONTINUOUS
 62
    4
 10
-63.833332251258526
 20
56.48424667817585
 11
-64.020832251258639
 21
56.592500000000086
  0
LINE
  8
_1-8_小物
  6
CONTINUOUS
 62
    4
 10
-64.020832251258639
 20
56.592500000000086
 11
-63.833332251258582
 21
56.700753321824379
  0
LINE
  8
_1-8_小物
  6
CONTINUOUS
 62
    4
 10
-63.833332251258526
 20
56.48424667817585
 11
-62.833332251258696
 21
56.719246678175807
  0
LINE
  8
_1-8_小物
  6
CONTINUOUS
 62
    4
 10
-62.645832251258639
 20
56.8275000000001
 11
-62.833332251258696
 21
56.719246678175807
  0
LINE
  8
_1-8_小物
  6
CONTINUOUS
 62
    4
 10
-62.833332251258696
 20
56.935753321824336
 11
-62.645832251258639
 21
56.8275000000001
  0
LINE
  8
_1-8_小物
  6
CONTINUOUS
 62
    4
 10
-63.833332251258582
 20
56.700753321824379
 11
-62.833332251258696
 21
56.935753321824336
  0
LINE
  8
_1-8_小物
  6
CONTINUOUS
 62
    4
 10
-64.020832251258639
 20
56.592500000000086
 11
-62.645832251258639
 21
56.8275000000001
  0
LINE
  8
_1-8_小物
  6
CONTINUOUS
 62
    4
 10
-63.833332251258526
 20
56.014246678175823
 11
-64.020832251258639
 21
56.122500000000088
  0
LINE
  8
_1-8_小物
  6
CONTINUOUS
 62
    4
 10
-64.020832251258639
 20
56.122500000000088
 11
-63.833332251258582
 21
56.230753321824352
  0
LINE
  8
_1-8_小物
  6
CONTINUOUS
 62
    4
 10
-63.833332251258526
 20
56.014246678175823
 11
-62.833332251258696
 21
56.24924667817578
  0
LINE
  8
_1-8_小物
  6
CONTINUOUS
 62
    4
 10
-62.645832251258639
 20
56.357500000000073
 11
-62.833332251258696
 21
56.24924667817578
  0
LINE
  8
_1-8_小物
  6
CONTINUOUS
 62
    4
 10
-62.833332251258696
 20
56.465753321824337
 11
-62.645832251258639
 21
56.357500000000073
  0
LINE
  8
_1-8_小物
  6
CONTINUOUS
 62
    4
 10
-63.833332251258582
 20
56.230753321824352
 11
-62.833332251258696
 21
56.465753321824337
  0
LINE
  8
_1-8_小物
  6
CONTINUOUS
 62
    4
 10
-64.020832251258639
 20
56.122500000000088
 11
-62.645832251258639
 21
56.357500000000073
  0
LINE
  8
_1-8_小物
  6
CONTINUOUS
 62
    4
 10
-63.833332251258526
 20
55.544246678175853
 11
-64.020832251258639
 21
55.652500000000146
  0
LINE
  8
_1-8_小物
  6
CONTINUOUS
 62
    4
 10
-64.020832251258639
 20
55.652500000000146
 11
-63.833332251258582
 21
55.760753321824382
  0
LINE
  8
_1-8_小物
  6
CONTINUOUS
 62
    4
 10
-63.833332251258526
 20
55.544246678175853
 11
-62.833332251258696
 21
55.779246678175809
  0
LINE
  8
_1-8_小物
  6
CONTINUOUS
 62
    4
 10
-62.645832251258639
 20
55.887500000000102
 11
-62.833332251258696
 21
55.779246678175809
  0
LINE
  8
_1-8_小物
  6
CONTINUOUS
 62
    4
 10
-62.833332251258696
 20
55.995753321824395
 11
-62.645832251258639
 21
55.887500000000102
  0
LINE
  8
_1-8_小物
  6
CONTINUOUS
 62
    4
 10
-63.833332251258582
 20
55.760753321824382
 11
-62.833332251258696
 21
55.995753321824395
  0
LINE
  8
_1-8_小物
  6
CONTINUOUS
 62
    4
 10
-64.020832251258639
 20
55.652500000000146
 11
-62.645832251258639
 21
55.887500000000102
  0
LINE
  8
_1-8_小物
  6
CONTINUOUS
 62
    4
 10
-62.833332251258753
 20
58.815753321824332
 11
-62.833332251258753
 21
59.069246678175716
  0
LINE
  8
_1-8_小物
  6
CONTINUOUS
 62
    4
 10
-62.833332251258753
 20
58.345753321824304
 11
-62.833332251258753
 21
58.599246678175746
  0
LINE
  8
_1-8_小物
  6
CONTINUOUS
 62
    4
 10
-62.833332251258753
 20
57.875753321824334
 11
-62.833332251258753
 21
58.129246678175718
  0
LINE
  8
_1-8_小物
  6
CONTINUOUS
 62
    4
 10
-62.833332251258753
 20
57.405753321824307
 11
-62.833332251258753
 21
57.659246678175805
  0
LINE
  8
_1-8_小物
  6
CONTINUOUS
 62
    4
 10
-62.833332251258753
 20
56.935753321824336
 11
-62.833332251258753
 21
57.189246678175778
  0
LINE
  8
_1-8_小物
  6
CONTINUOUS
 62
    4
 10
-62.833332251258753
 20
56.465753321824337
 11
-62.833332251258753
 21
56.719246678175807
  0
LINE
  8
_1-8_小物
  6
CONTINUOUS
 62
    4
 10
-62.833332251258753
 20
55.300000000000097
 11
-62.833332251258753
 21
55.779246678175809
  0
LINE
  8
_1-8_小物
  6
CONTINUOUS
 62
    4
 10
-62.833332251258753
 20
55.995753321824395
 11
-62.833332251258753
 21
56.24924667817578
  0
LINE
  8
_1-8_小物
  6
CONTINUOUS
 62
    4
 10
-63.833332251258526
 20
55.300000000000097
 11
-63.833332251258526
 21
55.544246678175853
  0
LINE
  8
_1-8_小物
  6
CONTINUOUS
 62
    4
 10
-63.833332251258526
 20
55.76075332182441
 11
-63.833332251258526
 21
56.014246678175823
  0
LINE
  8
_1-8_小物
  6
CONTINUOUS
 62
    4
 10
-63.833332251258526
 20
56.230753321824352
 11
-63.833332251258526
 21
56.48424667817585
  0
LINE
  8
_1-8_小物
  6
CONTINUOUS
 62
    4
 10
-63.833332251258526
 20
56.700753321824379
 11
-63.833332251258526
 21
56.954246678175792
  0
LINE
  8
_1-8_小物
  6
CONTINUOUS
 62
    4
 10
-63.833332251258526
 20
57.17075332182435
 11
-63.833332251258526
 21
57.424246678175791
  0
LINE
  8
_1-8_小物
  6
CONTINUOUS
 62
    4
 10
-63.833332251258526
 20
57.640753321824377
 11
-63.833332251258526
 21
57.894246678175762
  0
LINE
  8
_1-8_小物
  6
CONTINUOUS
 62
    4
 10
-63.833332251258526
 20
58.110753321824404
 11
-63.833332251258526
 21
58.364246678175789
  0
LINE
  8
_1-8_小物
  6
CONTINUOUS
 62
    4
 10
-63.899998917925188
 20
59.073333333333409
 11
-63.899998917925188
 21
60.070000000000078
  0
LINE
  8
_1-8_小物
  6
CONTINUOUS
 62
    4
 10
-62.76666558459209
 20
59.073333333333409
 11
-63.899998917925188
 21
59.073333333333409
  0
LINE
  8
_1-8_小物
  6
CONTINUOUS
 62
    4
 10
-62.76666558459209
 20
59.073333333333409
 11
-62.76666558459209
 21
60.070000000000078
  0
LINE
  8
_1-8_小物
  6
CONTINUOUS
 62
    4
 10
-62.76666558459209
 20
60.070000000000078
 11
-63.333332251258639
 21
60.397165152540822
  0
LINE
  8
_1-8_小物
  6
CONTINUOUS
 62
    4
 10
-63.899998917925188
 20
60.070000000000078
 11
-63.333332251258639
 21
60.397165152540822
  0
LINE
  8
_1-8_小物
  6
CONTINUOUS
 62
    4
 10
-63.333332251258639
 20
60.281695098702869
 11
-63.799998917925279
 21
60.01226497308113
  0
LINE
  8
_1-8_小物
  6
CONTINUOUS
 62
    4
 10
-63.799998917925279
 20
59.073333333333409
 11
-63.799998917925279
 21
60.01226497308113
  0
LINE
  8
_1-8_小物
  6
CONTINUOUS
 62
    4
 10
-63.333332251258639
 20
60.281695098702869
 11
-63.546399032949751
 21
59.073333333333409
  0
LINE
  8
_1-8_小物
  6
CONTINUOUS
 62
    4
 10
-63.833332251258526
 20
58.580753321824346
 11
-63.833332251258526
 21
59.073333333333409
  0
LINE
  8
_1-8_小物
  6
CONTINUOUS
 62
    4
 10
-63.333332251258639
 20
60.397165152540822
 11
-63.333332251258639
 21
60.281695098702869
  0
LINE
  8
_1-8_小物
  6
CENTER2
 62
    4
 10
-63.333332251258639
 20
54.400000000000091
 11
-63.333332251258639
 21
60.730498485874136
  0
ENDBLK
  0
BLOCK
  2
-010-$QLE_3_
 70
   64
 10
0
 20
0
 30
0
  0
LINE
  8
_1-f_寸法
  6
CONTINUOUS
 62
    4
 10
153.38716433333326
 20
85.500000666666608
 11
156.17415532803443
 21
90.327210669725844
  0
LINE
  8
_1-f_寸法
  6
CONTINUOUS
 62
    4
 10
156.17415532803443
 20
90.327210669725844
 11
175.69415532803441
 21
90.327210669725844
  0
POINT
  8
_1-f_寸法
 62
    4
 10
153.38716433333326
 20
85.500000666666608
  0
TEXT
  8
_1-f_寸法
 62
    4
 10
156.49415532803442
 20
90.327210669725844
 40
3.2000000000000002
 41
1
 50
0
  1
野縁受(別途)
  0
ENDBLK
  0
BLOCK
  2
-011-$QLE_4_
 70
   64
 10
0
 20
0
 30
0
  0
LINE
  8
_1-f_寸法
  6
CONTINUOUS
 62
    4
 10
151.4166663333333
 20
69.916667166666599
 11
155.65093882746311
 21
77.250642259590933
  0
LINE
  8
_1-f_寸法
  6
CONTINUOUS
 62
    4
 10
155.65093882746311
 20
77.250642259590933
 11
171.97093882746304
 21
77.250642259590933
  0
POINT
  8
_1-f_寸法
 62
    4
 10
151.4166663333333
 20
69.916667166666599
  0
TEXT
  8
_1-f_寸法
 62
    4
 10
155.9709388274631
 20
77.250642259590933
 40
3.2000000000000002
 41
1
 50
0
  1
野縁(別途)
  0
ENDBLK
  0
BLOCK
  2
-012-$QLE_5_
 70
   64
 10
0
 20
0
 30
0
  0
LINE
  8
_1-f_寸法
  6
CONTINUOUS
 62
    4
 10
159.99999983333333
 20
66.500000333333276
 11
161.86004207030317
 21
69.721687991989143
  0
LINE
  8
_1-f_寸法
  6
CONTINUOUS
 62
    4
 10
161.86004207030317
 20
69.721687991989143
 11
178.18004207030322
 21
69.721687991989143
  0
POINT
  8
_1-f_寸法
 62
    4
 10
159.99999983333333
 20
66.500000333333276
  0
TEXT
  8
_1-f_寸法
 62
    4
 10
162.18004207030322
 20
69.721687991989143
 40
3.2000000000000002
 41
1
 50
0
  1
天井仕上面
  0
ENDBLK
  0
BLOCK
  2
-013-_7_
 70
   64
 10
0
 20
0
 30
0
  0
ARC
  8
_1-4_フレ__ム
  6
CONTINUOUS
 62
    4
 10
-84.833333333333854
 20
63.166666666666657
 40
0.5
 50
180
 51
270
  0
LINE
  8
_1-4_フレ__ム
  6
CONTINUOUS
 62
    4
 10
-55.000000000000483
 20
62.766666666666708
 11
-55.10000000000025
 21
62.666666666666657
  0
LINE
  8
_1-4_フレ__ム
  6
CONTINUOUS
 62
    4
 10
-54.899999999999807
 20
62.666666666666657
 11
-55.000000000000483
 21
62.766666666666708
  0
LINE
  8
_1-4_フレ__ム
  6
CONTINUOUS
 62
    4
 10
-85.333333333333627
 20
63.166666666666657
 11
-50.000000000000483
 21
63.166666666666657
  0
LINE
  8
_1-4_フレ__ム
  6
CONTINUOUS
 62
    4
 10
-50.00000007946727
 20
63.166666647666631
 11
-49.00000009846724
 21
62.166666666666686
  0
LINE
  8
_1-4_フレ__ム
  6
CONTINUOUS
 62
    4
 10
-49.00000009846724
 20
62.166666666666686
 11
-49.707106879653907
 21
62.166666666666686
  0
LINE
  8
_1-4_フレ__ム
  6
CONTINUOUS
 62
    4
 10
-50.207106879653907
 20
62.666666666666657
 11
-49.707106879653907
 21
62.166666666666686
  0
LINE
  8
_1-4_フレ__ム
  6
CONTINUOUS
 62
    4
 10
-50.207106879653907
 20
62.666666666666657
 11
-54.899999999999807
 21
62.666666666666657
  0
LINE
  8
_1-4_フレ__ム
  6
CONTINUOUS
 62
    4
 10
-63.238095238095895
 20
61.433333333333394
 11
-63.238095238095895
 21
61.266666666666708
  0
ARC
  8
_1-4_フレ__ム
  6
CONTINUOUS
 62
    4
 10
-63.571428571429237
 20
61.433333333333394
 40
0.3333333333333333
 50
0
 51
90
  0
LINE
  8
_1-4_フレ__ム
  6
CONTINUOUS
 62
    4
 10
-63.571428571429237
 20
61.766666666666708
 11
-64.401932775167438
 21
61.766666666666708
  0
ARC
  8
_1-4_フレ__ム
  6
CONTINUOUS
 62
    4
 10
-64.401932775167438
 20
61.933333333333394
 40
0.1666666666666666
 50
209.05460409905626
 51
270
  0
LINE
  8
_1-4_フレ__ム
  6
CONTINUOUS
 62
    4
 10
-55.10000000000025
 20
62.666666666666657
 11
-64.716747589982219
 21
62.666666666666657
  0
ARC
  8
_1-4_フレ__ム
  6
CONTINUOUS
 62
    4
 10
-64.716747589982219
 20
62.5
 40
0.1666666666666666
 50
90
 51
209.05460409905626
  0
LINE
  8
_1-4_フレ__ム
  6
CONTINUOUS
 62
    4
 10
-63.238095238095895
 20
61.266666666666708
 11
-64.598067224833528
 21
61.266666666666708
  0
ARC
  8
_1-4_フレ__ム
  6
CONTINUOUS
 62
    4
 10
-64.598067224833528
 20
61.600000000000051
 40
0.3333333333333333
 50
209.05460409906766
 51
270
  0
LINE
  8
_1-4_フレ__ム
  6
CONTINUOUS
 62
    4
 10
-65.476728143236585
 20
62.495214310392868
 11
-64.889452983540821
 21
61.438119022940498
  0
LINE
  8
_1-4_フレ__ム
  6
CONTINUOUS
 62
    4
 10
-65.768113901943735
 20
62.666666666666657
 11
-84.833333333333854
 21
62.666666666666657
  0
ARC
  8
_1-4_フレ__ム
  6
CONTINUOUS
 62
    4
 10
-65.768113901943735
 20
62.333333333333314
 40
0.3333333333333333
 50
29.054604099078571
 51
90
  0
LINE
  8
_1-4_フレ__ム
  6
CONTINUOUS
 62
    4
 10
-64.862440469335866
 20
62.419059511470209
 11
-64.547625654521084
 21
61.852392844803603
  0
LINE
  8
_1-4_フレ__ム
  6
CENTER2
 62
    4
 10
-55.000000000000028
 20
61
 11
-55.000000000000028
 21
64.833333333333314
  0
LINE
  8
_1-4_フレ__ム
  6
DASHED1
 62
    4
 10
-52.500000000000028
 20
62.666666666666657
 11
-52.500000000000028
 21
63.166666666666657
  0
LINE
  8
_1-4_フレ__ム
  6
DASHED1
 62
    4
 10
-57.500000000000028
 20
62.666666666666657
 11
-57.500000000000028
 21
63.166666666666657
  0
ENDBLK
  0
BLOCK
  2
-014-_8_
 70
   64
 10
0
 20
0
 30
0
  0
LINE
  8
_1-8_小物
  6
CONTINUOUS
 62
    4
 10
-57.699999549999887
 20
62.666666666666572
 11
-52.299999549999654
 21
62.666666666666572
  0
LINE
  8
_1-8_小物
  6
CONTINUOUS
 62
    4
 10
-57.699999549999887
 20
62.216666666666583
 11
-52.299999549999654
 21
62.216666666666583
  0
LINE
  8
_1-8_小物
  6
CONTINUOUS
 62
    4
 10
-57.699999549999887
 20
62.666666666666572
 11
-57.699999549999887
 21
62.216666666666583
  0
LINE
  8
_1-8_小物
  6
CONTINUOUS
 62
    4
 10
-52.299999549999654
 20
62.666666666666572
 11
-52.299999549999654
 21
62.216666666666583
  0
LINE
  8
_1-8_小物
  6
DASHED1
 62
    4
 10
-55.824999549999859
 20
62.666666666666572
 11
-55.824999549999859
 21
62.216666666666583
  0
LINE
  8
_1-8_小物
  6
DASHED1
 62
    4
 10
-54.174999549999654
 20
62.666666666666572
 11
-54.174999549999654
 21
62.216666666666583
  0
LINE
  8
_1-8_小物
  6
CONTINUOUS
 62
    4
 10
-54.640000000000384
 20
64.825535366666657
 11
-54.640000000000384
 21
65.058342866666521
  0
LINE
  8
_1-8_小物
  6
CONTINUOUS
 62
    4
 10
-55.359999999999985
 20
64.846676366666429
 11
-55.359999999999985
 21
64.613868866666792
  0
LINE
  8
_1-8_小物
  6
CONTINUOUS
 62
    4
 10
-54.640000000000384
 20
65.058342866666521
 11
-55.359999999999985
 21
64.846676366666429
  0
LINE
  8
_1-8_小物
  6
CONTINUOUS
 62
    4
 10
-54.474999400000399
 20
65.153606066666782
 11
-55.524999699999938
 21
64.941938666666658
  0
LINE
  8
_1-8_小物
  6
CONTINUOUS
 62
    4
 10
-54.474999400000399
 20
65.153606066666782
 11
-54.640000000000384
 21
65.058342866666521
  0
LINE
  8
_1-8_小物
  6
CONTINUOUS
 62
    4
 10
-55.524999699999938
 20
64.941938666666658
 11
-55.359999999999985
 21
65.037201866666749
  0
LINE
  8
_1-8_小物
  6
CONTINUOUS
 62
    4
 10
-55.359999999999985
 20
64.846676366666429
 11
-55.524999699999938
 21
64.941938666666658
  0
LINE
  8
_1-8_小物
  6
CONTINUOUS
 62
    4
 10
-54.640000000000384
 20
64.402201466666497
 11
-54.640000000000384
 21
64.635009866666564
  0
LINE
  8
_1-8_小物
  6
CONTINUOUS
 62
    4
 10
-55.359999999999985
 20
64.423342466666668
 11
-55.359999999999985
 21
64.190534966666632
  0
LINE
  8
_1-8_小物
  6
CONTINUOUS
 62
    4
 10
-54.640000000000384
 20
64.825535366666657
 11
-55.359999999999985
 21
64.613868866666792
  0
LINE
  8
_1-8_小物
  6
CONTINUOUS
 62
    4
 10
-54.640000000000384
 20
64.635009866666564
 11
-55.359999999999985
 21
64.423342466666668
  0
LINE
  8
_1-8_小物
  6
CONTINUOUS
 62
    4
 10
-54.474999400000399
 20
64.730272166666623
 11
-55.524999699999938
 21
64.518605666666531
  0
LINE
  8
_1-8_小物
  6
CONTINUOUS
 62
    4
 10
-54.474999400000399
 20
64.730272166666623
 11
-54.640000000000384
 21
64.825535366666657
  0
LINE
  8
_1-8_小物
  6
CONTINUOUS
 62
    4
 10
-54.474999400000399
 20
64.730272166666623
 11
-54.640000000000384
 21
64.635009866666564
  0
LINE
  8
_1-8_小物
  6
CONTINUOUS
 62
    4
 10
-55.524999699999938
 20
64.518605666666531
 11
-55.359999999999985
 21
64.613868866666792
  0
LINE
  8
_1-8_小物
  6
CONTINUOUS
 62
    4
 10
-55.359999999999985
 20
64.423342466666668
 11
-55.524999699999938
 21
64.518605666666531
  0
LINE
  8
_1-8_小物
  6
CONTINUOUS
 62
    4
 10
-54.640000000000384
 20
63.978868466666711
 11
-54.640000000000384
 21
64.211675966666746
  0
LINE
  8
_1-8_小物
  6
CONTINUOUS
 62
    4
 10
-55.359999999999985
 20
64.000009466666654
 11
-55.359999999999985
 21
63.767201966666619
  0
LINE
  8
_1-8_小物
  6
CONTINUOUS
 62
    4
 10
-54.640000000000384
 20
64.402201466666497
 11
-55.359999999999985
 21
64.190534966666632
  0
LINE
  8
_1-8_小物
  6
CONTINUOUS
 62
    4
 10
-54.640000000000384
 20
64.211675966666746
 11
-55.359999999999985
 21
64.000009466666654
  0
LINE
  8
_1-8_小物
  6
CONTINUOUS
 62
    4
 10
-54.474999400000399
 20
64.306939166666609
 11
-55.524999699999938
 21
64.095272666666517
  0
LINE
  8
_1-8_小物
  6
CONTINUOUS
 62
    4
 10
-54.474999400000399
 20
64.306939166666609
 11
-54.640000000000384
 21
64.402201466666497
  0
LINE
  8
_1-8_小物
  6
CONTINUOUS
 62
    4
 10
-54.474999400000399
 20
64.306939166666609
 11
-54.640000000000384
 21
64.211675966666746
  0
LINE
  8
_1-8_小物
  6
CONTINUOUS
 62
    4
 10
-55.524999699999938
 20
64.095272666666517
 11
-55.359999999999985
 21
64.190534966666632
  0
LINE
  8
_1-8_小物
  6
CONTINUOUS
 62
    4
 10
-55.359999999999985
 20
64.000009466666654
 11
-55.524999699999938
 21
64.095272666666517
  0
LINE
  8
_1-8_小物
  6
CONTINUOUS
 62
    4
 10
-54.640000000000384
 20
63.555535466666583
 11
-54.640000000000384
 21
63.788342966666619
  0
LINE
  8
_1-8_小物
  6
CONTINUOUS
 62
    4
 10
-55.359999999999985
 20
63.576676466666527
 11
-55.359999999999985
 21
63.343868066666687
  0
LINE
  8
_1-8_小物
  6
CONTINUOUS
 62
    4
 10
-54.640000000000384
 20
63.978868466666711
 11
-55.359999999999985
 21
63.767201966666619
  0
LINE
  8
_1-8_小物
  6
CONTINUOUS
 62
    4
 10
-54.640000000000384
 20
63.788342966666619
 11
-55.359999999999985
 21
63.576676466666527
  0
LINE
  8
_1-8_小物
  6
CONTINUOUS
 62
    4
 10
-54.474999400000399
 20
63.883605266666621
 11
-55.524999699999938
 21
63.671938766666756
  0
LINE
  8
_1-8_小物
  6
CONTINUOUS
 62
    4
 10
-54.474999400000399
 20
63.883605266666621
 11
-54.640000000000384
 21
63.978868466666711
  0
LINE
  8
_1-8_小物
  6
CONTINUOUS
 62
    4
 10
-54.474999400000399
 20
63.883605266666621
 11
-54.640000000000384
 21
63.788342966666619
  0
LINE
  8
_1-8_小物
  6
CONTINUOUS
 62
    4
 10
-55.524999699999938
 20
63.671938766666756
 11
-55.359999999999985
 21
63.767201966666619
  0
LINE
  8
_1-8_小物
  6
CONTINUOUS
 62
    4
 10
-55.359999999999985
 20
63.576676466666527
 11
-55.524999699999938
 21
63.671938766666756
  0
LINE
  8
_1-8_小物
  6
CONTINUOUS
 62
    4
 10
-54.640000000000384
 20
63.132201566666595
 11
-54.640000000000384
 21
63.365009966666662
  0
LINE
  8
_1-8_小物
  6
CONTINUOUS
 62
    4
 10
-55.359999999999985
 20
63.153342566666481
 11
-55.359999999999985
 21
62.92053506666673
  0
LINE
  8
_1-8_小物
  6
CONTINUOUS
 62
    4
 10
-54.640000000000384
 20
63.555535466666583
 11
-55.359999999999985
 21
63.343868066666687
  0
LINE
  8
_1-8_小物
  6
CONTINUOUS
 62
    4
 10
-54.640000000000384
 20
63.365009966666662
 11
-55.359999999999985
 21
63.153342566666481
  0
LINE
  8
_1-8_小物
  6
CONTINUOUS
 62
    4
 10
-54.474999400000399
 20
63.46027226666672
 11
-55.524999699999938
 21
63.248605766666628
  0
LINE
  8
_1-8_小物
  6
CONTINUOUS
 62
    4
 10
-54.474999400000399
 20
63.46027226666672
 11
-54.640000000000384
 21
63.555535466666583
  0
LINE
  8
_1-8_小物
  6
CONTINUOUS
 62
    4
 10
-54.474999400000399
 20
63.46027226666672
 11
-54.640000000000384
 21
63.365009966666662
  0
LINE
  8
_1-8_小物
  6
CONTINUOUS
 62
    4
 10
-55.524999699999938
 20
63.248605766666628
 11
-55.359999999999985
 21
63.343868066666687
  0
LINE
  8
_1-8_小物
  6
CONTINUOUS
 62
    4
 10
-55.359999999999985
 20
63.153342566666481
 11
-55.524999699999938
 21
63.248605766666628
  0
LINE
  8
_1-8_小物
  6
CONTINUOUS
 62
    4
 10
-54.640000000000384
 20
62.708868566666808
 11
-55.359999999999985
 21
62.497202066666716
  0
LINE
  8
_1-8_小物
  6
CONTINUOUS
 62
    4
 10
-54.640000000000384
 20
62.518343066666489
 11
-55.359999999999985
 21
62.306676566666567
  0
LINE
  8
_1-8_小物
  6
CONTINUOUS
 62
    4
 10
-54.474999400000399
 20
62.613605366666548
 11
-55.524999699999938
 21
62.401938866666455
  0
LINE
  8
_1-8_小物
  6
CONTINUOUS
 62
    4
 10
-54.474999400000399
 20
62.613605366666548
 11
-54.640000000000384
 21
62.708868566666808
  0
LINE
  8
_1-8_小物
  6
CONTINUOUS
 62
    4
 10
-54.474999400000399
 20
62.613605366666548
 11
-54.640000000000384
 21
62.518343066666489
  0
LINE
  8
_1-8_小物
  6
CONTINUOUS
 62
    4
 10
-55.524999699999938
 20
62.401938866666455
 11
-55.359999999999985
 21
62.497202066666716
  0
LINE
  8
_1-8_小物
  6
CONTINUOUS
 62
    4
 10
-55.359999999999985
 20
62.306676566666567
 11
-55.524999699999938
 21
62.401938866666455
  0
LINE
  8
_1-8_小物
  6
CONTINUOUS
 62
    4
 10
-54.640000000000384
 20
62.216666666666583
 11
-54.640000000000384
 21
62.518343066666489
  0
LINE
  8
_1-8_小物
  6
CONTINUOUS
 62
    4
 10
-54.640000000000384
 20
62.708868566666808
 11
-54.640000000000384
 21
62.941676066666616
  0
LINE
  8
_1-8_小物
  6
CONTINUOUS
 62
    4
 10
-55.359999999999985
 20
62.730009566666581
 11
-55.359999999999985
 21
62.497202066666716
  0
LINE
  8
_1-8_小物
  6
CONTINUOUS
 62
    4
 10
-54.640000000000384
 20
63.132201566666595
 11
-55.359999999999985
 21
62.92053506666673
  0
LINE
  8
_1-8_小物
  6
CONTINUOUS
 62
    4
 10
-54.640000000000384
 20
62.941676066666616
 11
-55.359999999999985
 21
62.730009566666581
  0
LINE
  8
_1-8_小物
  6
CONTINUOUS
 62
    4
 10
-54.474999400000399
 20
63.036939266666707
 11
-55.524999699999938
 21
62.825272766666615
  0
LINE
  8
_1-8_小物
  6
CONTINUOUS
 62
    4
 10
-54.474999400000399
 20
63.036939266666707
 11
-54.640000000000384
 21
63.132201566666595
  0
LINE
  8
_1-8_小物
  6
CONTINUOUS
 62
    4
 10
-54.474999400000399
 20
63.036939266666707
 11
-54.640000000000384
 21
62.941676066666616
  0
LINE
  8
_1-8_小物
  6
CONTINUOUS
 62
    4
 10
-55.524999699999938
 20
62.825272766666615
 11
-55.359999999999985
 21
62.92053506666673
  0
LINE
  8
_1-8_小物
  6
CONTINUOUS
 62
    4
 10
-55.359999999999985
 20
62.730009566666581
 11
-55.524999699999938
 21
62.825272766666615
  0
ARC
  8
_1-8_小物
  6
CONTINUOUS
 62
    4
 10
-54.249999399999837
 20
61.937627966666525
 40
0.2999996999999999
 50
299.99999999998732
 51
0
  0
ARC
  8
_1-8_小物
  6
CONTINUOUS
 62
    4
 10
-55.749999699999705
 20
61.937627966666525
 40
0.2999996999999999
 50
180
 51
239.99999999995677
  0
ARC
  8
_1-8_小物
  6
CONTINUOUS
 62
    4
 10
-55.000000000000057
 20
63.236666366666554
 40
1.8
 50
239.99999999999184
 51
299.99999999999801
  0
LINE
  8
_1-8_小物
  6
CONTINUOUS
 62
    4
 10
-53.949999699999978
 20
62.216666666666583
 11
-53.949999699999978
 21
61.937627966666525
  0
LINE
  8
_1-8_小物
  6
CONTINUOUS
 62
    4
 10
-56.049999399999876
 20
62.216666666666583
 11
-53.949999699999978
 21
62.216666666666583
  0
LINE
  8
_1-8_小物
  6
CONTINUOUS
 62
    4
 10
-56.049999399999876
 20
62.216666666666583
 11
-56.049999399999876
 21
61.937627966666525
  0
LINE
  8
_1-8_小物
  6
CONTINUOUS
 62
    4
 10
-55.359999999999985
 20
62.306676566666567
 11
-55.359999999999985
 21
62.216666666666583
  0
LINE
  8
_1-8_小物
  6
CONTINUOUS
 62
    4
 10
-54.640000000000384
 20
67.788868166666475
 11
-54.640000000000384
 21
68.021676566666542
  0
LINE
  8
_1-8_小物
  6
CONTINUOUS
 62
    4
 10
-55.359999999999985
 20
67.810009166666589
 11
-55.359999999999985
 21
67.577201666666554
  0
LINE
  8
_1-8_小物
  6
CONTINUOUS
 62
    4
 10
-54.640000000000384
 20
68.212202066666634
 11
-55.359999999999985
 21
68.000535566666599
  0
LINE
  8
_1-8_小物
  6
CONTINUOUS
 62
    4
 10
-54.640000000000384
 20
68.021676566666542
 11
-55.359999999999985
 21
67.810009166666589
  0
LINE
  8
_1-8_小物
  6
CONTINUOUS
 62
    4
 10
-54.474999400000399
 20
68.116938866666771
 11
-55.524999699999938
 21
67.905272366666736
  0
LINE
  8
_1-8_小物
  6
CONTINUOUS
 62
    4
 10
-54.474999400000399
 20
68.116938866666771
 11
-54.640000000000384
 21
68.212202066666634
  0
LINE
  8
_1-8_小物
  6
CONTINUOUS
 62
    4
 10
-54.474999400000399
 20
68.116938866666771
 11
-54.640000000000384
 21
68.021676566666542
  0
LINE
  8
_1-8_小物
  6
CONTINUOUS
 62
    4
 10
-55.524999699999938
 20
67.905272366666736
 11
-55.359999999999985
 21
68.000535566666599
  0
LINE
  8
_1-8_小物
  6
CONTINUOUS
 62
    4
 10
-55.359999999999985
 20
67.810009166666589
 11
-55.524999699999938
 21
67.905272366666736
  0
LINE
  8
_1-8_小物
  6
CONTINUOUS
 62
    4
 10
-54.640000000000384
 20
67.365535166666461
 11
-54.640000000000384
 21
67.598342666666497
  0
LINE
  8
_1-8_小物
  6
CONTINUOUS
 62
    4
 10
-55.359999999999985
 20
67.386676166666632
 11
-55.359999999999985
 21
67.153868666666597
  0
LINE
  8
_1-8_小物
  6
CONTINUOUS
 62
    4
 10
-54.640000000000384
 20
67.788868166666475
 11
-55.359999999999985
 21
67.577201666666554
  0
LINE
  8
_1-8_小物
  6
CONTINUOUS
 62
    4
 10
-54.640000000000384
 20
67.598342666666497
 11
-55.359999999999985
 21
67.386676166666632
  0
LINE
  8
_1-8_小物
  6
CONTINUOUS
 62
    4
 10
-54.474999400000399
 20
67.693605866666644
 11
-55.524999699999938
 21
67.481939366666722
  0
LINE
  8
_1-8_小物
  6
CONTINUOUS
 62
    4
 10
-54.474999400000399
 20
67.693605866666644
 11
-54.640000000000384
 21
67.788868166666475
  0
LINE
  8
_1-8_小物
  6
CONTINUOUS
 62
    4
 10
-54.474999400000399
 20
67.693605866666644
 11
-54.640000000000384
 21
67.598342666666497
  0
LINE
  8
_1-8_小物
  6
CONTINUOUS
 62
    4
 10
-55.524999699999938
 20
67.481939366666722
 11
-55.359999999999985
 21
67.577201666666554
  0
LINE
  8
_1-8_小物
  6
CONTINUOUS
 62
    4
 10
-55.359999999999985
 20
67.386676166666632
 11
-55.524999699999938
 21
67.481939366666722
  0
LINE
  8
_1-8_小物
  6
CONTINUOUS
 62
    4
 10
-54.640000000000384
 20
66.942202166666561
 11
-54.640000000000384
 21
67.175009666666597
  0
LINE
  8
_1-8_小物
  6
CONTINUOUS
 62
    4
 10
-55.359999999999985
 20
66.963343166666505
 11
-55.359999999999985
 21
66.730534766666665
  0
LINE
  8
_1-8_小物
  6
CONTINUOUS
 62
    4
 10
-54.640000000000384
 20
67.365535166666461
 11
-55.359999999999985
 21
67.153868666666597
  0
LINE
  8
_1-8_小物
  6
CONTINUOUS
 62
    4
 10
-54.640000000000384
 20
67.175009666666597
 11
-55.359999999999985
 21
66.963343166666505
  0
LINE
  8
_1-8_小物
  6
CONTINUOUS
 62
    4
 10
-54.474999400000399
 20
67.270271966666598
 11
-55.524999699999938
 21
67.058605466666563
  0
LINE
  8
_1-8_小物
  6
CONTINUOUS
 62
    4
 10
-54.474999400000399
 20
67.270271966666598
 11
-54.640000000000384
 21
67.365535166666461
  0
LINE
  8
_1-8_小物
  6
CONTINUOUS
 62
    4
 10
-54.474999400000399
 20
67.270271966666598
 11
-54.640000000000384
 21
67.175009666666597
  0
LINE
  8
_1-8_小物
  6
CONTINUOUS
 62
    4
 10
-55.524999699999938
 20
67.058605466666563
 11
-55.359999999999985
 21
67.153868666666597
  0
LINE
  8
_1-8_小物
  6
CONTINUOUS
 62
    4
 10
-55.359999999999985
 20
66.963343166666505
 11
-55.524999699999938
 21
67.058605466666563
  0
LINE
  8
_1-8_小物
  6
CONTINUOUS
 62
    4
 10
-54.640000000000384
 20
66.518868266666573
 11
-54.640000000000384
 21
66.751676666666583
  0
LINE
  8
_1-8_小物
  6
CONTINUOUS
 62
    4
 10
-55.359999999999985
 20
66.540009266666686
 11
-55.359999999999985
 21
66.307201766666651
  0
LINE
  8
_1-8_小物
  6
CONTINUOUS
 62
    4
 10
-54.640000000000384
 20
66.942202166666561
 11
-55.359999999999985
 21
66.730534766666665
  0
LINE
  8
_1-8_小物
  6
CONTINUOUS
 62
    4
 10
-54.640000000000384
 20
66.751676666666583
 11
-55.359999999999985
 21
66.540009266666686
  0
LINE
  8
_1-8_小物
  6
CONTINUOUS
 62
    4
 10
-54.474999400000399
 20
66.846938966666471
 11
-55.524999699999938
 21
66.635272466666606
  0
LINE
  8
_1-8_小物
  6
CONTINUOUS
 62
    4
 10
-54.474999400000399
 20
66.846938966666471
 11
-54.640000000000384
 21
66.942202166666561
  0
LINE
  8
_1-8_小物
  6
CONTINUOUS
 62
    4
 10
-54.474999400000399
 20
66.846938966666471
 11
-54.640000000000384
 21
66.751676666666583
  0
LINE
  8
_1-8_小物
  6
CONTINUOUS
 62
    4
 10
-55.524999699999938
 20
66.635272466666606
 11
-55.359999999999985
 21
66.730534766666665
  0
LINE
  8
_1-8_小物
  6
CONTINUOUS
 62
    4
 10
-55.359999999999985
 20
66.540009266666686
 11
-55.524999699999938
 21
66.635272466666606
  0
LINE
  8
_1-8_小物
  6
CONTINUOUS
 62
    4
 10
-54.640000000000384
 20
66.259789766666586
 11
-54.640000000000384
 21
66.328342766666594
  0
LINE
  8
_1-8_小物
  6
CONTINUOUS
 62
    4
 10
-55.359999999999985
 20
66.11667626666673
 11
-55.359999999999985
 21
65.883868766666694
  0
LINE
  8
_1-8_小物
  6
CONTINUOUS
 62
    4
 10
-54.640000000000384
 20
66.518868266666573
 11
-55.359999999999985
 21
66.307201766666651
  0
LINE
  8
_1-8_小物
  6
CONTINUOUS
 62
    4
 10
-54.640000000000384
 20
66.328342766666594
 11
-55.107951400000132
 21
66.190774166666756
  0
LINE
  8
_1-8_小物
  6
CONTINUOUS
 62
    4
 10
-55.444892500000009
 20
66.228087266666421
 11
-54.474999400000399
 21
66.423605966666685
  0
LINE
  8
_1-8_小物
  6
CONTINUOUS
 62
    4
 10
-54.474999400000399
 20
66.423605966666685
 11
-54.640000000000384
 21
66.518868266666573
  0
LINE
  8
_1-8_小物
  6
CONTINUOUS
 62
    4
 10
-54.474999400000399
 20
66.423605966666685
 11
-54.640000000000384
 21
66.328342766666594
  0
LINE
  8
_1-8_小物
  6
CONTINUOUS
 62
    4
 10
-55.47794589999998
 20
66.239105966666671
 11
-55.359999999999985
 21
66.307201766666651
  0
LINE
  8
_1-8_小物
  6
CONTINUOUS
 62
    4
 10
-55.359999999999985
 20
66.11667626666673
 11
-55.524999699999938
 21
66.211939466666593
  0
LINE
  8
_1-8_小物
  6
CONTINUOUS
 62
    4
 10
-54.640000000000384
 20
65.6722013666664
 11
-54.640000000000384
 21
65.905009766666694
  0
LINE
  8
_1-8_小物
  6
CONTINUOUS
 62
    4
 10
-55.359999999999985
 20
65.693343266666602
 11
-55.359999999999985
 21
65.460534866666535
  0
LINE
  8
_1-8_小物
  6
CONTINUOUS
 62
    4
 10
-54.640000000000384
 20
66.095535266666559
 11
-55.359999999999985
 21
65.883868766666694
  0
LINE
  8
_1-8_小物
  6
CONTINUOUS
 62
    4
 10
-54.640000000000384
 20
65.905009766666694
 11
-55.359999999999985
 21
65.693343266666602
  0
LINE
  8
_1-8_小物
  6
CONTINUOUS
 62
    4
 10
-54.474999400000399
 20
66.000272066666696
 11
-55.524999699999938
 21
65.788605566666661
  0
LINE
  8
_1-8_小物
  6
CONTINUOUS
 62
    4
 10
-54.474999400000399
 20
66.000272066666696
 11
-54.640000000000384
 21
66.095535266666559
  0
LINE
  8
_1-8_小物
  6
CONTINUOUS
 62
    4
 10
-54.474999400000399
 20
66.000272066666696
 11
-54.640000000000384
 21
65.905009766666694
  0
LINE
  8
_1-8_小物
  6
CONTINUOUS
 62
    4
 10
-55.524999699999938
 20
65.788605566666661
 11
-55.359999999999985
 21
65.883868766666694
  0
LINE
  8
_1-8_小物
  6
CONTINUOUS
 62
    4
 10
-55.359999999999985
 20
65.693343266666602
 11
-55.524999699999938
 21
65.788605566666661
  0
LINE
  8
_1-8_小物
  6
CONTINUOUS
 62
    4
 10
-54.640000000000384
 20
65.24886836666667
 11
-54.640000000000384
 21
65.481675866666649
  0
LINE
  8
_1-8_小物
  6
CONTINUOUS
 62
    4
 10
-55.359999999999985
 20
65.270009366666557
 11
-55.359999999999985
 21
65.037201866666749
  0
LINE
  8
_1-8_小物
  6
CONTINUOUS
 62
    4
 10
-54.640000000000384
 20
65.6722013666664
 11
-55.359999999999985
 21
65.460534866666535
  0
LINE
  8
_1-8_小物
  6
CONTINUOUS
 62
    4
 10
-54.640000000000384
 20
65.481675866666649
 11
-55.359999999999985
 21
65.270009366666557
  0
LINE
  8
_1-8_小物
  6
CONTINUOUS
 62
    4
 10
-54.474999400000399
 20
65.576939066666569
 11
-55.524999699999938
 21
65.365272566666704
  0
LINE
  8
_1-8_小物
  6
CONTINUOUS
 62
    4
 10
-54.474999400000399
 20
65.576939066666569
 11
-54.640000000000384
 21
65.6722013666664
  0
LINE
  8
_1-8_小物
  6
CONTINUOUS
 62
    4
 10
-54.474999400000399
 20
65.576939066666569
 11
-54.640000000000384
 21
65.481675866666649
  0
LINE
  8
_1-8_小物
  6
CONTINUOUS
 62
    4
 10
-55.524999699999938
 20
65.365272566666704
 11
-55.359999999999985
 21
65.460534866666535
  0
LINE
  8
_1-8_小物
  6
CONTINUOUS
 62
    4
 10
-55.359999999999985
 20
65.270009366666557
 11
-55.524999699999938
 21
65.365272566666704
  0
LINE
  8
_1-8_小物
  6
CONTINUOUS
 62
    4
 10
-54.640000000000384
 20
65.24886836666667
 11
-55.359999999999985
 21
65.037201866666749
  0
LINE
  8
_1-8_小物
  6
CONTINUOUS
 62
    4
 10
-54.474999400000399
 20
65.153606066666782
 11
-54.640000000000384
 21
65.24886836666667
  0
LINE
  8
_1-8_小物
  6
CONTINUOUS
 62
    4
 10
-54.745266699999945
 20
69.070586966666554
 11
-55.26447759999968
 21
68.857787366666685
  0
LINE
  8
_1-8_小物
  6
CONTINUOUS
 62
    4
 10
-55.447812099999908
 20
68.751939266666625
 11
-54.559969300000432
 21
68.963605766666547
  0
LINE
  8
_1-8_小物
  6
CONTINUOUS
 62
    4
 10
-54.724969900000417
 20
68.868342566666684
 11
-55.282812399999955
 21
68.656676066666762
  0
LINE
  8
_1-8_小物
  6
CONTINUOUS
 62
    4
 10
-55.303071399999993
 20
68.434453466666639
 11
-54.702781300000026
 21
68.647253066666792
  0
LINE
  8
_1-8_小物
  6
CONTINUOUS
 62
    4
 10
-54.517484800000005
 20
68.540272766666533
 11
-55.486405900000193
 21
68.328605366666636
  0
LINE
  8
_1-8_小物
  6
CONTINUOUS
 62
    4
 10
-55.321406199999672
 20
68.233343066666635
 11
-54.682484499999958
 21
68.44500956666667
  0
LINE
  8
_1-8_小物
  6
CONTINUOUS
 62
    4
 10
-55.321406199999672
 20
68.233343066666635
 11
-55.342152100000078
 21
68.005781666666621
  0
LINE
  8
_1-8_小物
  6
CONTINUOUS
 62
    4
 10
-55.282812399999955
 20
68.656676066666762
 11
-55.303071399999993
 21
68.434453466666639
  0
LINE
  8
_1-8_小物
  6
CONTINUOUS
 62
    4
 10
-54.702781300000026
 20
68.647253066666792
 11
-54.724969900000417
 21
68.868342566666684
  0
LINE
  8
_1-8_小物
  6
CONTINUOUS
 62
    4
 10
-54.658572399999997
 20
68.206741766666539
 11
-54.682484499999958
 21
68.44500956666667
  0
LINE
  8
_1-8_小物
  6
CONTINUOUS
 62
    4
 10
-54.559969300000432
 20
68.963605766666547
 11
-54.745266699999945
 21
69.070586966666554
  0
LINE
  8
_1-8_小物
  6
CONTINUOUS
 62
    4
 10
-54.724969900000417
 20
68.868342566666684
 11
-54.559969300000432
 21
68.963605766666547
  0
LINE
  8
_1-8_小物
  6
CONTINUOUS
 62
    4
 10
-54.517484800000005
 20
68.540272766666533
 11
-54.702781300000026
 21
68.647253066666792
  0
LINE
  8
_1-8_小物
  6
CONTINUOUS
 62
    4
 10
-54.517484800000005
 20
68.540272766666533
 11
-54.682484499999958
 21
68.44500956666667
  0
LINE
  8
_1-8_小物
  6
CONTINUOUS
 62
    4
 10
-55.447812099999908
 20
68.751939266666625
 11
-55.26447759999968
 21
68.857787366666685
  0
LINE
  8
_1-8_小物
  6
CONTINUOUS
 62
    4
 10
-55.282812399999955
 20
68.656676066666762
 11
-55.447812099999908
 21
68.751939266666625
  0
LINE
  8
_1-8_小物
  6
CONTINUOUS
 62
    4
 10
-55.486405900000193
 20
68.328605366666636
 11
-55.303071399999993
 21
68.434453466666639
  0
LINE
  8
_1-8_小物
  6
CONTINUOUS
 62
    4
 10
-55.321406199999672
 20
68.233343066666635
 11
-55.486405900000193
 21
68.328605366666636
  0
LINE
  8
_1-8_小物
  6
CONTINUOUS
 62
    4
 10
-55.000000000000057
 20
69.806676266666614
 11
-54.745266699999945
 21
69.070586966666554
  0
LINE
  8
_1-8_小物
  6
CONTINUOUS
 62
    4
 10
-55.26447759999968
 20
68.857787366666685
 11
-55.000000000000057
 21
69.806676266666614
  0
LINE
  8
_1-8_小物
  6
CONTINUOUS
 62
    4
 10
-54.640000000000384
 20
66.259789766666586
 11
-54.640000000000384
 21
66.095535266666559
  0
LINE
  8
_1-8_小物
  6
CONTINUOUS
 62
    4
 10
-55.47794589999998
 20
66.239105966666671
 11
-55.524999699999938
 21
66.211939466666593
  0
LINE
  8
_1-8_小物
  6
CONTINUOUS
 62
    4
 10
-55.359999999999985
 20
66.11667626666673
 11
-55.107951400000132
 21
66.190774166666756
  0
LINE
  8
_1-8_小物
  6
CONTINUOUS
 62
    4
 10
-55.444892500000009
 20
66.228087266666421
 11
-55.524999699999938
 21
66.211939466666593
  0
LINE
  8
_1-8_小物
  6
CENTER2
 62
    4
 10
-55.000000000000057
 20
70.706676266666477
 11
-55.000000000000057
 21
60.536666366666509
  0
ENDBLK
  0
BLOCK
  2
-015-_9_
 70
   64
 10
0
 20
0
 30
0
  0
ARC
  8
_1-4_フレ__ム
  6
CONTINUOUS
 62
    4
 10
115.16666666666617
 20
63.166666666666657
 40
0.5
 50
180
 51
270
  0
LINE
  8
_1-4_フレ__ム
  6
CONTINUOUS
 62
    4
 10
144.99999999999955
 20
62.766666666666708
 11
144.89999999999975
 21
62.666666666666657
  0
LINE
  8
_1-4_フレ__ム
  6
CONTINUOUS
 62
    4
 10
145.10000000000019
 20
62.666666666666657
 11
144.99999999999955
 21
62.766666666666708
  0
LINE
  8
_1-4_フレ__ム
  6
CONTINUOUS
 62
    4
 10
114.6666666666664
 20
63.166666666666657
 11
149.99999999999955
 21
63.166666666666657
  0
LINE
  8
_1-4_フレ__ム
  6
CONTINUOUS
 62
    4
 10
149.99999992053273
 20
63.166666647666631
 11
150.99999990153276
 21
62.166666666666686
  0
LINE
  8
_1-4_フレ__ム
  6
CONTINUOUS
 62
    4
 10
150.99999990153276
 20
62.166666666666686
 11
150.29289312034609
 21
62.166666666666686
  0
LINE
  8
_1-4_フレ__ム
  6
CONTINUOUS
 62
    4
 10
149.79289312034609
 20
62.666666666666657
 11
150.29289312034609
 21
62.166666666666686
  0
LINE
  8
_1-4_フレ__ム
  6
CONTINUOUS
 62
    4
 10
149.79289312034609
 20
62.666666666666657
 11
145.10000000000019
 21
62.666666666666657
  0
LINE
  8
_1-4_フレ__ム
  6
CONTINUOUS
 62
    4
 10
136.76190476190413
 20
61.433333333333394
 11
136.76190476190413
 21
61.266666666666708
  0
ARC
  8
_1-4_フレ__ム
  6
CONTINUOUS
 62
    4
 10
136.42857142857076
 20
61.433333333333394
 40
0.3333333333333333
 50
0
 51
90
  0
LINE
  8
_1-4_フレ__ム
  6
CONTINUOUS
 62
    4
 10
136.42857142857076
 20
61.766666666666708
 11
135.59806722483256
 21
61.766666666666708
  0
ARC
  8
_1-4_フレ__ム
  6
CONTINUOUS
 62
    4
 10
135.59806722483256
 20
61.933333333333394
 40
0.1666666666666666
 50
209.05460409905626
 51
270
  0
LINE
  8
_1-4_フレ__ム
  6
CONTINUOUS
 62
    4
 10
144.89999999999975
 20
62.666666666666657
 11
135.28325241001778
 21
62.666666666666657
  0
ARC
  8
_1-4_フレ__ム
  6
CONTINUOUS
 62
    4
 10
135.28325241001778
 20
62.5
 40
0.1666666666666666
 50
90
 51
209.05460409905626
  0
LINE
  8
_1-4_フレ__ム
  6
CONTINUOUS
 62
    4
 10
136.76190476190413
 20
61.266666666666708
 11
135.40193277516647
 21
61.266666666666708
  0
ARC
  8
_1-4_フレ__ム
  6
CONTINUOUS
 62
    4
 10
135.40193277516647
 20
61.600000000000051
 40
0.3333333333333333
 50
209.05460409906527
 51
270
  0
LINE
  8
_1-4_フレ__ム
  6
CONTINUOUS
 62
    4
 10
134.52327185676342
 20
62.495214310392868
 11
135.11054701645918
 21
61.438119022940498
  0
LINE
  8
_1-4_フレ__ム
  6
CONTINUOUS
 62
    4
 10
134.23188609805629
 20
62.666666666666657
 11
115.16666666666617
 21
62.666666666666657
  0
ARC
  8
_1-4_フレ__ム
  6
CONTINUOUS
 62
    4
 10
134.23188609805629
 20
62.333333333333314
 40
0.3333333333333333
 50
29.054604099083317
 51
90
  0
LINE
  8
_1-4_フレ__ム
  6
CONTINUOUS
 62
    4
 10
135.13755953066413
 20
62.419059511470209
 11
135.45237434547892
 21
61.852392844803603
  0
LINE
  8
_1-4_フレ__ム
  6
CENTER2
 62
    4
 10
145
 20
61
 11
145
 21
64.833333333333314
  0
LINE
  8
_1-4_フレ__ム
  6
DASHED1
 62
    4
 10
147.5
 20
62.666666666666657
 11
147.5
 21
63.166666666666657
  0
LINE
  8
_1-4_フレ__ム
  6
DASHED1
 62
    4
 10
142.5
 20
62.666666666666657
 11
142.5
 21
63.166666666666657
  0
ENDBLK
  0
BLOCK
  2
-016-_10_
 70
   64
 10
0
 20
0
 30
0
  0
LINE
  8
_1-8_小物
  6
CONTINUOUS
 62
    4
 10
142.30000045000008
 20
62.666666666666572
 11
147.70000045000035
 21
62.666666666666572
  0
LINE
  8
_1-8_小物
  6
CONTINUOUS
 62
    4
 10
142.30000045000008
 20
62.216666666666583
 11
147.70000045000035
 21
62.216666666666583
  0
LINE
  8
_1-8_小物
  6
CONTINUOUS
 62
    4
 10
142.30000045000008
 20
62.666666666666572
 11
142.30000045000008
 21
62.216666666666583
  0
LINE
  8
_1-8_小物
  6
CONTINUOUS
 62
    4
 10
147.70000045000035
 20
62.666666666666572
 11
147.70000045000035
 21
62.216666666666583
  0
LINE
  8
_1-8_小物
  6
DASHED1
 62
    4
 10
144.17500045000008
 20
62.666666666666572
 11
144.17500045000008
 21
62.216666666666583
  0
LINE
  8
_1-8_小物
  6
DASHED1
 62
    4
 10
145.82500045000035
 20
62.666666666666572
 11
145.82500045000035
 21
62.216666666666583
  0
LINE
  8
_1-8_小物
  6
CONTINUOUS
 62
    4
 10
145.35999999999967
 20
64.825535366666657
 11
145.35999999999967
 21
65.058342866666521
  0
LINE
  8
_1-8_小物
  6
CONTINUOUS
 62
    4
 10
144.63999999999999
 20
64.846676366666429
 11
144.63999999999999
 21
64.613868866666792
  0
LINE
  8
_1-8_小物
  6
CONTINUOUS
 62
    4
 10
145.35999999999967
 20
65.058342866666521
 11
144.63999999999999
 21
64.846676366666429
  0
LINE
  8
_1-8_小物
  6
CONTINUOUS
 62
    4
 10
145.52500059999966
 20
65.153606066666782
 11
144.47500030000003
 21
64.941938666666658
  0
LINE
  8
_1-8_小物
  6
CONTINUOUS
 62
    4
 10
145.52500059999966
 20
65.153606066666782
 11
145.35999999999967
 21
65.058342866666521
  0
LINE
  8
_1-8_小物
  6
CONTINUOUS
 62
    4
 10
144.47500030000003
 20
64.941938666666658
 11
144.63999999999999
 21
65.037201866666749
  0
LINE
  8
_1-8_小物
  6
CONTINUOUS
 62
    4
 10
144.63999999999999
 20
64.846676366666429
 11
144.47500030000003
 21
64.941938666666658
  0
LINE
  8
_1-8_小物
  6
CONTINUOUS
 62
    4
 10
145.35999999999967
 20
64.402201466666497
 11
145.35999999999967
 21
64.635009866666564
  0
LINE
  8
_1-8_小物
  6
CONTINUOUS
 62
    4
 10
144.63999999999999
 20
64.423342466666668
 11
144.63999999999999
 21
64.190534966666632
  0
LINE
  8
_1-8_小物
  6
CONTINUOUS
 62
    4
 10
145.35999999999967
 20
64.825535366666657
 11
144.63999999999999
 21
64.613868866666792
  0
LINE
  8
_1-8_小物
  6
CONTINUOUS
 62
    4
 10
145.35999999999967
 20
64.635009866666564
 11
144.63999999999999
 21
64.423342466666668
  0
LINE
  8
_1-8_小物
  6
CONTINUOUS
 62
    4
 10
145.52500059999966
 20
64.730272166666623
 11
144.47500030000003
 21
64.518605666666531
  0
LINE
  8
_1-8_小物
  6
CONTINUOUS
 62
    4
 10
145.52500059999966
 20
64.730272166666623
 11
145.35999999999967
 21
64.825535366666657
  0
LINE
  8
_1-8_小物
  6
CONTINUOUS
 62
    4
 10
145.52500059999966
 20
64.730272166666623
 11
145.35999999999967
 21
64.635009866666564
  0
LINE
  8
_1-8_小物
  6
CONTINUOUS
 62
    4
 10
144.47500030000003
 20
64.518605666666531
 11
144.63999999999999
 21
64.613868866666792
  0
LINE
  8
_1-8_小物
  6
CONTINUOUS
 62
    4
 10
144.63999999999999
 20
64.423342466666668
 11
144.47500030000003
 21
64.518605666666531
  0
LINE
  8
_1-8_小物
  6
CONTINUOUS
 62
    4
 10
145.35999999999967
 20
63.978868466666711
 11
145.35999999999967
 21
64.211675966666746
  0
LINE
  8
_1-8_小物
  6
CONTINUOUS
 62
    4
 10
144.63999999999999
 20
64.000009466666654
 11
144.63999999999999
 21
63.767201966666619
  0
LINE
  8
_1-8_小物
  6
CONTINUOUS
 62
    4
 10
145.35999999999967
 20
64.402201466666497
 11
144.63999999999999
 21
64.190534966666632
  0
LINE
  8
_1-8_小物
  6
CONTINUOUS
 62
    4
 10
145.35999999999967
 20
64.211675966666746
 11
144.63999999999999
 21
64.000009466666654
  0
LINE
  8
_1-8_小物
  6
CONTINUOUS
 62
    4
 10
145.52500059999966
 20
64.306939166666609
 11
144.47500030000003
 21
64.095272666666517
  0
LINE
  8
_1-8_小物
  6
CONTINUOUS
 62
    4
 10
145.52500059999966
 20
64.306939166666609
 11
145.35999999999967
 21
64.402201466666497
  0
LINE
  8
_1-8_小物
  6
CONTINUOUS
 62
    4
 10
145.52500059999966
 20
64.306939166666609
 11
145.35999999999967
 21
64.211675966666746
  0
LINE
  8
_1-8_小物
  6
CONTINUOUS
 62
    4
 10
144.47500030000003
 20
64.095272666666517
 11
144.63999999999999
 21
64.190534966666632
  0
LINE
  8
_1-8_小物
  6
CONTINUOUS
 62
    4
 10
144.63999999999999
 20
64.000009466666654
 11
144.47500030000003
 21
64.095272666666517
  0
LINE
  8
_1-8_小物
  6
CONTINUOUS
 62
    4
 10
145.35999999999967
 20
63.555535466666583
 11
145.35999999999967
 21
63.788342966666619
  0
LINE
  8
_1-8_小物
  6
CONTINUOUS
 62
    4
 10
144.63999999999999
 20
63.576676466666527
 11
144.63999999999999
 21
63.343868066666687
  0
LINE
  8
_1-8_小物
  6
CONTINUOUS
 62
    4
 10
145.35999999999967
 20
63.978868466666711
 11
144.63999999999999
 21
63.767201966666619
  0
LINE
  8
_1-8_小物
  6
CONTINUOUS
 62
    4
 10
145.35999999999967
 20
63.788342966666619
 11
144.63999999999999
 21
63.576676466666527
  0
LINE
  8
_1-8_小物
  6
CONTINUOUS
 62
    4
 10
145.52500059999966
 20
63.883605266666621
 11
144.47500030000003
 21
63.671938766666756
  0
LINE
  8
_1-8_小物
  6
CONTINUOUS
 62
    4
 10
145.52500059999966
 20
63.883605266666621
 11
145.35999999999967
 21
63.978868466666711
  0
LINE
  8
_1-8_小物
  6
CONTINUOUS
 62
    4
 10
145.52500059999966
 20
63.883605266666621
 11
145.35999999999967
 21
63.788342966666619
  0
LINE
  8
_1-8_小物
  6
CONTINUOUS
 62
    4
 10
144.47500030000003
 20
63.671938766666756
 11
144.63999999999999
 21
63.767201966666619
  0
LINE
  8
_1-8_小物
  6
CONTINUOUS
 62
    4
 10
144.63999999999999
 20
63.576676466666527
 11
144.47500030000003
 21
63.671938766666756
  0
LINE
  8
_1-8_小物
  6
CONTINUOUS
 62
    4
 10
145.35999999999967
 20
63.132201566666595
 11
145.35999999999967
 21
63.365009966666662
  0
LINE
  8
_1-8_小物
  6
CONTINUOUS
 62
    4
 10
144.63999999999999
 20
63.153342566666481
 11
144.63999999999999
 21
62.92053506666673
  0
LINE
  8
_1-8_小物
  6
CONTINUOUS
 62
    4
 10
145.35999999999967
 20
63.555535466666583
 11
144.63999999999999
 21
63.343868066666687
  0
LINE
  8
_1-8_小物
  6
CONTINUOUS
 62
    4
 10
145.35999999999967
 20
63.365009966666662
 11
144.63999999999999
 21
63.153342566666481
  0
LINE
  8
_1-8_小物
  6
CONTINUOUS
 62
    4
 10
145.52500059999966
 20
63.46027226666672
 11
144.47500030000003
 21
63.248605766666628
  0
LINE
  8
_1-8_小物
  6
CONTINUOUS
 62
    4
 10
145.52500059999966
 20
63.46027226666672
 11
145.35999999999967
 21
63.555535466666583
  0
LINE
  8
_1-8_小物
  6
CONTINUOUS
 62
    4
 10
145.52500059999966
 20
63.46027226666672
 11
145.35999999999967
 21
63.365009966666662
  0
LINE
  8
_1-8_小物
  6
CONTINUOUS
 62
    4
 10
144.47500030000003
 20
63.248605766666628
 11
144.63999999999999
 21
63.343868066666687
  0
LINE
  8
_1-8_小物
  6
CONTINUOUS
 62
    4
 10
144.63999999999999
 20
63.153342566666481
 11
144.47500030000003
 21
63.248605766666628
  0
LINE
  8
_1-8_小物
  6
CONTINUOUS
 62
    4
 10
145.35999999999967
 20
62.708868566666808
 11
144.63999999999999
 21
62.497202066666716
  0
LINE
  8
_1-8_小物
  6
CONTINUOUS
 62
    4
 10
145.35999999999967
 20
62.518343066666489
 11
144.63999999999999
 21
62.306676566666567
  0
LINE
  8
_1-8_小物
  6
CONTINUOUS
 62
    4
 10
145.52500059999966
 20
62.613605366666548
 11
144.47500030000003
 21
62.401938866666455
  0
LINE
  8
_1-8_小物
  6
CONTINUOUS
 62
    4
 10
145.52500059999966
 20
62.613605366666548
 11
145.35999999999967
 21
62.708868566666808
  0
LINE
  8
_1-8_小物
  6
CONTINUOUS
 62
    4
 10
145.52500059999966
 20
62.613605366666548
 11
145.35999999999967
 21
62.518343066666489
  0
LINE
  8
_1-8_小物
  6
CONTINUOUS
 62
    4
 10
144.47500030000003
 20
62.401938866666455
 11
144.63999999999999
 21
62.497202066666716
  0
LINE
  8
_1-8_小物
  6
CONTINUOUS
 62
    4
 10
144.63999999999999
 20
62.306676566666567
 11
144.47500030000003
 21
62.401938866666455
  0
LINE
  8
_1-8_小物
  6
CONTINUOUS
 62
    4
 10
145.35999999999967
 20
62.216666666666583
 11
145.35999999999967
 21
62.518343066666489
  0
LINE
  8
_1-8_小物
  6
CONTINUOUS
 62
    4
 10
145.35999999999967
 20
62.708868566666808
 11
145.35999999999967
 21
62.941676066666616
  0
LINE
  8
_1-8_小物
  6
CONTINUOUS
 62
    4
 10
144.63999999999999
 20
62.730009566666581
 11
144.63999999999999
 21
62.497202066666716
  0
LINE
  8
_1-8_小物
  6
CONTINUOUS
 62
    4
 10
145.35999999999967
 20
63.132201566666595
 11
144.63999999999999
 21
62.92053506666673
  0
LINE
  8
_1-8_小物
  6
CONTINUOUS
 62
    4
 10
145.35999999999967
 20
62.941676066666616
 11
144.63999999999999
 21
62.730009566666581
  0
LINE
  8
_1-8_小物
  6
CONTINUOUS
 62
    4
 10
145.52500059999966
 20
63.036939266666707
 11
144.47500030000003
 21
62.825272766666615
  0
LINE
  8
_1-8_小物
  6
CONTINUOUS
 62
    4
 10
145.52500059999966
 20
63.036939266666707
 11
145.35999999999967
 21
63.132201566666595
  0
LINE
  8
_1-8_小物
  6
CONTINUOUS
 62
    4
 10
145.52500059999966
 20
63.036939266666707
 11
145.35999999999967
 21
62.941676066666616
  0
LINE
  8
_1-8_小物
  6
CONTINUOUS
 62
    4
 10
144.47500030000003
 20
62.825272766666615
 11
144.63999999999999
 21
62.92053506666673
  0
LINE
  8
_1-8_小物
  6
CONTINUOUS
 62
    4
 10
144.63999999999999
 20
62.730009566666581
 11
144.47500030000003
 21
62.825272766666615
  0
ARC
  8
_1-8_小物
  6
CONTINUOUS
 62
    4
 10
145.75000060000013
 20
61.937627966666525
 40
0.2999996999999999
 50
299.9999999999921
 51
0
  0
ARC
  8
_1-8_小物
  6
CONTINUOUS
 62
    4
 10
144.25000030000029
 20
61.937627966666525
 40
0.2999996999999999
 50
180
 51
239.99999999996615
  0
ARC
  8
_1-8_小物
  6
CONTINUOUS
 62
    4
 10
145
 20
63.236666366666554
 40
1.8
 50
239.99999999999108
 51
299.99999999999727
  0
LINE
  8
_1-8_小物
  6
CONTINUOUS
 62
    4
 10
146.05000030000002
 20
62.216666666666583
 11
146.05000030000002
 21
61.937627966666525
  0
LINE
  8
_1-8_小物
  6
CONTINUOUS
 62
    4
 10
143.95000060000012
 20
62.216666666666583
 11
146.05000030000002
 21
62.216666666666583
  0
LINE
  8
_1-8_小物
  6
CONTINUOUS
 62
    4
 10
143.95000060000012
 20
62.216666666666583
 11
143.95000060000012
 21
61.937627966666525
  0
LINE
  8
_1-8_小物
  6
CONTINUOUS
 62
    4
 10
144.63999999999999
 20
62.306676566666567
 11
144.63999999999999
 21
62.216666666666583
  0
LINE
  8
_1-8_小物
  6
CONTINUOUS
 62
    4
 10
145.35999999999967
 20
67.788868166666475
 11
145.35999999999967
 21
68.021676566666542
  0
LINE
  8
_1-8_小物
  6
CONTINUOUS
 62
    4
 10
144.63999999999999
 20
67.810009166666589
 11
144.63999999999999
 21
67.577201666666554
  0
LINE
  8
_1-8_小物
  6
CONTINUOUS
 62
    4
 10
145.35999999999967
 20
68.212202066666634
 11
144.63999999999999
 21
68.000535566666599
  0
LINE
  8
_1-8_小物
  6
CONTINUOUS
 62
    4
 10
145.35999999999967
 20
68.021676566666542
 11
144.63999999999999
 21
67.810009166666589
  0
LINE
  8
_1-8_小物
  6
CONTINUOUS
 62
    4
 10
145.52500059999966
 20
68.116938866666771
 11
144.47500030000003
 21
67.905272366666736
  0
LINE
  8
_1-8_小物
  6
CONTINUOUS
 62
    4
 10
145.52500059999966
 20
68.116938866666771
 11
145.35999999999967
 21
68.212202066666634
  0
LINE
  8
_1-8_小物
  6
CONTINUOUS
 62
    4
 10
145.52500059999966
 20
68.116938866666771
 11
145.35999999999967
 21
68.021676566666542
  0
LINE
  8
_1-8_小物
  6
CONTINUOUS
 62
    4
 10
144.47500030000003
 20
67.905272366666736
 11
144.63999999999999
 21
68.000535566666599
  0
LINE
  8
_1-8_小物
  6
CONTINUOUS
 62
    4
 10
144.63999999999999
 20
67.810009166666589
 11
144.47500030000003
 21
67.905272366666736
  0
LINE
  8
_1-8_小物
  6
CONTINUOUS
 62
    4
 10
145.35999999999967
 20
67.365535166666461
 11
145.35999999999967
 21
67.598342666666497
  0
LINE
  8
_1-8_小物
  6
CONTINUOUS
 62
    4
 10
144.63999999999999
 20
67.386676166666632
 11
144.63999999999999
 21
67.153868666666597
  0
LINE
  8
_1-8_小物
  6
CONTINUOUS
 62
    4
 10
145.35999999999967
 20
67.788868166666475
 11
144.63999999999999
 21
67.577201666666554
  0
LINE
  8
_1-8_小物
  6
CONTINUOUS
 62
    4
 10
145.35999999999967
 20
67.598342666666497
 11
144.63999999999999
 21
67.386676166666632
  0
LINE
  8
_1-8_小物
  6
CONTINUOUS
 62
    4
 10
145.52500059999966
 20
67.693605866666644
 11
144.47500030000003
 21
67.481939366666722
  0
LINE
  8
_1-8_小物
  6
CONTINUOUS
 62
    4
 10
145.52500059999966
 20
67.693605866666644
 11
145.35999999999967
 21
67.788868166666475
  0
LINE
  8
_1-8_小物
  6
CONTINUOUS
 62
    4
 10
145.52500059999966
 20
67.693605866666644
 11
145.35999999999967
 21
67.598342666666497
  0
LINE
  8
_1-8_小物
  6
CONTINUOUS
 62
    4
 10
144.47500030000003
 20
67.481939366666722
 11
144.63999999999999
 21
67.577201666666554
  0
LINE
  8
_1-8_小物
  6
CONTINUOUS
 62
    4
 10
144.63999999999999
 20
67.386676166666632
 11
144.47500030000003
 21
67.481939366666722
  0
LINE
  8
_1-8_小物
  6
CONTINUOUS
 62
    4
 10
145.35999999999967
 20
66.942202166666561
 11
145.35999999999967
 21
67.175009666666597
  0
LINE
  8
_1-8_小物
  6
CONTINUOUS
 62
    4
 10
144.63999999999999
 20
66.963343166666505
 11
144.63999999999999
 21
66.730534766666665
  0
LINE
  8
_1-8_小物
  6
CONTINUOUS
 62
    4
 10
145.35999999999967
 20
67.365535166666461
 11
144.63999999999999
 21
67.153868666666597
  0
LINE
  8
_1-8_小物
  6
CONTINUOUS
 62
    4
 10
145.35999999999967
 20
67.175009666666597
 11
144.63999999999999
 21
66.963343166666505
  0
LINE
  8
_1-8_小物
  6
CONTINUOUS
 62
    4
 10
145.52500059999966
 20
67.270271966666598
 11
144.47500030000003
 21
67.058605466666563
  0
LINE
  8
_1-8_小物
  6
CONTINUOUS
 62
    4
 10
145.52500059999966
 20
67.270271966666598
 11
145.35999999999967
 21
67.365535166666461
  0
LINE
  8
_1-8_小物
  6
CONTINUOUS
 62
    4
 10
145.52500059999966
 20
67.270271966666598
 11
145.35999999999967
 21
67.175009666666597
  0
LINE
  8
_1-8_小物
  6
CONTINUOUS
 62
    4
 10
144.47500030000003
 20
67.058605466666563
 11
144.63999999999999
 21
67.153868666666597
  0
LINE
  8
_1-8_小物
  6
CONTINUOUS
 62
    4
 10
144.63999999999999
 20
66.963343166666505
 11
144.47500030000003
 21
67.058605466666563
  0
LINE
  8
_1-8_小物
  6
CONTINUOUS
 62
    4
 10
145.35999999999967
 20
66.518868266666573
 11
145.35999999999967
 21
66.751676666666583
  0
LINE
  8
_1-8_小物
  6
CONTINUOUS
 62
    4
 10
144.63999999999999
 20
66.540009266666686
 11
144.63999999999999
 21
66.307201766666651
  0
LINE
  8
_1-8_小物
  6
CONTINUOUS
 62
    4
 10
145.35999999999967
 20
66.942202166666561
 11
144.63999999999999
 21
66.730534766666665
  0
LINE
  8
_1-8_小物
  6
CONTINUOUS
 62
    4
 10
145.35999999999967
 20
66.751676666666583
 11
144.63999999999999
 21
66.540009266666686
  0
LINE
  8
_1-8_小物
  6
CONTINUOUS
 62
    4
 10
145.52500059999966
 20
66.846938966666471
 11
144.47500030000003
 21
66.635272466666606
  0
LINE
  8
_1-8_小物
  6
CONTINUOUS
 62
    4
 10
145.52500059999966
 20
66.846938966666471
 11
145.35999999999967
 21
66.942202166666561
  0
LINE
  8
_1-8_小物
  6
CONTINUOUS
 62
    4
 10
145.52500059999966
 20
66.846938966666471
 11
145.35999999999967
 21
66.751676666666583
  0
LINE
  8
_1-8_小物
  6
CONTINUOUS
 62
    4
 10
144.47500030000003
 20
66.635272466666606
 11
144.63999999999999
 21
66.730534766666665
  0
LINE
  8
_1-8_小物
  6
CONTINUOUS
 62
    4
 10
144.63999999999999
 20
66.540009266666686
 11
144.47500030000003
 21
66.635272466666606
  0
LINE
  8
_1-8_小物
  6
CONTINUOUS
 62
    4
 10
145.35999999999967
 20
66.259789766666586
 11
145.35999999999967
 21
66.328342766666594
  0
LINE
  8
_1-8_小物
  6
CONTINUOUS
 62
    4
 10
144.63999999999999
 20
66.11667626666673
 11
144.63999999999999
 21
65.883868766666694
  0
LINE
  8
_1-8_小物
  6
CONTINUOUS
 62
    4
 10
145.35999999999967
 20
66.518868266666573
 11
144.63999999999999
 21
66.307201766666651
  0
LINE
  8
_1-8_小物
  6
CONTINUOUS
 62
    4
 10
145.35999999999967
 20
66.328342766666594
 11
144.89204859999984
 21
66.190774166666756
  0
LINE
  8
_1-8_小物
  6
CONTINUOUS
 62
    4
 10
144.55510749999996
 20
66.228087266666421
 11
145.52500059999966
 21
66.423605966666685
  0
LINE
  8
_1-8_小物
  6
CONTINUOUS
 62
    4
 10
145.52500059999966
 20
66.423605966666685
 11
145.35999999999967
 21
66.518868266666573
  0
LINE
  8
_1-8_小物
  6
CONTINUOUS
 62
    4
 10
145.52500059999966
 20
66.423605966666685
 11
145.35999999999967
 21
66.328342766666594
  0
LINE
  8
_1-8_小物
  6
CONTINUOUS
 62
    4
 10
144.52205409999999
 20
66.239105966666671
 11
144.63999999999999
 21
66.307201766666651
  0
LINE
  8
_1-8_小物
  6
CONTINUOUS
 62
    4
 10
144.63999999999999
 20
66.11667626666673
 11
144.47500030000003
 21
66.211939466666593
  0
LINE
  8
_1-8_小物
  6
CONTINUOUS
 62
    4
 10
145.35999999999967
 20
65.6722013666664
 11
145.35999999999967
 21
65.905009766666694
  0
LINE
  8
_1-8_小物
  6
CONTINUOUS
 62
    4
 10
144.63999999999999
 20
65.693343266666602
 11
144.63999999999999
 21
65.460534866666535
  0
LINE
  8
_1-8_小物
  6
CONTINUOUS
 62
    4
 10
145.35999999999967
 20
66.095535266666559
 11
144.63999999999999
 21
65.883868766666694
  0
LINE
  8
_1-8_小物
  6
CONTINUOUS
 62
    4
 10
145.35999999999967
 20
65.905009766666694
 11
144.63999999999999
 21
65.693343266666602
  0
LINE
  8
_1-8_小物
  6
CONTINUOUS
 62
    4
 10
145.52500059999966
 20
66.000272066666696
 11
144.47500030000003
 21
65.788605566666661
  0
LINE
  8
_1-8_小物
  6
CONTINUOUS
 62
    4
 10
145.52500059999966
 20
66.000272066666696
 11
145.35999999999967
 21
66.095535266666559
  0
LINE
  8
_1-8_小物
  6
CONTINUOUS
 62
    4
 10
145.52500059999966
 20
66.000272066666696
 11
145.35999999999967
 21
65.905009766666694
  0
LINE
  8
_1-8_小物
  6
CONTINUOUS
 62
    4
 10
144.47500030000003
 20
65.788605566666661
 11
144.63999999999999
 21
65.883868766666694
  0
LINE
  8
_1-8_小物
  6
CONTINUOUS
 62
    4
 10
144.63999999999999
 20
65.693343266666602
 11
144.47500030000003
 21
65.788605566666661
  0
LINE
  8
_1-8_小物
  6
CONTINUOUS
 62
    4
 10
145.35999999999967
 20
65.24886836666667
 11
145.35999999999967
 21
65.481675866666649
  0
LINE
  8
_1-8_小物
  6
CONTINUOUS
 62
    4
 10
144.63999999999999
 20
65.270009366666557
 11
144.63999999999999
 21
65.037201866666749
  0
LINE
  8
_1-8_小物
  6
CONTINUOUS
 62
    4
 10
145.35999999999967
 20
65.6722013666664
 11
144.63999999999999
 21
65.460534866666535
  0
LINE
  8
_1-8_小物
  6
CONTINUOUS
 62
    4
 10
145.35999999999967
 20
65.481675866666649
 11
144.63999999999999
 21
65.270009366666557
  0
LINE
  8
_1-8_小物
  6
CONTINUOUS
 62
    4
 10
145.52500059999966
 20
65.576939066666569
 11
144.47500030000003
 21
65.365272566666704
  0
LINE
  8
_1-8_小物
  6
CONTINUOUS
 62
    4
 10
145.52500059999966
 20
65.576939066666569
 11
145.35999999999967
 21
65.6722013666664
  0
LINE
  8
_1-8_小物
  6
CONTINUOUS
 62
    4
 10
145.52500059999966
 20
65.576939066666569
 11
145.35999999999967
 21
65.481675866666649
  0
LINE
  8
_1-8_小物
  6
CONTINUOUS
 62
    4
 10
144.47500030000003
 20
65.365272566666704
 11
144.63999999999999
 21
65.460534866666535
  0
LINE
  8
_1-8_小物
  6
CONTINUOUS
 62
    4
 10
144.63999999999999
 20
65.270009366666557
 11
144.47500030000003
 21
65.365272566666704
  0
LINE
  8
_1-8_小物
  6
CONTINUOUS
 62
    4
 10
145.35999999999967
 20
65.24886836666667
 11
144.63999999999999
 21
65.037201866666749
  0
LINE
  8
_1-8_小物
  6
CONTINUOUS
 62
    4
 10
145.52500059999966
 20
65.153606066666782
 11
145.35999999999967
 21
65.24886836666667
  0
LINE
  8
_1-8_小物
  6
CONTINUOUS
 62
    4
 10
145.25473330000005
 20
69.070586966666554
 11
144.73552240000032
 21
68.857787366666685
  0
LINE
  8
_1-8_小物
  6
CONTINUOUS
 62
    4
 10
144.55218790000009
 20
68.751939266666625
 11
145.44003069999962
 21
68.963605766666547
  0
LINE
  8
_1-8_小物
  6
CONTINUOUS
 62
    4
 10
145.27503009999964
 20
68.868342566666684
 11
144.71718760000005
 21
68.656676066666762
  0
LINE
  8
_1-8_小物
  6
CONTINUOUS
 62
    4
 10
144.69692859999998
 20
68.434453466666639
 11
145.29721870000003
 21
68.647253066666792
  0
LINE
  8
_1-8_小物
  6
CONTINUOUS
 62
    4
 10
145.48251519999997
 20
68.540272766666533
 11
144.51359409999986
 21
68.328605366666636
  0
LINE
  8
_1-8_小物
  6
CONTINUOUS
 62
    4
 10
144.67859380000033
 20
68.233343066666635
 11
145.31751550000001
 21
68.44500956666667
  0
LINE
  8
_1-8_小物
  6
CONTINUOUS
 62
    4
 10
144.67859380000033
 20
68.233343066666635
 11
144.65784789999998
 21
68.005781666666621
  0
LINE
  8
_1-8_小物
  6
CONTINUOUS
 62
    4
 10
144.71718760000005
 20
68.656676066666762
 11
144.69692859999998
 21
68.434453466666639
  0
LINE
  8
_1-8_小物
  6
CONTINUOUS
 62
    4
 10
145.29721870000003
 20
68.647253066666792
 11
145.27503009999964
 21
68.868342566666684
  0
LINE
  8
_1-8_小物
  6
CONTINUOUS
 62
    4
 10
145.34142759999997
 20
68.206741766666539
 11
145.31751550000001
 21
68.44500956666667
  0
LINE
  8
_1-8_小物
  6
CONTINUOUS
 62
    4
 10
145.44003069999962
 20
68.963605766666547
 11
145.25473330000005
 21
69.070586966666554
  0
LINE
  8
_1-8_小物
  6
CONTINUOUS
 62
    4
 10
145.27503009999964
 20
68.868342566666684
 11
145.44003069999962
 21
68.963605766666547
  0
LINE
  8
_1-8_小物
  6
CONTINUOUS
 62
    4
 10
145.48251519999997
 20
68.540272766666533
 11
145.29721870000003
 21
68.647253066666792
  0
LINE
  8
_1-8_小物
  6
CONTINUOUS
 62
    4
 10
145.48251519999997
 20
68.540272766666533
 11
145.31751550000001
 21
68.44500956666667
  0
LINE
  8
_1-8_小物
  6
CONTINUOUS
 62
    4
 10
144.55218790000009
 20
68.751939266666625
 11
144.73552240000032
 21
68.857787366666685
  0
LINE
  8
_1-8_小物
  6
CONTINUOUS
 62
    4
 10
144.71718760000005
 20
68.656676066666762
 11
144.55218790000009
 21
68.751939266666625
  0
LINE
  8
_1-8_小物
  6
CONTINUOUS
 62
    4
 10
144.51359409999986
 20
68.328605366666636
 11
144.69692859999998
 21
68.434453466666639
  0
LINE
  8
_1-8_小物
  6
CONTINUOUS
 62
    4
 10
144.67859380000033
 20
68.233343066666635
 11
144.51359409999986
 21
68.328605366666636
  0
LINE
  8
_1-8_小物
  6
CONTINUOUS
 62
    4
 10
145
 20
69.806676266666614
 11
145.25473330000005
 21
69.070586966666554
  0
LINE
  8
_1-8_小物
  6
CONTINUOUS
 62
    4
 10
144.73552240000032
 20
68.857787366666685
 11
145
 21
69.806676266666614
  0
LINE
  8
_1-8_小物
  6
CONTINUOUS
 62
    4
 10
145.35999999999967
 20
66.259789766666586
 11
145.35999999999967
 21
66.095535266666559
  0
LINE
  8
_1-8_小物
  6
CONTINUOUS
 62
    4
 10
144.52205409999999
 20
66.239105966666671
 11
144.47500030000003
 21
66.211939466666593
  0
LINE
  8
_1-8_小物
  6
CONTINUOUS
 62
    4
 10
144.63999999999999
 20
66.11667626666673
 11
144.89204859999984
 21
66.190774166666756
  0
LINE
  8
_1-8_小物
  6
CONTINUOUS
 62
    4
 10
144.55510749999996
 20
66.228087266666421
 11
144.47500030000003
 21
66.211939466666593
  0
LINE
  8
_1-8_小物
  6
CENTER2
 62
    4
 10
145
 20
70.706676266666477
 11
145
 21
60.536666366666509
  0
ENDBLK
  0
BLOCK
  2
-017-_11_
 70
   64
 10
0
 20
0
 30
0
  0
LINE
  8
_1-8_小物
  6
CONTINUOUS
 62
    4
 10
67.699999999999932
 20
56.166666666666316
 11
67.699999999999932
 21
50.166666666666998
  0
LINE
  8
_1-8_小物
  6
CONTINUOUS
 62
    4
 10
67.699999999999932
 20
50.166666666666998
 11
67.199999999999818
 21
50.166666666666998
  0
ARC
  8
_1-8_小物
  6
CONTINUOUS
 62
    4
 10
67.066667164194769
 20
53.166666666666657
 40
1.5999999999998398
 50
324.29996100000506
 51
0
  0
ARC
  8
_1-8_小物
  6
CONTINUOUS
 62
    4
 10
67.716333164194793
 20
53.633499666666722
 40
0.7999999999999201
 50
35.70005899999191
 51
91.169858000005462
  0
ARC
  8
_1-8_小物
  6
CONTINUOUS
 62
    4
 10
67.066667164194769
 20
53.166666666666657
 40
1.5999999999998398
 50
0
 51
35.700039000000658
  0
ARC
  8
_1-8_小物
  6
CONTINUOUS
 62
    4
 10
67.716333164194793
 20
52.699833666666592
 40
0.7999999999999201
 50
268.83014199999451
 51
324.29994100000806
  0
LINE
  8
_1-8_小物
  6
CONTINUOUS
 62
    4
 10
67.699999999999932
 20
56.166666666666316
 11
67.199999999999818
 21
56.166666666666316
  0
LINE
  8
_1-8_小物
  6
CONTINUOUS
 62
    4
 10
67.199999999999818
 20
56.166666666666316
 11
67.199999999999818
 21
50.166666666666998
  0
LINE
  8
_1-8_小物
  6
CONTINUOUS
 62
    4
 10
67.699999999999818
 20
52.249999999999346
 11
67.199999999999818
 21
52.249999999999346
  0
LINE
  8
_1-8_小物
  6
CONTINUOUS
 62
    4
 10
67.699999999999818
 20
54.083333333332973
 11
67.199999999999818
 21
54.083333333332973
  0
ENDBLK
  0
BLOCK
  2
-018-_12_
 70
   64
 10
0
 20
0
 30
0
  0
LINE
  8
_1-8_小物
  6
CONTINUOUS
 62
    4
 10
64.617577666666534
 20
51.586081666666843
 11
62.966572666666593
 21
51.82193966666685
  0
LINE
  8
_1-8_小物
  6
CONTINUOUS
 62
    4
 10
61.71657266666773
 20
52.010857666666908
 11
62.881067666667832
 21
51.587016666666869
  0
LINE
  8
_1-8_小物
  6
CONTINUOUS
 62
    4
 10
62.881067666667832
 20
51.587016666666869
 11
64.581972666666729
 21
51.338927666666933
  0
ARC
  8
_1-8_小物
  6
CONTINUOUS
 62
    4
 10
64.603435666666542
 20
51.487086666666784
 40
0.0999999999999899
 50
351.86989799997593
 51
81.86989800004045
  0
LINE
  8
_1-8_小物
  6
CONTINUOUS
 62
    4
 10
64.695400666666615
 20
51.423738666666992
 11
64.702429666666831
 21
51.472944666666905
  0
ARC
  8
_1-8_小物
  6
CONTINUOUS
 62
    4
 10
64.596405666666556
 20
51.437880666666871
 40
0.0999999999999899
 50
261.70153400002863
 51
351.86989800004045
  0
LINE
  8
_1-8_小物
  6
CONTINUOUS
 62
    4
 10
57.472396666667692
 20
54.544897666666458
 11
56.946913666667683
 21
54.071751666666643
  0
LINE
  8
_1-8_小物
  6
CONTINUOUS
 62
    4
 10
56.92728766666778
 20
53.697270666666697
 11
64.666666666666742
 21
53.291666666666771
  0
LINE
  8
_1-8_小物
  6
CONTINUOUS
 62
    4
 10
57.472396666667692
 20
54.544902666666445
 11
56.946913666667683
 21
54.07175666666663
  0
LINE
  8
_1-8_小物
  6
CONTINUOUS
 62
    4
 10
56.92728766666778
 20
52.636062666666618
 11
64.666666666666742
 21
53.041666666666657
  0
LINE
  8
_1-8_小物
  6
CONTINUOUS
 62
    4
 10
57.472396666667692
 20
51.788429666666872
 11
56.946913666667683
 21
52.261576666666684
  0
LINE
  8
_1-8_小物
  6
CONTINUOUS
 62
    4
 10
64.617577666666534
 20
54.747251666666472
 11
62.966572666666593
 21
54.511393666666464
  0
LINE
  8
_1-8_小物
  6
CONTINUOUS
 62
    4
 10
62.881067666667832
 20
54.746316666666672
 11
64.581972666666729
 21
54.994405666666609
  0
LINE
  8
_1-8_小物
  6
CONTINUOUS
 62
    4
 10
63.438005666667664
 20
53.731572666666722
 11
62.938691666667637
 21
53.757740666666479
  0
LINE
  8
_1-8_小物
  6
CONTINUOUS
 62
    4
 10
63.438005666667664
 20
52.601760666666593
 11
62.938691666667637
 21
52.575592666666836
  0
LINE
  8
_1-8_小物
  6
CONTINUOUS
 62
    4
 10
66.666666666666629
 20
54.16666666666643
 11
63.666666666666629
 21
54.16666666666643
  0
LINE
  8
_1-8_小物
  6
CONTINUOUS
 62
    4
 10
66.666666666666629
 20
52.166666666666771
 11
63.666666666666629
 21
52.166666666666771
  0
ARC
  8
_1-8_小物
  6
CONTINUOUS
 62
    4
 10
64.603435666666542
 20
54.846246666666531
 40
0.0999999999999899
 50
278.13010199995955
 51
8.1301020000240669
  0
LINE
  8
_1-8_小物
  6
CONTINUOUS
 62
    4
 10
64.695400666666615
 20
54.90959466666655
 11
64.702429666666831
 21
54.860388666666637
  0
ARC
  8
_1-8_小物
  6
CONTINUOUS
 62
    4
 10
64.596405666666556
 20
54.895452666666671
 40
0.0999999999999899
 50
8.1301019999595656
 51
98.298465999971356
  0
LINE
  8
_1-8_小物
  6
CONTINUOUS
 62
    4
 10
64.666666666666742
 20
53.291666666666771
 11
64.666666666666742
 21
53.166666666666657
  0
LINE
  8
_1-8_小物
  6
CONTINUOUS
 62
    4
 10
66.666666666666629
 20
54.416666666666544
 11
65.416666666666742
 21
54.16666666666643
  0
LINE
  8
_1-8_小物
  6
CONTINUOUS
 62
    4
 10
66.666666666666629
 20
53.416666666666657
 11
65.416666666666742
 21
53.166666666666657
  0
LINE
  8
_1-8_小物
  6
CONTINUOUS
 62
    4
 10
66.666666666666629
 20
52.916666666666771
 11
65.416666666666742
 21
53.166666666666657
  0
LINE
  8
_1-8_小物
  6
CONTINUOUS
 62
    4
 10
65.416666666666742
 20
53.166666666666657
 11
66.666666666666629
 21
53.166666666666657
  0
LINE
  8
_1-8_小物
  6
CONTINUOUS
 62
    4
 10
64.666666666666742
 20
53.041666666666657
 11
64.666666666666742
 21
53.166666666666657
  0
LINE
  8
_1-8_小物
  6
CONTINUOUS
 62
    4
 10
66.666666666666629
 20
51.916666666666771
 11
65.416666666666742
 21
52.166666666666771
  0
LINE
  8
_1-8_小物
  6
CONTINUOUS
 62
    4
 10
63.666666666666629
 20
54.16666666666643
 11
63.438005666667664
 21
53.731572666666722
  0
LINE
  8
_1-8_小物
  6
CONTINUOUS
 62
    4
 10
63.666666666666629
 20
52.166666666666771
 11
63.438005666667664
 21
52.601760666666593
  0
LINE
  8
_1-8_小物
  6
CONTINUOUS
 62
    4
 10
57.666666666667652
 20
53.166666666666657
 11
58.134028031939806
 21
52.699305301394503
  0
LINE
  8
_1-8_小物
  6
CONTINUOUS
 62
    4
 10
61.702358704130802
 20
54.051257205036705
 11
62.966572666666593
 21
54.511393666666464
  0
LINE
  8
_1-8_小物
  6
CONTINUOUS
 62
    4
 10
61.702358704130802
 20
52.282076128296836
 11
62.966572666666593
 21
51.82193966666685
  0
LINE
  8
_1-8_小物
  6
CONTINUOUS
 62
    4
 10
57.426602666667691
 20
53.671102666666599
 11
57.472396666667692
 21
54.544902666666445
  0
LINE
  8
_1-8_小物
  6
CONTINUOUS
 62
    4
 10
59.21999866666772
 20
54.453315666666668
 11
58.72068366666781
 21
54.479483666666539
  0
LINE
  8
_1-8_小物
  6
CONTINUOUS
 62
    4
 10
57.426602666667691
 20
52.662230666666716
 11
57.472396666667692
 21
51.788429666666872
  0
LINE
  8
_1-8_小物
  6
CONTINUOUS
 62
    4
 10
59.21999866666772
 20
51.880017666666873
 11
58.72068366666781
 21
51.853849666666775
  0
LINE
  8
_1-8_小物
  6
CONTINUOUS
 62
    4
 10
58.134027666667521
 20
53.63402766666664
 11
57.666666666667652
 21
53.166666666666657
  0
LINE
  8
_1-8_小物
  6
CONTINUOUS
 62
    4
 10
57.945543666667845
 20
54.019420666666662
 11
57.971711666667602
 21
54.518734666666575
  0
LINE
  8
_1-8_小物
  6
CONTINUOUS
 62
    4
 10
58.444858666667528
 20
53.993252666666677
 11
57.945543666667845
 21
54.019420666666662
  0
LINE
  8
_1-8_小物
  6
CONTINUOUS
 62
    4
 10
58.72068366666781
 20
54.479483666666539
 11
58.444858666667528
 21
53.993252666666677
  0
LINE
  8
_1-8_小物
  6
CONTINUOUS
 62
    4
 10
57.971711666667602
 20
54.518734666666575
 11
57.472396666667692
 21
54.544902666666445
  0
LINE
  8
_1-8_小物
  6
CONTINUOUS
 62
    4
 10
57.945543666667845
 20
52.313912666666766
 11
57.971711666667602
 21
51.814597666666856
  0
LINE
  8
_1-8_小物
  6
CONTINUOUS
 62
    4
 10
58.444858666667528
 20
52.340080666666637
 11
57.945543666667845
 21
52.313912666666766
  0
LINE
  8
_1-8_小物
  6
CONTINUOUS
 62
    4
 10
58.72068366666781
 20
51.853849666666775
 11
58.444858666667528
 21
52.340080666666637
  0
LINE
  8
_1-8_小物
  6
CONTINUOUS
 62
    4
 10
57.971711666667602
 20
51.814597666666856
 11
57.472396666667692
 21
51.788429666666872
  0
LINE
  8
_1-8_小物
  6
CONTINUOUS
 62
    4
 10
61.71657266666773
 20
54.322475666666634
 11
62.881067666667832
 21
54.746316666666672
  0
LINE
  8
_1-8_小物
  6
CONTINUOUS
 62
    4
 10
62.938691666667637
 20
53.757740666666479
 11
62.964859666667735
 21
54.257055666666389
  0
LINE
  8
_1-8_小物
  6
CONTINUOUS
 62
    4
 10
62.964859666667735
 20
54.257055666666389
 11
62.465544666667597
 21
54.283223666666714
  0
LINE
  8
_1-8_小物
  6
CONTINUOUS
 62
    4
 10
61.690404666667632
 20
53.823160666666723
 11
61.71657266666773
 21
54.322475666666634
  0
LINE
  8
_1-8_小物
  6
CONTINUOUS
 62
    4
 10
62.189718666667545
 20
53.796992666666625
 11
61.690404666667632
 21
53.823160666666723
  0
LINE
  8
_1-8_小物
  6
CONTINUOUS
 62
    4
 10
62.465544666667597
 20
54.283223666666714
 11
62.189718666667545
 21
53.796992666666625
  0
LINE
  8
_1-8_小物
  6
CONTINUOUS
 62
    4
 10
61.71657266666773
 20
54.322475666666634
 11
61.217257666667706
 21
54.348643666666391
  0
LINE
  8
_1-8_小物
  6
CONTINUOUS
 62
    4
 10
60.442117666667741
 20
53.888580666666627
 11
60.468285666667612
 21
54.387895666666537
  0
LINE
  8
_1-8_小物
  6
CONTINUOUS
 62
    4
 10
60.941431666667654
 20
53.862412666666529
 11
60.442117666667741
 21
53.888580666666627
  0
LINE
  8
_1-8_小物
  6
CONTINUOUS
 62
    4
 10
61.217257666667706
 20
54.348643666666391
 11
60.941431666667654
 21
53.862412666666529
  0
LINE
  8
_1-8_小物
  6
CONTINUOUS
 62
    4
 10
60.468285666667612
 20
54.387895666666537
 11
59.968970666667587
 21
54.414063666666635
  0
LINE
  8
_1-8_小物
  6
CONTINUOUS
 62
    4
 10
59.193830666667623
 20
53.954000666666531
 11
59.21999866666772
 21
54.453315666666668
  0
LINE
  8
_1-8_小物
  6
CONTINUOUS
 62
    4
 10
59.693145666667647
 20
53.92783266666666
 11
59.193830666667623
 21
53.954000666666531
  0
LINE
  8
_1-8_小物
  6
CONTINUOUS
 62
    4
 10
59.968970666667587
 20
54.414063666666635
 11
59.693145666667647
 21
53.92783266666666
  0
LINE
  8
_1-8_小物
  6
CONTINUOUS
 62
    4
 10
62.938691666667637
 20
52.575592666666836
 11
62.964859666667735
 21
52.076277666666584
  0
LINE
  8
_1-8_小物
  6
CONTINUOUS
 62
    4
 10
62.964859666667735
 20
52.076277666666584
 11
62.465544666667597
 21
52.050109666666827
  0
LINE
  8
_1-8_小物
  6
CONTINUOUS
 62
    4
 10
61.690404666667632
 20
52.510172666666591
 11
61.71657266666773
 21
52.010857666666908
  0
LINE
  8
_1-8_小物
  6
CONTINUOUS
 62
    4
 10
62.189718666667545
 20
52.536340666666689
 11
61.690404666667632
 21
52.510172666666591
  0
LINE
  8
_1-8_小物
  6
CONTINUOUS
 62
    4
 10
62.465544666667597
 20
52.050109666666827
 11
62.189718666667545
 21
52.536340666666689
  0
LINE
  8
_1-8_小物
  6
CONTINUOUS
 62
    4
 10
61.71657266666773
 20
52.010857666666908
 11
61.217257666667706
 21
51.984689666666924
  0
LINE
  8
_1-8_小物
  6
CONTINUOUS
 62
    4
 10
60.442117666667741
 20
52.444752666666687
 11
60.468285666667612
 21
51.945437666666777
  0
LINE
  8
_1-8_小物
  6
CONTINUOUS
 62
    4
 10
60.941431666667654
 20
52.470920666666785
 11
60.442117666667741
 21
52.444752666666687
  0
LINE
  8
_1-8_小物
  6
CONTINUOUS
 62
    4
 10
61.217257666667706
 20
51.984689666666924
 11
60.941431666667654
 21
52.470920666666785
  0
LINE
  8
_1-8_小物
  6
CONTINUOUS
 62
    4
 10
60.468285666667612
 20
51.945437666666777
 11
59.968970666667587
 21
51.919269666666906
  0
LINE
  8
_1-8_小物
  6
CONTINUOUS
 62
    4
 10
59.193830666667623
 20
52.379332666666784
 11
59.21999866666772
 21
51.880017666666873
  0
LINE
  8
_1-8_小物
  6
CONTINUOUS
 62
    4
 10
59.693145666667647
 20
52.405500666666768
 11
59.193830666667623
 21
52.379332666666784
  0
LINE
  8
_1-8_小物
  6
CONTINUOUS
 62
    4
 10
59.968970666667587
 20
51.919269666666906
 11
59.693145666667647
 21
52.405500666666768
  0
LINE
  8
_1-8_小物
  6
CONTINUOUS
 62
    4
 10
56.946913666667683
 20
54.07175666666663
 11
56.92728766666778
 21
53.697270666666697
  0
LINE
  8
_1-8_小物
  6
CONTINUOUS
 62
    4
 10
56.946913666667683
 20
52.261576666666684
 11
56.92728766666778
 21
52.636062666666618
  0
LINE
  8
_1-8_小物
  6
CONTINUOUS
 62
    4
 10
66.666666666666629
 20
54.416666666666544
 11
66.666666666666629
 21
51.916666666666771
  0
ENDBLK
  0
BLOCK
  2
-019-_13_
 70
   64
 10
0
 20
0
 30
0
  0
LINE
  8
_1-7_カバ__
  6
CENTER2
 62
    4
 10
-99.999999999999986
 20
53.5
 11
-99.999999999999986
 21
57.599999999999966
  0
LINE
  8
_1-7_カバ__
  6
CENTER2
 62
    4
 10
-136.666666666673
 20
53.5
 11
-136.666666666673
 21
57.599999999999966
  0
LINE
  8
_1-7_カバ__
  6
CENTER2
 62
    4
 10
-63.333333333326976
 20
53.5
 11
-63.333333333326976
 21
57.599999999999966
  0
ARC
  8
_1-7_カバ__
  6
CONTINUOUS
 62
    4
 10
-152.83333225127132
 20
55.666666666666657
 40
0.5
 50
180
 51
270
  0
LINE
  8
_1-7_カバ__
  6
CONTINUOUS
 62
    4
 10
-153.33333225127132
 20
59.333333333333286
 11
-153.33333225127132
 21
55.666666666666657
  0
ARC
  8
_1-7_カバ__
  6
CONTINUOUS
 62
    4
 10
-152.83333225127132
 20
59.333333333333286
 40
0.5
 50
90
 51
180
  0
ARC
  8
_1-7_カバ__
  6
CONTINUOUS
 62
    4
 10
-152.83333225127132
 20
55.666666666666657
 40
0.1666666666666666
 50
180
 51
270
  0
LINE
  8
_1-7_カバ__
  6
CONTINUOUS
 62
    4
 10
-152.99999891793797
 20
59.333333333333286
 11
-152.99999891793797
 21
55.666666666666657
  0
ARC
  8
_1-7_カバ__
  6
CONTINUOUS
 62
    4
 10
-152.83333225127132
 20
59.333333333333286
 40
0.1666666666666666
 50
90
 51
180
  0
ARC
  8
_1-7_カバ__
  6
CONTINUOUS
 62
    4
 10
-47.166667748728685
 20
55.666666666666657
 40
0.5
 50
270
 51
0
  0
LINE
  8
_1-7_カバ__
  6
CONTINUOUS
 62
    4
 10
-46.666667748728685
 20
59.333333333333286
 11
-46.666667748728685
 21
55.666666666666657
  0
ARC
  8
_1-7_カバ__
  6
CONTINUOUS
 62
    4
 10
-47.166667748728685
 20
59.333333333333286
 40
0.5
 50
0
 51
90
  0
ARC
  8
_1-7_カバ__
  6
CONTINUOUS
 62
    4
 10
-47.166667748728685
 20
55.666666666666657
 40
0.1666666666666666
 50
270
 51
0
  0
LINE
  8
_1-7_カバ__
  6
CONTINUOUS
 62
    4
 10
-47.000001082061999
 20
59.333333333333286
 11
-47.000001082061999
 21
55.666666666666657
  0
ARC
  8
_1-7_カバ__
  6
CONTINUOUS
 62
    4
 10
-47.166667748728685
 20
59.333333333333286
 40
0.1666666666666666
 50
0
 51
90
  0
LINE
  8
_1-7_カバ__
  6
CONTINUOUS
 62
    4
 10
-152.83333225127132
 20
55.166666666666657
 11
-47.166667748728685
 21
55.166666666666657
  0
LINE
  8
_1-7_カバ__
  6
CONTINUOUS
 62
    4
 10
-152.83333225127132
 20
55.5
 11
-47.166667748728685
 21
55.5
  0
LINE
  8
_1-7_カバ__
  6
CONTINUOUS
 62
    4
 10
-149.99999891793797
 20
59.5
 11
-149.99999891793797
 21
59.833333333333286
  0
LINE
  8
_1-7_カバ__
  6
CONTINUOUS
 62
    4
 10
-152.83333225127132
 20
59.833333333333286
 11
-149.99999891793797
 21
59.833333333333286
  0
LINE
  8
_1-7_カバ__
  6
CONTINUOUS
 62
    4
 10
-152.83333225127132
 20
59.5
 11
-149.99999891793797
 21
59.5
  0
LINE
  8
_1-7_カバ__
  6
CONTINUOUS
 62
    4
 10
-50.000001082061999
 20
59.5
 11
-50.000001082061999
 21
59.833333333333286
  0
LINE
  8
_1-7_カバ__
  6
CONTINUOUS
 62
    4
 10
-47.166667748728685
 20
59.833333333333286
 11
-50.000001082061999
 21
59.833333333333286
  0
LINE
  8
_1-7_カバ__
  6
CONTINUOUS
 62
    4
 10
-47.166667748728685
 20
59.5
 11
-50.000001082061999
 21
59.5
  0
LINE
  8
_1-7_カバ__
  6
DASHED1
 62
    4
 10
-135.916666666673
 20
55.5
 11
-135.58333333333968
 21
55.166666666666657
  0
LINE
  8
_1-7_カバ__
  6
DASHED1
 62
    4
 10
-137.416666666673
 20
55.5
 11
-137.75000000000634
 21
55.166666666666657
  0
LINE
  8
_1-7_カバ__
  6
DASHED1
 62
    4
 10
-62.583333333326976
 20
55.5
 11
-62.249999999993634
 21
55.166666666666657
  0
LINE
  8
_1-7_カバ__
  6
DASHED1
 62
    4
 10
-64.083333333326976
 20
55.5
 11
-64.416666666660319
 21
55.166666666666657
  0
ENDBLK
  0
BLOCK
  2
-020-_14_
 70
   64
 10
0
 20
0
 30
0
  0
ARC
  8
_1-8_小物
  6
CONTINUOUS
 62
    4
 10
-149.99999891793789
 20
59.733333333333292
 40
0.0999999999999999
 50
0
 51
90
  0
LINE
  8
_1-8_小物
  6
CONTINUOUS
 62
    4
 10
-152.8333322512712
 20
60.5
 11
-152.8333322512712
 21
60.959067386621598
  0
ARC
  8
_1-8_小物
  6
CONTINUOUS
 62
    4
 10
-152.66666558460454
 20
60.5
 40
0.1666666666666666
 50
180
 51
270
  0
LINE
  8
_1-8_小物
  6
CONTINUOUS
 62
    4
 10
-153.3333322512712
 20
60.5
 11
-153.3333322512712
 21
61
  0
ARC
  8
_1-8_小物
  6
CONTINUOUS
 62
    4
 10
-152.66666558460454
 20
60.5
 40
0.6666666666666666
 50
180
 51
270
  0
LINE
  8
_1-8_小物
  6
CONTINUOUS
 62
    4
 10
-152.66666558460454
 20
60.333333333333314
 11
-150.06666558460455
 21
60.333333333333314
  0
ARC
  8
_1-8_小物
  6
CONTINUOUS
 62
    4
 10
-150.06666558460455
 20
59.833333333333314
 40
0.5
 50
0
 51
90
  0
ARC
  8
_1-8_小物
  6
CONTINUOUS
 62
    4
 10
-152.42130977545986
 20
63.458670406543831
 40
0.4999999999999946
 50
10.639809198087802
 51
170.63980919808861
  0
LINE
  8
_1-8_小物
  6
CONTINUOUS
 62
    4
 10
-152.8333322512712
 20
60.959067386621598
 11
-152.45205576988542
 21
63.27214470702873
  0
ARC
  8
_1-8_小物
  6
CONTINUOUS
 62
    4
 10
-152.41916625646542
 20
63.266723358662773
 40
0.0333333333333333
 50
10.639809198123826
 51
170.63980919805701
  0
ARC
  8
_1-8_小物
  6
CONTINUOUS
 62
    4
 10
-151.94481513591927
 20
62.276319841572047
 40
0.25
 50
190.63980919808779
 51
10.639809198081366
  0
LINE
  8
_1-8_小物
  6
CONTINUOUS
 62
    4
 10
-151.69911331036545
 20
62.322478404369377
 11
-151.92990612435221
 21
63.550987532138549
  0
LINE
  8
_1-8_小物
  6
CONTINUOUS
 62
    4
 10
-153.3333322512712
 20
61
 11
-152.9146524767603
 21
63.539990632032897
  0
LINE
  8
_1-8_小物
  6
CONTINUOUS
 62
    4
 10
-152.66666558460454
 20
59.833333333333314
 11
-149.99999891793789
 21
59.833333333333314
  0
ARC
  8
_1-8_小物
  6
CONTINUOUS
 62
    4
 10
-151.85488880852949
 20
59.092281886537478
 40
0.1666666666666666
 50
87.280517960042147
 51
177.28051796003194
  0
ARC
  8
_1-8_小物
  6
CONTINUOUS
 62
    4
 10
-152.01346009245628
 20
59.266668535881337
 40
0.3333333333333333
 50
87.280517960041465
 51
177.2805179600368
  0
LINE
  8
_1-8_小物
  6
CONTINUOUS
 62
    4
 10
-152.3464180257269
 20
59.282483901298406
 11
-152.36223339114397
 21
58.949525968027842
  0
ARC
  8
_1-8_小物
  6
CONTINUOUS
 62
    4
 10
-152.19575442450866
 20
58.941618285319265
 40
0.1666666666666666
 50
177.28051796004169
 51
357.28051796004121
  0
LINE
  8
_1-8_小物
  6
CONTINUOUS
 62
    4
 10
-152.02136777516483
 20
59.100189569246027
 11
-152.02927545787335
 21
58.933710602610773
  0
LINE
  8
_1-8_小物
  6
CONTINUOUS
 62
    4
 10
-149.89999891793786
 20
59.604851858652125
 11
-149.89999891793786
 21
59.733333333333292
  0
LINE
  8
_1-8_小物
  6
CONTINUOUS
 62
    4
 10
-151.84698112582097
 20
59.25876085317276
 11
-149.91581428335493
 21
59.16703121935717
  0
LINE
  8
_1-8_小物
  6
CONTINUOUS
 62
    4
 10
-149.56666558460455
 20
59.499989152627791
 11
-149.56666558460455
 21
59.833333333333314
  0
ARC
  8
_1-8_小物
  6
CONTINUOUS
 62
    4
 10
-149.99999891793789
 20
59.604851858652125
 40
0.0999999999999999
 50
267.28051796004445
 51
0
  0
ARC
  8
_1-8_小物
  6
CONTINUOUS
 62
    4
 10
-149.89999891793786
 20
59.499989152627791
 40
0.3333333333333333
 50
267.28051796003678
 51
0
  0
LINE
  8
_1-8_小物
  6
CONTINUOUS
 62
    4
 10
-151.99764472703924
 20
59.5996264691519
 11
-150.00474352756299
 21
59.504964478671013
  0
LINE
  8
_1-8_小物
  6
CONTINUOUS
 62
    4
 10
-152.19051696147309
 20
62.230161278774659
 11
-152.38640601305823
 21
63.272877833702438
  0
ENDBLK
  0
BLOCK
  2
-021-_15_
 70
   64
 10
0
 20
0
 30
0
  0
ARC
  8
_1-8_小物
  6
CONTINUOUS
 62
    4
 10
-50.000001082062113
 20
59.733333333333292
 40
0.0999999999999999
 50
90
 51
180
  0
LINE
  8
_1-8_小物
  6
CONTINUOUS
 62
    4
 10
-47.166667748728798
 20
60.5
 11
-47.166667748728798
 21
60.959067386621598
  0
ARC
  8
_1-8_小物
  6
CONTINUOUS
 62
    4
 10
-47.333334415395456
 20
60.5
 40
0.1666666666666666
 50
270
 51
0
  0
LINE
  8
_1-8_小物
  6
CONTINUOUS
 62
    4
 10
-46.666667748728798
 20
60.5
 11
-46.666667748728798
 21
61
  0
ARC
  8
_1-8_小物
  6
CONTINUOUS
 62
    4
 10
-47.333334415395456
 20
60.5
 40
0.6666666666666666
 50
270
 51
0
  0
LINE
  8
_1-8_小物
  6
CONTINUOUS
 62
    4
 10
-47.333334415395456
 20
60.333333333333314
 11
-49.93333441539545
 21
60.333333333333314
  0
ARC
  8
_1-8_小物
  6
CONTINUOUS
 62
    4
 10
-49.93333441539545
 20
59.833333333333314
 40
0.5
 50
90
 51
180
  0
ARC
  8
_1-8_小物
  6
CONTINUOUS
 62
    4
 10
-47.578690224540139
 20
63.458670406543831
 40
0.4999999999999946
 50
9.3601908019113864
 51
169.36019080191218
  0
LINE
  8
_1-8_小物
  6
CONTINUOUS
 62
    4
 10
-47.166667748728798
 20
60.959067386621598
 11
-47.547944230114581
 21
63.27214470702873
  0
ARC
  8
_1-8_小物
  6
CONTINUOUS
 62
    4
 10
-47.580833743534583
 20
63.266723358662773
 40
0.0333333333333333
 50
9.3601908019509352
 51
169.36019080188521
  0
ARC
  8
_1-8_小物
  6
CONTINUOUS
 62
    4
 10
-48.055184864080729
 20
62.276319841572047
 40
0.25
 50
169.3601908019198
 51
349.36019080191221
  0
LINE
  8
_1-8_小物
  6
CONTINUOUS
 62
    4
 10
-48.300886689634552
 20
62.322478404369377
 11
-48.070093875647785
 21
63.550987532138549
  0
LINE
  8
_1-8_小物
  6
CONTINUOUS
 62
    4
 10
-46.666667748728798
 20
61
 11
-47.085347523239705
 21
63.539990632032897
  0
LINE
  8
_1-8_小物
  6
CONTINUOUS
 62
    4
 10
-47.333334415395456
 20
59.833333333333314
 11
-50.000001082062113
 21
59.833333333333314
  0
ARC
  8
_1-8_小物
  6
CONTINUOUS
 62
    4
 10
-48.145111191470505
 20
59.092281886537478
 40
0.1666666666666666
 50
2.7194820399685393
 51
92.719482039967616
  0
ARC
  8
_1-8_小物
  6
CONTINUOUS
 62
    4
 10
-47.986539907543715
 20
59.266668535881337
 40
0.3333333333333333
 50
2.7194820399634283
 51
92.719482039963438
  0
LINE
  8
_1-8_小物
  6
CONTINUOUS
 62
    4
 10
-47.653581974273095
 20
59.282483901298406
 11
-47.637766608856026
 21
58.949525968027842
  0
ARC
  8
_1-8_小物
  6
CONTINUOUS
 62
    4
 10
-47.804245575491336
 20
58.941618285319265
 40
0.1666666666666666
 50
182.71948203995831
 51
2.7194820399587911
  0
LINE
  8
_1-8_小物
  6
CONTINUOUS
 62
    4
 10
-47.978632224835167
 20
59.100189569246027
 11
-47.970724542126675
 21
58.933710602610773
  0
LINE
  8
_1-8_小物
  6
CONTINUOUS
 62
    4
 10
-50.100001082062136
 20
59.604851858652125
 11
-50.100001082062136
 21
59.733333333333292
  0
LINE
  8
_1-8_小物
  6
CONTINUOUS
 62
    4
 10
-48.153018874179054
 20
59.25876085317276
 11
-50.084185716645095
 21
59.16703121935717
  0
LINE
  8
_1-8_小物
  6
CONTINUOUS
 62
    4
 10
-50.43333441539545
 20
59.499989152627791
 11
-50.43333441539545
 21
59.833333333333314
  0
ARC
  8
_1-8_小物
  6
CONTINUOUS
 62
    4
 10
-50.000001082062113
 20
59.604851858652125
 40
0.0999999999999999
 50
180
 51
272.71948203995549
  0
ARC
  8
_1-8_小物
  6
CONTINUOUS
 62
    4
 10
-50.100001082062136
 20
59.499989152627791
 40
0.3333333333333333
 50
180
 51
272.71948203995834
  0
LINE
  8
_1-8_小物
  6
CONTINUOUS
 62
    4
 10
-48.002355272960756
 20
59.5996264691519
 11
-49.995256472437006
 21
59.504964478671013
  0
LINE
  8
_1-8_小物
  6
CONTINUOUS
 62
    4
 10
-47.809483038526935
 20
62.230161278774659
 11
-47.613593986941794
 21
63.272877833702438
  0
ENDBLK
  0
BLOCK
  2
-022-_16_
 70
   64
 10
0
 20
0
 30
0
  0
LINE
  8
_1-8_小物
  6
CONTINUOUS
 62
    4
 10
84.333333333333258
 20
55.166666666666657
 11
82.333333333333258
 21
55.166666666666657
  0
LINE
  8
_1-8_小物
  6
CONTINUOUS
 62
    4
 10
82.333333333333371
 20
55.166666666666657
 11
82.333333333333371
 21
55.233333333333348
  0
LINE
  8
_1-8_小物
  6
CONTINUOUS
 62
    4
 10
84.333333333333144
 20
55.233333333333348
 11
83.833333333333144
 21
55.733333333333348
  0
LINE
  8
_1-8_小物
  6
CONTINUOUS
 62
    4
 10
83.833333333333144
 20
55.733333333333348
 11
82.833333333333371
 21
55.733333333333348
  0
LINE
  8
_1-8_小物
  6
CONTINUOUS
 62
    4
 10
82.333333333333371
 20
55.233333333333348
 11
82.833333333333371
 21
55.733333333333348
  0
LINE
  8
_1-8_小物
  6
CONTINUOUS
 62
    4
 10
84.333333333333144
 20
55.233333333333348
 11
84.333333333333144
 21
55.166666666666657
  0
LINE
  8
_1-8_小物
  6
CONTINUOUS
 62
    4
 10
82.333333333333371
 20
55.233333333333348
 11
84.333333333333144
 21
55.233333333333348
  0
LINE
  8
_1-8_小物
  6
CONTINUOUS
 62
    4
 10
82.833333333333371
 20
58.797580011509041
 11
82.645833333333258
 21
58.905833333333305
  0
LINE
  8
_1-8_小物
  6
CONTINUOUS
 62
    4
 10
82.645833333333258
 20
58.905833333333305
 11
82.833333333333258
 21
59.014086655157541
  0
LINE
  8
_1-8_小物
  6
CONTINUOUS
 62
    4
 10
82.833333333333371
 20
58.797580011509041
 11
83.833333333333144
 21
59.032580011508969
  0
LINE
  8
_1-8_小物
  6
CONTINUOUS
 62
    4
 10
84.020833333333258
 20
59.140833333333291
 11
83.833333333333144
 21
59.032580011508969
  0
LINE
  8
_1-8_小物
  6
CONTINUOUS
 62
    4
 10
83.833333333333144
 20
59.249086655157555
 11
84.020833333333258
 21
59.140833333333291
  0
LINE
  8
_1-8_小物
  6
CONTINUOUS
 62
    4
 10
82.833333333333258
 20
59.014086655157541
 11
83.833333333333144
 21
59.249086655157555
  0
LINE
  8
_1-8_小物
  6
CONTINUOUS
 62
    4
 10
82.645833333333258
 20
58.905833333333305
 11
84.020833333333258
 21
59.140833333333291
  0
LINE
  8
_1-8_小物
  6
CONTINUOUS
 62
    4
 10
82.833333333333371
 20
58.327580011509014
 11
82.645833333333258
 21
58.435833333333278
  0
LINE
  8
_1-8_小物
  6
CONTINUOUS
 62
    4
 10
82.645833333333258
 20
58.435833333333278
 11
82.833333333333258
 21
58.544086655157571
  0
LINE
  8
_1-8_小物
  6
CONTINUOUS
 62
    4
 10
82.833333333333371
 20
58.327580011509014
 11
83.833333333333144
 21
58.562580011508999
  0
LINE
  8
_1-8_小物
  6
CONTINUOUS
 62
    4
 10
84.020833333333258
 20
58.670833333333263
 11
83.833333333333144
 21
58.562580011508999
  0
LINE
  8
_1-8_小物
  6
CONTINUOUS
 62
    4
 10
83.833333333333144
 20
58.779086655157528
 11
84.020833333333258
 21
58.670833333333263
  0
LINE
  8
_1-8_小物
  6
CONTINUOUS
 62
    4
 10
82.833333333333258
 20
58.544086655157571
 11
83.833333333333144
 21
58.779086655157528
  0
LINE
  8
_1-8_小物
  6
CONTINUOUS
 62
    4
 10
82.645833333333258
 20
58.435833333333278
 11
84.020833333333258
 21
58.670833333333263
  0
LINE
  8
_1-8_小物
  6
CONTINUOUS
 62
    4
 10
82.833333333333371
 20
57.857580011509015
 11
82.645833333333258
 21
57.965833333333336
  0
LINE
  8
_1-8_小物
  6
CONTINUOUS
 62
    4
 10
82.645833333333258
 20
57.965833333333336
 11
82.833333333333258
 21
58.0740866551576
  0
LINE
  8
_1-8_小物
  6
CONTINUOUS
 62
    4
 10
82.833333333333371
 20
57.857580011509015
 11
83.833333333333144
 21
58.092580011509028
  0
LINE
  8
_1-8_小物
  6
CONTINUOUS
 62
    4
 10
84.020833333333258
 20
58.200833333333264
 11
83.833333333333144
 21
58.092580011509028
  0
LINE
  8
_1-8_小物
  6
CONTINUOUS
 62
    4
 10
83.833333333333144
 20
58.309086655157586
 11
84.020833333333258
 21
58.200833333333264
  0
LINE
  8
_1-8_小物
  6
CONTINUOUS
 62
    4
 10
82.833333333333258
 20
58.0740866551576
 11
83.833333333333144
 21
58.309086655157586
  0
LINE
  8
_1-8_小物
  6
CONTINUOUS
 62
    4
 10
82.645833333333258
 20
57.965833333333336
 11
84.020833333333258
 21
58.200833333333264
  0
LINE
  8
_1-8_小物
  6
CONTINUOUS
 62
    4
 10
82.833333333333371
 20
57.387580011509044
 11
82.645833333333258
 21
57.495833333333309
  0
LINE
  8
_1-8_小物
  6
CONTINUOUS
 62
    4
 10
82.645833333333258
 20
57.495833333333309
 11
82.833333333333258
 21
57.604086655157573
  0
LINE
  8
_1-8_小物
  6
CONTINUOUS
 62
    4
 10
82.833333333333371
 20
57.387580011509044
 11
83.833333333333144
 21
57.622580011509001
  0
LINE
  8
_1-8_小物
  6
CONTINUOUS
 62
    4
 10
84.020833333333258
 20
57.730833333333294
 11
83.833333333333144
 21
57.622580011509001
  0
LINE
  8
_1-8_小物
  6
CONTINUOUS
 62
    4
 10
83.833333333333144
 20
57.839086655157558
 11
84.020833333333258
 21
57.730833333333294
  0
LINE
  8
_1-8_小物
  6
CONTINUOUS
 62
    4
 10
82.833333333333258
 20
57.604086655157573
 11
83.833333333333144
 21
57.839086655157558
  0
LINE
  8
_1-8_小物
  6
CONTINUOUS
 62
    4
 10
82.645833333333258
 20
57.495833333333309
 11
84.020833333333258
 21
57.730833333333294
  0
LINE
  8
_1-8_小物
  6
CONTINUOUS
 62
    4
 10
82.833333333333371
 20
56.917580011509074
 11
82.645833333333258
 21
57.02583333333331
  0
LINE
  8
_1-8_小物
  6
CONTINUOUS
 62
    4
 10
82.645833333333258
 20
57.02583333333331
 11
82.833333333333258
 21
57.134086655157631
  0
LINE
  8
_1-8_小物
  6
CONTINUOUS
 62
    4
 10
82.833333333333371
 20
56.917580011509074
 11
83.833333333333144
 21
57.152580011509059
  0
LINE
  8
_1-8_小物
  6
CONTINUOUS
 62
    4
 10
84.020833333333258
 20
57.260833333333323
 11
83.833333333333144
 21
57.152580011509059
  0
LINE
  8
_1-8_小物
  6
CONTINUOUS
 62
    4
 10
83.833333333333144
 20
57.36908665515756
 11
84.020833333333258
 21
57.260833333333323
  0
LINE
  8
_1-8_小物
  6
CONTINUOUS
 62
    4
 10
82.833333333333258
 20
57.134086655157631
 11
83.833333333333144
 21
57.36908665515756
  0
LINE
  8
_1-8_小物
  6
CONTINUOUS
 62
    4
 10
82.645833333333258
 20
57.02583333333331
 11
84.020833333333258
 21
57.260833333333323
  0
LINE
  8
_1-8_小物
  6
CONTINUOUS
 62
    4
 10
82.833333333333371
 20
56.447580011509046
 11
82.645833333333258
 21
56.555833333333339
  0
LINE
  8
_1-8_小物
  6
CONTINUOUS
 62
    4
 10
82.645833333333258
 20
56.555833333333339
 11
82.833333333333258
 21
56.664086655157604
  0
LINE
  8
_1-8_小物
  6
CONTINUOUS
 62
    4
 10
82.833333333333371
 20
56.447580011509046
 11
83.833333333333144
 21
56.682580011509032
  0
LINE
  8
_1-8_小物
  6
CONTINUOUS
 62
    4
 10
84.020833333333258
 20
56.790833333333296
 11
83.833333333333144
 21
56.682580011509032
  0
LINE
  8
_1-8_小物
  6
CONTINUOUS
 62
    4
 10
83.833333333333144
 20
56.899086655157589
 11
84.020833333333258
 21
56.790833333333296
  0
LINE
  8
_1-8_小物
  6
CONTINUOUS
 62
    4
 10
82.833333333333258
 20
56.664086655157604
 11
83.833333333333144
 21
56.899086655157589
  0
LINE
  8
_1-8_小物
  6
CONTINUOUS
 62
    4
 10
82.645833333333258
 20
56.555833333333339
 11
84.020833333333258
 21
56.790833333333296
  0
LINE
  8
_1-8_小物
  6
CONTINUOUS
 62
    4
 10
82.833333333333371
 20
55.977580011509104
 11
82.645833333333258
 21
56.085833333333369
  0
LINE
  8
_1-8_小物
  6
CONTINUOUS
 62
    4
 10
82.645833333333258
 20
56.085833333333369
 11
82.833333333333258
 21
56.194086655157605
  0
LINE
  8
_1-8_小物
  6
CONTINUOUS
 62
    4
 10
82.833333333333371
 20
55.977580011509104
 11
83.833333333333144
 21
56.212580011509033
  0
LINE
  8
_1-8_小物
  6
CONTINUOUS
 62
    4
 10
84.020833333333258
 20
56.320833333333354
 11
83.833333333333144
 21
56.212580011509033
  0
LINE
  8
_1-8_小物
  6
CONTINUOUS
 62
    4
 10
83.833333333333144
 20
56.429086655157619
 11
84.020833333333258
 21
56.320833333333354
  0
LINE
  8
_1-8_小物
  6
CONTINUOUS
 62
    4
 10
82.833333333333258
 20
56.194086655157605
 11
83.833333333333144
 21
56.429086655157619
  0
LINE
  8
_1-8_小物
  6
CONTINUOUS
 62
    4
 10
82.645833333333258
 20
56.085833333333369
 11
84.020833333333258
 21
56.320833333333354
  0
LINE
  8
_1-8_小物
  6
CONTINUOUS
 62
    4
 10
83.833333333333144
 20
59.249086655157555
 11
83.833333333333144
 21
59.502580011508968
  0
LINE
  8
_1-8_小物
  6
CONTINUOUS
 62
    4
 10
83.833333333333144
 20
58.779086655157528
 11
83.833333333333144
 21
59.032580011508969
  0
LINE
  8
_1-8_小物
  6
CONTINUOUS
 62
    4
 10
83.833333333333144
 20
58.309086655157586
 11
83.833333333333144
 21
58.562580011508942
  0
LINE
  8
_1-8_小物
  6
CONTINUOUS
 62
    4
 10
83.833333333333144
 20
57.839086655157558
 11
83.833333333333144
 21
58.092580011509028
  0
LINE
  8
_1-8_小物
  6
CONTINUOUS
 62
    4
 10
83.833333333333144
 20
57.36908665515756
 11
83.833333333333144
 21
57.622580011509001
  0
LINE
  8
_1-8_小物
  6
CONTINUOUS
 62
    4
 10
83.833333333333144
 20
56.899086655157589
 11
83.833333333333144
 21
57.152580011509059
  0
LINE
  8
_1-8_小物
  6
CONTINUOUS
 62
    4
 10
83.833333333333144
 20
55.733333333333348
 11
83.833333333333144
 21
56.212580011509033
  0
LINE
  8
_1-8_小物
  6
CONTINUOUS
 62
    4
 10
83.833333333333144
 20
56.429086655157619
 11
83.833333333333144
 21
56.682580011509032
  0
LINE
  8
_1-8_小物
  6
CONTINUOUS
 62
    4
 10
82.833333333333371
 20
55.733333333333348
 11
82.833333333333371
 21
55.977580011509104
  0
LINE
  8
_1-8_小物
  6
CONTINUOUS
 62
    4
 10
82.833333333333371
 20
56.194086655157662
 11
82.833333333333371
 21
56.447580011509046
  0
LINE
  8
_1-8_小物
  6
CONTINUOUS
 62
    4
 10
82.833333333333371
 20
56.664086655157604
 11
82.833333333333371
 21
56.917580011509074
  0
LINE
  8
_1-8_小物
  6
CONTINUOUS
 62
    4
 10
82.833333333333371
 20
57.134086655157631
 11
82.833333333333371
 21
57.387580011509044
  0
LINE
  8
_1-8_小物
  6
CONTINUOUS
 62
    4
 10
82.833333333333371
 20
57.604086655157573
 11
82.833333333333371
 21
57.857580011509015
  0
LINE
  8
_1-8_小物
  6
CONTINUOUS
 62
    4
 10
82.833333333333371
 20
58.0740866551576
 11
82.833333333333371
 21
58.327580011509014
  0
LINE
  8
_1-8_小物
  6
CONTINUOUS
 62
    4
 10
82.833333333333371
 20
58.544086655157628
 11
82.833333333333371
 21
58.797580011509041
  0
LINE
  8
_1-8_小物
  6
CONTINUOUS
 62
    4
 10
82.766666666666652
 20
59.506666666666661
 11
82.766666666666652
 21
60.50333333333333
  0
LINE
  8
_1-8_小物
  6
CONTINUOUS
 62
    4
 10
83.89999999999975
 20
59.506666666666661
 11
82.766666666666652
 21
59.506666666666661
  0
LINE
  8
_1-8_小物
  6
CONTINUOUS
 62
    4
 10
83.89999999999975
 20
59.506666666666661
 11
83.89999999999975
 21
60.50333333333333
  0
LINE
  8
_1-8_小物
  6
CONTINUOUS
 62
    4
 10
83.89999999999975
 20
60.50333333333333
 11
83.333333333333258
 21
60.830498485874074
  0
LINE
  8
_1-8_小物
  6
CONTINUOUS
 62
    4
 10
82.766666666666652
 20
60.50333333333333
 11
83.333333333333258
 21
60.830498485874074
  0
LINE
  8
_1-8_小物
  6
CONTINUOUS
 62
    4
 10
83.333333333333258
 20
60.715028432036121
 11
82.866666666666561
 21
60.445598306414382
  0
LINE
  8
_1-8_小物
  6
CONTINUOUS
 62
    4
 10
82.866666666666561
 20
59.506666666666661
 11
82.866666666666561
 21
60.445598306414382
  0
LINE
  8
_1-8_小物
  6
CONTINUOUS
 62
    4
 10
83.333333333333258
 20
60.715028432036121
 11
83.120266551642089
 21
59.506666666666661
  0
LINE
  8
_1-8_小物
  6
CONTINUOUS
 62
    4
 10
82.833333333333371
 20
59.014086655157598
 11
82.833333333333371
 21
59.506666666666661
  0
LINE
  8
_1-8_小物
  6
CONTINUOUS
 62
    4
 10
83.333333333333258
 20
60.830498485874074
 11
83.333333333333258
 21
60.715028432036121
  0
LINE
  8
_1-8_小物
  6
CENTER2
 62
    4
 10
83.333333333333258
 20
54.833333333333314
 11
83.333333333333258
 21
61.16383181920736
  0
ENDBLK
  0
BLOCK
  2
-023-_17_
 70
   64
 10
0
 20
0
 30
0
  0
LINE
  8
_1-8_小物
  6
CONTINUOUS
 62
    4
 10
137.6666666666664
 20
55.166666666666657
 11
135.6666666666664
 21
55.166666666666657
  0
LINE
  8
_1-8_小物
  6
CONTINUOUS
 62
    4
 10
135.66666666666652
 20
55.166666666666657
 11
135.66666666666652
 21
55.233333333333348
  0
LINE
  8
_1-8_小物
  6
CONTINUOUS
 62
    4
 10
137.66666666666629
 20
55.233333333333348
 11
137.16666666666629
 21
55.733333333333348
  0
LINE
  8
_1-8_小物
  6
CONTINUOUS
 62
    4
 10
137.16666666666629
 20
55.733333333333348
 11
136.16666666666652
 21
55.733333333333348
  0
LINE
  8
_1-8_小物
  6
CONTINUOUS
 62
    4
 10
135.66666666666652
 20
55.233333333333348
 11
136.16666666666652
 21
55.733333333333348
  0
LINE
  8
_1-8_小物
  6
CONTINUOUS
 62
    4
 10
137.66666666666629
 20
55.233333333333348
 11
137.66666666666629
 21
55.166666666666657
  0
LINE
  8
_1-8_小物
  6
CONTINUOUS
 62
    4
 10
135.66666666666652
 20
55.233333333333348
 11
137.66666666666629
 21
55.233333333333348
  0
LINE
  8
_1-8_小物
  6
CONTINUOUS
 62
    4
 10
136.16666666666652
 20
58.797580011509041
 11
135.9791666666664
 21
58.905833333333305
  0
LINE
  8
_1-8_小物
  6
CONTINUOUS
 62
    4
 10
135.9791666666664
 20
58.905833333333305
 11
136.1666666666664
 21
59.014086655157541
  0
LINE
  8
_1-8_小物
  6
CONTINUOUS
 62
    4
 10
136.16666666666652
 20
58.797580011509041
 11
137.16666666666629
 21
59.032580011508969
  0
LINE
  8
_1-8_小物
  6
CONTINUOUS
 62
    4
 10
137.3541666666664
 20
59.140833333333291
 11
137.16666666666629
 21
59.032580011508969
  0
LINE
  8
_1-8_小物
  6
CONTINUOUS
 62
    4
 10
137.16666666666629
 20
59.249086655157555
 11
137.3541666666664
 21
59.140833333333291
  0
LINE
  8
_1-8_小物
  6
CONTINUOUS
 62
    4
 10
136.1666666666664
 20
59.014086655157541
 11
137.16666666666629
 21
59.249086655157555
  0
LINE
  8
_1-8_小物
  6
CONTINUOUS
 62
    4
 10
135.9791666666664
 20
58.905833333333305
 11
137.3541666666664
 21
59.140833333333291
  0
LINE
  8
_1-8_小物
  6
CONTINUOUS
 62
    4
 10
136.16666666666652
 20
58.327580011509014
 11
135.9791666666664
 21
58.435833333333278
  0
LINE
  8
_1-8_小物
  6
CONTINUOUS
 62
    4
 10
135.9791666666664
 20
58.435833333333278
 11
136.1666666666664
 21
58.544086655157571
  0
LINE
  8
_1-8_小物
  6
CONTINUOUS
 62
    4
 10
136.16666666666652
 20
58.327580011509014
 11
137.16666666666629
 21
58.562580011508999
  0
LINE
  8
_1-8_小物
  6
CONTINUOUS
 62
    4
 10
137.3541666666664
 20
58.670833333333263
 11
137.16666666666629
 21
58.562580011508999
  0
LINE
  8
_1-8_小物
  6
CONTINUOUS
 62
    4
 10
137.16666666666629
 20
58.779086655157528
 11
137.3541666666664
 21
58.670833333333263
  0
LINE
  8
_1-8_小物
  6
CONTINUOUS
 62
    4
 10
136.1666666666664
 20
58.544086655157571
 11
137.16666666666629
 21
58.779086655157528
  0
LINE
  8
_1-8_小物
  6
CONTINUOUS
 62
    4
 10
135.9791666666664
 20
58.435833333333278
 11
137.3541666666664
 21
58.670833333333263
  0
LINE
  8
_1-8_小物
  6
CONTINUOUS
 62
    4
 10
136.16666666666652
 20
57.857580011509015
 11
135.9791666666664
 21
57.965833333333336
  0
LINE
  8
_1-8_小物
  6
CONTINUOUS
 62
    4
 10
135.9791666666664
 20
57.965833333333336
 11
136.1666666666664
 21
58.0740866551576
  0
LINE
  8
_1-8_小物
  6
CONTINUOUS
 62
    4
 10
136.16666666666652
 20
57.857580011509015
 11
137.16666666666629
 21
58.092580011509028
  0
LINE
  8
_1-8_小物
  6
CONTINUOUS
 62
    4
 10
137.3541666666664
 20
58.200833333333264
 11
137.16666666666629
 21
58.092580011509028
  0
LINE
  8
_1-8_小物
  6
CONTINUOUS
 62
    4
 10
137.16666666666629
 20
58.309086655157586
 11
137.3541666666664
 21
58.200833333333264
  0
LINE
  8
_1-8_小物
  6
CONTINUOUS
 62
    4
 10
136.1666666666664
 20
58.0740866551576
 11
137.16666666666629
 21
58.309086655157586
  0
LINE
  8
_1-8_小物
  6
CONTINUOUS
 62
    4
 10
135.9791666666664
 20
57.965833333333336
 11
137.3541666666664
 21
58.200833333333264
  0
LINE
  8
_1-8_小物
  6
CONTINUOUS
 62
    4
 10
136.16666666666652
 20
57.387580011509044
 11
135.9791666666664
 21
57.495833333333309
  0
LINE
  8
_1-8_小物
  6
CONTINUOUS
 62
    4
 10
135.9791666666664
 20
57.495833333333309
 11
136.1666666666664
 21
57.604086655157573
  0
LINE
  8
_1-8_小物
  6
CONTINUOUS
 62
    4
 10
136.16666666666652
 20
57.387580011509044
 11
137.16666666666629
 21
57.622580011509001
  0
LINE
  8
_1-8_小物
  6
CONTINUOUS
 62
    4
 10
137.3541666666664
 20
57.730833333333294
 11
137.16666666666629
 21
57.622580011509001
  0
LINE
  8
_1-8_小物
  6
CONTINUOUS
 62
    4
 10
137.16666666666629
 20
57.839086655157558
 11
137.3541666666664
 21
57.730833333333294
  0
LINE
  8
_1-8_小物
  6
CONTINUOUS
 62
    4
 10
136.1666666666664
 20
57.604086655157573
 11
137.16666666666629
 21
57.839086655157558
  0
LINE
  8
_1-8_小物
  6
CONTINUOUS
 62
    4
 10
135.9791666666664
 20
57.495833333333309
 11
137.3541666666664
 21
57.730833333333294
  0
LINE
  8
_1-8_小物
  6
CONTINUOUS
 62
    4
 10
136.16666666666652
 20
56.917580011509074
 11
135.9791666666664
 21
57.02583333333331
  0
LINE
  8
_1-8_小物
  6
CONTINUOUS
 62
    4
 10
135.9791666666664
 20
57.02583333333331
 11
136.1666666666664
 21
57.134086655157631
  0
LINE
  8
_1-8_小物
  6
CONTINUOUS
 62
    4
 10
136.16666666666652
 20
56.917580011509074
 11
137.16666666666629
 21
57.152580011509059
  0
LINE
  8
_1-8_小物
  6
CONTINUOUS
 62
    4
 10
137.3541666666664
 20
57.260833333333323
 11
137.16666666666629
 21
57.152580011509059
  0
LINE
  8
_1-8_小物
  6
CONTINUOUS
 62
    4
 10
137.16666666666629
 20
57.36908665515756
 11
137.3541666666664
 21
57.260833333333323
  0
LINE
  8
_1-8_小物
  6
CONTINUOUS
 62
    4
 10
136.1666666666664
 20
57.134086655157631
 11
137.16666666666629
 21
57.36908665515756
  0
LINE
  8
_1-8_小物
  6
CONTINUOUS
 62
    4
 10
135.9791666666664
 20
57.02583333333331
 11
137.3541666666664
 21
57.260833333333323
  0
LINE
  8
_1-8_小物
  6
CONTINUOUS
 62
    4
 10
136.16666666666652
 20
56.447580011509046
 11
135.9791666666664
 21
56.555833333333339
  0
LINE
  8
_1-8_小物
  6
CONTINUOUS
 62
    4
 10
135.9791666666664
 20
56.555833333333339
 11
136.1666666666664
 21
56.664086655157604
  0
LINE
  8
_1-8_小物
  6
CONTINUOUS
 62
    4
 10
136.16666666666652
 20
56.447580011509046
 11
137.16666666666629
 21
56.682580011509032
  0
LINE
  8
_1-8_小物
  6
CONTINUOUS
 62
    4
 10
137.3541666666664
 20
56.790833333333296
 11
137.16666666666629
 21
56.682580011509032
  0
LINE
  8
_1-8_小物
  6
CONTINUOUS
 62
    4
 10
137.16666666666629
 20
56.899086655157589
 11
137.3541666666664
 21
56.790833333333296
  0
LINE
  8
_1-8_小物
  6
CONTINUOUS
 62
    4
 10
136.1666666666664
 20
56.664086655157604
 11
137.16666666666629
 21
56.899086655157589
  0
LINE
  8
_1-8_小物
  6
CONTINUOUS
 62
    4
 10
135.9791666666664
 20
56.555833333333339
 11
137.3541666666664
 21
56.790833333333296
  0
LINE
  8
_1-8_小物
  6
CONTINUOUS
 62
    4
 10
136.16666666666652
 20
55.977580011509104
 11
135.9791666666664
 21
56.085833333333369
  0
LINE
  8
_1-8_小物
  6
CONTINUOUS
 62
    4
 10
135.9791666666664
 20
56.085833333333369
 11
136.1666666666664
 21
56.194086655157605
  0
LINE
  8
_1-8_小物
  6
CONTINUOUS
 62
    4
 10
136.16666666666652
 20
55.977580011509104
 11
137.16666666666629
 21
56.212580011509033
  0
LINE
  8
_1-8_小物
  6
CONTINUOUS
 62
    4
 10
137.3541666666664
 20
56.320833333333354
 11
137.16666666666629
 21
56.212580011509033
  0
LINE
  8
_1-8_小物
  6
CONTINUOUS
 62
    4
 10
137.16666666666629
 20
56.429086655157619
 11
137.3541666666664
 21
56.320833333333354
  0
LINE
  8
_1-8_小物
  6
CONTINUOUS
 62
    4
 10
136.1666666666664
 20
56.194086655157605
 11
137.16666666666629
 21
56.429086655157619
  0
LINE
  8
_1-8_小物
  6
CONTINUOUS
 62
    4
 10
135.9791666666664
 20
56.085833333333369
 11
137.3541666666664
 21
56.320833333333354
  0
LINE
  8
_1-8_小物
  6
CONTINUOUS
 62
    4
 10
137.16666666666629
 20
59.249086655157555
 11
137.16666666666629
 21
59.502580011508968
  0
LINE
  8
_1-8_小物
  6
CONTINUOUS
 62
    4
 10
137.16666666666629
 20
58.779086655157528
 11
137.16666666666629
 21
59.032580011508969
  0
LINE
  8
_1-8_小物
  6
CONTINUOUS
 62
    4
 10
137.16666666666629
 20
58.309086655157586
 11
137.16666666666629
 21
58.562580011508942
  0
LINE
  8
_1-8_小物
  6
CONTINUOUS
 62
    4
 10
137.16666666666629
 20
57.839086655157558
 11
137.16666666666629
 21
58.092580011509028
  0
LINE
  8
_1-8_小物
  6
CONTINUOUS
 62
    4
 10
137.16666666666629
 20
57.36908665515756
 11
137.16666666666629
 21
57.622580011509001
  0
LINE
  8
_1-8_小物
  6
CONTINUOUS
 62
    4
 10
137.16666666666629
 20
56.899086655157589
 11
137.16666666666629
 21
57.152580011509059
  0
LINE
  8
_1-8_小物
  6
CONTINUOUS
 62
    4
 10
137.16666666666629
 20
55.733333333333348
 11
137.16666666666629
 21
56.212580011509033
  0
LINE
  8
_1-8_小物
  6
CONTINUOUS
 62
    4
 10
137.16666666666629
 20
56.429086655157619
 11
137.16666666666629
 21
56.682580011509032
  0
LINE
  8
_1-8_小物
  6
CONTINUOUS
 62
    4
 10
136.16666666666652
 20
55.733333333333348
 11
136.16666666666652
 21
55.977580011509104
  0
LINE
  8
_1-8_小物
  6
CONTINUOUS
 62
    4
 10
136.16666666666652
 20
56.194086655157662
 11
136.16666666666652
 21
56.447580011509046
  0
LINE
  8
_1-8_小物
  6
CONTINUOUS
 62
    4
 10
136.16666666666652
 20
56.664086655157604
 11
136.16666666666652
 21
56.917580011509074
  0
LINE
  8
_1-8_小物
  6
CONTINUOUS
 62
    4
 10
136.16666666666652
 20
57.134086655157631
 11
136.16666666666652
 21
57.387580011509044
  0
LINE
  8
_1-8_小物
  6
CONTINUOUS
 62
    4
 10
136.16666666666652
 20
57.604086655157573
 11
136.16666666666652
 21
57.857580011509015
  0
LINE
  8
_1-8_小物
  6
CONTINUOUS
 62
    4
 10
136.16666666666652
 20
58.0740866551576
 11
136.16666666666652
 21
58.327580011509014
  0
LINE
  8
_1-8_小物
  6
CONTINUOUS
 62
    4
 10
136.16666666666652
 20
58.544086655157628
 11
136.16666666666652
 21
58.797580011509041
  0
LINE
  8
_1-8_小物
  6
CONTINUOUS
 62
    4
 10
136.0999999999998
 20
59.506666666666661
 11
136.0999999999998
 21
60.50333333333333
  0
LINE
  8
_1-8_小物
  6
CONTINUOUS
 62
    4
 10
137.23333333333289
 20
59.506666666666661
 11
136.0999999999998
 21
59.506666666666661
  0
LINE
  8
_1-8_小物
  6
CONTINUOUS
 62
    4
 10
137.23333333333289
 20
59.506666666666661
 11
137.23333333333289
 21
60.50333333333333
  0
LINE
  8
_1-8_小物
  6
CONTINUOUS
 62
    4
 10
137.23333333333289
 20
60.50333333333333
 11
136.6666666666664
 21
60.830498485874074
  0
LINE
  8
_1-8_小物
  6
CONTINUOUS
 62
    4
 10
136.0999999999998
 20
60.50333333333333
 11
136.6666666666664
 21
60.830498485874074
  0
LINE
  8
_1-8_小物
  6
CONTINUOUS
 62
    4
 10
136.6666666666664
 20
60.715028432036121
 11
136.1999999999997
 21
60.445598306414382
  0
LINE
  8
_1-8_小物
  6
CONTINUOUS
 62
    4
 10
136.1999999999997
 20
59.506666666666661
 11
136.1999999999997
 21
60.445598306414382
  0
LINE
  8
_1-8_小物
  6
CONTINUOUS
 62
    4
 10
136.6666666666664
 20
60.715028432036121
 11
136.45359988497523
 21
59.506666666666661
  0
LINE
  8
_1-8_小物
  6
CONTINUOUS
 62
    4
 10
136.16666666666652
 20
59.014086655157598
 11
136.16666666666652
 21
59.506666666666661
  0
LINE
  8
_1-8_小物
  6
CONTINUOUS
 62
    4
 10
136.6666666666664
 20
60.830498485874074
 11
136.6666666666664
 21
60.715028432036121
  0
LINE
  8
_1-8_小物
  6
CENTER2
 62
    4
 10
136.6666666666664
 20
54.833333333333314
 11
136.6666666666664
 21
61.16383181920736
  0
ENDBLK
  0
BLOCK
  2
-024-_18_
 70
   64
 10
0
 20
0
 30
0
  0
LINE
  8
_1-7_カバ__
  6
CENTER2
 62
    4
 10
82.900000000000034
 20
52.5
 11
82.900000000000034
 21
57.599999999999937
  0
ARC
  8
_1-7_カバ__
  6
CONTINUOUS
 62
    4
 10
74.733333333333348
 20
55
 40
0.5
 50
90
 51
180
  0
ARC
  8
_1-7_カバ__
  6
CONTINUOUS
 62
    4
 10
74.733333333333348
 20
55
 40
0.1666666666666666
 50
90
 51
180
  0
LINE
  8
_1-7_カバ__
  6
CONTINUOUS
 62
    4
 10
153.33333333276164
 20
59.333333333333286
 11
153.33333333276164
 21
55.666666666666629
  0
ARC
  8
_1-7_カバ__
  6
CONTINUOUS
 62
    4
 10
152.83333333276164
 20
55.666666666666629
 40
0.1666666666666666
 50
270
 51
0
  0
LINE
  8
_1-7_カバ__
  6
CONTINUOUS
 62
    4
 10
152.99999999942827
 20
59.333333333333286
 11
152.99999999942827
 21
55.666666666666629
  0
ARC
  8
_1-7_カバ__
  6
CONTINUOUS
 62
    4
 10
152.83333333276164
 20
59.333333333333286
 40
0.1666666666666666
 50
0
 51
90
  0
ARC
  8
_1-7_カバ__
  6
CONTINUOUS
 62
    4
 10
152.83333333276164
 20
55.666666666666629
 40
0.5
 50
270
 51
0
  0
ARC
  8
_1-7_カバ__
  6
CONTINUOUS
 62
    4
 10
152.83333333276164
 20
59.333333333333286
 40
0.5
 50
0
 51
90
  0
LINE
  8
_1-7_カバ__
  6
CONTINUOUS
 62
    4
 10
149.99999999942844
 20
59.833333333333286
 11
149.99999999942844
 21
59.5
  0
LINE
  8
_1-7_カバ__
  6
CONTINUOUS
 62
    4
 10
152.83333333276164
 20
59.833333333333286
 11
149.99999999942844
 21
59.833333333333286
  0
LINE
  8
_1-7_カバ__
  6
CONTINUOUS
 62
    4
 10
152.83333333276164
 20
59.5
 11
149.99999999942844
 21
59.5
  0
LINE
  8
_1-7_カバ__
  6
CENTER2
 62
    4
 10
136.66666666609495
 20
52.5
 11
136.66666666609495
 21
57.599999999999937
  0
LINE
  8
_1-7_カバ__
  6
CONTINUOUS
 62
    4
 10
74.733333333333348
 20
55.166666666666629
 11
152.83333333276164
 21
55.166666666666629
  0
LINE
  8
_1-7_カバ__
  6
CONTINUOUS
 62
    4
 10
74.733333333333348
 20
55.5
 11
152.83333333276164
 21
55.5
  0
LINE
  8
_1-7_カバ__
  6
CONTINUOUS
 62
    4
 10
70.399999999999864
 20
39.733333333333263
 11
74.066666666666663
 21
39.733333333333263
  0
ARC
  8
_1-7_カバ__
  6
CONTINUOUS
 62
    4
 10
70.399999999999864
 20
40.233333333333263
 40
0.5
 50
180
 51
270
  0
ARC
  8
_1-7_カバ__
  6
CONTINUOUS
 62
    4
 10
74.066666666666663
 20
40.233333333333263
 40
0.5
 50
270
 51
0
  0
ARC
  8
_1-7_カバ__
  6
CONTINUOUS
 62
    4
 10
70.399999999999864
 20
40.233333333333263
 40
0.1666666666666666
 50
180
 51
270
  0
LINE
  8
_1-7_カバ__
  6
CONTINUOUS
 62
    4
 10
70.399999999999864
 20
40.066666666666634
 11
74.066666666666663
 21
40.066666666666634
  0
ARC
  8
_1-7_カバ__
  6
CONTINUOUS
 62
    4
 10
74.066666666666663
 20
40.233333333333263
 40
0.1666666666666666
 50
270
 51
0
  0
LINE
  8
_1-7_カバ__
  6
CONTINUOUS
 62
    4
 10
69.899999999999864
 20
43.066666666666634
 11
70.233333333333178
 21
43.066666666666634
  0
LINE
  8
_1-7_カバ__
  6
CONTINUOUS
 62
    4
 10
69.899999999999864
 20
40.233333333333263
 11
69.899999999999864
 21
43.066666666666634
  0
LINE
  8
_1-7_カバ__
  6
CONTINUOUS
 62
    4
 10
70.233333333333178
 20
40.233333333333263
 11
70.233333333333178
 21
43.066666666666634
  0
LINE
  8
_1-7_カバ__
  6
CONTINUOUS
 62
    4
 10
74.566666666666663
 20
40.233333333333263
 11
74.566666666666663
 21
54.999987294148241
  0
LINE
  8
_1-7_カバ__
  6
CONTINUOUS
 62
    4
 10
74.233333333333348
 20
40.233333333333263
 11
74.233333333333348
 21
54.999987294148241
  0
LINE
  8
_1-7_カバ__
  6
DASHED1
 62
    4
 10
137.41666666609495
 20
55.5
 11
137.74999999942827
 21
55.166666666666629
  0
LINE
  8
_1-7_カバ__
  6
DASHED1
 62
    4
 10
135.91666666609495
 20
55.5
 11
135.58333333276164
 21
55.166666666666629
  0
LINE
  8
_1-7_カバ__
  6
DASHED1
 62
    4
 10
83.650000000000034
 20
55.5
 11
83.983333333333348
 21
55.166666666666629
  0
LINE
  8
_1-7_カバ__
  6
DASHED1
 62
    4
 10
82.150000000000034
 20
55.5
 11
81.816666666666663
 21
55.166666666666629
  0
ENDBLK
  0
BLOCK
  2
-025-_19_
 70
   64
 10
0
 20
0
 30
0
  0
ARC
  8
_1-8_小物
  6
CONTINUOUS
 62
    4
 10
69.999999999999886
 20
43.066666666666634
 40
0.0999999999999999
 50
90
 51
180
  0
LINE
  8
_1-8_小物
  6
CONTINUOUS
 62
    4
 10
69.233333333333121
 20
40.233333333333348
 11
68.77426594671158
 21
40.233333333333348
  0
ARC
  8
_1-8_小物
  6
CONTINUOUS
 62
    4
 10
69.233333333333121
 20
40.399999999999977
 40
0.1666666666666666
 50
270
 51
0
  0
LINE
  8
_1-8_小物
  6
CONTINUOUS
 62
    4
 10
69.233333333333121
 20
39.733333333333348
 11
68.733333333333121
 21
39.733333333333348
  0
ARC
  8
_1-8_小物
  6
CONTINUOUS
 62
    4
 10
69.233333333333121
 20
40.399999999999977
 40
0.6666666666666666
 50
270
 51
0
  0
LINE
  8
_1-8_小物
  6
CONTINUOUS
 62
    4
 10
69.399999999999864
 20
40.399999999999977
 11
69.399999999999864
 21
43
  0
ARC
  8
_1-8_小物
  6
CONTINUOUS
 62
    4
 10
69.899999999999864
 20
43
 40
0.5
 50
90
 51
180
  0
ARC
  8
_1-8_小物
  6
CONTINUOUS
 62
    4
 10
66.274662926789347
 20
40.645355809144689
 40
0.4999999999999946
 50
100.6398091980884
 51
260.6398091980854
  0
LINE
  8
_1-8_小物
  6
CONTINUOUS
 62
    4
 10
68.77426594671158
 20
40.233333333333348
 11
66.46118862630442
 21
40.614609814719103
  0
ARC
  8
_1-8_小物
  6
CONTINUOUS
 62
    4
 10
66.466609974670405
 20
40.647499328139133
 40
0.0333333333333333
 50
100.63980919817185
 51
260.63980919800883
  0
ARC
  8
_1-8_小物
  6
CONTINUOUS
 62
    4
 10
67.457013491761131
 20
41.121850448685251
 40
0.25
 50
280.63980919808779
 51
100.63980919808665
  0
LINE
  8
_1-8_小物
  6
CONTINUOUS
 62
    4
 10
67.410854928963772
 20
41.367552274239074
 11
66.182345801194629
 21
41.136759460252307
  0
LINE
  8
_1-8_小物
  6
CONTINUOUS
 62
    4
 10
68.733333333333121
 20
39.733333333333348
 11
66.193342701300253
 21
40.152013107844255
  0
LINE
  8
_1-8_小物
  6
CONTINUOUS
 62
    4
 10
69.899999999999864
 20
40.399999999999977
 11
69.899999999999864
 21
43.066666666666634
  0
ARC
  8
_1-8_小物
  6
CONTINUOUS
 62
    4
 10
70.6410514467957
 20
41.211776776075027
 40
0.1666666666666666
 50
177.28051796004215
 51
267.28051796003189
  0
ARC
  8
_1-8_小物
  6
CONTINUOUS
 62
    4
 10
70.466664797451813
 20
41.053205492148237
 40
0.3333333333333333
 50
177.2805179600368
 51
267.28051796003172
  0
LINE
  8
_1-8_小物
  6
CONTINUOUS
 62
    4
 10
70.450849432034715
 20
40.720247558877645
 11
70.783807365305279
 21
40.704432193460548
  0
ARC
  8
_1-8_小物
  6
CONTINUOUS
 62
    4
 10
70.791715048013884
 20
40.870911160095858
 40
0.1666666666666666
 50
267.28051796003189
 51
87.280517960051441
  0
LINE
  8
_1-8_小物
  6
CONTINUOUS
 62
    4
 10
70.633143764087094
 20
41.045297809439717
 11
70.799622730722376
 21
41.03739012673114
  0
LINE
  8
_1-8_小物
  6
CONTINUOUS
 62
    4
 10
70.128481474681053
 20
43.166666666666657
 11
69.999999999999886
 21
43.166666666666657
  0
LINE
  8
_1-8_小物
  6
CONTINUOUS
 62
    4
 10
70.474572480160418
 20
41.219684458783519
 11
70.566302113976008
 21
43.150851301249645
  0
LINE
  8
_1-8_小物
  6
CONTINUOUS
 62
    4
 10
70.23334418070533
 20
43.5
 11
69.899999999999864
 21
43.5
  0
ARC
  8
_1-8_小物
  6
CONTINUOUS
 62
    4
 10
70.128481474681053
 20
43.066666666666634
 40
0.0999999999999999
 50
357.28051796006076
 51
90
  0
ARC
  8
_1-8_小物
  6
CONTINUOUS
 62
    4
 10
70.23334418070533
 20
43.166666666666657
 40
0.3333333333333333
 50
357.28051796003632
 51
90
  0
LINE
  8
_1-8_小物
  6
CONTINUOUS
 62
    4
 10
70.133706864181249
 20
41.069020857565306
 11
70.228368854662108
 21
43.061922057041556
  0
LINE
  8
_1-8_小物
  6
CONTINUOUS
 62
    4
 10
67.50317205455849
 20
40.8761486231314
 11
66.460455499630712
 21
40.680259571546344
  0
ENDBLK
  0
BLOCK
  2
-026-_20_
 70
   64
 10
0
 20
0
 30
0
  0
ARC
  8
_1-8_小物
  6
CONTINUOUS
 62
    4
 10
149.99999999942844
 20
59.733333333333292
 40
0.0999999999999999
 50
90
 51
180
  0
LINE
  8
_1-8_小物
  6
CONTINUOUS
 62
    4
 10
152.8333333327617
 20
60.5
 11
152.8333333327617
 21
60.959067386621598
  0
ARC
  8
_1-8_小物
  6
CONTINUOUS
 62
    4
 10
152.66666666609501
 20
60.5
 40
0.1666666666666666
 50
270
 51
0
  0
LINE
  8
_1-8_小物
  6
CONTINUOUS
 62
    4
 10
153.3333333327617
 20
60.5
 11
153.3333333327617
 21
61
  0
ARC
  8
_1-8_小物
  6
CONTINUOUS
 62
    4
 10
152.66666666609501
 20
60.5
 40
0.6666666666666666
 50
270
 51
0
  0
LINE
  8
_1-8_小物
  6
CONTINUOUS
 62
    4
 10
152.66666666609501
 20
60.333333333333314
 11
150.06666666609505
 21
60.333333333333314
  0
ARC
  8
_1-8_小物
  6
CONTINUOUS
 62
    4
 10
150.06666666609505
 20
59.833333333333314
 40
0.5
 50
90
 51
180
  0
ARC
  8
_1-8_小物
  6
CONTINUOUS
 62
    4
 10
152.4213108569503
 20
63.458670406543831
 40
0.4999999999999946
 50
9.3601908019113864
 51
169.36019080191099
  0
LINE
  8
_1-8_小物
  6
CONTINUOUS
 62
    4
 10
152.8333333327617
 20
60.959067386621598
 11
152.45205685137591
 21
63.27214470702873
  0
ARC
  8
_1-8_小物
  6
CONTINUOUS
 62
    4
 10
152.41916733795586
 20
63.266723358662773
 40
0.0333333333333333
 50
9.3601908019350457
 51
169.36019080189422
  0
ARC
  8
_1-8_小物
  6
CONTINUOUS
 62
    4
 10
151.94481621740977
 20
62.276319841572047
 40
0.25
 50
169.3601908019198
 51
349.3601908019134
  0
LINE
  8
_1-8_小物
  6
CONTINUOUS
 62
    4
 10
151.69911439185591
 20
62.322478404369377
 11
151.92990720584277
 21
63.550987532138549
  0
LINE
  8
_1-8_小物
  6
CONTINUOUS
 62
    4
 10
153.3333333327617
 20
61
 11
152.91465355825073
 21
63.539990632032897
  0
LINE
  8
_1-8_小物
  6
CONTINUOUS
 62
    4
 10
152.66666666609501
 20
59.833333333333314
 11
149.99999999942844
 21
59.833333333333314
  0
ARC
  8
_1-8_小物
  6
CONTINUOUS
 62
    4
 10
151.85488989001999
 20
59.092281886537478
 40
0.1666666666666666
 50
2.7194820399676121
 51
92.719482039967616
  0
ARC
  8
_1-8_小物
  6
CONTINUOUS
 62
    4
 10
152.01346117394684
 20
59.266668535881337
 40
0.3333333333333333
 50
2.719482039963196
 51
92.71948203995855
  0
LINE
  8
_1-8_小物
  6
CONTINUOUS
 62
    4
 10
152.3464191072174
 20
59.282483901298406
 11
152.36223447263444
 21
58.949525968027842
  0
ARC
  8
_1-8_小物
  6
CONTINUOUS
 62
    4
 10
152.19575550599922
 20
58.941618285319265
 40
0.1666666666666666
 50
182.71948203995782
 51
2.7194820399578816
  0
LINE
  8
_1-8_小物
  6
CONTINUOUS
 62
    4
 10
152.02136885665533
 20
59.100189569246027
 11
152.02927653936388
 21
58.933710602610773
  0
LINE
  8
_1-8_小物
  6
CONTINUOUS
 62
    4
 10
149.89999999942836
 20
59.604851858652125
 11
149.89999999942836
 21
59.733333333333292
  0
LINE
  8
_1-8_小物
  6
CONTINUOUS
 62
    4
 10
151.8469822073115
 20
59.25876085317276
 11
149.91581536484534
 21
59.16703121935717
  0
LINE
  8
_1-8_小物
  6
CONTINUOUS
 62
    4
 10
149.56666666609505
 20
59.499989152627791
 11
149.56666666609505
 21
59.833333333333314
  0
ARC
  8
_1-8_小物
  6
CONTINUOUS
 62
    4
 10
149.99999999942844
 20
59.604851858652125
 40
0.0999999999999999
 50
180
 51
272.71948203992298
  0
ARC
  8
_1-8_小物
  6
CONTINUOUS
 62
    4
 10
149.89999999942836
 20
59.499989152627791
 40
0.3333333333333333
 50
180
 51
272.71948203997789
  0
LINE
  8
_1-8_小物
  6
CONTINUOUS
 62
    4
 10
151.99764580852968
 20
59.5996264691519
 11
150.00474460905349
 21
59.504964478671013
  0
LINE
  8
_1-8_小物
  6
CONTINUOUS
 62
    4
 10
152.19051804296362
 20
62.230161278774659
 11
152.38640709454864
 21
63.272877833702438
  0
ENDBLK
  0
BLOCK
  2
-027-_21_
 70
   64
 10
0
 20
0
 30
0
  0
LINE
  8
_0-0_図面枠
  6
CONTINUOUS
 62
    7
 10
-24.810007453201877
 20
116.25002701811366
 11
-24.279677367301872
 21
116.55618006006364
  0
LINE
  8
_0-0_図面枠
  6
CONTINUOUS
 62
    7
 10
-25.715874111051846
 20
118.20168690416364
 11
-24.810007453201877
 21
116.25002701811366
  0
LINE
  8
_0-0_図面枠
  6
CONTINUOUS
 62
    7
 10
-22.335133719051839
 20
117.67874121381362
 11
-25.715874111051846
 21
118.20168690416364
  0
LINE
  8
_0-0_図面枠
  6
CONTINUOUS
 62
    7
 10
-22.865463804951844
 20
117.37258817186364
 11
-22.335133719051839
 21
117.67874121381362
  0
LINE
  8
_0-0_図面枠
  6
CONTINUOUS
 62
    7
 10
-18.269269727201845
 20
114.71926180846367
 11
-22.865463804951844
 21
117.37258817186364
  0
LINE
  8
_0-0_図面枠
  6
CONTINUOUS
 62
    7
 10
-13.673075649501868
 20
117.37258817186364
 11
-18.269269727201845
 21
114.71926180846367
  0
LINE
  8
_0-0_図面枠
  6
CONTINUOUS
 62
    7
 10
-14.203405735401873
 20
117.67874121381362
 11
-13.673075649501868
 21
117.37258817186364
  0
LINE
  8
_0-0_図面枠
  6
CONTINUOUS
 62
    7
 10
-10.822665343401866
 20
118.20168690416364
 11
-14.203405735401873
 21
117.67874121381362
  0
LINE
  8
_0-0_図面枠
  6
CONTINUOUS
 62
    7
 10
-11.728532001251835
 20
116.25002701811366
 11
-10.822665343401866
 21
118.20168690416364
  0
LINE
  8
_0-0_図面枠
  6
CONTINUOUS
 62
    7
 10
-12.25886208715184
 20
116.55618006006364
 11
-11.728532001251835
 21
116.25002701811366
  0
LINE
  8
_0-0_図面枠
  6
CONTINUOUS
 62
    7
 10
-16.855056164851874
 20
113.90285369661365
 11
-12.25886208715184
 21
116.55618006006364
  0
LINE
  8
_0-0_図面枠
  6
CONTINUOUS
 62
    7
 10
-12.25886208715184
 20
111.24952733321368
 11
-16.855056164851874
 21
113.90285369661365
  0
LINE
  8
_0-0_図面枠
  6
CONTINUOUS
 62
    7
 10
-11.728532001251835
 20
111.55568037516366
 11
-12.25886208715184
 21
111.24952733321368
  0
LINE
  8
_0-0_図面枠
  6
CONTINUOUS
 62
    7
 10
-10.822665343401866
 20
109.60402048906366
 11
-11.728532001251835
 21
111.55568037516366
  0
LINE
  8
_0-0_図面枠
  6
CONTINUOUS
 62
    7
 10
-14.203405735401873
 20
110.12696617946364
 11
-10.822665343401866
 21
109.60402048906366
  0
LINE
  8
_0-0_図面枠
  6
CONTINUOUS
 62
    7
 10
-13.673075649501868
 20
110.43311922141368
 11
-14.203405735401873
 21
110.12696617946364
  0
LINE
  8
_0-0_図面枠
  6
CONTINUOUS
 62
    7
 10
-18.269269727201845
 20
113.08644558481365
 11
-13.673075649501868
 21
110.43311922141368
  0
LINE
  8
_0-0_図面枠
  6
CONTINUOUS
 62
    7
 10
-22.865463804951844
 20
110.43311922141368
 11
-18.269269727201845
 21
113.08644558481365
  0
LINE
  8
_0-0_図面枠
  6
CONTINUOUS
 62
    7
 10
-22.335133719051839
 20
110.12696617946364
 11
-22.865463804951844
 21
110.43311922141368
  0
LINE
  8
_0-0_図面枠
  6
CONTINUOUS
 62
    7
 10
-25.715874111051846
 20
109.60402048906366
 11
-22.335133719051839
 21
110.12696617946364
  0
LINE
  8
_0-0_図面枠
  6
CONTINUOUS
 62
    7
 10
-24.810007453201877
 20
111.55568037516366
 11
-25.715874111051846
 21
109.60402048906366
  0
LINE
  8
_0-0_図面枠
  6
CONTINUOUS
 62
    7
 10
-24.279677367301872
 20
111.24952733321368
 11
-24.810007453201877
 21
111.55568037516366
  0
LINE
  8
_0-0_図面枠
  6
CONTINUOUS
 62
    7
 10
-19.683483289601838
 20
113.90285369661365
 11
-24.279677367301872
 21
111.24952733321368
  0
LINE
  8
_0-0_図面枠
  6
CONTINUOUS
 62
    7
 10
-24.279677367301872
 20
116.55618006006364
 11
-19.683483289601838
 21
113.90285369661365
  0
LINE
  8
_0-0_図面枠
  6
CONTINUOUS
 62
    7
 10
-10.822665343401866
 20
118.20168690416364
 11
-10.822665343401866
 21
118.81409251311368
  0
LINE
  8
_0-0_図面枠
  6
CONTINUOUS
 62
    7
 10
-14.203405735401873
 20
117.67874121381362
 11
-14.203405735401873
 21
118.29114682271364
  0
LINE
  8
_0-0_図面枠
  6
CONTINUOUS
 62
    7
 10
-10.822665343401866
 20
118.81409251311368
 11
-14.203405735401873
 21
118.29114682271364
  0
LINE
  8
_0-0_図面枠
  6
CONTINUOUS
 62
    7
 10
-22.335133719051839
 20
117.67874121381362
 11
-22.335133719051839
 21
118.29114682271364
  0
LINE
  8
_0-0_図面枠
  6
CONTINUOUS
 62
    7
 10
-25.715874111051846
 20
118.20168690416364
 11
-25.715874111051846
 21
118.81409251311368
  0
LINE
  8
_0-0_図面枠
  6
CONTINUOUS
 62
    7
 10
-22.335133719051839
 20
118.29114682271364
 11
-25.715874111051846
 21
118.81409251311368
  0
LINE
  8
_0-0_図面枠
  6
CONTINUOUS
 62
    7
 10
-18.269269727201845
 20
114.71926180846367
 11
-18.269269727201845
 21
115.33166741736363
  0
LINE
  8
_0-0_図面枠
  6
CONTINUOUS
 62
    7
 10
-14.203405735401873
 20
117.67884073886364
 11
-18.269269727201845
 21
115.33166741736363
  0
LINE
  8
_0-0_図面枠
  6
CONTINUOUS
 62
    7
 10
-18.269269727201845
 20
115.33166741736363
 11
-22.335133719051839
 21
117.67884073886364
  0
LINE
  8
_0-0_図面枠
  6
CONTINUOUS
 62
    7
 10
-12.25886208715184
 20
111.24952733321368
 11
-12.25886208715184
 21
111.86193294211364
  0
LINE
  8
_0-0_図面枠
  6
CONTINUOUS
 62
    7
 10
-12.25886208715184
 20
111.86193294211364
 11
-16.324639878401854
 21
114.20905650111365
  0
LINE
  8
_0-0_図面枠
  6
CONTINUOUS
 62
    7
 10
-24.279677367301872
 20
111.24952733321368
 11
-24.279677367301872
 21
111.86193294211364
  0
LINE
  8
_0-0_図面枠
  6
CONTINUOUS
 62
    7
 10
-20.213899576051858
 20
114.20905650111365
 11
-24.279677367301872
 21
111.86193294211364
  0
LINE
  8
_0-0_図面枠
  6
CONTINUOUS
 62
    7
 10
-24.810007453201877
 20
111.55568037516366
 11
-24.810007453201877
 21
112.16808598406362
  0
LINE
  8
_0-0_図面枠
  6
CONTINUOUS
 62
    7
 10
-24.279677367301872
 20
111.86193294211364
 11
-24.810007453201877
 21
112.16808598406362
  0
LINE
  8
_0-0_図面枠
  6
CONTINUOUS
 62
    7
 10
-25.715874111051846
 20
109.60402048906366
 11
-25.715874111051846
 21
110.21642609801364
  0
LINE
  8
_0-0_図面枠
  6
CONTINUOUS
 62
    7
 10
-24.810007453201877
 20
112.16808598406362
 11
-25.715874111051846
 21
110.21642609801364
  0
LINE
  8
_0-0_図面枠
  6
CONTINUOUS
 62
    7
 10
-11.728532001251835
 20
111.55568037516366
 11
-11.728532001251835
 21
112.16808598406362
  0
LINE
  8
_0-0_図面枠
  6
CONTINUOUS
 62
    7
 10
-11.728532001251835
 20
112.16808598406362
 11
-12.25886208715184
 21
111.86193294211364
  0
LINE
  8
_0-0_図面枠
  6
CONTINUOUS
 62
    7
 10
-10.822665343401866
 20
109.60402048906366
 11
-10.822665343401866
 21
110.21642609801364
  0
LINE
  8
_0-0_図面枠
  6
CONTINUOUS
 62
    7
 10
-10.822665343401866
 20
110.21642609801364
 11
-11.728532001251835
 21
112.16808598406362
  0
LINE
  8
_0-0_図面枠
  6
CONTINUOUS
 62
    7
 10
-22.335133719051839
 20
110.12696617946364
 11
-22.335133719051839
 21
110.73927226331364
  0
LINE
  8
_0-0_図面枠
  6
CONTINUOUS
 62
    7
 10
-14.203405735401873
 20
110.12696617946364
 11
-14.203405735401873
 21
110.73927226331364
  0
LINE
  8
ADD_LINE
  6
DOT
 62
    4
 10
-25.715874111051846
 20
118.20168690416364
 11
-10.823068770943905
 21
109.60332173206365
  0
LINE
  8
ADD_LINE
  6
DOT
 62
    4
 10
-10.822665343401866
 20
118.20168690416364
 11
-25.715470683509807
 21
109.60332173206365
  0
ENDBLK
  0
BLOCK
  2
-028-_22_
 70
   64
 10
0
 20
0
 30
0
  0
LINE
  8
_0-0_図面枠
  6
CONTINUOUS
 62
    7
 10
175.96987275189582
 20
116.61597708416326
 11
176.50020283779583
 21
116.92213012611325
  0
LINE
  8
_0-0_図面枠
  6
CONTINUOUS
 62
    7
 10
175.06400609404585
 20
118.56763697021324
 11
175.96987275189582
 21
116.61597708416326
  0
LINE
  8
_0-0_図面枠
  6
CONTINUOUS
 62
    7
 10
178.44474648604586
 20
118.04469127986323
 11
175.06400609404585
 21
118.56763697021324
  0
LINE
  8
_0-0_図面枠
  6
CONTINUOUS
 62
    7
 10
177.91441640014585
 20
117.73853823791325
 11
178.44474648604586
 21
118.04469127986323
  0
LINE
  8
_0-0_図面枠
  6
CONTINUOUS
 62
    7
 10
182.51061047789585
 20
115.08521187451328
 11
177.91441640014585
 21
117.73853823791325
  0
LINE
  8
_0-0_図面枠
  6
CONTINUOUS
 62
    7
 10
187.10680455559583
 20
117.73853823791325
 11
182.51061047789585
 21
115.08521187451328
  0
LINE
  8
_0-0_図面枠
  6
CONTINUOUS
 62
    7
 10
186.57647446969582
 20
118.04469127986323
 11
187.10680455559583
 21
117.73853823791325
  0
LINE
  8
_0-0_図面枠
  6
CONTINUOUS
 62
    7
 10
189.95721486169583
 20
118.56763697021324
 11
186.57647446969582
 21
118.04469127986323
  0
LINE
  8
_0-0_図面枠
  6
CONTINUOUS
 62
    7
 10
189.05134820384586
 20
116.61597708416326
 11
189.95721486169583
 21
118.56763697021324
  0
LINE
  8
_0-0_図面枠
  6
CONTINUOUS
 62
    7
 10
188.52101811794586
 20
116.92213012611325
 11
189.05134820384586
 21
116.61597708416326
  0
LINE
  8
_0-0_図面枠
  6
CONTINUOUS
 62
    7
 10
183.92482404024582
 20
114.26880376266325
 11
188.52101811794586
 21
116.92213012611325
  0
LINE
  8
_0-0_図面枠
  6
CONTINUOUS
 62
    7
 10
188.52101811794586
 20
111.61547739926328
 11
183.92482404024582
 21
114.26880376266325
  0
LINE
  8
_0-0_図面枠
  6
CONTINUOUS
 62
    7
 10
189.05134820384586
 20
111.92163044121327
 11
188.52101811794586
 21
111.61547739926328
  0
LINE
  8
_0-0_図面枠
  6
CONTINUOUS
 62
    7
 10
189.95721486169583
 20
109.96997055511326
 11
189.05134820384586
 21
111.92163044121327
  0
LINE
  8
_0-0_図面枠
  6
CONTINUOUS
 62
    7
 10
186.57647446969582
 20
110.49291624551324
 11
189.95721486169583
 21
109.96997055511326
  0
LINE
  8
_0-0_図面枠
  6
CONTINUOUS
 62
    7
 10
187.10680455559583
 20
110.79906928746328
 11
186.57647446969582
 21
110.49291624551324
  0
LINE
  8
_0-0_図面枠
  6
CONTINUOUS
 62
    7
 10
182.51061047789585
 20
113.45239565086325
 11
187.10680455559583
 21
110.79906928746328
  0
LINE
  8
_0-0_図面枠
  6
CONTINUOUS
 62
    7
 10
177.91441640014585
 20
110.79906928746328
 11
182.51061047789585
 21
113.45239565086325
  0
LINE
  8
_0-0_図面枠
  6
CONTINUOUS
 62
    7
 10
178.44474648604586
 20
110.49291624551324
 11
177.91441640014585
 21
110.79906928746328
  0
LINE
  8
_0-0_図面枠
  6
CONTINUOUS
 62
    7
 10
175.06400609404585
 20
109.96997055511326
 11
178.44474648604586
 21
110.49291624551324
  0
LINE
  8
_0-0_図面枠
  6
CONTINUOUS
 62
    7
 10
175.96987275189582
 20
111.92163044121327
 11
175.06400609404585
 21
109.96997055511326
  0
LINE
  8
_0-0_図面枠
  6
CONTINUOUS
 62
    7
 10
176.50020283779583
 20
111.61547739926328
 11
175.96987275189582
 21
111.92163044121327
  0
LINE
  8
_0-0_図面枠
  6
CONTINUOUS
 62
    7
 10
181.09639691549586
 20
114.26880376266325
 11
176.50020283779583
 21
111.61547739926328
  0
LINE
  8
_0-0_図面枠
  6
CONTINUOUS
 62
    7
 10
176.50020283779583
 20
116.92213012611325
 11
181.09639691549586
 21
114.26880376266325
  0
LINE
  8
_0-0_図面枠
  6
CONTINUOUS
 62
    7
 10
189.95721486169583
 20
118.56763697021324
 11
189.95721486169583
 21
119.18004257916328
  0
LINE
  8
_0-0_図面枠
  6
CONTINUOUS
 62
    7
 10
186.57647446969582
 20
118.04469127986323
 11
186.57647446969582
 21
118.65709688876325
  0
LINE
  8
_0-0_図面枠
  6
CONTINUOUS
 62
    7
 10
189.95721486169583
 20
119.18004257916328
 11
186.57647446969582
 21
118.65709688876325
  0
LINE
  8
_0-0_図面枠
  6
CONTINUOUS
 62
    7
 10
178.44474648604586
 20
118.04469127986323
 11
178.44474648604586
 21
118.65709688876325
  0
LINE
  8
_0-0_図面枠
  6
CONTINUOUS
 62
    7
 10
175.06400609404585
 20
118.56763697021324
 11
175.06400609404585
 21
119.18004257916328
  0
LINE
  8
_0-0_図面枠
  6
CONTINUOUS
 62
    7
 10
178.44474648604586
 20
118.65709688876325
 11
175.06400609404585
 21
119.18004257916328
  0
LINE
  8
_0-0_図面枠
  6
CONTINUOUS
 62
    7
 10
182.51061047789585
 20
115.08521187451328
 11
182.51061047789585
 21
115.69761748341324
  0
LINE
  8
_0-0_図面枠
  6
CONTINUOUS
 62
    7
 10
186.57647446969582
 20
118.04479080491325
 11
182.51061047789585
 21
115.69761748341324
  0
LINE
  8
_0-0_図面枠
  6
CONTINUOUS
 62
    7
 10
182.51061047789585
 20
115.69761748341324
 11
178.44474648604586
 21
118.04479080491325
  0
LINE
  8
_0-0_図面枠
  6
CONTINUOUS
 62
    7
 10
188.52101811794586
 20
111.61547739926328
 11
188.52101811794586
 21
112.22788300816325
  0
LINE
  8
_0-0_図面枠
  6
CONTINUOUS
 62
    7
 10
188.52101811794586
 20
112.22788300816325
 11
184.45524032669584
 21
114.57500656716326
  0
LINE
  8
_0-0_図面枠
  6
CONTINUOUS
 62
    7
 10
176.50020283779583
 20
111.61547739926328
 11
176.50020283779583
 21
112.22788300816325
  0
LINE
  8
_0-0_図面枠
  6
CONTINUOUS
 62
    7
 10
180.56598062904584
 20
114.57500656716326
 11
176.50020283779583
 21
112.22788300816325
  0
LINE
  8
_0-0_図面枠
  6
CONTINUOUS
 62
    7
 10
175.96987275189582
 20
111.92163044121327
 11
175.96987275189582
 21
112.53403605011323
  0
LINE
  8
_0-0_図面枠
  6
CONTINUOUS
 62
    7
 10
176.50020283779583
 20
112.22788300816325
 11
175.96987275189582
 21
112.53403605011323
  0
LINE
  8
_0-0_図面枠
  6
CONTINUOUS
 62
    7
 10
175.06400609404585
 20
109.96997055511326
 11
175.06400609404585
 21
110.58237616406325
  0
LINE
  8
_0-0_図面枠
  6
CONTINUOUS
 62
    7
 10
175.96987275189582
 20
112.53403605011323
 11
175.06400609404585
 21
110.58237616406325
  0
LINE
  8
_0-0_図面枠
  6
CONTINUOUS
 62
    7
 10
189.05134820384586
 20
111.92163044121327
 11
189.05134820384586
 21
112.53403605011323
  0
LINE
  8
_0-0_図面枠
  6
CONTINUOUS
 62
    7
 10
189.05134820384586
 20
112.53403605011323
 11
188.52101811794586
 21
112.22788300816325
  0
LINE
  8
_0-0_図面枠
  6
CONTINUOUS
 62
    7
 10
189.95721486169583
 20
109.96997055511326
 11
189.95721486169583
 21
110.58237616406325
  0
LINE
  8
_0-0_図面枠
  6
CONTINUOUS
 62
    7
 10
189.95721486169583
 20
110.58237616406325
 11
189.05134820384586
 21
112.53403605011323
  0
LINE
  8
_0-0_図面枠
  6
CONTINUOUS
 62
    7
 10
178.44474648604586
 20
110.49291624551324
 11
178.44474648604586
 21
111.10522232936324
  0
LINE
  8
_0-0_図面枠
  6
CONTINUOUS
 62
    7
 10
186.57647446969582
 20
110.49291624551324
 11
186.57647446969582
 21
111.10522232936324
  0
LINE
  8
ADD_LINE
  6
DOT
 62
    4
 10
175.06400609404585
 20
118.56763697021324
 11
189.95681143415379
 21
109.96927179811325
  0
LINE
  8
ADD_LINE
  6
DOT
 62
    4
 10
189.95721486169583
 20
118.56763697021324
 11
175.06440952158789
 21
109.96927179811325
  0
ENDBLK
  0
ENDSEC
  0
SECTION
  2
ENTITIES
  0
LINE
  8
_0-0_図面枠
  6
CONTINUOUS
 62
    6
 10
410.00000000000006
 20
287
 11
10
 21
287.00000000000006
  0
LINE
  8
_0-0_図面枠
  6
CONTINUOUS
 62
    6
 10
410
 20
9.9999999999998863
 11
410.00000000000006
 21
287
  0
LINE
  8
_0-0_図面枠
  6
CONTINUOUS
 62
    6
 10
9.9999999999999147
 20
10
 11
410
 21
9.9999999999998863
  0
LINE
  8
_0-0_図面枠
  6
CONTINUOUS
 62
    6
 10
10
 20
287.00000000000006
 11
9.9999999999999147
 21
10
  0
LINE
  8
ADD_LINE
  6
DOT
 62
    4
 10
0
 20
148.5
 11
420
 21
148.5
  0
LINE
  8
_0-0_図面枠
  6
CONTINUOUS
 62
    6
 10
210
 20
287
 11
210.00000000000003
 21
9.9999999999999432
  0
LINE
  8
_0-0_図面枠
  6
CONTINUOUS
 62
    4
 10
182.14999999999998
 20
50.199999999999974
 11
40
 21
50.199999999999974
  0
LINE
  8
_0-0_図面枠
  6
CONTINUOUS
 62
    4
 10
182.14999999999998
 20
62.199999999999974
 11
40
 21
62.199999999999974
  0
LINE
  8
_0-0_図面枠
  6
CONTINUOUS
 62
    4
 10
182.14999999999998
 20
56.199999999999974
 11
40
 21
56.199999999999974
  0
LINE
  8
_0-0_図面枠
  6
CONTINUOUS
 62
    4
 10
182.14999999999998
 20
68.199999999999974
 11
40
 21
68.199999999999974
  0
LINE
  8
_0-0_図面枠
  6
CONTINUOUS
 62
    4
 10
182.14999999999998
 20
104.20000000000003
 11
40
 21
104.20000000000003
  0
LINE
  8
_0-0_図面枠
  6
CONTINUOUS
 62
    4
 10
182.14999999999998
 20
98.200000000000031
 11
40
 21
98.200000000000031
  0
LINE
  8
_0-0_図面枠
  6
CONTINUOUS
 62
    4
 10
182.14999999999998
 20
92.200000000000031
 11
40
 21
92.200000000000031
  0
LINE
  8
_0-0_図面枠
  6
CONTINUOUS
 62
    4
 10
182.14999999999998
 20
86.200000000000031
 11
40
 21
86.200000000000031
  0
LINE
  8
_0-0_図面枠
  6
CONTINUOUS
 62
    4
 10
182.14999999999998
 20
80.200000000000031
 11
40
 21
80.200000000000031
  0
LINE
  8
_0-0_図面枠
  6
CONTINUOUS
 62
    4
 10
182.14999999999998
 20
74.199999999999974
 11
40
 21
74.199999999999974
  0
LINE
  8
_0-0_図面枠
  6
CONTINUOUS
 62
    4
 10
182.14999999999998
 20
114.99999999999999
 11
40
 21
114.99999999999999
  0
LINE
  8
_0-0_図面枠
  6
CONTINUOUS
 62
    4
 10
182.14999999999998
 20
44.199999999999974
 11
40
 21
44.199999999999974
  0
LINE
  8
_0-0_図面枠
  6
CONTINUOUS
 62
    4
 10
182.14999999999998
 20
38.199999999999974
 11
40
 21
38.199999999999974
  0
LINE
  8
_0-0_図面枠
  6
CONTINUOUS
 62
    4
 10
182.14999999999998
 20
32.199999999999974
 11
40
 21
32.199999999999974
  0
LINE
  8
_0-0_図面枠
  6
CONTINUOUS
 62
    4
 10
182.14999999999998
 20
26.199999999999974
 11
40
 21
26.199999999999974
  0
TEXT
  8
_0-0_図面枠
 62
    4
 10
165.551264
 20
110.20001049999995
 40
3.2000000000000002
 41
1
 50
0
  1
使用
  0
TEXT
  8
_0-0_図面枠
 62
    4
 10
150.50638249999994
 20
110.20001049999995
 40
3.2000000000000002
 41
1
 50
0
  1
定　尺
  0
TEXT
  8
_0-0_図面枠
 62
    4
 10
148.34354749999997
 20
105.40000399999995
 40
3.2000000000000002
 41
1
 50
0
  1
（ｍｍ）
  0
TEXT
  8
_0-0_図面枠
 62
    4
 10
165.551264
 20
105.40000399999995
 40
3.2000000000000002
 41
1
 50
0
  1
数量
  0
TEXT
  8
_0-0_図面枠
 62
    4
 10
40.497067999999985
 20
99.427549499999927
 40
3.2000000000000002
 41
1
 50
0
  1
　１
  0
TEXT
  8
_0-0_図面枠
 62
    4
 10
149.270477
 20
99.400003999999953
 40
3.2000000000000002
 41
1
 50
0
  1
３０００
  0
TEXT
  8
_0-0_図面枠
 62
    4
 10
177.00512500000002
 20
99.400003999999953
 40
3.2000000000000002
 41
1
 50
0
  1
本
  0
TEXT
  8
_0-0_図面枠
 62
    4
 10
43.586831999999987
 20
93.427549499999927
 40
3.2000000000000002
 41
1
 50
0
  1
２
  0
TEXT
  8
_0-0_図面枠
 62
    4
 10
43.586831999999987
 20
87.427549499999927
 40
3.2000000000000002
 41
1
 50
0
  1
３
  0
LINE
  8
_0-0_図面枠
  6
CONTINUOUS
 62
    4
 10
382.15000000000009
 20
104.19999999999997
 11
240
 21
104.19999999999997
  0
LINE
  8
_0-0_図面枠
  6
CONTINUOUS
 62
    4
 10
382.15000000000009
 20
98.199999999999974
 11
240
 21
98.199999999999974
  0
LINE
  8
_0-0_図面枠
  6
CONTINUOUS
 62
    4
 10
382.15000000000009
 20
92.199999999999974
 11
240
 21
92.199999999999974
  0
LINE
  8
_0-0_図面枠
  6
CONTINUOUS
 62
    4
 10
382.15000000000009
 20
86.199999999999974
 11
240
 21
86.199999999999974
  0
LINE
  8
_0-0_図面枠
  6
CONTINUOUS
 62
    4
 10
382.15000000000009
 20
80.199999999999974
 11
240
 21
80.199999999999974
  0
LINE
  8
_0-0_図面枠
  6
CONTINUOUS
 62
    4
 10
382.15000000000009
 20
74.199999999999974
 11
240
 21
74.199999999999974
  0
LINE
  8
_0-0_図面枠
  6
CONTINUOUS
 62
    4
 10
382.15000000000009
 20
68.199999999999974
 11
240
 21
68.199999999999974
  0
LINE
  8
_0-0_図面枠
  6
CONTINUOUS
 62
    4
 10
382.15000000000009
 20
62.199999999999974
 11
240
 21
62.199999999999974
  0
LINE
  8
_0-0_図面枠
  6
CONTINUOUS
 62
    4
 10
382.15000000000009
 20
56.199999999999974
 11
240
 21
56.199999999999974
  0
LINE
  8
_0-0_図面枠
  6
CONTINUOUS
 62
    4
 10
382.15000000000009
 20
50.199999999999974
 11
240
 21
50.199999999999974
  0
LINE
  8
_0-0_図面枠
  6
CONTINUOUS
 62
    4
 10
382.15000000000009
 20
38.199999999999974
 11
240
 21
38.199999999999974
  0
LINE
  8
_0-0_図面枠
  6
CONTINUOUS
 62
    4
 10
382.15000000000009
 20
114.99999999999999
 11
240
 21
114.99999999999999
  0
LINE
  8
_0-0_図面枠
  6
CONTINUOUS
 62
    4
 10
382.15000000000009
 20
26.199999999999974
 11
240
 21
26.199999999999974
  0
LINE
  8
_0-0_図面枠
  6
CONTINUOUS
 62
    4
 10
382.15000000000009
 20
20.199999999999989
 11
240
 21
20.199999999999989
  0
LINE
  8
_0-0_図面枠
  6
CONTINUOUS
 62
    4
 10
382.15000000000009
 20
44.199999999999974
 11
240
 21
44.199999999999974
  0
LINE
  8
_0-0_図面枠
  6
CONTINUOUS
 62
    4
 10
382.15000000000009
 20
32.199999999999974
 11
240
 21
32.199999999999974
  0
TEXT
  8
_0-0_図面枠
 62
    4
 10
365.55123000000003
 20
110.2000105
 40
3.2000000000000002
 41
1
 50
0
  1
使用
  0
TEXT
  8
_0-0_図面枠
 62
    4
 10
350.50632500000006
 20
110.20002199999998
 40
3.2000000000000002
 41
1
 50
0
  1
定　尺
  0
TEXT
  8
_0-0_図面枠
 62
    4
 10
348.34349000000003
 20
105.40001499999998
 40
3.2000000000000002
 41
1
 50
0
  1
（ｍｍ）
  0
TEXT
  8
_0-0_図面枠
 62
    4
 10
365.55123000000003
 20
105.40000400000001
 40
3.2000000000000002
 41
1
 50
0
  1
数量
  0
TEXT
  8
_0-0_図面枠
 62
    4
 10
240.4970505
 20
99.427549499999984
 40
3.2000000000000002
 41
1
 50
0
  1
　１
  0
TEXT
  8
_0-0_図面枠
 62
    4
 10
243.5868145
 20
93.427549499999984
 40
3.2000000000000002
 41
1
 50
0
  1
２
  0
TEXT
  8
_0-0_図面枠
 62
    4
 10
243.5868145
 20
87.427549499999984
 40
3.2000000000000002
 41
1
 50
0
  1
３
  0
TEXT
  8
_0-0_図面枠
 62
    4
 10
243.5868145
 20
81.427549499999984
 40
3.2000000000000002
 41
1
 50
0
  1
４
  0
TEXT
  8
_0-0_図面枠
 62
    4
 10
243.5868145
 20
75.427560999999983
 40
3.2000000000000002
 41
1
 50
0
  1
５
  0
TEXT
  8
_0-0_図面枠
 62
    4
 10
243.5868145
 20
69.427560999999983
 40
3.2000000000000002
 41
1
 50
0
  1
６
  0
TEXT
  8
_0-0_図面枠
 62
    4
 10
169.36022149999991
 20
99.449991499999996
 40
3.2000000000000002
 41
1
 50
0
  1
１
  0
TEXT
  8
_0-0_図面枠
 62
    4
 10
378.55000000000007
 20
112.8
 40
3.2000000000000002
 41
1
 50
0
  1
単位
  7
TATEGAKI
  0
LINE
  8
_0-0_図面枠
  6
CONTINUOUS
 62
    4
 10
182.14999999999998
 20
20.199999999999989
 11
40
 21
20.199999999999989
  0
LINE
  8
_0-0_図面枠
  6
CONTINUOUS
 62
    4
 10
40
 20
20.199999999999989
 11
40
 21
114.99999999999999
  0
LINE
  8
_0-0_図面枠
  6
CONTINUOUS
 62
    4
 10
47.200000000000017
 20
20.199999999999989
 11
47.200000000000017
 21
114.99999999999999
  0
LINE
  8
_0-0_図面枠
  6
CONTINUOUS
 62
    4
 10
182.14999999999998
 20
20.199999999999989
 11
182.14999999999998
 21
114.99999999999999
  0
LINE
  8
_0-0_図面枠
  6
CONTINUOUS
 62
    4
 10
162.94999999999999
 20
20.199999999999989
 11
162.94999999999999
 21
114.99999999999999
  0
LINE
  8
_0-0_図面枠
  6
CONTINUOUS
 62
    4
 10
147.95000000000002
 20
20.199999999999989
 11
147.95000000000002
 21
114.99999999999999
  0
LINE
  8
_0-0_図面枠
  6
CONTINUOUS
 62
    4
 10
174.95000000000005
 20
20.199999999999989
 11
174.95000000000005
 21
114.99999999999999
  0
LINE
  8
_0-0_図面枠
  6
CONTINUOUS
 62
    4
 10
146.95000000000002
 20
20.199999999999989
 11
146.95000000000002
 21
114.99999999999999
  0
LINE
  8
_0-0_図面枠
  6
CONTINUOUS
 62
    4
 10
240
 20
20.199999999999989
 11
240
 21
114.99999999999999
  0
LINE
  8
_0-0_図面枠
  6
CONTINUOUS
 62
    4
 10
247.20000000000005
 20
20.199999999999989
 11
247.20000000000005
 21
114.99999999999999
  0
LINE
  8
_0-0_図面枠
  6
CONTINUOUS
 62
    4
 10
346.95000000000005
 20
20.199999999999989
 11
346.95000000000005
 21
114.99999999999999
  0
LINE
  8
_0-0_図面枠
  6
CONTINUOUS
 62
    4
 10
382.15000000000009
 20
20.199999999999989
 11
382.15000000000009
 21
114.99999999999999
  0
LINE
  8
_0-0_図面枠
  6
CONTINUOUS
 62
    4
 10
374.95000000000005
 20
20.199999999999989
 11
374.95000000000005
 21
114.99999999999999
  0
LINE
  8
_0-0_図面枠
  6
CONTINUOUS
 62
    4
 10
362.95000000000005
 20
20.199999999999989
 11
362.95000000000005
 21
114.99999999999999
  0
LINE
  8
_0-0_図面枠
  6
CONTINUOUS
 62
    4
 10
347.95000000000005
 20
20.199999999999989
 11
347.95000000000005
 21
114.99999999999999
  0
TEXT
  8
_0-0_図面枠
 62
    4
 10
69.300000000000011
 20
108.00000000000001
 40
3.2000000000000002
 41
1
 50
0
  1
部材名称
  0
TEXT
  8
_0-0_図面枠
 62
    4
 10
178.54999999999995
 20
112.80000000000001
 40
3.2000000000000002
 41
1
 50
0
  1
単位
  7
TATEGAKI
  0
LINE
  8
_0-0_図面枠
  6
CONTINUOUS
 62
    4
 10
100.86666666666669
 20
20.199999999999989
 11
100.86666666666669
 21
114.99999999999999
  0
TEXT
  8
_0-0_図面枠
 62
    4
 10
119.10833333333336
 20
108
 40
3.2000000000000002
 41
1
 50
0
  1
規　格
  0
LINE
  8
_0-0_図面枠
  6
CONTINUOUS
 62
    4
 10
300.86666666666667
 20
20.199999999999989
 11
300.86666666666667
 21
114.99999999999999
  0
TEXT
  8
_0-0_図面枠
 62
    4
 10
267.63333333333333
 20
107.99999999999999
 40
3.2000000000000002
 41
1
 50
0
  1
部材名称
  0
TEXT
  8
_0-0_図面枠
 62
    4
 10
319.10833333333335
 20
107.99999999999999
 40
3.2000000000000002
 41
1
 50
0
  1
規　格
  0
TEXT
  8
_0-0_図面枠
 62
    4
 10
169.36022149999991
 20
93.45000299999991
 40
3.2000000000000002
 41
1
 50
0
  1
６
  0
TEXT
  8
_0-0_図面枠
 62
    4
 10
177.00512500000002
 20
93.400003999999953
 40
3.2000000000000002
 41
1
 50
0
  1
個
  0
TEXT
  8
_0-0_図面枠
 62
    4
 10
349.27047700000003
 20
99.400003999999896
 40
3.2000000000000002
 41
1
 50
0
  1
３０００
  0
TEXT
  8
_0-0_図面枠
 62
    4
 10
377.00512500000002
 20
99.400003999999896
 40
3.2000000000000002
 41
1
 50
0
  1
本
  0
TEXT
  8
_0-0_図面枠
 62
    4
 10
369.36022149999997
 20
99.449991499999939
 40
3.2000000000000002
 41
1
 50
0
  1
１
  0
TEXT
  8
_0-0_図面枠
 62
    4
 10
369.36022149999997
 20
93.450002999999853
 40
3.2000000000000002
 41
1
 50
0
  1
６
  0
TEXT
  8
_0-0_図面枠
 62
    4
 10
377.00512500000002
 20
93.400003999999896
 40
3.2000000000000002
 41
1
 50
0
  1
個
  0
TEXT
  8
_0-0_図面枠
 62
    4
 10
243.5868145
 20
63.427555499999968
 40
3.2000000000000002
 41
1
 50
0
  1
７
  0
TEXT
  8
_0-0_図面枠
 62
    4
 10
177.00512500000002
 20
81.999992500000047
 40
3.2000000000000002
 41
1
 50
0
  1
本
  0
TEXT
  8
_0-0_図面枠
 62
    4
 10
48.400007499999987
 20
82.000009500000061
 40
3.2000000000000002
 41
1
 50
0
  1
ステンドリリングねじ
  0
TEXT
  8
_0-0_図面枠
 62
    4
 10
102.0666796666667
 20
82.000009500000061
 40
3.2000000000000002
 41
1
 50
0
  1
皿(Ｄ６)４×１６
  0
TEXT
  8
_0-0_図面枠
 62
    4
 10
166.27045749999996
 20
75.45000850000001
 40
3.2000000000000002
 41
1
 50
0
  1
１２
  0
TEXT
  8
_0-0_図面枠
 62
    4
 10
48.400007499999987
 20
75.400009500000053
 40
3.2000000000000002
 41
1
 50
0
  1
ステンタッピンねじ
  0
TEXT
  8
_0-0_図面枠
 62
    4
 10
48.400007499999987
 20
69.400009500000053
 40
3.2000000000000002
 41
1
 50
0
  1
ステンワッシャー
  0
TEXT
  8
_0-0_図面枠
 62
    4
 10
166.27045749999996
 20
69.45000850000001
 40
3.2000000000000002
 41
1
 50
0
  1
１２
  0
TEXT
  8
_0-0_図面枠
 62
    4
 10
177.00512500000002
 20
69.400009500000053
 40
3.2000000000000002
 41
1
 50
0
  1
枚
  0
TEXT
  8
_0-0_図面枠
 62
    4
 10
177.00512500000002
 20
75.399992500000039
 40
3.2000000000000002
 41
1
 50
0
  1
本
  0
TEXT
  8
_0-0_図面枠
 62
    4
 10
149.270477
 20
63.400009499999996
 40
3.2000000000000002
 41
1
 50
0
  1
３１００
  0
TEXT
  8
_0-0_図面枠
 62
    4
 10
169.36022149999991
 20
63.449997499999981
 40
3.2000000000000002
 41
1
 50
0
  1
２
  0
TEXT
  8
_0-0_図面枠
 62
    4
 10
177.00512500000002
 20
63.400009499999996
 40
3.2000000000000002
 41
1
 50
0
  1
本
  0
TEXT
  8
_0-0_図面枠
 62
    4
 10
102.06669116666673
 20
75.400009500000053
 40
3.2000000000000002
 41
1
 50
0
  1
なべ４×３０
  0
TEXT
  8
_0-0_図面枠
 62
    4
 10
102.0666336666667
 20
69.400004000000038
 40
3.2000000000000002
 41
1
 50
0
  1
１．５×１８×４．５穴
  0
TEXT
  8
_0-0_図面枠
 62
    4
 10
43.586831999999987
 20
81.427549499999927
 40
3.2000000000000002
 41
1
 50
0
  1
４
  0
TEXT
  8
_0-0_図面枠
 62
    4
 10
43.586831999999987
 20
75.427560999999955
 40
3.2000000000000002
 41
1
 50
0
  1
５
  0
TEXT
  8
_0-0_図面枠
 62
    4
 10
43.586831999999987
 20
69.427560999999955
 40
3.2000000000000002
 41
1
 50
0
  1
６
  0
TEXT
  8
_0-0_図面枠
 62
    4
 10
43.586831999999987
 20
63.427560999999955
 40
3.2000000000000002
 41
1
 50
0
  1
７
  0
TEXT
  8
_0-0_図面枠
 62
    4
 10
48.400007499999987
 20
87.400003999999953
 40
3.2000000000000002
 41
1
 50
0
  1
ＳＳＧフレーム(Ｄ)
  0
TEXT
  8
_0-0_図面枠
 62
    4
 10
177.00512500000002
 20
87.400003999999953
 40
3.2000000000000002
 41
1
 50
0
  1
本
  0
TEXT
  8
_0-0_図面枠
 62
    4
 10
169.36022149999991
 20
87.449991499999996
 40
3.2000000000000002
 41
1
 50
0
  1
１
  0
TEXT
  8
_0-0_図面枠
 62
    4
 10
149.270477
 20
87.400003999999953
 40
3.2000000000000002
 41
1
 50
0
  1
３０００
  0
TEXT
  8
_0-0_図面枠
 62
    4
 10
377.00512500000002
 20
81.999992499999991
 40
3.2000000000000002
 41
1
 50
0
  1
本
  0
TEXT
  8
_0-0_図面枠
 62
    4
 10
248.40000750000002
 20
82.000009500000004
 40
3.2000000000000002
 41
1
 50
0
  1
ステンドリリングねじ
  0
TEXT
  8
_0-0_図面枠
 62
    4
 10
302.06667966666674
 20
82.000009500000004
 40
3.2000000000000002
 41
1
 50
0
  1
皿(Ｄ６)４×１６
  0
TEXT
  8
_0-0_図面枠
 62
    4
 10
366.27045750000002
 20
75.450008499999953
 40
3.2000000000000002
 41
1
 50
0
  1
１２
  0
TEXT
  8
_0-0_図面枠
 62
    4
 10
248.40000750000002
 20
75.400009499999996
 40
3.2000000000000002
 41
1
 50
0
  1
ステンタッピンねじ
  0
TEXT
  8
_0-0_図面枠
 62
    4
 10
248.40000750000002
 20
69.400009499999996
 40
3.2000000000000002
 41
1
 50
0
  1
ステンワッシャー
  0
TEXT
  8
_0-0_図面枠
 62
    4
 10
366.27045750000002
 20
69.450008499999953
 40
3.2000000000000002
 41
1
 50
0
  1
１２
  0
TEXT
  8
_0-0_図面枠
 62
    4
 10
377.00512500000002
 20
69.400009499999996
 40
3.2000000000000002
 41
1
 50
0
  1
枚
  0
TEXT
  8
_0-0_図面枠
 62
    4
 10
377.00512500000002
 20
75.399992499999982
 40
3.2000000000000002
 41
1
 50
0
  1
本
  0
TEXT
  8
_0-0_図面枠
 62
    4
 10
302.06669116666677
 20
75.400009499999996
 40
3.2000000000000002
 41
1
 50
0
  1
なべ４×３０
  0
TEXT
  8
_0-0_図面枠
 62
    4
 10
302.06663366666675
 20
69.400003999999981
 40
3.2000000000000002
 41
1
 50
0
  1
１．５×１８×４．５穴
  0
TEXT
  8
_0-0_図面枠
 62
    4
 10
349.27047700000003
 20
57.400009499999939
 40
3.2000000000000002
 41
1
 50
0
  1
３１００
  0
TEXT
  8
_0-0_図面枠
 62
    4
 10
369.36022149999997
 20
57.449997499999924
 40
3.2000000000000002
 41
1
 50
0
  1
２
  0
TEXT
  8
_0-0_図面枠
 62
    4
 10
377.00512500000002
 20
57.400009499999939
 40
3.2000000000000002
 41
1
 50
0
  1
本
  0
TEXT
  8
_0-0_図面枠
 62
    4
 10
377.00512500000013
 20
63.399992499999982
 40
3.2000000000000002
 41
1
 50
0
  1
本
  0
TEXT
  8
_0-0_図面枠
 62
    4
 10
366.27045750000002
 20
81.450008499999967
 40
3.2000000000000002
 41
1
 50
0
  1
１２
  0
TEXT
  8
_0-0_図面枠
 62
    4
 10
243.5868145
 20
57.427555499999968
 40
3.2000000000000002
 41
1
 50
0
  1
８
  0
TEXT
  8
_0-0_図面枠
 62
    4
 10
349.27047700000003
 20
87.400003999999896
 40
3.2000000000000002
 41
1
 50
0
  1
３０００
  0
TEXT
  8
_0-0_図面枠
 62
    4
 10
377.00512500000002
 20
87.400003999999896
 40
3.2000000000000002
 41
1
 50
0
  1
本
  0
TEXT
  8
_0-0_図面枠
 62
    4
 10
369.36022149999997
 20
87.449991499999939
 40
3.2000000000000002
 41
1
 50
0
  1
１
  0
TEXT
  8
_0-0_図面枠
 62
    4
 10
248.40000750000002
 20
87.400003999999896
 40
3.2000000000000002
 41
1
 50
0
  1
ＳＳＧフレーム(Ｄ)
  0
TEXT
  8
_0-0_図面枠
 62
    4
 10
166.27045749999996
 20
81.450008500000024
 40
3.2000000000000002
 41
1
 50
0
  1
１２
  0
TEXT
  8
_0-0_図面枠
 62
    4
 10
102.06667966666672
 20
94.000009500000061
 40
3.2000000000000002
 41
1
 50
0
  1
Ｌ＝２９０
  0
TEXT
  8
_0-0_図面枠
 62
    4
 10
302.06667966666669
 20
94.000009500000004
 40
3.2000000000000002
 41
1
 50
0
  1
Ｌ＝２３０
  0
TEXT
  8
_0-0_図面枠
 62
    4
 10
122.30833333333337
 20
99.600000000000037
 40
3.2000000000000002
 41
1
 50
0
  1
―
  0
TEXT
  8
_0-0_図面枠
 62
    4
 10
122.30833333333337
 20
87.600000000000037
 40
3.2000000000000002
 41
1
 50
0
  1
―
  0
TEXT
  8
_0-0_図面枠
 62
    4
 10
122.30833333333335
 20
63.599999999999966
 40
3.2000000000000002
 41
1
 50
0
  1
―
  0
TEXT
  8
_0-0_図面枠
 62
    4
 10
322.30833333333328
 20
99.59999999999998
 40
3.2000000000000002
 41
1
 50
0
  1
―
  0
TEXT
  8
_0-0_図面枠
 62
    4
 10
322.30833333333328
 20
87.59999999999998
 40
3.2000000000000002
 41
1
 50
0
  1
―
  0
TEXT
  8
_0-0_図面枠
 62
    4
 10
322.30833333333328
 20
57.599999999999966
 40
3.2000000000000002
 41
1
 50
0
  1
―
  0
TEXT
  8
_0-0_図面枠
 62
    4
 10
153.84999999999999
 20
93.600000000000037
 40
3.2000000000000002
 41
1
 50
0
  1
―
  0
TEXT
  8
_0-0_図面枠
 62
    4
 10
153.84999999999999
 20
81.600000000000037
 40
3.2000000000000002
 41
1
 50
0
  1
―
  0
TEXT
  8
_0-0_図面枠
 62
    4
 10
153.84999999999999
 20
75.600000000000023
 40
3.2000000000000002
 41
1
 50
0
  1
―
  0
TEXT
  8
_0-0_図面枠
 62
    4
 10
153.84999999999999
 20
69.599999999999966
 40
3.2000000000000002
 41
1
 50
0
  1
―
  0
TEXT
  8
_0-0_図面枠
 62
    4
 10
353.85000000000002
 20
93.59999999999998
 40
3.2000000000000002
 41
1
 50
0
  1
―
  0
TEXT
  8
_0-0_図面枠
 62
    4
 10
353.85000000000002
 20
81.59999999999998
 40
3.2000000000000002
 41
1
 50
0
  1
―
  0
TEXT
  8
_0-0_図面枠
 62
    4
 10
353.85000000000002
 20
75.599999999999966
 40
3.2000000000000002
 41
1
 50
0
  1
―
  0
TEXT
  8
_0-0_図面枠
 62
    4
 10
353.85000000000002
 20
69.599999999999966
 40
3.2000000000000002
 41
1
 50
0
  1
―
  0
TEXT
  8
_0-0_図面枠
 62
    4
 10
353.85000000000002
 20
63.599999999999966
 40
3.2000000000000002
 41
1
 50
0
  1
―
  0
TEXT
  8
_0-0_図面枠
 62
    4
 10
302.06669116666689
 20
63.400009499999996
 40
3.2000000000000002
 41
1
 50
0
  1
Φ６×３０
  0
TEXT
  8
_0-0_図面枠
 62
    4
 10
369.36022149999997
 20
63.449997499999924
 40
3.2000000000000002
 41
1
 50
0
  1
６
  0
TEXT
  8
_0-0_図面枠
 62
    4
 10
43.586831999999987
 20
57.42755549999994
 40
3.2000000000000002
 41
1
 50
0
  1
※
  0
TEXT
  8
_0-0_図面枠
 62
    4
 10
169.36022149999991
 20
57.450002999999938
 40
3.2000000000000002
 41
1
 50
0
  1
１
  0
TEXT
  8
_0-0_図面枠
 62
    4
 10
177.00512500000002
 20
57.400003999999925
 40
3.2000000000000002
 41
1
 50
0
  1
個
  0
TEXT
  8
_0-0_図面枠
 62
    4
 10
153.85000000000002
 20
57.599999999999937
 40
3.2000000000000002
 41
1
 50
0
  1
―
  0
TEXT
  8
_0-0_図面枠
 62
    4
 10
102.06667966666669
 20
57.400003999999925
 40
3.2000000000000002
 41
1
 50
0
  1
ＡＬ　ｔ＝１．５
  0
TEXT
  8
_0-0_図面枠
 62
    4
 10
48.400007499999987
 20
57.400003999999925
 40
3.2000000000000002
 41
1
 50
0
  1
ジョイントプレート
  0
TEXT
  8
_0-0_図面枠
 62
    4
 10
43.586831999999987
 20
51.427555499999954
 40
3.2000000000000002
 41
1
 50
0
  1
※
  0
TEXT
  8
_0-0_図面枠
 62
    4
 10
169.36022149999991
 20
51.450002999999953
 40
3.2000000000000002
 41
1
 50
0
  1
２
  0
TEXT
  8
_0-0_図面枠
 62
    4
 10
177.00512500000002
 20
51.400009499999982
 40
3.2000000000000002
 41
1
 50
0
  1
本
  0
TEXT
  8
_0-0_図面枠
 62
    4
 10
102.06669116666673
 20
51.400009499999967
 40
3.2000000000000002
 41
1
 50
0
  1
１.５×(１×１９)Ｌ＝６００
  0
TEXT
  8
_0-0_図面枠
 62
    4
 10
48.400007500000015
 20
51.400009499999982
 40
3.2000000000000002
 41
1
 50
0
  1
落下防止ワイヤー
  0
TEXT
  8
_0-0_図面枠
 62
    4
 10
153.84999999999999
 20
51.599999999999966
 40
3.2000000000000002
 41
1
 50
0
  1
―
  0
TEXT
  8
_0-0_図面枠
 62
    4
 10
243.58683199999999
 20
51.42755549999994
 40
3.2000000000000002
 41
1
 50
0
  1
※
  0
TEXT
  8
_0-0_図面枠
 62
    4
 10
369.36022149999991
 20
51.450002999999938
 40
3.2000000000000002
 41
1
 50
0
  1
１
  0
TEXT
  8
_0-0_図面枠
 62
    4
 10
377.00512500000002
 20
51.400003999999925
 40
3.2000000000000002
 41
1
 50
0
  1
個
  0
TEXT
  8
_0-0_図面枠
 62
    4
 10
353.85000000000002
 20
51.599999999999937
 40
3.2000000000000002
 41
1
 50
0
  1
―
  0
TEXT
  8
_0-0_図面枠
 62
    4
 10
302.06667966666669
 20
51.400003999999925
 40
3.2000000000000002
 41
1
 50
0
  1
ＡＬ　ｔ＝１．５
  0
TEXT
  8
_0-0_図面枠
 62
    4
 10
248.40000749999999
 20
51.400003999999925
 40
3.2000000000000002
 41
1
 50
0
  1
ジョイントプレート
  0
TEXT
  8
_0-0_図面枠
 62
    4
 10
243.58683199999999
 20
45.427555499999954
 40
3.2000000000000002
 41
1
 50
0
  1
※
  0
TEXT
  8
_0-0_図面枠
 62
    4
 10
369.36022149999991
 20
45.450002999999953
 40
3.2000000000000002
 41
1
 50
0
  1
２
  0
TEXT
  8
_0-0_図面枠
 62
    4
 10
377.00512500000002
 20
45.400009499999982
 40
3.2000000000000002
 41
1
 50
0
  1
本
  0
TEXT
  8
_0-0_図面枠
 62
    4
 10
302.06669116666671
 20
45.400009499999967
 40
3.2000000000000002
 41
1
 50
0
  1
１.５×(１×１９)Ｌ＝６００
  0
TEXT
  8
_0-0_図面枠
 62
    4
 10
248.40000750000002
 20
45.400009499999982
 40
3.2000000000000002
 41
1
 50
0
  1
落下防止ワイヤー
  0
TEXT
  8
_0-0_図面枠
 62
    4
 10
353.84999999999997
 20
45.599999999999966
 40
3.2000000000000002
 41
1
 50
0
  1
―
  0
TEXT
  8
_0-0_図面枠
 62
    4
 10
41.666666666666799
 20
128
 40
3
 41
1
 50
0
  1
（落下防止ワイヤー）
  0
INSERT
  2
-000-
  8
_1-8_小物
 10
210
 20
148.5
 41
1
 42
1
 50
0
  0
LINE
  8
_1-8_小物
  6
CONTINUOUS
 62
    4
 10
157.03985321657854
 20
131.84018902839435
 11
151.17656837665959
 21
130.18752043233465
  0
LINE
  8
_1-8_小物
  6
CONTINUOUS
 62
    4
 10
157.16066740562414
 20
131.35707331101597
 11
151.2464714580253
 21
129.68796469593613
  0
LINE
  8
_1-8_小物
  6
CONTINUOUS
 62
    4
 10
157.03985321657854
 20
127.15981097160562
 11
151.17656837665959
 21
128.81247956766532
  0
LINE
  8
_1-8_小物
  6
CONTINUOUS
 62
    4
 10
157.16066740562414
 20
127.64292668898401
 11
151.2464714580253
 21
129.31203530406384
  0
LINE
  8
_1-8_小物
  6
CONTINUOUS
 62
    4
 10
157.16066751342231
 20
127.64292665856117
 11
157.16066751342231
 21
127.64292665856117
  0
LINE
  8
_1-8_小物
  6
CONTINUOUS
 62
    4
 10
157.16066751342231
 20
127.64292665856117
 11
157.63349044305451
 21
127.54220923628057
  0
LINE
  8
_1-8_小物
  6
CONTINUOUS
 62
    4
 10
157.63349044305451
 20
127.54220923628057
 11
158.12390677547921
 21
127.50097829566566
  0
LINE
  8
_1-8_小物
  6
CONTINUOUS
 62
    4
 10
158.12390677547921
 20
127.50097829566566
 11
158.61701545859836
 21
127.52048661798315
  0
LINE
  8
_1-8_小物
  6
CONTINUOUS
 62
    4
 10
158.61701545859836
 20
127.52048661798315
 11
159.09783363460036
 21
127.60014145273114
  0
LINE
  8
_1-8_小物
  6
CONTINUOUS
 62
    4
 10
159.09783363460036
 20
127.60014145273114
 11
159.55175188651319
 21
127.73752252806307
  0
LINE
  8
_1-8_小物
  6
CONTINUOUS
 62
    4
 10
159.55175188651319
 20
127.73752252806307
 11
159.96497813794616
 21
127.92845558952315
  0
LINE
  8
_1-8_小物
  6
CONTINUOUS
 62
    4
 10
159.96497813794616
 20
127.92845558952315
 11
160.32495671835204
 21
128.16713923265576
  0
LINE
  8
_1-8_小物
  6
CONTINUOUS
 62
    4
 10
160.32495671835204
 20
128.16713923265576
 11
160.62074986072321
 21
128.446321175744
  0
LINE
  8
_1-8_小物
  6
CONTINUOUS
 62
    4
 10
160.62074986072321
 20
128.446321175744
 11
160.8433700401072
 21
128.75751861672009
  0
LINE
  8
_1-8_小物
  6
CONTINUOUS
 62
    4
 10
160.8433700401072
 20
128.75751861672009
 11
160.9860530550047
 21
129.0912759788134
  0
LINE
  8
_1-8_小物
  6
CONTINUOUS
 62
    4
 10
160.9860530550047
 20
129.0912759788134
 11
161.04446355420916
 21
129.43745221346614
  0
LINE
  8
_1-8_小物
  6
CONTINUOUS
 62
    4
 10
161.04446355420916
 20
129.43745221346614
 11
161.01682676425938
 21
129.78552893096199
  0
LINE
  8
_1-8_小物
  6
CONTINUOUS
 62
    4
 10
161.01682676425938
 20
129.78552893096199
 11
160.90398241503306
 21
130.12492999637519
  0
LINE
  8
_1-8_小物
  6
CONTINUOUS
 62
    4
 10
160.90398241503306
 20
130.12492999637519
 11
160.70935922497949
 21
130.44534288007836
  0
LINE
  8
_1-8_小物
  6
CONTINUOUS
 62
    4
 10
160.70935922497949
 20
130.44534288007836
 11
160.43887072124437
 21
130.73703199873694
  0
LINE
  8
_1-8_小物
  6
CONTINUOUS
 62
    4
 10
160.43887072124437
 20
130.73703199873694
 11
160.10073556013987
 21
130.99113452608228
  0
LINE
  8
_1-8_小物
  6
CONTINUOUS
 62
    4
 10
160.10073556013987
 20
130.99113452608228
 11
159.7052278074315
 21
131.19992968540308
  0
LINE
  8
_1-8_小物
  6
CONTINUOUS
 62
    4
 10
159.7052278074315
 20
131.19992968540308
 11
159.26436476604874
 21
131.35707334143885
  0
LINE
  8
_1-8_小物
  6
CONTINUOUS
 62
    4
 10
159.26436476604874
 20
131.35707334143885
 11
158.79154183641654
 21
131.45779076371943
  0
LINE
  8
_1-8_小物
  6
CONTINUOUS
 62
    4
 10
158.79154183641654
 20
131.45779076371943
 11
158.30112550399184
 21
131.49902170433435
  0
LINE
  8
_1-8_小物
  6
CONTINUOUS
 62
    4
 10
158.30112550399184
 20
131.49902170433435
 11
157.80801682087269
 21
131.47951338201685
  0
LINE
  8
_1-8_小物
  6
CONTINUOUS
 62
    4
 10
157.80801682087269
 20
131.47951338201685
 11
157.32719864487069
 21
131.39985854726888
  0
LINE
  8
_1-8_小物
  6
CONTINUOUS
 62
    4
 10
157.32719864487069
 20
131.39985854726888
 11
157.16066740562411
 21
131.35707331101594
  0
LINE
  8
_1-8_小物
  6
CONTINUOUS
 62
    4
 10
157.03985330378111
 20
127.15981094702609
 11
157.03985330378111
 21
127.15981094702609
  0
LINE
  8
_1-8_小物
  6
CONTINUOUS
 62
    4
 10
157.03985330378111
 20
127.15981094702609
 11
157.59949477314501
 21
127.04264060375607
  0
LINE
  8
_1-8_小物
  6
CONTINUOUS
 62
    4
 10
157.59949477314501
 20
127.04264060375607
 11
158.17776258652901
 21
127.00013588225708
  0
LINE
  8
_1-8_小物
  6
CONTINUOUS
 62
    4
 10
158.17776258652901
 20
127.00013588225708
 11
158.75708636904102
 21
127.03358826698343
  0
LINE
  8
_1-8_小物
  6
CONTINUOUS
 62
    4
 10
158.75708636904102
 20
127.03358826698343
 11
159.31986366070143
 21
127.14198132415292
  0
LINE
  8
_1-8_小物
  6
CONTINUOUS
 62
    4
 10
159.31986366070143
 20
127.14198132415292
 11
159.84899475828217
 21
127.32202158557301
  0
LINE
  8
_1-8_小物
  6
CONTINUOUS
 62
    4
 10
159.84899475828217
 20
127.32202158557301
 11
160.3284022811365
 21
127.56823861900521
  0
LINE
  8
_1-8_小物
  6
CONTINUOUS
 62
    4
 10
160.3284022811365
 20
127.56823861900521
 11
160.74351967427444
 21
127.87315124448051
  0
LINE
  8
_1-8_小物
  6
CONTINUOUS
 62
    4
 10
160.74351967427444
 20
127.87315124448051
 11
161.08173380576497
 21
128.22749484616708
  0
LINE
  8
_1-8_小物
  6
CONTINUOUS
 62
    4
 10
161.08173380576497
 20
128.22749484616708
 11
161.33276821036739
 21
128.62050287303418
  0
LINE
  8
_1-8_小物
  6
CONTINUOUS
 62
    4
 10
161.33276821036739
 20
128.62050287303418
 11
161.48899533472741
 21
129.04023397505711
  0
LINE
  8
_1-8_小物
  6
CONTINUOUS
 62
    4
 10
161.48899533472741
 20
129.04023397505711
 11
161.54566829672606
 21
129.47393483509512
  0
LINE
  8
_1-8_小物
  6
CONTINUOUS
 62
    4
 10
161.54566829672606
 20
129.47393483509512
 11
161.50106511709092
 21
129.90842767197913
  0
LINE
  8
_1-8_小物
  6
CONTINUOUS
 62
    4
 10
161.50106511709092
 20
129.90842767197913
 11
161.35654104086493
 21
130.33051064072444
  0
LINE
  8
_1-8_小物
  6
CONTINUOUS
 62
    4
 10
161.35654104086493
 20
130.33051064072444
 11
161.11648735897148
 21
130.72735896391001
  0
LINE
  8
_1-8_小物
  6
CONTINUOUS
 62
    4
 10
161.11648735897148
 20
130.72735896391001
 11
160.7881979810619
 21
131.08691460605075
  0
LINE
  8
_1-8_小物
  6
CONTINUOUS
 62
    4
 10
160.7881979810619
 20
131.08691460605075
 11
160.3816478137615
 21
131.3982526509042
  0
LINE
  8
_1-8_小物
  6
CONTINUOUS
 62
    4
 10
160.3816478137615
 20
131.3982526509042
 11
159.90918967817942
 21
131.6519132495221
  0
LINE
  8
_1-8_小物
  6
CONTINUOUS
 62
    4
 10
159.90918967817942
 20
131.6519132495221
 11
159.38517897568994
 21
131.84018905297393
  0
LINE
  8
_1-8_小物
  6
CONTINUOUS
 62
    4
 10
159.38517897568994
 20
131.84018905297393
 11
158.82553750632604
 21
131.95735939624393
  0
LINE
  8
_1-8_小物
  6
CONTINUOUS
 62
    4
 10
158.82553750632604
 20
131.95735939624393
 11
158.24726969294204
 21
131.99986411774293
  0
LINE
  8
_1-8_小物
  6
CONTINUOUS
 62
    4
 10
158.24726969294204
 20
131.99986411774293
 11
157.66794591043003
 21
131.96641173301657
  0
LINE
  8
_1-8_小物
  6
CONTINUOUS
 62
    4
 10
157.66794591043003
 20
131.96641173301657
 11
157.10516861876962
 21
131.85801867584706
  0
LINE
  8
_1-8_小物
  6
CONTINUOUS
 62
    4
 10
157.10516861876962
 20
131.85801867584706
 11
157.03985321657854
 21
131.84018902839435
  0
ARC
  8
_1-8_小物
  6
CONTINUOUS
 62
    4
 10
149.88841540894526
 20
124.49999999999997
 40
5
 50
74.23983426036601
 51
82.444482010074083
  0
ARC
  8
_1-8_小物
  6
CONTINUOUS
 62
    4
 10
149.82008748449653
 20
123.99999999999997
 40
5
 50
74.258588419679057
 51
81.653895699843488
  0
ARC
  8
_1-8_小物
  6
CONTINUOUS
 62
    4
 10
149.82008748449653
 20
135
 40
5
 50
278.34610430015653
 51
285.74141158032086
  0
ARC
  8
_1-8_小物
  6
CONTINUOUS
 62
    4
 10
149.88841540894526
 20
134.5
 40
5
 50
277.55551798992593
 51
285.76016573963392
  0
INSERT
  2
-001-_1_
  8
_1-8_小物
 10
210
 20
148.5
 41
1
 42
1
 50
0
  0
LINE
  8
_1-8_小物
  6
CONTINUOUS
 62
    4
 10
82.718512396225861
 20
131.84018902839435
 11
88.581797236144808
 21
130.18752043233465
  0
LINE
  8
_1-8_小物
  6
CONTINUOUS
 62
    4
 10
82.59769820718023
 20
131.35707331101597
 11
88.511894154779114
 21
129.68796469593613
  0
LINE
  8
_1-8_小物
  6
CONTINUOUS
 62
    4
 10
82.718512396225861
 20
127.15981097160562
 11
88.581797236144808
 21
128.81247956766532
  0
LINE
  8
_1-8_小物
  6
CONTINUOUS
 62
    4
 10
82.59769820718023
 20
127.64292668898401
 11
88.511894154779114
 21
129.31203530406384
  0
LINE
  8
_1-8_小物
  6
CONTINUOUS
 62
    4
 10
82.597698207180315
 20
131.35707331101594
 11
82.597698207180315
 21
131.35707331101594
  0
LINE
  8
_1-8_小物
  6
CONTINUOUS
 62
    4
 10
82.597698207180315
 20
131.35707331101594
 11
82.124875283394502
 21
131.45779074697211
  0
LINE
  8
_1-8_小物
  6
CONTINUOUS
 62
    4
 10
82.124875283394502
 20
131.45779074697211
 11
81.634458953363151
 21
131.49902170177148
  0
LINE
  8
_1-8_小物
  6
CONTINUOUS
 62
    4
 10
81.634458953363151
 20
131.49902170177148
 11
81.141350269111612
 21
131.47951339371627
  0
LINE
  8
_1-8_小物
  6
CONTINUOUS
 62
    4
 10
81.141350269111612
 20
131.47951339371627
 11
80.660532088485837
 21
131.39985857287513
  0
LINE
  8
_1-8_小物
  6
CONTINUOUS
 62
    4
 10
80.660532088485837
 20
131.39985857287513
 11
80.206613828598407
 21
131.262477510672
  0
LINE
  8
_1-8_小物
  6
CONTINUOUS
 62
    4
 10
80.206613828598407
 20
131.262477510672
 11
79.793387566082274
 21
131.07154446116377
  0
LINE
  8
_1-8_小物
  6
CONTINUOUS
 62
    4
 10
79.793387566082274
 20
131.07154446116377
 11
79.433408971821422
 21
130.8328608284429
  0
LINE
  8
_1-8_小物
  6
CONTINUOUS
 62
    4
 10
79.433408971821422
 20
130.8328608284429
 11
79.137615813244494
 21
130.55367889390996
  0
LINE
  8
_1-8_小物
  6
CONTINUOUS
 62
    4
 10
79.137615813244494
 20
130.55367889390996
 11
78.9149956157963
 21
130.24248145937278
  0
LINE
  8
_1-8_小物
  6
CONTINUOUS
 62
    4
 10
78.9149956157963
 20
130.24248145937278
 11
78.772312581525057
 21
129.90872410140634
  0
LINE
  8
_1-8_小物
  6
CONTINUOUS
 62
    4
 10
78.772312581525057
 20
129.90872410140634
 11
78.713902062225984
 21
129.56254786844303
  0
LINE
  8
_1-8_小物
  6
CONTINUOUS
 62
    4
 10
78.713902062225984
 20
129.56254786844303
 11
78.741538831970828
 21
129.2144711501478
  0
LINE
  8
_1-8_小物
  6
CONTINUOUS
 62
    4
 10
78.741538831970828
 20
129.2144711501478
 11
78.85438316149579
 21
128.8750700814708
  0
LINE
  8
_1-8_小物
  6
CONTINUOUS
 62
    4
 10
78.85438316149579
 20
128.8750700814708
 11
79.049006332950214
 21
128.55465719213848
  0
LINE
  8
_1-8_小物
  6
CONTINUOUS
 62
    4
 10
79.049006332950214
 20
128.55465719213848
 11
79.319494819753572
 21
128.26296806565651
  0
LINE
  8
_1-8_小物
  6
CONTINUOUS
 62
    4
 10
79.319494819753572
 20
128.26296806565651
 11
79.65762996610809
 21
128.0088655285312
  0
LINE
  8
_1-8_小物
  6
CONTINUOUS
 62
    4
 10
79.65762996610809
 20
128.0088655285312
 11
80.053137706696447
 21
127.80007035777102
  0
LINE
  8
_1-8_小物
  6
CONTINUOUS
 62
    4
 10
80.053137706696447
 20
127.80007035777102
 11
80.494000738957411
 21
127.64292668898406
  0
LINE
  8
_1-8_小物
  6
CONTINUOUS
 62
    4
 10
80.494000738957411
 20
127.64292668898406
 11
80.966823662743224
 21
127.54220925302788
  0
LINE
  8
_1-8_小物
  6
CONTINUOUS
 62
    4
 10
80.966823662743224
 20
127.54220925302788
 11
81.457239992774589
 21
127.50097829822853
  0
LINE
  8
_1-8_小物
  6
CONTINUOUS
 62
    4
 10
81.457239992774589
 20
127.50097829822853
 11
81.950348677026128
 21
127.52048660628371
  0
LINE
  8
_1-8_小物
  6
CONTINUOUS
 62
    4
 10
81.950348677026128
 20
127.52048660628371
 11
82.431166857651903
 21
127.60014142712487
  0
LINE
  8
_1-8_小物
  6
CONTINUOUS
 62
    4
 10
82.431166857651903
 20
127.60014142712487
 11
82.597698099382072
 21
127.64292665856115
  0
LINE
  8
_1-8_小物
  6
CONTINUOUS
 62
    4
 10
82.718512396225861
 20
131.84018902839435
 11
82.718512396225861
 21
131.84018902839435
  0
LINE
  8
_1-8_小物
  6
CONTINUOUS
 62
    4
 10
82.718512396225861
 20
131.84018902839435
 11
82.15887093122808
 21
131.9573593833947
  0
LINE
  8
_1-8_小物
  6
CONTINUOUS
 62
    4
 10
82.15887093122808
 20
131.9573593833947
 11
81.580603119427948
 21
131.99986411701445
  0
LINE
  8
_1-8_小物
  6
CONTINUOUS
 62
    4
 10
81.580603119427948
 20
131.99986411701445
 11
81.001279335669395
 21
131.96641174443101
  0
LINE
  8
_1-8_小物
  6
CONTINUOUS
 62
    4
 10
81.001279335669395
 20
131.96641174443101
 11
80.438502039969933
 21
131.8580186990576
  0
LINE
  8
_1-8_小物
  6
CONTINUOUS
 62
    4
 10
80.438502039969933
 20
131.8580186990576
 11
79.909370935680343
 21
131.67797844872834
  0
LINE
  8
_1-8_小物
  6
CONTINUOUS
 62
    4
 10
79.909370935680343
 20
131.67797844872834
 11
79.4299634036512
 21
131.43176142534475
  0
LINE
  8
_1-8_小物
  6
CONTINUOUS
 62
    4
 10
79.4299634036512
 20
131.43176142534475
 11
79.014845999151319
 21
131.12684880857049
  0
LINE
  8
_1-8_小物
  6
CONTINUOUS
 62
    4
 10
79.014845999151319
 20
131.12684880857049
 11
78.676631854456858
 21
130.77250521397306
  0
LINE
  8
_1-8_小物
  6
CONTINUOUS
 62
    4
 10
78.676631854456858
 20
130.77250521397306
 11
78.425597435209752
 21
130.37949719236775
  0
LINE
  8
_1-8_小物
  6
CONTINUOUS
 62
    4
 10
78.425597435209752
 20
130.37949719236775
 11
78.269370295209285
 21
129.95976609361941
  0
LINE
  8
_1-8_小物
  6
CONTINUOUS
 62
    4
 10
78.269370295209285
 20
129.95976609361941
 11
78.212697317049603
 21
129.52606523476931
  0
LINE
  8
_1-8_小物
  6
CONTINUOUS
 62
    4
 10
78.212697317049603
 20
129.52606523476931
 11
78.257300480494209
 21
129.0915723969504
  0
LINE
  8
_1-8_小物
  6
CONTINUOUS
 62
    4
 10
78.257300480494209
 20
129.0915723969504
 11
78.401824540992109
 21
128.66948942517578
  0
LINE
  8
_1-8_小物
  6
CONTINUOUS
 62
    4
 10
78.401824540992109
 20
128.66948942517578
 11
78.641878208097779
 21
128.27264109695858
  0
LINE
  8
_1-8_小物
  6
CONTINUOUS
 62
    4
 10
78.641878208097779
 20
128.27264109695858
 11
78.970167572609228
 21
127.91308544793674
  0
LINE
  8
_1-8_小物
  6
CONTINUOUS
 62
    4
 10
78.970167572609228
 20
127.91308544793674
 11
79.376717728308222
 21
127.60174739456183
  0
LINE
  8
_1-8_小物
  6
CONTINUOUS
 62
    4
 10
79.376717728308222
 20
127.60174739456183
 11
79.84917585443813
 21
127.34808678604097
  0
LINE
  8
_1-8_小物
  6
CONTINUOUS
 62
    4
 10
79.84917585443813
 20
127.34808678604097
 11
80.373186549911864
 21
127.15981097160564
  0
LINE
  8
_1-8_小物
  6
CONTINUOUS
 62
    4
 10
80.373186549911864
 20
127.15981097160564
 11
80.93282801490966
 21
127.04264061660528
  0
LINE
  8
_1-8_小物
  6
CONTINUOUS
 62
    4
 10
80.93282801490966
 20
127.04264061660528
 11
81.511095826709791
 21
127.00013588298553
  0
LINE
  8
_1-8_小物
  6
CONTINUOUS
 62
    4
 10
81.511095826709791
 20
127.00013588298553
 11
82.090419610468345
 21
127.03358825556899
  0
LINE
  8
_1-8_小物
  6
CONTINUOUS
 62
    4
 10
82.090419610468345
 20
127.03358825556899
 11
82.653196906167807
 21
127.1419813009424
  0
LINE
  8
_1-8_小物
  6
CONTINUOUS
 62
    4
 10
82.653196906167807
 20
127.1419813009424
 11
82.718512309023282
 21
127.15981094702607
  0
ARC
  8
_1-8_小物
  6
CONTINUOUS
 62
    4
 10
89.869950203859119
 20
124.49999999999997
 40
5
 50
97.555517989925761
 51
105.76016573963415
  0
ARC
  8
_1-8_小物
  6
CONTINUOUS
 62
    4
 10
89.938278128307871
 20
123.99999999999997
 40
5
 50
98.346104300156512
 51
105.74141158032096
  0
ARC
  8
_1-8_小物
  6
CONTINUOUS
 62
    4
 10
89.938278128307871
 20
135
 40
5
 50
254.25858841967909
 51
261.65389569984347
  0
ARC
  8
_1-8_小物
  6
CONTINUOUS
 62
    4
 10
89.869950203859119
 20
134.5
 40
5
 50
254.23983426036591
 51
262.44448201007424
  0
LINE
  8
_1-8_小物
  6
CONTINUOUS
 62
    4
 10
91.879182806402198
 20
129.24999999999997
 11
118.21251613973553
 21
129.24999999999997
  0
LINE
  8
_1-8_小物
  6
CONTINUOUS
 62
    4
 10
91.879182806402198
 20
129.75
 11
118.21251613973553
 21
129.75
  0
LINE
  8
_1-8_小物
  6
CONTINUOUS
 62
    4
 10
147.87918280640218
 20
129.24999999999997
 11
121.54584947306887
 21
129.24999999999997
  0
LINE
  8
_1-8_小物
  6
CONTINUOUS
 62
    4
 10
147.87918280640218
 20
129.75
 11
121.54584947306887
 21
129.75
  0
TEXT
  8
_0-0_図面枠
 62
    4
 10
241.66666666666674
 20
128
 40
3
 41
1
 50
0
  1
（落下防止ワイヤー）
  0
INSERT
  2
-002-_2_
  8
_1-8_小物
 10
210
 20
148.5
 41
1
 42
1
 50
0
  0
LINE
  8
_1-8_小物
  6
CONTINUOUS
 62
    4
 10
357.03985321657848
 20
131.84018902839435
 11
351.17656837665965
 21
130.18752043233465
  0
LINE
  8
_1-8_小物
  6
CONTINUOUS
 62
    4
 10
357.16066740562411
 20
131.35707331101597
 11
351.24647145802521
 21
129.68796469593613
  0
LINE
  8
_1-8_小物
  6
CONTINUOUS
 62
    4
 10
357.03985321657848
 20
127.15981097160562
 11
351.17656837665965
 21
128.81247956766532
  0
LINE
  8
_1-8_小物
  6
CONTINUOUS
 62
    4
 10
357.16066740562411
 20
127.64292668898401
 11
351.24647145802521
 21
129.31203530406384
  0
LINE
  8
_1-8_小物
  6
CONTINUOUS
 62
    4
 10
357.16066751342225
 20
127.64292665856118
 11
357.16066751342225
 21
127.64292665856118
  0
LINE
  8
_1-8_小物
  6
CONTINUOUS
 62
    4
 10
357.16066751342225
 20
127.64292665856118
 11
357.63349044305443
 21
127.54220923628058
  0
LINE
  8
_1-8_小物
  6
CONTINUOUS
 62
    4
 10
357.63349044305443
 20
127.54220923628058
 11
358.12390677547916
 21
127.50097829566566
  0
LINE
  8
_1-8_小物
  6
CONTINUOUS
 62
    4
 10
358.12390677547916
 20
127.50097829566566
 11
358.6170154585983
 21
127.52048661798314
  0
LINE
  8
_1-8_小物
  6
CONTINUOUS
 62
    4
 10
358.6170154585983
 20
127.52048661798314
 11
359.09783363460031
 21
127.60014145273111
  0
LINE
  8
_1-8_小物
  6
CONTINUOUS
 62
    4
 10
359.09783363460031
 20
127.60014145273111
 11
359.55175188651316
 21
127.73752252806302
  0
LINE
  8
_1-8_小物
  6
CONTINUOUS
 62
    4
 10
359.55175188651316
 20
127.73752252806302
 11
359.9649781379461
 21
127.92845558952313
  0
LINE
  8
_1-8_小物
  6
CONTINUOUS
 62
    4
 10
359.9649781379461
 20
127.92845558952313
 11
360.32495671835204
 21
128.1671392326557
  0
LINE
  8
_1-8_小物
  6
CONTINUOUS
 62
    4
 10
360.32495671835204
 20
128.1671392326557
 11
360.62074986072315
 21
128.44632117574395
  0
LINE
  8
_1-8_小物
  6
CONTINUOUS
 62
    4
 10
360.62074986072315
 20
128.44632117574395
 11
360.84337004010717
 21
128.75751861672001
  0
LINE
  8
_1-8_小物
  6
CONTINUOUS
 62
    4
 10
360.84337004010717
 20
128.75751861672001
 11
360.98605305500473
 21
129.09127597881334
  0
LINE
  8
_1-8_小物
  6
CONTINUOUS
 62
    4
 10
360.98605305500473
 20
129.09127597881334
 11
361.04446355420919
 21
129.43745221346606
  0
LINE
  8
_1-8_小物
  6
CONTINUOUS
 62
    4
 10
361.04446355420919
 20
129.43745221346606
 11
361.01682676425941
 21
129.78552893096193
  0
LINE
  8
_1-8_小物
  6
CONTINUOUS
 62
    4
 10
361.01682676425941
 20
129.78552893096193
 11
360.90398241503311
 21
130.12492999637513
  0
LINE
  8
_1-8_小物
  6
CONTINUOUS
 62
    4
 10
360.90398241503311
 20
130.12492999637513
 11
360.70935922497955
 21
130.4453428800783
  0
LINE
  8
_1-8_小物
  6
CONTINUOUS
 62
    4
 10
360.70935922497955
 20
130.4453428800783
 11
360.43887072124443
 21
130.73703199873688
  0
LINE
  8
_1-8_小物
  6
CONTINUOUS
 62
    4
 10
360.43887072124443
 20
130.73703199873688
 11
360.10073556013998
 21
130.99113452608222
  0
LINE
  8
_1-8_小物
  6
CONTINUOUS
 62
    4
 10
360.10073556013998
 20
130.99113452608222
 11
359.70522780743158
 21
131.19992968540305
  0
LINE
  8
_1-8_小物
  6
CONTINUOUS
 62
    4
 10
359.70522780743158
 20
131.19992968540305
 11
359.26436476604886
 21
131.35707334143882
  0
LINE
  8
_1-8_小物
  6
CONTINUOUS
 62
    4
 10
359.26436476604886
 20
131.35707334143882
 11
358.79154183641668
 21
131.45779076371943
  0
LINE
  8
_1-8_小物
  6
CONTINUOUS
 62
    4
 10
358.79154183641668
 20
131.45779076371943
 11
358.30112550399195
 21
131.49902170433435
  0
LINE
  8
_1-8_小物
  6
CONTINUOUS
 62
    4
 10
358.30112550399195
 20
131.49902170433435
 11
357.80801682087281
 21
131.47951338201685
  0
LINE
  8
_1-8_小物
  6
CONTINUOUS
 62
    4
 10
357.80801682087281
 20
131.47951338201685
 11
357.3271986448708
 21
131.39985854726891
  0
LINE
  8
_1-8_小物
  6
CONTINUOUS
 62
    4
 10
357.3271986448708
 20
131.39985854726891
 11
357.16066740562411
 21
131.35707331101594
  0
LINE
  8
_1-8_小物
  6
CONTINUOUS
 62
    4
 10
357.03985330378111
 20
127.15981094702609
 11
357.03985330378111
 21
127.15981094702609
  0
LINE
  8
_1-8_小物
  6
CONTINUOUS
 62
    4
 10
357.03985330378111
 20
127.15981094702609
 11
357.59949477314501
 21
127.04264060375608
  0
LINE
  8
_1-8_小物
  6
CONTINUOUS
 62
    4
 10
357.59949477314501
 20
127.04264060375608
 11
358.17776258652901
 21
127.00013588225708
  0
LINE
  8
_1-8_小物
  6
CONTINUOUS
 62
    4
 10
358.17776258652901
 20
127.00013588225708
 11
358.75708636904102
 21
127.03358826698343
  0
LINE
  8
_1-8_小物
  6
CONTINUOUS
 62
    4
 10
358.75708636904102
 20
127.03358826698343
 11
359.31986366070146
 21
127.14198132415292
  0
LINE
  8
_1-8_小物
  6
CONTINUOUS
 62
    4
 10
359.31986366070146
 20
127.14198132415292
 11
359.84899475828217
 21
127.32202158557301
  0
LINE
  8
_1-8_小物
  6
CONTINUOUS
 62
    4
 10
359.84899475828217
 20
127.32202158557301
 11
360.3284022811365
 21
127.5682386190052
  0
LINE
  8
_1-8_小物
  6
CONTINUOUS
 62
    4
 10
360.3284022811365
 20
127.5682386190052
 11
360.74351967427447
 21
127.8731512444805
  0
LINE
  8
_1-8_小物
  6
CONTINUOUS
 62
    4
 10
360.74351967427447
 20
127.8731512444805
 11
361.081733805765
 21
128.22749484616705
  0
LINE
  8
_1-8_小物
  6
CONTINUOUS
 62
    4
 10
361.081733805765
 20
128.22749484616705
 11
361.33276821036742
 21
128.62050287303416
  0
LINE
  8
_1-8_小物
  6
CONTINUOUS
 62
    4
 10
361.33276821036742
 20
128.62050287303416
 11
361.48899533472741
 21
129.04023397505711
  0
LINE
  8
_1-8_小物
  6
CONTINUOUS
 62
    4
 10
361.48899533472741
 20
129.04023397505711
 11
361.54566829672609
 21
129.47393483509509
  0
LINE
  8
_1-8_小物
  6
CONTINUOUS
 62
    4
 10
361.54566829672609
 20
129.47393483509509
 11
361.50106511709095
 21
129.9084276719791
  0
LINE
  8
_1-8_小物
  6
CONTINUOUS
 62
    4
 10
361.50106511709095
 20
129.9084276719791
 11
361.35654104086495
 21
130.33051064072441
  0
LINE
  8
_1-8_小物
  6
CONTINUOUS
 62
    4
 10
361.35654104086495
 20
130.33051064072441
 11
361.11648735897154
 21
130.72735896390998
  0
LINE
  8
_1-8_小物
  6
CONTINUOUS
 62
    4
 10
361.11648735897154
 20
130.72735896390998
 11
360.78819798106196
 21
131.08691460605073
  0
LINE
  8
_1-8_小物
  6
CONTINUOUS
 62
    4
 10
360.78819798106196
 20
131.08691460605073
 11
360.38164781376156
 21
131.39825265090417
  0
LINE
  8
_1-8_小物
  6
CONTINUOUS
 62
    4
 10
360.38164781376156
 20
131.39825265090417
 11
359.90918967817947
 21
131.6519132495221
  0
LINE
  8
_1-8_小物
  6
CONTINUOUS
 62
    4
 10
359.90918967817947
 20
131.6519132495221
 11
359.38517897569
 21
131.8401890529739
  0
LINE
  8
_1-8_小物
  6
CONTINUOUS
 62
    4
 10
359.38517897569
 20
131.8401890529739
 11
358.8255375063261
 21
131.95735939624393
  0
LINE
  8
_1-8_小物
  6
CONTINUOUS
 62
    4
 10
358.8255375063261
 20
131.95735939624393
 11
358.2472696929421
 21
131.99986411774293
  0
LINE
  8
_1-8_小物
  6
CONTINUOUS
 62
    4
 10
358.2472696929421
 20
131.99986411774293
 11
357.66794591043009
 21
131.96641173301657
  0
LINE
  8
_1-8_小物
  6
CONTINUOUS
 62
    4
 10
357.66794591043009
 20
131.96641173301657
 11
357.10516861876965
 21
131.85801867584709
  0
LINE
  8
_1-8_小物
  6
CONTINUOUS
 62
    4
 10
357.10516861876965
 20
131.85801867584709
 11
357.03985321657848
 21
131.84018902839432
  0
ARC
  8
_1-8_小物
  6
CONTINUOUS
 62
    4
 10
349.88841540894521
 20
124.49999999999997
 40
5
 50
74.239834260366322
 51
82.444482010073443
  0
ARC
  8
_1-8_小物
  6
CONTINUOUS
 62
    4
 10
349.82008748449653
 20
123.99999999999997
 40
5
 50
74.258588419678418
 51
81.653895699843488
  0
ARC
  8
_1-8_小物
  6
CONTINUOUS
 62
    4
 10
349.82008748449653
 20
135
 40
5
 50
278.34610430015653
 51
285.7414115803216
  0
ARC
  8
_1-8_小物
  6
CONTINUOUS
 62
    4
 10
349.88841540894521
 20
134.5
 40
5
 50
277.55551798992656
 51
285.76016573963363
  0
INSERT
  2
-003-_3_
  8
_1-8_小物
 10
210
 20
148.5
 41
1
 42
1
 50
0
  0
LINE
  8
_1-8_小物
  6
CONTINUOUS
 62
    4
 10
282.71851239622583
 20
131.84018902839435
 11
288.58179723614478
 21
130.18752043233465
  0
LINE
  8
_1-8_小物
  6
CONTINUOUS
 62
    4
 10
282.5976982071802
 20
131.35707331101597
 11
288.5118941547791
 21
129.68796469593613
  0
LINE
  8
_1-8_小物
  6
CONTINUOUS
 62
    4
 10
282.71851239622583
 20
127.15981097160562
 11
288.58179723614478
 21
128.81247956766532
  0
LINE
  8
_1-8_小物
  6
CONTINUOUS
 62
    4
 10
282.5976982071802
 20
127.64292668898401
 11
288.5118941547791
 21
129.31203530406384
  0
LINE
  8
_1-8_小物
  6
CONTINUOUS
 62
    4
 10
282.59769820718031
 20
131.35707331101594
 11
282.59769820718031
 21
131.35707331101594
  0
LINE
  8
_1-8_小物
  6
CONTINUOUS
 62
    4
 10
282.59769820718031
 20
131.35707331101594
 11
282.12487528339449
 21
131.45779074697211
  0
LINE
  8
_1-8_小物
  6
CONTINUOUS
 62
    4
 10
282.12487528339449
 20
131.45779074697211
 11
281.63445895336315
 21
131.49902170177148
  0
LINE
  8
_1-8_小物
  6
CONTINUOUS
 62
    4
 10
281.63445895336315
 20
131.49902170177148
 11
281.14135026911163
 21
131.47951339371627
  0
LINE
  8
_1-8_小物
  6
CONTINUOUS
 62
    4
 10
281.14135026911163
 20
131.47951339371627
 11
280.66053208848581
 21
131.39985857287513
  0
LINE
  8
_1-8_小物
  6
CONTINUOUS
 62
    4
 10
280.66053208848581
 20
131.39985857287513
 11
280.20661382859839
 21
131.262477510672
  0
LINE
  8
_1-8_小物
  6
CONTINUOUS
 62
    4
 10
280.20661382859839
 20
131.262477510672
 11
279.79338756608229
 21
131.07154446116377
  0
LINE
  8
_1-8_小物
  6
CONTINUOUS
 62
    4
 10
279.79338756608229
 20
131.07154446116377
 11
279.43340897182139
 21
130.8328608284429
  0
LINE
  8
_1-8_小物
  6
CONTINUOUS
 62
    4
 10
279.43340897182139
 20
130.8328608284429
 11
279.13761581324451
 21
130.55367889390996
  0
LINE
  8
_1-8_小物
  6
CONTINUOUS
 62
    4
 10
279.13761581324451
 20
130.55367889390996
 11
278.91499561579633
 21
130.24248145937278
  0
LINE
  8
_1-8_小物
  6
CONTINUOUS
 62
    4
 10
278.91499561579633
 20
130.24248145937278
 11
278.77231258152506
 21
129.90872410140634
  0
LINE
  8
_1-8_小物
  6
CONTINUOUS
 62
    4
 10
278.77231258152506
 20
129.90872410140634
 11
278.713902062226
 21
129.56254786844303
  0
LINE
  8
_1-8_小物
  6
CONTINUOUS
 62
    4
 10
278.713902062226
 20
129.56254786844303
 11
278.74153883197084
 21
129.2144711501478
  0
LINE
  8
_1-8_小物
  6
CONTINUOUS
 62
    4
 10
278.74153883197084
 20
129.2144711501478
 11
278.85438316149578
 21
128.8750700814708
  0
LINE
  8
_1-8_小物
  6
CONTINUOUS
 62
    4
 10
278.85438316149578
 20
128.8750700814708
 11
279.04900633295023
 21
128.55465719213848
  0
LINE
  8
_1-8_小物
  6
CONTINUOUS
 62
    4
 10
279.04900633295023
 20
128.55465719213848
 11
279.31949481975357
 21
128.26296806565651
  0
LINE
  8
_1-8_小物
  6
CONTINUOUS
 62
    4
 10
279.31949481975357
 20
128.26296806565651
 11
279.65762996610812
 21
128.0088655285312
  0
LINE
  8
_1-8_小物
  6
CONTINUOUS
 62
    4
 10
279.65762996610812
 20
128.0088655285312
 11
280.05313770669642
 21
127.80007035777102
  0
LINE
  8
_1-8_小物
  6
CONTINUOUS
 62
    4
 10
280.05313770669642
 20
127.80007035777102
 11
280.49400073895742
 21
127.64292668898406
  0
LINE
  8
_1-8_小物
  6
CONTINUOUS
 62
    4
 10
280.49400073895742
 20
127.64292668898406
 11
280.96682366274325
 21
127.54220925302788
  0
LINE
  8
_1-8_小物
  6
CONTINUOUS
 62
    4
 10
280.96682366274325
 20
127.54220925302788
 11
281.45723999277459
 21
127.50097829822853
  0
LINE
  8
_1-8_小物
  6
CONTINUOUS
 62
    4
 10
281.45723999277459
 20
127.50097829822853
 11
281.95034867702611
 21
127.52048660628371
  0
LINE
  8
_1-8_小物
  6
CONTINUOUS
 62
    4
 10
281.95034867702611
 20
127.52048660628371
 11
282.43116685765187
 21
127.60014142712487
  0
LINE
  8
_1-8_小物
  6
CONTINUOUS
 62
    4
 10
282.43116685765187
 20
127.60014142712487
 11
282.59769809938206
 21
127.64292665856115
  0
LINE
  8
_1-8_小物
  6
CONTINUOUS
 62
    4
 10
282.71851239622583
 20
131.84018902839438
 11
282.71851239622583
 21
131.84018902839438
  0
LINE
  8
_1-8_小物
  6
CONTINUOUS
 62
    4
 10
282.71851239622583
 20
131.84018902839438
 11
282.15887093122802
 21
131.9573593833947
  0
LINE
  8
_1-8_小物
  6
CONTINUOUS
 62
    4
 10
282.15887093122802
 20
131.9573593833947
 11
281.58060311942791
 21
131.99986411701445
  0
LINE
  8
_1-8_小物
  6
CONTINUOUS
 62
    4
 10
281.58060311942791
 20
131.99986411701445
 11
281.00127933566938
 21
131.96641174443101
  0
LINE
  8
_1-8_小物
  6
CONTINUOUS
 62
    4
 10
281.00127933566938
 20
131.96641174443101
 11
280.43850203996988
 21
131.8580186990576
  0
LINE
  8
_1-8_小物
  6
CONTINUOUS
 62
    4
 10
280.43850203996988
 20
131.8580186990576
 11
279.90937093568033
 21
131.67797844872834
  0
LINE
  8
_1-8_小物
  6
CONTINUOUS
 62
    4
 10
279.90937093568033
 20
131.67797844872834
 11
279.42996340365119
 21
131.43176142534472
  0
LINE
  8
_1-8_小物
  6
CONTINUOUS
 62
    4
 10
279.42996340365119
 20
131.43176142534472
 11
279.01484599915131
 21
131.12684880857049
  0
LINE
  8
_1-8_小物
  6
CONTINUOUS
 62
    4
 10
279.01484599915131
 20
131.12684880857049
 11
278.67663185445684
 21
130.77250521397303
  0
LINE
  8
_1-8_小物
  6
CONTINUOUS
 62
    4
 10
278.67663185445684
 20
130.77250521397303
 11
278.42559743520974
 21
130.37949719236772
  0
LINE
  8
_1-8_小物
  6
CONTINUOUS
 62
    4
 10
278.42559743520974
 20
130.37949719236772
 11
278.26937029520928
 21
129.95976609361938
  0
LINE
  8
_1-8_小物
  6
CONTINUOUS
 62
    4
 10
278.26937029520928
 20
129.95976609361938
 11
278.21269731704962
 21
129.52606523476928
  0
LINE
  8
_1-8_小物
  6
CONTINUOUS
 62
    4
 10
278.21269731704962
 20
129.52606523476928
 11
278.25730048049422
 21
129.09157239695037
  0
LINE
  8
_1-8_小物
  6
CONTINUOUS
 62
    4
 10
278.25730048049422
 20
129.09157239695037
 11
278.4018245409921
 21
128.66948942517575
  0
LINE
  8
_1-8_小物
  6
CONTINUOUS
 62
    4
 10
278.4018245409921
 20
128.66948942517575
 11
278.64187820809781
 21
128.27264109695858
  0
LINE
  8
_1-8_小物
  6
CONTINUOUS
 62
    4
 10
278.64187820809781
 20
128.27264109695858
 11
278.97016757260923
 21
127.91308544793672
  0
LINE
  8
_1-8_小物
  6
CONTINUOUS
 62
    4
 10
278.97016757260923
 20
127.91308544793672
 11
279.37671772830822
 21
127.60174739456181
  0
LINE
  8
_1-8_小物
  6
CONTINUOUS
 62
    4
 10
279.37671772830822
 20
127.60174739456181
 11
279.84917585443816
 21
127.34808678604097
  0
LINE
  8
_1-8_小物
  6
CONTINUOUS
 62
    4
 10
279.84917585443816
 20
127.34808678604097
 11
280.37318654991191
 21
127.15981097160564
  0
LINE
  8
_1-8_小物
  6
CONTINUOUS
 62
    4
 10
280.37318654991191
 20
127.15981097160564
 11
280.93282801490966
 21
127.04264061660528
  0
LINE
  8
_1-8_小物
  6
CONTINUOUS
 62
    4
 10
280.93282801490966
 20
127.04264061660528
 11
281.51109582670983
 21
127.00013588298553
  0
LINE
  8
_1-8_小物
  6
CONTINUOUS
 62
    4
 10
281.51109582670983
 20
127.00013588298553
 11
282.09041961046836
 21
127.03358825556899
  0
LINE
  8
_1-8_小物
  6
CONTINUOUS
 62
    4
 10
282.09041961046836
 20
127.03358825556899
 11
282.65319690616781
 21
127.14198130094242
  0
LINE
  8
_1-8_小物
  6
CONTINUOUS
 62
    4
 10
282.65319690616781
 20
127.14198130094242
 11
282.71851230902325
 21
127.15981094702607
  0
ARC
  8
_1-8_小物
  6
CONTINUOUS
 62
    4
 10
289.8699502038591
 20
124.49999999999997
 40
5
 50
97.555517989925917
 51
105.76016573963432
  0
ARC
  8
_1-8_小物
  6
CONTINUOUS
 62
    4
 10
289.93827812830784
 20
123.99999999999997
 40
5
 50
98.346104300156512
 51
105.74141158032096
  0
ARC
  8
_1-8_小物
  6
CONTINUOUS
 62
    4
 10
289.93827812830784
 20
135
 40
5
 50
254.25858841967909
 51
261.65389569984347
  0
ARC
  8
_1-8_小物
  6
CONTINUOUS
 62
    4
 10
289.8699502038591
 20
134.5
 40
5
 50
254.23983426036577
 51
262.44448201007407
  0
LINE
  8
_1-8_小物
  6
CONTINUOUS
 62
    4
 10
291.87918280640218
 20
129.24999999999997
 11
318.2125161397355
 21
129.24999999999997
  0
LINE
  8
_1-8_小物
  6
CONTINUOUS
 62
    4
 10
291.87918280640218
 20
129.75
 11
318.2125161397355
 21
129.75
  0
LINE
  8
_1-8_小物
  6
CONTINUOUS
 62
    4
 10
347.87918280640224
 20
129.24999999999997
 11
321.54584947306887
 21
129.24999999999997
  0
LINE
  8
_1-8_小物
  6
CONTINUOUS
 62
    4
 10
347.87918280640224
 20
129.75
 11
321.54584947306887
 21
129.75
  0
TEXT
  8
_0-0_図面枠
 62
    4
 10
20
 20
280
 40
3.2000000000000002
 41
1
 50
0
  1
（ステンレス２００タイプ）
  0
TEXT
  8
_0-0_図面枠
 62
    4
 10
220
 20
280
 40
3.2000000000000002
 41
1
 50
0
  1
（ステンレス２００タイプ）
  0
TEXT
  8
_0-0_図面枠
 62
    4
 10
30
 20
270
 40
3.2000000000000002
 41
1
 50
0
  1
◇天井＋天井（２００ＵＵＧ－Ｓ）　Ｓ＝１／３
  0
TEXT
  8
_0-0_図面枠
 62
    4
 10
230
 20
270
 40
3.2000000000000002
 41
1
 50
0
  1
◇天井＋天井コーナー（２００ＵＣＧ－Ｓ）　Ｓ＝１／３
  0
TEXT
  8
_0-0_図面枠
 62
    4
 10
48.400007499999987
 20
63.400003999999953
 40
3.2000000000000002
 41
1
 50
0
  1
ガスケットＧＳ
  0
TEXT
  8
_0-0_図面枠
 62
    4
 10
248.40000750000002
 20
57.400003999999896
 40
3.2000000000000002
 41
1
 50
0
  1
ガスケットＧＳ
  0
TEXT
  8
_0-0_図面枠
 62
    4
 10
48.400007499999987
 20
99.400003999999953
 40
3.2000000000000002
 41
1
 50
0
  1
ＵＵＧキャップ(Ｄ)Ｓ
  0
TEXT
  8
_0-0_図面枠
 62
    4
 10
48.400007499999987
 20
93.400003999999953
 40
3.2000000000000002
 41
1
 50
0
  1
ＵＵＧホルダー(Ｄ)
  0
TEXT
  8
_0-0_図面枠
 62
    4
 10
248.40000750000002
 20
99.400003999999896
 40
3.2000000000000002
 41
1
 50
0
  1
ＵＣＧキャップ(Ｄ)Ｓ
  0
TEXT
  8
_0-0_図面枠
 62
    4
 10
248.40000750000002
 20
93.400003999999896
 40
3.2000000000000002
 41
1
 50
0
  1
ＵＣＧホルダー(Ｄ)
  0
TEXT
  8
_0-0_図面枠
 62
    4
 10
248.40000750000013
 20
63.400003999999953
 40
3.2000000000000002
 41
1
 50
0
  1
アンカープラグ
  0
LINE
  8
_1-0_躯体
  6
CENTER2
 62
    4
 10
110
 20
234.20000066666665
 11
110
 21
198.00000033333336
  0
LINE
  8
_1-0_躯体
  6
CENTER2
 62
    4
 10
309.99999999999983
 20
234.2000006666666
 11
309.99999999999983
 21
198.00000033333328
  0
ARC
  8
_1-0_躯体
  6
CONTINUOUS
 62
    4
 10
147.24999933333328
 20
231.50000066666669
 40
0.8333329999999998
 50
90
 51
180
  0
ARC
  8
_1-0_躯体
  6
CONTINUOUS
 62
    4
 10
158.91666633333335
 20
231.50000066666669
 40
0.8333329999999998
 50
0
 51
90
  0
LINE
  8
_1-0_躯体
  6
CONTINUOUS
 62
    4
 10
147.24999933333328
 20
232.33333366666673
 11
158.91666633333335
 21
232.33333366666673
  0
LINE
  8
_1-0_躯体
  6
CONTINUOUS
 62
    4
 10
161.16666633333335
 20
234.00000066666669
 11
171.66666633333335
 21
234.00000066666669
  0
LINE
  8
_1-0_躯体
  6
CONTINUOUS
 62
    4
 10
144.99999933333328
 20
234.00000066666669
 11
143.33333333333331
 21
234.00000066666669
  0
LINE
  8
_1-0_躯体
  6
CONTINUOUS
 62
    4
 10
143.33333333333331
 20
234.00000066666669
 11
143.33333333333331
 21
221.33333366666673
  0
LINE
  8
_1-0_躯体
  6
CONTINUOUS
 62
    4
 10
171.66666633333335
 20
215.00000066666666
 11
143.33333333333331
 21
215.00000066666666
  0
LINE
  8
_1-0_躯体
  6
CONTINUOUS
 62
    4
 10
171.66666633333335
 20
214.3333336666667
 11
143.33333333333331
 21
214.3333336666667
  0
LINE
  8
_1-0_躯体
  6
CONTINUOUS
 62
    4
 10
171.66666633333335
 20
213.66666666666666
 11
143.33333333333331
 21
213.66666666666666
  0
LINE
  8
_1-0_躯体
  6
CONTINUOUS
 62
    4
 10
146.99999933333328
 20
221.33333366666673
 11
143.33333333333331
 21
221.33333366666673
  0
LINE
  8
_1-0_躯体
  6
CONTINUOUS
 62
    4
 10
145.74999933333328
 20
215.16666666666666
 11
146.71065533333336
 21
215.16666666666666
  0
LINE
  8
_1-0_躯体
  6
CONTINUOUS
 62
    4
 10
145.74999933333328
 20
215.00000066666666
 11
146.74999933333328
 21
215.00000066666666
  0
LINE
  8
_1-0_躯体
  6
CONTINUOUS
 62
    4
 10
152.74999933333328
 20
215.00000066666666
 11
153.08333333333331
 21
215.16666666666666
  0
LINE
  8
_1-0_躯体
  6
CONTINUOUS
 62
    4
 10
153.08333333333331
 20
215.16666666666666
 11
153.41666633333335
 21
215.00000066666666
  0
LINE
  8
_1-0_躯体
  6
CONTINUOUS
 62
    4
 10
151.41666633333335
 20
215.00000066666666
 11
152.74999933333328
 21
215.00000066666666
  0
LINE
  8
_1-0_躯体
  6
CONTINUOUS
 62
    4
 10
151.45601133333338
 20
215.16666666666666
 11
152.71065533333336
 21
215.16666666666666
  0
LINE
  8
_1-0_躯体
  6
CONTINUOUS
 62
    4
 10
152.71065533333336
 20
215.16666666666666
 11
153.08333333333331
 21
215.35300566666666
  0
LINE
  8
_1-0_躯体
  6
CONTINUOUS
 62
    4
 10
153.08333333333331
 20
215.35300566666666
 11
153.45601133333338
 21
215.16666666666666
  0
LINE
  8
_1-0_躯体
  6
CONTINUOUS
 62
    4
 10
145.91666633333335
 20
220.33333366666673
 11
146.08333333333331
 21
220.33333366666673
  0
LINE
  8
_1-0_躯体
  6
CONTINUOUS
 62
    4
 10
146.08333333333331
 20
220.33333366666673
 11
146.08333333333331
 21
220.83333366666673
  0
ARC
  8
_1-0_躯体
  6
CONTINUOUS
 62
    4
 10
145.58333333333331
 20
220.83333366666673
 40
0.5
 50
0
 51
90
  0
LINE
  8
_1-0_躯体
  6
CONTINUOUS
 62
    4
 10
145.24999933333328
 20
221.33333366666673
 11
145.58333333333331
 21
221.33333366666673
  0
ARC
  8
_1-0_躯体
  6
CONTINUOUS
 62
    4
 10
145.24999933333328
 20
220.83333366666673
 40
0.5
 50
90
 51
180
  0
LINE
  8
_1-0_躯体
  6
CONTINUOUS
 62
    4
 10
144.74999933333328
 20
220.83333366666673
 11
144.74999933333328
 21
216.00000066666666
  0
ARC
  8
_1-0_躯体
  6
CONTINUOUS
 62
    4
 10
145.58333333333331
 20
220.83333366666673
 40
0.3333329999999999
 50
0
 51
90
  0
LINE
  8
_1-0_躯体
  6
CONTINUOUS
 62
    4
 10
145.24999933333328
 20
221.16666666666669
 11
145.58333333333331
 21
221.16666666666669
  0
ARC
  8
_1-0_躯体
  6
CONTINUOUS
 62
    4
 10
145.24999933333328
 20
220.83333366666673
 40
0.3333329999999999
 50
90
 51
180
  0
ARC
  8
_1-0_躯体
  6
CONTINUOUS
 62
    4
 10
145.74999933333328
 20
216.00000066666666
 40
0.8333329999999998
 50
180
 51
270
  0
LINE
  8
_1-0_躯体
  6
CONTINUOUS
 62
    4
 10
144.91666633333335
 20
220.83333366666673
 11
144.91666633333335
 21
216.00000066666666
  0
LINE
  8
_1-0_躯体
  6
CONTINUOUS
 62
    4
 10
145.91666633333335
 20
220.33333366666673
 11
145.91666633333335
 21
220.83333366666673
  0
ARC
  8
_1-0_躯体
  6
CONTINUOUS
 62
    4
 10
145.74999933333328
 20
216.00000066666666
 40
1
 50
180
 51
270
  0
LINE
  8
_1-0_躯体
  6
CONTINUOUS
 62
    4
 10
160.24999933333328
 20
220.33333366666673
 11
160.08333333333331
 21
220.33333366666673
  0
LINE
  8
_1-0_躯体
  6
CONTINUOUS
 62
    4
 10
160.08333333333331
 20
220.33333366666673
 11
160.08333333333331
 21
220.83333366666673
  0
ARC
  8
_1-0_躯体
  6
CONTINUOUS
 62
    4
 10
160.58333333333331
 20
220.83333366666673
 40
0.5
 50
90
 51
180
  0
LINE
  8
_1-0_躯体
  6
CONTINUOUS
 62
    4
 10
160.91666633333335
 20
221.33333366666673
 11
160.58333333333331
 21
221.33333366666673
  0
ARC
  8
_1-0_躯体
  6
CONTINUOUS
 62
    4
 10
160.91666633333335
 20
220.83333366666673
 40
0.5
 50
0
 51
90
  0
LINE
  8
_1-0_躯体
  6
CONTINUOUS
 62
    4
 10
161.41666633333335
 20
220.83333366666673
 11
161.41666633333335
 21
216.00000066666666
  0
ARC
  8
_1-0_躯体
  6
CONTINUOUS
 62
    4
 10
160.58333333333331
 20
220.83333366666673
 40
0.3333329999999999
 50
90
 51
180
  0
LINE
  8
_1-0_躯体
  6
CONTINUOUS
 62
    4
 10
160.91666633333335
 20
221.16666666666669
 11
160.58333333333331
 21
221.16666666666669
  0
ARC
  8
_1-0_躯体
  6
CONTINUOUS
 62
    4
 10
160.91666633333335
 20
220.83333366666673
 40
0.3333329999999999
 50
0
 51
90
  0
ARC
  8
_1-0_躯体
  6
CONTINUOUS
 62
    4
 10
160.41666633333335
 20
216.00000066666666
 40
0.8333329999999998
 50
270
 51
0
  0
LINE
  8
_1-0_躯体
  6
CONTINUOUS
 62
    4
 10
161.24999933333328
 20
220.83333366666673
 11
161.24999933333328
 21
216.00000066666666
  0
LINE
  8
_1-0_躯体
  6
CONTINUOUS
 62
    4
 10
160.24999933333328
 20
220.33333366666673
 11
160.24999933333328
 21
220.83333366666673
  0
ARC
  8
_1-0_躯体
  6
CONTINUOUS
 62
    4
 10
160.41666633333335
 20
216.00000066666666
 40
1
 50
270
 51
0
  0
LINE
  8
_1-0_躯体
  6
CONTINUOUS
 62
    4
 10
146.74999933333328
 20
215.00000066666666
 11
147.08333333333331
 21
215.16666666666666
  0
LINE
  8
_1-0_躯体
  6
CONTINUOUS
 62
    4
 10
147.08333333333331
 20
215.16666666666666
 11
147.58333333333331
 21
215.00000066666666
  0
LINE
  8
_1-0_躯体
  6
CONTINUOUS
 62
    4
 10
146.71065533333336
 20
215.16666666666666
 11
147.07054433333326
 21
215.34661166666666
  0
LINE
  8
_1-0_躯体
  6
CONTINUOUS
 62
    4
 10
147.07054433333326
 20
215.34661166666666
 11
147.58333333333331
 21
215.17568266666663
  0
LINE
  8
_1-0_躯体
  6
CONTINUOUS
 62
    4
 10
148.08333333333331
 20
215.16666666666666
 11
147.58333333333331
 21
215.00000066666666
  0
LINE
  8
_1-0_躯体
  6
CONTINUOUS
 62
    4
 10
147.58333333333331
 20
215.17568266666663
 11
148.08333333333331
 21
215.34234866666671
  0
LINE
  8
_1-0_躯体
  6
CONTINUOUS
 62
    4
 10
149.08333333333331
 20
215.16666666666666
 11
148.58333333333331
 21
215.00000066666666
  0
LINE
  8
_1-0_躯体
  6
CONTINUOUS
 62
    4
 10
148.58333333333331
 20
215.17568266666663
 11
149.08333333333331
 21
215.34234866666671
  0
LINE
  8
_1-0_躯体
  6
CONTINUOUS
 62
    4
 10
148.08333333333331
 20
215.16666666666666
 11
148.58333333333331
 21
215.00000066666666
  0
LINE
  8
_1-0_躯体
  6
CONTINUOUS
 62
    4
 10
148.58333333333331
 20
215.17568266666663
 11
148.08333333333331
 21
215.34234866666671
  0
LINE
  8
_1-0_躯体
  6
CONTINUOUS
 62
    4
 10
151.08333333333331
 20
215.16666666666666
 11
150.58333333333331
 21
215.00000066666666
  0
LINE
  8
_1-0_躯体
  6
CONTINUOUS
 62
    4
 10
151.09612133333331
 20
215.34661166666666
 11
150.58333333333331
 21
215.17568266666663
  0
LINE
  8
_1-0_躯体
  6
CONTINUOUS
 62
    4
 10
150.08333333333331
 20
215.16666666666666
 11
150.58333333333331
 21
215.00000066666666
  0
LINE
  8
_1-0_躯体
  6
CONTINUOUS
 62
    4
 10
150.58333333333331
 20
215.17568266666663
 11
150.08333333333331
 21
215.34234866666671
  0
LINE
  8
_1-0_躯体
  6
CONTINUOUS
 62
    4
 10
149.08333333333331
 20
215.16666666666666
 11
149.58333333333331
 21
215.00000066666666
  0
LINE
  8
_1-0_躯体
  6
CONTINUOUS
 62
    4
 10
149.58333333333331
 20
215.17568266666663
 11
149.08333333333331
 21
215.34234866666671
  0
LINE
  8
_1-0_躯体
  6
CONTINUOUS
 62
    4
 10
150.08333333333331
 20
215.16666666666666
 11
149.58333333333331
 21
215.00000066666666
  0
LINE
  8
_1-0_躯体
  6
CONTINUOUS
 62
    4
 10
149.58333333333331
 20
215.17568266666663
 11
150.08333333333331
 21
215.34234866666671
  0
LINE
  8
_1-0_躯体
  6
CONTINUOUS
 62
    4
 10
151.41666633333335
 20
215.00000066666666
 11
151.08333333333331
 21
215.16666666666666
  0
LINE
  8
_1-0_躯体
  6
CONTINUOUS
 62
    4
 10
151.45601133333338
 20
215.16666666666666
 11
151.09612133333331
 21
215.34661166666666
  0
LINE
  8
_1-0_躯体
  6
CONTINUOUS
 62
    4
 10
154.74999933333328
 20
215.00000066666666
 11
153.41666633333335
 21
215.00000066666666
  0
LINE
  8
_1-0_躯体
  6
CONTINUOUS
 62
    4
 10
154.71065533333336
 20
215.16666666666666
 11
153.45601133333338
 21
215.16666666666666
  0
LINE
  8
_1-0_躯体
  6
CONTINUOUS
 62
    4
 10
159.41666633333335
 20
215.00000066666666
 11
159.08333333333331
 21
215.16666666666666
  0
LINE
  8
_1-0_躯体
  6
CONTINUOUS
 62
    4
 10
159.08333333333331
 20
215.16666666666666
 11
158.58333333333331
 21
215.00000066666666
  0
LINE
  8
_1-0_躯体
  6
CONTINUOUS
 62
    4
 10
159.45601133333338
 20
215.16666666666666
 11
159.09612133333331
 21
215.34661166666666
  0
LINE
  8
_1-0_躯体
  6
CONTINUOUS
 62
    4
 10
159.09612133333331
 20
215.34661166666666
 11
158.58333333333331
 21
215.17568266666663
  0
LINE
  8
_1-0_躯体
  6
CONTINUOUS
 62
    4
 10
158.08333333333331
 20
215.16666666666666
 11
158.58333333333331
 21
215.00000066666666
  0
LINE
  8
_1-0_躯体
  6
CONTINUOUS
 62
    4
 10
158.58333333333331
 20
215.17568266666663
 11
158.08333333333331
 21
215.34234866666671
  0
LINE
  8
_1-0_躯体
  6
CONTINUOUS
 62
    4
 10
157.08333333333331
 20
215.16666666666666
 11
157.58333333333331
 21
215.00000066666666
  0
LINE
  8
_1-0_躯体
  6
CONTINUOUS
 62
    4
 10
157.58333333333331
 20
215.17568266666663
 11
157.08333333333331
 21
215.34234866666671
  0
LINE
  8
_1-0_躯体
  6
CONTINUOUS
 62
    4
 10
158.08333333333331
 20
215.16666666666666
 11
157.58333333333331
 21
215.00000066666666
  0
LINE
  8
_1-0_躯体
  6
CONTINUOUS
 62
    4
 10
157.58333333333331
 20
215.17568266666663
 11
158.08333333333331
 21
215.34234866666671
  0
LINE
  8
_1-0_躯体
  6
CONTINUOUS
 62
    4
 10
155.08333333333331
 20
215.16666666666666
 11
155.58333333333331
 21
215.00000066666666
  0
LINE
  8
_1-0_躯体
  6
CONTINUOUS
 62
    4
 10
155.07054433333332
 20
215.34661166666666
 11
155.58333333333331
 21
215.17568266666663
  0
LINE
  8
_1-0_躯体
  6
CONTINUOUS
 62
    4
 10
156.08333333333331
 20
215.16666666666666
 11
155.58333333333331
 21
215.00000066666666
  0
LINE
  8
_1-0_躯体
  6
CONTINUOUS
 62
    4
 10
155.58333333333331
 20
215.17568266666663
 11
156.08333333333331
 21
215.34234866666671
  0
LINE
  8
_1-0_躯体
  6
CONTINUOUS
 62
    4
 10
157.08333333333331
 20
215.16666666666666
 11
156.58333333333331
 21
215.00000066666666
  0
LINE
  8
_1-0_躯体
  6
CONTINUOUS
 62
    4
 10
156.58333333333331
 20
215.17568266666663
 11
157.08333333333331
 21
215.34234866666671
  0
LINE
  8
_1-0_躯体
  6
CONTINUOUS
 62
    4
 10
156.08333333333331
 20
215.16666666666666
 11
156.58333333333331
 21
215.00000066666666
  0
LINE
  8
_1-0_躯体
  6
CONTINUOUS
 62
    4
 10
156.58333333333331
 20
215.17568266666663
 11
156.08333333333331
 21
215.34234866666671
  0
LINE
  8
_1-0_躯体
  6
CONTINUOUS
 62
    4
 10
154.74999933333328
 20
215.00000066666666
 11
155.08333333333331
 21
215.16666666666666
  0
LINE
  8
_1-0_躯体
  6
CONTINUOUS
 62
    4
 10
154.71065533333336
 20
215.16666666666666
 11
155.07054433333332
 21
215.34661166666666
  0
LINE
  8
_1-0_躯体
  6
CONTINUOUS
 62
    4
 10
160.41666633333335
 20
215.16666666666666
 11
159.45601133333338
 21
215.16666666666666
  0
LINE
  8
_1-0_躯体
  6
CONTINUOUS
 62
    4
 10
160.41666633333335
 20
215.00000066666666
 11
159.41666633333335
 21
215.00000066666666
  0
LINE
  8
_1-0_躯体
  6
CONTINUOUS
 62
    4
 10
145.16666633333335
 20
221.00000066666669
 11
145.53333333333336
 21
221.16666666666669
  0
LINE
  8
_1-0_躯体
  6
CONTINUOUS
 62
    4
 10
145.53333333333336
 20
221.16666666666669
 11
146.03961033333331
 21
219.97162366666669
  0
ARC
  8
_1-0_躯体
  6
CONTINUOUS
 62
    4
 10
146.49999933333328
 20
220.16666666666669
 40
0.5
 50
202.95984199999688
 51
0
  0
LINE
  8
_1-0_躯体
  6
CONTINUOUS
 62
    4
 10
145.16666633333335
 20
221.00000066666669
 11
145.16666633333335
 21
219.33333366666673
  0
LINE
  8
_1-0_躯体
  6
CONTINUOUS
 62
    4
 10
145.36666633333328
 20
221.0909096666667
 11
145.36666633333328
 21
219.33333366666673
  0
LINE
  8
_1-0_躯体
  6
CONTINUOUS
 62
    4
 10
146.99999933333328
 20
220.16666666666669
 11
146.99999933333328
 21
225.13076866666668
  0
ARC
  8
_1-0_躯体
  6
CONTINUOUS
 62
    4
 10
146.33333333333331
 20
219.33333366666673
 40
1.1666669999999999
 50
180
 51
270
  0
LINE
  8
_1-0_躯体
  6
CONTINUOUS
 62
    4
 10
146.33333333333331
 20
218.16666666666666
 11
159.83333333333331
 21
218.16666666666666
  0
LINE
  8
_1-0_躯体
  6
CONTINUOUS
 62
    4
 10
144.99999933333328
 20
234.20000066666665
 11
144.99999933333328
 21
225.66666666666669
  0
LINE
  8
_1-0_躯体
  6
CONTINUOUS
 62
    4
 10
161.16666633333335
 20
234.20000066666665
 11
161.16666633333335
 21
225.66666666666669
  0
ARC
  8
_1-0_躯体
  6
CONTINUOUS
 62
    4
 10
146.33333333333331
 20
219.33333366666673
 40
0.9666669999999998
 50
180
 51
270
  0
LINE
  8
_1-0_躯体
  6
CONTINUOUS
 62
    4
 10
159.83333333333331
 20
218.36666666666662
 11
146.33333333333331
 21
218.36666666666662
  0
LINE
  8
_1-0_躯体
  6
CONTINUOUS
 62
    4
 10
144.99999933333328
 20
225.66666666666669
 11
146.99999933333328
 21
225.13076866666668
  0
LINE
  8
_1-0_躯体
  6
CONTINUOUS
 62
    4
 10
144.99999933333328
 20
234.20000066666665
 11
161.16666633333335
 21
234.20000066666665
  0
ARC
  8
_1-0_躯体
  6
CONTINUOUS
 62
    4
 10
147.24999933333328
 20
227.16666666666669
 40
0.8333329999999998
 50
180
 51
270
  0
LINE
  8
_1-0_躯体
  6
CONTINUOUS
 62
    4
 10
146.41666633333335
 20
227.16666666666669
 11
146.41666633333335
 21
231.50000066666669
  0
LINE
  8
_1-0_躯体
  6
CONTINUOUS
 62
    4
 10
147.24999933333328
 20
226.33333366666673
 11
148.08333333333331
 21
226.33333366666673
  0
ARC
  8
_1-0_躯体
  6
CONTINUOUS
 62
    4
 10
149.74999933333328
 20
220.66666666666669
 40
1
 50
180
 51
0
  0
ARC
  8
_1-0_躯体
  6
CONTINUOUS
 62
    4
 10
148.08333333333331
 20
225.66666666666669
 40
0.666667
 50
0
 51
90
  0
LINE
  8
_1-0_躯体
  6
CONTINUOUS
 62
    4
 10
148.74999933333328
 20
220.66666666666669
 11
148.74999933333328
 21
225.66666666666669
  0
ARC
  8
_1-0_躯体
  6
CONTINUOUS
 62
    4
 10
151.41666633333335
 20
225.66666666666669
 40
0.666667
 50
90
 51
180
  0
LINE
  8
_1-0_躯体
  6
CONTINUOUS
 62
    4
 10
150.74999933333328
 20
220.66666666666669
 11
150.74999933333328
 21
225.66666666666669
  0
ARC
  8
_1-0_躯体
  6
CONTINUOUS
 62
    4
 10
154.74999933333328
 20
225.66666666666669
 40
0.666667
 50
0
 51
90
  0
LINE
  8
_1-0_躯体
  6
CONTINUOUS
 62
    4
 10
151.41666633333335
 20
226.33333366666673
 11
154.74999933333328
 21
226.33333366666673
  0
LINE
  8
_1-0_躯体
  6
CONTINUOUS
 62
    4
 10
160.99999933333328
 20
221.00000066666669
 11
160.63333333333327
 21
221.16666666666669
  0
LINE
  8
_1-0_躯体
  6
CONTINUOUS
 62
    4
 10
160.63333333333327
 20
221.16666666666669
 11
160.12705533333332
 21
219.97162366666669
  0
ARC
  8
_1-0_躯体
  6
CONTINUOUS
 62
    4
 10
159.66666633333335
 20
220.16666666666669
 40
0.5
 50
180
 51
337.04015800000184
  0
ARC
  8
_1-0_躯体
  6
CONTINUOUS
 62
    4
 10
159.83333333333331
 20
219.33333366666673
 40
1.1666669999999999
 50
270
 51
0
  0
LINE
  8
_1-0_躯体
  6
CONTINUOUS
 62
    4
 10
160.99999933333328
 20
221.00000066666669
 11
160.99999933333328
 21
219.33333366666673
  0
ARC
  8
_1-0_躯体
  6
CONTINUOUS
 62
    4
 10
159.83333333333331
 20
219.33333366666673
 40
0.9666669999999998
 50
270
 51
0
  0
LINE
  8
_1-0_躯体
  6
CONTINUOUS
 62
    4
 10
160.79999933333335
 20
221.0909096666667
 11
160.79999933333335
 21
219.33333366666673
  0
LINE
  8
_1-0_躯体
  6
CONTINUOUS
 62
    4
 10
159.16666633333335
 20
220.16666666666669
 11
159.16666633333335
 21
225.13076866666668
  0
LINE
  8
_1-0_躯体
  6
CONTINUOUS
 62
    4
 10
161.16666633333335
 20
225.66666666666669
 11
159.16666633333335
 21
225.13076866666668
  0
ARC
  8
_1-0_躯体
  6
CONTINUOUS
 62
    4
 10
156.41666633333335
 20
220.66666666666669
 40
1
 50
180
 51
0
  0
ARC
  8
_1-0_躯体
  6
CONTINUOUS
 62
    4
 10
158.08333333333331
 20
225.66666666666669
 40
0.666667
 50
90
 51
180
  0
LINE
  8
_1-0_躯体
  6
CONTINUOUS
 62
    4
 10
157.41666633333335
 20
220.66666666666669
 11
157.41666633333335
 21
225.66666666666669
  0
LINE
  8
_1-0_躯体
  6
CONTINUOUS
 62
    4
 10
155.41666633333335
 20
220.66666666666669
 11
155.41666633333335
 21
225.66666666666669
  0
ARC
  8
_1-0_躯体
  6
CONTINUOUS
 62
    4
 10
158.91666633333335
 20
227.16666666666669
 40
0.8333329999999998
 50
270
 51
0
  0
LINE
  8
_1-0_躯体
  6
CONTINUOUS
 62
    4
 10
159.74999933333328
 20
227.16666666666669
 11
159.74999933333328
 21
231.50000066666669
  0
LINE
  8
_1-0_躯体
  6
CONTINUOUS
 62
    4
 10
158.91666633333335
 20
226.33333366666673
 11
158.08333333333331
 21
226.33333366666673
  0
LINE
  8
_1-0_躯体
  6
CONTINUOUS
 62
    4
 10
171.66666633333335
 20
213.00000066666666
 11
143.33333333333331
 21
213.00000066666666
  0
LINE
  8
_1-0_躯体
  6
CONTINUOUS
 62
    4
 10
171.66666633333335
 20
212.3333336666667
 11
143.33333333333331
 21
212.3333336666667
  0
LINE
  8
_1-0_躯体
  6
CONTINUOUS
 62
    4
 10
143.33333333333331
 20
211.66666666666666
 11
171.66666633333335
 21
211.66666666666666
  0
INSERT
  2
-004-$QLE
  8
_1-f_寸法
 10
210
 20
148.5
 41
1
 42
1
 50
0
  0
INSERT
  2
-005-$QLE_1_
  8
_1-f_寸法
 10
210
 20
148.5
 41
1
 42
1
 50
0
  0
LINE
  8
_1-0_躯体
  6
CONTINUOUS
 62
    4
 10
143.33333333333331
 20
211.66666666666666
 11
143.33333333333331
 21
215.00000066666666
  0
INSERT
  2
-006-$QLE_2_
  8
_1-f_寸法
 10
210
 20
148.5
 41
1
 42
1
 50
0
  0
LINE
  8
_1-0_躯体
  6
CONTINUOUS
 62
    4
 10
61.474922012685198
 20
211.66666666666666
 11
57.781932010391444
 21
211.66666666666666
  0
LINE
  8
_1-0_躯体
  6
CONTINUOUS
 62
    4
 10
61.08333366666659
 20
232.33333366666673
 11
72.749999666666639
 21
232.33333366666673
  0
LINE
  8
_1-0_躯体
  6
CONTINUOUS
 62
    4
 10
74.999999666666639
 20
234.00000066666669
 11
76.666666666666629
 21
234.00000066666669
  0
LINE
  8
_1-0_躯体
  6
CONTINUOUS
 62
    4
 10
58.83333366666659
 20
234.00000066666669
 11
48.33333366666659
 21
234.00000066666669
  0
LINE
  8
_1-0_躯体
  6
CONTINUOUS
 62
    4
 10
76.666666666666629
 20
234.00000066666669
 11
76.666666666666629
 21
221.33333366666673
  0
LINE
  8
_1-0_躯体
  6
CONTINUOUS
 62
    4
 10
76.666666666666629
 20
211.66666666666666
 11
76.666666666666629
 21
215.00000066666666
  0
LINE
  8
_1-0_躯体
  6
CONTINUOUS
 62
    4
 10
76.666666666666629
 20
215.00000066666666
 11
48.33333366666659
 21
215.00000066666666
  0
LINE
  8
_1-0_躯体
  6
CONTINUOUS
 62
    4
 10
48.33333366666659
 20
213.66666666666666
 11
76.666666666666629
 21
213.66666666666666
  0
LINE
  8
_1-0_躯体
  6
CONTINUOUS
 62
    4
 10
72.999999666666639
 20
221.33333366666673
 11
76.666666666666629
 21
221.33333366666673
  0
LINE
  8
_1-0_躯体
  6
CONTINUOUS
 62
    4
 10
60.83333366666659
 20
221.33333366666673
 11
48.33333366666659
 21
221.33333366666673
  0
LINE
  8
_1-0_躯体
  6
CONTINUOUS
 62
    4
 10
48.33333366666659
 20
214.3333336666667
 11
76.666666666666629
 21
214.3333336666667
  0
LINE
  8
_1-0_躯体
  6
CONTINUOUS
 62
    4
 10
59.58333366666659
 20
215.16666666666666
 11
60.54398866666665
 21
215.16666666666666
  0
LINE
  8
_1-0_躯体
  6
CONTINUOUS
 62
    4
 10
59.58333366666659
 20
215.00000066666666
 11
60.58333366666659
 21
215.00000066666666
  0
LINE
  8
_1-0_躯体
  6
CONTINUOUS
 62
    4
 10
66.58333366666659
 20
215.00000066666666
 11
66.916666666666629
 21
215.16666666666666
  0
LINE
  8
_1-0_躯体
  6
CONTINUOUS
 62
    4
 10
66.916666666666629
 20
215.16666666666666
 11
67.249999666666639
 21
215.00000066666666
  0
LINE
  8
_1-0_躯体
  6
CONTINUOUS
 62
    4
 10
65.249999666666639
 20
215.00000066666666
 11
66.58333366666659
 21
215.00000066666666
  0
LINE
  8
_1-0_躯体
  6
CONTINUOUS
 62
    4
 10
65.289344666666636
 20
215.16666666666666
 11
66.54398866666665
 21
215.16666666666666
  0
LINE
  8
_1-0_躯体
  6
CONTINUOUS
 62
    4
 10
66.54398866666665
 20
215.16666666666666
 11
66.916666666666629
 21
215.35300566666666
  0
LINE
  8
_1-0_躯体
  6
CONTINUOUS
 62
    4
 10
66.916666666666629
 20
215.35300566666666
 11
67.289344666666608
 21
215.16666666666666
  0
LINE
  8
_1-0_躯体
  6
CONTINUOUS
 62
    4
 10
59.749999666666611
 20
220.33333366666673
 11
59.916666666666629
 21
220.33333366666673
  0
LINE
  8
_1-0_躯体
  6
CONTINUOUS
 62
    4
 10
59.916666666666629
 20
220.33333366666673
 11
59.916666666666629
 21
220.83333366666673
  0
ARC
  8
_1-0_躯体
  6
CONTINUOUS
 62
    4
 10
59.416666666666629
 20
220.83333366666673
 40
0.5
 50
0
 51
90
  0
LINE
  8
_1-0_躯体
  6
CONTINUOUS
 62
    4
 10
59.08333366666659
 20
221.33333366666673
 11
59.416666666666629
 21
221.33333366666673
  0
ARC
  8
_1-0_躯体
  6
CONTINUOUS
 62
    4
 10
59.08333366666659
 20
220.83333366666673
 40
0.5
 50
90
 51
180
  0
LINE
  8
_1-0_躯体
  6
CONTINUOUS
 62
    4
 10
58.58333366666659
 20
220.83333366666673
 11
58.58333366666659
 21
216.00000066666666
  0
ARC
  8
_1-0_躯体
  6
CONTINUOUS
 62
    4
 10
59.416666666666629
 20
220.83333366666673
 40
0.3333329999999999
 50
0
 51
90
  0
LINE
  8
_1-0_躯体
  6
CONTINUOUS
 62
    4
 10
59.08333366666659
 20
221.16666666666669
 11
59.416666666666629
 21
221.16666666666669
  0
ARC
  8
_1-0_躯体
  6
CONTINUOUS
 62
    4
 10
59.08333366666659
 20
220.83333366666673
 40
0.3333329999999999
 50
90
 51
180
  0
ARC
  8
_1-0_躯体
  6
CONTINUOUS
 62
    4
 10
59.58333366666659
 20
216.00000066666666
 40
0.8333329999999998
 50
180
 51
270
  0
LINE
  8
_1-0_躯体
  6
CONTINUOUS
 62
    4
 10
58.749999666666611
 20
220.83333366666673
 11
58.749999666666611
 21
216.00000066666666
  0
LINE
  8
_1-0_躯体
  6
CONTINUOUS
 62
    4
 10
59.749999666666611
 20
220.33333366666673
 11
59.749999666666611
 21
220.83333366666673
  0
ARC
  8
_1-0_躯体
  6
CONTINUOUS
 62
    4
 10
59.58333366666659
 20
216.00000066666666
 40
1
 50
180
 51
270
  0
LINE
  8
_1-0_躯体
  6
CONTINUOUS
 62
    4
 10
74.08333366666659
 20
220.33333366666673
 11
73.916666666666629
 21
220.33333366666673
  0
LINE
  8
_1-0_躯体
  6
CONTINUOUS
 62
    4
 10
73.916666666666629
 20
220.33333366666673
 11
73.916666666666629
 21
220.83333366666673
  0
ARC
  8
_1-0_躯体
  6
CONTINUOUS
 62
    4
 10
74.416666666666629
 20
220.83333366666673
 40
0.5
 50
90
 51
180
  0
LINE
  8
_1-0_躯体
  6
CONTINUOUS
 62
    4
 10
74.749999666666639
 20
221.33333366666673
 11
74.416666666666629
 21
221.33333366666673
  0
ARC
  8
_1-0_躯体
  6
CONTINUOUS
 62
    4
 10
74.749999666666639
 20
220.83333366666673
 40
0.5
 50
0
 51
90
  0
LINE
  8
_1-0_躯体
  6
CONTINUOUS
 62
    4
 10
75.249999666666639
 20
220.83333366666673
 11
75.249999666666639
 21
216.00000066666666
  0
ARC
  8
_1-0_躯体
  6
CONTINUOUS
 62
    4
 10
74.416666666666629
 20
220.83333366666673
 40
0.3333329999999999
 50
90
 51
180
  0
LINE
  8
_1-0_躯体
  6
CONTINUOUS
 62
    4
 10
74.749999666666639
 20
221.16666666666669
 11
74.416666666666629
 21
221.16666666666669
  0
ARC
  8
_1-0_躯体
  6
CONTINUOUS
 62
    4
 10
74.749999666666639
 20
220.83333366666673
 40
0.3333329999999999
 50
0
 51
90
  0
ARC
  8
_1-0_躯体
  6
CONTINUOUS
 62
    4
 10
74.249999666666639
 20
216.00000066666666
 40
0.8333329999999998
 50
270
 51
0
  0
LINE
  8
_1-0_躯体
  6
CONTINUOUS
 62
    4
 10
75.08333366666659
 20
220.83333366666673
 11
75.08333366666659
 21
216.00000066666666
  0
LINE
  8
_1-0_躯体
  6
CONTINUOUS
 62
    4
 10
74.08333366666659
 20
220.33333366666673
 11
74.08333366666659
 21
220.83333366666673
  0
ARC
  8
_1-0_躯体
  6
CONTINUOUS
 62
    4
 10
74.249999666666639
 20
216.00000066666666
 40
1
 50
270
 51
0
  0
LINE
  8
_1-0_躯体
  6
CONTINUOUS
 62
    4
 10
60.58333366666659
 20
215.00000066666666
 11
60.916666666666629
 21
215.16666666666666
  0
LINE
  8
_1-0_躯体
  6
CONTINUOUS
 62
    4
 10
60.916666666666629
 20
215.16666666666666
 11
61.416666666666629
 21
215.00000066666666
  0
LINE
  8
_1-0_躯体
  6
CONTINUOUS
 62
    4
 10
60.54398866666665
 20
215.16666666666666
 11
60.903878666666628
 21
215.34661166666666
  0
LINE
  8
_1-0_躯体
  6
CONTINUOUS
 62
    4
 10
60.903878666666628
 20
215.34661166666666
 11
61.416666666666629
 21
215.17568266666663
  0
LINE
  8
_1-0_躯体
  6
CONTINUOUS
 62
    4
 10
61.916666666666629
 20
215.16666666666666
 11
61.416666666666629
 21
215.00000066666666
  0
LINE
  8
_1-0_躯体
  6
CONTINUOUS
 62
    4
 10
61.416666666666629
 20
215.17568266666663
 11
61.916666666666629
 21
215.34234866666671
  0
LINE
  8
_1-0_躯体
  6
CONTINUOUS
 62
    4
 10
62.916666666666629
 20
215.16666666666666
 11
62.416666666666629
 21
215.00000066666666
  0
LINE
  8
_1-0_躯体
  6
CONTINUOUS
 62
    4
 10
62.416666666666629
 20
215.17568266666663
 11
62.916666666666629
 21
215.34234866666671
  0
LINE
  8
_1-0_躯体
  6
CONTINUOUS
 62
    4
 10
61.916666666666629
 20
215.16666666666666
 11
62.416666666666629
 21
215.00000066666666
  0
LINE
  8
_1-0_躯体
  6
CONTINUOUS
 62
    4
 10
62.416666666666629
 20
215.17568266666663
 11
61.916666666666629
 21
215.34234866666671
  0
LINE
  8
_1-0_躯体
  6
CONTINUOUS
 62
    4
 10
64.916666666666629
 20
215.16666666666666
 11
64.416666666666629
 21
215.00000066666666
  0
LINE
  8
_1-0_躯体
  6
CONTINUOUS
 62
    4
 10
64.929454666666629
 20
215.34661166666666
 11
64.416666666666629
 21
215.17568266666663
  0
LINE
  8
_1-0_躯体
  6
CONTINUOUS
 62
    4
 10
63.916666666666629
 20
215.16666666666666
 11
64.416666666666629
 21
215.00000066666666
  0
LINE
  8
_1-0_躯体
  6
CONTINUOUS
 62
    4
 10
64.416666666666629
 20
215.17568266666663
 11
63.916666666666629
 21
215.34234866666671
  0
LINE
  8
_1-0_躯体
  6
CONTINUOUS
 62
    4
 10
62.916666666666629
 20
215.16666666666666
 11
63.416666666666629
 21
215.00000066666666
  0
LINE
  8
_1-0_躯体
  6
CONTINUOUS
 62
    4
 10
63.416666666666629
 20
215.17568266666663
 11
62.916666666666629
 21
215.34234866666671
  0
LINE
  8
_1-0_躯体
  6
CONTINUOUS
 62
    4
 10
63.916666666666629
 20
215.16666666666666
 11
63.416666666666629
 21
215.00000066666666
  0
LINE
  8
_1-0_躯体
  6
CONTINUOUS
 62
    4
 10
63.416666666666629
 20
215.17568266666663
 11
63.916666666666629
 21
215.34234866666671
  0
LINE
  8
_1-0_躯体
  6
CONTINUOUS
 62
    4
 10
65.249999666666639
 20
215.00000066666666
 11
64.916666666666629
 21
215.16666666666666
  0
LINE
  8
_1-0_躯体
  6
CONTINUOUS
 62
    4
 10
65.289344666666636
 20
215.16666666666666
 11
64.929454666666629
 21
215.34661166666666
  0
LINE
  8
_1-0_躯体
  6
CONTINUOUS
 62
    4
 10
68.58333366666659
 20
215.00000066666666
 11
67.249999666666639
 21
215.00000066666666
  0
LINE
  8
_1-0_躯体
  6
CONTINUOUS
 62
    4
 10
68.54398866666665
 20
215.16666666666666
 11
67.289344666666608
 21
215.16666666666666
  0
LINE
  8
_1-0_躯体
  6
CONTINUOUS
 62
    4
 10
73.249999666666639
 20
215.00000066666666
 11
72.916666666666629
 21
215.16666666666666
  0
LINE
  8
_1-0_躯体
  6
CONTINUOUS
 62
    4
 10
72.916666666666629
 20
215.16666666666666
 11
72.416666666666629
 21
215.00000066666666
  0
LINE
  8
_1-0_躯体
  6
CONTINUOUS
 62
    4
 10
73.289344666666636
 20
215.16666666666666
 11
72.929454666666629
 21
215.34661166666666
  0
LINE
  8
_1-0_躯体
  6
CONTINUOUS
 62
    4
 10
72.929454666666629
 20
215.34661166666666
 11
72.416666666666629
 21
215.17568266666663
  0
LINE
  8
_1-0_躯体
  6
CONTINUOUS
 62
    4
 10
71.916666666666629
 20
215.16666666666666
 11
72.416666666666629
 21
215.00000066666666
  0
LINE
  8
_1-0_躯体
  6
CONTINUOUS
 62
    4
 10
72.416666666666629
 20
215.17568266666663
 11
71.916666666666629
 21
215.34234866666671
  0
LINE
  8
_1-0_躯体
  6
CONTINUOUS
 62
    4
 10
70.916666666666629
 20
215.16666666666666
 11
71.416666666666629
 21
215.00000066666666
  0
LINE
  8
_1-0_躯体
  6
CONTINUOUS
 62
    4
 10
71.416666666666629
 20
215.17568266666663
 11
70.916666666666629
 21
215.34234866666671
  0
LINE
  8
_1-0_躯体
  6
CONTINUOUS
 62
    4
 10
71.916666666666629
 20
215.16666666666666
 11
71.416666666666629
 21
215.00000066666666
  0
LINE
  8
_1-0_躯体
  6
CONTINUOUS
 62
    4
 10
71.416666666666629
 20
215.17568266666663
 11
71.916666666666629
 21
215.34234866666671
  0
LINE
  8
_1-0_躯体
  6
CONTINUOUS
 62
    4
 10
68.916666666666629
 20
215.16666666666666
 11
69.416666666666629
 21
215.00000066666666
  0
LINE
  8
_1-0_躯体
  6
CONTINUOUS
 62
    4
 10
68.903878666666628
 20
215.34661166666666
 11
69.416666666666629
 21
215.17568266666663
  0
LINE
  8
_1-0_躯体
  6
CONTINUOUS
 62
    4
 10
69.916666666666629
 20
215.16666666666666
 11
69.416666666666629
 21
215.00000066666666
  0
LINE
  8
_1-0_躯体
  6
CONTINUOUS
 62
    4
 10
69.416666666666629
 20
215.17568266666663
 11
69.916666666666629
 21
215.34234866666671
  0
LINE
  8
_1-0_躯体
  6
CONTINUOUS
 62
    4
 10
70.916666666666629
 20
215.16666666666666
 11
70.416666666666629
 21
215.00000066666666
  0
LINE
  8
_1-0_躯体
  6
CONTINUOUS
 62
    4
 10
70.416666666666629
 20
215.17568266666663
 11
70.916666666666629
 21
215.34234866666671
  0
LINE
  8
_1-0_躯体
  6
CONTINUOUS
 62
    4
 10
69.916666666666629
 20
215.16666666666666
 11
70.416666666666629
 21
215.00000066666666
  0
LINE
  8
_1-0_躯体
  6
CONTINUOUS
 62
    4
 10
70.416666666666629
 20
215.17568266666663
 11
69.916666666666629
 21
215.34234866666671
  0
LINE
  8
_1-0_躯体
  6
CONTINUOUS
 62
    4
 10
68.58333366666659
 20
215.00000066666666
 11
68.916666666666629
 21
215.16666666666666
  0
LINE
  8
_1-0_躯体
  6
CONTINUOUS
 62
    4
 10
68.54398866666665
 20
215.16666666666666
 11
68.903878666666628
 21
215.34661166666666
  0
LINE
  8
_1-0_躯体
  6
CONTINUOUS
 62
    4
 10
74.249999666666639
 20
215.16666666666666
 11
73.289344666666636
 21
215.16666666666666
  0
LINE
  8
_1-0_躯体
  6
CONTINUOUS
 62
    4
 10
74.249999666666639
 20
215.00000066666666
 11
73.249999666666639
 21
215.00000066666666
  0
LINE
  8
_1-0_躯体
  6
CONTINUOUS
 62
    4
 10
58.999999666666611
 20
221.00000066666669
 11
59.366666666666617
 21
221.16666666666669
  0
LINE
  8
_1-0_躯体
  6
CONTINUOUS
 62
    4
 10
59.366666666666617
 20
221.16666666666669
 11
59.872943666666629
 21
219.97162366666669
  0
ARC
  8
_1-0_躯体
  6
CONTINUOUS
 62
    4
 10
60.33333366666659
 20
220.16666666666669
 40
0.5
 50
202.95984199999688
 51
0
  0
LINE
  8
_1-0_躯体
  6
CONTINUOUS
 62
    4
 10
58.999999666666611
 20
221.00000066666669
 11
58.999999666666611
 21
219.33333366666673
  0
LINE
  8
_1-0_躯体
  6
CONTINUOUS
 62
    4
 10
59.199999666666599
 20
221.0909096666667
 11
59.199999666666599
 21
219.33333366666673
  0
LINE
  8
_1-0_躯体
  6
CONTINUOUS
 62
    4
 10
60.83333366666659
 20
220.16666666666669
 11
60.83333366666659
 21
225.13076866666668
  0
ARC
  8
_1-0_躯体
  6
CONTINUOUS
 62
    4
 10
60.166666666666629
 20
219.33333366666673
 40
1.1666669999999999
 50
180
 51
270
  0
LINE
  8
_1-0_躯体
  6
CONTINUOUS
 62
    4
 10
60.166666666666629
 20
218.16666666666666
 11
73.666666666666629
 21
218.16666666666666
  0
LINE
  8
_1-0_躯体
  6
CONTINUOUS
 62
    4
 10
58.83333366666659
 20
234.20000066666665
 11
58.83333366666659
 21
225.66666666666669
  0
LINE
  8
_1-0_躯体
  6
CONTINUOUS
 62
    4
 10
74.999999666666639
 20
234.20000066666665
 11
74.999999666666639
 21
225.66666666666669
  0
ARC
  8
_1-0_躯体
  6
CONTINUOUS
 62
    4
 10
60.166666666666629
 20
219.33333366666673
 40
0.9666669999999998
 50
180
 51
270
  0
LINE
  8
_1-0_躯体
  6
CONTINUOUS
 62
    4
 10
73.666666666666629
 20
218.36666666666662
 11
60.166666666666629
 21
218.36666666666662
  0
LINE
  8
_1-0_躯体
  6
CONTINUOUS
 62
    4
 10
58.83333366666659
 20
225.66666666666669
 11
60.83333366666659
 21
225.13076866666668
  0
LINE
  8
_1-0_躯体
  6
CONTINUOUS
 62
    4
 10
58.83333366666659
 20
234.20000066666665
 11
74.999999666666639
 21
234.20000066666665
  0
ARC
  8
_1-0_躯体
  6
CONTINUOUS
 62
    4
 10
61.08333366666659
 20
227.16666666666669
 40
0.8333329999999998
 50
180
 51
270
  0
ARC
  8
_1-0_躯体
  6
CONTINUOUS
 62
    4
 10
61.08333366666659
 20
231.50000066666669
 40
0.8333329999999998
 50
90
 51
180
  0
LINE
  8
_1-0_躯体
  6
CONTINUOUS
 62
    4
 10
60.249999666666611
 20
227.16666666666669
 11
60.249999666666611
 21
231.50000066666669
  0
LINE
  8
_1-0_躯体
  6
CONTINUOUS
 62
    4
 10
61.08333366666659
 20
226.33333366666673
 11
61.916666666666629
 21
226.33333366666673
  0
ARC
  8
_1-0_躯体
  6
CONTINUOUS
 62
    4
 10
63.58333366666659
 20
220.66666666666669
 40
1
 50
180
 51
0
  0
ARC
  8
_1-0_躯体
  6
CONTINUOUS
 62
    4
 10
61.916666666666629
 20
225.66666666666669
 40
0.666667
 50
0
 51
90
  0
LINE
  8
_1-0_躯体
  6
CONTINUOUS
 62
    4
 10
62.58333366666659
 20
220.66666666666669
 11
62.58333366666659
 21
225.66666666666669
  0
ARC
  8
_1-0_躯体
  6
CONTINUOUS
 62
    4
 10
65.249999666666639
 20
225.66666666666669
 40
0.666667
 50
90
 51
180
  0
LINE
  8
_1-0_躯体
  6
CONTINUOUS
 62
    4
 10
64.58333366666659
 20
220.66666666666669
 11
64.58333366666659
 21
225.66666666666669
  0
ARC
  8
_1-0_躯体
  6
CONTINUOUS
 62
    4
 10
68.58333366666659
 20
225.66666666666669
 40
0.666667
 50
0
 51
90
  0
LINE
  8
_1-0_躯体
  6
CONTINUOUS
 62
    4
 10
65.249999666666639
 20
226.33333366666673
 11
68.58333366666659
 21
226.33333366666673
  0
LINE
  8
_1-0_躯体
  6
CONTINUOUS
 62
    4
 10
74.83333366666659
 20
221.00000066666669
 11
74.46666666666664
 21
221.16666666666669
  0
LINE
  8
_1-0_躯体
  6
CONTINUOUS
 62
    4
 10
74.46666666666664
 20
221.16666666666669
 11
73.960389666666629
 21
219.97162366666669
  0
ARC
  8
_1-0_躯体
  6
CONTINUOUS
 62
    4
 10
73.499999666666639
 20
220.16666666666669
 40
0.5
 50
180
 51
337.04015800000315
  0
ARC
  8
_1-0_躯体
  6
CONTINUOUS
 62
    4
 10
73.666666666666629
 20
219.33333366666673
 40
1.1666669999999999
 50
270
 51
0
  0
LINE
  8
_1-0_躯体
  6
CONTINUOUS
 62
    4
 10
74.83333366666659
 20
221.00000066666669
 11
74.83333366666659
 21
219.33333366666673
  0
ARC
  8
_1-0_躯体
  6
CONTINUOUS
 62
    4
 10
73.666666666666629
 20
219.33333366666673
 40
0.9666669999999998
 50
270
 51
0
  0
LINE
  8
_1-0_躯体
  6
CONTINUOUS
 62
    4
 10
74.633333666666601
 20
221.0909096666667
 11
74.633333666666601
 21
219.33333366666673
  0
LINE
  8
_1-0_躯体
  6
CONTINUOUS
 62
    4
 10
72.999999666666639
 20
220.16666666666669
 11
72.999999666666639
 21
225.13076866666668
  0
LINE
  8
_1-0_躯体
  6
CONTINUOUS
 62
    4
 10
74.999999666666639
 20
225.66666666666669
 11
72.999999666666639
 21
225.13076866666668
  0
ARC
  8
_1-0_躯体
  6
CONTINUOUS
 62
    4
 10
70.249999666666639
 20
220.66666666666669
 40
1
 50
180
 51
0
  0
ARC
  8
_1-0_躯体
  6
CONTINUOUS
 62
    4
 10
71.916666666666629
 20
225.66666666666669
 40
0.666667
 50
90
 51
180
  0
LINE
  8
_1-0_躯体
  6
CONTINUOUS
 62
    4
 10
71.249999666666639
 20
220.66666666666669
 11
71.249999666666639
 21
225.66666666666669
  0
LINE
  8
_1-0_躯体
  6
CONTINUOUS
 62
    4
 10
69.249999666666639
 20
220.66666666666669
 11
69.249999666666639
 21
225.66666666666669
  0
ARC
  8
_1-0_躯体
  6
CONTINUOUS
 62
    4
 10
72.749999666666639
 20
227.16666666666669
 40
0.8333329999999998
 50
270
 51
0
  0
ARC
  8
_1-0_躯体
  6
CONTINUOUS
 62
    4
 10
72.749999666666639
 20
231.50000066666669
 40
0.8333329999999998
 50
0
 51
90
  0
LINE
  8
_1-0_躯体
  6
CONTINUOUS
 62
    4
 10
73.58333366666659
 20
227.16666666666669
 11
73.58333366666659
 21
231.50000066666669
  0
LINE
  8
_1-0_躯体
  6
CONTINUOUS
 62
    4
 10
72.749999666666639
 20
226.33333366666673
 11
71.916666666666629
 21
226.33333366666673
  0
LINE
  8
_1-0_躯体
  6
CONTINUOUS
 62
    4
 10
48.33333366666659
 20
212.3333336666667
 11
76.666666666666629
 21
212.3333336666667
  0
LINE
  8
_1-0_躯体
  6
CONTINUOUS
 62
    4
 10
76.666666666666629
 20
213.00000066666666
 11
48.33333366666659
 21
213.00000066666666
  0
LINE
  8
_1-0_躯体
  6
CONTINUOUS
 62
    4
 10
76.666666666666629
 20
211.66666666666666
 11
48.33333366666659
 21
211.66666666666666
  0
INSERT
  2
-007-_4_
  8
_1-8_小物
 10
210
 20
148.5
 41
1
 42
1
 50
0
  0
CIRCLE
  8
_1-f_寸法
  6
CONTINUOUS
 62
    4
 10
53.333333333333371
 20
218.33333333333331
 40
1.6666666666666665
  0
LINE
  8
_1-f_寸法
  6
CONTINUOUS
 62
    4
 10
54.033201290960506
 20
216.82073205749603
 11
57.014045405377601
 21
210.37833308580085
  0
CIRCLE
  8
_1-f_寸法
  6
CONTINUOUS
 62
    4
 10
64.999999999999972
 20
206.66666666666666
 40
1.6666666666666665
  0
LINE
  8
_1-f_寸法
  6
CONTINUOUS
 62
    4
 10
69.999999999999886
 20
210.29333318333329
 11
66.349137015949935
 21
207.64524067509493
  0
CIRCLE
  8
_1-f_寸法
  6
CONTINUOUS
 62
    4
 10
70
 20
206.66666666666666
 40
1.6666666666666665
  0
LINE
  8
_1-7_カバ__
  6
CONTINUOUS
 62
    4
 10
71.762500450000289
 20
210.9083333333333
 11
70.639522547080361
 21
208.2057536328754
  0
CIRCLE
  8
_1-f_寸法
  6
CONTINUOUS
 62
    4
 10
136.66666666666663
 20
200
 40
1.6666666666666665
  0
TEXT
  8
_1-f_寸法
 62
    4
 10
136.04166666666663
 20
198.75
 40
2.5
 41
1
 50
0
  1
1
  0
LINE
  8
_1-f_寸法
  6
CONTINUOUS
 62
    4
 10
135.83333333333334
 20
201.44337567297407
 11
134.50160315720552
 21
203.75000000000003
  0
INSERT
  2
-008-_5_
  8
_1-8_小物
 10
210
 20
148.5
 41
1
 42
1
 50
0
  0
INSERT
  2
-009-_6_
  8
_1-8_小物
 10
210
 20
148.5
 41
1
 42
1
 50
0
  0
LINE
  8
_1-f_寸法
  6
CONTINUOUS
 62
    4
 10
143.33333333333331
 20
234.00000066666669
 11
143.33333333333331
 21
241.59999999999997
  0
LINE
  8
_1-f_寸法
  6
CONTINUOUS
 62
    4
 10
76.666666666666629
 20
234.00000066666669
 11
76.666666666666629
 21
241.59999999999997
  0
POINT
  8
_1-f_寸法
 62
    4
 10
76.666666666666629
 20
240
  0
POINT
  8
_1-f_寸法
 62
    4
 10
143.33333333333331
 20
240
  0
LINE
  8
_1-f_寸法
  6
CONTINUOUS
 62
    4
 10
76.666666666666629
 20
240
 11
143.33333333333331
 21
240
  0
TEXT
  8
_1-f_寸法
 62
    4
 10
107.59999999999997
 20
240
 40
3.2000000000000002
 41
1
 50
0
  1
200
  0
LINE
  8
_1-f_寸法
  6
CONTINUOUS
 62
    4
 10
163.33333549747638
 20
201.66666666666666
 11
163.33333549747638
 21
195.06666666666666
  0
LINE
  8
_1-f_寸法
  6
CONTINUOUS
 62
    4
 10
56.666666666660319
 20
201.66666666666666
 11
56.666666666660319
 21
195.06666666666666
  0
POINT
  8
_1-f_寸法
 62
    4
 10
56.666666666660319
 20
196.66666666666666
  0
POINT
  8
_1-f_寸法
 62
    4
 10
163.33333549747638
 20
196.66666666666666
  0
LINE
  8
_1-f_寸法
  6
CONTINUOUS
 62
    4
 10
56.666666666660319
 20
196.66666666666666
 11
163.33333549747638
 21
196.66666666666666
  0
TEXT
  8
_1-f_寸法
 62
    4
 10
107.60000108206836
 20
196.66666666666666
 40
3.2000000000000002
 41
1
 50
0
  1
320
  0
ARC
  8
_1-0_躯体
  6
CONTINUOUS
 62
    4
 10
347.24999933333316
 20
231.50000066666661
 40
0.8333329999999998
 50
90
 51
180
  0
ARC
  8
_1-0_躯体
  6
CONTINUOUS
 62
    4
 10
358.91666633333318
 20
231.50000066666661
 40
0.8333329999999998
 50
0
 51
90
  0
LINE
  8
_1-0_躯体
  6
CONTINUOUS
 62
    4
 10
347.24999933333316
 20
232.33333366666665
 11
358.91666633333318
 21
232.33333366666665
  0
LINE
  8
_1-0_躯体
  6
CONTINUOUS
 62
    4
 10
361.1666663333333
 20
234.00000066666661
 11
371.66666633333335
 21
234.00000066666661
  0
LINE
  8
_1-0_躯体
  6
CONTINUOUS
 62
    4
 10
344.99999933333316
 20
234.00000066666661
 11
343.33333333333314
 21
234.00000066666661
  0
LINE
  8
_1-0_躯体
  6
CONTINUOUS
 62
    4
 10
343.33333333333314
 20
234.00000066666661
 11
343.33333333333314
 21
221.33333366666665
  0
LINE
  8
_1-0_躯体
  6
CONTINUOUS
 62
    4
 10
371.66666633333335
 20
215.00000066666658
 11
343.33333333333314
 21
215.00000066666658
  0
LINE
  8
_1-0_躯体
  6
CONTINUOUS
 62
    4
 10
371.66666633333335
 20
214.33333366666662
 11
343.33333333333314
 21
214.33333366666662
  0
LINE
  8
_1-0_躯体
  6
CONTINUOUS
 62
    4
 10
371.66666633333335
 20
213.66666666666657
 11
343.33333333333314
 21
213.66666666666657
  0
LINE
  8
_1-0_躯体
  6
CONTINUOUS
 62
    4
 10
346.99999933333316
 20
221.33333366666665
 11
343.33333333333314
 21
221.33333366666665
  0
LINE
  8
_1-0_躯体
  6
CONTINUOUS
 62
    4
 10
345.74999933333316
 20
215.16666666666657
 11
346.71065533333319
 21
215.16666666666657
  0
LINE
  8
_1-0_躯体
  6
CONTINUOUS
 62
    4
 10
345.74999933333316
 20
215.00000066666658
 11
346.74999933333316
 21
215.00000066666658
  0
LINE
  8
_1-0_躯体
  6
CONTINUOUS
 62
    4
 10
352.74999933333316
 20
215.00000066666658
 11
353.08333333333314
 21
215.16666666666657
  0
LINE
  8
_1-0_躯体
  6
CONTINUOUS
 62
    4
 10
353.08333333333314
 20
215.16666666666657
 11
353.41666633333318
 21
215.00000066666658
  0
LINE
  8
_1-0_躯体
  6
CONTINUOUS
 62
    4
 10
351.41666633333318
 20
215.00000066666658
 11
352.74999933333316
 21
215.00000066666658
  0
LINE
  8
_1-0_躯体
  6
CONTINUOUS
 62
    4
 10
351.45601133333327
 20
215.16666666666657
 11
352.71065533333331
 21
215.16666666666657
  0
LINE
  8
_1-0_躯体
  6
CONTINUOUS
 62
    4
 10
352.71065533333331
 20
215.16666666666657
 11
353.08333333333314
 21
215.3530056666666
  0
LINE
  8
_1-0_躯体
  6
CONTINUOUS
 62
    4
 10
353.08333333333314
 20
215.3530056666666
 11
353.45601133333327
 21
215.16666666666657
  0
LINE
  8
_1-0_躯体
  6
CONTINUOUS
 62
    4
 10
345.91666633333318
 20
220.33333366666665
 11
346.08333333333314
 21
220.33333366666665
  0
LINE
  8
_1-0_躯体
  6
CONTINUOUS
 62
    4
 10
346.08333333333314
 20
220.33333366666665
 11
346.08333333333314
 21
220.83333366666665
  0
ARC
  8
_1-0_躯体
  6
CONTINUOUS
 62
    4
 10
345.58333333333314
 20
220.83333366666665
 40
0.5
 50
0
 51
90
  0
LINE
  8
_1-0_躯体
  6
CONTINUOUS
 62
    4
 10
345.24999933333316
 20
221.33333366666665
 11
345.58333333333314
 21
221.33333366666665
  0
ARC
  8
_1-0_躯体
  6
CONTINUOUS
 62
    4
 10
345.24999933333316
 20
220.83333366666665
 40
0.5
 50
90
 51
180
  0
LINE
  8
_1-0_躯体
  6
CONTINUOUS
 62
    4
 10
344.74999933333316
 20
220.83333366666665
 11
344.74999933333316
 21
216.00000066666658
  0
ARC
  8
_1-0_躯体
  6
CONTINUOUS
 62
    4
 10
345.58333333333314
 20
220.83333366666665
 40
0.3333329999999999
 50
0
 51
90
  0
LINE
  8
_1-0_躯体
  6
CONTINUOUS
 62
    4
 10
345.24999933333316
 20
221.16666666666663
 11
345.58333333333314
 21
221.16666666666663
  0
ARC
  8
_1-0_躯体
  6
CONTINUOUS
 62
    4
 10
345.24999933333316
 20
220.83333366666665
 40
0.3333329999999999
 50
90
 51
180
  0
ARC
  8
_1-0_躯体
  6
CONTINUOUS
 62
    4
 10
345.74999933333316
 20
216.00000066666658
 40
0.8333329999999998
 50
180
 51
270
  0
LINE
  8
_1-0_躯体
  6
CONTINUOUS
 62
    4
 10
344.91666633333318
 20
220.83333366666665
 11
344.91666633333318
 21
216.00000066666658
  0
LINE
  8
_1-0_躯体
  6
CONTINUOUS
 62
    4
 10
345.91666633333318
 20
220.33333366666665
 11
345.91666633333318
 21
220.83333366666665
  0
ARC
  8
_1-0_躯体
  6
CONTINUOUS
 62
    4
 10
345.74999933333316
 20
216.00000066666658
 40
1
 50
180
 51
270
  0
LINE
  8
_1-0_躯体
  6
CONTINUOUS
 62
    4
 10
360.24999933333316
 20
220.33333366666665
 11
360.08333333333326
 21
220.33333366666665
  0
LINE
  8
_1-0_躯体
  6
CONTINUOUS
 62
    4
 10
360.08333333333326
 20
220.33333366666665
 11
360.08333333333326
 21
220.83333366666665
  0
ARC
  8
_1-0_躯体
  6
CONTINUOUS
 62
    4
 10
360.58333333333326
 20
220.83333366666665
 40
0.5
 50
90
 51
180
  0
LINE
  8
_1-0_躯体
  6
CONTINUOUS
 62
    4
 10
360.9166663333333
 20
221.33333366666665
 11
360.58333333333326
 21
221.33333366666665
  0
ARC
  8
_1-0_躯体
  6
CONTINUOUS
 62
    4
 10
360.9166663333333
 20
220.83333366666665
 40
0.5
 50
0
 51
90
  0
LINE
  8
_1-0_躯体
  6
CONTINUOUS
 62
    4
 10
361.4166663333333
 20
220.83333366666665
 11
361.4166663333333
 21
216.00000066666658
  0
ARC
  8
_1-0_躯体
  6
CONTINUOUS
 62
    4
 10
360.58333333333326
 20
220.83333366666665
 40
0.3333329999999999
 50
90
 51
180
  0
LINE
  8
_1-0_躯体
  6
CONTINUOUS
 62
    4
 10
360.9166663333333
 20
221.16666666666663
 11
360.58333333333326
 21
221.16666666666663
  0
ARC
  8
_1-0_躯体
  6
CONTINUOUS
 62
    4
 10
360.9166663333333
 20
220.83333366666665
 40
0.3333329999999999
 50
0
 51
90
  0
ARC
  8
_1-0_躯体
  6
CONTINUOUS
 62
    4
 10
360.4166663333333
 20
216.00000066666658
 40
0.8333329999999998
 50
270
 51
0
  0
LINE
  8
_1-0_躯体
  6
CONTINUOUS
 62
    4
 10
361.24999933333316
 20
220.83333366666665
 11
361.24999933333316
 21
216.00000066666658
  0
LINE
  8
_1-0_躯体
  6
CONTINUOUS
 62
    4
 10
360.24999933333316
 20
220.33333366666665
 11
360.24999933333316
 21
220.83333366666665
  0
ARC
  8
_1-0_躯体
  6
CONTINUOUS
 62
    4
 10
360.4166663333333
 20
216.00000066666658
 40
1
 50
270
 51
0
  0
LINE
  8
_1-0_躯体
  6
CONTINUOUS
 62
    4
 10
346.74999933333316
 20
215.00000066666658
 11
347.08333333333314
 21
215.16666666666657
  0
LINE
  8
_1-0_躯体
  6
CONTINUOUS
 62
    4
 10
347.08333333333314
 20
215.16666666666657
 11
347.58333333333314
 21
215.00000066666658
  0
LINE
  8
_1-0_躯体
  6
CONTINUOUS
 62
    4
 10
346.71065533333319
 20
215.16666666666657
 11
347.07054433333303
 21
215.3466116666666
  0
LINE
  8
_1-0_躯体
  6
CONTINUOUS
 62
    4
 10
347.07054433333303
 20
215.3466116666666
 11
347.58333333333314
 21
215.17568266666655
  0
LINE
  8
_1-0_躯体
  6
CONTINUOUS
 62
    4
 10
348.08333333333314
 20
215.16666666666657
 11
347.58333333333314
 21
215.00000066666658
  0
LINE
  8
_1-0_躯体
  6
CONTINUOUS
 62
    4
 10
347.58333333333314
 20
215.17568266666655
 11
348.08333333333314
 21
215.34234866666662
  0
LINE
  8
_1-0_躯体
  6
CONTINUOUS
 62
    4
 10
349.08333333333314
 20
215.16666666666657
 11
348.58333333333314
 21
215.00000066666658
  0
LINE
  8
_1-0_躯体
  6
CONTINUOUS
 62
    4
 10
348.58333333333314
 20
215.17568266666655
 11
349.08333333333314
 21
215.34234866666662
  0
LINE
  8
_1-0_躯体
  6
CONTINUOUS
 62
    4
 10
348.08333333333314
 20
215.16666666666657
 11
348.58333333333314
 21
215.00000066666658
  0
LINE
  8
_1-0_躯体
  6
CONTINUOUS
 62
    4
 10
348.58333333333314
 20
215.17568266666655
 11
348.08333333333314
 21
215.34234866666662
  0
LINE
  8
_1-0_躯体
  6
CONTINUOUS
 62
    4
 10
351.08333333333314
 20
215.16666666666657
 11
350.58333333333314
 21
215.00000066666658
  0
LINE
  8
_1-0_躯体
  6
CONTINUOUS
 62
    4
 10
351.09612133333314
 20
215.3466116666666
 11
350.58333333333314
 21
215.17568266666655
  0
LINE
  8
_1-0_躯体
  6
CONTINUOUS
 62
    4
 10
350.08333333333314
 20
215.16666666666657
 11
350.58333333333314
 21
215.00000066666658
  0
LINE
  8
_1-0_躯体
  6
CONTINUOUS
 62
    4
 10
350.58333333333314
 20
215.17568266666655
 11
350.08333333333314
 21
215.34234866666662
  0
LINE
  8
_1-0_躯体
  6
CONTINUOUS
 62
    4
 10
349.08333333333314
 20
215.16666666666657
 11
349.58333333333314
 21
215.00000066666658
  0
LINE
  8
_1-0_躯体
  6
CONTINUOUS
 62
    4
 10
349.58333333333314
 20
215.17568266666655
 11
349.08333333333314
 21
215.34234866666662
  0
LINE
  8
_1-0_躯体
  6
CONTINUOUS
 62
    4
 10
350.08333333333314
 20
215.16666666666657
 11
349.58333333333314
 21
215.00000066666658
  0
LINE
  8
_1-0_躯体
  6
CONTINUOUS
 62
    4
 10
349.58333333333314
 20
215.17568266666655
 11
350.08333333333314
 21
215.34234866666662
  0
LINE
  8
_1-0_躯体
  6
CONTINUOUS
 62
    4
 10
351.41666633333318
 20
215.00000066666658
 11
351.08333333333314
 21
215.16666666666657
  0
LINE
  8
_1-0_躯体
  6
CONTINUOUS
 62
    4
 10
351.45601133333327
 20
215.16666666666657
 11
351.09612133333314
 21
215.3466116666666
  0
LINE
  8
_1-0_躯体
  6
CONTINUOUS
 62
    4
 10
354.74999933333316
 20
215.00000066666658
 11
353.41666633333318
 21
215.00000066666658
  0
LINE
  8
_1-0_躯体
  6
CONTINUOUS
 62
    4
 10
354.71065533333331
 20
215.16666666666657
 11
353.45601133333327
 21
215.16666666666657
  0
LINE
  8
_1-0_躯体
  6
CONTINUOUS
 62
    4
 10
359.41666633333318
 20
215.00000066666658
 11
359.08333333333314
 21
215.16666666666657
  0
LINE
  8
_1-0_躯体
  6
CONTINUOUS
 62
    4
 10
359.08333333333314
 20
215.16666666666657
 11
358.58333333333314
 21
215.00000066666658
  0
LINE
  8
_1-0_躯体
  6
CONTINUOUS
 62
    4
 10
359.45601133333327
 20
215.16666666666657
 11
359.09612133333314
 21
215.3466116666666
  0
LINE
  8
_1-0_躯体
  6
CONTINUOUS
 62
    4
 10
359.09612133333314
 20
215.3466116666666
 11
358.58333333333314
 21
215.17568266666655
  0
LINE
  8
_1-0_躯体
  6
CONTINUOUS
 62
    4
 10
358.08333333333314
 20
215.16666666666657
 11
358.58333333333314
 21
215.00000066666658
  0
LINE
  8
_1-0_躯体
  6
CONTINUOUS
 62
    4
 10
358.58333333333314
 20
215.17568266666655
 11
358.08333333333314
 21
215.34234866666662
  0
LINE
  8
_1-0_躯体
  6
CONTINUOUS
 62
    4
 10
357.08333333333314
 20
215.16666666666657
 11
357.58333333333314
 21
215.00000066666658
  0
LINE
  8
_1-0_躯体
  6
CONTINUOUS
 62
    4
 10
357.58333333333314
 20
215.17568266666655
 11
357.08333333333314
 21
215.34234866666662
  0
LINE
  8
_1-0_躯体
  6
CONTINUOUS
 62
    4
 10
358.08333333333314
 20
215.16666666666657
 11
357.58333333333314
 21
215.00000066666658
  0
LINE
  8
_1-0_躯体
  6
CONTINUOUS
 62
    4
 10
357.58333333333314
 20
215.17568266666655
 11
358.08333333333314
 21
215.34234866666662
  0
LINE
  8
_1-0_躯体
  6
CONTINUOUS
 62
    4
 10
355.08333333333314
 20
215.16666666666657
 11
355.58333333333314
 21
215.00000066666658
  0
LINE
  8
_1-0_躯体
  6
CONTINUOUS
 62
    4
 10
355.0705443333332
 20
215.3466116666666
 11
355.58333333333314
 21
215.17568266666655
  0
LINE
  8
_1-0_躯体
  6
CONTINUOUS
 62
    4
 10
356.08333333333314
 20
215.16666666666657
 11
355.58333333333314
 21
215.00000066666658
  0
LINE
  8
_1-0_躯体
  6
CONTINUOUS
 62
    4
 10
355.58333333333314
 20
215.17568266666655
 11
356.08333333333314
 21
215.34234866666662
  0
LINE
  8
_1-0_躯体
  6
CONTINUOUS
 62
    4
 10
357.08333333333314
 20
215.16666666666657
 11
356.58333333333314
 21
215.00000066666658
  0
LINE
  8
_1-0_躯体
  6
CONTINUOUS
 62
    4
 10
356.58333333333314
 20
215.17568266666655
 11
357.08333333333314
 21
215.34234866666662
  0
LINE
  8
_1-0_躯体
  6
CONTINUOUS
 62
    4
 10
356.08333333333314
 20
215.16666666666657
 11
356.58333333333314
 21
215.00000066666658
  0
LINE
  8
_1-0_躯体
  6
CONTINUOUS
 62
    4
 10
356.58333333333314
 20
215.17568266666655
 11
356.08333333333314
 21
215.34234866666662
  0
LINE
  8
_1-0_躯体
  6
CONTINUOUS
 62
    4
 10
354.74999933333316
 20
215.00000066666658
 11
355.08333333333314
 21
215.16666666666657
  0
LINE
  8
_1-0_躯体
  6
CONTINUOUS
 62
    4
 10
354.71065533333331
 20
215.16666666666657
 11
355.0705443333332
 21
215.3466116666666
  0
LINE
  8
_1-0_躯体
  6
CONTINUOUS
 62
    4
 10
360.4166663333333
 20
215.16666666666657
 11
359.45601133333327
 21
215.16666666666657
  0
LINE
  8
_1-0_躯体
  6
CONTINUOUS
 62
    4
 10
360.4166663333333
 20
215.00000066666658
 11
359.41666633333318
 21
215.00000066666658
  0
LINE
  8
_1-0_躯体
  6
CONTINUOUS
 62
    4
 10
345.16666633333318
 20
221.00000066666661
 11
345.53333333333319
 21
221.16666666666663
  0
LINE
  8
_1-0_躯体
  6
CONTINUOUS
 62
    4
 10
345.53333333333319
 20
221.16666666666663
 11
346.03961033333314
 21
219.9716236666666
  0
ARC
  8
_1-0_躯体
  6
CONTINUOUS
 62
    4
 10
346.49999933333316
 20
220.16666666666663
 40
0.5
 50
202.95984199999862
 51
0
  0
LINE
  8
_1-0_躯体
  6
CONTINUOUS
 62
    4
 10
345.16666633333318
 20
221.00000066666661
 11
345.16666633333318
 21
219.33333366666665
  0
LINE
  8
_1-0_躯体
  6
CONTINUOUS
 62
    4
 10
345.36666633333317
 20
221.09090966666662
 11
345.36666633333317
 21
219.33333366666665
  0
LINE
  8
_1-0_躯体
  6
CONTINUOUS
 62
    4
 10
346.99999933333316
 20
220.16666666666663
 11
346.99999933333316
 21
225.1307686666666
  0
ARC
  8
_1-0_躯体
  6
CONTINUOUS
 62
    4
 10
346.33333333333314
 20
219.33333366666665
 40
1.1666669999999999
 50
180
 51
270
  0
LINE
  8
_1-0_躯体
  6
CONTINUOUS
 62
    4
 10
346.33333333333314
 20
218.16666666666657
 11
359.83333333333326
 21
218.16666666666657
  0
LINE
  8
_1-0_躯体
  6
CONTINUOUS
 62
    4
 10
344.99999933333316
 20
234.2000006666666
 11
344.99999933333316
 21
225.66666666666663
  0
LINE
  8
_1-0_躯体
  6
CONTINUOUS
 62
    4
 10
361.1666663333333
 20
234.2000006666666
 11
361.1666663333333
 21
225.66666666666663
  0
ARC
  8
_1-0_躯体
  6
CONTINUOUS
 62
    4
 10
346.33333333333314
 20
219.33333366666665
 40
0.9666669999999998
 50
180
 51
270
  0
LINE
  8
_1-0_躯体
  6
CONTINUOUS
 62
    4
 10
359.83333333333326
 20
218.36666666666656
 11
346.33333333333314
 21
218.36666666666656
  0
LINE
  8
_1-0_躯体
  6
CONTINUOUS
 62
    4
 10
344.99999933333316
 20
225.66666666666663
 11
346.99999933333316
 21
225.1307686666666
  0
LINE
  8
_1-0_躯体
  6
CONTINUOUS
 62
    4
 10
344.99999933333316
 20
234.2000006666666
 11
361.1666663333333
 21
234.2000006666666
  0
ARC
  8
_1-0_躯体
  6
CONTINUOUS
 62
    4
 10
347.24999933333316
 20
227.16666666666663
 40
0.8333329999999998
 50
180
 51
270
  0
LINE
  8
_1-0_躯体
  6
CONTINUOUS
 62
    4
 10
346.41666633333318
 20
227.16666666666663
 11
346.41666633333318
 21
231.50000066666661
  0
LINE
  8
_1-0_躯体
  6
CONTINUOUS
 62
    4
 10
347.24999933333316
 20
226.33333366666665
 11
348.08333333333314
 21
226.33333366666665
  0
ARC
  8
_1-0_躯体
  6
CONTINUOUS
 62
    4
 10
349.74999933333316
 20
220.66666666666663
 40
1
 50
180
 51
0
  0
ARC
  8
_1-0_躯体
  6
CONTINUOUS
 62
    4
 10
348.08333333333314
 20
225.66666666666663
 40
0.666667
 50
0
 51
90
  0
LINE
  8
_1-0_躯体
  6
CONTINUOUS
 62
    4
 10
348.74999933333316
 20
220.66666666666663
 11
348.74999933333316
 21
225.66666666666663
  0
ARC
  8
_1-0_躯体
  6
CONTINUOUS
 62
    4
 10
351.41666633333318
 20
225.66666666666663
 40
0.666667
 50
90
 51
180
  0
LINE
  8
_1-0_躯体
  6
CONTINUOUS
 62
    4
 10
350.74999933333316
 20
220.66666666666663
 11
350.74999933333316
 21
225.66666666666663
  0
ARC
  8
_1-0_躯体
  6
CONTINUOUS
 62
    4
 10
354.74999933333316
 20
225.66666666666663
 40
0.666667
 50
0
 51
90
  0
LINE
  8
_1-0_躯体
  6
CONTINUOUS
 62
    4
 10
351.41666633333318
 20
226.33333366666665
 11
354.74999933333316
 21
226.33333366666665
  0
LINE
  8
_1-0_躯体
  6
CONTINUOUS
 62
    4
 10
360.99999933333316
 20
221.00000066666661
 11
360.63333333333321
 21
221.16666666666663
  0
LINE
  8
_1-0_躯体
  6
CONTINUOUS
 62
    4
 10
360.63333333333321
 20
221.16666666666663
 11
360.1270553333332
 21
219.9716236666666
  0
ARC
  8
_1-0_躯体
  6
CONTINUOUS
 62
    4
 10
359.66666633333318
 20
220.16666666666663
 40
0.5
 50
180
 51
337.04015800000138
  0
ARC
  8
_1-0_躯体
  6
CONTINUOUS
 62
    4
 10
359.83333333333326
 20
219.33333366666665
 40
1.1666669999999999
 50
270
 51
0
  0
LINE
  8
_1-0_躯体
  6
CONTINUOUS
 62
    4
 10
360.99999933333316
 20
221.00000066666661
 11
360.99999933333316
 21
219.33333366666665
  0
ARC
  8
_1-0_躯体
  6
CONTINUOUS
 62
    4
 10
359.83333333333326
 20
219.33333366666665
 40
0.9666669999999998
 50
270
 51
0
  0
LINE
  8
_1-0_躯体
  6
CONTINUOUS
 62
    4
 10
360.79999933333329
 20
221.09090966666662
 11
360.79999933333329
 21
219.33333366666665
  0
LINE
  8
_1-0_躯体
  6
CONTINUOUS
 62
    4
 10
359.16666633333318
 20
220.16666666666663
 11
359.16666633333318
 21
225.1307686666666
  0
LINE
  8
_1-0_躯体
  6
CONTINUOUS
 62
    4
 10
361.1666663333333
 20
225.66666666666663
 11
359.16666633333318
 21
225.1307686666666
  0
ARC
  8
_1-0_躯体
  6
CONTINUOUS
 62
    4
 10
356.41666633333318
 20
220.66666666666663
 40
1
 50
180
 51
0
  0
ARC
  8
_1-0_躯体
  6
CONTINUOUS
 62
    4
 10
358.08333333333314
 20
225.66666666666663
 40
0.666667
 50
90
 51
180
  0
LINE
  8
_1-0_躯体
  6
CONTINUOUS
 62
    4
 10
357.41666633333318
 20
220.66666666666663
 11
357.41666633333318
 21
225.66666666666663
  0
LINE
  8
_1-0_躯体
  6
CONTINUOUS
 62
    4
 10
355.41666633333318
 20
220.66666666666663
 11
355.41666633333318
 21
225.66666666666663
  0
ARC
  8
_1-0_躯体
  6
CONTINUOUS
 62
    4
 10
358.91666633333318
 20
227.16666666666663
 40
0.8333329999999998
 50
270
 51
0
  0
LINE
  8
_1-0_躯体
  6
CONTINUOUS
 62
    4
 10
359.74999933333316
 20
227.16666666666663
 11
359.74999933333316
 21
231.50000066666661
  0
LINE
  8
_1-0_躯体
  6
CONTINUOUS
 62
    4
 10
358.91666633333318
 20
226.33333366666665
 11
358.08333333333314
 21
226.33333366666665
  0
LINE
  8
_1-0_躯体
  6
CONTINUOUS
 62
    4
 10
371.66666633333335
 20
213.00000066666658
 11
343.33333333333314
 21
213.00000066666658
  0
LINE
  8
_1-0_躯体
  6
CONTINUOUS
 62
    4
 10
371.66666633333335
 20
212.33333366666662
 11
343.33333333333314
 21
212.33333366666662
  0
LINE
  8
_1-0_躯体
  6
CONTINUOUS
 62
    4
 10
343.33333333333314
 20
211.66666666666657
 11
371.66666633333335
 21
211.66666666666657
  0
INSERT
  2
-010-$QLE_3_
  8
_1-f_寸法
 10
210
 20
148.5
 41
1
 42
1
 50
0
  0
INSERT
  2
-011-$QLE_4_
  8
_1-f_寸法
 10
210
 20
148.5
 41
1
 42
1
 50
0
  0
LINE
  8
_1-0_躯体
  6
CONTINUOUS
 62
    4
 10
343.33333333333314
 20
211.66666666666657
 11
343.33333333333314
 21
215.00000066666658
  0
INSERT
  2
-012-$QLE_5_
  8
_1-f_寸法
 10
210
 20
148.5
 41
1
 42
1
 50
0
  0
LINE
  8
_1-0_躯体
  6
CONTINUOUS
 62
    6
 10
276.6666666666664
 20
234.00000066666661
 11
276.6666666666664
 21
184.44145355866914
  0
CIRCLE
  8
_1-f_寸法
  6
CONTINUOUS
 62
    4
 10
273.33333333333326
 20
186.66666666666666
 40
1.6666666666666665
  0
CIRCLE
  8
_1-f_寸法
  6
CONTINUOUS
 62
    4
 10
296.66666666666663
 20
200
 40
1.6666666666666665
  0
LINE
  8
_1-f_寸法
  6
CONTINUOUS
 62
    4
 10
343.33333333333314
 20
234.99999999999991
 11
343.33333333333314
 21
241.59999999999991
  0
LINE
  8
_1-f_寸法
  6
CONTINUOUS
 62
    4
 10
276.6666666666664
 20
234.99999999999991
 11
276.6666666666664
 21
241.59999999999991
  0
POINT
  8
_1-f_寸法
 62
    4
 10
276.6666666666664
 20
239.99999999999991
  0
POINT
  8
_1-f_寸法
 62
    4
 10
343.33333333333314
 20
239.99999999999991
  0
LINE
  8
_1-f_寸法
  6
CONTINUOUS
 62
    4
 10
276.6666666666664
 20
239.99999999999991
 11
343.33333333333314
 21
239.99999999999991
  0
TEXT
  8
_1-f_寸法
 62
    4
 10
307.59999999999974
 20
239.99999999999991
 40
3.2000000000000002
 41
1
 50
0
  1
200
  0
LINE
  8
_1-f_寸法
  6
CONTINUOUS
 62
    4
 10
259.99999999999989
 20
211.66666666666666
 11
341.66666666666663
 21
211.66666666666666
  0
LINE
  8
_1-f_寸法
  6
CONTINUOUS
 62
    4
 10
363.33333333276164
 20
180
 11
363.33333333276164
 21
173.40000000000001
  0
LINE
  8
_1-f_寸法
  6
CONTINUOUS
 62
    4
 10
276.6666666666664
 20
180
 11
276.6666666666664
 21
173.40000000000001
  0
POINT
  8
_1-f_寸法
 62
    4
 10
276.6666666666664
 20
175
  0
POINT
  8
_1-f_寸法
 62
    4
 10
363.33333333276164
 20
175
  0
LINE
  8
_1-f_寸法
  6
CONTINUOUS
 62
    4
 10
276.6666666666664
 20
175
 11
363.33333333276164
 21
175
  0
TEXT
  8
_1-f_寸法
 62
    4
 10
317.59999999971399
 20
175
 40
3.2000000000000002
 41
1
 50
0
  1
260
  0
LINE
  8
_1-f_寸法
  6
CONTINUOUS
 62
    4
 10
363.33333333276164
 20
185
 11
363.33333333276164
 21
201.66666666666666
  0
CIRCLE
  8
_1-f_寸法
  6
CONTINUOUS
 62
    4
 10
358.33333333333331
 20
200
 40
1.6666666666666665
  0
TEXT
  8
_1-f_寸法
 62
    4
 10
357.70833333333331
 20
198.75
 40
2.5
 41
1
 50
0
  1
1
  0
CIRCLE
  8
_1-f_寸法
  6
CONTINUOUS
 62
    4
 10
85
 20
213.33333333333331
 40
1.6666666666666665
  0
TEXT
  8
_1-f_寸法
 62
    4
 10
84.375
 20
212.08333333333331
 40
2.5
 41
1
 50
0
  1
2
  0
LINE
  8
_1-f_寸法
  6
CONTINUOUS
 62
    4
 10
84.166666666666657
 20
211.88995766035924
 11
82.036267196387371
 21
208.19999753741769
  0
LINE
  8
_1-f_寸法
  6
CONTINUOUS
 62
    4
 10
365
 20
188.23333333333335
 11
286.66666666666663
 21
188.23333333333335
  0
LINE
  8
_1-f_寸法
  6
CONTINUOUS
 62
    4
 10
274.77670900630733
 20
187.66666674613356
 11
277.081163513207
 21
188.99714417602732
  0
LINE
  8
_1-f_寸法
  6
CONTINUOUS
 62
    4
 10
357.5
 20
201.44337567297407
 11
356.24524990564441
 21
203.61666658719975
  0
LINE
  8
_1-7_カバ__
  6
CONTINUOUS
 62
    4
 10
295.59539088846793
 20
201.27677170426924
 11
293.95373718512394
 21
203.23333325386648
  0
LINE
  8
_1-f_寸法
  6
CONTINUOUS
 62
    4
 10
370
 20
188.23333333333335
 11
378.26666666666665
 21
188.23333333333335
  0
LINE
  8
_1-f_寸法
  6
CONTINUOUS
 62
    4
 10
370
 20
211.66666666666657
 11
378.26666666666665
 21
211.66666666666657
  0
POINT
  8
_1-f_寸法
 62
    4
 10
376.66666666666663
 20
211.66666666666657
  0
POINT
  8
_1-f_寸法
 62
    4
 10
376.66666666666663
 20
188.23333333333335
  0
LINE
  8
_1-f_寸法
  6
CONTINUOUS
 62
    4
 10
376.66666666666663
 20
211.66666666666657
 11
376.66666666666663
 21
188.23333333333335
  0
TEXT
  8
_1-f_寸法
 62
    4
 10
376.66666666666663
 20
196.75
 40
3.2000000000000002
 41
1
 50
90
  1
70.3
  0
LINE
  8
_1-0_躯体
  6
CONTINUOUS
 62
    4
 10
159.16666633333335
 20
221.33333366666673
 11
171.66666633333335
 21
221.33333366666673
  0
LINE
  8
_1-0_躯体
  6
CONTINUOUS
 62
    4
 10
359.16666633333318
 20
221.33333366666665
 11
371.66666633333335
 21
221.33333366666665
  0
INSERT
  2
-013-_7_
  8
_1-4_フレ__ム
 10
210
 20
148.5
 41
1
 42
1
 50
0
  0
INSERT
  2
-014-_8_
  8
_1-8_小物
 10
210
 20
148.5
 41
1
 42
1
 50
0
  0
LINE
  8
_1-f_寸法
  6
CONTINUOUS
 62
    4
 10
143.33333333333331
 20
213.33333333333331
 11
143.33333333333331
 21
219.93333333333331
  0
LINE
  8
_1-f_寸法
  6
CONTINUOUS
 62
    4
 10
124.66666666666637
 20
213.33333333333331
 11
124.66666666666637
 21
219.93333333333331
  0
POINT
  8
_1-f_寸法
 62
    4
 10
124.66666666666637
 20
218.33333333333331
  0
POINT
  8
_1-f_寸法
 62
    4
 10
143.33333333333331
 20
218.33333333333331
  0
LINE
  8
_1-f_寸法
  6
CONTINUOUS
 62
    4
 10
124.66666666666637
 20
218.33333333333331
 11
143.33333333333331
 21
218.33333333333331
  0
TEXT
  8
_1-f_寸法
 62
    4
 10
132.39999999999981
 20
218.33333333333331
 40
3.2000000000000002
 41
1
 50
0
  1
56
  0
INSERT
  2
-015-_9_
  8
_1-4_フレ__ム
 10
210
 20
148.5
 41
1
 42
1
 50
0
  0
INSERT
  2
-016-_10_
  8
_1-8_小物
 10
210
 20
148.5
 41
1
 42
1
 50
0
  0
LINE
  8
_1-f_寸法
  6
CONTINUOUS
 62
    4
 10
343.33333333333331
 20
213.33333333333331
 11
343.33333333333331
 21
219.93333333333331
  0
LINE
  8
_1-f_寸法
  6
CONTINUOUS
 62
    4
 10
324.6666666666664
 20
213.33333333333331
 11
324.6666666666664
 21
219.93333333333331
  0
POINT
  8
_1-f_寸法
 62
    4
 10
324.6666666666664
 20
218.33333333333331
  0
POINT
  8
_1-f_寸法
 62
    4
 10
343.33333333333331
 20
218.33333333333331
  0
LINE
  8
_1-f_寸法
  6
CONTINUOUS
 62
    4
 10
324.6666666666664
 20
218.33333333333331
 11
343.33333333333331
 21
218.33333333333331
  0
TEXT
  8
_1-f_寸法
 62
    4
 10
332.39999999999986
 20
218.33333333333331
 40
3.2000000000000002
 41
1
 50
0
  1
56
  0
LINE
  8
_1-f_寸法
  6
CONTINUOUS
 62
    4
 10
154.99999999999994
 20
235
 11
154.99999999999994
 21
241.59999999999997
  0
LINE
  8
_1-f_寸法
  6
CONTINUOUS
 62
    4
 10
143.33333333333331
 20
235
 11
143.33333333333331
 21
241.59999999999997
  0
POINT
  8
_1-f_寸法
 62
    4
 10
143.33333333333331
 20
240
  0
POINT
  8
_1-f_寸法
 62
    4
 10
154.99999999999994
 20
240
  0
LINE
  8
_1-f_寸法
  6
CONTINUOUS
 62
    4
 10
143.33333333333331
 20
240
 11
154.99999999999994
 21
240
  0
TEXT
  8
_1-f_寸法
 62
    4
 10
147.56666666666661
 20
240
 40
3.2000000000000002
 41
1
 50
0
  1
35
  0
LINE
  8
_1-f_寸法
  6
CONTINUOUS
 62
    4
 10
69.999999999999886
 20
235
 11
69.999999999999886
 21
241.59999999999997
  0
LINE
  8
_1-f_寸法
  6
CONTINUOUS
 62
    4
 10
76.666666666666657
 20
235
 11
76.666666666666657
 21
241.59999999999997
  0
POINT
  8
_1-f_寸法
 62
    4
 10
76.666666666666657
 20
240
  0
POINT
  8
_1-f_寸法
 62
    4
 10
69.999999999999886
 20
240
  0
LINE
  8
_1-f_寸法
  6
CONTINUOUS
 62
    4
 10
76.666666666666657
 20
240
 11
69.999999999999886
 21
240
  0
TEXT
  8
_1-f_寸法
 62
    4
 10
71.733333333333263
 20
240
 40
3.2000000000000002
 41
1
 50
0
  1
20
  0
LINE
  8
_1-f_寸法
  6
CONTINUOUS
 62
    4
 10
69.999999999999886
 20
235
 11
69.999999999999886
 21
220.66666666666669
  0
LINE
  8
_1-f_寸法
  6
CONTINUOUS
 62
    4
 10
155
 20
240
 11
155
 21
220
  0
LINE
  8
_1-f_寸法
  6
CONTINUOUS
 62
    4
 10
354.99999999999983
 20
234.99999999999991
 11
354.99999999999983
 21
241.59999999999991
  0
LINE
  8
_1-f_寸法
  6
CONTINUOUS
 62
    4
 10
343.33333333333314
 20
234.99999999999991
 11
343.33333333333314
 21
241.59999999999991
  0
POINT
  8
_1-f_寸法
 62
    4
 10
343.33333333333314
 20
239.99999999999991
  0
POINT
  8
_1-f_寸法
 62
    4
 10
354.99999999999983
 20
239.99999999999991
  0
LINE
  8
_1-f_寸法
  6
CONTINUOUS
 62
    4
 10
343.33333333333314
 20
239.99999999999991
 11
354.99999999999983
 21
239.99999999999991
  0
TEXT
  8
_1-f_寸法
 62
    4
 10
347.56666666666649
 20
239.99999999999991
 40
3.2000000000000002
 41
1
 50
0
  1
35
  0
LINE
  8
_1-f_寸法
  6
CONTINUOUS
 62
    4
 10
354.99999999999983
 20
239.99999999999991
 11
354.99999999999983
 21
219.99999999999991
  0
CIRCLE
  8
_1-f_寸法
  6
CONTINUOUS
 62
    4
 10
80
 20
200
 40
1.6666666666666665
  0
LINE
  8
_1-f_寸法
  6
CONTINUOUS
 62
    4
 10
73.833334415395342
 20
203.23333333333341
 11
78.52392662052938
 21
200.77394131314716
  0
CIRCLE
  8
_1-f_寸法
  6
CONTINUOUS
 62
    4
 10
128.33333333333326
 20
215
 40
1.6666666666666665
  0
LINE
  8
_1-f_寸法
  6
CONTINUOUS
 62
    4
 10
129.16666666666663
 20
213.55662432702596
 11
130.40217179792947
 21
211.41666666666666
  0
TEXT
  8
_1-f_寸法
 62
    4
 10
127.70833333333326
 20
213.75
 40
2.5
 41
1
 50
0
  1
3
  0
TEXT
  8
_1-f_寸法
 62
    4
 10
79.375
 20
198.75
 40
2.5
 41
1
 50
0
  1
4
  0
TEXT
  8
_1-f_寸法
 62
    4
 10
64.374999999999972
 20
205.41666666666666
 40
2.5
 41
1
 50
0
  1
5
  0
TEXT
  8
_1-f_寸法
 62
    4
 10
69.375
 20
205.41666666666666
 40
2.5
 41
1
 50
0
  1
6
  0
TEXT
  8
_1-f_寸法
 62
    4
 10
52.708333333333314
 20
217.08333333333331
 40
2.5
 41
1
 50
0
  1
7
  0
CIRCLE
  8
_1-f_寸法
  6
CONTINUOUS
 62
    4
 10
328.33333333333348
 20
215
 40
1.6666666666666665
  0
LINE
  8
_1-f_寸法
  6
CONTINUOUS
 62
    4
 10
329.16666666666686
 20
213.55662432702596
 11
330.40217179792973
 21
211.41666666666666
  0
TEXT
  8
_1-f_寸法
 62
    4
 10
327.70833333333348
 20
213.75
 40
2.5
 41
1
 50
0
  1
3
  0
TEXT
  8
_1-f_寸法
 62
    4
 10
296.04166666666663
 20
198.75
 40
2.5
 41
1
 50
0
  1
4
  0
TEXT
  8
_1-f_寸法
 62
    4
 10
272.70833333333326
 20
185.41666666666666
 40
2.5
 41
1
 50
0
  1
8
  0
LINE
  8
_1-0_躯体
  6
CENTER2
 62
    4
 10
279.73846062744019
 20
201.6666665871997
 11
260.00000000000023
 21
201.6666665871997
  0
CIRCLE
  8
_1-f_寸法
  6
CONTINUOUS
 62
    4
 10
289.99999999999989
 20
196.66666666666666
 40
1.6666666666666665
  0
TEXT
  8
_1-f_寸法
 62
    4
 10
289.37499999999989
 20
195.41666666666666
 40
2.5
 41
1
 50
0
  1
2
  0
CIRCLE
  8
_1-f_寸法
  6
CONTINUOUS
 62
    4
 10
280.83333333333326
 20
206.66666666666666
 40
1.6666666666666665
  0
LINE
  8
_1-f_寸法
  6
CONTINUOUS
 62
    4
 10
279.99999999999989
 20
205.22329099369259
 11
277.94658194150475
 21
201.66666658719967
  0
LINE
  8
_1-f_寸法
  6
CONTINUOUS
 62
    4
 10
288.56500993636894
 20
197.5143584119717
 11
281.53589698038672
 21
201.66666662693319
  0
CIRCLE
  8
_1-f_寸法
  6
CONTINUOUS
 62
    4
 10
269.99999999999989
 20
196.66666666666666
 40
1.6666666666666665
  0
LINE
  8
_1-f_寸法
  6
CONTINUOUS
 62
    4
 10
271.17851130197744
 20
197.84517796864421
 11
274.33333325386639
 21
200.99999992053313
  0
TEXT
  8
_1-f_寸法
 62
    4
 10
280.20833333333326
 20
205.41666666666666
 40
2.5
 41
1
 50
0
  1
5
  0
TEXT
  8
_1-f_寸法
 62
    4
 10
269.37499999999989
 20
195.41666666666666
 40
2.5
 41
1
 50
0
  1
7
  0
CIRCLE
  8
_1-f_寸法
  6
CONTINUOUS
 62
    4
 10
273.33333333333326
 20
206.66666666666666
 40
1.6666666666666665
  0
TEXT
  8
_1-f_寸法
 62
    4
 10
272.70833333333326
 20
205.41666666666666
 40
2.5
 41
1
 50
0
  1
6
  0
LINE
  8
_1-f_寸法
  6
CONTINUOUS
 62
    4
 10
274.76554881561532
 20
205.81429550919518
 11
277.4499999999997
 21
204.21666666666684
  0
LINE
  8
_1-f_寸法
  6
CONTINUOUS
 62
    4
 10
275
 20
209.33333325386641
 11
268.39999999999998
 21
209.33333325386641
  0
LINE
  8
_1-f_寸法
  6
CONTINUOUS
 62
    4
 10
275
 20
211.66666666666666
 11
268.39999999999998
 21
211.66666666666666
  0
POINT
  8
_1-f_寸法
 62
    4
 10
270
 20
211.66666666666666
  0
POINT
  8
_1-f_寸法
 62
    4
 10
270
 20
209.33333325386641
  0
LINE
  8
_1-f_寸法
  6
CONTINUOUS
 62
    4
 10
270
 20
211.66666666666666
 11
270
 21
209.33333325386641
  0
TEXT
  8
_1-f_寸法
 62
    4
 10
270
 20
209.69999996026652
 40
3.2000000000000002
 41
1
 50
90
  1
7
  0
LINE
  8
_1-f_寸法
  6
CONTINUOUS
 62
    4
 10
260.00000000000023
 20
201.6666665871997
 11
253.40000000000001
 21
201.6666665871997
  0
LINE
  8
_1-f_寸法
  6
CONTINUOUS
 62
    4
 10
260.00000000000023
 20
211.66666666666657
 11
253.40000000000001
 21
211.66666666666657
  0
POINT
  8
_1-f_寸法
 62
    4
 10
255
 20
211.66666666666657
  0
POINT
  8
_1-f_寸法
 62
    4
 10
255
 20
201.6666665871997
  0
LINE
  8
_1-f_寸法
  6
CONTINUOUS
 62
    4
 10
255
 20
211.66666666666657
 11
255
 21
201.6666665871997
  0
TEXT
  8
_1-f_寸法
 62
    4
 10
255
 20
205.06666662693317
 40
3.2000000000000002
 41
1
 50
90
  1
30
  0
ARC
  8
_1-5_ホルダ__
  6
CONTINUOUS
 62
    4
 10
304.33333333333326
 20
206.5
 40
0.8333333333333332
 50
270
 51
90
  0
ARC
  8
_1-5_ホルダ__
  6
CONTINUOUS
 62
    4
 10
302.33333333333326
 20
206.5
 40
0.8333333333333332
 50
90
 51
270
  0
LINE
  8
_1-5_ホルダ__
  6
CONTINUOUS
 62
    4
 10
302.33333333333326
 20
205.66666666666666
 11
304.33333333333326
 21
205.66666666666666
  0
LINE
  8
_1-5_ホルダ__
  6
CONTINUOUS
 62
    4
 10
304.33333333333326
 20
207.33333333333331
 11
302.33333333333326
 21
207.33333333333331
  0
LINE
  8
_1-5_ホルダ__
  6
CONTINUOUS
 62
    4
 10
277.19999999999987
 20
197.33333333333331
 11
276.66666666666663
 21
197.33333333333331
  0
ARC
  8
_1-5_ホルダ__
  6
CONTINUOUS
 62
    4
 10
279.99999999999994
 20
199
 40
1.6666666666666665
 50
270
 51
0
  0
ARC
  8
_1-5_ホルダ__
  6
CONTINUOUS
 62
    4
 10
279.99999999999994
 20
199
 40
1.6666666666666665
 50
270
 51
0
  0
LINE
  8
_1-5_ホルダ__
  6
CONTINUOUS
 62
    4
 10
281.66666666666663
 20
203.36666666666662
 11
281.66666666666663
 21
199
  0
ARC
  8
_1-5_ホルダ__
  6
CONTINUOUS
 62
    4
 10
283.33333333333326
 20
203.36666666666662
 40
1.6666666666666665
 50
90
 51
180
  0
LINE
  8
_1-5_ホルダ__
  6
CONTINUOUS
 62
    4
 10
283.33333333333326
 20
204
 11
353.33333333333331
 21
204
  0
LINE
  8
_1-5_ホルダ__
  6
CONTINUOUS
 62
    4
 10
279.99999999999994
 20
197.33333333333331
 11
276.66666666666663
 21
197.33333333333331
  0
LINE
  8
_1-5_ホルダ__
  6
CONTINUOUS
 62
    4
 10
283.33333333333326
 20
204
 11
283.33333333333326
 21
205.0333333333333
  0
LINE
  8
_1-5_ホルダ__
  6
CONTINUOUS
 62
    4
 10
277.19999999999987
 20
209.33333333333331
 11
277.19999999999987
 21
197.33333333333331
  0
LINE
  8
_1-5_ホルダ__
  6
CONTINUOUS
 62
    4
 10
276.66666666666663
 20
209.33333333333331
 11
276.66666666666663
 21
197.33333333333331
  0
LINE
  8
_1-5_ホルダ__
  6
DASHED1
 62
    4
 10
276.66666666666663
 20
199.16666666666666
 11
277.19999999999987
 21
199.16666666666666
  0
LINE
  8
_1-5_ホルダ__
  6
DASHED1
 62
    4
 10
276.66666666666663
 20
204.16666666666666
 11
277.19999999999987
 21
204.16666666666666
  0
LINE
  8
_1-5_ホルダ__
  6
CENTER2
 62
    4
 10
274.99999999999994
 20
201.66666666666666
 11
278.86666666666656
 21
201.66666666666666
  0
LINE
  8
_1-5_ホルダ__
  6
CONTINUOUS
 62
    4
 10
353.33333333333331
 20
204
 11
353.33333333333331
 21
205.33333333333331
  0
ARC
  8
_1-5_ホルダ__
  6
CONTINUOUS
 62
    4
 10
349.33333333333331
 20
205.33333333333331
 40
4
 50
0
 51
90
  0
LINE
  8
_1-5_ホルダ__
  6
CONTINUOUS
 62
    4
 10
276.66666666666663
 20
209.33333333333331
 11
349.33333333333331
 21
209.33333333333331
  0
LINE
  8
_1-5_ホルダ__
  6
DASHED1
 62
    4
 10
353.33333333333331
 20
205.0333333333333
 11
283.33333333333326
 21
205.0333333333333
  0
LINE
  8
_1-5_ホルダ__
  6
DASHED1
 62
    4
 10
283.33333333333326
 20
204.53333333333333
 11
353.33333333333331
 21
204.53333333333333
  0
LINE
  8
_1-5_ホルダ__
  6
CONTINUOUS
 62
    4
 10
87.542365230112495
 20
209.33333333333331
 11
90.49527678840073
 21
209.33333333333331
  0
LINE
  8
_1-5_ホルダ__
  6
CONTINUOUS
 62
    4
 10
76.666666666666572
 20
209.33333333333331
 11
76.666666666666572
 21
211.66666666666666
  0
LINE
  8
_1-5_ホルダ__
  6
CONTINUOUS
 62
    4
 10
61.666666666666572
 20
204.00000000000003
 11
61.666666666666572
 21
211.66666666666666
  0
LINE
  8
_1-5_ホルダ__
  6
CONTINUOUS
 62
    4
 10
76.666666666666572
 20
211.66666666666666
 11
61.666666666666572
 21
211.66666666666666
  0
LINE
  8
_1-5_ホルダ__
  6
DASHED1
 62
    4
 10
72.5
 20
211.13333333333333
 11
72.5
 21
211.66666666666666
  0
LINE
  8
_1-5_ホルダ__
  6
DASHED1
 62
    4
 10
67.5
 20
211.13333333333316
 11
67.5
 21
211.66666666666666
  0
LINE
  8
_1-5_ホルダ__
  6
CONTINUOUS
 62
    4
 10
61.666666666666572
 20
204.00000000000003
 11
158.33333333333326
 21
204
  0
ARC
  8
_1-5_ホルダ__
  6
CONTINUOUS
 62
    4
 10
95.666666666666657
 20
206.83333333333329
 40
0.8333333333333334
 50
90
 51
270
  0
ARC
  8
_1-5_ホルダ__
  6
CONTINUOUS
 62
    4
 10
97.666666666666828
 20
206.83333333333329
 40
0.8333333333333334
 50
270
 51
90
  0
LINE
  8
_1-5_ホルダ__
  6
CONTINUOUS
 62
    4
 10
97.666666666666828
 20
205.99999999999994
 11
95.666666666666657
 21
205.99999999999994
  0
LINE
  8
_1-5_ホルダ__
  6
CONTINUOUS
 62
    4
 10
95.666666666666657
 20
207.66666666666663
 11
97.666666666666828
 21
207.66666666666663
  0
LINE
  8
_1-5_ホルダ__
  6
CONTINUOUS
 62
    4
 10
76.666666666666572
 20
211.13333333333333
 11
61.666666666666572
 21
211.13333333333333
  0
LINE
  8
_1-5_ホルダ__
  6
CENTER2
 62
    4
 10
70
 20
212.66666666666666
 11
70
 21
210.13333333333333
  0
LINE
  8
_1-5_ホルダ__
  6
CONTINUOUS
 62
    4
 10
158.33333333333326
 20
204
 11
158.33333333333326
 21
205.33333333333331
  0
ARC
  8
_1-5_ホルダ__
  6
CONTINUOUS
 62
    4
 10
154.33333333333326
 20
205.33333333333331
 40
4
 50
0
 51
90
  0
LINE
  8
_1-5_ホルダ__
  6
CONTINUOUS
 62
    4
 10
154.33333333333326
 20
209.33333333333331
 11
76.666666666666572
 21
209.33333333333331
  0
LINE
  8
_1-5_ホルダ__
  6
DASHED1
 62
    4
 10
158.33333333333326
 20
205.03333333333333
 11
61.666666666666572
 21
205.03333333333333
  0
LINE
  8
_1-5_ホルダ__
  6
DASHED1
 62
    4
 10
158.33333333333326
 20
204.5
 11
61.666666666666572
 21
204.50000000000003
  0
INSERT
  2
-017-_11_
  8
_1-8_小物
 10
210
 20
148.5
 41
1
 42
1
 50
0
  0
INSERT
  2
-018-_12_
  8
_1-8_小物
 10
210
 20
148.5
 41
1
 42
1
 50
0
  0
INSERT
  2
-019-_13_
  8
_1-7_カバ__
 10
210
 20
148.5
 41
1
 42
1
 50
0
  0
INSERT
  2
-020-_14_
  8
_1-8_小物
 10
210
 20
148.5
 41
1
 42
1
 50
0
  0
INSERT
  2
-021-_15_
  8
_1-8_小物
 10
210
 20
148.5
 41
1
 42
1
 50
0
  0
INSERT
  2
-022-_16_
  8
_1-8_小物
 10
210
 20
148.5
 41
1
 42
1
 50
0
  0
INSERT
  2
-023-_17_
  8
_1-8_小物
 10
210
 20
148.5
 41
1
 42
1
 50
0
  0
INSERT
  2
-024-_18_
  8
_1-7_カバ__
 10
210
 20
148.5
 41
1
 42
1
 50
0
  0
INSERT
  2
-025-_19_
  8
_1-8_小物
 10
210
 20
148.5
 41
1
 42
1
 50
0
  0
INSERT
  2
-026-_20_
  8
_1-8_小物
 10
210
 20
148.5
 41
1
 42
1
 50
0
  0
LINE
  8
_1-f_寸法
  6
CONTINUOUS
 62
    4
 10
173.33333333333331
 20
203.66666666666666
 11
179.93333333333331
 21
203.66666666666666
  0
LINE
  8
_1-f_寸法
  6
CONTINUOUS
 62
    4
 10
173.33333333333331
 20
211.66666666666666
 11
179.93333333333331
 21
211.66666666666666
  0
POINT
  8
_1-f_寸法
 62
    4
 10
178.33333333333331
 20
211.66666666666666
  0
POINT
  8
_1-f_寸法
 62
    4
 10
178.33333333333331
 20
203.66666666666666
  0
LINE
  8
_1-f_寸法
  6
CONTINUOUS
 62
    4
 10
178.33333333333331
 20
211.66666666666666
 11
178.33333333333331
 21
203.66666666666666
  0
TEXT
  8
_1-f_寸法
 62
    4
 10
178.33333333333331
 20
206.06666666666666
 40
3.2000000000000002
 41
1
 50
90
  1
24
  0
LINE
  8
_1-f_寸法
  6
CONTINUOUS
 62
    4
 10
173.33333333333331
 20
203.66666666666666
 11
165
 21
203.66666666666666
  0
LINE
  8
_1-f_寸法
  6
CONTINUOUS
 62
    4
 10
364.99999999999966
 20
203.66666666666663
 11
371.59999999999997
 21
203.66666666666663
  0
LINE
  8
_1-f_寸法
  6
CONTINUOUS
 62
    4
 10
364.99999999999966
 20
211.66666666666657
 11
371.59999999999997
 21
211.66666666666657
  0
POINT
  8
_1-f_寸法
 62
    4
 10
370
 20
211.66666666666657
  0
POINT
  8
_1-f_寸法
 62
    4
 10
370
 20
203.66666666666663
  0
LINE
  8
_1-f_寸法
  6
CONTINUOUS
 62
    4
 10
370
 20
211.66666666666657
 11
370
 21
203.66666666666663
  0
TEXT
  8
_1-f_寸法
 62
    4
 10
370
 20
206.06666666666661
 40
3.2000000000000002
 41
1
 50
90
  1
24
  0
LINE
  8
_1-f_寸法
  6
CONTINUOUS
 62
    4
 10
364.99999999999966
 20
188.23333333333335
 11
371.59999999999997
 21
188.23333333333335
  0
POINT
  8
_1-f_寸法
 62
    4
 10
370
 20
188.23333333333335
  0
LINE
  8
_1-f_寸法
  6
CONTINUOUS
 62
    4
 10
370
 20
203.66666666666663
 11
370
 21
188.23333333333335
  0
TEXT
  8
_1-f_寸法
 62
    4
 10
370
 20
192.75
 40
3.2000000000000002
 41
1
 50
90
  1
46.3
  0
LINE
  8
_1-f_寸法
  6
CONTINUOUS
 62
    4
 10
284.56666666666666
 20
185
 11
284.56666666666666
 21
178.40000000000001
  0
LINE
  8
_1-f_寸法
  6
CONTINUOUS
 62
    4
 10
276.6666666666664
 20
185
 11
276.6666666666664
 21
178.40000000000001
  0
POINT
  8
_1-f_寸法
 62
    4
 10
276.6666666666664
 20
180
  0
POINT
  8
_1-f_寸法
 62
    4
 10
284.56666666666666
 20
180
  0
LINE
  8
_1-f_寸法
  6
CONTINUOUS
 62
    4
 10
276.6666666666664
 20
180
 11
284.56666666666666
 21
180
  0
TEXT
  8
_1-f_寸法
 62
    4
 10
277.41666666666652
 20
180
 40
3.2000000000000002
 41
1
 50
0
  1
23.7
  0
LINE
  8
_1-f_寸法
  6
CONTINUOUS
 62
    4
 10
363.33333333276164
 20
185
 11
363.33333333276164
 21
178.40000000000001
  0
POINT
  8
_1-f_寸法
 62
    4
 10
363.33333333276164
 20
180
  0
LINE
  8
_1-f_寸法
  6
CONTINUOUS
 62
    4
 10
284.56666666666666
 20
180
 11
363.33333333276164
 21
180
  0
TEXT
  8
_1-f_寸法
 62
    4
 10
319.94999999971412
 20
180
 40
3.2000000000000002
 41
1
 50
0
  1
236.3
  0
LINE
  8
_0-0_図面枠
  6
CONTINUOUS
 62
    2
 10
165
 20
247
 11
165
 21
287
  0
LINE
  8
_0-0_図面枠
  6
CONTINUOUS
 62
    2
 10
184.76181918601867
 20
279.31988384078556
 11
184.76181918601867
 21
276.31988384078556
  0
LINE
  8
_0-0_図面枠
  6
CONTINUOUS
 62
    2
 10
170.03938732168319
 20
270.81988384078556
 11
170.03938732168319
 21
267.81988384078556
  0
LINE
  8
_0-0_図面枠
  6
CONTINUOUS
 62
    2
 10
170.03938732168319
 20
267.81988384078556
 11
184.76181918601867
 21
276.31988384078556
  0
LINE
  8
_0-0_図面枠
  6
CONTINUOUS
 62
    2
 10
184.76181918601867
 20
276.31988384078556
 11
193.42207322386304
 21
271.31988384078556
  0
LINE
  8
_0-0_図面枠
  6
CONTINUOUS
 62
    2
 10
184.76181918601867
 20
279.31988384078556
 11
193.42207322386304
 21
274.31988384078556
  0
LINE
  8
_0-0_図面枠
  6
CONTINUOUS
 62
    2
 10
170.03938732168319
 20
267.81988384078556
 11
178.69964135952756
 21
262.81988384078556
  0
LINE
  8
_0-0_図面枠
  6
CONTINUOUS
 62
    2
 10
170.03938732168319
 20
270.81988384078556
 11
172.63746353303651
 21
269.31988384078556
  0
INSERT
  2
-027-_21_
  8
_0-0_図面枠
 10
210
 20
148.5
 41
1
 42
1
 50
0
  0
TEXT
  8
_0-0_図面枠
 62
    4
 10
177.97320685518588
 20
267.65215495316619
 40
2.5
 41
1
 50
0
  1
-100
  0
TEXT
  8
_0-0_図面枠
 62
    4
 10
200.48906054545699
 20
267.65215495316613
 40
2.5
 41
1
 50
0
  1
+100
  0
TEXT
  8
_0-0_図面枠
 62
    4
 10
200.48906054545699
 20
254.65262076405389
 40
2.5
 41
1
 50
0
  1
+100
  0
TEXT
  8
_0-0_図面枠
 62
    4
 10
177.97280344931659
 20
254.65331953359555
 40
2.5
 41
1
 50
0
  1
-100
  0
LINE
  8
_0-0_図面枠
  6
CONTINUOUS
 62
    3
 10
179.56566676331204
 20
277.26988384078555
 11
188.22592080115646
 21
282.26988384078555
  0
LINE
  8
_0-0_図面枠
  6
CONTINUOUS
 62
    3
 10
179.56566676331204
 20
276.31988384078556
 11
179.56566676331204
 21
277.26988384078555
  0
LINE
  8
_0-0_図面枠
  6
CONTINUOUS
 62
    3
 10
179.56566676331204
 20
276.31988384078556
 11
188.22592080115646
 21
281.31988384078556
  0
LINE
  8
_0-0_図面枠
  6
CONTINUOUS
 62
    3
 10
175.23553974438988
 20
274.76988384078555
 11
166.57528570654546
 21
269.76988384078555
  0
LINE
  8
_0-0_図面枠
  6
CONTINUOUS
 62
    3
 10
175.23553974438988
 20
273.81988384078556
 11
175.23553974438988
 21
274.76988384078555
  0
LINE
  8
_0-0_図面枠
  6
CONTINUOUS
 62
    3
 10
175.23553974438988
 20
273.81988384078556
 11
166.57528570654546
 21
268.81988384078556
  0
LINE
  8
_0-0_図面枠
  6
CONTINUOUS
 62
    3
 10
175.23553974438988
 20
274.76988384078555
 11
178.65634008933836
 21
272.79488384078559
  0
LINE
  8
_0-0_図面枠
  6
CONTINUOUS
 62
    3
 10
175.23553974438988
 20
273.81988384078556
 11
177.8336159557432
 21
272.31988384078556
  0
LINE
  8
_0-0_図面枠
  6
CONTINUOUS
 62
    3
 10
179.56566676331204
 20
276.31988384078556
 11
182.16374297466535
 21
274.81988384078556
  0
LINE
  8
_0-0_図面枠
  6
CONTINUOUS
 62
    2
 10
165
 20
246.99999999999994
 11
210
 21
246.99999999999994
  0
LINE
  8
_0-0_図面枠
  6
CONTINUOUS
 62
    2
 10
382.51081219164189
 20
277.68583390683517
 11
382.51081219164189
 21
274.68583390683517
  0
LINE
  8
_0-0_図面枠
  6
CONTINUOUS
 62
    2
 10
382.51081219164189
 20
274.68583390683517
 11
391.17106622948626
 21
269.68583390683517
  0
LINE
  8
_0-0_図面枠
  6
CONTINUOUS
 62
    2
 10
382.51081219164189
 20
277.68583390683517
 11
391.17106622948626
 21
272.68583390683517
  0
LINE
  8
_0-0_図面枠
  6
CONTINUOUS
 62
    2
 10
375.14959625947415
 20
266.43583390683517
 11
372.9845327500131
 21
265.18583390683517
  0
LINE
  8
_0-0_図面枠
  6
CONTINUOUS
 62
    2
 10
375.14959625947415
 20
270.43583390683517
 11
382.51081219164189
 21
274.68583390683517
  0
LINE
  8
_0-0_図面枠
  6
CONTINUOUS
 62
    2
 10
375.14959625947415
 20
270.43583390683517
 11
375.14959625947415
 21
266.43583390683517
  0
LINE
  8
_0-0_図面枠
  6
CONTINUOUS
 62
    2
 10
375.14959625947415
 20
270.43583390683517
 11
383.80985029731852
 21
265.43583390683517
  0
LINE
  8
_0-0_図面枠
  6
CONTINUOUS
 62
    2
 10
375.14959625947415
 20
266.43583390683517
 11
383.80985029731852
 21
261.43583390683517
  0
LINE
  8
_0-0_図面枠
  6
CONTINUOUS
 62
    2
 10
372.9845327500131
 20
265.18583390683517
 11
381.64478678785747
 21
260.18583390683517
  0
INSERT
  2
-028-_22_
  8
_0-0_図面枠
 10
210
 20
148.5
 41
1
 42
1
 50
0
  0
TEXT
  8
_0-0_図面枠
 62
    4
 10
378.75308706028358
 20
268.0181050192158
 40
2.5
 41
1
 50
0
  1
-100
  0
TEXT
  8
_0-0_図面枠
 62
    4
 10
401.26894075055469
 20
268.01810501921574
 40
2.5
 41
1
 50
0
  1
+100
  0
TEXT
  8
_0-0_図面枠
 62
    4
 10
401.26894075055469
 20
255.0185708301035
 40
2.5
 41
1
 50
0
  1
+100
  0
TEXT
  8
_0-0_図面枠
 62
    4
 10
378.75268365441428
 20
255.01926959964516
 40
2.5
 41
1
 50
0
  1
-100
  0
LINE
  8
_0-0_図面枠
  6
CONTINUOUS
 62
    2
 10
365.00000000000006
 20
247
 11
365.00000000000006
 21
287
  0
LINE
  8
_0-0_図面枠
  6
CONTINUOUS
 62
    3
 10
377.31465976893526
 20
275.63583390683516
 11
385.97491380677968
 21
280.63583390683516
  0
LINE
  8
_0-0_図面枠
  6
CONTINUOUS
 62
    3
 10
377.31465976893526
 20
274.68583390683517
 11
377.31465976893526
 21
275.63583390683516
  0
LINE
  8
_0-0_図面枠
  6
CONTINUOUS
 62
    3
 10
377.31465976893526
 20
274.68583390683517
 11
385.97491380677968
 21
279.68583390683517
  0
LINE
  8
_0-0_図面枠
  6
CONTINUOUS
 62
    3
 10
377.31465976893526
 20
274.68583390683517
 11
379.91273598028857
 21
273.18583390683517
  0
LINE
  8
_0-0_図面枠
  6
CONTINUOUS
 62
    3
 10
372.9845327500131
 20
253.36416609316478
 11
372.9845327500131
 21
276.13583390683516
  0
LINE
  8
_0-0_図面枠
  6
CONTINUOUS
 62
    2
 10
365.00000000000006
 20
246.99999999999994
 11
410.00000000000006
 21
246.99999999999994
  0
ENDSEC
  0
EOF
