  0
SECTION
  2
HEADER
  9
$ACADVER
  1
AC1009
  9
$INSBASE
 10
0
 20
0
 30
0
  9
$EXTMIN
 10
0
 20
0
  9
$EXTMAX
 10
420
 20
297
  9
$LIMMIN
 10
0
 20
0
  9
$LIMMAX
 10
420
 20
297
  9
$LTSCALE
 40
1
  0
ENDSEC
  0
SECTION
  2
TABLES
  0
TABLE
  2
LTYPE
 70
     9
  0
LTYPE
  2
CONTINUOUS
 70
    64
  3
実線
 72
    65
 73
     0
 40
0.0
  0
LTYPE
  2
DASHED1
 70
    64
  3
--  --  --  --  --  --  --  --  
 72
    65
 73
     2
 40
2.5
 49
1.25
 49
-1.25
  0
LTYPE
  2
DASHED2
 70
    64
  3
----    ----    ----    ----    
 72
    65
 73
     2
 40
5.0
 49
2.5
 49
-2.5
  0
LTYPE
  2
DASHED3
 70
    64
  3
------  ------  ------  ------  
 72
    65
 73
     2
 40
5.0
 49
3.75
 49
-1.25
  0
LTYPE
  2
CENTER1
 70
    64
  3
----- - ----- - ----- - ----- - 
 72
    65
 73
     4
 40
10.0
 49
6.25
 49
-1.25
 49
1.25
 49
-1.25
  0
LTYPE
  2
CENTER2
 70
    64
  3
----------  --  ----------  --  
 72
    65
 73
     4
 40
20.0
 49
12.5
 49
-2.5
 49
2.5
 49
-2.5
  0
LTYPE
  2
PHANTOM1
 70
    64
  3
--- - - --- - - --- - - --- - - 
 72
    65
 73
     6
 40
10.0
 49
3.25
 49
-1.25
 49
1.25
 49
-1.25
 49
1.25
 49
-1.25
  0
LTYPE
  2
PHANTOM2
 70
    64
  3
--------  -  -  --------  -  -  
 72
    65
 73
     6
 40
20.0
 49
10.0
 49
-2.5
 49
1.25
 49
-2.5
 49
1.25
 49
-2.5
  0
LTYPE
  2
DOT
 70
    64
  3
-   -   -   -   -   -   -   -   
 72
    65
 73
     2
 40
2.5
 49
0.625
 49
-1.875
  0
LTYPE
  2
DUMMY
 70
    64
  3
ダミー
 72
    65
 73
     0
 40
0.0
  0
LTYPE
  2
RAND1
 70
    64
  3
ランダム線1
 72
    65
 73
     4
 40
10.0
 49
1.0
 49
-2.0
 49
3.0
 49
-4.0
  0
LTYPE
  2
RAND2
 70
    64
  3
ランダム線2
 72
    65
 73
     4
 40
14.0
 49
2.0
 49
-3.0
 49
4.0
 49
-5.0
  0
LTYPE
  2
RAND3
 70
    64
  3
ランダム線3
 72
    65
 73
     4
 40
18.0
 49
3.0
 49
-4.0
 49
5.0
 49
-6.0
  0
LTYPE
  2
RAND4
 70
    64
  3
ランダム線4
 72
    65
 73
     4
 40
22.0
 49
4.0
 49
-5.0
 49
6.0
 49
-7.0
  0
LTYPE
  2
RAND5
 70
    64
  3
ランダム線5
 72
    65
 73
     4
 40
26.0
 49
5.0
 49
-6.0
 49
7.0
 49
-8.0
  0
LTYPE
  2
LONG1
 70
    64
  3
----------  --  ----------  --  
 72
    65
 73
     4
 40
40.0
 49
32.5
 49
-2.5
 49
2.5
 49
-2.5
  0
LTYPE
  2
LONG2
 70
    64
  3
--------  -  -  --------  -  -  
 72
    65
 73
     6
 40
40.0
 49
30.0
 49
-2.5
 49
1.25
 49
-2.5
 49
1.25
 49
-2.5
  0
LTYPE
  2
LONG3
 70
    64
  3
+++++++++++++++..+++++++++++++++
 72
    65
 73
     2
 40
40.0
 49
37.5
 49
-2.5
  0
LTYPE
  2
LONG4
 70
    64
  3
+++++++++++++++..+++++++++++++++
 72
    65
 73
     2
 40
80.0
 49
75.0
 49
-5.0
  0
LTYPE
  2
LONG5
 70
    64
  3
----------  --  ----------  --  
 72
    65
 73
     4
 40
60.0
 49
37.5
 49
-7.5
 49
7.5
 49
-7.5
  0
LTYPE
  2
dashed
 70
   64
  3
-------   -------------   ------
 72
   65
 73
    2
 40
7.5
 49
6
 49
-1.5
  0
LTYPE
  2
dashed_spaced
 70
   64
  3
----        --------        ----
 72
   65
 73
    2
 40
12
 49
6
 49
-6
  0
LTYPE
  2
long_dashed_dotted
 70
   64
  3
------------- --- --------------
 72
   65
 73
    4
 40
15.25
 49
12
 49
-1.5
 49
0.25
 49
-1.5
  0
LTYPE
  2
long_dashed_double-dotted
 70
   64
  3
----------- --- --- ------------
 72
   65
 73
    6
 40
17
 49
12
 49
-1.5
 49
0.25
 49
-1.5
 49
0.25
 49
-1.5
  0
LTYPE
  2
long_dashed_triplicate-dotted
 70
   64
  3
--------- --- --- --- ----------
 72
   65
 73
    8
 40
18.75
 49
12
 49
-1.5
 49
0.25
 49
-1.5
 49
0.25
 49
-1.5
 49
0.25
 49
-1.5
  0
LTYPE
  2
dotted
 70
   64
  3
   -       -       -       -    
 72
   65
 73
    2
 40
1.75
 49
0.25
 49
-1.5
  0
LTYPE
  2
chain
 70
   64
  3
-------------- -- --------------
 72
   65
 73
    4
 40
18.5
 49
12
 49
-1.5
 49
3.5
 49
-1.5
  0
LTYPE
  2
chain_double_dash
 70
   64
  3
------------ -- -- -------------
 72
   65
 73
    6
 40
23.5
 49
12
 49
-1.5
 49
3.5
 49
-1.5
 49
3.5
 49
-1.5
  0
LTYPE
  2
dashed_dotted
 70
   64
  3
-----------     -     ----------
 72
   65
 73
    4
 40
9.25
 49
6
 49
-1.5
 49
0.25
 49
-1.5
  0
LTYPE
  2
double-dashed_dotted
 70
   64
  3
------   -----------   -   -----
 72
   65
 73
    6
 40
16.75
 49
6
 49
-1.5
 49
6
 49
-1.5
 49
0.25
 49
-1.5
  0
LTYPE
  2
dashed_double-dotted
 70
   64
  3
---------    -    -    ---------
 72
   65
 73
    6
 40
11
 49
6
 49
-1.5
 49
0.25
 49
-1.5
 49
0.25
 49
-1.5
  0
LTYPE
  2
double-dashed_double-dotted
 70
   64
  3
-----   ---------   -   -   ----
 72
   65
 73
    8
 40
18.5
 49
6
 49
-1.5
 49
6
 49
-1.5
 49
0.25
 49
-1.5
 49
0.25
 49
-1.5
  0
LTYPE
  2
dashed_triplicate-dotted
 70
   64
  3
-------    -    -    -    ------
 72
   65
 73
    8
 40
12.75
 49
6
 49
-1.5
 49
0.25
 49
-1.5
 49
0.25
 49
-1.5
 49
0.25
 49
-1.5
  0
LTYPE
  2
double-dashed_triplicate-dotted
 70
   64
  3
-----  ---------  -  -  -  -----
 72
   65
 73
   10
 40
20.25
 49
6
 49
-1.5
 49
6
 49
-1.5
 49
0.25
 49
-1.5
 49
0.25
 49
-1.5
 49
0.25
 49
-1.5
  0
LTYPE
  2
undefined
 70
   64
  3
--------------------------------
 72
   65
 73
    0
 40
0
  0
ENDTAB
  0
TABLE
  2
STYLE
  5
3
100
AcDbSymbolTable
 70
     1
  0
STYLE
  5
10
100
AcDbSymbolTableRecord
100
AcDbTextStyleTableRecord
  2
STANDARD
 70
     0
 40
0.0
 41
1.0
 50
0.0
 71
     0
 42
0.2
  3
txt
  4
bigfont.shx
  0
STYLE
  5
26
100
AcDbSymbolTableRecord
100
AcDbTextStyleTableRecord
  2
TATEGAKI
 70
    68
 40
0.0
 41
1.0
 50
0.0
 71
     0
 42
1.0
  3
txt
  4
bigfont.shx
  0
ENDTAB
  0
TABLE
  2
LAYER
 70
    8
  0
LAYER
  2
_0-0_図面枠
 70
   64
 62
    7
  6
CONTINUOUS
  0
LAYER
  2
_1-0_躯体
 70
   64
 62
    7
  6
CONTINUOUS
  0
LAYER
  2
_1-4_フレ__ム
 70
   64
 62
    7
  6
CONTINUOUS
  0
LAYER
  2
_1-5_ホルダ__
 70
   64
 62
    7
  6
CONTINUOUS
  0
LAYER
  2
_1-7_カバ__
 70
   64
 62
    7
  6
CONTINUOUS
  0
LAYER
  2
_1-8_小物
 70
   64
 62
    7
  6
CONTINUOUS
  0
LAYER
  2
_1-f_寸法
 70
   64
 62
    7
  6
CONTINUOUS
  0
LAYER
  2
ADD_LINE
 70
   64
 62
    7
  6
CONTINUOUS
  0
ENDTAB
  0
ENDSEC
  0
SECTION
  2
BLOCKS
  0
BLOCK
  2
-000-
 70
   64
 10
0
 20
0
 30
0
  0
LINE
  8
_1-8_小物
  6
CONTINUOUS
 62
    4
 10
-61.787483860264473
 20
-19
 11
-59.787483860264473
 21
-19
  0
LINE
  8
_1-8_小物
  6
CONTINUOUS
 62
    4
 10
-62.120817193597816
 20
-19.707106781186582
 11
-62.120817193597816
 21
-18.292893218813447
  0
LINE
  8
_1-8_小物
  6
CONTINUOUS
 62
    4
 10
-62.120817193597816
 20
-18.292893218813447
 11
-59.45415052693113
 21
-18.292893218813447
  0
LINE
  8
_1-8_小物
  6
CONTINUOUS
 62
    4
 10
-59.45415052693113
 20
-19.707106781186582
 11
-59.45415052693113
 21
-18.292893218813447
  0
LINE
  8
_1-8_小物
  6
CONTINUOUS
 62
    4
 10
-62.120817193597816
 20
-19.707106781186582
 11
-59.45415052693113
 21
-19.707106781186582
  0
ENDBLK
  0
BLOCK
  2
-001-_1_
 70
   64
 10
0
 20
0
 30
0
  0
LINE
  8
_1-8_小物
  6
CONTINUOUS
 62
    4
 10
-118.45415052693113
 20
-19
 11
-120.45415052693113
 21
-19
  0
LINE
  8
_1-8_小物
  6
CONTINUOUS
 62
    4
 10
-118.1208171935978
 20
-19.707106781186582
 11
-118.1208171935978
 21
-18.292893218813447
  0
LINE
  8
_1-8_小物
  6
CONTINUOUS
 62
    4
 10
-118.1208171935978
 20
-18.292893218813447
 11
-120.78748386026447
 21
-18.292893218813447
  0
LINE
  8
_1-8_小物
  6
CONTINUOUS
 62
    4
 10
-120.78748386026447
 20
-19.707106781186582
 11
-120.78748386026447
 21
-18.292893218813447
  0
LINE
  8
_1-8_小物
  6
CONTINUOUS
 62
    4
 10
-118.1208171935978
 20
-19.707106781186582
 11
-120.78748386026447
 21
-19.707106781186582
  0
ENDBLK
  0
BLOCK
  2
-002-_2_
 70
   64
 10
0
 20
0
 30
0
  0
LINE
  8
_1-8_小物
  6
CONTINUOUS
 62
    4
 10
138.21251613973556
 20
-19
 11
140.21251613973556
 21
-19
  0
LINE
  8
_1-8_小物
  6
CONTINUOUS
 62
    4
 10
137.87918280640224
 20
-19.707106781186582
 11
137.87918280640224
 21
-18.292893218813447
  0
LINE
  8
_1-8_小物
  6
CONTINUOUS
 62
    4
 10
137.87918280640224
 20
-18.292893218813447
 11
140.54584947306887
 21
-18.292893218813447
  0
LINE
  8
_1-8_小物
  6
CONTINUOUS
 62
    4
 10
140.54584947306887
 20
-19.707106781186582
 11
140.54584947306887
 21
-18.292893218813447
  0
LINE
  8
_1-8_小物
  6
CONTINUOUS
 62
    4
 10
137.87918280640224
 20
-19.707106781186582
 11
140.54584947306887
 21
-19.707106781186582
  0
ENDBLK
  0
BLOCK
  2
-003-_3_
 70
   64
 10
0
 20
0
 30
0
  0
LINE
  8
_1-8_小物
  6
CONTINUOUS
 62
    4
 10
81.54584947306887
 20
-19
 11
79.54584947306887
 21
-19
  0
LINE
  8
_1-8_小物
  6
CONTINUOUS
 62
    4
 10
81.879182806402184
 20
-19.707106781186582
 11
81.879182806402184
 21
-18.292893218813447
  0
LINE
  8
_1-8_小物
  6
CONTINUOUS
 62
    4
 10
81.879182806402184
 20
-18.292893218813447
 11
79.212516139735499
 21
-18.292893218813447
  0
LINE
  8
_1-8_小物
  6
CONTINUOUS
 62
    4
 10
79.212516139735499
 20
-19.707106781186582
 11
79.212516139735499
 21
-18.292893218813447
  0
LINE
  8
_1-8_小物
  6
CONTINUOUS
 62
    4
 10
81.879182806402184
 20
-19.707106781186582
 11
79.212516139735499
 21
-19.707106781186582
  0
ENDBLK
  0
BLOCK
  2
-004-$QLE
 70
   64
 10
0
 20
0
 30
0
  0
LINE
  8
_1-f_寸法
  6
CONTINUOUS
 62
    4
 10
-44.946168999999969
 20
87.166667333333351
 11
-42.159178005298855
 21
91.993877336392586
  0
LINE
  8
_1-f_寸法
  6
CONTINUOUS
 62
    4
 10
-42.159178005298855
 20
91.993877336392586
 11
-22.639178005298845
 21
91.993877336392586
  0
POINT
  8
_1-f_寸法
 62
    4
 10
-44.946168999999969
 20
87.166667333333351
  0
TEXT
  8
_1-f_寸法
 62
    4
 10
-41.839178005298862
 20
91.993877336392586
 40
3.2000000000000002
 41
1
 50
0
  1
野縁受(別途)
  0
ENDBLK
  0
BLOCK
  2
-005-$QLE_1_
 70
   64
 10
0
 20
0
 30
0
  0
LINE
  8
_1-f_寸法
  6
CONTINUOUS
 62
    4
 10
-46.91666699999999
 20
71.583333833333342
 11
-42.682394505870121
 21
78.917308926257675
  0
LINE
  8
_1-f_寸法
  6
CONTINUOUS
 62
    4
 10
-42.682394505870121
 20
78.917308926257675
 11
-26.3623945058701
 21
78.917308926257675
  0
POINT
  8
_1-f_寸法
 62
    4
 10
-46.91666699999999
 20
71.583333833333342
  0
TEXT
  8
_1-f_寸法
 62
    4
 10
-42.362394505870128
 20
78.917308926257675
 40
3.2000000000000002
 41
1
 50
0
  1
野縁(別途)
  0
ENDBLK
  0
BLOCK
  2
-006-$QLE_2_
 70
   64
 10
0
 20
0
 30
0
  0
LINE
  8
_1-f_寸法
  6
CONTINUOUS
 62
    4
 10
-38.333333833333285
 20
68.166667666666626
 11
-36.473291596363424
 21
71.388355325322465
  0
LINE
  8
_1-f_寸法
  6
CONTINUOUS
 62
    4
 10
-36.473291596363424
 20
71.388355325322465
 11
-20.153291596363431
 21
71.388355325322465
  0
POINT
  8
_1-f_寸法
 62
    4
 10
-38.333333833333285
 20
68.166667666666626
  0
TEXT
  8
_1-f_寸法
 62
    4
 10
-36.153291596363459
 20
71.388355325322465
 40
3.2000000000000002
 41
1
 50
0
  1
天井仕上面
  0
ENDBLK
  0
BLOCK
  2
-007-_4_
 70
   64
 10
0
 20
0
 30
0
  0
LINE
  8
_1-8_小物
  6
CONTINUOUS
 62
    4
 10
-141.03333288333329
 20
64.299999999999955
 11
-135.63333288333305
 21
64.299999999999955
  0
LINE
  8
_1-8_小物
  6
CONTINUOUS
 62
    4
 10
-141.03333288333329
 20
63.849999999999937
 11
-135.63333288333305
 21
63.849999999999937
  0
LINE
  8
_1-8_小物
  6
CONTINUOUS
 62
    4
 10
-141.03333288333329
 20
64.299999999999955
 11
-141.03333288333329
 21
63.849999999999937
  0
LINE
  8
_1-8_小物
  6
CONTINUOUS
 62
    4
 10
-135.63333288333305
 20
64.299999999999955
 11
-135.63333288333305
 21
63.849999999999937
  0
LINE
  8
_1-8_小物
  6
DASHED1
 62
    4
 10
-139.15833288333326
 20
64.299999999999955
 11
-139.15833288333326
 21
63.849999999999937
  0
LINE
  8
_1-8_小物
  6
DASHED1
 62
    4
 10
-137.50833288333305
 20
64.299999999999955
 11
-137.50833288333305
 21
63.849999999999937
  0
LINE
  8
_1-8_小物
  6
CONTINUOUS
 62
    4
 10
-137.97333333333378
 20
66.458868700000039
 11
-137.97333333333378
 21
66.691676199999876
  0
LINE
  8
_1-8_小物
  6
CONTINUOUS
 62
    4
 10
-138.69333333333338
 20
66.480009699999783
 11
-138.69333333333338
 21
66.247202200000174
  0
LINE
  8
_1-8_小物
  6
CONTINUOUS
 62
    4
 10
-137.97333333333378
 20
66.691676199999876
 11
-138.69333333333338
 21
66.480009699999783
  0
LINE
  8
_1-8_小物
  6
CONTINUOUS
 62
    4
 10
-137.8083327333338
 20
66.786939400000165
 11
-138.85833303333334
 21
66.575272000000041
  0
LINE
  8
_1-8_小物
  6
CONTINUOUS
 62
    4
 10
-137.8083327333338
 20
66.786939400000165
 11
-137.97333333333378
 21
66.691676199999876
  0
LINE
  8
_1-8_小物
  6
CONTINUOUS
 62
    4
 10
-138.85833303333334
 20
66.575272000000041
 11
-138.69333333333338
 21
66.670535200000131
  0
LINE
  8
_1-8_小物
  6
CONTINUOUS
 62
    4
 10
-138.69333333333338
 20
66.480009699999783
 11
-138.85833303333334
 21
66.575272000000041
  0
LINE
  8
_1-8_小物
  6
CONTINUOUS
 62
    4
 10
-137.97333333333378
 20
66.035534799999851
 11
-137.97333333333378
 21
66.268343199999919
  0
LINE
  8
_1-8_小物
  6
CONTINUOUS
 62
    4
 10
-138.69333333333338
 20
66.056675800000022
 11
-138.69333333333338
 21
65.823868299999987
  0
LINE
  8
_1-8_小物
  6
CONTINUOUS
 62
    4
 10
-137.97333333333378
 20
66.458868700000039
 11
-138.69333333333338
 21
66.247202200000174
  0
LINE
  8
_1-8_小物
  6
CONTINUOUS
 62
    4
 10
-137.97333333333378
 20
66.268343199999919
 11
-138.69333333333338
 21
66.056675800000022
  0
LINE
  8
_1-8_小物
  6
CONTINUOUS
 62
    4
 10
-137.8083327333338
 20
66.363605499999977
 11
-138.85833303333334
 21
66.151938999999885
  0
LINE
  8
_1-8_小物
  6
CONTINUOUS
 62
    4
 10
-137.8083327333338
 20
66.363605499999977
 11
-137.97333333333378
 21
66.458868700000039
  0
LINE
  8
_1-8_小物
  6
CONTINUOUS
 62
    4
 10
-137.8083327333338
 20
66.363605499999977
 11
-137.97333333333378
 21
66.268343199999919
  0
LINE
  8
_1-8_小物
  6
CONTINUOUS
 62
    4
 10
-138.85833303333334
 20
66.151938999999885
 11
-138.69333333333338
 21
66.247202200000174
  0
LINE
  8
_1-8_小物
  6
CONTINUOUS
 62
    4
 10
-138.69333333333338
 20
66.056675800000022
 11
-138.85833303333334
 21
66.151938999999885
  0
LINE
  8
_1-8_小物
  6
CONTINUOUS
 62
    4
 10
-137.97333333333378
 20
65.612201800000093
 11
-137.97333333333378
 21
65.845009300000129
  0
LINE
  8
_1-8_小物
  6
CONTINUOUS
 62
    4
 10
-138.69333333333338
 20
65.633342800000037
 11
-138.69333333333338
 21
65.400535300000001
  0
LINE
  8
_1-8_小物
  6
CONTINUOUS
 62
    4
 10
-137.97333333333378
 20
66.035534799999851
 11
-138.69333333333338
 21
65.823868299999987
  0
LINE
  8
_1-8_小物
  6
CONTINUOUS
 62
    4
 10
-137.97333333333378
 20
65.845009300000129
 11
-138.69333333333338
 21
65.633342800000037
  0
LINE
  8
_1-8_小物
  6
CONTINUOUS
 62
    4
 10
-137.8083327333338
 20
65.940272499999992
 11
-138.85833303333334
 21
65.7286059999999
  0
LINE
  8
_1-8_小物
  6
CONTINUOUS
 62
    4
 10
-137.8083327333338
 20
65.940272499999992
 11
-137.97333333333378
 21
66.035534799999851
  0
LINE
  8
_1-8_小物
  6
CONTINUOUS
 62
    4
 10
-137.8083327333338
 20
65.940272499999992
 11
-137.97333333333378
 21
65.845009300000129
  0
LINE
  8
_1-8_小物
  6
CONTINUOUS
 62
    4
 10
-138.85833303333334
 20
65.7286059999999
 11
-138.69333333333338
 21
65.823868299999987
  0
LINE
  8
_1-8_小物
  6
CONTINUOUS
 62
    4
 10
-138.69333333333338
 20
65.633342800000037
 11
-138.85833303333334
 21
65.7286059999999
  0
LINE
  8
_1-8_小物
  6
CONTINUOUS
 62
    4
 10
-137.97333333333378
 20
65.188868799999938
 11
-137.97333333333378
 21
65.421676299999973
  0
LINE
  8
_1-8_小物
  6
CONTINUOUS
 62
    4
 10
-138.69333333333338
 20
65.210009799999881
 11
-138.69333333333338
 21
64.977201400000041
  0
LINE
  8
_1-8_小物
  6
CONTINUOUS
 62
    4
 10
-137.97333333333378
 20
65.612201800000093
 11
-138.69333333333338
 21
65.400535300000001
  0
LINE
  8
_1-8_小物
  6
CONTINUOUS
 62
    4
 10
-137.97333333333378
 20
65.421676299999973
 11
-138.69333333333338
 21
65.210009799999881
  0
LINE
  8
_1-8_小物
  6
CONTINUOUS
 62
    4
 10
-137.8083327333338
 20
65.516938600000003
 11
-138.85833303333334
 21
65.305272100000138
  0
LINE
  8
_1-8_小物
  6
CONTINUOUS
 62
    4
 10
-137.8083327333338
 20
65.516938600000003
 11
-137.97333333333378
 21
65.612201800000093
  0
LINE
  8
_1-8_小物
  6
CONTINUOUS
 62
    4
 10
-137.8083327333338
 20
65.516938600000003
 11
-137.97333333333378
 21
65.421676299999973
  0
LINE
  8
_1-8_小物
  6
CONTINUOUS
 62
    4
 10
-138.85833303333334
 20
65.305272100000138
 11
-138.69333333333338
 21
65.400535300000001
  0
LINE
  8
_1-8_小物
  6
CONTINUOUS
 62
    4
 10
-138.69333333333338
 20
65.210009799999881
 11
-138.85833303333334
 21
65.305272100000138
  0
LINE
  8
_1-8_小物
  6
CONTINUOUS
 62
    4
 10
-137.97333333333378
 20
64.765534899999949
 11
-137.97333333333378
 21
64.998343300000016
  0
LINE
  8
_1-8_小物
  6
CONTINUOUS
 62
    4
 10
-138.69333333333338
 20
64.786675899999864
 11
-138.69333333333338
 21
64.553868400000084
  0
LINE
  8
_1-8_小物
  6
CONTINUOUS
 62
    4
 10
-137.97333333333378
 20
65.188868799999938
 11
-138.69333333333338
 21
64.977201400000041
  0
LINE
  8
_1-8_小物
  6
CONTINUOUS
 62
    4
 10
-137.97333333333378
 20
64.998343300000016
 11
-138.69333333333338
 21
64.786675899999864
  0
LINE
  8
_1-8_小物
  6
CONTINUOUS
 62
    4
 10
-137.8083327333338
 20
65.093605600000075
 11
-138.85833303333334
 21
64.881939099999983
  0
LINE
  8
_1-8_小物
  6
CONTINUOUS
 62
    4
 10
-137.8083327333338
 20
65.093605600000075
 11
-137.97333333333378
 21
65.188868799999938
  0
LINE
  8
_1-8_小物
  6
CONTINUOUS
 62
    4
 10
-137.8083327333338
 20
65.093605600000075
 11
-137.97333333333378
 21
64.998343300000016
  0
LINE
  8
_1-8_小物
  6
CONTINUOUS
 62
    4
 10
-138.85833303333334
 20
64.881939099999983
 11
-138.69333333333338
 21
64.977201400000041
  0
LINE
  8
_1-8_小物
  6
CONTINUOUS
 62
    4
 10
-138.69333333333338
 20
64.786675899999864
 11
-138.85833303333334
 21
64.881939099999983
  0
LINE
  8
_1-8_小物
  6
CONTINUOUS
 62
    4
 10
-137.97333333333378
 20
64.342201900000191
 11
-138.69333333333338
 21
64.130535400000099
  0
LINE
  8
_1-8_小物
  6
CONTINUOUS
 62
    4
 10
-137.97333333333378
 20
64.151676399999843
 11
-138.69333333333338
 21
63.94000989999995
  0
LINE
  8
_1-8_小物
  6
CONTINUOUS
 62
    4
 10
-137.8083327333338
 20
64.246938699999902
 11
-138.85833303333334
 21
64.03527219999981
  0
LINE
  8
_1-8_小物
  6
CONTINUOUS
 62
    4
 10
-137.8083327333338
 20
64.246938699999902
 11
-137.97333333333378
 21
64.342201900000191
  0
LINE
  8
_1-8_小物
  6
CONTINUOUS
 62
    4
 10
-137.8083327333338
 20
64.246938699999902
 11
-137.97333333333378
 21
64.151676399999843
  0
LINE
  8
_1-8_小物
  6
CONTINUOUS
 62
    4
 10
-138.85833303333334
 20
64.03527219999981
 11
-138.69333333333338
 21
64.130535400000099
  0
LINE
  8
_1-8_小物
  6
CONTINUOUS
 62
    4
 10
-138.69333333333338
 20
63.94000989999995
 11
-138.85833303333334
 21
64.03527219999981
  0
LINE
  8
_1-8_小物
  6
CONTINUOUS
 62
    4
 10
-137.97333333333378
 20
63.849999999999937
 11
-137.97333333333378
 21
64.151676399999843
  0
LINE
  8
_1-8_小物
  6
CONTINUOUS
 62
    4
 10
-137.97333333333378
 20
64.342201900000191
 11
-137.97333333333378
 21
64.575009399999999
  0
LINE
  8
_1-8_小物
  6
CONTINUOUS
 62
    4
 10
-138.69333333333338
 20
64.363342899999935
 11
-138.69333333333338
 21
64.130535400000099
  0
LINE
  8
_1-8_小物
  6
CONTINUOUS
 62
    4
 10
-137.97333333333378
 20
64.765534899999949
 11
-138.69333333333338
 21
64.553868400000084
  0
LINE
  8
_1-8_小物
  6
CONTINUOUS
 62
    4
 10
-137.97333333333378
 20
64.575009399999999
 11
-138.69333333333338
 21
64.363342899999935
  0
LINE
  8
_1-8_小物
  6
CONTINUOUS
 62
    4
 10
-137.8083327333338
 20
64.670272600000089
 11
-138.85833303333334
 21
64.458606099999997
  0
LINE
  8
_1-8_小物
  6
CONTINUOUS
 62
    4
 10
-137.8083327333338
 20
64.670272600000089
 11
-137.97333333333378
 21
64.765534899999949
  0
LINE
  8
_1-8_小物
  6
CONTINUOUS
 62
    4
 10
-137.8083327333338
 20
64.670272600000089
 11
-137.97333333333378
 21
64.575009399999999
  0
LINE
  8
_1-8_小物
  6
CONTINUOUS
 62
    4
 10
-138.85833303333334
 20
64.458606099999997
 11
-138.69333333333338
 21
64.553868400000084
  0
LINE
  8
_1-8_小物
  6
CONTINUOUS
 62
    4
 10
-138.69333333333338
 20
64.363342899999935
 11
-138.85833303333334
 21
64.458606099999997
  0
ARC
  8
_1-8_小物
  6
CONTINUOUS
 62
    4
 10
-137.58333273333324
 20
63.570961299999908
 40
0.2999996999999999
 50
299.99999999997999
 51
0
  0
ARC
  8
_1-8_小物
  6
CONTINUOUS
 62
    4
 10
-139.0833330333331
 20
63.570961299999908
 40
0.2999996999999999
 50
180
 51
239.99999999995677
  0
ARC
  8
_1-8_小物
  6
CONTINUOUS
 62
    4
 10
-138.33333333333346
 20
64.869999699999909
 40
1.8
 50
239.99999999999184
 51
299.99999999999801
  0
LINE
  8
_1-8_小物
  6
CONTINUOUS
 62
    4
 10
-137.28333303333338
 20
63.849999999999937
 11
-137.28333303333338
 21
63.570961299999908
  0
LINE
  8
_1-8_小物
  6
CONTINUOUS
 62
    4
 10
-139.38333273333328
 20
63.849999999999937
 11
-137.28333303333338
 21
63.849999999999937
  0
LINE
  8
_1-8_小物
  6
CONTINUOUS
 62
    4
 10
-139.38333273333328
 20
63.849999999999937
 11
-139.38333273333328
 21
63.570961299999908
  0
LINE
  8
_1-8_小物
  6
CONTINUOUS
 62
    4
 10
-138.69333333333338
 20
63.94000989999995
 11
-138.69333333333338
 21
63.849999999999937
  0
LINE
  8
_1-8_小物
  6
CONTINUOUS
 62
    4
 10
-137.97333333333378
 20
69.422201499999829
 11
-137.97333333333378
 21
69.655009899999897
  0
LINE
  8
_1-8_小物
  6
CONTINUOUS
 62
    4
 10
-138.69333333333338
 20
69.443342499999972
 11
-138.69333333333338
 21
69.210534999999936
  0
LINE
  8
_1-8_小物
  6
CONTINUOUS
 62
    4
 10
-137.97333333333378
 20
69.845535400000017
 11
-138.69333333333338
 21
69.633868899999953
  0
LINE
  8
_1-8_小物
  6
CONTINUOUS
 62
    4
 10
-137.97333333333378
 20
69.655009899999897
 11
-138.69333333333338
 21
69.443342499999972
  0
LINE
  8
_1-8_小物
  6
CONTINUOUS
 62
    4
 10
-137.8083327333338
 20
69.750272200000154
 11
-138.85833303333334
 21
69.53860570000009
  0
LINE
  8
_1-8_小物
  6
CONTINUOUS
 62
    4
 10
-137.8083327333338
 20
69.750272200000154
 11
-137.97333333333378
 21
69.845535400000017
  0
LINE
  8
_1-8_小物
  6
CONTINUOUS
 62
    4
 10
-137.8083327333338
 20
69.750272200000154
 11
-137.97333333333378
 21
69.655009899999897
  0
LINE
  8
_1-8_小物
  6
CONTINUOUS
 62
    4
 10
-138.85833303333334
 20
69.53860570000009
 11
-138.69333333333338
 21
69.633868899999953
  0
LINE
  8
_1-8_小物
  6
CONTINUOUS
 62
    4
 10
-138.69333333333338
 20
69.443342499999972
 11
-138.85833303333334
 21
69.53860570000009
  0
LINE
  8
_1-8_小物
  6
CONTINUOUS
 62
    4
 10
-137.97333333333378
 20
68.998868499999844
 11
-137.97333333333378
 21
69.231675999999879
  0
LINE
  8
_1-8_小物
  6
CONTINUOUS
 62
    4
 10
-138.69333333333338
 20
69.020009500000015
 11
-138.69333333333338
 21
68.787201999999979
  0
LINE
  8
_1-8_小物
  6
CONTINUOUS
 62
    4
 10
-137.97333333333378
 20
69.422201499999829
 11
-138.69333333333338
 21
69.210534999999936
  0
LINE
  8
_1-8_小物
  6
CONTINUOUS
 62
    4
 10
-137.97333333333378
 20
69.231675999999879
 11
-138.69333333333338
 21
69.020009500000015
  0
LINE
  8
_1-8_小物
  6
CONTINUOUS
 62
    4
 10
-137.8083327333338
 20
69.326939199999998
 11
-138.85833303333334
 21
69.115272700000105
  0
LINE
  8
_1-8_小物
  6
CONTINUOUS
 62
    4
 10
-137.8083327333338
 20
69.326939199999998
 11
-137.97333333333378
 21
69.422201499999829
  0
LINE
  8
_1-8_小物
  6
CONTINUOUS
 62
    4
 10
-137.8083327333338
 20
69.326939199999998
 11
-137.97333333333378
 21
69.231675999999879
  0
LINE
  8
_1-8_小物
  6
CONTINUOUS
 62
    4
 10
-138.85833303333334
 20
69.115272700000105
 11
-138.69333333333338
 21
69.210534999999936
  0
LINE
  8
_1-8_小物
  6
CONTINUOUS
 62
    4
 10
-138.69333333333338
 20
69.020009500000015
 11
-138.85833303333334
 21
69.115272700000105
  0
LINE
  8
_1-8_小物
  6
CONTINUOUS
 62
    4
 10
-137.97333333333378
 20
68.575535499999916
 11
-137.97333333333378
 21
68.808342999999951
  0
LINE
  8
_1-8_小物
  6
CONTINUOUS
 62
    4
 10
-138.69333333333338
 20
68.596676499999859
 11
-138.69333333333338
 21
68.363868100000019
  0
LINE
  8
_1-8_小物
  6
CONTINUOUS
 62
    4
 10
-137.97333333333378
 20
68.998868499999844
 11
-138.69333333333338
 21
68.787201999999979
  0
LINE
  8
_1-8_小物
  6
CONTINUOUS
 62
    4
 10
-137.97333333333378
 20
68.808342999999951
 11
-138.69333333333338
 21
68.596676499999859
  0
LINE
  8
_1-8_小物
  6
CONTINUOUS
 62
    4
 10
-137.8083327333338
 20
68.903605299999981
 11
-138.85833303333334
 21
68.691938799999917
  0
LINE
  8
_1-8_小物
  6
CONTINUOUS
 62
    4
 10
-137.8083327333338
 20
68.903605299999981
 11
-137.97333333333378
 21
68.998868499999844
  0
LINE
  8
_1-8_小物
  6
CONTINUOUS
 62
    4
 10
-137.8083327333338
 20
68.903605299999981
 11
-137.97333333333378
 21
68.808342999999951
  0
LINE
  8
_1-8_小物
  6
CONTINUOUS
 62
    4
 10
-138.85833303333334
 20
68.691938799999917
 11
-138.69333333333338
 21
68.787201999999979
  0
LINE
  8
_1-8_小物
  6
CONTINUOUS
 62
    4
 10
-138.69333333333338
 20
68.596676499999859
 11
-138.85833303333334
 21
68.691938799999917
  0
LINE
  8
_1-8_小物
  6
CONTINUOUS
 62
    4
 10
-137.97333333333378
 20
68.152201599999927
 11
-137.97333333333378
 21
68.385009999999966
  0
LINE
  8
_1-8_小物
  6
CONTINUOUS
 62
    4
 10
-138.69333333333338
 20
68.173342600000069
 11
-138.69333333333338
 21
67.940535100000034
  0
LINE
  8
_1-8_小物
  6
CONTINUOUS
 62
    4
 10
-137.97333333333378
 20
68.575535499999916
 11
-138.69333333333338
 21
68.363868100000019
  0
LINE
  8
_1-8_小物
  6
CONTINUOUS
 62
    4
 10
-137.97333333333378
 20
68.385009999999966
 11
-138.69333333333338
 21
68.173342600000069
  0
LINE
  8
_1-8_小物
  6
CONTINUOUS
 62
    4
 10
-137.8083327333338
 20
68.480272299999825
 11
-138.85833303333334
 21
68.26860579999996
  0
LINE
  8
_1-8_小物
  6
CONTINUOUS
 62
    4
 10
-137.8083327333338
 20
68.480272299999825
 11
-137.97333333333378
 21
68.575535499999916
  0
LINE
  8
_1-8_小物
  6
CONTINUOUS
 62
    4
 10
-137.8083327333338
 20
68.480272299999825
 11
-137.97333333333378
 21
68.385009999999966
  0
LINE
  8
_1-8_小物
  6
CONTINUOUS
 62
    4
 10
-138.85833303333334
 20
68.26860579999996
 11
-138.69333333333338
 21
68.363868100000019
  0
LINE
  8
_1-8_小物
  6
CONTINUOUS
 62
    4
 10
-138.69333333333338
 20
68.173342600000069
 11
-138.85833303333334
 21
68.26860579999996
  0
LINE
  8
_1-8_小物
  6
CONTINUOUS
 62
    4
 10
-137.97333333333378
 20
67.89312309999994
 11
-137.97333333333378
 21
67.961676099999977
  0
LINE
  8
_1-8_小物
  6
CONTINUOUS
 62
    4
 10
-138.69333333333338
 20
67.750009600000112
 11
-138.69333333333338
 21
67.517202100000077
  0
LINE
  8
_1-8_小物
  6
CONTINUOUS
 62
    4
 10
-137.97333333333378
 20
68.152201599999927
 11
-138.69333333333338
 21
67.940535100000034
  0
LINE
  8
_1-8_小物
  6
CONTINUOUS
 62
    4
 10
-137.97333333333378
 20
67.961676099999977
 11
-138.44128473333353
 21
67.82410750000011
  0
LINE
  8
_1-8_小物
  6
CONTINUOUS
 62
    4
 10
-138.77822583333341
 20
67.861420599999775
 11
-137.8083327333338
 21
68.056939300000067
  0
LINE
  8
_1-8_小物
  6
CONTINUOUS
 62
    4
 10
-137.8083327333338
 20
68.056939300000067
 11
-137.97333333333378
 21
68.152201599999927
  0
LINE
  8
_1-8_小物
  6
CONTINUOUS
 62
    4
 10
-137.8083327333338
 20
68.056939300000067
 11
-137.97333333333378
 21
67.961676099999977
  0
LINE
  8
_1-8_小物
  6
CONTINUOUS
 62
    4
 10
-138.81127923333338
 20
67.872439300000025
 11
-138.69333333333338
 21
67.940535100000034
  0
LINE
  8
_1-8_小物
  6
CONTINUOUS
 62
    4
 10
-138.69333333333338
 20
67.750009600000112
 11
-138.85833303333334
 21
67.845272799999975
  0
LINE
  8
_1-8_小物
  6
CONTINUOUS
 62
    4
 10
-137.97333333333378
 20
67.305534699999754
 11
-137.97333333333378
 21
67.538343100000048
  0
LINE
  8
_1-8_小物
  6
CONTINUOUS
 62
    4
 10
-138.69333333333338
 20
67.326676599999956
 11
-138.69333333333338
 21
67.093868199999889
  0
LINE
  8
_1-8_小物
  6
CONTINUOUS
 62
    4
 10
-137.97333333333378
 20
67.728868599999942
 11
-138.69333333333338
 21
67.517202100000077
  0
LINE
  8
_1-8_小物
  6
CONTINUOUS
 62
    4
 10
-137.97333333333378
 20
67.538343100000048
 11
-138.69333333333338
 21
67.326676599999956
  0
LINE
  8
_1-8_小物
  6
CONTINUOUS
 62
    4
 10
-137.8083327333338
 20
67.633605400000079
 11
-138.85833303333334
 21
67.421938900000015
  0
LINE
  8
_1-8_小物
  6
CONTINUOUS
 62
    4
 10
-137.8083327333338
 20
67.633605400000079
 11
-137.97333333333378
 21
67.728868599999942
  0
LINE
  8
_1-8_小物
  6
CONTINUOUS
 62
    4
 10
-137.8083327333338
 20
67.633605400000079
 11
-137.97333333333378
 21
67.538343100000048
  0
LINE
  8
_1-8_小物
  6
CONTINUOUS
 62
    4
 10
-138.85833303333334
 20
67.421938900000015
 11
-138.69333333333338
 21
67.517202100000077
  0
LINE
  8
_1-8_小物
  6
CONTINUOUS
 62
    4
 10
-138.69333333333338
 20
67.326676599999956
 11
-138.85833303333334
 21
67.421938900000015
  0
LINE
  8
_1-8_小物
  6
CONTINUOUS
 62
    4
 10
-137.97333333333378
 20
66.882201700000024
 11
-137.97333333333378
 21
67.115009200000031
  0
LINE
  8
_1-8_小物
  6
CONTINUOUS
 62
    4
 10
-138.69333333333338
 20
66.903342699999939
 11
-138.69333333333338
 21
66.670535200000131
  0
LINE
  8
_1-8_小物
  6
CONTINUOUS
 62
    4
 10
-137.97333333333378
 20
67.305534699999754
 11
-138.69333333333338
 21
67.093868199999889
  0
LINE
  8
_1-8_小物
  6
CONTINUOUS
 62
    4
 10
-137.97333333333378
 20
67.115009200000031
 11
-138.69333333333338
 21
66.903342699999939
  0
LINE
  8
_1-8_小物
  6
CONTINUOUS
 62
    4
 10
-137.8083327333338
 20
67.210272399999923
 11
-138.85833303333334
 21
66.998605900000058
  0
LINE
  8
_1-8_小物
  6
CONTINUOUS
 62
    4
 10
-137.8083327333338
 20
67.210272399999923
 11
-137.97333333333378
 21
67.305534699999754
  0
LINE
  8
_1-8_小物
  6
CONTINUOUS
 62
    4
 10
-137.8083327333338
 20
67.210272399999923
 11
-137.97333333333378
 21
67.115009200000031
  0
LINE
  8
_1-8_小物
  6
CONTINUOUS
 62
    4
 10
-138.85833303333334
 20
66.998605900000058
 11
-138.69333333333338
 21
67.093868199999889
  0
LINE
  8
_1-8_小物
  6
CONTINUOUS
 62
    4
 10
-138.69333333333338
 20
66.903342699999939
 11
-138.85833303333334
 21
66.998605900000058
  0
LINE
  8
_1-8_小物
  6
CONTINUOUS
 62
    4
 10
-137.97333333333378
 20
66.882201700000024
 11
-138.69333333333338
 21
66.670535200000131
  0
LINE
  8
_1-8_小物
  6
CONTINUOUS
 62
    4
 10
-137.8083327333338
 20
66.786939400000165
 11
-137.97333333333378
 21
66.882201700000024
  0
LINE
  8
_1-8_小物
  6
CONTINUOUS
 62
    4
 10
-138.07860003333334
 20
70.703920299999936
 11
-138.59781093333308
 21
70.491120700000039
  0
LINE
  8
_1-8_小物
  6
CONTINUOUS
 62
    4
 10
-138.78114543333331
 20
70.385272600000008
 11
-137.89330263333383
 21
70.596939099999901
  0
LINE
  8
_1-8_小物
  6
CONTINUOUS
 62
    4
 10
-138.05830323333382
 20
70.501675900000038
 11
-138.61614573333335
 21
70.290009400000145
  0
LINE
  8
_1-8_小物
  6
CONTINUOUS
 62
    4
 10
-138.63640473333339
 20
70.067786800000022
 11
-138.03611463333343
 21
70.280586400000175
  0
LINE
  8
_1-8_小物
  6
CONTINUOUS
 62
    4
 10
-137.85081813333341
 20
70.173606099999915
 11
-138.81973923333359
 21
69.961938700000019
  0
LINE
  8
_1-8_小物
  6
CONTINUOUS
 62
    4
 10
-138.65473953333307
 20
69.866676399999989
 11
-138.01581783333336
 21
70.078342900000052
  0
LINE
  8
_1-8_小物
  6
CONTINUOUS
 62
    4
 10
-138.65473953333307
 20
69.866676399999989
 11
-138.67548543333348
 21
69.639114999999975
  0
LINE
  8
_1-8_小物
  6
CONTINUOUS
 62
    4
 10
-138.61614573333335
 20
70.290009400000145
 11
-138.63640473333339
 21
70.067786800000022
  0
LINE
  8
_1-8_小物
  6
CONTINUOUS
 62
    4
 10
-138.03611463333343
 20
70.280586400000175
 11
-138.05830323333382
 21
70.501675900000038
  0
LINE
  8
_1-8_小物
  6
CONTINUOUS
 62
    4
 10
-137.9919057333334
 20
69.840075099999922
 11
-138.01581783333336
 21
70.078342900000052
  0
LINE
  8
_1-8_小物
  6
CONTINUOUS
 62
    4
 10
-137.89330263333383
 20
70.596939099999901
 11
-138.07860003333334
 21
70.703920299999936
  0
LINE
  8
_1-8_小物
  6
CONTINUOUS
 62
    4
 10
-138.05830323333382
 20
70.501675900000038
 11
-137.89330263333383
 21
70.596939099999901
  0
LINE
  8
_1-8_小物
  6
CONTINUOUS
 62
    4
 10
-137.85081813333341
 20
70.173606099999915
 11
-138.03611463333343
 21
70.280586400000175
  0
LINE
  8
_1-8_小物
  6
CONTINUOUS
 62
    4
 10
-137.85081813333341
 20
70.173606099999915
 11
-138.01581783333336
 21
70.078342900000052
  0
LINE
  8
_1-8_小物
  6
CONTINUOUS
 62
    4
 10
-138.78114543333331
 20
70.385272600000008
 11
-138.59781093333308
 21
70.491120700000039
  0
LINE
  8
_1-8_小物
  6
CONTINUOUS
 62
    4
 10
-138.61614573333335
 20
70.290009400000145
 11
-138.78114543333331
 21
70.385272600000008
  0
LINE
  8
_1-8_小物
  6
CONTINUOUS
 62
    4
 10
-138.81973923333359
 20
69.961938700000019
 11
-138.63640473333339
 21
70.067786800000022
  0
LINE
  8
_1-8_小物
  6
CONTINUOUS
 62
    4
 10
-138.65473953333307
 20
69.866676399999989
 11
-138.81973923333359
 21
69.961938700000019
  0
LINE
  8
_1-8_小物
  6
CONTINUOUS
 62
    4
 10
-138.33333333333346
 20
71.440009599999968
 11
-138.07860003333334
 21
70.703920299999936
  0
LINE
  8
_1-8_小物
  6
CONTINUOUS
 62
    4
 10
-138.59781093333308
 20
70.491120700000039
 11
-138.33333333333346
 21
71.440009599999968
  0
LINE
  8
_1-8_小物
  6
CONTINUOUS
 62
    4
 10
-137.97333333333378
 20
67.89312309999994
 11
-137.97333333333378
 21
67.728868599999942
  0
LINE
  8
_1-8_小物
  6
CONTINUOUS
 62
    4
 10
-138.81127923333338
 20
67.872439300000025
 11
-138.85833303333334
 21
67.845272799999975
  0
LINE
  8
_1-8_小物
  6
CONTINUOUS
 62
    4
 10
-138.69333333333338
 20
67.750009600000112
 11
-138.44128473333353
 21
67.82410750000011
  0
LINE
  8
_1-8_小物
  6
CONTINUOUS
 62
    4
 10
-138.77822583333341
 20
67.861420599999775
 11
-138.85833303333334
 21
67.845272799999975
  0
LINE
  8
_1-8_小物
  6
CENTER2
 62
    4
 10
-138.33333333333346
 20
72.340009599999831
 11
-138.33333333333346
 21
62.169999699999863
  0
ENDBLK
  0
BLOCK
  2
-008-_5_
 70
   64
 10
0
 20
0
 30
0
  0
LINE
  8
_1-7_カバ__
  6
CONTINUOUS
 62
    4
 10
-134.999998917938
 20
56.470710678118735
 11
-134.92928823981936
 21
56.400000000000091
  0
LINE
  8
_1-7_カバ__
  6
CONTINUOUS
 62
    4
 10
-134.999998917938
 20
56.470710678118735
 11
-135.07070959605664
 21
56.400000000000091
  0
LINE
  8
_1-7_カバ__
  6
CONTINUOUS
 62
    4
 10
-61.666665584591982
 20
56.470710678118735
 11
-61.59595490647331
 21
56.400000000000091
  0
LINE
  8
_1-7_カバ__
  6
CONTINUOUS
 62
    4
 10
-61.666665584591982
 20
56.470710678118735
 11
-61.737376262710626
 21
56.400000000000091
  0
LINE
  8
_1-7_カバ__
  6
CONTINUOUS
 62
    4
 10
-61.59595490647331
 20
56.400000000000091
 11
-44.999998917353594
 21
56.400000000000091
  0
LINE
  8
_1-7_カバ__
  6
CONTINUOUS
 62
    4
 10
-151.66666558460466
 20
56.400000000000091
 11
-135.07070959605664
 21
56.400000000000091
  0
LINE
  8
_1-7_カバ__
  6
CONTINUOUS
 62
    4
 10
-134.92928823981936
 20
56.400000000000091
 11
-61.737376262710626
 21
56.400000000000091
  0
LINE
  8
_1-7_カバ__
  6
CENTER2
 62
    4
 10
-98.333333333333343
 20
54.733333333333405
 11
-98.333333333333343
 21
58.8333333333334
  0
LINE
  8
_1-7_カバ__
  6
CENTER2
 62
    4
 10
-135.00000000000637
 20
54.733333333333405
 11
-135.00000000000637
 21
58.8333333333334
  0
LINE
  8
_1-7_カバ__
  6
CENTER2
 62
    4
 10
-61.666666666660348
 20
54.733333333333405
 11
-61.666666666660348
 21
58.8333333333334
  0
LINE
  8
_1-7_カバ__
  6
CONTINUOUS
 62
    4
 10
-151.66666666667302
 20
61.06666666666672
 11
-151.66666666667302
 21
56.400000000000091
  0
LINE
  8
_1-7_カバ__
  6
CONTINUOUS
 62
    4
 10
-148.33333333333985
 20
61.06666666666672
 11
-148.33333333333985
 21
60.400000000000091
  0
LINE
  8
_1-7_カバ__
  6
CONTINUOUS
 62
    4
 10
-151.66666666667302
 20
61.06666666666672
 11
-148.33333333333985
 21
61.06666666666672
  0
LINE
  8
_1-7_カバ__
  6
CONTINUOUS
 62
    4
 10
-150.83333333333968
 20
60.400000000000091
 11
-148.33333333333985
 21
60.400000000000091
  0
LINE
  8
_1-7_カバ__
  6
CONTINUOUS
 62
    4
 10
-150.83333333333968
 20
60.400000000000091
 11
-150.83333333333968
 21
57.166666666666742
  0
LINE
  8
_1-7_カバ__
  6
CONTINUOUS
 62
    4
 10
-44.999997835856959
 20
61.06666666666672
 11
-44.999997835856959
 21
56.400000000000091
  0
LINE
  8
_1-7_カバ__
  6
CONTINUOUS
 62
    4
 10
-48.333331169190132
 20
61.06666666666672
 11
-48.333331169190132
 21
60.400000000000091
  0
LINE
  8
_1-7_カバ__
  6
CONTINUOUS
 62
    4
 10
-44.999997835856959
 20
61.06666666666672
 11
-48.333331169190132
 21
61.06666666666672
  0
LINE
  8
_1-7_カバ__
  6
CONTINUOUS
 62
    4
 10
-45.83333116919033
 20
60.400000000000091
 11
-48.333331169190132
 21
60.400000000000091
  0
LINE
  8
_1-7_カバ__
  6
CONTINUOUS
 62
    4
 10
-150.83333333333968
 20
57.166666666666742
 11
-45.83333116919033
 21
57.166666666666742
  0
LINE
  8
_1-7_カバ__
  6
CONTINUOUS
 62
    4
 10
-45.83333116919033
 20
60.400000000000091
 11
-45.83333116919033
 21
57.166666666666742
  0
LINE
  8
_1-7_カバ__
  6
DASHED1
 62
    4
 10
-60.916665584591954
 20
56.733333333333348
 11
-60.583332251258696
 21
56.400000000000091
  0
LINE
  8
_1-7_カバ__
  6
DASHED1
 62
    4
 10
-62.416665584591954
 20
56.733333333333348
 11
-62.749998917925211
 21
56.400000000000091
  0
LINE
  8
_1-7_カバ__
  6
DASHED1
 62
    4
 10
-62.416665584591954
 20
56.733333333333348
 11
-60.916665584591954
 21
56.733333333333348
  0
LINE
  8
_1-7_カバ__
  6
DASHED1
 62
    4
 10
-60.916665584591954
 20
56.733333333333348
 11
-60.916665584591954
 21
57.166666666666742
  0
LINE
  8
_1-7_カバ__
  6
DASHED1
 62
    4
 10
-62.416665584591954
 20
56.733333333333348
 11
-62.416665584591954
 21
57.166666666666742
  0
LINE
  8
_1-7_カバ__
  6
DASHED1
 62
    4
 10
-134.24999891793797
 20
56.733333333333348
 11
-133.91666558460471
 21
56.400000000000091
  0
LINE
  8
_1-7_カバ__
  6
DASHED1
 62
    4
 10
-135.74999891793797
 20
56.733333333333348
 11
-136.08333225127123
 21
56.400000000000091
  0
LINE
  8
_1-7_カバ__
  6
DASHED1
 62
    4
 10
-135.74999891793797
 20
56.733333333333348
 11
-134.24999891793797
 21
56.733333333333348
  0
LINE
  8
_1-7_カバ__
  6
DASHED1
 62
    4
 10
-134.24999891793797
 20
56.733333333333348
 11
-134.24999891793797
 21
57.166666666666742
  0
LINE
  8
_1-7_カバ__
  6
DASHED1
 62
    4
 10
-135.74999891793797
 20
56.733333333333348
 11
-135.74999891793797
 21
57.166666666666742
  0
ENDBLK
  0
BLOCK
  2
-009-_6_
 70
   64
 10
0
 20
0
 30
0
  0
LINE
  8
_1-8_小物
  6
CONTINUOUS
 62
    4
 10
-133.999998917938
 20
56.400000000000091
 11
-135.999998917938
 21
56.400000000000091
  0
LINE
  8
_1-8_小物
  6
CONTINUOUS
 62
    4
 10
-135.99999891793789
 20
56.400000000000091
 11
-135.99999891793789
 21
56.466666666666754
  0
LINE
  8
_1-8_小物
  6
CONTINUOUS
 62
    4
 10
-133.99999891793811
 20
56.466666666666754
 11
-134.49999891793811
 21
56.966666666666754
  0
LINE
  8
_1-8_小物
  6
CONTINUOUS
 62
    4
 10
-134.49999891793811
 20
56.966666666666754
 11
-135.49999891793789
 21
56.966666666666754
  0
LINE
  8
_1-8_小物
  6
CONTINUOUS
 62
    4
 10
-135.99999891793789
 20
56.466666666666754
 11
-135.49999891793789
 21
56.966666666666754
  0
LINE
  8
_1-8_小物
  6
CONTINUOUS
 62
    4
 10
-133.99999891793811
 20
56.466666666666754
 11
-133.99999891793811
 21
56.400000000000091
  0
LINE
  8
_1-8_小物
  6
CONTINUOUS
 62
    4
 10
-135.99999891793789
 20
56.466666666666754
 11
-133.99999891793811
 21
56.466666666666754
  0
LINE
  8
_1-8_小物
  6
CONTINUOUS
 62
    4
 10
-135.49999891793789
 20
60.030913344842475
 11
-135.687498917938
 21
60.139166666666739
  0
LINE
  8
_1-8_小物
  6
CONTINUOUS
 62
    4
 10
-135.687498917938
 20
60.139166666666739
 11
-135.49999891793794
 21
60.247419988490975
  0
LINE
  8
_1-8_小物
  6
CONTINUOUS
 62
    4
 10
-135.49999891793789
 20
60.030913344842475
 11
-134.49999891793806
 21
60.265913344842403
  0
LINE
  8
_1-8_小物
  6
CONTINUOUS
 62
    4
 10
-134.312498917938
 20
60.374166666666724
 11
-134.49999891793806
 21
60.265913344842403
  0
LINE
  8
_1-8_小物
  6
CONTINUOUS
 62
    4
 10
-134.49999891793806
 20
60.482419988490989
 11
-134.312498917938
 21
60.374166666666724
  0
LINE
  8
_1-8_小物
  6
CONTINUOUS
 62
    4
 10
-135.49999891793794
 20
60.247419988490975
 11
-134.49999891793806
 21
60.482419988490989
  0
LINE
  8
_1-8_小物
  6
CONTINUOUS
 62
    4
 10
-135.687498917938
 20
60.139166666666739
 11
-134.312498917938
 21
60.374166666666724
  0
LINE
  8
_1-8_小物
  6
CONTINUOUS
 62
    4
 10
-135.49999891793789
 20
59.560913344842447
 11
-135.687498917938
 21
59.669166666666712
  0
LINE
  8
_1-8_小物
  6
CONTINUOUS
 62
    4
 10
-135.687498917938
 20
59.669166666666712
 11
-135.49999891793794
 21
59.777419988490976
  0
LINE
  8
_1-8_小物
  6
CONTINUOUS
 62
    4
 10
-135.49999891793789
 20
59.560913344842447
 11
-134.49999891793806
 21
59.795913344842404
  0
LINE
  8
_1-8_小物
  6
CONTINUOUS
 62
    4
 10
-134.312498917938
 20
59.904166666666697
 11
-134.49999891793806
 21
59.795913344842404
  0
LINE
  8
_1-8_小物
  6
CONTINUOUS
 62
    4
 10
-134.49999891793806
 20
60.012419988490961
 11
-134.312498917938
 21
59.904166666666697
  0
LINE
  8
_1-8_小物
  6
CONTINUOUS
 62
    4
 10
-135.49999891793794
 20
59.777419988490976
 11
-134.49999891793806
 21
60.012419988490961
  0
LINE
  8
_1-8_小物
  6
CONTINUOUS
 62
    4
 10
-135.687498917938
 20
59.669166666666712
 11
-134.312498917938
 21
59.904166666666697
  0
LINE
  8
_1-8_小物
  6
CONTINUOUS
 62
    4
 10
-135.49999891793789
 20
59.090913344842448
 11
-135.687498917938
 21
59.19916666666677
  0
LINE
  8
_1-8_小物
  6
CONTINUOUS
 62
    4
 10
-135.687498917938
 20
59.19916666666677
 11
-135.49999891793794
 21
59.307419988491034
  0
LINE
  8
_1-8_小物
  6
CONTINUOUS
 62
    4
 10
-135.49999891793789
 20
59.090913344842448
 11
-134.49999891793806
 21
59.325913344842462
  0
LINE
  8
_1-8_小物
  6
CONTINUOUS
 62
    4
 10
-134.312498917938
 20
59.434166666666698
 11
-134.49999891793806
 21
59.325913344842462
  0
LINE
  8
_1-8_小物
  6
CONTINUOUS
 62
    4
 10
-134.49999891793806
 20
59.542419988491019
 11
-134.312498917938
 21
59.434166666666698
  0
LINE
  8
_1-8_小物
  6
CONTINUOUS
 62
    4
 10
-135.49999891793794
 20
59.307419988491034
 11
-134.49999891793806
 21
59.542419988491019
  0
LINE
  8
_1-8_小物
  6
CONTINUOUS
 62
    4
 10
-135.687498917938
 20
59.19916666666677
 11
-134.312498917938
 21
59.434166666666698
  0
LINE
  8
_1-8_小物
  6
CONTINUOUS
 62
    4
 10
-135.49999891793789
 20
58.62091334484245
 11
-135.687498917938
 21
58.729166666666742
  0
LINE
  8
_1-8_小物
  6
CONTINUOUS
 62
    4
 10
-135.687498917938
 20
58.729166666666742
 11
-135.49999891793794
 21
58.837419988491007
  0
LINE
  8
_1-8_小物
  6
CONTINUOUS
 62
    4
 10
-135.49999891793789
 20
58.62091334484245
 11
-134.49999891793806
 21
58.855913344842435
  0
LINE
  8
_1-8_小物
  6
CONTINUOUS
 62
    4
 10
-134.312498917938
 20
58.964166666666699
 11
-134.49999891793806
 21
58.855913344842435
  0
LINE
  8
_1-8_小物
  6
CONTINUOUS
 62
    4
 10
-134.49999891793806
 20
59.072419988490992
 11
-134.312498917938
 21
58.964166666666699
  0
LINE
  8
_1-8_小物
  6
CONTINUOUS
 62
    4
 10
-135.49999891793794
 20
58.837419988491007
 11
-134.49999891793806
 21
59.072419988490992
  0
LINE
  8
_1-8_小物
  6
CONTINUOUS
 62
    4
 10
-135.687498917938
 20
58.729166666666742
 11
-134.312498917938
 21
58.964166666666699
  0
LINE
  8
_1-8_小物
  6
CONTINUOUS
 62
    4
 10
-135.49999891793789
 20
58.150913344842508
 11
-135.687498917938
 21
58.259166666666744
  0
LINE
  8
_1-8_小物
  6
CONTINUOUS
 62
    4
 10
-135.687498917938
 20
58.259166666666744
 11
-135.49999891793794
 21
58.367419988491065
  0
LINE
  8
_1-8_小物
  6
CONTINUOUS
 62
    4
 10
-135.49999891793789
 20
58.150913344842508
 11
-134.49999891793806
 21
58.385913344842493
  0
LINE
  8
_1-8_小物
  6
CONTINUOUS
 62
    4
 10
-134.312498917938
 20
58.494166666666757
 11
-134.49999891793806
 21
58.385913344842493
  0
LINE
  8
_1-8_小物
  6
CONTINUOUS
 62
    4
 10
-134.49999891793806
 20
58.602419988490993
 11
-134.312498917938
 21
58.494166666666757
  0
LINE
  8
_1-8_小物
  6
CONTINUOUS
 62
    4
 10
-135.49999891793794
 20
58.367419988491065
 11
-134.49999891793806
 21
58.602419988490993
  0
LINE
  8
_1-8_小物
  6
CONTINUOUS
 62
    4
 10
-135.687498917938
 20
58.259166666666744
 11
-134.312498917938
 21
58.494166666666757
  0
LINE
  8
_1-8_小物
  6
CONTINUOUS
 62
    4
 10
-135.49999891793789
 20
57.68091334484248
 11
-135.687498917938
 21
57.789166666666745
  0
LINE
  8
_1-8_小物
  6
CONTINUOUS
 62
    4
 10
-135.687498917938
 20
57.789166666666745
 11
-135.49999891793794
 21
57.897419988491038
  0
LINE
  8
_1-8_小物
  6
CONTINUOUS
 62
    4
 10
-135.49999891793789
 20
57.68091334484248
 11
-134.49999891793806
 21
57.915913344842465
  0
LINE
  8
_1-8_小物
  6
CONTINUOUS
 62
    4
 10
-134.312498917938
 20
58.02416666666673
 11
-134.49999891793806
 21
57.915913344842465
  0
LINE
  8
_1-8_小物
  6
CONTINUOUS
 62
    4
 10
-134.49999891793806
 20
58.132419988490994
 11
-134.312498917938
 21
58.02416666666673
  0
LINE
  8
_1-8_小物
  6
CONTINUOUS
 62
    4
 10
-135.49999891793794
 20
57.897419988491038
 11
-134.49999891793806
 21
58.132419988490994
  0
LINE
  8
_1-8_小物
  6
CONTINUOUS
 62
    4
 10
-135.687498917938
 20
57.789166666666745
 11
-134.312498917938
 21
58.02416666666673
  0
LINE
  8
_1-8_小物
  6
CONTINUOUS
 62
    4
 10
-135.49999891793789
 20
57.210913344842538
 11
-135.687498917938
 21
57.319166666666803
  0
LINE
  8
_1-8_小物
  6
CONTINUOUS
 62
    4
 10
-135.687498917938
 20
57.319166666666803
 11
-135.49999891793794
 21
57.427419988491039
  0
LINE
  8
_1-8_小物
  6
CONTINUOUS
 62
    4
 10
-135.49999891793789
 20
57.210913344842538
 11
-134.49999891793806
 21
57.445913344842467
  0
LINE
  8
_1-8_小物
  6
CONTINUOUS
 62
    4
 10
-134.312498917938
 20
57.554166666666788
 11
-134.49999891793806
 21
57.445913344842467
  0
LINE
  8
_1-8_小物
  6
CONTINUOUS
 62
    4
 10
-134.49999891793806
 20
57.662419988491052
 11
-134.312498917938
 21
57.554166666666788
  0
LINE
  8
_1-8_小物
  6
CONTINUOUS
 62
    4
 10
-135.49999891793794
 20
57.427419988491039
 11
-134.49999891793806
 21
57.662419988491052
  0
LINE
  8
_1-8_小物
  6
CONTINUOUS
 62
    4
 10
-135.687498917938
 20
57.319166666666803
 11
-134.312498917938
 21
57.554166666666788
  0
LINE
  8
_1-8_小物
  6
CONTINUOUS
 62
    4
 10
-134.49999891793811
 20
60.482419988490989
 11
-134.49999891793811
 21
60.735913344842402
  0
LINE
  8
_1-8_小物
  6
CONTINUOUS
 62
    4
 10
-134.49999891793811
 20
60.012419988490961
 11
-134.49999891793811
 21
60.265913344842403
  0
LINE
  8
_1-8_小物
  6
CONTINUOUS
 62
    4
 10
-134.49999891793811
 20
59.542419988491019
 11
-134.49999891793811
 21
59.795913344842376
  0
LINE
  8
_1-8_小物
  6
CONTINUOUS
 62
    4
 10
-134.49999891793811
 20
59.072419988490992
 11
-134.49999891793811
 21
59.325913344842462
  0
LINE
  8
_1-8_小物
  6
CONTINUOUS
 62
    4
 10
-134.49999891793811
 20
58.602419988490993
 11
-134.49999891793811
 21
58.855913344842435
  0
LINE
  8
_1-8_小物
  6
CONTINUOUS
 62
    4
 10
-134.49999891793811
 20
58.132419988490994
 11
-134.49999891793811
 21
58.385913344842493
  0
LINE
  8
_1-8_小物
  6
CONTINUOUS
 62
    4
 10
-134.49999891793811
 20
56.966666666666754
 11
-134.49999891793811
 21
57.445913344842467
  0
LINE
  8
_1-8_小物
  6
CONTINUOUS
 62
    4
 10
-134.49999891793811
 20
57.662419988491052
 11
-134.49999891793811
 21
57.915913344842465
  0
LINE
  8
_1-8_小物
  6
CONTINUOUS
 62
    4
 10
-135.49999891793789
 20
56.966666666666754
 11
-135.49999891793789
 21
57.210913344842538
  0
LINE
  8
_1-8_小物
  6
CONTINUOUS
 62
    4
 10
-135.49999891793789
 20
57.427419988491067
 11
-135.49999891793789
 21
57.68091334484248
  0
LINE
  8
_1-8_小物
  6
CONTINUOUS
 62
    4
 10
-135.49999891793789
 20
57.897419988491038
 11
-135.49999891793789
 21
58.150913344842508
  0
LINE
  8
_1-8_小物
  6
CONTINUOUS
 62
    4
 10
-135.49999891793789
 20
58.367419988491065
 11
-135.49999891793789
 21
58.62091334484245
  0
LINE
  8
_1-8_小物
  6
CONTINUOUS
 62
    4
 10
-135.49999891793789
 20
58.837419988491007
 11
-135.49999891793789
 21
59.090913344842448
  0
LINE
  8
_1-8_小物
  6
CONTINUOUS
 62
    4
 10
-135.49999891793789
 20
59.307419988491034
 11
-135.49999891793789
 21
59.560913344842447
  0
LINE
  8
_1-8_小物
  6
CONTINUOUS
 62
    4
 10
-135.49999891793789
 20
59.777419988491062
 11
-135.49999891793789
 21
60.030913344842475
  0
LINE
  8
_1-8_小物
  6
CONTINUOUS
 62
    4
 10
-135.56666558460455
 20
60.740000000000066
 11
-135.56666558460455
 21
61.736666666666736
  0
LINE
  8
_1-8_小物
  6
CONTINUOUS
 62
    4
 10
-134.43333225127145
 20
60.740000000000066
 11
-135.56666558460455
 21
60.740000000000066
  0
LINE
  8
_1-8_小物
  6
CONTINUOUS
 62
    4
 10
-134.43333225127145
 20
60.740000000000066
 11
-134.43333225127145
 21
61.736666666666736
  0
LINE
  8
_1-8_小物
  6
CONTINUOUS
 62
    4
 10
-134.43333225127145
 20
61.736666666666736
 11
-134.999998917938
 21
62.063831819207508
  0
LINE
  8
_1-8_小物
  6
CONTINUOUS
 62
    4
 10
-135.56666558460455
 20
61.736666666666736
 11
-134.999998917938
 21
62.063831819207508
  0
LINE
  8
_1-8_小物
  6
CONTINUOUS
 62
    4
 10
-134.999998917938
 20
61.948361765369555
 11
-135.46666558460464
 21
61.678931639747816
  0
LINE
  8
_1-8_小物
  6
CONTINUOUS
 62
    4
 10
-135.46666558460464
 20
60.740000000000066
 11
-135.46666558460464
 21
61.678931639747816
  0
LINE
  8
_1-8_小物
  6
CONTINUOUS
 62
    4
 10
-134.999998917938
 20
61.948361765369555
 11
-135.21306569962911
 21
60.740000000000066
  0
LINE
  8
_1-8_小物
  6
CONTINUOUS
 62
    4
 10
-135.49999891793789
 20
60.247419988491004
 11
-135.49999891793789
 21
60.740000000000066
  0
LINE
  8
_1-8_小物
  6
CONTINUOUS
 62
    4
 10
-134.999998917938
 20
62.063831819207508
 11
-134.999998917938
 21
61.948361765369555
  0
LINE
  8
_1-8_小物
  6
CENTER2
 62
    4
 10
-134.999998917938
 20
56.066666666666748
 11
-134.999998917938
 21
62.397165152540794
  0
ENDBLK
  0
BLOCK
  2
-010-_7_
 70
   64
 10
0
 20
0
 30
0
  0
LINE
  8
_1-8_小物
  6
CONTINUOUS
 62
    4
 10
-60.666665584591982
 20
56.400000000000091
 11
-62.666665584591982
 21
56.400000000000091
  0
LINE
  8
_1-8_小物
  6
CONTINUOUS
 62
    4
 10
-62.666665584591868
 20
56.400000000000091
 11
-62.666665584591868
 21
56.466666666666754
  0
LINE
  8
_1-8_小物
  6
CONTINUOUS
 62
    4
 10
-60.666665584592096
 20
56.466666666666754
 11
-61.166665584592096
 21
56.966666666666754
  0
LINE
  8
_1-8_小物
  6
CONTINUOUS
 62
    4
 10
-61.166665584592096
 20
56.966666666666754
 11
-62.166665584591868
 21
56.966666666666754
  0
LINE
  8
_1-8_小物
  6
CONTINUOUS
 62
    4
 10
-62.666665584591868
 20
56.466666666666754
 11
-62.166665584591868
 21
56.966666666666754
  0
LINE
  8
_1-8_小物
  6
CONTINUOUS
 62
    4
 10
-60.666665584592096
 20
56.466666666666754
 11
-60.666665584592096
 21
56.400000000000091
  0
LINE
  8
_1-8_小物
  6
CONTINUOUS
 62
    4
 10
-62.666665584591868
 20
56.466666666666754
 11
-60.666665584592096
 21
56.466666666666754
  0
LINE
  8
_1-8_小物
  6
CONTINUOUS
 62
    4
 10
-62.166665584591868
 20
60.030913344842475
 11
-62.354165584591982
 21
60.139166666666739
  0
LINE
  8
_1-8_小物
  6
CONTINUOUS
 62
    4
 10
-62.354165584591982
 20
60.139166666666739
 11
-62.166665584591925
 21
60.247419988490975
  0
LINE
  8
_1-8_小物
  6
CONTINUOUS
 62
    4
 10
-62.166665584591868
 20
60.030913344842475
 11
-61.166665584592039
 21
60.265913344842403
  0
LINE
  8
_1-8_小物
  6
CONTINUOUS
 62
    4
 10
-60.979165584591982
 20
60.374166666666724
 11
-61.166665584592039
 21
60.265913344842403
  0
LINE
  8
_1-8_小物
  6
CONTINUOUS
 62
    4
 10
-61.166665584592039
 20
60.482419988490989
 11
-60.979165584591982
 21
60.374166666666724
  0
LINE
  8
_1-8_小物
  6
CONTINUOUS
 62
    4
 10
-62.166665584591925
 20
60.247419988490975
 11
-61.166665584592039
 21
60.482419988490989
  0
LINE
  8
_1-8_小物
  6
CONTINUOUS
 62
    4
 10
-62.354165584591982
 20
60.139166666666739
 11
-60.979165584591982
 21
60.374166666666724
  0
LINE
  8
_1-8_小物
  6
CONTINUOUS
 62
    4
 10
-62.166665584591868
 20
59.560913344842447
 11
-62.354165584591982
 21
59.669166666666712
  0
LINE
  8
_1-8_小物
  6
CONTINUOUS
 62
    4
 10
-62.354165584591982
 20
59.669166666666712
 11
-62.166665584591925
 21
59.777419988490976
  0
LINE
  8
_1-8_小物
  6
CONTINUOUS
 62
    4
 10
-62.166665584591868
 20
59.560913344842447
 11
-61.166665584592039
 21
59.795913344842404
  0
LINE
  8
_1-8_小物
  6
CONTINUOUS
 62
    4
 10
-60.979165584591982
 20
59.904166666666697
 11
-61.166665584592039
 21
59.795913344842404
  0
LINE
  8
_1-8_小物
  6
CONTINUOUS
 62
    4
 10
-61.166665584592039
 20
60.012419988490961
 11
-60.979165584591982
 21
59.904166666666697
  0
LINE
  8
_1-8_小物
  6
CONTINUOUS
 62
    4
 10
-62.166665584591925
 20
59.777419988490976
 11
-61.166665584592039
 21
60.012419988490961
  0
LINE
  8
_1-8_小物
  6
CONTINUOUS
 62
    4
 10
-62.354165584591982
 20
59.669166666666712
 11
-60.979165584591982
 21
59.904166666666697
  0
LINE
  8
_1-8_小物
  6
CONTINUOUS
 62
    4
 10
-62.166665584591868
 20
59.090913344842448
 11
-62.354165584591982
 21
59.19916666666677
  0
LINE
  8
_1-8_小物
  6
CONTINUOUS
 62
    4
 10
-62.354165584591982
 20
59.19916666666677
 11
-62.166665584591925
 21
59.307419988491034
  0
LINE
  8
_1-8_小物
  6
CONTINUOUS
 62
    4
 10
-62.166665584591868
 20
59.090913344842448
 11
-61.166665584592039
 21
59.325913344842462
  0
LINE
  8
_1-8_小物
  6
CONTINUOUS
 62
    4
 10
-60.979165584591982
 20
59.434166666666698
 11
-61.166665584592039
 21
59.325913344842462
  0
LINE
  8
_1-8_小物
  6
CONTINUOUS
 62
    4
 10
-61.166665584592039
 20
59.542419988491019
 11
-60.979165584591982
 21
59.434166666666698
  0
LINE
  8
_1-8_小物
  6
CONTINUOUS
 62
    4
 10
-62.166665584591925
 20
59.307419988491034
 11
-61.166665584592039
 21
59.542419988491019
  0
LINE
  8
_1-8_小物
  6
CONTINUOUS
 62
    4
 10
-62.354165584591982
 20
59.19916666666677
 11
-60.979165584591982
 21
59.434166666666698
  0
LINE
  8
_1-8_小物
  6
CONTINUOUS
 62
    4
 10
-62.166665584591868
 20
58.62091334484245
 11
-62.354165584591982
 21
58.729166666666742
  0
LINE
  8
_1-8_小物
  6
CONTINUOUS
 62
    4
 10
-62.354165584591982
 20
58.729166666666742
 11
-62.166665584591925
 21
58.837419988491007
  0
LINE
  8
_1-8_小物
  6
CONTINUOUS
 62
    4
 10
-62.166665584591868
 20
58.62091334484245
 11
-61.166665584592039
 21
58.855913344842435
  0
LINE
  8
_1-8_小物
  6
CONTINUOUS
 62
    4
 10
-60.979165584591982
 20
58.964166666666699
 11
-61.166665584592039
 21
58.855913344842435
  0
LINE
  8
_1-8_小物
  6
CONTINUOUS
 62
    4
 10
-61.166665584592039
 20
59.072419988490992
 11
-60.979165584591982
 21
58.964166666666699
  0
LINE
  8
_1-8_小物
  6
CONTINUOUS
 62
    4
 10
-62.166665584591925
 20
58.837419988491007
 11
-61.166665584592039
 21
59.072419988490992
  0
LINE
  8
_1-8_小物
  6
CONTINUOUS
 62
    4
 10
-62.354165584591982
 20
58.729166666666742
 11
-60.979165584591982
 21
58.964166666666699
  0
LINE
  8
_1-8_小物
  6
CONTINUOUS
 62
    4
 10
-62.166665584591868
 20
58.150913344842508
 11
-62.354165584591982
 21
58.259166666666744
  0
LINE
  8
_1-8_小物
  6
CONTINUOUS
 62
    4
 10
-62.354165584591982
 20
58.259166666666744
 11
-62.166665584591925
 21
58.367419988491065
  0
LINE
  8
_1-8_小物
  6
CONTINUOUS
 62
    4
 10
-62.166665584591868
 20
58.150913344842508
 11
-61.166665584592039
 21
58.385913344842493
  0
LINE
  8
_1-8_小物
  6
CONTINUOUS
 62
    4
 10
-60.979165584591982
 20
58.494166666666757
 11
-61.166665584592039
 21
58.385913344842493
  0
LINE
  8
_1-8_小物
  6
CONTINUOUS
 62
    4
 10
-61.166665584592039
 20
58.602419988490993
 11
-60.979165584591982
 21
58.494166666666757
  0
LINE
  8
_1-8_小物
  6
CONTINUOUS
 62
    4
 10
-62.166665584591925
 20
58.367419988491065
 11
-61.166665584592039
 21
58.602419988490993
  0
LINE
  8
_1-8_小物
  6
CONTINUOUS
 62
    4
 10
-62.354165584591982
 20
58.259166666666744
 11
-60.979165584591982
 21
58.494166666666757
  0
LINE
  8
_1-8_小物
  6
CONTINUOUS
 62
    4
 10
-62.166665584591868
 20
57.68091334484248
 11
-62.354165584591982
 21
57.789166666666745
  0
LINE
  8
_1-8_小物
  6
CONTINUOUS
 62
    4
 10
-62.354165584591982
 20
57.789166666666745
 11
-62.166665584591925
 21
57.897419988491038
  0
LINE
  8
_1-8_小物
  6
CONTINUOUS
 62
    4
 10
-62.166665584591868
 20
57.68091334484248
 11
-61.166665584592039
 21
57.915913344842465
  0
LINE
  8
_1-8_小物
  6
CONTINUOUS
 62
    4
 10
-60.979165584591982
 20
58.02416666666673
 11
-61.166665584592039
 21
57.915913344842465
  0
LINE
  8
_1-8_小物
  6
CONTINUOUS
 62
    4
 10
-61.166665584592039
 20
58.132419988490994
 11
-60.979165584591982
 21
58.02416666666673
  0
LINE
  8
_1-8_小物
  6
CONTINUOUS
 62
    4
 10
-62.166665584591925
 20
57.897419988491038
 11
-61.166665584592039
 21
58.132419988490994
  0
LINE
  8
_1-8_小物
  6
CONTINUOUS
 62
    4
 10
-62.354165584591982
 20
57.789166666666745
 11
-60.979165584591982
 21
58.02416666666673
  0
LINE
  8
_1-8_小物
  6
CONTINUOUS
 62
    4
 10
-62.166665584591868
 20
57.210913344842538
 11
-62.354165584591982
 21
57.319166666666803
  0
LINE
  8
_1-8_小物
  6
CONTINUOUS
 62
    4
 10
-62.354165584591982
 20
57.319166666666803
 11
-62.166665584591925
 21
57.427419988491039
  0
LINE
  8
_1-8_小物
  6
CONTINUOUS
 62
    4
 10
-62.166665584591868
 20
57.210913344842538
 11
-61.166665584592039
 21
57.445913344842467
  0
LINE
  8
_1-8_小物
  6
CONTINUOUS
 62
    4
 10
-60.979165584591982
 20
57.554166666666788
 11
-61.166665584592039
 21
57.445913344842467
  0
LINE
  8
_1-8_小物
  6
CONTINUOUS
 62
    4
 10
-61.166665584592039
 20
57.662419988491052
 11
-60.979165584591982
 21
57.554166666666788
  0
LINE
  8
_1-8_小物
  6
CONTINUOUS
 62
    4
 10
-62.166665584591925
 20
57.427419988491039
 11
-61.166665584592039
 21
57.662419988491052
  0
LINE
  8
_1-8_小物
  6
CONTINUOUS
 62
    4
 10
-62.354165584591982
 20
57.319166666666803
 11
-60.979165584591982
 21
57.554166666666788
  0
LINE
  8
_1-8_小物
  6
CONTINUOUS
 62
    4
 10
-61.166665584592096
 20
60.482419988490989
 11
-61.166665584592096
 21
60.735913344842402
  0
LINE
  8
_1-8_小物
  6
CONTINUOUS
 62
    4
 10
-61.166665584592096
 20
60.012419988490961
 11
-61.166665584592096
 21
60.265913344842403
  0
LINE
  8
_1-8_小物
  6
CONTINUOUS
 62
    4
 10
-61.166665584592096
 20
59.542419988491019
 11
-61.166665584592096
 21
59.795913344842376
  0
LINE
  8
_1-8_小物
  6
CONTINUOUS
 62
    4
 10
-61.166665584592096
 20
59.072419988490992
 11
-61.166665584592096
 21
59.325913344842462
  0
LINE
  8
_1-8_小物
  6
CONTINUOUS
 62
    4
 10
-61.166665584592096
 20
58.602419988490993
 11
-61.166665584592096
 21
58.855913344842435
  0
LINE
  8
_1-8_小物
  6
CONTINUOUS
 62
    4
 10
-61.166665584592096
 20
58.132419988490994
 11
-61.166665584592096
 21
58.385913344842493
  0
LINE
  8
_1-8_小物
  6
CONTINUOUS
 62
    4
 10
-61.166665584592096
 20
56.966666666666754
 11
-61.166665584592096
 21
57.445913344842467
  0
LINE
  8
_1-8_小物
  6
CONTINUOUS
 62
    4
 10
-61.166665584592096
 20
57.662419988491052
 11
-61.166665584592096
 21
57.915913344842465
  0
LINE
  8
_1-8_小物
  6
CONTINUOUS
 62
    4
 10
-62.166665584591868
 20
56.966666666666754
 11
-62.166665584591868
 21
57.210913344842538
  0
LINE
  8
_1-8_小物
  6
CONTINUOUS
 62
    4
 10
-62.166665584591868
 20
57.427419988491067
 11
-62.166665584591868
 21
57.68091334484248
  0
LINE
  8
_1-8_小物
  6
CONTINUOUS
 62
    4
 10
-62.166665584591868
 20
57.897419988491038
 11
-62.166665584591868
 21
58.150913344842508
  0
LINE
  8
_1-8_小物
  6
CONTINUOUS
 62
    4
 10
-62.166665584591868
 20
58.367419988491065
 11
-62.166665584591868
 21
58.62091334484245
  0
LINE
  8
_1-8_小物
  6
CONTINUOUS
 62
    4
 10
-62.166665584591868
 20
58.837419988491007
 11
-62.166665584591868
 21
59.090913344842448
  0
LINE
  8
_1-8_小物
  6
CONTINUOUS
 62
    4
 10
-62.166665584591868
 20
59.307419988491034
 11
-62.166665584591868
 21
59.560913344842447
  0
LINE
  8
_1-8_小物
  6
CONTINUOUS
 62
    4
 10
-62.166665584591868
 20
59.777419988491062
 11
-62.166665584591868
 21
60.030913344842475
  0
LINE
  8
_1-8_小物
  6
CONTINUOUS
 62
    4
 10
-62.233332251258531
 20
60.740000000000066
 11
-62.233332251258531
 21
61.736666666666736
  0
LINE
  8
_1-8_小物
  6
CONTINUOUS
 62
    4
 10
-61.099998917925433
 20
60.740000000000066
 11
-62.233332251258531
 21
60.740000000000066
  0
LINE
  8
_1-8_小物
  6
CONTINUOUS
 62
    4
 10
-61.099998917925433
 20
60.740000000000066
 11
-61.099998917925433
 21
61.736666666666736
  0
LINE
  8
_1-8_小物
  6
CONTINUOUS
 62
    4
 10
-61.099998917925433
 20
61.736666666666736
 11
-61.666665584591982
 21
62.063831819207508
  0
LINE
  8
_1-8_小物
  6
CONTINUOUS
 62
    4
 10
-62.233332251258531
 20
61.736666666666736
 11
-61.666665584591982
 21
62.063831819207508
  0
LINE
  8
_1-8_小物
  6
CONTINUOUS
 62
    4
 10
-61.666665584591982
 20
61.948361765369555
 11
-62.133332251258622
 21
61.678931639747816
  0
LINE
  8
_1-8_小物
  6
CONTINUOUS
 62
    4
 10
-62.133332251258622
 20
60.740000000000066
 11
-62.133332251258622
 21
61.678931639747816
  0
LINE
  8
_1-8_小物
  6
CONTINUOUS
 62
    4
 10
-61.666665584591982
 20
61.948361765369555
 11
-61.879732366283093
 21
60.740000000000066
  0
LINE
  8
_1-8_小物
  6
CONTINUOUS
 62
    4
 10
-62.166665584591868
 20
60.247419988491004
 11
-62.166665584591868
 21
60.740000000000066
  0
LINE
  8
_1-8_小物
  6
CONTINUOUS
 62
    4
 10
-61.666665584591982
 20
62.063831819207508
 11
-61.666665584591982
 21
61.948361765369555
  0
LINE
  8
_1-8_小物
  6
CENTER2
 62
    4
 10
-61.666665584591982
 20
56.066666666666748
 11
-61.666665584591982
 21
62.397165152540794
  0
ENDBLK
  0
BLOCK
  2
-011-$QLE_3_
 70
   64
 10
0
 20
0
 30
0
  0
LINE
  8
_1-f_寸法
  6
CONTINUOUS
 62
    4
 10
155.05383099999995
 20
87.166667333333294
 11
157.84082199470106
 21
91.993877336392529
  0
LINE
  8
_1-f_寸法
  6
CONTINUOUS
 62
    4
 10
157.84082199470106
 20
91.993877336392529
 11
177.36082199470104
 21
91.993877336392529
  0
POINT
  8
_1-f_寸法
 62
    4
 10
155.05383099999995
 20
87.166667333333294
  0
TEXT
  8
_1-f_寸法
 62
    4
 10
158.16082199470111
 20
91.993877336392529
 40
3.2000000000000002
 41
1
 50
0
  1
野縁受(別途)
  0
ENDBLK
  0
BLOCK
  2
-012-$QLE_4_
 70
   64
 10
0
 20
0
 30
0
  0
LINE
  8
_1-f_寸法
  6
CONTINUOUS
 62
    4
 10
153.08333299999993
 20
71.583333833333256
 11
157.31760549412979
 21
78.91730892625759
  0
LINE
  8
_1-f_寸法
  6
CONTINUOUS
 62
    4
 10
157.31760549412979
 20
78.91730892625759
 11
173.63760549412973
 21
78.91730892625759
  0
POINT
  8
_1-f_寸法
 62
    4
 10
153.08333299999993
 20
71.583333833333256
  0
TEXT
  8
_1-f_寸法
 62
    4
 10
157.63760549412979
 20
78.91730892625759
 40
3.2000000000000002
 41
1
 50
0
  1
野縁(別途)
  0
ENDBLK
  0
BLOCK
  2
-013-$QLE_5_
 70
   64
 10
0
 20
0
 30
0
  0
LINE
  8
_1-f_寸法
  6
CONTINUOUS
 62
    4
 10
161.66666650000002
 20
68.166666999999961
 11
163.52670873696985
 21
71.3883546586558
  0
LINE
  8
_1-f_寸法
  6
CONTINUOUS
 62
    4
 10
163.52670873696985
 20
71.3883546586558
 11
179.84670873696984
 21
71.3883546586558
  0
POINT
  8
_1-f_寸法
 62
    4
 10
161.66666650000002
 20
68.166666999999961
  0
TEXT
  8
_1-f_寸法
 62
    4
 10
163.84670873696984
 20
71.3883546586558
 40
3.2000000000000002
 41
1
 50
0
  1
天井仕上面
  0
ENDBLK
  0
BLOCK
  2
-014-_8_
 70
   64
 10
0
 20
0
 30
0
  0
LINE
  8
_1-8_小物
  6
CONTINUOUS
 62
    4
 10
85.999999999999886
 20
56.400000000000006
 11
83.999999999999886
 21
56.400000000000006
  0
LINE
  8
_1-8_小物
  6
CONTINUOUS
 62
    4
 10
84
 20
56.400000000000006
 11
84
 21
56.466666666666697
  0
LINE
  8
_1-8_小物
  6
CONTINUOUS
 62
    4
 10
85.999999999999773
 20
56.466666666666697
 11
85.499999999999773
 21
56.966666666666697
  0
LINE
  8
_1-8_小物
  6
CONTINUOUS
 62
    4
 10
85.499999999999773
 20
56.966666666666697
 11
84.5
 21
56.966666666666697
  0
LINE
  8
_1-8_小物
  6
CONTINUOUS
 62
    4
 10
84
 20
56.466666666666697
 11
84.5
 21
56.966666666666697
  0
LINE
  8
_1-8_小物
  6
CONTINUOUS
 62
    4
 10
85.999999999999773
 20
56.466666666666697
 11
85.999999999999773
 21
56.400000000000006
  0
LINE
  8
_1-8_小物
  6
CONTINUOUS
 62
    4
 10
84
 20
56.466666666666697
 11
85.999999999999773
 21
56.466666666666697
  0
LINE
  8
_1-8_小物
  6
CONTINUOUS
 62
    4
 10
84.5
 20
60.030913344842389
 11
84.312499999999886
 21
60.139166666666654
  0
LINE
  8
_1-8_小物
  6
CONTINUOUS
 62
    4
 10
84.312499999999886
 20
60.139166666666654
 11
84.499999999999886
 21
60.24741998849089
  0
LINE
  8
_1-8_小物
  6
CONTINUOUS
 62
    4
 10
84.5
 20
60.030913344842389
 11
85.499999999999773
 21
60.265913344842318
  0
LINE
  8
_1-8_小物
  6
CONTINUOUS
 62
    4
 10
85.687499999999886
 20
60.374166666666639
 11
85.499999999999773
 21
60.265913344842318
  0
LINE
  8
_1-8_小物
  6
CONTINUOUS
 62
    4
 10
85.499999999999773
 20
60.482419988490904
 11
85.687499999999886
 21
60.374166666666639
  0
LINE
  8
_1-8_小物
  6
CONTINUOUS
 62
    4
 10
84.499999999999886
 20
60.24741998849089
 11
85.499999999999773
 21
60.482419988490904
  0
LINE
  8
_1-8_小物
  6
CONTINUOUS
 62
    4
 10
84.312499999999886
 20
60.139166666666654
 11
85.687499999999886
 21
60.374166666666639
  0
LINE
  8
_1-8_小物
  6
CONTINUOUS
 62
    4
 10
84.5
 20
59.560913344842362
 11
84.312499999999886
 21
59.669166666666626
  0
LINE
  8
_1-8_小物
  6
CONTINUOUS
 62
    4
 10
84.312499999999886
 20
59.669166666666626
 11
84.499999999999886
 21
59.777419988490919
  0
LINE
  8
_1-8_小物
  6
CONTINUOUS
 62
    4
 10
84.5
 20
59.560913344842362
 11
85.499999999999773
 21
59.795913344842347
  0
LINE
  8
_1-8_小物
  6
CONTINUOUS
 62
    4
 10
85.687499999999886
 20
59.904166666666612
 11
85.499999999999773
 21
59.795913344842347
  0
LINE
  8
_1-8_小物
  6
CONTINUOUS
 62
    4
 10
85.499999999999773
 20
60.012419988490876
 11
85.687499999999886
 21
59.904166666666612
  0
LINE
  8
_1-8_小物
  6
CONTINUOUS
 62
    4
 10
84.499999999999886
 20
59.777419988490919
 11
85.499999999999773
 21
60.012419988490876
  0
LINE
  8
_1-8_小物
  6
CONTINUOUS
 62
    4
 10
84.312499999999886
 20
59.669166666666626
 11
85.687499999999886
 21
59.904166666666612
  0
LINE
  8
_1-8_小物
  6
CONTINUOUS
 62
    4
 10
84.5
 20
59.090913344842363
 11
84.312499999999886
 21
59.199166666666684
  0
LINE
  8
_1-8_小物
  6
CONTINUOUS
 62
    4
 10
84.312499999999886
 20
59.199166666666684
 11
84.499999999999886
 21
59.307419988490949
  0
LINE
  8
_1-8_小物
  6
CONTINUOUS
 62
    4
 10
84.5
 20
59.090913344842363
 11
85.499999999999773
 21
59.325913344842377
  0
LINE
  8
_1-8_小物
  6
CONTINUOUS
 62
    4
 10
85.687499999999886
 20
59.434166666666613
 11
85.499999999999773
 21
59.325913344842377
  0
LINE
  8
_1-8_小物
  6
CONTINUOUS
 62
    4
 10
85.499999999999773
 20
59.542419988490934
 11
85.687499999999886
 21
59.434166666666613
  0
LINE
  8
_1-8_小物
  6
CONTINUOUS
 62
    4
 10
84.499999999999886
 20
59.307419988490949
 11
85.499999999999773
 21
59.542419988490934
  0
LINE
  8
_1-8_小物
  6
CONTINUOUS
 62
    4
 10
84.312499999999886
 20
59.199166666666684
 11
85.687499999999886
 21
59.434166666666613
  0
LINE
  8
_1-8_小物
  6
CONTINUOUS
 62
    4
 10
84.5
 20
58.620913344842393
 11
84.312499999999886
 21
58.729166666666657
  0
LINE
  8
_1-8_小物
  6
CONTINUOUS
 62
    4
 10
84.312499999999886
 20
58.729166666666657
 11
84.499999999999886
 21
58.837419988490922
  0
LINE
  8
_1-8_小物
  6
CONTINUOUS
 62
    4
 10
84.5
 20
58.620913344842393
 11
85.499999999999773
 21
58.855913344842349
  0
LINE
  8
_1-8_小物
  6
CONTINUOUS
 62
    4
 10
85.687499999999886
 20
58.964166666666642
 11
85.499999999999773
 21
58.855913344842349
  0
LINE
  8
_1-8_小物
  6
CONTINUOUS
 62
    4
 10
85.499999999999773
 20
59.072419988490907
 11
85.687499999999886
 21
58.964166666666642
  0
LINE
  8
_1-8_小物
  6
CONTINUOUS
 62
    4
 10
84.499999999999886
 20
58.837419988490922
 11
85.499999999999773
 21
59.072419988490907
  0
LINE
  8
_1-8_小物
  6
CONTINUOUS
 62
    4
 10
84.312499999999886
 20
58.729166666666657
 11
85.687499999999886
 21
58.964166666666642
  0
LINE
  8
_1-8_小物
  6
CONTINUOUS
 62
    4
 10
84.5
 20
58.150913344842422
 11
84.312499999999886
 21
58.259166666666658
  0
LINE
  8
_1-8_小物
  6
CONTINUOUS
 62
    4
 10
84.312499999999886
 20
58.259166666666658
 11
84.499999999999886
 21
58.36741998849098
  0
LINE
  8
_1-8_小物
  6
CONTINUOUS
 62
    4
 10
84.5
 20
58.150913344842422
 11
85.499999999999773
 21
58.385913344842407
  0
LINE
  8
_1-8_小物
  6
CONTINUOUS
 62
    4
 10
85.687499999999886
 20
58.494166666666672
 11
85.499999999999773
 21
58.385913344842407
  0
LINE
  8
_1-8_小物
  6
CONTINUOUS
 62
    4
 10
85.499999999999773
 20
58.602419988490908
 11
85.687499999999886
 21
58.494166666666672
  0
LINE
  8
_1-8_小物
  6
CONTINUOUS
 62
    4
 10
84.499999999999886
 20
58.36741998849098
 11
85.499999999999773
 21
58.602419988490908
  0
LINE
  8
_1-8_小物
  6
CONTINUOUS
 62
    4
 10
84.312499999999886
 20
58.259166666666658
 11
85.687499999999886
 21
58.494166666666672
  0
LINE
  8
_1-8_小物
  6
CONTINUOUS
 62
    4
 10
84.5
 20
57.680913344842395
 11
84.312499999999886
 21
57.789166666666688
  0
LINE
  8
_1-8_小物
  6
CONTINUOUS
 62
    4
 10
84.312499999999886
 20
57.789166666666688
 11
84.499999999999886
 21
57.897419988490952
  0
LINE
  8
_1-8_小物
  6
CONTINUOUS
 62
    4
 10
84.5
 20
57.680913344842395
 11
85.499999999999773
 21
57.91591334484238
  0
LINE
  8
_1-8_小物
  6
CONTINUOUS
 62
    4
 10
85.687499999999886
 20
58.024166666666645
 11
85.499999999999773
 21
57.91591334484238
  0
LINE
  8
_1-8_小物
  6
CONTINUOUS
 62
    4
 10
85.499999999999773
 20
58.132419988490938
 11
85.687499999999886
 21
58.024166666666645
  0
LINE
  8
_1-8_小物
  6
CONTINUOUS
 62
    4
 10
84.499999999999886
 20
57.897419988490952
 11
85.499999999999773
 21
58.132419988490938
  0
LINE
  8
_1-8_小物
  6
CONTINUOUS
 62
    4
 10
84.312499999999886
 20
57.789166666666688
 11
85.687499999999886
 21
58.024166666666645
  0
LINE
  8
_1-8_小物
  6
CONTINUOUS
 62
    4
 10
84.5
 20
57.210913344842453
 11
84.312499999999886
 21
57.319166666666717
  0
LINE
  8
_1-8_小物
  6
CONTINUOUS
 62
    4
 10
84.312499999999886
 20
57.319166666666717
 11
84.499999999999886
 21
57.427419988490954
  0
LINE
  8
_1-8_小物
  6
CONTINUOUS
 62
    4
 10
84.5
 20
57.210913344842453
 11
85.499999999999773
 21
57.445913344842381
  0
LINE
  8
_1-8_小物
  6
CONTINUOUS
 62
    4
 10
85.687499999999886
 20
57.554166666666703
 11
85.499999999999773
 21
57.445913344842381
  0
LINE
  8
_1-8_小物
  6
CONTINUOUS
 62
    4
 10
85.499999999999773
 20
57.662419988490967
 11
85.687499999999886
 21
57.554166666666703
  0
LINE
  8
_1-8_小物
  6
CONTINUOUS
 62
    4
 10
84.499999999999886
 20
57.427419988490954
 11
85.499999999999773
 21
57.662419988490967
  0
LINE
  8
_1-8_小物
  6
CONTINUOUS
 62
    4
 10
84.312499999999886
 20
57.319166666666717
 11
85.687499999999886
 21
57.554166666666703
  0
LINE
  8
_1-8_小物
  6
CONTINUOUS
 62
    4
 10
85.499999999999773
 20
60.482419988490904
 11
85.499999999999773
 21
60.735913344842317
  0
LINE
  8
_1-8_小物
  6
CONTINUOUS
 62
    4
 10
85.499999999999773
 20
60.012419988490876
 11
85.499999999999773
 21
60.265913344842318
  0
LINE
  8
_1-8_小物
  6
CONTINUOUS
 62
    4
 10
85.499999999999773
 20
59.542419988490934
 11
85.499999999999773
 21
59.79591334484229
  0
LINE
  8
_1-8_小物
  6
CONTINUOUS
 62
    4
 10
85.499999999999773
 20
59.072419988490907
 11
85.499999999999773
 21
59.325913344842377
  0
LINE
  8
_1-8_小物
  6
CONTINUOUS
 62
    4
 10
85.499999999999773
 20
58.602419988490908
 11
85.499999999999773
 21
58.855913344842349
  0
LINE
  8
_1-8_小物
  6
CONTINUOUS
 62
    4
 10
85.499999999999773
 20
58.132419988490938
 11
85.499999999999773
 21
58.385913344842407
  0
LINE
  8
_1-8_小物
  6
CONTINUOUS
 62
    4
 10
85.499999999999773
 20
56.966666666666697
 11
85.499999999999773
 21
57.445913344842381
  0
LINE
  8
_1-8_小物
  6
CONTINUOUS
 62
    4
 10
85.499999999999773
 20
57.662419988490967
 11
85.499999999999773
 21
57.91591334484238
  0
LINE
  8
_1-8_小物
  6
CONTINUOUS
 62
    4
 10
84.5
 20
56.966666666666697
 11
84.5
 21
57.210913344842453
  0
LINE
  8
_1-8_小物
  6
CONTINUOUS
 62
    4
 10
84.5
 20
57.42741998849101
 11
84.5
 21
57.680913344842395
  0
LINE
  8
_1-8_小物
  6
CONTINUOUS
 62
    4
 10
84.5
 20
57.897419988490952
 11
84.5
 21
58.150913344842422
  0
LINE
  8
_1-8_小物
  6
CONTINUOUS
 62
    4
 10
84.5
 20
58.36741998849098
 11
84.5
 21
58.620913344842393
  0
LINE
  8
_1-8_小物
  6
CONTINUOUS
 62
    4
 10
84.5
 20
58.837419988490922
 11
84.5
 21
59.090913344842363
  0
LINE
  8
_1-8_小物
  6
CONTINUOUS
 62
    4
 10
84.5
 20
59.307419988490949
 11
84.5
 21
59.560913344842362
  0
LINE
  8
_1-8_小物
  6
CONTINUOUS
 62
    4
 10
84.5
 20
59.777419988490976
 11
84.5
 21
60.030913344842389
  0
LINE
  8
_1-8_小物
  6
CONTINUOUS
 62
    4
 10
84.43333333333328
 20
60.740000000000009
 11
84.43333333333328
 21
61.736666666666679
  0
LINE
  8
_1-8_小物
  6
CONTINUOUS
 62
    4
 10
85.566666666666379
 20
60.740000000000009
 11
84.43333333333328
 21
60.740000000000009
  0
LINE
  8
_1-8_小物
  6
CONTINUOUS
 62
    4
 10
85.566666666666379
 20
60.740000000000009
 11
85.566666666666379
 21
61.736666666666679
  0
LINE
  8
_1-8_小物
  6
CONTINUOUS
 62
    4
 10
85.566666666666379
 20
61.736666666666679
 11
84.999999999999886
 21
62.063831819207422
  0
LINE
  8
_1-8_小物
  6
CONTINUOUS
 62
    4
 10
84.43333333333328
 20
61.736666666666679
 11
84.999999999999886
 21
62.063831819207422
  0
LINE
  8
_1-8_小物
  6
CONTINUOUS
 62
    4
 10
84.999999999999886
 20
61.948361765369469
 11
84.533333333333189
 21
61.678931639747731
  0
LINE
  8
_1-8_小物
  6
CONTINUOUS
 62
    4
 10
84.533333333333189
 20
60.740000000000009
 11
84.533333333333189
 21
61.678931639747731
  0
LINE
  8
_1-8_小物
  6
CONTINUOUS
 62
    4
 10
84.999999999999886
 20
61.948361765369469
 11
84.786933218308718
 21
60.740000000000009
  0
LINE
  8
_1-8_小物
  6
CONTINUOUS
 62
    4
 10
84.5
 20
60.247419988490947
 11
84.5
 21
60.740000000000009
  0
LINE
  8
_1-8_小物
  6
CONTINUOUS
 62
    4
 10
84.999999999999886
 20
62.063831819207422
 11
84.999999999999886
 21
61.948361765369469
  0
LINE
  8
_1-8_小物
  6
CENTER2
 62
    4
 10
84.999999999999886
 20
56.066666666666663
 11
84.999999999999886
 21
62.397165152540708
  0
ENDBLK
  0
BLOCK
  2
-015-_9_
 70
   64
 10
0
 20
0
 30
0
  0
LINE
  8
_1-8_小物
  6
CONTINUOUS
 62
    4
 10
139.33333333333309
 20
56.400000000000006
 11
137.33333333333309
 21
56.400000000000006
  0
LINE
  8
_1-8_小物
  6
CONTINUOUS
 62
    4
 10
137.33333333333314
 20
56.400000000000006
 11
137.33333333333314
 21
56.466666666666697
  0
LINE
  8
_1-8_小物
  6
CONTINUOUS
 62
    4
 10
139.33333333333292
 20
56.466666666666697
 11
138.83333333333292
 21
56.966666666666697
  0
LINE
  8
_1-8_小物
  6
CONTINUOUS
 62
    4
 10
138.83333333333292
 20
56.966666666666697
 11
137.83333333333314
 21
56.966666666666697
  0
LINE
  8
_1-8_小物
  6
CONTINUOUS
 62
    4
 10
137.33333333333314
 20
56.466666666666697
 11
137.83333333333314
 21
56.966666666666697
  0
LINE
  8
_1-8_小物
  6
CONTINUOUS
 62
    4
 10
139.33333333333292
 20
56.466666666666697
 11
139.33333333333292
 21
56.400000000000006
  0
LINE
  8
_1-8_小物
  6
CONTINUOUS
 62
    4
 10
137.33333333333314
 20
56.466666666666697
 11
139.33333333333292
 21
56.466666666666697
  0
LINE
  8
_1-8_小物
  6
CONTINUOUS
 62
    4
 10
137.83333333333314
 20
60.030913344842389
 11
137.64583333333309
 21
60.139166666666654
  0
LINE
  8
_1-8_小物
  6
CONTINUOUS
 62
    4
 10
137.64583333333309
 20
60.139166666666654
 11
137.83333333333309
 21
60.24741998849089
  0
LINE
  8
_1-8_小物
  6
CONTINUOUS
 62
    4
 10
137.83333333333314
 20
60.030913344842389
 11
138.83333333333292
 21
60.265913344842318
  0
LINE
  8
_1-8_小物
  6
CONTINUOUS
 62
    4
 10
139.02083333333309
 20
60.374166666666639
 11
138.83333333333292
 21
60.265913344842318
  0
LINE
  8
_1-8_小物
  6
CONTINUOUS
 62
    4
 10
138.83333333333292
 20
60.482419988490904
 11
139.02083333333309
 21
60.374166666666639
  0
LINE
  8
_1-8_小物
  6
CONTINUOUS
 62
    4
 10
137.83333333333309
 20
60.24741998849089
 11
138.83333333333292
 21
60.482419988490904
  0
LINE
  8
_1-8_小物
  6
CONTINUOUS
 62
    4
 10
137.64583333333309
 20
60.139166666666654
 11
139.02083333333309
 21
60.374166666666639
  0
LINE
  8
_1-8_小物
  6
CONTINUOUS
 62
    4
 10
137.83333333333314
 20
59.560913344842362
 11
137.64583333333309
 21
59.669166666666626
  0
LINE
  8
_1-8_小物
  6
CONTINUOUS
 62
    4
 10
137.64583333333309
 20
59.669166666666626
 11
137.83333333333309
 21
59.777419988490919
  0
LINE
  8
_1-8_小物
  6
CONTINUOUS
 62
    4
 10
137.83333333333314
 20
59.560913344842362
 11
138.83333333333292
 21
59.795913344842347
  0
LINE
  8
_1-8_小物
  6
CONTINUOUS
 62
    4
 10
139.02083333333309
 20
59.904166666666612
 11
138.83333333333292
 21
59.795913344842347
  0
LINE
  8
_1-8_小物
  6
CONTINUOUS
 62
    4
 10
138.83333333333292
 20
60.012419988490876
 11
139.02083333333309
 21
59.904166666666612
  0
LINE
  8
_1-8_小物
  6
CONTINUOUS
 62
    4
 10
137.83333333333309
 20
59.777419988490919
 11
138.83333333333292
 21
60.012419988490876
  0
LINE
  8
_1-8_小物
  6
CONTINUOUS
 62
    4
 10
137.64583333333309
 20
59.669166666666626
 11
139.02083333333309
 21
59.904166666666612
  0
LINE
  8
_1-8_小物
  6
CONTINUOUS
 62
    4
 10
137.83333333333314
 20
59.090913344842363
 11
137.64583333333309
 21
59.199166666666684
  0
LINE
  8
_1-8_小物
  6
CONTINUOUS
 62
    4
 10
137.64583333333309
 20
59.199166666666684
 11
137.83333333333309
 21
59.307419988490949
  0
LINE
  8
_1-8_小物
  6
CONTINUOUS
 62
    4
 10
137.83333333333314
 20
59.090913344842363
 11
138.83333333333292
 21
59.325913344842377
  0
LINE
  8
_1-8_小物
  6
CONTINUOUS
 62
    4
 10
139.02083333333309
 20
59.434166666666613
 11
138.83333333333292
 21
59.325913344842377
  0
LINE
  8
_1-8_小物
  6
CONTINUOUS
 62
    4
 10
138.83333333333292
 20
59.542419988490934
 11
139.02083333333309
 21
59.434166666666613
  0
LINE
  8
_1-8_小物
  6
CONTINUOUS
 62
    4
 10
137.83333333333309
 20
59.307419988490949
 11
138.83333333333292
 21
59.542419988490934
  0
LINE
  8
_1-8_小物
  6
CONTINUOUS
 62
    4
 10
137.64583333333309
 20
59.199166666666684
 11
139.02083333333309
 21
59.434166666666613
  0
LINE
  8
_1-8_小物
  6
CONTINUOUS
 62
    4
 10
137.83333333333314
 20
58.620913344842393
 11
137.64583333333309
 21
58.729166666666657
  0
LINE
  8
_1-8_小物
  6
CONTINUOUS
 62
    4
 10
137.64583333333309
 20
58.729166666666657
 11
137.83333333333309
 21
58.837419988490922
  0
LINE
  8
_1-8_小物
  6
CONTINUOUS
 62
    4
 10
137.83333333333314
 20
58.620913344842393
 11
138.83333333333292
 21
58.855913344842349
  0
LINE
  8
_1-8_小物
  6
CONTINUOUS
 62
    4
 10
139.02083333333309
 20
58.964166666666642
 11
138.83333333333292
 21
58.855913344842349
  0
LINE
  8
_1-8_小物
  6
CONTINUOUS
 62
    4
 10
138.83333333333292
 20
59.072419988490907
 11
139.02083333333309
 21
58.964166666666642
  0
LINE
  8
_1-8_小物
  6
CONTINUOUS
 62
    4
 10
137.83333333333309
 20
58.837419988490922
 11
138.83333333333292
 21
59.072419988490907
  0
LINE
  8
_1-8_小物
  6
CONTINUOUS
 62
    4
 10
137.64583333333309
 20
58.729166666666657
 11
139.02083333333309
 21
58.964166666666642
  0
LINE
  8
_1-8_小物
  6
CONTINUOUS
 62
    4
 10
137.83333333333314
 20
58.150913344842422
 11
137.64583333333309
 21
58.259166666666658
  0
LINE
  8
_1-8_小物
  6
CONTINUOUS
 62
    4
 10
137.64583333333309
 20
58.259166666666658
 11
137.83333333333309
 21
58.36741998849098
  0
LINE
  8
_1-8_小物
  6
CONTINUOUS
 62
    4
 10
137.83333333333314
 20
58.150913344842422
 11
138.83333333333292
 21
58.385913344842407
  0
LINE
  8
_1-8_小物
  6
CONTINUOUS
 62
    4
 10
139.02083333333309
 20
58.494166666666672
 11
138.83333333333292
 21
58.385913344842407
  0
LINE
  8
_1-8_小物
  6
CONTINUOUS
 62
    4
 10
138.83333333333292
 20
58.602419988490908
 11
139.02083333333309
 21
58.494166666666672
  0
LINE
  8
_1-8_小物
  6
CONTINUOUS
 62
    4
 10
137.83333333333309
 20
58.36741998849098
 11
138.83333333333292
 21
58.602419988490908
  0
LINE
  8
_1-8_小物
  6
CONTINUOUS
 62
    4
 10
137.64583333333309
 20
58.259166666666658
 11
139.02083333333309
 21
58.494166666666672
  0
LINE
  8
_1-8_小物
  6
CONTINUOUS
 62
    4
 10
137.83333333333314
 20
57.680913344842395
 11
137.64583333333309
 21
57.789166666666688
  0
LINE
  8
_1-8_小物
  6
CONTINUOUS
 62
    4
 10
137.64583333333309
 20
57.789166666666688
 11
137.83333333333309
 21
57.897419988490952
  0
LINE
  8
_1-8_小物
  6
CONTINUOUS
 62
    4
 10
137.83333333333314
 20
57.680913344842395
 11
138.83333333333292
 21
57.91591334484238
  0
LINE
  8
_1-8_小物
  6
CONTINUOUS
 62
    4
 10
139.02083333333309
 20
58.024166666666645
 11
138.83333333333292
 21
57.91591334484238
  0
LINE
  8
_1-8_小物
  6
CONTINUOUS
 62
    4
 10
138.83333333333292
 20
58.132419988490938
 11
139.02083333333309
 21
58.024166666666645
  0
LINE
  8
_1-8_小物
  6
CONTINUOUS
 62
    4
 10
137.83333333333309
 20
57.897419988490952
 11
138.83333333333292
 21
58.132419988490938
  0
LINE
  8
_1-8_小物
  6
CONTINUOUS
 62
    4
 10
137.64583333333309
 20
57.789166666666688
 11
139.02083333333309
 21
58.024166666666645
  0
LINE
  8
_1-8_小物
  6
CONTINUOUS
 62
    4
 10
137.83333333333314
 20
57.210913344842453
 11
137.64583333333309
 21
57.319166666666717
  0
LINE
  8
_1-8_小物
  6
CONTINUOUS
 62
    4
 10
137.64583333333309
 20
57.319166666666717
 11
137.83333333333309
 21
57.427419988490954
  0
LINE
  8
_1-8_小物
  6
CONTINUOUS
 62
    4
 10
137.83333333333314
 20
57.210913344842453
 11
138.83333333333292
 21
57.445913344842381
  0
LINE
  8
_1-8_小物
  6
CONTINUOUS
 62
    4
 10
139.02083333333309
 20
57.554166666666703
 11
138.83333333333292
 21
57.445913344842381
  0
LINE
  8
_1-8_小物
  6
CONTINUOUS
 62
    4
 10
138.83333333333292
 20
57.662419988490967
 11
139.02083333333309
 21
57.554166666666703
  0
LINE
  8
_1-8_小物
  6
CONTINUOUS
 62
    4
 10
137.83333333333309
 20
57.427419988490954
 11
138.83333333333292
 21
57.662419988490967
  0
LINE
  8
_1-8_小物
  6
CONTINUOUS
 62
    4
 10
137.64583333333309
 20
57.319166666666717
 11
139.02083333333309
 21
57.554166666666703
  0
LINE
  8
_1-8_小物
  6
CONTINUOUS
 62
    4
 10
138.83333333333292
 20
60.482419988490904
 11
138.83333333333292
 21
60.735913344842317
  0
LINE
  8
_1-8_小物
  6
CONTINUOUS
 62
    4
 10
138.83333333333292
 20
60.012419988490876
 11
138.83333333333292
 21
60.265913344842318
  0
LINE
  8
_1-8_小物
  6
CONTINUOUS
 62
    4
 10
138.83333333333292
 20
59.542419988490934
 11
138.83333333333292
 21
59.79591334484229
  0
LINE
  8
_1-8_小物
  6
CONTINUOUS
 62
    4
 10
138.83333333333292
 20
59.072419988490907
 11
138.83333333333292
 21
59.325913344842377
  0
LINE
  8
_1-8_小物
  6
CONTINUOUS
 62
    4
 10
138.83333333333292
 20
58.602419988490908
 11
138.83333333333292
 21
58.855913344842349
  0
LINE
  8
_1-8_小物
  6
CONTINUOUS
 62
    4
 10
138.83333333333292
 20
58.132419988490938
 11
138.83333333333292
 21
58.385913344842407
  0
LINE
  8
_1-8_小物
  6
CONTINUOUS
 62
    4
 10
138.83333333333292
 20
56.966666666666697
 11
138.83333333333292
 21
57.445913344842381
  0
LINE
  8
_1-8_小物
  6
CONTINUOUS
 62
    4
 10
138.83333333333292
 20
57.662419988490967
 11
138.83333333333292
 21
57.91591334484238
  0
LINE
  8
_1-8_小物
  6
CONTINUOUS
 62
    4
 10
137.83333333333314
 20
56.966666666666697
 11
137.83333333333314
 21
57.210913344842453
  0
LINE
  8
_1-8_小物
  6
CONTINUOUS
 62
    4
 10
137.83333333333314
 20
57.42741998849101
 11
137.83333333333314
 21
57.680913344842395
  0
LINE
  8
_1-8_小物
  6
CONTINUOUS
 62
    4
 10
137.83333333333314
 20
57.897419988490952
 11
137.83333333333314
 21
58.150913344842422
  0
LINE
  8
_1-8_小物
  6
CONTINUOUS
 62
    4
 10
137.83333333333314
 20
58.36741998849098
 11
137.83333333333314
 21
58.620913344842393
  0
LINE
  8
_1-8_小物
  6
CONTINUOUS
 62
    4
 10
137.83333333333314
 20
58.837419988490922
 11
137.83333333333314
 21
59.090913344842363
  0
LINE
  8
_1-8_小物
  6
CONTINUOUS
 62
    4
 10
137.83333333333314
 20
59.307419988490949
 11
137.83333333333314
 21
59.560913344842362
  0
LINE
  8
_1-8_小物
  6
CONTINUOUS
 62
    4
 10
137.83333333333314
 20
59.777419988490976
 11
137.83333333333314
 21
60.030913344842389
  0
LINE
  8
_1-8_小物
  6
CONTINUOUS
 62
    4
 10
137.76666666666648
 20
60.740000000000009
 11
137.76666666666648
 21
61.736666666666679
  0
LINE
  8
_1-8_小物
  6
CONTINUOUS
 62
    4
 10
138.89999999999952
 20
60.740000000000009
 11
137.76666666666648
 21
60.740000000000009
  0
LINE
  8
_1-8_小物
  6
CONTINUOUS
 62
    4
 10
138.89999999999952
 20
60.740000000000009
 11
138.89999999999952
 21
61.736666666666679
  0
LINE
  8
_1-8_小物
  6
CONTINUOUS
 62
    4
 10
138.89999999999952
 20
61.736666666666679
 11
138.33333333333309
 21
62.063831819207422
  0
LINE
  8
_1-8_小物
  6
CONTINUOUS
 62
    4
 10
137.76666666666648
 20
61.736666666666679
 11
138.33333333333309
 21
62.063831819207422
  0
LINE
  8
_1-8_小物
  6
CONTINUOUS
 62
    4
 10
138.33333333333309
 20
61.948361765369469
 11
137.86666666666639
 21
61.678931639747731
  0
LINE
  8
_1-8_小物
  6
CONTINUOUS
 62
    4
 10
137.86666666666639
 20
60.740000000000009
 11
137.86666666666639
 21
61.678931639747731
  0
LINE
  8
_1-8_小物
  6
CONTINUOUS
 62
    4
 10
138.33333333333309
 20
61.948361765369469
 11
138.12026655164192
 21
60.740000000000009
  0
LINE
  8
_1-8_小物
  6
CONTINUOUS
 62
    4
 10
137.83333333333314
 20
60.247419988490947
 11
137.83333333333314
 21
60.740000000000009
  0
LINE
  8
_1-8_小物
  6
CONTINUOUS
 62
    4
 10
138.33333333333309
 20
62.063831819207422
 11
138.33333333333309
 21
61.948361765369469
  0
LINE
  8
_1-8_小物
  6
CENTER2
 62
    4
 10
138.33333333333309
 20
56.066666666666663
 11
138.33333333333309
 21
62.397165152540708
  0
ENDBLK
  0
BLOCK
  2
-016-_10_
 70
   64
 10
0
 20
0
 30
0
  0
ARC
  8
_1-4_フレ__ム
  6
CONTINUOUS
 62
    4
 10
-83.166666666667183
 20
64.833333333333314
 40
0.5
 50
180
 51
270
  0
LINE
  8
_1-4_フレ__ム
  6
CONTINUOUS
 62
    4
 10
-53.333333333333826
 20
64.433333333333394
 11
-53.433333333333593
 21
64.333333333333314
  0
LINE
  8
_1-4_フレ__ム
  6
CONTINUOUS
 62
    4
 10
-53.23333333333315
 20
64.333333333333314
 11
-53.333333333333826
 21
64.433333333333394
  0
LINE
  8
_1-4_フレ__ム
  6
CONTINUOUS
 62
    4
 10
-83.666666666666956
 20
64.833333333333314
 11
-48.333333333333826
 21
64.833333333333314
  0
LINE
  8
_1-4_フレ__ム
  6
CONTINUOUS
 62
    4
 10
-48.333333412800613
 20
64.833333314333288
 11
-47.333333431800583
 21
63.833333333333371
  0
LINE
  8
_1-4_フレ__ム
  6
CONTINUOUS
 62
    4
 10
-47.333333431800583
 20
63.833333333333371
 11
-48.040440212987249
 21
63.833333333333371
  0
LINE
  8
_1-4_フレ__ム
  6
CONTINUOUS
 62
    4
 10
-48.540440212987249
 20
64.333333333333314
 11
-48.040440212987249
 21
63.833333333333371
  0
LINE
  8
_1-4_フレ__ム
  6
CONTINUOUS
 62
    4
 10
-48.540440212987249
 20
64.333333333333314
 11
-53.23333333333315
 21
64.333333333333314
  0
LINE
  8
_1-4_フレ__ム
  6
CONTINUOUS
 62
    4
 10
-61.571428571429237
 20
63.100000000000051
 11
-61.571428571429237
 21
62.933333333333394
  0
ARC
  8
_1-4_フレ__ム
  6
CONTINUOUS
 62
    4
 10
-61.90476190476258
 20
63.100000000000051
 40
0.3333333333333333
 50
0
 51
90
  0
LINE
  8
_1-4_フレ__ム
  6
CONTINUOUS
 62
    4
 10
-61.90476190476258
 20
63.433333333333394
 11
-62.735266108500781
 21
63.433333333333394
  0
ARC
  8
_1-4_フレ__ム
  6
CONTINUOUS
 62
    4
 10
-62.735266108500781
 20
63.600000000000051
 40
0.1666666666666666
 50
209.05460409905245
 51
270
  0
LINE
  8
_1-4_フレ__ム
  6
CONTINUOUS
 62
    4
 10
-53.433333333333593
 20
64.333333333333314
 11
-63.050080923315562
 21
64.333333333333314
  0
ARC
  8
_1-4_フレ__ム
  6
CONTINUOUS
 62
    4
 10
-63.050080923315562
 20
64.166666666666657
 40
0.1666666666666666
 50
90
 51
209.05460409905245
  0
LINE
  8
_1-4_フレ__ム
  6
CONTINUOUS
 62
    4
 10
-61.571428571429237
 20
62.933333333333394
 11
-62.931400558166871
 21
62.933333333333394
  0
ARC
  8
_1-4_フレ__ム
  6
CONTINUOUS
 62
    4
 10
-62.931400558166871
 20
63.266666666666708
 40
0.3333333333333333
 50
209.05460409906766
 51
270
  0
LINE
  8
_1-4_フレ__ム
  6
CONTINUOUS
 62
    4
 10
-63.810061476569928
 20
64.161880977059525
 11
-63.222786316874164
 21
63.104785689607183
  0
LINE
  8
_1-4_フレ__ム
  6
CONTINUOUS
 62
    4
 10
-64.101447235277078
 20
64.333333333333314
 11
-83.166666666667183
 21
64.333333333333314
  0
ARC
  8
_1-4_フレ__ム
  6
CONTINUOUS
 62
    4
 10
-64.101447235277078
 20
64
 40
0.3333333333333333
 50
29.054604099074297
 51
90
  0
LINE
  8
_1-4_フレ__ム
  6
CONTINUOUS
 62
    4
 10
-63.195773802669208
 20
64.085726178136866
 11
-62.880958987854427
 21
63.51905951147026
  0
LINE
  8
_1-4_フレ__ム
  6
CENTER2
 62
    4
 10
-53.333333333333371
 20
62.666666666666657
 11
-53.333333333333371
 21
66.5
  0
LINE
  8
_1-4_フレ__ム
  6
DASHED1
 62
    4
 10
-50.833333333333371
 20
64.333333333333314
 11
-50.833333333333371
 21
64.833333333333314
  0
LINE
  8
_1-4_フレ__ム
  6
DASHED1
 62
    4
 10
-55.833333333333371
 20
64.333333333333314
 11
-55.833333333333371
 21
64.833333333333314
  0
ENDBLK
  0
BLOCK
  2
-017-_11_
 70
   64
 10
0
 20
0
 30
0
  0
LINE
  8
_1-8_小物
  6
CONTINUOUS
 62
    4
 10
-56.03333288333323
 20
64.333333333333258
 11
-50.633332883332997
 21
64.333333333333258
  0
LINE
  8
_1-8_小物
  6
CONTINUOUS
 62
    4
 10
-56.03333288333323
 20
63.88333333333324
 11
-50.633332883332997
 21
63.88333333333324
  0
LINE
  8
_1-8_小物
  6
CONTINUOUS
 62
    4
 10
-56.03333288333323
 20
64.333333333333258
 11
-56.03333288333323
 21
63.88333333333324
  0
LINE
  8
_1-8_小物
  6
CONTINUOUS
 62
    4
 10
-50.633332883332997
 20
64.333333333333258
 11
-50.633332883332997
 21
63.88333333333324
  0
LINE
  8
_1-8_小物
  6
DASHED1
 62
    4
 10
-54.158332883333202
 20
64.333333333333258
 11
-54.158332883333202
 21
63.88333333333324
  0
LINE
  8
_1-8_小物
  6
DASHED1
 62
    4
 10
-52.508332883332997
 20
64.333333333333258
 11
-52.508332883332997
 21
63.88333333333324
  0
LINE
  8
_1-8_小物
  6
CONTINUOUS
 62
    4
 10
-52.973333333333727
 20
66.492202033333342
 11
-52.973333333333727
 21
66.725009533333179
  0
LINE
  8
_1-8_小物
  6
CONTINUOUS
 62
    4
 10
-53.693333333333328
 20
66.513343033333086
 11
-53.693333333333328
 21
66.280535533333477
  0
LINE
  8
_1-8_小物
  6
CONTINUOUS
 62
    4
 10
-52.973333333333727
 20
66.725009533333179
 11
-53.693333333333328
 21
66.513343033333086
  0
LINE
  8
_1-8_小物
  6
CONTINUOUS
 62
    4
 10
-52.808332733333742
 20
66.820272733333468
 11
-53.858333033333281
 21
66.608605333333344
  0
LINE
  8
_1-8_小物
  6
CONTINUOUS
 62
    4
 10
-52.808332733333742
 20
66.820272733333468
 11
-52.973333333333727
 21
66.725009533333179
  0
LINE
  8
_1-8_小物
  6
CONTINUOUS
 62
    4
 10
-53.858333033333281
 20
66.608605333333344
 11
-53.693333333333328
 21
66.703868533333434
  0
LINE
  8
_1-8_小物
  6
CONTINUOUS
 62
    4
 10
-53.693333333333328
 20
66.513343033333086
 11
-53.858333033333281
 21
66.608605333333344
  0
LINE
  8
_1-8_小物
  6
CONTINUOUS
 62
    4
 10
-52.973333333333727
 20
66.068868133333154
 11
-52.973333333333727
 21
66.301676533333222
  0
LINE
  8
_1-8_小物
  6
CONTINUOUS
 62
    4
 10
-53.693333333333328
 20
66.090009133333325
 11
-53.693333333333328
 21
65.85720163333329
  0
LINE
  8
_1-8_小物
  6
CONTINUOUS
 62
    4
 10
-52.973333333333727
 20
66.492202033333342
 11
-53.693333333333328
 21
66.280535533333477
  0
LINE
  8
_1-8_小物
  6
CONTINUOUS
 62
    4
 10
-52.973333333333727
 20
66.301676533333222
 11
-53.693333333333328
 21
66.090009133333325
  0
LINE
  8
_1-8_小物
  6
CONTINUOUS
 62
    4
 10
-52.808332733333742
 20
66.39693883333328
 11
-53.858333033333281
 21
66.185272333333188
  0
LINE
  8
_1-8_小物
  6
CONTINUOUS
 62
    4
 10
-52.808332733333742
 20
66.39693883333328
 11
-52.973333333333727
 21
66.492202033333342
  0
LINE
  8
_1-8_小物
  6
CONTINUOUS
 62
    4
 10
-52.808332733333742
 20
66.39693883333328
 11
-52.973333333333727
 21
66.301676533333222
  0
LINE
  8
_1-8_小物
  6
CONTINUOUS
 62
    4
 10
-53.858333033333281
 20
66.185272333333188
 11
-53.693333333333328
 21
66.280535533333477
  0
LINE
  8
_1-8_小物
  6
CONTINUOUS
 62
    4
 10
-53.693333333333328
 20
66.090009133333325
 11
-53.858333033333281
 21
66.185272333333188
  0
LINE
  8
_1-8_小物
  6
CONTINUOUS
 62
    4
 10
-52.973333333333727
 20
65.645535133333397
 11
-52.973333333333727
 21
65.878342633333432
  0
LINE
  8
_1-8_小物
  6
CONTINUOUS
 62
    4
 10
-53.693333333333328
 20
65.66667613333334
 11
-53.693333333333328
 21
65.433868633333304
  0
LINE
  8
_1-8_小物
  6
CONTINUOUS
 62
    4
 10
-52.973333333333727
 20
66.068868133333154
 11
-53.693333333333328
 21
65.85720163333329
  0
LINE
  8
_1-8_小物
  6
CONTINUOUS
 62
    4
 10
-52.973333333333727
 20
65.878342633333432
 11
-53.693333333333328
 21
65.66667613333334
  0
LINE
  8
_1-8_小物
  6
CONTINUOUS
 62
    4
 10
-52.808332733333742
 20
65.973605833333295
 11
-53.858333033333281
 21
65.761939333333203
  0
LINE
  8
_1-8_小物
  6
CONTINUOUS
 62
    4
 10
-52.808332733333742
 20
65.973605833333295
 11
-52.973333333333727
 21
66.068868133333154
  0
LINE
  8
_1-8_小物
  6
CONTINUOUS
 62
    4
 10
-52.808332733333742
 20
65.973605833333295
 11
-52.973333333333727
 21
65.878342633333432
  0
LINE
  8
_1-8_小物
  6
CONTINUOUS
 62
    4
 10
-53.858333033333281
 20
65.761939333333203
 11
-53.693333333333328
 21
65.85720163333329
  0
LINE
  8
_1-8_小物
  6
CONTINUOUS
 62
    4
 10
-53.693333333333328
 20
65.66667613333334
 11
-53.858333033333281
 21
65.761939333333203
  0
LINE
  8
_1-8_小物
  6
CONTINUOUS
 62
    4
 10
-52.973333333333727
 20
65.222202133333241
 11
-52.973333333333727
 21
65.455009633333276
  0
LINE
  8
_1-8_小物
  6
CONTINUOUS
 62
    4
 10
-53.693333333333328
 20
65.243343133333184
 11
-53.693333333333328
 21
65.010534733333344
  0
LINE
  8
_1-8_小物
  6
CONTINUOUS
 62
    4
 10
-52.973333333333727
 20
65.645535133333397
 11
-53.693333333333328
 21
65.433868633333304
  0
LINE
  8
_1-8_小物
  6
CONTINUOUS
 62
    4
 10
-52.973333333333727
 20
65.455009633333276
 11
-53.693333333333328
 21
65.243343133333184
  0
LINE
  8
_1-8_小物
  6
CONTINUOUS
 62
    4
 10
-52.808332733333742
 20
65.550271933333306
 11
-53.858333033333281
 21
65.338605433333441
  0
LINE
  8
_1-8_小物
  6
CONTINUOUS
 62
    4
 10
-52.808332733333742
 20
65.550271933333306
 11
-52.973333333333727
 21
65.645535133333397
  0
LINE
  8
_1-8_小物
  6
CONTINUOUS
 62
    4
 10
-52.808332733333742
 20
65.550271933333306
 11
-52.973333333333727
 21
65.455009633333276
  0
LINE
  8
_1-8_小物
  6
CONTINUOUS
 62
    4
 10
-53.858333033333281
 20
65.338605433333441
 11
-53.693333333333328
 21
65.433868633333304
  0
LINE
  8
_1-8_小物
  6
CONTINUOUS
 62
    4
 10
-53.693333333333328
 20
65.243343133333184
 11
-53.858333033333281
 21
65.338605433333441
  0
LINE
  8
_1-8_小物
  6
CONTINUOUS
 62
    4
 10
-52.973333333333727
 20
64.798868233333252
 11
-52.973333333333727
 21
65.031676633333319
  0
LINE
  8
_1-8_小物
  6
CONTINUOUS
 62
    4
 10
-53.693333333333328
 20
64.820009233333167
 11
-53.693333333333328
 21
64.587201733333387
  0
LINE
  8
_1-8_小物
  6
CONTINUOUS
 62
    4
 10
-52.973333333333727
 20
65.222202133333241
 11
-53.693333333333328
 21
65.010534733333344
  0
LINE
  8
_1-8_小物
  6
CONTINUOUS
 62
    4
 10
-52.973333333333727
 20
65.031676633333319
 11
-53.693333333333328
 21
64.820009233333167
  0
LINE
  8
_1-8_小物
  6
CONTINUOUS
 62
    4
 10
-52.808332733333742
 20
65.126938933333378
 11
-53.858333033333281
 21
64.915272433333286
  0
LINE
  8
_1-8_小物
  6
CONTINUOUS
 62
    4
 10
-52.808332733333742
 20
65.126938933333378
 11
-52.973333333333727
 21
65.222202133333241
  0
LINE
  8
_1-8_小物
  6
CONTINUOUS
 62
    4
 10
-52.808332733333742
 20
65.126938933333378
 11
-52.973333333333727
 21
65.031676633333319
  0
LINE
  8
_1-8_小物
  6
CONTINUOUS
 62
    4
 10
-53.858333033333281
 20
64.915272433333286
 11
-53.693333333333328
 21
65.010534733333344
  0
LINE
  8
_1-8_小物
  6
CONTINUOUS
 62
    4
 10
-53.693333333333328
 20
64.820009233333167
 11
-53.858333033333281
 21
64.915272433333286
  0
LINE
  8
_1-8_小物
  6
CONTINUOUS
 62
    4
 10
-52.973333333333727
 20
64.375535233333494
 11
-53.693333333333328
 21
64.163868733333402
  0
LINE
  8
_1-8_小物
  6
CONTINUOUS
 62
    4
 10
-52.973333333333727
 20
64.185009733333146
 11
-53.693333333333328
 21
63.973343233333253
  0
LINE
  8
_1-8_小物
  6
CONTINUOUS
 62
    4
 10
-52.808332733333742
 20
64.280272033333205
 11
-53.858333033333281
 21
64.068605533333113
  0
LINE
  8
_1-8_小物
  6
CONTINUOUS
 62
    4
 10
-52.808332733333742
 20
64.280272033333205
 11
-52.973333333333727
 21
64.375535233333494
  0
LINE
  8
_1-8_小物
  6
CONTINUOUS
 62
    4
 10
-52.808332733333742
 20
64.280272033333205
 11
-52.973333333333727
 21
64.185009733333146
  0
LINE
  8
_1-8_小物
  6
CONTINUOUS
 62
    4
 10
-53.858333033333281
 20
64.068605533333113
 11
-53.693333333333328
 21
64.163868733333402
  0
LINE
  8
_1-8_小物
  6
CONTINUOUS
 62
    4
 10
-53.693333333333328
 20
63.973343233333253
 11
-53.858333033333281
 21
64.068605533333113
  0
LINE
  8
_1-8_小物
  6
CONTINUOUS
 62
    4
 10
-52.973333333333727
 20
63.88333333333324
 11
-52.973333333333727
 21
64.185009733333146
  0
LINE
  8
_1-8_小物
  6
CONTINUOUS
 62
    4
 10
-52.973333333333727
 20
64.375535233333494
 11
-52.973333333333727
 21
64.608342733333302
  0
LINE
  8
_1-8_小物
  6
CONTINUOUS
 62
    4
 10
-53.693333333333328
 20
64.396676233333238
 11
-53.693333333333328
 21
64.163868733333402
  0
LINE
  8
_1-8_小物
  6
CONTINUOUS
 62
    4
 10
-52.973333333333727
 20
64.798868233333252
 11
-53.693333333333328
 21
64.587201733333387
  0
LINE
  8
_1-8_小物
  6
CONTINUOUS
 62
    4
 10
-52.973333333333727
 20
64.608342733333302
 11
-53.693333333333328
 21
64.396676233333238
  0
LINE
  8
_1-8_小物
  6
CONTINUOUS
 62
    4
 10
-52.808332733333742
 20
64.703605933333392
 11
-53.858333033333281
 21
64.4919394333333
  0
LINE
  8
_1-8_小物
  6
CONTINUOUS
 62
    4
 10
-52.808332733333742
 20
64.703605933333392
 11
-52.973333333333727
 21
64.798868233333252
  0
LINE
  8
_1-8_小物
  6
CONTINUOUS
 62
    4
 10
-52.808332733333742
 20
64.703605933333392
 11
-52.973333333333727
 21
64.608342733333302
  0
LINE
  8
_1-8_小物
  6
CONTINUOUS
 62
    4
 10
-53.858333033333281
 20
64.4919394333333
 11
-53.693333333333328
 21
64.587201733333387
  0
LINE
  8
_1-8_小物
  6
CONTINUOUS
 62
    4
 10
-53.693333333333328
 20
64.396676233333238
 11
-53.858333033333281
 21
64.4919394333333
  0
ARC
  8
_1-8_小物
  6
CONTINUOUS
 62
    4
 10
-52.583332733333179
 20
63.604294633333211
 40
0.2999996999999999
 50
299.99999999997999
 51
0
  0
ARC
  8
_1-8_小物
  6
CONTINUOUS
 62
    4
 10
-54.083333033333048
 20
63.604294633333211
 40
0.2999996999999999
 50
180
 51
239.99999999995677
  0
ARC
  8
_1-8_小物
  6
CONTINUOUS
 62
    4
 10
-53.3333333333334
 20
64.903333033333212
 40
1.8
 50
239.99999999999184
 51
299.99999999999801
  0
LINE
  8
_1-8_小物
  6
CONTINUOUS
 62
    4
 10
-52.283333033333321
 20
63.88333333333324
 11
-52.283333033333321
 21
63.604294633333211
  0
LINE
  8
_1-8_小物
  6
CONTINUOUS
 62
    4
 10
-54.383332733333219
 20
63.88333333333324
 11
-52.283333033333321
 21
63.88333333333324
  0
LINE
  8
_1-8_小物
  6
CONTINUOUS
 62
    4
 10
-54.383332733333219
 20
63.88333333333324
 11
-54.383332733333219
 21
63.604294633333211
  0
LINE
  8
_1-8_小物
  6
CONTINUOUS
 62
    4
 10
-53.693333333333328
 20
63.973343233333253
 11
-53.693333333333328
 21
63.88333333333324
  0
LINE
  8
_1-8_小物
  6
CONTINUOUS
 62
    4
 10
-52.973333333333727
 20
69.455534833333132
 11
-52.973333333333727
 21
69.6883432333332
  0
LINE
  8
_1-8_小物
  6
CONTINUOUS
 62
    4
 10
-53.693333333333328
 20
69.476675833333275
 11
-53.693333333333328
 21
69.243868333333239
  0
LINE
  8
_1-8_小物
  6
CONTINUOUS
 62
    4
 10
-52.973333333333727
 20
69.87886873333332
 11
-53.693333333333328
 21
69.667202233333256
  0
LINE
  8
_1-8_小物
  6
CONTINUOUS
 62
    4
 10
-52.973333333333727
 20
69.6883432333332
 11
-53.693333333333328
 21
69.476675833333275
  0
LINE
  8
_1-8_小物
  6
CONTINUOUS
 62
    4
 10
-52.808332733333742
 20
69.783605533333457
 11
-53.858333033333281
 21
69.571939033333393
  0
LINE
  8
_1-8_小物
  6
CONTINUOUS
 62
    4
 10
-52.808332733333742
 20
69.783605533333457
 11
-52.973333333333727
 21
69.87886873333332
  0
LINE
  8
_1-8_小物
  6
CONTINUOUS
 62
    4
 10
-52.808332733333742
 20
69.783605533333457
 11
-52.973333333333727
 21
69.6883432333332
  0
LINE
  8
_1-8_小物
  6
CONTINUOUS
 62
    4
 10
-53.858333033333281
 20
69.571939033333393
 11
-53.693333333333328
 21
69.667202233333256
  0
LINE
  8
_1-8_小物
  6
CONTINUOUS
 62
    4
 10
-53.693333333333328
 20
69.476675833333275
 11
-53.858333033333281
 21
69.571939033333393
  0
LINE
  8
_1-8_小物
  6
CONTINUOUS
 62
    4
 10
-52.973333333333727
 20
69.032201833333147
 11
-52.973333333333727
 21
69.265009333333182
  0
LINE
  8
_1-8_小物
  6
CONTINUOUS
 62
    4
 10
-53.693333333333328
 20
69.053342833333318
 11
-53.693333333333328
 21
68.820535333333282
  0
LINE
  8
_1-8_小物
  6
CONTINUOUS
 62
    4
 10
-52.973333333333727
 20
69.455534833333132
 11
-53.693333333333328
 21
69.243868333333239
  0
LINE
  8
_1-8_小物
  6
CONTINUOUS
 62
    4
 10
-52.973333333333727
 20
69.265009333333182
 11
-53.693333333333328
 21
69.053342833333318
  0
LINE
  8
_1-8_小物
  6
CONTINUOUS
 62
    4
 10
-52.808332733333742
 20
69.360272533333301
 11
-53.858333033333281
 21
69.148606033333408
  0
LINE
  8
_1-8_小物
  6
CONTINUOUS
 62
    4
 10
-52.808332733333742
 20
69.360272533333301
 11
-52.973333333333727
 21
69.455534833333132
  0
LINE
  8
_1-8_小物
  6
CONTINUOUS
 62
    4
 10
-52.808332733333742
 20
69.360272533333301
 11
-52.973333333333727
 21
69.265009333333182
  0
LINE
  8
_1-8_小物
  6
CONTINUOUS
 62
    4
 10
-53.858333033333281
 20
69.148606033333408
 11
-53.693333333333328
 21
69.243868333333239
  0
LINE
  8
_1-8_小物
  6
CONTINUOUS
 62
    4
 10
-53.693333333333328
 20
69.053342833333318
 11
-53.858333033333281
 21
69.148606033333408
  0
LINE
  8
_1-8_小物
  6
CONTINUOUS
 62
    4
 10
-52.973333333333727
 20
68.608868833333219
 11
-52.973333333333727
 21
68.841676333333254
  0
LINE
  8
_1-8_小物
  6
CONTINUOUS
 62
    4
 10
-53.693333333333328
 20
68.630009833333162
 11
-53.693333333333328
 21
68.397201433333322
  0
LINE
  8
_1-8_小物
  6
CONTINUOUS
 62
    4
 10
-52.973333333333727
 20
69.032201833333147
 11
-53.693333333333328
 21
68.820535333333282
  0
LINE
  8
_1-8_小物
  6
CONTINUOUS
 62
    4
 10
-52.973333333333727
 20
68.841676333333254
 11
-53.693333333333328
 21
68.630009833333162
  0
LINE
  8
_1-8_小物
  6
CONTINUOUS
 62
    4
 10
-52.808332733333742
 20
68.936938633333284
 11
-53.858333033333281
 21
68.72527213333322
  0
LINE
  8
_1-8_小物
  6
CONTINUOUS
 62
    4
 10
-52.808332733333742
 20
68.936938633333284
 11
-52.973333333333727
 21
69.032201833333147
  0
LINE
  8
_1-8_小物
  6
CONTINUOUS
 62
    4
 10
-52.808332733333742
 20
68.936938633333284
 11
-52.973333333333727
 21
68.841676333333254
  0
LINE
  8
_1-8_小物
  6
CONTINUOUS
 62
    4
 10
-53.858333033333281
 20
68.72527213333322
 11
-53.693333333333328
 21
68.820535333333282
  0
LINE
  8
_1-8_小物
  6
CONTINUOUS
 62
    4
 10
-53.693333333333328
 20
68.630009833333162
 11
-53.858333033333281
 21
68.72527213333322
  0
LINE
  8
_1-8_小物
  6
CONTINUOUS
 62
    4
 10
-52.973333333333727
 20
68.18553493333323
 11
-52.973333333333727
 21
68.418343333333269
  0
LINE
  8
_1-8_小物
  6
CONTINUOUS
 62
    4
 10
-53.693333333333328
 20
68.206675933333372
 11
-53.693333333333328
 21
67.973868433333337
  0
LINE
  8
_1-8_小物
  6
CONTINUOUS
 62
    4
 10
-52.973333333333727
 20
68.608868833333219
 11
-53.693333333333328
 21
68.397201433333322
  0
LINE
  8
_1-8_小物
  6
CONTINUOUS
 62
    4
 10
-52.973333333333727
 20
68.418343333333269
 11
-53.693333333333328
 21
68.206675933333372
  0
LINE
  8
_1-8_小物
  6
CONTINUOUS
 62
    4
 10
-52.808332733333742
 20
68.513605633333128
 11
-53.858333033333281
 21
68.301939133333263
  0
LINE
  8
_1-8_小物
  6
CONTINUOUS
 62
    4
 10
-52.808332733333742
 20
68.513605633333128
 11
-52.973333333333727
 21
68.608868833333219
  0
LINE
  8
_1-8_小物
  6
CONTINUOUS
 62
    4
 10
-52.808332733333742
 20
68.513605633333128
 11
-52.973333333333727
 21
68.418343333333269
  0
LINE
  8
_1-8_小物
  6
CONTINUOUS
 62
    4
 10
-53.858333033333281
 20
68.301939133333263
 11
-53.693333333333328
 21
68.397201433333322
  0
LINE
  8
_1-8_小物
  6
CONTINUOUS
 62
    4
 10
-53.693333333333328
 20
68.206675933333372
 11
-53.858333033333281
 21
68.301939133333263
  0
LINE
  8
_1-8_小物
  6
CONTINUOUS
 62
    4
 10
-52.973333333333727
 20
67.926456433333243
 11
-52.973333333333727
 21
67.99500943333328
  0
LINE
  8
_1-8_小物
  6
CONTINUOUS
 62
    4
 10
-53.693333333333328
 20
67.783342933333415
 11
-53.693333333333328
 21
67.55053543333338
  0
LINE
  8
_1-8_小物
  6
CONTINUOUS
 62
    4
 10
-52.973333333333727
 20
68.18553493333323
 11
-53.693333333333328
 21
67.973868433333337
  0
LINE
  8
_1-8_小物
  6
CONTINUOUS
 62
    4
 10
-52.973333333333727
 20
67.99500943333328
 11
-53.441284733333475
 21
67.857440833333413
  0
LINE
  8
_1-8_小物
  6
CONTINUOUS
 62
    4
 10
-53.778225833333352
 20
67.894753933333078
 11
-52.808332733333742
 21
68.09027263333337
  0
LINE
  8
_1-8_小物
  6
CONTINUOUS
 62
    4
 10
-52.808332733333742
 20
68.09027263333337
 11
-52.973333333333727
 21
68.18553493333323
  0
LINE
  8
_1-8_小物
  6
CONTINUOUS
 62
    4
 10
-52.808332733333742
 20
68.09027263333337
 11
-52.973333333333727
 21
67.99500943333328
  0
LINE
  8
_1-8_小物
  6
CONTINUOUS
 62
    4
 10
-53.811279233333323
 20
67.905772633333328
 11
-53.693333333333328
 21
67.973868433333337
  0
LINE
  8
_1-8_小物
  6
CONTINUOUS
 62
    4
 10
-53.693333333333328
 20
67.783342933333415
 11
-53.858333033333281
 21
67.878606133333278
  0
LINE
  8
_1-8_小物
  6
CONTINUOUS
 62
    4
 10
-52.973333333333727
 20
67.338868033333057
 11
-52.973333333333727
 21
67.571676433333351
  0
LINE
  8
_1-8_小物
  6
CONTINUOUS
 62
    4
 10
-53.693333333333328
 20
67.360009933333259
 11
-53.693333333333328
 21
67.127201533333192
  0
LINE
  8
_1-8_小物
  6
CONTINUOUS
 62
    4
 10
-52.973333333333727
 20
67.762201933333245
 11
-53.693333333333328
 21
67.55053543333338
  0
LINE
  8
_1-8_小物
  6
CONTINUOUS
 62
    4
 10
-52.973333333333727
 20
67.571676433333351
 11
-53.693333333333328
 21
67.360009933333259
  0
LINE
  8
_1-8_小物
  6
CONTINUOUS
 62
    4
 10
-52.808332733333742
 20
67.666938733333382
 11
-53.858333033333281
 21
67.455272233333318
  0
LINE
  8
_1-8_小物
  6
CONTINUOUS
 62
    4
 10
-52.808332733333742
 20
67.666938733333382
 11
-52.973333333333727
 21
67.762201933333245
  0
LINE
  8
_1-8_小物
  6
CONTINUOUS
 62
    4
 10
-52.808332733333742
 20
67.666938733333382
 11
-52.973333333333727
 21
67.571676433333351
  0
LINE
  8
_1-8_小物
  6
CONTINUOUS
 62
    4
 10
-53.858333033333281
 20
67.455272233333318
 11
-53.693333333333328
 21
67.55053543333338
  0
LINE
  8
_1-8_小物
  6
CONTINUOUS
 62
    4
 10
-53.693333333333328
 20
67.360009933333259
 11
-53.858333033333281
 21
67.455272233333318
  0
LINE
  8
_1-8_小物
  6
CONTINUOUS
 62
    4
 10
-52.973333333333727
 20
66.915535033333327
 11
-52.973333333333727
 21
67.148342533333334
  0
LINE
  8
_1-8_小物
  6
CONTINUOUS
 62
    4
 10
-53.693333333333328
 20
66.936676033333242
 11
-53.693333333333328
 21
66.703868533333434
  0
LINE
  8
_1-8_小物
  6
CONTINUOUS
 62
    4
 10
-52.973333333333727
 20
67.338868033333057
 11
-53.693333333333328
 21
67.127201533333192
  0
LINE
  8
_1-8_小物
  6
CONTINUOUS
 62
    4
 10
-52.973333333333727
 20
67.148342533333334
 11
-53.693333333333328
 21
66.936676033333242
  0
LINE
  8
_1-8_小物
  6
CONTINUOUS
 62
    4
 10
-52.808332733333742
 20
67.243605733333226
 11
-53.858333033333281
 21
67.031939233333361
  0
LINE
  8
_1-8_小物
  6
CONTINUOUS
 62
    4
 10
-52.808332733333742
 20
67.243605733333226
 11
-52.973333333333727
 21
67.338868033333057
  0
LINE
  8
_1-8_小物
  6
CONTINUOUS
 62
    4
 10
-52.808332733333742
 20
67.243605733333226
 11
-52.973333333333727
 21
67.148342533333334
  0
LINE
  8
_1-8_小物
  6
CONTINUOUS
 62
    4
 10
-53.858333033333281
 20
67.031939233333361
 11
-53.693333333333328
 21
67.127201533333192
  0
LINE
  8
_1-8_小物
  6
CONTINUOUS
 62
    4
 10
-53.693333333333328
 20
66.936676033333242
 11
-53.858333033333281
 21
67.031939233333361
  0
LINE
  8
_1-8_小物
  6
CONTINUOUS
 62
    4
 10
-52.973333333333727
 20
66.915535033333327
 11
-53.693333333333328
 21
66.703868533333434
  0
LINE
  8
_1-8_小物
  6
CONTINUOUS
 62
    4
 10
-52.808332733333742
 20
66.820272733333468
 11
-52.973333333333727
 21
66.915535033333327
  0
LINE
  8
_1-8_小物
  6
CONTINUOUS
 62
    4
 10
-53.078600033333288
 20
70.737253633333239
 11
-53.597810933333022
 21
70.524454033333342
  0
LINE
  8
_1-8_小物
  6
CONTINUOUS
 62
    4
 10
-53.781145433333251
 20
70.418605933333311
 11
-52.893302633333775
 21
70.630272433333204
  0
LINE
  8
_1-8_小物
  6
CONTINUOUS
 62
    4
 10
-53.05830323333376
 20
70.535009233333341
 11
-53.616145733333298
 21
70.323342733333448
  0
LINE
  8
_1-8_小物
  6
CONTINUOUS
 62
    4
 10
-53.636404733333336
 20
70.101120133333325
 11
-53.036114633333369
 21
70.313919733333478
  0
LINE
  8
_1-8_小物
  6
CONTINUOUS
 62
    4
 10
-52.850818133333348
 20
70.206939433333218
 11
-53.819739233333536
 21
69.995272033333322
  0
LINE
  8
_1-8_小物
  6
CONTINUOUS
 62
    4
 10
-53.654739533333014
 20
69.900009733333292
 11
-53.015817833333301
 21
70.111676233333355
  0
LINE
  8
_1-8_小物
  6
CONTINUOUS
 62
    4
 10
-53.654739533333014
 20
69.900009733333292
 11
-53.675485433333421
 21
69.672448333333278
  0
LINE
  8
_1-8_小物
  6
CONTINUOUS
 62
    4
 10
-53.616145733333298
 20
70.323342733333448
 11
-53.636404733333336
 21
70.101120133333325
  0
LINE
  8
_1-8_小物
  6
CONTINUOUS
 62
    4
 10
-53.036114633333369
 20
70.313919733333478
 11
-53.05830323333376
 21
70.535009233333341
  0
LINE
  8
_1-8_小物
  6
CONTINUOUS
 62
    4
 10
-52.99190573333334
 20
69.873408433333225
 11
-53.015817833333301
 21
70.111676233333355
  0
LINE
  8
_1-8_小物
  6
CONTINUOUS
 62
    4
 10
-52.893302633333775
 20
70.630272433333204
 11
-53.078600033333288
 21
70.737253633333239
  0
LINE
  8
_1-8_小物
  6
CONTINUOUS
 62
    4
 10
-53.05830323333376
 20
70.535009233333341
 11
-52.893302633333775
 21
70.630272433333204
  0
LINE
  8
_1-8_小物
  6
CONTINUOUS
 62
    4
 10
-52.850818133333348
 20
70.206939433333218
 11
-53.036114633333369
 21
70.313919733333478
  0
LINE
  8
_1-8_小物
  6
CONTINUOUS
 62
    4
 10
-52.850818133333348
 20
70.206939433333218
 11
-53.015817833333301
 21
70.111676233333355
  0
LINE
  8
_1-8_小物
  6
CONTINUOUS
 62
    4
 10
-53.781145433333251
 20
70.418605933333311
 11
-53.597810933333022
 21
70.524454033333342
  0
LINE
  8
_1-8_小物
  6
CONTINUOUS
 62
    4
 10
-53.616145733333298
 20
70.323342733333448
 11
-53.781145433333251
 21
70.418605933333311
  0
LINE
  8
_1-8_小物
  6
CONTINUOUS
 62
    4
 10
-53.819739233333536
 20
69.995272033333322
 11
-53.636404733333336
 21
70.101120133333325
  0
LINE
  8
_1-8_小物
  6
CONTINUOUS
 62
    4
 10
-53.654739533333014
 20
69.900009733333292
 11
-53.819739233333536
 21
69.995272033333322
  0
LINE
  8
_1-8_小物
  6
CONTINUOUS
 62
    4
 10
-53.3333333333334
 20
71.473342933333271
 11
-53.078600033333288
 21
70.737253633333239
  0
LINE
  8
_1-8_小物
  6
CONTINUOUS
 62
    4
 10
-53.597810933333022
 20
70.524454033333342
 11
-53.3333333333334
 21
71.473342933333271
  0
LINE
  8
_1-8_小物
  6
CONTINUOUS
 62
    4
 10
-52.973333333333727
 20
67.926456433333243
 11
-52.973333333333727
 21
67.762201933333245
  0
LINE
  8
_1-8_小物
  6
CONTINUOUS
 62
    4
 10
-53.811279233333323
 20
67.905772633333328
 11
-53.858333033333281
 21
67.878606133333278
  0
LINE
  8
_1-8_小物
  6
CONTINUOUS
 62
    4
 10
-53.693333333333328
 20
67.783342933333415
 11
-53.441284733333475
 21
67.857440833333413
  0
LINE
  8
_1-8_小物
  6
CONTINUOUS
 62
    4
 10
-53.778225833333352
 20
67.894753933333078
 11
-53.858333033333281
 21
67.878606133333278
  0
LINE
  8
_1-8_小物
  6
CENTER2
 62
    4
 10
-53.3333333333334
 20
72.373342933333134
 11
-53.3333333333334
 21
62.203333033333166
  0
ENDBLK
  0
BLOCK
  2
-018-_12_
 70
   64
 10
0
 20
0
 30
0
  0
ARC
  8
_1-4_フレ__ム
  6
CONTINUOUS
 62
    4
 10
116.8333333333328
 20
64.833333333333314
 40
0.5
 50
180
 51
270
  0
LINE
  8
_1-4_フレ__ム
  6
CONTINUOUS
 62
    4
 10
146.66666666666617
 20
64.433333333333394
 11
146.56666666666644
 21
64.333333333333314
  0
LINE
  8
_1-4_フレ__ム
  6
CONTINUOUS
 62
    4
 10
146.76666666666688
 20
64.333333333333314
 11
146.66666666666617
 21
64.433333333333394
  0
LINE
  8
_1-4_フレ__ム
  6
CONTINUOUS
 62
    4
 10
116.33333333333303
 20
64.833333333333314
 11
151.66666666666617
 21
64.833333333333314
  0
LINE
  8
_1-4_フレ__ム
  6
CONTINUOUS
 62
    4
 10
151.66666658719942
 20
64.833333314333288
 11
152.66666656819945
 21
63.833333333333371
  0
LINE
  8
_1-4_フレ__ム
  6
CONTINUOUS
 62
    4
 10
152.66666656819945
 20
63.833333333333371
 11
151.95955978701278
 21
63.833333333333371
  0
LINE
  8
_1-4_フレ__ム
  6
CONTINUOUS
 62
    4
 10
151.45955978701278
 20
64.333333333333314
 11
151.95955978701278
 21
63.833333333333371
  0
LINE
  8
_1-4_フレ__ム
  6
CONTINUOUS
 62
    4
 10
151.45955978701278
 20
64.333333333333314
 11
146.76666666666688
 21
64.333333333333314
  0
LINE
  8
_1-4_フレ__ム
  6
CONTINUOUS
 62
    4
 10
138.42857142857076
 20
63.100000000000051
 11
138.42857142857076
 21
62.933333333333394
  0
ARC
  8
_1-4_フレ__ム
  6
CONTINUOUS
 62
    4
 10
138.09523809523745
 20
63.100000000000051
 40
0.3333333333333333
 50
0
 51
90
  0
LINE
  8
_1-4_フレ__ム
  6
CONTINUOUS
 62
    4
 10
138.09523809523745
 20
63.433333333333394
 11
137.26473389149925
 21
63.433333333333394
  0
ARC
  8
_1-4_フレ__ム
  6
CONTINUOUS
 62
    4
 10
137.26473389149925
 20
63.600000000000051
 40
0.1666666666666666
 50
209.05460409904774
 51
270
  0
LINE
  8
_1-4_フレ__ム
  6
CONTINUOUS
 62
    4
 10
146.56666666666644
 20
64.333333333333314
 11
136.94991907668447
 21
64.333333333333314
  0
ARC
  8
_1-4_フレ__ム
  6
CONTINUOUS
 62
    4
 10
136.94991907668447
 20
64.166666666666657
 40
0.1666666666666666
 50
90
 51
209.05460409904774
  0
LINE
  8
_1-4_フレ__ム
  6
CONTINUOUS
 62
    4
 10
138.42857142857076
 20
62.933333333333394
 11
137.06859944183316
 21
62.933333333333394
  0
ARC
  8
_1-4_フレ__ム
  6
CONTINUOUS
 62
    4
 10
137.06859944183316
 20
63.266666666666708
 40
0.3333333333333333
 50
209.05460409906527
 51
270
  0
LINE
  8
_1-4_フレ__ム
  6
CONTINUOUS
 62
    4
 10
136.1899385234301
 20
64.161880977059525
 11
136.77721368312586
 21
63.104785689607183
  0
LINE
  8
_1-4_フレ__ム
  6
CONTINUOUS
 62
    4
 10
135.89855276472292
 20
64.333333333333314
 11
116.8333333333328
 21
64.333333333333314
  0
ARC
  8
_1-4_フレ__ム
  6
CONTINUOUS
 62
    4
 10
135.89855276472292
 20
64
 40
0.3333333333333333
 50
29.054604099074297
 51
90
  0
LINE
  8
_1-4_フレ__ム
  6
CONTINUOUS
 62
    4
 10
136.80422619733082
 20
64.085726178136866
 11
137.1190410121456
 21
63.51905951147026
  0
LINE
  8
_1-4_フレ__ム
  6
CENTER2
 62
    4
 10
146.66666666666663
 20
62.666666666666657
 11
146.66666666666663
 21
66.5
  0
LINE
  8
_1-4_フレ__ム
  6
DASHED1
 62
    4
 10
149.16666666666663
 20
64.333333333333314
 11
149.16666666666663
 21
64.833333333333314
  0
LINE
  8
_1-4_フレ__ム
  6
DASHED1
 62
    4
 10
144.16666666666663
 20
64.333333333333314
 11
144.16666666666663
 21
64.833333333333314
  0
ENDBLK
  0
BLOCK
  2
-019-_13_
 70
   64
 10
0
 20
0
 30
0
  0
LINE
  8
_1-8_小物
  6
CONTINUOUS
 62
    4
 10
143.96666711666677
 20
64.333333333333258
 11
149.36666711666703
 21
64.333333333333258
  0
LINE
  8
_1-8_小物
  6
CONTINUOUS
 62
    4
 10
143.96666711666677
 20
63.88333333333324
 11
149.36666711666703
 21
63.88333333333324
  0
LINE
  8
_1-8_小物
  6
CONTINUOUS
 62
    4
 10
143.96666711666677
 20
64.333333333333258
 11
143.96666711666677
 21
63.88333333333324
  0
LINE
  8
_1-8_小物
  6
CONTINUOUS
 62
    4
 10
149.36666711666703
 20
64.333333333333258
 11
149.36666711666703
 21
63.88333333333324
  0
LINE
  8
_1-8_小物
  6
DASHED1
 62
    4
 10
145.84166711666677
 20
64.333333333333258
 11
145.84166711666677
 21
63.88333333333324
  0
LINE
  8
_1-8_小物
  6
DASHED1
 62
    4
 10
147.49166711666703
 20
64.333333333333258
 11
147.49166711666703
 21
63.88333333333324
  0
LINE
  8
_1-8_小物
  6
CONTINUOUS
 62
    4
 10
147.0266666666663
 20
66.492202033333342
 11
147.0266666666663
 21
66.725009533333179
  0
LINE
  8
_1-8_小物
  6
CONTINUOUS
 62
    4
 10
146.30666666666667
 20
66.513343033333086
 11
146.30666666666667
 21
66.280535533333477
  0
LINE
  8
_1-8_小物
  6
CONTINUOUS
 62
    4
 10
147.0266666666663
 20
66.725009533333179
 11
146.30666666666667
 21
66.513343033333086
  0
LINE
  8
_1-8_小物
  6
CONTINUOUS
 62
    4
 10
147.19166726666629
 20
66.820272733333468
 11
146.14166696666672
 21
66.608605333333344
  0
LINE
  8
_1-8_小物
  6
CONTINUOUS
 62
    4
 10
147.19166726666629
 20
66.820272733333468
 11
147.0266666666663
 21
66.725009533333179
  0
LINE
  8
_1-8_小物
  6
CONTINUOUS
 62
    4
 10
146.14166696666672
 20
66.608605333333344
 11
146.30666666666667
 21
66.703868533333434
  0
LINE
  8
_1-8_小物
  6
CONTINUOUS
 62
    4
 10
146.30666666666667
 20
66.513343033333086
 11
146.14166696666672
 21
66.608605333333344
  0
LINE
  8
_1-8_小物
  6
CONTINUOUS
 62
    4
 10
147.0266666666663
 20
66.068868133333154
 11
147.0266666666663
 21
66.301676533333222
  0
LINE
  8
_1-8_小物
  6
CONTINUOUS
 62
    4
 10
146.30666666666667
 20
66.090009133333325
 11
146.30666666666667
 21
65.85720163333329
  0
LINE
  8
_1-8_小物
  6
CONTINUOUS
 62
    4
 10
147.0266666666663
 20
66.492202033333342
 11
146.30666666666667
 21
66.280535533333477
  0
LINE
  8
_1-8_小物
  6
CONTINUOUS
 62
    4
 10
147.0266666666663
 20
66.301676533333222
 11
146.30666666666667
 21
66.090009133333325
  0
LINE
  8
_1-8_小物
  6
CONTINUOUS
 62
    4
 10
147.19166726666629
 20
66.39693883333328
 11
146.14166696666672
 21
66.185272333333188
  0
LINE
  8
_1-8_小物
  6
CONTINUOUS
 62
    4
 10
147.19166726666629
 20
66.39693883333328
 11
147.0266666666663
 21
66.492202033333342
  0
LINE
  8
_1-8_小物
  6
CONTINUOUS
 62
    4
 10
147.19166726666629
 20
66.39693883333328
 11
147.0266666666663
 21
66.301676533333222
  0
LINE
  8
_1-8_小物
  6
CONTINUOUS
 62
    4
 10
146.14166696666672
 20
66.185272333333188
 11
146.30666666666667
 21
66.280535533333477
  0
LINE
  8
_1-8_小物
  6
CONTINUOUS
 62
    4
 10
146.30666666666667
 20
66.090009133333325
 11
146.14166696666672
 21
66.185272333333188
  0
LINE
  8
_1-8_小物
  6
CONTINUOUS
 62
    4
 10
147.0266666666663
 20
65.645535133333397
 11
147.0266666666663
 21
65.878342633333432
  0
LINE
  8
_1-8_小物
  6
CONTINUOUS
 62
    4
 10
146.30666666666667
 20
65.66667613333334
 11
146.30666666666667
 21
65.433868633333304
  0
LINE
  8
_1-8_小物
  6
CONTINUOUS
 62
    4
 10
147.0266666666663
 20
66.068868133333154
 11
146.30666666666667
 21
65.85720163333329
  0
LINE
  8
_1-8_小物
  6
CONTINUOUS
 62
    4
 10
147.0266666666663
 20
65.878342633333432
 11
146.30666666666667
 21
65.66667613333334
  0
LINE
  8
_1-8_小物
  6
CONTINUOUS
 62
    4
 10
147.19166726666629
 20
65.973605833333295
 11
146.14166696666672
 21
65.761939333333203
  0
LINE
  8
_1-8_小物
  6
CONTINUOUS
 62
    4
 10
147.19166726666629
 20
65.973605833333295
 11
147.0266666666663
 21
66.068868133333154
  0
LINE
  8
_1-8_小物
  6
CONTINUOUS
 62
    4
 10
147.19166726666629
 20
65.973605833333295
 11
147.0266666666663
 21
65.878342633333432
  0
LINE
  8
_1-8_小物
  6
CONTINUOUS
 62
    4
 10
146.14166696666672
 20
65.761939333333203
 11
146.30666666666667
 21
65.85720163333329
  0
LINE
  8
_1-8_小物
  6
CONTINUOUS
 62
    4
 10
146.30666666666667
 20
65.66667613333334
 11
146.14166696666672
 21
65.761939333333203
  0
LINE
  8
_1-8_小物
  6
CONTINUOUS
 62
    4
 10
147.0266666666663
 20
65.222202133333241
 11
147.0266666666663
 21
65.455009633333276
  0
LINE
  8
_1-8_小物
  6
CONTINUOUS
 62
    4
 10
146.30666666666667
 20
65.243343133333184
 11
146.30666666666667
 21
65.010534733333344
  0
LINE
  8
_1-8_小物
  6
CONTINUOUS
 62
    4
 10
147.0266666666663
 20
65.645535133333397
 11
146.30666666666667
 21
65.433868633333304
  0
LINE
  8
_1-8_小物
  6
CONTINUOUS
 62
    4
 10
147.0266666666663
 20
65.455009633333276
 11
146.30666666666667
 21
65.243343133333184
  0
LINE
  8
_1-8_小物
  6
CONTINUOUS
 62
    4
 10
147.19166726666629
 20
65.550271933333306
 11
146.14166696666672
 21
65.338605433333441
  0
LINE
  8
_1-8_小物
  6
CONTINUOUS
 62
    4
 10
147.19166726666629
 20
65.550271933333306
 11
147.0266666666663
 21
65.645535133333397
  0
LINE
  8
_1-8_小物
  6
CONTINUOUS
 62
    4
 10
147.19166726666629
 20
65.550271933333306
 11
147.0266666666663
 21
65.455009633333276
  0
LINE
  8
_1-8_小物
  6
CONTINUOUS
 62
    4
 10
146.14166696666672
 20
65.338605433333441
 11
146.30666666666667
 21
65.433868633333304
  0
LINE
  8
_1-8_小物
  6
CONTINUOUS
 62
    4
 10
146.30666666666667
 20
65.243343133333184
 11
146.14166696666672
 21
65.338605433333441
  0
LINE
  8
_1-8_小物
  6
CONTINUOUS
 62
    4
 10
147.0266666666663
 20
64.798868233333252
 11
147.0266666666663
 21
65.031676633333319
  0
LINE
  8
_1-8_小物
  6
CONTINUOUS
 62
    4
 10
146.30666666666667
 20
64.820009233333167
 11
146.30666666666667
 21
64.587201733333387
  0
LINE
  8
_1-8_小物
  6
CONTINUOUS
 62
    4
 10
147.0266666666663
 20
65.222202133333241
 11
146.30666666666667
 21
65.010534733333344
  0
LINE
  8
_1-8_小物
  6
CONTINUOUS
 62
    4
 10
147.0266666666663
 20
65.031676633333319
 11
146.30666666666667
 21
64.820009233333167
  0
LINE
  8
_1-8_小物
  6
CONTINUOUS
 62
    4
 10
147.19166726666629
 20
65.126938933333378
 11
146.14166696666672
 21
64.915272433333286
  0
LINE
  8
_1-8_小物
  6
CONTINUOUS
 62
    4
 10
147.19166726666629
 20
65.126938933333378
 11
147.0266666666663
 21
65.222202133333241
  0
LINE
  8
_1-8_小物
  6
CONTINUOUS
 62
    4
 10
147.19166726666629
 20
65.126938933333378
 11
147.0266666666663
 21
65.031676633333319
  0
LINE
  8
_1-8_小物
  6
CONTINUOUS
 62
    4
 10
146.14166696666672
 20
64.915272433333286
 11
146.30666666666667
 21
65.010534733333344
  0
LINE
  8
_1-8_小物
  6
CONTINUOUS
 62
    4
 10
146.30666666666667
 20
64.820009233333167
 11
146.14166696666672
 21
64.915272433333286
  0
LINE
  8
_1-8_小物
  6
CONTINUOUS
 62
    4
 10
147.0266666666663
 20
64.375535233333494
 11
146.30666666666667
 21
64.163868733333402
  0
LINE
  8
_1-8_小物
  6
CONTINUOUS
 62
    4
 10
147.0266666666663
 20
64.185009733333146
 11
146.30666666666667
 21
63.973343233333253
  0
LINE
  8
_1-8_小物
  6
CONTINUOUS
 62
    4
 10
147.19166726666629
 20
64.280272033333205
 11
146.14166696666672
 21
64.068605533333113
  0
LINE
  8
_1-8_小物
  6
CONTINUOUS
 62
    4
 10
147.19166726666629
 20
64.280272033333205
 11
147.0266666666663
 21
64.375535233333494
  0
LINE
  8
_1-8_小物
  6
CONTINUOUS
 62
    4
 10
147.19166726666629
 20
64.280272033333205
 11
147.0266666666663
 21
64.185009733333146
  0
LINE
  8
_1-8_小物
  6
CONTINUOUS
 62
    4
 10
146.14166696666672
 20
64.068605533333113
 11
146.30666666666667
 21
64.163868733333402
  0
LINE
  8
_1-8_小物
  6
CONTINUOUS
 62
    4
 10
146.30666666666667
 20
63.973343233333253
 11
146.14166696666672
 21
64.068605533333113
  0
LINE
  8
_1-8_小物
  6
CONTINUOUS
 62
    4
 10
147.0266666666663
 20
63.88333333333324
 11
147.0266666666663
 21
64.185009733333146
  0
LINE
  8
_1-8_小物
  6
CONTINUOUS
 62
    4
 10
147.0266666666663
 20
64.375535233333494
 11
147.0266666666663
 21
64.608342733333302
  0
LINE
  8
_1-8_小物
  6
CONTINUOUS
 62
    4
 10
146.30666666666667
 20
64.396676233333238
 11
146.30666666666667
 21
64.163868733333402
  0
LINE
  8
_1-8_小物
  6
CONTINUOUS
 62
    4
 10
147.0266666666663
 20
64.798868233333252
 11
146.30666666666667
 21
64.587201733333387
  0
LINE
  8
_1-8_小物
  6
CONTINUOUS
 62
    4
 10
147.0266666666663
 20
64.608342733333302
 11
146.30666666666667
 21
64.396676233333238
  0
LINE
  8
_1-8_小物
  6
CONTINUOUS
 62
    4
 10
147.19166726666629
 20
64.703605933333392
 11
146.14166696666672
 21
64.4919394333333
  0
LINE
  8
_1-8_小物
  6
CONTINUOUS
 62
    4
 10
147.19166726666629
 20
64.703605933333392
 11
147.0266666666663
 21
64.798868233333252
  0
LINE
  8
_1-8_小物
  6
CONTINUOUS
 62
    4
 10
147.19166726666629
 20
64.703605933333392
 11
147.0266666666663
 21
64.608342733333302
  0
LINE
  8
_1-8_小物
  6
CONTINUOUS
 62
    4
 10
146.14166696666672
 20
64.4919394333333
 11
146.30666666666667
 21
64.587201733333387
  0
LINE
  8
_1-8_小物
  6
CONTINUOUS
 62
    4
 10
146.30666666666667
 20
64.396676233333238
 11
146.14166696666672
 21
64.4919394333333
  0
ARC
  8
_1-8_小物
  6
CONTINUOUS
 62
    4
 10
147.41666726666682
 20
63.604294633333211
 40
0.2999996999999999
 50
299.99999999997999
 51
0
  0
ARC
  8
_1-8_小物
  6
CONTINUOUS
 62
    4
 10
145.91666696666698
 20
63.604294633333211
 40
0.2999996999999999
 50
180
 51
239.99999999995677
  0
ARC
  8
_1-8_小物
  6
CONTINUOUS
 62
    4
 10
146.66666666666663
 20
64.903333033333212
 40
1.8
 50
239.99999999999261
 51
299.99999999999886
  0
LINE
  8
_1-8_小物
  6
CONTINUOUS
 62
    4
 10
147.71666696666671
 20
63.88333333333324
 11
147.71666696666671
 21
63.604294633333211
  0
LINE
  8
_1-8_小物
  6
CONTINUOUS
 62
    4
 10
145.61666726666681
 20
63.88333333333324
 11
147.71666696666671
 21
63.88333333333324
  0
LINE
  8
_1-8_小物
  6
CONTINUOUS
 62
    4
 10
145.61666726666681
 20
63.88333333333324
 11
145.61666726666681
 21
63.604294633333211
  0
LINE
  8
_1-8_小物
  6
CONTINUOUS
 62
    4
 10
146.30666666666667
 20
63.973343233333253
 11
146.30666666666667
 21
63.88333333333324
  0
LINE
  8
_1-8_小物
  6
CONTINUOUS
 62
    4
 10
147.0266666666663
 20
69.455534833333132
 11
147.0266666666663
 21
69.6883432333332
  0
LINE
  8
_1-8_小物
  6
CONTINUOUS
 62
    4
 10
146.30666666666667
 20
69.476675833333275
 11
146.30666666666667
 21
69.243868333333239
  0
LINE
  8
_1-8_小物
  6
CONTINUOUS
 62
    4
 10
147.0266666666663
 20
69.87886873333332
 11
146.30666666666667
 21
69.667202233333256
  0
LINE
  8
_1-8_小物
  6
CONTINUOUS
 62
    4
 10
147.0266666666663
 20
69.6883432333332
 11
146.30666666666667
 21
69.476675833333275
  0
LINE
  8
_1-8_小物
  6
CONTINUOUS
 62
    4
 10
147.19166726666629
 20
69.783605533333457
 11
146.14166696666672
 21
69.571939033333393
  0
LINE
  8
_1-8_小物
  6
CONTINUOUS
 62
    4
 10
147.19166726666629
 20
69.783605533333457
 11
147.0266666666663
 21
69.87886873333332
  0
LINE
  8
_1-8_小物
  6
CONTINUOUS
 62
    4
 10
147.19166726666629
 20
69.783605533333457
 11
147.0266666666663
 21
69.6883432333332
  0
LINE
  8
_1-8_小物
  6
CONTINUOUS
 62
    4
 10
146.14166696666672
 20
69.571939033333393
 11
146.30666666666667
 21
69.667202233333256
  0
LINE
  8
_1-8_小物
  6
CONTINUOUS
 62
    4
 10
146.30666666666667
 20
69.476675833333275
 11
146.14166696666672
 21
69.571939033333393
  0
LINE
  8
_1-8_小物
  6
CONTINUOUS
 62
    4
 10
147.0266666666663
 20
69.032201833333147
 11
147.0266666666663
 21
69.265009333333182
  0
LINE
  8
_1-8_小物
  6
CONTINUOUS
 62
    4
 10
146.30666666666667
 20
69.053342833333318
 11
146.30666666666667
 21
68.820535333333282
  0
LINE
  8
_1-8_小物
  6
CONTINUOUS
 62
    4
 10
147.0266666666663
 20
69.455534833333132
 11
146.30666666666667
 21
69.243868333333239
  0
LINE
  8
_1-8_小物
  6
CONTINUOUS
 62
    4
 10
147.0266666666663
 20
69.265009333333182
 11
146.30666666666667
 21
69.053342833333318
  0
LINE
  8
_1-8_小物
  6
CONTINUOUS
 62
    4
 10
147.19166726666629
 20
69.360272533333301
 11
146.14166696666672
 21
69.148606033333408
  0
LINE
  8
_1-8_小物
  6
CONTINUOUS
 62
    4
 10
147.19166726666629
 20
69.360272533333301
 11
147.0266666666663
 21
69.455534833333132
  0
LINE
  8
_1-8_小物
  6
CONTINUOUS
 62
    4
 10
147.19166726666629
 20
69.360272533333301
 11
147.0266666666663
 21
69.265009333333182
  0
LINE
  8
_1-8_小物
  6
CONTINUOUS
 62
    4
 10
146.14166696666672
 20
69.148606033333408
 11
146.30666666666667
 21
69.243868333333239
  0
LINE
  8
_1-8_小物
  6
CONTINUOUS
 62
    4
 10
146.30666666666667
 20
69.053342833333318
 11
146.14166696666672
 21
69.148606033333408
  0
LINE
  8
_1-8_小物
  6
CONTINUOUS
 62
    4
 10
147.0266666666663
 20
68.608868833333219
 11
147.0266666666663
 21
68.841676333333254
  0
LINE
  8
_1-8_小物
  6
CONTINUOUS
 62
    4
 10
146.30666666666667
 20
68.630009833333162
 11
146.30666666666667
 21
68.397201433333322
  0
LINE
  8
_1-8_小物
  6
CONTINUOUS
 62
    4
 10
147.0266666666663
 20
69.032201833333147
 11
146.30666666666667
 21
68.820535333333282
  0
LINE
  8
_1-8_小物
  6
CONTINUOUS
 62
    4
 10
147.0266666666663
 20
68.841676333333254
 11
146.30666666666667
 21
68.630009833333162
  0
LINE
  8
_1-8_小物
  6
CONTINUOUS
 62
    4
 10
147.19166726666629
 20
68.936938633333284
 11
146.14166696666672
 21
68.72527213333322
  0
LINE
  8
_1-8_小物
  6
CONTINUOUS
 62
    4
 10
147.19166726666629
 20
68.936938633333284
 11
147.0266666666663
 21
69.032201833333147
  0
LINE
  8
_1-8_小物
  6
CONTINUOUS
 62
    4
 10
147.19166726666629
 20
68.936938633333284
 11
147.0266666666663
 21
68.841676333333254
  0
LINE
  8
_1-8_小物
  6
CONTINUOUS
 62
    4
 10
146.14166696666672
 20
68.72527213333322
 11
146.30666666666667
 21
68.820535333333282
  0
LINE
  8
_1-8_小物
  6
CONTINUOUS
 62
    4
 10
146.30666666666667
 20
68.630009833333162
 11
146.14166696666672
 21
68.72527213333322
  0
LINE
  8
_1-8_小物
  6
CONTINUOUS
 62
    4
 10
147.0266666666663
 20
68.18553493333323
 11
147.0266666666663
 21
68.418343333333269
  0
LINE
  8
_1-8_小物
  6
CONTINUOUS
 62
    4
 10
146.30666666666667
 20
68.206675933333372
 11
146.30666666666667
 21
67.973868433333337
  0
LINE
  8
_1-8_小物
  6
CONTINUOUS
 62
    4
 10
147.0266666666663
 20
68.608868833333219
 11
146.30666666666667
 21
68.397201433333322
  0
LINE
  8
_1-8_小物
  6
CONTINUOUS
 62
    4
 10
147.0266666666663
 20
68.418343333333269
 11
146.30666666666667
 21
68.206675933333372
  0
LINE
  8
_1-8_小物
  6
CONTINUOUS
 62
    4
 10
147.19166726666629
 20
68.513605633333128
 11
146.14166696666672
 21
68.301939133333263
  0
LINE
  8
_1-8_小物
  6
CONTINUOUS
 62
    4
 10
147.19166726666629
 20
68.513605633333128
 11
147.0266666666663
 21
68.608868833333219
  0
LINE
  8
_1-8_小物
  6
CONTINUOUS
 62
    4
 10
147.19166726666629
 20
68.513605633333128
 11
147.0266666666663
 21
68.418343333333269
  0
LINE
  8
_1-8_小物
  6
CONTINUOUS
 62
    4
 10
146.14166696666672
 20
68.301939133333263
 11
146.30666666666667
 21
68.397201433333322
  0
LINE
  8
_1-8_小物
  6
CONTINUOUS
 62
    4
 10
146.30666666666667
 20
68.206675933333372
 11
146.14166696666672
 21
68.301939133333263
  0
LINE
  8
_1-8_小物
  6
CONTINUOUS
 62
    4
 10
147.0266666666663
 20
67.926456433333243
 11
147.0266666666663
 21
67.99500943333328
  0
LINE
  8
_1-8_小物
  6
CONTINUOUS
 62
    4
 10
146.30666666666667
 20
67.783342933333415
 11
146.30666666666667
 21
67.55053543333338
  0
LINE
  8
_1-8_小物
  6
CONTINUOUS
 62
    4
 10
147.0266666666663
 20
68.18553493333323
 11
146.30666666666667
 21
67.973868433333337
  0
LINE
  8
_1-8_小物
  6
CONTINUOUS
 62
    4
 10
147.0266666666663
 20
67.99500943333328
 11
146.55871526666652
 21
67.857440833333413
  0
LINE
  8
_1-8_小物
  6
CONTINUOUS
 62
    4
 10
146.22177416666665
 20
67.894753933333078
 11
147.19166726666629
 21
68.09027263333337
  0
LINE
  8
_1-8_小物
  6
CONTINUOUS
 62
    4
 10
147.19166726666629
 20
68.09027263333337
 11
147.0266666666663
 21
68.18553493333323
  0
LINE
  8
_1-8_小物
  6
CONTINUOUS
 62
    4
 10
147.19166726666629
 20
68.09027263333337
 11
147.0266666666663
 21
67.99500943333328
  0
LINE
  8
_1-8_小物
  6
CONTINUOUS
 62
    4
 10
146.18872076666668
 20
67.905772633333328
 11
146.30666666666667
 21
67.973868433333337
  0
LINE
  8
_1-8_小物
  6
CONTINUOUS
 62
    4
 10
146.30666666666667
 20
67.783342933333415
 11
146.14166696666672
 21
67.878606133333278
  0
LINE
  8
_1-8_小物
  6
CONTINUOUS
 62
    4
 10
147.0266666666663
 20
67.338868033333057
 11
147.0266666666663
 21
67.571676433333351
  0
LINE
  8
_1-8_小物
  6
CONTINUOUS
 62
    4
 10
146.30666666666667
 20
67.360009933333259
 11
146.30666666666667
 21
67.127201533333192
  0
LINE
  8
_1-8_小物
  6
CONTINUOUS
 62
    4
 10
147.0266666666663
 20
67.762201933333245
 11
146.30666666666667
 21
67.55053543333338
  0
LINE
  8
_1-8_小物
  6
CONTINUOUS
 62
    4
 10
147.0266666666663
 20
67.571676433333351
 11
146.30666666666667
 21
67.360009933333259
  0
LINE
  8
_1-8_小物
  6
CONTINUOUS
 62
    4
 10
147.19166726666629
 20
67.666938733333382
 11
146.14166696666672
 21
67.455272233333318
  0
LINE
  8
_1-8_小物
  6
CONTINUOUS
 62
    4
 10
147.19166726666629
 20
67.666938733333382
 11
147.0266666666663
 21
67.762201933333245
  0
LINE
  8
_1-8_小物
  6
CONTINUOUS
 62
    4
 10
147.19166726666629
 20
67.666938733333382
 11
147.0266666666663
 21
67.571676433333351
  0
LINE
  8
_1-8_小物
  6
CONTINUOUS
 62
    4
 10
146.14166696666672
 20
67.455272233333318
 11
146.30666666666667
 21
67.55053543333338
  0
LINE
  8
_1-8_小物
  6
CONTINUOUS
 62
    4
 10
146.30666666666667
 20
67.360009933333259
 11
146.14166696666672
 21
67.455272233333318
  0
LINE
  8
_1-8_小物
  6
CONTINUOUS
 62
    4
 10
147.0266666666663
 20
66.915535033333327
 11
147.0266666666663
 21
67.148342533333334
  0
LINE
  8
_1-8_小物
  6
CONTINUOUS
 62
    4
 10
146.30666666666667
 20
66.936676033333242
 11
146.30666666666667
 21
66.703868533333434
  0
LINE
  8
_1-8_小物
  6
CONTINUOUS
 62
    4
 10
147.0266666666663
 20
67.338868033333057
 11
146.30666666666667
 21
67.127201533333192
  0
LINE
  8
_1-8_小物
  6
CONTINUOUS
 62
    4
 10
147.0266666666663
 20
67.148342533333334
 11
146.30666666666667
 21
66.936676033333242
  0
LINE
  8
_1-8_小物
  6
CONTINUOUS
 62
    4
 10
147.19166726666629
 20
67.243605733333226
 11
146.14166696666672
 21
67.031939233333361
  0
LINE
  8
_1-8_小物
  6
CONTINUOUS
 62
    4
 10
147.19166726666629
 20
67.243605733333226
 11
147.0266666666663
 21
67.338868033333057
  0
LINE
  8
_1-8_小物
  6
CONTINUOUS
 62
    4
 10
147.19166726666629
 20
67.243605733333226
 11
147.0266666666663
 21
67.148342533333334
  0
LINE
  8
_1-8_小物
  6
CONTINUOUS
 62
    4
 10
146.14166696666672
 20
67.031939233333361
 11
146.30666666666667
 21
67.127201533333192
  0
LINE
  8
_1-8_小物
  6
CONTINUOUS
 62
    4
 10
146.30666666666667
 20
66.936676033333242
 11
146.14166696666672
 21
67.031939233333361
  0
LINE
  8
_1-8_小物
  6
CONTINUOUS
 62
    4
 10
147.0266666666663
 20
66.915535033333327
 11
146.30666666666667
 21
66.703868533333434
  0
LINE
  8
_1-8_小物
  6
CONTINUOUS
 62
    4
 10
147.19166726666629
 20
66.820272733333468
 11
147.0266666666663
 21
66.915535033333327
  0
LINE
  8
_1-8_小物
  6
CONTINUOUS
 62
    4
 10
146.92139996666674
 20
70.737253633333239
 11
146.40218906666701
 21
70.524454033333342
  0
LINE
  8
_1-8_小物
  6
CONTINUOUS
 62
    4
 10
146.21885456666678
 20
70.418605933333311
 11
147.10669736666625
 21
70.630272433333204
  0
LINE
  8
_1-8_小物
  6
CONTINUOUS
 62
    4
 10
146.94169676666627
 20
70.535009233333341
 11
146.38385426666673
 21
70.323342733333448
  0
LINE
  8
_1-8_小物
  6
CONTINUOUS
 62
    4
 10
146.36359526666666
 20
70.101120133333325
 11
146.96388536666666
 21
70.313919733333478
  0
LINE
  8
_1-8_小物
  6
CONTINUOUS
 62
    4
 10
147.14918186666665
 20
70.206939433333218
 11
146.18026076666649
 21
69.995272033333322
  0
LINE
  8
_1-8_小物
  6
CONTINUOUS
 62
    4
 10
146.34526046666701
 20
69.900009733333292
 11
146.9841821666667
 21
70.111676233333355
  0
LINE
  8
_1-8_小物
  6
CONTINUOUS
 62
    4
 10
146.34526046666701
 20
69.900009733333292
 11
146.32451456666661
 21
69.672448333333278
  0
LINE
  8
_1-8_小物
  6
CONTINUOUS
 62
    4
 10
146.38385426666673
 20
70.323342733333448
 11
146.36359526666666
 21
70.101120133333325
  0
LINE
  8
_1-8_小物
  6
CONTINUOUS
 62
    4
 10
146.96388536666666
 20
70.313919733333478
 11
146.94169676666627
 21
70.535009233333341
  0
LINE
  8
_1-8_小物
  6
CONTINUOUS
 62
    4
 10
147.00809426666666
 20
69.873408433333225
 11
146.9841821666667
 21
70.111676233333355
  0
LINE
  8
_1-8_小物
  6
CONTINUOUS
 62
    4
 10
147.10669736666625
 20
70.630272433333204
 11
146.92139996666674
 21
70.737253633333239
  0
LINE
  8
_1-8_小物
  6
CONTINUOUS
 62
    4
 10
146.94169676666627
 20
70.535009233333341
 11
147.10669736666625
 21
70.630272433333204
  0
LINE
  8
_1-8_小物
  6
CONTINUOUS
 62
    4
 10
147.14918186666665
 20
70.206939433333218
 11
146.96388536666666
 21
70.313919733333478
  0
LINE
  8
_1-8_小物
  6
CONTINUOUS
 62
    4
 10
147.14918186666665
 20
70.206939433333218
 11
146.9841821666667
 21
70.111676233333355
  0
LINE
  8
_1-8_小物
  6
CONTINUOUS
 62
    4
 10
146.21885456666678
 20
70.418605933333311
 11
146.40218906666701
 21
70.524454033333342
  0
LINE
  8
_1-8_小物
  6
CONTINUOUS
 62
    4
 10
146.38385426666673
 20
70.323342733333448
 11
146.21885456666678
 21
70.418605933333311
  0
LINE
  8
_1-8_小物
  6
CONTINUOUS
 62
    4
 10
146.18026076666649
 20
69.995272033333322
 11
146.36359526666666
 21
70.101120133333325
  0
LINE
  8
_1-8_小物
  6
CONTINUOUS
 62
    4
 10
146.34526046666701
 20
69.900009733333292
 11
146.18026076666649
 21
69.995272033333322
  0
LINE
  8
_1-8_小物
  6
CONTINUOUS
 62
    4
 10
146.66666666666663
 20
71.473342933333271
 11
146.92139996666674
 21
70.737253633333239
  0
LINE
  8
_1-8_小物
  6
CONTINUOUS
 62
    4
 10
146.40218906666701
 20
70.524454033333342
 11
146.66666666666663
 21
71.473342933333271
  0
LINE
  8
_1-8_小物
  6
CONTINUOUS
 62
    4
 10
147.0266666666663
 20
67.926456433333243
 11
147.0266666666663
 21
67.762201933333245
  0
LINE
  8
_1-8_小物
  6
CONTINUOUS
 62
    4
 10
146.18872076666668
 20
67.905772633333328
 11
146.14166696666672
 21
67.878606133333278
  0
LINE
  8
_1-8_小物
  6
CONTINUOUS
 62
    4
 10
146.30666666666667
 20
67.783342933333415
 11
146.55871526666652
 21
67.857440833333413
  0
LINE
  8
_1-8_小物
  6
CONTINUOUS
 62
    4
 10
146.22177416666665
 20
67.894753933333078
 11
146.14166696666672
 21
67.878606133333278
  0
LINE
  8
_1-8_小物
  6
CENTER2
 62
    4
 10
146.66666666666663
 20
72.373342933333134
 11
146.66666666666663
 21
62.203333033333166
  0
ENDBLK
  0
BLOCK
  2
-020-_14_
 70
   64
 10
0
 20
0
 30
0
  0
ARC
  8
_1-8_小物
  6
CONTINUOUS
 62
    4
 10
72.099999999999909
 20
44.733345959718235
 40
0.0999999999999999
 50
90
 51
180
  0
ARC
  8
_1-8_小物
  6
CONTINUOUS
 62
    4
 10
71.333333333333258
 20
42.066679293051607
 40
0.1666666666666666
 50
270
 51
0
  0
ARC
  8
_1-8_小物
  6
CONTINUOUS
 62
    4
 10
71.333333333333258
 20
42.066679293051607
 40
0.6666666666666666
 50
270
 51
0
  0
ARC
  8
_1-8_小物
  6
CONTINUOUS
 62
    4
 10
71.999999999999886
 20
44.666679293051544
 40
0.5
 50
90
 51
180
  0
ARC
  8
_1-8_小物
  6
CONTINUOUS
 62
    4
 10
72.66665422836968
 20
42.71358498543475
 40
0.3333333333333333
 50
175.47574222621509
 51
265.47574222621506
  0
LINE
  8
_1-8_小物
  6
CONTINUOUS
 62
    4
 10
72.391785503129881
 20
44.833345959718258
 11
72.099999999999909
 21
44.833345959718258
  0
ARC
  8
_1-8_小物
  6
CONTINUOUS
 62
    4
 10
72.391785503129881
 20
44.733345959718235
 40
0.0999999999999999
 50
355.47574222620977
 51
90
  0
LINE
  8
_1-8_小物
  6
CONTINUOUS
 62
    4
 10
71.999999999999886
 20
42.066679293051607
 11
71.999999999999886
 21
44.733345959718235
  0
LINE
  8
_1-8_小物
  6
CONTINUOUS
 62
    4
 10
72.334359552859951
 20
42.739878705958802
 11
72.491473905782755
 21
44.725457843561031
  0
ARC
  8
_1-8_小物
  6
CONTINUOUS
 62
    4
 10
72.917666105593298
 20
42.927785653924786
 40
0.1666666666666666
 50
175.47574222623456
 51
265.47574222619556
  0
LINE
  8
_1-8_小物
  6
CONTINUOUS
 62
    4
 10
72.751518767838434
 20
42.940932514186784
 11
72.899180569636542
 21
44.807052239194263
  0
LINE
  8
_1-8_小物
  6
CONTINUOUS
 62
    4
 10
72.566885894126813
 20
45.166679293051544
 11
71.999999999999886
 21
45.166679293051544
  0
ARC
  8
_1-8_小物
  6
CONTINUOUS
 62
    4
 10
72.566885894126813
 20
44.833345959718258
 40
0.3333333333333333
 50
355.47574222621506
 51
90
  0
LINE
  8
_1-8_小物
  6
CONTINUOUS
 62
    4
 10
72.640360507845685
 20
42.381290309925021
 11
72.939425715804418
 21
42.357625961453437
  0
LINE
  8
_1-8_小物
  6
CONTINUOUS
 62
    4
 10
72.904519245331358
 20
42.761638316169922
 11
72.970978180433235
 21
42.756379572065157
  0
ARC
  8
_1-8_小物
  6
CONTINUOUS
 62
    4
 10
72.955201948118884
 20
42.557002766759211
 40
0.1999999999999963
 50
265.47574222621171
 51
85.475742226211707
  0
LINE
  8
_1-8_小物
  6
CONTINUOUS
 62
    4
 10
71.333333333333258
 20
44.166679293051544
 11
71.499999999999886
 21
44.333345959718258
  0
LINE
  8
_1-8_小物
  6
CONTINUOUS
 62
    4
 10
71.333333333333258
 20
44.166679293051544
 11
71.499999999999886
 21
44.000012626384944
  0
LINE
  8
_1-8_小物
  6
CONTINUOUS
 62
    4
 10
71.499999999999886
 20
42.066679293051607
 11
71.499999999999886
 21
44.000012626384944
  0
LINE
  8
_1-8_小物
  6
CONTINUOUS
 62
    4
 10
71.499999999999886
 20
44.333345959718258
 11
71.499999999999886
 21
44.666679293051544
  0
ARC
  8
_1-8_小物
  6
CONTINUOUS
 62
    4
 10
67.87466292678937
 20
42.312035102196319
 40
0.4999999999999946
 50
100.6398091980884
 51
260.6398091980854
  0
LINE
  8
_1-8_小物
  6
CONTINUOUS
 62
    4
 10
70.374265946711603
 20
41.900012626384893
 11
68.061188626304443
 21
42.281289107770704
  0
ARC
  8
_1-8_小物
  6
CONTINUOUS
 62
    4
 10
68.066609974670428
 20
42.314178621190763
 40
0.0333333333333333
 50
100.63980919817185
 51
260.63980919800883
  0
ARC
  8
_1-8_小物
  6
CONTINUOUS
 62
    4
 10
69.057013491761154
 20
42.788529741736852
 40
0.25
 50
280.63980919808779
 51
100.63980919808898
  0
LINE
  8
_1-8_小物
  6
CONTINUOUS
 62
    4
 10
69.010854928963795
 20
43.034231567290703
 11
67.782345801194651
 21
42.803438753303908
  0
LINE
  8
_1-8_小物
  6
CONTINUOUS
 62
    4
 10
70.333333333333258
 20
41.400012626384893
 11
67.793342701300276
 21
41.818692400895884
  0
LINE
  8
_1-8_小物
  6
CONTINUOUS
 62
    4
 10
69.103172054558513
 20
42.542827916183029
 11
68.060455499630734
 21
42.346938864597917
  0
LINE
  8
_1-8_小物
  6
CONTINUOUS
 62
    4
 10
71.333333333333258
 20
41.900012626384893
 11
70.374265946711603
 21
41.900012626384893
  0
LINE
  8
_1-8_小物
  6
CONTINUOUS
 62
    4
 10
71.333333333333258
 20
41.400012626384893
 11
70.333333333333258
 21
41.400012626384893
  0
ENDBLK
  0
BLOCK
  2
-021-_15_
 70
   64
 10
0
 20
0
 30
0
  0
ARC
  8
_1-8_小物
  6
CONTINUOUS
 62
    4
 10
-148.33333333333985
 20
60.966666666666697
 40
0.0999999999999999
 50
0
 51
90
  0
ARC
  8
_1-8_小物
  6
CONTINUOUS
 62
    4
 10
-151.00000000000651
 20
61.733333333333377
 40
0.1666666666666666
 50
180
 51
270
  0
ARC
  8
_1-8_小物
  6
CONTINUOUS
 62
    4
 10
-151.00000000000651
 20
61.733333333333377
 40
0.6666666666666666
 50
180
 51
270
  0
ARC
  8
_1-8_小物
  6
CONTINUOUS
 62
    4
 10
-148.40000000000651
 20
61.06666666666672
 40
0.5
 50
0
 51
90
  0
ARC
  8
_1-8_小物
  6
CONTINUOUS
 62
    4
 10
-150.35858951908781
 20
60.333334885430077
 40
0.3333333333333333
 50
82.777098219682259
 51
172.77709821968287
  0
LINE
  8
_1-8_小物
  6
CONTINUOUS
 62
    4
 10
-148.23333333333983
 20
60.513462596630688
 11
-148.23333333333983
 21
60.966666666666697
  0
LINE
  8
_1-8_小物
  6
CONTINUOUS
 62
    4
 10
-151.00000000000651
 20
61.06666666666672
 11
-148.33333333333985
 21
61.06666666666672
  0
LINE
  8
_1-8_小物
  6
CONTINUOUS
 62
    4
 10
-150.31667959136504
 20
60.664023060406691
 11
-148.34590631165668
 21
60.414256144137681
  0
ARC
  8
_1-8_小物
  6
CONTINUOUS
 62
    4
 10
-148.33333333333985
 20
60.513462596630688
 40
0.0999999999999999
 50
262.7770982196871
 51
0
  0
LINE
  8
_1-8_小物
  6
CONTINUOUS
 62
    4
 10
-147.90000000000651
 20
60.332789222591657
 11
-147.90000000000651
 21
61.06666666666672
  0
ARC
  8
_1-8_小物
  6
CONTINUOUS
 62
    4
 10
-148.23333333333983
 20
60.332789222591657
 40
0.3333333333333333
 50
262.77709821968227
 51
0
  0
LINE
  8
_1-8_小物
  6
CONTINUOUS
 62
    4
 10
-150.13548978214874
 20
60.237860301028775
 11
-148.2752432610626
 21
60.002101047615042
  0
ARC
  8
_1-8_小物
  6
CONTINUOUS
 62
    4
 10
-150.15644474601012
 20
60.072516213540467
 40
0.1666666666666666
 50
82.777098219682259
 51
172.77709821968224
  0
ARC
  8
_1-8_小物
  6
CONTINUOUS
 62
    4
 10
-150.52858372394729
 20
60.052479498852449
 40
0.1999999998953772
 50
172.77709820255109
 51
352.77709820255814
  0
LINE
  8
_1-8_小物
  6
CONTINUOUS
 62
    4
 10
-150.32178883349843
 20
60.093471177401852
 11
-150.33017081907263
 21
60.027333542172642
  0
LINE
  8
_1-8_小物
  6
CONTINUOUS
 62
    4
 10
-150.68927769406446
 20
60.375244813152818
 11
-150.72699662902957
 21
60.077625455558575
  0
LINE
  8
_1-8_小物
  6
CONTINUOUS
 62
    4
 10
-148.90000000000651
 20
61.733333333333377
 11
-148.73333333333983
 21
61.56666666666672
  0
LINE
  8
_1-8_小物
  6
CONTINUOUS
 62
    4
 10
-148.90000000000651
 20
61.733333333333377
 11
-149.06666666667317
 21
61.56666666666672
  0
LINE
  8
_1-8_小物
  6
CONTINUOUS
 62
    4
 10
-149.56666666667317
 20
61.733333333333377
 11
-149.40000000000651
 21
61.56666666666672
  0
LINE
  8
_1-8_小物
  6
CONTINUOUS
 62
    4
 10
-149.56666666667317
 20
61.733333333333377
 11
-149.73333333333983
 21
61.56666666666672
  0
LINE
  8
_1-8_小物
  6
CONTINUOUS
 62
    4
 10
-151.00000000000651
 20
61.56666666666672
 11
-149.73333333333983
 21
61.56666666666672
  0
LINE
  8
_1-8_小物
  6
CONTINUOUS
 62
    4
 10
-149.40000000000651
 20
61.56666666666672
 11
-149.06666666667317
 21
61.56666666666672
  0
LINE
  8
_1-8_小物
  6
CONTINUOUS
 62
    4
 10
-148.73333333333983
 20
61.56666666666672
 11
-148.40000000000651
 21
61.56666666666672
  0
ARC
  8
_1-8_小物
  6
CONTINUOUS
 62
    4
 10
-150.75464419086182
 20
65.19200373987718
 40
0.4999999999999946
 50
10.639809198087802
 51
170.63980919808486
  0
LINE
  8
_1-8_小物
  6
CONTINUOUS
 62
    4
 10
-151.16666666667317
 20
62.692400719955003
 11
-150.78539018528738
 21
65.005478040362107
  0
ARC
  8
_1-8_小物
  6
CONTINUOUS
 62
    4
 10
-150.75250067186738
 20
65.000056691996178
 40
0.0333333333333333
 50
10.639809198066793
 51
170.63980919809725
  0
ARC
  8
_1-8_小物
  6
CONTINUOUS
 62
    4
 10
-150.27814955132123
 20
64.009653174905452
 40
0.25
 50
190.63980919808657
 51
10.639809198075
  0
LINE
  8
_1-8_小物
  6
CONTINUOUS
 62
    4
 10
-150.03244772576741
 20
64.055811737702754
 11
-150.26324053975418
 21
65.284320865471898
  0
LINE
  8
_1-8_小物
  6
CONTINUOUS
 62
    4
 10
-151.66666666667317
 20
62.733333333333377
 11
-151.24798689216226
 21
65.273323965366274
  0
LINE
  8
_1-8_小物
  6
CONTINUOUS
 62
    4
 10
-150.52385137687506
 20
63.963494612108036
 11
-150.7197404284602
 21
65.006211167035815
  0
LINE
  8
_1-8_小物
  6
CONTINUOUS
 62
    4
 10
-151.16666666667317
 20
61.733333333333377
 11
-151.16666666667317
 21
62.692400719955003
  0
LINE
  8
_1-8_小物
  6
CONTINUOUS
 62
    4
 10
-151.66666666667317
 20
61.733333333333377
 11
-151.66666666667317
 21
62.733333333333377
  0
ENDBLK
  0
BLOCK
  2
-022-_16_
 70
   64
 10
0
 20
0
 30
0
  0
ARC
  8
_1-8_小物
  6
CONTINUOUS
 62
    4
 10
-48.333333333326863
 20
60.966666666666697
 40
0.0999999999999999
 50
90
 51
180
  0
ARC
  8
_1-8_小物
  6
CONTINUOUS
 62
    4
 10
-45.666666666660177
 20
61.733333333333377
 40
0.1666666666666666
 50
270
 51
0
  0
ARC
  8
_1-8_小物
  6
CONTINUOUS
 62
    4
 10
-45.666666666660177
 20
61.733333333333377
 40
0.6666666666666666
 50
270
 51
0
  0
ARC
  8
_1-8_小物
  6
CONTINUOUS
 62
    4
 10
-48.2666666666602
 20
61.06666666666672
 40
0.5
 50
90
 51
180
  0
ARC
  8
_1-8_小物
  6
CONTINUOUS
 62
    4
 10
-46.308077147578871
 20
60.333334885430077
 40
0.3333333333333333
 50
7.22290178031714
 51
97.222901780317756
  0
LINE
  8
_1-8_小物
  6
CONTINUOUS
 62
    4
 10
-48.433333333326857
 20
60.513462596630688
 11
-48.433333333326857
 21
60.966666666666697
  0
LINE
  8
_1-8_小物
  6
CONTINUOUS
 62
    4
 10
-45.666666666660177
 20
61.06666666666672
 11
-48.333333333326863
 21
61.06666666666672
  0
LINE
  8
_1-8_小物
  6
CONTINUOUS
 62
    4
 10
-46.349987075301641
 20
60.664023060406691
 11
-48.320760355010037
 21
60.414256144137681
  0
ARC
  8
_1-8_小物
  6
CONTINUOUS
 62
    4
 10
-48.333333333326863
 20
60.513462596630688
 40
0.0999999999999999
 50
180
 51
277.2229017803129
  0
LINE
  8
_1-8_小物
  6
CONTINUOUS
 62
    4
 10
-48.7666666666602
 20
60.332789222591657
 11
-48.7666666666602
 21
61.06666666666672
  0
ARC
  8
_1-8_小物
  6
CONTINUOUS
 62
    4
 10
-48.433333333326857
 20
60.332789222591657
 40
0.3333333333333333
 50
180
 51
277.22290178031773
  0
LINE
  8
_1-8_小物
  6
CONTINUOUS
 62
    4
 10
-46.531176884517976
 20
60.237860301028775
 11
-48.391423405604058
 21
60.002101047615042
  0
ARC
  8
_1-8_小物
  6
CONTINUOUS
 62
    4
 10
-46.510221920656562
 20
60.072516213540467
 40
0.1666666666666666
 50
7.2229017803177538
 51
97.222901780317741
  0
ARC
  8
_1-8_小物
  6
CONTINUOUS
 62
    4
 10
-46.138082942719365
 20
60.052479498852449
 40
0.1999999998953772
 50
187.22290179744081
 51
7.2229017974489125
  0
LINE
  8
_1-8_小物
  6
CONTINUOUS
 62
    4
 10
-46.344877833168255
 20
60.093471177401852
 11
-46.336495847594023
 21
60.027333542172642
  0
LINE
  8
_1-8_小物
  6
CONTINUOUS
 62
    4
 10
-45.977388972602228
 20
60.375244813152818
 11
-45.939670037637114
 21
60.077625455558575
  0
LINE
  8
_1-8_小物
  6
CONTINUOUS
 62
    4
 10
-47.7666666666602
 20
61.733333333333377
 11
-47.933333333326857
 21
61.56666666666672
  0
LINE
  8
_1-8_小物
  6
CONTINUOUS
 62
    4
 10
-47.7666666666602
 20
61.733333333333377
 11
-47.599999999993514
 21
61.56666666666672
  0
LINE
  8
_1-8_小物
  6
CONTINUOUS
 62
    4
 10
-47.099999999993514
 20
61.733333333333377
 11
-47.2666666666602
 21
61.56666666666672
  0
LINE
  8
_1-8_小物
  6
CONTINUOUS
 62
    4
 10
-47.099999999993514
 20
61.733333333333377
 11
-46.933333333326857
 21
61.56666666666672
  0
LINE
  8
_1-8_小物
  6
CONTINUOUS
 62
    4
 10
-45.666666666660177
 20
61.56666666666672
 11
-46.933333333326857
 21
61.56666666666672
  0
LINE
  8
_1-8_小物
  6
CONTINUOUS
 62
    4
 10
-47.2666666666602
 20
61.56666666666672
 11
-47.599999999993514
 21
61.56666666666672
  0
LINE
  8
_1-8_小物
  6
CONTINUOUS
 62
    4
 10
-47.933333333326857
 20
61.56666666666672
 11
-48.2666666666602
 21
61.56666666666672
  0
ARC
  8
_1-8_小物
  6
CONTINUOUS
 62
    4
 10
-45.912022475804889
 20
65.19200373987718
 40
0.4999999999999946
 50
9.360190801915131
 51
169.36019080191218
  0
LINE
  8
_1-8_小物
  6
CONTINUOUS
 62
    4
 10
-45.499999999993491
 20
62.692400719955003
 11
-45.881276481379302
 21
65.005478040362107
  0
ARC
  8
_1-8_小物
  6
CONTINUOUS
 62
    4
 10
-45.914165994799333
 20
65.000056691996178
 40
0.0333333333333333
 50
9.3601908018947881
 51
169.36019080193321
  0
ARC
  8
_1-8_小物
  6
CONTINUOUS
 62
    4
 10
-46.388517115345451
 20
64.009653174905452
 40
0.25
 50
169.36019080192622
 51
349.36019080191221
  0
LINE
  8
_1-8_小物
  6
CONTINUOUS
 62
    4
 10
-46.634218940899274
 20
64.055811737702754
 11
-46.403426126912535
 21
65.284320865471898
  0
LINE
  8
_1-8_小物
  6
CONTINUOUS
 62
    4
 10
-44.999999999993491
 20
62.733333333333377
 11
-45.418679774504454
 21
65.273323965366274
  0
LINE
  8
_1-8_小物
  6
CONTINUOUS
 62
    4
 10
-46.142815289791628
 20
63.963494612108036
 11
-45.946926238206487
 21
65.006211167035815
  0
LINE
  8
_1-8_小物
  6
CONTINUOUS
 62
    4
 10
-45.499999999993491
 20
61.733333333333377
 11
-45.499999999993491
 21
62.692400719955003
  0
LINE
  8
_1-8_小物
  6
CONTINUOUS
 62
    4
 10
-44.999999999993491
 20
61.733333333333377
 11
-44.999999999993491
 21
62.733333333333377
  0
ENDBLK
  0
BLOCK
  2
-023-_17_
 70
   64
 10
0
 20
0
 30
0
  0
LINE
  8
_1-8_小物
  6
CONTINUOUS
 62
    4
 10
69.366666666666561
 20
57.833333333332973
 11
69.366666666666561
 21
51.833333333333655
  0
LINE
  8
_1-8_小物
  6
CONTINUOUS
 62
    4
 10
69.366666666666561
 20
51.833333333333655
 11
68.866666666666447
 21
51.833333333333655
  0
ARC
  8
_1-8_小物
  6
CONTINUOUS
 62
    4
 10
68.733333830861397
 20
54.833333333333314
 40
1.5999999999998398
 50
324.29996100000506
 51
0
  0
ARC
  8
_1-8_小物
  6
CONTINUOUS
 62
    4
 10
69.382999830861422
 20
55.300166333333379
 40
0.7999999999999201
 50
35.70005899999191
 51
91.169858000005419
  0
ARC
  8
_1-8_小物
  6
CONTINUOUS
 62
    4
 10
68.733333830861397
 20
54.833333333333314
 40
1.5999999999998398
 50
0
 51
35.700039000000658
  0
ARC
  8
_1-8_小物
  6
CONTINUOUS
 62
    4
 10
69.382999830861422
 20
54.366500333333249
 40
0.7999999999999201
 50
268.83014199999451
 51
324.29994100000806
  0
LINE
  8
_1-8_小物
  6
CONTINUOUS
 62
    4
 10
69.366666666666561
 20
57.833333333332973
 11
68.866666666666447
 21
57.833333333332973
  0
LINE
  8
_1-8_小物
  6
CONTINUOUS
 62
    4
 10
68.866666666666447
 20
57.833333333332973
 11
68.866666666666447
 21
51.833333333333655
  0
LINE
  8
_1-8_小物
  6
CONTINUOUS
 62
    4
 10
69.366666666666447
 20
53.916666666666003
 11
68.866666666666447
 21
53.916666666666003
  0
LINE
  8
_1-8_小物
  6
CONTINUOUS
 62
    4
 10
69.366666666666447
 20
55.749999999999659
 11
68.866666666666447
 21
55.749999999999659
  0
ENDBLK
  0
BLOCK
  2
-024-_18_
 70
   64
 10
0
 20
0
 30
0
  0
LINE
  8
_1-8_小物
  6
CONTINUOUS
 62
    4
 10
66.284244333333163
 20
53.2527483333335
 11
64.633239333333222
 21
53.488606333333507
  0
LINE
  8
_1-8_小物
  6
CONTINUOUS
 62
    4
 10
63.383239333334359
 20
53.677524333333565
 11
64.547734333334461
 21
53.253683333333527
  0
LINE
  8
_1-8_小物
  6
CONTINUOUS
 62
    4
 10
64.547734333334461
 20
53.253683333333527
 11
66.248639333333358
 21
53.00559433333359
  0
ARC
  8
_1-8_小物
  6
CONTINUOUS
 62
    4
 10
66.27010233333317
 20
53.153753333333441
 40
0.0999999999999899
 50
351.86989799997593
 51
81.86989800004045
  0
LINE
  8
_1-8_小物
  6
CONTINUOUS
 62
    4
 10
66.362067333333243
 20
53.090405333333649
 11
66.369096333333459
 21
53.139611333333562
  0
ARC
  8
_1-8_小物
  6
CONTINUOUS
 62
    4
 10
66.263072333333184
 20
53.104547333333528
 40
0.0999999999999899
 50
261.7015340000263
 51
351.86989800004045
  0
LINE
  8
_1-8_小物
  6
CONTINUOUS
 62
    4
 10
59.13906333333432
 20
56.211564333333115
 11
58.613580333334312
 21
55.7384183333333
  0
LINE
  8
_1-8_小物
  6
CONTINUOUS
 62
    4
 10
58.593954333334409
 20
55.363937333333354
 11
66.333333333333371
 21
54.958333333333428
  0
LINE
  8
_1-8_小物
  6
CONTINUOUS
 62
    4
 10
59.13906333333432
 20
56.211569333333102
 11
58.613580333334312
 21
55.738423333333287
  0
LINE
  8
_1-8_小物
  6
CONTINUOUS
 62
    4
 10
58.593954333334409
 20
54.302729333333275
 11
66.333333333333371
 21
54.708333333333314
  0
LINE
  8
_1-8_小物
  6
CONTINUOUS
 62
    4
 10
59.13906333333432
 20
53.455096333333529
 11
58.613580333334312
 21
53.928243333333342
  0
LINE
  8
_1-8_小物
  6
CONTINUOUS
 62
    4
 10
66.284244333333163
 20
56.413918333333129
 11
64.633239333333222
 21
56.178060333333121
  0
LINE
  8
_1-8_小物
  6
CONTINUOUS
 62
    4
 10
64.547734333334461
 20
56.412983333333329
 11
66.248639333333358
 21
56.661072333333266
  0
LINE
  8
_1-8_小物
  6
CONTINUOUS
 62
    4
 10
65.104672333334292
 20
55.398239333333379
 11
64.605358333334266
 21
55.424407333333136
  0
LINE
  8
_1-8_小物
  6
CONTINUOUS
 62
    4
 10
65.104672333334292
 20
54.26842733333325
 11
64.605358333334266
 21
54.242259333333493
  0
LINE
  8
_1-8_小物
  6
CONTINUOUS
 62
    4
 10
68.333333333333258
 20
55.833333333333087
 11
65.333333333333258
 21
55.833333333333087
  0
LINE
  8
_1-8_小物
  6
CONTINUOUS
 62
    4
 10
68.333333333333258
 20
53.833333333333428
 11
65.333333333333258
 21
53.833333333333428
  0
ARC
  8
_1-8_小物
  6
CONTINUOUS
 62
    4
 10
66.27010233333317
 20
56.512913333333188
 40
0.0999999999999899
 50
278.13010199995955
 51
8.1301020000240669
  0
LINE
  8
_1-8_小物
  6
CONTINUOUS
 62
    4
 10
66.362067333333243
 20
56.576261333333207
 11
66.369096333333459
 21
56.527055333333294
  0
ARC
  8
_1-8_小物
  6
CONTINUOUS
 62
    4
 10
66.263072333333184
 20
56.562119333333328
 40
0.0999999999999899
 50
8.1301019999595656
 51
98.298465999971356
  0
LINE
  8
_1-8_小物
  6
CONTINUOUS
 62
    4
 10
66.333333333333371
 20
54.958333333333428
 11
66.333333333333371
 21
54.833333333333314
  0
LINE
  8
_1-8_小物
  6
CONTINUOUS
 62
    4
 10
68.333333333333258
 20
56.083333333333201
 11
67.083333333333371
 21
55.833333333333087
  0
LINE
  8
_1-8_小物
  6
CONTINUOUS
 62
    4
 10
68.333333333333258
 20
55.083333333333314
 11
67.083333333333371
 21
54.833333333333314
  0
LINE
  8
_1-8_小物
  6
CONTINUOUS
 62
    4
 10
68.333333333333258
 20
54.583333333333428
 11
67.083333333333371
 21
54.833333333333314
  0
LINE
  8
_1-8_小物
  6
CONTINUOUS
 62
    4
 10
67.083333333333371
 20
54.833333333333314
 11
68.333333333333258
 21
54.833333333333314
  0
LINE
  8
_1-8_小物
  6
CONTINUOUS
 62
    4
 10
66.333333333333371
 20
54.708333333333314
 11
66.333333333333371
 21
54.833333333333314
  0
LINE
  8
_1-8_小物
  6
CONTINUOUS
 62
    4
 10
68.333333333333258
 20
53.583333333333428
 11
67.083333333333371
 21
53.833333333333428
  0
LINE
  8
_1-8_小物
  6
CONTINUOUS
 62
    4
 10
65.333333333333258
 20
55.833333333333087
 11
65.104672333334292
 21
55.398239333333379
  0
LINE
  8
_1-8_小物
  6
CONTINUOUS
 62
    4
 10
65.333333333333258
 20
53.833333333333428
 11
65.104672333334292
 21
54.26842733333325
  0
LINE
  8
_1-8_小物
  6
CONTINUOUS
 62
    4
 10
59.333333333334281
 20
54.833333333333314
 11
59.800694698606435
 21
54.36597196806116
  0
LINE
  8
_1-8_小物
  6
CONTINUOUS
 62
    4
 10
63.369025370797431
 20
55.717923871703363
 11
64.633239333333222
 21
56.178060333333121
  0
LINE
  8
_1-8_小物
  6
CONTINUOUS
 62
    4
 10
63.369025370797431
 20
53.948742794963493
 11
64.633239333333222
 21
53.488606333333507
  0
LINE
  8
_1-8_小物
  6
CONTINUOUS
 62
    4
 10
59.09326933333432
 20
55.337769333333256
 11
59.13906333333432
 21
56.211569333333102
  0
LINE
  8
_1-8_小物
  6
CONTINUOUS
 62
    4
 10
60.886665333334349
 20
56.119982333333326
 11
60.387350333334439
 21
56.146150333333196
  0
LINE
  8
_1-8_小物
  6
CONTINUOUS
 62
    4
 10
59.09326933333432
 20
54.328897333333373
 11
59.13906333333432
 21
53.455096333333529
  0
LINE
  8
_1-8_小物
  6
CONTINUOUS
 62
    4
 10
60.886665333334349
 20
53.546684333333531
 11
60.387350333334439
 21
53.520516333333433
  0
LINE
  8
_1-8_小物
  6
CONTINUOUS
 62
    4
 10
59.80069433333415
 20
55.300694333333297
 11
59.333333333334281
 21
54.833333333333314
  0
LINE
  8
_1-8_小物
  6
CONTINUOUS
 62
    4
 10
59.612210333334474
 20
55.686087333333319
 11
59.638378333334231
 21
56.185401333333232
  0
LINE
  8
_1-8_小物
  6
CONTINUOUS
 62
    4
 10
60.111525333334157
 20
55.659919333333335
 11
59.612210333334474
 21
55.686087333333319
  0
LINE
  8
_1-8_小物
  6
CONTINUOUS
 62
    4
 10
60.387350333334439
 20
56.146150333333196
 11
60.111525333334157
 21
55.659919333333335
  0
LINE
  8
_1-8_小物
  6
CONTINUOUS
 62
    4
 10
59.638378333334231
 20
56.185401333333232
 11
59.13906333333432
 21
56.211569333333102
  0
LINE
  8
_1-8_小物
  6
CONTINUOUS
 62
    4
 10
59.612210333334474
 20
53.980579333333424
 11
59.638378333334231
 21
53.481264333333513
  0
LINE
  8
_1-8_小物
  6
CONTINUOUS
 62
    4
 10
60.111525333334157
 20
54.006747333333294
 11
59.612210333334474
 21
53.980579333333424
  0
LINE
  8
_1-8_小物
  6
CONTINUOUS
 62
    4
 10
60.387350333334439
 20
53.520516333333433
 11
60.111525333334157
 21
54.006747333333294
  0
LINE
  8
_1-8_小物
  6
CONTINUOUS
 62
    4
 10
59.638378333334231
 20
53.481264333333513
 11
59.13906333333432
 21
53.455096333333529
  0
LINE
  8
_1-8_小物
  6
CONTINUOUS
 62
    4
 10
63.383239333334359
 20
55.989142333333291
 11
64.547734333334461
 21
56.412983333333329
  0
LINE
  8
_1-8_小物
  6
CONTINUOUS
 62
    4
 10
64.605358333334266
 20
55.424407333333136
 11
64.631526333334364
 21
55.923722333333046
  0
LINE
  8
_1-8_小物
  6
CONTINUOUS
 62
    4
 10
64.631526333334364
 20
55.923722333333046
 11
64.132211333334226
 21
55.949890333333371
  0
LINE
  8
_1-8_小物
  6
CONTINUOUS
 62
    4
 10
63.357071333334261
 20
55.48982733333338
 11
63.383239333334359
 21
55.989142333333291
  0
LINE
  8
_1-8_小物
  6
CONTINUOUS
 62
    4
 10
63.856385333334174
 20
55.463659333333283
 11
63.357071333334261
 21
55.48982733333338
  0
LINE
  8
_1-8_小物
  6
CONTINUOUS
 62
    4
 10
64.132211333334226
 20
55.949890333333371
 11
63.856385333334174
 21
55.463659333333283
  0
LINE
  8
_1-8_小物
  6
CONTINUOUS
 62
    4
 10
63.383239333334359
 20
55.989142333333291
 11
62.883924333334335
 21
56.015310333333048
  0
LINE
  8
_1-8_小物
  6
CONTINUOUS
 62
    4
 10
62.10878433333437
 20
55.555247333333284
 11
62.13495233333424
 21
56.054562333333195
  0
LINE
  8
_1-8_小物
  6
CONTINUOUS
 62
    4
 10
62.608098333334283
 20
55.529079333333186
 11
62.10878433333437
 21
55.555247333333284
  0
LINE
  8
_1-8_小物
  6
CONTINUOUS
 62
    4
 10
62.883924333334335
 20
56.015310333333048
 11
62.608098333334283
 21
55.529079333333186
  0
LINE
  8
_1-8_小物
  6
CONTINUOUS
 62
    4
 10
62.13495233333424
 20
56.054562333333195
 11
61.635637333334216
 21
56.080730333333292
  0
LINE
  8
_1-8_小物
  6
CONTINUOUS
 62
    4
 10
60.860497333334251
 20
55.620667333333188
 11
60.886665333334349
 21
56.119982333333326
  0
LINE
  8
_1-8_小物
  6
CONTINUOUS
 62
    4
 10
61.359812333334276
 20
55.594499333333317
 11
60.860497333334251
 21
55.620667333333188
  0
LINE
  8
_1-8_小物
  6
CONTINUOUS
 62
    4
 10
61.635637333334216
 20
56.080730333333292
 11
61.359812333334276
 21
55.594499333333317
  0
LINE
  8
_1-8_小物
  6
CONTINUOUS
 62
    4
 10
64.605358333334266
 20
54.242259333333493
 11
64.631526333334364
 21
53.742944333333242
  0
LINE
  8
_1-8_小物
  6
CONTINUOUS
 62
    4
 10
64.631526333334364
 20
53.742944333333242
 11
64.132211333334226
 21
53.716776333333485
  0
LINE
  8
_1-8_小物
  6
CONTINUOUS
 62
    4
 10
63.357071333334261
 20
54.176839333333248
 11
63.383239333334359
 21
53.677524333333565
  0
LINE
  8
_1-8_小物
  6
CONTINUOUS
 62
    4
 10
63.856385333334174
 20
54.203007333333346
 11
63.357071333334261
 21
54.176839333333248
  0
LINE
  8
_1-8_小物
  6
CONTINUOUS
 62
    4
 10
64.132211333334226
 20
53.716776333333485
 11
63.856385333334174
 21
54.203007333333346
  0
LINE
  8
_1-8_小物
  6
CONTINUOUS
 62
    4
 10
63.383239333334359
 20
53.677524333333565
 11
62.883924333334335
 21
53.651356333333581
  0
LINE
  8
_1-8_小物
  6
CONTINUOUS
 62
    4
 10
62.10878433333437
 20
54.111419333333345
 11
62.13495233333424
 21
53.612104333333434
  0
LINE
  8
_1-8_小物
  6
CONTINUOUS
 62
    4
 10
62.608098333334283
 20
54.137587333333443
 11
62.10878433333437
 21
54.111419333333345
  0
LINE
  8
_1-8_小物
  6
CONTINUOUS
 62
    4
 10
62.883924333334335
 20
53.651356333333581
 11
62.608098333334283
 21
54.137587333333443
  0
LINE
  8
_1-8_小物
  6
CONTINUOUS
 62
    4
 10
62.13495233333424
 20
53.612104333333434
 11
61.635637333334216
 21
53.585936333333564
  0
LINE
  8
_1-8_小物
  6
CONTINUOUS
 62
    4
 10
60.860497333334251
 20
54.045999333333441
 11
60.886665333334349
 21
53.546684333333531
  0
LINE
  8
_1-8_小物
  6
CONTINUOUS
 62
    4
 10
61.359812333334276
 20
54.072167333333425
 11
60.860497333334251
 21
54.045999333333441
  0
LINE
  8
_1-8_小物
  6
CONTINUOUS
 62
    4
 10
61.635637333334216
 20
53.585936333333564
 11
61.359812333334276
 21
54.072167333333425
  0
LINE
  8
_1-8_小物
  6
CONTINUOUS
 62
    4
 10
58.613580333334312
 20
55.738423333333287
 11
58.593954333334409
 21
55.363937333333354
  0
LINE
  8
_1-8_小物
  6
CONTINUOUS
 62
    4
 10
58.613580333334312
 20
53.928243333333342
 11
58.593954333334409
 21
54.302729333333275
  0
LINE
  8
_1-8_小物
  6
CONTINUOUS
 62
    4
 10
68.333333333333258
 20
56.083333333333201
 11
68.333333333333258
 21
53.583333333333428
  0
ENDBLK
  0
BLOCK
  2
-025-_19_
 70
   64
 10
0
 20
0
 30
0
  0
ARC
  8
_1-8_小物
  6
CONTINUOUS
 62
    4
 10
151.66666666609501
 20
60.96666666666664
 40
0.0999999999999999
 50
90
 51
180.00000000001629
  0
ARC
  8
_1-8_小物
  6
CONTINUOUS
 62
    4
 10
154.3333333327617
 20
61.733333333333292
 40
0.1666666666666666
 50
270
 51
0
  0
ARC
  8
_1-8_小物
  6
CONTINUOUS
 62
    4
 10
154.3333333327617
 20
61.733333333333292
 40
0.6666666666666666
 50
270
 51
0
  0
ARC
  8
_1-8_小物
  6
CONTINUOUS
 62
    4
 10
151.73333333276173
 20
61.066666666666634
 40
0.5
 50
90
 51
180
  0
ARC
  8
_1-8_小物
  6
CONTINUOUS
 62
    4
 10
153.6864276403785
 20
60.400012438296869
 40
0.3333333333333333
 50
4.5242577737849174
 51
94.524257773784925
  0
LINE
  8
_1-8_小物
  6
CONTINUOUS
 62
    4
 10
151.56666666609499
 20
60.674881163536639
 11
151.56666666609499
 21
60.96666666666664
  0
ARC
  8
_1-8_小物
  6
CONTINUOUS
 62
    4
 10
151.66666666609501
 20
60.674881163536639
 40
0.0999999999999999
 50
180
 51
274.52425777380518
  0
LINE
  8
_1-8_小物
  6
CONTINUOUS
 62
    4
 10
154.3333333327617
 20
61.066666666666634
 11
151.66666666609501
 21
61.066666666666634
  0
LINE
  8
_1-8_小物
  6
CONTINUOUS
 62
    4
 10
153.66013391985445
 20
60.732307113806542
 11
151.67455478225224
 21
60.575192760883738
  0
ARC
  8
_1-8_小物
  6
CONTINUOUS
 62
    4
 10
153.47222697188846
 20
60.149000561073194
 40
0.1666666666666666
 50
4.5242577737849174
 51
94.524257773765441
  0
LINE
  8
_1-8_小物
  6
CONTINUOUS
 62
    4
 10
153.45908011162652
 20
60.315147898828087
 11
151.59296038661898
 21
60.167486097029979
  0
LINE
  8
_1-8_小物
  6
CONTINUOUS
 62
    4
 10
151.23333333276173
 20
60.499780772539708
 11
151.23333333276173
 21
61.066666666666634
  0
ARC
  8
_1-8_小物
  6
CONTINUOUS
 62
    4
 10
151.56666666609499
 20
60.499780772539708
 40
0.3333333333333333
 50
180
 51
274.52425777378494
  0
LINE
  8
_1-8_小物
  6
CONTINUOUS
 62
    4
 10
154.01872231588823
 20
60.426306158820836
 11
154.04238666435987
 21
60.127240950862074
  0
LINE
  8
_1-8_小物
  6
CONTINUOUS
 62
    4
 10
153.63837430964332
 20
60.162147421335192
 11
153.64363305374815
 21
60.095688486233286
  0
ARC
  8
_1-8_小物
  6
CONTINUOUS
 62
    4
 10
153.84300985905406
 20
60.111464718547666
 40
0.1999999999999963
 50
184.52425777378764
 51
4.5242577737889178
  0
LINE
  8
_1-8_小物
  6
CONTINUOUS
 62
    4
 10
152.23333333276173
 20
61.733333333333292
 11
152.06666666609499
 21
61.566666666666634
  0
LINE
  8
_1-8_小物
  6
CONTINUOUS
 62
    4
 10
152.23333333276173
 20
61.733333333333292
 11
152.3999999994283
 21
61.566666666666634
  0
LINE
  8
_1-8_小物
  6
CONTINUOUS
 62
    4
 10
154.3333333327617
 20
61.566666666666634
 11
152.3999999994283
 21
61.566666666666634
  0
LINE
  8
_1-8_小物
  6
CONTINUOUS
 62
    4
 10
152.06666666609499
 20
61.566666666666634
 11
151.73333333276173
 21
61.566666666666634
  0
ARC
  8
_1-8_小物
  6
CONTINUOUS
 62
    4
 10
154.08797752361698
 20
65.192003739877123
 40
0.4999999999999946
 50
9.3601908019146016
 51
169.36019080191218
  0
LINE
  8
_1-8_小物
  6
CONTINUOUS
 62
    4
 10
154.49999999942838
 20
62.692400719954918
 11
154.1187235180426
 21
65.00547804036205
  0
ARC
  8
_1-8_小物
  6
CONTINUOUS
 62
    4
 10
154.08583400462254
 20
65.000056691996093
 40
0.0333333333333333
 50
9.3601908019350457
 51
169.36019080189422
  0
ARC
  8
_1-8_小物
  6
CONTINUOUS
 62
    4
 10
153.61148288407639
 20
64.009653174905367
 40
0.25
 50
169.3601908019134
 51
349.3601908019134
  0
LINE
  8
_1-8_小物
  6
CONTINUOUS
 62
    4
 10
153.3657810585226
 20
64.055811737702726
 11
153.59657387250934
 21
65.284320865471841
  0
LINE
  8
_1-8_小物
  6
CONTINUOUS
 62
    4
 10
154.99999999942838
 20
62.733333333333292
 11
154.58132022491742
 21
65.273323965366217
  0
LINE
  8
_1-8_小物
  6
CONTINUOUS
 62
    4
 10
153.85718470963025
 20
63.963494612108008
 11
154.05307376121533
 21
65.006211167035758
  0
LINE
  8
_1-8_小物
  6
CONTINUOUS
 62
    4
 10
154.49999999942838
 20
61.733333333333292
 11
154.49999999942838
 21
62.692400719954918
  0
LINE
  8
_1-8_小物
  6
CONTINUOUS
 62
    4
 10
154.99999999942838
 20
61.733333333333292
 11
154.99999999942838
 21
62.733333333333292
  0
ENDBLK
  0
BLOCK
  2
-026-_20_
 70
   64
 10
0
 20
0
 30
0
  0
LINE
  8
_1-7_カバ__
  6
CENTER2
 62
    4
 10
85
 20
53.733333333333377
 11
85
 21
58.833333333333286
  0
LINE
  8
_1-7_カバ__
  6
CENTER2
 62
    4
 10
138.33333333276153
 20
53.733333333333377
 11
138.33333333276153
 21
58.833333333333286
  0
LINE
  8
_1-7_カバ__
  6
CONTINUOUS
 62
    4
 10
138.33333333276153
 20
56.47071067811865
 11
138.40404401088023
 21
56.400000000000006
  0
LINE
  8
_1-7_カバ__
  6
CONTINUOUS
 62
    4
 10
138.33333333276153
 20
56.47071067811865
 11
138.26262265464288
 21
56.400000000000006
  0
LINE
  8
_1-7_カバ__
  6
CONTINUOUS
 62
    4
 10
85
 20
56.47071067811865
 11
85.070710678118644
 21
56.400000000000006
  0
LINE
  8
_1-7_カバ__
  6
CONTINUOUS
 62
    4
 10
85
 20
56.47071067811865
 11
84.929289321881356
 21
56.400000000000006
  0
LINE
  8
_1-7_カバ__
  6
CONTINUOUS
 62
    4
 10
85.070710678118644
 20
56.400000000000006
 11
138.26262265464288
 21
56.400000000000006
  0
LINE
  8
_1-7_カバ__
  6
DASHED1
 62
    4
 10
85.75
 20
56.733333333333263
 11
86.083333333333258
 21
56.400000000000006
  0
LINE
  8
_1-7_カバ__
  6
DASHED1
 62
    4
 10
84.25
 20
56.733333333333263
 11
83.916666666666742
 21
56.400000000000006
  0
LINE
  8
_1-7_カバ__
  6
DASHED1
 62
    4
 10
84.25
 20
56.733333333333263
 11
85.75
 21
56.733333333333263
  0
LINE
  8
_1-7_カバ__
  6
DASHED1
 62
    4
 10
139.08333333276164
 20
56.733333333333263
 11
139.4166666660949
 21
56.400000000000006
  0
LINE
  8
_1-7_カバ__
  6
DASHED1
 62
    4
 10
137.58333333276164
 20
56.733333333333263
 11
137.24999999942827
 21
56.400000000000006
  0
LINE
  8
_1-7_カバ__
  6
DASHED1
 62
    4
 10
137.58333333276164
 20
56.733333333333263
 11
139.08333333276164
 21
56.733333333333263
  0
LINE
  8
_1-7_カバ__
  6
DASHED1
 62
    4
 10
139.08333333276164
 20
56.733333333333263
 11
139.08333333276164
 21
57.166666666666657
  0
LINE
  8
_1-7_カバ__
  6
DASHED1
 62
    4
 10
137.58333333276164
 20
56.733333333333263
 11
137.58333333276164
 21
57.166666666666657
  0
LINE
  8
_1-7_カバ__
  6
DASHED1
 62
    4
 10
85.75
 20
56.733333333333263
 11
85.75
 21
57.166666666666657
  0
LINE
  8
_1-7_カバ__
  6
DASHED1
 62
    4
 10
84.25
 20
56.733333333333263
 11
84.25
 21
57.166666666666657
  0
LINE
  8
_1-7_カバ__
  6
CONTINUOUS
 62
    4
 10
154.99999999942827
 20
61.066666666666634
 11
151.66666666609501
 21
61.066666666666634
  0
LINE
  8
_1-7_カバ__
  6
CONTINUOUS
 62
    4
 10
151.66666666609501
 20
61.066666666666634
 11
151.66666666609501
 21
60.566666666666634
  0
LINE
  8
_1-7_カバ__
  6
CONTINUOUS
 62
    4
 10
154.23333333276094
 20
60.566666666666634
 11
151.66666666609501
 21
60.566666666666634
  0
LINE
  8
_1-7_カバ__
  6
CONTINUOUS
 62
    4
 10
154.23333333276094
 20
60.566666666666634
 11
154.23333333276094
 21
57.166666666666657
  0
LINE
  8
_1-7_カバ__
  6
CONTINUOUS
 62
    4
 10
138.40404401088023
 20
56.400000000000006
 11
154.99999999942827
 21
56.400000000000006
  0
LINE
  8
_1-7_カバ__
  6
CONTINUOUS
 62
    4
 10
154.99999999942827
 20
61.066666666666634
 11
154.99999999942827
 21
56.400000000000006
  0
LINE
  8
_1-7_カバ__
  6
CONTINUOUS
 62
    4
 10
76.666666666666629
 20
56.400000000000006
 11
84.929289321881356
 21
56.400000000000006
  0
LINE
  8
_1-7_カバ__
  6
CONTINUOUS
 62
    4
 10
75.899999999999636
 20
57.166666666666657
 11
154.23333333276094
 21
57.166666666666657
  0
LINE
  8
_1-7_カバ__
  6
CONTINUOUS
 62
    4
 10
71.999999999999773
 20
41.400000000000006
 11
71.999999999999773
 21
44.733333333333377
  0
LINE
  8
_1-7_カバ__
  6
CONTINUOUS
 62
    4
 10
71.999999999999773
 20
44.733333333333377
 11
72.5
 21
44.733333333333377
  0
LINE
  8
_1-7_カバ__
  6
CONTINUOUS
 62
    4
 10
72.5
 20
42.166666666666657
 11
72.5
 21
44.733333333333377
  0
LINE
  8
_1-7_カバ__
  6
CONTINUOUS
 62
    4
 10
72.5
 20
42.166666666666657
 11
75.899999999999636
 21
42.166666666666657
  0
LINE
  8
_1-7_カバ__
  6
CONTINUOUS
 62
    4
 10
75.899999999999636
 20
42.166666666666657
 11
75.899999999999636
 21
57.166666666666657
  0
LINE
  8
_1-7_カバ__
  6
CONTINUOUS
 62
    4
 10
71.999999999999773
 20
41.400000000000006
 11
76.666666666666629
 21
41.400000000000006
  0
LINE
  8
_1-7_カバ__
  6
CONTINUOUS
 62
    4
 10
76.666666666666629
 20
41.400000000000006
 11
76.666666666666629
 21
56.400000000000006
  0
ENDBLK
  0
BLOCK
  2
-027-_21_
 70
   64
 10
0
 20
0
 30
0
  0
LINE
  8
_0-0_図面枠
  6
CONTINUOUS
 62
    7
 10
-24.810007453201877
 20
116.25002701811366
 11
-24.279677367301872
 21
116.55618006006364
  0
LINE
  8
_0-0_図面枠
  6
CONTINUOUS
 62
    7
 10
-25.715874111051846
 20
118.20168690416364
 11
-24.810007453201877
 21
116.25002701811366
  0
LINE
  8
_0-0_図面枠
  6
CONTINUOUS
 62
    7
 10
-22.335133719051839
 20
117.67874121381362
 11
-25.715874111051846
 21
118.20168690416364
  0
LINE
  8
_0-0_図面枠
  6
CONTINUOUS
 62
    7
 10
-22.865463804951844
 20
117.37258817186364
 11
-22.335133719051839
 21
117.67874121381362
  0
LINE
  8
_0-0_図面枠
  6
CONTINUOUS
 62
    7
 10
-18.269269727201845
 20
114.71926180846367
 11
-22.865463804951844
 21
117.37258817186364
  0
LINE
  8
_0-0_図面枠
  6
CONTINUOUS
 62
    7
 10
-13.673075649501868
 20
117.37258817186364
 11
-18.269269727201845
 21
114.71926180846367
  0
LINE
  8
_0-0_図面枠
  6
CONTINUOUS
 62
    7
 10
-14.203405735401873
 20
117.67874121381362
 11
-13.673075649501868
 21
117.37258817186364
  0
LINE
  8
_0-0_図面枠
  6
CONTINUOUS
 62
    7
 10
-10.822665343401866
 20
118.20168690416364
 11
-14.203405735401873
 21
117.67874121381362
  0
LINE
  8
_0-0_図面枠
  6
CONTINUOUS
 62
    7
 10
-11.728532001251835
 20
116.25002701811366
 11
-10.822665343401866
 21
118.20168690416364
  0
LINE
  8
_0-0_図面枠
  6
CONTINUOUS
 62
    7
 10
-12.25886208715184
 20
116.55618006006364
 11
-11.728532001251835
 21
116.25002701811366
  0
LINE
  8
_0-0_図面枠
  6
CONTINUOUS
 62
    7
 10
-16.855056164851874
 20
113.90285369661365
 11
-12.25886208715184
 21
116.55618006006364
  0
LINE
  8
_0-0_図面枠
  6
CONTINUOUS
 62
    7
 10
-12.25886208715184
 20
111.24952733321368
 11
-16.855056164851874
 21
113.90285369661365
  0
LINE
  8
_0-0_図面枠
  6
CONTINUOUS
 62
    7
 10
-11.728532001251835
 20
111.55568037516366
 11
-12.25886208715184
 21
111.24952733321368
  0
LINE
  8
_0-0_図面枠
  6
CONTINUOUS
 62
    7
 10
-10.822665343401866
 20
109.60402048906366
 11
-11.728532001251835
 21
111.55568037516366
  0
LINE
  8
_0-0_図面枠
  6
CONTINUOUS
 62
    7
 10
-14.203405735401873
 20
110.12696617946364
 11
-10.822665343401866
 21
109.60402048906366
  0
LINE
  8
_0-0_図面枠
  6
CONTINUOUS
 62
    7
 10
-13.673075649501868
 20
110.43311922141368
 11
-14.203405735401873
 21
110.12696617946364
  0
LINE
  8
_0-0_図面枠
  6
CONTINUOUS
 62
    7
 10
-18.269269727201845
 20
113.08644558481365
 11
-13.673075649501868
 21
110.43311922141368
  0
LINE
  8
_0-0_図面枠
  6
CONTINUOUS
 62
    7
 10
-22.865463804951844
 20
110.43311922141368
 11
-18.269269727201845
 21
113.08644558481365
  0
LINE
  8
_0-0_図面枠
  6
CONTINUOUS
 62
    7
 10
-22.335133719051839
 20
110.12696617946364
 11
-22.865463804951844
 21
110.43311922141368
  0
LINE
  8
_0-0_図面枠
  6
CONTINUOUS
 62
    7
 10
-25.715874111051846
 20
109.60402048906366
 11
-22.335133719051839
 21
110.12696617946364
  0
LINE
  8
_0-0_図面枠
  6
CONTINUOUS
 62
    7
 10
-24.810007453201877
 20
111.55568037516366
 11
-25.715874111051846
 21
109.60402048906366
  0
LINE
  8
_0-0_図面枠
  6
CONTINUOUS
 62
    7
 10
-24.279677367301872
 20
111.24952733321368
 11
-24.810007453201877
 21
111.55568037516366
  0
LINE
  8
_0-0_図面枠
  6
CONTINUOUS
 62
    7
 10
-19.683483289601838
 20
113.90285369661365
 11
-24.279677367301872
 21
111.24952733321368
  0
LINE
  8
_0-0_図面枠
  6
CONTINUOUS
 62
    7
 10
-24.279677367301872
 20
116.55618006006364
 11
-19.683483289601838
 21
113.90285369661365
  0
LINE
  8
_0-0_図面枠
  6
CONTINUOUS
 62
    7
 10
-10.822665343401866
 20
118.20168690416364
 11
-10.822665343401866
 21
118.81409251311368
  0
LINE
  8
_0-0_図面枠
  6
CONTINUOUS
 62
    7
 10
-14.203405735401873
 20
117.67874121381362
 11
-14.203405735401873
 21
118.29114682271364
  0
LINE
  8
_0-0_図面枠
  6
CONTINUOUS
 62
    7
 10
-10.822665343401866
 20
118.81409251311368
 11
-14.203405735401873
 21
118.29114682271364
  0
LINE
  8
_0-0_図面枠
  6
CONTINUOUS
 62
    7
 10
-22.335133719051839
 20
117.67874121381362
 11
-22.335133719051839
 21
118.29114682271364
  0
LINE
  8
_0-0_図面枠
  6
CONTINUOUS
 62
    7
 10
-25.715874111051846
 20
118.20168690416364
 11
-25.715874111051846
 21
118.81409251311368
  0
LINE
  8
_0-0_図面枠
  6
CONTINUOUS
 62
    7
 10
-22.335133719051839
 20
118.29114682271364
 11
-25.715874111051846
 21
118.81409251311368
  0
LINE
  8
_0-0_図面枠
  6
CONTINUOUS
 62
    7
 10
-18.269269727201845
 20
114.71926180846367
 11
-18.269269727201845
 21
115.33166741736363
  0
LINE
  8
_0-0_図面枠
  6
CONTINUOUS
 62
    7
 10
-14.203405735401873
 20
117.67884073886364
 11
-18.269269727201845
 21
115.33166741736363
  0
LINE
  8
_0-0_図面枠
  6
CONTINUOUS
 62
    7
 10
-18.269269727201845
 20
115.33166741736363
 11
-22.335133719051839
 21
117.67884073886364
  0
LINE
  8
_0-0_図面枠
  6
CONTINUOUS
 62
    7
 10
-12.25886208715184
 20
111.24952733321368
 11
-12.25886208715184
 21
111.86193294211364
  0
LINE
  8
_0-0_図面枠
  6
CONTINUOUS
 62
    7
 10
-12.25886208715184
 20
111.86193294211364
 11
-16.324639878401854
 21
114.20905650111365
  0
LINE
  8
_0-0_図面枠
  6
CONTINUOUS
 62
    7
 10
-24.279677367301872
 20
111.24952733321368
 11
-24.279677367301872
 21
111.86193294211364
  0
LINE
  8
_0-0_図面枠
  6
CONTINUOUS
 62
    7
 10
-20.213899576051858
 20
114.20905650111365
 11
-24.279677367301872
 21
111.86193294211364
  0
LINE
  8
_0-0_図面枠
  6
CONTINUOUS
 62
    7
 10
-24.810007453201877
 20
111.55568037516366
 11
-24.810007453201877
 21
112.16808598406362
  0
LINE
  8
_0-0_図面枠
  6
CONTINUOUS
 62
    7
 10
-24.279677367301872
 20
111.86193294211364
 11
-24.810007453201877
 21
112.16808598406362
  0
LINE
  8
_0-0_図面枠
  6
CONTINUOUS
 62
    7
 10
-25.715874111051846
 20
109.60402048906366
 11
-25.715874111051846
 21
110.21642609801364
  0
LINE
  8
_0-0_図面枠
  6
CONTINUOUS
 62
    7
 10
-24.810007453201877
 20
112.16808598406362
 11
-25.715874111051846
 21
110.21642609801364
  0
LINE
  8
_0-0_図面枠
  6
CONTINUOUS
 62
    7
 10
-11.728532001251835
 20
111.55568037516366
 11
-11.728532001251835
 21
112.16808598406362
  0
LINE
  8
_0-0_図面枠
  6
CONTINUOUS
 62
    7
 10
-11.728532001251835
 20
112.16808598406362
 11
-12.25886208715184
 21
111.86193294211364
  0
LINE
  8
_0-0_図面枠
  6
CONTINUOUS
 62
    7
 10
-10.822665343401866
 20
109.60402048906366
 11
-10.822665343401866
 21
110.21642609801364
  0
LINE
  8
_0-0_図面枠
  6
CONTINUOUS
 62
    7
 10
-10.822665343401866
 20
110.21642609801364
 11
-11.728532001251835
 21
112.16808598406362
  0
LINE
  8
_0-0_図面枠
  6
CONTINUOUS
 62
    7
 10
-22.335133719051839
 20
110.12696617946364
 11
-22.335133719051839
 21
110.73927226331364
  0
LINE
  8
_0-0_図面枠
  6
CONTINUOUS
 62
    7
 10
-14.203405735401873
 20
110.12696617946364
 11
-14.203405735401873
 21
110.73927226331364
  0
LINE
  8
ADD_LINE
  6
DOT
 62
    4
 10
-25.715874111051846
 20
118.20168690416364
 11
-10.823068770943905
 21
109.60332173206365
  0
LINE
  8
ADD_LINE
  6
DOT
 62
    4
 10
-10.822665343401866
 20
118.20168690416364
 11
-25.715470683509807
 21
109.60332173206365
  0
ENDBLK
  0
BLOCK
  2
-028-_22_
 70
   64
 10
0
 20
0
 30
0
  0
LINE
  8
_0-0_図面枠
  6
CONTINUOUS
 62
    7
 10
175.96987275189582
 20
116.61597708416326
 11
176.50020283779583
 21
116.92213012611325
  0
LINE
  8
_0-0_図面枠
  6
CONTINUOUS
 62
    7
 10
175.06400609404585
 20
118.56763697021324
 11
175.96987275189582
 21
116.61597708416326
  0
LINE
  8
_0-0_図面枠
  6
CONTINUOUS
 62
    7
 10
178.44474648604586
 20
118.04469127986323
 11
175.06400609404585
 21
118.56763697021324
  0
LINE
  8
_0-0_図面枠
  6
CONTINUOUS
 62
    7
 10
177.91441640014585
 20
117.73853823791325
 11
178.44474648604586
 21
118.04469127986323
  0
LINE
  8
_0-0_図面枠
  6
CONTINUOUS
 62
    7
 10
182.51061047789585
 20
115.08521187451328
 11
177.91441640014585
 21
117.73853823791325
  0
LINE
  8
_0-0_図面枠
  6
CONTINUOUS
 62
    7
 10
187.10680455559583
 20
117.73853823791325
 11
182.51061047789585
 21
115.08521187451328
  0
LINE
  8
_0-0_図面枠
  6
CONTINUOUS
 62
    7
 10
186.57647446969582
 20
118.04469127986323
 11
187.10680455559583
 21
117.73853823791325
  0
LINE
  8
_0-0_図面枠
  6
CONTINUOUS
 62
    7
 10
189.95721486169583
 20
118.56763697021324
 11
186.57647446969582
 21
118.04469127986323
  0
LINE
  8
_0-0_図面枠
  6
CONTINUOUS
 62
    7
 10
189.05134820384586
 20
116.61597708416326
 11
189.95721486169583
 21
118.56763697021324
  0
LINE
  8
_0-0_図面枠
  6
CONTINUOUS
 62
    7
 10
188.52101811794586
 20
116.92213012611325
 11
189.05134820384586
 21
116.61597708416326
  0
LINE
  8
_0-0_図面枠
  6
CONTINUOUS
 62
    7
 10
183.92482404024582
 20
114.26880376266325
 11
188.52101811794586
 21
116.92213012611325
  0
LINE
  8
_0-0_図面枠
  6
CONTINUOUS
 62
    7
 10
188.52101811794586
 20
111.61547739926328
 11
183.92482404024582
 21
114.26880376266325
  0
LINE
  8
_0-0_図面枠
  6
CONTINUOUS
 62
    7
 10
189.05134820384586
 20
111.92163044121327
 11
188.52101811794586
 21
111.61547739926328
  0
LINE
  8
_0-0_図面枠
  6
CONTINUOUS
 62
    7
 10
189.95721486169583
 20
109.96997055511326
 11
189.05134820384586
 21
111.92163044121327
  0
LINE
  8
_0-0_図面枠
  6
CONTINUOUS
 62
    7
 10
186.57647446969582
 20
110.49291624551324
 11
189.95721486169583
 21
109.96997055511326
  0
LINE
  8
_0-0_図面枠
  6
CONTINUOUS
 62
    7
 10
187.10680455559583
 20
110.79906928746328
 11
186.57647446969582
 21
110.49291624551324
  0
LINE
  8
_0-0_図面枠
  6
CONTINUOUS
 62
    7
 10
182.51061047789585
 20
113.45239565086325
 11
187.10680455559583
 21
110.79906928746328
  0
LINE
  8
_0-0_図面枠
  6
CONTINUOUS
 62
    7
 10
177.91441640014585
 20
110.79906928746328
 11
182.51061047789585
 21
113.45239565086325
  0
LINE
  8
_0-0_図面枠
  6
CONTINUOUS
 62
    7
 10
178.44474648604586
 20
110.49291624551324
 11
177.91441640014585
 21
110.79906928746328
  0
LINE
  8
_0-0_図面枠
  6
CONTINUOUS
 62
    7
 10
175.06400609404585
 20
109.96997055511326
 11
178.44474648604586
 21
110.49291624551324
  0
LINE
  8
_0-0_図面枠
  6
CONTINUOUS
 62
    7
 10
175.96987275189582
 20
111.92163044121327
 11
175.06400609404585
 21
109.96997055511326
  0
LINE
  8
_0-0_図面枠
  6
CONTINUOUS
 62
    7
 10
176.50020283779583
 20
111.61547739926328
 11
175.96987275189582
 21
111.92163044121327
  0
LINE
  8
_0-0_図面枠
  6
CONTINUOUS
 62
    7
 10
181.09639691549586
 20
114.26880376266325
 11
176.50020283779583
 21
111.61547739926328
  0
LINE
  8
_0-0_図面枠
  6
CONTINUOUS
 62
    7
 10
176.50020283779583
 20
116.92213012611325
 11
181.09639691549586
 21
114.26880376266325
  0
LINE
  8
_0-0_図面枠
  6
CONTINUOUS
 62
    7
 10
189.95721486169583
 20
118.56763697021324
 11
189.95721486169583
 21
119.18004257916328
  0
LINE
  8
_0-0_図面枠
  6
CONTINUOUS
 62
    7
 10
186.57647446969582
 20
118.04469127986323
 11
186.57647446969582
 21
118.65709688876325
  0
LINE
  8
_0-0_図面枠
  6
CONTINUOUS
 62
    7
 10
189.95721486169583
 20
119.18004257916328
 11
186.57647446969582
 21
118.65709688876325
  0
LINE
  8
_0-0_図面枠
  6
CONTINUOUS
 62
    7
 10
178.44474648604586
 20
118.04469127986323
 11
178.44474648604586
 21
118.65709688876325
  0
LINE
  8
_0-0_図面枠
  6
CONTINUOUS
 62
    7
 10
175.06400609404585
 20
118.56763697021324
 11
175.06400609404585
 21
119.18004257916328
  0
LINE
  8
_0-0_図面枠
  6
CONTINUOUS
 62
    7
 10
178.44474648604586
 20
118.65709688876325
 11
175.06400609404585
 21
119.18004257916328
  0
LINE
  8
_0-0_図面枠
  6
CONTINUOUS
 62
    7
 10
182.51061047789585
 20
115.08521187451328
 11
182.51061047789585
 21
115.69761748341324
  0
LINE
  8
_0-0_図面枠
  6
CONTINUOUS
 62
    7
 10
186.57647446969582
 20
118.04479080491325
 11
182.51061047789585
 21
115.69761748341324
  0
LINE
  8
_0-0_図面枠
  6
CONTINUOUS
 62
    7
 10
182.51061047789585
 20
115.69761748341324
 11
178.44474648604586
 21
118.04479080491325
  0
LINE
  8
_0-0_図面枠
  6
CONTINUOUS
 62
    7
 10
188.52101811794586
 20
111.61547739926328
 11
188.52101811794586
 21
112.22788300816325
  0
LINE
  8
_0-0_図面枠
  6
CONTINUOUS
 62
    7
 10
188.52101811794586
 20
112.22788300816325
 11
184.45524032669584
 21
114.57500656716326
  0
LINE
  8
_0-0_図面枠
  6
CONTINUOUS
 62
    7
 10
176.50020283779583
 20
111.61547739926328
 11
176.50020283779583
 21
112.22788300816325
  0
LINE
  8
_0-0_図面枠
  6
CONTINUOUS
 62
    7
 10
180.56598062904584
 20
114.57500656716326
 11
176.50020283779583
 21
112.22788300816325
  0
LINE
  8
_0-0_図面枠
  6
CONTINUOUS
 62
    7
 10
175.96987275189582
 20
111.92163044121327
 11
175.96987275189582
 21
112.53403605011323
  0
LINE
  8
_0-0_図面枠
  6
CONTINUOUS
 62
    7
 10
176.50020283779583
 20
112.22788300816325
 11
175.96987275189582
 21
112.53403605011323
  0
LINE
  8
_0-0_図面枠
  6
CONTINUOUS
 62
    7
 10
175.06400609404585
 20
109.96997055511326
 11
175.06400609404585
 21
110.58237616406325
  0
LINE
  8
_0-0_図面枠
  6
CONTINUOUS
 62
    7
 10
175.96987275189582
 20
112.53403605011323
 11
175.06400609404585
 21
110.58237616406325
  0
LINE
  8
_0-0_図面枠
  6
CONTINUOUS
 62
    7
 10
189.05134820384586
 20
111.92163044121327
 11
189.05134820384586
 21
112.53403605011323
  0
LINE
  8
_0-0_図面枠
  6
CONTINUOUS
 62
    7
 10
189.05134820384586
 20
112.53403605011323
 11
188.52101811794586
 21
112.22788300816325
  0
LINE
  8
_0-0_図面枠
  6
CONTINUOUS
 62
    7
 10
189.95721486169583
 20
109.96997055511326
 11
189.95721486169583
 21
110.58237616406325
  0
LINE
  8
_0-0_図面枠
  6
CONTINUOUS
 62
    7
 10
189.95721486169583
 20
110.58237616406325
 11
189.05134820384586
 21
112.53403605011323
  0
LINE
  8
_0-0_図面枠
  6
CONTINUOUS
 62
    7
 10
178.44474648604586
 20
110.49291624551324
 11
178.44474648604586
 21
111.10522232936324
  0
LINE
  8
_0-0_図面枠
  6
CONTINUOUS
 62
    7
 10
186.57647446969582
 20
110.49291624551324
 11
186.57647446969582
 21
111.10522232936324
  0
LINE
  8
ADD_LINE
  6
DOT
 62
    4
 10
175.06400609404585
 20
118.56763697021324
 11
189.95681143415379
 21
109.96927179811325
  0
LINE
  8
ADD_LINE
  6
DOT
 62
    4
 10
189.95721486169583
 20
118.56763697021324
 11
175.06440952158789
 21
109.96927179811325
  0
ENDBLK
  0
ENDSEC
  0
SECTION
  2
ENTITIES
  0
LINE
  8
_0-0_図面枠
  6
CONTINUOUS
 62
    6
 10
410.00000000000006
 20
287
 11
10
 21
287.00000000000006
  0
LINE
  8
_0-0_図面枠
  6
CONTINUOUS
 62
    6
 10
410
 20
9.9999999999998863
 11
410.00000000000006
 21
287
  0
LINE
  8
_0-0_図面枠
  6
CONTINUOUS
 62
    6
 10
9.9999999999999147
 20
10
 11
410
 21
9.9999999999998863
  0
LINE
  8
_0-0_図面枠
  6
CONTINUOUS
 62
    6
 10
10
 20
287.00000000000006
 11
9.9999999999999147
 21
10
  0
LINE
  8
ADD_LINE
  6
DOT
 62
    4
 10
0
 20
148.5
 11
420
 21
148.5
  0
LINE
  8
_0-0_図面枠
  6
CONTINUOUS
 62
    6
 10
210
 20
287
 11
210.00000000000003
 21
9.9999999999999432
  0
LINE
  8
_0-0_図面枠
  6
CONTINUOUS
 62
    4
 10
182.14999999999998
 20
50.199999999999974
 11
40
 21
50.199999999999974
  0
LINE
  8
_0-0_図面枠
  6
CONTINUOUS
 62
    4
 10
182.14999999999998
 20
62.199999999999974
 11
40
 21
62.199999999999974
  0
LINE
  8
_0-0_図面枠
  6
CONTINUOUS
 62
    4
 10
182.14999999999998
 20
56.199999999999974
 11
40
 21
56.199999999999974
  0
LINE
  8
_0-0_図面枠
  6
CONTINUOUS
 62
    4
 10
182.14999999999998
 20
68.199999999999974
 11
40
 21
68.199999999999974
  0
LINE
  8
_0-0_図面枠
  6
CONTINUOUS
 62
    4
 10
182.14999999999998
 20
104.20000000000003
 11
40
 21
104.20000000000003
  0
LINE
  8
_0-0_図面枠
  6
CONTINUOUS
 62
    4
 10
182.14999999999998
 20
98.200000000000031
 11
40
 21
98.200000000000031
  0
LINE
  8
_0-0_図面枠
  6
CONTINUOUS
 62
    4
 10
182.14999999999998
 20
92.200000000000031
 11
40
 21
92.200000000000031
  0
LINE
  8
_0-0_図面枠
  6
CONTINUOUS
 62
    4
 10
182.14999999999998
 20
86.200000000000031
 11
40
 21
86.200000000000031
  0
LINE
  8
_0-0_図面枠
  6
CONTINUOUS
 62
    4
 10
182.14999999999998
 20
80.200000000000031
 11
40
 21
80.200000000000031
  0
LINE
  8
_0-0_図面枠
  6
CONTINUOUS
 62
    4
 10
182.14999999999998
 20
74.199999999999974
 11
40
 21
74.199999999999974
  0
LINE
  8
_0-0_図面枠
  6
CONTINUOUS
 62
    4
 10
182.14999999999998
 20
114.99999999999999
 11
40
 21
114.99999999999999
  0
LINE
  8
_0-0_図面枠
  6
CONTINUOUS
 62
    4
 10
182.14999999999998
 20
44.199999999999974
 11
40
 21
44.199999999999974
  0
LINE
  8
_0-0_図面枠
  6
CONTINUOUS
 62
    4
 10
182.14999999999998
 20
38.199999999999974
 11
40
 21
38.199999999999974
  0
LINE
  8
_0-0_図面枠
  6
CONTINUOUS
 62
    4
 10
182.14999999999998
 20
32.199999999999974
 11
40
 21
32.199999999999974
  0
LINE
  8
_0-0_図面枠
  6
CONTINUOUS
 62
    4
 10
182.14999999999998
 20
26.199999999999974
 11
40
 21
26.199999999999974
  0
TEXT
  8
_0-0_図面枠
 62
    4
 10
165.551264
 20
110.20001049999995
 40
3.2000000000000002
 41
1
 50
0
  1
使用
  0
TEXT
  8
_0-0_図面枠
 62
    4
 10
150.50638249999994
 20
110.20001049999995
 40
3.2000000000000002
 41
1
 50
0
  1
定　尺
  0
TEXT
  8
_0-0_図面枠
 62
    4
 10
148.34354749999997
 20
105.40000399999995
 40
3.2000000000000002
 41
1
 50
0
  1
（ｍｍ）
  0
TEXT
  8
_0-0_図面枠
 62
    4
 10
165.551264
 20
105.40000399999995
 40
3.2000000000000002
 41
1
 50
0
  1
数量
  0
TEXT
  8
_0-0_図面枠
 62
    4
 10
40.497067999999985
 20
99.427549499999927
 40
3.2000000000000002
 41
1
 50
0
  1
　１
  0
TEXT
  8
_0-0_図面枠
 62
    4
 10
149.270477
 20
99.400003999999953
 40
3.2000000000000002
 41
1
 50
0
  1
３０００
  0
TEXT
  8
_0-0_図面枠
 62
    4
 10
177.00512500000002
 20
99.400003999999953
 40
3.2000000000000002
 41
1
 50
0
  1
本
  0
TEXT
  8
_0-0_図面枠
 62
    4
 10
43.586831999999987
 20
93.427549499999927
 40
3.2000000000000002
 41
1
 50
0
  1
２
  0
TEXT
  8
_0-0_図面枠
 62
    4
 10
43.586831999999987
 20
87.427549499999927
 40
3.2000000000000002
 41
1
 50
0
  1
３
  0
LINE
  8
_0-0_図面枠
  6
CONTINUOUS
 62
    4
 10
382.15000000000009
 20
104.19999999999997
 11
240
 21
104.19999999999997
  0
LINE
  8
_0-0_図面枠
  6
CONTINUOUS
 62
    4
 10
382.15000000000009
 20
98.199999999999974
 11
240
 21
98.199999999999974
  0
LINE
  8
_0-0_図面枠
  6
CONTINUOUS
 62
    4
 10
382.15000000000009
 20
92.199999999999974
 11
240
 21
92.199999999999974
  0
LINE
  8
_0-0_図面枠
  6
CONTINUOUS
 62
    4
 10
382.15000000000009
 20
86.199999999999974
 11
240
 21
86.199999999999974
  0
LINE
  8
_0-0_図面枠
  6
CONTINUOUS
 62
    4
 10
382.15000000000009
 20
80.199999999999974
 11
240
 21
80.199999999999974
  0
LINE
  8
_0-0_図面枠
  6
CONTINUOUS
 62
    4
 10
382.15000000000009
 20
74.199999999999974
 11
240
 21
74.199999999999974
  0
LINE
  8
_0-0_図面枠
  6
CONTINUOUS
 62
    4
 10
382.15000000000009
 20
68.199999999999974
 11
240
 21
68.199999999999974
  0
LINE
  8
_0-0_図面枠
  6
CONTINUOUS
 62
    4
 10
382.15000000000009
 20
62.199999999999974
 11
240
 21
62.199999999999974
  0
LINE
  8
_0-0_図面枠
  6
CONTINUOUS
 62
    4
 10
382.15000000000009
 20
56.199999999999974
 11
240
 21
56.199999999999974
  0
LINE
  8
_0-0_図面枠
  6
CONTINUOUS
 62
    4
 10
382.15000000000009
 20
50.199999999999974
 11
240
 21
50.199999999999974
  0
LINE
  8
_0-0_図面枠
  6
CONTINUOUS
 62
    4
 10
382.15000000000009
 20
38.199999999999974
 11
240
 21
38.199999999999974
  0
LINE
  8
_0-0_図面枠
  6
CONTINUOUS
 62
    4
 10
382.15000000000009
 20
114.99999999999999
 11
240
 21
114.99999999999999
  0
LINE
  8
_0-0_図面枠
  6
CONTINUOUS
 62
    4
 10
382.15000000000009
 20
26.199999999999974
 11
240
 21
26.199999999999974
  0
LINE
  8
_0-0_図面枠
  6
CONTINUOUS
 62
    4
 10
382.15000000000009
 20
20.199999999999989
 11
240
 21
20.199999999999989
  0
LINE
  8
_0-0_図面枠
  6
CONTINUOUS
 62
    4
 10
382.15000000000009
 20
44.199999999999974
 11
240
 21
44.199999999999974
  0
LINE
  8
_0-0_図面枠
  6
CONTINUOUS
 62
    4
 10
382.15000000000009
 20
32.199999999999974
 11
240
 21
32.199999999999974
  0
TEXT
  8
_0-0_図面枠
 62
    4
 10
365.55123000000003
 20
110.2000105
 40
3.2000000000000002
 41
1
 50
0
  1
使用
  0
TEXT
  8
_0-0_図面枠
 62
    4
 10
350.50632500000006
 20
110.20002199999998
 40
3.2000000000000002
 41
1
 50
0
  1
定　尺
  0
TEXT
  8
_0-0_図面枠
 62
    4
 10
348.34349000000003
 20
105.40001499999998
 40
3.2000000000000002
 41
1
 50
0
  1
（ｍｍ）
  0
TEXT
  8
_0-0_図面枠
 62
    4
 10
365.55123000000003
 20
105.40000400000001
 40
3.2000000000000002
 41
1
 50
0
  1
数量
  0
TEXT
  8
_0-0_図面枠
 62
    4
 10
240.4970505
 20
99.427549499999984
 40
3.2000000000000002
 41
1
 50
0
  1
　１
  0
TEXT
  8
_0-0_図面枠
 62
    4
 10
243.5868145
 20
93.427549499999984
 40
3.2000000000000002
 41
1
 50
0
  1
２
  0
TEXT
  8
_0-0_図面枠
 62
    4
 10
243.5868145
 20
87.427549499999984
 40
3.2000000000000002
 41
1
 50
0
  1
３
  0
TEXT
  8
_0-0_図面枠
 62
    4
 10
243.5868145
 20
81.427549499999984
 40
3.2000000000000002
 41
1
 50
0
  1
４
  0
TEXT
  8
_0-0_図面枠
 62
    4
 10
243.5868145
 20
75.427560999999983
 40
3.2000000000000002
 41
1
 50
0
  1
５
  0
TEXT
  8
_0-0_図面枠
 62
    4
 10
243.5868145
 20
69.427560999999983
 40
3.2000000000000002
 41
1
 50
0
  1
６
  0
TEXT
  8
_0-0_図面枠
 62
    4
 10
169.36022149999991
 20
99.449991499999996
 40
3.2000000000000002
 41
1
 50
0
  1
１
  0
TEXT
  8
_0-0_図面枠
 62
    4
 10
378.55000000000007
 20
112.8
 40
3.2000000000000002
 41
1
 50
0
  1
単位
  7
TATEGAKI
  0
LINE
  8
_0-0_図面枠
  6
CONTINUOUS
 62
    4
 10
182.14999999999998
 20
20.199999999999989
 11
40
 21
20.199999999999989
  0
LINE
  8
_0-0_図面枠
  6
CONTINUOUS
 62
    4
 10
40
 20
20.199999999999989
 11
40
 21
114.99999999999999
  0
LINE
  8
_0-0_図面枠
  6
CONTINUOUS
 62
    4
 10
47.200000000000017
 20
20.199999999999989
 11
47.200000000000017
 21
114.99999999999999
  0
LINE
  8
_0-0_図面枠
  6
CONTINUOUS
 62
    4
 10
182.14999999999998
 20
20.199999999999989
 11
182.14999999999998
 21
114.99999999999999
  0
LINE
  8
_0-0_図面枠
  6
CONTINUOUS
 62
    4
 10
162.94999999999999
 20
20.199999999999989
 11
162.94999999999999
 21
114.99999999999999
  0
LINE
  8
_0-0_図面枠
  6
CONTINUOUS
 62
    4
 10
147.95000000000002
 20
20.199999999999989
 11
147.95000000000002
 21
114.99999999999999
  0
LINE
  8
_0-0_図面枠
  6
CONTINUOUS
 62
    4
 10
174.95000000000005
 20
20.199999999999989
 11
174.95000000000005
 21
114.99999999999999
  0
LINE
  8
_0-0_図面枠
  6
CONTINUOUS
 62
    4
 10
146.95000000000002
 20
20.199999999999989
 11
146.95000000000002
 21
114.99999999999999
  0
LINE
  8
_0-0_図面枠
  6
CONTINUOUS
 62
    4
 10
240
 20
20.199999999999989
 11
240
 21
114.99999999999999
  0
LINE
  8
_0-0_図面枠
  6
CONTINUOUS
 62
    4
 10
247.20000000000005
 20
20.199999999999989
 11
247.20000000000005
 21
114.99999999999999
  0
LINE
  8
_0-0_図面枠
  6
CONTINUOUS
 62
    4
 10
346.95000000000005
 20
20.199999999999989
 11
346.95000000000005
 21
114.99999999999999
  0
LINE
  8
_0-0_図面枠
  6
CONTINUOUS
 62
    4
 10
382.15000000000009
 20
20.199999999999989
 11
382.15000000000009
 21
114.99999999999999
  0
LINE
  8
_0-0_図面枠
  6
CONTINUOUS
 62
    4
 10
374.95000000000005
 20
20.199999999999989
 11
374.95000000000005
 21
114.99999999999999
  0
LINE
  8
_0-0_図面枠
  6
CONTINUOUS
 62
    4
 10
362.95000000000005
 20
20.199999999999989
 11
362.95000000000005
 21
114.99999999999999
  0
LINE
  8
_0-0_図面枠
  6
CONTINUOUS
 62
    4
 10
347.95000000000005
 20
20.199999999999989
 11
347.95000000000005
 21
114.99999999999999
  0
TEXT
  8
_0-0_図面枠
 62
    4
 10
69.300000000000011
 20
108.00000000000001
 40
3.2000000000000002
 41
1
 50
0
  1
部材名称
  0
TEXT
  8
_0-0_図面枠
 62
    4
 10
178.54999999999995
 20
112.80000000000001
 40
3.2000000000000002
 41
1
 50
0
  1
単位
  7
TATEGAKI
  0
LINE
  8
_0-0_図面枠
  6
CONTINUOUS
 62
    4
 10
100.86666666666669
 20
20.199999999999989
 11
100.86666666666669
 21
114.99999999999999
  0
TEXT
  8
_0-0_図面枠
 62
    4
 10
119.10833333333336
 20
108
 40
3.2000000000000002
 41
1
 50
0
  1
規　格
  0
LINE
  8
_0-0_図面枠
  6
CONTINUOUS
 62
    4
 10
300.86666666666667
 20
20.199999999999989
 11
300.86666666666667
 21
114.99999999999999
  0
TEXT
  8
_0-0_図面枠
 62
    4
 10
267.63333333333333
 20
107.99999999999999
 40
3.2000000000000002
 41
1
 50
0
  1
部材名称
  0
TEXT
  8
_0-0_図面枠
 62
    4
 10
319.10833333333335
 20
107.99999999999999
 40
3.2000000000000002
 41
1
 50
0
  1
規　格
  0
TEXT
  8
_0-0_図面枠
 62
    4
 10
169.36022149999991
 20
93.45000299999991
 40
3.2000000000000002
 41
1
 50
0
  1
６
  0
TEXT
  8
_0-0_図面枠
 62
    4
 10
177.00512500000002
 20
93.400003999999953
 40
3.2000000000000002
 41
1
 50
0
  1
個
  0
TEXT
  8
_0-0_図面枠
 62
    4
 10
349.27047700000003
 20
99.400003999999896
 40
3.2000000000000002
 41
1
 50
0
  1
３０００
  0
TEXT
  8
_0-0_図面枠
 62
    4
 10
377.00512500000002
 20
99.400003999999896
 40
3.2000000000000002
 41
1
 50
0
  1
本
  0
TEXT
  8
_0-0_図面枠
 62
    4
 10
369.36022149999997
 20
99.449991499999939
 40
3.2000000000000002
 41
1
 50
0
  1
１
  0
TEXT
  8
_0-0_図面枠
 62
    4
 10
369.36022149999997
 20
93.450002999999853
 40
3.2000000000000002
 41
1
 50
0
  1
６
  0
TEXT
  8
_0-0_図面枠
 62
    4
 10
377.00512500000002
 20
93.400003999999896
 40
3.2000000000000002
 41
1
 50
0
  1
個
  0
TEXT
  8
_0-0_図面枠
 62
    4
 10
243.5868145
 20
63.427555499999968
 40
3.2000000000000002
 41
1
 50
0
  1
７
  0
TEXT
  8
_0-0_図面枠
 62
    4
 10
20
 20
280
 40
3.2000000000000002
 41
1
 50
0
  1
（アルミ２００タイプ）
  0
TEXT
  8
_0-0_図面枠
 62
    4
 10
30
 20
270
 40
3.2000000000000002
 41
1
 50
0
  1
◇天井＋天井（２００ＵＵＧ－Ａ）　Ｓ＝１／３
  0
TEXT
  8
_0-0_図面枠
 62
    4
 10
220
 20
280
 40
3.2000000000000002
 41
1
 50
0
  1
（アルミ２００タイプ）
  0
TEXT
  8
_0-0_図面枠
 62
    4
 10
230
 20
270
 40
3.2000000000000002
 41
1
 50
0
  1
◇天井＋天井コーナー（２００ＵＣＧ－Ａ）　Ｓ＝１／３
  0
TEXT
  8
_0-0_図面枠
 62
    4
 10
177.00512500000002
 20
81.999992500000047
 40
3.2000000000000002
 41
1
 50
0
  1
本
  0
TEXT
  8
_0-0_図面枠
 62
    4
 10
48.400007499999987
 20
82.000009500000061
 40
3.2000000000000002
 41
1
 50
0
  1
ステンドリリングねじ
  0
TEXT
  8
_0-0_図面枠
 62
    4
 10
102.0666796666667
 20
82.000009500000061
 40
3.2000000000000002
 41
1
 50
0
  1
皿(Ｄ６)４×１６
  0
TEXT
  8
_0-0_図面枠
 62
    4
 10
166.27045749999996
 20
75.45000850000001
 40
3.2000000000000002
 41
1
 50
0
  1
１２
  0
TEXT
  8
_0-0_図面枠
 62
    4
 10
48.400007499999987
 20
75.400009500000053
 40
3.2000000000000002
 41
1
 50
0
  1
ステンタッピンねじ
  0
TEXT
  8
_0-0_図面枠
 62
    4
 10
48.400007499999987
 20
69.400009500000053
 40
3.2000000000000002
 41
1
 50
0
  1
ステンワッシャー
  0
TEXT
  8
_0-0_図面枠
 62
    4
 10
166.27045749999996
 20
69.45000850000001
 40
3.2000000000000002
 41
1
 50
0
  1
１２
  0
TEXT
  8
_0-0_図面枠
 62
    4
 10
177.00512500000002
 20
69.400009500000053
 40
3.2000000000000002
 41
1
 50
0
  1
枚
  0
TEXT
  8
_0-0_図面枠
 62
    4
 10
177.00512500000002
 20
75.399992500000039
 40
3.2000000000000002
 41
1
 50
0
  1
本
  0
TEXT
  8
_0-0_図面枠
 62
    4
 10
149.270477
 20
63.400009499999996
 40
3.2000000000000002
 41
1
 50
0
  1
３１００
  0
TEXT
  8
_0-0_図面枠
 62
    4
 10
169.36022149999991
 20
63.449997499999981
 40
3.2000000000000002
 41
1
 50
0
  1
２
  0
TEXT
  8
_0-0_図面枠
 62
    4
 10
177.00512500000002
 20
63.400009499999996
 40
3.2000000000000002
 41
1
 50
0
  1
本
  0
TEXT
  8
_0-0_図面枠
 62
    4
 10
102.06669116666673
 20
75.400009500000053
 40
3.2000000000000002
 41
1
 50
0
  1
なべ４×３０
  0
TEXT
  8
_0-0_図面枠
 62
    4
 10
102.0666336666667
 20
69.400004000000038
 40
3.2000000000000002
 41
1
 50
0
  1
１．５×１８×４．５穴
  0
TEXT
  8
_0-0_図面枠
 62
    4
 10
43.586831999999987
 20
81.427549499999927
 40
3.2000000000000002
 41
1
 50
0
  1
４
  0
TEXT
  8
_0-0_図面枠
 62
    4
 10
43.586831999999987
 20
75.427560999999955
 40
3.2000000000000002
 41
1
 50
0
  1
５
  0
TEXT
  8
_0-0_図面枠
 62
    4
 10
43.586831999999987
 20
69.427560999999955
 40
3.2000000000000002
 41
1
 50
0
  1
６
  0
TEXT
  8
_0-0_図面枠
 62
    4
 10
43.586831999999987
 20
63.427560999999955
 40
3.2000000000000002
 41
1
 50
0
  1
７
  0
TEXT
  8
_0-0_図面枠
 62
    4
 10
48.400007499999987
 20
87.400003999999953
 40
3.2000000000000002
 41
1
 50
0
  1
ＳＳＧフレーム(Ｄ)
  0
TEXT
  8
_0-0_図面枠
 62
    4
 10
177.00512500000002
 20
87.400003999999953
 40
3.2000000000000002
 41
1
 50
0
  1
本
  0
TEXT
  8
_0-0_図面枠
 62
    4
 10
169.36022149999991
 20
87.449991499999996
 40
3.2000000000000002
 41
1
 50
0
  1
１
  0
TEXT
  8
_0-0_図面枠
 62
    4
 10
149.270477
 20
87.400003999999953
 40
3.2000000000000002
 41
1
 50
0
  1
３０００
  0
TEXT
  8
_0-0_図面枠
 62
    4
 10
377.00512500000002
 20
81.999992499999991
 40
3.2000000000000002
 41
1
 50
0
  1
本
  0
TEXT
  8
_0-0_図面枠
 62
    4
 10
248.40000750000002
 20
82.000009500000004
 40
3.2000000000000002
 41
1
 50
0
  1
ステンドリリングねじ
  0
TEXT
  8
_0-0_図面枠
 62
    4
 10
302.06667966666674
 20
82.000009500000004
 40
3.2000000000000002
 41
1
 50
0
  1
皿(Ｄ６)４×１６
  0
TEXT
  8
_0-0_図面枠
 62
    4
 10
366.27045750000002
 20
75.450008499999953
 40
3.2000000000000002
 41
1
 50
0
  1
１２
  0
TEXT
  8
_0-0_図面枠
 62
    4
 10
248.40000750000002
 20
75.400009499999996
 40
3.2000000000000002
 41
1
 50
0
  1
ステンタッピンねじ
  0
TEXT
  8
_0-0_図面枠
 62
    4
 10
248.40000750000002
 20
69.400009499999996
 40
3.2000000000000002
 41
1
 50
0
  1
ステンワッシャー
  0
TEXT
  8
_0-0_図面枠
 62
    4
 10
366.27045750000002
 20
69.450008499999953
 40
3.2000000000000002
 41
1
 50
0
  1
１２
  0
TEXT
  8
_0-0_図面枠
 62
    4
 10
377.00512500000002
 20
69.400009499999996
 40
3.2000000000000002
 41
1
 50
0
  1
枚
  0
TEXT
  8
_0-0_図面枠
 62
    4
 10
377.00512500000002
 20
75.399992499999982
 40
3.2000000000000002
 41
1
 50
0
  1
本
  0
TEXT
  8
_0-0_図面枠
 62
    4
 10
302.06669116666677
 20
75.400009499999996
 40
3.2000000000000002
 41
1
 50
0
  1
なべ４×３０
  0
TEXT
  8
_0-0_図面枠
 62
    4
 10
302.06663366666675
 20
69.400003999999981
 40
3.2000000000000002
 41
1
 50
0
  1
１．５×１８×４．５穴
  0
TEXT
  8
_0-0_図面枠
 62
    4
 10
349.27047700000003
 20
57.400009499999939
 40
3.2000000000000002
 41
1
 50
0
  1
３１００
  0
TEXT
  8
_0-0_図面枠
 62
    4
 10
369.36022149999997
 20
57.449997499999924
 40
3.2000000000000002
 41
1
 50
0
  1
２
  0
TEXT
  8
_0-0_図面枠
 62
    4
 10
377.00512500000002
 20
57.400009499999939
 40
3.2000000000000002
 41
1
 50
0
  1
本
  0
TEXT
  8
_0-0_図面枠
 62
    4
 10
377.00512500000013
 20
63.399992499999982
 40
3.2000000000000002
 41
1
 50
0
  1
本
  0
TEXT
  8
_0-0_図面枠
 62
    4
 10
366.27045750000002
 20
81.450008499999967
 40
3.2000000000000002
 41
1
 50
0
  1
１２
  0
TEXT
  8
_0-0_図面枠
 62
    4
 10
243.5868145
 20
57.427555499999968
 40
3.2000000000000002
 41
1
 50
0
  1
８
  0
TEXT
  8
_0-0_図面枠
 62
    4
 10
349.27047700000003
 20
87.400003999999896
 40
3.2000000000000002
 41
1
 50
0
  1
３０００
  0
TEXT
  8
_0-0_図面枠
 62
    4
 10
377.00512500000002
 20
87.400003999999896
 40
3.2000000000000002
 41
1
 50
0
  1
本
  0
TEXT
  8
_0-0_図面枠
 62
    4
 10
369.36022149999997
 20
87.449991499999939
 40
3.2000000000000002
 41
1
 50
0
  1
１
  0
TEXT
  8
_0-0_図面枠
 62
    4
 10
248.40000750000002
 20
87.400003999999896
 40
3.2000000000000002
 41
1
 50
0
  1
ＳＳＧフレーム(Ｄ)
  0
TEXT
  8
_0-0_図面枠
 62
    4
 10
166.27045749999996
 20
81.450008500000024
 40
3.2000000000000002
 41
1
 50
0
  1
１２
  0
TEXT
  8
_0-0_図面枠
 62
    4
 10
48.400007499999987
 20
63.400003999999953
 40
3.2000000000000002
 41
1
 50
0
  1
ガスケットＧＡ２０
  0
TEXT
  8
_0-0_図面枠
 62
    4
 10
248.40000750000002
 20
57.400003999999896
 40
3.2000000000000002
 41
1
 50
0
  1
ガスケットＧＡ１５
  0
TEXT
  8
_0-0_図面枠
 62
    4
 10
102.06667966666672
 20
94.000009500000061
 40
3.2000000000000002
 41
1
 50
0
  1
Ｌ＝２９０
  0
TEXT
  8
_0-0_図面枠
 62
    4
 10
302.06667966666669
 20
94.000009500000004
 40
3.2000000000000002
 41
1
 50
0
  1
Ｌ＝２３０
  0
TEXT
  8
_0-0_図面枠
 62
    4
 10
122.30833333333337
 20
99.600000000000037
 40
3.2000000000000002
 41
1
 50
0
  1
―
  0
TEXT
  8
_0-0_図面枠
 62
    4
 10
122.30833333333337
 20
87.600000000000037
 40
3.2000000000000002
 41
1
 50
0
  1
―
  0
TEXT
  8
_0-0_図面枠
 62
    4
 10
122.30833333333335
 20
63.599999999999966
 40
3.2000000000000002
 41
1
 50
0
  1
―
  0
TEXT
  8
_0-0_図面枠
 62
    4
 10
322.30833333333328
 20
99.59999999999998
 40
3.2000000000000002
 41
1
 50
0
  1
―
  0
TEXT
  8
_0-0_図面枠
 62
    4
 10
322.30833333333328
 20
87.59999999999998
 40
3.2000000000000002
 41
1
 50
0
  1
―
  0
TEXT
  8
_0-0_図面枠
 62
    4
 10
322.30833333333328
 20
57.599999999999966
 40
3.2000000000000002
 41
1
 50
0
  1
―
  0
TEXT
  8
_0-0_図面枠
 62
    4
 10
153.84999999999999
 20
93.600000000000037
 40
3.2000000000000002
 41
1
 50
0
  1
―
  0
TEXT
  8
_0-0_図面枠
 62
    4
 10
153.84999999999999
 20
81.600000000000037
 40
3.2000000000000002
 41
1
 50
0
  1
―
  0
TEXT
  8
_0-0_図面枠
 62
    4
 10
153.84999999999999
 20
75.600000000000023
 40
3.2000000000000002
 41
1
 50
0
  1
―
  0
TEXT
  8
_0-0_図面枠
 62
    4
 10
153.84999999999999
 20
69.599999999999966
 40
3.2000000000000002
 41
1
 50
0
  1
―
  0
TEXT
  8
_0-0_図面枠
 62
    4
 10
353.85000000000002
 20
93.59999999999998
 40
3.2000000000000002
 41
1
 50
0
  1
―
  0
TEXT
  8
_0-0_図面枠
 62
    4
 10
353.85000000000002
 20
81.59999999999998
 40
3.2000000000000002
 41
1
 50
0
  1
―
  0
TEXT
  8
_0-0_図面枠
 62
    4
 10
353.85000000000002
 20
75.599999999999966
 40
3.2000000000000002
 41
1
 50
0
  1
―
  0
TEXT
  8
_0-0_図面枠
 62
    4
 10
353.85000000000002
 20
69.599999999999966
 40
3.2000000000000002
 41
1
 50
0
  1
―
  0
TEXT
  8
_0-0_図面枠
 62
    4
 10
353.85000000000002
 20
63.599999999999966
 40
3.2000000000000002
 41
1
 50
0
  1
―
  0
TEXT
  8
_0-0_図面枠
 62
    4
 10
302.06669116666689
 20
63.400009499999996
 40
3.2000000000000002
 41
1
 50
0
  1
Φ６×３０
  0
TEXT
  8
_0-0_図面枠
 62
    4
 10
369.36022149999997
 20
63.449997499999924
 40
3.2000000000000002
 41
1
 50
0
  1
６
  0
TEXT
  8
_0-0_図面枠
 62
    4
 10
43.586831999999987
 20
57.42755549999994
 40
3.2000000000000002
 41
1
 50
0
  1
※
  0
TEXT
  8
_0-0_図面枠
 62
    4
 10
169.36022149999991
 20
57.450002999999938
 40
3.2000000000000002
 41
1
 50
0
  1
１
  0
TEXT
  8
_0-0_図面枠
 62
    4
 10
177.00512500000002
 20
57.400003999999925
 40
3.2000000000000002
 41
1
 50
0
  1
個
  0
TEXT
  8
_0-0_図面枠
 62
    4
 10
153.85000000000002
 20
57.599999999999937
 40
3.2000000000000002
 41
1
 50
0
  1
―
  0
TEXT
  8
_0-0_図面枠
 62
    4
 10
102.06667966666669
 20
57.400003999999925
 40
3.2000000000000002
 41
1
 50
0
  1
ＡＬ　ｔ＝１．５
  0
TEXT
  8
_0-0_図面枠
 62
    4
 10
48.400007499999987
 20
57.400003999999925
 40
3.2000000000000002
 41
1
 50
0
  1
ジョイントプレート
  0
TEXT
  8
_0-0_図面枠
 62
    4
 10
43.586831999999987
 20
51.427555499999954
 40
3.2000000000000002
 41
1
 50
0
  1
※
  0
TEXT
  8
_0-0_図面枠
 62
    4
 10
169.36022149999991
 20
51.450002999999953
 40
3.2000000000000002
 41
1
 50
0
  1
２
  0
TEXT
  8
_0-0_図面枠
 62
    4
 10
177.00512500000002
 20
51.400009499999982
 40
3.2000000000000002
 41
1
 50
0
  1
本
  0
TEXT
  8
_0-0_図面枠
 62
    4
 10
102.06669116666673
 20
51.400009499999967
 40
3.2000000000000002
 41
1
 50
0
  1
１.５×(１×１９)Ｌ＝６００
  0
TEXT
  8
_0-0_図面枠
 62
    4
 10
48.400007500000015
 20
51.400009499999982
 40
3.2000000000000002
 41
1
 50
0
  1
落下防止ワイヤー
  0
TEXT
  8
_0-0_図面枠
 62
    4
 10
153.84999999999999
 20
51.599999999999966
 40
3.2000000000000002
 41
1
 50
0
  1
―
  0
TEXT
  8
_0-0_図面枠
 62
    4
 10
243.58683199999999
 20
51.42755549999994
 40
3.2000000000000002
 41
1
 50
0
  1
※
  0
TEXT
  8
_0-0_図面枠
 62
    4
 10
369.36022149999991
 20
51.450002999999938
 40
3.2000000000000002
 41
1
 50
0
  1
１
  0
TEXT
  8
_0-0_図面枠
 62
    4
 10
377.00512500000002
 20
51.400003999999925
 40
3.2000000000000002
 41
1
 50
0
  1
個
  0
TEXT
  8
_0-0_図面枠
 62
    4
 10
353.85000000000002
 20
51.599999999999937
 40
3.2000000000000002
 41
1
 50
0
  1
―
  0
TEXT
  8
_0-0_図面枠
 62
    4
 10
302.06667966666669
 20
51.400003999999925
 40
3.2000000000000002
 41
1
 50
0
  1
ＡＬ　ｔ＝１．５
  0
TEXT
  8
_0-0_図面枠
 62
    4
 10
248.40000749999999
 20
51.400003999999925
 40
3.2000000000000002
 41
1
 50
0
  1
ジョイントプレート
  0
TEXT
  8
_0-0_図面枠
 62
    4
 10
243.58683199999999
 20
45.427555499999954
 40
3.2000000000000002
 41
1
 50
0
  1
※
  0
TEXT
  8
_0-0_図面枠
 62
    4
 10
369.36022149999991
 20
45.450002999999953
 40
3.2000000000000002
 41
1
 50
0
  1
２
  0
TEXT
  8
_0-0_図面枠
 62
    4
 10
377.00512500000002
 20
45.400009499999982
 40
3.2000000000000002
 41
1
 50
0
  1
本
  0
TEXT
  8
_0-0_図面枠
 62
    4
 10
302.06669116666671
 20
45.400009499999967
 40
3.2000000000000002
 41
1
 50
0
  1
１.５×(１×１９)Ｌ＝６００
  0
TEXT
  8
_0-0_図面枠
 62
    4
 10
248.40000750000002
 20
45.400009499999982
 40
3.2000000000000002
 41
1
 50
0
  1
落下防止ワイヤー
  0
TEXT
  8
_0-0_図面枠
 62
    4
 10
353.84999999999997
 20
45.599999999999966
 40
3.2000000000000002
 41
1
 50
0
  1
―
  0
TEXT
  8
_0-0_図面枠
 62
    4
 10
41.666666666666799
 20
128
 40
3
 41
1
 50
0
  1
（落下防止ワイヤー）
  0
INSERT
  2
-000-
  8
_1-8_小物
 10
210
 20
148.5
 41
1
 42
1
 50
0
  0
LINE
  8
_1-8_小物
  6
CONTINUOUS
 62
    4
 10
157.03985321657854
 20
131.84018902839435
 11
151.17656837665959
 21
130.18752043233465
  0
LINE
  8
_1-8_小物
  6
CONTINUOUS
 62
    4
 10
157.16066740562414
 20
131.35707331101597
 11
151.2464714580253
 21
129.68796469593613
  0
LINE
  8
_1-8_小物
  6
CONTINUOUS
 62
    4
 10
157.03985321657854
 20
127.15981097160562
 11
151.17656837665959
 21
128.81247956766532
  0
LINE
  8
_1-8_小物
  6
CONTINUOUS
 62
    4
 10
157.16066740562414
 20
127.64292668898401
 11
151.2464714580253
 21
129.31203530406384
  0
LINE
  8
_1-8_小物
  6
CONTINUOUS
 62
    4
 10
157.16066751342231
 20
127.64292665856117
 11
157.16066751342231
 21
127.64292665856117
  0
LINE
  8
_1-8_小物
  6
CONTINUOUS
 62
    4
 10
157.16066751342231
 20
127.64292665856117
 11
157.63349044305451
 21
127.54220923628057
  0
LINE
  8
_1-8_小物
  6
CONTINUOUS
 62
    4
 10
157.63349044305451
 20
127.54220923628057
 11
158.12390677547921
 21
127.50097829566566
  0
LINE
  8
_1-8_小物
  6
CONTINUOUS
 62
    4
 10
158.12390677547921
 20
127.50097829566566
 11
158.61701545859836
 21
127.52048661798315
  0
LINE
  8
_1-8_小物
  6
CONTINUOUS
 62
    4
 10
158.61701545859836
 20
127.52048661798315
 11
159.09783363460036
 21
127.60014145273114
  0
LINE
  8
_1-8_小物
  6
CONTINUOUS
 62
    4
 10
159.09783363460036
 20
127.60014145273114
 11
159.55175188651319
 21
127.73752252806307
  0
LINE
  8
_1-8_小物
  6
CONTINUOUS
 62
    4
 10
159.55175188651319
 20
127.73752252806307
 11
159.96497813794616
 21
127.92845558952315
  0
LINE
  8
_1-8_小物
  6
CONTINUOUS
 62
    4
 10
159.96497813794616
 20
127.92845558952315
 11
160.32495671835204
 21
128.16713923265576
  0
LINE
  8
_1-8_小物
  6
CONTINUOUS
 62
    4
 10
160.32495671835204
 20
128.16713923265576
 11
160.62074986072321
 21
128.446321175744
  0
LINE
  8
_1-8_小物
  6
CONTINUOUS
 62
    4
 10
160.62074986072321
 20
128.446321175744
 11
160.8433700401072
 21
128.75751861672009
  0
LINE
  8
_1-8_小物
  6
CONTINUOUS
 62
    4
 10
160.8433700401072
 20
128.75751861672009
 11
160.9860530550047
 21
129.0912759788134
  0
LINE
  8
_1-8_小物
  6
CONTINUOUS
 62
    4
 10
160.9860530550047
 20
129.0912759788134
 11
161.04446355420916
 21
129.43745221346614
  0
LINE
  8
_1-8_小物
  6
CONTINUOUS
 62
    4
 10
161.04446355420916
 20
129.43745221346614
 11
161.01682676425938
 21
129.78552893096199
  0
LINE
  8
_1-8_小物
  6
CONTINUOUS
 62
    4
 10
161.01682676425938
 20
129.78552893096199
 11
160.90398241503306
 21
130.12492999637519
  0
LINE
  8
_1-8_小物
  6
CONTINUOUS
 62
    4
 10
160.90398241503306
 20
130.12492999637519
 11
160.70935922497949
 21
130.44534288007836
  0
LINE
  8
_1-8_小物
  6
CONTINUOUS
 62
    4
 10
160.70935922497949
 20
130.44534288007836
 11
160.43887072124437
 21
130.73703199873694
  0
LINE
  8
_1-8_小物
  6
CONTINUOUS
 62
    4
 10
160.43887072124437
 20
130.73703199873694
 11
160.10073556013987
 21
130.99113452608228
  0
LINE
  8
_1-8_小物
  6
CONTINUOUS
 62
    4
 10
160.10073556013987
 20
130.99113452608228
 11
159.7052278074315
 21
131.19992968540308
  0
LINE
  8
_1-8_小物
  6
CONTINUOUS
 62
    4
 10
159.7052278074315
 20
131.19992968540308
 11
159.26436476604874
 21
131.35707334143885
  0
LINE
  8
_1-8_小物
  6
CONTINUOUS
 62
    4
 10
159.26436476604874
 20
131.35707334143885
 11
158.79154183641654
 21
131.45779076371943
  0
LINE
  8
_1-8_小物
  6
CONTINUOUS
 62
    4
 10
158.79154183641654
 20
131.45779076371943
 11
158.30112550399184
 21
131.49902170433435
  0
LINE
  8
_1-8_小物
  6
CONTINUOUS
 62
    4
 10
158.30112550399184
 20
131.49902170433435
 11
157.80801682087269
 21
131.47951338201685
  0
LINE
  8
_1-8_小物
  6
CONTINUOUS
 62
    4
 10
157.80801682087269
 20
131.47951338201685
 11
157.32719864487069
 21
131.39985854726888
  0
LINE
  8
_1-8_小物
  6
CONTINUOUS
 62
    4
 10
157.32719864487069
 20
131.39985854726888
 11
157.16066740562411
 21
131.35707331101594
  0
LINE
  8
_1-8_小物
  6
CONTINUOUS
 62
    4
 10
157.03985330378111
 20
127.15981094702609
 11
157.03985330378111
 21
127.15981094702609
  0
LINE
  8
_1-8_小物
  6
CONTINUOUS
 62
    4
 10
157.03985330378111
 20
127.15981094702609
 11
157.59949477314501
 21
127.04264060375607
  0
LINE
  8
_1-8_小物
  6
CONTINUOUS
 62
    4
 10
157.59949477314501
 20
127.04264060375607
 11
158.17776258652901
 21
127.00013588225708
  0
LINE
  8
_1-8_小物
  6
CONTINUOUS
 62
    4
 10
158.17776258652901
 20
127.00013588225708
 11
158.75708636904102
 21
127.03358826698343
  0
LINE
  8
_1-8_小物
  6
CONTINUOUS
 62
    4
 10
158.75708636904102
 20
127.03358826698343
 11
159.31986366070143
 21
127.14198132415292
  0
LINE
  8
_1-8_小物
  6
CONTINUOUS
 62
    4
 10
159.31986366070143
 20
127.14198132415292
 11
159.84899475828217
 21
127.32202158557301
  0
LINE
  8
_1-8_小物
  6
CONTINUOUS
 62
    4
 10
159.84899475828217
 20
127.32202158557301
 11
160.3284022811365
 21
127.56823861900521
  0
LINE
  8
_1-8_小物
  6
CONTINUOUS
 62
    4
 10
160.3284022811365
 20
127.56823861900521
 11
160.74351967427444
 21
127.87315124448051
  0
LINE
  8
_1-8_小物
  6
CONTINUOUS
 62
    4
 10
160.74351967427444
 20
127.87315124448051
 11
161.08173380576497
 21
128.22749484616708
  0
LINE
  8
_1-8_小物
  6
CONTINUOUS
 62
    4
 10
161.08173380576497
 20
128.22749484616708
 11
161.33276821036739
 21
128.62050287303418
  0
LINE
  8
_1-8_小物
  6
CONTINUOUS
 62
    4
 10
161.33276821036739
 20
128.62050287303418
 11
161.48899533472741
 21
129.04023397505711
  0
LINE
  8
_1-8_小物
  6
CONTINUOUS
 62
    4
 10
161.48899533472741
 20
129.04023397505711
 11
161.54566829672606
 21
129.47393483509512
  0
LINE
  8
_1-8_小物
  6
CONTINUOUS
 62
    4
 10
161.54566829672606
 20
129.47393483509512
 11
161.50106511709092
 21
129.90842767197913
  0
LINE
  8
_1-8_小物
  6
CONTINUOUS
 62
    4
 10
161.50106511709092
 20
129.90842767197913
 11
161.35654104086493
 21
130.33051064072444
  0
LINE
  8
_1-8_小物
  6
CONTINUOUS
 62
    4
 10
161.35654104086493
 20
130.33051064072444
 11
161.11648735897148
 21
130.72735896391001
  0
LINE
  8
_1-8_小物
  6
CONTINUOUS
 62
    4
 10
161.11648735897148
 20
130.72735896391001
 11
160.7881979810619
 21
131.08691460605075
  0
LINE
  8
_1-8_小物
  6
CONTINUOUS
 62
    4
 10
160.7881979810619
 20
131.08691460605075
 11
160.3816478137615
 21
131.3982526509042
  0
LINE
  8
_1-8_小物
  6
CONTINUOUS
 62
    4
 10
160.3816478137615
 20
131.3982526509042
 11
159.90918967817942
 21
131.6519132495221
  0
LINE
  8
_1-8_小物
  6
CONTINUOUS
 62
    4
 10
159.90918967817942
 20
131.6519132495221
 11
159.38517897568994
 21
131.84018905297393
  0
LINE
  8
_1-8_小物
  6
CONTINUOUS
 62
    4
 10
159.38517897568994
 20
131.84018905297393
 11
158.82553750632604
 21
131.95735939624393
  0
LINE
  8
_1-8_小物
  6
CONTINUOUS
 62
    4
 10
158.82553750632604
 20
131.95735939624393
 11
158.24726969294204
 21
131.99986411774293
  0
LINE
  8
_1-8_小物
  6
CONTINUOUS
 62
    4
 10
158.24726969294204
 20
131.99986411774293
 11
157.66794591043003
 21
131.96641173301657
  0
LINE
  8
_1-8_小物
  6
CONTINUOUS
 62
    4
 10
157.66794591043003
 20
131.96641173301657
 11
157.10516861876962
 21
131.85801867584706
  0
LINE
  8
_1-8_小物
  6
CONTINUOUS
 62
    4
 10
157.10516861876962
 20
131.85801867584706
 11
157.03985321657854
 21
131.84018902839435
  0
ARC
  8
_1-8_小物
  6
CONTINUOUS
 62
    4
 10
149.88841540894526
 20
124.49999999999997
 40
5
 50
74.23983426036601
 51
82.444482010074083
  0
ARC
  8
_1-8_小物
  6
CONTINUOUS
 62
    4
 10
149.82008748449653
 20
123.99999999999997
 40
5
 50
74.258588419679057
 51
81.653895699843488
  0
ARC
  8
_1-8_小物
  6
CONTINUOUS
 62
    4
 10
149.82008748449653
 20
135
 40
5
 50
278.34610430015653
 51
285.74141158032086
  0
ARC
  8
_1-8_小物
  6
CONTINUOUS
 62
    4
 10
149.88841540894526
 20
134.5
 40
5
 50
277.55551798992593
 51
285.76016573963392
  0
INSERT
  2
-001-_1_
  8
_1-8_小物
 10
210
 20
148.5
 41
1
 42
1
 50
0
  0
LINE
  8
_1-8_小物
  6
CONTINUOUS
 62
    4
 10
82.718512396225861
 20
131.84018902839435
 11
88.581797236144808
 21
130.18752043233465
  0
LINE
  8
_1-8_小物
  6
CONTINUOUS
 62
    4
 10
82.59769820718023
 20
131.35707331101597
 11
88.511894154779114
 21
129.68796469593613
  0
LINE
  8
_1-8_小物
  6
CONTINUOUS
 62
    4
 10
82.718512396225861
 20
127.15981097160562
 11
88.581797236144808
 21
128.81247956766532
  0
LINE
  8
_1-8_小物
  6
CONTINUOUS
 62
    4
 10
82.59769820718023
 20
127.64292668898401
 11
88.511894154779114
 21
129.31203530406384
  0
LINE
  8
_1-8_小物
  6
CONTINUOUS
 62
    4
 10
82.597698207180315
 20
131.35707331101594
 11
82.597698207180315
 21
131.35707331101594
  0
LINE
  8
_1-8_小物
  6
CONTINUOUS
 62
    4
 10
82.597698207180315
 20
131.35707331101594
 11
82.124875283394502
 21
131.45779074697211
  0
LINE
  8
_1-8_小物
  6
CONTINUOUS
 62
    4
 10
82.124875283394502
 20
131.45779074697211
 11
81.634458953363151
 21
131.49902170177148
  0
LINE
  8
_1-8_小物
  6
CONTINUOUS
 62
    4
 10
81.634458953363151
 20
131.49902170177148
 11
81.141350269111612
 21
131.47951339371627
  0
LINE
  8
_1-8_小物
  6
CONTINUOUS
 62
    4
 10
81.141350269111612
 20
131.47951339371627
 11
80.660532088485837
 21
131.39985857287513
  0
LINE
  8
_1-8_小物
  6
CONTINUOUS
 62
    4
 10
80.660532088485837
 20
131.39985857287513
 11
80.206613828598407
 21
131.262477510672
  0
LINE
  8
_1-8_小物
  6
CONTINUOUS
 62
    4
 10
80.206613828598407
 20
131.262477510672
 11
79.793387566082274
 21
131.07154446116377
  0
LINE
  8
_1-8_小物
  6
CONTINUOUS
 62
    4
 10
79.793387566082274
 20
131.07154446116377
 11
79.433408971821422
 21
130.8328608284429
  0
LINE
  8
_1-8_小物
  6
CONTINUOUS
 62
    4
 10
79.433408971821422
 20
130.8328608284429
 11
79.137615813244494
 21
130.55367889390996
  0
LINE
  8
_1-8_小物
  6
CONTINUOUS
 62
    4
 10
79.137615813244494
 20
130.55367889390996
 11
78.9149956157963
 21
130.24248145937278
  0
LINE
  8
_1-8_小物
  6
CONTINUOUS
 62
    4
 10
78.9149956157963
 20
130.24248145937278
 11
78.772312581525057
 21
129.90872410140634
  0
LINE
  8
_1-8_小物
  6
CONTINUOUS
 62
    4
 10
78.772312581525057
 20
129.90872410140634
 11
78.713902062225984
 21
129.56254786844303
  0
LINE
  8
_1-8_小物
  6
CONTINUOUS
 62
    4
 10
78.713902062225984
 20
129.56254786844303
 11
78.741538831970828
 21
129.2144711501478
  0
LINE
  8
_1-8_小物
  6
CONTINUOUS
 62
    4
 10
78.741538831970828
 20
129.2144711501478
 11
78.85438316149579
 21
128.8750700814708
  0
LINE
  8
_1-8_小物
  6
CONTINUOUS
 62
    4
 10
78.85438316149579
 20
128.8750700814708
 11
79.049006332950214
 21
128.55465719213848
  0
LINE
  8
_1-8_小物
  6
CONTINUOUS
 62
    4
 10
79.049006332950214
 20
128.55465719213848
 11
79.319494819753572
 21
128.26296806565651
  0
LINE
  8
_1-8_小物
  6
CONTINUOUS
 62
    4
 10
79.319494819753572
 20
128.26296806565651
 11
79.65762996610809
 21
128.0088655285312
  0
LINE
  8
_1-8_小物
  6
CONTINUOUS
 62
    4
 10
79.65762996610809
 20
128.0088655285312
 11
80.053137706696447
 21
127.80007035777102
  0
LINE
  8
_1-8_小物
  6
CONTINUOUS
 62
    4
 10
80.053137706696447
 20
127.80007035777102
 11
80.494000738957411
 21
127.64292668898406
  0
LINE
  8
_1-8_小物
  6
CONTINUOUS
 62
    4
 10
80.494000738957411
 20
127.64292668898406
 11
80.966823662743224
 21
127.54220925302788
  0
LINE
  8
_1-8_小物
  6
CONTINUOUS
 62
    4
 10
80.966823662743224
 20
127.54220925302788
 11
81.457239992774589
 21
127.50097829822853
  0
LINE
  8
_1-8_小物
  6
CONTINUOUS
 62
    4
 10
81.457239992774589
 20
127.50097829822853
 11
81.950348677026128
 21
127.52048660628371
  0
LINE
  8
_1-8_小物
  6
CONTINUOUS
 62
    4
 10
81.950348677026128
 20
127.52048660628371
 11
82.431166857651903
 21
127.60014142712487
  0
LINE
  8
_1-8_小物
  6
CONTINUOUS
 62
    4
 10
82.431166857651903
 20
127.60014142712487
 11
82.597698099382072
 21
127.64292665856115
  0
LINE
  8
_1-8_小物
  6
CONTINUOUS
 62
    4
 10
82.718512396225861
 20
131.84018902839435
 11
82.718512396225861
 21
131.84018902839435
  0
LINE
  8
_1-8_小物
  6
CONTINUOUS
 62
    4
 10
82.718512396225861
 20
131.84018902839435
 11
82.15887093122808
 21
131.9573593833947
  0
LINE
  8
_1-8_小物
  6
CONTINUOUS
 62
    4
 10
82.15887093122808
 20
131.9573593833947
 11
81.580603119427948
 21
131.99986411701445
  0
LINE
  8
_1-8_小物
  6
CONTINUOUS
 62
    4
 10
81.580603119427948
 20
131.99986411701445
 11
81.001279335669395
 21
131.96641174443101
  0
LINE
  8
_1-8_小物
  6
CONTINUOUS
 62
    4
 10
81.001279335669395
 20
131.96641174443101
 11
80.438502039969933
 21
131.8580186990576
  0
LINE
  8
_1-8_小物
  6
CONTINUOUS
 62
    4
 10
80.438502039969933
 20
131.8580186990576
 11
79.909370935680343
 21
131.67797844872834
  0
LINE
  8
_1-8_小物
  6
CONTINUOUS
 62
    4
 10
79.909370935680343
 20
131.67797844872834
 11
79.4299634036512
 21
131.43176142534475
  0
LINE
  8
_1-8_小物
  6
CONTINUOUS
 62
    4
 10
79.4299634036512
 20
131.43176142534475
 11
79.014845999151319
 21
131.12684880857049
  0
LINE
  8
_1-8_小物
  6
CONTINUOUS
 62
    4
 10
79.014845999151319
 20
131.12684880857049
 11
78.676631854456858
 21
130.77250521397306
  0
LINE
  8
_1-8_小物
  6
CONTINUOUS
 62
    4
 10
78.676631854456858
 20
130.77250521397306
 11
78.425597435209752
 21
130.37949719236775
  0
LINE
  8
_1-8_小物
  6
CONTINUOUS
 62
    4
 10
78.425597435209752
 20
130.37949719236775
 11
78.269370295209285
 21
129.95976609361941
  0
LINE
  8
_1-8_小物
  6
CONTINUOUS
 62
    4
 10
78.269370295209285
 20
129.95976609361941
 11
78.212697317049603
 21
129.52606523476931
  0
LINE
  8
_1-8_小物
  6
CONTINUOUS
 62
    4
 10
78.212697317049603
 20
129.52606523476931
 11
78.257300480494209
 21
129.0915723969504
  0
LINE
  8
_1-8_小物
  6
CONTINUOUS
 62
    4
 10
78.257300480494209
 20
129.0915723969504
 11
78.401824540992109
 21
128.66948942517578
  0
LINE
  8
_1-8_小物
  6
CONTINUOUS
 62
    4
 10
78.401824540992109
 20
128.66948942517578
 11
78.641878208097779
 21
128.27264109695858
  0
LINE
  8
_1-8_小物
  6
CONTINUOUS
 62
    4
 10
78.641878208097779
 20
128.27264109695858
 11
78.970167572609228
 21
127.91308544793674
  0
LINE
  8
_1-8_小物
  6
CONTINUOUS
 62
    4
 10
78.970167572609228
 20
127.91308544793674
 11
79.376717728308222
 21
127.60174739456183
  0
LINE
  8
_1-8_小物
  6
CONTINUOUS
 62
    4
 10
79.376717728308222
 20
127.60174739456183
 11
79.84917585443813
 21
127.34808678604097
  0
LINE
  8
_1-8_小物
  6
CONTINUOUS
 62
    4
 10
79.84917585443813
 20
127.34808678604097
 11
80.373186549911864
 21
127.15981097160564
  0
LINE
  8
_1-8_小物
  6
CONTINUOUS
 62
    4
 10
80.373186549911864
 20
127.15981097160564
 11
80.93282801490966
 21
127.04264061660528
  0
LINE
  8
_1-8_小物
  6
CONTINUOUS
 62
    4
 10
80.93282801490966
 20
127.04264061660528
 11
81.511095826709791
 21
127.00013588298553
  0
LINE
  8
_1-8_小物
  6
CONTINUOUS
 62
    4
 10
81.511095826709791
 20
127.00013588298553
 11
82.090419610468345
 21
127.03358825556899
  0
LINE
  8
_1-8_小物
  6
CONTINUOUS
 62
    4
 10
82.090419610468345
 20
127.03358825556899
 11
82.653196906167807
 21
127.1419813009424
  0
LINE
  8
_1-8_小物
  6
CONTINUOUS
 62
    4
 10
82.653196906167807
 20
127.1419813009424
 11
82.718512309023282
 21
127.15981094702607
  0
ARC
  8
_1-8_小物
  6
CONTINUOUS
 62
    4
 10
89.869950203859119
 20
124.49999999999997
 40
5
 50
97.555517989925761
 51
105.76016573963415
  0
ARC
  8
_1-8_小物
  6
CONTINUOUS
 62
    4
 10
89.938278128307871
 20
123.99999999999997
 40
5
 50
98.346104300156512
 51
105.74141158032096
  0
ARC
  8
_1-8_小物
  6
CONTINUOUS
 62
    4
 10
89.938278128307871
 20
135
 40
5
 50
254.25858841967909
 51
261.65389569984347
  0
ARC
  8
_1-8_小物
  6
CONTINUOUS
 62
    4
 10
89.869950203859119
 20
134.5
 40
5
 50
254.23983426036591
 51
262.44448201007424
  0
LINE
  8
_1-8_小物
  6
CONTINUOUS
 62
    4
 10
91.879182806402198
 20
129.24999999999997
 11
118.21251613973553
 21
129.24999999999997
  0
LINE
  8
_1-8_小物
  6
CONTINUOUS
 62
    4
 10
91.879182806402198
 20
129.75
 11
118.21251613973553
 21
129.75
  0
LINE
  8
_1-8_小物
  6
CONTINUOUS
 62
    4
 10
147.87918280640218
 20
129.24999999999997
 11
121.54584947306887
 21
129.24999999999997
  0
LINE
  8
_1-8_小物
  6
CONTINUOUS
 62
    4
 10
147.87918280640218
 20
129.75
 11
121.54584947306887
 21
129.75
  0
TEXT
  8
_0-0_図面枠
 62
    4
 10
241.66666666666674
 20
128
 40
3
 41
1
 50
0
  1
（落下防止ワイヤー）
  0
INSERT
  2
-002-_2_
  8
_1-8_小物
 10
210
 20
148.5
 41
1
 42
1
 50
0
  0
LINE
  8
_1-8_小物
  6
CONTINUOUS
 62
    4
 10
357.03985321657848
 20
131.84018902839435
 11
351.17656837665965
 21
130.18752043233465
  0
LINE
  8
_1-8_小物
  6
CONTINUOUS
 62
    4
 10
357.16066740562411
 20
131.35707331101597
 11
351.24647145802521
 21
129.68796469593613
  0
LINE
  8
_1-8_小物
  6
CONTINUOUS
 62
    4
 10
357.03985321657848
 20
127.15981097160562
 11
351.17656837665965
 21
128.81247956766532
  0
LINE
  8
_1-8_小物
  6
CONTINUOUS
 62
    4
 10
357.16066740562411
 20
127.64292668898401
 11
351.24647145802521
 21
129.31203530406384
  0
LINE
  8
_1-8_小物
  6
CONTINUOUS
 62
    4
 10
357.16066751342225
 20
127.64292665856118
 11
357.16066751342225
 21
127.64292665856118
  0
LINE
  8
_1-8_小物
  6
CONTINUOUS
 62
    4
 10
357.16066751342225
 20
127.64292665856118
 11
357.63349044305443
 21
127.54220923628058
  0
LINE
  8
_1-8_小物
  6
CONTINUOUS
 62
    4
 10
357.63349044305443
 20
127.54220923628058
 11
358.12390677547916
 21
127.50097829566566
  0
LINE
  8
_1-8_小物
  6
CONTINUOUS
 62
    4
 10
358.12390677547916
 20
127.50097829566566
 11
358.6170154585983
 21
127.52048661798314
  0
LINE
  8
_1-8_小物
  6
CONTINUOUS
 62
    4
 10
358.6170154585983
 20
127.52048661798314
 11
359.09783363460031
 21
127.60014145273111
  0
LINE
  8
_1-8_小物
  6
CONTINUOUS
 62
    4
 10
359.09783363460031
 20
127.60014145273111
 11
359.55175188651316
 21
127.73752252806302
  0
LINE
  8
_1-8_小物
  6
CONTINUOUS
 62
    4
 10
359.55175188651316
 20
127.73752252806302
 11
359.9649781379461
 21
127.92845558952313
  0
LINE
  8
_1-8_小物
  6
CONTINUOUS
 62
    4
 10
359.9649781379461
 20
127.92845558952313
 11
360.32495671835204
 21
128.1671392326557
  0
LINE
  8
_1-8_小物
  6
CONTINUOUS
 62
    4
 10
360.32495671835204
 20
128.1671392326557
 11
360.62074986072315
 21
128.44632117574395
  0
LINE
  8
_1-8_小物
  6
CONTINUOUS
 62
    4
 10
360.62074986072315
 20
128.44632117574395
 11
360.84337004010717
 21
128.75751861672001
  0
LINE
  8
_1-8_小物
  6
CONTINUOUS
 62
    4
 10
360.84337004010717
 20
128.75751861672001
 11
360.98605305500473
 21
129.09127597881334
  0
LINE
  8
_1-8_小物
  6
CONTINUOUS
 62
    4
 10
360.98605305500473
 20
129.09127597881334
 11
361.04446355420919
 21
129.43745221346606
  0
LINE
  8
_1-8_小物
  6
CONTINUOUS
 62
    4
 10
361.04446355420919
 20
129.43745221346606
 11
361.01682676425941
 21
129.78552893096193
  0
LINE
  8
_1-8_小物
  6
CONTINUOUS
 62
    4
 10
361.01682676425941
 20
129.78552893096193
 11
360.90398241503311
 21
130.12492999637513
  0
LINE
  8
_1-8_小物
  6
CONTINUOUS
 62
    4
 10
360.90398241503311
 20
130.12492999637513
 11
360.70935922497955
 21
130.4453428800783
  0
LINE
  8
_1-8_小物
  6
CONTINUOUS
 62
    4
 10
360.70935922497955
 20
130.4453428800783
 11
360.43887072124443
 21
130.73703199873688
  0
LINE
  8
_1-8_小物
  6
CONTINUOUS
 62
    4
 10
360.43887072124443
 20
130.73703199873688
 11
360.10073556013998
 21
130.99113452608222
  0
LINE
  8
_1-8_小物
  6
CONTINUOUS
 62
    4
 10
360.10073556013998
 20
130.99113452608222
 11
359.70522780743158
 21
131.19992968540305
  0
LINE
  8
_1-8_小物
  6
CONTINUOUS
 62
    4
 10
359.70522780743158
 20
131.19992968540305
 11
359.26436476604886
 21
131.35707334143882
  0
LINE
  8
_1-8_小物
  6
CONTINUOUS
 62
    4
 10
359.26436476604886
 20
131.35707334143882
 11
358.79154183641668
 21
131.45779076371943
  0
LINE
  8
_1-8_小物
  6
CONTINUOUS
 62
    4
 10
358.79154183641668
 20
131.45779076371943
 11
358.30112550399195
 21
131.49902170433435
  0
LINE
  8
_1-8_小物
  6
CONTINUOUS
 62
    4
 10
358.30112550399195
 20
131.49902170433435
 11
357.80801682087281
 21
131.47951338201685
  0
LINE
  8
_1-8_小物
  6
CONTINUOUS
 62
    4
 10
357.80801682087281
 20
131.47951338201685
 11
357.3271986448708
 21
131.39985854726891
  0
LINE
  8
_1-8_小物
  6
CONTINUOUS
 62
    4
 10
357.3271986448708
 20
131.39985854726891
 11
357.16066740562411
 21
131.35707331101594
  0
LINE
  8
_1-8_小物
  6
CONTINUOUS
 62
    4
 10
357.03985330378111
 20
127.15981094702609
 11
357.03985330378111
 21
127.15981094702609
  0
LINE
  8
_1-8_小物
  6
CONTINUOUS
 62
    4
 10
357.03985330378111
 20
127.15981094702609
 11
357.59949477314501
 21
127.04264060375608
  0
LINE
  8
_1-8_小物
  6
CONTINUOUS
 62
    4
 10
357.59949477314501
 20
127.04264060375608
 11
358.17776258652901
 21
127.00013588225708
  0
LINE
  8
_1-8_小物
  6
CONTINUOUS
 62
    4
 10
358.17776258652901
 20
127.00013588225708
 11
358.75708636904102
 21
127.03358826698343
  0
LINE
  8
_1-8_小物
  6
CONTINUOUS
 62
    4
 10
358.75708636904102
 20
127.03358826698343
 11
359.31986366070146
 21
127.14198132415292
  0
LINE
  8
_1-8_小物
  6
CONTINUOUS
 62
    4
 10
359.31986366070146
 20
127.14198132415292
 11
359.84899475828217
 21
127.32202158557301
  0
LINE
  8
_1-8_小物
  6
CONTINUOUS
 62
    4
 10
359.84899475828217
 20
127.32202158557301
 11
360.3284022811365
 21
127.5682386190052
  0
LINE
  8
_1-8_小物
  6
CONTINUOUS
 62
    4
 10
360.3284022811365
 20
127.5682386190052
 11
360.74351967427447
 21
127.8731512444805
  0
LINE
  8
_1-8_小物
  6
CONTINUOUS
 62
    4
 10
360.74351967427447
 20
127.8731512444805
 11
361.081733805765
 21
128.22749484616705
  0
LINE
  8
_1-8_小物
  6
CONTINUOUS
 62
    4
 10
361.081733805765
 20
128.22749484616705
 11
361.33276821036742
 21
128.62050287303416
  0
LINE
  8
_1-8_小物
  6
CONTINUOUS
 62
    4
 10
361.33276821036742
 20
128.62050287303416
 11
361.48899533472741
 21
129.04023397505711
  0
LINE
  8
_1-8_小物
  6
CONTINUOUS
 62
    4
 10
361.48899533472741
 20
129.04023397505711
 11
361.54566829672609
 21
129.47393483509509
  0
LINE
  8
_1-8_小物
  6
CONTINUOUS
 62
    4
 10
361.54566829672609
 20
129.47393483509509
 11
361.50106511709095
 21
129.9084276719791
  0
LINE
  8
_1-8_小物
  6
CONTINUOUS
 62
    4
 10
361.50106511709095
 20
129.9084276719791
 11
361.35654104086495
 21
130.33051064072441
  0
LINE
  8
_1-8_小物
  6
CONTINUOUS
 62
    4
 10
361.35654104086495
 20
130.33051064072441
 11
361.11648735897154
 21
130.72735896390998
  0
LINE
  8
_1-8_小物
  6
CONTINUOUS
 62
    4
 10
361.11648735897154
 20
130.72735896390998
 11
360.78819798106196
 21
131.08691460605073
  0
LINE
  8
_1-8_小物
  6
CONTINUOUS
 62
    4
 10
360.78819798106196
 20
131.08691460605073
 11
360.38164781376156
 21
131.39825265090417
  0
LINE
  8
_1-8_小物
  6
CONTINUOUS
 62
    4
 10
360.38164781376156
 20
131.39825265090417
 11
359.90918967817947
 21
131.6519132495221
  0
LINE
  8
_1-8_小物
  6
CONTINUOUS
 62
    4
 10
359.90918967817947
 20
131.6519132495221
 11
359.38517897569
 21
131.8401890529739
  0
LINE
  8
_1-8_小物
  6
CONTINUOUS
 62
    4
 10
359.38517897569
 20
131.8401890529739
 11
358.8255375063261
 21
131.95735939624393
  0
LINE
  8
_1-8_小物
  6
CONTINUOUS
 62
    4
 10
358.8255375063261
 20
131.95735939624393
 11
358.2472696929421
 21
131.99986411774293
  0
LINE
  8
_1-8_小物
  6
CONTINUOUS
 62
    4
 10
358.2472696929421
 20
131.99986411774293
 11
357.66794591043009
 21
131.96641173301657
  0
LINE
  8
_1-8_小物
  6
CONTINUOUS
 62
    4
 10
357.66794591043009
 20
131.96641173301657
 11
357.10516861876965
 21
131.85801867584709
  0
LINE
  8
_1-8_小物
  6
CONTINUOUS
 62
    4
 10
357.10516861876965
 20
131.85801867584709
 11
357.03985321657848
 21
131.84018902839432
  0
ARC
  8
_1-8_小物
  6
CONTINUOUS
 62
    4
 10
349.88841540894521
 20
124.49999999999997
 40
5
 50
74.239834260366322
 51
82.444482010073443
  0
ARC
  8
_1-8_小物
  6
CONTINUOUS
 62
    4
 10
349.82008748449653
 20
123.99999999999997
 40
5
 50
74.258588419678418
 51
81.653895699843488
  0
ARC
  8
_1-8_小物
  6
CONTINUOUS
 62
    4
 10
349.82008748449653
 20
135
 40
5
 50
278.34610430015653
 51
285.7414115803216
  0
ARC
  8
_1-8_小物
  6
CONTINUOUS
 62
    4
 10
349.88841540894521
 20
134.5
 40
5
 50
277.55551798992656
 51
285.76016573963363
  0
INSERT
  2
-003-_3_
  8
_1-8_小物
 10
210
 20
148.5
 41
1
 42
1
 50
0
  0
LINE
  8
_1-8_小物
  6
CONTINUOUS
 62
    4
 10
282.71851239622583
 20
131.84018902839435
 11
288.58179723614478
 21
130.18752043233465
  0
LINE
  8
_1-8_小物
  6
CONTINUOUS
 62
    4
 10
282.5976982071802
 20
131.35707331101597
 11
288.5118941547791
 21
129.68796469593613
  0
LINE
  8
_1-8_小物
  6
CONTINUOUS
 62
    4
 10
282.71851239622583
 20
127.15981097160562
 11
288.58179723614478
 21
128.81247956766532
  0
LINE
  8
_1-8_小物
  6
CONTINUOUS
 62
    4
 10
282.5976982071802
 20
127.64292668898401
 11
288.5118941547791
 21
129.31203530406384
  0
LINE
  8
_1-8_小物
  6
CONTINUOUS
 62
    4
 10
282.59769820718031
 20
131.35707331101594
 11
282.59769820718031
 21
131.35707331101594
  0
LINE
  8
_1-8_小物
  6
CONTINUOUS
 62
    4
 10
282.59769820718031
 20
131.35707331101594
 11
282.12487528339449
 21
131.45779074697211
  0
LINE
  8
_1-8_小物
  6
CONTINUOUS
 62
    4
 10
282.12487528339449
 20
131.45779074697211
 11
281.63445895336315
 21
131.49902170177148
  0
LINE
  8
_1-8_小物
  6
CONTINUOUS
 62
    4
 10
281.63445895336315
 20
131.49902170177148
 11
281.14135026911163
 21
131.47951339371627
  0
LINE
  8
_1-8_小物
  6
CONTINUOUS
 62
    4
 10
281.14135026911163
 20
131.47951339371627
 11
280.66053208848581
 21
131.39985857287513
  0
LINE
  8
_1-8_小物
  6
CONTINUOUS
 62
    4
 10
280.66053208848581
 20
131.39985857287513
 11
280.20661382859839
 21
131.262477510672
  0
LINE
  8
_1-8_小物
  6
CONTINUOUS
 62
    4
 10
280.20661382859839
 20
131.262477510672
 11
279.79338756608229
 21
131.07154446116377
  0
LINE
  8
_1-8_小物
  6
CONTINUOUS
 62
    4
 10
279.79338756608229
 20
131.07154446116377
 11
279.43340897182139
 21
130.8328608284429
  0
LINE
  8
_1-8_小物
  6
CONTINUOUS
 62
    4
 10
279.43340897182139
 20
130.8328608284429
 11
279.13761581324451
 21
130.55367889390996
  0
LINE
  8
_1-8_小物
  6
CONTINUOUS
 62
    4
 10
279.13761581324451
 20
130.55367889390996
 11
278.91499561579633
 21
130.24248145937278
  0
LINE
  8
_1-8_小物
  6
CONTINUOUS
 62
    4
 10
278.91499561579633
 20
130.24248145937278
 11
278.77231258152506
 21
129.90872410140634
  0
LINE
  8
_1-8_小物
  6
CONTINUOUS
 62
    4
 10
278.77231258152506
 20
129.90872410140634
 11
278.713902062226
 21
129.56254786844303
  0
LINE
  8
_1-8_小物
  6
CONTINUOUS
 62
    4
 10
278.713902062226
 20
129.56254786844303
 11
278.74153883197084
 21
129.2144711501478
  0
LINE
  8
_1-8_小物
  6
CONTINUOUS
 62
    4
 10
278.74153883197084
 20
129.2144711501478
 11
278.85438316149578
 21
128.8750700814708
  0
LINE
  8
_1-8_小物
  6
CONTINUOUS
 62
    4
 10
278.85438316149578
 20
128.8750700814708
 11
279.04900633295023
 21
128.55465719213848
  0
LINE
  8
_1-8_小物
  6
CONTINUOUS
 62
    4
 10
279.04900633295023
 20
128.55465719213848
 11
279.31949481975357
 21
128.26296806565651
  0
LINE
  8
_1-8_小物
  6
CONTINUOUS
 62
    4
 10
279.31949481975357
 20
128.26296806565651
 11
279.65762996610812
 21
128.0088655285312
  0
LINE
  8
_1-8_小物
  6
CONTINUOUS
 62
    4
 10
279.65762996610812
 20
128.0088655285312
 11
280.05313770669642
 21
127.80007035777102
  0
LINE
  8
_1-8_小物
  6
CONTINUOUS
 62
    4
 10
280.05313770669642
 20
127.80007035777102
 11
280.49400073895742
 21
127.64292668898406
  0
LINE
  8
_1-8_小物
  6
CONTINUOUS
 62
    4
 10
280.49400073895742
 20
127.64292668898406
 11
280.96682366274325
 21
127.54220925302788
  0
LINE
  8
_1-8_小物
  6
CONTINUOUS
 62
    4
 10
280.96682366274325
 20
127.54220925302788
 11
281.45723999277459
 21
127.50097829822853
  0
LINE
  8
_1-8_小物
  6
CONTINUOUS
 62
    4
 10
281.45723999277459
 20
127.50097829822853
 11
281.95034867702611
 21
127.52048660628371
  0
LINE
  8
_1-8_小物
  6
CONTINUOUS
 62
    4
 10
281.95034867702611
 20
127.52048660628371
 11
282.43116685765187
 21
127.60014142712487
  0
LINE
  8
_1-8_小物
  6
CONTINUOUS
 62
    4
 10
282.43116685765187
 20
127.60014142712487
 11
282.59769809938206
 21
127.64292665856115
  0
LINE
  8
_1-8_小物
  6
CONTINUOUS
 62
    4
 10
282.71851239622583
 20
131.84018902839438
 11
282.71851239622583
 21
131.84018902839438
  0
LINE
  8
_1-8_小物
  6
CONTINUOUS
 62
    4
 10
282.71851239622583
 20
131.84018902839438
 11
282.15887093122802
 21
131.9573593833947
  0
LINE
  8
_1-8_小物
  6
CONTINUOUS
 62
    4
 10
282.15887093122802
 20
131.9573593833947
 11
281.58060311942791
 21
131.99986411701445
  0
LINE
  8
_1-8_小物
  6
CONTINUOUS
 62
    4
 10
281.58060311942791
 20
131.99986411701445
 11
281.00127933566938
 21
131.96641174443101
  0
LINE
  8
_1-8_小物
  6
CONTINUOUS
 62
    4
 10
281.00127933566938
 20
131.96641174443101
 11
280.43850203996988
 21
131.8580186990576
  0
LINE
  8
_1-8_小物
  6
CONTINUOUS
 62
    4
 10
280.43850203996988
 20
131.8580186990576
 11
279.90937093568033
 21
131.67797844872834
  0
LINE
  8
_1-8_小物
  6
CONTINUOUS
 62
    4
 10
279.90937093568033
 20
131.67797844872834
 11
279.42996340365119
 21
131.43176142534472
  0
LINE
  8
_1-8_小物
  6
CONTINUOUS
 62
    4
 10
279.42996340365119
 20
131.43176142534472
 11
279.01484599915131
 21
131.12684880857049
  0
LINE
  8
_1-8_小物
  6
CONTINUOUS
 62
    4
 10
279.01484599915131
 20
131.12684880857049
 11
278.67663185445684
 21
130.77250521397303
  0
LINE
  8
_1-8_小物
  6
CONTINUOUS
 62
    4
 10
278.67663185445684
 20
130.77250521397303
 11
278.42559743520974
 21
130.37949719236772
  0
LINE
  8
_1-8_小物
  6
CONTINUOUS
 62
    4
 10
278.42559743520974
 20
130.37949719236772
 11
278.26937029520928
 21
129.95976609361938
  0
LINE
  8
_1-8_小物
  6
CONTINUOUS
 62
    4
 10
278.26937029520928
 20
129.95976609361938
 11
278.21269731704962
 21
129.52606523476928
  0
LINE
  8
_1-8_小物
  6
CONTINUOUS
 62
    4
 10
278.21269731704962
 20
129.52606523476928
 11
278.25730048049422
 21
129.09157239695037
  0
LINE
  8
_1-8_小物
  6
CONTINUOUS
 62
    4
 10
278.25730048049422
 20
129.09157239695037
 11
278.4018245409921
 21
128.66948942517575
  0
LINE
  8
_1-8_小物
  6
CONTINUOUS
 62
    4
 10
278.4018245409921
 20
128.66948942517575
 11
278.64187820809781
 21
128.27264109695858
  0
LINE
  8
_1-8_小物
  6
CONTINUOUS
 62
    4
 10
278.64187820809781
 20
128.27264109695858
 11
278.97016757260923
 21
127.91308544793672
  0
LINE
  8
_1-8_小物
  6
CONTINUOUS
 62
    4
 10
278.97016757260923
 20
127.91308544793672
 11
279.37671772830822
 21
127.60174739456181
  0
LINE
  8
_1-8_小物
  6
CONTINUOUS
 62
    4
 10
279.37671772830822
 20
127.60174739456181
 11
279.84917585443816
 21
127.34808678604097
  0
LINE
  8
_1-8_小物
  6
CONTINUOUS
 62
    4
 10
279.84917585443816
 20
127.34808678604097
 11
280.37318654991191
 21
127.15981097160564
  0
LINE
  8
_1-8_小物
  6
CONTINUOUS
 62
    4
 10
280.37318654991191
 20
127.15981097160564
 11
280.93282801490966
 21
127.04264061660528
  0
LINE
  8
_1-8_小物
  6
CONTINUOUS
 62
    4
 10
280.93282801490966
 20
127.04264061660528
 11
281.51109582670983
 21
127.00013588298553
  0
LINE
  8
_1-8_小物
  6
CONTINUOUS
 62
    4
 10
281.51109582670983
 20
127.00013588298553
 11
282.09041961046836
 21
127.03358825556899
  0
LINE
  8
_1-8_小物
  6
CONTINUOUS
 62
    4
 10
282.09041961046836
 20
127.03358825556899
 11
282.65319690616781
 21
127.14198130094242
  0
LINE
  8
_1-8_小物
  6
CONTINUOUS
 62
    4
 10
282.65319690616781
 20
127.14198130094242
 11
282.71851230902325
 21
127.15981094702607
  0
ARC
  8
_1-8_小物
  6
CONTINUOUS
 62
    4
 10
289.8699502038591
 20
124.49999999999997
 40
5
 50
97.555517989925917
 51
105.76016573963432
  0
ARC
  8
_1-8_小物
  6
CONTINUOUS
 62
    4
 10
289.93827812830784
 20
123.99999999999997
 40
5
 50
98.346104300156512
 51
105.74141158032096
  0
ARC
  8
_1-8_小物
  6
CONTINUOUS
 62
    4
 10
289.93827812830784
 20
135
 40
5
 50
254.25858841967909
 51
261.65389569984347
  0
ARC
  8
_1-8_小物
  6
CONTINUOUS
 62
    4
 10
289.8699502038591
 20
134.5
 40
5
 50
254.23983426036577
 51
262.44448201007407
  0
LINE
  8
_1-8_小物
  6
CONTINUOUS
 62
    4
 10
291.87918280640218
 20
129.24999999999997
 11
318.2125161397355
 21
129.24999999999997
  0
LINE
  8
_1-8_小物
  6
CONTINUOUS
 62
    4
 10
291.87918280640218
 20
129.75
 11
318.2125161397355
 21
129.75
  0
LINE
  8
_1-8_小物
  6
CONTINUOUS
 62
    4
 10
347.87918280640224
 20
129.24999999999997
 11
321.54584947306887
 21
129.24999999999997
  0
LINE
  8
_1-8_小物
  6
CONTINUOUS
 62
    4
 10
347.87918280640224
 20
129.75
 11
321.54584947306887
 21
129.75
  0
TEXT
  8
_0-0_図面枠
 62
    4
 10
48.400007499999987
 20
99.400003999999953
 40
3.2000000000000002
 41
1
 50
0
  1
ＵＵＧキャップ(Ｄ)Ａ
  0
TEXT
  8
_0-0_図面枠
 62
    4
 10
48.400007499999987
 20
93.400003999999953
 40
3.2000000000000002
 41
1
 50
0
  1
ＵＵＧホルダー(Ｄ)
  0
TEXT
  8
_0-0_図面枠
 62
    4
 10
248.40000750000002
 20
99.400003999999896
 40
3.2000000000000002
 41
1
 50
0
  1
ＵＣＧキャップ(Ｄ)Ａ
  0
TEXT
  8
_0-0_図面枠
 62
    4
 10
248.40000750000002
 20
93.400003999999896
 40
3.2000000000000002
 41
1
 50
0
  1
ＵＣＧホルダー(Ｄ)
  0
TEXT
  8
_0-0_図面枠
 62
    4
 10
248.40000750000013
 20
63.400003999999953
 40
3.2000000000000002
 41
1
 50
0
  1
アンカープラグ
  0
LINE
  8
_1-0_躯体
  6
CENTER2
 62
    4
 10
111.66666666666666
 20
235.86666733333334
 11
111.66666666666666
 21
199.66666700000002
  0
LINE
  8
_1-0_躯体
  6
CENTER2
 62
    4
 10
311.66666666666652
 20
235.86666733333325
 11
311.66666666666652
 21
199.66666699999996
  0
ARC
  8
_1-0_躯体
  6
CONTINUOUS
 62
    4
 10
148.91666599999994
 20
233.16666733333335
 40
0.8333329999999998
 50
90
 51
180
  0
ARC
  8
_1-0_躯体
  6
CONTINUOUS
 62
    4
 10
160.58333300000001
 20
233.16666733333335
 40
0.8333329999999998
 50
0
 51
90
  0
LINE
  8
_1-0_躯体
  6
CONTINUOUS
 62
    4
 10
148.91666599999994
 20
234.00000033333339
 11
160.58333300000001
 21
234.00000033333339
  0
LINE
  8
_1-0_躯体
  6
CONTINUOUS
 62
    4
 10
162.83333300000001
 20
235.66666733333335
 11
173.33333300000004
 21
235.66666733333335
  0
LINE
  8
_1-0_躯体
  6
CONTINUOUS
 62
    4
 10
146.66666599999994
 20
235.66666733333335
 11
144.99999999999997
 21
235.66666733333335
  0
LINE
  8
_1-0_躯体
  6
CONTINUOUS
 62
    4
 10
144.99999999999997
 20
235.66666733333335
 11
144.99999999999997
 21
223.00000033333339
  0
LINE
  8
_1-0_躯体
  6
CONTINUOUS
 62
    4
 10
173.33333300000004
 20
216.66666733333332
 11
144.99999999999997
 21
216.66666733333332
  0
LINE
  8
_1-0_躯体
  6
CONTINUOUS
 62
    4
 10
173.33333300000004
 20
216.00000033333336
 11
144.99999999999997
 21
216.00000033333336
  0
LINE
  8
_1-0_躯体
  6
CONTINUOUS
 62
    4
 10
173.33333300000004
 20
215.33333333333331
 11
144.99999999999997
 21
215.33333333333331
  0
LINE
  8
_1-0_躯体
  6
CONTINUOUS
 62
    4
 10
148.66666599999994
 20
223.00000033333339
 11
144.99999999999997
 21
223.00000033333339
  0
LINE
  8
_1-0_躯体
  6
CONTINUOUS
 62
    4
 10
147.41666599999994
 20
216.83333333333331
 11
148.37732200000002
 21
216.83333333333331
  0
LINE
  8
_1-0_躯体
  6
CONTINUOUS
 62
    4
 10
147.41666599999994
 20
216.66666733333332
 11
148.41666599999994
 21
216.66666733333332
  0
LINE
  8
_1-0_躯体
  6
CONTINUOUS
 62
    4
 10
154.41666599999994
 20
216.66666733333332
 11
154.74999999999997
 21
216.83333333333331
  0
LINE
  8
_1-0_躯体
  6
CONTINUOUS
 62
    4
 10
154.74999999999997
 20
216.83333333333331
 11
155.08333300000001
 21
216.66666733333332
  0
LINE
  8
_1-0_躯体
  6
CONTINUOUS
 62
    4
 10
153.08333300000001
 20
216.66666733333332
 11
154.41666599999994
 21
216.66666733333332
  0
LINE
  8
_1-0_躯体
  6
CONTINUOUS
 62
    4
 10
153.12267800000004
 20
216.83333333333331
 11
154.37732200000002
 21
216.83333333333331
  0
LINE
  8
_1-0_躯体
  6
CONTINUOUS
 62
    4
 10
154.37732200000002
 20
216.83333333333331
 11
154.74999999999997
 21
217.01967233333335
  0
LINE
  8
_1-0_躯体
  6
CONTINUOUS
 62
    4
 10
154.74999999999997
 20
217.01967233333335
 11
155.12267800000004
 21
216.83333333333331
  0
LINE
  8
_1-0_躯体
  6
CONTINUOUS
 62
    4
 10
147.58333300000001
 20
222.00000033333339
 11
147.74999999999997
 21
222.00000033333339
  0
LINE
  8
_1-0_躯体
  6
CONTINUOUS
 62
    4
 10
147.74999999999997
 20
222.00000033333339
 11
147.74999999999997
 21
222.50000033333339
  0
ARC
  8
_1-0_躯体
  6
CONTINUOUS
 62
    4
 10
147.24999999999997
 20
222.50000033333339
 40
0.5
 50
0
 51
90
  0
LINE
  8
_1-0_躯体
  6
CONTINUOUS
 62
    4
 10
146.91666599999994
 20
223.00000033333339
 11
147.24999999999997
 21
223.00000033333339
  0
ARC
  8
_1-0_躯体
  6
CONTINUOUS
 62
    4
 10
146.91666599999994
 20
222.50000033333339
 40
0.5
 50
90
 51
180
  0
LINE
  8
_1-0_躯体
  6
CONTINUOUS
 62
    4
 10
146.41666599999994
 20
222.50000033333339
 11
146.41666599999994
 21
217.66666733333332
  0
ARC
  8
_1-0_躯体
  6
CONTINUOUS
 62
    4
 10
147.24999999999997
 20
222.50000033333339
 40
0.3333329999999999
 50
0
 51
90
  0
LINE
  8
_1-0_躯体
  6
CONTINUOUS
 62
    4
 10
146.91666599999994
 20
222.83333333333337
 11
147.24999999999997
 21
222.83333333333337
  0
ARC
  8
_1-0_躯体
  6
CONTINUOUS
 62
    4
 10
146.91666599999994
 20
222.50000033333339
 40
0.3333329999999999
 50
90
 51
180
  0
ARC
  8
_1-0_躯体
  6
CONTINUOUS
 62
    4
 10
147.41666599999994
 20
217.66666733333332
 40
0.8333329999999998
 50
180
 51
270
  0
LINE
  8
_1-0_躯体
  6
CONTINUOUS
 62
    4
 10
146.58333300000001
 20
222.50000033333339
 11
146.58333300000001
 21
217.66666733333332
  0
LINE
  8
_1-0_躯体
  6
CONTINUOUS
 62
    4
 10
147.58333300000001
 20
222.00000033333339
 11
147.58333300000001
 21
222.50000033333339
  0
ARC
  8
_1-0_躯体
  6
CONTINUOUS
 62
    4
 10
147.41666599999994
 20
217.66666733333332
 40
1
 50
180
 51
270
  0
LINE
  8
_1-0_躯体
  6
CONTINUOUS
 62
    4
 10
161.91666599999994
 20
222.00000033333339
 11
161.74999999999997
 21
222.00000033333339
  0
LINE
  8
_1-0_躯体
  6
CONTINUOUS
 62
    4
 10
161.74999999999997
 20
222.00000033333339
 11
161.74999999999997
 21
222.50000033333339
  0
ARC
  8
_1-0_躯体
  6
CONTINUOUS
 62
    4
 10
162.24999999999997
 20
222.50000033333339
 40
0.5
 50
90
 51
180
  0
LINE
  8
_1-0_躯体
  6
CONTINUOUS
 62
    4
 10
162.58333300000001
 20
223.00000033333339
 11
162.24999999999997
 21
223.00000033333339
  0
ARC
  8
_1-0_躯体
  6
CONTINUOUS
 62
    4
 10
162.58333300000001
 20
222.50000033333339
 40
0.5
 50
0
 51
90
  0
LINE
  8
_1-0_躯体
  6
CONTINUOUS
 62
    4
 10
163.08333300000001
 20
222.50000033333339
 11
163.08333300000001
 21
217.66666733333332
  0
ARC
  8
_1-0_躯体
  6
CONTINUOUS
 62
    4
 10
162.24999999999997
 20
222.50000033333339
 40
0.3333329999999999
 50
90
 51
180
  0
LINE
  8
_1-0_躯体
  6
CONTINUOUS
 62
    4
 10
162.58333300000001
 20
222.83333333333337
 11
162.24999999999997
 21
222.83333333333337
  0
ARC
  8
_1-0_躯体
  6
CONTINUOUS
 62
    4
 10
162.58333300000001
 20
222.50000033333339
 40
0.3333329999999999
 50
0
 51
90
  0
ARC
  8
_1-0_躯体
  6
CONTINUOUS
 62
    4
 10
162.08333300000001
 20
217.66666733333332
 40
0.8333329999999998
 50
270
 51
0
  0
LINE
  8
_1-0_躯体
  6
CONTINUOUS
 62
    4
 10
162.91666599999994
 20
222.50000033333339
 11
162.91666599999994
 21
217.66666733333332
  0
LINE
  8
_1-0_躯体
  6
CONTINUOUS
 62
    4
 10
161.91666599999994
 20
222.00000033333339
 11
161.91666599999994
 21
222.50000033333339
  0
ARC
  8
_1-0_躯体
  6
CONTINUOUS
 62
    4
 10
162.08333300000001
 20
217.66666733333332
 40
1
 50
270
 51
0
  0
LINE
  8
_1-0_躯体
  6
CONTINUOUS
 62
    4
 10
148.41666599999994
 20
216.66666733333332
 11
148.74999999999997
 21
216.83333333333331
  0
LINE
  8
_1-0_躯体
  6
CONTINUOUS
 62
    4
 10
148.74999999999997
 20
216.83333333333331
 11
149.24999999999997
 21
216.66666733333332
  0
LINE
  8
_1-0_躯体
  6
CONTINUOUS
 62
    4
 10
148.37732200000002
 20
216.83333333333331
 11
148.73721099999992
 21
217.01327833333335
  0
LINE
  8
_1-0_躯体
  6
CONTINUOUS
 62
    4
 10
148.73721099999992
 20
217.01327833333335
 11
149.24999999999997
 21
216.84234933333329
  0
LINE
  8
_1-0_躯体
  6
CONTINUOUS
 62
    4
 10
149.74999999999997
 20
216.83333333333331
 11
149.24999999999997
 21
216.66666733333332
  0
LINE
  8
_1-0_躯体
  6
CONTINUOUS
 62
    4
 10
149.24999999999997
 20
216.84234933333329
 11
149.74999999999997
 21
217.00901533333337
  0
LINE
  8
_1-0_躯体
  6
CONTINUOUS
 62
    4
 10
150.74999999999997
 20
216.83333333333331
 11
150.24999999999997
 21
216.66666733333332
  0
LINE
  8
_1-0_躯体
  6
CONTINUOUS
 62
    4
 10
150.24999999999997
 20
216.84234933333329
 11
150.74999999999997
 21
217.00901533333337
  0
LINE
  8
_1-0_躯体
  6
CONTINUOUS
 62
    4
 10
149.74999999999997
 20
216.83333333333331
 11
150.24999999999997
 21
216.66666733333332
  0
LINE
  8
_1-0_躯体
  6
CONTINUOUS
 62
    4
 10
150.24999999999997
 20
216.84234933333329
 11
149.74999999999997
 21
217.00901533333337
  0
LINE
  8
_1-0_躯体
  6
CONTINUOUS
 62
    4
 10
152.74999999999997
 20
216.83333333333331
 11
152.24999999999997
 21
216.66666733333332
  0
LINE
  8
_1-0_躯体
  6
CONTINUOUS
 62
    4
 10
152.76278799999997
 20
217.01327833333335
 11
152.24999999999997
 21
216.84234933333329
  0
LINE
  8
_1-0_躯体
  6
CONTINUOUS
 62
    4
 10
151.74999999999997
 20
216.83333333333331
 11
152.24999999999997
 21
216.66666733333332
  0
LINE
  8
_1-0_躯体
  6
CONTINUOUS
 62
    4
 10
152.24999999999997
 20
216.84234933333329
 11
151.74999999999997
 21
217.00901533333337
  0
LINE
  8
_1-0_躯体
  6
CONTINUOUS
 62
    4
 10
150.74999999999997
 20
216.83333333333331
 11
151.24999999999997
 21
216.66666733333332
  0
LINE
  8
_1-0_躯体
  6
CONTINUOUS
 62
    4
 10
151.24999999999997
 20
216.84234933333329
 11
150.74999999999997
 21
217.00901533333337
  0
LINE
  8
_1-0_躯体
  6
CONTINUOUS
 62
    4
 10
151.74999999999997
 20
216.83333333333331
 11
151.24999999999997
 21
216.66666733333332
  0
LINE
  8
_1-0_躯体
  6
CONTINUOUS
 62
    4
 10
151.24999999999997
 20
216.84234933333329
 11
151.74999999999997
 21
217.00901533333337
  0
LINE
  8
_1-0_躯体
  6
CONTINUOUS
 62
    4
 10
153.08333300000001
 20
216.66666733333332
 11
152.74999999999997
 21
216.83333333333331
  0
LINE
  8
_1-0_躯体
  6
CONTINUOUS
 62
    4
 10
153.12267800000004
 20
216.83333333333331
 11
152.76278799999997
 21
217.01327833333335
  0
LINE
  8
_1-0_躯体
  6
CONTINUOUS
 62
    4
 10
156.41666599999994
 20
216.66666733333332
 11
155.08333300000001
 21
216.66666733333332
  0
LINE
  8
_1-0_躯体
  6
CONTINUOUS
 62
    4
 10
156.37732200000002
 20
216.83333333333331
 11
155.12267800000004
 21
216.83333333333331
  0
LINE
  8
_1-0_躯体
  6
CONTINUOUS
 62
    4
 10
161.08333300000001
 20
216.66666733333332
 11
160.74999999999997
 21
216.83333333333331
  0
LINE
  8
_1-0_躯体
  6
CONTINUOUS
 62
    4
 10
160.74999999999997
 20
216.83333333333331
 11
160.24999999999997
 21
216.66666733333332
  0
LINE
  8
_1-0_躯体
  6
CONTINUOUS
 62
    4
 10
161.12267800000004
 20
216.83333333333331
 11
160.76278799999997
 21
217.01327833333335
  0
LINE
  8
_1-0_躯体
  6
CONTINUOUS
 62
    4
 10
160.76278799999997
 20
217.01327833333335
 11
160.24999999999997
 21
216.84234933333329
  0
LINE
  8
_1-0_躯体
  6
CONTINUOUS
 62
    4
 10
159.74999999999997
 20
216.83333333333331
 11
160.24999999999997
 21
216.66666733333332
  0
LINE
  8
_1-0_躯体
  6
CONTINUOUS
 62
    4
 10
160.24999999999997
 20
216.84234933333329
 11
159.74999999999997
 21
217.00901533333337
  0
LINE
  8
_1-0_躯体
  6
CONTINUOUS
 62
    4
 10
158.74999999999997
 20
216.83333333333331
 11
159.24999999999997
 21
216.66666733333332
  0
LINE
  8
_1-0_躯体
  6
CONTINUOUS
 62
    4
 10
159.24999999999997
 20
216.84234933333329
 11
158.74999999999997
 21
217.00901533333337
  0
LINE
  8
_1-0_躯体
  6
CONTINUOUS
 62
    4
 10
159.74999999999997
 20
216.83333333333331
 11
159.24999999999997
 21
216.66666733333332
  0
LINE
  8
_1-0_躯体
  6
CONTINUOUS
 62
    4
 10
159.24999999999997
 20
216.84234933333329
 11
159.74999999999997
 21
217.00901533333337
  0
LINE
  8
_1-0_躯体
  6
CONTINUOUS
 62
    4
 10
156.74999999999997
 20
216.83333333333331
 11
157.24999999999997
 21
216.66666733333332
  0
LINE
  8
_1-0_躯体
  6
CONTINUOUS
 62
    4
 10
156.73721099999997
 20
217.01327833333335
 11
157.24999999999997
 21
216.84234933333329
  0
LINE
  8
_1-0_躯体
  6
CONTINUOUS
 62
    4
 10
157.74999999999997
 20
216.83333333333331
 11
157.24999999999997
 21
216.66666733333332
  0
LINE
  8
_1-0_躯体
  6
CONTINUOUS
 62
    4
 10
157.24999999999997
 20
216.84234933333329
 11
157.74999999999997
 21
217.00901533333337
  0
LINE
  8
_1-0_躯体
  6
CONTINUOUS
 62
    4
 10
158.74999999999997
 20
216.83333333333331
 11
158.24999999999997
 21
216.66666733333332
  0
LINE
  8
_1-0_躯体
  6
CONTINUOUS
 62
    4
 10
158.24999999999997
 20
216.84234933333329
 11
158.74999999999997
 21
217.00901533333337
  0
LINE
  8
_1-0_躯体
  6
CONTINUOUS
 62
    4
 10
157.74999999999997
 20
216.83333333333331
 11
158.24999999999997
 21
216.66666733333332
  0
LINE
  8
_1-0_躯体
  6
CONTINUOUS
 62
    4
 10
158.24999999999997
 20
216.84234933333329
 11
157.74999999999997
 21
217.00901533333337
  0
LINE
  8
_1-0_躯体
  6
CONTINUOUS
 62
    4
 10
156.41666599999994
 20
216.66666733333332
 11
156.74999999999997
 21
216.83333333333331
  0
LINE
  8
_1-0_躯体
  6
CONTINUOUS
 62
    4
 10
156.37732200000002
 20
216.83333333333331
 11
156.73721099999997
 21
217.01327833333335
  0
LINE
  8
_1-0_躯体
  6
CONTINUOUS
 62
    4
 10
162.08333300000001
 20
216.83333333333331
 11
161.12267800000004
 21
216.83333333333331
  0
LINE
  8
_1-0_躯体
  6
CONTINUOUS
 62
    4
 10
162.08333300000001
 20
216.66666733333332
 11
161.08333300000001
 21
216.66666733333332
  0
LINE
  8
_1-0_躯体
  6
CONTINUOUS
 62
    4
 10
146.83333300000001
 20
222.66666733333335
 11
147.20000000000002
 21
222.83333333333337
  0
LINE
  8
_1-0_躯体
  6
CONTINUOUS
 62
    4
 10
147.20000000000002
 20
222.83333333333337
 11
147.70627699999997
 21
221.63829033333334
  0
ARC
  8
_1-0_躯体
  6
CONTINUOUS
 62
    4
 10
148.16666599999994
 20
221.83333333333337
 40
0.5
 50
202.9598419999999
 51
0
  0
LINE
  8
_1-0_躯体
  6
CONTINUOUS
 62
    4
 10
146.83333300000001
 20
222.66666733333335
 11
146.83333300000001
 21
221.00000033333339
  0
LINE
  8
_1-0_躯体
  6
CONTINUOUS
 62
    4
 10
147.03333299999994
 20
222.75757633333336
 11
147.03333299999994
 21
221.00000033333339
  0
LINE
  8
_1-0_躯体
  6
CONTINUOUS
 62
    4
 10
148.66666599999994
 20
221.83333333333337
 11
148.66666599999994
 21
226.79743533333334
  0
ARC
  8
_1-0_躯体
  6
CONTINUOUS
 62
    4
 10
147.99999999999997
 20
221.00000033333339
 40
1.1666669999999999
 50
180
 51
270
  0
LINE
  8
_1-0_躯体
  6
CONTINUOUS
 62
    4
 10
147.99999999999997
 20
219.83333333333331
 11
161.49999999999997
 21
219.83333333333331
  0
LINE
  8
_1-0_躯体
  6
CONTINUOUS
 62
    4
 10
146.66666599999994
 20
235.86666733333334
 11
146.66666599999994
 21
227.33333333333337
  0
LINE
  8
_1-0_躯体
  6
CONTINUOUS
 62
    4
 10
162.83333300000001
 20
235.86666733333334
 11
162.83333300000001
 21
227.33333333333337
  0
ARC
  8
_1-0_躯体
  6
CONTINUOUS
 62
    4
 10
147.99999999999997
 20
221.00000033333339
 40
0.9666669999999998
 50
180
 51
270
  0
LINE
  8
_1-0_躯体
  6
CONTINUOUS
 62
    4
 10
161.49999999999997
 20
220.0333333333333
 11
147.99999999999997
 21
220.0333333333333
  0
LINE
  8
_1-0_躯体
  6
CONTINUOUS
 62
    4
 10
146.66666599999994
 20
227.33333333333337
 11
148.66666599999994
 21
226.79743533333334
  0
LINE
  8
_1-0_躯体
  6
CONTINUOUS
 62
    4
 10
146.66666599999994
 20
235.86666733333334
 11
162.83333300000001
 21
235.86666733333334
  0
ARC
  8
_1-0_躯体
  6
CONTINUOUS
 62
    4
 10
148.91666599999994
 20
228.83333333333337
 40
0.8333329999999998
 50
180
 51
270
  0
LINE
  8
_1-0_躯体
  6
CONTINUOUS
 62
    4
 10
148.08333300000001
 20
228.83333333333337
 11
148.08333300000001
 21
233.16666733333335
  0
LINE
  8
_1-0_躯体
  6
CONTINUOUS
 62
    4
 10
148.91666599999994
 20
228.00000033333339
 11
149.74999999999997
 21
228.00000033333339
  0
ARC
  8
_1-0_躯体
  6
CONTINUOUS
 62
    4
 10
151.41666599999994
 20
222.33333333333337
 40
1
 50
180
 51
0
  0
ARC
  8
_1-0_躯体
  6
CONTINUOUS
 62
    4
 10
149.74999999999997
 20
227.33333333333337
 40
0.666667
 50
0
 51
90
  0
LINE
  8
_1-0_躯体
  6
CONTINUOUS
 62
    4
 10
150.41666599999994
 20
222.33333333333337
 11
150.41666599999994
 21
227.33333333333337
  0
ARC
  8
_1-0_躯体
  6
CONTINUOUS
 62
    4
 10
153.08333300000001
 20
227.33333333333337
 40
0.666667
 50
90
 51
180
  0
LINE
  8
_1-0_躯体
  6
CONTINUOUS
 62
    4
 10
152.41666599999994
 20
222.33333333333337
 11
152.41666599999994
 21
227.33333333333337
  0
ARC
  8
_1-0_躯体
  6
CONTINUOUS
 62
    4
 10
156.41666599999994
 20
227.33333333333337
 40
0.666667
 50
0
 51
90
  0
LINE
  8
_1-0_躯体
  6
CONTINUOUS
 62
    4
 10
153.08333300000001
 20
228.00000033333339
 11
156.41666599999994
 21
228.00000033333339
  0
LINE
  8
_1-0_躯体
  6
CONTINUOUS
 62
    4
 10
162.66666599999994
 20
222.66666733333335
 11
162.29999999999993
 21
222.83333333333337
  0
LINE
  8
_1-0_躯体
  6
CONTINUOUS
 62
    4
 10
162.29999999999993
 20
222.83333333333337
 11
161.79372199999997
 21
221.63829033333334
  0
ARC
  8
_1-0_躯体
  6
CONTINUOUS
 62
    4
 10
161.33333300000001
 20
221.83333333333337
 40
0.5
 50
180
 51
337.04015800000013
  0
ARC
  8
_1-0_躯体
  6
CONTINUOUS
 62
    4
 10
161.49999999999997
 20
221.00000033333339
 40
1.1666669999999999
 50
270
 51
0
  0
LINE
  8
_1-0_躯体
  6
CONTINUOUS
 62
    4
 10
162.66666599999994
 20
222.66666733333335
 11
162.66666599999994
 21
221.00000033333339
  0
ARC
  8
_1-0_躯体
  6
CONTINUOUS
 62
    4
 10
161.49999999999997
 20
221.00000033333339
 40
0.9666669999999998
 50
270
 51
0
  0
LINE
  8
_1-0_躯体
  6
CONTINUOUS
 62
    4
 10
162.466666
 20
222.75757633333336
 11
162.466666
 21
221.00000033333339
  0
LINE
  8
_1-0_躯体
  6
CONTINUOUS
 62
    4
 10
160.83333300000001
 20
221.83333333333337
 11
160.83333300000001
 21
226.79743533333334
  0
LINE
  8
_1-0_躯体
  6
CONTINUOUS
 62
    4
 10
162.83333300000001
 20
227.33333333333337
 11
160.83333300000001
 21
226.79743533333334
  0
ARC
  8
_1-0_躯体
  6
CONTINUOUS
 62
    4
 10
158.08333300000001
 20
222.33333333333337
 40
1
 50
180
 51
0
  0
ARC
  8
_1-0_躯体
  6
CONTINUOUS
 62
    4
 10
159.74999999999997
 20
227.33333333333337
 40
0.666667
 50
90
 51
180
  0
LINE
  8
_1-0_躯体
  6
CONTINUOUS
 62
    4
 10
159.08333300000001
 20
222.33333333333337
 11
159.08333300000001
 21
227.33333333333337
  0
LINE
  8
_1-0_躯体
  6
CONTINUOUS
 62
    4
 10
157.08333300000001
 20
222.33333333333337
 11
157.08333300000001
 21
227.33333333333337
  0
ARC
  8
_1-0_躯体
  6
CONTINUOUS
 62
    4
 10
160.58333300000001
 20
228.83333333333337
 40
0.8333329999999998
 50
270
 51
0
  0
LINE
  8
_1-0_躯体
  6
CONTINUOUS
 62
    4
 10
161.41666599999994
 20
228.83333333333337
 11
161.41666599999994
 21
233.16666733333335
  0
LINE
  8
_1-0_躯体
  6
CONTINUOUS
 62
    4
 10
160.58333300000001
 20
228.00000033333339
 11
159.74999999999997
 21
228.00000033333339
  0
LINE
  8
_1-0_躯体
  6
CONTINUOUS
 62
    4
 10
173.33333300000004
 20
214.66666733333332
 11
144.99999999999997
 21
214.66666733333332
  0
LINE
  8
_1-0_躯体
  6
CONTINUOUS
 62
    4
 10
173.33333300000004
 20
214.00000033333336
 11
144.99999999999997
 21
214.00000033333336
  0
LINE
  8
_1-0_躯体
  6
CONTINUOUS
 62
    4
 10
144.99999999999997
 20
213.33333333333331
 11
173.33333300000004
 21
213.33333333333331
  0
INSERT
  2
-004-$QLE
  8
_1-f_寸法
 10
210
 20
148.5
 41
1
 42
1
 50
0
  0
INSERT
  2
-005-$QLE_1_
  8
_1-f_寸法
 10
210
 20
148.5
 41
1
 42
1
 50
0
  0
LINE
  8
_1-0_躯体
  6
CONTINUOUS
 62
    4
 10
144.99999999999997
 20
213.33333333333331
 11
144.99999999999997
 21
216.66666733333332
  0
INSERT
  2
-006-$QLE_2_
  8
_1-f_寸法
 10
210
 20
148.5
 41
1
 42
1
 50
0
  0
LINE
  8
_1-0_躯体
  6
CONTINUOUS
 62
    4
 10
63.141588679351855
 20
213.33333333333331
 11
59.448598677058101
 21
213.33333333333331
  0
LINE
  8
_1-0_躯体
  6
CONTINUOUS
 62
    4
 10
62.750000333333276
 20
234.00000033333339
 11
74.416666333333296
 21
234.00000033333339
  0
LINE
  8
_1-0_躯体
  6
CONTINUOUS
 62
    4
 10
76.666666333333296
 20
235.66666733333335
 11
78.333333333333286
 21
235.66666733333335
  0
LINE
  8
_1-0_躯体
  6
CONTINUOUS
 62
    4
 10
60.500000333333276
 20
235.66666733333335
 11
50.000000333333276
 21
235.66666733333335
  0
LINE
  8
_1-0_躯体
  6
CONTINUOUS
 62
    4
 10
78.333333333333286
 20
235.66666733333335
 11
78.333333333333286
 21
223.00000033333339
  0
LINE
  8
_1-0_躯体
  6
CONTINUOUS
 62
    4
 10
78.333333333333286
 20
213.33333333333331
 11
78.333333333333286
 21
216.66666733333332
  0
LINE
  8
_1-0_躯体
  6
CONTINUOUS
 62
    4
 10
78.333333333333286
 20
216.66666733333332
 11
50.000000333333276
 21
216.66666733333332
  0
LINE
  8
_1-0_躯体
  6
CONTINUOUS
 62
    4
 10
50.000000333333276
 20
215.33333333333331
 11
78.333333333333286
 21
215.33333333333331
  0
LINE
  8
_1-0_躯体
  6
CONTINUOUS
 62
    4
 10
74.666666333333296
 20
223.00000033333339
 11
78.333333333333286
 21
223.00000033333339
  0
LINE
  8
_1-0_躯体
  6
CONTINUOUS
 62
    4
 10
62.500000333333276
 20
223.00000033333339
 11
50.000000333333276
 21
223.00000033333339
  0
LINE
  8
_1-0_躯体
  6
CONTINUOUS
 62
    4
 10
50.000000333333276
 20
216.00000033333336
 11
78.333333333333286
 21
216.00000033333336
  0
LINE
  8
_1-0_躯体
  6
CONTINUOUS
 62
    4
 10
61.250000333333276
 20
216.83333333333331
 11
62.210655333333307
 21
216.83333333333331
  0
LINE
  8
_1-0_躯体
  6
CONTINUOUS
 62
    4
 10
61.250000333333276
 20
216.66666733333332
 11
62.250000333333276
 21
216.66666733333332
  0
LINE
  8
_1-0_躯体
  6
CONTINUOUS
 62
    4
 10
68.250000333333247
 20
216.66666733333332
 11
68.583333333333286
 21
216.83333333333331
  0
LINE
  8
_1-0_躯体
  6
CONTINUOUS
 62
    4
 10
68.583333333333286
 20
216.83333333333331
 11
68.916666333333296
 21
216.66666733333332
  0
LINE
  8
_1-0_躯体
  6
CONTINUOUS
 62
    4
 10
66.916666333333296
 20
216.66666733333332
 11
68.250000333333247
 21
216.66666733333332
  0
LINE
  8
_1-0_躯体
  6
CONTINUOUS
 62
    4
 10
66.956011333333294
 20
216.83333333333331
 11
68.210655333333307
 21
216.83333333333331
  0
LINE
  8
_1-0_躯体
  6
CONTINUOUS
 62
    4
 10
68.210655333333307
 20
216.83333333333331
 11
68.583333333333286
 21
217.01967233333335
  0
LINE
  8
_1-0_躯体
  6
CONTINUOUS
 62
    4
 10
68.583333333333286
 20
217.01967233333335
 11
68.956011333333265
 21
216.83333333333331
  0
LINE
  8
_1-0_躯体
  6
CONTINUOUS
 62
    4
 10
61.416666333333296
 20
222.00000033333339
 11
61.583333333333314
 21
222.00000033333339
  0
LINE
  8
_1-0_躯体
  6
CONTINUOUS
 62
    4
 10
61.583333333333314
 20
222.00000033333339
 11
61.583333333333314
 21
222.50000033333339
  0
ARC
  8
_1-0_躯体
  6
CONTINUOUS
 62
    4
 10
61.083333333333314
 20
222.50000033333339
 40
0.5
 50
0
 51
90
  0
LINE
  8
_1-0_躯体
  6
CONTINUOUS
 62
    4
 10
60.750000333333276
 20
223.00000033333339
 11
61.083333333333314
 21
223.00000033333339
  0
ARC
  8
_1-0_躯体
  6
CONTINUOUS
 62
    4
 10
60.750000333333276
 20
222.50000033333339
 40
0.5
 50
90
 51
180
  0
LINE
  8
_1-0_躯体
  6
CONTINUOUS
 62
    4
 10
60.250000333333276
 20
222.50000033333339
 11
60.250000333333276
 21
217.66666733333332
  0
ARC
  8
_1-0_躯体
  6
CONTINUOUS
 62
    4
 10
61.083333333333314
 20
222.50000033333339
 40
0.3333329999999999
 50
0
 51
90
  0
LINE
  8
_1-0_躯体
  6
CONTINUOUS
 62
    4
 10
60.750000333333276
 20
222.83333333333337
 11
61.083333333333314
 21
222.83333333333337
  0
ARC
  8
_1-0_躯体
  6
CONTINUOUS
 62
    4
 10
60.750000333333276
 20
222.50000033333339
 40
0.3333329999999999
 50
90
 51
180
  0
ARC
  8
_1-0_躯体
  6
CONTINUOUS
 62
    4
 10
61.250000333333276
 20
217.66666733333332
 40
0.8333329999999998
 50
180
 51
270
  0
LINE
  8
_1-0_躯体
  6
CONTINUOUS
 62
    4
 10
60.416666333333296
 20
222.50000033333339
 11
60.416666333333296
 21
217.66666733333332
  0
LINE
  8
_1-0_躯体
  6
CONTINUOUS
 62
    4
 10
61.416666333333296
 20
222.00000033333339
 11
61.416666333333296
 21
222.50000033333339
  0
ARC
  8
_1-0_躯体
  6
CONTINUOUS
 62
    4
 10
61.250000333333276
 20
217.66666733333332
 40
1
 50
180
 51
270
  0
LINE
  8
_1-0_躯体
  6
CONTINUOUS
 62
    4
 10
75.750000333333247
 20
222.00000033333339
 11
75.583333333333286
 21
222.00000033333339
  0
LINE
  8
_1-0_躯体
  6
CONTINUOUS
 62
    4
 10
75.583333333333286
 20
222.00000033333339
 11
75.583333333333286
 21
222.50000033333339
  0
ARC
  8
_1-0_躯体
  6
CONTINUOUS
 62
    4
 10
76.083333333333286
 20
222.50000033333339
 40
0.5
 50
90
 51
180
  0
LINE
  8
_1-0_躯体
  6
CONTINUOUS
 62
    4
 10
76.416666333333296
 20
223.00000033333339
 11
76.083333333333286
 21
223.00000033333339
  0
ARC
  8
_1-0_躯体
  6
CONTINUOUS
 62
    4
 10
76.416666333333296
 20
222.50000033333339
 40
0.5
 50
0
 51
90
  0
LINE
  8
_1-0_躯体
  6
CONTINUOUS
 62
    4
 10
76.916666333333296
 20
222.50000033333339
 11
76.916666333333296
 21
217.66666733333332
  0
ARC
  8
_1-0_躯体
  6
CONTINUOUS
 62
    4
 10
76.083333333333286
 20
222.50000033333339
 40
0.3333329999999999
 50
90
 51
180
  0
LINE
  8
_1-0_躯体
  6
CONTINUOUS
 62
    4
 10
76.416666333333296
 20
222.83333333333337
 11
76.083333333333286
 21
222.83333333333337
  0
ARC
  8
_1-0_躯体
  6
CONTINUOUS
 62
    4
 10
76.416666333333296
 20
222.50000033333339
 40
0.3333329999999999
 50
0
 51
90
  0
ARC
  8
_1-0_躯体
  6
CONTINUOUS
 62
    4
 10
75.916666333333296
 20
217.66666733333332
 40
0.8333329999999998
 50
270
 51
0
  0
LINE
  8
_1-0_躯体
  6
CONTINUOUS
 62
    4
 10
76.750000333333247
 20
222.50000033333339
 11
76.750000333333247
 21
217.66666733333332
  0
LINE
  8
_1-0_躯体
  6
CONTINUOUS
 62
    4
 10
75.750000333333247
 20
222.00000033333339
 11
75.750000333333247
 21
222.50000033333339
  0
ARC
  8
_1-0_躯体
  6
CONTINUOUS
 62
    4
 10
75.916666333333296
 20
217.66666733333332
 40
1
 50
270
 51
0
  0
LINE
  8
_1-0_躯体
  6
CONTINUOUS
 62
    4
 10
62.250000333333276
 20
216.66666733333332
 11
62.583333333333314
 21
216.83333333333331
  0
LINE
  8
_1-0_躯体
  6
CONTINUOUS
 62
    4
 10
62.583333333333314
 20
216.83333333333331
 11
63.083333333333314
 21
216.66666733333332
  0
LINE
  8
_1-0_躯体
  6
CONTINUOUS
 62
    4
 10
62.210655333333307
 20
216.83333333333331
 11
62.570545333333314
 21
217.01327833333335
  0
LINE
  8
_1-0_躯体
  6
CONTINUOUS
 62
    4
 10
62.570545333333314
 20
217.01327833333335
 11
63.083333333333314
 21
216.84234933333329
  0
LINE
  8
_1-0_躯体
  6
CONTINUOUS
 62
    4
 10
63.583333333333314
 20
216.83333333333331
 11
63.083333333333314
 21
216.66666733333332
  0
LINE
  8
_1-0_躯体
  6
CONTINUOUS
 62
    4
 10
63.083333333333314
 20
216.84234933333329
 11
63.583333333333314
 21
217.00901533333337
  0
LINE
  8
_1-0_躯体
  6
CONTINUOUS
 62
    4
 10
64.583333333333314
 20
216.83333333333331
 11
64.083333333333314
 21
216.66666733333332
  0
LINE
  8
_1-0_躯体
  6
CONTINUOUS
 62
    4
 10
64.083333333333314
 20
216.84234933333329
 11
64.583333333333314
 21
217.00901533333337
  0
LINE
  8
_1-0_躯体
  6
CONTINUOUS
 62
    4
 10
63.583333333333314
 20
216.83333333333331
 11
64.083333333333314
 21
216.66666733333332
  0
LINE
  8
_1-0_躯体
  6
CONTINUOUS
 62
    4
 10
64.083333333333314
 20
216.84234933333329
 11
63.583333333333314
 21
217.00901533333337
  0
LINE
  8
_1-0_躯体
  6
CONTINUOUS
 62
    4
 10
66.583333333333286
 20
216.83333333333331
 11
66.083333333333286
 21
216.66666733333332
  0
LINE
  8
_1-0_躯体
  6
CONTINUOUS
 62
    4
 10
66.596121333333286
 20
217.01327833333335
 11
66.083333333333286
 21
216.84234933333329
  0
LINE
  8
_1-0_躯体
  6
CONTINUOUS
 62
    4
 10
65.583333333333314
 20
216.83333333333331
 11
66.083333333333286
 21
216.66666733333332
  0
LINE
  8
_1-0_躯体
  6
CONTINUOUS
 62
    4
 10
66.083333333333286
 20
216.84234933333329
 11
65.583333333333314
 21
217.00901533333337
  0
LINE
  8
_1-0_躯体
  6
CONTINUOUS
 62
    4
 10
64.583333333333314
 20
216.83333333333331
 11
65.083333333333314
 21
216.66666733333332
  0
LINE
  8
_1-0_躯体
  6
CONTINUOUS
 62
    4
 10
65.083333333333314
 20
216.84234933333329
 11
64.583333333333314
 21
217.00901533333337
  0
LINE
  8
_1-0_躯体
  6
CONTINUOUS
 62
    4
 10
65.583333333333314
 20
216.83333333333331
 11
65.083333333333314
 21
216.66666733333332
  0
LINE
  8
_1-0_躯体
  6
CONTINUOUS
 62
    4
 10
65.083333333333314
 20
216.84234933333329
 11
65.583333333333314
 21
217.00901533333337
  0
LINE
  8
_1-0_躯体
  6
CONTINUOUS
 62
    4
 10
66.916666333333296
 20
216.66666733333332
 11
66.583333333333286
 21
216.83333333333331
  0
LINE
  8
_1-0_躯体
  6
CONTINUOUS
 62
    4
 10
66.956011333333294
 20
216.83333333333331
 11
66.596121333333286
 21
217.01327833333335
  0
LINE
  8
_1-0_躯体
  6
CONTINUOUS
 62
    4
 10
70.250000333333247
 20
216.66666733333332
 11
68.916666333333296
 21
216.66666733333332
  0
LINE
  8
_1-0_躯体
  6
CONTINUOUS
 62
    4
 10
70.210655333333307
 20
216.83333333333331
 11
68.956011333333265
 21
216.83333333333331
  0
LINE
  8
_1-0_躯体
  6
CONTINUOUS
 62
    4
 10
74.916666333333296
 20
216.66666733333332
 11
74.583333333333286
 21
216.83333333333331
  0
LINE
  8
_1-0_躯体
  6
CONTINUOUS
 62
    4
 10
74.583333333333286
 20
216.83333333333331
 11
74.083333333333286
 21
216.66666733333332
  0
LINE
  8
_1-0_躯体
  6
CONTINUOUS
 62
    4
 10
74.956011333333294
 20
216.83333333333331
 11
74.596121333333286
 21
217.01327833333335
  0
LINE
  8
_1-0_躯体
  6
CONTINUOUS
 62
    4
 10
74.596121333333286
 20
217.01327833333335
 11
74.083333333333286
 21
216.84234933333329
  0
LINE
  8
_1-0_躯体
  6
CONTINUOUS
 62
    4
 10
73.583333333333286
 20
216.83333333333331
 11
74.083333333333286
 21
216.66666733333332
  0
LINE
  8
_1-0_躯体
  6
CONTINUOUS
 62
    4
 10
74.083333333333286
 20
216.84234933333329
 11
73.583333333333286
 21
217.00901533333337
  0
LINE
  8
_1-0_躯体
  6
CONTINUOUS
 62
    4
 10
72.583333333333286
 20
216.83333333333331
 11
73.083333333333286
 21
216.66666733333332
  0
LINE
  8
_1-0_躯体
  6
CONTINUOUS
 62
    4
 10
73.083333333333286
 20
216.84234933333329
 11
72.583333333333286
 21
217.00901533333337
  0
LINE
  8
_1-0_躯体
  6
CONTINUOUS
 62
    4
 10
73.583333333333286
 20
216.83333333333331
 11
73.083333333333286
 21
216.66666733333332
  0
LINE
  8
_1-0_躯体
  6
CONTINUOUS
 62
    4
 10
73.083333333333286
 20
216.84234933333329
 11
73.583333333333286
 21
217.00901533333337
  0
LINE
  8
_1-0_躯体
  6
CONTINUOUS
 62
    4
 10
70.583333333333286
 20
216.83333333333331
 11
71.083333333333286
 21
216.66666733333332
  0
LINE
  8
_1-0_躯体
  6
CONTINUOUS
 62
    4
 10
70.570545333333285
 20
217.01327833333335
 11
71.083333333333286
 21
216.84234933333329
  0
LINE
  8
_1-0_躯体
  6
CONTINUOUS
 62
    4
 10
71.583333333333286
 20
216.83333333333331
 11
71.083333333333286
 21
216.66666733333332
  0
LINE
  8
_1-0_躯体
  6
CONTINUOUS
 62
    4
 10
71.083333333333286
 20
216.84234933333329
 11
71.583333333333286
 21
217.00901533333337
  0
LINE
  8
_1-0_躯体
  6
CONTINUOUS
 62
    4
 10
72.583333333333286
 20
216.83333333333331
 11
72.083333333333286
 21
216.66666733333332
  0
LINE
  8
_1-0_躯体
  6
CONTINUOUS
 62
    4
 10
72.083333333333286
 20
216.84234933333329
 11
72.583333333333286
 21
217.00901533333337
  0
LINE
  8
_1-0_躯体
  6
CONTINUOUS
 62
    4
 10
71.583333333333286
 20
216.83333333333331
 11
72.083333333333286
 21
216.66666733333332
  0
LINE
  8
_1-0_躯体
  6
CONTINUOUS
 62
    4
 10
72.083333333333286
 20
216.84234933333329
 11
71.583333333333286
 21
217.00901533333337
  0
LINE
  8
_1-0_躯体
  6
CONTINUOUS
 62
    4
 10
70.250000333333247
 20
216.66666733333332
 11
70.583333333333286
 21
216.83333333333331
  0
LINE
  8
_1-0_躯体
  6
CONTINUOUS
 62
    4
 10
70.210655333333307
 20
216.83333333333331
 11
70.570545333333285
 21
217.01327833333335
  0
LINE
  8
_1-0_躯体
  6
CONTINUOUS
 62
    4
 10
75.916666333333296
 20
216.83333333333331
 11
74.956011333333294
 21
216.83333333333331
  0
LINE
  8
_1-0_躯体
  6
CONTINUOUS
 62
    4
 10
75.916666333333296
 20
216.66666733333332
 11
74.916666333333296
 21
216.66666733333332
  0
LINE
  8
_1-0_躯体
  6
CONTINUOUS
 62
    4
 10
60.666666333333296
 20
222.66666733333335
 11
61.033333333333303
 21
222.83333333333337
  0
LINE
  8
_1-0_躯体
  6
CONTINUOUS
 62
    4
 10
61.033333333333303
 20
222.83333333333337
 11
61.539610333333314
 21
221.63829033333334
  0
ARC
  8
_1-0_躯体
  6
CONTINUOUS
 62
    4
 10
62.000000333333276
 20
221.83333333333337
 40
0.5
 50
202.95984199999862
 51
0
  0
LINE
  8
_1-0_躯体
  6
CONTINUOUS
 62
    4
 10
60.666666333333296
 20
222.66666733333335
 11
60.666666333333296
 21
221.00000033333339
  0
LINE
  8
_1-0_躯体
  6
CONTINUOUS
 62
    4
 10
60.866666333333285
 20
222.75757633333336
 11
60.866666333333285
 21
221.00000033333339
  0
LINE
  8
_1-0_躯体
  6
CONTINUOUS
 62
    4
 10
62.500000333333276
 20
221.83333333333337
 11
62.500000333333276
 21
226.79743533333334
  0
ARC
  8
_1-0_躯体
  6
CONTINUOUS
 62
    4
 10
61.833333333333314
 20
221.00000033333339
 40
1.1666669999999999
 50
180
 51
270
  0
LINE
  8
_1-0_躯体
  6
CONTINUOUS
 62
    4
 10
61.833333333333314
 20
219.83333333333331
 11
75.333333333333286
 21
219.83333333333331
  0
LINE
  8
_1-0_躯体
  6
CONTINUOUS
 62
    4
 10
60.500000333333276
 20
235.86666733333334
 11
60.500000333333276
 21
227.33333333333337
  0
LINE
  8
_1-0_躯体
  6
CONTINUOUS
 62
    4
 10
76.666666333333296
 20
235.86666733333334
 11
76.666666333333296
 21
227.33333333333337
  0
ARC
  8
_1-0_躯体
  6
CONTINUOUS
 62
    4
 10
61.833333333333314
 20
221.00000033333339
 40
0.9666669999999998
 50
180
 51
270
  0
LINE
  8
_1-0_躯体
  6
CONTINUOUS
 62
    4
 10
75.333333333333286
 20
220.0333333333333
 11
61.833333333333314
 21
220.0333333333333
  0
LINE
  8
_1-0_躯体
  6
CONTINUOUS
 62
    4
 10
60.500000333333276
 20
227.33333333333337
 11
62.500000333333276
 21
226.79743533333334
  0
LINE
  8
_1-0_躯体
  6
CONTINUOUS
 62
    4
 10
60.500000333333276
 20
235.86666733333334
 11
76.666666333333296
 21
235.86666733333334
  0
ARC
  8
_1-0_躯体
  6
CONTINUOUS
 62
    4
 10
62.750000333333276
 20
228.83333333333337
 40
0.8333329999999998
 50
180
 51
270
  0
ARC
  8
_1-0_躯体
  6
CONTINUOUS
 62
    4
 10
62.750000333333276
 20
233.16666733333335
 40
0.8333329999999998
 50
90
 51
180
  0
LINE
  8
_1-0_躯体
  6
CONTINUOUS
 62
    4
 10
61.916666333333296
 20
228.83333333333337
 11
61.916666333333296
 21
233.16666733333335
  0
LINE
  8
_1-0_躯体
  6
CONTINUOUS
 62
    4
 10
62.750000333333276
 20
228.00000033333339
 11
63.583333333333314
 21
228.00000033333339
  0
ARC
  8
_1-0_躯体
  6
CONTINUOUS
 62
    4
 10
65.250000333333276
 20
222.33333333333337
 40
1
 50
180
 51
0
  0
ARC
  8
_1-0_躯体
  6
CONTINUOUS
 62
    4
 10
63.583333333333314
 20
227.33333333333337
 40
0.666667
 50
0
 51
90
  0
LINE
  8
_1-0_躯体
  6
CONTINUOUS
 62
    4
 10
64.250000333333276
 20
222.33333333333337
 11
64.250000333333276
 21
227.33333333333337
  0
ARC
  8
_1-0_躯体
  6
CONTINUOUS
 62
    4
 10
66.916666333333296
 20
227.33333333333337
 40
0.666667
 50
90
 51
180
  0
LINE
  8
_1-0_躯体
  6
CONTINUOUS
 62
    4
 10
66.250000333333247
 20
222.33333333333337
 11
66.250000333333247
 21
227.33333333333337
  0
ARC
  8
_1-0_躯体
  6
CONTINUOUS
 62
    4
 10
70.250000333333247
 20
227.33333333333337
 40
0.666667
 50
0
 51
90
  0
LINE
  8
_1-0_躯体
  6
CONTINUOUS
 62
    4
 10
66.916666333333296
 20
228.00000033333339
 11
70.250000333333247
 21
228.00000033333339
  0
LINE
  8
_1-0_躯体
  6
CONTINUOUS
 62
    4
 10
76.500000333333247
 20
222.66666733333335
 11
76.133333333333297
 21
222.83333333333337
  0
LINE
  8
_1-0_躯体
  6
CONTINUOUS
 62
    4
 10
76.133333333333297
 20
222.83333333333337
 11
75.627056333333286
 21
221.63829033333334
  0
ARC
  8
_1-0_躯体
  6
CONTINUOUS
 62
    4
 10
75.166666333333296
 20
221.83333333333337
 40
0.5
 50
180
 51
337.04015800000013
  0
ARC
  8
_1-0_躯体
  6
CONTINUOUS
 62
    4
 10
75.333333333333286
 20
221.00000033333339
 40
1.1666669999999999
 50
270
 51
0
  0
LINE
  8
_1-0_躯体
  6
CONTINUOUS
 62
    4
 10
76.500000333333247
 20
222.66666733333335
 11
76.500000333333247
 21
221.00000033333339
  0
ARC
  8
_1-0_躯体
  6
CONTINUOUS
 62
    4
 10
75.333333333333286
 20
221.00000033333339
 40
0.9666669999999998
 50
270
 51
0
  0
LINE
  8
_1-0_躯体
  6
CONTINUOUS
 62
    4
 10
76.300000333333259
 20
222.75757633333336
 11
76.300000333333259
 21
221.00000033333339
  0
LINE
  8
_1-0_躯体
  6
CONTINUOUS
 62
    4
 10
74.666666333333296
 20
221.83333333333337
 11
74.666666333333296
 21
226.79743533333334
  0
LINE
  8
_1-0_躯体
  6
CONTINUOUS
 62
    4
 10
76.666666333333296
 20
227.33333333333337
 11
74.666666333333296
 21
226.79743533333334
  0
ARC
  8
_1-0_躯体
  6
CONTINUOUS
 62
    4
 10
71.916666333333296
 20
222.33333333333337
 40
1
 50
180
 51
0
  0
ARC
  8
_1-0_躯体
  6
CONTINUOUS
 62
    4
 10
73.583333333333286
 20
227.33333333333337
 40
0.666667
 50
90
 51
180
  0
LINE
  8
_1-0_躯体
  6
CONTINUOUS
 62
    4
 10
72.916666333333296
 20
222.33333333333337
 11
72.916666333333296
 21
227.33333333333337
  0
LINE
  8
_1-0_躯体
  6
CONTINUOUS
 62
    4
 10
70.916666333333296
 20
222.33333333333337
 11
70.916666333333296
 21
227.33333333333337
  0
ARC
  8
_1-0_躯体
  6
CONTINUOUS
 62
    4
 10
74.416666333333296
 20
228.83333333333337
 40
0.8333329999999998
 50
270
 51
0
  0
ARC
  8
_1-0_躯体
  6
CONTINUOUS
 62
    4
 10
74.416666333333296
 20
233.16666733333335
 40
0.8333329999999998
 50
0
 51
90
  0
LINE
  8
_1-0_躯体
  6
CONTINUOUS
 62
    4
 10
75.250000333333247
 20
228.83333333333337
 11
75.250000333333247
 21
233.16666733333335
  0
LINE
  8
_1-0_躯体
  6
CONTINUOUS
 62
    4
 10
74.416666333333296
 20
228.00000033333339
 11
73.583333333333286
 21
228.00000033333339
  0
LINE
  8
_1-0_躯体
  6
CONTINUOUS
 62
    4
 10
50.000000333333276
 20
214.00000033333336
 11
78.333333333333286
 21
214.00000033333336
  0
LINE
  8
_1-0_躯体
  6
CONTINUOUS
 62
    4
 10
78.333333333333286
 20
214.66666733333332
 11
50.000000333333276
 21
214.66666733333332
  0
LINE
  8
_1-0_躯体
  6
CONTINUOUS
 62
    4
 10
78.333333333333286
 20
213.33333333333331
 11
50.000000333333276
 21
213.33333333333331
  0
INSERT
  2
-007-_4_
  8
_1-8_小物
 10
210
 20
148.5
 41
1
 42
1
 50
0
  0
CIRCLE
  8
_1-f_寸法
  6
CONTINUOUS
 62
    4
 10
55.000000000000028
 20
220
 40
1.6666666666666665
  0
LINE
  8
_1-f_寸法
  6
CONTINUOUS
 62
    4
 10
55.699867957627163
 20
218.48739872416269
 11
58.680712072044287
 21
212.0449997524675
  0
CIRCLE
  8
_1-f_寸法
  6
CONTINUOUS
 62
    4
 10
66.666666666666629
 20
208.33333333333331
 40
1.6666666666666665
  0
LINE
  8
_1-f_寸法
  6
CONTINUOUS
 62
    4
 10
71.666666666666544
 20
211.95999984999995
 11
68.015803682616593
 21
209.31190734176158
  0
CIRCLE
  8
_1-f_寸法
  6
CONTINUOUS
 62
    4
 10
71.666666666666657
 20
208.33333333333331
 40
1.6666666666666665
  0
LINE
  8
_1-7_カバ__
  6
CONTINUOUS
 62
    4
 10
73.429167116666946
 20
212.57499999999996
 11
72.306189213747018
 21
209.87242029954206
  0
CIRCLE
  8
_1-f_寸法
  6
CONTINUOUS
 62
    4
 10
138.33333333333329
 20
201.66666666666666
 40
1.6666666666666665
  0
TEXT
  8
_1-f_寸法
 62
    4
 10
137.70833333333329
 20
200.41666666666666
 40
2.5
 41
1
 50
0
  1
1
  0
LINE
  8
_1-f_寸法
  6
CONTINUOUS
 62
    4
 10
137.5
 20
203.11004233964073
 11
136.16826982387218
 21
205.41666666666669
  0
INSERT
  2
-008-_5_
  8
_1-7_カバ__
 10
210
 20
148.5
 41
1
 42
1
 50
0
  0
INSERT
  2
-009-_6_
  8
_1-8_小物
 10
210
 20
148.5
 41
1
 42
1
 50
0
  0
INSERT
  2
-010-_7_
  8
_1-8_小物
 10
210
 20
148.5
 41
1
 42
1
 50
0
  0
LINE
  8
_1-f_寸法
  6
CONTINUOUS
 62
    4
 10
144.99999999999997
 20
235.66666733333335
 11
144.99999999999997
 21
243.26666666666665
  0
LINE
  8
_1-f_寸法
  6
CONTINUOUS
 62
    4
 10
78.333333333333286
 20
235.66666733333335
 11
78.333333333333286
 21
243.26666666666665
  0
POINT
  8
_1-f_寸法
 62
    4
 10
78.333333333333286
 20
241.66666666666666
  0
POINT
  8
_1-f_寸法
 62
    4
 10
144.99999999999997
 20
241.66666666666666
  0
LINE
  8
_1-f_寸法
  6
CONTINUOUS
 62
    4
 10
78.333333333333286
 20
241.66666666666666
 11
144.99999999999997
 21
241.66666666666666
  0
TEXT
  8
_1-f_寸法
 62
    4
 10
109.26666666666662
 20
241.66666666666666
 40
3.2000000000000002
 41
1
 50
0
  1
200
  0
LINE
  8
_1-f_寸法
  6
CONTINUOUS
 62
    4
 10
165.00000216414304
 20
203.33333333333331
 11
165.00000216414304
 21
196.73333333333335
  0
LINE
  8
_1-f_寸法
  6
CONTINUOUS
 62
    4
 10
58.333333333326976
 20
203.33333333333331
 11
58.333333333326976
 21
196.73333333333335
  0
POINT
  8
_1-f_寸法
 62
    4
 10
58.333333333326976
 20
198.33333333333331
  0
POINT
  8
_1-f_寸法
 62
    4
 10
165.00000216414304
 20
198.33333333333331
  0
LINE
  8
_1-f_寸法
  6
CONTINUOUS
 62
    4
 10
58.333333333326976
 20
198.33333333333331
 11
165.00000216414304
 21
198.33333333333331
  0
TEXT
  8
_1-f_寸法
 62
    4
 10
109.26666774873503
 20
198.33333333333331
 40
3.2000000000000002
 41
1
 50
0
  1
320
  0
ARC
  8
_1-0_躯体
  6
CONTINUOUS
 62
    4
 10
348.91666599999985
 20
233.16666733333329
 40
0.8333329999999998
 50
90
 51
180
  0
ARC
  8
_1-0_躯体
  6
CONTINUOUS
 62
    4
 10
360.58333299999987
 20
233.16666733333329
 40
0.8333329999999998
 50
0
 51
90
  0
LINE
  8
_1-0_躯体
  6
CONTINUOUS
 62
    4
 10
348.91666599999985
 20
234.00000033333333
 11
360.58333299999987
 21
234.00000033333333
  0
LINE
  8
_1-0_躯体
  6
CONTINUOUS
 62
    4
 10
362.83333299999993
 20
235.66666733333329
 11
373.33333300000004
 21
235.66666733333329
  0
LINE
  8
_1-0_躯体
  6
CONTINUOUS
 62
    4
 10
346.66666599999985
 20
235.66666733333329
 11
344.99999999999983
 21
235.66666733333329
  0
LINE
  8
_1-0_躯体
  6
CONTINUOUS
 62
    4
 10
344.99999999999983
 20
235.66666733333329
 11
344.99999999999983
 21
223.00000033333333
  0
LINE
  8
_1-0_躯体
  6
CONTINUOUS
 62
    4
 10
373.33333300000004
 20
216.66666733333324
 11
344.99999999999983
 21
216.66666733333324
  0
LINE
  8
_1-0_躯体
  6
CONTINUOUS
 62
    4
 10
373.33333300000004
 20
216.00000033333328
 11
344.99999999999983
 21
216.00000033333328
  0
LINE
  8
_1-0_躯体
  6
CONTINUOUS
 62
    4
 10
373.33333300000004
 20
215.33333333333326
 11
344.99999999999983
 21
215.33333333333326
  0
LINE
  8
_1-0_躯体
  6
CONTINUOUS
 62
    4
 10
348.66666599999985
 20
223.00000033333333
 11
344.99999999999983
 21
223.00000033333333
  0
LINE
  8
_1-0_躯体
  6
CONTINUOUS
 62
    4
 10
347.41666599999985
 20
216.83333333333326
 11
348.37732199999988
 21
216.83333333333326
  0
LINE
  8
_1-0_躯体
  6
CONTINUOUS
 62
    4
 10
347.41666599999985
 20
216.66666733333324
 11
348.41666599999985
 21
216.66666733333324
  0
LINE
  8
_1-0_躯体
  6
CONTINUOUS
 62
    4
 10
354.41666599999985
 20
216.66666733333324
 11
354.74999999999983
 21
216.83333333333326
  0
LINE
  8
_1-0_躯体
  6
CONTINUOUS
 62
    4
 10
354.74999999999983
 20
216.83333333333326
 11
355.08333299999987
 21
216.66666733333324
  0
LINE
  8
_1-0_躯体
  6
CONTINUOUS
 62
    4
 10
353.08333299999987
 20
216.66666733333324
 11
354.41666599999985
 21
216.66666733333324
  0
LINE
  8
_1-0_躯体
  6
CONTINUOUS
 62
    4
 10
353.12267799999995
 20
216.83333333333326
 11
354.37732199999994
 21
216.83333333333326
  0
LINE
  8
_1-0_躯体
  6
CONTINUOUS
 62
    4
 10
354.37732199999994
 20
216.83333333333326
 11
354.74999999999983
 21
217.01967233333326
  0
LINE
  8
_1-0_躯体
  6
CONTINUOUS
 62
    4
 10
354.74999999999983
 20
217.01967233333326
 11
355.12267799999995
 21
216.83333333333326
  0
LINE
  8
_1-0_躯体
  6
CONTINUOUS
 62
    4
 10
347.58333299999987
 20
222.00000033333333
 11
347.74999999999983
 21
222.00000033333333
  0
LINE
  8
_1-0_躯体
  6
CONTINUOUS
 62
    4
 10
347.74999999999983
 20
222.00000033333333
 11
347.74999999999983
 21
222.50000033333333
  0
ARC
  8
_1-0_躯体
  6
CONTINUOUS
 62
    4
 10
347.24999999999983
 20
222.50000033333333
 40
0.5
 50
0
 51
90
  0
LINE
  8
_1-0_躯体
  6
CONTINUOUS
 62
    4
 10
346.91666599999985
 20
223.00000033333333
 11
347.24999999999983
 21
223.00000033333333
  0
ARC
  8
_1-0_躯体
  6
CONTINUOUS
 62
    4
 10
346.91666599999985
 20
222.50000033333333
 40
0.5
 50
90
 51
180
  0
LINE
  8
_1-0_躯体
  6
CONTINUOUS
 62
    4
 10
346.41666599999985
 20
222.50000033333333
 11
346.41666599999985
 21
217.66666733333324
  0
ARC
  8
_1-0_躯体
  6
CONTINUOUS
 62
    4
 10
347.24999999999983
 20
222.50000033333333
 40
0.3333329999999999
 50
0
 51
90
  0
LINE
  8
_1-0_躯体
  6
CONTINUOUS
 62
    4
 10
346.91666599999985
 20
222.83333333333329
 11
347.24999999999983
 21
222.83333333333329
  0
ARC
  8
_1-0_躯体
  6
CONTINUOUS
 62
    4
 10
346.91666599999985
 20
222.50000033333333
 40
0.3333329999999999
 50
90
 51
180
  0
ARC
  8
_1-0_躯体
  6
CONTINUOUS
 62
    4
 10
347.41666599999985
 20
217.66666733333324
 40
0.8333329999999998
 50
180
 51
270
  0
LINE
  8
_1-0_躯体
  6
CONTINUOUS
 62
    4
 10
346.58333299999987
 20
222.50000033333333
 11
346.58333299999987
 21
217.66666733333324
  0
LINE
  8
_1-0_躯体
  6
CONTINUOUS
 62
    4
 10
347.58333299999987
 20
222.00000033333333
 11
347.58333299999987
 21
222.50000033333333
  0
ARC
  8
_1-0_躯体
  6
CONTINUOUS
 62
    4
 10
347.41666599999985
 20
217.66666733333324
 40
1
 50
180
 51
270
  0
LINE
  8
_1-0_躯体
  6
CONTINUOUS
 62
    4
 10
361.91666599999985
 20
222.00000033333333
 11
361.74999999999989
 21
222.00000033333333
  0
LINE
  8
_1-0_躯体
  6
CONTINUOUS
 62
    4
 10
361.74999999999989
 20
222.00000033333333
 11
361.74999999999989
 21
222.50000033333333
  0
ARC
  8
_1-0_躯体
  6
CONTINUOUS
 62
    4
 10
362.24999999999989
 20
222.50000033333333
 40
0.5
 50
90
 51
180
  0
LINE
  8
_1-0_躯体
  6
CONTINUOUS
 62
    4
 10
362.58333299999993
 20
223.00000033333333
 11
362.24999999999989
 21
223.00000033333333
  0
ARC
  8
_1-0_躯体
  6
CONTINUOUS
 62
    4
 10
362.58333299999993
 20
222.50000033333333
 40
0.5
 50
0
 51
90
  0
LINE
  8
_1-0_躯体
  6
CONTINUOUS
 62
    4
 10
363.08333299999993
 20
222.50000033333333
 11
363.08333299999993
 21
217.66666733333324
  0
ARC
  8
_1-0_躯体
  6
CONTINUOUS
 62
    4
 10
362.24999999999989
 20
222.50000033333333
 40
0.3333329999999999
 50
90
 51
180
  0
LINE
  8
_1-0_躯体
  6
CONTINUOUS
 62
    4
 10
362.58333299999993
 20
222.83333333333329
 11
362.24999999999989
 21
222.83333333333329
  0
ARC
  8
_1-0_躯体
  6
CONTINUOUS
 62
    4
 10
362.58333299999993
 20
222.50000033333333
 40
0.3333329999999999
 50
0
 51
90
  0
ARC
  8
_1-0_躯体
  6
CONTINUOUS
 62
    4
 10
362.08333299999993
 20
217.66666733333324
 40
0.8333329999999998
 50
270
 51
0
  0
LINE
  8
_1-0_躯体
  6
CONTINUOUS
 62
    4
 10
362.91666599999985
 20
222.50000033333333
 11
362.91666599999985
 21
217.66666733333324
  0
LINE
  8
_1-0_躯体
  6
CONTINUOUS
 62
    4
 10
361.91666599999985
 20
222.00000033333333
 11
361.91666599999985
 21
222.50000033333333
  0
ARC
  8
_1-0_躯体
  6
CONTINUOUS
 62
    4
 10
362.08333299999993
 20
217.66666733333324
 40
1
 50
270
 51
0
  0
LINE
  8
_1-0_躯体
  6
CONTINUOUS
 62
    4
 10
348.41666599999985
 20
216.66666733333324
 11
348.74999999999983
 21
216.83333333333326
  0
LINE
  8
_1-0_躯体
  6
CONTINUOUS
 62
    4
 10
348.74999999999983
 20
216.83333333333326
 11
349.24999999999983
 21
216.66666733333324
  0
LINE
  8
_1-0_躯体
  6
CONTINUOUS
 62
    4
 10
348.37732199999988
 20
216.83333333333326
 11
348.73721099999972
 21
217.01327833333326
  0
LINE
  8
_1-0_躯体
  6
CONTINUOUS
 62
    4
 10
348.73721099999972
 20
217.01327833333326
 11
349.24999999999983
 21
216.84234933333323
  0
LINE
  8
_1-0_躯体
  6
CONTINUOUS
 62
    4
 10
349.74999999999983
 20
216.83333333333326
 11
349.24999999999983
 21
216.66666733333324
  0
LINE
  8
_1-0_躯体
  6
CONTINUOUS
 62
    4
 10
349.24999999999983
 20
216.84234933333323
 11
349.74999999999983
 21
217.00901533333331
  0
LINE
  8
_1-0_躯体
  6
CONTINUOUS
 62
    4
 10
350.74999999999983
 20
216.83333333333326
 11
350.24999999999983
 21
216.66666733333324
  0
LINE
  8
_1-0_躯体
  6
CONTINUOUS
 62
    4
 10
350.24999999999983
 20
216.84234933333323
 11
350.74999999999983
 21
217.00901533333331
  0
LINE
  8
_1-0_躯体
  6
CONTINUOUS
 62
    4
 10
349.74999999999983
 20
216.83333333333326
 11
350.24999999999983
 21
216.66666733333324
  0
LINE
  8
_1-0_躯体
  6
CONTINUOUS
 62
    4
 10
350.24999999999983
 20
216.84234933333323
 11
349.74999999999983
 21
217.00901533333331
  0
LINE
  8
_1-0_躯体
  6
CONTINUOUS
 62
    4
 10
352.74999999999983
 20
216.83333333333326
 11
352.24999999999983
 21
216.66666733333324
  0
LINE
  8
_1-0_躯体
  6
CONTINUOUS
 62
    4
 10
352.76278799999983
 20
217.01327833333326
 11
352.24999999999983
 21
216.84234933333323
  0
LINE
  8
_1-0_躯体
  6
CONTINUOUS
 62
    4
 10
351.74999999999983
 20
216.83333333333326
 11
352.24999999999983
 21
216.66666733333324
  0
LINE
  8
_1-0_躯体
  6
CONTINUOUS
 62
    4
 10
352.24999999999983
 20
216.84234933333323
 11
351.74999999999983
 21
217.00901533333331
  0
LINE
  8
_1-0_躯体
  6
CONTINUOUS
 62
    4
 10
350.74999999999983
 20
216.83333333333326
 11
351.24999999999983
 21
216.66666733333324
  0
LINE
  8
_1-0_躯体
  6
CONTINUOUS
 62
    4
 10
351.24999999999983
 20
216.84234933333323
 11
350.74999999999983
 21
217.00901533333331
  0
LINE
  8
_1-0_躯体
  6
CONTINUOUS
 62
    4
 10
351.74999999999983
 20
216.83333333333326
 11
351.24999999999983
 21
216.66666733333324
  0
LINE
  8
_1-0_躯体
  6
CONTINUOUS
 62
    4
 10
351.24999999999983
 20
216.84234933333323
 11
351.74999999999983
 21
217.00901533333331
  0
LINE
  8
_1-0_躯体
  6
CONTINUOUS
 62
    4
 10
353.08333299999987
 20
216.66666733333324
 11
352.74999999999983
 21
216.83333333333326
  0
LINE
  8
_1-0_躯体
  6
CONTINUOUS
 62
    4
 10
353.12267799999995
 20
216.83333333333326
 11
352.76278799999983
 21
217.01327833333326
  0
LINE
  8
_1-0_躯体
  6
CONTINUOUS
 62
    4
 10
356.41666599999985
 20
216.66666733333324
 11
355.08333299999987
 21
216.66666733333324
  0
LINE
  8
_1-0_躯体
  6
CONTINUOUS
 62
    4
 10
356.37732199999994
 20
216.83333333333326
 11
355.12267799999995
 21
216.83333333333326
  0
LINE
  8
_1-0_躯体
  6
CONTINUOUS
 62
    4
 10
361.08333299999987
 20
216.66666733333324
 11
360.74999999999983
 21
216.83333333333326
  0
LINE
  8
_1-0_躯体
  6
CONTINUOUS
 62
    4
 10
360.74999999999983
 20
216.83333333333326
 11
360.24999999999983
 21
216.66666733333324
  0
LINE
  8
_1-0_躯体
  6
CONTINUOUS
 62
    4
 10
361.12267799999995
 20
216.83333333333326
 11
360.76278799999983
 21
217.01327833333326
  0
LINE
  8
_1-0_躯体
  6
CONTINUOUS
 62
    4
 10
360.76278799999983
 20
217.01327833333326
 11
360.24999999999983
 21
216.84234933333323
  0
LINE
  8
_1-0_躯体
  6
CONTINUOUS
 62
    4
 10
359.74999999999983
 20
216.83333333333326
 11
360.24999999999983
 21
216.66666733333324
  0
LINE
  8
_1-0_躯体
  6
CONTINUOUS
 62
    4
 10
360.24999999999983
 20
216.84234933333323
 11
359.74999999999983
 21
217.00901533333331
  0
LINE
  8
_1-0_躯体
  6
CONTINUOUS
 62
    4
 10
358.74999999999983
 20
216.83333333333326
 11
359.24999999999983
 21
216.66666733333324
  0
LINE
  8
_1-0_躯体
  6
CONTINUOUS
 62
    4
 10
359.24999999999983
 20
216.84234933333323
 11
358.74999999999983
 21
217.00901533333331
  0
LINE
  8
_1-0_躯体
  6
CONTINUOUS
 62
    4
 10
359.74999999999983
 20
216.83333333333326
 11
359.24999999999983
 21
216.66666733333324
  0
LINE
  8
_1-0_躯体
  6
CONTINUOUS
 62
    4
 10
359.24999999999983
 20
216.84234933333323
 11
359.74999999999983
 21
217.00901533333331
  0
LINE
  8
_1-0_躯体
  6
CONTINUOUS
 62
    4
 10
356.74999999999983
 20
216.83333333333326
 11
357.24999999999983
 21
216.66666733333324
  0
LINE
  8
_1-0_躯体
  6
CONTINUOUS
 62
    4
 10
356.73721099999989
 20
217.01327833333326
 11
357.24999999999983
 21
216.84234933333323
  0
LINE
  8
_1-0_躯体
  6
CONTINUOUS
 62
    4
 10
357.74999999999983
 20
216.83333333333326
 11
357.24999999999983
 21
216.66666733333324
  0
LINE
  8
_1-0_躯体
  6
CONTINUOUS
 62
    4
 10
357.24999999999983
 20
216.84234933333323
 11
357.74999999999983
 21
217.00901533333331
  0
LINE
  8
_1-0_躯体
  6
CONTINUOUS
 62
    4
 10
358.74999999999983
 20
216.83333333333326
 11
358.24999999999983
 21
216.66666733333324
  0
LINE
  8
_1-0_躯体
  6
CONTINUOUS
 62
    4
 10
358.24999999999983
 20
216.84234933333323
 11
358.74999999999983
 21
217.00901533333331
  0
LINE
  8
_1-0_躯体
  6
CONTINUOUS
 62
    4
 10
357.74999999999983
 20
216.83333333333326
 11
358.24999999999983
 21
216.66666733333324
  0
LINE
  8
_1-0_躯体
  6
CONTINUOUS
 62
    4
 10
358.24999999999983
 20
216.84234933333323
 11
357.74999999999983
 21
217.00901533333331
  0
LINE
  8
_1-0_躯体
  6
CONTINUOUS
 62
    4
 10
356.41666599999985
 20
216.66666733333324
 11
356.74999999999983
 21
216.83333333333326
  0
LINE
  8
_1-0_躯体
  6
CONTINUOUS
 62
    4
 10
356.37732199999994
 20
216.83333333333326
 11
356.73721099999989
 21
217.01327833333326
  0
LINE
  8
_1-0_躯体
  6
CONTINUOUS
 62
    4
 10
362.08333299999993
 20
216.83333333333326
 11
361.12267799999995
 21
216.83333333333326
  0
LINE
  8
_1-0_躯体
  6
CONTINUOUS
 62
    4
 10
362.08333299999993
 20
216.66666733333324
 11
361.08333299999987
 21
216.66666733333324
  0
LINE
  8
_1-0_躯体
  6
CONTINUOUS
 62
    4
 10
346.83333299999987
 20
222.66666733333329
 11
347.19999999999987
 21
222.83333333333329
  0
LINE
  8
_1-0_躯体
  6
CONTINUOUS
 62
    4
 10
347.19999999999987
 20
222.83333333333329
 11
347.70627699999983
 21
221.63829033333326
  0
ARC
  8
_1-0_躯体
  6
CONTINUOUS
 62
    4
 10
348.16666599999985
 20
221.83333333333329
 40
0.5
 50
202.95984199999563
 51
0
  0
LINE
  8
_1-0_躯体
  6
CONTINUOUS
 62
    4
 10
346.83333299999987
 20
222.66666733333329
 11
346.83333299999987
 21
221.00000033333333
  0
LINE
  8
_1-0_躯体
  6
CONTINUOUS
 62
    4
 10
347.03333299999986
 20
222.7575763333333
 11
347.03333299999986
 21
221.00000033333333
  0
LINE
  8
_1-0_躯体
  6
CONTINUOUS
 62
    4
 10
348.66666599999985
 20
221.83333333333329
 11
348.66666599999985
 21
226.79743533333328
  0
ARC
  8
_1-0_躯体
  6
CONTINUOUS
 62
    4
 10
347.99999999999983
 20
221.00000033333333
 40
1.1666669999999999
 50
180
 51
270
  0
LINE
  8
_1-0_躯体
  6
CONTINUOUS
 62
    4
 10
347.99999999999983
 20
219.83333333333326
 11
361.49999999999989
 21
219.83333333333326
  0
LINE
  8
_1-0_躯体
  6
CONTINUOUS
 62
    4
 10
346.66666599999985
 20
235.86666733333325
 11
346.66666599999985
 21
227.33333333333329
  0
LINE
  8
_1-0_躯体
  6
CONTINUOUS
 62
    4
 10
362.83333299999993
 20
235.86666733333325
 11
362.83333299999993
 21
227.33333333333329
  0
ARC
  8
_1-0_躯体
  6
CONTINUOUS
 62
    4
 10
347.99999999999983
 20
221.00000033333333
 40
0.9666669999999998
 50
180
 51
270
  0
LINE
  8
_1-0_躯体
  6
CONTINUOUS
 62
    4
 10
361.49999999999989
 20
220.03333333333322
 11
347.99999999999983
 21
220.03333333333322
  0
LINE
  8
_1-0_躯体
  6
CONTINUOUS
 62
    4
 10
346.66666599999985
 20
227.33333333333329
 11
348.66666599999985
 21
226.79743533333328
  0
LINE
  8
_1-0_躯体
  6
CONTINUOUS
 62
    4
 10
346.66666599999985
 20
235.86666733333325
 11
362.83333299999993
 21
235.86666733333325
  0
ARC
  8
_1-0_躯体
  6
CONTINUOUS
 62
    4
 10
348.91666599999985
 20
228.83333333333329
 40
0.8333329999999998
 50
180
 51
270
  0
LINE
  8
_1-0_躯体
  6
CONTINUOUS
 62
    4
 10
348.08333299999987
 20
228.83333333333329
 11
348.08333299999987
 21
233.16666733333329
  0
LINE
  8
_1-0_躯体
  6
CONTINUOUS
 62
    4
 10
348.91666599999985
 20
228.00000033333333
 11
349.74999999999983
 21
228.00000033333333
  0
ARC
  8
_1-0_躯体
  6
CONTINUOUS
 62
    4
 10
351.41666599999985
 20
222.33333333333329
 40
1
 50
180
 51
0
  0
ARC
  8
_1-0_躯体
  6
CONTINUOUS
 62
    4
 10
349.74999999999983
 20
227.33333333333329
 40
0.666667
 50
0
 51
90
  0
LINE
  8
_1-0_躯体
  6
CONTINUOUS
 62
    4
 10
350.41666599999985
 20
222.33333333333329
 11
350.41666599999985
 21
227.33333333333329
  0
ARC
  8
_1-0_躯体
  6
CONTINUOUS
 62
    4
 10
353.08333299999987
 20
227.33333333333329
 40
0.666667
 50
90
 51
180
  0
LINE
  8
_1-0_躯体
  6
CONTINUOUS
 62
    4
 10
352.41666599999985
 20
222.33333333333329
 11
352.41666599999985
 21
227.33333333333329
  0
ARC
  8
_1-0_躯体
  6
CONTINUOUS
 62
    4
 10
356.41666599999985
 20
227.33333333333329
 40
0.666667
 50
0
 51
90
  0
LINE
  8
_1-0_躯体
  6
CONTINUOUS
 62
    4
 10
353.08333299999987
 20
228.00000033333333
 11
356.41666599999985
 21
228.00000033333333
  0
LINE
  8
_1-0_躯体
  6
CONTINUOUS
 62
    4
 10
362.66666599999985
 20
222.66666733333329
 11
362.29999999999984
 21
222.83333333333329
  0
LINE
  8
_1-0_躯体
  6
CONTINUOUS
 62
    4
 10
362.29999999999984
 20
222.83333333333329
 11
361.79372199999989
 21
221.63829033333326
  0
ARC
  8
_1-0_躯体
  6
CONTINUOUS
 62
    4
 10
361.33333299999987
 20
221.83333333333329
 40
0.5
 50
180
 51
337.0401580000044
  0
ARC
  8
_1-0_躯体
  6
CONTINUOUS
 62
    4
 10
361.49999999999989
 20
221.00000033333333
 40
1.1666669999999999
 50
270
 51
0
  0
LINE
  8
_1-0_躯体
  6
CONTINUOUS
 62
    4
 10
362.66666599999985
 20
222.66666733333329
 11
362.66666599999985
 21
221.00000033333333
  0
ARC
  8
_1-0_躯体
  6
CONTINUOUS
 62
    4
 10
361.49999999999989
 20
221.00000033333333
 40
0.9666669999999998
 50
270
 51
0
  0
LINE
  8
_1-0_躯体
  6
CONTINUOUS
 62
    4
 10
362.46666599999992
 20
222.7575763333333
 11
362.46666599999992
 21
221.00000033333333
  0
LINE
  8
_1-0_躯体
  6
CONTINUOUS
 62
    4
 10
360.83333299999987
 20
221.83333333333329
 11
360.83333299999987
 21
226.79743533333328
  0
LINE
  8
_1-0_躯体
  6
CONTINUOUS
 62
    4
 10
362.83333299999993
 20
227.33333333333329
 11
360.83333299999987
 21
226.79743533333328
  0
ARC
  8
_1-0_躯体
  6
CONTINUOUS
 62
    4
 10
358.08333299999987
 20
222.33333333333329
 40
1
 50
180
 51
0
  0
ARC
  8
_1-0_躯体
  6
CONTINUOUS
 62
    4
 10
359.74999999999983
 20
227.33333333333329
 40
0.666667
 50
90
 51
180
  0
LINE
  8
_1-0_躯体
  6
CONTINUOUS
 62
    4
 10
359.08333299999987
 20
222.33333333333329
 11
359.08333299999987
 21
227.33333333333329
  0
LINE
  8
_1-0_躯体
  6
CONTINUOUS
 62
    4
 10
357.08333299999987
 20
222.33333333333329
 11
357.08333299999987
 21
227.33333333333329
  0
ARC
  8
_1-0_躯体
  6
CONTINUOUS
 62
    4
 10
360.58333299999987
 20
228.83333333333329
 40
0.8333329999999998
 50
270
 51
0
  0
LINE
  8
_1-0_躯体
  6
CONTINUOUS
 62
    4
 10
361.41666599999985
 20
228.83333333333329
 11
361.41666599999985
 21
233.16666733333329
  0
LINE
  8
_1-0_躯体
  6
CONTINUOUS
 62
    4
 10
360.58333299999987
 20
228.00000033333333
 11
359.74999999999983
 21
228.00000033333333
  0
LINE
  8
_1-0_躯体
  6
CONTINUOUS
 62
    4
 10
373.33333300000004
 20
214.66666733333324
 11
344.99999999999983
 21
214.66666733333324
  0
LINE
  8
_1-0_躯体
  6
CONTINUOUS
 62
    4
 10
373.33333300000004
 20
214.00000033333328
 11
344.99999999999983
 21
214.00000033333328
  0
LINE
  8
_1-0_躯体
  6
CONTINUOUS
 62
    4
 10
344.99999999999983
 20
213.33333333333326
 11
373.33333300000004
 21
213.33333333333326
  0
INSERT
  2
-011-$QLE_3_
  8
_1-f_寸法
 10
210
 20
148.5
 41
1
 42
1
 50
0
  0
INSERT
  2
-012-$QLE_4_
  8
_1-f_寸法
 10
210
 20
148.5
 41
1
 42
1
 50
0
  0
LINE
  8
_1-0_躯体
  6
CONTINUOUS
 62
    4
 10
344.99999999999983
 20
213.33333333333326
 11
344.99999999999983
 21
216.66666733333324
  0
INSERT
  2
-013-$QLE_5_
  8
_1-f_寸法
 10
210
 20
148.5
 41
1
 42
1
 50
0
  0
LINE
  8
_1-0_躯体
  6
CONTINUOUS
 62
    6
 10
278.33333333333303
 20
235.66666733333329
 11
278.33333333333303
 21
186.10812022533582
  0
CIRCLE
  8
_1-f_寸法
  6
CONTINUOUS
 62
    4
 10
274.99999999999989
 20
188.33333333333331
 40
1.6666666666666665
  0
CIRCLE
  8
_1-f_寸法
  6
CONTINUOUS
 62
    4
 10
298.33333333333326
 20
201.66666666666666
 40
1.6666666666666665
  0
LINE
  8
_1-f_寸法
  6
CONTINUOUS
 62
    4
 10
344.99999999999983
 20
236.66666666666657
 11
344.99999999999983
 21
243.26666666666657
  0
LINE
  8
_1-f_寸法
  6
CONTINUOUS
 62
    4
 10
278.33333333333303
 20
236.66666666666657
 11
278.33333333333303
 21
243.26666666666657
  0
POINT
  8
_1-f_寸法
 62
    4
 10
278.33333333333303
 20
241.66666666666657
  0
POINT
  8
_1-f_寸法
 62
    4
 10
344.99999999999983
 20
241.66666666666657
  0
LINE
  8
_1-f_寸法
  6
CONTINUOUS
 62
    4
 10
278.33333333333303
 20
241.66666666666657
 11
344.99999999999983
 21
241.66666666666657
  0
TEXT
  8
_1-f_寸法
 62
    4
 10
309.26666666666637
 20
241.66666666666657
 40
3.2000000000000002
 41
1
 50
0
  1
200
  0
LINE
  8
_1-f_寸法
  6
CONTINUOUS
 62
    4
 10
261.66666666666652
 20
213.33333333333331
 11
343.33333333333331
 21
213.33333333333331
  0
LINE
  8
_1-f_寸法
  6
CONTINUOUS
 62
    4
 10
286.66666666666663
 20
186.66666666666666
 11
286.66666666666663
 21
180.06666666666666
  0
LINE
  8
_1-f_寸法
  6
CONTINUOUS
 62
    4
 10
278.33333333333303
 20
186.66666666666666
 11
278.33333333333303
 21
180.06666666666666
  0
POINT
  8
_1-f_寸法
 62
    4
 10
278.33333333333303
 20
181.66666666666666
  0
POINT
  8
_1-f_寸法
 62
    4
 10
286.66666666666663
 20
181.66666666666666
  0
LINE
  8
_1-f_寸法
  6
CONTINUOUS
 62
    4
 10
278.33333333333303
 20
181.66666666666666
 11
286.66666666666663
 21
181.66666666666666
  0
TEXT
  8
_1-f_寸法
 62
    4
 10
280.89999999999975
 20
181.66666666666666
 40
3.2000000000000002
 41
1
 50
0
  1
25
  0
LINE
  8
_1-f_寸法
  6
CONTINUOUS
 62
    4
 10
364.99999999942827
 20
186.66666666666666
 11
364.99999999942827
 21
180.06666666666666
  0
POINT
  8
_1-f_寸法
 62
    4
 10
364.99999999942827
 20
181.66666666666666
  0
LINE
  8
_1-f_寸法
  6
CONTINUOUS
 62
    4
 10
286.66666666666663
 20
181.66666666666666
 11
364.99999999942827
 21
181.66666666666666
  0
TEXT
  8
_1-f_寸法
 62
    4
 10
323.43333333304741
 20
181.66666666666666
 40
3.2000000000000002
 41
1
 50
0
  1
235
  0
LINE
  8
_1-f_寸法
  6
CONTINUOUS
 62
    4
 10
364.99999999942827
 20
181.66666666666666
 11
364.99999999942827
 21
175.06666666666666
  0
LINE
  8
_1-f_寸法
  6
CONTINUOUS
 62
    4
 10
278.33333333333303
 20
181.66666666666666
 11
278.33333333333303
 21
175.06666666666666
  0
POINT
  8
_1-f_寸法
 62
    4
 10
278.33333333333303
 20
176.66666666666666
  0
POINT
  8
_1-f_寸法
 62
    4
 10
364.99999999942827
 20
176.66666666666666
  0
LINE
  8
_1-f_寸法
  6
CONTINUOUS
 62
    4
 10
278.33333333333303
 20
176.66666666666666
 11
364.99999999942827
 21
176.66666666666666
  0
TEXT
  8
_1-f_寸法
 62
    4
 10
319.26666666638067
 20
176.66666666666666
 40
3.2000000000000002
 41
1
 50
0
  1
260
  0
LINE
  8
_1-f_寸法
  6
CONTINUOUS
 62
    4
 10
364.99999999942827
 20
186.66666666666666
 11
364.99999999942827
 21
203.33333333333331
  0
CIRCLE
  8
_1-f_寸法
  6
CONTINUOUS
 62
    4
 10
360
 20
201.66666666666666
 40
1.6666666666666665
  0
TEXT
  8
_1-f_寸法
 62
    4
 10
359.375
 20
200.41666666666666
 40
2.5
 41
1
 50
0
  1
1
  0
LINE
  8
_1-f_寸法
  6
CONTINUOUS
 62
    4
 10
175
 20
204.90000000000009
 11
181.59999999999997
 21
204.90000000000009
  0
LINE
  8
_1-f_寸法
  6
CONTINUOUS
 62
    4
 10
175
 20
213.33333333333331
 11
181.59999999999997
 21
213.33333333333331
  0
POINT
  8
_1-f_寸法
 62
    4
 10
180
 20
213.33333333333331
  0
POINT
  8
_1-f_寸法
 62
    4
 10
180
 20
204.90000000000009
  0
LINE
  8
_1-f_寸法
  6
CONTINUOUS
 62
    4
 10
180
 20
213.33333333333331
 11
180
 21
204.90000000000009
  0
TEXT
  8
_1-f_寸法
 62
    4
 10
180
 20
205.91666666666669
 40
3.2000000000000002
 41
1
 50
90
  1
25.3
  0
LINE
  8
_1-f_寸法
  6
CONTINUOUS
 62
    4
 10
175
 20
204.90000000000009
 11
166.66666666666666
 21
204.90000000000009
  0
CIRCLE
  8
_1-f_寸法
  6
CONTINUOUS
 62
    4
 10
86.666666666666657
 20
215
 40
1.6666666666666665
  0
TEXT
  8
_1-f_寸法
 62
    4
 10
86.041666666666657
 20
213.75
 40
2.5
 41
1
 50
0
  1
2
  0
LINE
  8
_1-f_寸法
  6
CONTINUOUS
 62
    4
 10
85.833333333333329
 20
213.55662432702593
 11
83.702933863054028
 21
209.86666420408437
  0
INSERT
  2
-014-_8_
  8
_1-8_小物
 10
210
 20
148.5
 41
1
 42
1
 50
0
  0
INSERT
  2
-015-_9_
  8
_1-8_小物
 10
210
 20
148.5
 41
1
 42
1
 50
0
  0
LINE
  8
_1-f_寸法
  6
CONTINUOUS
 62
    4
 10
276.44337567297396
 20
189.33333341280024
 11
278.74783017987363
 21
190.66381084269398
  0
LINE
  8
_1-f_寸法
  6
CONTINUOUS
 62
    4
 10
359.16666666666663
 20
203.11004233964073
 11
357.91191657231104
 21
205.28333325386643
  0
LINE
  8
_1-7_カバ__
  6
CONTINUOUS
 62
    4
 10
297.26205755513456
 20
202.94343837093589
 11
295.62040385179057
 21
204.89999992053313
  0
LINE
  8
_1-0_躯体
  6
CONTINUOUS
 62
    4
 10
160.83333300000001
 20
223.00000033333339
 11
173.33333300000004
 21
223.00000033333339
  0
LINE
  8
_1-0_躯体
  6
CONTINUOUS
 62
    4
 10
360.83333299999987
 20
223.00000033333333
 11
373.33333300000004
 21
223.00000033333333
  0
INSERT
  2
-016-_10_
  8
_1-4_フレ__ム
 10
210
 20
148.5
 41
1
 42
1
 50
0
  0
INSERT
  2
-017-_11_
  8
_1-8_小物
 10
210
 20
148.5
 41
1
 42
1
 50
0
  0
LINE
  8
_1-f_寸法
  6
CONTINUOUS
 62
    4
 10
144.99999999999997
 20
215
 11
144.99999999999997
 21
221.59999999999997
  0
LINE
  8
_1-f_寸法
  6
CONTINUOUS
 62
    4
 10
126.33333333333304
 20
215
 11
126.33333333333304
 21
221.59999999999997
  0
POINT
  8
_1-f_寸法
 62
    4
 10
126.33333333333304
 20
220
  0
POINT
  8
_1-f_寸法
 62
    4
 10
144.99999999999997
 20
220
  0
LINE
  8
_1-f_寸法
  6
CONTINUOUS
 62
    4
 10
126.33333333333304
 20
220
 11
144.99999999999997
 21
220
  0
TEXT
  8
_1-f_寸法
 62
    4
 10
134.06666666666649
 20
220
 40
3.2000000000000002
 41
1
 50
0
  1
56
  0
INSERT
  2
-018-_12_
  8
_1-4_フレ__ム
 10
210
 20
148.5
 41
1
 42
1
 50
0
  0
INSERT
  2
-019-_13_
  8
_1-8_小物
 10
210
 20
148.5
 41
1
 42
1
 50
0
  0
LINE
  8
_1-f_寸法
  6
CONTINUOUS
 62
    4
 10
345
 20
215
 11
345
 21
221.59999999999997
  0
LINE
  8
_1-f_寸法
  6
CONTINUOUS
 62
    4
 10
326.33333333333303
 20
215
 11
326.33333333333303
 21
221.59999999999997
  0
POINT
  8
_1-f_寸法
 62
    4
 10
326.33333333333303
 20
220
  0
POINT
  8
_1-f_寸法
 62
    4
 10
345
 20
220
  0
LINE
  8
_1-f_寸法
  6
CONTINUOUS
 62
    4
 10
326.33333333333303
 20
220
 11
345
 21
220
  0
TEXT
  8
_1-f_寸法
 62
    4
 10
334.06666666666649
 20
220
 40
3.2000000000000002
 41
1
 50
0
  1
56
  0
LINE
  8
_1-f_寸法
  6
CONTINUOUS
 62
    4
 10
156.6666666666666
 20
236.66666666666666
 11
156.6666666666666
 21
243.26666666666665
  0
LINE
  8
_1-f_寸法
  6
CONTINUOUS
 62
    4
 10
144.99999999999997
 20
236.66666666666666
 11
144.99999999999997
 21
243.26666666666665
  0
POINT
  8
_1-f_寸法
 62
    4
 10
144.99999999999997
 20
241.66666666666666
  0
POINT
  8
_1-f_寸法
 62
    4
 10
156.6666666666666
 20
241.66666666666666
  0
LINE
  8
_1-f_寸法
  6
CONTINUOUS
 62
    4
 10
144.99999999999997
 20
241.66666666666666
 11
156.6666666666666
 21
241.66666666666666
  0
TEXT
  8
_1-f_寸法
 62
    4
 10
149.23333333333329
 20
241.66666666666666
 40
3.2000000000000002
 41
1
 50
0
  1
35
  0
LINE
  8
_1-f_寸法
  6
CONTINUOUS
 62
    4
 10
71.666666666666544
 20
236.66666666666666
 11
71.666666666666544
 21
243.26666666666665
  0
LINE
  8
_1-f_寸法
  6
CONTINUOUS
 62
    4
 10
78.333333333333314
 20
236.66666666666666
 11
78.333333333333314
 21
243.26666666666665
  0
POINT
  8
_1-f_寸法
 62
    4
 10
78.333333333333314
 20
241.66666666666666
  0
POINT
  8
_1-f_寸法
 62
    4
 10
71.666666666666544
 20
241.66666666666666
  0
LINE
  8
_1-f_寸法
  6
CONTINUOUS
 62
    4
 10
78.333333333333314
 20
241.66666666666666
 11
71.666666666666544
 21
241.66666666666666
  0
TEXT
  8
_1-f_寸法
 62
    4
 10
73.39999999999992
 20
241.66666666666666
 40
3.2000000000000002
 41
1
 50
0
  1
20
  0
LINE
  8
_1-f_寸法
  6
CONTINUOUS
 62
    4
 10
71.666666666666544
 20
236.66666666666666
 11
71.666666666666544
 21
222.33333333333337
  0
LINE
  8
_1-f_寸法
  6
CONTINUOUS
 62
    4
 10
156.66666666666666
 20
241.66666666666666
 11
156.66666666666666
 21
221.66666666666666
  0
LINE
  8
_1-f_寸法
  6
CONTINUOUS
 62
    4
 10
356.66666666666652
 20
236.66666666666657
 11
356.66666666666652
 21
243.26666666666657
  0
LINE
  8
_1-f_寸法
  6
CONTINUOUS
 62
    4
 10
344.99999999999983
 20
236.66666666666657
 11
344.99999999999983
 21
243.26666666666657
  0
POINT
  8
_1-f_寸法
 62
    4
 10
344.99999999999983
 20
241.66666666666657
  0
POINT
  8
_1-f_寸法
 62
    4
 10
356.66666666666652
 20
241.66666666666657
  0
LINE
  8
_1-f_寸法
  6
CONTINUOUS
 62
    4
 10
344.99999999999983
 20
241.66666666666657
 11
356.66666666666652
 21
241.66666666666657
  0
TEXT
  8
_1-f_寸法
 62
    4
 10
349.23333333333318
 20
241.66666666666657
 40
3.2000000000000002
 41
1
 50
0
  1
35
  0
LINE
  8
_1-f_寸法
  6
CONTINUOUS
 62
    4
 10
356.66666666666652
 20
241.66666666666657
 11
356.66666666666652
 21
221.66666666666657
  0
CIRCLE
  8
_1-f_寸法
  6
CONTINUOUS
 62
    4
 10
81.666666666666657
 20
201.66666666666666
 40
1.6666666666666665
  0
LINE
  8
_1-f_寸法
  6
CONTINUOUS
 62
    4
 10
75.500001082061999
 20
204.90000000000009
 11
80.190593287196037
 21
202.44060797981382
  0
CIRCLE
  8
_1-f_寸法
  6
CONTINUOUS
 62
    4
 10
129.99999999999991
 20
216.66666666666666
 40
1.6666666666666665
  0
LINE
  8
_1-f_寸法
  6
CONTINUOUS
 62
    4
 10
130.83333333333329
 20
215.22329099369261
 11
132.06883846459613
 21
213.08333333333331
  0
TEXT
  8
_1-f_寸法
 62
    4
 10
129.37499999999991
 20
215.41666666666666
 40
2.5
 41
1
 50
0
  1
3
  0
TEXT
  8
_1-f_寸法
 62
    4
 10
81.041666666666657
 20
200.41666666666666
 40
2.5
 41
1
 50
0
  1
4
  0
TEXT
  8
_1-f_寸法
 62
    4
 10
66.041666666666629
 20
207.08333333333331
 40
2.5
 41
1
 50
0
  1
5
  0
TEXT
  8
_1-f_寸法
 62
    4
 10
71.041666666666657
 20
207.08333333333331
 40
2.5
 41
1
 50
0
  1
6
  0
TEXT
  8
_1-f_寸法
 62
    4
 10
54.375
 20
218.75
 40
2.5
 41
1
 50
0
  1
7
  0
CIRCLE
  8
_1-f_寸法
  6
CONTINUOUS
 62
    4
 10
330.00000000000011
 20
216.66666666666666
 40
1.6666666666666665
  0
LINE
  8
_1-f_寸法
  6
CONTINUOUS
 62
    4
 10
330.83333333333348
 20
215.22329099369261
 11
332.06883846459641
 21
213.08333333333331
  0
TEXT
  8
_1-f_寸法
 62
    4
 10
329.37500000000011
 20
215.41666666666666
 40
2.5
 41
1
 50
0
  1
3
  0
TEXT
  8
_1-f_寸法
 62
    4
 10
297.70833333333326
 20
200.41666666666666
 40
2.5
 41
1
 50
0
  1
4
  0
TEXT
  8
_1-f_寸法
 62
    4
 10
274.37499999999989
 20
187.08333333333331
 40
2.5
 41
1
 50
0
  1
8
  0
LINE
  8
_1-0_躯体
  6
CENTER2
 62
    4
 10
281.40512729410682
 20
203.33333325386639
 11
261.66666666666686
 21
203.33333325386639
  0
CIRCLE
  8
_1-f_寸法
  6
CONTINUOUS
 62
    4
 10
291.66666666666652
 20
198.33333333333331
 40
1.6666666666666665
  0
TEXT
  8
_1-f_寸法
 62
    4
 10
291.04166666666652
 20
197.08333333333331
 40
2.5
 41
1
 50
0
  1
2
  0
CIRCLE
  8
_1-f_寸法
  6
CONTINUOUS
 62
    4
 10
282.49999999999989
 20
208.33333333333331
 40
1.6666666666666665
  0
LINE
  8
_1-f_寸法
  6
CONTINUOUS
 62
    4
 10
281.66666666666652
 20
206.88995766035924
 11
279.61324860817138
 21
203.33333325386633
  0
LINE
  8
_1-f_寸法
  6
CONTINUOUS
 62
    4
 10
290.23167660303557
 20
199.18102507863836
 11
283.20256364705335
 21
203.33333329359985
  0
CIRCLE
  8
_1-f_寸法
  6
CONTINUOUS
 62
    4
 10
271.66666666666652
 20
198.33333333333331
 40
1.6666666666666665
  0
LINE
  8
_1-f_寸法
  6
CONTINUOUS
 62
    4
 10
272.84517796864407
 20
199.51184463531087
 11
275.99999992053301
 21
202.66666658719978
  0
TEXT
  8
_1-f_寸法
 62
    4
 10
281.87499999999989
 20
207.08333333333331
 40
2.5
 41
1
 50
0
  1
5
  0
TEXT
  8
_1-f_寸法
 62
    4
 10
271.04166666666652
 20
197.08333333333331
 40
2.5
 41
1
 50
0
  1
7
  0
CIRCLE
  8
_1-f_寸法
  6
CONTINUOUS
 62
    4
 10
274.99999999999989
 20
208.33333333333331
 40
1.6666666666666665
  0
TEXT
  8
_1-f_寸法
 62
    4
 10
274.37499999999989
 20
207.08333333333331
 40
2.5
 41
1
 50
0
  1
6
  0
LINE
  8
_1-f_寸法
  6
CONTINUOUS
 62
    4
 10
276.432215482282
 20
207.48096217586183
 11
279.11666666666633
 21
205.8833333333335
  0
LINE
  8
_1-f_寸法
  6
CONTINUOUS
 62
    4
 10
276.66666666666663
 20
210.99999992053307
 11
270.06666666666661
 21
210.99999992053307
  0
LINE
  8
_1-f_寸法
  6
CONTINUOUS
 62
    4
 10
276.66666666666663
 20
213.33333333333331
 11
270.06666666666661
 21
213.33333333333331
  0
POINT
  8
_1-f_寸法
 62
    4
 10
271.66666666666663
 20
213.33333333333331
  0
POINT
  8
_1-f_寸法
 62
    4
 10
271.66666666666663
 20
210.99999992053307
  0
LINE
  8
_1-f_寸法
  6
CONTINUOUS
 62
    4
 10
271.66666666666663
 20
213.33333333333331
 11
271.66666666666663
 21
210.99999992053307
  0
TEXT
  8
_1-f_寸法
 62
    4
 10
271.66666666666663
 20
211.36666662693318
 40
3.2000000000000002
 41
1
 50
90
  1
7
  0
LINE
  8
_1-f_寸法
  6
CONTINUOUS
 62
    4
 10
261.66666666666686
 20
203.33333325386639
 11
255.06666666666663
 21
203.33333325386639
  0
LINE
  8
_1-f_寸法
  6
CONTINUOUS
 62
    4
 10
261.66666666666686
 20
213.33333333333326
 11
255.06666666666663
 21
213.33333333333326
  0
POINT
  8
_1-f_寸法
 62
    4
 10
256.66666666666663
 20
213.33333333333326
  0
POINT
  8
_1-f_寸法
 62
    4
 10
256.66666666666663
 20
203.33333325386639
  0
LINE
  8
_1-f_寸法
  6
CONTINUOUS
 62
    4
 10
256.66666666666663
 20
213.33333333333326
 11
256.66666666666663
 21
203.33333325386639
  0
TEXT
  8
_1-f_寸法
 62
    4
 10
256.66666666666663
 20
206.73333329359983
 40
3.2000000000000002
 41
1
 50
90
  1
30
  0
ARC
  8
_1-5_ホルダ__
  6
CONTINUOUS
 62
    4
 10
305.99999999999989
 20
208.16666666666666
 40
0.8333333333333332
 50
270
 51
90
  0
ARC
  8
_1-5_ホルダ__
  6
CONTINUOUS
 62
    4
 10
303.99999999999989
 20
208.16666666666666
 40
0.8333333333333332
 50
90
 51
270
  0
LINE
  8
_1-5_ホルダ__
  6
CONTINUOUS
 62
    4
 10
303.99999999999989
 20
207.33333333333331
 11
305.99999999999989
 21
207.33333333333331
  0
LINE
  8
_1-5_ホルダ__
  6
CONTINUOUS
 62
    4
 10
305.99999999999989
 20
209
 11
303.99999999999989
 21
209
  0
LINE
  8
_1-5_ホルダ__
  6
CONTINUOUS
 62
    4
 10
278.86666666666656
 20
199
 11
278.33333333333326
 21
199
  0
ARC
  8
_1-5_ホルダ__
  6
CONTINUOUS
 62
    4
 10
281.66666666666663
 20
200.66666666666666
 40
1.6666666666666665
 50
270
 51
0
  0
ARC
  8
_1-5_ホルダ__
  6
CONTINUOUS
 62
    4
 10
281.66666666666663
 20
200.66666666666666
 40
1.6666666666666665
 50
270
 51
0
  0
LINE
  8
_1-5_ホルダ__
  6
CONTINUOUS
 62
    4
 10
283.33333333333326
 20
205.0333333333333
 11
283.33333333333326
 21
200.66666666666666
  0
ARC
  8
_1-5_ホルダ__
  6
CONTINUOUS
 62
    4
 10
284.99999999999989
 20
205.0333333333333
 40
1.6666666666666665
 50
90
 51
180
  0
LINE
  8
_1-5_ホルダ__
  6
CONTINUOUS
 62
    4
 10
284.99999999999989
 20
205.66666666666666
 11
355
 21
205.66666666666666
  0
LINE
  8
_1-5_ホルダ__
  6
CONTINUOUS
 62
    4
 10
281.66666666666663
 20
199
 11
278.33333333333326
 21
199
  0
LINE
  8
_1-5_ホルダ__
  6
CONTINUOUS
 62
    4
 10
284.99999999999989
 20
205.66666666666666
 11
284.99999999999989
 21
206.69999999999996
  0
LINE
  8
_1-5_ホルダ__
  6
CONTINUOUS
 62
    4
 10
278.86666666666656
 20
211
 11
278.86666666666656
 21
199
  0
LINE
  8
_1-5_ホルダ__
  6
CONTINUOUS
 62
    4
 10
278.33333333333326
 20
211
 11
278.33333333333326
 21
199
  0
LINE
  8
_1-5_ホルダ__
  6
DASHED1
 62
    4
 10
278.33333333333326
 20
200.83333333333331
 11
278.86666666666656
 21
200.83333333333331
  0
LINE
  8
_1-5_ホルダ__
  6
DASHED1
 62
    4
 10
278.33333333333326
 20
205.83333333333331
 11
278.86666666666656
 21
205.83333333333331
  0
LINE
  8
_1-5_ホルダ__
  6
CENTER2
 62
    4
 10
276.66666666666663
 20
203.33333333333331
 11
280.53333333333319
 21
203.33333333333331
  0
LINE
  8
_1-5_ホルダ__
  6
CONTINUOUS
 62
    4
 10
355
 20
205.66666666666666
 11
355
 21
207
  0
ARC
  8
_1-5_ホルダ__
  6
CONTINUOUS
 62
    4
 10
351
 20
207
 40
4
 50
0
 51
90
  0
LINE
  8
_1-5_ホルダ__
  6
CONTINUOUS
 62
    4
 10
278.33333333333326
 20
211
 11
351
 21
211
  0
LINE
  8
_1-5_ホルダ__
  6
DASHED1
 62
    4
 10
355
 20
206.69999999999996
 11
284.99999999999989
 21
206.69999999999996
  0
LINE
  8
_1-5_ホルダ__
  6
DASHED1
 62
    4
 10
284.99999999999989
 20
206.19999999999999
 11
355
 21
206.19999999999999
  0
LINE
  8
_1-5_ホルダ__
  6
CONTINUOUS
 62
    4
 10
89.209031896779166
 20
211
 11
92.161943455067401
 21
211
  0
LINE
  8
_1-5_ホルダ__
  6
CONTINUOUS
 62
    4
 10
78.333333333333258
 20
211
 11
78.333333333333258
 21
213.33333333333331
  0
LINE
  8
_1-5_ホルダ__
  6
CONTINUOUS
 62
    4
 10
63.333333333333258
 20
205.66666666666669
 11
63.333333333333258
 21
213.33333333333331
  0
LINE
  8
_1-5_ホルダ__
  6
CONTINUOUS
 62
    4
 10
78.333333333333258
 20
213.33333333333331
 11
63.333333333333258
 21
213.33333333333331
  0
LINE
  8
_1-5_ホルダ__
  6
DASHED1
 62
    4
 10
74.166666666666657
 20
212.79999999999998
 11
74.166666666666657
 21
213.33333333333331
  0
LINE
  8
_1-5_ホルダ__
  6
DASHED1
 62
    4
 10
69.166666666666657
 20
212.79999999999984
 11
69.166666666666657
 21
213.33333333333331
  0
LINE
  8
_1-5_ホルダ__
  6
CONTINUOUS
 62
    4
 10
63.333333333333258
 20
205.66666666666669
 11
159.99999999999991
 21
205.66666666666666
  0
ARC
  8
_1-5_ホルダ__
  6
CONTINUOUS
 62
    4
 10
97.333333333333329
 20
208.49999999999994
 40
0.8333333333333334
 50
90
 51
270
  0
ARC
  8
_1-5_ホルダ__
  6
CONTINUOUS
 62
    4
 10
99.333333333333499
 20
208.49999999999994
 40
0.8333333333333334
 50
270
 51
90
  0
LINE
  8
_1-5_ホルダ__
  6
CONTINUOUS
 62
    4
 10
99.333333333333499
 20
207.66666666666663
 11
97.333333333333329
 21
207.66666666666663
  0
LINE
  8
_1-5_ホルダ__
  6
CONTINUOUS
 62
    4
 10
97.333333333333329
 20
209.33333333333329
 11
99.333333333333499
 21
209.33333333333329
  0
LINE
  8
_1-5_ホルダ__
  6
CONTINUOUS
 62
    4
 10
78.333333333333258
 20
212.79999999999998
 11
63.333333333333258
 21
212.79999999999998
  0
LINE
  8
_1-5_ホルダ__
  6
CENTER2
 62
    4
 10
71.666666666666657
 20
214.33333333333331
 11
71.666666666666657
 21
211.79999999999998
  0
LINE
  8
_1-5_ホルダ__
  6
CONTINUOUS
 62
    4
 10
159.99999999999991
 20
205.66666666666666
 11
159.99999999999991
 21
207
  0
ARC
  8
_1-5_ホルダ__
  6
CONTINUOUS
 62
    4
 10
155.99999999999991
 20
207
 40
4
 50
0
 51
90
  0
LINE
  8
_1-5_ホルダ__
  6
CONTINUOUS
 62
    4
 10
155.99999999999991
 20
211
 11
78.333333333333258
 21
211
  0
LINE
  8
_1-5_ホルダ__
  6
DASHED1
 62
    4
 10
159.99999999999991
 20
206.69999999999999
 11
63.333333333333258
 21
206.69999999999999
  0
LINE
  8
_1-5_ホルダ__
  6
DASHED1
 62
    4
 10
159.99999999999991
 20
206.16666666666666
 11
63.333333333333258
 21
206.16666666666669
  0
INSERT
  2
-020-_14_
  8
_1-8_小物
 10
210
 20
148.5
 41
1
 42
1
 50
0
  0
INSERT
  2
-021-_15_
  8
_1-8_小物
 10
210
 20
148.5
 41
1
 42
1
 50
0
  0
INSERT
  2
-022-_16_
  8
_1-8_小物
 10
210
 20
148.5
 41
1
 42
1
 50
0
  0
INSERT
  2
-023-_17_
  8
_1-8_小物
 10
210
 20
148.5
 41
1
 42
1
 50
0
  0
INSERT
  2
-024-_18_
  8
_1-8_小物
 10
210
 20
148.5
 41
1
 42
1
 50
0
  0
INSERT
  2
-025-_19_
  8
_1-8_小物
 10
210
 20
148.5
 41
1
 42
1
 50
0
  0
LINE
  8
_1-f_寸法
  6
CONTINUOUS
 62
    4
 10
366.66666666666663
 20
189.90000000000001
 11
288.33333333333326
 21
189.90000000000001
  0
LINE
  8
_1-f_寸法
  6
CONTINUOUS
 62
    4
 10
364.99999999942827
 20
204.90000000000001
 11
373.26666666666665
 21
204.90000000000001
  0
LINE
  8
_1-f_寸法
  6
CONTINUOUS
 62
    4
 10
364.99999999942827
 20
213.33333333333331
 11
373.26666666666665
 21
213.33333333333331
  0
POINT
  8
_1-f_寸法
 62
    4
 10
371.66666666666663
 20
213.33333333333331
  0
POINT
  8
_1-f_寸法
 62
    4
 10
371.66666666666663
 20
204.90000000000001
  0
LINE
  8
_1-f_寸法
  6
CONTINUOUS
 62
    4
 10
371.66666666666663
 20
213.33333333333331
 11
371.66666666666663
 21
204.90000000000001
  0
TEXT
  8
_1-f_寸法
 62
    4
 10
371.66666666666663
 20
205.91666666666669
 40
3.2000000000000002
 41
1
 50
90
  1
25.3
  0
LINE
  8
_1-f_寸法
  6
CONTINUOUS
 62
    4
 10
364.99999999942827
 20
189.90000000000001
 11
373.26666666666665
 21
189.90000000000001
  0
POINT
  8
_1-f_寸法
 62
    4
 10
371.66666666666663
 20
189.90000000000001
  0
LINE
  8
_1-f_寸法
  6
CONTINUOUS
 62
    4
 10
371.66666666666663
 20
204.90000000000001
 11
371.66666666666663
 21
189.90000000000001
  0
TEXT
  8
_1-f_寸法
 62
    4
 10
371.66666666666663
 20
195.80000000000001
 40
3.2000000000000002
 41
1
 50
90
  1
45
  0
LINE
  8
_1-f_寸法
  6
CONTINUOUS
 62
    4
 10
371.66666666666663
 20
189.90000000000001
 11
379.93333333333328
 21
189.90000000000001
  0
LINE
  8
_1-f_寸法
  6
CONTINUOUS
 62
    4
 10
371.66666666666663
 20
213.33333333333331
 11
379.93333333333328
 21
213.33333333333331
  0
POINT
  8
_1-f_寸法
 62
    4
 10
378.33333333333331
 20
213.33333333333331
  0
POINT
  8
_1-f_寸法
 62
    4
 10
378.33333333333331
 20
189.90000000000001
  0
LINE
  8
_1-f_寸法
  6
CONTINUOUS
 62
    4
 10
378.33333333333331
 20
213.33333333333331
 11
378.33333333333331
 21
189.90000000000001
  0
TEXT
  8
_1-f_寸法
 62
    4
 10
378.33333333333331
 20
198.41666666666669
 40
3.2000000000000002
 41
1
 50
90
  1
70.3
  0
INSERT
  2
-026-_20_
  8
_1-7_カバ__
 10
210
 20
148.5
 41
1
 42
1
 50
0
  0
LINE
  8
_0-0_図面枠
  6
CONTINUOUS
 62
    2
 10
165
 20
247
 11
165
 21
287
  0
LINE
  8
_0-0_図面枠
  6
CONTINUOUS
 62
    2
 10
184.76181918601867
 20
279.31988384078556
 11
184.76181918601867
 21
276.31988384078556
  0
LINE
  8
_0-0_図面枠
  6
CONTINUOUS
 62
    2
 10
170.03938732168319
 20
270.81988384078556
 11
170.03938732168319
 21
267.81988384078556
  0
LINE
  8
_0-0_図面枠
  6
CONTINUOUS
 62
    2
 10
170.03938732168319
 20
267.81988384078556
 11
184.76181918601867
 21
276.31988384078556
  0
LINE
  8
_0-0_図面枠
  6
CONTINUOUS
 62
    2
 10
184.76181918601867
 20
276.31988384078556
 11
193.42207322386304
 21
271.31988384078556
  0
LINE
  8
_0-0_図面枠
  6
CONTINUOUS
 62
    2
 10
184.76181918601867
 20
279.31988384078556
 11
193.42207322386304
 21
274.31988384078556
  0
LINE
  8
_0-0_図面枠
  6
CONTINUOUS
 62
    2
 10
170.03938732168319
 20
267.81988384078556
 11
178.69964135952756
 21
262.81988384078556
  0
LINE
  8
_0-0_図面枠
  6
CONTINUOUS
 62
    2
 10
170.03938732168319
 20
270.81988384078556
 11
172.63746353303651
 21
269.31988384078556
  0
INSERT
  2
-027-_21_
  8
_0-0_図面枠
 10
210
 20
148.5
 41
1
 42
1
 50
0
  0
TEXT
  8
_0-0_図面枠
 62
    4
 10
177.97320685518588
 20
267.65215495316619
 40
2.5
 41
1
 50
0
  1
-100
  0
TEXT
  8
_0-0_図面枠
 62
    4
 10
200.48906054545699
 20
267.65215495316613
 40
2.5
 41
1
 50
0
  1
+100
  0
TEXT
  8
_0-0_図面枠
 62
    4
 10
200.48906054545699
 20
254.65262076405389
 40
2.5
 41
1
 50
0
  1
+100
  0
TEXT
  8
_0-0_図面枠
 62
    4
 10
177.97280344931659
 20
254.65331953359555
 40
2.5
 41
1
 50
0
  1
-100
  0
LINE
  8
_0-0_図面枠
  6
CONTINUOUS
 62
    3
 10
179.56566676331204
 20
277.26988384078555
 11
188.22592080115646
 21
282.26988384078555
  0
LINE
  8
_0-0_図面枠
  6
CONTINUOUS
 62
    3
 10
179.56566676331204
 20
276.31988384078556
 11
179.56566676331204
 21
277.26988384078555
  0
LINE
  8
_0-0_図面枠
  6
CONTINUOUS
 62
    3
 10
179.56566676331204
 20
276.31988384078556
 11
188.22592080115646
 21
281.31988384078556
  0
LINE
  8
_0-0_図面枠
  6
CONTINUOUS
 62
    3
 10
175.23553974438988
 20
274.76988384078555
 11
166.57528570654546
 21
269.76988384078555
  0
LINE
  8
_0-0_図面枠
  6
CONTINUOUS
 62
    3
 10
175.23553974438988
 20
273.81988384078556
 11
175.23553974438988
 21
274.76988384078555
  0
LINE
  8
_0-0_図面枠
  6
CONTINUOUS
 62
    3
 10
175.23553974438988
 20
273.81988384078556
 11
166.57528570654546
 21
268.81988384078556
  0
LINE
  8
_0-0_図面枠
  6
CONTINUOUS
 62
    3
 10
175.23553974438988
 20
274.76988384078555
 11
178.65634008933836
 21
272.79488384078559
  0
LINE
  8
_0-0_図面枠
  6
CONTINUOUS
 62
    3
 10
175.23553974438988
 20
273.81988384078556
 11
177.8336159557432
 21
272.31988384078556
  0
LINE
  8
_0-0_図面枠
  6
CONTINUOUS
 62
    3
 10
179.56566676331204
 20
276.31988384078556
 11
182.16374297466535
 21
274.81988384078556
  0
LINE
  8
_0-0_図面枠
  6
CONTINUOUS
 62
    2
 10
165
 20
246.99999999999994
 11
210
 21
246.99999999999994
  0
LINE
  8
_0-0_図面枠
  6
CONTINUOUS
 62
    2
 10
382.51081219164189
 20
277.68583390683517
 11
382.51081219164189
 21
274.68583390683517
  0
LINE
  8
_0-0_図面枠
  6
CONTINUOUS
 62
    2
 10
382.51081219164189
 20
274.68583390683517
 11
391.17106622948626
 21
269.68583390683517
  0
LINE
  8
_0-0_図面枠
  6
CONTINUOUS
 62
    2
 10
382.51081219164189
 20
277.68583390683517
 11
391.17106622948626
 21
272.68583390683517
  0
LINE
  8
_0-0_図面枠
  6
CONTINUOUS
 62
    2
 10
375.14959625947415
 20
266.43583390683517
 11
372.9845327500131
 21
265.18583390683517
  0
LINE
  8
_0-0_図面枠
  6
CONTINUOUS
 62
    2
 10
375.14959625947415
 20
270.43583390683517
 11
382.51081219164189
 21
274.68583390683517
  0
LINE
  8
_0-0_図面枠
  6
CONTINUOUS
 62
    2
 10
375.14959625947415
 20
270.43583390683517
 11
375.14959625947415
 21
266.43583390683517
  0
LINE
  8
_0-0_図面枠
  6
CONTINUOUS
 62
    2
 10
375.14959625947415
 20
270.43583390683517
 11
383.80985029731852
 21
265.43583390683517
  0
LINE
  8
_0-0_図面枠
  6
CONTINUOUS
 62
    2
 10
375.14959625947415
 20
266.43583390683517
 11
383.80985029731852
 21
261.43583390683517
  0
LINE
  8
_0-0_図面枠
  6
CONTINUOUS
 62
    2
 10
372.9845327500131
 20
265.18583390683517
 11
381.64478678785747
 21
260.18583390683517
  0
INSERT
  2
-028-_22_
  8
_0-0_図面枠
 10
210
 20
148.5
 41
1
 42
1
 50
0
  0
TEXT
  8
_0-0_図面枠
 62
    4
 10
378.75308706028358
 20
268.0181050192158
 40
2.5
 41
1
 50
0
  1
-100
  0
TEXT
  8
_0-0_図面枠
 62
    4
 10
401.26894075055469
 20
268.01810501921574
 40
2.5
 41
1
 50
0
  1
+100
  0
TEXT
  8
_0-0_図面枠
 62
    4
 10
401.26894075055469
 20
255.0185708301035
 40
2.5
 41
1
 50
0
  1
+100
  0
TEXT
  8
_0-0_図面枠
 62
    4
 10
378.75268365441428
 20
255.01926959964516
 40
2.5
 41
1
 50
0
  1
-100
  0
LINE
  8
_0-0_図面枠
  6
CONTINUOUS
 62
    2
 10
365.00000000000006
 20
247
 11
365.00000000000006
 21
287
  0
LINE
  8
_0-0_図面枠
  6
CONTINUOUS
 62
    3
 10
377.31465976893526
 20
275.63583390683516
 11
385.97491380677968
 21
280.63583390683516
  0
LINE
  8
_0-0_図面枠
  6
CONTINUOUS
 62
    3
 10
377.31465976893526
 20
274.68583390683517
 11
377.31465976893526
 21
275.63583390683516
  0
LINE
  8
_0-0_図面枠
  6
CONTINUOUS
 62
    3
 10
377.31465976893526
 20
274.68583390683517
 11
385.97491380677968
 21
279.68583390683517
  0
LINE
  8
_0-0_図面枠
  6
CONTINUOUS
 62
    3
 10
377.31465976893526
 20
274.68583390683517
 11
379.91273598028857
 21
273.18583390683517
  0
LINE
  8
_0-0_図面枠
  6
CONTINUOUS
 62
    3
 10
372.9845327500131
 20
253.36416609316478
 11
372.9845327500131
 21
276.13583390683516
  0
LINE
  8
_0-0_図面枠
  6
CONTINUOUS
 62
    2
 10
365.00000000000006
 20
246.99999999999994
 11
410.00000000000006
 21
246.99999999999994
  0
ENDSEC
  0
EOF
