  0
SECTION
  2
HEADER
  9
$ACADVER
  1
AC1009
  9
$INSBASE
 10
0
 20
0
 30
0
  9
$EXTMIN
 10
0
 20
0
  9
$EXTMAX
 10
420
 20
297
  9
$LIMMIN
 10
0
 20
0
  9
$LIMMAX
 10
420
 20
297
  9
$LTSCALE
 40
1
  0
ENDSEC
  0
SECTION
  2
TABLES
  0
TABLE
  2
LTYPE
 70
     9
  0
LTYPE
  2
CONTINUOUS
 70
    64
  3
実線
 72
    65
 73
     0
 40
0.0
  0
LTYPE
  2
DASHED1
 70
    64
  3
--  --  --  --  --  --  --  --  
 72
    65
 73
     2
 40
2.5
 49
1.25
 49
-1.25
  0
LTYPE
  2
DASHED2
 70
    64
  3
----    ----    ----    ----    
 72
    65
 73
     2
 40
5.0
 49
2.5
 49
-2.5
  0
LTYPE
  2
DASHED3
 70
    64
  3
------  ------  ------  ------  
 72
    65
 73
     2
 40
5.0
 49
3.75
 49
-1.25
  0
LTYPE
  2
CENTER1
 70
    64
  3
----- - ----- - ----- - ----- - 
 72
    65
 73
     4
 40
10.0
 49
6.25
 49
-1.25
 49
1.25
 49
-1.25
  0
LTYPE
  2
CENTER2
 70
    64
  3
----------  --  ----------  --  
 72
    65
 73
     4
 40
20.0
 49
12.5
 49
-2.5
 49
2.5
 49
-2.5
  0
LTYPE
  2
PHANTOM1
 70
    64
  3
--- - - --- - - --- - - --- - - 
 72
    65
 73
     6
 40
10.0
 49
3.25
 49
-1.25
 49
1.25
 49
-1.25
 49
1.25
 49
-1.25
  0
LTYPE
  2
PHANTOM2
 70
    64
  3
--------  -  -  --------  -  -  
 72
    65
 73
     6
 40
20.0
 49
10.0
 49
-2.5
 49
1.25
 49
-2.5
 49
1.25
 49
-2.5
  0
LTYPE
  2
DOT
 70
    64
  3
-   -   -   -   -   -   -   -   
 72
    65
 73
     2
 40
2.5
 49
0.625
 49
-1.875
  0
LTYPE
  2
DUMMY
 70
    64
  3
ダミー
 72
    65
 73
     0
 40
0.0
  0
LTYPE
  2
RAND1
 70
    64
  3
ランダム線1
 72
    65
 73
     4
 40
10.0
 49
1.0
 49
-2.0
 49
3.0
 49
-4.0
  0
LTYPE
  2
RAND2
 70
    64
  3
ランダム線2
 72
    65
 73
     4
 40
14.0
 49
2.0
 49
-3.0
 49
4.0
 49
-5.0
  0
LTYPE
  2
RAND3
 70
    64
  3
ランダム線3
 72
    65
 73
     4
 40
18.0
 49
3.0
 49
-4.0
 49
5.0
 49
-6.0
  0
LTYPE
  2
RAND4
 70
    64
  3
ランダム線4
 72
    65
 73
     4
 40
22.0
 49
4.0
 49
-5.0
 49
6.0
 49
-7.0
  0
LTYPE
  2
RAND5
 70
    64
  3
ランダム線5
 72
    65
 73
     4
 40
26.0
 49
5.0
 49
-6.0
 49
7.0
 49
-8.0
  0
LTYPE
  2
LONG1
 70
    64
  3
----------  --  ----------  --  
 72
    65
 73
     4
 40
40.0
 49
32.5
 49
-2.5
 49
2.5
 49
-2.5
  0
LTYPE
  2
LONG2
 70
    64
  3
--------  -  -  --------  -  -  
 72
    65
 73
     6
 40
40.0
 49
30.0
 49
-2.5
 49
1.25
 49
-2.5
 49
1.25
 49
-2.5
  0
LTYPE
  2
LONG3
 70
    64
  3
+++++++++++++++..+++++++++++++++
 72
    65
 73
     2
 40
40.0
 49
37.5
 49
-2.5
  0
LTYPE
  2
LONG4
 70
    64
  3
+++++++++++++++..+++++++++++++++
 72
    65
 73
     2
 40
80.0
 49
75.0
 49
-5.0
  0
LTYPE
  2
LONG5
 70
    64
  3
----------  --  ----------  --  
 72
    65
 73
     4
 40
60.0
 49
37.5
 49
-7.5
 49
7.5
 49
-7.5
  0
LTYPE
  2
dashed
 70
   64
  3
-------   -------------   ------
 72
   65
 73
    2
 40
7.5
 49
6
 49
-1.5
  0
LTYPE
  2
dashed_spaced
 70
   64
  3
----        --------        ----
 72
   65
 73
    2
 40
12
 49
6
 49
-6
  0
LTYPE
  2
long_dashed_dotted
 70
   64
  3
------------- --- --------------
 72
   65
 73
    4
 40
15.25
 49
12
 49
-1.5
 49
0.25
 49
-1.5
  0
LTYPE
  2
long_dashed_double-dotted
 70
   64
  3
----------- --- --- ------------
 72
   65
 73
    6
 40
17
 49
12
 49
-1.5
 49
0.25
 49
-1.5
 49
0.25
 49
-1.5
  0
LTYPE
  2
long_dashed_triplicate-dotted
 70
   64
  3
--------- --- --- --- ----------
 72
   65
 73
    8
 40
18.75
 49
12
 49
-1.5
 49
0.25
 49
-1.5
 49
0.25
 49
-1.5
 49
0.25
 49
-1.5
  0
LTYPE
  2
dotted
 70
   64
  3
   -       -       -       -    
 72
   65
 73
    2
 40
1.75
 49
0.25
 49
-1.5
  0
LTYPE
  2
chain
 70
   64
  3
-------------- -- --------------
 72
   65
 73
    4
 40
18.5
 49
12
 49
-1.5
 49
3.5
 49
-1.5
  0
LTYPE
  2
chain_double_dash
 70
   64
  3
------------ -- -- -------------
 72
   65
 73
    6
 40
23.5
 49
12
 49
-1.5
 49
3.5
 49
-1.5
 49
3.5
 49
-1.5
  0
LTYPE
  2
dashed_dotted
 70
   64
  3
-----------     -     ----------
 72
   65
 73
    4
 40
9.25
 49
6
 49
-1.5
 49
0.25
 49
-1.5
  0
LTYPE
  2
double-dashed_dotted
 70
   64
  3
------   -----------   -   -----
 72
   65
 73
    6
 40
16.75
 49
6
 49
-1.5
 49
6
 49
-1.5
 49
0.25
 49
-1.5
  0
LTYPE
  2
dashed_double-dotted
 70
   64
  3
---------    -    -    ---------
 72
   65
 73
    6
 40
11
 49
6
 49
-1.5
 49
0.25
 49
-1.5
 49
0.25
 49
-1.5
  0
LTYPE
  2
double-dashed_double-dotted
 70
   64
  3
-----   ---------   -   -   ----
 72
   65
 73
    8
 40
18.5
 49
6
 49
-1.5
 49
6
 49
-1.5
 49
0.25
 49
-1.5
 49
0.25
 49
-1.5
  0
LTYPE
  2
dashed_triplicate-dotted
 70
   64
  3
-------    -    -    -    ------
 72
   65
 73
    8
 40
12.75
 49
6
 49
-1.5
 49
0.25
 49
-1.5
 49
0.25
 49
-1.5
 49
0.25
 49
-1.5
  0
LTYPE
  2
double-dashed_triplicate-dotted
 70
   64
  3
-----  ---------  -  -  -  -----
 72
   65
 73
   10
 40
20.25
 49
6
 49
-1.5
 49
6
 49
-1.5
 49
0.25
 49
-1.5
 49
0.25
 49
-1.5
 49
0.25
 49
-1.5
  0
LTYPE
  2
undefined
 70
   64
  3
--------------------------------
 72
   65
 73
    0
 40
0
  0
ENDTAB
  0
TABLE
  2
STYLE
  5
3
100
AcDbSymbolTable
 70
     1
  0
STYLE
  5
10
100
AcDbSymbolTableRecord
100
AcDbTextStyleTableRecord
  2
STANDARD
 70
     0
 40
0.0
 41
1.0
 50
0.0
 71
     0
 42
0.2
  3
txt
  4
bigfont.shx
  0
STYLE
  5
26
100
AcDbSymbolTableRecord
100
AcDbTextStyleTableRecord
  2
TATEGAKI
 70
    68
 40
0.0
 41
1.0
 50
0.0
 71
     0
 42
1.0
  3
txt
  4
bigfont.shx
  0
ENDTAB
  0
TABLE
  2
LAYER
 70
    8
  0
LAYER
  2
_0-0_図面枠
 70
   64
 62
    7
  6
CONTINUOUS
  0
LAYER
  2
_1-0_躯体
 70
   64
 62
    7
  6
CONTINUOUS
  0
LAYER
  2
_1-4_フレ__ム
 70
   64
 62
    7
  6
CONTINUOUS
  0
LAYER
  2
_1-5_ホルダ__
 70
   64
 62
    7
  6
CONTINUOUS
  0
LAYER
  2
_1-7_カバ__
 70
   64
 62
    7
  6
CONTINUOUS
  0
LAYER
  2
_1-8_小物
 70
   64
 62
    7
  6
CONTINUOUS
  0
LAYER
  2
_1-f_寸法
 70
   64
 62
    7
  6
CONTINUOUS
  0
LAYER
  2
ADD_LINE
 70
   64
 62
    7
  6
CONTINUOUS
  0
ENDTAB
  0
ENDSEC
  0
SECTION
  2
BLOCKS
  0
BLOCK
  2
-000-
 70
   64
 10
0
 20
0
 30
0
  0
LINE
  8
_1-8_小物
  6
CONTINUOUS
 62
    4
 10
-61.787483860264587
 20
-19
 11
-59.787483860264587
 21
-19
  0
LINE
  8
_1-8_小物
  6
CONTINUOUS
 62
    4
 10
-62.120817193597929
 20
-19.707106781186582
 11
-62.120817193597929
 21
-18.292893218813447
  0
LINE
  8
_1-8_小物
  6
CONTINUOUS
 62
    4
 10
-62.120817193597929
 20
-18.292893218813447
 11
-59.454150526931244
 21
-18.292893218813447
  0
LINE
  8
_1-8_小物
  6
CONTINUOUS
 62
    4
 10
-59.454150526931244
 20
-19.707106781186582
 11
-59.454150526931244
 21
-18.292893218813447
  0
LINE
  8
_1-8_小物
  6
CONTINUOUS
 62
    4
 10
-62.120817193597929
 20
-19.707106781186582
 11
-59.454150526931244
 21
-19.707106781186582
  0
ENDBLK
  0
BLOCK
  2
-001-_1_
 70
   64
 10
0
 20
0
 30
0
  0
LINE
  8
_1-8_小物
  6
CONTINUOUS
 62
    4
 10
-118.45415052693124
 20
-19
 11
-120.45415052693124
 21
-19
  0
LINE
  8
_1-8_小物
  6
CONTINUOUS
 62
    4
 10
-118.12081719359792
 20
-19.707106781186582
 11
-118.12081719359792
 21
-18.292893218813447
  0
LINE
  8
_1-8_小物
  6
CONTINUOUS
 62
    4
 10
-118.12081719359792
 20
-18.292893218813447
 11
-120.78748386026459
 21
-18.292893218813447
  0
LINE
  8
_1-8_小物
  6
CONTINUOUS
 62
    4
 10
-120.78748386026459
 20
-19.707106781186582
 11
-120.78748386026459
 21
-18.292893218813447
  0
LINE
  8
_1-8_小物
  6
CONTINUOUS
 62
    4
 10
-118.12081719359792
 20
-19.707106781186582
 11
-120.78748386026459
 21
-19.707106781186582
  0
ENDBLK
  0
BLOCK
  2
-002-_2_
 70
   64
 10
0
 20
0
 30
0
  0
LINE
  8
_1-8_小物
  6
CONTINUOUS
 62
    4
 10
138.21251613973538
 20
-19
 11
140.21251613973538
 21
-19
  0
LINE
  8
_1-8_小物
  6
CONTINUOUS
 62
    4
 10
137.87918280640207
 20
-19.707106781186582
 11
137.87918280640207
 21
-18.292893218813447
  0
LINE
  8
_1-8_小物
  6
CONTINUOUS
 62
    4
 10
137.87918280640207
 20
-18.292893218813447
 11
140.54584947306876
 21
-18.292893218813447
  0
LINE
  8
_1-8_小物
  6
CONTINUOUS
 62
    4
 10
140.54584947306876
 20
-19.707106781186582
 11
140.54584947306876
 21
-18.292893218813447
  0
LINE
  8
_1-8_小物
  6
CONTINUOUS
 62
    4
 10
137.87918280640207
 20
-19.707106781186582
 11
140.54584947306876
 21
-19.707106781186582
  0
ENDBLK
  0
BLOCK
  2
-003-_3_
 70
   64
 10
0
 20
0
 30
0
  0
LINE
  8
_1-8_小物
  6
CONTINUOUS
 62
    4
 10
81.545849473068756
 20
-19
 11
79.545849473068756
 21
-19
  0
LINE
  8
_1-8_小物
  6
CONTINUOUS
 62
    4
 10
81.879182806402071
 20
-19.707106781186582
 11
81.879182806402071
 21
-18.292893218813447
  0
LINE
  8
_1-8_小物
  6
CONTINUOUS
 62
    4
 10
81.879182806402071
 20
-18.292893218813447
 11
79.212516139735385
 21
-18.292893218813447
  0
LINE
  8
_1-8_小物
  6
CONTINUOUS
 62
    4
 10
79.212516139735385
 20
-19.707106781186582
 11
79.212516139735385
 21
-18.292893218813447
  0
LINE
  8
_1-8_小物
  6
CONTINUOUS
 62
    4
 10
81.879182806402071
 20
-19.707106781186582
 11
79.212516139735385
 21
-19.707106781186582
  0
ENDBLK
  0
BLOCK
  2
-004-_4_
 70
   64
 10
0
 20
0
 30
0
  0
LINE
  8
_0-0_図面枠
  6
CONTINUOUS
 62
    7
 10
-24.810007453201848
 20
116.25002701811366
 11
-24.279677367301844
 21
116.55618006006364
  0
LINE
  8
_0-0_図面枠
  6
CONTINUOUS
 62
    7
 10
-25.715874111051818
 20
118.20168690416364
 11
-24.810007453201848
 21
116.25002701811366
  0
LINE
  8
_0-0_図面枠
  6
CONTINUOUS
 62
    7
 10
-22.335133719051811
 20
117.67874121381362
 11
-25.715874111051818
 21
118.20168690416364
  0
LINE
  8
_0-0_図面枠
  6
CONTINUOUS
 62
    7
 10
-22.865463804951816
 20
117.37258817186364
 11
-22.335133719051811
 21
117.67874121381362
  0
LINE
  8
_0-0_図面枠
  6
CONTINUOUS
 62
    7
 10
-18.269269727201817
 20
114.71926180846367
 11
-22.865463804951816
 21
117.37258817186364
  0
LINE
  8
_0-0_図面枠
  6
CONTINUOUS
 62
    7
 10
-13.67307564950184
 20
117.37258817186364
 11
-18.269269727201817
 21
114.71926180846367
  0
LINE
  8
_0-0_図面枠
  6
CONTINUOUS
 62
    7
 10
-14.203405735401844
 20
117.67874121381362
 11
-13.67307564950184
 21
117.37258817186364
  0
LINE
  8
_0-0_図面枠
  6
CONTINUOUS
 62
    7
 10
-10.822665343401837
 20
118.20168690416364
 11
-14.203405735401844
 21
117.67874121381362
  0
LINE
  8
_0-0_図面枠
  6
CONTINUOUS
 62
    7
 10
-11.728532001251807
 20
116.25002701811366
 11
-10.822665343401837
 21
118.20168690416364
  0
LINE
  8
_0-0_図面枠
  6
CONTINUOUS
 62
    7
 10
-12.258862087151812
 20
116.55618006006364
 11
-11.728532001251807
 21
116.25002701811366
  0
LINE
  8
_0-0_図面枠
  6
CONTINUOUS
 62
    7
 10
-16.855056164851845
 20
113.90285369661365
 11
-12.258862087151812
 21
116.55618006006364
  0
LINE
  8
_0-0_図面枠
  6
CONTINUOUS
 62
    7
 10
-12.258862087151812
 20
111.24952733321368
 11
-16.855056164851845
 21
113.90285369661365
  0
LINE
  8
_0-0_図面枠
  6
CONTINUOUS
 62
    7
 10
-11.728532001251807
 20
111.55568037516366
 11
-12.258862087151812
 21
111.24952733321368
  0
LINE
  8
_0-0_図面枠
  6
CONTINUOUS
 62
    7
 10
-10.822665343401837
 20
109.60402048906366
 11
-11.728532001251807
 21
111.55568037516366
  0
LINE
  8
_0-0_図面枠
  6
CONTINUOUS
 62
    7
 10
-14.203405735401844
 20
110.12696617946364
 11
-10.822665343401837
 21
109.60402048906366
  0
LINE
  8
_0-0_図面枠
  6
CONTINUOUS
 62
    7
 10
-13.67307564950184
 20
110.43311922141368
 11
-14.203405735401844
 21
110.12696617946364
  0
LINE
  8
_0-0_図面枠
  6
CONTINUOUS
 62
    7
 10
-18.269269727201817
 20
113.08644558481365
 11
-13.67307564950184
 21
110.43311922141368
  0
LINE
  8
_0-0_図面枠
  6
CONTINUOUS
 62
    7
 10
-22.865463804951816
 20
110.43311922141368
 11
-18.269269727201817
 21
113.08644558481365
  0
LINE
  8
_0-0_図面枠
  6
CONTINUOUS
 62
    7
 10
-22.335133719051811
 20
110.12696617946364
 11
-22.865463804951816
 21
110.43311922141368
  0
LINE
  8
_0-0_図面枠
  6
CONTINUOUS
 62
    7
 10
-25.715874111051818
 20
109.60402048906366
 11
-22.335133719051811
 21
110.12696617946364
  0
LINE
  8
_0-0_図面枠
  6
CONTINUOUS
 62
    7
 10
-24.810007453201848
 20
111.55568037516366
 11
-25.715874111051818
 21
109.60402048906366
  0
LINE
  8
_0-0_図面枠
  6
CONTINUOUS
 62
    7
 10
-24.279677367301844
 20
111.24952733321368
 11
-24.810007453201848
 21
111.55568037516366
  0
LINE
  8
_0-0_図面枠
  6
CONTINUOUS
 62
    7
 10
-19.68348328960181
 20
113.90285369661365
 11
-24.279677367301844
 21
111.24952733321368
  0
LINE
  8
_0-0_図面枠
  6
CONTINUOUS
 62
    7
 10
-24.279677367301844
 20
116.55618006006364
 11
-19.68348328960181
 21
113.90285369661365
  0
LINE
  8
_0-0_図面枠
  6
CONTINUOUS
 62
    7
 10
-10.822665343401837
 20
118.20168690416364
 11
-10.822665343401837
 21
118.81409251311368
  0
LINE
  8
_0-0_図面枠
  6
CONTINUOUS
 62
    7
 10
-14.203405735401844
 20
117.67874121381362
 11
-14.203405735401844
 21
118.29114682271364
  0
LINE
  8
_0-0_図面枠
  6
CONTINUOUS
 62
    7
 10
-10.822665343401837
 20
118.81409251311368
 11
-14.203405735401844
 21
118.29114682271364
  0
LINE
  8
_0-0_図面枠
  6
CONTINUOUS
 62
    7
 10
-22.335133719051811
 20
117.67874121381362
 11
-22.335133719051811
 21
118.29114682271364
  0
LINE
  8
_0-0_図面枠
  6
CONTINUOUS
 62
    7
 10
-25.715874111051818
 20
118.20168690416364
 11
-25.715874111051818
 21
118.81409251311368
  0
LINE
  8
_0-0_図面枠
  6
CONTINUOUS
 62
    7
 10
-22.335133719051811
 20
118.29114682271364
 11
-25.715874111051818
 21
118.81409251311368
  0
LINE
  8
_0-0_図面枠
  6
CONTINUOUS
 62
    7
 10
-18.269269727201817
 20
114.71926180846367
 11
-18.269269727201817
 21
115.33166741736363
  0
LINE
  8
_0-0_図面枠
  6
CONTINUOUS
 62
    7
 10
-14.203405735401844
 20
117.67884073886364
 11
-18.269269727201817
 21
115.33166741736363
  0
LINE
  8
_0-0_図面枠
  6
CONTINUOUS
 62
    7
 10
-18.269269727201817
 20
115.33166741736363
 11
-22.335133719051811
 21
117.67884073886364
  0
LINE
  8
_0-0_図面枠
  6
CONTINUOUS
 62
    7
 10
-12.258862087151812
 20
111.24952733321368
 11
-12.258862087151812
 21
111.86193294211364
  0
LINE
  8
_0-0_図面枠
  6
CONTINUOUS
 62
    7
 10
-12.258862087151812
 20
111.86193294211364
 11
-16.324639878401825
 21
114.20905650111365
  0
LINE
  8
_0-0_図面枠
  6
CONTINUOUS
 62
    7
 10
-24.279677367301844
 20
111.24952733321368
 11
-24.279677367301844
 21
111.86193294211364
  0
LINE
  8
_0-0_図面枠
  6
CONTINUOUS
 62
    7
 10
-20.21389957605183
 20
114.20905650111365
 11
-24.279677367301844
 21
111.86193294211364
  0
LINE
  8
_0-0_図面枠
  6
CONTINUOUS
 62
    7
 10
-24.810007453201848
 20
111.55568037516366
 11
-24.810007453201848
 21
112.16808598406362
  0
LINE
  8
_0-0_図面枠
  6
CONTINUOUS
 62
    7
 10
-24.279677367301844
 20
111.86193294211364
 11
-24.810007453201848
 21
112.16808598406362
  0
LINE
  8
_0-0_図面枠
  6
CONTINUOUS
 62
    7
 10
-25.715874111051818
 20
109.60402048906366
 11
-25.715874111051818
 21
110.21642609801364
  0
LINE
  8
_0-0_図面枠
  6
CONTINUOUS
 62
    7
 10
-24.810007453201848
 20
112.16808598406362
 11
-25.715874111051818
 21
110.21642609801364
  0
LINE
  8
_0-0_図面枠
  6
CONTINUOUS
 62
    7
 10
-11.728532001251807
 20
111.55568037516366
 11
-11.728532001251807
 21
112.16808598406362
  0
LINE
  8
_0-0_図面枠
  6
CONTINUOUS
 62
    7
 10
-11.728532001251807
 20
112.16808598406362
 11
-12.258862087151812
 21
111.86193294211364
  0
LINE
  8
_0-0_図面枠
  6
CONTINUOUS
 62
    7
 10
-10.822665343401837
 20
109.60402048906366
 11
-10.822665343401837
 21
110.21642609801364
  0
LINE
  8
_0-0_図面枠
  6
CONTINUOUS
 62
    7
 10
-10.822665343401837
 20
110.21642609801364
 11
-11.728532001251807
 21
112.16808598406362
  0
LINE
  8
_0-0_図面枠
  6
CONTINUOUS
 62
    7
 10
-22.335133719051811
 20
110.12696617946364
 11
-22.335133719051811
 21
110.73927226331364
  0
LINE
  8
_0-0_図面枠
  6
CONTINUOUS
 62
    7
 10
-14.203405735401844
 20
110.12696617946364
 11
-14.203405735401844
 21
110.73927226331364
  0
LINE
  8
ADD_LINE
  6
DOT
 62
    4
 10
-25.715874111051818
 20
118.20168690416364
 11
-10.823068770943877
 21
109.60332173206365
  0
LINE
  8
ADD_LINE
  6
DOT
 62
    4
 10
-10.822665343401837
 20
118.20168690416364
 11
-25.715470683509778
 21
109.60332173206365
  0
ENDBLK
  0
BLOCK
  2
-005-_5_
 70
   64
 10
0
 20
0
 30
0
  0
LINE
  8
_0-0_図面枠
  6
CONTINUOUS
 62
    7
 10
175.96987275189582
 20
116.61597708416326
 11
176.50020283779583
 21
116.92213012611325
  0
LINE
  8
_0-0_図面枠
  6
CONTINUOUS
 62
    7
 10
175.06400609404585
 20
118.56763697021324
 11
175.96987275189582
 21
116.61597708416326
  0
LINE
  8
_0-0_図面枠
  6
CONTINUOUS
 62
    7
 10
178.44474648604586
 20
118.04469127986323
 11
175.06400609404585
 21
118.56763697021324
  0
LINE
  8
_0-0_図面枠
  6
CONTINUOUS
 62
    7
 10
177.91441640014585
 20
117.73853823791325
 11
178.44474648604586
 21
118.04469127986323
  0
LINE
  8
_0-0_図面枠
  6
CONTINUOUS
 62
    7
 10
182.51061047789585
 20
115.08521187451328
 11
177.91441640014585
 21
117.73853823791325
  0
LINE
  8
_0-0_図面枠
  6
CONTINUOUS
 62
    7
 10
187.10680455559583
 20
117.73853823791325
 11
182.51061047789585
 21
115.08521187451328
  0
LINE
  8
_0-0_図面枠
  6
CONTINUOUS
 62
    7
 10
186.57647446969582
 20
118.04469127986323
 11
187.10680455559583
 21
117.73853823791325
  0
LINE
  8
_0-0_図面枠
  6
CONTINUOUS
 62
    7
 10
189.95721486169583
 20
118.56763697021324
 11
186.57647446969582
 21
118.04469127986323
  0
LINE
  8
_0-0_図面枠
  6
CONTINUOUS
 62
    7
 10
189.05134820384586
 20
116.61597708416326
 11
189.95721486169583
 21
118.56763697021324
  0
LINE
  8
_0-0_図面枠
  6
CONTINUOUS
 62
    7
 10
188.52101811794586
 20
116.92213012611325
 11
189.05134820384586
 21
116.61597708416326
  0
LINE
  8
_0-0_図面枠
  6
CONTINUOUS
 62
    7
 10
183.92482404024582
 20
114.26880376266325
 11
188.52101811794586
 21
116.92213012611325
  0
LINE
  8
_0-0_図面枠
  6
CONTINUOUS
 62
    7
 10
188.52101811794586
 20
111.61547739926328
 11
183.92482404024582
 21
114.26880376266325
  0
LINE
  8
_0-0_図面枠
  6
CONTINUOUS
 62
    7
 10
189.05134820384586
 20
111.92163044121327
 11
188.52101811794586
 21
111.61547739926328
  0
LINE
  8
_0-0_図面枠
  6
CONTINUOUS
 62
    7
 10
189.95721486169583
 20
109.96997055511326
 11
189.05134820384586
 21
111.92163044121327
  0
LINE
  8
_0-0_図面枠
  6
CONTINUOUS
 62
    7
 10
186.57647446969582
 20
110.49291624551324
 11
189.95721486169583
 21
109.96997055511326
  0
LINE
  8
_0-0_図面枠
  6
CONTINUOUS
 62
    7
 10
187.10680455559583
 20
110.79906928746328
 11
186.57647446969582
 21
110.49291624551324
  0
LINE
  8
_0-0_図面枠
  6
CONTINUOUS
 62
    7
 10
182.51061047789585
 20
113.45239565086325
 11
187.10680455559583
 21
110.79906928746328
  0
LINE
  8
_0-0_図面枠
  6
CONTINUOUS
 62
    7
 10
177.91441640014585
 20
110.79906928746328
 11
182.51061047789585
 21
113.45239565086325
  0
LINE
  8
_0-0_図面枠
  6
CONTINUOUS
 62
    7
 10
178.44474648604586
 20
110.49291624551324
 11
177.91441640014585
 21
110.79906928746328
  0
LINE
  8
_0-0_図面枠
  6
CONTINUOUS
 62
    7
 10
175.06400609404585
 20
109.96997055511326
 11
178.44474648604586
 21
110.49291624551324
  0
LINE
  8
_0-0_図面枠
  6
CONTINUOUS
 62
    7
 10
175.96987275189582
 20
111.92163044121327
 11
175.06400609404585
 21
109.96997055511326
  0
LINE
  8
_0-0_図面枠
  6
CONTINUOUS
 62
    7
 10
176.50020283779583
 20
111.61547739926328
 11
175.96987275189582
 21
111.92163044121327
  0
LINE
  8
_0-0_図面枠
  6
CONTINUOUS
 62
    7
 10
181.09639691549586
 20
114.26880376266325
 11
176.50020283779583
 21
111.61547739926328
  0
LINE
  8
_0-0_図面枠
  6
CONTINUOUS
 62
    7
 10
176.50020283779583
 20
116.92213012611325
 11
181.09639691549586
 21
114.26880376266325
  0
LINE
  8
_0-0_図面枠
  6
CONTINUOUS
 62
    7
 10
189.95721486169583
 20
118.56763697021324
 11
189.95721486169583
 21
119.18004257916328
  0
LINE
  8
_0-0_図面枠
  6
CONTINUOUS
 62
    7
 10
186.57647446969582
 20
118.04469127986323
 11
186.57647446969582
 21
118.65709688876325
  0
LINE
  8
_0-0_図面枠
  6
CONTINUOUS
 62
    7
 10
189.95721486169583
 20
119.18004257916328
 11
186.57647446969582
 21
118.65709688876325
  0
LINE
  8
_0-0_図面枠
  6
CONTINUOUS
 62
    7
 10
178.44474648604586
 20
118.04469127986323
 11
178.44474648604586
 21
118.65709688876325
  0
LINE
  8
_0-0_図面枠
  6
CONTINUOUS
 62
    7
 10
175.06400609404585
 20
118.56763697021324
 11
175.06400609404585
 21
119.18004257916328
  0
LINE
  8
_0-0_図面枠
  6
CONTINUOUS
 62
    7
 10
178.44474648604586
 20
118.65709688876325
 11
175.06400609404585
 21
119.18004257916328
  0
LINE
  8
_0-0_図面枠
  6
CONTINUOUS
 62
    7
 10
182.51061047789585
 20
115.08521187451328
 11
182.51061047789585
 21
115.69761748341324
  0
LINE
  8
_0-0_図面枠
  6
CONTINUOUS
 62
    7
 10
186.57647446969582
 20
118.04479080491325
 11
182.51061047789585
 21
115.69761748341324
  0
LINE
  8
_0-0_図面枠
  6
CONTINUOUS
 62
    7
 10
182.51061047789585
 20
115.69761748341324
 11
178.44474648604586
 21
118.04479080491325
  0
LINE
  8
_0-0_図面枠
  6
CONTINUOUS
 62
    7
 10
188.52101811794586
 20
111.61547739926328
 11
188.52101811794586
 21
112.22788300816325
  0
LINE
  8
_0-0_図面枠
  6
CONTINUOUS
 62
    7
 10
188.52101811794586
 20
112.22788300816325
 11
184.45524032669584
 21
114.57500656716326
  0
LINE
  8
_0-0_図面枠
  6
CONTINUOUS
 62
    7
 10
176.50020283779583
 20
111.61547739926328
 11
176.50020283779583
 21
112.22788300816325
  0
LINE
  8
_0-0_図面枠
  6
CONTINUOUS
 62
    7
 10
180.56598062904584
 20
114.57500656716326
 11
176.50020283779583
 21
112.22788300816325
  0
LINE
  8
_0-0_図面枠
  6
CONTINUOUS
 62
    7
 10
175.96987275189582
 20
111.92163044121327
 11
175.96987275189582
 21
112.53403605011323
  0
LINE
  8
_0-0_図面枠
  6
CONTINUOUS
 62
    7
 10
176.50020283779583
 20
112.22788300816325
 11
175.96987275189582
 21
112.53403605011323
  0
LINE
  8
_0-0_図面枠
  6
CONTINUOUS
 62
    7
 10
175.06400609404585
 20
109.96997055511326
 11
175.06400609404585
 21
110.58237616406325
  0
LINE
  8
_0-0_図面枠
  6
CONTINUOUS
 62
    7
 10
175.96987275189582
 20
112.53403605011323
 11
175.06400609404585
 21
110.58237616406325
  0
LINE
  8
_0-0_図面枠
  6
CONTINUOUS
 62
    7
 10
189.05134820384586
 20
111.92163044121327
 11
189.05134820384586
 21
112.53403605011323
  0
LINE
  8
_0-0_図面枠
  6
CONTINUOUS
 62
    7
 10
189.05134820384586
 20
112.53403605011323
 11
188.52101811794586
 21
112.22788300816325
  0
LINE
  8
_0-0_図面枠
  6
CONTINUOUS
 62
    7
 10
189.95721486169583
 20
109.96997055511326
 11
189.95721486169583
 21
110.58237616406325
  0
LINE
  8
_0-0_図面枠
  6
CONTINUOUS
 62
    7
 10
189.95721486169583
 20
110.58237616406325
 11
189.05134820384586
 21
112.53403605011323
  0
LINE
  8
_0-0_図面枠
  6
CONTINUOUS
 62
    7
 10
178.44474648604586
 20
110.49291624551324
 11
178.44474648604586
 21
111.10522232936324
  0
LINE
  8
_0-0_図面枠
  6
CONTINUOUS
 62
    7
 10
186.57647446969582
 20
110.49291624551324
 11
186.57647446969582
 21
111.10522232936324
  0
LINE
  8
ADD_LINE
  6
DOT
 62
    4
 10
175.06400609404585
 20
118.56763697021324
 11
189.95681143415379
 21
109.96927179811325
  0
LINE
  8
ADD_LINE
  6
DOT
 62
    4
 10
189.95721486169583
 20
118.56763697021324
 11
175.06440952158789
 21
109.96927179811325
  0
ENDBLK
  0
BLOCK
  2
-006-$QLE
 70
   64
 10
0
 20
0
 30
0
  0
LINE
  8
_1-f_寸法
  6
CONTINUOUS
 62
    4
 10
-54.946168999999941
 20
85.500000666666693
 11
-52.159178005298827
 21
90.327210669725929
  0
LINE
  8
_1-f_寸法
  6
CONTINUOUS
 62
    4
 10
-52.159178005298827
 20
90.327210669725929
 11
-32.639178005298845
 21
90.327210669725929
  0
POINT
  8
_1-f_寸法
 62
    4
 10
-54.946168999999941
 20
85.500000666666693
  0
TEXT
  8
_1-f_寸法
 62
    4
 10
-51.839178005298834
 20
90.327210669725929
 40
3.2000000000000002
 41
1
 50
0
  1
野縁受(別途)
  0
ENDBLK
  0
BLOCK
  2
-007-$QLE_1_
 70
   64
 10
0
 20
0
 30
0
  0
LINE
  8
_1-f_寸法
  6
CONTINUOUS
 62
    4
 10
-56.916666999999961
 20
69.916667166666684
 11
-52.682394505870093
 21
77.250642259591018
  0
LINE
  8
_1-f_寸法
  6
CONTINUOUS
 62
    4
 10
-52.682394505870093
 20
77.250642259591018
 11
-36.3623945058701
 21
77.250642259591018
  0
POINT
  8
_1-f_寸法
 62
    4
 10
-56.916666999999961
 20
69.916667166666684
  0
TEXT
  8
_1-f_寸法
 62
    4
 10
-52.3623945058701
 20
77.250642259591018
 40
3.2000000000000002
 41
1
 50
0
  1
野縁(別途)
  0
ENDBLK
  0
BLOCK
  2
-008-$QLE_2_
 70
   64
 10
0
 20
0
 30
0
  0
LINE
  8
_1-f_寸法
  6
CONTINUOUS
 62
    4
 10
-48.333333833333256
 20
66.500000999999941
 11
-46.473291596363424
 21
69.721688658655808
  0
LINE
  8
_1-f_寸法
  6
CONTINUOUS
 62
    4
 10
-46.473291596363424
 20
69.721688658655808
 11
-30.153291596363431
 21
69.721688658655808
  0
POINT
  8
_1-f_寸法
 62
    4
 10
-48.333333833333256
 20
66.500000999999941
  0
TEXT
  8
_1-f_寸法
 62
    4
 10
-46.153291596363431
 20
69.721688658655808
 40
3.2000000000000002
 41
1
 50
0
  1
天井仕上面
  0
ENDBLK
  0
BLOCK
  2
-009-_6_
 70
   64
 10
0
 20
0
 30
0
  0
LINE
  8
_1-8_小物
  6
CONTINUOUS
 62
    4
 10
-134.3666662166666
 20
62.633333333333269
 11
-128.96666621666637
 21
62.633333333333269
  0
LINE
  8
_1-8_小物
  6
CONTINUOUS
 62
    4
 10
-134.3666662166666
 20
62.18333333333328
 11
-128.96666621666637
 21
62.18333333333328
  0
LINE
  8
_1-8_小物
  6
CONTINUOUS
 62
    4
 10
-134.3666662166666
 20
62.633333333333269
 11
-134.3666662166666
 21
62.18333333333328
  0
LINE
  8
_1-8_小物
  6
CONTINUOUS
 62
    4
 10
-128.96666621666637
 20
62.633333333333269
 11
-128.96666621666637
 21
62.18333333333328
  0
LINE
  8
_1-8_小物
  6
DASHED1
 62
    4
 10
-132.4916662166666
 20
62.633333333333269
 11
-132.4916662166666
 21
62.18333333333328
  0
LINE
  8
_1-8_小物
  6
DASHED1
 62
    4
 10
-130.84166621666637
 20
62.633333333333269
 11
-130.84166621666637
 21
62.18333333333328
  0
LINE
  8
_1-8_小物
  6
CONTINUOUS
 62
    4
 10
-131.3066666666671
 20
64.792202033333353
 11
-131.3066666666671
 21
65.025009533333218
  0
LINE
  8
_1-8_小物
  6
CONTINUOUS
 62
    4
 10
-132.0266666666667
 20
64.813343033333126
 11
-132.0266666666667
 21
64.580535533333489
  0
LINE
  8
_1-8_小物
  6
CONTINUOUS
 62
    4
 10
-131.3066666666671
 20
65.025009533333218
 11
-132.0266666666667
 21
64.813343033333126
  0
LINE
  8
_1-8_小物
  6
CONTINUOUS
 62
    4
 10
-131.14166606666711
 20
65.120272733333479
 11
-132.19166636666665
 21
64.908605333333355
  0
LINE
  8
_1-8_小物
  6
CONTINUOUS
 62
    4
 10
-131.14166606666711
 20
65.120272733333479
 11
-131.3066666666671
 21
65.025009533333218
  0
LINE
  8
_1-8_小物
  6
CONTINUOUS
 62
    4
 10
-132.19166636666665
 20
64.908605333333355
 11
-132.0266666666667
 21
65.003868533333446
  0
LINE
  8
_1-8_小物
  6
CONTINUOUS
 62
    4
 10
-132.0266666666667
 20
64.813343033333126
 11
-132.19166636666665
 21
64.908605333333355
  0
LINE
  8
_1-8_小物
  6
CONTINUOUS
 62
    4
 10
-131.3066666666671
 20
64.368868133333194
 11
-131.3066666666671
 21
64.601676533333261
  0
LINE
  8
_1-8_小物
  6
CONTINUOUS
 62
    4
 10
-132.0266666666667
 20
64.390009133333365
 11
-132.0266666666667
 21
64.157201633333329
  0
LINE
  8
_1-8_小物
  6
CONTINUOUS
 62
    4
 10
-131.3066666666671
 20
64.792202033333353
 11
-132.0266666666667
 21
64.580535533333489
  0
LINE
  8
_1-8_小物
  6
CONTINUOUS
 62
    4
 10
-131.3066666666671
 20
64.601676533333261
 11
-132.0266666666667
 21
64.390009133333365
  0
LINE
  8
_1-8_小物
  6
CONTINUOUS
 62
    4
 10
-131.14166606666711
 20
64.69693883333332
 11
-132.19166636666665
 21
64.485272333333228
  0
LINE
  8
_1-8_小物
  6
CONTINUOUS
 62
    4
 10
-131.14166606666711
 20
64.69693883333332
 11
-131.3066666666671
 21
64.792202033333353
  0
LINE
  8
_1-8_小物
  6
CONTINUOUS
 62
    4
 10
-131.14166606666711
 20
64.69693883333332
 11
-131.3066666666671
 21
64.601676533333261
  0
LINE
  8
_1-8_小物
  6
CONTINUOUS
 62
    4
 10
-132.19166636666665
 20
64.485272333333228
 11
-132.0266666666667
 21
64.580535533333489
  0
LINE
  8
_1-8_小物
  6
CONTINUOUS
 62
    4
 10
-132.0266666666667
 20
64.390009133333365
 11
-132.19166636666665
 21
64.485272333333228
  0
LINE
  8
_1-8_小物
  6
CONTINUOUS
 62
    4
 10
-131.3066666666671
 20
63.945535133333408
 11
-131.3066666666671
 21
64.178342633333443
  0
LINE
  8
_1-8_小物
  6
CONTINUOUS
 62
    4
 10
-132.0266666666667
 20
63.966676133333351
 11
-132.0266666666667
 21
63.733868633333316
  0
LINE
  8
_1-8_小物
  6
CONTINUOUS
 62
    4
 10
-131.3066666666671
 20
64.368868133333194
 11
-132.0266666666667
 21
64.157201633333329
  0
LINE
  8
_1-8_小物
  6
CONTINUOUS
 62
    4
 10
-131.3066666666671
 20
64.178342633333443
 11
-132.0266666666667
 21
63.966676133333351
  0
LINE
  8
_1-8_小物
  6
CONTINUOUS
 62
    4
 10
-131.14166606666711
 20
64.273605833333306
 11
-132.19166636666665
 21
64.061939333333214
  0
LINE
  8
_1-8_小物
  6
CONTINUOUS
 62
    4
 10
-131.14166606666711
 20
64.273605833333306
 11
-131.3066666666671
 21
64.368868133333194
  0
LINE
  8
_1-8_小物
  6
CONTINUOUS
 62
    4
 10
-131.14166606666711
 20
64.273605833333306
 11
-131.3066666666671
 21
64.178342633333443
  0
LINE
  8
_1-8_小物
  6
CONTINUOUS
 62
    4
 10
-132.19166636666665
 20
64.061939333333214
 11
-132.0266666666667
 21
64.157201633333329
  0
LINE
  8
_1-8_小物
  6
CONTINUOUS
 62
    4
 10
-132.0266666666667
 20
63.966676133333351
 11
-132.19166636666665
 21
64.061939333333214
  0
LINE
  8
_1-8_小物
  6
CONTINUOUS
 62
    4
 10
-131.3066666666671
 20
63.52220213333328
 11
-131.3066666666671
 21
63.755009633333316
  0
LINE
  8
_1-8_小物
  6
CONTINUOUS
 62
    4
 10
-132.0266666666667
 20
63.543343133333224
 11
-132.0266666666667
 21
63.310534733333384
  0
LINE
  8
_1-8_小物
  6
CONTINUOUS
 62
    4
 10
-131.3066666666671
 20
63.945535133333408
 11
-132.0266666666667
 21
63.733868633333316
  0
LINE
  8
_1-8_小物
  6
CONTINUOUS
 62
    4
 10
-131.3066666666671
 20
63.755009633333316
 11
-132.0266666666667
 21
63.543343133333224
  0
LINE
  8
_1-8_小物
  6
CONTINUOUS
 62
    4
 10
-131.14166606666711
 20
63.850271933333318
 11
-132.19166636666665
 21
63.638605433333453
  0
LINE
  8
_1-8_小物
  6
CONTINUOUS
 62
    4
 10
-131.14166606666711
 20
63.850271933333318
 11
-131.3066666666671
 21
63.945535133333408
  0
LINE
  8
_1-8_小物
  6
CONTINUOUS
 62
    4
 10
-131.14166606666711
 20
63.850271933333318
 11
-131.3066666666671
 21
63.755009633333316
  0
LINE
  8
_1-8_小物
  6
CONTINUOUS
 62
    4
 10
-132.19166636666665
 20
63.638605433333453
 11
-132.0266666666667
 21
63.733868633333316
  0
LINE
  8
_1-8_小物
  6
CONTINUOUS
 62
    4
 10
-132.0266666666667
 20
63.543343133333224
 11
-132.19166636666665
 21
63.638605433333453
  0
LINE
  8
_1-8_小物
  6
CONTINUOUS
 62
    4
 10
-131.3066666666671
 20
63.098868233333292
 11
-131.3066666666671
 21
63.331676633333359
  0
LINE
  8
_1-8_小物
  6
CONTINUOUS
 62
    4
 10
-132.0266666666667
 20
63.120009233333178
 11
-132.0266666666667
 21
62.887201733333427
  0
LINE
  8
_1-8_小物
  6
CONTINUOUS
 62
    4
 10
-131.3066666666671
 20
63.52220213333328
 11
-132.0266666666667
 21
63.310534733333384
  0
LINE
  8
_1-8_小物
  6
CONTINUOUS
 62
    4
 10
-131.3066666666671
 20
63.331676633333359
 11
-132.0266666666667
 21
63.120009233333178
  0
LINE
  8
_1-8_小物
  6
CONTINUOUS
 62
    4
 10
-131.14166606666711
 20
63.426938933333417
 11
-132.19166636666665
 21
63.215272433333325
  0
LINE
  8
_1-8_小物
  6
CONTINUOUS
 62
    4
 10
-131.14166606666711
 20
63.426938933333417
 11
-131.3066666666671
 21
63.52220213333328
  0
LINE
  8
_1-8_小物
  6
CONTINUOUS
 62
    4
 10
-131.14166606666711
 20
63.426938933333417
 11
-131.3066666666671
 21
63.331676633333359
  0
LINE
  8
_1-8_小物
  6
CONTINUOUS
 62
    4
 10
-132.19166636666665
 20
63.215272433333325
 11
-132.0266666666667
 21
63.310534733333384
  0
LINE
  8
_1-8_小物
  6
CONTINUOUS
 62
    4
 10
-132.0266666666667
 20
63.120009233333178
 11
-132.19166636666665
 21
63.215272433333325
  0
LINE
  8
_1-8_小物
  6
CONTINUOUS
 62
    4
 10
-131.3066666666671
 20
62.675535233333505
 11
-132.0266666666667
 21
62.463868733333413
  0
LINE
  8
_1-8_小物
  6
CONTINUOUS
 62
    4
 10
-131.3066666666671
 20
62.485009733333186
 11
-132.0266666666667
 21
62.273343233333264
  0
LINE
  8
_1-8_小物
  6
CONTINUOUS
 62
    4
 10
-131.14166606666711
 20
62.580272033333245
 11
-132.19166636666665
 21
62.368605533333152
  0
LINE
  8
_1-8_小物
  6
CONTINUOUS
 62
    4
 10
-131.14166606666711
 20
62.580272033333245
 11
-131.3066666666671
 21
62.675535233333505
  0
LINE
  8
_1-8_小物
  6
CONTINUOUS
 62
    4
 10
-131.14166606666711
 20
62.580272033333245
 11
-131.3066666666671
 21
62.485009733333186
  0
LINE
  8
_1-8_小物
  6
CONTINUOUS
 62
    4
 10
-132.19166636666665
 20
62.368605533333152
 11
-132.0266666666667
 21
62.463868733333413
  0
LINE
  8
_1-8_小物
  6
CONTINUOUS
 62
    4
 10
-132.0266666666667
 20
62.273343233333264
 11
-132.19166636666665
 21
62.368605533333152
  0
LINE
  8
_1-8_小物
  6
CONTINUOUS
 62
    4
 10
-131.3066666666671
 20
62.18333333333328
 11
-131.3066666666671
 21
62.485009733333186
  0
LINE
  8
_1-8_小物
  6
CONTINUOUS
 62
    4
 10
-131.3066666666671
 20
62.675535233333505
 11
-131.3066666666671
 21
62.908342733333313
  0
LINE
  8
_1-8_小物
  6
CONTINUOUS
 62
    4
 10
-132.0266666666667
 20
62.696676233333278
 11
-132.0266666666667
 21
62.463868733333413
  0
LINE
  8
_1-8_小物
  6
CONTINUOUS
 62
    4
 10
-131.3066666666671
 20
63.098868233333292
 11
-132.0266666666667
 21
62.887201733333427
  0
LINE
  8
_1-8_小物
  6
CONTINUOUS
 62
    4
 10
-131.3066666666671
 20
62.908342733333313
 11
-132.0266666666667
 21
62.696676233333278
  0
LINE
  8
_1-8_小物
  6
CONTINUOUS
 62
    4
 10
-131.14166606666711
 20
63.003605933333404
 11
-132.19166636666665
 21
62.791939433333312
  0
LINE
  8
_1-8_小物
  6
CONTINUOUS
 62
    4
 10
-131.14166606666711
 20
63.003605933333404
 11
-131.3066666666671
 21
63.098868233333292
  0
LINE
  8
_1-8_小物
  6
CONTINUOUS
 62
    4
 10
-131.14166606666711
 20
63.003605933333404
 11
-131.3066666666671
 21
62.908342733333313
  0
LINE
  8
_1-8_小物
  6
CONTINUOUS
 62
    4
 10
-132.19166636666665
 20
62.791939433333312
 11
-132.0266666666667
 21
62.887201733333427
  0
LINE
  8
_1-8_小物
  6
CONTINUOUS
 62
    4
 10
-132.0266666666667
 20
62.696676233333278
 11
-132.19166636666665
 21
62.791939433333312
  0
ARC
  8
_1-8_小物
  6
CONTINUOUS
 62
    4
 10
-130.91666606666655
 20
61.904294633333222
 40
0.2999996999999999
 50
299.99999999998266
 51
0
  0
ARC
  8
_1-8_小物
  6
CONTINUOUS
 62
    4
 10
-132.41666636666642
 20
61.904294633333222
 40
0.2999996999999999
 50
180
 51
239.99999999995677
  0
ARC
  8
_1-8_小物
  6
CONTINUOUS
 62
    4
 10
-131.66666666666677
 20
63.203333033333251
 40
1.8
 50
239.99999999999184
 51
299.99999999999801
  0
LINE
  8
_1-8_小物
  6
CONTINUOUS
 62
    4
 10
-130.61666636666669
 20
62.18333333333328
 11
-130.61666636666669
 21
61.904294633333222
  0
LINE
  8
_1-8_小物
  6
CONTINUOUS
 62
    4
 10
-132.71666606666659
 20
62.18333333333328
 11
-130.61666636666669
 21
62.18333333333328
  0
LINE
  8
_1-8_小物
  6
CONTINUOUS
 62
    4
 10
-132.71666606666659
 20
62.18333333333328
 11
-132.71666606666659
 21
61.904294633333222
  0
LINE
  8
_1-8_小物
  6
CONTINUOUS
 62
    4
 10
-132.0266666666667
 20
62.273343233333264
 11
-132.0266666666667
 21
62.18333333333328
  0
LINE
  8
_1-8_小物
  6
CONTINUOUS
 62
    4
 10
-131.3066666666671
 20
67.755534833333172
 11
-131.3066666666671
 21
67.988343233333239
  0
LINE
  8
_1-8_小物
  6
CONTINUOUS
 62
    4
 10
-132.0266666666667
 20
67.776675833333286
 11
-132.0266666666667
 21
67.543868333333251
  0
LINE
  8
_1-8_小物
  6
CONTINUOUS
 62
    4
 10
-131.3066666666671
 20
68.178868733333331
 11
-132.0266666666667
 21
67.967202233333296
  0
LINE
  8
_1-8_小物
  6
CONTINUOUS
 62
    4
 10
-131.3066666666671
 20
67.988343233333239
 11
-132.0266666666667
 21
67.776675833333286
  0
LINE
  8
_1-8_小物
  6
CONTINUOUS
 62
    4
 10
-131.14166606666711
 20
68.083605533333468
 11
-132.19166636666665
 21
67.871939033333433
  0
LINE
  8
_1-8_小物
  6
CONTINUOUS
 62
    4
 10
-131.14166606666711
 20
68.083605533333468
 11
-131.3066666666671
 21
68.178868733333331
  0
LINE
  8
_1-8_小物
  6
CONTINUOUS
 62
    4
 10
-131.14166606666711
 20
68.083605533333468
 11
-131.3066666666671
 21
67.988343233333239
  0
LINE
  8
_1-8_小物
  6
CONTINUOUS
 62
    4
 10
-132.19166636666665
 20
67.871939033333433
 11
-132.0266666666667
 21
67.967202233333296
  0
LINE
  8
_1-8_小物
  6
CONTINUOUS
 62
    4
 10
-132.0266666666667
 20
67.776675833333286
 11
-132.19166636666665
 21
67.871939033333433
  0
LINE
  8
_1-8_小物
  6
CONTINUOUS
 62
    4
 10
-131.3066666666671
 20
67.332201833333158
 11
-131.3066666666671
 21
67.565009333333194
  0
LINE
  8
_1-8_小物
  6
CONTINUOUS
 62
    4
 10
-132.0266666666667
 20
67.353342833333329
 11
-132.0266666666667
 21
67.120535333333294
  0
LINE
  8
_1-8_小物
  6
CONTINUOUS
 62
    4
 10
-131.3066666666671
 20
67.755534833333172
 11
-132.0266666666667
 21
67.543868333333251
  0
LINE
  8
_1-8_小物
  6
CONTINUOUS
 62
    4
 10
-131.3066666666671
 20
67.565009333333194
 11
-132.0266666666667
 21
67.353342833333329
  0
LINE
  8
_1-8_小物
  6
CONTINUOUS
 62
    4
 10
-131.14166606666711
 20
67.660272533333341
 11
-132.19166636666665
 21
67.448606033333419
  0
LINE
  8
_1-8_小物
  6
CONTINUOUS
 62
    4
 10
-131.14166606666711
 20
67.660272533333341
 11
-131.3066666666671
 21
67.755534833333172
  0
LINE
  8
_1-8_小物
  6
CONTINUOUS
 62
    4
 10
-131.14166606666711
 20
67.660272533333341
 11
-131.3066666666671
 21
67.565009333333194
  0
LINE
  8
_1-8_小物
  6
CONTINUOUS
 62
    4
 10
-132.19166636666665
 20
67.448606033333419
 11
-132.0266666666667
 21
67.543868333333251
  0
LINE
  8
_1-8_小物
  6
CONTINUOUS
 62
    4
 10
-132.0266666666667
 20
67.353342833333329
 11
-132.19166636666665
 21
67.448606033333419
  0
LINE
  8
_1-8_小物
  6
CONTINUOUS
 62
    4
 10
-131.3066666666671
 20
66.908868833333258
 11
-131.3066666666671
 21
67.141676333333294
  0
LINE
  8
_1-8_小物
  6
CONTINUOUS
 62
    4
 10
-132.0266666666667
 20
66.930009833333202
 11
-132.0266666666667
 21
66.697201433333362
  0
LINE
  8
_1-8_小物
  6
CONTINUOUS
 62
    4
 10
-131.3066666666671
 20
67.332201833333158
 11
-132.0266666666667
 21
67.120535333333294
  0
LINE
  8
_1-8_小物
  6
CONTINUOUS
 62
    4
 10
-131.3066666666671
 20
67.141676333333294
 11
-132.0266666666667
 21
66.930009833333202
  0
LINE
  8
_1-8_小物
  6
CONTINUOUS
 62
    4
 10
-131.14166606666711
 20
67.236938633333295
 11
-132.19166636666665
 21
67.02527213333326
  0
LINE
  8
_1-8_小物
  6
CONTINUOUS
 62
    4
 10
-131.14166606666711
 20
67.236938633333295
 11
-131.3066666666671
 21
67.332201833333158
  0
LINE
  8
_1-8_小物
  6
CONTINUOUS
 62
    4
 10
-131.14166606666711
 20
67.236938633333295
 11
-131.3066666666671
 21
67.141676333333294
  0
LINE
  8
_1-8_小物
  6
CONTINUOUS
 62
    4
 10
-132.19166636666665
 20
67.02527213333326
 11
-132.0266666666667
 21
67.120535333333294
  0
LINE
  8
_1-8_小物
  6
CONTINUOUS
 62
    4
 10
-132.0266666666667
 20
66.930009833333202
 11
-132.19166636666665
 21
67.02527213333326
  0
LINE
  8
_1-8_小物
  6
CONTINUOUS
 62
    4
 10
-131.3066666666671
 20
66.48553493333327
 11
-131.3066666666671
 21
66.71834333333328
  0
LINE
  8
_1-8_小物
  6
CONTINUOUS
 62
    4
 10
-132.0266666666667
 20
66.506675933333383
 11
-132.0266666666667
 21
66.273868433333348
  0
LINE
  8
_1-8_小物
  6
CONTINUOUS
 62
    4
 10
-131.3066666666671
 20
66.908868833333258
 11
-132.0266666666667
 21
66.697201433333362
  0
LINE
  8
_1-8_小物
  6
CONTINUOUS
 62
    4
 10
-131.3066666666671
 20
66.71834333333328
 11
-132.0266666666667
 21
66.506675933333383
  0
LINE
  8
_1-8_小物
  6
CONTINUOUS
 62
    4
 10
-131.14166606666711
 20
66.813605633333168
 11
-132.19166636666665
 21
66.601939133333303
  0
LINE
  8
_1-8_小物
  6
CONTINUOUS
 62
    4
 10
-131.14166606666711
 20
66.813605633333168
 11
-131.3066666666671
 21
66.908868833333258
  0
LINE
  8
_1-8_小物
  6
CONTINUOUS
 62
    4
 10
-131.14166606666711
 20
66.813605633333168
 11
-131.3066666666671
 21
66.71834333333328
  0
LINE
  8
_1-8_小物
  6
CONTINUOUS
 62
    4
 10
-132.19166636666665
 20
66.601939133333303
 11
-132.0266666666667
 21
66.697201433333362
  0
LINE
  8
_1-8_小物
  6
CONTINUOUS
 62
    4
 10
-132.0266666666667
 20
66.506675933333383
 11
-132.19166636666665
 21
66.601939133333303
  0
LINE
  8
_1-8_小物
  6
CONTINUOUS
 62
    4
 10
-131.3066666666671
 20
66.226456433333283
 11
-131.3066666666671
 21
66.295009433333291
  0
LINE
  8
_1-8_小物
  6
CONTINUOUS
 62
    4
 10
-132.0266666666667
 20
66.083342933333427
 11
-132.0266666666667
 21
65.850535433333391
  0
LINE
  8
_1-8_小物
  6
CONTINUOUS
 62
    4
 10
-131.3066666666671
 20
66.48553493333327
 11
-132.0266666666667
 21
66.273868433333348
  0
LINE
  8
_1-8_小物
  6
CONTINUOUS
 62
    4
 10
-131.3066666666671
 20
66.295009433333291
 11
-131.77461806666685
 21
66.157440833333453
  0
LINE
  8
_1-8_小物
  6
CONTINUOUS
 62
    4
 10
-132.11155916666672
 20
66.194753933333118
 11
-131.14166606666711
 21
66.390272633333382
  0
LINE
  8
_1-8_小物
  6
CONTINUOUS
 62
    4
 10
-131.14166606666711
 20
66.390272633333382
 11
-131.3066666666671
 21
66.48553493333327
  0
LINE
  8
_1-8_小物
  6
CONTINUOUS
 62
    4
 10
-131.14166606666711
 20
66.390272633333382
 11
-131.3066666666671
 21
66.295009433333291
  0
LINE
  8
_1-8_小物
  6
CONTINUOUS
 62
    4
 10
-132.14461256666669
 20
66.205772633333368
 11
-132.0266666666667
 21
66.273868433333348
  0
LINE
  8
_1-8_小物
  6
CONTINUOUS
 62
    4
 10
-132.0266666666667
 20
66.083342933333427
 11
-132.19166636666665
 21
66.17860613333329
  0
LINE
  8
_1-8_小物
  6
CONTINUOUS
 62
    4
 10
-131.3066666666671
 20
65.638868033333097
 11
-131.3066666666671
 21
65.871676433333391
  0
LINE
  8
_1-8_小物
  6
CONTINUOUS
 62
    4
 10
-132.0266666666667
 20
65.660009933333299
 11
-132.0266666666667
 21
65.427201533333232
  0
LINE
  8
_1-8_小物
  6
CONTINUOUS
 62
    4
 10
-131.3066666666671
 20
66.062201933333256
 11
-132.0266666666667
 21
65.850535433333391
  0
LINE
  8
_1-8_小物
  6
CONTINUOUS
 62
    4
 10
-131.3066666666671
 20
65.871676433333391
 11
-132.0266666666667
 21
65.660009933333299
  0
LINE
  8
_1-8_小物
  6
CONTINUOUS
 62
    4
 10
-131.14166606666711
 20
65.966938733333393
 11
-132.19166636666665
 21
65.755272233333358
  0
LINE
  8
_1-8_小物
  6
CONTINUOUS
 62
    4
 10
-131.14166606666711
 20
65.966938733333393
 11
-131.3066666666671
 21
66.062201933333256
  0
LINE
  8
_1-8_小物
  6
CONTINUOUS
 62
    4
 10
-131.14166606666711
 20
65.966938733333393
 11
-131.3066666666671
 21
65.871676433333391
  0
LINE
  8
_1-8_小物
  6
CONTINUOUS
 62
    4
 10
-132.19166636666665
 20
65.755272233333358
 11
-132.0266666666667
 21
65.850535433333391
  0
LINE
  8
_1-8_小物
  6
CONTINUOUS
 62
    4
 10
-132.0266666666667
 20
65.660009933333299
 11
-132.19166636666665
 21
65.755272233333358
  0
LINE
  8
_1-8_小物
  6
CONTINUOUS
 62
    4
 10
-131.3066666666671
 20
65.215535033333367
 11
-131.3066666666671
 21
65.448342533333346
  0
LINE
  8
_1-8_小物
  6
CONTINUOUS
 62
    4
 10
-132.0266666666667
 20
65.236676033333254
 11
-132.0266666666667
 21
65.003868533333446
  0
LINE
  8
_1-8_小物
  6
CONTINUOUS
 62
    4
 10
-131.3066666666671
 20
65.638868033333097
 11
-132.0266666666667
 21
65.427201533333232
  0
LINE
  8
_1-8_小物
  6
CONTINUOUS
 62
    4
 10
-131.3066666666671
 20
65.448342533333346
 11
-132.0266666666667
 21
65.236676033333254
  0
LINE
  8
_1-8_小物
  6
CONTINUOUS
 62
    4
 10
-131.14166606666711
 20
65.543605733333266
 11
-132.19166636666665
 21
65.331939233333401
  0
LINE
  8
_1-8_小物
  6
CONTINUOUS
 62
    4
 10
-131.14166606666711
 20
65.543605733333266
 11
-131.3066666666671
 21
65.638868033333097
  0
LINE
  8
_1-8_小物
  6
CONTINUOUS
 62
    4
 10
-131.14166606666711
 20
65.543605733333266
 11
-131.3066666666671
 21
65.448342533333346
  0
LINE
  8
_1-8_小物
  6
CONTINUOUS
 62
    4
 10
-132.19166636666665
 20
65.331939233333401
 11
-132.0266666666667
 21
65.427201533333232
  0
LINE
  8
_1-8_小物
  6
CONTINUOUS
 62
    4
 10
-132.0266666666667
 20
65.236676033333254
 11
-132.19166636666665
 21
65.331939233333401
  0
LINE
  8
_1-8_小物
  6
CONTINUOUS
 62
    4
 10
-131.3066666666671
 20
65.215535033333367
 11
-132.0266666666667
 21
65.003868533333446
  0
LINE
  8
_1-8_小物
  6
CONTINUOUS
 62
    4
 10
-131.14166606666711
 20
65.120272733333479
 11
-131.3066666666671
 21
65.215535033333367
  0
LINE
  8
_1-8_小物
  6
CONTINUOUS
 62
    4
 10
-131.41193336666666
 20
69.03725363333325
 11
-131.93114426666639
 21
68.824454033333382
  0
LINE
  8
_1-8_小物
  6
CONTINUOUS
 62
    4
 10
-132.11447876666662
 20
68.718605933333322
 11
-131.22663596666715
 21
68.930272433333243
  0
LINE
  8
_1-8_小物
  6
CONTINUOUS
 62
    4
 10
-131.39163656666713
 20
68.835009233333381
 11
-131.94947906666667
 21
68.623342733333459
  0
LINE
  8
_1-8_小物
  6
CONTINUOUS
 62
    4
 10
-131.96973806666671
 20
68.401120133333336
 11
-131.36944796666674
 21
68.613919733333489
  0
LINE
  8
_1-8_小物
  6
CONTINUOUS
 62
    4
 10
-131.18415146666672
 20
68.50693943333323
 11
-132.15307256666691
 21
68.295272033333333
  0
LINE
  8
_1-8_小物
  6
CONTINUOUS
 62
    4
 10
-131.98807286666639
 20
68.200009733333331
 11
-131.34915116666667
 21
68.411676233333367
  0
LINE
  8
_1-8_小物
  6
CONTINUOUS
 62
    4
 10
-131.98807286666639
 20
68.200009733333331
 11
-132.00881876666679
 21
67.972448333333318
  0
LINE
  8
_1-8_小物
  6
CONTINUOUS
 62
    4
 10
-131.94947906666667
 20
68.623342733333459
 11
-131.96973806666671
 21
68.401120133333336
  0
LINE
  8
_1-8_小物
  6
CONTINUOUS
 62
    4
 10
-131.36944796666674
 20
68.613919733333489
 11
-131.39163656666713
 21
68.835009233333381
  0
LINE
  8
_1-8_小物
  6
CONTINUOUS
 62
    4
 10
-131.32523906666671
 20
68.173408433333236
 11
-131.34915116666667
 21
68.411676233333367
  0
LINE
  8
_1-8_小物
  6
CONTINUOUS
 62
    4
 10
-131.22663596666715
 20
68.930272433333243
 11
-131.41193336666666
 21
69.03725363333325
  0
LINE
  8
_1-8_小物
  6
CONTINUOUS
 62
    4
 10
-131.39163656666713
 20
68.835009233333381
 11
-131.22663596666715
 21
68.930272433333243
  0
LINE
  8
_1-8_小物
  6
CONTINUOUS
 62
    4
 10
-131.18415146666672
 20
68.50693943333323
 11
-131.36944796666674
 21
68.613919733333489
  0
LINE
  8
_1-8_小物
  6
CONTINUOUS
 62
    4
 10
-131.18415146666672
 20
68.50693943333323
 11
-131.34915116666667
 21
68.411676233333367
  0
LINE
  8
_1-8_小物
  6
CONTINUOUS
 62
    4
 10
-132.11447876666662
 20
68.718605933333322
 11
-131.93114426666639
 21
68.824454033333382
  0
LINE
  8
_1-8_小物
  6
CONTINUOUS
 62
    4
 10
-131.94947906666667
 20
68.623342733333459
 11
-132.11447876666662
 21
68.718605933333322
  0
LINE
  8
_1-8_小物
  6
CONTINUOUS
 62
    4
 10
-132.15307256666691
 20
68.295272033333333
 11
-131.96973806666671
 21
68.401120133333336
  0
LINE
  8
_1-8_小物
  6
CONTINUOUS
 62
    4
 10
-131.98807286666639
 20
68.200009733333331
 11
-132.15307256666691
 21
68.295272033333333
  0
LINE
  8
_1-8_小物
  6
CONTINUOUS
 62
    4
 10
-131.66666666666677
 20
69.773342933333311
 11
-131.41193336666666
 21
69.03725363333325
  0
LINE
  8
_1-8_小物
  6
CONTINUOUS
 62
    4
 10
-131.93114426666639
 20
68.824454033333382
 11
-131.66666666666677
 21
69.773342933333311
  0
LINE
  8
_1-8_小物
  6
CONTINUOUS
 62
    4
 10
-131.3066666666671
 20
66.226456433333283
 11
-131.3066666666671
 21
66.062201933333256
  0
LINE
  8
_1-8_小物
  6
CONTINUOUS
 62
    4
 10
-132.14461256666669
 20
66.205772633333368
 11
-132.19166636666665
 21
66.17860613333329
  0
LINE
  8
_1-8_小物
  6
CONTINUOUS
 62
    4
 10
-132.0266666666667
 20
66.083342933333427
 11
-131.77461806666685
 21
66.157440833333453
  0
LINE
  8
_1-8_小物
  6
CONTINUOUS
 62
    4
 10
-132.11155916666672
 20
66.194753933333118
 11
-132.19166636666665
 21
66.17860613333329
  0
LINE
  8
_1-8_小物
  6
CENTER2
 62
    4
 10
-131.66666666666677
 20
70.673342933333174
 11
-131.66666666666677
 21
60.503333033333206
  0
ENDBLK
  0
BLOCK
  2
-010-_7_
 70
   64
 10
0
 20
0
 30
0
  0
LINE
  8
_1-7_カバ__
  6
CONTINUOUS
 62
    4
 10
-144.33333333333331
 20
55.500000000000028
 11
-55.666666666666941
 21
55.500000000000028
  0
LINE
  8
_1-7_カバ__
  6
CONTINUOUS
 62
    4
 10
-128.33333333333329
 20
54.90404401145193
 11
-128.26262265521461
 21
54.833333333333286
  0
LINE
  8
_1-7_カバ__
  6
CONTINUOUS
 62
    4
 10
-128.33333333333329
 20
54.90404401145193
 11
-128.40404401145193
 21
54.833333333333286
  0
LINE
  8
_1-7_カバ__
  6
CONTINUOUS
 62
    4
 10
-71.666666666666771
 20
54.90404401145193
 11
-71.595955988548127
 21
54.833333333333286
  0
LINE
  8
_1-7_カバ__
  6
CONTINUOUS
 62
    4
 10
-71.666666666666771
 20
54.90404401145193
 11
-71.737377344785415
 21
54.833333333333286
  0
LINE
  8
_1-7_カバ__
  6
CONTINUOUS
 62
    4
 10
-144.99999999999994
 20
54.833333333333286
 11
-128.40404401145193
 21
54.833333333333286
  0
LINE
  8
_1-7_カバ__
  6
CONTINUOUS
 62
    4
 10
-128.26262265521461
 20
54.833333333333286
 11
-71.737377344785415
 21
54.833333333333286
  0
LINE
  8
_1-7_カバ__
  6
CONTINUOUS
 62
    4
 10
-71.595955988548127
 20
54.833333333333286
 11
-55.000000000000142
 21
54.833333333333286
  0
LINE
  8
_1-7_カバ__
  6
CENTER2
 62
    4
 10
-100.00000000000003
 20
53.166666666666629
 11
-100.00000000000003
 21
57.166666666666686
  0
LINE
  8
_1-7_カバ__
  6
CENTER2
 62
    4
 10
-128.33333333333329
 20
53.166666666666629
 11
-128.33333333333329
 21
57.166666666666686
  0
LINE
  8
_1-7_カバ__
  6
CENTER2
 62
    4
 10
-71.666666666666771
 20
53.166666666666629
 11
-71.666666666666771
 21
57.166666666666686
  0
LINE
  8
_1-7_カバ__
  6
DASHED1
 62
    4
 10
-127.58333333333323
 20
55.166666666666544
 11
-127.24999999999997
 21
54.833333333333286
  0
LINE
  8
_1-7_カバ__
  6
DASHED1
 62
    4
 10
-129.08333333333323
 20
55.166666666666544
 11
-129.41666666666652
 21
54.833333333333286
  0
LINE
  8
_1-7_カバ__
  6
DASHED1
 62
    4
 10
-129.08333333333323
 20
55.166666666666544
 11
-127.58333333333323
 21
55.166666666666544
  0
LINE
  8
_1-7_カバ__
  6
DASHED1
 62
    4
 10
-70.916666666666742
 20
55.166666666666544
 11
-70.583333333333485
 21
54.833333333333286
  0
LINE
  8
_1-7_カバ__
  6
DASHED1
 62
    4
 10
-72.416666666666742
 20
55.166666666666544
 11
-72.750000000000028
 21
54.833333333333286
  0
LINE
  8
_1-7_カバ__
  6
DASHED1
 62
    4
 10
-72.416666666666742
 20
55.166666666666544
 11
-70.916666666666742
 21
55.166666666666544
  0
LINE
  8
_1-7_カバ__
  6
DASHED1
 62
    4
 10
-70.916666666666742
 20
55.166666666666544
 11
-70.916666666666742
 21
55.500000000000028
  0
LINE
  8
_1-7_カバ__
  6
DASHED1
 62
    4
 10
-72.416666666666742
 20
55.166666666666544
 11
-72.416666666666742
 21
55.500000000000028
  0
LINE
  8
_1-7_カバ__
  6
DASHED1
 62
    4
 10
-127.58333333333323
 20
55.166666666666544
 11
-127.58333333333323
 21
55.500000000000028
  0
LINE
  8
_1-7_カバ__
  6
DASHED1
 62
    4
 10
-129.08333333333323
 20
55.166666666666544
 11
-129.08333333333323
 21
55.500000000000028
  0
LINE
  8
_1-7_カバ__
  6
CONTINUOUS
 62
    4
 10
-144.99999999999994
 20
59.499999999999915
 11
-144.99999999999994
 21
54.833333333333286
  0
LINE
  8
_1-7_カバ__
  6
CONTINUOUS
 62
    4
 10
-144.33333333333314
 20
58.833333333333286
 11
-144.33333333333314
 21
55.500000000000028
  0
LINE
  8
_1-7_カバ__
  6
CONTINUOUS
 62
    4
 10
-55.000000000000142
 20
59.499999999999915
 11
-55.000000000000142
 21
54.833333333333286
  0
LINE
  8
_1-7_カバ__
  6
CONTINUOUS
 62
    4
 10
-55.666666666666998
 20
58.833333333333286
 11
-55.666666666666998
 21
55.500000000000028
  0
LINE
  8
_1-7_カバ__
  6
CONTINUOUS
 62
    4
 10
-144.33333333333314
 20
58.833333333333286
 11
-141.66666666666691
 21
58.833333333333286
  0
LINE
  8
_1-7_カバ__
  6
CONTINUOUS
 62
    4
 10
-141.66666666666691
 20
59.499999999999915
 11
-141.66666666666691
 21
58.833333333333286
  0
LINE
  8
_1-7_カバ__
  6
CONTINUOUS
 62
    4
 10
-144.99999999999994
 20
59.499999999999915
 11
-141.66666666666691
 21
59.499999999999915
  0
LINE
  8
_1-7_カバ__
  6
CONTINUOUS
 62
    4
 10
-55.666666666666998
 20
58.833333333333286
 11
-58.333333333333172
 21
58.833333333333286
  0
LINE
  8
_1-7_カバ__
  6
CONTINUOUS
 62
    4
 10
-58.333333333333172
 20
59.499999999999915
 11
-58.333333333333172
 21
58.833333333333286
  0
LINE
  8
_1-7_カバ__
  6
CONTINUOUS
 62
    4
 10
-55.000000000000142
 20
59.499999999999915
 11
-58.333333333333172
 21
59.499999999999915
  0
ENDBLK
  0
BLOCK
  2
-011-$QLE_3_
 70
   64
 10
0
 20
0
 30
0
  0
LINE
  8
_1-f_寸法
  6
CONTINUOUS
 62
    4
 10
145.05383099999995
 20
85.500000666666608
 11
147.84082199470106
 21
90.327210669725844
  0
LINE
  8
_1-f_寸法
  6
CONTINUOUS
 62
    4
 10
147.84082199470106
 20
90.327210669725844
 11
167.36082199470104
 21
90.327210669725844
  0
POINT
  8
_1-f_寸法
 62
    4
 10
145.05383099999995
 20
85.500000666666608
  0
TEXT
  8
_1-f_寸法
 62
    4
 10
148.16082199470111
 20
90.327210669725844
 40
3.2000000000000002
 41
1
 50
0
  1
野縁受(別途)
  0
ENDBLK
  0
BLOCK
  2
-012-$QLE_4_
 70
   64
 10
0
 20
0
 30
0
  0
LINE
  8
_1-f_寸法
  6
CONTINUOUS
 62
    4
 10
143.08333299999993
 20
69.916667166666599
 11
147.31760549412979
 21
77.250642259590933
  0
LINE
  8
_1-f_寸法
  6
CONTINUOUS
 62
    4
 10
147.31760549412979
 20
77.250642259590933
 11
163.63760549412973
 21
77.250642259590933
  0
POINT
  8
_1-f_寸法
 62
    4
 10
143.08333299999993
 20
69.916667166666599
  0
TEXT
  8
_1-f_寸法
 62
    4
 10
147.63760549412979
 20
77.250642259590933
 40
3.2000000000000002
 41
1
 50
0
  1
野縁(別途)
  0
ENDBLK
  0
BLOCK
  2
-013-$QLE_5_
 70
   64
 10
0
 20
0
 30
0
  0
LINE
  8
_1-f_寸法
  6
CONTINUOUS
 62
    4
 10
151.66666650000002
 20
66.500000333333276
 11
153.52670873696985
 21
69.721687991989143
  0
LINE
  8
_1-f_寸法
  6
CONTINUOUS
 62
    4
 10
153.52670873696985
 20
69.721687991989143
 11
169.84670873696984
 21
69.721687991989143
  0
POINT
  8
_1-f_寸法
 62
    4
 10
151.66666650000002
 20
66.500000333333276
  0
TEXT
  8
_1-f_寸法
 62
    4
 10
153.84670873696984
 20
69.721687991989143
 40
3.2000000000000002
 41
1
 50
0
  1
天井仕上面
  0
ENDBLK
  0
BLOCK
  2
-014-_8_
 70
   64
 10
0
 20
0
 30
0
  0
LINE
  8
_1-8_小物
  6
CONTINUOUS
 62
    4
 10
92.666666666666572
 20
54.833333333333314
 11
90.666666666666572
 21
54.833333333333314
  0
LINE
  8
_1-8_小物
  6
CONTINUOUS
 62
    4
 10
90.666666666666686
 20
54.833333333333314
 11
90.666666666666686
 21
54.900000000000006
  0
LINE
  8
_1-8_小物
  6
CONTINUOUS
 62
    4
 10
92.666666666666458
 20
54.900000000000006
 11
92.166666666666458
 21
55.400000000000006
  0
LINE
  8
_1-8_小物
  6
CONTINUOUS
 62
    4
 10
92.166666666666458
 20
55.400000000000006
 11
91.166666666666686
 21
55.400000000000006
  0
LINE
  8
_1-8_小物
  6
CONTINUOUS
 62
    4
 10
90.666666666666686
 20
54.900000000000006
 11
91.166666666666686
 21
55.400000000000006
  0
LINE
  8
_1-8_小物
  6
CONTINUOUS
 62
    4
 10
92.666666666666458
 20
54.900000000000006
 11
92.666666666666458
 21
54.833333333333314
  0
LINE
  8
_1-8_小物
  6
CONTINUOUS
 62
    4
 10
90.666666666666686
 20
54.900000000000006
 11
92.666666666666458
 21
54.900000000000006
  0
LINE
  8
_1-8_小物
  6
CONTINUOUS
 62
    4
 10
91.166666666666686
 20
58.464246678175698
 11
90.979166666666572
 21
58.572499999999991
  0
LINE
  8
_1-8_小物
  6
CONTINUOUS
 62
    4
 10
90.979166666666572
 20
58.572499999999991
 11
91.166666666666572
 21
58.680753321824227
  0
LINE
  8
_1-8_小物
  6
CONTINUOUS
 62
    4
 10
91.166666666666686
 20
58.464246678175698
 11
92.166666666666458
 21
58.699246678175655
  0
LINE
  8
_1-8_小物
  6
CONTINUOUS
 62
    4
 10
92.354166666666572
 20
58.807499999999948
 11
92.166666666666458
 21
58.699246678175655
  0
LINE
  8
_1-8_小物
  6
CONTINUOUS
 62
    4
 10
92.166666666666458
 20
58.915753321824241
 11
92.354166666666572
 21
58.807499999999948
  0
LINE
  8
_1-8_小物
  6
CONTINUOUS
 62
    4
 10
91.166666666666572
 20
58.680753321824227
 11
92.166666666666458
 21
58.915753321824241
  0
LINE
  8
_1-8_小物
  6
CONTINUOUS
 62
    4
 10
90.979166666666572
 20
58.572499999999991
 11
92.354166666666572
 21
58.807499999999948
  0
LINE
  8
_1-8_小物
  6
CONTINUOUS
 62
    4
 10
91.166666666666686
 20
57.994246678175671
 11
90.979166666666572
 21
58.102499999999964
  0
LINE
  8
_1-8_小物
  6
CONTINUOUS
 62
    4
 10
90.979166666666572
 20
58.102499999999964
 11
91.166666666666572
 21
58.210753321824228
  0
LINE
  8
_1-8_小物
  6
CONTINUOUS
 62
    4
 10
91.166666666666686
 20
57.994246678175671
 11
92.166666666666458
 21
58.229246678175656
  0
LINE
  8
_1-8_小物
  6
CONTINUOUS
 62
    4
 10
92.354166666666572
 20
58.33749999999992
 11
92.166666666666458
 21
58.229246678175656
  0
LINE
  8
_1-8_小物
  6
CONTINUOUS
 62
    4
 10
92.166666666666458
 20
58.445753321824213
 11
92.354166666666572
 21
58.33749999999992
  0
LINE
  8
_1-8_小物
  6
CONTINUOUS
 62
    4
 10
91.166666666666572
 20
58.210753321824228
 11
92.166666666666458
 21
58.445753321824213
  0
LINE
  8
_1-8_小物
  6
CONTINUOUS
 62
    4
 10
90.979166666666572
 20
58.102499999999964
 11
92.354166666666572
 21
58.33749999999992
  0
LINE
  8
_1-8_小物
  6
CONTINUOUS
 62
    4
 10
91.166666666666686
 20
57.5242466781757
 11
90.979166666666572
 21
57.632499999999993
  0
LINE
  8
_1-8_小物
  6
CONTINUOUS
 62
    4
 10
90.979166666666572
 20
57.632499999999993
 11
91.166666666666572
 21
57.740753321824286
  0
LINE
  8
_1-8_小物
  6
CONTINUOUS
 62
    4
 10
91.166666666666686
 20
57.5242466781757
 11
92.166666666666458
 21
57.759246678175714
  0
LINE
  8
_1-8_小物
  6
CONTINUOUS
 62
    4
 10
92.354166666666572
 20
57.86749999999995
 11
92.166666666666458
 21
57.759246678175714
  0
LINE
  8
_1-8_小物
  6
CONTINUOUS
 62
    4
 10
92.166666666666458
 20
57.975753321824243
 11
92.354166666666572
 21
57.86749999999995
  0
LINE
  8
_1-8_小物
  6
CONTINUOUS
 62
    4
 10
91.166666666666572
 20
57.740753321824286
 11
92.166666666666458
 21
57.975753321824243
  0
LINE
  8
_1-8_小物
  6
CONTINUOUS
 62
    4
 10
90.979166666666572
 20
57.632499999999993
 11
92.354166666666572
 21
57.86749999999995
  0
LINE
  8
_1-8_小物
  6
CONTINUOUS
 62
    4
 10
91.166666666666686
 20
57.054246678175701
 11
90.979166666666572
 21
57.162499999999966
  0
LINE
  8
_1-8_小物
  6
CONTINUOUS
 62
    4
 10
90.979166666666572
 20
57.162499999999966
 11
91.166666666666572
 21
57.270753321824259
  0
LINE
  8
_1-8_小物
  6
CONTINUOUS
 62
    4
 10
91.166666666666686
 20
57.054246678175701
 11
92.166666666666458
 21
57.289246678175687
  0
LINE
  8
_1-8_小物
  6
CONTINUOUS
 62
    4
 10
92.354166666666572
 20
57.397499999999951
 11
92.166666666666458
 21
57.289246678175687
  0
LINE
  8
_1-8_小物
  6
CONTINUOUS
 62
    4
 10
92.166666666666458
 20
57.505753321824216
 11
92.354166666666572
 21
57.397499999999951
  0
LINE
  8
_1-8_小物
  6
CONTINUOUS
 62
    4
 10
91.166666666666572
 20
57.270753321824259
 11
92.166666666666458
 21
57.505753321824216
  0
LINE
  8
_1-8_小物
  6
CONTINUOUS
 62
    4
 10
90.979166666666572
 20
57.162499999999966
 11
92.354166666666572
 21
57.397499999999951
  0
LINE
  8
_1-8_小物
  6
CONTINUOUS
 62
    4
 10
91.166666666666686
 20
56.584246678175759
 11
90.979166666666572
 21
56.692499999999995
  0
LINE
  8
_1-8_小物
  6
CONTINUOUS
 62
    4
 10
90.979166666666572
 20
56.692499999999995
 11
91.166666666666572
 21
56.800753321824288
  0
LINE
  8
_1-8_小物
  6
CONTINUOUS
 62
    4
 10
91.166666666666686
 20
56.584246678175759
 11
92.166666666666458
 21
56.819246678175716
  0
LINE
  8
_1-8_小物
  6
CONTINUOUS
 62
    4
 10
92.354166666666572
 20
56.927500000000009
 11
92.166666666666458
 21
56.819246678175716
  0
LINE
  8
_1-8_小物
  6
CONTINUOUS
 62
    4
 10
92.166666666666458
 20
57.035753321824245
 11
92.354166666666572
 21
56.927500000000009
  0
LINE
  8
_1-8_小物
  6
CONTINUOUS
 62
    4
 10
91.166666666666572
 20
56.800753321824288
 11
92.166666666666458
 21
57.035753321824245
  0
LINE
  8
_1-8_小物
  6
CONTINUOUS
 62
    4
 10
90.979166666666572
 20
56.692499999999995
 11
92.354166666666572
 21
56.927500000000009
  0
LINE
  8
_1-8_小物
  6
CONTINUOUS
 62
    4
 10
91.166666666666686
 20
56.114246678175732
 11
90.979166666666572
 21
56.222499999999997
  0
LINE
  8
_1-8_小物
  6
CONTINUOUS
 62
    4
 10
90.979166666666572
 20
56.222499999999997
 11
91.166666666666572
 21
56.330753321824261
  0
LINE
  8
_1-8_小物
  6
CONTINUOUS
 62
    4
 10
91.166666666666686
 20
56.114246678175732
 11
92.166666666666458
 21
56.349246678175689
  0
LINE
  8
_1-8_小物
  6
CONTINUOUS
 62
    4
 10
92.354166666666572
 20
56.457499999999982
 11
92.166666666666458
 21
56.349246678175689
  0
LINE
  8
_1-8_小物
  6
CONTINUOUS
 62
    4
 10
92.166666666666458
 20
56.565753321824246
 11
92.354166666666572
 21
56.457499999999982
  0
LINE
  8
_1-8_小物
  6
CONTINUOUS
 62
    4
 10
91.166666666666572
 20
56.330753321824261
 11
92.166666666666458
 21
56.565753321824246
  0
LINE
  8
_1-8_小物
  6
CONTINUOUS
 62
    4
 10
90.979166666666572
 20
56.222499999999997
 11
92.354166666666572
 21
56.457499999999982
  0
LINE
  8
_1-8_小物
  6
CONTINUOUS
 62
    4
 10
91.166666666666686
 20
55.644246678175762
 11
90.979166666666572
 21
55.752500000000055
  0
LINE
  8
_1-8_小物
  6
CONTINUOUS
 62
    4
 10
90.979166666666572
 20
55.752500000000055
 11
91.166666666666572
 21
55.860753321824291
  0
LINE
  8
_1-8_小物
  6
CONTINUOUS
 62
    4
 10
91.166666666666686
 20
55.644246678175762
 11
92.166666666666458
 21
55.879246678175718
  0
LINE
  8
_1-8_小物
  6
CONTINUOUS
 62
    4
 10
92.354166666666572
 20
55.987500000000011
 11
92.166666666666458
 21
55.879246678175718
  0
LINE
  8
_1-8_小物
  6
CONTINUOUS
 62
    4
 10
92.166666666666458
 20
56.095753321824304
 11
92.354166666666572
 21
55.987500000000011
  0
LINE
  8
_1-8_小物
  6
CONTINUOUS
 62
    4
 10
91.166666666666572
 20
55.860753321824291
 11
92.166666666666458
 21
56.095753321824304
  0
LINE
  8
_1-8_小物
  6
CONTINUOUS
 62
    4
 10
90.979166666666572
 20
55.752500000000055
 11
92.354166666666572
 21
55.987500000000011
  0
LINE
  8
_1-8_小物
  6
CONTINUOUS
 62
    4
 10
92.166666666666458
 20
58.915753321824241
 11
92.166666666666458
 21
59.169246678175625
  0
LINE
  8
_1-8_小物
  6
CONTINUOUS
 62
    4
 10
92.166666666666458
 20
58.445753321824213
 11
92.166666666666458
 21
58.699246678175655
  0
LINE
  8
_1-8_小物
  6
CONTINUOUS
 62
    4
 10
92.166666666666458
 20
57.975753321824243
 11
92.166666666666458
 21
58.229246678175627
  0
LINE
  8
_1-8_小物
  6
CONTINUOUS
 62
    4
 10
92.166666666666458
 20
57.505753321824216
 11
92.166666666666458
 21
57.759246678175714
  0
LINE
  8
_1-8_小物
  6
CONTINUOUS
 62
    4
 10
92.166666666666458
 20
57.035753321824245
 11
92.166666666666458
 21
57.289246678175687
  0
LINE
  8
_1-8_小物
  6
CONTINUOUS
 62
    4
 10
92.166666666666458
 20
56.565753321824246
 11
92.166666666666458
 21
56.819246678175716
  0
LINE
  8
_1-8_小物
  6
CONTINUOUS
 62
    4
 10
92.166666666666458
 20
55.400000000000006
 11
92.166666666666458
 21
55.879246678175718
  0
LINE
  8
_1-8_小物
  6
CONTINUOUS
 62
    4
 10
92.166666666666458
 20
56.095753321824304
 11
92.166666666666458
 21
56.349246678175689
  0
LINE
  8
_1-8_小物
  6
CONTINUOUS
 62
    4
 10
91.166666666666686
 20
55.400000000000006
 11
91.166666666666686
 21
55.644246678175762
  0
LINE
  8
_1-8_小物
  6
CONTINUOUS
 62
    4
 10
91.166666666666686
 20
55.860753321824319
 11
91.166666666666686
 21
56.114246678175732
  0
LINE
  8
_1-8_小物
  6
CONTINUOUS
 62
    4
 10
91.166666666666686
 20
56.330753321824261
 11
91.166666666666686
 21
56.584246678175759
  0
LINE
  8
_1-8_小物
  6
CONTINUOUS
 62
    4
 10
91.166666666666686
 20
56.800753321824288
 11
91.166666666666686
 21
57.054246678175701
  0
LINE
  8
_1-8_小物
  6
CONTINUOUS
 62
    4
 10
91.166666666666686
 20
57.270753321824259
 11
91.166666666666686
 21
57.5242466781757
  0
LINE
  8
_1-8_小物
  6
CONTINUOUS
 62
    4
 10
91.166666666666686
 20
57.740753321824286
 11
91.166666666666686
 21
57.994246678175671
  0
LINE
  8
_1-8_小物
  6
CONTINUOUS
 62
    4
 10
91.166666666666686
 20
58.210753321824313
 11
91.166666666666686
 21
58.464246678175698
  0
LINE
  8
_1-8_小物
  6
CONTINUOUS
 62
    4
 10
91.099999999999966
 20
59.173333333333318
 11
91.099999999999966
 21
60.169999999999987
  0
LINE
  8
_1-8_小物
  6
CONTINUOUS
 62
    4
 10
92.233333333333064
 20
59.173333333333318
 11
91.099999999999966
 21
59.173333333333318
  0
LINE
  8
_1-8_小物
  6
CONTINUOUS
 62
    4
 10
92.233333333333064
 20
59.173333333333318
 11
92.233333333333064
 21
60.169999999999987
  0
LINE
  8
_1-8_小物
  6
CONTINUOUS
 62
    4
 10
92.233333333333064
 20
60.169999999999987
 11
91.666666666666572
 21
60.497165152540731
  0
LINE
  8
_1-8_小物
  6
CONTINUOUS
 62
    4
 10
91.099999999999966
 20
60.169999999999987
 11
91.666666666666572
 21
60.497165152540731
  0
LINE
  8
_1-8_小物
  6
CONTINUOUS
 62
    4
 10
91.666666666666572
 20
60.381695098702778
 11
91.199999999999875
 21
60.112264973081039
  0
LINE
  8
_1-8_小物
  6
CONTINUOUS
 62
    4
 10
91.199999999999875
 20
59.173333333333318
 11
91.199999999999875
 21
60.112264973081039
  0
LINE
  8
_1-8_小物
  6
CONTINUOUS
 62
    4
 10
91.666666666666572
 20
60.381695098702778
 11
91.453599884975404
 21
59.173333333333318
  0
LINE
  8
_1-8_小物
  6
CONTINUOUS
 62
    4
 10
91.166666666666686
 20
58.680753321824255
 11
91.166666666666686
 21
59.173333333333318
  0
LINE
  8
_1-8_小物
  6
CONTINUOUS
 62
    4
 10
91.666666666666572
 20
60.497165152540731
 11
91.666666666666572
 21
60.381695098702778
  0
LINE
  8
_1-8_小物
  6
CENTER2
 62
    4
 10
91.666666666666572
 20
54.5
 11
91.666666666666572
 21
60.830498485874045
  0
ENDBLK
  0
BLOCK
  2
-015-_9_
 70
   64
 10
0
 20
0
 30
0
  0
LINE
  8
_1-8_小物
  6
CONTINUOUS
 62
    4
 10
129.33333333333309
 20
54.833333333333314
 11
127.33333333333309
 21
54.833333333333314
  0
LINE
  8
_1-8_小物
  6
CONTINUOUS
 62
    4
 10
127.3333333333332
 20
54.833333333333314
 11
127.3333333333332
 21
54.900000000000006
  0
LINE
  8
_1-8_小物
  6
CONTINUOUS
 62
    4
 10
129.33333333333297
 20
54.900000000000006
 11
128.83333333333297
 21
55.400000000000006
  0
LINE
  8
_1-8_小物
  6
CONTINUOUS
 62
    4
 10
128.83333333333297
 20
55.400000000000006
 11
127.8333333333332
 21
55.400000000000006
  0
LINE
  8
_1-8_小物
  6
CONTINUOUS
 62
    4
 10
127.3333333333332
 20
54.900000000000006
 11
127.8333333333332
 21
55.400000000000006
  0
LINE
  8
_1-8_小物
  6
CONTINUOUS
 62
    4
 10
129.33333333333297
 20
54.900000000000006
 11
129.33333333333297
 21
54.833333333333314
  0
LINE
  8
_1-8_小物
  6
CONTINUOUS
 62
    4
 10
127.3333333333332
 20
54.900000000000006
 11
129.33333333333297
 21
54.900000000000006
  0
LINE
  8
_1-8_小物
  6
CONTINUOUS
 62
    4
 10
127.8333333333332
 20
58.464246678175698
 11
127.64583333333309
 21
58.572499999999991
  0
LINE
  8
_1-8_小物
  6
CONTINUOUS
 62
    4
 10
127.64583333333309
 20
58.572499999999991
 11
127.83333333333309
 21
58.680753321824227
  0
LINE
  8
_1-8_小物
  6
CONTINUOUS
 62
    4
 10
127.8333333333332
 20
58.464246678175698
 11
128.83333333333297
 21
58.699246678175655
  0
LINE
  8
_1-8_小物
  6
CONTINUOUS
 62
    4
 10
129.02083333333309
 20
58.807499999999948
 11
128.83333333333297
 21
58.699246678175655
  0
LINE
  8
_1-8_小物
  6
CONTINUOUS
 62
    4
 10
128.83333333333297
 20
58.915753321824241
 11
129.02083333333309
 21
58.807499999999948
  0
LINE
  8
_1-8_小物
  6
CONTINUOUS
 62
    4
 10
127.83333333333309
 20
58.680753321824227
 11
128.83333333333297
 21
58.915753321824241
  0
LINE
  8
_1-8_小物
  6
CONTINUOUS
 62
    4
 10
127.64583333333309
 20
58.572499999999991
 11
129.02083333333309
 21
58.807499999999948
  0
LINE
  8
_1-8_小物
  6
CONTINUOUS
 62
    4
 10
127.8333333333332
 20
57.994246678175671
 11
127.64583333333309
 21
58.102499999999964
  0
LINE
  8
_1-8_小物
  6
CONTINUOUS
 62
    4
 10
127.64583333333309
 20
58.102499999999964
 11
127.83333333333309
 21
58.210753321824228
  0
LINE
  8
_1-8_小物
  6
CONTINUOUS
 62
    4
 10
127.8333333333332
 20
57.994246678175671
 11
128.83333333333297
 21
58.229246678175656
  0
LINE
  8
_1-8_小物
  6
CONTINUOUS
 62
    4
 10
129.02083333333309
 20
58.33749999999992
 11
128.83333333333297
 21
58.229246678175656
  0
LINE
  8
_1-8_小物
  6
CONTINUOUS
 62
    4
 10
128.83333333333297
 20
58.445753321824213
 11
129.02083333333309
 21
58.33749999999992
  0
LINE
  8
_1-8_小物
  6
CONTINUOUS
 62
    4
 10
127.83333333333309
 20
58.210753321824228
 11
128.83333333333297
 21
58.445753321824213
  0
LINE
  8
_1-8_小物
  6
CONTINUOUS
 62
    4
 10
127.64583333333309
 20
58.102499999999964
 11
129.02083333333309
 21
58.33749999999992
  0
LINE
  8
_1-8_小物
  6
CONTINUOUS
 62
    4
 10
127.8333333333332
 20
57.5242466781757
 11
127.64583333333309
 21
57.632499999999993
  0
LINE
  8
_1-8_小物
  6
CONTINUOUS
 62
    4
 10
127.64583333333309
 20
57.632499999999993
 11
127.83333333333309
 21
57.740753321824286
  0
LINE
  8
_1-8_小物
  6
CONTINUOUS
 62
    4
 10
127.8333333333332
 20
57.5242466781757
 11
128.83333333333297
 21
57.759246678175714
  0
LINE
  8
_1-8_小物
  6
CONTINUOUS
 62
    4
 10
129.02083333333309
 20
57.86749999999995
 11
128.83333333333297
 21
57.759246678175714
  0
LINE
  8
_1-8_小物
  6
CONTINUOUS
 62
    4
 10
128.83333333333297
 20
57.975753321824243
 11
129.02083333333309
 21
57.86749999999995
  0
LINE
  8
_1-8_小物
  6
CONTINUOUS
 62
    4
 10
127.83333333333309
 20
57.740753321824286
 11
128.83333333333297
 21
57.975753321824243
  0
LINE
  8
_1-8_小物
  6
CONTINUOUS
 62
    4
 10
127.64583333333309
 20
57.632499999999993
 11
129.02083333333309
 21
57.86749999999995
  0
LINE
  8
_1-8_小物
  6
CONTINUOUS
 62
    4
 10
127.8333333333332
 20
57.054246678175701
 11
127.64583333333309
 21
57.162499999999966
  0
LINE
  8
_1-8_小物
  6
CONTINUOUS
 62
    4
 10
127.64583333333309
 20
57.162499999999966
 11
127.83333333333309
 21
57.270753321824259
  0
LINE
  8
_1-8_小物
  6
CONTINUOUS
 62
    4
 10
127.8333333333332
 20
57.054246678175701
 11
128.83333333333297
 21
57.289246678175687
  0
LINE
  8
_1-8_小物
  6
CONTINUOUS
 62
    4
 10
129.02083333333309
 20
57.397499999999951
 11
128.83333333333297
 21
57.289246678175687
  0
LINE
  8
_1-8_小物
  6
CONTINUOUS
 62
    4
 10
128.83333333333297
 20
57.505753321824216
 11
129.02083333333309
 21
57.397499999999951
  0
LINE
  8
_1-8_小物
  6
CONTINUOUS
 62
    4
 10
127.83333333333309
 20
57.270753321824259
 11
128.83333333333297
 21
57.505753321824216
  0
LINE
  8
_1-8_小物
  6
CONTINUOUS
 62
    4
 10
127.64583333333309
 20
57.162499999999966
 11
129.02083333333309
 21
57.397499999999951
  0
LINE
  8
_1-8_小物
  6
CONTINUOUS
 62
    4
 10
127.8333333333332
 20
56.584246678175759
 11
127.64583333333309
 21
56.692499999999995
  0
LINE
  8
_1-8_小物
  6
CONTINUOUS
 62
    4
 10
127.64583333333309
 20
56.692499999999995
 11
127.83333333333309
 21
56.800753321824288
  0
LINE
  8
_1-8_小物
  6
CONTINUOUS
 62
    4
 10
127.8333333333332
 20
56.584246678175759
 11
128.83333333333297
 21
56.819246678175716
  0
LINE
  8
_1-8_小物
  6
CONTINUOUS
 62
    4
 10
129.02083333333309
 20
56.927500000000009
 11
128.83333333333297
 21
56.819246678175716
  0
LINE
  8
_1-8_小物
  6
CONTINUOUS
 62
    4
 10
128.83333333333297
 20
57.035753321824245
 11
129.02083333333309
 21
56.927500000000009
  0
LINE
  8
_1-8_小物
  6
CONTINUOUS
 62
    4
 10
127.83333333333309
 20
56.800753321824288
 11
128.83333333333297
 21
57.035753321824245
  0
LINE
  8
_1-8_小物
  6
CONTINUOUS
 62
    4
 10
127.64583333333309
 20
56.692499999999995
 11
129.02083333333309
 21
56.927500000000009
  0
LINE
  8
_1-8_小物
  6
CONTINUOUS
 62
    4
 10
127.8333333333332
 20
56.114246678175732
 11
127.64583333333309
 21
56.222499999999997
  0
LINE
  8
_1-8_小物
  6
CONTINUOUS
 62
    4
 10
127.64583333333309
 20
56.222499999999997
 11
127.83333333333309
 21
56.330753321824261
  0
LINE
  8
_1-8_小物
  6
CONTINUOUS
 62
    4
 10
127.8333333333332
 20
56.114246678175732
 11
128.83333333333297
 21
56.349246678175689
  0
LINE
  8
_1-8_小物
  6
CONTINUOUS
 62
    4
 10
129.02083333333309
 20
56.457499999999982
 11
128.83333333333297
 21
56.349246678175689
  0
LINE
  8
_1-8_小物
  6
CONTINUOUS
 62
    4
 10
128.83333333333297
 20
56.565753321824246
 11
129.02083333333309
 21
56.457499999999982
  0
LINE
  8
_1-8_小物
  6
CONTINUOUS
 62
    4
 10
127.83333333333309
 20
56.330753321824261
 11
128.83333333333297
 21
56.565753321824246
  0
LINE
  8
_1-8_小物
  6
CONTINUOUS
 62
    4
 10
127.64583333333309
 20
56.222499999999997
 11
129.02083333333309
 21
56.457499999999982
  0
LINE
  8
_1-8_小物
  6
CONTINUOUS
 62
    4
 10
127.8333333333332
 20
55.644246678175762
 11
127.64583333333309
 21
55.752500000000055
  0
LINE
  8
_1-8_小物
  6
CONTINUOUS
 62
    4
 10
127.64583333333309
 20
55.752500000000055
 11
127.83333333333309
 21
55.860753321824291
  0
LINE
  8
_1-8_小物
  6
CONTINUOUS
 62
    4
 10
127.8333333333332
 20
55.644246678175762
 11
128.83333333333297
 21
55.879246678175718
  0
LINE
  8
_1-8_小物
  6
CONTINUOUS
 62
    4
 10
129.02083333333309
 20
55.987500000000011
 11
128.83333333333297
 21
55.879246678175718
  0
LINE
  8
_1-8_小物
  6
CONTINUOUS
 62
    4
 10
128.83333333333297
 20
56.095753321824304
 11
129.02083333333309
 21
55.987500000000011
  0
LINE
  8
_1-8_小物
  6
CONTINUOUS
 62
    4
 10
127.83333333333309
 20
55.860753321824291
 11
128.83333333333297
 21
56.095753321824304
  0
LINE
  8
_1-8_小物
  6
CONTINUOUS
 62
    4
 10
127.64583333333309
 20
55.752500000000055
 11
129.02083333333309
 21
55.987500000000011
  0
LINE
  8
_1-8_小物
  6
CONTINUOUS
 62
    4
 10
128.83333333333297
 20
58.915753321824241
 11
128.83333333333297
 21
59.169246678175625
  0
LINE
  8
_1-8_小物
  6
CONTINUOUS
 62
    4
 10
128.83333333333297
 20
58.445753321824213
 11
128.83333333333297
 21
58.699246678175655
  0
LINE
  8
_1-8_小物
  6
CONTINUOUS
 62
    4
 10
128.83333333333297
 20
57.975753321824243
 11
128.83333333333297
 21
58.229246678175627
  0
LINE
  8
_1-8_小物
  6
CONTINUOUS
 62
    4
 10
128.83333333333297
 20
57.505753321824216
 11
128.83333333333297
 21
57.759246678175714
  0
LINE
  8
_1-8_小物
  6
CONTINUOUS
 62
    4
 10
128.83333333333297
 20
57.035753321824245
 11
128.83333333333297
 21
57.289246678175687
  0
LINE
  8
_1-8_小物
  6
CONTINUOUS
 62
    4
 10
128.83333333333297
 20
56.565753321824246
 11
128.83333333333297
 21
56.819246678175716
  0
LINE
  8
_1-8_小物
  6
CONTINUOUS
 62
    4
 10
128.83333333333297
 20
55.400000000000006
 11
128.83333333333297
 21
55.879246678175718
  0
LINE
  8
_1-8_小物
  6
CONTINUOUS
 62
    4
 10
128.83333333333297
 20
56.095753321824304
 11
128.83333333333297
 21
56.349246678175689
  0
LINE
  8
_1-8_小物
  6
CONTINUOUS
 62
    4
 10
127.8333333333332
 20
55.400000000000006
 11
127.8333333333332
 21
55.644246678175762
  0
LINE
  8
_1-8_小物
  6
CONTINUOUS
 62
    4
 10
127.8333333333332
 20
55.860753321824319
 11
127.8333333333332
 21
56.114246678175732
  0
LINE
  8
_1-8_小物
  6
CONTINUOUS
 62
    4
 10
127.8333333333332
 20
56.330753321824261
 11
127.8333333333332
 21
56.584246678175759
  0
LINE
  8
_1-8_小物
  6
CONTINUOUS
 62
    4
 10
127.8333333333332
 20
56.800753321824288
 11
127.8333333333332
 21
57.054246678175701
  0
LINE
  8
_1-8_小物
  6
CONTINUOUS
 62
    4
 10
127.8333333333332
 20
57.270753321824259
 11
127.8333333333332
 21
57.5242466781757
  0
LINE
  8
_1-8_小物
  6
CONTINUOUS
 62
    4
 10
127.8333333333332
 20
57.740753321824286
 11
127.8333333333332
 21
57.994246678175671
  0
LINE
  8
_1-8_小物
  6
CONTINUOUS
 62
    4
 10
127.8333333333332
 20
58.210753321824313
 11
127.8333333333332
 21
58.464246678175698
  0
LINE
  8
_1-8_小物
  6
CONTINUOUS
 62
    4
 10
127.76666666666648
 20
59.173333333333318
 11
127.76666666666648
 21
60.169999999999987
  0
LINE
  8
_1-8_小物
  6
CONTINUOUS
 62
    4
 10
128.89999999999958
 20
59.173333333333318
 11
127.76666666666648
 21
59.173333333333318
  0
LINE
  8
_1-8_小物
  6
CONTINUOUS
 62
    4
 10
128.89999999999958
 20
59.173333333333318
 11
128.89999999999958
 21
60.169999999999987
  0
LINE
  8
_1-8_小物
  6
CONTINUOUS
 62
    4
 10
128.89999999999958
 20
60.169999999999987
 11
128.33333333333309
 21
60.497165152540731
  0
LINE
  8
_1-8_小物
  6
CONTINUOUS
 62
    4
 10
127.76666666666648
 20
60.169999999999987
 11
128.33333333333309
 21
60.497165152540731
  0
LINE
  8
_1-8_小物
  6
CONTINUOUS
 62
    4
 10
128.33333333333309
 20
60.381695098702778
 11
127.86666666666639
 21
60.112264973081039
  0
LINE
  8
_1-8_小物
  6
CONTINUOUS
 62
    4
 10
127.86666666666639
 20
59.173333333333318
 11
127.86666666666639
 21
60.112264973081039
  0
LINE
  8
_1-8_小物
  6
CONTINUOUS
 62
    4
 10
128.33333333333309
 20
60.381695098702778
 11
128.12026655164192
 21
59.173333333333318
  0
LINE
  8
_1-8_小物
  6
CONTINUOUS
 62
    4
 10
127.8333333333332
 20
58.680753321824255
 11
127.8333333333332
 21
59.173333333333318
  0
LINE
  8
_1-8_小物
  6
CONTINUOUS
 62
    4
 10
128.33333333333309
 20
60.497165152540731
 11
128.33333333333309
 21
60.381695098702778
  0
LINE
  8
_1-8_小物
  6
CENTER2
 62
    4
 10
128.33333333333309
 20
54.5
 11
128.33333333333309
 21
60.830498485874045
  0
ENDBLK
  0
BLOCK
  2
-016-_10_
 70
   64
 10
0
 20
0
 30
0
  0
LINE
  8
_1-8_小物
  6
CONTINUOUS
 62
    4
 10
-127.33333333333331
 20
54.833333333333286
 11
-129.33333333333331
 21
54.833333333333286
  0
LINE
  8
_1-8_小物
  6
CONTINUOUS
 62
    4
 10
-129.3333333333332
 20
54.833333333333286
 11
-129.3333333333332
 21
54.899999999999977
  0
LINE
  8
_1-8_小物
  6
CONTINUOUS
 62
    4
 10
-127.33333333333343
 20
54.899999999999977
 11
-127.83333333333343
 21
55.399999999999977
  0
LINE
  8
_1-8_小物
  6
CONTINUOUS
 62
    4
 10
-127.83333333333343
 20
55.399999999999977
 11
-128.8333333333332
 21
55.399999999999977
  0
LINE
  8
_1-8_小物
  6
CONTINUOUS
 62
    4
 10
-129.3333333333332
 20
54.899999999999977
 11
-128.8333333333332
 21
55.399999999999977
  0
LINE
  8
_1-8_小物
  6
CONTINUOUS
 62
    4
 10
-127.33333333333343
 20
54.899999999999977
 11
-127.33333333333343
 21
54.833333333333286
  0
LINE
  8
_1-8_小物
  6
CONTINUOUS
 62
    4
 10
-129.3333333333332
 20
54.899999999999977
 11
-127.33333333333343
 21
54.899999999999977
  0
LINE
  8
_1-8_小物
  6
CONTINUOUS
 62
    4
 10
-128.8333333333332
 20
58.46424667817567
 11
-129.02083333333331
 21
58.572499999999934
  0
LINE
  8
_1-8_小物
  6
CONTINUOUS
 62
    4
 10
-129.02083333333331
 20
58.572499999999934
 11
-128.83333333333326
 21
58.68075332182417
  0
LINE
  8
_1-8_小物
  6
CONTINUOUS
 62
    4
 10
-128.8333333333332
 20
58.46424667817567
 11
-127.83333333333337
 21
58.699246678175598
  0
LINE
  8
_1-8_小物
  6
CONTINUOUS
 62
    4
 10
-127.64583333333331
 20
58.807499999999919
 11
-127.83333333333337
 21
58.699246678175598
  0
LINE
  8
_1-8_小物
  6
CONTINUOUS
 62
    4
 10
-127.83333333333339
 20
58.915753321824184
 11
-127.64583333333331
 21
58.807499999999919
  0
LINE
  8
_1-8_小物
  6
CONTINUOUS
 62
    4
 10
-128.83333333333326
 20
58.68075332182417
 11
-127.83333333333339
 21
58.915753321824184
  0
LINE
  8
_1-8_小物
  6
CONTINUOUS
 62
    4
 10
-129.02083333333331
 20
58.572499999999934
 11
-127.64583333333331
 21
58.807499999999919
  0
LINE
  8
_1-8_小物
  6
CONTINUOUS
 62
    4
 10
-128.8333333333332
 20
57.994246678175642
 11
-129.02083333333331
 21
58.102499999999907
  0
LINE
  8
_1-8_小物
  6
CONTINUOUS
 62
    4
 10
-129.02083333333331
 20
58.102499999999907
 11
-128.83333333333326
 21
58.2107533218242
  0
LINE
  8
_1-8_小物
  6
CONTINUOUS
 62
    4
 10
-128.8333333333332
 20
57.994246678175642
 11
-127.83333333333337
 21
58.229246678175627
  0
LINE
  8
_1-8_小物
  6
CONTINUOUS
 62
    4
 10
-127.64583333333331
 20
58.337499999999892
 11
-127.83333333333337
 21
58.229246678175627
  0
LINE
  8
_1-8_小物
  6
CONTINUOUS
 62
    4
 10
-127.83333333333339
 20
58.445753321824157
 11
-127.64583333333331
 21
58.337499999999892
  0
LINE
  8
_1-8_小物
  6
CONTINUOUS
 62
    4
 10
-128.83333333333326
 20
58.2107533218242
 11
-127.83333333333339
 21
58.445753321824157
  0
LINE
  8
_1-8_小物
  6
CONTINUOUS
 62
    4
 10
-129.02083333333331
 20
58.102499999999907
 11
-127.64583333333331
 21
58.337499999999892
  0
LINE
  8
_1-8_小物
  6
CONTINUOUS
 62
    4
 10
-128.8333333333332
 20
57.524246678175643
 11
-129.02083333333331
 21
57.632499999999965
  0
LINE
  8
_1-8_小物
  6
CONTINUOUS
 62
    4
 10
-129.02083333333331
 20
57.632499999999965
 11
-128.83333333333326
 21
57.740753321824229
  0
LINE
  8
_1-8_小物
  6
CONTINUOUS
 62
    4
 10
-128.8333333333332
 20
57.524246678175643
 11
-127.83333333333337
 21
57.759246678175657
  0
LINE
  8
_1-8_小物
  6
CONTINUOUS
 62
    4
 10
-127.64583333333331
 20
57.867499999999893
 11
-127.83333333333337
 21
57.759246678175657
  0
LINE
  8
_1-8_小物
  6
CONTINUOUS
 62
    4
 10
-127.83333333333339
 20
57.975753321824214
 11
-127.64583333333331
 21
57.867499999999893
  0
LINE
  8
_1-8_小物
  6
CONTINUOUS
 62
    4
 10
-128.83333333333326
 20
57.740753321824229
 11
-127.83333333333339
 21
57.975753321824214
  0
LINE
  8
_1-8_小物
  6
CONTINUOUS
 62
    4
 10
-129.02083333333331
 20
57.632499999999965
 11
-127.64583333333331
 21
57.867499999999893
  0
LINE
  8
_1-8_小物
  6
CONTINUOUS
 62
    4
 10
-128.8333333333332
 20
57.054246678175673
 11
-129.02083333333331
 21
57.162499999999937
  0
LINE
  8
_1-8_小物
  6
CONTINUOUS
 62
    4
 10
-129.02083333333331
 20
57.162499999999937
 11
-128.83333333333326
 21
57.270753321824202
  0
LINE
  8
_1-8_小物
  6
CONTINUOUS
 62
    4
 10
-128.8333333333332
 20
57.054246678175673
 11
-127.83333333333337
 21
57.28924667817563
  0
LINE
  8
_1-8_小物
  6
CONTINUOUS
 62
    4
 10
-127.64583333333331
 20
57.397499999999923
 11
-127.83333333333337
 21
57.28924667817563
  0
LINE
  8
_1-8_小物
  6
CONTINUOUS
 62
    4
 10
-127.83333333333339
 20
57.505753321824187
 11
-127.64583333333331
 21
57.397499999999923
  0
LINE
  8
_1-8_小物
  6
CONTINUOUS
 62
    4
 10
-128.83333333333326
 20
57.270753321824202
 11
-127.83333333333339
 21
57.505753321824187
  0
LINE
  8
_1-8_小物
  6
CONTINUOUS
 62
    4
 10
-129.02083333333331
 20
57.162499999999937
 11
-127.64583333333331
 21
57.397499999999923
  0
LINE
  8
_1-8_小物
  6
CONTINUOUS
 62
    4
 10
-128.8333333333332
 20
56.584246678175703
 11
-129.02083333333331
 21
56.692499999999939
  0
LINE
  8
_1-8_小物
  6
CONTINUOUS
 62
    4
 10
-129.02083333333331
 20
56.692499999999939
 11
-128.83333333333326
 21
56.80075332182426
  0
LINE
  8
_1-8_小物
  6
CONTINUOUS
 62
    4
 10
-128.8333333333332
 20
56.584246678175703
 11
-127.83333333333337
 21
56.819246678175688
  0
LINE
  8
_1-8_小物
  6
CONTINUOUS
 62
    4
 10
-127.64583333333331
 20
56.927499999999952
 11
-127.83333333333337
 21
56.819246678175688
  0
LINE
  8
_1-8_小物
  6
CONTINUOUS
 62
    4
 10
-127.83333333333339
 20
57.035753321824188
 11
-127.64583333333331
 21
56.927499999999952
  0
LINE
  8
_1-8_小物
  6
CONTINUOUS
 62
    4
 10
-128.83333333333326
 20
56.80075332182426
 11
-127.83333333333339
 21
57.035753321824188
  0
LINE
  8
_1-8_小物
  6
CONTINUOUS
 62
    4
 10
-129.02083333333331
 20
56.692499999999939
 11
-127.64583333333331
 21
56.927499999999952
  0
LINE
  8
_1-8_小物
  6
CONTINUOUS
 62
    4
 10
-128.8333333333332
 20
56.114246678175675
 11
-129.02083333333331
 21
56.222499999999968
  0
LINE
  8
_1-8_小物
  6
CONTINUOUS
 62
    4
 10
-129.02083333333331
 20
56.222499999999968
 11
-128.83333333333326
 21
56.330753321824233
  0
LINE
  8
_1-8_小物
  6
CONTINUOUS
 62
    4
 10
-128.8333333333332
 20
56.114246678175675
 11
-127.83333333333337
 21
56.34924667817566
  0
LINE
  8
_1-8_小物
  6
CONTINUOUS
 62
    4
 10
-127.64583333333331
 20
56.457499999999925
 11
-127.83333333333337
 21
56.34924667817566
  0
LINE
  8
_1-8_小物
  6
CONTINUOUS
 62
    4
 10
-127.83333333333339
 20
56.565753321824218
 11
-127.64583333333331
 21
56.457499999999925
  0
LINE
  8
_1-8_小物
  6
CONTINUOUS
 62
    4
 10
-128.83333333333326
 20
56.330753321824233
 11
-127.83333333333339
 21
56.565753321824218
  0
LINE
  8
_1-8_小物
  6
CONTINUOUS
 62
    4
 10
-129.02083333333331
 20
56.222499999999968
 11
-127.64583333333331
 21
56.457499999999925
  0
LINE
  8
_1-8_小物
  6
CONTINUOUS
 62
    4
 10
-128.8333333333332
 20
55.644246678175733
 11
-129.02083333333331
 21
55.752499999999998
  0
LINE
  8
_1-8_小物
  6
CONTINUOUS
 62
    4
 10
-129.02083333333331
 20
55.752499999999998
 11
-128.83333333333326
 21
55.860753321824234
  0
LINE
  8
_1-8_小物
  6
CONTINUOUS
 62
    4
 10
-128.8333333333332
 20
55.644246678175733
 11
-127.83333333333337
 21
55.879246678175662
  0
LINE
  8
_1-8_小物
  6
CONTINUOUS
 62
    4
 10
-127.64583333333331
 20
55.987499999999983
 11
-127.83333333333337
 21
55.879246678175662
  0
LINE
  8
_1-8_小物
  6
CONTINUOUS
 62
    4
 10
-127.83333333333339
 20
56.095753321824247
 11
-127.64583333333331
 21
55.987499999999983
  0
LINE
  8
_1-8_小物
  6
CONTINUOUS
 62
    4
 10
-128.83333333333326
 20
55.860753321824234
 11
-127.83333333333339
 21
56.095753321824247
  0
LINE
  8
_1-8_小物
  6
CONTINUOUS
 62
    4
 10
-129.02083333333331
 20
55.752499999999998
 11
-127.64583333333331
 21
55.987499999999983
  0
LINE
  8
_1-8_小物
  6
CONTINUOUS
 62
    4
 10
-127.83333333333343
 20
58.915753321824184
 11
-127.83333333333343
 21
59.169246678175597
  0
LINE
  8
_1-8_小物
  6
CONTINUOUS
 62
    4
 10
-127.83333333333343
 20
58.445753321824157
 11
-127.83333333333343
 21
58.699246678175598
  0
LINE
  8
_1-8_小物
  6
CONTINUOUS
 62
    4
 10
-127.83333333333343
 20
57.975753321824214
 11
-127.83333333333343
 21
58.229246678175571
  0
LINE
  8
_1-8_小物
  6
CONTINUOUS
 62
    4
 10
-127.83333333333343
 20
57.505753321824187
 11
-127.83333333333343
 21
57.759246678175657
  0
LINE
  8
_1-8_小物
  6
CONTINUOUS
 62
    4
 10
-127.83333333333343
 20
57.035753321824188
 11
-127.83333333333343
 21
57.28924667817563
  0
LINE
  8
_1-8_小物
  6
CONTINUOUS
 62
    4
 10
-127.83333333333343
 20
56.565753321824218
 11
-127.83333333333343
 21
56.819246678175688
  0
LINE
  8
_1-8_小物
  6
CONTINUOUS
 62
    4
 10
-127.83333333333343
 20
55.399999999999977
 11
-127.83333333333343
 21
55.879246678175662
  0
LINE
  8
_1-8_小物
  6
CONTINUOUS
 62
    4
 10
-127.83333333333343
 20
56.095753321824247
 11
-127.83333333333343
 21
56.34924667817566
  0
LINE
  8
_1-8_小物
  6
CONTINUOUS
 62
    4
 10
-128.8333333333332
 20
55.399999999999977
 11
-128.8333333333332
 21
55.644246678175733
  0
LINE
  8
_1-8_小物
  6
CONTINUOUS
 62
    4
 10
-128.8333333333332
 20
55.860753321824291
 11
-128.8333333333332
 21
56.114246678175675
  0
LINE
  8
_1-8_小物
  6
CONTINUOUS
 62
    4
 10
-128.8333333333332
 20
56.330753321824233
 11
-128.8333333333332
 21
56.584246678175703
  0
LINE
  8
_1-8_小物
  6
CONTINUOUS
 62
    4
 10
-128.8333333333332
 20
56.80075332182426
 11
-128.8333333333332
 21
57.054246678175673
  0
LINE
  8
_1-8_小物
  6
CONTINUOUS
 62
    4
 10
-128.8333333333332
 20
57.270753321824202
 11
-128.8333333333332
 21
57.524246678175643
  0
LINE
  8
_1-8_小物
  6
CONTINUOUS
 62
    4
 10
-128.8333333333332
 20
57.740753321824229
 11
-128.8333333333332
 21
57.994246678175642
  0
LINE
  8
_1-8_小物
  6
CONTINUOUS
 62
    4
 10
-128.8333333333332
 20
58.210753321824257
 11
-128.8333333333332
 21
58.46424667817567
  0
LINE
  8
_1-8_小物
  6
CONTINUOUS
 62
    4
 10
-128.89999999999986
 20
59.173333333333289
 11
-128.89999999999986
 21
60.169999999999959
  0
LINE
  8
_1-8_小物
  6
CONTINUOUS
 62
    4
 10
-127.76666666666677
 20
59.173333333333289
 11
-128.89999999999986
 21
59.173333333333289
  0
LINE
  8
_1-8_小物
  6
CONTINUOUS
 62
    4
 10
-127.76666666666677
 20
59.173333333333289
 11
-127.76666666666677
 21
60.169999999999959
  0
LINE
  8
_1-8_小物
  6
CONTINUOUS
 62
    4
 10
-127.76666666666677
 20
60.169999999999959
 11
-128.33333333333331
 21
60.497165152540703
  0
LINE
  8
_1-8_小物
  6
CONTINUOUS
 62
    4
 10
-128.89999999999986
 20
60.169999999999959
 11
-128.33333333333331
 21
60.497165152540703
  0
LINE
  8
_1-8_小物
  6
CONTINUOUS
 62
    4
 10
-128.33333333333331
 20
60.38169509870275
 11
-128.79999999999995
 21
60.112264973081011
  0
LINE
  8
_1-8_小物
  6
CONTINUOUS
 62
    4
 10
-128.79999999999995
 20
59.173333333333289
 11
-128.79999999999995
 21
60.112264973081011
  0
LINE
  8
_1-8_小物
  6
CONTINUOUS
 62
    4
 10
-128.33333333333331
 20
60.38169509870275
 11
-128.54640011502443
 21
59.173333333333289
  0
LINE
  8
_1-8_小物
  6
CONTINUOUS
 62
    4
 10
-128.8333333333332
 20
58.680753321824227
 11
-128.8333333333332
 21
59.173333333333289
  0
LINE
  8
_1-8_小物
  6
CONTINUOUS
 62
    4
 10
-128.33333333333331
 20
60.497165152540703
 11
-128.33333333333331
 21
60.38169509870275
  0
LINE
  8
_1-8_小物
  6
CENTER2
 62
    4
 10
-128.33333333333331
 20
54.499999999999943
 11
-128.33333333333331
 21
60.830498485873989
  0
ENDBLK
  0
BLOCK
  2
-017-_11_
 70
   64
 10
0
 20
0
 30
0
  0
LINE
  8
_1-8_小物
  6
CONTINUOUS
 62
    4
 10
-70.666666666666742
 20
54.833333333333258
 11
-72.666666666666742
 21
54.833333333333258
  0
LINE
  8
_1-8_小物
  6
CONTINUOUS
 62
    4
 10
-72.666666666666629
 20
54.833333333333258
 11
-72.666666666666629
 21
54.89999999999992
  0
LINE
  8
_1-8_小物
  6
CONTINUOUS
 62
    4
 10
-70.666666666666856
 20
54.89999999999992
 11
-71.166666666666856
 21
55.39999999999992
  0
LINE
  8
_1-8_小物
  6
CONTINUOUS
 62
    4
 10
-71.166666666666856
 20
55.39999999999992
 11
-72.166666666666629
 21
55.39999999999992
  0
LINE
  8
_1-8_小物
  6
CONTINUOUS
 62
    4
 10
-72.666666666666629
 20
54.89999999999992
 11
-72.166666666666629
 21
55.39999999999992
  0
LINE
  8
_1-8_小物
  6
CONTINUOUS
 62
    4
 10
-70.666666666666856
 20
54.89999999999992
 11
-70.666666666666856
 21
54.833333333333258
  0
LINE
  8
_1-8_小物
  6
CONTINUOUS
 62
    4
 10
-72.666666666666629
 20
54.89999999999992
 11
-70.666666666666856
 21
54.89999999999992
  0
LINE
  8
_1-8_小物
  6
CONTINUOUS
 62
    4
 10
-72.166666666666629
 20
58.464246678175641
 11
-72.354166666666742
 21
58.572499999999906
  0
LINE
  8
_1-8_小物
  6
CONTINUOUS
 62
    4
 10
-72.354166666666742
 20
58.572499999999906
 11
-72.166666666666686
 21
58.680753321824142
  0
LINE
  8
_1-8_小物
  6
CONTINUOUS
 62
    4
 10
-72.166666666666629
 20
58.464246678175641
 11
-71.166666666666799
 21
58.69924667817557
  0
LINE
  8
_1-8_小物
  6
CONTINUOUS
 62
    4
 10
-70.979166666666742
 20
58.807499999999891
 11
-71.166666666666799
 21
58.69924667817557
  0
LINE
  8
_1-8_小物
  6
CONTINUOUS
 62
    4
 10
-71.166666666666799
 20
58.915753321824155
 11
-70.979166666666742
 21
58.807499999999891
  0
LINE
  8
_1-8_小物
  6
CONTINUOUS
 62
    4
 10
-72.166666666666686
 20
58.680753321824142
 11
-71.166666666666799
 21
58.915753321824155
  0
LINE
  8
_1-8_小物
  6
CONTINUOUS
 62
    4
 10
-72.354166666666742
 20
58.572499999999906
 11
-70.979166666666742
 21
58.807499999999891
  0
LINE
  8
_1-8_小物
  6
CONTINUOUS
 62
    4
 10
-72.166666666666629
 20
57.994246678175614
 11
-72.354166666666742
 21
58.102499999999878
  0
LINE
  8
_1-8_小物
  6
CONTINUOUS
 62
    4
 10
-72.354166666666742
 20
58.102499999999878
 11
-72.166666666666686
 21
58.210753321824143
  0
LINE
  8
_1-8_小物
  6
CONTINUOUS
 62
    4
 10
-72.166666666666629
 20
57.994246678175614
 11
-71.166666666666799
 21
58.229246678175571
  0
LINE
  8
_1-8_小物
  6
CONTINUOUS
 62
    4
 10
-70.979166666666742
 20
58.337499999999864
 11
-71.166666666666799
 21
58.229246678175571
  0
LINE
  8
_1-8_小物
  6
CONTINUOUS
 62
    4
 10
-71.166666666666799
 20
58.445753321824128
 11
-70.979166666666742
 21
58.337499999999864
  0
LINE
  8
_1-8_小物
  6
CONTINUOUS
 62
    4
 10
-72.166666666666686
 20
58.210753321824143
 11
-71.166666666666799
 21
58.445753321824128
  0
LINE
  8
_1-8_小物
  6
CONTINUOUS
 62
    4
 10
-72.354166666666742
 20
58.102499999999878
 11
-70.979166666666742
 21
58.337499999999864
  0
LINE
  8
_1-8_小物
  6
CONTINUOUS
 62
    4
 10
-72.166666666666629
 20
57.524246678175615
 11
-72.354166666666742
 21
57.632499999999936
  0
LINE
  8
_1-8_小物
  6
CONTINUOUS
 62
    4
 10
-72.354166666666742
 20
57.632499999999936
 11
-72.166666666666686
 21
57.740753321824201
  0
LINE
  8
_1-8_小物
  6
CONTINUOUS
 62
    4
 10
-72.166666666666629
 20
57.524246678175615
 11
-71.166666666666799
 21
57.759246678175629
  0
LINE
  8
_1-8_小物
  6
CONTINUOUS
 62
    4
 10
-70.979166666666742
 20
57.867499999999865
 11
-71.166666666666799
 21
57.759246678175629
  0
LINE
  8
_1-8_小物
  6
CONTINUOUS
 62
    4
 10
-71.166666666666799
 20
57.975753321824186
 11
-70.979166666666742
 21
57.867499999999865
  0
LINE
  8
_1-8_小物
  6
CONTINUOUS
 62
    4
 10
-72.166666666666686
 20
57.740753321824201
 11
-71.166666666666799
 21
57.975753321824186
  0
LINE
  8
_1-8_小物
  6
CONTINUOUS
 62
    4
 10
-72.354166666666742
 20
57.632499999999936
 11
-70.979166666666742
 21
57.867499999999865
  0
LINE
  8
_1-8_小物
  6
CONTINUOUS
 62
    4
 10
-72.166666666666629
 20
57.054246678175616
 11
-72.354166666666742
 21
57.162499999999909
  0
LINE
  8
_1-8_小物
  6
CONTINUOUS
 62
    4
 10
-72.354166666666742
 20
57.162499999999909
 11
-72.166666666666686
 21
57.270753321824174
  0
LINE
  8
_1-8_小物
  6
CONTINUOUS
 62
    4
 10
-72.166666666666629
 20
57.054246678175616
 11
-71.166666666666799
 21
57.289246678175601
  0
LINE
  8
_1-8_小物
  6
CONTINUOUS
 62
    4
 10
-70.979166666666742
 20
57.397499999999866
 11
-71.166666666666799
 21
57.289246678175601
  0
LINE
  8
_1-8_小物
  6
CONTINUOUS
 62
    4
 10
-71.166666666666799
 20
57.505753321824159
 11
-70.979166666666742
 21
57.397499999999866
  0
LINE
  8
_1-8_小物
  6
CONTINUOUS
 62
    4
 10
-72.166666666666686
 20
57.270753321824174
 11
-71.166666666666799
 21
57.505753321824159
  0
LINE
  8
_1-8_小物
  6
CONTINUOUS
 62
    4
 10
-72.354166666666742
 20
57.162499999999909
 11
-70.979166666666742
 21
57.397499999999866
  0
LINE
  8
_1-8_小物
  6
CONTINUOUS
 62
    4
 10
-72.166666666666629
 20
56.584246678175674
 11
-72.354166666666742
 21
56.69249999999991
  0
LINE
  8
_1-8_小物
  6
CONTINUOUS
 62
    4
 10
-72.354166666666742
 20
56.69249999999991
 11
-72.166666666666686
 21
56.800753321824232
  0
LINE
  8
_1-8_小物
  6
CONTINUOUS
 62
    4
 10
-72.166666666666629
 20
56.584246678175674
 11
-71.166666666666799
 21
56.819246678175659
  0
LINE
  8
_1-8_小物
  6
CONTINUOUS
 62
    4
 10
-70.979166666666742
 20
56.927499999999924
 11
-71.166666666666799
 21
56.819246678175659
  0
LINE
  8
_1-8_小物
  6
CONTINUOUS
 62
    4
 10
-71.166666666666799
 20
57.03575332182416
 11
-70.979166666666742
 21
56.927499999999924
  0
LINE
  8
_1-8_小物
  6
CONTINUOUS
 62
    4
 10
-72.166666666666686
 20
56.800753321824232
 11
-71.166666666666799
 21
57.03575332182416
  0
LINE
  8
_1-8_小物
  6
CONTINUOUS
 62
    4
 10
-72.354166666666742
 20
56.69249999999991
 11
-70.979166666666742
 21
56.927499999999924
  0
LINE
  8
_1-8_小物
  6
CONTINUOUS
 62
    4
 10
-72.166666666666629
 20
56.114246678175647
 11
-72.354166666666742
 21
56.222499999999911
  0
LINE
  8
_1-8_小物
  6
CONTINUOUS
 62
    4
 10
-72.354166666666742
 20
56.222499999999911
 11
-72.166666666666686
 21
56.330753321824204
  0
LINE
  8
_1-8_小物
  6
CONTINUOUS
 62
    4
 10
-72.166666666666629
 20
56.114246678175647
 11
-71.166666666666799
 21
56.349246678175632
  0
LINE
  8
_1-8_小物
  6
CONTINUOUS
 62
    4
 10
-70.979166666666742
 20
56.457499999999897
 11
-71.166666666666799
 21
56.349246678175632
  0
LINE
  8
_1-8_小物
  6
CONTINUOUS
 62
    4
 10
-71.166666666666799
 20
56.565753321824161
 11
-70.979166666666742
 21
56.457499999999897
  0
LINE
  8
_1-8_小物
  6
CONTINUOUS
 62
    4
 10
-72.166666666666686
 20
56.330753321824204
 11
-71.166666666666799
 21
56.565753321824161
  0
LINE
  8
_1-8_小物
  6
CONTINUOUS
 62
    4
 10
-72.354166666666742
 20
56.222499999999911
 11
-70.979166666666742
 21
56.457499999999897
  0
LINE
  8
_1-8_小物
  6
CONTINUOUS
 62
    4
 10
-72.166666666666629
 20
55.644246678175705
 11
-72.354166666666742
 21
55.752499999999969
  0
LINE
  8
_1-8_小物
  6
CONTINUOUS
 62
    4
 10
-72.354166666666742
 20
55.752499999999969
 11
-72.166666666666686
 21
55.860753321824205
  0
LINE
  8
_1-8_小物
  6
CONTINUOUS
 62
    4
 10
-72.166666666666629
 20
55.644246678175705
 11
-71.166666666666799
 21
55.879246678175633
  0
LINE
  8
_1-8_小物
  6
CONTINUOUS
 62
    4
 10
-70.979166666666742
 20
55.987499999999955
 11
-71.166666666666799
 21
55.879246678175633
  0
LINE
  8
_1-8_小物
  6
CONTINUOUS
 62
    4
 10
-71.166666666666799
 20
56.095753321824219
 11
-70.979166666666742
 21
55.987499999999955
  0
LINE
  8
_1-8_小物
  6
CONTINUOUS
 62
    4
 10
-72.166666666666686
 20
55.860753321824205
 11
-71.166666666666799
 21
56.095753321824219
  0
LINE
  8
_1-8_小物
  6
CONTINUOUS
 62
    4
 10
-72.354166666666742
 20
55.752499999999969
 11
-70.979166666666742
 21
55.987499999999955
  0
LINE
  8
_1-8_小物
  6
CONTINUOUS
 62
    4
 10
-71.166666666666856
 20
58.915753321824155
 11
-71.166666666666856
 21
59.169246678175568
  0
LINE
  8
_1-8_小物
  6
CONTINUOUS
 62
    4
 10
-71.166666666666856
 20
58.445753321824128
 11
-71.166666666666856
 21
58.69924667817557
  0
LINE
  8
_1-8_小物
  6
CONTINUOUS
 62
    4
 10
-71.166666666666856
 20
57.975753321824186
 11
-71.166666666666856
 21
58.229246678175542
  0
LINE
  8
_1-8_小物
  6
CONTINUOUS
 62
    4
 10
-71.166666666666856
 20
57.505753321824159
 11
-71.166666666666856
 21
57.759246678175629
  0
LINE
  8
_1-8_小物
  6
CONTINUOUS
 62
    4
 10
-71.166666666666856
 20
57.03575332182416
 11
-71.166666666666856
 21
57.289246678175601
  0
LINE
  8
_1-8_小物
  6
CONTINUOUS
 62
    4
 10
-71.166666666666856
 20
56.565753321824161
 11
-71.166666666666856
 21
56.819246678175659
  0
LINE
  8
_1-8_小物
  6
CONTINUOUS
 62
    4
 10
-71.166666666666856
 20
55.39999999999992
 11
-71.166666666666856
 21
55.879246678175633
  0
LINE
  8
_1-8_小物
  6
CONTINUOUS
 62
    4
 10
-71.166666666666856
 20
56.095753321824219
 11
-71.166666666666856
 21
56.349246678175632
  0
LINE
  8
_1-8_小物
  6
CONTINUOUS
 62
    4
 10
-72.166666666666629
 20
55.39999999999992
 11
-72.166666666666629
 21
55.644246678175705
  0
LINE
  8
_1-8_小物
  6
CONTINUOUS
 62
    4
 10
-72.166666666666629
 20
55.860753321824234
 11
-72.166666666666629
 21
56.114246678175647
  0
LINE
  8
_1-8_小物
  6
CONTINUOUS
 62
    4
 10
-72.166666666666629
 20
56.330753321824204
 11
-72.166666666666629
 21
56.584246678175674
  0
LINE
  8
_1-8_小物
  6
CONTINUOUS
 62
    4
 10
-72.166666666666629
 20
56.800753321824232
 11
-72.166666666666629
 21
57.054246678175616
  0
LINE
  8
_1-8_小物
  6
CONTINUOUS
 62
    4
 10
-72.166666666666629
 20
57.270753321824174
 11
-72.166666666666629
 21
57.524246678175615
  0
LINE
  8
_1-8_小物
  6
CONTINUOUS
 62
    4
 10
-72.166666666666629
 20
57.740753321824201
 11
-72.166666666666629
 21
57.994246678175614
  0
LINE
  8
_1-8_小物
  6
CONTINUOUS
 62
    4
 10
-72.166666666666629
 20
58.210753321824228
 11
-72.166666666666629
 21
58.464246678175641
  0
LINE
  8
_1-8_小物
  6
CONTINUOUS
 62
    4
 10
-72.233333333333292
 20
59.173333333333233
 11
-72.233333333333292
 21
60.169999999999902
  0
LINE
  8
_1-8_小物
  6
CONTINUOUS
 62
    4
 10
-71.100000000000193
 20
59.173333333333233
 11
-72.233333333333292
 21
59.173333333333233
  0
LINE
  8
_1-8_小物
  6
CONTINUOUS
 62
    4
 10
-71.100000000000193
 20
59.173333333333233
 11
-71.100000000000193
 21
60.169999999999902
  0
LINE
  8
_1-8_小物
  6
CONTINUOUS
 62
    4
 10
-71.100000000000193
 20
60.169999999999902
 11
-71.666666666666742
 21
60.497165152540674
  0
LINE
  8
_1-8_小物
  6
CONTINUOUS
 62
    4
 10
-72.233333333333292
 20
60.169999999999902
 11
-71.666666666666742
 21
60.497165152540674
  0
LINE
  8
_1-8_小物
  6
CONTINUOUS
 62
    4
 10
-71.666666666666742
 20
60.381695098702721
 11
-72.133333333333383
 21
60.112264973080983
  0
LINE
  8
_1-8_小物
  6
CONTINUOUS
 62
    4
 10
-72.133333333333383
 20
59.173333333333233
 11
-72.133333333333383
 21
60.112264973080983
  0
LINE
  8
_1-8_小物
  6
CONTINUOUS
 62
    4
 10
-71.666666666666742
 20
60.381695098702721
 11
-71.879733448357854
 21
59.173333333333233
  0
LINE
  8
_1-8_小物
  6
CONTINUOUS
 62
    4
 10
-72.166666666666629
 20
58.68075332182417
 11
-72.166666666666629
 21
59.173333333333233
  0
LINE
  8
_1-8_小物
  6
CONTINUOUS
 62
    4
 10
-71.666666666666742
 20
60.497165152540674
 11
-71.666666666666742
 21
60.381695098702721
  0
LINE
  8
_1-8_小物
  6
CENTER2
 62
    4
 10
-71.666666666666742
 20
54.499999999999915
 11
-71.666666666666742
 21
60.83049848587396
  0
ENDBLK
  0
BLOCK
  2
-018-_12_
 70
   64
 10
0
 20
0
 30
0
  0
ARC
  8
_1-4_フレ__ム
  6
CONTINUOUS
 62
    4
 10
-84.833333333333357
 20
63.166666666666657
 40
0.5
 50
180
 51
270
  0
LINE
  8
_1-4_フレ__ム
  6
CONTINUOUS
 62
    4
 10
-63.333333333333343
 20
62.766666666666566
 11
-63.43333333333311
 21
62.666666666666657
  0
LINE
  8
_1-4_フレ__ム
  6
CONTINUOUS
 62
    4
 10
-63.233333333333434
 20
62.666666666666657
 11
-63.333333333333343
 21
62.766666666666566
  0
LINE
  8
_1-4_フレ__ム
  6
CONTINUOUS
 62
    4
 10
-85.333333333333641
 20
63.166666666666657
 11
-58.333333333333343
 21
63.166666666666657
  0
LINE
  8
_1-4_フレ__ム
  6
CONTINUOUS
 62
    4
 10
-58.33333341280013
 20
63.166666647666631
 11
-57.333333431800099
 21
62.166666666666686
  0
LINE
  8
_1-4_フレ__ム
  6
CONTINUOUS
 62
    4
 10
-57.333333431800099
 20
62.166666666666686
 11
-58.040440212986681
 21
62.166666666666686
  0
LINE
  8
_1-4_フレ__ム
  6
CONTINUOUS
 62
    4
 10
-58.540440212986681
 20
62.666666666666657
 11
-58.040440212986681
 21
62.166666666666686
  0
LINE
  8
_1-4_フレ__ム
  6
CONTINUOUS
 62
    4
 10
-58.540440212986681
 20
62.666666666666657
 11
-63.233333333333434
 21
62.666666666666657
  0
LINE
  8
_1-4_フレ__ム
  6
CONTINUOUS
 62
    4
 10
-74.112653132073319
 20
62.666666666666657
 11
-84.833333333333357
 21
62.666666666666657
  0
ARC
  8
_1-4_フレ__ム
  6
CONTINUOUS
 62
    4
 10
-74.112653132073319
 20
62.333333333333314
 40
0.3333333333333333
 50
33.690067525981149
 51
90
  0
ARC
  8
_1-4_フレ__ム
  6
CONTINUOUS
 62
    4
 10
-72.755863959747956
 20
61.5
 40
0.3333333333333333
 50
213.69006752597164
 51
270
  0
ARC
  8
_1-4_フレ__ム
  6
CONTINUOUS
 62
    4
 10
-72.57746937358533
 20
61.833333333333314
 40
0.1666666666666666
 50
213.69006752596351
 51
270
  0
LINE
  8
_1-4_フレ__ム
  6
CONTINUOUS
 62
    4
 10
-63.43333333333311
 20
62.666666666666657
 11
-73.021913818029816
 21
62.666666666666657
  0
ARC
  8
_1-4_フレ__ム
  6
CONTINUOUS
 62
    4
 10
-73.021913818029816
 20
62.5
 40
0.1666666666666666
 50
90
 51
213.69006752596351
  0
LINE
  8
_1-4_フレ__ム
  6
CONTINUOUS
 62
    4
 10
-73.835303033960685
 20
62.518233398741756
 11
-73.033214057860675
 21
61.315099934591615
  0
LINE
  8
_1-4_フレ__ム
  6
CONTINUOUS
 62
    4
 10
-73.160588867086148
 20
62.407549967295779
 11
-72.716144422641719
 21
61.74088330062915
  0
LINE
  8
_1-4_フレ__ム
  6
CONTINUOUS
 62
    4
 10
-71.666666666666828
 20
61.666666666666657
 11
-72.57746937358533
 21
61.666666666666657
  0
ARC
  8
_1-4_フレ__ム
  6
CONTINUOUS
 62
    4
 10
-71.666666666666828
 20
61.333333333333314
 40
0.3333333333333333
 50
0
 51
90
  0
LINE
  8
_1-4_フレ__ム
  6
CONTINUOUS
 62
    4
 10
-71.333333333333428
 20
61.333333333333314
 11
-71.333333333333428
 21
61.166666666666657
  0
LINE
  8
_1-4_フレ__ム
  6
CONTINUOUS
 62
    4
 10
-71.333333333333428
 20
61.166666666666657
 11
-72.755863959747956
 21
61.166666666666657
  0
LINE
  8
ADD_LINE
  6
DOT
 62
    4
 10
-63.333333333333343
 20
61
 11
-63.333333333333343
 21
64.833333333333314
  0
LINE
  8
_1-4_フレ__ム
  6
DASHED1
 62
    4
 10
-60.833333333333343
 20
62.666666666666657
 11
-60.833333333333343
 21
63.166666666666799
  0
LINE
  8
_1-4_フレ__ム
  6
DASHED1
 62
    4
 10
-65.833333333333343
 20
62.666666666666657
 11
-65.833333333333343
 21
63.166666666666799
  0
ENDBLK
  0
BLOCK
  2
-019-_13_
 70
   64
 10
0
 20
0
 30
0
  0
LINE
  8
_1-8_小物
  6
CONTINUOUS
 62
    4
 10
-66.033332883333117
 20
62.666666666666657
 11
-60.633332883332855
 21
62.666666666666657
  0
LINE
  8
_1-8_小物
  6
CONTINUOUS
 62
    4
 10
-66.033332883333117
 20
62.21666666666664
 11
-60.633332883332855
 21
62.21666666666664
  0
LINE
  8
_1-8_小物
  6
CONTINUOUS
 62
    4
 10
-66.033332883333117
 20
62.666666666666657
 11
-66.033332883333117
 21
62.21666666666664
  0
LINE
  8
_1-8_小物
  6
CONTINUOUS
 62
    4
 10
-60.633332883332855
 20
62.666666666666657
 11
-60.633332883332855
 21
62.21666666666664
  0
LINE
  8
_1-8_小物
  6
DASHED1
 62
    4
 10
-64.15833288333306
 20
62.666666666666657
 11
-64.15833288333306
 21
62.21666666666664
  0
LINE
  8
_1-8_小物
  6
DASHED1
 62
    4
 10
-62.508332883332855
 20
62.666666666666657
 11
-62.508332883332855
 21
62.21666666666664
  0
LINE
  8
_1-8_小物
  6
CONTINUOUS
 62
    4
 10
-62.973333333333585
 20
64.825535366666742
 11
-62.973333333333585
 21
65.058342866666578
  0
LINE
  8
_1-8_小物
  6
CONTINUOUS
 62
    4
 10
-63.693333333333214
 20
64.846676366666486
 11
-63.693333333333214
 21
64.613868866666877
  0
LINE
  8
_1-8_小物
  6
CONTINUOUS
 62
    4
 10
-62.973333333333585
 20
65.058342866666578
 11
-63.693333333333214
 21
64.846676366666486
  0
LINE
  8
_1-8_小物
  6
CONTINUOUS
 62
    4
 10
-62.8083327333336
 20
65.153606066666867
 11
-63.858333033333167
 21
64.941938666666744
  0
LINE
  8
_1-8_小物
  6
CONTINUOUS
 62
    4
 10
-62.8083327333336
 20
65.153606066666867
 11
-62.973333333333585
 21
65.058342866666578
  0
LINE
  8
_1-8_小物
  6
CONTINUOUS
 62
    4
 10
-63.858333033333167
 20
64.941938666666744
 11
-63.693333333333214
 21
65.037201866666834
  0
LINE
  8
_1-8_小物
  6
CONTINUOUS
 62
    4
 10
-63.693333333333214
 20
64.846676366666486
 11
-63.858333033333167
 21
64.941938666666744
  0
LINE
  8
_1-8_小物
  6
CONTINUOUS
 62
    4
 10
-62.973333333333585
 20
64.402201466666554
 11
-62.973333333333585
 21
64.635009866666621
  0
LINE
  8
_1-8_小物
  6
CONTINUOUS
 62
    4
 10
-63.693333333333214
 20
64.423342466666725
 11
-63.693333333333214
 21
64.190534966666689
  0
LINE
  8
_1-8_小物
  6
CONTINUOUS
 62
    4
 10
-62.973333333333585
 20
64.825535366666742
 11
-63.693333333333214
 21
64.613868866666877
  0
LINE
  8
_1-8_小物
  6
CONTINUOUS
 62
    4
 10
-62.973333333333585
 20
64.635009866666621
 11
-63.693333333333214
 21
64.423342466666725
  0
LINE
  8
_1-8_小物
  6
CONTINUOUS
 62
    4
 10
-62.8083327333336
 20
64.73027216666668
 11
-63.858333033333167
 21
64.518605666666588
  0
LINE
  8
_1-8_小物
  6
CONTINUOUS
 62
    4
 10
-62.8083327333336
 20
64.73027216666668
 11
-62.973333333333585
 21
64.825535366666742
  0
LINE
  8
_1-8_小物
  6
CONTINUOUS
 62
    4
 10
-62.8083327333336
 20
64.73027216666668
 11
-62.973333333333585
 21
64.635009866666621
  0
LINE
  8
_1-8_小物
  6
CONTINUOUS
 62
    4
 10
-63.858333033333167
 20
64.518605666666588
 11
-63.693333333333214
 21
64.613868866666877
  0
LINE
  8
_1-8_小物
  6
CONTINUOUS
 62
    4
 10
-63.693333333333214
 20
64.423342466666725
 11
-63.858333033333167
 21
64.518605666666588
  0
LINE
  8
_1-8_小物
  6
CONTINUOUS
 62
    4
 10
-62.973333333333585
 20
63.978868466666796
 11
-62.973333333333585
 21
64.211675966666832
  0
LINE
  8
_1-8_小物
  6
CONTINUOUS
 62
    4
 10
-63.693333333333214
 20
64.000009466666739
 11
-63.693333333333214
 21
63.767201966666704
  0
LINE
  8
_1-8_小物
  6
CONTINUOUS
 62
    4
 10
-62.973333333333585
 20
64.402201466666554
 11
-63.693333333333214
 21
64.190534966666689
  0
LINE
  8
_1-8_小物
  6
CONTINUOUS
 62
    4
 10
-62.973333333333585
 20
64.211675966666832
 11
-63.693333333333214
 21
64.000009466666739
  0
LINE
  8
_1-8_小物
  6
CONTINUOUS
 62
    4
 10
-62.8083327333336
 20
64.306939166666695
 11
-63.858333033333167
 21
64.095272666666602
  0
LINE
  8
_1-8_小物
  6
CONTINUOUS
 62
    4
 10
-62.8083327333336
 20
64.306939166666695
 11
-62.973333333333585
 21
64.402201466666554
  0
LINE
  8
_1-8_小物
  6
CONTINUOUS
 62
    4
 10
-62.8083327333336
 20
64.306939166666695
 11
-62.973333333333585
 21
64.211675966666832
  0
LINE
  8
_1-8_小物
  6
CONTINUOUS
 62
    4
 10
-63.858333033333167
 20
64.095272666666602
 11
-63.693333333333214
 21
64.190534966666689
  0
LINE
  8
_1-8_小物
  6
CONTINUOUS
 62
    4
 10
-63.693333333333214
 20
64.000009466666739
 11
-63.858333033333167
 21
64.095272666666602
  0
LINE
  8
_1-8_小物
  6
CONTINUOUS
 62
    4
 10
-62.973333333333585
 20
63.55553546666664
 11
-62.973333333333585
 21
63.788342966666676
  0
LINE
  8
_1-8_小物
  6
CONTINUOUS
 62
    4
 10
-63.693333333333214
 20
63.576676466666584
 11
-63.693333333333214
 21
63.343868066666744
  0
LINE
  8
_1-8_小物
  6
CONTINUOUS
 62
    4
 10
-62.973333333333585
 20
63.978868466666796
 11
-63.693333333333214
 21
63.767201966666704
  0
LINE
  8
_1-8_小物
  6
CONTINUOUS
 62
    4
 10
-62.973333333333585
 20
63.788342966666676
 11
-63.693333333333214
 21
63.576676466666584
  0
LINE
  8
_1-8_小物
  6
CONTINUOUS
 62
    4
 10
-62.8083327333336
 20
63.883605266666706
 11
-63.858333033333167
 21
63.671938766666841
  0
LINE
  8
_1-8_小物
  6
CONTINUOUS
 62
    4
 10
-62.8083327333336
 20
63.883605266666706
 11
-62.973333333333585
 21
63.978868466666796
  0
LINE
  8
_1-8_小物
  6
CONTINUOUS
 62
    4
 10
-62.8083327333336
 20
63.883605266666706
 11
-62.973333333333585
 21
63.788342966666676
  0
LINE
  8
_1-8_小物
  6
CONTINUOUS
 62
    4
 10
-63.858333033333167
 20
63.671938766666841
 11
-63.693333333333214
 21
63.767201966666704
  0
LINE
  8
_1-8_小物
  6
CONTINUOUS
 62
    4
 10
-63.693333333333214
 20
63.576676466666584
 11
-63.858333033333167
 21
63.671938766666841
  0
LINE
  8
_1-8_小物
  6
CONTINUOUS
 62
    4
 10
-62.973333333333585
 20
63.132201566666652
 11
-62.973333333333585
 21
63.365009966666719
  0
LINE
  8
_1-8_小物
  6
CONTINUOUS
 62
    4
 10
-63.693333333333214
 20
63.153342566666566
 11
-63.693333333333214
 21
62.920535066666787
  0
LINE
  8
_1-8_小物
  6
CONTINUOUS
 62
    4
 10
-62.973333333333585
 20
63.55553546666664
 11
-63.693333333333214
 21
63.343868066666744
  0
LINE
  8
_1-8_小物
  6
CONTINUOUS
 62
    4
 10
-62.973333333333585
 20
63.365009966666719
 11
-63.693333333333214
 21
63.153342566666566
  0
LINE
  8
_1-8_小物
  6
CONTINUOUS
 62
    4
 10
-62.8083327333336
 20
63.460272266666777
 11
-63.858333033333167
 21
63.248605766666685
  0
LINE
  8
_1-8_小物
  6
CONTINUOUS
 62
    4
 10
-62.8083327333336
 20
63.460272266666777
 11
-62.973333333333585
 21
63.55553546666664
  0
LINE
  8
_1-8_小物
  6
CONTINUOUS
 62
    4
 10
-62.8083327333336
 20
63.460272266666777
 11
-62.973333333333585
 21
63.365009966666719
  0
LINE
  8
_1-8_小物
  6
CONTINUOUS
 62
    4
 10
-63.858333033333167
 20
63.248605766666685
 11
-63.693333333333214
 21
63.343868066666744
  0
LINE
  8
_1-8_小物
  6
CONTINUOUS
 62
    4
 10
-63.693333333333214
 20
63.153342566666566
 11
-63.858333033333167
 21
63.248605766666685
  0
LINE
  8
_1-8_小物
  6
CONTINUOUS
 62
    4
 10
-62.973333333333585
 20
62.708868566666894
 11
-63.693333333333214
 21
62.497202066666802
  0
LINE
  8
_1-8_小物
  6
CONTINUOUS
 62
    4
 10
-62.973333333333585
 20
62.518343066666546
 11
-63.693333333333214
 21
62.306676566666653
  0
LINE
  8
_1-8_小物
  6
CONTINUOUS
 62
    4
 10
-62.8083327333336
 20
62.613605366666604
 11
-63.858333033333167
 21
62.401938866666512
  0
LINE
  8
_1-8_小物
  6
CONTINUOUS
 62
    4
 10
-62.8083327333336
 20
62.613605366666604
 11
-62.973333333333585
 21
62.708868566666894
  0
LINE
  8
_1-8_小物
  6
CONTINUOUS
 62
    4
 10
-62.8083327333336
 20
62.613605366666604
 11
-62.973333333333585
 21
62.518343066666546
  0
LINE
  8
_1-8_小物
  6
CONTINUOUS
 62
    4
 10
-63.858333033333167
 20
62.401938866666512
 11
-63.693333333333214
 21
62.497202066666802
  0
LINE
  8
_1-8_小物
  6
CONTINUOUS
 62
    4
 10
-63.693333333333214
 20
62.306676566666653
 11
-63.858333033333167
 21
62.401938866666512
  0
LINE
  8
_1-8_小物
  6
CONTINUOUS
 62
    4
 10
-62.973333333333585
 20
62.21666666666664
 11
-62.973333333333585
 21
62.518343066666546
  0
LINE
  8
_1-8_小物
  6
CONTINUOUS
 62
    4
 10
-62.973333333333585
 20
62.708868566666894
 11
-62.973333333333585
 21
62.941676066666702
  0
LINE
  8
_1-8_小物
  6
CONTINUOUS
 62
    4
 10
-63.693333333333214
 20
62.730009566666638
 11
-63.693333333333214
 21
62.497202066666802
  0
LINE
  8
_1-8_小物
  6
CONTINUOUS
 62
    4
 10
-62.973333333333585
 20
63.132201566666652
 11
-63.693333333333214
 21
62.920535066666787
  0
LINE
  8
_1-8_小物
  6
CONTINUOUS
 62
    4
 10
-62.973333333333585
 20
62.941676066666702
 11
-63.693333333333214
 21
62.730009566666638
  0
LINE
  8
_1-8_小物
  6
CONTINUOUS
 62
    4
 10
-62.8083327333336
 20
63.036939266666792
 11
-63.858333033333167
 21
62.8252727666667
  0
LINE
  8
_1-8_小物
  6
CONTINUOUS
 62
    4
 10
-62.8083327333336
 20
63.036939266666792
 11
-62.973333333333585
 21
63.132201566666652
  0
LINE
  8
_1-8_小物
  6
CONTINUOUS
 62
    4
 10
-62.8083327333336
 20
63.036939266666792
 11
-62.973333333333585
 21
62.941676066666702
  0
LINE
  8
_1-8_小物
  6
CONTINUOUS
 62
    4
 10
-63.858333033333167
 20
62.8252727666667
 11
-63.693333333333214
 21
62.920535066666787
  0
LINE
  8
_1-8_小物
  6
CONTINUOUS
 62
    4
 10
-63.693333333333214
 20
62.730009566666638
 11
-63.858333033333167
 21
62.8252727666667
  0
ARC
  8
_1-8_小物
  6
CONTINUOUS
 62
    4
 10
-62.583332733333066
 20
61.937627966666611
 40
0.2999996999999999
 50
299.99999999998732
 51
0
  0
ARC
  8
_1-8_小物
  6
CONTINUOUS
 62
    4
 10
-64.083333033332906
 20
61.937627966666611
 40
0.2999996999999999
 50
180
 51
239.99999999995677
  0
ARC
  8
_1-8_小物
  6
CONTINUOUS
 62
    4
 10
-63.333333333333258
 20
63.236666366666611
 40
1.8
 50
239.99999999999218
 51
299.99999999999886
  0
LINE
  8
_1-8_小物
  6
CONTINUOUS
 62
    4
 10
-62.283333033333179
 20
62.21666666666664
 11
-62.283333033333179
 21
61.937627966666611
  0
LINE
  8
_1-8_小物
  6
CONTINUOUS
 62
    4
 10
-64.383332733333077
 20
62.21666666666664
 11
-62.283333033333179
 21
62.21666666666664
  0
LINE
  8
_1-8_小物
  6
CONTINUOUS
 62
    4
 10
-64.383332733333077
 20
62.21666666666664
 11
-64.383332733333077
 21
61.937627966666611
  0
LINE
  8
_1-8_小物
  6
CONTINUOUS
 62
    4
 10
-63.693333333333214
 20
62.306676566666653
 11
-63.693333333333214
 21
62.21666666666664
  0
LINE
  8
_1-8_小物
  6
CONTINUOUS
 62
    4
 10
-62.973333333333585
 20
67.788868166666532
 11
-62.973333333333585
 21
68.021676566666599
  0
LINE
  8
_1-8_小物
  6
CONTINUOUS
 62
    4
 10
-63.693333333333214
 20
67.810009166666674
 11
-63.693333333333214
 21
67.577201666666639
  0
LINE
  8
_1-8_小物
  6
CONTINUOUS
 62
    4
 10
-62.973333333333585
 20
68.21220206666672
 11
-63.693333333333214
 21
68.000535566666656
  0
LINE
  8
_1-8_小物
  6
CONTINUOUS
 62
    4
 10
-62.973333333333585
 20
68.021676566666599
 11
-63.693333333333214
 21
67.810009166666674
  0
LINE
  8
_1-8_小物
  6
CONTINUOUS
 62
    4
 10
-62.8083327333336
 20
68.116938866666857
 11
-63.858333033333167
 21
67.905272366666793
  0
LINE
  8
_1-8_小物
  6
CONTINUOUS
 62
    4
 10
-62.8083327333336
 20
68.116938866666857
 11
-62.973333333333585
 21
68.21220206666672
  0
LINE
  8
_1-8_小物
  6
CONTINUOUS
 62
    4
 10
-62.8083327333336
 20
68.116938866666857
 11
-62.973333333333585
 21
68.021676566666599
  0
LINE
  8
_1-8_小物
  6
CONTINUOUS
 62
    4
 10
-63.858333033333167
 20
67.905272366666793
 11
-63.693333333333214
 21
68.000535566666656
  0
LINE
  8
_1-8_小物
  6
CONTINUOUS
 62
    4
 10
-63.693333333333214
 20
67.810009166666674
 11
-63.858333033333167
 21
67.905272366666793
  0
LINE
  8
_1-8_小物
  6
CONTINUOUS
 62
    4
 10
-62.973333333333585
 20
67.365535166666547
 11
-62.973333333333585
 21
67.598342666666582
  0
LINE
  8
_1-8_小物
  6
CONTINUOUS
 62
    4
 10
-63.693333333333214
 20
67.386676166666717
 11
-63.693333333333214
 21
67.153868666666682
  0
LINE
  8
_1-8_小物
  6
CONTINUOUS
 62
    4
 10
-62.973333333333585
 20
67.788868166666532
 11
-63.693333333333214
 21
67.577201666666639
  0
LINE
  8
_1-8_小物
  6
CONTINUOUS
 62
    4
 10
-62.973333333333585
 20
67.598342666666582
 11
-63.693333333333214
 21
67.386676166666717
  0
LINE
  8
_1-8_小物
  6
CONTINUOUS
 62
    4
 10
-62.8083327333336
 20
67.693605866666701
 11
-63.858333033333167
 21
67.481939366666808
  0
LINE
  8
_1-8_小物
  6
CONTINUOUS
 62
    4
 10
-62.8083327333336
 20
67.693605866666701
 11
-62.973333333333585
 21
67.788868166666532
  0
LINE
  8
_1-8_小物
  6
CONTINUOUS
 62
    4
 10
-62.8083327333336
 20
67.693605866666701
 11
-62.973333333333585
 21
67.598342666666582
  0
LINE
  8
_1-8_小物
  6
CONTINUOUS
 62
    4
 10
-63.858333033333167
 20
67.481939366666808
 11
-63.693333333333214
 21
67.577201666666639
  0
LINE
  8
_1-8_小物
  6
CONTINUOUS
 62
    4
 10
-63.693333333333214
 20
67.386676166666717
 11
-63.858333033333167
 21
67.481939366666808
  0
LINE
  8
_1-8_小物
  6
CONTINUOUS
 62
    4
 10
-62.973333333333585
 20
66.942202166666618
 11
-62.973333333333585
 21
67.175009666666654
  0
LINE
  8
_1-8_小物
  6
CONTINUOUS
 62
    4
 10
-63.693333333333214
 20
66.963343166666562
 11
-63.693333333333214
 21
66.730534766666722
  0
LINE
  8
_1-8_小物
  6
CONTINUOUS
 62
    4
 10
-62.973333333333585
 20
67.365535166666547
 11
-63.693333333333214
 21
67.153868666666682
  0
LINE
  8
_1-8_小物
  6
CONTINUOUS
 62
    4
 10
-62.973333333333585
 20
67.175009666666654
 11
-63.693333333333214
 21
66.963343166666562
  0
LINE
  8
_1-8_小物
  6
CONTINUOUS
 62
    4
 10
-62.8083327333336
 20
67.270271966666684
 11
-63.858333033333167
 21
67.05860546666662
  0
LINE
  8
_1-8_小物
  6
CONTINUOUS
 62
    4
 10
-62.8083327333336
 20
67.270271966666684
 11
-62.973333333333585
 21
67.365535166666547
  0
LINE
  8
_1-8_小物
  6
CONTINUOUS
 62
    4
 10
-62.8083327333336
 20
67.270271966666684
 11
-62.973333333333585
 21
67.175009666666654
  0
LINE
  8
_1-8_小物
  6
CONTINUOUS
 62
    4
 10
-63.858333033333167
 20
67.05860546666662
 11
-63.693333333333214
 21
67.153868666666682
  0
LINE
  8
_1-8_小物
  6
CONTINUOUS
 62
    4
 10
-63.693333333333214
 20
66.963343166666562
 11
-63.858333033333167
 21
67.05860546666662
  0
LINE
  8
_1-8_小物
  6
CONTINUOUS
 62
    4
 10
-62.973333333333585
 20
66.51886826666663
 11
-62.973333333333585
 21
66.751676666666668
  0
LINE
  8
_1-8_小物
  6
CONTINUOUS
 62
    4
 10
-63.693333333333214
 20
66.540009266666772
 11
-63.693333333333214
 21
66.307201766666736
  0
LINE
  8
_1-8_小物
  6
CONTINUOUS
 62
    4
 10
-62.973333333333585
 20
66.942202166666618
 11
-63.693333333333214
 21
66.730534766666722
  0
LINE
  8
_1-8_小物
  6
CONTINUOUS
 62
    4
 10
-62.973333333333585
 20
66.751676666666668
 11
-63.693333333333214
 21
66.540009266666772
  0
LINE
  8
_1-8_小物
  6
CONTINUOUS
 62
    4
 10
-62.8083327333336
 20
66.846938966666528
 11
-63.858333033333167
 21
66.635272466666663
  0
LINE
  8
_1-8_小物
  6
CONTINUOUS
 62
    4
 10
-62.8083327333336
 20
66.846938966666528
 11
-62.973333333333585
 21
66.942202166666618
  0
LINE
  8
_1-8_小物
  6
CONTINUOUS
 62
    4
 10
-62.8083327333336
 20
66.846938966666528
 11
-62.973333333333585
 21
66.751676666666668
  0
LINE
  8
_1-8_小物
  6
CONTINUOUS
 62
    4
 10
-63.858333033333167
 20
66.635272466666663
 11
-63.693333333333214
 21
66.730534766666722
  0
LINE
  8
_1-8_小物
  6
CONTINUOUS
 62
    4
 10
-63.693333333333214
 20
66.540009266666772
 11
-63.858333033333167
 21
66.635272466666663
  0
LINE
  8
_1-8_小物
  6
CONTINUOUS
 62
    4
 10
-62.973333333333585
 20
66.259789766666643
 11
-62.973333333333585
 21
66.32834276666668
  0
LINE
  8
_1-8_小物
  6
CONTINUOUS
 62
    4
 10
-63.693333333333214
 20
66.116676266666815
 11
-63.693333333333214
 21
65.883868766666779
  0
LINE
  8
_1-8_小物
  6
CONTINUOUS
 62
    4
 10
-62.973333333333585
 20
66.51886826666663
 11
-63.693333333333214
 21
66.307201766666736
  0
LINE
  8
_1-8_小物
  6
CONTINUOUS
 62
    4
 10
-62.973333333333585
 20
66.32834276666668
 11
-63.441284733333362
 21
66.190774166666813
  0
LINE
  8
_1-8_小物
  6
CONTINUOUS
 62
    4
 10
-63.778225833333238
 20
66.228087266666478
 11
-62.8083327333336
 21
66.42360596666677
  0
LINE
  8
_1-8_小物
  6
CONTINUOUS
 62
    4
 10
-62.8083327333336
 20
66.42360596666677
 11
-62.973333333333585
 21
66.51886826666663
  0
LINE
  8
_1-8_小物
  6
CONTINUOUS
 62
    4
 10
-62.8083327333336
 20
66.42360596666677
 11
-62.973333333333585
 21
66.32834276666668
  0
LINE
  8
_1-8_小物
  6
CONTINUOUS
 62
    4
 10
-63.81127923333321
 20
66.239105966666727
 11
-63.693333333333214
 21
66.307201766666736
  0
LINE
  8
_1-8_小物
  6
CONTINUOUS
 62
    4
 10
-63.693333333333214
 20
66.116676266666815
 11
-63.858333033333167
 21
66.211939466666678
  0
LINE
  8
_1-8_小物
  6
CONTINUOUS
 62
    4
 10
-62.973333333333585
 20
65.672201366666457
 11
-62.973333333333585
 21
65.905009766666751
  0
LINE
  8
_1-8_小物
  6
CONTINUOUS
 62
    4
 10
-63.693333333333214
 20
65.693343266666659
 11
-63.693333333333214
 21
65.460534866666592
  0
LINE
  8
_1-8_小物
  6
CONTINUOUS
 62
    4
 10
-62.973333333333585
 20
66.095535266666644
 11
-63.693333333333214
 21
65.883868766666779
  0
LINE
  8
_1-8_小物
  6
CONTINUOUS
 62
    4
 10
-62.973333333333585
 20
65.905009766666751
 11
-63.693333333333214
 21
65.693343266666659
  0
LINE
  8
_1-8_小物
  6
CONTINUOUS
 62
    4
 10
-62.8083327333336
 20
66.000272066666781
 11
-63.858333033333167
 21
65.788605566666718
  0
LINE
  8
_1-8_小物
  6
CONTINUOUS
 62
    4
 10
-62.8083327333336
 20
66.000272066666781
 11
-62.973333333333585
 21
66.095535266666644
  0
LINE
  8
_1-8_小物
  6
CONTINUOUS
 62
    4
 10
-62.8083327333336
 20
66.000272066666781
 11
-62.973333333333585
 21
65.905009766666751
  0
LINE
  8
_1-8_小物
  6
CONTINUOUS
 62
    4
 10
-63.858333033333167
 20
65.788605566666718
 11
-63.693333333333214
 21
65.883868766666779
  0
LINE
  8
_1-8_小物
  6
CONTINUOUS
 62
    4
 10
-63.693333333333214
 20
65.693343266666659
 11
-63.858333033333167
 21
65.788605566666718
  0
LINE
  8
_1-8_小物
  6
CONTINUOUS
 62
    4
 10
-62.973333333333585
 20
65.248868366666727
 11
-62.973333333333585
 21
65.481675866666734
  0
LINE
  8
_1-8_小物
  6
CONTINUOUS
 62
    4
 10
-63.693333333333214
 20
65.270009366666642
 11
-63.693333333333214
 21
65.037201866666834
  0
LINE
  8
_1-8_小物
  6
CONTINUOUS
 62
    4
 10
-62.973333333333585
 20
65.672201366666457
 11
-63.693333333333214
 21
65.460534866666592
  0
LINE
  8
_1-8_小物
  6
CONTINUOUS
 62
    4
 10
-62.973333333333585
 20
65.481675866666734
 11
-63.693333333333214
 21
65.270009366666642
  0
LINE
  8
_1-8_小物
  6
CONTINUOUS
 62
    4
 10
-62.8083327333336
 20
65.576939066666625
 11
-63.858333033333167
 21
65.365272566666761
  0
LINE
  8
_1-8_小物
  6
CONTINUOUS
 62
    4
 10
-62.8083327333336
 20
65.576939066666625
 11
-62.973333333333585
 21
65.672201366666457
  0
LINE
  8
_1-8_小物
  6
CONTINUOUS
 62
    4
 10
-62.8083327333336
 20
65.576939066666625
 11
-62.973333333333585
 21
65.481675866666734
  0
LINE
  8
_1-8_小物
  6
CONTINUOUS
 62
    4
 10
-63.858333033333167
 20
65.365272566666761
 11
-63.693333333333214
 21
65.460534866666592
  0
LINE
  8
_1-8_小物
  6
CONTINUOUS
 62
    4
 10
-63.693333333333214
 20
65.270009366666642
 11
-63.858333033333167
 21
65.365272566666761
  0
LINE
  8
_1-8_小物
  6
CONTINUOUS
 62
    4
 10
-62.973333333333585
 20
65.248868366666727
 11
-63.693333333333214
 21
65.037201866666834
  0
LINE
  8
_1-8_小物
  6
CONTINUOUS
 62
    4
 10
-62.8083327333336
 20
65.153606066666867
 11
-62.973333333333585
 21
65.248868366666727
  0
LINE
  8
_1-8_小物
  6
CONTINUOUS
 62
    4
 10
-63.078600033333146
 20
69.070586966666639
 11
-63.59781093333288
 21
68.857787366666741
  0
LINE
  8
_1-8_小物
  6
CONTINUOUS
 62
    4
 10
-63.781145433333108
 20
68.75193926666671
 11
-62.893302633333633
 21
68.963605766666603
  0
LINE
  8
_1-8_小物
  6
CONTINUOUS
 62
    4
 10
-63.058303233333618
 20
68.86834256666674
 11
-63.616145733333155
 21
68.656676066666847
  0
LINE
  8
_1-8_小物
  6
CONTINUOUS
 62
    4
 10
-63.636404733333222
 20
68.434453466666724
 11
-63.036114633333227
 21
68.647253066666877
  0
LINE
  8
_1-8_小物
  6
CONTINUOUS
 62
    4
 10
-62.850818133333235
 20
68.540272766666618
 11
-63.819739233333394
 21
68.328605366666721
  0
LINE
  8
_1-8_小物
  6
CONTINUOUS
 62
    4
 10
-63.654739533332872
 20
68.233343066666691
 11
-63.015817833333188
 21
68.445009566666755
  0
LINE
  8
_1-8_小物
  6
CONTINUOUS
 62
    4
 10
-63.654739533332872
 20
68.233343066666691
 11
-63.675485433333279
 21
68.005781666666678
  0
LINE
  8
_1-8_小物
  6
CONTINUOUS
 62
    4
 10
-63.616145733333155
 20
68.656676066666847
 11
-63.636404733333222
 21
68.434453466666724
  0
LINE
  8
_1-8_小物
  6
CONTINUOUS
 62
    4
 10
-63.036114633333227
 20
68.647253066666877
 11
-63.058303233333618
 21
68.86834256666674
  0
LINE
  8
_1-8_小物
  6
CONTINUOUS
 62
    4
 10
-62.991905733333226
 20
68.206741766666624
 11
-63.015817833333188
 21
68.445009566666755
  0
LINE
  8
_1-8_小物
  6
CONTINUOUS
 62
    4
 10
-62.893302633333633
 20
68.963605766666603
 11
-63.078600033333146
 21
69.070586966666639
  0
LINE
  8
_1-8_小物
  6
CONTINUOUS
 62
    4
 10
-63.058303233333618
 20
68.86834256666674
 11
-62.893302633333633
 21
68.963605766666603
  0
LINE
  8
_1-8_小物
  6
CONTINUOUS
 62
    4
 10
-62.850818133333235
 20
68.540272766666618
 11
-63.036114633333227
 21
68.647253066666877
  0
LINE
  8
_1-8_小物
  6
CONTINUOUS
 62
    4
 10
-62.850818133333235
 20
68.540272766666618
 11
-63.015817833333188
 21
68.445009566666755
  0
LINE
  8
_1-8_小物
  6
CONTINUOUS
 62
    4
 10
-63.781145433333108
 20
68.75193926666671
 11
-63.59781093333288
 21
68.857787366666741
  0
LINE
  8
_1-8_小物
  6
CONTINUOUS
 62
    4
 10
-63.616145733333155
 20
68.656676066666847
 11
-63.781145433333108
 21
68.75193926666671
  0
LINE
  8
_1-8_小物
  6
CONTINUOUS
 62
    4
 10
-63.819739233333394
 20
68.328605366666721
 11
-63.636404733333222
 21
68.434453466666724
  0
LINE
  8
_1-8_小物
  6
CONTINUOUS
 62
    4
 10
-63.654739533332872
 20
68.233343066666691
 11
-63.819739233333394
 21
68.328605366666721
  0
LINE
  8
_1-8_小物
  6
CONTINUOUS
 62
    4
 10
-63.333333333333258
 20
69.80667626666667
 11
-63.078600033333146
 21
69.070586966666639
  0
LINE
  8
_1-8_小物
  6
CONTINUOUS
 62
    4
 10
-63.59781093333288
 20
68.857787366666741
 11
-63.333333333333258
 21
69.80667626666667
  0
LINE
  8
_1-8_小物
  6
CONTINUOUS
 62
    4
 10
-62.973333333333585
 20
66.259789766666643
 11
-62.973333333333585
 21
66.095535266666644
  0
LINE
  8
_1-8_小物
  6
CONTINUOUS
 62
    4
 10
-63.81127923333321
 20
66.239105966666727
 11
-63.858333033333167
 21
66.211939466666678
  0
LINE
  8
_1-8_小物
  6
CONTINUOUS
 62
    4
 10
-63.693333333333214
 20
66.116676266666815
 11
-63.441284733333362
 21
66.190774166666813
  0
LINE
  8
_1-8_小物
  6
CONTINUOUS
 62
    4
 10
-63.778225833333238
 20
66.228087266666478
 11
-63.858333033333167
 21
66.211939466666678
  0
LINE
  8
_1-8_小物
  6
CENTER2
 62
    4
 10
-63.333333333333258
 20
70.706676266666534
 11
-63.333333333333258
 21
60.536666366666566
  0
ENDBLK
  0
BLOCK
  2
-020-_14_
 70
   64
 10
0
 20
0
 30
0
  0
ARC
  8
_1-4_フレ__ム
  6
CONTINUOUS
 62
    4
 10
115.16666666666652
 20
63.166666666666572
 40
0.5
 50
180
 51
270
  0
LINE
  8
_1-4_フレ__ム
  6
CONTINUOUS
 62
    4
 10
136.66666666666652
 20
62.766666666666481
 11
136.56666666666672
 21
62.666666666666572
  0
LINE
  8
_1-4_フレ__ム
  6
CONTINUOUS
 62
    4
 10
136.76666666666642
 20
62.666666666666572
 11
136.66666666666652
 21
62.766666666666481
  0
LINE
  8
_1-4_フレ__ム
  6
CONTINUOUS
 62
    4
 10
114.66666666666617
 20
63.166666666666572
 11
141.66666666666652
 21
63.166666666666572
  0
LINE
  8
_1-4_フレ__ム
  6
CONTINUOUS
 62
    4
 10
141.6666665871997
 20
63.166666647666545
 11
142.66666656819973
 21
62.166666666666629
  0
LINE
  8
_1-4_フレ__ム
  6
CONTINUOUS
 62
    4
 10
142.66666656819973
 20
62.166666666666629
 11
141.95955978701318
 21
62.166666666666629
  0
LINE
  8
_1-4_フレ__ム
  6
CONTINUOUS
 62
    4
 10
141.45955978701318
 20
62.666666666666572
 11
141.95955978701318
 21
62.166666666666629
  0
LINE
  8
_1-4_フレ__ム
  6
CONTINUOUS
 62
    4
 10
141.45955978701318
 20
62.666666666666572
 11
136.76666666666642
 21
62.666666666666572
  0
LINE
  8
_1-4_フレ__ム
  6
CONTINUOUS
 62
    4
 10
125.88734686792651
 20
62.666666666666572
 11
115.16666666666652
 21
62.666666666666572
  0
ARC
  8
_1-4_フレ__ム
  6
CONTINUOUS
 62
    4
 10
125.88734686792651
 20
62.333333333333258
 40
0.3333333333333333
 50
33.690067525977085
 51
90
  0
ARC
  8
_1-4_フレ__ム
  6
CONTINUOUS
 62
    4
 10
127.24413604025187
 20
61.499999999999915
 40
0.3333333333333333
 50
213.69006752596758
 51
270
  0
ARC
  8
_1-4_フレ__ム
  6
CONTINUOUS
 62
    4
 10
127.42253062641453
 20
61.833333333333258
 40
0.1666666666666666
 50
213.69006752595811
 51
270
  0
LINE
  8
_1-4_フレ__ム
  6
CONTINUOUS
 62
    4
 10
136.56666666666672
 20
62.666666666666572
 11
126.97808618197001
 21
62.666666666666572
  0
ARC
  8
_1-4_フレ__ム
  6
CONTINUOUS
 62
    4
 10
126.97808618197001
 20
62.499999999999915
 40
0.1666666666666666
 50
90
 51
213.69006752596894
  0
LINE
  8
_1-4_フレ__ム
  6
CONTINUOUS
 62
    4
 10
126.16469696603917
 20
62.5182333987417
 11
126.96678594213915
 21
61.315099934591558
  0
LINE
  8
_1-4_フレ__ム
  6
CONTINUOUS
 62
    4
 10
126.83941113291371
 20
62.407549967295722
 11
127.28385557735811
 21
61.740883300629093
  0
LINE
  8
_1-4_フレ__ム
  6
CONTINUOUS
 62
    4
 10
128.33333333333303
 20
61.666666666666572
 11
127.42253062641453
 21
61.666666666666572
  0
ARC
  8
_1-4_フレ__ム
  6
CONTINUOUS
 62
    4
 10
128.33333333333303
 20
61.333333333333258
 40
0.3333333333333333
 50
0
 51
90
  0
LINE
  8
_1-4_フレ__ム
  6
CONTINUOUS
 62
    4
 10
128.6666666666664
 20
61.333333333333258
 11
128.6666666666664
 21
61.166666666666572
  0
LINE
  8
_1-4_フレ__ム
  6
CONTINUOUS
 62
    4
 10
128.6666666666664
 20
61.166666666666572
 11
127.24413604025187
 21
61.166666666666572
  0
LINE
  8
ADD_LINE
  6
DOT
 62
    4
 10
136.66666666666652
 20
60.999999999999915
 11
136.66666666666652
 21
64.833333333333258
  0
LINE
  8
_1-4_フレ__ム
  6
DASHED1
 62
    4
 10
139.16666666666652
 20
62.666666666666572
 11
139.16666666666652
 21
63.166666666666742
  0
LINE
  8
_1-4_フレ__ム
  6
DASHED1
 62
    4
 10
134.16666666666652
 20
62.666666666666572
 11
134.16666666666652
 21
63.166666666666742
  0
ENDBLK
  0
BLOCK
  2
-021-_15_
 70
   64
 10
0
 20
0
 30
0
  0
LINE
  8
_1-8_小物
  6
CONTINUOUS
 62
    4
 10
133.96666711666671
 20
62.666666666666572
 11
139.36666711666703
 21
62.666666666666572
  0
LINE
  8
_1-8_小物
  6
CONTINUOUS
 62
    4
 10
133.96666711666671
 20
62.216666666666583
 11
139.36666711666703
 21
62.216666666666583
  0
LINE
  8
_1-8_小物
  6
CONTINUOUS
 62
    4
 10
133.96666711666671
 20
62.666666666666572
 11
133.96666711666671
 21
62.216666666666583
  0
LINE
  8
_1-8_小物
  6
CONTINUOUS
 62
    4
 10
139.36666711666703
 20
62.666666666666572
 11
139.36666711666703
 21
62.216666666666583
  0
LINE
  8
_1-8_小物
  6
DASHED1
 62
    4
 10
135.84166711666677
 20
62.666666666666572
 11
135.84166711666677
 21
62.216666666666583
  0
LINE
  8
_1-8_小物
  6
DASHED1
 62
    4
 10
137.49166711666703
 20
62.666666666666572
 11
137.49166711666703
 21
62.216666666666583
  0
LINE
  8
_1-8_小物
  6
CONTINUOUS
 62
    4
 10
137.02666666666624
 20
64.825535366666657
 11
137.02666666666624
 21
65.058342866666521
  0
LINE
  8
_1-8_小物
  6
CONTINUOUS
 62
    4
 10
136.30666666666662
 20
64.846676366666429
 11
136.30666666666662
 21
64.613868866666792
  0
LINE
  8
_1-8_小物
  6
CONTINUOUS
 62
    4
 10
137.02666666666624
 20
65.058342866666521
 11
136.30666666666662
 21
64.846676366666429
  0
LINE
  8
_1-8_小物
  6
CONTINUOUS
 62
    4
 10
137.19166726666623
 20
65.153606066666782
 11
136.14166696666666
 21
64.941938666666658
  0
LINE
  8
_1-8_小物
  6
CONTINUOUS
 62
    4
 10
137.19166726666623
 20
65.153606066666782
 11
137.02666666666624
 21
65.058342866666521
  0
LINE
  8
_1-8_小物
  6
CONTINUOUS
 62
    4
 10
136.14166696666666
 20
64.941938666666658
 11
136.30666666666662
 21
65.037201866666749
  0
LINE
  8
_1-8_小物
  6
CONTINUOUS
 62
    4
 10
136.30666666666662
 20
64.846676366666429
 11
136.14166696666666
 21
64.941938666666658
  0
LINE
  8
_1-8_小物
  6
CONTINUOUS
 62
    4
 10
137.02666666666624
 20
64.402201466666497
 11
137.02666666666624
 21
64.635009866666564
  0
LINE
  8
_1-8_小物
  6
CONTINUOUS
 62
    4
 10
136.30666666666662
 20
64.423342466666668
 11
136.30666666666662
 21
64.190534966666632
  0
LINE
  8
_1-8_小物
  6
CONTINUOUS
 62
    4
 10
137.02666666666624
 20
64.825535366666657
 11
136.30666666666662
 21
64.613868866666792
  0
LINE
  8
_1-8_小物
  6
CONTINUOUS
 62
    4
 10
137.02666666666624
 20
64.635009866666564
 11
136.30666666666662
 21
64.423342466666668
  0
LINE
  8
_1-8_小物
  6
CONTINUOUS
 62
    4
 10
137.19166726666623
 20
64.730272166666623
 11
136.14166696666666
 21
64.518605666666531
  0
LINE
  8
_1-8_小物
  6
CONTINUOUS
 62
    4
 10
137.19166726666623
 20
64.730272166666623
 11
137.02666666666624
 21
64.825535366666657
  0
LINE
  8
_1-8_小物
  6
CONTINUOUS
 62
    4
 10
137.19166726666623
 20
64.730272166666623
 11
137.02666666666624
 21
64.635009866666564
  0
LINE
  8
_1-8_小物
  6
CONTINUOUS
 62
    4
 10
136.14166696666666
 20
64.518605666666531
 11
136.30666666666662
 21
64.613868866666792
  0
LINE
  8
_1-8_小物
  6
CONTINUOUS
 62
    4
 10
136.30666666666662
 20
64.423342466666668
 11
136.14166696666666
 21
64.518605666666531
  0
LINE
  8
_1-8_小物
  6
CONTINUOUS
 62
    4
 10
137.02666666666624
 20
63.978868466666711
 11
137.02666666666624
 21
64.211675966666746
  0
LINE
  8
_1-8_小物
  6
CONTINUOUS
 62
    4
 10
136.30666666666662
 20
64.000009466666654
 11
136.30666666666662
 21
63.767201966666619
  0
LINE
  8
_1-8_小物
  6
CONTINUOUS
 62
    4
 10
137.02666666666624
 20
64.402201466666497
 11
136.30666666666662
 21
64.190534966666632
  0
LINE
  8
_1-8_小物
  6
CONTINUOUS
 62
    4
 10
137.02666666666624
 20
64.211675966666746
 11
136.30666666666662
 21
64.000009466666654
  0
LINE
  8
_1-8_小物
  6
CONTINUOUS
 62
    4
 10
137.19166726666623
 20
64.306939166666609
 11
136.14166696666666
 21
64.095272666666517
  0
LINE
  8
_1-8_小物
  6
CONTINUOUS
 62
    4
 10
137.19166726666623
 20
64.306939166666609
 11
137.02666666666624
 21
64.402201466666497
  0
LINE
  8
_1-8_小物
  6
CONTINUOUS
 62
    4
 10
137.19166726666623
 20
64.306939166666609
 11
137.02666666666624
 21
64.211675966666746
  0
LINE
  8
_1-8_小物
  6
CONTINUOUS
 62
    4
 10
136.14166696666666
 20
64.095272666666517
 11
136.30666666666662
 21
64.190534966666632
  0
LINE
  8
_1-8_小物
  6
CONTINUOUS
 62
    4
 10
136.30666666666662
 20
64.000009466666654
 11
136.14166696666666
 21
64.095272666666517
  0
LINE
  8
_1-8_小物
  6
CONTINUOUS
 62
    4
 10
137.02666666666624
 20
63.555535466666583
 11
137.02666666666624
 21
63.788342966666619
  0
LINE
  8
_1-8_小物
  6
CONTINUOUS
 62
    4
 10
136.30666666666662
 20
63.576676466666527
 11
136.30666666666662
 21
63.343868066666687
  0
LINE
  8
_1-8_小物
  6
CONTINUOUS
 62
    4
 10
137.02666666666624
 20
63.978868466666711
 11
136.30666666666662
 21
63.767201966666619
  0
LINE
  8
_1-8_小物
  6
CONTINUOUS
 62
    4
 10
137.02666666666624
 20
63.788342966666619
 11
136.30666666666662
 21
63.576676466666527
  0
LINE
  8
_1-8_小物
  6
CONTINUOUS
 62
    4
 10
137.19166726666623
 20
63.883605266666621
 11
136.14166696666666
 21
63.671938766666756
  0
LINE
  8
_1-8_小物
  6
CONTINUOUS
 62
    4
 10
137.19166726666623
 20
63.883605266666621
 11
137.02666666666624
 21
63.978868466666711
  0
LINE
  8
_1-8_小物
  6
CONTINUOUS
 62
    4
 10
137.19166726666623
 20
63.883605266666621
 11
137.02666666666624
 21
63.788342966666619
  0
LINE
  8
_1-8_小物
  6
CONTINUOUS
 62
    4
 10
136.14166696666666
 20
63.671938766666756
 11
136.30666666666662
 21
63.767201966666619
  0
LINE
  8
_1-8_小物
  6
CONTINUOUS
 62
    4
 10
136.30666666666662
 20
63.576676466666527
 11
136.14166696666666
 21
63.671938766666756
  0
LINE
  8
_1-8_小物
  6
CONTINUOUS
 62
    4
 10
137.02666666666624
 20
63.132201566666595
 11
137.02666666666624
 21
63.365009966666662
  0
LINE
  8
_1-8_小物
  6
CONTINUOUS
 62
    4
 10
136.30666666666662
 20
63.153342566666481
 11
136.30666666666662
 21
62.92053506666673
  0
LINE
  8
_1-8_小物
  6
CONTINUOUS
 62
    4
 10
137.02666666666624
 20
63.555535466666583
 11
136.30666666666662
 21
63.343868066666687
  0
LINE
  8
_1-8_小物
  6
CONTINUOUS
 62
    4
 10
137.02666666666624
 20
63.365009966666662
 11
136.30666666666662
 21
63.153342566666481
  0
LINE
  8
_1-8_小物
  6
CONTINUOUS
 62
    4
 10
137.19166726666623
 20
63.46027226666672
 11
136.14166696666666
 21
63.248605766666628
  0
LINE
  8
_1-8_小物
  6
CONTINUOUS
 62
    4
 10
137.19166726666623
 20
63.46027226666672
 11
137.02666666666624
 21
63.555535466666583
  0
LINE
  8
_1-8_小物
  6
CONTINUOUS
 62
    4
 10
137.19166726666623
 20
63.46027226666672
 11
137.02666666666624
 21
63.365009966666662
  0
LINE
  8
_1-8_小物
  6
CONTINUOUS
 62
    4
 10
136.14166696666666
 20
63.248605766666628
 11
136.30666666666662
 21
63.343868066666687
  0
LINE
  8
_1-8_小物
  6
CONTINUOUS
 62
    4
 10
136.30666666666662
 20
63.153342566666481
 11
136.14166696666666
 21
63.248605766666628
  0
LINE
  8
_1-8_小物
  6
CONTINUOUS
 62
    4
 10
137.02666666666624
 20
62.708868566666808
 11
136.30666666666662
 21
62.497202066666716
  0
LINE
  8
_1-8_小物
  6
CONTINUOUS
 62
    4
 10
137.02666666666624
 20
62.518343066666489
 11
136.30666666666662
 21
62.306676566666567
  0
LINE
  8
_1-8_小物
  6
CONTINUOUS
 62
    4
 10
137.19166726666623
 20
62.613605366666548
 11
136.14166696666666
 21
62.401938866666455
  0
LINE
  8
_1-8_小物
  6
CONTINUOUS
 62
    4
 10
137.19166726666623
 20
62.613605366666548
 11
137.02666666666624
 21
62.708868566666808
  0
LINE
  8
_1-8_小物
  6
CONTINUOUS
 62
    4
 10
137.19166726666623
 20
62.613605366666548
 11
137.02666666666624
 21
62.518343066666489
  0
LINE
  8
_1-8_小物
  6
CONTINUOUS
 62
    4
 10
136.14166696666666
 20
62.401938866666455
 11
136.30666666666662
 21
62.497202066666716
  0
LINE
  8
_1-8_小物
  6
CONTINUOUS
 62
    4
 10
136.30666666666662
 20
62.306676566666567
 11
136.14166696666666
 21
62.401938866666455
  0
LINE
  8
_1-8_小物
  6
CONTINUOUS
 62
    4
 10
137.02666666666624
 20
62.216666666666583
 11
137.02666666666624
 21
62.518343066666489
  0
LINE
  8
_1-8_小物
  6
CONTINUOUS
 62
    4
 10
137.02666666666624
 20
62.708868566666808
 11
137.02666666666624
 21
62.941676066666616
  0
LINE
  8
_1-8_小物
  6
CONTINUOUS
 62
    4
 10
136.30666666666662
 20
62.730009566666581
 11
136.30666666666662
 21
62.497202066666716
  0
LINE
  8
_1-8_小物
  6
CONTINUOUS
 62
    4
 10
137.02666666666624
 20
63.132201566666595
 11
136.30666666666662
 21
62.92053506666673
  0
LINE
  8
_1-8_小物
  6
CONTINUOUS
 62
    4
 10
137.02666666666624
 20
62.941676066666616
 11
136.30666666666662
 21
62.730009566666581
  0
LINE
  8
_1-8_小物
  6
CONTINUOUS
 62
    4
 10
137.19166726666623
 20
63.036939266666707
 11
136.14166696666666
 21
62.825272766666615
  0
LINE
  8
_1-8_小物
  6
CONTINUOUS
 62
    4
 10
137.19166726666623
 20
63.036939266666707
 11
137.02666666666624
 21
63.132201566666595
  0
LINE
  8
_1-8_小物
  6
CONTINUOUS
 62
    4
 10
137.19166726666623
 20
63.036939266666707
 11
137.02666666666624
 21
62.941676066666616
  0
LINE
  8
_1-8_小物
  6
CONTINUOUS
 62
    4
 10
136.14166696666666
 20
62.825272766666615
 11
136.30666666666662
 21
62.92053506666673
  0
LINE
  8
_1-8_小物
  6
CONTINUOUS
 62
    4
 10
136.30666666666662
 20
62.730009566666581
 11
136.14166696666666
 21
62.825272766666615
  0
ARC
  8
_1-8_小物
  6
CONTINUOUS
 62
    4
 10
137.41666726666676
 20
61.937627966666525
 40
0.2999996999999999
 50
299.99999999998266
 51
0
  0
ARC
  8
_1-8_小物
  6
CONTINUOUS
 62
    4
 10
135.91666696666698
 20
61.937627966666525
 40
0.2999996999999999
 50
180
 51
239.99999999994191
  0
ARC
  8
_1-8_小物
  6
CONTINUOUS
 62
    4
 10
136.66666666666657
 20
63.236666366666554
 40
1.8
 50
239.99999999999423
 51
300.00000000000085
  0
LINE
  8
_1-8_小物
  6
CONTINUOUS
 62
    4
 10
137.71666696666671
 20
62.216666666666583
 11
137.71666696666671
 21
61.937627966666525
  0
LINE
  8
_1-8_小物
  6
CONTINUOUS
 62
    4
 10
135.61666726666681
 20
62.216666666666583
 11
137.71666696666671
 21
62.216666666666583
  0
LINE
  8
_1-8_小物
  6
CONTINUOUS
 62
    4
 10
135.61666726666681
 20
62.216666666666583
 11
135.61666726666681
 21
61.937627966666525
  0
LINE
  8
_1-8_小物
  6
CONTINUOUS
 62
    4
 10
136.30666666666662
 20
62.306676566666567
 11
136.30666666666662
 21
62.216666666666583
  0
LINE
  8
_1-8_小物
  6
CONTINUOUS
 62
    4
 10
137.02666666666624
 20
67.788868166666475
 11
137.02666666666624
 21
68.021676566666542
  0
LINE
  8
_1-8_小物
  6
CONTINUOUS
 62
    4
 10
136.30666666666662
 20
67.810009166666589
 11
136.30666666666662
 21
67.577201666666554
  0
LINE
  8
_1-8_小物
  6
CONTINUOUS
 62
    4
 10
137.02666666666624
 20
68.212202066666634
 11
136.30666666666662
 21
68.000535566666599
  0
LINE
  8
_1-8_小物
  6
CONTINUOUS
 62
    4
 10
137.02666666666624
 20
68.021676566666542
 11
136.30666666666662
 21
67.810009166666589
  0
LINE
  8
_1-8_小物
  6
CONTINUOUS
 62
    4
 10
137.19166726666623
 20
68.116938866666771
 11
136.14166696666666
 21
67.905272366666736
  0
LINE
  8
_1-8_小物
  6
CONTINUOUS
 62
    4
 10
137.19166726666623
 20
68.116938866666771
 11
137.02666666666624
 21
68.212202066666634
  0
LINE
  8
_1-8_小物
  6
CONTINUOUS
 62
    4
 10
137.19166726666623
 20
68.116938866666771
 11
137.02666666666624
 21
68.021676566666542
  0
LINE
  8
_1-8_小物
  6
CONTINUOUS
 62
    4
 10
136.14166696666666
 20
67.905272366666736
 11
136.30666666666662
 21
68.000535566666599
  0
LINE
  8
_1-8_小物
  6
CONTINUOUS
 62
    4
 10
136.30666666666662
 20
67.810009166666589
 11
136.14166696666666
 21
67.905272366666736
  0
LINE
  8
_1-8_小物
  6
CONTINUOUS
 62
    4
 10
137.02666666666624
 20
67.365535166666461
 11
137.02666666666624
 21
67.598342666666497
  0
LINE
  8
_1-8_小物
  6
CONTINUOUS
 62
    4
 10
136.30666666666662
 20
67.386676166666632
 11
136.30666666666662
 21
67.153868666666597
  0
LINE
  8
_1-8_小物
  6
CONTINUOUS
 62
    4
 10
137.02666666666624
 20
67.788868166666475
 11
136.30666666666662
 21
67.577201666666554
  0
LINE
  8
_1-8_小物
  6
CONTINUOUS
 62
    4
 10
137.02666666666624
 20
67.598342666666497
 11
136.30666666666662
 21
67.386676166666632
  0
LINE
  8
_1-8_小物
  6
CONTINUOUS
 62
    4
 10
137.19166726666623
 20
67.693605866666644
 11
136.14166696666666
 21
67.481939366666722
  0
LINE
  8
_1-8_小物
  6
CONTINUOUS
 62
    4
 10
137.19166726666623
 20
67.693605866666644
 11
137.02666666666624
 21
67.788868166666475
  0
LINE
  8
_1-8_小物
  6
CONTINUOUS
 62
    4
 10
137.19166726666623
 20
67.693605866666644
 11
137.02666666666624
 21
67.598342666666497
  0
LINE
  8
_1-8_小物
  6
CONTINUOUS
 62
    4
 10
136.14166696666666
 20
67.481939366666722
 11
136.30666666666662
 21
67.577201666666554
  0
LINE
  8
_1-8_小物
  6
CONTINUOUS
 62
    4
 10
136.30666666666662
 20
67.386676166666632
 11
136.14166696666666
 21
67.481939366666722
  0
LINE
  8
_1-8_小物
  6
CONTINUOUS
 62
    4
 10
137.02666666666624
 20
66.942202166666561
 11
137.02666666666624
 21
67.175009666666597
  0
LINE
  8
_1-8_小物
  6
CONTINUOUS
 62
    4
 10
136.30666666666662
 20
66.963343166666505
 11
136.30666666666662
 21
66.730534766666665
  0
LINE
  8
_1-8_小物
  6
CONTINUOUS
 62
    4
 10
137.02666666666624
 20
67.365535166666461
 11
136.30666666666662
 21
67.153868666666597
  0
LINE
  8
_1-8_小物
  6
CONTINUOUS
 62
    4
 10
137.02666666666624
 20
67.175009666666597
 11
136.30666666666662
 21
66.963343166666505
  0
LINE
  8
_1-8_小物
  6
CONTINUOUS
 62
    4
 10
137.19166726666623
 20
67.270271966666598
 11
136.14166696666666
 21
67.058605466666563
  0
LINE
  8
_1-8_小物
  6
CONTINUOUS
 62
    4
 10
137.19166726666623
 20
67.270271966666598
 11
137.02666666666624
 21
67.365535166666461
  0
LINE
  8
_1-8_小物
  6
CONTINUOUS
 62
    4
 10
137.19166726666623
 20
67.270271966666598
 11
137.02666666666624
 21
67.175009666666597
  0
LINE
  8
_1-8_小物
  6
CONTINUOUS
 62
    4
 10
136.14166696666666
 20
67.058605466666563
 11
136.30666666666662
 21
67.153868666666597
  0
LINE
  8
_1-8_小物
  6
CONTINUOUS
 62
    4
 10
136.30666666666662
 20
66.963343166666505
 11
136.14166696666666
 21
67.058605466666563
  0
LINE
  8
_1-8_小物
  6
CONTINUOUS
 62
    4
 10
137.02666666666624
 20
66.518868266666573
 11
137.02666666666624
 21
66.751676666666583
  0
LINE
  8
_1-8_小物
  6
CONTINUOUS
 62
    4
 10
136.30666666666662
 20
66.540009266666686
 11
136.30666666666662
 21
66.307201766666651
  0
LINE
  8
_1-8_小物
  6
CONTINUOUS
 62
    4
 10
137.02666666666624
 20
66.942202166666561
 11
136.30666666666662
 21
66.730534766666665
  0
LINE
  8
_1-8_小物
  6
CONTINUOUS
 62
    4
 10
137.02666666666624
 20
66.751676666666583
 11
136.30666666666662
 21
66.540009266666686
  0
LINE
  8
_1-8_小物
  6
CONTINUOUS
 62
    4
 10
137.19166726666623
 20
66.846938966666471
 11
136.14166696666666
 21
66.635272466666606
  0
LINE
  8
_1-8_小物
  6
CONTINUOUS
 62
    4
 10
137.19166726666623
 20
66.846938966666471
 11
137.02666666666624
 21
66.942202166666561
  0
LINE
  8
_1-8_小物
  6
CONTINUOUS
 62
    4
 10
137.19166726666623
 20
66.846938966666471
 11
137.02666666666624
 21
66.751676666666583
  0
LINE
  8
_1-8_小物
  6
CONTINUOUS
 62
    4
 10
136.14166696666666
 20
66.635272466666606
 11
136.30666666666662
 21
66.730534766666665
  0
LINE
  8
_1-8_小物
  6
CONTINUOUS
 62
    4
 10
136.30666666666662
 20
66.540009266666686
 11
136.14166696666666
 21
66.635272466666606
  0
LINE
  8
_1-8_小物
  6
CONTINUOUS
 62
    4
 10
137.02666666666624
 20
66.259789766666586
 11
137.02666666666624
 21
66.328342766666594
  0
LINE
  8
_1-8_小物
  6
CONTINUOUS
 62
    4
 10
136.30666666666662
 20
66.11667626666673
 11
136.30666666666662
 21
65.883868766666694
  0
LINE
  8
_1-8_小物
  6
CONTINUOUS
 62
    4
 10
137.02666666666624
 20
66.518868266666573
 11
136.30666666666662
 21
66.307201766666651
  0
LINE
  8
_1-8_小物
  6
CONTINUOUS
 62
    4
 10
137.02666666666624
 20
66.328342766666594
 11
136.55871526666647
 21
66.190774166666756
  0
LINE
  8
_1-8_小物
  6
CONTINUOUS
 62
    4
 10
136.22177416666659
 20
66.228087266666421
 11
137.19166726666623
 21
66.423605966666685
  0
LINE
  8
_1-8_小物
  6
CONTINUOUS
 62
    4
 10
137.19166726666623
 20
66.423605966666685
 11
137.02666666666624
 21
66.518868266666573
  0
LINE
  8
_1-8_小物
  6
CONTINUOUS
 62
    4
 10
137.19166726666623
 20
66.423605966666685
 11
137.02666666666624
 21
66.328342766666594
  0
LINE
  8
_1-8_小物
  6
CONTINUOUS
 62
    4
 10
136.18872076666662
 20
66.239105966666671
 11
136.30666666666662
 21
66.307201766666651
  0
LINE
  8
_1-8_小物
  6
CONTINUOUS
 62
    4
 10
136.30666666666662
 20
66.11667626666673
 11
136.14166696666666
 21
66.211939466666593
  0
LINE
  8
_1-8_小物
  6
CONTINUOUS
 62
    4
 10
137.02666666666624
 20
65.6722013666664
 11
137.02666666666624
 21
65.905009766666694
  0
LINE
  8
_1-8_小物
  6
CONTINUOUS
 62
    4
 10
136.30666666666662
 20
65.693343266666602
 11
136.30666666666662
 21
65.460534866666535
  0
LINE
  8
_1-8_小物
  6
CONTINUOUS
 62
    4
 10
137.02666666666624
 20
66.095535266666559
 11
136.30666666666662
 21
65.883868766666694
  0
LINE
  8
_1-8_小物
  6
CONTINUOUS
 62
    4
 10
137.02666666666624
 20
65.905009766666694
 11
136.30666666666662
 21
65.693343266666602
  0
LINE
  8
_1-8_小物
  6
CONTINUOUS
 62
    4
 10
137.19166726666623
 20
66.000272066666696
 11
136.14166696666666
 21
65.788605566666661
  0
LINE
  8
_1-8_小物
  6
CONTINUOUS
 62
    4
 10
137.19166726666623
 20
66.000272066666696
 11
137.02666666666624
 21
66.095535266666559
  0
LINE
  8
_1-8_小物
  6
CONTINUOUS
 62
    4
 10
137.19166726666623
 20
66.000272066666696
 11
137.02666666666624
 21
65.905009766666694
  0
LINE
  8
_1-8_小物
  6
CONTINUOUS
 62
    4
 10
136.14166696666666
 20
65.788605566666661
 11
136.30666666666662
 21
65.883868766666694
  0
LINE
  8
_1-8_小物
  6
CONTINUOUS
 62
    4
 10
136.30666666666662
 20
65.693343266666602
 11
136.14166696666666
 21
65.788605566666661
  0
LINE
  8
_1-8_小物
  6
CONTINUOUS
 62
    4
 10
137.02666666666624
 20
65.24886836666667
 11
137.02666666666624
 21
65.481675866666649
  0
LINE
  8
_1-8_小物
  6
CONTINUOUS
 62
    4
 10
136.30666666666662
 20
65.270009366666557
 11
136.30666666666662
 21
65.037201866666749
  0
LINE
  8
_1-8_小物
  6
CONTINUOUS
 62
    4
 10
137.02666666666624
 20
65.6722013666664
 11
136.30666666666662
 21
65.460534866666535
  0
LINE
  8
_1-8_小物
  6
CONTINUOUS
 62
    4
 10
137.02666666666624
 20
65.481675866666649
 11
136.30666666666662
 21
65.270009366666557
  0
LINE
  8
_1-8_小物
  6
CONTINUOUS
 62
    4
 10
137.19166726666623
 20
65.576939066666569
 11
136.14166696666666
 21
65.365272566666704
  0
LINE
  8
_1-8_小物
  6
CONTINUOUS
 62
    4
 10
137.19166726666623
 20
65.576939066666569
 11
137.02666666666624
 21
65.6722013666664
  0
LINE
  8
_1-8_小物
  6
CONTINUOUS
 62
    4
 10
137.19166726666623
 20
65.576939066666569
 11
137.02666666666624
 21
65.481675866666649
  0
LINE
  8
_1-8_小物
  6
CONTINUOUS
 62
    4
 10
136.14166696666666
 20
65.365272566666704
 11
136.30666666666662
 21
65.460534866666535
  0
LINE
  8
_1-8_小物
  6
CONTINUOUS
 62
    4
 10
136.30666666666662
 20
65.270009366666557
 11
136.14166696666666
 21
65.365272566666704
  0
LINE
  8
_1-8_小物
  6
CONTINUOUS
 62
    4
 10
137.02666666666624
 20
65.24886836666667
 11
136.30666666666662
 21
65.037201866666749
  0
LINE
  8
_1-8_小物
  6
CONTINUOUS
 62
    4
 10
137.19166726666623
 20
65.153606066666782
 11
137.02666666666624
 21
65.24886836666667
  0
LINE
  8
_1-8_小物
  6
CONTINUOUS
 62
    4
 10
136.92139996666674
 20
69.070586966666554
 11
136.40218906666689
 21
68.857787366666685
  0
LINE
  8
_1-8_小物
  6
CONTINUOUS
 62
    4
 10
136.21885456666678
 20
68.751939266666625
 11
137.1066973666662
 21
68.963605766666547
  0
LINE
  8
_1-8_小物
  6
CONTINUOUS
 62
    4
 10
136.94169676666621
 20
68.868342566666684
 11
136.38385426666673
 21
68.656676066666762
  0
LINE
  8
_1-8_小物
  6
CONTINUOUS
 62
    4
 10
136.36359526666661
 20
68.434453466666639
 11
136.9638853666666
 21
68.647253066666792
  0
LINE
  8
_1-8_小物
  6
CONTINUOUS
 62
    4
 10
137.14918186666659
 20
68.540272766666533
 11
136.18026076666644
 21
68.328605366666636
  0
LINE
  8
_1-8_小物
  6
CONTINUOUS
 62
    4
 10
136.3452604666669
 20
68.233343066666635
 11
136.98418216666664
 21
68.44500956666667
  0
LINE
  8
_1-8_小物
  6
CONTINUOUS
 62
    4
 10
136.3452604666669
 20
68.233343066666635
 11
136.32451456666655
 21
68.005781666666621
  0
LINE
  8
_1-8_小物
  6
CONTINUOUS
 62
    4
 10
136.38385426666673
 20
68.656676066666762
 11
136.36359526666661
 21
68.434453466666639
  0
LINE
  8
_1-8_小物
  6
CONTINUOUS
 62
    4
 10
136.9638853666666
 20
68.647253066666792
 11
136.94169676666621
 21
68.868342566666684
  0
LINE
  8
_1-8_小物
  6
CONTINUOUS
 62
    4
 10
137.0080942666666
 20
68.206741766666539
 11
136.98418216666664
 21
68.44500956666667
  0
LINE
  8
_1-8_小物
  6
CONTINUOUS
 62
    4
 10
137.1066973666662
 20
68.963605766666547
 11
136.92139996666674
 21
69.070586966666554
  0
LINE
  8
_1-8_小物
  6
CONTINUOUS
 62
    4
 10
136.94169676666621
 20
68.868342566666684
 11
137.1066973666662
 21
68.963605766666547
  0
LINE
  8
_1-8_小物
  6
CONTINUOUS
 62
    4
 10
137.14918186666659
 20
68.540272766666533
 11
136.9638853666666
 21
68.647253066666792
  0
LINE
  8
_1-8_小物
  6
CONTINUOUS
 62
    4
 10
137.14918186666659
 20
68.540272766666533
 11
136.98418216666664
 21
68.44500956666667
  0
LINE
  8
_1-8_小物
  6
CONTINUOUS
 62
    4
 10
136.21885456666678
 20
68.751939266666625
 11
136.40218906666689
 21
68.857787366666685
  0
LINE
  8
_1-8_小物
  6
CONTINUOUS
 62
    4
 10
136.38385426666673
 20
68.656676066666762
 11
136.21885456666678
 21
68.751939266666625
  0
LINE
  8
_1-8_小物
  6
CONTINUOUS
 62
    4
 10
136.18026076666644
 20
68.328605366666636
 11
136.36359526666661
 21
68.434453466666639
  0
LINE
  8
_1-8_小物
  6
CONTINUOUS
 62
    4
 10
136.3452604666669
 20
68.233343066666635
 11
136.18026076666644
 21
68.328605366666636
  0
LINE
  8
_1-8_小物
  6
CONTINUOUS
 62
    4
 10
136.66666666666657
 20
69.806676266666614
 11
136.92139996666674
 21
69.070586966666554
  0
LINE
  8
_1-8_小物
  6
CONTINUOUS
 62
    4
 10
136.40218906666689
 20
68.857787366666685
 11
136.66666666666657
 21
69.806676266666614
  0
LINE
  8
_1-8_小物
  6
CONTINUOUS
 62
    4
 10
137.02666666666624
 20
66.259789766666586
 11
137.02666666666624
 21
66.095535266666559
  0
LINE
  8
_1-8_小物
  6
CONTINUOUS
 62
    4
 10
136.18872076666662
 20
66.239105966666671
 11
136.14166696666666
 21
66.211939466666593
  0
LINE
  8
_1-8_小物
  6
CONTINUOUS
 62
    4
 10
136.30666666666662
 20
66.11667626666673
 11
136.55871526666647
 21
66.190774166666756
  0
LINE
  8
_1-8_小物
  6
CONTINUOUS
 62
    4
 10
136.22177416666659
 20
66.228087266666421
 11
136.14166696666666
 21
66.211939466666593
  0
LINE
  8
_1-8_小物
  6
CENTER2
 62
    4
 10
136.66666666666657
 20
70.706676266666477
 11
136.66666666666657
 21
60.536666366666509
  0
ENDBLK
  0
BLOCK
  2
-022-_16_
 70
   64
 10
0
 20
0
 30
0
  0
ARC
  8
_1-8_小物
  6
CONTINUOUS
 62
    4
 10
141.66666666666652
 20
59.400000000000091
 40
0.0999999999999999
 50
90
 51
180.00000000003257
  0
ARC
  8
_1-8_小物
  6
CONTINUOUS
 62
    4
 10
144.33333333333314
 20
60.166666666666742
 40
0.1666666666666666
 50
270
 51
0
  0
ARC
  8
_1-8_小物
  6
CONTINUOUS
 62
    4
 10
144.33333333333314
 20
60.166666666666742
 40
0.6666666666666666
 50
270
 51
0
  0
ARC
  8
_1-8_小物
  6
CONTINUOUS
 62
    4
 10
141.73333333333318
 20
59.500000000000057
 40
0.5
 50
90
 51
180
  0
ARC
  8
_1-8_小物
  6
CONTINUOUS
 62
    4
 10
143.68642764094994
 20
58.83334577163032
 40
0.3333333333333333
 50
4.5242577737849174
 51
94.524257773775176
  0
LINE
  8
_1-8_小物
  6
CONTINUOUS
 62
    4
 10
141.56666666666644
 20
59.108214496870062
 11
141.56666666666644
 21
59.400000000000091
  0
ARC
  8
_1-8_小物
  6
CONTINUOUS
 62
    4
 10
141.66666666666652
 20
59.108214496870062
 40
0.0999999999999999
 50
180
 51
274.52425777377272
  0
LINE
  8
_1-8_小物
  6
CONTINUOUS
 62
    4
 10
144.33333333333314
 20
59.500000000000057
 11
141.66666666666652
 21
59.500000000000057
  0
LINE
  8
_1-8_小物
  6
CONTINUOUS
 62
    4
 10
143.66013392042589
 20
59.165640447139964
 11
141.67455478282369
 21
59.00852609421716
  0
ARC
  8
_1-8_小物
  6
CONTINUOUS
 62
    4
 10
143.47222697245991
 20
58.582333894406617
 40
0.1666666666666666
 50
4.5242577737946581
 51
94.524257773765441
  0
LINE
  8
_1-8_小物
  6
CONTINUOUS
 62
    4
 10
143.45908011219791
 20
58.748481232161481
 11
141.59296038719049
 21
58.600819430363401
  0
LINE
  8
_1-8_小物
  6
CONTINUOUS
 62
    4
 10
141.23333333333318
 20
58.93311410587313
 11
141.23333333333318
 21
59.500000000000057
  0
ARC
  8
_1-8_小物
  6
CONTINUOUS
 62
    4
 10
141.56666666666644
 20
58.93311410587313
 40
0.3333333333333333
 50
180
 51
274.52425777379466
  0
LINE
  8
_1-8_小物
  6
CONTINUOUS
 62
    4
 10
144.01872231645967
 20
58.859639492154258
 11
144.04238666493131
 21
58.560574284195496
  0
LINE
  8
_1-8_小物
  6
CONTINUOUS
 62
    4
 10
143.63837431021477
 20
58.595480754668642
 11
143.64363305431954
 21
58.529021819566708
  0
ARC
  8
_1-8_小物
  6
CONTINUOUS
 62
    4
 10
143.84300985962551
 20
58.544798051881116
 40
0.1999999999999963
 50
184.52425777379705
 51
4.524257773780846
  0
LINE
  8
_1-8_小物
  6
CONTINUOUS
 62
    4
 10
142.23333333333318
 20
60.166666666666742
 11
142.06666666666644
 21
60.000000000000057
  0
LINE
  8
_1-8_小物
  6
CONTINUOUS
 62
    4
 10
142.23333333333318
 20
60.166666666666742
 11
142.39999999999975
 21
60.000000000000057
  0
LINE
  8
_1-8_小物
  6
CONTINUOUS
 62
    4
 10
144.33333333333314
 20
60.000000000000057
 11
142.39999999999975
 21
60.000000000000057
  0
LINE
  8
_1-8_小物
  6
CONTINUOUS
 62
    4
 10
142.06666666666644
 20
60.000000000000057
 11
141.73333333333318
 21
60.000000000000057
  0
ARC
  8
_1-8_小物
  6
CONTINUOUS
 62
    4
 10
144.08797752418843
 20
63.625337073210545
 40
0.4999999999999946
 50
9.3601908019146016
 51
169.36019080191099
  0
LINE
  8
_1-8_小物
  6
CONTINUOUS
 62
    4
 10
144.49999999999983
 20
61.12573405328834
 11
144.11872351861405
 21
63.438811373695472
  0
ARC
  8
_1-8_小物
  6
CONTINUOUS
 62
    4
 10
144.08583400519393
 20
63.433390025329516
 40
0.0333333333333333
 50
9.3601908019350457
 51
169.36019080189422
  0
ARC
  8
_1-8_小物
  6
CONTINUOUS
 62
    4
 10
143.61148288464784
 20
62.442986508238789
 40
0.25
 50
169.3601908019134
 51
349.3601908019134
  0
LINE
  8
_1-8_小物
  6
CONTINUOUS
 62
    4
 10
143.36578105909405
 20
62.489145071036148
 11
143.59657387308084
 21
63.717654198805263
  0
LINE
  8
_1-8_小物
  6
CONTINUOUS
 62
    4
 10
144.99999999999983
 20
61.166666666666742
 11
144.58132022548881
 21
63.706657298699639
  0
LINE
  8
_1-8_小物
  6
CONTINUOUS
 62
    4
 10
143.85718471020169
 20
62.39682794544143
 11
144.05307376178689
 21
63.43954450036918
  0
LINE
  8
_1-8_小物
  6
CONTINUOUS
 62
    4
 10
144.49999999999983
 20
60.166666666666742
 11
144.49999999999983
 21
61.12573405328834
  0
LINE
  8
_1-8_小物
  6
CONTINUOUS
 62
    4
 10
144.99999999999983
 20
60.166666666666742
 11
144.99999999999983
 21
61.166666666666742
  0
ENDBLK
  0
BLOCK
  2
-023-_17_
 70
   64
 10
0
 20
0
 30
0
  0
ARC
  8
_1-8_小物
  6
CONTINUOUS
 62
    4
 10
-141.66666666666691
 20
59.399999999999892
 40
0.0999999999999999
 50
0
 51
90
  0
ARC
  8
_1-8_小物
  6
CONTINUOUS
 62
    4
 10
-144.3333333333336
 20
60.166666666666572
 40
0.1666666666666666
 50
180
 51
270
  0
ARC
  8
_1-8_小物
  6
CONTINUOUS
 62
    4
 10
-144.3333333333336
 20
60.166666666666572
 40
0.6666666666666666
 50
180
 51
270
  0
ARC
  8
_1-8_小物
  6
CONTINUOUS
 62
    4
 10
-141.73333333333358
 20
59.499999999999915
 40
0.5
 50
0
 51
90
  0
ARC
  8
_1-8_小物
  6
CONTINUOUS
 62
    4
 10
-143.6919228524149
 20
58.766668218763272
 40
0.3333333333333333
 50
82.77709821968287
 51
172.77709821967741
  0
LINE
  8
_1-8_小物
  6
CONTINUOUS
 62
    4
 10
-141.56666666666692
 20
58.946795929963884
 11
-141.56666666666692
 21
59.399999999999892
  0
LINE
  8
_1-8_小物
  6
CONTINUOUS
 62
    4
 10
-144.3333333333336
 20
59.499999999999915
 11
-141.66666666666691
 21
59.499999999999915
  0
LINE
  8
_1-8_小物
  6
CONTINUOUS
 62
    4
 10
-143.65001292469213
 20
59.097356393739915
 11
-141.67923964498374
 21
58.847589477470876
  0
ARC
  8
_1-8_小物
  6
CONTINUOUS
 62
    4
 10
-141.66666666666691
 20
58.946795929963884
 40
0.0999999999999999
 50
262.7770982196871
 51
0
  0
LINE
  8
_1-8_小物
  6
CONTINUOUS
 62
    4
 10
-141.23333333333358
 20
58.766122555924881
 11
-141.23333333333358
 21
59.499999999999915
  0
ARC
  8
_1-8_小物
  6
CONTINUOUS
 62
    4
 10
-141.56666666666692
 20
58.766122555924881
 40
0.3333333333333333
 50
262.77709821968284
 51
0
  0
LINE
  8
_1-8_小物
  6
CONTINUOUS
 62
    4
 10
-143.4688231154758
 20
58.671193634361998
 11
-141.60857659438969
 21
58.435434380948237
  0
ARC
  8
_1-8_小物
  6
CONTINUOUS
 62
    4
 10
-143.48977807933721
 20
58.505849546873662
 40
0.1666666666666666
 50
82.777098219683467
 51
172.77709821968224
  0
ARC
  8
_1-8_小物
  6
CONTINUOUS
 62
    4
 10
-143.86191705727438
 20
58.485812832185644
 40
0.1999999998953772
 50
172.77709820255109
 51
352.77709820255916
  0
LINE
  8
_1-8_小物
  6
CONTINUOUS
 62
    4
 10
-143.65512216682552
 20
58.526804510735047
 11
-143.66350415239972
 21
58.460666875505837
  0
LINE
  8
_1-8_小物
  6
CONTINUOUS
 62
    4
 10
-144.02261102739155
 20
58.808578146486013
 11
-144.06032996235666
 21
58.510958788891799
  0
LINE
  8
_1-8_小物
  6
CONTINUOUS
 62
    4
 10
-142.23333333333358
 20
60.166666666666572
 11
-142.06666666666692
 21
59.999999999999915
  0
LINE
  8
_1-8_小物
  6
CONTINUOUS
 62
    4
 10
-142.23333333333358
 20
60.166666666666572
 11
-142.40000000000026
 21
59.999999999999915
  0
LINE
  8
_1-8_小物
  6
CONTINUOUS
 62
    4
 10
-142.90000000000026
 20
60.166666666666572
 11
-142.73333333333358
 21
59.999999999999915
  0
LINE
  8
_1-8_小物
  6
CONTINUOUS
 62
    4
 10
-142.90000000000026
 20
60.166666666666572
 11
-143.06666666666692
 21
59.999999999999915
  0
LINE
  8
_1-8_小物
  6
CONTINUOUS
 62
    4
 10
-144.3333333333336
 20
59.999999999999915
 11
-143.06666666666692
 21
59.999999999999915
  0
LINE
  8
_1-8_小物
  6
CONTINUOUS
 62
    4
 10
-142.73333333333358
 20
59.999999999999915
 11
-142.40000000000026
 21
59.999999999999915
  0
LINE
  8
_1-8_小物
  6
CONTINUOUS
 62
    4
 10
-142.06666666666692
 20
59.999999999999915
 11
-141.73333333333358
 21
59.999999999999915
  0
ARC
  8
_1-8_小物
  6
CONTINUOUS
 62
    4
 10
-144.08797752418889
 20
63.625337073210403
 40
0.4999999999999946
 50
10.639809198087802
 51
170.6398091980854
  0
LINE
  8
_1-8_小物
  6
CONTINUOUS
 62
    4
 10
-144.50000000000026
 20
61.125734053288198
 11
-144.11872351861447
 21
63.43881137369533
  0
ARC
  8
_1-8_小物
  6
CONTINUOUS
 62
    4
 10
-144.08583400519444
 20
63.433390025329373
 40
0.0333333333333333
 50
10.639809198123826
 51
170.63980919805701
  0
ARC
  8
_1-8_小物
  6
CONTINUOUS
 62
    4
 10
-143.61148288464832
 20
62.442986508238647
 40
0.25
 50
190.63980919808779
 51
10.639809198081366
  0
LINE
  8
_1-8_小物
  6
CONTINUOUS
 62
    4
 10
-143.3657810590945
 20
62.489145071035978
 11
-143.59657387308124
 21
63.717654198805121
  0
LINE
  8
_1-8_小物
  6
CONTINUOUS
 62
    4
 10
-145.00000000000026
 20
61.166666666666572
 11
-144.58132022548932
 21
63.706657298699497
  0
LINE
  8
_1-8_小物
  6
CONTINUOUS
 62
    4
 10
-143.85718471020215
 20
62.39682794544126
 11
-144.05307376178729
 21
63.439544500369038
  0
LINE
  8
_1-8_小物
  6
CONTINUOUS
 62
    4
 10
-144.50000000000026
 20
60.166666666666572
 11
-144.50000000000026
 21
61.125734053288198
  0
LINE
  8
_1-8_小物
  6
CONTINUOUS
 62
    4
 10
-145.00000000000026
 20
60.166666666666572
 11
-145.00000000000026
 21
61.166666666666572
  0
ENDBLK
  0
BLOCK
  2
-024-_18_
 70
   64
 10
0
 20
0
 30
0
  0
ARC
  8
_1-8_小物
  6
CONTINUOUS
 62
    4
 10
-58.333333333333087
 20
59.399999999999892
 40
0.0999999999999999
 50
90
 51
180
  0
ARC
  8
_1-8_小物
  6
CONTINUOUS
 62
    4
 10
-55.66666666666643
 20
60.166666666666572
 40
0.1666666666666666
 50
270
 51
0
  0
ARC
  8
_1-8_小物
  6
CONTINUOUS
 62
    4
 10
-55.66666666666643
 20
60.166666666666572
 40
0.6666666666666666
 50
270
 51
0
  0
ARC
  8
_1-8_小物
  6
CONTINUOUS
 62
    4
 10
-58.266666666666424
 20
59.499999999999915
 40
0.5
 50
90
 51
180
  0
ARC
  8
_1-8_小物
  6
CONTINUOUS
 62
    4
 10
-56.308077147585124
 20
58.766668218763272
 40
0.3333333333333333
 50
7.2229017803219868
 51
97.22290178031713
  0
LINE
  8
_1-8_小物
  6
CONTINUOUS
 62
    4
 10
-58.433333333333081
 20
58.946795929963884
 11
-58.433333333333081
 21
59.399999999999892
  0
LINE
  8
_1-8_小物
  6
CONTINUOUS
 62
    4
 10
-55.66666666666643
 20
59.499999999999915
 11
-58.333333333333087
 21
59.499999999999915
  0
LINE
  8
_1-8_小物
  6
CONTINUOUS
 62
    4
 10
-56.349987075307894
 20
59.097356393739915
 11
-58.320760355016262
 21
58.847589477470876
  0
ARC
  8
_1-8_小物
  6
CONTINUOUS
 62
    4
 10
-58.333333333333087
 20
58.946795929963884
 40
0.0999999999999999
 50
180
 51
277.2229017803129
  0
LINE
  8
_1-8_小物
  6
CONTINUOUS
 62
    4
 10
-58.766666666666424
 20
58.766122555924881
 11
-58.766666666666424
 21
59.499999999999915
  0
ARC
  8
_1-8_小物
  6
CONTINUOUS
 62
    4
 10
-58.433333333333081
 20
58.766122555924881
 40
0.3333333333333333
 50
180
 51
277.22290178031716
  0
LINE
  8
_1-8_小物
  6
CONTINUOUS
 62
    4
 10
-56.5311768845242
 20
58.671193634361998
 11
-58.391423405610311
 21
58.435434380948237
  0
ARC
  8
_1-8_小物
  6
CONTINUOUS
 62
    4
 10
-56.510221920662815
 20
58.505849546873662
 40
0.1666666666666666
 50
7.2229017803177538
 51
97.222901780316519
  0
ARC
  8
_1-8_小物
  6
CONTINUOUS
 62
    4
 10
-56.138082942725617
 20
58.485812832185644
 40
0.1999999998953772
 50
187.22290179744081
 51
7.2229017974489125
  0
LINE
  8
_1-8_小物
  6
CONTINUOUS
 62
    4
 10
-56.344877833174507
 20
58.526804510735047
 11
-56.336495847600276
 21
58.460666875505837
  0
LINE
  8
_1-8_小物
  6
CONTINUOUS
 62
    4
 10
-55.97738897260848
 20
58.808578146486013
 11
-55.939670037643367
 21
58.510958788891799
  0
LINE
  8
_1-8_小物
  6
CONTINUOUS
 62
    4
 10
-57.766666666666424
 20
60.166666666666572
 11
-57.933333333333081
 21
59.999999999999915
  0
LINE
  8
_1-8_小物
  6
CONTINUOUS
 62
    4
 10
-57.766666666666424
 20
60.166666666666572
 11
-57.599999999999767
 21
59.999999999999915
  0
LINE
  8
_1-8_小物
  6
CONTINUOUS
 62
    4
 10
-57.099999999999767
 20
60.166666666666572
 11
-57.266666666666424
 21
59.999999999999915
  0
LINE
  8
_1-8_小物
  6
CONTINUOUS
 62
    4
 10
-57.099999999999767
 20
60.166666666666572
 11
-56.93333333333311
 21
59.999999999999915
  0
LINE
  8
_1-8_小物
  6
CONTINUOUS
 62
    4
 10
-55.66666666666643
 20
59.999999999999915
 11
-56.93333333333311
 21
59.999999999999915
  0
LINE
  8
_1-8_小物
  6
CONTINUOUS
 62
    4
 10
-57.266666666666424
 20
59.999999999999915
 11
-57.599999999999767
 21
59.999999999999915
  0
LINE
  8
_1-8_小物
  6
CONTINUOUS
 62
    4
 10
-57.933333333333081
 20
59.999999999999915
 11
-58.266666666666424
 21
59.999999999999915
  0
ARC
  8
_1-8_小物
  6
CONTINUOUS
 62
    4
 10
-55.912022475811114
 20
63.625337073210403
 40
0.4999999999999946
 50
9.360190801915131
 51
169.36019080191218
  0
LINE
  8
_1-8_小物
  6
CONTINUOUS
 62
    4
 10
-55.499999999999744
 20
61.125734053288198
 11
-55.881276481385555
 21
63.43881137369533
  0
ARC
  8
_1-8_小物
  6
CONTINUOUS
 62
    4
 10
-55.914165994805558
 20
63.433390025329373
 40
0.0333333333333333
 50
9.3601908019509352
 51
169.36019080188521
  0
ARC
  8
_1-8_小物
  6
CONTINUOUS
 62
    4
 10
-56.388517115351704
 20
62.442986508238647
 40
0.25
 50
169.3601908019198
 51
349.36019080191221
  0
LINE
  8
_1-8_小物
  6
CONTINUOUS
 62
    4
 10
-56.634218940905527
 20
62.489145071035978
 11
-56.40342612691876
 21
63.717654198805121
  0
LINE
  8
_1-8_小物
  6
CONTINUOUS
 62
    4
 10
-54.999999999999744
 20
61.166666666666572
 11
-55.418679774510679
 21
63.706657298699497
  0
LINE
  8
_1-8_小物
  6
CONTINUOUS
 62
    4
 10
-56.14281528979788
 20
62.39682794544126
 11
-55.94692623821274
 21
63.439544500369038
  0
LINE
  8
_1-8_小物
  6
CONTINUOUS
 62
    4
 10
-55.499999999999744
 20
60.166666666666572
 11
-55.499999999999744
 21
61.125734053288198
  0
LINE
  8
_1-8_小物
  6
CONTINUOUS
 62
    4
 10
-54.999999999999744
 20
60.166666666666572
 11
-54.999999999999744
 21
61.166666666666572
  0
ENDBLK
  0
BLOCK
  2
-025-_19_
 70
   64
 10
0
 20
0
 30
0
  0
LINE
  8
_1-8_小物
  6
CONTINUOUS
 62
    4
 10
76.033333333333076
 20
56.166666587199359
 11
76.033333333333076
 21
50.166666587200041
  0
LINE
  8
_1-8_小物
  6
CONTINUOUS
 62
    4
 10
76.033333333333076
 20
50.166666587200041
 11
75.533333333332962
 21
50.166666587200041
  0
ARC
  8
_1-8_小物
  6
CONTINUOUS
 62
    4
 10
75.400000497527913
 20
53.1666665871997
 40
1.5999999999998398
 50
324.29996100000506
 51
0
  0
ARC
  8
_1-8_小物
  6
CONTINUOUS
 62
    4
 10
76.049666497527937
 20
53.633499587199765
 40
0.7999999999999201
 50
35.70005899999191
 51
91.169858000005419
  0
ARC
  8
_1-8_小物
  6
CONTINUOUS
 62
    4
 10
75.400000497527913
 20
53.1666665871997
 40
1.5999999999998398
 50
0
 51
35.700039000000658
  0
ARC
  8
_1-8_小物
  6
CONTINUOUS
 62
    4
 10
76.049666497527937
 20
52.699833587199635
 40
0.7999999999999201
 50
268.83014199999451
 51
324.29994100000806
  0
LINE
  8
_1-8_小物
  6
CONTINUOUS
 62
    4
 10
76.033333333333076
 20
56.166666587199359
 11
75.533333333332962
 21
56.166666587199359
  0
LINE
  8
_1-8_小物
  6
CONTINUOUS
 62
    4
 10
75.533333333332962
 20
56.166666587199359
 11
75.533333333332962
 21
50.166666587200041
  0
LINE
  8
_1-8_小物
  6
CONTINUOUS
 62
    4
 10
76.033333333332962
 20
52.249999920532389
 11
75.533333333332962
 21
52.249999920532389
  0
LINE
  8
_1-8_小物
  6
CONTINUOUS
 62
    4
 10
76.033333333332962
 20
54.083333253866044
 11
75.533333333332962
 21
54.083333253866044
  0
ENDBLK
  0
BLOCK
  2
-026-_20_
 70
   64
 10
0
 20
0
 30
0
  0
LINE
  8
_1-8_小物
  6
CONTINUOUS
 62
    4
 10
72.950910999999678
 20
51.586081587199885
 11
71.299905999999737
 21
51.821939587199893
  0
LINE
  8
_1-8_小物
  6
CONTINUOUS
 62
    4
 10
70.049906000000874
 20
52.010857587199951
 11
71.214401000000976
 21
51.587016587199912
  0
LINE
  8
_1-8_小物
  6
CONTINUOUS
 62
    4
 10
71.214401000000976
 20
51.587016587199912
 11
72.915305999999873
 21
51.338927587199976
  0
ARC
  8
_1-8_小物
  6
CONTINUOUS
 62
    4
 10
72.936768999999686
 20
51.487086587199826
 40
0.0999999999999899
 50
351.86989799997593
 51
81.86989800004045
  0
LINE
  8
_1-8_小物
  6
CONTINUOUS
 62
    4
 10
73.028733999999758
 20
51.423738587200035
 11
73.035762999999974
 21
51.472944587199947
  0
ARC
  8
_1-8_小物
  6
CONTINUOUS
 62
    4
 10
72.929738999999699
 20
51.437880587199913
 40
0.0999999999999899
 50
261.7015340000263
 51
351.86989800004045
  0
LINE
  8
_1-8_小物
  6
CONTINUOUS
 62
    4
 10
65.805730000000835
 20
54.5448975871995
 11
65.280247000000827
 21
54.071751587199685
  0
LINE
  8
_1-8_小物
  6
CONTINUOUS
 62
    4
 10
65.260621000000924
 20
53.697270587199739
 11
72.999999999999886
 21
53.291666587199813
  0
LINE
  8
_1-8_小物
  6
CONTINUOUS
 62
    4
 10
65.805730000000835
 20
54.544902587199488
 11
65.280247000000827
 21
54.071756587199673
  0
LINE
  8
_1-8_小物
  6
CONTINUOUS
 62
    4
 10
65.260621000000924
 20
52.63606258719966
 11
72.999999999999886
 21
53.0416665871997
  0
LINE
  8
_1-8_小物
  6
CONTINUOUS
 62
    4
 10
65.805730000000835
 20
51.788429587199914
 11
65.280247000000827
 21
52.261576587199727
  0
LINE
  8
_1-8_小物
  6
CONTINUOUS
 62
    4
 10
72.950910999999678
 20
54.747251587199514
 11
71.299905999999737
 21
54.511393587199507
  0
LINE
  8
_1-8_小物
  6
CONTINUOUS
 62
    4
 10
71.214401000000976
 20
54.746316587199715
 11
72.915305999999873
 21
54.994405587199651
  0
LINE
  8
_1-8_小物
  6
CONTINUOUS
 62
    4
 10
71.771339000000808
 20
53.731572587199764
 11
71.272025000000781
 21
53.757740587199521
  0
LINE
  8
_1-8_小物
  6
CONTINUOUS
 62
    4
 10
71.771339000000808
 20
52.601760587199635
 11
71.272025000000781
 21
52.575592587199878
  0
LINE
  8
_1-8_小物
  6
CONTINUOUS
 62
    4
 10
74.999999999999773
 20
54.166666587199472
 11
71.999999999999773
 21
54.166666587199472
  0
LINE
  8
_1-8_小物
  6
CONTINUOUS
 62
    4
 10
74.999999999999773
 20
52.166666587199813
 11
71.999999999999773
 21
52.166666587199813
  0
ARC
  8
_1-8_小物
  6
CONTINUOUS
 62
    4
 10
72.936768999999686
 20
54.846246587199573
 40
0.0999999999999899
 50
278.13010199995955
 51
8.1301020000240669
  0
LINE
  8
_1-8_小物
  6
CONTINUOUS
 62
    4
 10
73.028733999999758
 20
54.909594587199592
 11
73.035762999999974
 21
54.860388587199679
  0
ARC
  8
_1-8_小物
  6
CONTINUOUS
 62
    4
 10
72.929738999999699
 20
54.895452587199713
 40
0.0999999999999899
 50
8.1301019999595656
 51
98.298465999971356
  0
LINE
  8
_1-8_小物
  6
CONTINUOUS
 62
    4
 10
72.999999999999886
 20
53.291666587199813
 11
72.999999999999886
 21
53.1666665871997
  0
LINE
  8
_1-8_小物
  6
CONTINUOUS
 62
    4
 10
74.999999999999773
 20
54.416666587199586
 11
73.749999999999886
 21
54.166666587199472
  0
LINE
  8
_1-8_小物
  6
CONTINUOUS
 62
    4
 10
74.999999999999773
 20
53.4166665871997
 11
73.749999999999886
 21
53.1666665871997
  0
LINE
  8
_1-8_小物
  6
CONTINUOUS
 62
    4
 10
74.999999999999773
 20
52.916666587199813
 11
73.749999999999886
 21
53.1666665871997
  0
LINE
  8
_1-8_小物
  6
CONTINUOUS
 62
    4
 10
73.749999999999886
 20
53.1666665871997
 11
74.999999999999773
 21
53.1666665871997
  0
LINE
  8
_1-8_小物
  6
CONTINUOUS
 62
    4
 10
72.999999999999886
 20
53.0416665871997
 11
72.999999999999886
 21
53.1666665871997
  0
LINE
  8
_1-8_小物
  6
CONTINUOUS
 62
    4
 10
74.999999999999773
 20
51.916666587199813
 11
73.749999999999886
 21
52.166666587199813
  0
LINE
  8
_1-8_小物
  6
CONTINUOUS
 62
    4
 10
71.999999999999773
 20
54.166666587199472
 11
71.771339000000808
 21
53.731572587199764
  0
LINE
  8
_1-8_小物
  6
CONTINUOUS
 62
    4
 10
71.999999999999773
 20
52.166666587199813
 11
71.771339000000808
 21
52.601760587199635
  0
LINE
  8
_1-8_小物
  6
CONTINUOUS
 62
    4
 10
66.000000000000796
 20
53.1666665871997
 11
66.46736136527295
 21
52.699305221927546
  0
LINE
  8
_1-8_小物
  6
CONTINUOUS
 62
    4
 10
70.035692037463946
 20
54.051257125569748
 11
71.299905999999737
 21
54.511393587199507
  0
LINE
  8
_1-8_小物
  6
CONTINUOUS
 62
    4
 10
70.035692037463946
 20
52.282076048829879
 11
71.299905999999737
 21
51.821939587199893
  0
LINE
  8
_1-8_小物
  6
CONTINUOUS
 62
    4
 10
65.759936000000835
 20
53.671102587199641
 11
65.805730000000835
 21
54.544902587199488
  0
LINE
  8
_1-8_小物
  6
CONTINUOUS
 62
    4
 10
67.553332000000864
 20
54.453315587199711
 11
67.054017000000954
 21
54.479483587199582
  0
LINE
  8
_1-8_小物
  6
CONTINUOUS
 62
    4
 10
65.759936000000835
 20
52.662230587199758
 11
65.805730000000835
 21
51.788429587199914
  0
LINE
  8
_1-8_小物
  6
CONTINUOUS
 62
    4
 10
67.553332000000864
 20
51.880017587199916
 11
67.054017000000954
 21
51.853849587199818
  0
LINE
  8
_1-8_小物
  6
CONTINUOUS
 62
    4
 10
66.467361000000665
 20
53.634027587199682
 11
66.000000000000796
 21
53.1666665871997
  0
LINE
  8
_1-8_小物
  6
CONTINUOUS
 62
    4
 10
66.278877000000989
 20
54.019420587199704
 11
66.305045000000746
 21
54.518734587199617
  0
LINE
  8
_1-8_小物
  6
CONTINUOUS
 62
    4
 10
66.778192000000672
 20
53.99325258719972
 11
66.278877000000989
 21
54.019420587199704
  0
LINE
  8
_1-8_小物
  6
CONTINUOUS
 62
    4
 10
67.054017000000954
 20
54.479483587199582
 11
66.778192000000672
 21
53.99325258719972
  0
LINE
  8
_1-8_小物
  6
CONTINUOUS
 62
    4
 10
66.305045000000746
 20
54.518734587199617
 11
65.805730000000835
 21
54.544902587199488
  0
LINE
  8
_1-8_小物
  6
CONTINUOUS
 62
    4
 10
66.278877000000989
 20
52.313912587199809
 11
66.305045000000746
 21
51.814597587199898
  0
LINE
  8
_1-8_小物
  6
CONTINUOUS
 62
    4
 10
66.778192000000672
 20
52.340080587199679
 11
66.278877000000989
 21
52.313912587199809
  0
LINE
  8
_1-8_小物
  6
CONTINUOUS
 62
    4
 10
67.054017000000954
 20
51.853849587199818
 11
66.778192000000672
 21
52.340080587199679
  0
LINE
  8
_1-8_小物
  6
CONTINUOUS
 62
    4
 10
66.305045000000746
 20
51.814597587199898
 11
65.805730000000835
 21
51.788429587199914
  0
LINE
  8
_1-8_小物
  6
CONTINUOUS
 62
    4
 10
70.049906000000874
 20
54.322475587199676
 11
71.214401000000976
 21
54.746316587199715
  0
LINE
  8
_1-8_小物
  6
CONTINUOUS
 62
    4
 10
71.272025000000781
 20
53.757740587199521
 11
71.298193000000879
 21
54.257055587199432
  0
LINE
  8
_1-8_小物
  6
CONTINUOUS
 62
    4
 10
71.298193000000879
 20
54.257055587199432
 11
70.798878000000741
 21
54.283223587199757
  0
LINE
  8
_1-8_小物
  6
CONTINUOUS
 62
    4
 10
70.023738000000776
 20
53.823160587199766
 11
70.049906000000874
 21
54.322475587199676
  0
LINE
  8
_1-8_小物
  6
CONTINUOUS
 62
    4
 10
70.523052000000689
 20
53.796992587199668
 11
70.023738000000776
 21
53.823160587199766
  0
LINE
  8
_1-8_小物
  6
CONTINUOUS
 62
    4
 10
70.798878000000741
 20
54.283223587199757
 11
70.523052000000689
 21
53.796992587199668
  0
LINE
  8
_1-8_小物
  6
CONTINUOUS
 62
    4
 10
70.049906000000874
 20
54.322475587199676
 11
69.55059100000085
 21
54.348643587199433
  0
LINE
  8
_1-8_小物
  6
CONTINUOUS
 62
    4
 10
68.775451000000885
 20
53.888580587199669
 11
68.801619000000755
 21
54.38789558719958
  0
LINE
  8
_1-8_小物
  6
CONTINUOUS
 62
    4
 10
69.274765000000798
 20
53.862412587199572
 11
68.775451000000885
 21
53.888580587199669
  0
LINE
  8
_1-8_小物
  6
CONTINUOUS
 62
    4
 10
69.55059100000085
 20
54.348643587199433
 11
69.274765000000798
 21
53.862412587199572
  0
LINE
  8
_1-8_小物
  6
CONTINUOUS
 62
    4
 10
68.801619000000755
 20
54.38789558719958
 11
68.302304000000731
 21
54.414063587199678
  0
LINE
  8
_1-8_小物
  6
CONTINUOUS
 62
    4
 10
67.527164000000766
 20
53.954000587199573
 11
67.553332000000864
 21
54.453315587199711
  0
LINE
  8
_1-8_小物
  6
CONTINUOUS
 62
    4
 10
68.026479000000791
 20
53.927832587199703
 11
67.527164000000766
 21
53.954000587199573
  0
LINE
  8
_1-8_小物
  6
CONTINUOUS
 62
    4
 10
68.302304000000731
 20
54.414063587199678
 11
68.026479000000791
 21
53.927832587199703
  0
LINE
  8
_1-8_小物
  6
CONTINUOUS
 62
    4
 10
71.272025000000781
 20
52.575592587199878
 11
71.298193000000879
 21
52.076277587199627
  0
LINE
  8
_1-8_小物
  6
CONTINUOUS
 62
    4
 10
71.298193000000879
 20
52.076277587199627
 11
70.798878000000741
 21
52.05010958719987
  0
LINE
  8
_1-8_小物
  6
CONTINUOUS
 62
    4
 10
70.023738000000776
 20
52.510172587199634
 11
70.049906000000874
 21
52.010857587199951
  0
LINE
  8
_1-8_小物
  6
CONTINUOUS
 62
    4
 10
70.523052000000689
 20
52.536340587199732
 11
70.023738000000776
 21
52.510172587199634
  0
LINE
  8
_1-8_小物
  6
CONTINUOUS
 62
    4
 10
70.798878000000741
 20
52.05010958719987
 11
70.523052000000689
 21
52.536340587199732
  0
LINE
  8
_1-8_小物
  6
CONTINUOUS
 62
    4
 10
70.049906000000874
 20
52.010857587199951
 11
69.55059100000085
 21
51.984689587199966
  0
LINE
  8
_1-8_小物
  6
CONTINUOUS
 62
    4
 10
68.775451000000885
 20
52.44475258719973
 11
68.801619000000755
 21
51.94543758719982
  0
LINE
  8
_1-8_小物
  6
CONTINUOUS
 62
    4
 10
69.274765000000798
 20
52.470920587199828
 11
68.775451000000885
 21
52.44475258719973
  0
LINE
  8
_1-8_小物
  6
CONTINUOUS
 62
    4
 10
69.55059100000085
 20
51.984689587199966
 11
69.274765000000798
 21
52.470920587199828
  0
LINE
  8
_1-8_小物
  6
CONTINUOUS
 62
    4
 10
68.801619000000755
 20
51.94543758719982
 11
68.302304000000731
 21
51.919269587199949
  0
LINE
  8
_1-8_小物
  6
CONTINUOUS
 62
    4
 10
67.527164000000766
 20
52.379332587199826
 11
67.553332000000864
 21
51.880017587199916
  0
LINE
  8
_1-8_小物
  6
CONTINUOUS
 62
    4
 10
68.026479000000791
 20
52.405500587199811
 11
67.527164000000766
 21
52.379332587199826
  0
LINE
  8
_1-8_小物
  6
CONTINUOUS
 62
    4
 10
68.302304000000731
 20
51.919269587199949
 11
68.026479000000791
 21
52.405500587199811
  0
LINE
  8
_1-8_小物
  6
CONTINUOUS
 62
    4
 10
65.280247000000827
 20
54.071756587199673
 11
65.260621000000924
 21
53.697270587199739
  0
LINE
  8
_1-8_小物
  6
CONTINUOUS
 62
    4
 10
65.280247000000827
 20
52.261576587199727
 11
65.260621000000924
 21
52.63606258719966
  0
LINE
  8
_1-8_小物
  6
CONTINUOUS
 62
    4
 10
74.999999999999773
 20
54.416666587199586
 11
74.999999999999773
 21
51.916666587199813
  0
ENDBLK
  0
BLOCK
  2
-027-_21_
 70
   64
 10
0
 20
0
 30
0
  0
LINE
  8
_1-7_カバ__
  6
CONTINUOUS
 62
    4
 10
82.666666666666003
 20
55.499999999999943
 11
144.33333333333314
 21
55.499999999999943
  0
LINE
  8
_1-7_カバ__
  6
CONTINUOUS
 62
    4
 10
128.33333333333326
 20
54.904044011451901
 11
128.40404401145184
 21
54.833333333333258
  0
LINE
  8
_1-7_カバ__
  6
CONTINUOUS
 62
    4
 10
128.33333333333326
 20
54.904044011451901
 11
128.26262265521456
 21
54.833333333333258
  0
LINE
  8
_1-7_カバ__
  6
CONTINUOUS
 62
    4
 10
91.666666666666742
 20
54.904044011451901
 11
91.737377344785443
 21
54.833333333333258
  0
LINE
  8
_1-7_カバ__
  6
CONTINUOUS
 62
    4
 10
91.666666666666742
 20
54.904044011451901
 11
91.595955988548042
 21
54.833333333333258
  0
LINE
  8
_1-7_カバ__
  6
CONTINUOUS
 62
    4
 10
83.333333333333428
 20
54.833333333333258
 11
91.595955988548042
 21
54.833333333333258
  0
LINE
  8
_1-7_カバ__
  6
CONTINUOUS
 62
    4
 10
128.40404401145184
 20
54.833333333333258
 11
144.99999999999983
 21
54.833333333333258
  0
LINE
  8
_1-7_カバ__
  6
CONTINUOUS
 62
    4
 10
91.737377344785443
 20
54.833333333333258
 11
128.26262265521456
 21
54.833333333333258
  0
LINE
  8
_1-7_カバ__
  6
CENTER2
 62
    4
 10
91.666666666666742
 20
52.166666666666629
 11
91.666666666666742
 21
57.166666666666629
  0
LINE
  8
_1-7_カバ__
  6
CENTER2
 62
    4
 10
128.33333333333326
 20
52.166666666666629
 11
128.33333333333326
 21
57.166666666666629
  0
LINE
  8
_1-7_カバ__
  6
DASHED1
 62
    4
 10
92.416666666666742
 20
55.166666666666515
 11
92.75
 21
54.833333333333258
  0
LINE
  8
_1-7_カバ__
  6
DASHED1
 62
    4
 10
90.916666666666742
 20
55.166666666666515
 11
90.583333333333485
 21
54.833333333333258
  0
LINE
  8
_1-7_カバ__
  6
DASHED1
 62
    4
 10
90.916666666666742
 20
55.166666666666515
 11
92.416666666666742
 21
55.166666666666515
  0
LINE
  8
_1-7_カバ__
  6
DASHED1
 62
    4
 10
129.08333333333331
 20
55.166666666666515
 11
129.41666666666652
 21
54.833333333333258
  0
LINE
  8
_1-7_カバ__
  6
DASHED1
 62
    4
 10
127.58333333333331
 20
55.166666666666515
 11
127.25
 21
54.833333333333258
  0
LINE
  8
_1-7_カバ__
  6
DASHED1
 62
    4
 10
127.58333333333331
 20
55.166666666666515
 11
129.08333333333331
 21
55.166666666666515
  0
LINE
  8
_1-7_カバ__
  6
DASHED1
 62
    4
 10
92.416666666666742
 20
55.166666666666515
 11
92.416666666666742
 21
55.499999999999943
  0
LINE
  8
_1-7_カバ__
  6
DASHED1
 62
    4
 10
90.916666666666742
 20
55.166666666666515
 11
90.916666666666742
 21
55.499999999999943
  0
LINE
  8
_1-7_カバ__
  6
DASHED1
 62
    4
 10
129.08333333333331
 20
55.166666666666515
 11
129.08333333333331
 21
55.499999999999943
  0
LINE
  8
_1-7_カバ__
  6
DASHED1
 62
    4
 10
127.58333333333331
 20
55.166666666666515
 11
127.58333333333331
 21
55.499999999999943
  0
LINE
  8
_1-7_カバ__
  6
CONTINUOUS
 62
    4
 10
144.99999999999983
 20
59.5
 11
144.99999999999983
 21
54.833333333333258
  0
LINE
  8
_1-7_カバ__
  6
CONTINUOUS
 62
    4
 10
144.99999999999983
 20
59.5
 11
141.66666666666663
 21
59.5
  0
LINE
  8
_1-7_カバ__
  6
CONTINUOUS
 62
    4
 10
141.66666666666663
 20
59.5
 11
141.66666666666663
 21
58.999999999999943
  0
LINE
  8
_1-7_カバ__
  6
CONTINUOUS
 62
    4
 10
144.33333333333286
 20
58.999999999999943
 11
141.66666666666663
 21
58.999999999999943
  0
LINE
  8
_1-7_カバ__
  6
CONTINUOUS
 62
    4
 10
144.33333333333286
 20
58.999999999999943
 11
144.33333333333286
 21
55.499999999999943
  0
LINE
  8
_1-7_カバ__
  6
CONTINUOUS
 62
    4
 10
78.666666666666572
 20
39.833333333333371
 11
78.666666666666572
 21
43.166666666666629
  0
LINE
  8
_1-7_カバ__
  6
CONTINUOUS
 62
    4
 10
79.166666666666742
 20
40.5
 11
79.166666666666742
 21
43.166666666666629
  0
LINE
  8
_1-7_カバ__
  6
CONTINUOUS
 62
    4
 10
78.666666666666572
 20
43.166666666666629
 11
79.166666666666742
 21
43.166666666666629
  0
LINE
  8
_1-7_カバ__
  6
CONTINUOUS
 62
    4
 10
79.166666666666742
 20
40.5
 11
82.666666666666003
 21
40.5
  0
LINE
  8
_1-7_カバ__
  6
CONTINUOUS
 62
    4
 10
82.666666666666003
 20
40.5
 11
82.666666666666003
 21
55.499999999999943
  0
LINE
  8
_1-7_カバ__
  6
CONTINUOUS
 62
    4
 10
78.666666666666572
 20
39.833333333333371
 11
83.333333333333428
 21
39.833333333333371
  0
LINE
  8
_1-7_カバ__
  6
CONTINUOUS
 62
    4
 10
83.333333333333428
 20
39.833333333333371
 11
83.333333333333428
 21
54.833333333333258
  0
ENDBLK
  0
BLOCK
  2
-028-_22_
 70
   64
 10
0
 20
0
 30
0
  0
ARC
  8
_1-8_小物
  6
CONTINUOUS
 62
    4
 10
78.766666666666595
 20
43.166666666666629
 40
0.0999999999999999
 50
89.999999999967429
 51
180
  0
ARC
  8
_1-8_小物
  6
CONTINUOUS
 62
    4
 10
77.999999999999943
 20
40.5
 40
0.1666666666666666
 50
270
 51
0
  0
ARC
  8
_1-8_小物
  6
CONTINUOUS
 62
    4
 10
77.999999999999943
 20
40.5
 40
0.6666666666666666
 50
270
 51
0
  0
ARC
  8
_1-8_小物
  6
CONTINUOUS
 62
    4
 10
78.666666666666572
 20
43.099999999999937
 40
0.5
 50
90
 51
180
  0
ARC
  8
_1-8_小物
  6
CONTINUOUS
 62
    4
 10
79.333320895036366
 20
41.146905692383143
 40
0.3333333333333333
 50
175.47574222621509
 51
265.47574222621506
  0
LINE
  8
_1-8_小物
  6
CONTINUOUS
 62
    4
 10
79.058452169796567
 20
43.266666666666652
 11
78.766666666666595
 21
43.266666666666652
  0
ARC
  8
_1-8_小物
  6
CONTINUOUS
 62
    4
 10
79.058452169796567
 20
43.166666666666629
 40
0.0999999999999999
 50
355.47574222621233
 51
90
  0
LINE
  8
_1-8_小物
  6
CONTINUOUS
 62
    4
 10
78.666666666666572
 20
40.5
 11
78.666666666666572
 21
43.166666666666629
  0
LINE
  8
_1-8_小物
  6
CONTINUOUS
 62
    4
 10
79.001026219526636
 20
41.173199412907195
 11
79.15814057244944
 21
43.158778550509425
  0
ARC
  8
_1-8_小物
  6
CONTINUOUS
 62
    4
 10
79.584332772259984
 20
41.36110636087318
 40
0.1666666666666666
 50
175.47574222623456
 51
265.47574222621506
  0
LINE
  8
_1-8_小物
  6
CONTINUOUS
 62
    4
 10
79.418185434505119
 20
41.374253221135177
 11
79.565847236303227
 21
43.240372946142656
  0
LINE
  8
_1-8_小物
  6
CONTINUOUS
 62
    4
 10
79.233552560793498
 20
43.599999999999937
 11
78.666666666666572
 21
43.599999999999937
  0
ARC
  8
_1-8_小物
  6
CONTINUOUS
 62
    4
 10
79.233552560793498
 20
43.266666666666652
 40
0.3333333333333333
 50
355.47574222621506
 51
90
  0
LINE
  8
_1-8_小物
  6
CONTINUOUS
 62
    4
 10
79.30702717451237
 20
40.814611016873414
 11
79.606092382471104
 21
40.79094666840183
  0
LINE
  8
_1-8_小物
  6
CONTINUOUS
 62
    4
 10
79.571185911998043
 20
41.194959023118315
 11
79.637644847099921
 21
41.18970027901355
  0
ARC
  8
_1-8_小物
  6
CONTINUOUS
 62
    4
 10
79.621868614785569
 20
40.990323473707605
 40
0.1999999999999963
 50
265.47574222621171
 51
85.475742226211707
  0
LINE
  8
_1-8_小物
  6
CONTINUOUS
 62
    4
 10
77.999999999999943
 20
42.599999999999937
 11
78.166666666666572
 21
42.766666666666652
  0
LINE
  8
_1-8_小物
  6
CONTINUOUS
 62
    4
 10
77.999999999999943
 20
42.599999999999937
 11
78.166666666666572
 21
42.433333333333337
  0
LINE
  8
_1-8_小物
  6
CONTINUOUS
 62
    4
 10
78.166666666666572
 20
40.5
 11
78.166666666666572
 21
42.433333333333337
  0
LINE
  8
_1-8_小物
  6
CONTINUOUS
 62
    4
 10
78.166666666666572
 20
42.766666666666652
 11
78.166666666666572
 21
43.099999999999937
  0
ARC
  8
_1-8_小物
  6
CONTINUOUS
 62
    4
 10
74.541329593456055
 20
40.745355809144712
 40
0.4999999999999946
 50
100.6398091980884
 51
260.6398091980854
  0
LINE
  8
_1-8_小物
  6
CONTINUOUS
 62
    4
 10
77.040932613378288
 20
40.333333333333286
 11
74.727855292971128
 21
40.714609814719097
  0
ARC
  8
_1-8_小物
  6
CONTINUOUS
 62
    4
 10
74.733276641337113
 20
40.747499328139156
 40
0.0333333333333333
 50
100.63980919807582
 51
260.63980919810518
  0
ARC
  8
_1-8_小物
  6
CONTINUOUS
 62
    4
 10
75.72368015842784
 20
41.221850448685245
 40
0.25
 50
280.63980919808779
 51
100.63980919808898
  0
LINE
  8
_1-8_小物
  6
CONTINUOUS
 62
    4
 10
75.677521595630481
 20
41.467552274239097
 11
74.449012467861337
 21
41.236759460252301
  0
LINE
  8
_1-8_小物
  6
CONTINUOUS
 62
    4
 10
76.999999999999943
 20
39.833333333333286
 11
74.460009367966961
 21
40.252013107844277
  0
LINE
  8
_1-8_小物
  6
CONTINUOUS
 62
    4
 10
75.769838721225199
 20
40.976148623131422
 11
74.72712216629742
 21
40.78025957154631
  0
LINE
  8
_1-8_小物
  6
CONTINUOUS
 62
    4
 10
77.999999999999943
 20
40.333333333333286
 11
77.040932613378288
 21
40.333333333333286
  0
LINE
  8
_1-8_小物
  6
CONTINUOUS
 62
    4
 10
77.999999999999943
 20
39.833333333333286
 11
76.999999999999943
 21
39.833333333333286
  0
ENDBLK
  0
ENDSEC
  0
SECTION
  2
ENTITIES
  0
LINE
  8
_0-0_図面枠
  6
CONTINUOUS
 62
    6
 10
410.00000000000006
 20
287
 11
10
 21
287.00000000000006
  0
LINE
  8
_0-0_図面枠
  6
CONTINUOUS
 62
    6
 10
410
 20
9.9999999999998863
 11
410.00000000000006
 21
287
  0
LINE
  8
_0-0_図面枠
  6
CONTINUOUS
 62
    6
 10
9.9999999999999147
 20
10
 11
410
 21
9.9999999999998863
  0
LINE
  8
_0-0_図面枠
  6
CONTINUOUS
 62
    6
 10
10
 20
287.00000000000006
 11
9.9999999999999147
 21
10
  0
LINE
  8
ADD_LINE
  6
DOT
 62
    4
 10
0
 20
148.5
 11
420
 21
148.5
  0
LINE
  8
_0-0_図面枠
  6
CONTINUOUS
 62
    6
 10
210
 20
287
 11
210.00000000000003
 21
9.9999999999999432
  0
LINE
  8
_0-0_図面枠
  6
CONTINUOUS
 62
    4
 10
182.14999999999998
 20
50.199999999999974
 11
40
 21
50.199999999999974
  0
LINE
  8
_0-0_図面枠
  6
CONTINUOUS
 62
    4
 10
182.14999999999998
 20
62.199999999999974
 11
40
 21
62.199999999999974
  0
LINE
  8
_0-0_図面枠
  6
CONTINUOUS
 62
    4
 10
182.14999999999998
 20
56.199999999999974
 11
40
 21
56.199999999999974
  0
LINE
  8
_0-0_図面枠
  6
CONTINUOUS
 62
    4
 10
182.14999999999998
 20
68.199999999999974
 11
40
 21
68.199999999999974
  0
LINE
  8
_0-0_図面枠
  6
CONTINUOUS
 62
    4
 10
182.14999999999998
 20
104.20000000000003
 11
40
 21
104.20000000000003
  0
LINE
  8
_0-0_図面枠
  6
CONTINUOUS
 62
    4
 10
182.14999999999998
 20
98.200000000000031
 11
40
 21
98.200000000000031
  0
LINE
  8
_0-0_図面枠
  6
CONTINUOUS
 62
    4
 10
182.14999999999998
 20
92.200000000000031
 11
40
 21
92.200000000000031
  0
LINE
  8
_0-0_図面枠
  6
CONTINUOUS
 62
    4
 10
182.14999999999998
 20
86.200000000000031
 11
40
 21
86.200000000000031
  0
LINE
  8
_0-0_図面枠
  6
CONTINUOUS
 62
    4
 10
182.14999999999998
 20
80.200000000000031
 11
40
 21
80.200000000000031
  0
LINE
  8
_0-0_図面枠
  6
CONTINUOUS
 62
    4
 10
182.14999999999998
 20
74.199999999999974
 11
40
 21
74.199999999999974
  0
LINE
  8
_0-0_図面枠
  6
CONTINUOUS
 62
    4
 10
182.14999999999998
 20
114.99999999999999
 11
40
 21
114.99999999999999
  0
LINE
  8
_0-0_図面枠
  6
CONTINUOUS
 62
    4
 10
182.14999999999998
 20
44.199999999999974
 11
40
 21
44.199999999999974
  0
LINE
  8
_0-0_図面枠
  6
CONTINUOUS
 62
    4
 10
182.14999999999998
 20
38.199999999999974
 11
40
 21
38.199999999999974
  0
LINE
  8
_0-0_図面枠
  6
CONTINUOUS
 62
    4
 10
182.14999999999998
 20
32.199999999999974
 11
40
 21
32.199999999999974
  0
LINE
  8
_0-0_図面枠
  6
CONTINUOUS
 62
    4
 10
182.14999999999998
 20
26.199999999999974
 11
40
 21
26.199999999999974
  0
TEXT
  8
_0-0_図面枠
 62
    4
 10
165.551264
 20
110.20001049999995
 40
3.2000000000000002
 41
1
 50
0
  1
使用
  0
TEXT
  8
_0-0_図面枠
 62
    4
 10
150.50638249999994
 20
110.20001049999995
 40
3.2000000000000002
 41
1
 50
0
  1
定　尺
  0
TEXT
  8
_0-0_図面枠
 62
    4
 10
148.34354749999997
 20
105.40000399999995
 40
3.2000000000000002
 41
1
 50
0
  1
（ｍｍ）
  0
TEXT
  8
_0-0_図面枠
 62
    4
 10
165.551264
 20
105.40000399999995
 40
3.2000000000000002
 41
1
 50
0
  1
数量
  0
TEXT
  8
_0-0_図面枠
 62
    4
 10
40.497067999999985
 20
99.427549499999927
 40
3.2000000000000002
 41
1
 50
0
  1
　１
  0
TEXT
  8
_0-0_図面枠
 62
    4
 10
149.270477
 20
99.400003999999953
 40
3.2000000000000002
 41
1
 50
0
  1
３０００
  0
TEXT
  8
_0-0_図面枠
 62
    4
 10
177.00512500000002
 20
99.400003999999953
 40
3.2000000000000002
 41
1
 50
0
  1
本
  0
TEXT
  8
_0-0_図面枠
 62
    4
 10
43.586831999999987
 20
93.427549499999927
 40
3.2000000000000002
 41
1
 50
0
  1
２
  0
TEXT
  8
_0-0_図面枠
 62
    4
 10
43.586831999999987
 20
87.427549499999927
 40
3.2000000000000002
 41
1
 50
0
  1
３
  0
TEXT
  8
_0-0_図面枠
 62
    4
 10
43.586831999999987
 20
81.427549499999927
 40
3.2000000000000002
 41
1
 50
0
  1
４
  0
TEXT
  8
_0-0_図面枠
 62
    4
 10
43.586831999999987
 20
75.427560999999955
 40
3.2000000000000002
 41
1
 50
0
  1
５
  0
TEXT
  8
_0-0_図面枠
 62
    4
 10
43.586831999999987
 20
69.427560999999955
 40
3.2000000000000002
 41
1
 50
0
  1
６
  0
LINE
  8
_0-0_図面枠
  6
CONTINUOUS
 62
    4
 10
382.15000000000009
 20
104.19999999999997
 11
240
 21
104.19999999999997
  0
LINE
  8
_0-0_図面枠
  6
CONTINUOUS
 62
    4
 10
382.15000000000009
 20
98.199999999999974
 11
240
 21
98.199999999999974
  0
LINE
  8
_0-0_図面枠
  6
CONTINUOUS
 62
    4
 10
382.15000000000009
 20
92.199999999999974
 11
240
 21
92.199999999999974
  0
LINE
  8
_0-0_図面枠
  6
CONTINUOUS
 62
    4
 10
382.15000000000009
 20
86.199999999999974
 11
240
 21
86.199999999999974
  0
LINE
  8
_0-0_図面枠
  6
CONTINUOUS
 62
    4
 10
382.15000000000009
 20
80.199999999999974
 11
240
 21
80.199999999999974
  0
LINE
  8
_0-0_図面枠
  6
CONTINUOUS
 62
    4
 10
382.15000000000009
 20
74.199999999999974
 11
240
 21
74.199999999999974
  0
LINE
  8
_0-0_図面枠
  6
CONTINUOUS
 62
    4
 10
382.15000000000009
 20
68.199999999999974
 11
240
 21
68.199999999999974
  0
LINE
  8
_0-0_図面枠
  6
CONTINUOUS
 62
    4
 10
382.15000000000009
 20
62.199999999999974
 11
240
 21
62.199999999999974
  0
LINE
  8
_0-0_図面枠
  6
CONTINUOUS
 62
    4
 10
382.15000000000009
 20
56.199999999999974
 11
240
 21
56.199999999999974
  0
LINE
  8
_0-0_図面枠
  6
CONTINUOUS
 62
    4
 10
382.15000000000009
 20
50.199999999999974
 11
240
 21
50.199999999999974
  0
LINE
  8
_0-0_図面枠
  6
CONTINUOUS
 62
    4
 10
382.15000000000009
 20
38.199999999999974
 11
240
 21
38.199999999999974
  0
LINE
  8
_0-0_図面枠
  6
CONTINUOUS
 62
    4
 10
382.15000000000009
 20
114.99999999999999
 11
240
 21
114.99999999999999
  0
LINE
  8
_0-0_図面枠
  6
CONTINUOUS
 62
    4
 10
382.15000000000009
 20
26.199999999999974
 11
240
 21
26.199999999999974
  0
LINE
  8
_0-0_図面枠
  6
CONTINUOUS
 62
    4
 10
382.15000000000009
 20
20.199999999999989
 11
240
 21
20.199999999999989
  0
LINE
  8
_0-0_図面枠
  6
CONTINUOUS
 62
    4
 10
382.15000000000009
 20
44.199999999999974
 11
240
 21
44.199999999999974
  0
LINE
  8
_0-0_図面枠
  6
CONTINUOUS
 62
    4
 10
382.15000000000009
 20
32.199999999999974
 11
240
 21
32.199999999999974
  0
TEXT
  8
_0-0_図面枠
 62
    4
 10
365.55123000000003
 20
110.2000105
 40
3.2000000000000002
 41
1
 50
0
  1
使用
  0
TEXT
  8
_0-0_図面枠
 62
    4
 10
350.50632500000006
 20
110.20002199999998
 40
3.2000000000000002
 41
1
 50
0
  1
定　尺
  0
TEXT
  8
_0-0_図面枠
 62
    4
 10
348.34349000000003
 20
105.40001499999998
 40
3.2000000000000002
 41
1
 50
0
  1
（ｍｍ）
  0
TEXT
  8
_0-0_図面枠
 62
    4
 10
365.55123000000003
 20
105.40000400000001
 40
3.2000000000000002
 41
1
 50
0
  1
数量
  0
TEXT
  8
_0-0_図面枠
 62
    4
 10
240.4970505
 20
99.427549499999984
 40
3.2000000000000002
 41
1
 50
0
  1
　１
  0
TEXT
  8
_0-0_図面枠
 62
    4
 10
243.5868145
 20
93.427549499999984
 40
3.2000000000000002
 41
1
 50
0
  1
２
  0
TEXT
  8
_0-0_図面枠
 62
    4
 10
243.5868145
 20
87.427549499999984
 40
3.2000000000000002
 41
1
 50
0
  1
３
  0
TEXT
  8
_0-0_図面枠
 62
    4
 10
243.5868145
 20
81.427549499999984
 40
3.2000000000000002
 41
1
 50
0
  1
４
  0
TEXT
  8
_0-0_図面枠
 62
    4
 10
243.5868145
 20
75.427560999999983
 40
3.2000000000000002
 41
1
 50
0
  1
５
  0
TEXT
  8
_0-0_図面枠
 62
    4
 10
243.5868145
 20
69.427560999999983
 40
3.2000000000000002
 41
1
 50
0
  1
６
  0
TEXT
  8
_0-0_図面枠
 62
    4
 10
169.36022149999991
 20
99.449991499999996
 40
3.2000000000000002
 41
1
 50
0
  1
１
  0
TEXT
  8
_0-0_図面枠
 62
    4
 10
378.55000000000007
 20
112.8
 40
3.2000000000000002
 41
1
 50
0
  1
単位
  7
TATEGAKI
  0
LINE
  8
_0-0_図面枠
  6
CONTINUOUS
 62
    4
 10
182.14999999999998
 20
20.199999999999989
 11
40
 21
20.199999999999989
  0
LINE
  8
_0-0_図面枠
  6
CONTINUOUS
 62
    4
 10
40
 20
20.199999999999989
 11
40
 21
114.99999999999999
  0
LINE
  8
_0-0_図面枠
  6
CONTINUOUS
 62
    4
 10
47.200000000000017
 20
20.199999999999989
 11
47.200000000000017
 21
114.99999999999999
  0
LINE
  8
_0-0_図面枠
  6
CONTINUOUS
 62
    4
 10
182.14999999999998
 20
20.199999999999989
 11
182.14999999999998
 21
114.99999999999999
  0
LINE
  8
_0-0_図面枠
  6
CONTINUOUS
 62
    4
 10
162.94999999999999
 20
20.199999999999989
 11
162.94999999999999
 21
114.99999999999999
  0
LINE
  8
_0-0_図面枠
  6
CONTINUOUS
 62
    4
 10
147.95000000000002
 20
20.199999999999989
 11
147.95000000000002
 21
114.99999999999999
  0
LINE
  8
_0-0_図面枠
  6
CONTINUOUS
 62
    4
 10
174.95000000000005
 20
20.199999999999989
 11
174.95000000000005
 21
114.99999999999999
  0
LINE
  8
_0-0_図面枠
  6
CONTINUOUS
 62
    4
 10
146.95000000000002
 20
20.199999999999989
 11
146.95000000000002
 21
114.99999999999999
  0
LINE
  8
_0-0_図面枠
  6
CONTINUOUS
 62
    4
 10
240
 20
20.199999999999989
 11
240
 21
114.99999999999999
  0
LINE
  8
_0-0_図面枠
  6
CONTINUOUS
 62
    4
 10
247.20000000000005
 20
20.199999999999989
 11
247.20000000000005
 21
114.99999999999999
  0
LINE
  8
_0-0_図面枠
  6
CONTINUOUS
 62
    4
 10
346.95000000000005
 20
20.199999999999989
 11
346.95000000000005
 21
114.99999999999999
  0
LINE
  8
_0-0_図面枠
  6
CONTINUOUS
 62
    4
 10
382.15000000000009
 20
20.199999999999989
 11
382.15000000000009
 21
114.99999999999999
  0
LINE
  8
_0-0_図面枠
  6
CONTINUOUS
 62
    4
 10
374.95000000000005
 20
20.199999999999989
 11
374.95000000000005
 21
114.99999999999999
  0
LINE
  8
_0-0_図面枠
  6
CONTINUOUS
 62
    4
 10
362.95000000000005
 20
20.199999999999989
 11
362.95000000000005
 21
114.99999999999999
  0
LINE
  8
_0-0_図面枠
  6
CONTINUOUS
 62
    4
 10
347.95000000000005
 20
20.199999999999989
 11
347.95000000000005
 21
114.99999999999999
  0
TEXT
  8
_0-0_図面枠
 62
    4
 10
69.300000000000011
 20
108.00000000000001
 40
3.2000000000000002
 41
1
 50
0
  1
部材名称
  0
TEXT
  8
_0-0_図面枠
 62
    4
 10
178.54999999999995
 20
112.80000000000001
 40
3.2000000000000002
 41
1
 50
0
  1
単位
  7
TATEGAKI
  0
LINE
  8
_0-0_図面枠
  6
CONTINUOUS
 62
    4
 10
100.86666666666669
 20
20.199999999999989
 11
100.86666666666669
 21
114.99999999999999
  0
TEXT
  8
_0-0_図面枠
 62
    4
 10
119.10833333333336
 20
108
 40
3.2000000000000002
 41
1
 50
0
  1
規　格
  0
LINE
  8
_0-0_図面枠
  6
CONTINUOUS
 62
    4
 10
300.86666666666667
 20
20.199999999999989
 11
300.86666666666667
 21
114.99999999999999
  0
TEXT
  8
_0-0_図面枠
 62
    4
 10
267.63333333333333
 20
107.99999999999999
 40
3.2000000000000002
 41
1
 50
0
  1
部材名称
  0
TEXT
  8
_0-0_図面枠
 62
    4
 10
319.10833333333335
 20
107.99999999999999
 40
3.2000000000000002
 41
1
 50
0
  1
規　格
  0
TEXT
  8
_0-0_図面枠
 62
    4
 10
169.36022149999991
 20
93.45000299999991
 40
3.2000000000000002
 41
1
 50
0
  1
６
  0
TEXT
  8
_0-0_図面枠
 62
    4
 10
177.00512500000002
 20
93.400003999999953
 40
3.2000000000000002
 41
1
 50
0
  1
個
  0
TEXT
  8
_0-0_図面枠
 62
    4
 10
349.27047700000003
 20
99.400003999999896
 40
3.2000000000000002
 41
1
 50
0
  1
３０００
  0
TEXT
  8
_0-0_図面枠
 62
    4
 10
377.00512500000002
 20
99.400003999999896
 40
3.2000000000000002
 41
1
 50
0
  1
本
  0
TEXT
  8
_0-0_図面枠
 62
    4
 10
369.36022149999997
 20
99.449991499999939
 40
3.2000000000000002
 41
1
 50
0
  1
１
  0
TEXT
  8
_0-0_図面枠
 62
    4
 10
369.36022149999997
 20
93.450002999999853
 40
3.2000000000000002
 41
1
 50
0
  1
６
  0
TEXT
  8
_0-0_図面枠
 62
    4
 10
377.00512500000002
 20
93.400003999999896
 40
3.2000000000000002
 41
1
 50
0
  1
個
  0
TEXT
  8
_0-0_図面枠
 62
    4
 10
243.5868145
 20
63.427555499999968
 40
3.2000000000000002
 41
1
 50
0
  1
７
  0
TEXT
  8
_0-0_図面枠
 62
    4
 10
20
 20
280
 40
3.2000000000000002
 41
1
 50
0
  1
（アルミ１５０タイプ）
  0
TEXT
  8
_0-0_図面枠
 62
    4
 10
30
 20
270
 40
3.2000000000000002
 41
1
 50
0
  1
◇天井＋天井（１５０ＵＵＧ－Ａ）　Ｓ＝１／３
  0
TEXT
  8
_0-0_図面枠
 62
    4
 10
220
 20
280
 40
3.2000000000000002
 41
1
 50
0
  1
（アルミ１５０タイプ）
  0
TEXT
  8
_0-0_図面枠
 62
    4
 10
230
 20
270
 40
3.2000000000000002
 41
1
 50
0
  1
◇天井＋天井コーナー（１５０ＵＣＧ－Ａ）　Ｓ＝１／３
  0
TEXT
  8
_0-0_図面枠
 62
    4
 10
177.00512500000002
 20
81.999992500000047
 40
3.2000000000000002
 41
1
 50
0
  1
本
  0
TEXT
  8
_0-0_図面枠
 62
    4
 10
48.400007499999987
 20
82.000009500000061
 40
3.2000000000000002
 41
1
 50
0
  1
ステンドリリングねじ
  0
TEXT
  8
_0-0_図面枠
 62
    4
 10
102.0666796666667
 20
82.000009500000061
 40
3.2000000000000002
 41
1
 50
0
  1
皿(Ｄ６)４×１６
  0
TEXT
  8
_0-0_図面枠
 62
    4
 10
166.27045749999996
 20
75.45000850000001
 40
3.2000000000000002
 41
1
 50
0
  1
１２
  0
TEXT
  8
_0-0_図面枠
 62
    4
 10
48.400007499999987
 20
75.400009500000053
 40
3.2000000000000002
 41
1
 50
0
  1
ステンタッピンねじ
  0
TEXT
  8
_0-0_図面枠
 62
    4
 10
48.400007499999987
 20
69.400009500000053
 40
3.2000000000000002
 41
1
 50
0
  1
ステンワッシャー
  0
TEXT
  8
_0-0_図面枠
 62
    4
 10
166.27045749999996
 20
69.45000850000001
 40
3.2000000000000002
 41
1
 50
0
  1
１２
  0
TEXT
  8
_0-0_図面枠
 62
    4
 10
177.00512500000002
 20
69.400009500000053
 40
3.2000000000000002
 41
1
 50
0
  1
枚
  0
TEXT
  8
_0-0_図面枠
 62
    4
 10
177.00512500000002
 20
75.399992500000039
 40
3.2000000000000002
 41
1
 50
0
  1
本
  0
TEXT
  8
_0-0_図面枠
 62
    4
 10
149.270477
 20
63.400009499999996
 40
3.2000000000000002
 41
1
 50
0
  1
３１００
  0
TEXT
  8
_0-0_図面枠
 62
    4
 10
169.36022149999991
 20
63.449997499999981
 40
3.2000000000000002
 41
1
 50
0
  1
２
  0
TEXT
  8
_0-0_図面枠
 62
    4
 10
177.00512500000002
 20
63.400009499999996
 40
3.2000000000000002
 41
1
 50
0
  1
本
  0
TEXT
  8
_0-0_図面枠
 62
    4
 10
102.06669116666673
 20
75.400009500000053
 40
3.2000000000000002
 41
1
 50
0
  1
なべ４×３０
  0
TEXT
  8
_0-0_図面枠
 62
    4
 10
102.0666336666667
 20
69.400004000000038
 40
3.2000000000000002
 41
1
 50
0
  1
１．５×１８×４．５穴
  0
TEXT
  8
_0-0_図面枠
 62
    4
 10
377.00512500000002
 20
81.999992499999991
 40
3.2000000000000002
 41
1
 50
0
  1
本
  0
TEXT
  8
_0-0_図面枠
 62
    4
 10
248.40000750000002
 20
82.000009500000004
 40
3.2000000000000002
 41
1
 50
0
  1
ステンドリリングねじ
  0
TEXT
  8
_0-0_図面枠
 62
    4
 10
302.06667966666674
 20
82.000009500000004
 40
3.2000000000000002
 41
1
 50
0
  1
皿(Ｄ６)４×１６
  0
TEXT
  8
_0-0_図面枠
 62
    4
 10
366.27045750000002
 20
75.450008499999953
 40
3.2000000000000002
 41
1
 50
0
  1
１２
  0
TEXT
  8
_0-0_図面枠
 62
    4
 10
248.40000750000002
 20
75.400009499999996
 40
3.2000000000000002
 41
1
 50
0
  1
ステンタッピンねじ
  0
TEXT
  8
_0-0_図面枠
 62
    4
 10
248.40000750000002
 20
69.400009499999996
 40
3.2000000000000002
 41
1
 50
0
  1
ステンワッシャー
  0
TEXT
  8
_0-0_図面枠
 62
    4
 10
366.27045750000002
 20
69.450008499999953
 40
3.2000000000000002
 41
1
 50
0
  1
１２
  0
TEXT
  8
_0-0_図面枠
 62
    4
 10
377.00512500000002
 20
69.400009499999996
 40
3.2000000000000002
 41
1
 50
0
  1
枚
  0
TEXT
  8
_0-0_図面枠
 62
    4
 10
377.00512500000002
 20
75.399992499999982
 40
3.2000000000000002
 41
1
 50
0
  1
本
  0
TEXT
  8
_0-0_図面枠
 62
    4
 10
302.06669116666677
 20
75.400009499999996
 40
3.2000000000000002
 41
1
 50
0
  1
なべ４×３０
  0
TEXT
  8
_0-0_図面枠
 62
    4
 10
302.06663366666675
 20
69.400003999999981
 40
3.2000000000000002
 41
1
 50
0
  1
１．５×１８×４．５穴
  0
TEXT
  8
_0-0_図面枠
 62
    4
 10
349.27047700000003
 20
57.400009499999939
 40
3.2000000000000002
 41
1
 50
0
  1
３１００
  0
TEXT
  8
_0-0_図面枠
 62
    4
 10
369.36022149999997
 20
57.449997499999924
 40
3.2000000000000002
 41
1
 50
0
  1
２
  0
TEXT
  8
_0-0_図面枠
 62
    4
 10
377.00512500000002
 20
57.400009499999939
 40
3.2000000000000002
 41
1
 50
0
  1
本
  0
TEXT
  8
_0-0_図面枠
 62
    4
 10
377.00512500000013
 20
63.399992499999982
 40
3.2000000000000002
 41
1
 50
0
  1
本
  0
TEXT
  8
_0-0_図面枠
 62
    4
 10
366.27045750000002
 20
81.450008499999967
 40
3.2000000000000002
 41
1
 50
0
  1
１２
  0
TEXT
  8
_0-0_図面枠
 62
    4
 10
166.27045749999996
 20
81.450008500000024
 40
3.2000000000000002
 41
1
 50
0
  1
１２
  0
TEXT
  8
_0-0_図面枠
 62
    4
 10
149.270477
 20
87.400003999999953
 40
3.2000000000000002
 41
1
 50
0
  1
３０００
  0
TEXT
  8
_0-0_図面枠
 62
    4
 10
177.00512500000002
 20
87.400003999999953
 40
3.2000000000000002
 41
1
 50
0
  1
本
  0
TEXT
  8
_0-0_図面枠
 62
    4
 10
169.36022149999991
 20
87.449991499999996
 40
3.2000000000000002
 41
1
 50
0
  1
１
  0
TEXT
  8
_0-0_図面枠
 62
    4
 10
349.27047700000003
 20
87.400003999999896
 40
3.2000000000000002
 41
1
 50
0
  1
３０００
  0
TEXT
  8
_0-0_図面枠
 62
    4
 10
377.00512500000002
 20
87.400003999999896
 40
3.2000000000000002
 41
1
 50
0
  1
本
  0
TEXT
  8
_0-0_図面枠
 62
    4
 10
369.36022149999997
 20
87.449991499999939
 40
3.2000000000000002
 41
1
 50
0
  1
１
  0
TEXT
  8
_0-0_図面枠
 62
    4
 10
48.400007499999987
 20
87.400003999999953
 40
3.2000000000000002
 41
1
 50
0
  1
ＳＳＧフレーム(Ｃ)
  0
TEXT
  8
_0-0_図面枠
 62
    4
 10
248.40000749999996
 20
87.400003999999896
 40
3.2000000000000002
 41
1
 50
0
  1
ＳＳＧフレーム(Ｃ)
  0
TEXT
  8
_0-0_図面枠
 62
    4
 10
48.400007499999987
 20
63.400003999999953
 40
3.2000000000000002
 41
1
 50
0
  1
ガスケットＧＡ２０
  0
TEXT
  8
_0-0_図面枠
 62
    4
 10
248.40000750000002
 20
57.400003999999896
 40
3.2000000000000002
 41
1
 50
0
  1
ガスケットＧＡ１５
  0
TEXT
  8
_0-0_図面枠
 62
    4
 10
102.06667966666672
 20
94.000009500000061
 40
3.2000000000000002
 41
1
 50
0
  1
Ｌ＝２４０
  0
TEXT
  8
_0-0_図面枠
 62
    4
 10
302.06667966666669
 20
94.000009500000004
 40
3.2000000000000002
 41
1
 50
0
  1
Ｌ＝１８０
  0
TEXT
  8
_0-0_図面枠
 62
    4
 10
122.30833333333337
 20
99.600000000000037
 40
3.2000000000000002
 41
1
 50
0
  1
―
  0
TEXT
  8
_0-0_図面枠
 62
    4
 10
122.30833333333337
 20
87.600000000000037
 40
3.2000000000000002
 41
1
 50
0
  1
―
  0
TEXT
  8
_0-0_図面枠
 62
    4
 10
122.30833333333335
 20
63.599999999999966
 40
3.2000000000000002
 41
1
 50
0
  1
―
  0
TEXT
  8
_0-0_図面枠
 62
    4
 10
322.30833333333328
 20
99.59999999999998
 40
3.2000000000000002
 41
1
 50
0
  1
―
  0
TEXT
  8
_0-0_図面枠
 62
    4
 10
322.30833333333328
 20
87.59999999999998
 40
3.2000000000000002
 41
1
 50
0
  1
―
  0
TEXT
  8
_0-0_図面枠
 62
    4
 10
322.30833333333328
 20
57.599999999999966
 40
3.2000000000000002
 41
1
 50
0
  1
―
  0
TEXT
  8
_0-0_図面枠
 62
    4
 10
153.84999999999999
 20
93.600000000000037
 40
3.2000000000000002
 41
1
 50
0
  1
―
  0
TEXT
  8
_0-0_図面枠
 62
    4
 10
153.84999999999999
 20
81.600000000000037
 40
3.2000000000000002
 41
1
 50
0
  1
―
  0
TEXT
  8
_0-0_図面枠
 62
    4
 10
153.84999999999999
 20
75.600000000000023
 40
3.2000000000000002
 41
1
 50
0
  1
―
  0
TEXT
  8
_0-0_図面枠
 62
    4
 10
153.84999999999999
 20
69.599999999999966
 40
3.2000000000000002
 41
1
 50
0
  1
―
  0
TEXT
  8
_0-0_図面枠
 62
    4
 10
353.85000000000002
 20
93.59999999999998
 40
3.2000000000000002
 41
1
 50
0
  1
―
  0
TEXT
  8
_0-0_図面枠
 62
    4
 10
353.85000000000002
 20
81.59999999999998
 40
3.2000000000000002
 41
1
 50
0
  1
―
  0
TEXT
  8
_0-0_図面枠
 62
    4
 10
353.85000000000002
 20
75.599999999999966
 40
3.2000000000000002
 41
1
 50
0
  1
―
  0
TEXT
  8
_0-0_図面枠
 62
    4
 10
353.85000000000002
 20
69.599999999999966
 40
3.2000000000000002
 41
1
 50
0
  1
―
  0
TEXT
  8
_0-0_図面枠
 62
    4
 10
353.85000000000002
 20
63.599999999999966
 40
3.2000000000000002
 41
1
 50
0
  1
―
  0
TEXT
  8
_0-0_図面枠
 62
    4
 10
302.06669116666689
 20
63.400009499999996
 40
3.2000000000000002
 41
1
 50
0
  1
Φ６×３０
  0
TEXT
  8
_0-0_図面枠
 62
    4
 10
243.5868145
 20
57.427555499999983
 40
3.2000000000000002
 41
1
 50
0
  1
８
  0
TEXT
  8
_0-0_図面枠
 62
    4
 10
43.586831999999987
 20
63.427560999999969
 40
3.2000000000000002
 41
1
 50
0
  1
７
  0
TEXT
  8
_0-0_図面枠
 62
    4
 10
369.36022149999997
 20
63.449997499999924
 40
3.2000000000000002
 41
1
 50
0
  1
６
  0
TEXT
  8
_0-0_図面枠
 62
    4
 10
43.586831999999987
 20
57.42755549999994
 40
3.2000000000000002
 41
1
 50
0
  1
※
  0
TEXT
  8
_0-0_図面枠
 62
    4
 10
169.36022149999991
 20
57.450002999999938
 40
3.2000000000000002
 41
1
 50
0
  1
１
  0
TEXT
  8
_0-0_図面枠
 62
    4
 10
177.00512500000002
 20
57.400003999999925
 40
3.2000000000000002
 41
1
 50
0
  1
個
  0
TEXT
  8
_0-0_図面枠
 62
    4
 10
153.85000000000002
 20
57.599999999999937
 40
3.2000000000000002
 41
1
 50
0
  1
―
  0
TEXT
  8
_0-0_図面枠
 62
    4
 10
102.06667966666669
 20
57.400003999999925
 40
3.2000000000000002
 41
1
 50
0
  1
ＡＬ　ｔ＝１．５
  0
TEXT
  8
_0-0_図面枠
 62
    4
 10
48.400007499999987
 20
57.400003999999925
 40
3.2000000000000002
 41
1
 50
0
  1
ジョイントプレート
  0
TEXT
  8
_0-0_図面枠
 62
    4
 10
43.586831999999987
 20
51.427555499999954
 40
3.2000000000000002
 41
1
 50
0
  1
※
  0
TEXT
  8
_0-0_図面枠
 62
    4
 10
169.36022149999991
 20
51.450002999999953
 40
3.2000000000000002
 41
1
 50
0
  1
２
  0
TEXT
  8
_0-0_図面枠
 62
    4
 10
177.00512500000002
 20
51.400009499999982
 40
3.2000000000000002
 41
1
 50
0
  1
本
  0
TEXT
  8
_0-0_図面枠
 62
    4
 10
102.06669116666673
 20
51.400009499999967
 40
3.2000000000000002
 41
1
 50
0
  1
１.５×(１×１９)Ｌ＝６００
  0
TEXT
  8
_0-0_図面枠
 62
    4
 10
48.400007500000015
 20
51.400009499999982
 40
3.2000000000000002
 41
1
 50
0
  1
落下防止ワイヤー
  0
TEXT
  8
_0-0_図面枠
 62
    4
 10
153.84999999999999
 20
51.599999999999966
 40
3.2000000000000002
 41
1
 50
0
  1
―
  0
TEXT
  8
_0-0_図面枠
 62
    4
 10
243.58683199999999
 20
51.427555499999954
 40
3.2000000000000002
 41
1
 50
0
  1
※
  0
TEXT
  8
_0-0_図面枠
 62
    4
 10
369.36022149999991
 20
51.450002999999953
 40
3.2000000000000002
 41
1
 50
0
  1
１
  0
TEXT
  8
_0-0_図面枠
 62
    4
 10
377.00512500000002
 20
51.400003999999939
 40
3.2000000000000002
 41
1
 50
0
  1
個
  0
TEXT
  8
_0-0_図面枠
 62
    4
 10
353.85000000000002
 20
51.599999999999966
 40
3.2000000000000002
 41
1
 50
0
  1
―
  0
TEXT
  8
_0-0_図面枠
 62
    4
 10
302.06667966666669
 20
51.400003999999939
 40
3.2000000000000002
 41
1
 50
0
  1
ＡＬ　ｔ＝１．５
  0
TEXT
  8
_0-0_図面枠
 62
    4
 10
248.40000749999999
 20
51.400003999999939
 40
3.2000000000000002
 41
1
 50
0
  1
ジョイントプレート
  0
TEXT
  8
_0-0_図面枠
 62
    4
 10
243.58683199999999
 20
45.427555499999968
 40
3.2000000000000002
 41
1
 50
0
  1
※
  0
TEXT
  8
_0-0_図面枠
 62
    4
 10
369.36022149999991
 20
45.450002999999967
 40
3.2000000000000002
 41
1
 50
0
  1
２
  0
TEXT
  8
_0-0_図面枠
 62
    4
 10
377.00512500000002
 20
45.400009499999996
 40
3.2000000000000002
 41
1
 50
0
  1
本
  0
TEXT
  8
_0-0_図面枠
 62
    4
 10
302.06669116666671
 20
45.400009499999982
 40
3.2000000000000002
 41
1
 50
0
  1
１.５×(１×１９)Ｌ＝６００
  0
TEXT
  8
_0-0_図面枠
 62
    4
 10
248.40000750000002
 20
45.400009499999996
 40
3.2000000000000002
 41
1
 50
0
  1
落下防止ワイヤー
  0
TEXT
  8
_0-0_図面枠
 62
    4
 10
353.84999999999997
 20
45.599999999999966
 40
3.2000000000000002
 41
1
 50
0
  1
―
  0
TEXT
  8
_0-0_図面枠
 62
    4
 10
41.666666666666686
 20
128
 40
3
 41
1
 50
0
  1
（落下防止ワイヤー）
  0
INSERT
  2
-000-
  8
_1-8_小物
 10
210
 20
148.5
 41
1
 42
1
 50
0
  0
LINE
  8
_1-8_小物
  6
CONTINUOUS
 62
    4
 10
157.03985321657842
 20
131.84018902839435
 11
151.17656837665947
 21
130.18752043233465
  0
LINE
  8
_1-8_小物
  6
CONTINUOUS
 62
    4
 10
157.16066740562403
 20
131.35707331101597
 11
151.24647145802518
 21
129.68796469593613
  0
LINE
  8
_1-8_小物
  6
CONTINUOUS
 62
    4
 10
157.03985321657842
 20
127.15981097160562
 11
151.17656837665947
 21
128.81247956766532
  0
LINE
  8
_1-8_小物
  6
CONTINUOUS
 62
    4
 10
157.16066740562403
 20
127.64292668898401
 11
151.24647145802518
 21
129.31203530406384
  0
LINE
  8
_1-8_小物
  6
CONTINUOUS
 62
    4
 10
157.1606675134222
 20
127.64292665856117
 11
157.1606675134222
 21
127.64292665856117
  0
LINE
  8
_1-8_小物
  6
CONTINUOUS
 62
    4
 10
157.1606675134222
 20
127.64292665856117
 11
157.6334904430544
 21
127.54220923628057
  0
LINE
  8
_1-8_小物
  6
CONTINUOUS
 62
    4
 10
157.6334904430544
 20
127.54220923628057
 11
158.1239067754791
 21
127.50097829566566
  0
LINE
  8
_1-8_小物
  6
CONTINUOUS
 62
    4
 10
158.1239067754791
 20
127.50097829566566
 11
158.61701545859825
 21
127.52048661798315
  0
LINE
  8
_1-8_小物
  6
CONTINUOUS
 62
    4
 10
158.61701545859825
 20
127.52048661798315
 11
159.09783363460025
 21
127.60014145273114
  0
LINE
  8
_1-8_小物
  6
CONTINUOUS
 62
    4
 10
159.09783363460025
 20
127.60014145273114
 11
159.55175188651307
 21
127.73752252806307
  0
LINE
  8
_1-8_小物
  6
CONTINUOUS
 62
    4
 10
159.55175188651307
 20
127.73752252806307
 11
159.96497813794605
 21
127.92845558952315
  0
LINE
  8
_1-8_小物
  6
CONTINUOUS
 62
    4
 10
159.96497813794605
 20
127.92845558952315
 11
160.32495671835193
 21
128.16713923265576
  0
LINE
  8
_1-8_小物
  6
CONTINUOUS
 62
    4
 10
160.32495671835193
 20
128.16713923265576
 11
160.62074986072309
 21
128.446321175744
  0
LINE
  8
_1-8_小物
  6
CONTINUOUS
 62
    4
 10
160.62074986072309
 20
128.446321175744
 11
160.84337004010709
 21
128.75751861672009
  0
LINE
  8
_1-8_小物
  6
CONTINUOUS
 62
    4
 10
160.84337004010709
 20
128.75751861672009
 11
160.98605305500459
 21
129.0912759788134
  0
LINE
  8
_1-8_小物
  6
CONTINUOUS
 62
    4
 10
160.98605305500459
 20
129.0912759788134
 11
161.04446355420905
 21
129.43745221346614
  0
LINE
  8
_1-8_小物
  6
CONTINUOUS
 62
    4
 10
161.04446355420905
 20
129.43745221346614
 11
161.01682676425926
 21
129.78552893096199
  0
LINE
  8
_1-8_小物
  6
CONTINUOUS
 62
    4
 10
161.01682676425926
 20
129.78552893096199
 11
160.90398241503294
 21
130.12492999637519
  0
LINE
  8
_1-8_小物
  6
CONTINUOUS
 62
    4
 10
160.90398241503294
 20
130.12492999637519
 11
160.70935922497938
 21
130.44534288007836
  0
LINE
  8
_1-8_小物
  6
CONTINUOUS
 62
    4
 10
160.70935922497938
 20
130.44534288007836
 11
160.43887072124426
 21
130.73703199873694
  0
LINE
  8
_1-8_小物
  6
CONTINUOUS
 62
    4
 10
160.43887072124426
 20
130.73703199873694
 11
160.10073556013975
 21
130.99113452608228
  0
LINE
  8
_1-8_小物
  6
CONTINUOUS
 62
    4
 10
160.10073556013975
 20
130.99113452608228
 11
159.70522780743138
 21
131.19992968540308
  0
LINE
  8
_1-8_小物
  6
CONTINUOUS
 62
    4
 10
159.70522780743138
 20
131.19992968540308
 11
159.26436476604863
 21
131.35707334143885
  0
LINE
  8
_1-8_小物
  6
CONTINUOUS
 62
    4
 10
159.26436476604863
 20
131.35707334143885
 11
158.79154183641643
 21
131.45779076371943
  0
LINE
  8
_1-8_小物
  6
CONTINUOUS
 62
    4
 10
158.79154183641643
 20
131.45779076371943
 11
158.30112550399173
 21
131.49902170433435
  0
LINE
  8
_1-8_小物
  6
CONTINUOUS
 62
    4
 10
158.30112550399173
 20
131.49902170433435
 11
157.80801682087258
 21
131.47951338201685
  0
LINE
  8
_1-8_小物
  6
CONTINUOUS
 62
    4
 10
157.80801682087258
 20
131.47951338201685
 11
157.32719864487058
 21
131.39985854726888
  0
LINE
  8
_1-8_小物
  6
CONTINUOUS
 62
    4
 10
157.32719864487058
 20
131.39985854726888
 11
157.160667405624
 21
131.35707331101594
  0
LINE
  8
_1-8_小物
  6
CONTINUOUS
 62
    4
 10
157.039853303781
 20
127.15981094702609
 11
157.039853303781
 21
127.15981094702609
  0
LINE
  8
_1-8_小物
  6
CONTINUOUS
 62
    4
 10
157.039853303781
 20
127.15981094702609
 11
157.5994947731449
 21
127.04264060375607
  0
LINE
  8
_1-8_小物
  6
CONTINUOUS
 62
    4
 10
157.5994947731449
 20
127.04264060375607
 11
158.1777625865289
 21
127.00013588225708
  0
LINE
  8
_1-8_小物
  6
CONTINUOUS
 62
    4
 10
158.1777625865289
 20
127.00013588225708
 11
158.75708636904091
 21
127.03358826698343
  0
LINE
  8
_1-8_小物
  6
CONTINUOUS
 62
    4
 10
158.75708636904091
 20
127.03358826698343
 11
159.31986366070132
 21
127.14198132415292
  0
LINE
  8
_1-8_小物
  6
CONTINUOUS
 62
    4
 10
159.31986366070132
 20
127.14198132415292
 11
159.84899475828206
 21
127.32202158557301
  0
LINE
  8
_1-8_小物
  6
CONTINUOUS
 62
    4
 10
159.84899475828206
 20
127.32202158557301
 11
160.32840228113639
 21
127.56823861900521
  0
LINE
  8
_1-8_小物
  6
CONTINUOUS
 62
    4
 10
160.32840228113639
 20
127.56823861900521
 11
160.74351967427432
 21
127.87315124448051
  0
LINE
  8
_1-8_小物
  6
CONTINUOUS
 62
    4
 10
160.74351967427432
 20
127.87315124448051
 11
161.08173380576486
 21
128.22749484616708
  0
LINE
  8
_1-8_小物
  6
CONTINUOUS
 62
    4
 10
161.08173380576486
 20
128.22749484616708
 11
161.33276821036728
 21
128.62050287303418
  0
LINE
  8
_1-8_小物
  6
CONTINUOUS
 62
    4
 10
161.33276821036728
 20
128.62050287303418
 11
161.48899533472729
 21
129.04023397505711
  0
LINE
  8
_1-8_小物
  6
CONTINUOUS
 62
    4
 10
161.48899533472729
 20
129.04023397505711
 11
161.54566829672595
 21
129.47393483509512
  0
LINE
  8
_1-8_小物
  6
CONTINUOUS
 62
    4
 10
161.54566829672595
 20
129.47393483509512
 11
161.5010651170908
 21
129.90842767197913
  0
LINE
  8
_1-8_小物
  6
CONTINUOUS
 62
    4
 10
161.5010651170908
 20
129.90842767197913
 11
161.35654104086481
 21
130.33051064072444
  0
LINE
  8
_1-8_小物
  6
CONTINUOUS
 62
    4
 10
161.35654104086481
 20
130.33051064072444
 11
161.11648735897137
 21
130.72735896391001
  0
LINE
  8
_1-8_小物
  6
CONTINUOUS
 62
    4
 10
161.11648735897137
 20
130.72735896391001
 11
160.78819798106178
 21
131.08691460605075
  0
LINE
  8
_1-8_小物
  6
CONTINUOUS
 62
    4
 10
160.78819798106178
 20
131.08691460605075
 11
160.38164781376139
 21
131.3982526509042
  0
LINE
  8
_1-8_小物
  6
CONTINUOUS
 62
    4
 10
160.38164781376139
 20
131.3982526509042
 11
159.9091896781793
 21
131.6519132495221
  0
LINE
  8
_1-8_小物
  6
CONTINUOUS
 62
    4
 10
159.9091896781793
 20
131.6519132495221
 11
159.38517897568983
 21
131.84018905297393
  0
LINE
  8
_1-8_小物
  6
CONTINUOUS
 62
    4
 10
159.38517897568983
 20
131.84018905297393
 11
158.82553750632593
 21
131.95735939624393
  0
LINE
  8
_1-8_小物
  6
CONTINUOUS
 62
    4
 10
158.82553750632593
 20
131.95735939624393
 11
158.24726969294193
 21
131.99986411774293
  0
LINE
  8
_1-8_小物
  6
CONTINUOUS
 62
    4
 10
158.24726969294193
 20
131.99986411774293
 11
157.66794591042992
 21
131.96641173301657
  0
LINE
  8
_1-8_小物
  6
CONTINUOUS
 62
    4
 10
157.66794591042992
 20
131.96641173301657
 11
157.10516861876951
 21
131.85801867584706
  0
LINE
  8
_1-8_小物
  6
CONTINUOUS
 62
    4
 10
157.10516861876951
 20
131.85801867584706
 11
157.03985321657842
 21
131.84018902839435
  0
ARC
  8
_1-8_小物
  6
CONTINUOUS
 62
    4
 10
149.88841540894515
 20
124.49999999999997
 40
5
 50
74.23983426036601
 51
82.444482010074083
  0
ARC
  8
_1-8_小物
  6
CONTINUOUS
 62
    4
 10
149.82008748449641
 20
123.99999999999997
 40
5
 50
74.258588419679057
 51
81.653895699843488
  0
ARC
  8
_1-8_小物
  6
CONTINUOUS
 62
    4
 10
149.82008748449641
 20
135
 40
5
 50
278.34610430015653
 51
285.74141158032086
  0
ARC
  8
_1-8_小物
  6
CONTINUOUS
 62
    4
 10
149.88841540894515
 20
134.5
 40
5
 50
277.55551798992593
 51
285.76016573963392
  0
INSERT
  2
-001-_1_
  8
_1-8_小物
 10
210
 20
148.5
 41
1
 42
1
 50
0
  0
LINE
  8
_1-8_小物
  6
CONTINUOUS
 62
    4
 10
82.718512396225748
 20
131.84018902839435
 11
88.581797236144695
 21
130.18752043233465
  0
LINE
  8
_1-8_小物
  6
CONTINUOUS
 62
    4
 10
82.597698207180116
 20
131.35707331101597
 11
88.511894154779
 21
129.68796469593613
  0
LINE
  8
_1-8_小物
  6
CONTINUOUS
 62
    4
 10
82.718512396225748
 20
127.15981097160562
 11
88.581797236144695
 21
128.81247956766532
  0
LINE
  8
_1-8_小物
  6
CONTINUOUS
 62
    4
 10
82.597698207180116
 20
127.64292668898401
 11
88.511894154779
 21
129.31203530406384
  0
LINE
  8
_1-8_小物
  6
CONTINUOUS
 62
    4
 10
82.597698207180201
 20
131.35707331101594
 11
82.597698207180201
 21
131.35707331101594
  0
LINE
  8
_1-8_小物
  6
CONTINUOUS
 62
    4
 10
82.597698207180201
 20
131.35707331101594
 11
82.124875283394388
 21
131.45779074697211
  0
LINE
  8
_1-8_小物
  6
CONTINUOUS
 62
    4
 10
82.124875283394388
 20
131.45779074697211
 11
81.634458953363037
 21
131.49902170177148
  0
LINE
  8
_1-8_小物
  6
CONTINUOUS
 62
    4
 10
81.634458953363037
 20
131.49902170177148
 11
81.141350269111499
 21
131.47951339371627
  0
LINE
  8
_1-8_小物
  6
CONTINUOUS
 62
    4
 10
81.141350269111499
 20
131.47951339371627
 11
80.660532088485724
 21
131.39985857287513
  0
LINE
  8
_1-8_小物
  6
CONTINUOUS
 62
    4
 10
80.660532088485724
 20
131.39985857287513
 11
80.206613828598293
 21
131.262477510672
  0
LINE
  8
_1-8_小物
  6
CONTINUOUS
 62
    4
 10
80.206613828598293
 20
131.262477510672
 11
79.79338756608216
 21
131.07154446116377
  0
LINE
  8
_1-8_小物
  6
CONTINUOUS
 62
    4
 10
79.79338756608216
 20
131.07154446116377
 11
79.433408971821308
 21
130.8328608284429
  0
LINE
  8
_1-8_小物
  6
CONTINUOUS
 62
    4
 10
79.433408971821308
 20
130.8328608284429
 11
79.137615813244381
 21
130.55367889390996
  0
LINE
  8
_1-8_小物
  6
CONTINUOUS
 62
    4
 10
79.137615813244381
 20
130.55367889390996
 11
78.914995615796187
 21
130.24248145937278
  0
LINE
  8
_1-8_小物
  6
CONTINUOUS
 62
    4
 10
78.914995615796187
 20
130.24248145937278
 11
78.772312581524943
 21
129.90872410140634
  0
LINE
  8
_1-8_小物
  6
CONTINUOUS
 62
    4
 10
78.772312581524943
 20
129.90872410140634
 11
78.71390206222587
 21
129.56254786844303
  0
LINE
  8
_1-8_小物
  6
CONTINUOUS
 62
    4
 10
78.71390206222587
 20
129.56254786844303
 11
78.741538831970715
 21
129.2144711501478
  0
LINE
  8
_1-8_小物
  6
CONTINUOUS
 62
    4
 10
78.741538831970715
 20
129.2144711501478
 11
78.854383161495676
 21
128.8750700814708
  0
LINE
  8
_1-8_小物
  6
CONTINUOUS
 62
    4
 10
78.854383161495676
 20
128.8750700814708
 11
79.0490063329501
 21
128.55465719213848
  0
LINE
  8
_1-8_小物
  6
CONTINUOUS
 62
    4
 10
79.0490063329501
 20
128.55465719213848
 11
79.319494819753459
 21
128.26296806565651
  0
LINE
  8
_1-8_小物
  6
CONTINUOUS
 62
    4
 10
79.319494819753459
 20
128.26296806565651
 11
79.657629966107976
 21
128.0088655285312
  0
LINE
  8
_1-8_小物
  6
CONTINUOUS
 62
    4
 10
79.657629966107976
 20
128.0088655285312
 11
80.053137706696333
 21
127.80007035777102
  0
LINE
  8
_1-8_小物
  6
CONTINUOUS
 62
    4
 10
80.053137706696333
 20
127.80007035777102
 11
80.494000738957297
 21
127.64292668898406
  0
LINE
  8
_1-8_小物
  6
CONTINUOUS
 62
    4
 10
80.494000738957297
 20
127.64292668898406
 11
80.96682366274311
 21
127.54220925302788
  0
LINE
  8
_1-8_小物
  6
CONTINUOUS
 62
    4
 10
80.96682366274311
 20
127.54220925302788
 11
81.457239992774475
 21
127.50097829822853
  0
LINE
  8
_1-8_小物
  6
CONTINUOUS
 62
    4
 10
81.457239992774475
 20
127.50097829822853
 11
81.950348677026014
 21
127.52048660628371
  0
LINE
  8
_1-8_小物
  6
CONTINUOUS
 62
    4
 10
81.950348677026014
 20
127.52048660628371
 11
82.431166857651789
 21
127.60014142712487
  0
LINE
  8
_1-8_小物
  6
CONTINUOUS
 62
    4
 10
82.431166857651789
 20
127.60014142712487
 11
82.597698099381958
 21
127.64292665856115
  0
LINE
  8
_1-8_小物
  6
CONTINUOUS
 62
    4
 10
82.718512396225748
 20
131.84018902839435
 11
82.718512396225748
 21
131.84018902839435
  0
LINE
  8
_1-8_小物
  6
CONTINUOUS
 62
    4
 10
82.718512396225748
 20
131.84018902839435
 11
82.158870931227966
 21
131.9573593833947
  0
LINE
  8
_1-8_小物
  6
CONTINUOUS
 62
    4
 10
82.158870931227966
 20
131.9573593833947
 11
81.580603119427835
 21
131.99986411701445
  0
LINE
  8
_1-8_小物
  6
CONTINUOUS
 62
    4
 10
81.580603119427835
 20
131.99986411701445
 11
81.001279335669281
 21
131.96641174443101
  0
LINE
  8
_1-8_小物
  6
CONTINUOUS
 62
    4
 10
81.001279335669281
 20
131.96641174443101
 11
80.438502039969819
 21
131.8580186990576
  0
LINE
  8
_1-8_小物
  6
CONTINUOUS
 62
    4
 10
80.438502039969819
 20
131.8580186990576
 11
79.909370935680229
 21
131.67797844872834
  0
LINE
  8
_1-8_小物
  6
CONTINUOUS
 62
    4
 10
79.909370935680229
 20
131.67797844872834
 11
79.429963403651087
 21
131.43176142534475
  0
LINE
  8
_1-8_小物
  6
CONTINUOUS
 62
    4
 10
79.429963403651087
 20
131.43176142534475
 11
79.014845999151206
 21
131.12684880857049
  0
LINE
  8
_1-8_小物
  6
CONTINUOUS
 62
    4
 10
79.014845999151206
 20
131.12684880857049
 11
78.676631854456744
 21
130.77250521397306
  0
LINE
  8
_1-8_小物
  6
CONTINUOUS
 62
    4
 10
78.676631854456744
 20
130.77250521397306
 11
78.425597435209639
 21
130.37949719236775
  0
LINE
  8
_1-8_小物
  6
CONTINUOUS
 62
    4
 10
78.425597435209639
 20
130.37949719236775
 11
78.269370295209171
 21
129.95976609361941
  0
LINE
  8
_1-8_小物
  6
CONTINUOUS
 62
    4
 10
78.269370295209171
 20
129.95976609361941
 11
78.212697317049489
 21
129.52606523476931
  0
LINE
  8
_1-8_小物
  6
CONTINUOUS
 62
    4
 10
78.212697317049489
 20
129.52606523476931
 11
78.257300480494095
 21
129.0915723969504
  0
LINE
  8
_1-8_小物
  6
CONTINUOUS
 62
    4
 10
78.257300480494095
 20
129.0915723969504
 11
78.401824540991996
 21
128.66948942517578
  0
LINE
  8
_1-8_小物
  6
CONTINUOUS
 62
    4
 10
78.401824540991996
 20
128.66948942517578
 11
78.641878208097665
 21
128.27264109695858
  0
LINE
  8
_1-8_小物
  6
CONTINUOUS
 62
    4
 10
78.641878208097665
 20
128.27264109695858
 11
78.970167572609114
 21
127.91308544793674
  0
LINE
  8
_1-8_小物
  6
CONTINUOUS
 62
    4
 10
78.970167572609114
 20
127.91308544793674
 11
79.376717728308108
 21
127.60174739456183
  0
LINE
  8
_1-8_小物
  6
CONTINUOUS
 62
    4
 10
79.376717728308108
 20
127.60174739456183
 11
79.849175854438016
 21
127.34808678604097
  0
LINE
  8
_1-8_小物
  6
CONTINUOUS
 62
    4
 10
79.849175854438016
 20
127.34808678604097
 11
80.37318654991175
 21
127.15981097160564
  0
LINE
  8
_1-8_小物
  6
CONTINUOUS
 62
    4
 10
80.37318654991175
 20
127.15981097160564
 11
80.932828014909546
 21
127.04264061660528
  0
LINE
  8
_1-8_小物
  6
CONTINUOUS
 62
    4
 10
80.932828014909546
 20
127.04264061660528
 11
81.511095826709678
 21
127.00013588298553
  0
LINE
  8
_1-8_小物
  6
CONTINUOUS
 62
    4
 10
81.511095826709678
 20
127.00013588298553
 11
82.090419610468231
 21
127.03358825556899
  0
LINE
  8
_1-8_小物
  6
CONTINUOUS
 62
    4
 10
82.090419610468231
 20
127.03358825556899
 11
82.653196906167693
 21
127.1419813009424
  0
LINE
  8
_1-8_小物
  6
CONTINUOUS
 62
    4
 10
82.653196906167693
 20
127.1419813009424
 11
82.718512309023168
 21
127.15981094702607
  0
ARC
  8
_1-8_小物
  6
CONTINUOUS
 62
    4
 10
89.869950203859005
 20
124.49999999999997
 40
5
 50
97.555517989925761
 51
105.76016573963415
  0
ARC
  8
_1-8_小物
  6
CONTINUOUS
 62
    4
 10
89.938278128307758
 20
123.99999999999997
 40
5
 50
98.346104300156512
 51
105.74141158032096
  0
ARC
  8
_1-8_小物
  6
CONTINUOUS
 62
    4
 10
89.938278128307758
 20
135
 40
5
 50
254.25858841967909
 51
261.65389569984347
  0
ARC
  8
_1-8_小物
  6
CONTINUOUS
 62
    4
 10
89.869950203859005
 20
134.5
 40
5
 50
254.23983426036591
 51
262.44448201007424
  0
LINE
  8
_1-8_小物
  6
CONTINUOUS
 62
    4
 10
91.879182806402085
 20
129.24999999999997
 11
118.21251613973541
 21
129.24999999999997
  0
LINE
  8
_1-8_小物
  6
CONTINUOUS
 62
    4
 10
91.879182806402085
 20
129.75
 11
118.21251613973541
 21
129.75
  0
LINE
  8
_1-8_小物
  6
CONTINUOUS
 62
    4
 10
147.87918280640207
 20
129.24999999999997
 11
121.54584947306876
 21
129.24999999999997
  0
LINE
  8
_1-8_小物
  6
CONTINUOUS
 62
    4
 10
147.87918280640207
 20
129.75
 11
121.54584947306876
 21
129.75
  0
TEXT
  8
_0-0_図面枠
 62
    4
 10
241.66666666666663
 20
128
 40
3
 41
1
 50
0
  1
（落下防止ワイヤー）
  0
INSERT
  2
-002-_2_
  8
_1-8_小物
 10
210
 20
148.5
 41
1
 42
1
 50
0
  0
LINE
  8
_1-8_小物
  6
CONTINUOUS
 62
    4
 10
357.03985321657842
 20
131.84018902839435
 11
351.17656837665947
 21
130.18752043233465
  0
LINE
  8
_1-8_小物
  6
CONTINUOUS
 62
    4
 10
357.16066740562405
 20
131.35707331101597
 11
351.24647145802516
 21
129.68796469593613
  0
LINE
  8
_1-8_小物
  6
CONTINUOUS
 62
    4
 10
357.03985321657842
 20
127.15981097160562
 11
351.17656837665947
 21
128.81247956766532
  0
LINE
  8
_1-8_小物
  6
CONTINUOUS
 62
    4
 10
357.16066740562405
 20
127.64292668898401
 11
351.24647145802516
 21
129.31203530406384
  0
LINE
  8
_1-8_小物
  6
CONTINUOUS
 62
    4
 10
357.1606675134222
 20
127.64292665856115
 11
357.1606675134222
 21
127.64292665856115
  0
LINE
  8
_1-8_小物
  6
CONTINUOUS
 62
    4
 10
357.1606675134222
 20
127.64292665856115
 11
357.63349044305437
 21
127.54220923628056
  0
LINE
  8
_1-8_小物
  6
CONTINUOUS
 62
    4
 10
357.63349044305437
 20
127.54220923628056
 11
358.1239067754791
 21
127.50097829566566
  0
LINE
  8
_1-8_小物
  6
CONTINUOUS
 62
    4
 10
358.1239067754791
 20
127.50097829566566
 11
358.61701545859825
 21
127.52048661798315
  0
LINE
  8
_1-8_小物
  6
CONTINUOUS
 62
    4
 10
358.61701545859825
 20
127.52048661798315
 11
359.09783363460025
 21
127.60014145273114
  0
LINE
  8
_1-8_小物
  6
CONTINUOUS
 62
    4
 10
359.09783363460025
 20
127.60014145273114
 11
359.55175188651305
 21
127.73752252806307
  0
LINE
  8
_1-8_小物
  6
CONTINUOUS
 62
    4
 10
359.55175188651305
 20
127.73752252806307
 11
359.96497813794605
 21
127.92845558952317
  0
LINE
  8
_1-8_小物
  6
CONTINUOUS
 62
    4
 10
359.96497813794605
 20
127.92845558952317
 11
360.32495671835193
 21
128.16713923265576
  0
LINE
  8
_1-8_小物
  6
CONTINUOUS
 62
    4
 10
360.32495671835193
 20
128.16713923265576
 11
360.62074986072309
 21
128.44632117574403
  0
LINE
  8
_1-8_小物
  6
CONTINUOUS
 62
    4
 10
360.62074986072309
 20
128.44632117574403
 11
360.84337004010706
 21
128.75751861672009
  0
LINE
  8
_1-8_小物
  6
CONTINUOUS
 62
    4
 10
360.84337004010706
 20
128.75751861672009
 11
360.98605305500456
 21
129.09127597881343
  0
LINE
  8
_1-8_小物
  6
CONTINUOUS
 62
    4
 10
360.98605305500456
 20
129.09127597881343
 11
361.04446355420902
 21
129.43745221346614
  0
LINE
  8
_1-8_小物
  6
CONTINUOUS
 62
    4
 10
361.04446355420902
 20
129.43745221346614
 11
361.01682676425924
 21
129.78552893096202
  0
LINE
  8
_1-8_小物
  6
CONTINUOUS
 62
    4
 10
361.01682676425924
 20
129.78552893096202
 11
360.90398241503294
 21
130.12492999637522
  0
LINE
  8
_1-8_小物
  6
CONTINUOUS
 62
    4
 10
360.90398241503294
 20
130.12492999637522
 11
360.70935922497932
 21
130.44534288007839
  0
LINE
  8
_1-8_小物
  6
CONTINUOUS
 62
    4
 10
360.70935922497932
 20
130.44534288007839
 11
360.4388707212442
 21
130.73703199873694
  0
LINE
  8
_1-8_小物
  6
CONTINUOUS
 62
    4
 10
360.4388707212442
 20
130.73703199873694
 11
360.1007355601397
 21
130.99113452608228
  0
LINE
  8
_1-8_小物
  6
CONTINUOUS
 62
    4
 10
360.1007355601397
 20
130.99113452608228
 11
359.70522780743136
 21
131.19992968540308
  0
LINE
  8
_1-8_小物
  6
CONTINUOUS
 62
    4
 10
359.70522780743136
 20
131.19992968540308
 11
359.26436476604857
 21
131.35707334143885
  0
LINE
  8
_1-8_小物
  6
CONTINUOUS
 62
    4
 10
359.26436476604857
 20
131.35707334143885
 11
358.7915418364164
 21
131.45779076371943
  0
LINE
  8
_1-8_小物
  6
CONTINUOUS
 62
    4
 10
358.7915418364164
 20
131.45779076371943
 11
358.30112550399167
 21
131.49902170433435
  0
LINE
  8
_1-8_小物
  6
CONTINUOUS
 62
    4
 10
358.30112550399167
 20
131.49902170433435
 11
357.80801682087252
 21
131.47951338201685
  0
LINE
  8
_1-8_小物
  6
CONTINUOUS
 62
    4
 10
357.80801682087252
 20
131.47951338201685
 11
357.32719864487052
 21
131.39985854726888
  0
LINE
  8
_1-8_小物
  6
CONTINUOUS
 62
    4
 10
357.32719864487052
 20
131.39985854726888
 11
357.16066740562394
 21
131.35707331101594
  0
LINE
  8
_1-8_小物
  6
CONTINUOUS
 62
    4
 10
357.039853303781
 20
127.15981094702607
 11
357.039853303781
 21
127.15981094702607
  0
LINE
  8
_1-8_小物
  6
CONTINUOUS
 62
    4
 10
357.039853303781
 20
127.15981094702607
 11
357.5994947731449
 21
127.04264060375607
  0
LINE
  8
_1-8_小物
  6
CONTINUOUS
 62
    4
 10
357.5994947731449
 20
127.04264060375607
 11
358.1777625865289
 21
127.00013588225708
  0
LINE
  8
_1-8_小物
  6
CONTINUOUS
 62
    4
 10
358.1777625865289
 20
127.00013588225708
 11
358.75708636904091
 21
127.03358826698343
  0
LINE
  8
_1-8_小物
  6
CONTINUOUS
 62
    4
 10
358.75708636904091
 20
127.03358826698343
 11
359.31986366070134
 21
127.14198132415294
  0
LINE
  8
_1-8_小物
  6
CONTINUOUS
 62
    4
 10
359.31986366070134
 20
127.14198132415294
 11
359.84899475828206
 21
127.32202158557303
  0
LINE
  8
_1-8_小物
  6
CONTINUOUS
 62
    4
 10
359.84899475828206
 20
127.32202158557303
 11
360.32840228113639
 21
127.56823861900523
  0
LINE
  8
_1-8_小物
  6
CONTINUOUS
 62
    4
 10
360.32840228113639
 20
127.56823861900523
 11
360.7435196742743
 21
127.87315124448052
  0
LINE
  8
_1-8_小物
  6
CONTINUOUS
 62
    4
 10
360.7435196742743
 20
127.87315124448052
 11
361.08173380576483
 21
128.2274948461671
  0
LINE
  8
_1-8_小物
  6
CONTINUOUS
 62
    4
 10
361.08173380576483
 20
128.2274948461671
 11
361.33276821036725
 21
128.62050287303421
  0
LINE
  8
_1-8_小物
  6
CONTINUOUS
 62
    4
 10
361.33276821036725
 20
128.62050287303421
 11
361.48899533472729
 21
129.04023397505713
  0
LINE
  8
_1-8_小物
  6
CONTINUOUS
 62
    4
 10
361.48899533472729
 20
129.04023397505713
 11
361.54566829672592
 21
129.47393483509512
  0
LINE
  8
_1-8_小物
  6
CONTINUOUS
 62
    4
 10
361.54566829672592
 20
129.47393483509512
 11
361.50106511709077
 21
129.90842767197915
  0
LINE
  8
_1-8_小物
  6
CONTINUOUS
 62
    4
 10
361.50106511709077
 20
129.90842767197915
 11
361.35654104086478
 21
130.33051064072447
  0
LINE
  8
_1-8_小物
  6
CONTINUOUS
 62
    4
 10
361.35654104086478
 20
130.33051064072447
 11
361.11648735897131
 21
130.72735896391001
  0
LINE
  8
_1-8_小物
  6
CONTINUOUS
 62
    4
 10
361.11648735897131
 20
130.72735896391001
 11
360.78819798106173
 21
131.08691460605075
  0
LINE
  8
_1-8_小物
  6
CONTINUOUS
 62
    4
 10
360.78819798106173
 20
131.08691460605075
 11
360.38164781376133
 21
131.3982526509042
  0
LINE
  8
_1-8_小物
  6
CONTINUOUS
 62
    4
 10
360.38164781376133
 20
131.3982526509042
 11
359.90918967817925
 21
131.6519132495221
  0
LINE
  8
_1-8_小物
  6
CONTINUOUS
 62
    4
 10
359.90918967817925
 20
131.6519132495221
 11
359.38517897568977
 21
131.84018905297393
  0
LINE
  8
_1-8_小物
  6
CONTINUOUS
 62
    4
 10
359.38517897568977
 20
131.84018905297393
 11
358.82553750632587
 21
131.95735939624393
  0
LINE
  8
_1-8_小物
  6
CONTINUOUS
 62
    4
 10
358.82553750632587
 20
131.95735939624393
 11
358.24726969294187
 21
131.99986411774293
  0
LINE
  8
_1-8_小物
  6
CONTINUOUS
 62
    4
 10
358.24726969294187
 20
131.99986411774293
 11
357.66794591042986
 21
131.96641173301657
  0
LINE
  8
_1-8_小物
  6
CONTINUOUS
 62
    4
 10
357.66794591042986
 20
131.96641173301657
 11
357.10516861876948
 21
131.85801867584706
  0
LINE
  8
_1-8_小物
  6
CONTINUOUS
 62
    4
 10
357.10516861876948
 20
131.85801867584706
 11
357.03985321657842
 21
131.84018902839438
  0
ARC
  8
_1-8_小物
  6
CONTINUOUS
 62
    4
 10
349.88841540894515
 20
124.49999999999997
 40
5
 50
74.239834260366322
 51
82.444482010074083
  0
ARC
  8
_1-8_小物
  6
CONTINUOUS
 62
    4
 10
349.82008748449636
 20
123.99999999999997
 40
5
 50
74.258588419678418
 51
81.653895699842849
  0
ARC
  8
_1-8_小物
  6
CONTINUOUS
 62
    4
 10
349.82008748449636
 20
135
 40
5
 50
278.34610430015715
 51
285.7414115803216
  0
ARC
  8
_1-8_小物
  6
CONTINUOUS
 62
    4
 10
349.88841540894515
 20
134.5
 40
5
 50
277.55551798992593
 51
285.76016573963363
  0
INSERT
  2
-003-_3_
  8
_1-8_小物
 10
210
 20
148.5
 41
1
 42
1
 50
0
  0
LINE
  8
_1-8_小物
  6
CONTINUOUS
 62
    4
 10
282.71851239622572
 20
131.84018902839435
 11
288.58179723614467
 21
130.18752043233465
  0
LINE
  8
_1-8_小物
  6
CONTINUOUS
 62
    4
 10
282.59769820718009
 20
131.35707331101597
 11
288.51189415477899
 21
129.68796469593613
  0
LINE
  8
_1-8_小物
  6
CONTINUOUS
 62
    4
 10
282.71851239622572
 20
127.15981097160562
 11
288.58179723614467
 21
128.81247956766532
  0
LINE
  8
_1-8_小物
  6
CONTINUOUS
 62
    4
 10
282.59769820718009
 20
127.64292668898401
 11
288.51189415477899
 21
129.31203530406384
  0
LINE
  8
_1-8_小物
  6
CONTINUOUS
 62
    4
 10
282.5976982071802
 20
131.35707331101594
 11
282.5976982071802
 21
131.35707331101594
  0
LINE
  8
_1-8_小物
  6
CONTINUOUS
 62
    4
 10
282.5976982071802
 20
131.35707331101594
 11
282.12487528339437
 21
131.45779074697211
  0
LINE
  8
_1-8_小物
  6
CONTINUOUS
 62
    4
 10
282.12487528339437
 20
131.45779074697211
 11
281.63445895336304
 21
131.49902170177148
  0
LINE
  8
_1-8_小物
  6
CONTINUOUS
 62
    4
 10
281.63445895336304
 20
131.49902170177148
 11
281.14135026911151
 21
131.47951339371627
  0
LINE
  8
_1-8_小物
  6
CONTINUOUS
 62
    4
 10
281.14135026911151
 20
131.47951339371627
 11
280.6605320884857
 21
131.39985857287513
  0
LINE
  8
_1-8_小物
  6
CONTINUOUS
 62
    4
 10
280.6605320884857
 20
131.39985857287513
 11
280.20661382859828
 21
131.262477510672
  0
LINE
  8
_1-8_小物
  6
CONTINUOUS
 62
    4
 10
280.20661382859828
 20
131.262477510672
 11
279.79338756608217
 21
131.07154446116377
  0
LINE
  8
_1-8_小物
  6
CONTINUOUS
 62
    4
 10
279.79338756608217
 20
131.07154446116377
 11
279.43340897182128
 21
130.8328608284429
  0
LINE
  8
_1-8_小物
  6
CONTINUOUS
 62
    4
 10
279.43340897182128
 20
130.8328608284429
 11
279.13761581324439
 21
130.55367889390996
  0
LINE
  8
_1-8_小物
  6
CONTINUOUS
 62
    4
 10
279.13761581324439
 20
130.55367889390996
 11
278.91499561579622
 21
130.24248145937278
  0
LINE
  8
_1-8_小物
  6
CONTINUOUS
 62
    4
 10
278.91499561579622
 20
130.24248145937278
 11
278.77231258152494
 21
129.90872410140634
  0
LINE
  8
_1-8_小物
  6
CONTINUOUS
 62
    4
 10
278.77231258152494
 20
129.90872410140634
 11
278.71390206222588
 21
129.56254786844303
  0
LINE
  8
_1-8_小物
  6
CONTINUOUS
 62
    4
 10
278.71390206222588
 20
129.56254786844303
 11
278.74153883197073
 21
129.2144711501478
  0
LINE
  8
_1-8_小物
  6
CONTINUOUS
 62
    4
 10
278.74153883197073
 20
129.2144711501478
 11
278.85438316149566
 21
128.8750700814708
  0
LINE
  8
_1-8_小物
  6
CONTINUOUS
 62
    4
 10
278.85438316149566
 20
128.8750700814708
 11
279.04900633295011
 21
128.55465719213848
  0
LINE
  8
_1-8_小物
  6
CONTINUOUS
 62
    4
 10
279.04900633295011
 20
128.55465719213848
 11
279.31949481975346
 21
128.26296806565651
  0
LINE
  8
_1-8_小物
  6
CONTINUOUS
 62
    4
 10
279.31949481975346
 20
128.26296806565651
 11
279.657629966108
 21
128.0088655285312
  0
LINE
  8
_1-8_小物
  6
CONTINUOUS
 62
    4
 10
279.657629966108
 20
128.0088655285312
 11
280.0531377066963
 21
127.80007035777102
  0
LINE
  8
_1-8_小物
  6
CONTINUOUS
 62
    4
 10
280.0531377066963
 20
127.80007035777102
 11
280.49400073895731
 21
127.64292668898406
  0
LINE
  8
_1-8_小物
  6
CONTINUOUS
 62
    4
 10
280.49400073895731
 20
127.64292668898406
 11
280.96682366274314
 21
127.54220925302788
  0
LINE
  8
_1-8_小物
  6
CONTINUOUS
 62
    4
 10
280.96682366274314
 20
127.54220925302788
 11
281.45723999277448
 21
127.50097829822853
  0
LINE
  8
_1-8_小物
  6
CONTINUOUS
 62
    4
 10
281.45723999277448
 20
127.50097829822853
 11
281.950348677026
 21
127.52048660628371
  0
LINE
  8
_1-8_小物
  6
CONTINUOUS
 62
    4
 10
281.950348677026
 20
127.52048660628371
 11
282.43116685765176
 21
127.60014142712487
  0
LINE
  8
_1-8_小物
  6
CONTINUOUS
 62
    4
 10
282.43116685765176
 20
127.60014142712487
 11
282.59769809938194
 21
127.64292665856115
  0
LINE
  8
_1-8_小物
  6
CONTINUOUS
 62
    4
 10
282.71851239622572
 20
131.84018902839438
 11
282.71851239622572
 21
131.84018902839438
  0
LINE
  8
_1-8_小物
  6
CONTINUOUS
 62
    4
 10
282.71851239622572
 20
131.84018902839438
 11
282.15887093122791
 21
131.9573593833947
  0
LINE
  8
_1-8_小物
  6
CONTINUOUS
 62
    4
 10
282.15887093122791
 20
131.9573593833947
 11
281.58060311942779
 21
131.99986411701445
  0
LINE
  8
_1-8_小物
  6
CONTINUOUS
 62
    4
 10
281.58060311942779
 20
131.99986411701445
 11
281.00127933566927
 21
131.96641174443101
  0
LINE
  8
_1-8_小物
  6
CONTINUOUS
 62
    4
 10
281.00127933566927
 20
131.96641174443101
 11
280.43850203996976
 21
131.8580186990576
  0
LINE
  8
_1-8_小物
  6
CONTINUOUS
 62
    4
 10
280.43850203996976
 20
131.8580186990576
 11
279.90937093568022
 21
131.67797844872834
  0
LINE
  8
_1-8_小物
  6
CONTINUOUS
 62
    4
 10
279.90937093568022
 20
131.67797844872834
 11
279.42996340365107
 21
131.43176142534472
  0
LINE
  8
_1-8_小物
  6
CONTINUOUS
 62
    4
 10
279.42996340365107
 20
131.43176142534472
 11
279.01484599915119
 21
131.12684880857049
  0
LINE
  8
_1-8_小物
  6
CONTINUOUS
 62
    4
 10
279.01484599915119
 20
131.12684880857049
 11
278.67663185445673
 21
130.77250521397303
  0
LINE
  8
_1-8_小物
  6
CONTINUOUS
 62
    4
 10
278.67663185445673
 20
130.77250521397303
 11
278.42559743520962
 21
130.37949719236772
  0
LINE
  8
_1-8_小物
  6
CONTINUOUS
 62
    4
 10
278.42559743520962
 20
130.37949719236772
 11
278.26937029520917
 21
129.95976609361938
  0
LINE
  8
_1-8_小物
  6
CONTINUOUS
 62
    4
 10
278.26937029520917
 20
129.95976609361938
 11
278.2126973170495
 21
129.52606523476928
  0
LINE
  8
_1-8_小物
  6
CONTINUOUS
 62
    4
 10
278.2126973170495
 20
129.52606523476928
 11
278.25730048049411
 21
129.09157239695037
  0
LINE
  8
_1-8_小物
  6
CONTINUOUS
 62
    4
 10
278.25730048049411
 20
129.09157239695037
 11
278.40182454099198
 21
128.66948942517575
  0
LINE
  8
_1-8_小物
  6
CONTINUOUS
 62
    4
 10
278.40182454099198
 20
128.66948942517575
 11
278.64187820809769
 21
128.27264109695858
  0
LINE
  8
_1-8_小物
  6
CONTINUOUS
 62
    4
 10
278.64187820809769
 20
128.27264109695858
 11
278.97016757260911
 21
127.91308544793672
  0
LINE
  8
_1-8_小物
  6
CONTINUOUS
 62
    4
 10
278.97016757260911
 20
127.91308544793672
 11
279.37671772830811
 21
127.60174739456181
  0
LINE
  8
_1-8_小物
  6
CONTINUOUS
 62
    4
 10
279.37671772830811
 20
127.60174739456181
 11
279.84917585443804
 21
127.34808678604097
  0
LINE
  8
_1-8_小物
  6
CONTINUOUS
 62
    4
 10
279.84917585443804
 20
127.34808678604097
 11
280.37318654991179
 21
127.15981097160564
  0
LINE
  8
_1-8_小物
  6
CONTINUOUS
 62
    4
 10
280.37318654991179
 20
127.15981097160564
 11
280.93282801490955
 21
127.04264061660528
  0
LINE
  8
_1-8_小物
  6
CONTINUOUS
 62
    4
 10
280.93282801490955
 20
127.04264061660528
 11
281.51109582670972
 21
127.00013588298553
  0
LINE
  8
_1-8_小物
  6
CONTINUOUS
 62
    4
 10
281.51109582670972
 20
127.00013588298553
 11
282.09041961046825
 21
127.03358825556899
  0
LINE
  8
_1-8_小物
  6
CONTINUOUS
 62
    4
 10
282.09041961046825
 20
127.03358825556899
 11
282.65319690616769
 21
127.14198130094242
  0
LINE
  8
_1-8_小物
  6
CONTINUOUS
 62
    4
 10
282.65319690616769
 20
127.14198130094242
 11
282.71851230902314
 21
127.15981094702607
  0
ARC
  8
_1-8_小物
  6
CONTINUOUS
 62
    4
 10
289.86995020385899
 20
124.49999999999997
 40
5
 50
97.555517989925917
 51
105.76016573963432
  0
ARC
  8
_1-8_小物
  6
CONTINUOUS
 62
    4
 10
289.93827812830773
 20
123.99999999999997
 40
5
 50
98.346104300156512
 51
105.74141158032096
  0
ARC
  8
_1-8_小物
  6
CONTINUOUS
 62
    4
 10
289.93827812830773
 20
135
 40
5
 50
254.25858841967909
 51
261.65389569984347
  0
ARC
  8
_1-8_小物
  6
CONTINUOUS
 62
    4
 10
289.86995020385899
 20
134.5
 40
5
 50
254.23983426036577
 51
262.44448201007407
  0
LINE
  8
_1-8_小物
  6
CONTINUOUS
 62
    4
 10
291.87918280640207
 20
129.24999999999997
 11
318.21251613973538
 21
129.24999999999997
  0
LINE
  8
_1-8_小物
  6
CONTINUOUS
 62
    4
 10
291.87918280640207
 20
129.75
 11
318.21251613973538
 21
129.75
  0
LINE
  8
_1-8_小物
  6
CONTINUOUS
 62
    4
 10
347.87918280640207
 20
129.24999999999997
 11
321.54584947306876
 21
129.24999999999997
  0
LINE
  8
_1-8_小物
  6
CONTINUOUS
 62
    4
 10
347.87918280640207
 20
129.75
 11
321.54584947306876
 21
129.75
  0
TEXT
  8
_0-0_図面枠
 62
    4
 10
48.400007499999987
 20
99.400003999999953
 40
3.2000000000000002
 41
1
 50
0
  1
ＵＵＧキャップ(Ｃ)Ａ
  0
TEXT
  8
_0-0_図面枠
 62
    4
 10
48.400007499999987
 20
93.400003999999953
 40
3.2000000000000002
 41
1
 50
0
  1
ＵＵＧホルダー(Ｃ)
  0
TEXT
  8
_0-0_図面枠
 62
    4
 10
248.40000750000002
 20
99.400003999999896
 40
3.2000000000000002
 41
1
 50
0
  1
ＵＣＧキャップ(Ｃ)Ａ
  0
TEXT
  8
_0-0_図面枠
 62
    4
 10
248.40000750000002
 20
93.400003999999896
 40
3.2000000000000002
 41
1
 50
0
  1
ＵＣＧホルダー(Ｃ)
  0
TEXT
  8
_0-0_図面枠
 62
    4
 10
248.40000750000013
 20
63.400003999999953
 40
3.2000000000000002
 41
1
 50
0
  1
アンカープラグ
  0
LINE
  8
_0-0_図面枠
  6
CONTINUOUS
 62
    2
 10
165.00000000000003
 20
246.99999999999994
 11
210.00000000000003
 21
246.99999999999994
  0
LINE
  8
_0-0_図面枠
  6
CONTINUOUS
 62
    2
 10
165.00000000000003
 20
247
 11
165.00000000000003
 21
287
  0
LINE
  8
_0-0_図面枠
  6
CONTINUOUS
 62
    2
 10
184.7618191860187
 20
279.31988384078556
 11
184.7618191860187
 21
276.31988384078556
  0
LINE
  8
_0-0_図面枠
  6
CONTINUOUS
 62
    2
 10
170.03938732168322
 20
270.81988384078556
 11
170.03938732168322
 21
267.81988384078556
  0
LINE
  8
_0-0_図面枠
  6
CONTINUOUS
 62
    2
 10
170.03938732168322
 20
267.81988384078556
 11
184.7618191860187
 21
276.31988384078556
  0
LINE
  8
_0-0_図面枠
  6
CONTINUOUS
 62
    2
 10
184.7618191860187
 20
276.31988384078556
 11
193.42207322386307
 21
271.31988384078556
  0
LINE
  8
_0-0_図面枠
  6
CONTINUOUS
 62
    2
 10
184.7618191860187
 20
279.31988384078556
 11
193.42207322386307
 21
274.31988384078556
  0
LINE
  8
_0-0_図面枠
  6
CONTINUOUS
 62
    2
 10
170.03938732168322
 20
267.81988384078556
 11
178.69964135952759
 21
262.81988384078556
  0
LINE
  8
_0-0_図面枠
  6
CONTINUOUS
 62
    2
 10
170.03938732168322
 20
270.81988384078556
 11
172.63746353303654
 21
269.31988384078556
  0
INSERT
  2
-004-_4_
  8
_0-0_図面枠
 10
210
 20
148.5
 41
1
 42
1
 50
0
  0
LINE
  8
_0-0_図面枠
  6
CONTINUOUS
 62
    3
 10
179.56566676331207
 20
277.26988384078555
 11
188.22592080115649
 21
282.26988384078555
  0
LINE
  8
_0-0_図面枠
  6
CONTINUOUS
 62
    3
 10
179.56566676331207
 20
276.31988384078556
 11
179.56566676331207
 21
277.26988384078555
  0
LINE
  8
_0-0_図面枠
  6
CONTINUOUS
 62
    3
 10
179.56566676331207
 20
276.31988384078556
 11
188.22592080115649
 21
281.31988384078556
  0
LINE
  8
_0-0_図面枠
  6
CONTINUOUS
 62
    3
 10
175.23553974438991
 20
274.76988384078555
 11
166.57528570654549
 21
269.76988384078555
  0
LINE
  8
_0-0_図面枠
  6
CONTINUOUS
 62
    3
 10
175.23553974438991
 20
273.81988384078556
 11
175.23553974438991
 21
274.76988384078555
  0
LINE
  8
_0-0_図面枠
  6
CONTINUOUS
 62
    3
 10
175.23553974438991
 20
273.81988384078556
 11
166.57528570654549
 21
268.81988384078556
  0
LINE
  8
_0-0_図面枠
  6
CONTINUOUS
 62
    3
 10
175.23553974438991
 20
274.76988384078555
 11
178.65634008933839
 21
272.79488384078559
  0
LINE
  8
_0-0_図面枠
  6
CONTINUOUS
 62
    3
 10
175.23553974438991
 20
273.81988384078556
 11
177.83361595574323
 21
272.31988384078556
  0
LINE
  8
_0-0_図面枠
  6
CONTINUOUS
 62
    3
 10
179.56566676331207
 20
276.31988384078556
 11
182.16374297466538
 21
274.81988384078556
  0
TEXT
  8
_0-0_図面枠
 62
    4
 10
178.59820685518585
 20
267.65215495316619
 40
2.5
 41
1
 50
0
  1
-75
  0
TEXT
  8
_0-0_図面枠
 62
    4
 10
201.11406054545697
 20
254.65262076405389
 40
2.5
 41
1
 50
0
  1
+75
  0
TEXT
  8
_0-0_図面枠
 62
    4
 10
201.11406054545697
 20
267.65215495316613
 40
2.5
 41
1
 50
0
  1
+75
  0
TEXT
  8
_0-0_図面枠
 62
    4
 10
178.59780344931656
 20
254.65331953359555
 40
2.5
 41
1
 50
0
  1
-75
  0
LINE
  8
_0-0_図面枠
  6
CONTINUOUS
 62
    2
 10
365.00000000000006
 20
246.99999999999994
 11
410.00000000000006
 21
246.99999999999994
  0
LINE
  8
_0-0_図面枠
  6
CONTINUOUS
 62
    2
 10
382.51081219164189
 20
277.68583390683517
 11
382.51081219164189
 21
274.68583390683517
  0
LINE
  8
_0-0_図面枠
  6
CONTINUOUS
 62
    2
 10
382.51081219164189
 20
274.68583390683517
 11
391.17106622948626
 21
269.68583390683517
  0
LINE
  8
_0-0_図面枠
  6
CONTINUOUS
 62
    2
 10
382.51081219164189
 20
277.68583390683517
 11
391.17106622948626
 21
272.68583390683517
  0
LINE
  8
_0-0_図面枠
  6
CONTINUOUS
 62
    2
 10
375.14959625947415
 20
266.43583390683517
 11
372.9845327500131
 21
265.18583390683517
  0
LINE
  8
_0-0_図面枠
  6
CONTINUOUS
 62
    2
 10
375.14959625947415
 20
270.43583390683517
 11
382.51081219164189
 21
274.68583390683517
  0
LINE
  8
_0-0_図面枠
  6
CONTINUOUS
 62
    2
 10
375.14959625947415
 20
270.43583390683517
 11
375.14959625947415
 21
266.43583390683517
  0
LINE
  8
_0-0_図面枠
  6
CONTINUOUS
 62
    2
 10
375.14959625947415
 20
270.43583390683517
 11
383.80985029731852
 21
265.43583390683517
  0
LINE
  8
_0-0_図面枠
  6
CONTINUOUS
 62
    2
 10
375.14959625947415
 20
266.43583390683517
 11
383.80985029731852
 21
261.43583390683517
  0
LINE
  8
_0-0_図面枠
  6
CONTINUOUS
 62
    2
 10
372.9845327500131
 20
265.18583390683517
 11
381.64478678785747
 21
260.18583390683517
  0
INSERT
  2
-005-_5_
  8
_0-0_図面枠
 10
210
 20
148.5
 41
1
 42
1
 50
0
  0
LINE
  8
_0-0_図面枠
  6
CONTINUOUS
 62
    2
 10
365.00000000000006
 20
247
 11
365.00000000000006
 21
287
  0
LINE
  8
_0-0_図面枠
  6
CONTINUOUS
 62
    3
 10
377.31465976893526
 20
275.63583390683516
 11
385.97491380677968
 21
280.63583390683516
  0
LINE
  8
_0-0_図面枠
  6
CONTINUOUS
 62
    3
 10
377.31465976893526
 20
274.68583390683517
 11
377.31465976893526
 21
275.63583390683516
  0
LINE
  8
_0-0_図面枠
  6
CONTINUOUS
 62
    3
 10
377.31465976893526
 20
274.68583390683517
 11
385.97491380677968
 21
279.68583390683517
  0
LINE
  8
_0-0_図面枠
  6
CONTINUOUS
 62
    3
 10
377.31465976893526
 20
274.68583390683517
 11
379.91273598028857
 21
273.18583390683517
  0
LINE
  8
_0-0_図面枠
  6
CONTINUOUS
 62
    3
 10
372.9845327500131
 20
253.36416609316478
 11
372.9845327500131
 21
276.13583390683516
  0
TEXT
  8
_0-0_図面枠
 62
    4
 10
379.37808706028358
 20
268.0181050192158
 40
2.5
 41
1
 50
0
  1
-75
  0
TEXT
  8
_0-0_図面枠
 62
    4
 10
401.89394075055469
 20
255.0185708301035
 40
2.5
 41
1
 50
0
  1
+75
  0
TEXT
  8
_0-0_図面枠
 62
    4
 10
401.89394075055469
 20
268.01810501921574
 40
2.5
 41
1
 50
0
  1
+75
  0
TEXT
  8
_0-0_図面枠
 62
    4
 10
379.37768365441428
 20
255.01926959964516
 40
2.5
 41
1
 50
0
  1
-75
  0
LINE
  8
_1-0_躯体
  6
CENTER2
 62
    4
 10
110
 20
234.20000066666665
 11
110
 21
198.00000033333336
  0
CIRCLE
  8
_1-f_寸法
  6
CONTINUOUS
 62
    4
 10
128.33333333333331
 20
200
 40
1.6666666666666665
  0
TEXT
  8
_1-f_寸法
 62
    4
 10
127.70833333333331
 20
198.75
 40
2.5
 41
1
 50
0
  1
1
  0
LINE
  8
_1-f_寸法
  6
CONTINUOUS
 62
    4
 10
127.50000000000001
 20
201.44337567297407
 11
126.16826982387218
 21
203.75000000000003
  0
LINE
  8
_1-0_躯体
  6
CENTER2
 62
    4
 10
309.99999999999983
 20
234.2000006666666
 11
309.99999999999983
 21
198.00000033333328
  0
ARC
  8
_1-0_躯体
  6
CONTINUOUS
 62
    4
 10
138.91666599999996
 20
231.50000066666669
 40
0.8333329999999998
 50
90
 51
180
  0
ARC
  8
_1-0_躯体
  6
CONTINUOUS
 62
    4
 10
150.58333300000004
 20
231.50000066666669
 40
0.8333329999999998
 50
0
 51
90
  0
LINE
  8
_1-0_躯体
  6
CONTINUOUS
 62
    4
 10
138.91666599999996
 20
232.33333366666673
 11
150.58333300000004
 21
232.33333366666673
  0
LINE
  8
_1-0_躯体
  6
CONTINUOUS
 62
    4
 10
152.83333300000004
 20
234.00000066666669
 11
163.33333300000004
 21
234.00000066666669
  0
LINE
  8
_1-0_躯体
  6
CONTINUOUS
 62
    4
 10
136.66666599999996
 20
234.00000066666669
 11
135
 21
234.00000066666669
  0
LINE
  8
_1-0_躯体
  6
CONTINUOUS
 62
    4
 10
135
 20
234.00000066666669
 11
135
 21
221.33333366666673
  0
LINE
  8
_1-0_躯体
  6
CONTINUOUS
 62
    4
 10
163.33333300000004
 20
215.00000066666666
 11
135
 21
215.00000066666666
  0
LINE
  8
_1-0_躯体
  6
CONTINUOUS
 62
    4
 10
163.33333300000004
 20
214.3333336666667
 11
135
 21
214.3333336666667
  0
LINE
  8
_1-0_躯体
  6
CONTINUOUS
 62
    4
 10
163.33333300000004
 20
213.66666666666666
 11
135
 21
213.66666666666666
  0
LINE
  8
_1-0_躯体
  6
CONTINUOUS
 62
    4
 10
138.66666599999996
 20
221.33333366666673
 11
135
 21
221.33333366666673
  0
LINE
  8
_1-0_躯体
  6
CONTINUOUS
 62
    4
 10
137.41666599999996
 20
215.16666666666666
 11
138.37732200000005
 21
215.16666666666666
  0
LINE
  8
_1-0_躯体
  6
CONTINUOUS
 62
    4
 10
137.41666599999996
 20
215.00000066666666
 11
138.41666599999996
 21
215.00000066666666
  0
LINE
  8
_1-0_躯体
  6
CONTINUOUS
 62
    4
 10
144.41666599999996
 20
215.00000066666666
 11
144.75
 21
215.16666666666666
  0
LINE
  8
_1-0_躯体
  6
CONTINUOUS
 62
    4
 10
144.75
 20
215.16666666666666
 11
145.08333300000004
 21
215.00000066666666
  0
LINE
  8
_1-0_躯体
  6
CONTINUOUS
 62
    4
 10
143.08333300000004
 20
215.00000066666666
 11
144.41666599999996
 21
215.00000066666666
  0
LINE
  8
_1-0_躯体
  6
CONTINUOUS
 62
    4
 10
143.12267800000006
 20
215.16666666666666
 11
144.37732200000005
 21
215.16666666666666
  0
LINE
  8
_1-0_躯体
  6
CONTINUOUS
 62
    4
 10
144.37732200000005
 20
215.16666666666666
 11
144.75
 21
215.35300566666666
  0
LINE
  8
_1-0_躯体
  6
CONTINUOUS
 62
    4
 10
144.75
 20
215.35300566666666
 11
145.12267800000006
 21
215.16666666666666
  0
LINE
  8
_1-0_躯体
  6
CONTINUOUS
 62
    4
 10
137.58333300000004
 20
220.33333366666673
 11
137.75
 21
220.33333366666673
  0
LINE
  8
_1-0_躯体
  6
CONTINUOUS
 62
    4
 10
137.75
 20
220.33333366666673
 11
137.75
 21
220.83333366666673
  0
ARC
  8
_1-0_躯体
  6
CONTINUOUS
 62
    4
 10
137.25
 20
220.83333366666673
 40
0.5
 50
0
 51
90
  0
LINE
  8
_1-0_躯体
  6
CONTINUOUS
 62
    4
 10
136.91666599999996
 20
221.33333366666673
 11
137.25
 21
221.33333366666673
  0
ARC
  8
_1-0_躯体
  6
CONTINUOUS
 62
    4
 10
136.91666599999996
 20
220.83333366666673
 40
0.5
 50
90
 51
180
  0
LINE
  8
_1-0_躯体
  6
CONTINUOUS
 62
    4
 10
136.41666599999996
 20
220.83333366666673
 11
136.41666599999996
 21
216.00000066666666
  0
ARC
  8
_1-0_躯体
  6
CONTINUOUS
 62
    4
 10
137.25
 20
220.83333366666673
 40
0.3333329999999999
 50
0
 51
90
  0
LINE
  8
_1-0_躯体
  6
CONTINUOUS
 62
    4
 10
136.91666599999996
 20
221.16666666666669
 11
137.25
 21
221.16666666666669
  0
ARC
  8
_1-0_躯体
  6
CONTINUOUS
 62
    4
 10
136.91666599999996
 20
220.83333366666673
 40
0.3333329999999999
 50
90
 51
180
  0
ARC
  8
_1-0_躯体
  6
CONTINUOUS
 62
    4
 10
137.41666599999996
 20
216.00000066666666
 40
0.8333329999999998
 50
180
 51
270
  0
LINE
  8
_1-0_躯体
  6
CONTINUOUS
 62
    4
 10
136.58333300000004
 20
220.83333366666673
 11
136.58333300000004
 21
216.00000066666666
  0
LINE
  8
_1-0_躯体
  6
CONTINUOUS
 62
    4
 10
137.58333300000004
 20
220.33333366666673
 11
137.58333300000004
 21
220.83333366666673
  0
ARC
  8
_1-0_躯体
  6
CONTINUOUS
 62
    4
 10
137.41666599999996
 20
216.00000066666666
 40
1
 50
180
 51
270
  0
LINE
  8
_1-0_躯体
  6
CONTINUOUS
 62
    4
 10
151.91666599999996
 20
220.33333366666673
 11
151.75
 21
220.33333366666673
  0
LINE
  8
_1-0_躯体
  6
CONTINUOUS
 62
    4
 10
151.75
 20
220.33333366666673
 11
151.75
 21
220.83333366666673
  0
ARC
  8
_1-0_躯体
  6
CONTINUOUS
 62
    4
 10
152.25
 20
220.83333366666673
 40
0.5
 50
90
 51
180
  0
LINE
  8
_1-0_躯体
  6
CONTINUOUS
 62
    4
 10
152.58333300000004
 20
221.33333366666673
 11
152.25
 21
221.33333366666673
  0
ARC
  8
_1-0_躯体
  6
CONTINUOUS
 62
    4
 10
152.58333300000004
 20
220.83333366666673
 40
0.5
 50
0
 51
90
  0
LINE
  8
_1-0_躯体
  6
CONTINUOUS
 62
    4
 10
153.08333300000004
 20
220.83333366666673
 11
153.08333300000004
 21
216.00000066666666
  0
ARC
  8
_1-0_躯体
  6
CONTINUOUS
 62
    4
 10
152.25
 20
220.83333366666673
 40
0.3333329999999999
 50
90
 51
180
  0
LINE
  8
_1-0_躯体
  6
CONTINUOUS
 62
    4
 10
152.58333300000004
 20
221.16666666666669
 11
152.25
 21
221.16666666666669
  0
ARC
  8
_1-0_躯体
  6
CONTINUOUS
 62
    4
 10
152.58333300000004
 20
220.83333366666673
 40
0.3333329999999999
 50
0
 51
90
  0
ARC
  8
_1-0_躯体
  6
CONTINUOUS
 62
    4
 10
152.08333300000004
 20
216.00000066666666
 40
0.8333329999999998
 50
270
 51
0
  0
LINE
  8
_1-0_躯体
  6
CONTINUOUS
 62
    4
 10
152.91666599999996
 20
220.83333366666673
 11
152.91666599999996
 21
216.00000066666666
  0
LINE
  8
_1-0_躯体
  6
CONTINUOUS
 62
    4
 10
151.91666599999996
 20
220.33333366666673
 11
151.91666599999996
 21
220.83333366666673
  0
ARC
  8
_1-0_躯体
  6
CONTINUOUS
 62
    4
 10
152.08333300000004
 20
216.00000066666666
 40
1
 50
270
 51
0
  0
LINE
  8
_1-0_躯体
  6
CONTINUOUS
 62
    4
 10
138.41666599999996
 20
215.00000066666666
 11
138.75
 21
215.16666666666666
  0
LINE
  8
_1-0_躯体
  6
CONTINUOUS
 62
    4
 10
138.75
 20
215.16666666666666
 11
139.25
 21
215.00000066666666
  0
LINE
  8
_1-0_躯体
  6
CONTINUOUS
 62
    4
 10
138.37732200000005
 20
215.16666666666666
 11
138.73721099999995
 21
215.34661166666666
  0
LINE
  8
_1-0_躯体
  6
CONTINUOUS
 62
    4
 10
138.73721099999995
 20
215.34661166666666
 11
139.25
 21
215.17568266666663
  0
LINE
  8
_1-0_躯体
  6
CONTINUOUS
 62
    4
 10
139.75
 20
215.16666666666666
 11
139.25
 21
215.00000066666666
  0
LINE
  8
_1-0_躯体
  6
CONTINUOUS
 62
    4
 10
139.25
 20
215.17568266666663
 11
139.75
 21
215.34234866666671
  0
LINE
  8
_1-0_躯体
  6
CONTINUOUS
 62
    4
 10
140.75
 20
215.16666666666666
 11
140.25
 21
215.00000066666666
  0
LINE
  8
_1-0_躯体
  6
CONTINUOUS
 62
    4
 10
140.25
 20
215.17568266666663
 11
140.75
 21
215.34234866666671
  0
LINE
  8
_1-0_躯体
  6
CONTINUOUS
 62
    4
 10
139.75
 20
215.16666666666666
 11
140.25
 21
215.00000066666666
  0
LINE
  8
_1-0_躯体
  6
CONTINUOUS
 62
    4
 10
140.25
 20
215.17568266666663
 11
139.75
 21
215.34234866666671
  0
LINE
  8
_1-0_躯体
  6
CONTINUOUS
 62
    4
 10
142.75
 20
215.16666666666666
 11
142.25
 21
215.00000066666666
  0
LINE
  8
_1-0_躯体
  6
CONTINUOUS
 62
    4
 10
142.762788
 20
215.34661166666666
 11
142.25
 21
215.17568266666663
  0
LINE
  8
_1-0_躯体
  6
CONTINUOUS
 62
    4
 10
141.75
 20
215.16666666666666
 11
142.25
 21
215.00000066666666
  0
LINE
  8
_1-0_躯体
  6
CONTINUOUS
 62
    4
 10
142.25
 20
215.17568266666663
 11
141.75
 21
215.34234866666671
  0
LINE
  8
_1-0_躯体
  6
CONTINUOUS
 62
    4
 10
140.75
 20
215.16666666666666
 11
141.25
 21
215.00000066666666
  0
LINE
  8
_1-0_躯体
  6
CONTINUOUS
 62
    4
 10
141.25
 20
215.17568266666663
 11
140.75
 21
215.34234866666671
  0
LINE
  8
_1-0_躯体
  6
CONTINUOUS
 62
    4
 10
141.75
 20
215.16666666666666
 11
141.25
 21
215.00000066666666
  0
LINE
  8
_1-0_躯体
  6
CONTINUOUS
 62
    4
 10
141.25
 20
215.17568266666663
 11
141.75
 21
215.34234866666671
  0
LINE
  8
_1-0_躯体
  6
CONTINUOUS
 62
    4
 10
143.08333300000004
 20
215.00000066666666
 11
142.75
 21
215.16666666666666
  0
LINE
  8
_1-0_躯体
  6
CONTINUOUS
 62
    4
 10
143.12267800000006
 20
215.16666666666666
 11
142.762788
 21
215.34661166666666
  0
LINE
  8
_1-0_躯体
  6
CONTINUOUS
 62
    4
 10
146.41666599999996
 20
215.00000066666666
 11
145.08333300000004
 21
215.00000066666666
  0
LINE
  8
_1-0_躯体
  6
CONTINUOUS
 62
    4
 10
146.37732200000005
 20
215.16666666666666
 11
145.12267800000006
 21
215.16666666666666
  0
LINE
  8
_1-0_躯体
  6
CONTINUOUS
 62
    4
 10
151.08333300000004
 20
215.00000066666666
 11
150.75
 21
215.16666666666666
  0
LINE
  8
_1-0_躯体
  6
CONTINUOUS
 62
    4
 10
150.75
 20
215.16666666666666
 11
150.25
 21
215.00000066666666
  0
LINE
  8
_1-0_躯体
  6
CONTINUOUS
 62
    4
 10
151.12267800000006
 20
215.16666666666666
 11
150.762788
 21
215.34661166666666
  0
LINE
  8
_1-0_躯体
  6
CONTINUOUS
 62
    4
 10
150.762788
 20
215.34661166666666
 11
150.25
 21
215.17568266666663
  0
LINE
  8
_1-0_躯体
  6
CONTINUOUS
 62
    4
 10
149.75
 20
215.16666666666666
 11
150.25
 21
215.00000066666666
  0
LINE
  8
_1-0_躯体
  6
CONTINUOUS
 62
    4
 10
150.25
 20
215.17568266666663
 11
149.75
 21
215.34234866666671
  0
LINE
  8
_1-0_躯体
  6
CONTINUOUS
 62
    4
 10
148.75
 20
215.16666666666666
 11
149.25
 21
215.00000066666666
  0
LINE
  8
_1-0_躯体
  6
CONTINUOUS
 62
    4
 10
149.25
 20
215.17568266666663
 11
148.75
 21
215.34234866666671
  0
LINE
  8
_1-0_躯体
  6
CONTINUOUS
 62
    4
 10
149.75
 20
215.16666666666666
 11
149.25
 21
215.00000066666666
  0
LINE
  8
_1-0_躯体
  6
CONTINUOUS
 62
    4
 10
149.25
 20
215.17568266666663
 11
149.75
 21
215.34234866666671
  0
LINE
  8
_1-0_躯体
  6
CONTINUOUS
 62
    4
 10
146.75
 20
215.16666666666666
 11
147.25
 21
215.00000066666666
  0
LINE
  8
_1-0_躯体
  6
CONTINUOUS
 62
    4
 10
146.737211
 20
215.34661166666666
 11
147.25
 21
215.17568266666663
  0
LINE
  8
_1-0_躯体
  6
CONTINUOUS
 62
    4
 10
147.75
 20
215.16666666666666
 11
147.25
 21
215.00000066666666
  0
LINE
  8
_1-0_躯体
  6
CONTINUOUS
 62
    4
 10
147.25
 20
215.17568266666663
 11
147.75
 21
215.34234866666671
  0
LINE
  8
_1-0_躯体
  6
CONTINUOUS
 62
    4
 10
148.75
 20
215.16666666666666
 11
148.25
 21
215.00000066666666
  0
LINE
  8
_1-0_躯体
  6
CONTINUOUS
 62
    4
 10
148.25
 20
215.17568266666663
 11
148.75
 21
215.34234866666671
  0
LINE
  8
_1-0_躯体
  6
CONTINUOUS
 62
    4
 10
147.75
 20
215.16666666666666
 11
148.25
 21
215.00000066666666
  0
LINE
  8
_1-0_躯体
  6
CONTINUOUS
 62
    4
 10
148.25
 20
215.17568266666663
 11
147.75
 21
215.34234866666671
  0
LINE
  8
_1-0_躯体
  6
CONTINUOUS
 62
    4
 10
146.41666599999996
 20
215.00000066666666
 11
146.75
 21
215.16666666666666
  0
LINE
  8
_1-0_躯体
  6
CONTINUOUS
 62
    4
 10
146.37732200000005
 20
215.16666666666666
 11
146.737211
 21
215.34661166666666
  0
LINE
  8
_1-0_躯体
  6
CONTINUOUS
 62
    4
 10
152.08333300000004
 20
215.16666666666666
 11
151.12267800000006
 21
215.16666666666666
  0
LINE
  8
_1-0_躯体
  6
CONTINUOUS
 62
    4
 10
152.08333300000004
 20
215.00000066666666
 11
151.08333300000004
 21
215.00000066666666
  0
LINE
  8
_1-0_躯体
  6
CONTINUOUS
 62
    4
 10
136.83333300000004
 20
221.00000066666669
 11
137.20000000000005
 21
221.16666666666669
  0
LINE
  8
_1-0_躯体
  6
CONTINUOUS
 62
    4
 10
137.20000000000005
 20
221.16666666666669
 11
137.706277
 21
219.97162366666669
  0
ARC
  8
_1-0_躯体
  6
CONTINUOUS
 62
    4
 10
138.16666599999996
 20
220.16666666666669
 40
0.5
 50
202.95984199999688
 51
0
  0
LINE
  8
_1-0_躯体
  6
CONTINUOUS
 62
    4
 10
136.83333300000004
 20
221.00000066666669
 11
136.83333300000004
 21
219.33333366666673
  0
LINE
  8
_1-0_躯体
  6
CONTINUOUS
 62
    4
 10
137.03333299999997
 20
221.0909096666667
 11
137.03333299999997
 21
219.33333366666673
  0
LINE
  8
_1-0_躯体
  6
CONTINUOUS
 62
    4
 10
138.66666599999996
 20
220.16666666666669
 11
138.66666599999996
 21
225.13076866666668
  0
ARC
  8
_1-0_躯体
  6
CONTINUOUS
 62
    4
 10
138
 20
219.33333366666673
 40
1.1666669999999999
 50
180
 51
270
  0
LINE
  8
_1-0_躯体
  6
CONTINUOUS
 62
    4
 10
138
 20
218.16666666666666
 11
151.5
 21
218.16666666666666
  0
LINE
  8
_1-0_躯体
  6
CONTINUOUS
 62
    4
 10
136.66666599999996
 20
234.20000066666665
 11
136.66666599999996
 21
225.66666666666669
  0
LINE
  8
_1-0_躯体
  6
CONTINUOUS
 62
    4
 10
152.83333300000004
 20
234.20000066666665
 11
152.83333300000004
 21
225.66666666666669
  0
ARC
  8
_1-0_躯体
  6
CONTINUOUS
 62
    4
 10
138
 20
219.33333366666673
 40
0.9666669999999998
 50
180
 51
270
  0
LINE
  8
_1-0_躯体
  6
CONTINUOUS
 62
    4
 10
151.5
 20
218.36666666666662
 11
138
 21
218.36666666666662
  0
LINE
  8
_1-0_躯体
  6
CONTINUOUS
 62
    4
 10
136.66666599999996
 20
225.66666666666669
 11
138.66666599999996
 21
225.13076866666668
  0
LINE
  8
_1-0_躯体
  6
CONTINUOUS
 62
    4
 10
136.66666599999996
 20
234.20000066666665
 11
152.83333300000004
 21
234.20000066666665
  0
ARC
  8
_1-0_躯体
  6
CONTINUOUS
 62
    4
 10
138.91666599999996
 20
227.16666666666669
 40
0.8333329999999998
 50
180
 51
270
  0
LINE
  8
_1-0_躯体
  6
CONTINUOUS
 62
    4
 10
138.08333300000004
 20
227.16666666666669
 11
138.08333300000004
 21
231.50000066666669
  0
LINE
  8
_1-0_躯体
  6
CONTINUOUS
 62
    4
 10
138.91666599999996
 20
226.33333366666673
 11
139.75
 21
226.33333366666673
  0
ARC
  8
_1-0_躯体
  6
CONTINUOUS
 62
    4
 10
141.41666599999996
 20
220.66666666666669
 40
1
 50
180
 51
0
  0
ARC
  8
_1-0_躯体
  6
CONTINUOUS
 62
    4
 10
139.75
 20
225.66666666666669
 40
0.666667
 50
0
 51
90
  0
LINE
  8
_1-0_躯体
  6
CONTINUOUS
 62
    4
 10
140.41666599999996
 20
220.66666666666669
 11
140.41666599999996
 21
225.66666666666669
  0
ARC
  8
_1-0_躯体
  6
CONTINUOUS
 62
    4
 10
143.08333300000004
 20
225.66666666666669
 40
0.666667
 50
90
 51
180
  0
LINE
  8
_1-0_躯体
  6
CONTINUOUS
 62
    4
 10
142.41666599999996
 20
220.66666666666669
 11
142.41666599999996
 21
225.66666666666669
  0
ARC
  8
_1-0_躯体
  6
CONTINUOUS
 62
    4
 10
146.41666599999996
 20
225.66666666666669
 40
0.666667
 50
0
 51
90
  0
LINE
  8
_1-0_躯体
  6
CONTINUOUS
 62
    4
 10
143.08333300000004
 20
226.33333366666673
 11
146.41666599999996
 21
226.33333366666673
  0
LINE
  8
_1-0_躯体
  6
CONTINUOUS
 62
    4
 10
152.66666599999996
 20
221.00000066666669
 11
152.29999999999995
 21
221.16666666666669
  0
LINE
  8
_1-0_躯体
  6
CONTINUOUS
 62
    4
 10
152.29999999999995
 20
221.16666666666669
 11
151.793722
 21
219.97162366666669
  0
ARC
  8
_1-0_躯体
  6
CONTINUOUS
 62
    4
 10
151.33333300000004
 20
220.16666666666669
 40
0.5
 50
180
 51
337.04015800000184
  0
ARC
  8
_1-0_躯体
  6
CONTINUOUS
 62
    4
 10
151.5
 20
219.33333366666673
 40
1.1666669999999999
 50
270
 51
0
  0
LINE
  8
_1-0_躯体
  6
CONTINUOUS
 62
    4
 10
152.66666599999996
 20
221.00000066666669
 11
152.66666599999996
 21
219.33333366666673
  0
ARC
  8
_1-0_躯体
  6
CONTINUOUS
 62
    4
 10
151.5
 20
219.33333366666673
 40
0.9666669999999998
 50
270
 51
0
  0
LINE
  8
_1-0_躯体
  6
CONTINUOUS
 62
    4
 10
152.46666600000003
 20
221.0909096666667
 11
152.46666600000003
 21
219.33333366666673
  0
LINE
  8
_1-0_躯体
  6
CONTINUOUS
 62
    4
 10
150.83333300000004
 20
220.16666666666669
 11
150.83333300000004
 21
225.13076866666668
  0
LINE
  8
_1-0_躯体
  6
CONTINUOUS
 62
    4
 10
152.83333300000004
 20
225.66666666666669
 11
150.83333300000004
 21
225.13076866666668
  0
ARC
  8
_1-0_躯体
  6
CONTINUOUS
 62
    4
 10
148.08333300000004
 20
220.66666666666669
 40
1
 50
180
 51
0
  0
ARC
  8
_1-0_躯体
  6
CONTINUOUS
 62
    4
 10
149.75
 20
225.66666666666669
 40
0.666667
 50
90
 51
180
  0
LINE
  8
_1-0_躯体
  6
CONTINUOUS
 62
    4
 10
149.08333300000004
 20
220.66666666666669
 11
149.08333300000004
 21
225.66666666666669
  0
LINE
  8
_1-0_躯体
  6
CONTINUOUS
 62
    4
 10
147.08333300000004
 20
220.66666666666669
 11
147.08333300000004
 21
225.66666666666669
  0
ARC
  8
_1-0_躯体
  6
CONTINUOUS
 62
    4
 10
150.58333300000004
 20
227.16666666666669
 40
0.8333329999999998
 50
270
 51
0
  0
LINE
  8
_1-0_躯体
  6
CONTINUOUS
 62
    4
 10
151.41666599999996
 20
227.16666666666669
 11
151.41666599999996
 21
231.50000066666669
  0
LINE
  8
_1-0_躯体
  6
CONTINUOUS
 62
    4
 10
150.58333300000004
 20
226.33333366666673
 11
149.75
 21
226.33333366666673
  0
LINE
  8
_1-0_躯体
  6
CONTINUOUS
 62
    4
 10
163.33333300000004
 20
213.00000066666666
 11
135
 21
213.00000066666666
  0
LINE
  8
_1-0_躯体
  6
CONTINUOUS
 62
    4
 10
163.33333300000004
 20
212.3333336666667
 11
135
 21
212.3333336666667
  0
LINE
  8
_1-0_躯体
  6
CONTINUOUS
 62
    4
 10
135
 20
211.66666666666666
 11
163.33333300000004
 21
211.66666666666666
  0
INSERT
  2
-006-$QLE
  8
_1-f_寸法
 10
210
 20
148.5
 41
1
 42
1
 50
0
  0
INSERT
  2
-007-$QLE_1_
  8
_1-f_寸法
 10
210
 20
148.5
 41
1
 42
1
 50
0
  0
LINE
  8
_1-0_躯体
  6
CONTINUOUS
 62
    4
 10
135
 20
211.66666666666666
 11
135
 21
215.00000066666666
  0
INSERT
  2
-008-$QLE_2_
  8
_1-f_寸法
 10
210
 20
148.5
 41
1
 42
1
 50
0
  0
LINE
  8
_1-0_躯体
  6
CONTINUOUS
 62
    4
 10
69.808255346018541
 20
211.66666666666666
 11
66.115265343724786
 21
211.66666666666666
  0
LINE
  8
_1-0_躯体
  6
CONTINUOUS
 62
    4
 10
69.416666999999933
 20
232.33333366666673
 11
81.083332999999982
 21
232.33333366666673
  0
LINE
  8
_1-0_躯体
  6
CONTINUOUS
 62
    4
 10
83.333332999999982
 20
234.00000066666669
 11
84.999999999999972
 21
234.00000066666669
  0
LINE
  8
_1-0_躯体
  6
CONTINUOUS
 62
    4
 10
67.166666999999933
 20
234.00000066666669
 11
56.666666999999933
 21
234.00000066666669
  0
LINE
  8
_1-0_躯体
  6
CONTINUOUS
 62
    4
 10
84.999999999999972
 20
234.00000066666669
 11
84.999999999999972
 21
221.33333366666673
  0
LINE
  8
_1-0_躯体
  6
CONTINUOUS
 62
    4
 10
84.999999999999972
 20
211.66666666666666
 11
84.999999999999972
 21
215.00000066666666
  0
LINE
  8
_1-0_躯体
  6
CONTINUOUS
 62
    4
 10
84.999999999999972
 20
215.00000066666666
 11
56.666666999999933
 21
215.00000066666666
  0
LINE
  8
_1-0_躯体
  6
CONTINUOUS
 62
    4
 10
56.666666999999933
 20
213.66666666666666
 11
84.999999999999972
 21
213.66666666666666
  0
LINE
  8
_1-0_躯体
  6
CONTINUOUS
 62
    4
 10
81.333332999999982
 20
221.33333366666673
 11
84.999999999999972
 21
221.33333366666673
  0
LINE
  8
_1-0_躯体
  6
CONTINUOUS
 62
    4
 10
69.166666999999933
 20
221.33333366666673
 11
56.666666999999933
 21
221.33333366666673
  0
LINE
  8
_1-0_躯体
  6
CONTINUOUS
 62
    4
 10
56.666666999999933
 20
214.3333336666667
 11
84.999999999999972
 21
214.3333336666667
  0
LINE
  8
_1-0_躯体
  6
CONTINUOUS
 62
    4
 10
67.916666999999933
 20
215.16666666666666
 11
68.877321999999992
 21
215.16666666666666
  0
LINE
  8
_1-0_躯体
  6
CONTINUOUS
 62
    4
 10
67.916666999999933
 20
215.00000066666666
 11
68.916666999999933
 21
215.00000066666666
  0
LINE
  8
_1-0_躯体
  6
CONTINUOUS
 62
    4
 10
74.916666999999933
 20
215.00000066666666
 11
75.249999999999972
 21
215.16666666666666
  0
LINE
  8
_1-0_躯体
  6
CONTINUOUS
 62
    4
 10
75.249999999999972
 20
215.16666666666666
 11
75.583332999999982
 21
215.00000066666666
  0
LINE
  8
_1-0_躯体
  6
CONTINUOUS
 62
    4
 10
73.583332999999982
 20
215.00000066666666
 11
74.916666999999933
 21
215.00000066666666
  0
LINE
  8
_1-0_躯体
  6
CONTINUOUS
 62
    4
 10
73.622677999999979
 20
215.16666666666666
 11
74.877321999999992
 21
215.16666666666666
  0
LINE
  8
_1-0_躯体
  6
CONTINUOUS
 62
    4
 10
74.877321999999992
 20
215.16666666666666
 11
75.249999999999972
 21
215.35300566666666
  0
LINE
  8
_1-0_躯体
  6
CONTINUOUS
 62
    4
 10
75.249999999999972
 20
215.35300566666666
 11
75.622677999999951
 21
215.16666666666666
  0
LINE
  8
_1-0_躯体
  6
CONTINUOUS
 62
    4
 10
68.083332999999953
 20
220.33333366666673
 11
68.249999999999972
 21
220.33333366666673
  0
LINE
  8
_1-0_躯体
  6
CONTINUOUS
 62
    4
 10
68.249999999999972
 20
220.33333366666673
 11
68.249999999999972
 21
220.83333366666673
  0
ARC
  8
_1-0_躯体
  6
CONTINUOUS
 62
    4
 10
67.749999999999972
 20
220.83333366666673
 40
0.5
 50
0
 51
90
  0
LINE
  8
_1-0_躯体
  6
CONTINUOUS
 62
    4
 10
67.416666999999933
 20
221.33333366666673
 11
67.749999999999972
 21
221.33333366666673
  0
ARC
  8
_1-0_躯体
  6
CONTINUOUS
 62
    4
 10
67.416666999999933
 20
220.83333366666673
 40
0.5
 50
90
 51
180
  0
LINE
  8
_1-0_躯体
  6
CONTINUOUS
 62
    4
 10
66.916666999999933
 20
220.83333366666673
 11
66.916666999999933
 21
216.00000066666666
  0
ARC
  8
_1-0_躯体
  6
CONTINUOUS
 62
    4
 10
67.749999999999972
 20
220.83333366666673
 40
0.3333329999999999
 50
0
 51
90
  0
LINE
  8
_1-0_躯体
  6
CONTINUOUS
 62
    4
 10
67.416666999999933
 20
221.16666666666669
 11
67.749999999999972
 21
221.16666666666669
  0
ARC
  8
_1-0_躯体
  6
CONTINUOUS
 62
    4
 10
67.416666999999933
 20
220.83333366666673
 40
0.3333329999999999
 50
90
 51
180
  0
ARC
  8
_1-0_躯体
  6
CONTINUOUS
 62
    4
 10
67.916666999999933
 20
216.00000066666666
 40
0.8333329999999998
 50
180
 51
270
  0
LINE
  8
_1-0_躯体
  6
CONTINUOUS
 62
    4
 10
67.083332999999953
 20
220.83333366666673
 11
67.083332999999953
 21
216.00000066666666
  0
LINE
  8
_1-0_躯体
  6
CONTINUOUS
 62
    4
 10
68.083332999999953
 20
220.33333366666673
 11
68.083332999999953
 21
220.83333366666673
  0
ARC
  8
_1-0_躯体
  6
CONTINUOUS
 62
    4
 10
67.916666999999933
 20
216.00000066666666
 40
1
 50
180
 51
270
  0
LINE
  8
_1-0_躯体
  6
CONTINUOUS
 62
    4
 10
82.416666999999933
 20
220.33333366666673
 11
82.249999999999972
 21
220.33333366666673
  0
LINE
  8
_1-0_躯体
  6
CONTINUOUS
 62
    4
 10
82.249999999999972
 20
220.33333366666673
 11
82.249999999999972
 21
220.83333366666673
  0
ARC
  8
_1-0_躯体
  6
CONTINUOUS
 62
    4
 10
82.749999999999972
 20
220.83333366666673
 40
0.5
 50
90
 51
180
  0
LINE
  8
_1-0_躯体
  6
CONTINUOUS
 62
    4
 10
83.083332999999982
 20
221.33333366666673
 11
82.749999999999972
 21
221.33333366666673
  0
ARC
  8
_1-0_躯体
  6
CONTINUOUS
 62
    4
 10
83.083332999999982
 20
220.83333366666673
 40
0.5
 50
0
 51
90
  0
LINE
  8
_1-0_躯体
  6
CONTINUOUS
 62
    4
 10
83.583332999999982
 20
220.83333366666673
 11
83.583332999999982
 21
216.00000066666666
  0
ARC
  8
_1-0_躯体
  6
CONTINUOUS
 62
    4
 10
82.749999999999972
 20
220.83333366666673
 40
0.3333329999999999
 50
90
 51
180
  0
LINE
  8
_1-0_躯体
  6
CONTINUOUS
 62
    4
 10
83.083332999999982
 20
221.16666666666669
 11
82.749999999999972
 21
221.16666666666669
  0
ARC
  8
_1-0_躯体
  6
CONTINUOUS
 62
    4
 10
83.083332999999982
 20
220.83333366666673
 40
0.3333329999999999
 50
0
 51
90
  0
ARC
  8
_1-0_躯体
  6
CONTINUOUS
 62
    4
 10
82.583332999999982
 20
216.00000066666666
 40
0.8333329999999998
 50
270
 51
0
  0
LINE
  8
_1-0_躯体
  6
CONTINUOUS
 62
    4
 10
83.416666999999933
 20
220.83333366666673
 11
83.416666999999933
 21
216.00000066666666
  0
LINE
  8
_1-0_躯体
  6
CONTINUOUS
 62
    4
 10
82.416666999999933
 20
220.33333366666673
 11
82.416666999999933
 21
220.83333366666673
  0
ARC
  8
_1-0_躯体
  6
CONTINUOUS
 62
    4
 10
82.583332999999982
 20
216.00000066666666
 40
1
 50
270
 51
0
  0
LINE
  8
_1-0_躯体
  6
CONTINUOUS
 62
    4
 10
68.916666999999933
 20
215.00000066666666
 11
69.249999999999972
 21
215.16666666666666
  0
LINE
  8
_1-0_躯体
  6
CONTINUOUS
 62
    4
 10
69.249999999999972
 20
215.16666666666666
 11
69.749999999999972
 21
215.00000066666666
  0
LINE
  8
_1-0_躯体
  6
CONTINUOUS
 62
    4
 10
68.877321999999992
 20
215.16666666666666
 11
69.237211999999971
 21
215.34661166666666
  0
LINE
  8
_1-0_躯体
  6
CONTINUOUS
 62
    4
 10
69.237211999999971
 20
215.34661166666666
 11
69.749999999999972
 21
215.17568266666663
  0
LINE
  8
_1-0_躯体
  6
CONTINUOUS
 62
    4
 10
70.249999999999972
 20
215.16666666666666
 11
69.749999999999972
 21
215.00000066666666
  0
LINE
  8
_1-0_躯体
  6
CONTINUOUS
 62
    4
 10
69.749999999999972
 20
215.17568266666663
 11
70.249999999999972
 21
215.34234866666671
  0
LINE
  8
_1-0_躯体
  6
CONTINUOUS
 62
    4
 10
71.249999999999972
 20
215.16666666666666
 11
70.749999999999972
 21
215.00000066666666
  0
LINE
  8
_1-0_躯体
  6
CONTINUOUS
 62
    4
 10
70.749999999999972
 20
215.17568266666663
 11
71.249999999999972
 21
215.34234866666671
  0
LINE
  8
_1-0_躯体
  6
CONTINUOUS
 62
    4
 10
70.249999999999972
 20
215.16666666666666
 11
70.749999999999972
 21
215.00000066666666
  0
LINE
  8
_1-0_躯体
  6
CONTINUOUS
 62
    4
 10
70.749999999999972
 20
215.17568266666663
 11
70.249999999999972
 21
215.34234866666671
  0
LINE
  8
_1-0_躯体
  6
CONTINUOUS
 62
    4
 10
73.249999999999972
 20
215.16666666666666
 11
72.749999999999972
 21
215.00000066666666
  0
LINE
  8
_1-0_躯体
  6
CONTINUOUS
 62
    4
 10
73.262787999999972
 20
215.34661166666666
 11
72.749999999999972
 21
215.17568266666663
  0
LINE
  8
_1-0_躯体
  6
CONTINUOUS
 62
    4
 10
72.249999999999972
 20
215.16666666666666
 11
72.749999999999972
 21
215.00000066666666
  0
LINE
  8
_1-0_躯体
  6
CONTINUOUS
 62
    4
 10
72.749999999999972
 20
215.17568266666663
 11
72.249999999999972
 21
215.34234866666671
  0
LINE
  8
_1-0_躯体
  6
CONTINUOUS
 62
    4
 10
71.249999999999972
 20
215.16666666666666
 11
71.749999999999972
 21
215.00000066666666
  0
LINE
  8
_1-0_躯体
  6
CONTINUOUS
 62
    4
 10
71.749999999999972
 20
215.17568266666663
 11
71.249999999999972
 21
215.34234866666671
  0
LINE
  8
_1-0_躯体
  6
CONTINUOUS
 62
    4
 10
72.249999999999972
 20
215.16666666666666
 11
71.749999999999972
 21
215.00000066666666
  0
LINE
  8
_1-0_躯体
  6
CONTINUOUS
 62
    4
 10
71.749999999999972
 20
215.17568266666663
 11
72.249999999999972
 21
215.34234866666671
  0
LINE
  8
_1-0_躯体
  6
CONTINUOUS
 62
    4
 10
73.583332999999982
 20
215.00000066666666
 11
73.249999999999972
 21
215.16666666666666
  0
LINE
  8
_1-0_躯体
  6
CONTINUOUS
 62
    4
 10
73.622677999999979
 20
215.16666666666666
 11
73.262787999999972
 21
215.34661166666666
  0
LINE
  8
_1-0_躯体
  6
CONTINUOUS
 62
    4
 10
76.916666999999933
 20
215.00000066666666
 11
75.583332999999982
 21
215.00000066666666
  0
LINE
  8
_1-0_躯体
  6
CONTINUOUS
 62
    4
 10
76.877321999999992
 20
215.16666666666666
 11
75.622677999999951
 21
215.16666666666666
  0
LINE
  8
_1-0_躯体
  6
CONTINUOUS
 62
    4
 10
81.583332999999982
 20
215.00000066666666
 11
81.249999999999972
 21
215.16666666666666
  0
LINE
  8
_1-0_躯体
  6
CONTINUOUS
 62
    4
 10
81.249999999999972
 20
215.16666666666666
 11
80.749999999999972
 21
215.00000066666666
  0
LINE
  8
_1-0_躯体
  6
CONTINUOUS
 62
    4
 10
81.622677999999951
 20
215.16666666666666
 11
81.262787999999972
 21
215.34661166666666
  0
LINE
  8
_1-0_躯体
  6
CONTINUOUS
 62
    4
 10
81.262787999999972
 20
215.34661166666666
 11
80.749999999999972
 21
215.17568266666663
  0
LINE
  8
_1-0_躯体
  6
CONTINUOUS
 62
    4
 10
80.249999999999972
 20
215.16666666666666
 11
80.749999999999972
 21
215.00000066666666
  0
LINE
  8
_1-0_躯体
  6
CONTINUOUS
 62
    4
 10
80.749999999999972
 20
215.17568266666663
 11
80.249999999999972
 21
215.34234866666671
  0
LINE
  8
_1-0_躯体
  6
CONTINUOUS
 62
    4
 10
79.249999999999972
 20
215.16666666666666
 11
79.749999999999972
 21
215.00000066666666
  0
LINE
  8
_1-0_躯体
  6
CONTINUOUS
 62
    4
 10
79.749999999999972
 20
215.17568266666663
 11
79.249999999999972
 21
215.34234866666671
  0
LINE
  8
_1-0_躯体
  6
CONTINUOUS
 62
    4
 10
80.249999999999972
 20
215.16666666666666
 11
79.749999999999972
 21
215.00000066666666
  0
LINE
  8
_1-0_躯体
  6
CONTINUOUS
 62
    4
 10
79.749999999999972
 20
215.17568266666663
 11
80.249999999999972
 21
215.34234866666671
  0
LINE
  8
_1-0_躯体
  6
CONTINUOUS
 62
    4
 10
77.249999999999972
 20
215.16666666666666
 11
77.749999999999972
 21
215.00000066666666
  0
LINE
  8
_1-0_躯体
  6
CONTINUOUS
 62
    4
 10
77.237211999999971
 20
215.34661166666666
 11
77.749999999999972
 21
215.17568266666663
  0
LINE
  8
_1-0_躯体
  6
CONTINUOUS
 62
    4
 10
78.249999999999972
 20
215.16666666666666
 11
77.749999999999972
 21
215.00000066666666
  0
LINE
  8
_1-0_躯体
  6
CONTINUOUS
 62
    4
 10
77.749999999999972
 20
215.17568266666663
 11
78.249999999999972
 21
215.34234866666671
  0
LINE
  8
_1-0_躯体
  6
CONTINUOUS
 62
    4
 10
79.249999999999972
 20
215.16666666666666
 11
78.749999999999972
 21
215.00000066666666
  0
LINE
  8
_1-0_躯体
  6
CONTINUOUS
 62
    4
 10
78.749999999999972
 20
215.17568266666663
 11
79.249999999999972
 21
215.34234866666671
  0
LINE
  8
_1-0_躯体
  6
CONTINUOUS
 62
    4
 10
78.249999999999972
 20
215.16666666666666
 11
78.749999999999972
 21
215.00000066666666
  0
LINE
  8
_1-0_躯体
  6
CONTINUOUS
 62
    4
 10
78.749999999999972
 20
215.17568266666663
 11
78.249999999999972
 21
215.34234866666671
  0
LINE
  8
_1-0_躯体
  6
CONTINUOUS
 62
    4
 10
76.916666999999933
 20
215.00000066666666
 11
77.249999999999972
 21
215.16666666666666
  0
LINE
  8
_1-0_躯体
  6
CONTINUOUS
 62
    4
 10
76.877321999999992
 20
215.16666666666666
 11
77.237211999999971
 21
215.34661166666666
  0
LINE
  8
_1-0_躯体
  6
CONTINUOUS
 62
    4
 10
82.583332999999982
 20
215.16666666666666
 11
81.622677999999951
 21
215.16666666666666
  0
LINE
  8
_1-0_躯体
  6
CONTINUOUS
 62
    4
 10
82.583332999999982
 20
215.00000066666666
 11
81.583332999999982
 21
215.00000066666666
  0
LINE
  8
_1-0_躯体
  6
CONTINUOUS
 62
    4
 10
67.333332999999953
 20
221.00000066666669
 11
67.69999999999996
 21
221.16666666666669
  0
LINE
  8
_1-0_躯体
  6
CONTINUOUS
 62
    4
 10
67.69999999999996
 20
221.16666666666669
 11
68.206276999999972
 21
219.97162366666669
  0
ARC
  8
_1-0_躯体
  6
CONTINUOUS
 62
    4
 10
68.666666999999933
 20
220.16666666666669
 40
0.5
 50
202.95984199999688
 51
0
  0
LINE
  8
_1-0_躯体
  6
CONTINUOUS
 62
    4
 10
67.333332999999953
 20
221.00000066666669
 11
67.333332999999953
 21
219.33333366666673
  0
LINE
  8
_1-0_躯体
  6
CONTINUOUS
 62
    4
 10
67.533332999999942
 20
221.0909096666667
 11
67.533332999999942
 21
219.33333366666673
  0
LINE
  8
_1-0_躯体
  6
CONTINUOUS
 62
    4
 10
69.166666999999933
 20
220.16666666666669
 11
69.166666999999933
 21
225.13076866666668
  0
ARC
  8
_1-0_躯体
  6
CONTINUOUS
 62
    4
 10
68.499999999999972
 20
219.33333366666673
 40
1.1666669999999999
 50
180
 51
270
  0
LINE
  8
_1-0_躯体
  6
CONTINUOUS
 62
    4
 10
68.499999999999972
 20
218.16666666666666
 11
81.999999999999972
 21
218.16666666666666
  0
LINE
  8
_1-0_躯体
  6
CONTINUOUS
 62
    4
 10
67.166666999999933
 20
234.20000066666665
 11
67.166666999999933
 21
225.66666666666669
  0
LINE
  8
_1-0_躯体
  6
CONTINUOUS
 62
    4
 10
83.333332999999982
 20
234.20000066666665
 11
83.333332999999982
 21
225.66666666666669
  0
ARC
  8
_1-0_躯体
  6
CONTINUOUS
 62
    4
 10
68.499999999999972
 20
219.33333366666673
 40
0.9666669999999998
 50
180
 51
270
  0
LINE
  8
_1-0_躯体
  6
CONTINUOUS
 62
    4
 10
81.999999999999972
 20
218.36666666666662
 11
68.499999999999972
 21
218.36666666666662
  0
LINE
  8
_1-0_躯体
  6
CONTINUOUS
 62
    4
 10
67.166666999999933
 20
225.66666666666669
 11
69.166666999999933
 21
225.13076866666668
  0
LINE
  8
_1-0_躯体
  6
CONTINUOUS
 62
    4
 10
67.166666999999933
 20
234.20000066666665
 11
83.333332999999982
 21
234.20000066666665
  0
ARC
  8
_1-0_躯体
  6
CONTINUOUS
 62
    4
 10
69.416666999999933
 20
227.16666666666669
 40
0.8333329999999998
 50
180
 51
270
  0
ARC
  8
_1-0_躯体
  6
CONTINUOUS
 62
    4
 10
69.416666999999933
 20
231.50000066666669
 40
0.8333329999999998
 50
90
 51
180
  0
LINE
  8
_1-0_躯体
  6
CONTINUOUS
 62
    4
 10
68.583332999999953
 20
227.16666666666669
 11
68.583332999999953
 21
231.50000066666669
  0
LINE
  8
_1-0_躯体
  6
CONTINUOUS
 62
    4
 10
69.416666999999933
 20
226.33333366666673
 11
70.249999999999972
 21
226.33333366666673
  0
ARC
  8
_1-0_躯体
  6
CONTINUOUS
 62
    4
 10
71.916666999999933
 20
220.66666666666669
 40
1
 50
180
 51
0
  0
ARC
  8
_1-0_躯体
  6
CONTINUOUS
 62
    4
 10
70.249999999999972
 20
225.66666666666669
 40
0.666667
 50
0
 51
90
  0
LINE
  8
_1-0_躯体
  6
CONTINUOUS
 62
    4
 10
70.916666999999933
 20
220.66666666666669
 11
70.916666999999933
 21
225.66666666666669
  0
ARC
  8
_1-0_躯体
  6
CONTINUOUS
 62
    4
 10
73.583332999999982
 20
225.66666666666669
 40
0.666667
 50
90
 51
180
  0
LINE
  8
_1-0_躯体
  6
CONTINUOUS
 62
    4
 10
72.916666999999933
 20
220.66666666666669
 11
72.916666999999933
 21
225.66666666666669
  0
ARC
  8
_1-0_躯体
  6
CONTINUOUS
 62
    4
 10
76.916666999999933
 20
225.66666666666669
 40
0.666667
 50
0
 51
90
  0
LINE
  8
_1-0_躯体
  6
CONTINUOUS
 62
    4
 10
73.583332999999982
 20
226.33333366666673
 11
76.916666999999933
 21
226.33333366666673
  0
LINE
  8
_1-0_躯体
  6
CONTINUOUS
 62
    4
 10
83.166666999999933
 20
221.00000066666669
 11
82.799999999999969
 21
221.16666666666669
  0
LINE
  8
_1-0_躯体
  6
CONTINUOUS
 62
    4
 10
82.799999999999969
 20
221.16666666666669
 11
82.293722999999972
 21
219.97162366666669
  0
ARC
  8
_1-0_躯体
  6
CONTINUOUS
 62
    4
 10
81.833332999999982
 20
220.16666666666669
 40
0.5
 50
180
 51
337.04015800000315
  0
ARC
  8
_1-0_躯体
  6
CONTINUOUS
 62
    4
 10
81.999999999999972
 20
219.33333366666673
 40
1.1666669999999999
 50
270
 51
0
  0
LINE
  8
_1-0_躯体
  6
CONTINUOUS
 62
    4
 10
83.166666999999933
 20
221.00000066666669
 11
83.166666999999933
 21
219.33333366666673
  0
ARC
  8
_1-0_躯体
  6
CONTINUOUS
 62
    4
 10
81.999999999999972
 20
219.33333366666673
 40
0.9666669999999998
 50
270
 51
0
  0
LINE
  8
_1-0_躯体
  6
CONTINUOUS
 62
    4
 10
82.96666699999993
 20
221.0909096666667
 11
82.96666699999993
 21
219.33333366666673
  0
LINE
  8
_1-0_躯体
  6
CONTINUOUS
 62
    4
 10
81.333332999999982
 20
220.16666666666669
 11
81.333332999999982
 21
225.13076866666668
  0
LINE
  8
_1-0_躯体
  6
CONTINUOUS
 62
    4
 10
83.333332999999982
 20
225.66666666666669
 11
81.333332999999982
 21
225.13076866666668
  0
ARC
  8
_1-0_躯体
  6
CONTINUOUS
 62
    4
 10
78.583332999999982
 20
220.66666666666669
 40
1
 50
180
 51
0
  0
ARC
  8
_1-0_躯体
  6
CONTINUOUS
 62
    4
 10
80.249999999999972
 20
225.66666666666669
 40
0.666667
 50
90
 51
180
  0
LINE
  8
_1-0_躯体
  6
CONTINUOUS
 62
    4
 10
79.583332999999982
 20
220.66666666666669
 11
79.583332999999982
 21
225.66666666666669
  0
LINE
  8
_1-0_躯体
  6
CONTINUOUS
 62
    4
 10
77.583332999999982
 20
220.66666666666669
 11
77.583332999999982
 21
225.66666666666669
  0
ARC
  8
_1-0_躯体
  6
CONTINUOUS
 62
    4
 10
81.083332999999982
 20
227.16666666666669
 40
0.8333329999999998
 50
270
 51
0
  0
ARC
  8
_1-0_躯体
  6
CONTINUOUS
 62
    4
 10
81.083332999999982
 20
231.50000066666669
 40
0.8333329999999998
 50
0
 51
90
  0
LINE
  8
_1-0_躯体
  6
CONTINUOUS
 62
    4
 10
81.916666999999933
 20
227.16666666666669
 11
81.916666999999933
 21
231.50000066666669
  0
LINE
  8
_1-0_躯体
  6
CONTINUOUS
 62
    4
 10
81.083332999999982
 20
226.33333366666673
 11
80.249999999999972
 21
226.33333366666673
  0
LINE
  8
_1-0_躯体
  6
CONTINUOUS
 62
    4
 10
56.666666999999933
 20
212.3333336666667
 11
84.999999999999972
 21
212.3333336666667
  0
LINE
  8
_1-0_躯体
  6
CONTINUOUS
 62
    4
 10
84.999999999999972
 20
213.00000066666666
 11
56.666666999999933
 21
213.00000066666666
  0
LINE
  8
_1-0_躯体
  6
CONTINUOUS
 62
    4
 10
84.999999999999972
 20
211.66666666666666
 11
56.666666999999933
 21
211.66666666666666
  0
CIRCLE
  8
_1-f_寸法
  6
CONTINUOUS
 62
    4
 10
73.333333333333314
 20
206.66666666666666
 40
1.6666666666666665
  0
LINE
  8
_1-f_寸法
  6
CONTINUOUS
 62
    4
 10
78.333333333333229
 20
210.29333318333329
 11
74.682470349283278
 21
207.64524067509493
  0
INSERT
  2
-009-_6_
  8
_1-8_小物
 10
210
 20
148.5
 41
1
 42
1
 50
0
  0
CIRCLE
  8
_1-f_寸法
  6
CONTINUOUS
 62
    4
 10
61.666666666666686
 20
218.33333333333331
 40
1.6666666666666665
  0
LINE
  8
_1-f_寸法
  6
CONTINUOUS
 62
    4
 10
62.36653462429382
 20
216.82073205749603
 11
65.347378738710944
 21
210.37833308580085
  0
INSERT
  2
-010-_7_
  8
_1-7_カバ__
 10
210
 20
148.5
 41
1
 42
1
 50
0
  0
LINE
  8
_1-f_寸法
  6
CONTINUOUS
 62
    4
 10
154.99999999999986
 20
201.66666666666666
 11
154.99999999999986
 21
195.06666666666666
  0
LINE
  8
_1-f_寸法
  6
CONTINUOUS
 62
    4
 10
65.000000000000057
 20
201.66666666666666
 11
65.000000000000057
 21
195.06666666666666
  0
POINT
  8
_1-f_寸法
 62
    4
 10
65.000000000000057
 20
196.66666666666666
  0
POINT
  8
_1-f_寸法
 62
    4
 10
154.99999999999986
 20
196.66666666666666
  0
LINE
  8
_1-f_寸法
  6
CONTINUOUS
 62
    4
 10
65.000000000000057
 20
196.66666666666666
 11
154.99999999999986
 21
196.66666666666666
  0
TEXT
  8
_1-f_寸法
 62
    4
 10
107.59999999999997
 20
196.66666666666666
 40
3.2000000000000002
 41
1
 50
0
  1
270
  0
LINE
  8
_1-f_寸法
  6
CONTINUOUS
 62
    4
 10
135
 20
235
 11
135
 21
241.59999999999997
  0
LINE
  8
_1-f_寸法
  6
CONTINUOUS
 62
    4
 10
84.999999999999972
 20
235
 11
84.999999999999972
 21
241.59999999999997
  0
POINT
  8
_1-f_寸法
 62
    4
 10
84.999999999999972
 20
240
  0
POINT
  8
_1-f_寸法
 62
    4
 10
135
 20
240
  0
LINE
  8
_1-f_寸法
  6
CONTINUOUS
 62
    4
 10
84.999999999999972
 20
240
 11
135
 21
240
  0
TEXT
  8
_1-f_寸法
 62
    4
 10
107.59999999999998
 20
240
 40
3.2000000000000002
 41
1
 50
0
  1
150
  0
ARC
  8
_1-0_躯体
  6
CONTINUOUS
 62
    4
 10
338.91666599999985
 20
231.50000066666661
 40
0.8333329999999998
 50
90
 51
180
  0
ARC
  8
_1-0_躯体
  6
CONTINUOUS
 62
    4
 10
350.58333299999987
 20
231.50000066666661
 40
0.8333329999999998
 50
0
 51
90
  0
LINE
  8
_1-0_躯体
  6
CONTINUOUS
 62
    4
 10
338.91666599999985
 20
232.33333366666665
 11
350.58333299999987
 21
232.33333366666665
  0
LINE
  8
_1-0_躯体
  6
CONTINUOUS
 62
    4
 10
352.83333299999993
 20
234.00000066666661
 11
363.33333300000004
 21
234.00000066666661
  0
LINE
  8
_1-0_躯体
  6
CONTINUOUS
 62
    4
 10
336.66666599999985
 20
234.00000066666661
 11
334.99999999999983
 21
234.00000066666661
  0
LINE
  8
_1-0_躯体
  6
CONTINUOUS
 62
    4
 10
334.99999999999983
 20
234.00000066666661
 11
334.99999999999983
 21
221.33333366666665
  0
LINE
  8
_1-0_躯体
  6
CONTINUOUS
 62
    4
 10
363.33333300000004
 20
215.00000066666658
 11
334.99999999999983
 21
215.00000066666658
  0
LINE
  8
_1-0_躯体
  6
CONTINUOUS
 62
    4
 10
363.33333300000004
 20
214.33333366666662
 11
334.99999999999983
 21
214.33333366666662
  0
LINE
  8
_1-0_躯体
  6
CONTINUOUS
 62
    4
 10
363.33333300000004
 20
213.66666666666657
 11
334.99999999999983
 21
213.66666666666657
  0
LINE
  8
_1-0_躯体
  6
CONTINUOUS
 62
    4
 10
338.66666599999985
 20
221.33333366666665
 11
334.99999999999983
 21
221.33333366666665
  0
LINE
  8
_1-0_躯体
  6
CONTINUOUS
 62
    4
 10
337.41666599999985
 20
215.16666666666657
 11
338.37732199999994
 21
215.16666666666657
  0
LINE
  8
_1-0_躯体
  6
CONTINUOUS
 62
    4
 10
337.41666599999985
 20
215.00000066666658
 11
338.41666599999985
 21
215.00000066666658
  0
LINE
  8
_1-0_躯体
  6
CONTINUOUS
 62
    4
 10
344.41666599999985
 20
215.00000066666658
 11
344.74999999999983
 21
215.16666666666657
  0
LINE
  8
_1-0_躯体
  6
CONTINUOUS
 62
    4
 10
344.74999999999983
 20
215.16666666666657
 11
345.08333299999987
 21
215.00000066666658
  0
LINE
  8
_1-0_躯体
  6
CONTINUOUS
 62
    4
 10
343.08333299999987
 20
215.00000066666658
 11
344.41666599999985
 21
215.00000066666658
  0
LINE
  8
_1-0_躯体
  6
CONTINUOUS
 62
    4
 10
343.12267799999995
 20
215.16666666666657
 11
344.37732199999994
 21
215.16666666666657
  0
LINE
  8
_1-0_躯体
  6
CONTINUOUS
 62
    4
 10
344.37732199999994
 20
215.16666666666657
 11
344.74999999999983
 21
215.3530056666666
  0
LINE
  8
_1-0_躯体
  6
CONTINUOUS
 62
    4
 10
344.74999999999983
 20
215.3530056666666
 11
345.12267799999995
 21
215.16666666666657
  0
LINE
  8
_1-0_躯体
  6
CONTINUOUS
 62
    4
 10
337.58333299999987
 20
220.33333366666665
 11
337.74999999999983
 21
220.33333366666665
  0
LINE
  8
_1-0_躯体
  6
CONTINUOUS
 62
    4
 10
337.74999999999983
 20
220.33333366666665
 11
337.74999999999983
 21
220.83333366666665
  0
ARC
  8
_1-0_躯体
  6
CONTINUOUS
 62
    4
 10
337.24999999999983
 20
220.83333366666665
 40
0.5
 50
0
 51
90
  0
LINE
  8
_1-0_躯体
  6
CONTINUOUS
 62
    4
 10
336.91666599999985
 20
221.33333366666665
 11
337.24999999999983
 21
221.33333366666665
  0
ARC
  8
_1-0_躯体
  6
CONTINUOUS
 62
    4
 10
336.91666599999985
 20
220.83333366666665
 40
0.5
 50
90
 51
180
  0
LINE
  8
_1-0_躯体
  6
CONTINUOUS
 62
    4
 10
336.41666599999985
 20
220.83333366666665
 11
336.41666599999985
 21
216.00000066666658
  0
ARC
  8
_1-0_躯体
  6
CONTINUOUS
 62
    4
 10
337.24999999999983
 20
220.83333366666665
 40
0.3333329999999999
 50
0
 51
90
  0
LINE
  8
_1-0_躯体
  6
CONTINUOUS
 62
    4
 10
336.91666599999985
 20
221.16666666666663
 11
337.24999999999983
 21
221.16666666666663
  0
ARC
  8
_1-0_躯体
  6
CONTINUOUS
 62
    4
 10
336.91666599999985
 20
220.83333366666665
 40
0.3333329999999999
 50
90
 51
180
  0
ARC
  8
_1-0_躯体
  6
CONTINUOUS
 62
    4
 10
337.41666599999985
 20
216.00000066666658
 40
0.8333329999999998
 50
180
 51
270
  0
LINE
  8
_1-0_躯体
  6
CONTINUOUS
 62
    4
 10
336.58333299999987
 20
220.83333366666665
 11
336.58333299999987
 21
216.00000066666658
  0
LINE
  8
_1-0_躯体
  6
CONTINUOUS
 62
    4
 10
337.58333299999987
 20
220.33333366666665
 11
337.58333299999987
 21
220.83333366666665
  0
ARC
  8
_1-0_躯体
  6
CONTINUOUS
 62
    4
 10
337.41666599999985
 20
216.00000066666658
 40
1
 50
180
 51
270
  0
LINE
  8
_1-0_躯体
  6
CONTINUOUS
 62
    4
 10
351.91666599999985
 20
220.33333366666665
 11
351.74999999999989
 21
220.33333366666665
  0
LINE
  8
_1-0_躯体
  6
CONTINUOUS
 62
    4
 10
351.74999999999989
 20
220.33333366666665
 11
351.74999999999989
 21
220.83333366666665
  0
ARC
  8
_1-0_躯体
  6
CONTINUOUS
 62
    4
 10
352.24999999999989
 20
220.83333366666665
 40
0.5
 50
90
 51
180
  0
LINE
  8
_1-0_躯体
  6
CONTINUOUS
 62
    4
 10
352.58333299999993
 20
221.33333366666665
 11
352.24999999999989
 21
221.33333366666665
  0
ARC
  8
_1-0_躯体
  6
CONTINUOUS
 62
    4
 10
352.58333299999993
 20
220.83333366666665
 40
0.5
 50
0
 51
90
  0
LINE
  8
_1-0_躯体
  6
CONTINUOUS
 62
    4
 10
353.08333299999993
 20
220.83333366666665
 11
353.08333299999993
 21
216.00000066666658
  0
ARC
  8
_1-0_躯体
  6
CONTINUOUS
 62
    4
 10
352.24999999999989
 20
220.83333366666665
 40
0.3333329999999999
 50
90
 51
180
  0
LINE
  8
_1-0_躯体
  6
CONTINUOUS
 62
    4
 10
352.58333299999993
 20
221.16666666666663
 11
352.24999999999989
 21
221.16666666666663
  0
ARC
  8
_1-0_躯体
  6
CONTINUOUS
 62
    4
 10
352.58333299999993
 20
220.83333366666665
 40
0.3333329999999999
 50
0
 51
90
  0
ARC
  8
_1-0_躯体
  6
CONTINUOUS
 62
    4
 10
352.08333299999993
 20
216.00000066666658
 40
0.8333329999999998
 50
270
 51
0
  0
LINE
  8
_1-0_躯体
  6
CONTINUOUS
 62
    4
 10
352.91666599999985
 20
220.83333366666665
 11
352.91666599999985
 21
216.00000066666658
  0
LINE
  8
_1-0_躯体
  6
CONTINUOUS
 62
    4
 10
351.91666599999985
 20
220.33333366666665
 11
351.91666599999985
 21
220.83333366666665
  0
ARC
  8
_1-0_躯体
  6
CONTINUOUS
 62
    4
 10
352.08333299999993
 20
216.00000066666658
 40
1
 50
270
 51
0
  0
LINE
  8
_1-0_躯体
  6
CONTINUOUS
 62
    4
 10
338.41666599999985
 20
215.00000066666658
 11
338.74999999999983
 21
215.16666666666657
  0
LINE
  8
_1-0_躯体
  6
CONTINUOUS
 62
    4
 10
338.74999999999983
 20
215.16666666666657
 11
339.24999999999983
 21
215.00000066666658
  0
LINE
  8
_1-0_躯体
  6
CONTINUOUS
 62
    4
 10
338.37732199999994
 20
215.16666666666657
 11
338.73721099999977
 21
215.3466116666666
  0
LINE
  8
_1-0_躯体
  6
CONTINUOUS
 62
    4
 10
338.73721099999977
 20
215.3466116666666
 11
339.24999999999983
 21
215.17568266666655
  0
LINE
  8
_1-0_躯体
  6
CONTINUOUS
 62
    4
 10
339.74999999999983
 20
215.16666666666657
 11
339.24999999999983
 21
215.00000066666658
  0
LINE
  8
_1-0_躯体
  6
CONTINUOUS
 62
    4
 10
339.24999999999983
 20
215.17568266666655
 11
339.74999999999983
 21
215.34234866666662
  0
LINE
  8
_1-0_躯体
  6
CONTINUOUS
 62
    4
 10
340.74999999999983
 20
215.16666666666657
 11
340.24999999999983
 21
215.00000066666658
  0
LINE
  8
_1-0_躯体
  6
CONTINUOUS
 62
    4
 10
340.24999999999983
 20
215.17568266666655
 11
340.74999999999983
 21
215.34234866666662
  0
LINE
  8
_1-0_躯体
  6
CONTINUOUS
 62
    4
 10
339.74999999999983
 20
215.16666666666657
 11
340.24999999999983
 21
215.00000066666658
  0
LINE
  8
_1-0_躯体
  6
CONTINUOUS
 62
    4
 10
340.24999999999983
 20
215.17568266666655
 11
339.74999999999983
 21
215.34234866666662
  0
LINE
  8
_1-0_躯体
  6
CONTINUOUS
 62
    4
 10
342.74999999999983
 20
215.16666666666657
 11
342.24999999999983
 21
215.00000066666658
  0
LINE
  8
_1-0_躯体
  6
CONTINUOUS
 62
    4
 10
342.76278799999983
 20
215.3466116666666
 11
342.24999999999983
 21
215.17568266666655
  0
LINE
  8
_1-0_躯体
  6
CONTINUOUS
 62
    4
 10
341.74999999999983
 20
215.16666666666657
 11
342.24999999999983
 21
215.00000066666658
  0
LINE
  8
_1-0_躯体
  6
CONTINUOUS
 62
    4
 10
342.24999999999983
 20
215.17568266666655
 11
341.74999999999983
 21
215.34234866666662
  0
LINE
  8
_1-0_躯体
  6
CONTINUOUS
 62
    4
 10
340.74999999999983
 20
215.16666666666657
 11
341.24999999999983
 21
215.00000066666658
  0
LINE
  8
_1-0_躯体
  6
CONTINUOUS
 62
    4
 10
341.24999999999983
 20
215.17568266666655
 11
340.74999999999983
 21
215.34234866666662
  0
LINE
  8
_1-0_躯体
  6
CONTINUOUS
 62
    4
 10
341.74999999999983
 20
215.16666666666657
 11
341.24999999999983
 21
215.00000066666658
  0
LINE
  8
_1-0_躯体
  6
CONTINUOUS
 62
    4
 10
341.24999999999983
 20
215.17568266666655
 11
341.74999999999983
 21
215.34234866666662
  0
LINE
  8
_1-0_躯体
  6
CONTINUOUS
 62
    4
 10
343.08333299999987
 20
215.00000066666658
 11
342.74999999999983
 21
215.16666666666657
  0
LINE
  8
_1-0_躯体
  6
CONTINUOUS
 62
    4
 10
343.12267799999995
 20
215.16666666666657
 11
342.76278799999983
 21
215.3466116666666
  0
LINE
  8
_1-0_躯体
  6
CONTINUOUS
 62
    4
 10
346.41666599999985
 20
215.00000066666658
 11
345.08333299999987
 21
215.00000066666658
  0
LINE
  8
_1-0_躯体
  6
CONTINUOUS
 62
    4
 10
346.37732199999994
 20
215.16666666666657
 11
345.12267799999995
 21
215.16666666666657
  0
LINE
  8
_1-0_躯体
  6
CONTINUOUS
 62
    4
 10
351.08333299999987
 20
215.00000066666658
 11
350.74999999999983
 21
215.16666666666657
  0
LINE
  8
_1-0_躯体
  6
CONTINUOUS
 62
    4
 10
350.74999999999983
 20
215.16666666666657
 11
350.24999999999983
 21
215.00000066666658
  0
LINE
  8
_1-0_躯体
  6
CONTINUOUS
 62
    4
 10
351.12267799999995
 20
215.16666666666657
 11
350.76278799999983
 21
215.3466116666666
  0
LINE
  8
_1-0_躯体
  6
CONTINUOUS
 62
    4
 10
350.76278799999983
 20
215.3466116666666
 11
350.24999999999983
 21
215.17568266666655
  0
LINE
  8
_1-0_躯体
  6
CONTINUOUS
 62
    4
 10
349.74999999999983
 20
215.16666666666657
 11
350.24999999999983
 21
215.00000066666658
  0
LINE
  8
_1-0_躯体
  6
CONTINUOUS
 62
    4
 10
350.24999999999983
 20
215.17568266666655
 11
349.74999999999983
 21
215.34234866666662
  0
LINE
  8
_1-0_躯体
  6
CONTINUOUS
 62
    4
 10
348.74999999999983
 20
215.16666666666657
 11
349.24999999999983
 21
215.00000066666658
  0
LINE
  8
_1-0_躯体
  6
CONTINUOUS
 62
    4
 10
349.24999999999983
 20
215.17568266666655
 11
348.74999999999983
 21
215.34234866666662
  0
LINE
  8
_1-0_躯体
  6
CONTINUOUS
 62
    4
 10
349.74999999999983
 20
215.16666666666657
 11
349.24999999999983
 21
215.00000066666658
  0
LINE
  8
_1-0_躯体
  6
CONTINUOUS
 62
    4
 10
349.24999999999983
 20
215.17568266666655
 11
349.74999999999983
 21
215.34234866666662
  0
LINE
  8
_1-0_躯体
  6
CONTINUOUS
 62
    4
 10
346.74999999999983
 20
215.16666666666657
 11
347.24999999999983
 21
215.00000066666658
  0
LINE
  8
_1-0_躯体
  6
CONTINUOUS
 62
    4
 10
346.73721099999989
 20
215.3466116666666
 11
347.24999999999983
 21
215.17568266666655
  0
LINE
  8
_1-0_躯体
  6
CONTINUOUS
 62
    4
 10
347.74999999999983
 20
215.16666666666657
 11
347.24999999999983
 21
215.00000066666658
  0
LINE
  8
_1-0_躯体
  6
CONTINUOUS
 62
    4
 10
347.24999999999983
 20
215.17568266666655
 11
347.74999999999983
 21
215.34234866666662
  0
LINE
  8
_1-0_躯体
  6
CONTINUOUS
 62
    4
 10
348.74999999999983
 20
215.16666666666657
 11
348.24999999999983
 21
215.00000066666658
  0
LINE
  8
_1-0_躯体
  6
CONTINUOUS
 62
    4
 10
348.24999999999983
 20
215.17568266666655
 11
348.74999999999983
 21
215.34234866666662
  0
LINE
  8
_1-0_躯体
  6
CONTINUOUS
 62
    4
 10
347.74999999999983
 20
215.16666666666657
 11
348.24999999999983
 21
215.00000066666658
  0
LINE
  8
_1-0_躯体
  6
CONTINUOUS
 62
    4
 10
348.24999999999983
 20
215.17568266666655
 11
347.74999999999983
 21
215.34234866666662
  0
LINE
  8
_1-0_躯体
  6
CONTINUOUS
 62
    4
 10
346.41666599999985
 20
215.00000066666658
 11
346.74999999999983
 21
215.16666666666657
  0
LINE
  8
_1-0_躯体
  6
CONTINUOUS
 62
    4
 10
346.37732199999994
 20
215.16666666666657
 11
346.73721099999989
 21
215.3466116666666
  0
LINE
  8
_1-0_躯体
  6
CONTINUOUS
 62
    4
 10
352.08333299999993
 20
215.16666666666657
 11
351.12267799999995
 21
215.16666666666657
  0
LINE
  8
_1-0_躯体
  6
CONTINUOUS
 62
    4
 10
352.08333299999993
 20
215.00000066666658
 11
351.08333299999987
 21
215.00000066666658
  0
LINE
  8
_1-0_躯体
  6
CONTINUOUS
 62
    4
 10
336.83333299999987
 20
221.00000066666661
 11
337.19999999999993
 21
221.16666666666663
  0
LINE
  8
_1-0_躯体
  6
CONTINUOUS
 62
    4
 10
337.19999999999993
 20
221.16666666666663
 11
337.70627699999989
 21
219.9716236666666
  0
ARC
  8
_1-0_躯体
  6
CONTINUOUS
 62
    4
 10
338.16666599999985
 20
220.16666666666663
 40
0.5
 50
202.95984199999862
 51
0
  0
LINE
  8
_1-0_躯体
  6
CONTINUOUS
 62
    4
 10
336.83333299999987
 20
221.00000066666661
 11
336.83333299999987
 21
219.33333366666665
  0
LINE
  8
_1-0_躯体
  6
CONTINUOUS
 62
    4
 10
337.03333299999986
 20
221.09090966666662
 11
337.03333299999986
 21
219.33333366666665
  0
LINE
  8
_1-0_躯体
  6
CONTINUOUS
 62
    4
 10
338.66666599999985
 20
220.16666666666663
 11
338.66666599999985
 21
225.1307686666666
  0
ARC
  8
_1-0_躯体
  6
CONTINUOUS
 62
    4
 10
337.99999999999983
 20
219.33333366666665
 40
1.1666669999999999
 50
180
 51
270
  0
LINE
  8
_1-0_躯体
  6
CONTINUOUS
 62
    4
 10
337.99999999999983
 20
218.16666666666657
 11
351.49999999999989
 21
218.16666666666657
  0
LINE
  8
_1-0_躯体
  6
CONTINUOUS
 62
    4
 10
336.66666599999985
 20
234.2000006666666
 11
336.66666599999985
 21
225.66666666666663
  0
LINE
  8
_1-0_躯体
  6
CONTINUOUS
 62
    4
 10
352.83333299999993
 20
234.2000006666666
 11
352.83333299999993
 21
225.66666666666663
  0
ARC
  8
_1-0_躯体
  6
CONTINUOUS
 62
    4
 10
337.99999999999983
 20
219.33333366666665
 40
0.9666669999999998
 50
180
 51
270
  0
LINE
  8
_1-0_躯体
  6
CONTINUOUS
 62
    4
 10
351.49999999999989
 20
218.36666666666656
 11
337.99999999999983
 21
218.36666666666656
  0
LINE
  8
_1-0_躯体
  6
CONTINUOUS
 62
    4
 10
336.66666599999985
 20
225.66666666666663
 11
338.66666599999985
 21
225.1307686666666
  0
LINE
  8
_1-0_躯体
  6
CONTINUOUS
 62
    4
 10
336.66666599999985
 20
234.2000006666666
 11
352.83333299999993
 21
234.2000006666666
  0
ARC
  8
_1-0_躯体
  6
CONTINUOUS
 62
    4
 10
338.91666599999985
 20
227.16666666666663
 40
0.8333329999999998
 50
180
 51
270
  0
LINE
  8
_1-0_躯体
  6
CONTINUOUS
 62
    4
 10
338.08333299999987
 20
227.16666666666663
 11
338.08333299999987
 21
231.50000066666661
  0
LINE
  8
_1-0_躯体
  6
CONTINUOUS
 62
    4
 10
338.91666599999985
 20
226.33333366666665
 11
339.74999999999983
 21
226.33333366666665
  0
ARC
  8
_1-0_躯体
  6
CONTINUOUS
 62
    4
 10
341.41666599999985
 20
220.66666666666663
 40
1
 50
180
 51
0
  0
ARC
  8
_1-0_躯体
  6
CONTINUOUS
 62
    4
 10
339.74999999999983
 20
225.66666666666663
 40
0.666667
 50
0
 51
90
  0
LINE
  8
_1-0_躯体
  6
CONTINUOUS
 62
    4
 10
340.41666599999985
 20
220.66666666666663
 11
340.41666599999985
 21
225.66666666666663
  0
ARC
  8
_1-0_躯体
  6
CONTINUOUS
 62
    4
 10
343.08333299999987
 20
225.66666666666663
 40
0.666667
 50
90
 51
180
  0
LINE
  8
_1-0_躯体
  6
CONTINUOUS
 62
    4
 10
342.41666599999985
 20
220.66666666666663
 11
342.41666599999985
 21
225.66666666666663
  0
ARC
  8
_1-0_躯体
  6
CONTINUOUS
 62
    4
 10
346.41666599999985
 20
225.66666666666663
 40
0.666667
 50
0
 51
90
  0
LINE
  8
_1-0_躯体
  6
CONTINUOUS
 62
    4
 10
343.08333299999987
 20
226.33333366666665
 11
346.41666599999985
 21
226.33333366666665
  0
LINE
  8
_1-0_躯体
  6
CONTINUOUS
 62
    4
 10
352.66666599999985
 20
221.00000066666661
 11
352.29999999999984
 21
221.16666666666663
  0
LINE
  8
_1-0_躯体
  6
CONTINUOUS
 62
    4
 10
352.29999999999984
 20
221.16666666666663
 11
351.79372199999989
 21
219.9716236666666
  0
ARC
  8
_1-0_躯体
  6
CONTINUOUS
 62
    4
 10
351.33333299999987
 20
220.16666666666663
 40
0.5
 50
180
 51
337.04015800000138
  0
ARC
  8
_1-0_躯体
  6
CONTINUOUS
 62
    4
 10
351.49999999999989
 20
219.33333366666665
 40
1.1666669999999999
 50
270
 51
0
  0
LINE
  8
_1-0_躯体
  6
CONTINUOUS
 62
    4
 10
352.66666599999985
 20
221.00000066666661
 11
352.66666599999985
 21
219.33333366666665
  0
ARC
  8
_1-0_躯体
  6
CONTINUOUS
 62
    4
 10
351.49999999999989
 20
219.33333366666665
 40
0.9666669999999998
 50
270
 51
0
  0
LINE
  8
_1-0_躯体
  6
CONTINUOUS
 62
    4
 10
352.46666599999992
 20
221.09090966666662
 11
352.46666599999992
 21
219.33333366666665
  0
LINE
  8
_1-0_躯体
  6
CONTINUOUS
 62
    4
 10
350.83333299999987
 20
220.16666666666663
 11
350.83333299999987
 21
225.1307686666666
  0
LINE
  8
_1-0_躯体
  6
CONTINUOUS
 62
    4
 10
352.83333299999993
 20
225.66666666666663
 11
350.83333299999987
 21
225.1307686666666
  0
ARC
  8
_1-0_躯体
  6
CONTINUOUS
 62
    4
 10
348.08333299999987
 20
220.66666666666663
 40
1
 50
180
 51
0
  0
ARC
  8
_1-0_躯体
  6
CONTINUOUS
 62
    4
 10
349.74999999999983
 20
225.66666666666663
 40
0.666667
 50
90
 51
180
  0
LINE
  8
_1-0_躯体
  6
CONTINUOUS
 62
    4
 10
349.08333299999987
 20
220.66666666666663
 11
349.08333299999987
 21
225.66666666666663
  0
LINE
  8
_1-0_躯体
  6
CONTINUOUS
 62
    4
 10
347.08333299999987
 20
220.66666666666663
 11
347.08333299999987
 21
225.66666666666663
  0
ARC
  8
_1-0_躯体
  6
CONTINUOUS
 62
    4
 10
350.58333299999987
 20
227.16666666666663
 40
0.8333329999999998
 50
270
 51
0
  0
LINE
  8
_1-0_躯体
  6
CONTINUOUS
 62
    4
 10
351.41666599999985
 20
227.16666666666663
 11
351.41666599999985
 21
231.50000066666661
  0
LINE
  8
_1-0_躯体
  6
CONTINUOUS
 62
    4
 10
350.58333299999987
 20
226.33333366666665
 11
349.74999999999983
 21
226.33333366666665
  0
LINE
  8
_1-0_躯体
  6
CONTINUOUS
 62
    4
 10
363.33333300000004
 20
213.00000066666658
 11
334.99999999999983
 21
213.00000066666658
  0
LINE
  8
_1-0_躯体
  6
CONTINUOUS
 62
    4
 10
363.33333300000004
 20
212.33333366666662
 11
334.99999999999983
 21
212.33333366666662
  0
LINE
  8
_1-0_躯体
  6
CONTINUOUS
 62
    4
 10
334.99999999999983
 20
211.66666666666657
 11
363.33333300000004
 21
211.66666666666657
  0
INSERT
  2
-011-$QLE_3_
  8
_1-f_寸法
 10
210
 20
148.5
 41
1
 42
1
 50
0
  0
INSERT
  2
-012-$QLE_4_
  8
_1-f_寸法
 10
210
 20
148.5
 41
1
 42
1
 50
0
  0
LINE
  8
_1-0_躯体
  6
CONTINUOUS
 62
    4
 10
334.99999999999983
 20
211.66666666666657
 11
334.99999999999983
 21
215.00000066666658
  0
LINE
  8
_1-f_寸法
  6
CONTINUOUS
 62
    4
 10
361.66666666666663
 20
188.33333333333331
 11
369.93333333333328
 21
188.33333333333331
  0
LINE
  8
_1-f_寸法
  6
CONTINUOUS
 62
    4
 10
361.66666666666663
 20
211.66666666666666
 11
369.93333333333328
 21
211.66666666666666
  0
POINT
  8
_1-f_寸法
 62
    4
 10
368.33333333333331
 20
211.66666666666666
  0
POINT
  8
_1-f_寸法
 62
    4
 10
368.33333333333331
 20
188.33333333333331
  0
LINE
  8
_1-f_寸法
  6
CONTINUOUS
 62
    4
 10
368.33333333333331
 20
211.66666666666666
 11
368.33333333333331
 21
188.33333333333331
  0
TEXT
  8
_1-f_寸法
 62
    4
 10
368.33333333333331
 20
198.40000000000001
 40
3.2000000000000002
 41
1
 50
90
  1
70
  0
INSERT
  2
-013-$QLE_5_
  8
_1-f_寸法
 10
210
 20
148.5
 41
1
 42
1
 50
0
  0
LINE
  8
_1-0_躯体
  6
CONTINUOUS
 62
    6
 10
284.99999999999977
 20
234.00000066666661
 11
284.99999999999977
 21
184.44145355866914
  0
CIRCLE
  8
_1-f_寸法
  6
CONTINUOUS
 62
    4
 10
281.66666666666663
 20
186.66666666666666
 40
1.6666666666666665
  0
LINE
  8
_1-f_寸法
  6
CONTINUOUS
 62
    4
 10
334.99999999999983
 20
234.99999999999991
 11
334.99999999999983
 21
241.59999999999991
  0
LINE
  8
_1-f_寸法
  6
CONTINUOUS
 62
    4
 10
284.99999999999977
 20
234.99999999999991
 11
284.99999999999977
 21
241.59999999999991
  0
POINT
  8
_1-f_寸法
 62
    4
 10
284.99999999999977
 20
239.99999999999991
  0
POINT
  8
_1-f_寸法
 62
    4
 10
334.99999999999983
 20
239.99999999999991
  0
LINE
  8
_1-f_寸法
  6
CONTINUOUS
 62
    4
 10
284.99999999999977
 20
239.99999999999991
 11
334.99999999999983
 21
239.99999999999991
  0
TEXT
  8
_1-f_寸法
 62
    4
 10
307.59999999999974
 20
239.99999999999991
 40
3.2000000000000002
 41
1
 50
0
  1
150
  0
LINE
  8
_1-f_寸法
  6
CONTINUOUS
 62
    4
 10
268.33333333333326
 20
211.66666666666666
 11
333.33333333333331
 21
211.66666666666666
  0
LINE
  8
_1-f_寸法
  6
CONTINUOUS
 62
    4
 10
283.1100423396407
 20
187.66666674613356
 11
285.54923406370403
 21
189.07493474462666
  0
INSERT
  2
-014-_8_
  8
_1-8_小物
 10
210
 20
148.5
 41
1
 42
1
 50
0
  0
CIRCLE
  8
_1-f_寸法
  6
CONTINUOUS
 62
    4
 10
305
 20
200
 40
1.6666666666666665
  0
LINE
  8
_1-7_カバ__
  6
CONTINUOUS
 62
    4
 10
303.9287242218013
 20
201.27677170426924
 11
302.03535533905921
 21
203.5333333333333
  0
CIRCLE
  8
_1-f_寸法
  6
CONTINUOUS
 62
    4
 10
350
 20
200
 40
1.6666666666666665
  0
TEXT
  8
_1-f_寸法
 62
    4
 10
349.375
 20
198.75
 40
2.5
 41
1
 50
0
  1
1
  0
LINE
  8
_1-f_寸法
  6
CONTINUOUS
 62
    4
 10
349.16666666666663
 20
201.44337567297407
 11
347.93116158128407
 21
203.58333325386639
  0
LINE
  8
_1-f_寸法
  6
CONTINUOUS
 62
    4
 10
354.99999999999983
 20
185
 11
354.99999999999983
 21
201.66666666666666
  0
INSERT
  2
-015-_9_
  8
_1-8_小物
 10
210
 20
148.5
 41
1
 42
1
 50
0
  0
INSERT
  2
-016-_10_
  8
_1-8_小物
 10
210
 20
148.5
 41
1
 42
1
 50
0
  0
CIRCLE
  8
_1-f_寸法
  6
CONTINUOUS
 62
    4
 10
88.333333333333371
 20
199.8333333333332
 40
1.6666666666666665
  0
LINE
  8
_1-f_寸法
  6
CONTINUOUS
 62
    4
 10
82.166666666666671
 20
203.33333333333329
 11
86.883856807939722
 21
200.65600919909718
  0
CIRCLE
  8
_1-f_寸法
  6
CONTINUOUS
 62
    4
 10
78.333333333333314
 20
206.66666666666666
 40
1.6666666666666665
  0
LINE
  8
_1-7_カバ__
  6
CONTINUOUS
 62
    4
 10
80.095833783333632
 20
210.9083333333333
 11
78.972855880413704
 21
208.2057536328754
  0
INSERT
  2
-017-_11_
  8
_1-8_小物
 10
210
 20
148.5
 41
1
 42
1
 50
0
  0
LINE
  8
_1-f_寸法
  6
CONTINUOUS
 62
    4
 10
165
 20
203.33333333333329
 11
171.59999999999997
 21
203.33333333333329
  0
LINE
  8
_1-f_寸法
  6
CONTINUOUS
 62
    4
 10
165
 20
211.66666666666666
 11
171.59999999999997
 21
211.66666666666666
  0
POINT
  8
_1-f_寸法
 62
    4
 10
170
 20
211.66666666666666
  0
POINT
  8
_1-f_寸法
 62
    4
 10
170
 20
203.33333333333329
  0
LINE
  8
_1-f_寸法
  6
CONTINUOUS
 62
    4
 10
170
 20
211.66666666666666
 11
170
 21
203.33333333333329
  0
TEXT
  8
_1-f_寸法
 62
    4
 10
170
 20
205.90000000000001
 40
3.2000000000000002
 41
1
 50
90
  1
25
  0
LINE
  8
_1-f_寸法
  6
CONTINUOUS
 62
    4
 10
165
 20
203.33333333333329
 11
156.66666666666666
 21
203.33333333333329
  0
CIRCLE
  8
_1-f_寸法
  6
CONTINUOUS
 62
    4
 10
95
 20
213.33333333333331
 40
1.6666666666666665
  0
TEXT
  8
_1-f_寸法
 62
    4
 10
94.375
 20
212.08333333333331
 40
2.5
 41
1
 50
0
  1
2
  0
LINE
  8
_1-f_寸法
  6
CONTINUOUS
 62
    4
 10
94.166666666666657
 20
211.88995766035924
 11
92.036267196387371
 21
208.19999753741769
  0
LINE
  8
_1-0_躯体
  6
CONTINUOUS
 62
    4
 10
150.83333300000004
 20
221.33333366666673
 11
163.33333300000004
 21
221.33333366666673
  0
LINE
  8
_1-0_躯体
  6
CONTINUOUS
 62
    4
 10
350.83333299999987
 20
221.33333366666665
 11
363.33333300000004
 21
221.33333366666665
  0
INSERT
  2
-018-_12_
  8
_1-4_フレ__ム
 10
210
 20
148.5
 41
1
 42
1
 50
0
  0
LINE
  8
_1-f_寸法
  6
CONTINUOUS
 62
    4
 10
135
 20
213.33333333333331
 11
135
 21
219.93333333333331
  0
LINE
  8
_1-f_寸法
  6
CONTINUOUS
 62
    4
 10
124.66666666666636
 20
213.33333333333331
 11
124.66666666666636
 21
219.93333333333331
  0
POINT
  8
_1-f_寸法
 62
    4
 10
124.66666666666636
 20
218.33333333333331
  0
POINT
  8
_1-f_寸法
 62
    4
 10
135
 20
218.33333333333331
  0
LINE
  8
_1-f_寸法
  6
CONTINUOUS
 62
    4
 10
124.66666666666636
 20
218.33333333333331
 11
135
 21
218.33333333333331
  0
TEXT
  8
_1-f_寸法
 62
    4
 10
128.23333333333318
 20
218.33333333333331
 40
3.2000000000000002
 41
1
 50
0
  1
31
  0
LINE
  8
_1-f_寸法
  6
CONTINUOUS
 62
    4
 10
146.66666666666666
 20
235
 11
146.66666666666666
 21
241.59999999999997
  0
LINE
  8
_1-f_寸法
  6
CONTINUOUS
 62
    4
 10
135
 20
235
 11
135
 21
241.59999999999997
  0
POINT
  8
_1-f_寸法
 62
    4
 10
135
 20
240
  0
POINT
  8
_1-f_寸法
 62
    4
 10
146.66666666666666
 20
240
  0
LINE
  8
_1-f_寸法
  6
CONTINUOUS
 62
    4
 10
135
 20
240
 11
146.66666666666666
 21
240
  0
TEXT
  8
_1-f_寸法
 62
    4
 10
139.23333333333329
 20
240
 40
3.2000000000000002
 41
1
 50
0
  1
35
  0
LINE
  8
_1-f_寸法
  6
CONTINUOUS
 62
    4
 10
78.333333333333229
 20
235
 11
78.333333333333229
 21
241.59999999999997
  0
LINE
  8
_1-f_寸法
  6
CONTINUOUS
 62
    4
 10
84.999999999999972
 20
235
 11
84.999999999999972
 21
241.59999999999997
  0
POINT
  8
_1-f_寸法
 62
    4
 10
84.999999999999972
 20
240
  0
POINT
  8
_1-f_寸法
 62
    4
 10
78.333333333333229
 20
240
  0
LINE
  8
_1-f_寸法
  6
CONTINUOUS
 62
    4
 10
84.999999999999972
 20
240
 11
78.333333333333229
 21
240
  0
TEXT
  8
_1-f_寸法
 62
    4
 10
80.066666666666606
 20
240
 40
3.2000000000000002
 41
1
 50
0
  1
20
  0
INSERT
  2
-019-_13_
  8
_1-8_小物
 10
210
 20
148.5
 41
1
 42
1
 50
0
  0
LINE
  8
_1-f_寸法
  6
CONTINUOUS
 62
    4
 10
146.66666666666666
 20
240
 11
146.66666666666666
 21
220
  0
LINE
  8
_1-f_寸法
  6
CONTINUOUS
 62
    4
 10
78.333333333333314
 20
240
 11
78.333333333333314
 21
220
  0
INSERT
  2
-020-_14_
  8
_1-4_フレ__ム
 10
210
 20
148.5
 41
1
 42
1
 50
0
  0
LINE
  8
_1-f_寸法
  6
CONTINUOUS
 62
    4
 10
334.99999999999983
 20
213.33333333333326
 11
334.99999999999983
 21
219.93333333333322
  0
LINE
  8
_1-f_寸法
  6
CONTINUOUS
 62
    4
 10
324.66666666666617
 20
213.33333333333326
 11
324.66666666666617
 21
219.93333333333322
  0
POINT
  8
_1-f_寸法
 62
    4
 10
324.66666666666617
 20
218.33333333333326
  0
POINT
  8
_1-f_寸法
 62
    4
 10
334.99999999999983
 20
218.33333333333326
  0
LINE
  8
_1-f_寸法
  6
CONTINUOUS
 62
    4
 10
324.66666666666617
 20
218.33333333333326
 11
334.99999999999983
 21
218.33333333333326
  0
TEXT
  8
_1-f_寸法
 62
    4
 10
328.23333333333301
 20
218.33333333333326
 40
3.2000000000000002
 41
1
 50
0
  1
31
  0
LINE
  8
_1-f_寸法
  6
CONTINUOUS
 62
    4
 10
346.66666666666652
 20
234.99999999999991
 11
346.66666666666652
 21
241.59999999999991
  0
LINE
  8
_1-f_寸法
  6
CONTINUOUS
 62
    4
 10
334.99999999999983
 20
234.99999999999991
 11
334.99999999999983
 21
241.59999999999991
  0
POINT
  8
_1-f_寸法
 62
    4
 10
334.99999999999983
 20
239.99999999999991
  0
POINT
  8
_1-f_寸法
 62
    4
 10
346.66666666666652
 20
239.99999999999991
  0
LINE
  8
_1-f_寸法
  6
CONTINUOUS
 62
    4
 10
334.99999999999983
 20
239.99999999999991
 11
346.66666666666652
 21
239.99999999999991
  0
TEXT
  8
_1-f_寸法
 62
    4
 10
339.23333333333312
 20
239.99999999999991
 40
3.2000000000000002
 41
1
 50
0
  1
35
  0
INSERT
  2
-021-_15_
  8
_1-8_小物
 10
210
 20
148.5
 41
1
 42
1
 50
0
  0
LINE
  8
_1-f_寸法
  6
CONTINUOUS
 62
    4
 10
346.66666666666652
 20
239.99999999999991
 11
346.66666666666652
 21
219.99999999999991
  0
CIRCLE
  8
_1-f_寸法
  6
CONTINUOUS
 62
    4
 10
128.33333333333351
 20
215
 40
1.6666666666666665
  0
LINE
  8
_1-f_寸法
  6
CONTINUOUS
 62
    4
 10
129.16666666666688
 20
213.55662432702596
 11
130.40217179792973
 21
211.41666666666666
  0
TEXT
  8
_1-f_寸法
 62
    4
 10
127.70833333333351
 20
213.75
 40
2.5
 41
1
 50
0
  1
3
  0
CIRCLE
  8
_1-f_寸法
  6
CONTINUOUS
 62
    4
 10
328.33333333333331
 20
214.99999999999991
 40
1.6666666666666665
  0
LINE
  8
_1-f_寸法
  6
CONTINUOUS
 62
    4
 10
329.16666666666669
 20
213.55662432702587
 11
330.4021717979295
 21
211.41666666666657
  0
TEXT
  8
_1-f_寸法
 62
    4
 10
327.70833333333331
 20
213.74999999999991
 40
2.5
 41
1
 50
0
  1
3
  0
TEXT
  8
_1-f_寸法
 62
    4
 10
304.375
 20
198.75
 40
2.5
 41
1
 50
0
  1
4
  0
TEXT
  8
_1-f_寸法
 62
    4
 10
281.04166666666663
 20
185.41666666666666
 40
2.5
 41
1
 50
0
  1
8
  0
TEXT
  8
_1-f_寸法
 62
    4
 10
87.708333333333371
 20
198.5833333333332
 40
2.5
 41
1
 50
0
  1
4
  0
TEXT
  8
_1-f_寸法
 62
    4
 10
72.708333333333314
 20
205.41666666666666
 40
2.5
 41
1
 50
0
  1
5
  0
TEXT
  8
_1-f_寸法
 62
    4
 10
77.708333333333314
 20
205.41666666666666
 40
2.5
 41
1
 50
0
  1
6
  0
TEXT
  8
_1-f_寸法
 62
    4
 10
61.041666666666657
 20
217.08333333333331
 40
2.5
 41
1
 50
0
  1
7
  0
LINE
  8
_1-0_躯体
  6
CENTER2
 62
    4
 10
288.07179396077356
 20
201.6666665871997
 11
268.3333333333336
 21
201.6666665871997
  0
CIRCLE
  8
_1-f_寸法
  6
CONTINUOUS
 62
    4
 10
289.16666666666663
 20
206.66666666666666
 40
1.6666666666666665
  0
LINE
  8
_1-f_寸法
  6
CONTINUOUS
 62
    4
 10
288.33333333333326
 20
205.22329099369259
 11
286.27991527483812
 21
201.66666658719967
  0
CIRCLE
  8
_1-f_寸法
  6
CONTINUOUS
 62
    4
 10
278.33333333333326
 20
196.66666666666666
 40
1.6666666666666665
  0
LINE
  8
_1-f_寸法
  6
CONTINUOUS
 62
    4
 10
279.51184463531081
 20
197.84517796864421
 11
282.66666658719976
 21
200.99999992053313
  0
TEXT
  8
_1-f_寸法
 62
    4
 10
288.54166666666663
 20
205.41666666666666
 40
2.5
 41
1
 50
0
  1
5
  0
TEXT
  8
_1-f_寸法
 62
    4
 10
277.70833333333326
 20
195.41666666666666
 40
2.5
 41
1
 50
0
  1
7
  0
CIRCLE
  8
_1-f_寸法
  6
CONTINUOUS
 62
    4
 10
281.66666666666663
 20
206.66666666666666
 40
1.6666666666666665
  0
TEXT
  8
_1-f_寸法
 62
    4
 10
281.04166666666663
 20
205.41666666666666
 40
2.5
 41
1
 50
0
  1
6
  0
LINE
  8
_1-f_寸法
  6
CONTINUOUS
 62
    4
 10
283.09888214894869
 20
205.81429550919512
 11
285.78333333333308
 21
204.21666666666684
  0
LINE
  8
_1-f_寸法
  6
CONTINUOUS
 62
    4
 10
283.33333333333331
 20
211.66666666666666
 11
276.73333333333335
 21
211.66666666666666
  0
LINE
  8
_1-f_寸法
  6
CONTINUOUS
 62
    4
 10
283.33333333333331
 20
209.33333333333343
 11
276.73333333333335
 21
209.33333333333343
  0
POINT
  8
_1-f_寸法
 62
    4
 10
278.33333333333331
 20
209.33333333333343
  0
POINT
  8
_1-f_寸法
 62
    4
 10
278.33333333333331
 20
211.66666666666666
  0
LINE
  8
_1-f_寸法
  6
CONTINUOUS
 62
    4
 10
278.33333333333331
 20
209.33333333333343
 11
278.33333333333331
 21
211.66666666666666
  0
TEXT
  8
_1-f_寸法
 62
    4
 10
278.33333333333331
 20
209.70000000000007
 40
3.2000000000000002
 41
1
 50
90
  1
7
  0
LINE
  8
_1-f_寸法
  6
CONTINUOUS
 62
    4
 10
268.3333333333336
 20
201.6666665871997
 11
261.73333333333323
 21
201.6666665871997
  0
LINE
  8
_1-f_寸法
  6
CONTINUOUS
 62
    4
 10
268.3333333333336
 20
211.66666666666657
 11
261.73333333333323
 21
211.66666666666657
  0
POINT
  8
_1-f_寸法
 62
    4
 10
263.33333333333326
 20
211.66666666666657
  0
POINT
  8
_1-f_寸法
 62
    4
 10
263.33333333333326
 20
201.6666665871997
  0
LINE
  8
_1-f_寸法
  6
CONTINUOUS
 62
    4
 10
263.33333333333326
 20
211.66666666666657
 11
263.33333333333326
 21
201.6666665871997
  0
TEXT
  8
_1-f_寸法
 62
    4
 10
263.33333333333326
 20
205.06666662693317
 40
3.2000000000000002
 41
1
 50
90
  1
30
  0
CIRCLE
  8
_1-f_寸法
  6
CONTINUOUS
 62
    4
 10
298.33333333333326
 20
196.66666666666666
 40
1.6666666666666665
  0
TEXT
  8
_1-f_寸法
 62
    4
 10
297.70833333333326
 20
195.41666666666666
 40
2.5
 41
1
 50
0
  1
2
  0
LINE
  8
_1-f_寸法
  6
CONTINUOUS
 62
    4
 10
296.89834326970231
 20
197.5143584119717
 11
289.8692303137201
 21
201.66666662693319
  0
LINE
  8
_1-5_ホルダ__
  6
CONTINUOUS
 62
    4
 10
95.875698563445624
 20
209.33333333333337
 11
98.828610121733959
 21
209.33333333333337
  0
LINE
  8
_1-5_ホルダ__
  6
CONTINUOUS
 62
    4
 10
84.999999999999957
 20
209.33333333333337
 11
84.999999999999957
 21
211.66666666666669
  0
ARC
  8
_1-5_ホルダ__
  6
CONTINUOUS
 62
    4
 10
103.99999999999989
 20
206.83333333333337
 40
0.8333333333333334
 50
90
 51
270
  0
ARC
  8
_1-5_ホルダ__
  6
CONTINUOUS
 62
    4
 10
106.00000000000007
 20
206.83333333333337
 40
0.8333333333333334
 50
270
 51
90
  0
LINE
  8
_1-5_ホルダ__
  6
CONTINUOUS
 62
    4
 10
106.00000000000007
 20
206.00000000000003
 11
103.99999999999989
 21
206.00000000000003
  0
LINE
  8
_1-5_ホルダ__
  6
CONTINUOUS
 62
    4
 10
103.99999999999989
 20
207.66666666666669
 11
106.00000000000007
 21
207.66666666666669
  0
LINE
  8
_1-5_ホルダ__
  6
CONTINUOUS
 62
    4
 10
69.999999999999886
 20
204.00000000000003
 11
69.999999999999886
 21
211.66666666666669
  0
LINE
  8
_1-5_ホルダ__
  6
CONTINUOUS
 62
    4
 10
84.999999999999957
 20
211.66666666666669
 11
69.999999999999886
 21
211.66666666666669
  0
LINE
  8
_1-5_ホルダ__
  6
DASHED1
 62
    4
 10
80.833333333333201
 20
211.13333333333335
 11
80.833333333333201
 21
211.66666666666669
  0
LINE
  8
_1-5_ホルダ__
  6
DASHED1
 62
    4
 10
75.833333333333201
 20
211.13333333333321
 11
75.833333333333201
 21
211.66666666666669
  0
LINE
  8
_1-5_ホルダ__
  6
CONTINUOUS
 62
    4
 10
69.999999999999886
 20
204.00000000000011
 11
149.99999999999983
 21
204.00000000000003
  0
LINE
  8
_1-5_ホルダ__
  6
CENTER2
 62
    4
 10
107.83333333333337
 20
206.83333333333337
 11
102.16666666666659
 21
206.83333333333337
  0
LINE
  8
_1-5_ホルダ__
  6
CENTER2
 62
    4
 10
105.00000000000007
 20
205.00000000000003
 11
105.00000000000007
 21
208.66666666666669
  0
LINE
  8
_1-5_ホルダ__
  6
CONTINUOUS
 62
    4
 10
84.999999999999957
 20
211.13333333333335
 11
69.999999999999886
 21
211.13333333333335
  0
LINE
  8
_1-5_ホルダ__
  6
CENTER2
 62
    4
 10
78.333333333333201
 20
212.66666666666669
 11
78.333333333333201
 21
210.13333333333335
  0
LINE
  8
_1-5_ホルダ__
  6
CONTINUOUS
 62
    4
 10
149.99999999999983
 20
204.00000000000003
 11
149.99999999999983
 21
205.33333333333331
  0
ARC
  8
_1-5_ホルダ__
  6
CONTINUOUS
 62
    4
 10
145.99999999999983
 20
205.33333333333331
 40
4
 50
0
 51
90
  0
LINE
  8
_1-5_ホルダ__
  6
CONTINUOUS
 62
    4
 10
145.99999999999983
 20
209.33333333333337
 11
84.999999999999957
 21
209.33333333333337
  0
LINE
  8
_1-5_ホルダ__
  6
DASHED1
 62
    4
 10
149.99999999999983
 20
205.03333333333336
 11
69.999999999999886
 21
205.03333333333342
  0
LINE
  8
_1-5_ホルダ__
  6
DASHED1
 62
    4
 10
149.99999999999983
 20
204.50000000000003
 11
69.999999999999886
 21
204.50000000000006
  0
ARC
  8
_1-5_ホルダ__
  6
CONTINUOUS
 62
    4
 10
312.66666666666663
 20
206.49999999999994
 40
0.8333333333333332
 50
270
 51
90
  0
ARC
  8
_1-5_ホルダ__
  6
CONTINUOUS
 62
    4
 10
310.66666666666663
 20
206.49999999999994
 40
0.8333333333333332
 50
90
 51
270
  0
LINE
  8
_1-5_ホルダ__
  6
CONTINUOUS
 62
    4
 10
310.66666666666663
 20
205.66666666666663
 11
312.66666666666663
 21
205.66666666666663
  0
LINE
  8
_1-5_ホルダ__
  6
CONTINUOUS
 62
    4
 10
312.66666666666663
 20
207.33333333333329
 11
310.66666666666663
 21
207.33333333333329
  0
LINE
  8
_1-5_ホルダ__
  6
CONTINUOUS
 62
    4
 10
285.53333333333319
 20
197.33333333333329
 11
284.99999999999994
 21
197.33333333333329
  0
ARC
  8
_1-5_ホルダ__
  6
CONTINUOUS
 62
    4
 10
288.33333333333326
 20
198.99999999999994
 40
1.6666666666666665
 50
270
 51
0
  0
ARC
  8
_1-5_ホルダ__
  6
CONTINUOUS
 62
    4
 10
288.33333333333326
 20
198.99999999999994
 40
1.6666666666666665
 50
270
 51
0
  0
LINE
  8
_1-5_ホルダ__
  6
CONTINUOUS
 62
    4
 10
289.99999999999994
 20
203.36666666666659
 11
289.99999999999994
 21
198.99999999999994
  0
ARC
  8
_1-5_ホルダ__
  6
CONTINUOUS
 62
    4
 10
291.66666666666663
 20
203.36666666666659
 40
1.6666666666666665
 50
90
 51
180
  0
LINE
  8
_1-5_ホルダ__
  6
CONTINUOUS
 62
    4
 10
288.33333333333326
 20
197.33333333333329
 11
284.99999999999994
 21
197.33333333333329
  0
LINE
  8
_1-5_ホルダ__
  6
CONTINUOUS
 62
    4
 10
291.66666666666663
 20
203.99999999999994
 11
291.66666666666663
 21
205.03333333333325
  0
LINE
  8
_1-5_ホルダ__
  6
CONTINUOUS
 62
    4
 10
285.53333333333319
 20
209.33333333333329
 11
285.53333333333319
 21
197.33333333333329
  0
LINE
  8
_1-5_ホルダ__
  6
CONTINUOUS
 62
    4
 10
284.99999999999994
 20
209.33333333333329
 11
284.99999999999994
 21
197.33333333333329
  0
LINE
  8
_1-5_ホルダ__
  6
DASHED1
 62
    4
 10
284.99999999999994
 20
199.16666666666663
 11
285.53333333333319
 21
199.16666666666663
  0
LINE
  8
_1-5_ホルダ__
  6
DASHED1
 62
    4
 10
284.99999999999994
 20
204.16666666666663
 11
285.53333333333319
 21
204.16666666666663
  0
LINE
  8
_1-5_ホルダ__
  6
CENTER2
 62
    4
 10
283.33333333333326
 20
201.66666666666663
 11
287.19999999999987
 21
201.66666666666663
  0
LINE
  8
_1-5_ホルダ__
  6
CONTINUOUS
 62
    4
 10
291.66666666666663
 20
203.99999999999994
 11
344.99999999999989
 21
203.99999999999994
  0
LINE
  8
_1-5_ホルダ__
  6
CONTINUOUS
 62
    4
 10
344.99999999999989
 20
203.99999999999994
 11
344.99999999999989
 21
205.33333333333329
  0
ARC
  8
_1-5_ホルダ__
  6
CONTINUOUS
 62
    4
 10
340.99999999999994
 20
205.33333333333329
 40
4
 50
0
 51
90
  0
LINE
  8
_1-5_ホルダ__
  6
CONTINUOUS
 62
    4
 10
284.99999999999994
 20
209.33333333333329
 11
340.99999999999994
 21
209.33333333333329
  0
LINE
  8
_1-5_ホルダ__
  6
DASHED1
 62
    4
 10
344.99999999999989
 20
205.03333333333325
 11
291.66666666666663
 21
205.03333333333325
  0
LINE
  8
_1-5_ホルダ__
  6
DASHED1
 62
    4
 10
291.66666666666663
 20
204.5333333333333
 11
344.99999999999989
 21
204.5333333333333
  0
INSERT
  2
-022-_16_
  8
_1-8_小物
 10
210
 20
148.5
 41
1
 42
1
 50
0
  0
INSERT
  2
-023-_17_
  8
_1-8_小物
 10
210
 20
148.5
 41
1
 42
1
 50
0
  0
INSERT
  2
-024-_18_
  8
_1-8_小物
 10
210
 20
148.5
 41
1
 42
1
 50
0
  0
INSERT
  2
-025-_19_
  8
_1-8_小物
 10
210
 20
148.5
 41
1
 42
1
 50
0
  0
INSERT
  2
-026-_20_
  8
_1-8_小物
 10
210
 20
148.5
 41
1
 42
1
 50
0
  0
LINE
  8
_1-f_寸法
  6
CONTINUOUS
 62
    4
 10
293.33333333333331
 20
185
 11
293.33333333333331
 21
178.40000000000001
  0
LINE
  8
_1-f_寸法
  6
CONTINUOUS
 62
    4
 10
284.99999999999977
 20
185
 11
284.99999999999977
 21
178.40000000000001
  0
POINT
  8
_1-f_寸法
 62
    4
 10
284.99999999999977
 20
180
  0
POINT
  8
_1-f_寸法
 62
    4
 10
293.33333333333331
 20
180
  0
LINE
  8
_1-f_寸法
  6
CONTINUOUS
 62
    4
 10
284.99999999999977
 20
180
 11
293.33333333333331
 21
180
  0
TEXT
  8
_1-f_寸法
 62
    4
 10
287.56666666666649
 20
180
 40
3.2000000000000002
 41
1
 50
0
  1
25
  0
LINE
  8
_1-f_寸法
  6
CONTINUOUS
 62
    4
 10
355
 20
185
 11
355
 21
178.40000000000001
  0
POINT
  8
_1-f_寸法
 62
    4
 10
355
 20
180
  0
LINE
  8
_1-f_寸法
  6
CONTINUOUS
 62
    4
 10
293.33333333333331
 20
180
 11
355
 21
180
  0
TEXT
  8
_1-f_寸法
 62
    4
 10
321.76666666666659
 20
180
 40
3.2000000000000002
 41
1
 50
0
  1
185
  0
LINE
  8
_1-f_寸法
  6
CONTINUOUS
 62
    4
 10
355
 20
180
 11
355
 21
173.40000000000001
  0
LINE
  8
_1-f_寸法
  6
CONTINUOUS
 62
    4
 10
285
 20
180
 11
285
 21
173.40000000000001
  0
POINT
  8
_1-f_寸法
 62
    4
 10
285
 20
175
  0
POINT
  8
_1-f_寸法
 62
    4
 10
355
 20
175
  0
LINE
  8
_1-f_寸法
  6
CONTINUOUS
 62
    4
 10
285
 20
175
 11
355
 21
175
  0
TEXT
  8
_1-f_寸法
 62
    4
 10
317.59999999999997
 20
175
 40
3.2000000000000002
 41
1
 50
0
  1
210
  0
INSERT
  2
-027-_21_
  8
_1-7_カバ__
 10
210
 20
148.5
 41
1
 42
1
 50
0
  0
INSERT
  2
-028-_22_
  8
_1-8_小物
 10
210
 20
148.5
 41
1
 42
1
 50
0
  0
LINE
  8
_1-7_カバ__
  6
CONTINUOUS
 62
    4
 10
353.56532432185054
 20
210.69728468268499
 11
354.64003675828769
 21
209.62257224624784
  0
LINE
  8
_1-f_寸法
  6
CONTINUOUS
 62
    4
 10
354.99999999999983
 20
203.33333333333326
 11
363.26666666666665
 21
203.33333333333326
  0
LINE
  8
_1-f_寸法
  6
CONTINUOUS
 62
    4
 10
354.99999999999983
 20
211.66666666666657
 11
363.26666666666665
 21
211.66666666666657
  0
POINT
  8
_1-f_寸法
 62
    4
 10
361.66666666666663
 20
211.66666666666657
  0
POINT
  8
_1-f_寸法
 62
    4
 10
361.66666666666663
 20
203.33333333333326
  0
LINE
  8
_1-f_寸法
  6
CONTINUOUS
 62
    4
 10
361.66666666666663
 20
211.66666666666657
 11
361.66666666666663
 21
203.33333333333326
  0
TEXT
  8
_1-f_寸法
 62
    4
 10
361.66666666666663
 20
205.89999999999992
 40
3.2000000000000002
 41
1
 50
90
  1
25
  0
LINE
  8
_1-f_寸法
  6
CONTINUOUS
 62
    4
 10
354.99999999999983
 20
188.33333333333331
 11
363.26666666666665
 21
188.33333333333331
  0
POINT
  8
_1-f_寸法
 62
    4
 10
361.66666666666663
 20
188.33333333333331
  0
LINE
  8
_1-f_寸法
  6
CONTINUOUS
 62
    4
 10
361.66666666666663
 20
203.33333333333326
 11
361.66666666666663
 21
188.33333333333331
  0
TEXT
  8
_1-f_寸法
 62
    4
 10
361.66666666666663
 20
194.23333333333329
 40
3.2000000000000002
 41
1
 50
90
  1
45
  0
LINE
  8
_1-f_寸法
  6
CONTINUOUS
 62
    4
 10
354.99999999999983
 20
188.33333333333331
 11
295
 21
188.33333333333331
  0
ENDSEC
  0
EOF
