  0
SECTION
  2
HEADER
  9
$ACADVER
  1
AC1009
  9
$INSBASE
 10
0
 20
0
 30
0
  9
$EXTMIN
 10
0
 20
0
  9
$EXTMAX
 10
420
 20
297
  9
$LIMMIN
 10
0
 20
0
  9
$LIMMAX
 10
420
 20
297
  9
$LTSCALE
 40
1
  0
ENDSEC
  0
SECTION
  2
TABLES
  0
TABLE
  2
LTYPE
 70
     9
  0
LTYPE
  2
CONTINUOUS
 70
    64
  3
実線
 72
    65
 73
     0
 40
0.0
  0
LTYPE
  2
DASHED1
 70
    64
  3
--  --  --  --  --  --  --  --  
 72
    65
 73
     2
 40
2.5
 49
1.25
 49
-1.25
  0
LTYPE
  2
DASHED2
 70
    64
  3
----    ----    ----    ----    
 72
    65
 73
     2
 40
5.0
 49
2.5
 49
-2.5
  0
LTYPE
  2
DASHED3
 70
    64
  3
------  ------  ------  ------  
 72
    65
 73
     2
 40
5.0
 49
3.75
 49
-1.25
  0
LTYPE
  2
CENTER1
 70
    64
  3
----- - ----- - ----- - ----- - 
 72
    65
 73
     4
 40
10.0
 49
6.25
 49
-1.25
 49
1.25
 49
-1.25
  0
LTYPE
  2
CENTER2
 70
    64
  3
----------  --  ----------  --  
 72
    65
 73
     4
 40
20.0
 49
12.5
 49
-2.5
 49
2.5
 49
-2.5
  0
LTYPE
  2
PHANTOM1
 70
    64
  3
--- - - --- - - --- - - --- - - 
 72
    65
 73
     6
 40
10.0
 49
3.25
 49
-1.25
 49
1.25
 49
-1.25
 49
1.25
 49
-1.25
  0
LTYPE
  2
PHANTOM2
 70
    64
  3
--------  -  -  --------  -  -  
 72
    65
 73
     6
 40
20.0
 49
10.0
 49
-2.5
 49
1.25
 49
-2.5
 49
1.25
 49
-2.5
  0
LTYPE
  2
DOT
 70
    64
  3
-   -   -   -   -   -   -   -   
 72
    65
 73
     2
 40
2.5
 49
0.625
 49
-1.875
  0
LTYPE
  2
DUMMY
 70
    64
  3
ダミー
 72
    65
 73
     0
 40
0.0
  0
LTYPE
  2
RAND1
 70
    64
  3
ランダム線1
 72
    65
 73
     4
 40
10.0
 49
1.0
 49
-2.0
 49
3.0
 49
-4.0
  0
LTYPE
  2
RAND2
 70
    64
  3
ランダム線2
 72
    65
 73
     4
 40
14.0
 49
2.0
 49
-3.0
 49
4.0
 49
-5.0
  0
LTYPE
  2
RAND3
 70
    64
  3
ランダム線3
 72
    65
 73
     4
 40
18.0
 49
3.0
 49
-4.0
 49
5.0
 49
-6.0
  0
LTYPE
  2
RAND4
 70
    64
  3
ランダム線4
 72
    65
 73
     4
 40
22.0
 49
4.0
 49
-5.0
 49
6.0
 49
-7.0
  0
LTYPE
  2
RAND5
 70
    64
  3
ランダム線5
 72
    65
 73
     4
 40
26.0
 49
5.0
 49
-6.0
 49
7.0
 49
-8.0
  0
LTYPE
  2
LONG1
 70
    64
  3
----------  --  ----------  --  
 72
    65
 73
     4
 40
40.0
 49
32.5
 49
-2.5
 49
2.5
 49
-2.5
  0
LTYPE
  2
LONG2
 70
    64
  3
--------  -  -  --------  -  -  
 72
    65
 73
     6
 40
40.0
 49
30.0
 49
-2.5
 49
1.25
 49
-2.5
 49
1.25
 49
-2.5
  0
LTYPE
  2
LONG3
 70
    64
  3
+++++++++++++++..+++++++++++++++
 72
    65
 73
     2
 40
40.0
 49
37.5
 49
-2.5
  0
LTYPE
  2
LONG4
 70
    64
  3
+++++++++++++++..+++++++++++++++
 72
    65
 73
     2
 40
80.0
 49
75.0
 49
-5.0
  0
LTYPE
  2
LONG5
 70
    64
  3
----------  --  ----------  --  
 72
    65
 73
     4
 40
60.0
 49
37.5
 49
-7.5
 49
7.5
 49
-7.5
  0
LTYPE
  2
dashed
 70
   64
  3
-------   -------------   ------
 72
   65
 73
    2
 40
7.5
 49
6
 49
-1.5
  0
LTYPE
  2
dashed_spaced
 70
   64
  3
----        --------        ----
 72
   65
 73
    2
 40
12
 49
6
 49
-6
  0
LTYPE
  2
long_dashed_dotted
 70
   64
  3
------------- --- --------------
 72
   65
 73
    4
 40
15.25
 49
12
 49
-1.5
 49
0.25
 49
-1.5
  0
LTYPE
  2
long_dashed_double-dotted
 70
   64
  3
----------- --- --- ------------
 72
   65
 73
    6
 40
17
 49
12
 49
-1.5
 49
0.25
 49
-1.5
 49
0.25
 49
-1.5
  0
LTYPE
  2
long_dashed_triplicate-dotted
 70
   64
  3
--------- --- --- --- ----------
 72
   65
 73
    8
 40
18.75
 49
12
 49
-1.5
 49
0.25
 49
-1.5
 49
0.25
 49
-1.5
 49
0.25
 49
-1.5
  0
LTYPE
  2
dotted
 70
   64
  3
   -       -       -       -    
 72
   65
 73
    2
 40
1.75
 49
0.25
 49
-1.5
  0
LTYPE
  2
chain
 70
   64
  3
-------------- -- --------------
 72
   65
 73
    4
 40
18.5
 49
12
 49
-1.5
 49
3.5
 49
-1.5
  0
LTYPE
  2
chain_double_dash
 70
   64
  3
------------ -- -- -------------
 72
   65
 73
    6
 40
23.5
 49
12
 49
-1.5
 49
3.5
 49
-1.5
 49
3.5
 49
-1.5
  0
LTYPE
  2
dashed_dotted
 70
   64
  3
-----------     -     ----------
 72
   65
 73
    4
 40
9.25
 49
6
 49
-1.5
 49
0.25
 49
-1.5
  0
LTYPE
  2
double-dashed_dotted
 70
   64
  3
------   -----------   -   -----
 72
   65
 73
    6
 40
16.75
 49
6
 49
-1.5
 49
6
 49
-1.5
 49
0.25
 49
-1.5
  0
LTYPE
  2
dashed_double-dotted
 70
   64
  3
---------    -    -    ---------
 72
   65
 73
    6
 40
11
 49
6
 49
-1.5
 49
0.25
 49
-1.5
 49
0.25
 49
-1.5
  0
LTYPE
  2
double-dashed_double-dotted
 70
   64
  3
-----   ---------   -   -   ----
 72
   65
 73
    8
 40
18.5
 49
6
 49
-1.5
 49
6
 49
-1.5
 49
0.25
 49
-1.5
 49
0.25
 49
-1.5
  0
LTYPE
  2
dashed_triplicate-dotted
 70
   64
  3
-------    -    -    -    ------
 72
   65
 73
    8
 40
12.75
 49
6
 49
-1.5
 49
0.25
 49
-1.5
 49
0.25
 49
-1.5
 49
0.25
 49
-1.5
  0
LTYPE
  2
double-dashed_triplicate-dotted
 70
   64
  3
-----  ---------  -  -  -  -----
 72
   65
 73
   10
 40
20.25
 49
6
 49
-1.5
 49
6
 49
-1.5
 49
0.25
 49
-1.5
 49
0.25
 49
-1.5
 49
0.25
 49
-1.5
  0
LTYPE
  2
undefined
 70
   64
  3
--------------------------------
 72
   65
 73
    0
 40
0
  0
ENDTAB
  0
TABLE
  2
STYLE
  5
3
100
AcDbSymbolTable
 70
     1
  0
STYLE
  5
10
100
AcDbSymbolTableRecord
100
AcDbTextStyleTableRecord
  2
STANDARD
 70
     0
 40
0.0
 41
1.0
 50
0.0
 71
     0
 42
0.2
  3
txt
  4
bigfont.shx
  0
STYLE
  5
26
100
AcDbSymbolTableRecord
100
AcDbTextStyleTableRecord
  2
TATEGAKI
 70
    68
 40
0.0
 41
1.0
 50
0.0
 71
     0
 42
1.0
  3
txt
  4
bigfont.shx
  0
ENDTAB
  0
TABLE
  2
LAYER
 70
    7
  0
LAYER
  2
_0-0_図面枠
 70
   64
 62
    7
  6
CONTINUOUS
  0
LAYER
  2
_1-0_躯体
 70
   64
 62
    7
  6
CONTINUOUS
  0
LAYER
  2
_1-5_ホルダ__
 70
   64
 62
    7
  6
CONTINUOUS
  0
LAYER
  2
_1-7_カバ__
 70
   64
 62
    7
  6
CONTINUOUS
  0
LAYER
  2
_1-8_小物
 70
   64
 62
    7
  6
CONTINUOUS
  0
LAYER
  2
_1-f_寸法
 70
   64
 62
    7
  6
CONTINUOUS
  0
LAYER
  2
ADD_LINE
 70
   64
 62
    7
  6
CONTINUOUS
  0
ENDTAB
  0
ENDSEC
  0
SECTION
  2
BLOCKS
  0
BLOCK
  2
-000-
 70
   64
 10
0
 20
0
 30
0
  0
LINE
  8
_1-8_小物
  6
CONTINUOUS
 62
    4
 10
-61.787483860264473
 20
-19
 11
-59.787483860264473
 21
-19
  0
LINE
  8
_1-8_小物
  6
CONTINUOUS
 62
    4
 10
-62.120817193597816
 20
-19.707106781186582
 11
-62.120817193597816
 21
-18.292893218813447
  0
LINE
  8
_1-8_小物
  6
CONTINUOUS
 62
    4
 10
-62.120817193597816
 20
-18.292893218813447
 11
-59.45415052693113
 21
-18.292893218813447
  0
LINE
  8
_1-8_小物
  6
CONTINUOUS
 62
    4
 10
-59.45415052693113
 20
-19.707106781186582
 11
-59.45415052693113
 21
-18.292893218813447
  0
LINE
  8
_1-8_小物
  6
CONTINUOUS
 62
    4
 10
-62.120817193597816
 20
-19.707106781186582
 11
-59.45415052693113
 21
-19.707106781186582
  0
ENDBLK
  0
BLOCK
  2
-001-_1_
 70
   64
 10
0
 20
0
 30
0
  0
LINE
  8
_1-8_小物
  6
CONTINUOUS
 62
    4
 10
-118.45415052693113
 20
-19
 11
-120.45415052693113
 21
-19
  0
LINE
  8
_1-8_小物
  6
CONTINUOUS
 62
    4
 10
-118.1208171935978
 20
-19.707106781186582
 11
-118.1208171935978
 21
-18.292893218813447
  0
LINE
  8
_1-8_小物
  6
CONTINUOUS
 62
    4
 10
-118.1208171935978
 20
-18.292893218813447
 11
-120.78748386026447
 21
-18.292893218813447
  0
LINE
  8
_1-8_小物
  6
CONTINUOUS
 62
    4
 10
-120.78748386026447
 20
-19.707106781186582
 11
-120.78748386026447
 21
-18.292893218813447
  0
LINE
  8
_1-8_小物
  6
CONTINUOUS
 62
    4
 10
-118.1208171935978
 20
-19.707106781186582
 11
-120.78748386026447
 21
-19.707106781186582
  0
ENDBLK
  0
BLOCK
  2
-002-_2_
 70
   64
 10
0
 20
0
 30
0
  0
LINE
  8
_1-8_小物
  6
CONTINUOUS
 62
    4
 10
138.21251613973556
 20
-19
 11
140.21251613973556
 21
-19
  0
LINE
  8
_1-8_小物
  6
CONTINUOUS
 62
    4
 10
137.87918280640224
 20
-19.707106781186582
 11
137.87918280640224
 21
-18.292893218813447
  0
LINE
  8
_1-8_小物
  6
CONTINUOUS
 62
    4
 10
137.87918280640224
 20
-18.292893218813447
 11
140.54584947306887
 21
-18.292893218813447
  0
LINE
  8
_1-8_小物
  6
CONTINUOUS
 62
    4
 10
140.54584947306887
 20
-19.707106781186582
 11
140.54584947306887
 21
-18.292893218813447
  0
LINE
  8
_1-8_小物
  6
CONTINUOUS
 62
    4
 10
137.87918280640224
 20
-19.707106781186582
 11
140.54584947306887
 21
-19.707106781186582
  0
ENDBLK
  0
BLOCK
  2
-003-_3_
 70
   64
 10
0
 20
0
 30
0
  0
LINE
  8
_1-8_小物
  6
CONTINUOUS
 62
    4
 10
81.54584947306887
 20
-19
 11
79.54584947306887
 21
-19
  0
LINE
  8
_1-8_小物
  6
CONTINUOUS
 62
    4
 10
81.879182806402184
 20
-19.707106781186582
 11
81.879182806402184
 21
-18.292893218813447
  0
LINE
  8
_1-8_小物
  6
CONTINUOUS
 62
    4
 10
81.879182806402184
 20
-18.292893218813447
 11
79.212516139735499
 21
-18.292893218813447
  0
LINE
  8
_1-8_小物
  6
CONTINUOUS
 62
    4
 10
79.212516139735499
 20
-19.707106781186582
 11
79.212516139735499
 21
-18.292893218813447
  0
LINE
  8
_1-8_小物
  6
CONTINUOUS
 62
    4
 10
81.879182806402184
 20
-19.707106781186582
 11
79.212516139735499
 21
-19.707106781186582
  0
ENDBLK
  0
BLOCK
  2
-004-_4_
 70
   64
 10
0
 20
0
 30
0
  0
LINE
  8
_0-0_図面枠
  6
CONTINUOUS
 62
    7
 10
-24.810007453201848
 20
116.2500270181136
 11
-24.279677367301844
 21
116.55618006006358
  0
LINE
  8
_0-0_図面枠
  6
CONTINUOUS
 62
    7
 10
-25.715874111051818
 20
118.20168690416358
 11
-24.810007453201848
 21
116.2500270181136
  0
LINE
  8
_0-0_図面枠
  6
CONTINUOUS
 62
    7
 10
-22.335133719051811
 20
117.67874121381357
 11
-25.715874111051818
 21
118.20168690416358
  0
LINE
  8
_0-0_図面枠
  6
CONTINUOUS
 62
    7
 10
-22.865463804951816
 20
117.37258817186358
 11
-22.335133719051811
 21
117.67874121381357
  0
LINE
  8
_0-0_図面枠
  6
CONTINUOUS
 62
    7
 10
-18.269269727201817
 20
114.71926180846361
 11
-22.865463804951816
 21
117.37258817186358
  0
LINE
  8
_0-0_図面枠
  6
CONTINUOUS
 62
    7
 10
-13.67307564950184
 20
117.37258817186358
 11
-18.269269727201817
 21
114.71926180846361
  0
LINE
  8
_0-0_図面枠
  6
CONTINUOUS
 62
    7
 10
-14.203405735401844
 20
117.67874121381357
 11
-13.67307564950184
 21
117.37258817186358
  0
LINE
  8
_0-0_図面枠
  6
CONTINUOUS
 62
    7
 10
-10.822665343401837
 20
118.20168690416358
 11
-14.203405735401844
 21
117.67874121381357
  0
LINE
  8
_0-0_図面枠
  6
CONTINUOUS
 62
    7
 10
-11.728532001251807
 20
116.2500270181136
 11
-10.822665343401837
 21
118.20168690416358
  0
LINE
  8
_0-0_図面枠
  6
CONTINUOUS
 62
    7
 10
-12.258862087151812
 20
116.55618006006358
 11
-11.728532001251807
 21
116.2500270181136
  0
LINE
  8
_0-0_図面枠
  6
CONTINUOUS
 62
    7
 10
-16.855056164851845
 20
113.90285369661359
 11
-12.258862087151812
 21
116.55618006006358
  0
LINE
  8
_0-0_図面枠
  6
CONTINUOUS
 62
    7
 10
-12.258862087151812
 20
111.24952733321362
 11
-16.855056164851845
 21
113.90285369661359
  0
LINE
  8
_0-0_図面枠
  6
CONTINUOUS
 62
    7
 10
-11.728532001251807
 20
111.5556803751636
 11
-12.258862087151812
 21
111.24952733321362
  0
LINE
  8
_0-0_図面枠
  6
CONTINUOUS
 62
    7
 10
-10.822665343401837
 20
109.6040204890636
 11
-11.728532001251807
 21
111.5556803751636
  0
LINE
  8
_0-0_図面枠
  6
CONTINUOUS
 62
    7
 10
-14.203405735401844
 20
110.12696617946358
 11
-10.822665343401837
 21
109.6040204890636
  0
LINE
  8
_0-0_図面枠
  6
CONTINUOUS
 62
    7
 10
-13.67307564950184
 20
110.43311922141362
 11
-14.203405735401844
 21
110.12696617946358
  0
LINE
  8
_0-0_図面枠
  6
CONTINUOUS
 62
    7
 10
-18.269269727201817
 20
113.08644558481359
 11
-13.67307564950184
 21
110.43311922141362
  0
LINE
  8
_0-0_図面枠
  6
CONTINUOUS
 62
    7
 10
-22.865463804951816
 20
110.43311922141362
 11
-18.269269727201817
 21
113.08644558481359
  0
LINE
  8
_0-0_図面枠
  6
CONTINUOUS
 62
    7
 10
-22.335133719051811
 20
110.12696617946358
 11
-22.865463804951816
 21
110.43311922141362
  0
LINE
  8
_0-0_図面枠
  6
CONTINUOUS
 62
    7
 10
-25.715874111051818
 20
109.6040204890636
 11
-22.335133719051811
 21
110.12696617946358
  0
LINE
  8
_0-0_図面枠
  6
CONTINUOUS
 62
    7
 10
-24.810007453201848
 20
111.5556803751636
 11
-25.715874111051818
 21
109.6040204890636
  0
LINE
  8
_0-0_図面枠
  6
CONTINUOUS
 62
    7
 10
-24.279677367301844
 20
111.24952733321362
 11
-24.810007453201848
 21
111.5556803751636
  0
LINE
  8
_0-0_図面枠
  6
CONTINUOUS
 62
    7
 10
-19.68348328960181
 20
113.90285369661359
 11
-24.279677367301844
 21
111.24952733321362
  0
LINE
  8
_0-0_図面枠
  6
CONTINUOUS
 62
    7
 10
-24.279677367301844
 20
116.55618006006358
 11
-19.68348328960181
 21
113.90285369661359
  0
LINE
  8
_0-0_図面枠
  6
CONTINUOUS
 62
    7
 10
-10.822665343401837
 20
118.20168690416358
 11
-10.822665343401837
 21
118.81409251311362
  0
LINE
  8
_0-0_図面枠
  6
CONTINUOUS
 62
    7
 10
-14.203405735401844
 20
117.67874121381357
 11
-14.203405735401844
 21
118.29114682271359
  0
LINE
  8
_0-0_図面枠
  6
CONTINUOUS
 62
    7
 10
-10.822665343401837
 20
118.81409251311362
 11
-14.203405735401844
 21
118.29114682271359
  0
LINE
  8
_0-0_図面枠
  6
CONTINUOUS
 62
    7
 10
-22.335133719051811
 20
117.67874121381357
 11
-22.335133719051811
 21
118.29114682271359
  0
LINE
  8
_0-0_図面枠
  6
CONTINUOUS
 62
    7
 10
-25.715874111051818
 20
118.20168690416358
 11
-25.715874111051818
 21
118.81409251311362
  0
LINE
  8
_0-0_図面枠
  6
CONTINUOUS
 62
    7
 10
-22.335133719051811
 20
118.29114682271359
 11
-25.715874111051818
 21
118.81409251311362
  0
LINE
  8
_0-0_図面枠
  6
CONTINUOUS
 62
    7
 10
-18.269269727201817
 20
114.71926180846361
 11
-18.269269727201817
 21
115.33166741736358
  0
LINE
  8
_0-0_図面枠
  6
CONTINUOUS
 62
    7
 10
-14.203405735401844
 20
117.67884073886358
 11
-18.269269727201817
 21
115.33166741736358
  0
LINE
  8
_0-0_図面枠
  6
CONTINUOUS
 62
    7
 10
-18.269269727201817
 20
115.33166741736358
 11
-22.335133719051811
 21
117.67884073886358
  0
LINE
  8
_0-0_図面枠
  6
CONTINUOUS
 62
    7
 10
-12.258862087151812
 20
111.24952733321362
 11
-12.258862087151812
 21
111.86193294211358
  0
LINE
  8
_0-0_図面枠
  6
CONTINUOUS
 62
    7
 10
-12.258862087151812
 20
111.86193294211358
 11
-16.324639878401825
 21
114.20905650111359
  0
LINE
  8
_0-0_図面枠
  6
CONTINUOUS
 62
    7
 10
-24.279677367301844
 20
111.24952733321362
 11
-24.279677367301844
 21
111.86193294211358
  0
LINE
  8
_0-0_図面枠
  6
CONTINUOUS
 62
    7
 10
-20.21389957605183
 20
114.20905650111359
 11
-24.279677367301844
 21
111.86193294211358
  0
LINE
  8
_0-0_図面枠
  6
CONTINUOUS
 62
    7
 10
-24.810007453201848
 20
111.5556803751636
 11
-24.810007453201848
 21
112.16808598406357
  0
LINE
  8
_0-0_図面枠
  6
CONTINUOUS
 62
    7
 10
-24.279677367301844
 20
111.86193294211358
 11
-24.810007453201848
 21
112.16808598406357
  0
LINE
  8
_0-0_図面枠
  6
CONTINUOUS
 62
    7
 10
-25.715874111051818
 20
109.6040204890636
 11
-25.715874111051818
 21
110.21642609801359
  0
LINE
  8
_0-0_図面枠
  6
CONTINUOUS
 62
    7
 10
-24.810007453201848
 20
112.16808598406357
 11
-25.715874111051818
 21
110.21642609801359
  0
LINE
  8
_0-0_図面枠
  6
CONTINUOUS
 62
    7
 10
-11.728532001251807
 20
111.5556803751636
 11
-11.728532001251807
 21
112.16808598406357
  0
LINE
  8
_0-0_図面枠
  6
CONTINUOUS
 62
    7
 10
-11.728532001251807
 20
112.16808598406357
 11
-12.258862087151812
 21
111.86193294211358
  0
LINE
  8
_0-0_図面枠
  6
CONTINUOUS
 62
    7
 10
-10.822665343401837
 20
109.6040204890636
 11
-10.822665343401837
 21
110.21642609801359
  0
LINE
  8
_0-0_図面枠
  6
CONTINUOUS
 62
    7
 10
-10.822665343401837
 20
110.21642609801359
 11
-11.728532001251807
 21
112.16808598406357
  0
LINE
  8
_0-0_図面枠
  6
CONTINUOUS
 62
    7
 10
-22.335133719051811
 20
110.12696617946358
 11
-22.335133719051811
 21
110.73927226331358
  0
LINE
  8
_0-0_図面枠
  6
CONTINUOUS
 62
    7
 10
-14.203405735401844
 20
110.12696617946358
 11
-14.203405735401844
 21
110.73927226331358
  0
LINE
  8
ADD_LINE
  6
DOT
 62
    4
 10
-25.715874111051818
 20
118.20168690416358
 11
-10.823068770943877
 21
109.60332173206359
  0
LINE
  8
ADD_LINE
  6
DOT
 62
    4
 10
-10.822665343401837
 20
118.20168690416358
 11
-25.715470683509778
 21
109.60332173206359
  0
ENDBLK
  0
BLOCK
  2
-005-_5_
 70
   64
 10
0
 20
0
 30
0
  0
LINE
  8
_0-0_図面枠
  6
CONTINUOUS
 62
    7
 10
175.96987275189582
 20
116.61597708416326
 11
176.50020283779583
 21
116.92213012611325
  0
LINE
  8
_0-0_図面枠
  6
CONTINUOUS
 62
    7
 10
175.06400609404585
 20
118.56763697021324
 11
175.96987275189582
 21
116.61597708416326
  0
LINE
  8
_0-0_図面枠
  6
CONTINUOUS
 62
    7
 10
178.44474648604586
 20
118.04469127986323
 11
175.06400609404585
 21
118.56763697021324
  0
LINE
  8
_0-0_図面枠
  6
CONTINUOUS
 62
    7
 10
177.91441640014585
 20
117.73853823791325
 11
178.44474648604586
 21
118.04469127986323
  0
LINE
  8
_0-0_図面枠
  6
CONTINUOUS
 62
    7
 10
182.51061047789585
 20
115.08521187451328
 11
177.91441640014585
 21
117.73853823791325
  0
LINE
  8
_0-0_図面枠
  6
CONTINUOUS
 62
    7
 10
187.10680455559583
 20
117.73853823791325
 11
182.51061047789585
 21
115.08521187451328
  0
LINE
  8
_0-0_図面枠
  6
CONTINUOUS
 62
    7
 10
186.57647446969582
 20
118.04469127986323
 11
187.10680455559583
 21
117.73853823791325
  0
LINE
  8
_0-0_図面枠
  6
CONTINUOUS
 62
    7
 10
189.95721486169583
 20
118.56763697021324
 11
186.57647446969582
 21
118.04469127986323
  0
LINE
  8
_0-0_図面枠
  6
CONTINUOUS
 62
    7
 10
189.05134820384586
 20
116.61597708416326
 11
189.95721486169583
 21
118.56763697021324
  0
LINE
  8
_0-0_図面枠
  6
CONTINUOUS
 62
    7
 10
188.52101811794586
 20
116.92213012611325
 11
189.05134820384586
 21
116.61597708416326
  0
LINE
  8
_0-0_図面枠
  6
CONTINUOUS
 62
    7
 10
183.92482404024582
 20
114.26880376266325
 11
188.52101811794586
 21
116.92213012611325
  0
LINE
  8
_0-0_図面枠
  6
CONTINUOUS
 62
    7
 10
188.52101811794586
 20
111.61547739926328
 11
183.92482404024582
 21
114.26880376266325
  0
LINE
  8
_0-0_図面枠
  6
CONTINUOUS
 62
    7
 10
189.05134820384586
 20
111.92163044121327
 11
188.52101811794586
 21
111.61547739926328
  0
LINE
  8
_0-0_図面枠
  6
CONTINUOUS
 62
    7
 10
189.95721486169583
 20
109.96997055511326
 11
189.05134820384586
 21
111.92163044121327
  0
LINE
  8
_0-0_図面枠
  6
CONTINUOUS
 62
    7
 10
186.57647446969582
 20
110.49291624551324
 11
189.95721486169583
 21
109.96997055511326
  0
LINE
  8
_0-0_図面枠
  6
CONTINUOUS
 62
    7
 10
187.10680455559583
 20
110.79906928746328
 11
186.57647446969582
 21
110.49291624551324
  0
LINE
  8
_0-0_図面枠
  6
CONTINUOUS
 62
    7
 10
182.51061047789585
 20
113.45239565086325
 11
187.10680455559583
 21
110.79906928746328
  0
LINE
  8
_0-0_図面枠
  6
CONTINUOUS
 62
    7
 10
177.91441640014585
 20
110.79906928746328
 11
182.51061047789585
 21
113.45239565086325
  0
LINE
  8
_0-0_図面枠
  6
CONTINUOUS
 62
    7
 10
178.44474648604586
 20
110.49291624551324
 11
177.91441640014585
 21
110.79906928746328
  0
LINE
  8
_0-0_図面枠
  6
CONTINUOUS
 62
    7
 10
175.06400609404585
 20
109.96997055511326
 11
178.44474648604586
 21
110.49291624551324
  0
LINE
  8
_0-0_図面枠
  6
CONTINUOUS
 62
    7
 10
175.96987275189582
 20
111.92163044121327
 11
175.06400609404585
 21
109.96997055511326
  0
LINE
  8
_0-0_図面枠
  6
CONTINUOUS
 62
    7
 10
176.50020283779583
 20
111.61547739926328
 11
175.96987275189582
 21
111.92163044121327
  0
LINE
  8
_0-0_図面枠
  6
CONTINUOUS
 62
    7
 10
181.09639691549586
 20
114.26880376266325
 11
176.50020283779583
 21
111.61547739926328
  0
LINE
  8
_0-0_図面枠
  6
CONTINUOUS
 62
    7
 10
176.50020283779583
 20
116.92213012611325
 11
181.09639691549586
 21
114.26880376266325
  0
LINE
  8
_0-0_図面枠
  6
CONTINUOUS
 62
    7
 10
189.95721486169583
 20
118.56763697021324
 11
189.95721486169583
 21
119.18004257916328
  0
LINE
  8
_0-0_図面枠
  6
CONTINUOUS
 62
    7
 10
186.57647446969582
 20
118.04469127986323
 11
186.57647446969582
 21
118.65709688876325
  0
LINE
  8
_0-0_図面枠
  6
CONTINUOUS
 62
    7
 10
189.95721486169583
 20
119.18004257916328
 11
186.57647446969582
 21
118.65709688876325
  0
LINE
  8
_0-0_図面枠
  6
CONTINUOUS
 62
    7
 10
178.44474648604586
 20
118.04469127986323
 11
178.44474648604586
 21
118.65709688876325
  0
LINE
  8
_0-0_図面枠
  6
CONTINUOUS
 62
    7
 10
175.06400609404585
 20
118.56763697021324
 11
175.06400609404585
 21
119.18004257916328
  0
LINE
  8
_0-0_図面枠
  6
CONTINUOUS
 62
    7
 10
178.44474648604586
 20
118.65709688876325
 11
175.06400609404585
 21
119.18004257916328
  0
LINE
  8
_0-0_図面枠
  6
CONTINUOUS
 62
    7
 10
182.51061047789585
 20
115.08521187451328
 11
182.51061047789585
 21
115.69761748341324
  0
LINE
  8
_0-0_図面枠
  6
CONTINUOUS
 62
    7
 10
186.57647446969582
 20
118.04479080491325
 11
182.51061047789585
 21
115.69761748341324
  0
LINE
  8
_0-0_図面枠
  6
CONTINUOUS
 62
    7
 10
182.51061047789585
 20
115.69761748341324
 11
178.44474648604586
 21
118.04479080491325
  0
LINE
  8
_0-0_図面枠
  6
CONTINUOUS
 62
    7
 10
188.52101811794586
 20
111.61547739926328
 11
188.52101811794586
 21
112.22788300816325
  0
LINE
  8
_0-0_図面枠
  6
CONTINUOUS
 62
    7
 10
188.52101811794586
 20
112.22788300816325
 11
184.45524032669584
 21
114.57500656716326
  0
LINE
  8
_0-0_図面枠
  6
CONTINUOUS
 62
    7
 10
176.50020283779583
 20
111.61547739926328
 11
176.50020283779583
 21
112.22788300816325
  0
LINE
  8
_0-0_図面枠
  6
CONTINUOUS
 62
    7
 10
180.56598062904584
 20
114.57500656716326
 11
176.50020283779583
 21
112.22788300816325
  0
LINE
  8
_0-0_図面枠
  6
CONTINUOUS
 62
    7
 10
175.96987275189582
 20
111.92163044121327
 11
175.96987275189582
 21
112.53403605011323
  0
LINE
  8
_0-0_図面枠
  6
CONTINUOUS
 62
    7
 10
176.50020283779583
 20
112.22788300816325
 11
175.96987275189582
 21
112.53403605011323
  0
LINE
  8
_0-0_図面枠
  6
CONTINUOUS
 62
    7
 10
175.06400609404585
 20
109.96997055511326
 11
175.06400609404585
 21
110.58237616406325
  0
LINE
  8
_0-0_図面枠
  6
CONTINUOUS
 62
    7
 10
175.96987275189582
 20
112.53403605011323
 11
175.06400609404585
 21
110.58237616406325
  0
LINE
  8
_0-0_図面枠
  6
CONTINUOUS
 62
    7
 10
189.05134820384586
 20
111.92163044121327
 11
189.05134820384586
 21
112.53403605011323
  0
LINE
  8
_0-0_図面枠
  6
CONTINUOUS
 62
    7
 10
189.05134820384586
 20
112.53403605011323
 11
188.52101811794586
 21
112.22788300816325
  0
LINE
  8
_0-0_図面枠
  6
CONTINUOUS
 62
    7
 10
189.95721486169583
 20
109.96997055511326
 11
189.95721486169583
 21
110.58237616406325
  0
LINE
  8
_0-0_図面枠
  6
CONTINUOUS
 62
    7
 10
189.95721486169583
 20
110.58237616406325
 11
189.05134820384586
 21
112.53403605011323
  0
LINE
  8
_0-0_図面枠
  6
CONTINUOUS
 62
    7
 10
178.44474648604586
 20
110.49291624551324
 11
178.44474648604586
 21
111.10522232936324
  0
LINE
  8
_0-0_図面枠
  6
CONTINUOUS
 62
    7
 10
186.57647446969582
 20
110.49291624551324
 11
186.57647446969582
 21
111.10522232936324
  0
LINE
  8
ADD_LINE
  6
DOT
 62
    4
 10
175.06400609404585
 20
118.56763697021324
 11
189.95681143415379
 21
109.96927179811325
  0
LINE
  8
ADD_LINE
  6
DOT
 62
    4
 10
189.95721486169583
 20
118.56763697021324
 11
175.06440952158789
 21
109.96927179811325
  0
ENDBLK
  0
BLOCK
  2
-006-$QLE
 70
   64
 10
0
 20
0
 30
0
  0
LINE
  8
_1-f_寸法
  6
CONTINUOUS
 62
    4
 10
-63.279502333333255
 20
85.500000666666693
 11
-60.492511338632141
 21
90.327210669725929
  0
LINE
  8
_1-f_寸法
  6
CONTINUOUS
 62
    4
 10
-60.492511338632141
 20
90.327210669725929
 11
-40.97251133863216
 21
90.327210669725929
  0
POINT
  8
_1-f_寸法
 62
    4
 10
-63.279502333333255
 20
85.500000666666693
  0
TEXT
  8
_1-f_寸法
 62
    4
 10
-60.172511338632148
 20
90.327210669725929
 40
3.2000000000000002
 41
1
 50
0
  1
野縁受(別途)
  0
ENDBLK
  0
BLOCK
  2
-007-$QLE_1_
 70
   64
 10
0
 20
0
 30
0
  0
LINE
  8
_1-f_寸法
  6
CONTINUOUS
 62
    4
 10
-65.250000333333276
 20
69.916667166666684
 11
-61.015727839203407
 21
77.250642259591018
  0
LINE
  8
_1-f_寸法
  6
CONTINUOUS
 62
    4
 10
-61.015727839203407
 20
77.250642259591018
 11
-44.695727839203414
 21
77.250642259591018
  0
POINT
  8
_1-f_寸法
 62
    4
 10
-65.250000333333276
 20
69.916667166666684
  0
TEXT
  8
_1-f_寸法
 62
    4
 10
-60.695727839203414
 20
77.250642259591018
 40
3.2000000000000002
 41
1
 50
0
  1
野縁(別途)
  0
ENDBLK
  0
BLOCK
  2
-008-$QLE_2_
 70
   64
 10
0
 20
0
 30
0
  0
LINE
  8
_1-f_寸法
  6
CONTINUOUS
 62
    4
 10
-56.666667166666571
 20
66.500000999999941
 11
-54.806624929696738
 21
69.721688658655808
  0
LINE
  8
_1-f_寸法
  6
CONTINUOUS
 62
    4
 10
-54.806624929696738
 20
69.721688658655808
 11
-38.486624929696745
 21
69.721688658655808
  0
POINT
  8
_1-f_寸法
 62
    4
 10
-56.666667166666571
 20
66.500000999999941
  0
TEXT
  8
_1-f_寸法
 62
    4
 10
-54.486624929696745
 20
69.721688658655808
 40
3.2000000000000002
 41
1
 50
0
  1
天井仕上面
  0
ENDBLK
  0
BLOCK
  2
-009-_6_
 70
   64
 10
0
 20
0
 30
0
  0
LINE
  8
_1-8_小物
  6
CONTINUOUS
 62
    4
 10
-126.03333288333326
 20
62.633333333333269
 11
-120.63333288333303
 21
62.633333333333269
  0
LINE
  8
_1-8_小物
  6
CONTINUOUS
 62
    4
 10
-126.03333288333326
 20
62.18333333333328
 11
-120.63333288333303
 21
62.18333333333328
  0
LINE
  8
_1-8_小物
  6
CONTINUOUS
 62
    4
 10
-126.03333288333326
 20
62.633333333333269
 11
-126.03333288333326
 21
62.18333333333328
  0
LINE
  8
_1-8_小物
  6
CONTINUOUS
 62
    4
 10
-120.63333288333303
 20
62.633333333333269
 11
-120.63333288333303
 21
62.18333333333328
  0
LINE
  8
_1-8_小物
  6
DASHED1
 62
    4
 10
-124.15833288333326
 20
62.633333333333269
 11
-124.15833288333326
 21
62.18333333333328
  0
LINE
  8
_1-8_小物
  6
DASHED1
 62
    4
 10
-122.50833288333303
 20
62.633333333333269
 11
-122.50833288333303
 21
62.18333333333328
  0
LINE
  8
_1-8_小物
  6
CONTINUOUS
 62
    4
 10
-122.97333333333376
 20
64.792202033333353
 11
-122.97333333333376
 21
65.025009533333218
  0
LINE
  8
_1-8_小物
  6
CONTINUOUS
 62
    4
 10
-123.69333333333337
 20
64.813343033333126
 11
-123.69333333333337
 21
64.580535533333489
  0
LINE
  8
_1-8_小物
  6
CONTINUOUS
 62
    4
 10
-122.97333333333376
 20
65.025009533333218
 11
-123.69333333333337
 21
64.813343033333126
  0
LINE
  8
_1-8_小物
  6
CONTINUOUS
 62
    4
 10
-122.80833273333377
 20
65.120272733333479
 11
-123.85833303333332
 21
64.908605333333355
  0
LINE
  8
_1-8_小物
  6
CONTINUOUS
 62
    4
 10
-122.80833273333377
 20
65.120272733333479
 11
-122.97333333333376
 21
65.025009533333218
  0
LINE
  8
_1-8_小物
  6
CONTINUOUS
 62
    4
 10
-123.85833303333332
 20
64.908605333333355
 11
-123.69333333333337
 21
65.003868533333446
  0
LINE
  8
_1-8_小物
  6
CONTINUOUS
 62
    4
 10
-123.69333333333337
 20
64.813343033333126
 11
-123.85833303333332
 21
64.908605333333355
  0
LINE
  8
_1-8_小物
  6
CONTINUOUS
 62
    4
 10
-122.97333333333376
 20
64.368868133333194
 11
-122.97333333333376
 21
64.601676533333261
  0
LINE
  8
_1-8_小物
  6
CONTINUOUS
 62
    4
 10
-123.69333333333337
 20
64.390009133333365
 11
-123.69333333333337
 21
64.157201633333329
  0
LINE
  8
_1-8_小物
  6
CONTINUOUS
 62
    4
 10
-122.97333333333376
 20
64.792202033333353
 11
-123.69333333333337
 21
64.580535533333489
  0
LINE
  8
_1-8_小物
  6
CONTINUOUS
 62
    4
 10
-122.97333333333376
 20
64.601676533333261
 11
-123.69333333333337
 21
64.390009133333365
  0
LINE
  8
_1-8_小物
  6
CONTINUOUS
 62
    4
 10
-122.80833273333377
 20
64.69693883333332
 11
-123.85833303333332
 21
64.485272333333228
  0
LINE
  8
_1-8_小物
  6
CONTINUOUS
 62
    4
 10
-122.80833273333377
 20
64.69693883333332
 11
-122.97333333333376
 21
64.792202033333353
  0
LINE
  8
_1-8_小物
  6
CONTINUOUS
 62
    4
 10
-122.80833273333377
 20
64.69693883333332
 11
-122.97333333333376
 21
64.601676533333261
  0
LINE
  8
_1-8_小物
  6
CONTINUOUS
 62
    4
 10
-123.85833303333332
 20
64.485272333333228
 11
-123.69333333333337
 21
64.580535533333489
  0
LINE
  8
_1-8_小物
  6
CONTINUOUS
 62
    4
 10
-123.69333333333337
 20
64.390009133333365
 11
-123.85833303333332
 21
64.485272333333228
  0
LINE
  8
_1-8_小物
  6
CONTINUOUS
 62
    4
 10
-122.97333333333376
 20
63.945535133333408
 11
-122.97333333333376
 21
64.178342633333443
  0
LINE
  8
_1-8_小物
  6
CONTINUOUS
 62
    4
 10
-123.69333333333337
 20
63.966676133333351
 11
-123.69333333333337
 21
63.733868633333316
  0
LINE
  8
_1-8_小物
  6
CONTINUOUS
 62
    4
 10
-122.97333333333376
 20
64.368868133333194
 11
-123.69333333333337
 21
64.157201633333329
  0
LINE
  8
_1-8_小物
  6
CONTINUOUS
 62
    4
 10
-122.97333333333376
 20
64.178342633333443
 11
-123.69333333333337
 21
63.966676133333351
  0
LINE
  8
_1-8_小物
  6
CONTINUOUS
 62
    4
 10
-122.80833273333377
 20
64.273605833333306
 11
-123.85833303333332
 21
64.061939333333214
  0
LINE
  8
_1-8_小物
  6
CONTINUOUS
 62
    4
 10
-122.80833273333377
 20
64.273605833333306
 11
-122.97333333333376
 21
64.368868133333194
  0
LINE
  8
_1-8_小物
  6
CONTINUOUS
 62
    4
 10
-122.80833273333377
 20
64.273605833333306
 11
-122.97333333333376
 21
64.178342633333443
  0
LINE
  8
_1-8_小物
  6
CONTINUOUS
 62
    4
 10
-123.85833303333332
 20
64.061939333333214
 11
-123.69333333333337
 21
64.157201633333329
  0
LINE
  8
_1-8_小物
  6
CONTINUOUS
 62
    4
 10
-123.69333333333337
 20
63.966676133333351
 11
-123.85833303333332
 21
64.061939333333214
  0
LINE
  8
_1-8_小物
  6
CONTINUOUS
 62
    4
 10
-122.97333333333376
 20
63.52220213333328
 11
-122.97333333333376
 21
63.755009633333316
  0
LINE
  8
_1-8_小物
  6
CONTINUOUS
 62
    4
 10
-123.69333333333337
 20
63.543343133333224
 11
-123.69333333333337
 21
63.310534733333384
  0
LINE
  8
_1-8_小物
  6
CONTINUOUS
 62
    4
 10
-122.97333333333376
 20
63.945535133333408
 11
-123.69333333333337
 21
63.733868633333316
  0
LINE
  8
_1-8_小物
  6
CONTINUOUS
 62
    4
 10
-122.97333333333376
 20
63.755009633333316
 11
-123.69333333333337
 21
63.543343133333224
  0
LINE
  8
_1-8_小物
  6
CONTINUOUS
 62
    4
 10
-122.80833273333377
 20
63.850271933333318
 11
-123.85833303333332
 21
63.638605433333453
  0
LINE
  8
_1-8_小物
  6
CONTINUOUS
 62
    4
 10
-122.80833273333377
 20
63.850271933333318
 11
-122.97333333333376
 21
63.945535133333408
  0
LINE
  8
_1-8_小物
  6
CONTINUOUS
 62
    4
 10
-122.80833273333377
 20
63.850271933333318
 11
-122.97333333333376
 21
63.755009633333316
  0
LINE
  8
_1-8_小物
  6
CONTINUOUS
 62
    4
 10
-123.85833303333332
 20
63.638605433333453
 11
-123.69333333333337
 21
63.733868633333316
  0
LINE
  8
_1-8_小物
  6
CONTINUOUS
 62
    4
 10
-123.69333333333337
 20
63.543343133333224
 11
-123.85833303333332
 21
63.638605433333453
  0
LINE
  8
_1-8_小物
  6
CONTINUOUS
 62
    4
 10
-122.97333333333376
 20
63.098868233333292
 11
-122.97333333333376
 21
63.331676633333359
  0
LINE
  8
_1-8_小物
  6
CONTINUOUS
 62
    4
 10
-123.69333333333337
 20
63.120009233333178
 11
-123.69333333333337
 21
62.887201733333427
  0
LINE
  8
_1-8_小物
  6
CONTINUOUS
 62
    4
 10
-122.97333333333376
 20
63.52220213333328
 11
-123.69333333333337
 21
63.310534733333384
  0
LINE
  8
_1-8_小物
  6
CONTINUOUS
 62
    4
 10
-122.97333333333376
 20
63.331676633333359
 11
-123.69333333333337
 21
63.120009233333178
  0
LINE
  8
_1-8_小物
  6
CONTINUOUS
 62
    4
 10
-122.80833273333377
 20
63.426938933333417
 11
-123.85833303333332
 21
63.215272433333325
  0
LINE
  8
_1-8_小物
  6
CONTINUOUS
 62
    4
 10
-122.80833273333377
 20
63.426938933333417
 11
-122.97333333333376
 21
63.52220213333328
  0
LINE
  8
_1-8_小物
  6
CONTINUOUS
 62
    4
 10
-122.80833273333377
 20
63.426938933333417
 11
-122.97333333333376
 21
63.331676633333359
  0
LINE
  8
_1-8_小物
  6
CONTINUOUS
 62
    4
 10
-123.85833303333332
 20
63.215272433333325
 11
-123.69333333333337
 21
63.310534733333384
  0
LINE
  8
_1-8_小物
  6
CONTINUOUS
 62
    4
 10
-123.69333333333337
 20
63.120009233333178
 11
-123.85833303333332
 21
63.215272433333325
  0
LINE
  8
_1-8_小物
  6
CONTINUOUS
 62
    4
 10
-122.97333333333376
 20
62.675535233333505
 11
-123.69333333333337
 21
62.463868733333413
  0
LINE
  8
_1-8_小物
  6
CONTINUOUS
 62
    4
 10
-122.97333333333376
 20
62.485009733333186
 11
-123.69333333333337
 21
62.273343233333264
  0
LINE
  8
_1-8_小物
  6
CONTINUOUS
 62
    4
 10
-122.80833273333377
 20
62.580272033333245
 11
-123.85833303333332
 21
62.368605533333152
  0
LINE
  8
_1-8_小物
  6
CONTINUOUS
 62
    4
 10
-122.80833273333377
 20
62.580272033333245
 11
-122.97333333333376
 21
62.675535233333505
  0
LINE
  8
_1-8_小物
  6
CONTINUOUS
 62
    4
 10
-122.80833273333377
 20
62.580272033333245
 11
-122.97333333333376
 21
62.485009733333186
  0
LINE
  8
_1-8_小物
  6
CONTINUOUS
 62
    4
 10
-123.85833303333332
 20
62.368605533333152
 11
-123.69333333333337
 21
62.463868733333413
  0
LINE
  8
_1-8_小物
  6
CONTINUOUS
 62
    4
 10
-123.69333333333337
 20
62.273343233333264
 11
-123.85833303333332
 21
62.368605533333152
  0
LINE
  8
_1-8_小物
  6
CONTINUOUS
 62
    4
 10
-122.97333333333376
 20
62.18333333333328
 11
-122.97333333333376
 21
62.485009733333186
  0
LINE
  8
_1-8_小物
  6
CONTINUOUS
 62
    4
 10
-122.97333333333376
 20
62.675535233333505
 11
-122.97333333333376
 21
62.908342733333313
  0
LINE
  8
_1-8_小物
  6
CONTINUOUS
 62
    4
 10
-123.69333333333337
 20
62.696676233333278
 11
-123.69333333333337
 21
62.463868733333413
  0
LINE
  8
_1-8_小物
  6
CONTINUOUS
 62
    4
 10
-122.97333333333376
 20
63.098868233333292
 11
-123.69333333333337
 21
62.887201733333427
  0
LINE
  8
_1-8_小物
  6
CONTINUOUS
 62
    4
 10
-122.97333333333376
 20
62.908342733333313
 11
-123.69333333333337
 21
62.696676233333278
  0
LINE
  8
_1-8_小物
  6
CONTINUOUS
 62
    4
 10
-122.80833273333377
 20
63.003605933333404
 11
-123.85833303333332
 21
62.791939433333312
  0
LINE
  8
_1-8_小物
  6
CONTINUOUS
 62
    4
 10
-122.80833273333377
 20
63.003605933333404
 11
-122.97333333333376
 21
63.098868233333292
  0
LINE
  8
_1-8_小物
  6
CONTINUOUS
 62
    4
 10
-122.80833273333377
 20
63.003605933333404
 11
-122.97333333333376
 21
62.908342733333313
  0
LINE
  8
_1-8_小物
  6
CONTINUOUS
 62
    4
 10
-123.85833303333332
 20
62.791939433333312
 11
-123.69333333333337
 21
62.887201733333427
  0
LINE
  8
_1-8_小物
  6
CONTINUOUS
 62
    4
 10
-123.69333333333337
 20
62.696676233333278
 11
-123.85833303333332
 21
62.791939433333312
  0
ARC
  8
_1-8_小物
  6
CONTINUOUS
 62
    4
 10
-122.58333273333322
 20
61.904294633333222
 40
0.2999996999999999
 50
299.99999999998971
 51
0
  0
ARC
  8
_1-8_小物
  6
CONTINUOUS
 62
    4
 10
-124.08333303333308
 20
61.904294633333222
 40
0.2999996999999999
 50
180
 51
239.99999999995677
  0
ARC
  8
_1-8_小物
  6
CONTINUOUS
 62
    4
 10
-123.33333333333343
 20
63.203333033333251
 40
1.8
 50
239.99999999999184
 51
299.99999999999886
  0
LINE
  8
_1-8_小物
  6
CONTINUOUS
 62
    4
 10
-122.28333303333335
 20
62.18333333333328
 11
-122.28333303333335
 21
61.904294633333222
  0
LINE
  8
_1-8_小物
  6
CONTINUOUS
 62
    4
 10
-124.38333273333325
 20
62.18333333333328
 11
-122.28333303333335
 21
62.18333333333328
  0
LINE
  8
_1-8_小物
  6
CONTINUOUS
 62
    4
 10
-124.38333273333325
 20
62.18333333333328
 11
-124.38333273333325
 21
61.904294633333222
  0
LINE
  8
_1-8_小物
  6
CONTINUOUS
 62
    4
 10
-123.69333333333337
 20
62.273343233333264
 11
-123.69333333333337
 21
62.18333333333328
  0
LINE
  8
_1-8_小物
  6
CONTINUOUS
 62
    4
 10
-122.97333333333376
 20
67.755534833333172
 11
-122.97333333333376
 21
67.988343233333239
  0
LINE
  8
_1-8_小物
  6
CONTINUOUS
 62
    4
 10
-123.69333333333337
 20
67.776675833333286
 11
-123.69333333333337
 21
67.543868333333251
  0
LINE
  8
_1-8_小物
  6
CONTINUOUS
 62
    4
 10
-122.97333333333376
 20
68.178868733333331
 11
-123.69333333333337
 21
67.967202233333296
  0
LINE
  8
_1-8_小物
  6
CONTINUOUS
 62
    4
 10
-122.97333333333376
 20
67.988343233333239
 11
-123.69333333333337
 21
67.776675833333286
  0
LINE
  8
_1-8_小物
  6
CONTINUOUS
 62
    4
 10
-122.80833273333377
 20
68.083605533333468
 11
-123.85833303333332
 21
67.871939033333433
  0
LINE
  8
_1-8_小物
  6
CONTINUOUS
 62
    4
 10
-122.80833273333377
 20
68.083605533333468
 11
-122.97333333333376
 21
68.178868733333331
  0
LINE
  8
_1-8_小物
  6
CONTINUOUS
 62
    4
 10
-122.80833273333377
 20
68.083605533333468
 11
-122.97333333333376
 21
67.988343233333239
  0
LINE
  8
_1-8_小物
  6
CONTINUOUS
 62
    4
 10
-123.85833303333332
 20
67.871939033333433
 11
-123.69333333333337
 21
67.967202233333296
  0
LINE
  8
_1-8_小物
  6
CONTINUOUS
 62
    4
 10
-123.69333333333337
 20
67.776675833333286
 11
-123.85833303333332
 21
67.871939033333433
  0
LINE
  8
_1-8_小物
  6
CONTINUOUS
 62
    4
 10
-122.97333333333376
 20
67.332201833333158
 11
-122.97333333333376
 21
67.565009333333194
  0
LINE
  8
_1-8_小物
  6
CONTINUOUS
 62
    4
 10
-123.69333333333337
 20
67.353342833333329
 11
-123.69333333333337
 21
67.120535333333294
  0
LINE
  8
_1-8_小物
  6
CONTINUOUS
 62
    4
 10
-122.97333333333376
 20
67.755534833333172
 11
-123.69333333333337
 21
67.543868333333251
  0
LINE
  8
_1-8_小物
  6
CONTINUOUS
 62
    4
 10
-122.97333333333376
 20
67.565009333333194
 11
-123.69333333333337
 21
67.353342833333329
  0
LINE
  8
_1-8_小物
  6
CONTINUOUS
 62
    4
 10
-122.80833273333377
 20
67.660272533333341
 11
-123.85833303333332
 21
67.448606033333419
  0
LINE
  8
_1-8_小物
  6
CONTINUOUS
 62
    4
 10
-122.80833273333377
 20
67.660272533333341
 11
-122.97333333333376
 21
67.755534833333172
  0
LINE
  8
_1-8_小物
  6
CONTINUOUS
 62
    4
 10
-122.80833273333377
 20
67.660272533333341
 11
-122.97333333333376
 21
67.565009333333194
  0
LINE
  8
_1-8_小物
  6
CONTINUOUS
 62
    4
 10
-123.85833303333332
 20
67.448606033333419
 11
-123.69333333333337
 21
67.543868333333251
  0
LINE
  8
_1-8_小物
  6
CONTINUOUS
 62
    4
 10
-123.69333333333337
 20
67.353342833333329
 11
-123.85833303333332
 21
67.448606033333419
  0
LINE
  8
_1-8_小物
  6
CONTINUOUS
 62
    4
 10
-122.97333333333376
 20
66.908868833333258
 11
-122.97333333333376
 21
67.141676333333294
  0
LINE
  8
_1-8_小物
  6
CONTINUOUS
 62
    4
 10
-123.69333333333337
 20
66.930009833333202
 11
-123.69333333333337
 21
66.697201433333362
  0
LINE
  8
_1-8_小物
  6
CONTINUOUS
 62
    4
 10
-122.97333333333376
 20
67.332201833333158
 11
-123.69333333333337
 21
67.120535333333294
  0
LINE
  8
_1-8_小物
  6
CONTINUOUS
 62
    4
 10
-122.97333333333376
 20
67.141676333333294
 11
-123.69333333333337
 21
66.930009833333202
  0
LINE
  8
_1-8_小物
  6
CONTINUOUS
 62
    4
 10
-122.80833273333377
 20
67.236938633333295
 11
-123.85833303333332
 21
67.02527213333326
  0
LINE
  8
_1-8_小物
  6
CONTINUOUS
 62
    4
 10
-122.80833273333377
 20
67.236938633333295
 11
-122.97333333333376
 21
67.332201833333158
  0
LINE
  8
_1-8_小物
  6
CONTINUOUS
 62
    4
 10
-122.80833273333377
 20
67.236938633333295
 11
-122.97333333333376
 21
67.141676333333294
  0
LINE
  8
_1-8_小物
  6
CONTINUOUS
 62
    4
 10
-123.85833303333332
 20
67.02527213333326
 11
-123.69333333333337
 21
67.120535333333294
  0
LINE
  8
_1-8_小物
  6
CONTINUOUS
 62
    4
 10
-123.69333333333337
 20
66.930009833333202
 11
-123.85833303333332
 21
67.02527213333326
  0
LINE
  8
_1-8_小物
  6
CONTINUOUS
 62
    4
 10
-122.97333333333376
 20
66.48553493333327
 11
-122.97333333333376
 21
66.71834333333328
  0
LINE
  8
_1-8_小物
  6
CONTINUOUS
 62
    4
 10
-123.69333333333337
 20
66.506675933333383
 11
-123.69333333333337
 21
66.273868433333348
  0
LINE
  8
_1-8_小物
  6
CONTINUOUS
 62
    4
 10
-122.97333333333376
 20
66.908868833333258
 11
-123.69333333333337
 21
66.697201433333362
  0
LINE
  8
_1-8_小物
  6
CONTINUOUS
 62
    4
 10
-122.97333333333376
 20
66.71834333333328
 11
-123.69333333333337
 21
66.506675933333383
  0
LINE
  8
_1-8_小物
  6
CONTINUOUS
 62
    4
 10
-122.80833273333377
 20
66.813605633333168
 11
-123.85833303333332
 21
66.601939133333303
  0
LINE
  8
_1-8_小物
  6
CONTINUOUS
 62
    4
 10
-122.80833273333377
 20
66.813605633333168
 11
-122.97333333333376
 21
66.908868833333258
  0
LINE
  8
_1-8_小物
  6
CONTINUOUS
 62
    4
 10
-122.80833273333377
 20
66.813605633333168
 11
-122.97333333333376
 21
66.71834333333328
  0
LINE
  8
_1-8_小物
  6
CONTINUOUS
 62
    4
 10
-123.85833303333332
 20
66.601939133333303
 11
-123.69333333333337
 21
66.697201433333362
  0
LINE
  8
_1-8_小物
  6
CONTINUOUS
 62
    4
 10
-123.69333333333337
 20
66.506675933333383
 11
-123.85833303333332
 21
66.601939133333303
  0
LINE
  8
_1-8_小物
  6
CONTINUOUS
 62
    4
 10
-122.97333333333376
 20
66.226456433333283
 11
-122.97333333333376
 21
66.295009433333291
  0
LINE
  8
_1-8_小物
  6
CONTINUOUS
 62
    4
 10
-123.69333333333337
 20
66.083342933333427
 11
-123.69333333333337
 21
65.850535433333391
  0
LINE
  8
_1-8_小物
  6
CONTINUOUS
 62
    4
 10
-122.97333333333376
 20
66.48553493333327
 11
-123.69333333333337
 21
66.273868433333348
  0
LINE
  8
_1-8_小物
  6
CONTINUOUS
 62
    4
 10
-122.97333333333376
 20
66.295009433333291
 11
-123.44128473333352
 21
66.157440833333453
  0
LINE
  8
_1-8_小物
  6
CONTINUOUS
 62
    4
 10
-123.77822583333339
 20
66.194753933333118
 11
-122.80833273333377
 21
66.390272633333382
  0
LINE
  8
_1-8_小物
  6
CONTINUOUS
 62
    4
 10
-122.80833273333377
 20
66.390272633333382
 11
-122.97333333333376
 21
66.48553493333327
  0
LINE
  8
_1-8_小物
  6
CONTINUOUS
 62
    4
 10
-122.80833273333377
 20
66.390272633333382
 11
-122.97333333333376
 21
66.295009433333291
  0
LINE
  8
_1-8_小物
  6
CONTINUOUS
 62
    4
 10
-123.81127923333337
 20
66.205772633333368
 11
-123.69333333333337
 21
66.273868433333348
  0
LINE
  8
_1-8_小物
  6
CONTINUOUS
 62
    4
 10
-123.69333333333337
 20
66.083342933333427
 11
-123.85833303333332
 21
66.17860613333329
  0
LINE
  8
_1-8_小物
  6
CONTINUOUS
 62
    4
 10
-122.97333333333376
 20
65.638868033333097
 11
-122.97333333333376
 21
65.871676433333391
  0
LINE
  8
_1-8_小物
  6
CONTINUOUS
 62
    4
 10
-123.69333333333337
 20
65.660009933333299
 11
-123.69333333333337
 21
65.427201533333232
  0
LINE
  8
_1-8_小物
  6
CONTINUOUS
 62
    4
 10
-122.97333333333376
 20
66.062201933333256
 11
-123.69333333333337
 21
65.850535433333391
  0
LINE
  8
_1-8_小物
  6
CONTINUOUS
 62
    4
 10
-122.97333333333376
 20
65.871676433333391
 11
-123.69333333333337
 21
65.660009933333299
  0
LINE
  8
_1-8_小物
  6
CONTINUOUS
 62
    4
 10
-122.80833273333377
 20
65.966938733333393
 11
-123.85833303333332
 21
65.755272233333358
  0
LINE
  8
_1-8_小物
  6
CONTINUOUS
 62
    4
 10
-122.80833273333377
 20
65.966938733333393
 11
-122.97333333333376
 21
66.062201933333256
  0
LINE
  8
_1-8_小物
  6
CONTINUOUS
 62
    4
 10
-122.80833273333377
 20
65.966938733333393
 11
-122.97333333333376
 21
65.871676433333391
  0
LINE
  8
_1-8_小物
  6
CONTINUOUS
 62
    4
 10
-123.85833303333332
 20
65.755272233333358
 11
-123.69333333333337
 21
65.850535433333391
  0
LINE
  8
_1-8_小物
  6
CONTINUOUS
 62
    4
 10
-123.69333333333337
 20
65.660009933333299
 11
-123.85833303333332
 21
65.755272233333358
  0
LINE
  8
_1-8_小物
  6
CONTINUOUS
 62
    4
 10
-122.97333333333376
 20
65.215535033333367
 11
-122.97333333333376
 21
65.448342533333346
  0
LINE
  8
_1-8_小物
  6
CONTINUOUS
 62
    4
 10
-123.69333333333337
 20
65.236676033333254
 11
-123.69333333333337
 21
65.003868533333446
  0
LINE
  8
_1-8_小物
  6
CONTINUOUS
 62
    4
 10
-122.97333333333376
 20
65.638868033333097
 11
-123.69333333333337
 21
65.427201533333232
  0
LINE
  8
_1-8_小物
  6
CONTINUOUS
 62
    4
 10
-122.97333333333376
 20
65.448342533333346
 11
-123.69333333333337
 21
65.236676033333254
  0
LINE
  8
_1-8_小物
  6
CONTINUOUS
 62
    4
 10
-122.80833273333377
 20
65.543605733333266
 11
-123.85833303333332
 21
65.331939233333401
  0
LINE
  8
_1-8_小物
  6
CONTINUOUS
 62
    4
 10
-122.80833273333377
 20
65.543605733333266
 11
-122.97333333333376
 21
65.638868033333097
  0
LINE
  8
_1-8_小物
  6
CONTINUOUS
 62
    4
 10
-122.80833273333377
 20
65.543605733333266
 11
-122.97333333333376
 21
65.448342533333346
  0
LINE
  8
_1-8_小物
  6
CONTINUOUS
 62
    4
 10
-123.85833303333332
 20
65.331939233333401
 11
-123.69333333333337
 21
65.427201533333232
  0
LINE
  8
_1-8_小物
  6
CONTINUOUS
 62
    4
 10
-123.69333333333337
 20
65.236676033333254
 11
-123.85833303333332
 21
65.331939233333401
  0
LINE
  8
_1-8_小物
  6
CONTINUOUS
 62
    4
 10
-122.97333333333376
 20
65.215535033333367
 11
-123.69333333333337
 21
65.003868533333446
  0
LINE
  8
_1-8_小物
  6
CONTINUOUS
 62
    4
 10
-122.80833273333377
 20
65.120272733333479
 11
-122.97333333333376
 21
65.215535033333367
  0
LINE
  8
_1-8_小物
  6
CONTINUOUS
 62
    4
 10
-123.07860003333332
 20
69.03725363333325
 11
-123.59781093333305
 21
68.824454033333382
  0
LINE
  8
_1-8_小物
  6
CONTINUOUS
 62
    4
 10
-123.78114543333328
 20
68.718605933333322
 11
-122.8933026333338
 21
68.930272433333243
  0
LINE
  8
_1-8_小物
  6
CONTINUOUS
 62
    4
 10
-123.05830323333379
 20
68.835009233333381
 11
-123.61614573333333
 21
68.623342733333459
  0
LINE
  8
_1-8_小物
  6
CONTINUOUS
 62
    4
 10
-123.63640473333338
 20
68.401120133333336
 11
-123.0361146333334
 21
68.613919733333489
  0
LINE
  8
_1-8_小物
  6
CONTINUOUS
 62
    4
 10
-122.85081813333339
 20
68.50693943333323
 11
-123.81973923333356
 21
68.295272033333333
  0
LINE
  8
_1-8_小物
  6
CONTINUOUS
 62
    4
 10
-123.65473953333304
 20
68.200009733333331
 11
-123.01581783333334
 21
68.411676233333367
  0
LINE
  8
_1-8_小物
  6
CONTINUOUS
 62
    4
 10
-123.65473953333304
 20
68.200009733333331
 11
-123.67548543333345
 21
67.972448333333318
  0
LINE
  8
_1-8_小物
  6
CONTINUOUS
 62
    4
 10
-123.61614573333333
 20
68.623342733333459
 11
-123.63640473333338
 21
68.401120133333336
  0
LINE
  8
_1-8_小物
  6
CONTINUOUS
 62
    4
 10
-123.0361146333334
 20
68.613919733333489
 11
-123.05830323333379
 21
68.835009233333381
  0
LINE
  8
_1-8_小物
  6
CONTINUOUS
 62
    4
 10
-122.99190573333338
 20
68.173408433333236
 11
-123.01581783333334
 21
68.411676233333367
  0
LINE
  8
_1-8_小物
  6
CONTINUOUS
 62
    4
 10
-122.8933026333338
 20
68.930272433333243
 11
-123.07860003333332
 21
69.03725363333325
  0
LINE
  8
_1-8_小物
  6
CONTINUOUS
 62
    4
 10
-123.05830323333379
 20
68.835009233333381
 11
-122.8933026333338
 21
68.930272433333243
  0
LINE
  8
_1-8_小物
  6
CONTINUOUS
 62
    4
 10
-122.85081813333339
 20
68.50693943333323
 11
-123.0361146333334
 21
68.613919733333489
  0
LINE
  8
_1-8_小物
  6
CONTINUOUS
 62
    4
 10
-122.85081813333339
 20
68.50693943333323
 11
-123.01581783333334
 21
68.411676233333367
  0
LINE
  8
_1-8_小物
  6
CONTINUOUS
 62
    4
 10
-123.78114543333328
 20
68.718605933333322
 11
-123.59781093333305
 21
68.824454033333382
  0
LINE
  8
_1-8_小物
  6
CONTINUOUS
 62
    4
 10
-123.61614573333333
 20
68.623342733333459
 11
-123.78114543333328
 21
68.718605933333322
  0
LINE
  8
_1-8_小物
  6
CONTINUOUS
 62
    4
 10
-123.81973923333356
 20
68.295272033333333
 11
-123.63640473333338
 21
68.401120133333336
  0
LINE
  8
_1-8_小物
  6
CONTINUOUS
 62
    4
 10
-123.65473953333304
 20
68.200009733333331
 11
-123.81973923333356
 21
68.295272033333333
  0
LINE
  8
_1-8_小物
  6
CONTINUOUS
 62
    4
 10
-123.33333333333343
 20
69.773342933333311
 11
-123.07860003333332
 21
69.03725363333325
  0
LINE
  8
_1-8_小物
  6
CONTINUOUS
 62
    4
 10
-123.59781093333305
 20
68.824454033333382
 11
-123.33333333333343
 21
69.773342933333311
  0
LINE
  8
_1-8_小物
  6
CONTINUOUS
 62
    4
 10
-122.97333333333376
 20
66.226456433333283
 11
-122.97333333333376
 21
66.062201933333256
  0
LINE
  8
_1-8_小物
  6
CONTINUOUS
 62
    4
 10
-123.81127923333337
 20
66.205772633333368
 11
-123.85833303333332
 21
66.17860613333329
  0
LINE
  8
_1-8_小物
  6
CONTINUOUS
 62
    4
 10
-123.69333333333337
 20
66.083342933333427
 11
-123.44128473333352
 21
66.157440833333453
  0
LINE
  8
_1-8_小物
  6
CONTINUOUS
 62
    4
 10
-123.77822583333339
 20
66.194753933333118
 11
-123.85833303333332
 21
66.17860613333329
  0
LINE
  8
_1-8_小物
  6
CENTER2
 62
    4
 10
-123.33333333333343
 20
70.673342933333174
 11
-123.33333333333343
 21
60.503333033333206
  0
ENDBLK
  0
BLOCK
  2
-010-$QLE_3_
 70
   64
 10
0
 20
0
 30
0
  0
LINE
  8
_1-f_寸法
  6
CONTINUOUS
 62
    4
 10
136.72049766666657
 20
85.500000666666608
 11
139.50748866136774
 21
90.327210669725844
  0
LINE
  8
_1-f_寸法
  6
CONTINUOUS
 62
    4
 10
139.50748866136774
 20
90.327210669725844
 11
159.02748866136773
 21
90.327210669725844
  0
POINT
  8
_1-f_寸法
 62
    4
 10
136.72049766666657
 20
85.500000666666608
  0
TEXT
  8
_1-f_寸法
 62
    4
 10
139.82748866136774
 20
90.327210669725844
 40
3.2000000000000002
 41
1
 50
0
  1
野縁受(別途)
  0
ENDBLK
  0
BLOCK
  2
-011-$QLE_4_
 70
   64
 10
0
 20
0
 30
0
  0
LINE
  8
_1-f_寸法
  6
CONTINUOUS
 62
    4
 10
134.74999966666661
 20
69.916667166666599
 11
138.98427216079642
 21
77.250642259590933
  0
LINE
  8
_1-f_寸法
  6
CONTINUOUS
 62
    4
 10
138.98427216079642
 20
77.250642259590933
 11
155.30427216079636
 21
77.250642259590933
  0
POINT
  8
_1-f_寸法
 62
    4
 10
134.74999966666661
 20
69.916667166666599
  0
TEXT
  8
_1-f_寸法
 62
    4
 10
139.30427216079647
 20
77.250642259590933
 40
3.2000000000000002
 41
1
 50
0
  1
野縁(別途)
  0
ENDBLK
  0
BLOCK
  2
-012-$QLE_5_
 70
   64
 10
0
 20
0
 30
0
  0
LINE
  8
_1-f_寸法
  6
CONTINUOUS
 62
    4
 10
143.33333316666665
 20
66.500000333333276
 11
145.19337540363654
 21
69.721687991989143
  0
LINE
  8
_1-f_寸法
  6
CONTINUOUS
 62
    4
 10
145.19337540363654
 20
69.721687991989143
 11
161.51337540363653
 21
69.721687991989143
  0
POINT
  8
_1-f_寸法
 62
    4
 10
143.33333316666665
 20
66.500000333333276
  0
TEXT
  8
_1-f_寸法
 62
    4
 10
145.51337540363653
 20
69.721687991989143
 40
3.2000000000000002
 41
1
 50
0
  1
天井仕上面
  0
ENDBLK
  0
BLOCK
  2
-013-_7_
 70
   64
 10
0
 20
0
 30
0
  0
LINE
  8
_1-8_小物
  6
CONTINUOUS
 62
    4
 10
115.16666667103306
 20
54.999999920533128
 11
113.16666667103306
 21
54.999999920533128
  0
LINE
  8
_1-8_小物
  6
CONTINUOUS
 62
    4
 10
113.16666667103317
 20
54.999999920533128
 11
113.16666667103317
 21
55.066666587199791
  0
LINE
  8
_1-8_小物
  6
CONTINUOUS
 62
    4
 10
115.16666667103294
 20
55.066666587199791
 11
114.66666667103294
 21
55.566666587199791
  0
LINE
  8
_1-8_小物
  6
CONTINUOUS
 62
    4
 10
114.66666667103294
 20
55.566666587199791
 11
113.66666667103317
 21
55.566666587199791
  0
LINE
  8
_1-8_小物
  6
CONTINUOUS
 62
    4
 10
113.16666667103317
 20
55.066666587199791
 11
113.66666667103317
 21
55.566666587199791
  0
LINE
  8
_1-8_小物
  6
CONTINUOUS
 62
    4
 10
115.16666667103294
 20
55.066666587199791
 11
115.16666667103294
 21
54.999999920533128
  0
LINE
  8
_1-8_小物
  6
CONTINUOUS
 62
    4
 10
113.16666667103317
 20
55.066666587199791
 11
115.16666667103294
 21
55.066666587199791
  0
LINE
  8
_1-8_小物
  6
CONTINUOUS
 62
    4
 10
113.66666667103317
 20
58.630913265375511
 11
113.47916667103306
 21
58.739166587199776
  0
LINE
  8
_1-8_小物
  6
CONTINUOUS
 62
    4
 10
113.47916667103306
 20
58.739166587199776
 11
113.66666667103306
 21
58.847419909024012
  0
LINE
  8
_1-8_小物
  6
CONTINUOUS
 62
    4
 10
113.66666667103317
 20
58.630913265375511
 11
114.66666667103294
 21
58.86591326537544
  0
LINE
  8
_1-8_小物
  6
CONTINUOUS
 62
    4
 10
114.85416667103306
 20
58.974166587199761
 11
114.66666667103294
 21
58.86591326537544
  0
LINE
  8
_1-8_小物
  6
CONTINUOUS
 62
    4
 10
114.66666667103294
 20
59.082419909024026
 11
114.85416667103306
 21
58.974166587199761
  0
LINE
  8
_1-8_小物
  6
CONTINUOUS
 62
    4
 10
113.66666667103306
 20
58.847419909024012
 11
114.66666667103294
 21
59.082419909024026
  0
LINE
  8
_1-8_小物
  6
CONTINUOUS
 62
    4
 10
113.47916667103306
 20
58.739166587199776
 11
114.85416667103306
 21
58.974166587199761
  0
LINE
  8
_1-8_小物
  6
CONTINUOUS
 62
    4
 10
113.66666667103317
 20
58.160913265375484
 11
113.47916667103306
 21
58.269166587199749
  0
LINE
  8
_1-8_小物
  6
CONTINUOUS
 62
    4
 10
113.47916667103306
 20
58.269166587199749
 11
113.66666667103306
 21
58.377419909024013
  0
LINE
  8
_1-8_小物
  6
CONTINUOUS
 62
    4
 10
113.66666667103317
 20
58.160913265375484
 11
114.66666667103294
 21
58.395913265375441
  0
LINE
  8
_1-8_小物
  6
CONTINUOUS
 62
    4
 10
114.85416667103306
 20
58.504166587199734
 11
114.66666667103294
 21
58.395913265375441
  0
LINE
  8
_1-8_小物
  6
CONTINUOUS
 62
    4
 10
114.66666667103294
 20
58.612419909023998
 11
114.85416667103306
 21
58.504166587199734
  0
LINE
  8
_1-8_小物
  6
CONTINUOUS
 62
    4
 10
113.66666667103306
 20
58.377419909024013
 11
114.66666667103294
 21
58.612419909023998
  0
LINE
  8
_1-8_小物
  6
CONTINUOUS
 62
    4
 10
113.47916667103306
 20
58.269166587199749
 11
114.85416667103306
 21
58.504166587199734
  0
LINE
  8
_1-8_小物
  6
CONTINUOUS
 62
    4
 10
113.66666667103317
 20
57.690913265375485
 11
113.47916667103306
 21
57.799166587199807
  0
LINE
  8
_1-8_小物
  6
CONTINUOUS
 62
    4
 10
113.47916667103306
 20
57.799166587199807
 11
113.66666667103306
 21
57.907419909024071
  0
LINE
  8
_1-8_小物
  6
CONTINUOUS
 62
    4
 10
113.66666667103317
 20
57.690913265375485
 11
114.66666667103294
 21
57.925913265375499
  0
LINE
  8
_1-8_小物
  6
CONTINUOUS
 62
    4
 10
114.85416667103306
 20
58.034166587199735
 11
114.66666667103294
 21
57.925913265375499
  0
LINE
  8
_1-8_小物
  6
CONTINUOUS
 62
    4
 10
114.66666667103294
 20
58.142419909024056
 11
114.85416667103306
 21
58.034166587199735
  0
LINE
  8
_1-8_小物
  6
CONTINUOUS
 62
    4
 10
113.66666667103306
 20
57.907419909024071
 11
114.66666667103294
 21
58.142419909024056
  0
LINE
  8
_1-8_小物
  6
CONTINUOUS
 62
    4
 10
113.47916667103306
 20
57.799166587199807
 11
114.85416667103306
 21
58.034166587199735
  0
LINE
  8
_1-8_小物
  6
CONTINUOUS
 62
    4
 10
113.66666667103317
 20
57.220913265375486
 11
113.47916667103306
 21
57.329166587199779
  0
LINE
  8
_1-8_小物
  6
CONTINUOUS
 62
    4
 10
113.47916667103306
 20
57.329166587199779
 11
113.66666667103306
 21
57.437419909024044
  0
LINE
  8
_1-8_小物
  6
CONTINUOUS
 62
    4
 10
113.66666667103317
 20
57.220913265375486
 11
114.66666667103294
 21
57.455913265375472
  0
LINE
  8
_1-8_小物
  6
CONTINUOUS
 62
    4
 10
114.85416667103306
 20
57.564166587199736
 11
114.66666667103294
 21
57.455913265375472
  0
LINE
  8
_1-8_小物
  6
CONTINUOUS
 62
    4
 10
114.66666667103294
 20
57.672419909024029
 11
114.85416667103306
 21
57.564166587199736
  0
LINE
  8
_1-8_小物
  6
CONTINUOUS
 62
    4
 10
113.66666667103306
 20
57.437419909024044
 11
114.66666667103294
 21
57.672419909024029
  0
LINE
  8
_1-8_小物
  6
CONTINUOUS
 62
    4
 10
113.47916667103306
 20
57.329166587199779
 11
114.85416667103306
 21
57.564166587199736
  0
LINE
  8
_1-8_小物
  6
CONTINUOUS
 62
    4
 10
113.66666667103317
 20
56.750913265375544
 11
113.47916667103306
 21
56.85916658719978
  0
LINE
  8
_1-8_小物
  6
CONTINUOUS
 62
    4
 10
113.47916667103306
 20
56.85916658719978
 11
113.66666667103306
 21
56.967419909024102
  0
LINE
  8
_1-8_小物
  6
CONTINUOUS
 62
    4
 10
113.66666667103317
 20
56.750913265375544
 11
114.66666667103294
 21
56.98591326537553
  0
LINE
  8
_1-8_小物
  6
CONTINUOUS
 62
    4
 10
114.85416667103306
 20
57.094166587199794
 11
114.66666667103294
 21
56.98591326537553
  0
LINE
  8
_1-8_小物
  6
CONTINUOUS
 62
    4
 10
114.66666667103294
 20
57.20241990902403
 11
114.85416667103306
 21
57.094166587199794
  0
LINE
  8
_1-8_小物
  6
CONTINUOUS
 62
    4
 10
113.66666667103306
 20
56.967419909024102
 11
114.66666667103294
 21
57.20241990902403
  0
LINE
  8
_1-8_小物
  6
CONTINUOUS
 62
    4
 10
113.47916667103306
 20
56.85916658719978
 11
114.85416667103306
 21
57.094166587199794
  0
LINE
  8
_1-8_小物
  6
CONTINUOUS
 62
    4
 10
113.66666667103317
 20
56.280913265375517
 11
113.47916667103306
 21
56.389166587199782
  0
LINE
  8
_1-8_小物
  6
CONTINUOUS
 62
    4
 10
113.47916667103306
 20
56.389166587199782
 11
113.66666667103306
 21
56.497419909024075
  0
LINE
  8
_1-8_小物
  6
CONTINUOUS
 62
    4
 10
113.66666667103317
 20
56.280913265375517
 11
114.66666667103294
 21
56.515913265375502
  0
LINE
  8
_1-8_小物
  6
CONTINUOUS
 62
    4
 10
114.85416667103306
 20
56.624166587199767
 11
114.66666667103294
 21
56.515913265375502
  0
LINE
  8
_1-8_小物
  6
CONTINUOUS
 62
    4
 10
114.66666667103294
 20
56.732419909024031
 11
114.85416667103306
 21
56.624166587199767
  0
LINE
  8
_1-8_小物
  6
CONTINUOUS
 62
    4
 10
113.66666667103306
 20
56.497419909024075
 11
114.66666667103294
 21
56.732419909024031
  0
LINE
  8
_1-8_小物
  6
CONTINUOUS
 62
    4
 10
113.47916667103306
 20
56.389166587199782
 11
114.85416667103306
 21
56.624166587199767
  0
LINE
  8
_1-8_小物
  6
CONTINUOUS
 62
    4
 10
113.66666667103317
 20
55.810913265375575
 11
113.47916667103306
 21
55.91916658719984
  0
LINE
  8
_1-8_小物
  6
CONTINUOUS
 62
    4
 10
113.47916667103306
 20
55.91916658719984
 11
113.66666667103306
 21
56.027419909024076
  0
LINE
  8
_1-8_小物
  6
CONTINUOUS
 62
    4
 10
113.66666667103317
 20
55.810913265375575
 11
114.66666667103294
 21
56.045913265375503
  0
LINE
  8
_1-8_小物
  6
CONTINUOUS
 62
    4
 10
114.85416667103306
 20
56.154166587199825
 11
114.66666667103294
 21
56.045913265375503
  0
LINE
  8
_1-8_小物
  6
CONTINUOUS
 62
    4
 10
114.66666667103294
 20
56.262419909024089
 11
114.85416667103306
 21
56.154166587199825
  0
LINE
  8
_1-8_小物
  6
CONTINUOUS
 62
    4
 10
113.66666667103306
 20
56.027419909024076
 11
114.66666667103294
 21
56.262419909024089
  0
LINE
  8
_1-8_小物
  6
CONTINUOUS
 62
    4
 10
113.47916667103306
 20
55.91916658719984
 11
114.85416667103306
 21
56.154166587199825
  0
LINE
  8
_1-8_小物
  6
CONTINUOUS
 62
    4
 10
114.66666667103294
 20
59.082419909024026
 11
114.66666667103294
 21
59.335913265375439
  0
LINE
  8
_1-8_小物
  6
CONTINUOUS
 62
    4
 10
114.66666667103294
 20
58.612419909023998
 11
114.66666667103294
 21
58.86591326537544
  0
LINE
  8
_1-8_小物
  6
CONTINUOUS
 62
    4
 10
114.66666667103294
 20
58.142419909024056
 11
114.66666667103294
 21
58.395913265375412
  0
LINE
  8
_1-8_小物
  6
CONTINUOUS
 62
    4
 10
114.66666667103294
 20
57.672419909024029
 11
114.66666667103294
 21
57.925913265375499
  0
LINE
  8
_1-8_小物
  6
CONTINUOUS
 62
    4
 10
114.66666667103294
 20
57.20241990902403
 11
114.66666667103294
 21
57.455913265375472
  0
LINE
  8
_1-8_小物
  6
CONTINUOUS
 62
    4
 10
114.66666667103294
 20
56.732419909024031
 11
114.66666667103294
 21
56.98591326537553
  0
LINE
  8
_1-8_小物
  6
CONTINUOUS
 62
    4
 10
114.66666667103294
 20
55.566666587199791
 11
114.66666667103294
 21
56.045913265375503
  0
LINE
  8
_1-8_小物
  6
CONTINUOUS
 62
    4
 10
114.66666667103294
 20
56.262419909024089
 11
114.66666667103294
 21
56.515913265375502
  0
LINE
  8
_1-8_小物
  6
CONTINUOUS
 62
    4
 10
113.66666667103317
 20
55.566666587199791
 11
113.66666667103317
 21
55.810913265375575
  0
LINE
  8
_1-8_小物
  6
CONTINUOUS
 62
    4
 10
113.66666667103317
 20
56.027419909024104
 11
113.66666667103317
 21
56.280913265375517
  0
LINE
  8
_1-8_小物
  6
CONTINUOUS
 62
    4
 10
113.66666667103317
 20
56.497419909024075
 11
113.66666667103317
 21
56.750913265375544
  0
LINE
  8
_1-8_小物
  6
CONTINUOUS
 62
    4
 10
113.66666667103317
 20
56.967419909024102
 11
113.66666667103317
 21
57.220913265375486
  0
LINE
  8
_1-8_小物
  6
CONTINUOUS
 62
    4
 10
113.66666667103317
 20
57.437419909024044
 11
113.66666667103317
 21
57.690913265375485
  0
LINE
  8
_1-8_小物
  6
CONTINUOUS
 62
    4
 10
113.66666667103317
 20
57.907419909024071
 11
113.66666667103317
 21
58.160913265375484
  0
LINE
  8
_1-8_小物
  6
CONTINUOUS
 62
    4
 10
113.66666667103317
 20
58.377419909024098
 11
113.66666667103317
 21
58.630913265375511
  0
LINE
  8
_1-8_小物
  6
CONTINUOUS
 62
    4
 10
113.60000000436645
 20
59.339999920533103
 11
113.60000000436645
 21
60.336666587199772
  0
LINE
  8
_1-8_小物
  6
CONTINUOUS
 62
    4
 10
114.73333333769955
 20
59.339999920533103
 11
113.60000000436645
 21
59.339999920533103
  0
LINE
  8
_1-8_小物
  6
CONTINUOUS
 62
    4
 10
114.73333333769955
 20
59.339999920533103
 11
114.73333333769955
 21
60.336666587199772
  0
LINE
  8
_1-8_小物
  6
CONTINUOUS
 62
    4
 10
114.73333333769955
 20
60.336666587199772
 11
114.16666667103306
 21
60.663831739740544
  0
LINE
  8
_1-8_小物
  6
CONTINUOUS
 62
    4
 10
113.60000000436645
 20
60.336666587199772
 11
114.16666667103306
 21
60.663831739740544
  0
LINE
  8
_1-8_小物
  6
CONTINUOUS
 62
    4
 10
114.16666667103306
 20
60.548361685902591
 11
113.70000000436636
 21
60.278931560280853
  0
LINE
  8
_1-8_小物
  6
CONTINUOUS
 62
    4
 10
113.70000000436636
 20
59.339999920533103
 11
113.70000000436636
 21
60.278931560280853
  0
LINE
  8
_1-8_小物
  6
CONTINUOUS
 62
    4
 10
114.16666667103306
 20
60.548361685902591
 11
113.95359988934189
 21
59.339999920533103
  0
LINE
  8
_1-8_小物
  6
CONTINUOUS
 62
    4
 10
113.66666667103317
 20
58.84741990902404
 11
113.66666667103317
 21
59.339999920533103
  0
LINE
  8
_1-8_小物
  6
CONTINUOUS
 62
    4
 10
114.16666667103306
 20
60.663831739740544
 11
114.16666667103306
 21
60.548361685902591
  0
LINE
  8
_1-8_小物
  6
CENTER2
 62
    4
 10
114.16666667103306
 20
54.666666587199785
 11
114.16666667103306
 21
60.99716507307383
  0
ENDBLK
  0
BLOCK
  2
-014-_8_
 70
   64
 10
0
 20
0
 30
0
  0
LINE
  8
_1-8_小物
  6
CONTINUOUS
 62
    4
 10
84.366666666666447
 20
56.166666587199359
 11
84.366666666666447
 21
50.166666587200041
  0
LINE
  8
_1-8_小物
  6
CONTINUOUS
 62
    4
 10
84.366666666666447
 20
50.166666587200041
 11
83.866666666666333
 21
50.166666587200041
  0
ARC
  8
_1-8_小物
  6
CONTINUOUS
 62
    4
 10
83.733333830861284
 20
53.1666665871997
 40
1.5999999999998398
 50
324.29996100000506
 51
0
  0
ARC
  8
_1-8_小物
  6
CONTINUOUS
 62
    4
 10
84.382999830861309
 20
53.633499587199765
 40
0.7999999999999201
 50
35.70005899999191
 51
91.169858000005419
  0
ARC
  8
_1-8_小物
  6
CONTINUOUS
 62
    4
 10
83.733333830861284
 20
53.1666665871997
 40
1.5999999999998398
 50
0
 51
35.700039000000658
  0
ARC
  8
_1-8_小物
  6
CONTINUOUS
 62
    4
 10
84.382999830861309
 20
52.699833587199635
 40
0.7999999999999201
 50
268.83014199999451
 51
324.29994100000806
  0
LINE
  8
_1-8_小物
  6
CONTINUOUS
 62
    4
 10
84.366666666666447
 20
56.166666587199359
 11
83.866666666666333
 21
56.166666587199359
  0
LINE
  8
_1-8_小物
  6
CONTINUOUS
 62
    4
 10
83.866666666666333
 20
56.166666587199359
 11
83.866666666666333
 21
50.166666587200041
  0
LINE
  8
_1-8_小物
  6
CONTINUOUS
 62
    4
 10
84.366666666666333
 20
52.249999920532389
 11
83.866666666666333
 21
52.249999920532389
  0
LINE
  8
_1-8_小物
  6
CONTINUOUS
 62
    4
 10
84.366666666666333
 20
54.083333253866044
 11
83.866666666666333
 21
54.083333253866044
  0
ENDBLK
  0
BLOCK
  2
-015-_9_
 70
   64
 10
0
 20
0
 30
0
  0
LINE
  8
_1-8_小物
  6
CONTINUOUS
 62
    4
 10
81.284244333333049
 20
51.586081587199885
 11
79.633239333333108
 21
51.821939587199893
  0
LINE
  8
_1-8_小物
  6
CONTINUOUS
 62
    4
 10
78.383239333334245
 20
52.010857587199951
 11
79.547734333334347
 21
51.587016587199912
  0
LINE
  8
_1-8_小物
  6
CONTINUOUS
 62
    4
 10
79.547734333334347
 20
51.587016587199912
 11
81.248639333333244
 21
51.338927587199976
  0
ARC
  8
_1-8_小物
  6
CONTINUOUS
 62
    4
 10
81.270102333333057
 20
51.487086587199826
 40
0.0999999999999899
 50
351.86989799997593
 51
81.86989800004045
  0
LINE
  8
_1-8_小物
  6
CONTINUOUS
 62
    4
 10
81.36206733333313
 20
51.423738587200035
 11
81.369096333333346
 21
51.472944587199947
  0
ARC
  8
_1-8_小物
  6
CONTINUOUS
 62
    4
 10
81.263072333333071
 20
51.437880587199913
 40
0.0999999999999899
 50
261.7015340000263
 51
351.86989800004045
  0
LINE
  8
_1-8_小物
  6
CONTINUOUS
 62
    4
 10
74.139063333334207
 20
54.5448975871995
 11
73.613580333334198
 21
54.071751587199685
  0
LINE
  8
_1-8_小物
  6
CONTINUOUS
 62
    4
 10
73.593954333334295
 20
53.697270587199739
 11
81.333333333333258
 21
53.291666587199813
  0
LINE
  8
_1-8_小物
  6
CONTINUOUS
 62
    4
 10
74.139063333334207
 20
54.544902587199488
 11
73.613580333334198
 21
54.071756587199673
  0
LINE
  8
_1-8_小物
  6
CONTINUOUS
 62
    4
 10
73.593954333334295
 20
52.63606258719966
 11
81.333333333333258
 21
53.0416665871997
  0
LINE
  8
_1-8_小物
  6
CONTINUOUS
 62
    4
 10
74.139063333334207
 20
51.788429587199914
 11
73.613580333334198
 21
52.261576587199727
  0
LINE
  8
_1-8_小物
  6
CONTINUOUS
 62
    4
 10
81.284244333333049
 20
54.747251587199514
 11
79.633239333333108
 21
54.511393587199507
  0
LINE
  8
_1-8_小物
  6
CONTINUOUS
 62
    4
 10
79.547734333334347
 20
54.746316587199715
 11
81.248639333333244
 21
54.994405587199651
  0
LINE
  8
_1-8_小物
  6
CONTINUOUS
 62
    4
 10
80.104672333334179
 20
53.731572587199764
 11
79.605358333334152
 21
53.757740587199521
  0
LINE
  8
_1-8_小物
  6
CONTINUOUS
 62
    4
 10
80.104672333334179
 20
52.601760587199635
 11
79.605358333334152
 21
52.575592587199878
  0
LINE
  8
_1-8_小物
  6
CONTINUOUS
 62
    4
 10
83.333333333333144
 20
54.166666587199472
 11
80.333333333333144
 21
54.166666587199472
  0
LINE
  8
_1-8_小物
  6
CONTINUOUS
 62
    4
 10
83.333333333333144
 20
52.166666587199813
 11
80.333333333333144
 21
52.166666587199813
  0
ARC
  8
_1-8_小物
  6
CONTINUOUS
 62
    4
 10
81.270102333333057
 20
54.846246587199573
 40
0.0999999999999899
 50
278.13010199995955
 51
8.1301020000240669
  0
LINE
  8
_1-8_小物
  6
CONTINUOUS
 62
    4
 10
81.36206733333313
 20
54.909594587199592
 11
81.369096333333346
 21
54.860388587199679
  0
ARC
  8
_1-8_小物
  6
CONTINUOUS
 62
    4
 10
81.263072333333071
 20
54.895452587199713
 40
0.0999999999999899
 50
8.1301019999595656
 51
98.298465999971356
  0
LINE
  8
_1-8_小物
  6
CONTINUOUS
 62
    4
 10
81.333333333333258
 20
53.291666587199813
 11
81.333333333333258
 21
53.1666665871997
  0
LINE
  8
_1-8_小物
  6
CONTINUOUS
 62
    4
 10
83.333333333333144
 20
54.416666587199586
 11
82.083333333333258
 21
54.166666587199472
  0
LINE
  8
_1-8_小物
  6
CONTINUOUS
 62
    4
 10
83.333333333333144
 20
53.4166665871997
 11
82.083333333333258
 21
53.1666665871997
  0
LINE
  8
_1-8_小物
  6
CONTINUOUS
 62
    4
 10
83.333333333333144
 20
52.916666587199813
 11
82.083333333333258
 21
53.1666665871997
  0
LINE
  8
_1-8_小物
  6
CONTINUOUS
 62
    4
 10
82.083333333333258
 20
53.1666665871997
 11
83.333333333333144
 21
53.1666665871997
  0
LINE
  8
_1-8_小物
  6
CONTINUOUS
 62
    4
 10
81.333333333333258
 20
53.0416665871997
 11
81.333333333333258
 21
53.1666665871997
  0
LINE
  8
_1-8_小物
  6
CONTINUOUS
 62
    4
 10
83.333333333333144
 20
51.916666587199813
 11
82.083333333333258
 21
52.166666587199813
  0
LINE
  8
_1-8_小物
  6
CONTINUOUS
 62
    4
 10
80.333333333333144
 20
54.166666587199472
 11
80.104672333334179
 21
53.731572587199764
  0
LINE
  8
_1-8_小物
  6
CONTINUOUS
 62
    4
 10
80.333333333333144
 20
52.166666587199813
 11
80.104672333334179
 21
52.601760587199635
  0
LINE
  8
_1-8_小物
  6
CONTINUOUS
 62
    4
 10
74.333333333334167
 20
53.1666665871997
 11
74.800694698606321
 21
52.699305221927546
  0
LINE
  8
_1-8_小物
  6
CONTINUOUS
 62
    4
 10
78.369025370797317
 20
54.051257125569748
 11
79.633239333333108
 21
54.511393587199507
  0
LINE
  8
_1-8_小物
  6
CONTINUOUS
 62
    4
 10
78.369025370797317
 20
52.282076048829879
 11
79.633239333333108
 21
51.821939587199893
  0
LINE
  8
_1-8_小物
  6
CONTINUOUS
 62
    4
 10
74.093269333334206
 20
53.671102587199641
 11
74.139063333334207
 21
54.544902587199488
  0
LINE
  8
_1-8_小物
  6
CONTINUOUS
 62
    4
 10
75.886665333334236
 20
54.453315587199711
 11
75.387350333334325
 21
54.479483587199582
  0
LINE
  8
_1-8_小物
  6
CONTINUOUS
 62
    4
 10
74.093269333334206
 20
52.662230587199758
 11
74.139063333334207
 21
51.788429587199914
  0
LINE
  8
_1-8_小物
  6
CONTINUOUS
 62
    4
 10
75.886665333334236
 20
51.880017587199916
 11
75.387350333334325
 21
51.853849587199818
  0
LINE
  8
_1-8_小物
  6
CONTINUOUS
 62
    4
 10
74.800694333334036
 20
53.634027587199682
 11
74.333333333334167
 21
53.1666665871997
  0
LINE
  8
_1-8_小物
  6
CONTINUOUS
 62
    4
 10
74.61221033333436
 20
54.019420587199704
 11
74.638378333334117
 21
54.518734587199617
  0
LINE
  8
_1-8_小物
  6
CONTINUOUS
 62
    4
 10
75.111525333334043
 20
53.99325258719972
 11
74.61221033333436
 21
54.019420587199704
  0
LINE
  8
_1-8_小物
  6
CONTINUOUS
 62
    4
 10
75.387350333334325
 20
54.479483587199582
 11
75.111525333334043
 21
53.99325258719972
  0
LINE
  8
_1-8_小物
  6
CONTINUOUS
 62
    4
 10
74.638378333334117
 20
54.518734587199617
 11
74.139063333334207
 21
54.544902587199488
  0
LINE
  8
_1-8_小物
  6
CONTINUOUS
 62
    4
 10
74.61221033333436
 20
52.313912587199809
 11
74.638378333334117
 21
51.814597587199898
  0
LINE
  8
_1-8_小物
  6
CONTINUOUS
 62
    4
 10
75.111525333334043
 20
52.340080587199679
 11
74.61221033333436
 21
52.313912587199809
  0
LINE
  8
_1-8_小物
  6
CONTINUOUS
 62
    4
 10
75.387350333334325
 20
51.853849587199818
 11
75.111525333334043
 21
52.340080587199679
  0
LINE
  8
_1-8_小物
  6
CONTINUOUS
 62
    4
 10
74.638378333334117
 20
51.814597587199898
 11
74.139063333334207
 21
51.788429587199914
  0
LINE
  8
_1-8_小物
  6
CONTINUOUS
 62
    4
 10
78.383239333334245
 20
54.322475587199676
 11
79.547734333334347
 21
54.746316587199715
  0
LINE
  8
_1-8_小物
  6
CONTINUOUS
 62
    4
 10
79.605358333334152
 20
53.757740587199521
 11
79.63152633333425
 21
54.257055587199432
  0
LINE
  8
_1-8_小物
  6
CONTINUOUS
 62
    4
 10
79.63152633333425
 20
54.257055587199432
 11
79.132211333334112
 21
54.283223587199757
  0
LINE
  8
_1-8_小物
  6
CONTINUOUS
 62
    4
 10
78.357071333334147
 20
53.823160587199766
 11
78.383239333334245
 21
54.322475587199676
  0
LINE
  8
_1-8_小物
  6
CONTINUOUS
 62
    4
 10
78.85638533333406
 20
53.796992587199668
 11
78.357071333334147
 21
53.823160587199766
  0
LINE
  8
_1-8_小物
  6
CONTINUOUS
 62
    4
 10
79.132211333334112
 20
54.283223587199757
 11
78.85638533333406
 21
53.796992587199668
  0
LINE
  8
_1-8_小物
  6
CONTINUOUS
 62
    4
 10
78.383239333334245
 20
54.322475587199676
 11
77.883924333334221
 21
54.348643587199433
  0
LINE
  8
_1-8_小物
  6
CONTINUOUS
 62
    4
 10
77.108784333334256
 20
53.888580587199669
 11
77.134952333334127
 21
54.38789558719958
  0
LINE
  8
_1-8_小物
  6
CONTINUOUS
 62
    4
 10
77.608098333334169
 20
53.862412587199572
 11
77.108784333334256
 21
53.888580587199669
  0
LINE
  8
_1-8_小物
  6
CONTINUOUS
 62
    4
 10
77.883924333334221
 20
54.348643587199433
 11
77.608098333334169
 21
53.862412587199572
  0
LINE
  8
_1-8_小物
  6
CONTINUOUS
 62
    4
 10
77.134952333334127
 20
54.38789558719958
 11
76.635637333334103
 21
54.414063587199678
  0
LINE
  8
_1-8_小物
  6
CONTINUOUS
 62
    4
 10
75.860497333334138
 20
53.954000587199573
 11
75.886665333334236
 21
54.453315587199711
  0
LINE
  8
_1-8_小物
  6
CONTINUOUS
 62
    4
 10
76.359812333334162
 20
53.927832587199703
 11
75.860497333334138
 21
53.954000587199573
  0
LINE
  8
_1-8_小物
  6
CONTINUOUS
 62
    4
 10
76.635637333334103
 20
54.414063587199678
 11
76.359812333334162
 21
53.927832587199703
  0
LINE
  8
_1-8_小物
  6
CONTINUOUS
 62
    4
 10
79.605358333334152
 20
52.575592587199878
 11
79.63152633333425
 21
52.076277587199627
  0
LINE
  8
_1-8_小物
  6
CONTINUOUS
 62
    4
 10
79.63152633333425
 20
52.076277587199627
 11
79.132211333334112
 21
52.05010958719987
  0
LINE
  8
_1-8_小物
  6
CONTINUOUS
 62
    4
 10
78.357071333334147
 20
52.510172587199634
 11
78.383239333334245
 21
52.010857587199951
  0
LINE
  8
_1-8_小物
  6
CONTINUOUS
 62
    4
 10
78.85638533333406
 20
52.536340587199732
 11
78.357071333334147
 21
52.510172587199634
  0
LINE
  8
_1-8_小物
  6
CONTINUOUS
 62
    4
 10
79.132211333334112
 20
52.05010958719987
 11
78.85638533333406
 21
52.536340587199732
  0
LINE
  8
_1-8_小物
  6
CONTINUOUS
 62
    4
 10
78.383239333334245
 20
52.010857587199951
 11
77.883924333334221
 21
51.984689587199966
  0
LINE
  8
_1-8_小物
  6
CONTINUOUS
 62
    4
 10
77.108784333334256
 20
52.44475258719973
 11
77.134952333334127
 21
51.94543758719982
  0
LINE
  8
_1-8_小物
  6
CONTINUOUS
 62
    4
 10
77.608098333334169
 20
52.470920587199828
 11
77.108784333334256
 21
52.44475258719973
  0
LINE
  8
_1-8_小物
  6
CONTINUOUS
 62
    4
 10
77.883924333334221
 20
51.984689587199966
 11
77.608098333334169
 21
52.470920587199828
  0
LINE
  8
_1-8_小物
  6
CONTINUOUS
 62
    4
 10
77.134952333334127
 20
51.94543758719982
 11
76.635637333334103
 21
51.919269587199949
  0
LINE
  8
_1-8_小物
  6
CONTINUOUS
 62
    4
 10
75.860497333334138
 20
52.379332587199826
 11
75.886665333334236
 21
51.880017587199916
  0
LINE
  8
_1-8_小物
  6
CONTINUOUS
 62
    4
 10
76.359812333334162
 20
52.405500587199811
 11
75.860497333334138
 21
52.379332587199826
  0
LINE
  8
_1-8_小物
  6
CONTINUOUS
 62
    4
 10
76.635637333334103
 20
51.919269587199949
 11
76.359812333334162
 21
52.405500587199811
  0
LINE
  8
_1-8_小物
  6
CONTINUOUS
 62
    4
 10
73.613580333334198
 20
54.071756587199673
 11
73.593954333334295
 21
53.697270587199739
  0
LINE
  8
_1-8_小物
  6
CONTINUOUS
 62
    4
 10
73.613580333334198
 20
52.261576587199727
 11
73.593954333334295
 21
52.63606258719966
  0
LINE
  8
_1-8_小物
  6
CONTINUOUS
 62
    4
 10
83.333333333333144
 20
54.416666587199586
 11
83.333333333333144
 21
51.916666587199813
  0
ENDBLK
  0
BLOCK
  2
-016-_10_
 70
   64
 10
0
 20
0
 30
0
  0
ARC
  8
_1-8_小物
  6
CONTINUOUS
 62
    4
 10
-133.33333333333326
 20
59.733333333333235
 40
0.0999999999999999
 50
0
 51
90
  0
LINE
  8
_1-8_小物
  6
CONTINUOUS
 62
    4
 10
-136.16666666666657
 20
60.499999999999915
 11
-136.16666666666657
 21
60.959067386621541
  0
ARC
  8
_1-8_小物
  6
CONTINUOUS
 62
    4
 10
-135.99999999999994
 20
60.499999999999915
 40
0.1666666666666666
 50
180
 51
270
  0
LINE
  8
_1-8_小物
  6
CONTINUOUS
 62
    4
 10
-136.66666666666657
 20
60.499999999999915
 11
-136.66666666666657
 21
60.999999999999915
  0
ARC
  8
_1-8_小物
  6
CONTINUOUS
 62
    4
 10
-135.99999999999994
 20
60.499999999999915
 40
0.6666666666666666
 50
180
 51
270
  0
LINE
  8
_1-8_小物
  6
CONTINUOUS
 62
    4
 10
-135.99999999999994
 20
60.333333333333258
 11
-133.39999999999992
 21
60.333333333333258
  0
ARC
  8
_1-8_小物
  6
CONTINUOUS
 62
    4
 10
-133.39999999999992
 20
59.833333333333258
 40
0.5
 50
0
 51
90
  0
ARC
  8
_1-8_小物
  6
CONTINUOUS
 62
    4
 10
-135.75464419085523
 20
63.458670406543774
 40
0.4999999999999946
 50
10.639809198087802
 51
170.63980919809185
  0
LINE
  8
_1-8_小物
  6
CONTINUOUS
 62
    4
 10
-136.16666666666657
 20
60.959067386621541
 11
-135.78539018528079
 21
63.272144707028644
  0
ARC
  8
_1-8_小物
  6
CONTINUOUS
 62
    4
 10
-135.75250067186079
 20
63.266723358662716
 40
0.0333333333333333
 50
10.639809198075813
 51
170.63980919811317
  0
ARC
  8
_1-8_小物
  6
CONTINUOUS
 62
    4
 10
-135.27814955131464
 20
62.27631984157199
 40
0.25
 50
190.63980919808657
 51
10.639809198075
  0
LINE
  8
_1-8_小物
  6
CONTINUOUS
 62
    4
 10
-135.03244772576085
 20
62.322478404369292
 11
-135.26324053974758
 21
63.550987532138492
  0
LINE
  8
_1-8_小物
  6
CONTINUOUS
 62
    4
 10
-136.66666666666657
 20
60.999999999999915
 11
-136.24798689215567
 21
63.539990632032811
  0
LINE
  8
_1-8_小物
  6
CONTINUOUS
 62
    4
 10
-135.99999999999994
 20
59.833333333333258
 11
-133.33333333333326
 21
59.833333333333258
  0
ARC
  8
_1-8_小物
  6
CONTINUOUS
 62
    4
 10
-135.18822322392487
 20
59.092281886537421
 40
0.1666666666666666
 50
87.280517960041692
 51
177.28051796004169
  0
ARC
  8
_1-8_小物
  6
CONTINUOUS
 62
    4
 10
-135.34679450785165
 20
59.266668535881252
 40
0.3333333333333333
 50
87.280517960041692
 51
177.2805179600368
  0
LINE
  8
_1-8_小物
  6
CONTINUOUS
 62
    4
 10
-135.67975244112228
 20
59.28248390129832
 11
-135.69556780653937
 21
58.949525968027757
  0
ARC
  8
_1-8_小物
  6
CONTINUOUS
 62
    4
 10
-135.52908883990403
 20
58.94161828531918
 40
0.1666666666666666
 50
177.28051796003194
 51
357.28051796004121
  0
LINE
  8
_1-8_小物
  6
CONTINUOUS
 62
    4
 10
-135.3547021905602
 20
59.100189569245941
 11
-135.36260987326875
 21
58.933710602610688
  0
LINE
  8
_1-8_小物
  6
CONTINUOUS
 62
    4
 10
-133.23333333333323
 20
59.604851858652069
 11
-133.23333333333323
 21
59.733333333333235
  0
LINE
  8
_1-8_小物
  6
CONTINUOUS
 62
    4
 10
-135.18031554121637
 20
59.258760853172703
 11
-133.24914869875033
 21
59.167031219357114
  0
LINE
  8
_1-8_小物
  6
CONTINUOUS
 62
    4
 10
-132.89999999999992
 20
59.499989152627705
 11
-132.89999999999992
 21
59.833333333333258
  0
ARC
  8
_1-8_小物
  6
CONTINUOUS
 62
    4
 10
-133.33333333333326
 20
59.604851858652069
 40
0.0999999999999999
 50
267.28051796004445
 51
0
  0
ARC
  8
_1-8_小物
  6
CONTINUOUS
 62
    4
 10
-133.23333333333323
 20
59.499989152627705
 40
0.3333333333333333
 50
267.2805179600366
 51
0
  0
LINE
  8
_1-8_小物
  6
CONTINUOUS
 62
    4
 10
-135.33097914243461
 20
59.599626469151815
 11
-133.33807794295836
 21
59.504964478670928
  0
LINE
  8
_1-8_小物
  6
CONTINUOUS
 62
    4
 10
-135.52385137686849
 20
62.230161278774574
 11
-135.71974042845363
 21
63.272877833702353
  0
ENDBLK
  0
BLOCK
  2
-017-_11_
 70
   64
 10
0
 20
0
 30
0
  0
ARC
  8
_1-8_小物
  6
CONTINUOUS
 62
    4
 10
-66.666666666666799
 20
59.733333333333235
 40
0.0999999999999999
 50
90
 51
180
  0
LINE
  8
_1-8_小物
  6
CONTINUOUS
 62
    4
 10
-63.833333333333485
 20
60.499999999999915
 11
-63.833333333333485
 21
60.959067386621541
  0
ARC
  8
_1-8_小物
  6
CONTINUOUS
 62
    4
 10
-64.000000000000114
 20
60.499999999999915
 40
0.1666666666666666
 50
270
 51
0
  0
LINE
  8
_1-8_小物
  6
CONTINUOUS
 62
    4
 10
-63.333333333333485
 20
60.499999999999915
 11
-63.333333333333485
 21
60.999999999999915
  0
ARC
  8
_1-8_小物
  6
CONTINUOUS
 62
    4
 10
-64.000000000000114
 20
60.499999999999915
 40
0.6666666666666666
 50
270
 51
0
  0
LINE
  8
_1-8_小物
  6
CONTINUOUS
 62
    4
 10
-64.000000000000114
 20
60.333333333333258
 11
-66.600000000000136
 21
60.333333333333258
  0
ARC
  8
_1-8_小物
  6
CONTINUOUS
 62
    4
 10
-66.600000000000136
 20
59.833333333333258
 40
0.5
 50
90
 51
180
  0
ARC
  8
_1-8_小物
  6
CONTINUOUS
 62
    4
 10
-64.245355809144826
 20
63.458670406543774
 40
0.4999999999999946
 50
9.360190801908173
 51
169.36019080191218
  0
LINE
  8
_1-8_小物
  6
CONTINUOUS
 62
    4
 10
-63.833333333333485
 20
60.959067386621541
 11
-64.214609814719267
 21
63.272144707028644
  0
ARC
  8
_1-8_小物
  6
CONTINUOUS
 62
    4
 10
-64.24749932813927
 20
63.266723358662716
 40
0.0333333333333333
 50
9.360190801902732
 51
169.36019080193321
  0
ARC
  8
_1-8_小物
  6
CONTINUOUS
 62
    4
 10
-64.721850448685416
 20
62.27631984157199
 40
0.25
 50
169.36019080192622
 51
349.36019080191221
  0
LINE
  8
_1-8_小物
  6
CONTINUOUS
 62
    4
 10
-64.96755227423921
 20
62.322478404369292
 11
-64.736759460252472
 21
63.550987532138492
  0
LINE
  8
_1-8_小物
  6
CONTINUOUS
 62
    4
 10
-63.333333333333485
 20
60.999999999999915
 11
-63.752013107844391
 21
63.539990632032811
  0
LINE
  8
_1-8_小物
  6
CONTINUOUS
 62
    4
 10
-64.000000000000114
 20
59.833333333333258
 11
-66.666666666666799
 21
59.833333333333258
  0
ARC
  8
_1-8_小物
  6
CONTINUOUS
 62
    4
 10
-64.811776776075192
 20
59.092281886537421
 40
0.1666666666666666
 50
2.7194820399587796
 51
92.719482039968085
  0
ARC
  8
_1-8_小物
  6
CONTINUOUS
 62
    4
 10
-64.653205492148402
 20
59.266668535881252
 40
0.3333333333333333
 50
2.7194820399634283
 51
92.719482039963196
  0
LINE
  8
_1-8_小物
  6
CONTINUOUS
 62
    4
 10
-64.320247558877782
 20
59.28248390129832
 11
-64.304432193460684
 21
58.949525968027757
  0
ARC
  8
_1-8_小物
  6
CONTINUOUS
 62
    4
 10
-64.470911160096023
 20
58.94161828531918
 40
0.1666666666666666
 50
182.71948203995831
 51
2.7194820399685682
  0
LINE
  8
_1-8_小物
  6
CONTINUOUS
 62
    4
 10
-64.645297809439853
 20
59.100189569245941
 11
-64.637390126731304
 21
58.933710602610688
  0
LINE
  8
_1-8_小物
  6
CONTINUOUS
 62
    4
 10
-66.766666666666822
 20
59.604851858652069
 11
-66.766666666666822
 21
59.733333333333235
  0
LINE
  8
_1-8_小物
  6
CONTINUOUS
 62
    4
 10
-64.819684458783684
 20
59.258760853172703
 11
-66.750851301249725
 21
59.167031219357114
  0
LINE
  8
_1-8_小物
  6
CONTINUOUS
 62
    4
 10
-67.100000000000136
 20
59.499989152627705
 11
-67.100000000000136
 21
59.833333333333258
  0
ARC
  8
_1-8_小物
  6
CONTINUOUS
 62
    4
 10
-66.666666666666799
 20
59.604851858652069
 40
0.0999999999999999
 50
180
 51
272.71948203995549
  0
ARC
  8
_1-8_小物
  6
CONTINUOUS
 62
    4
 10
-66.766666666666822
 20
59.499989152627705
 40
0.3333333333333333
 50
180
 51
272.71948203995851
  0
LINE
  8
_1-8_小物
  6
CONTINUOUS
 62
    4
 10
-64.669020857565442
 20
59.599626469151815
 11
-66.661922057041693
 21
59.504964478670928
  0
LINE
  8
_1-8_小物
  6
CONTINUOUS
 62
    4
 10
-64.476148623131564
 20
62.230161278774574
 11
-64.280259571546424
 21
63.272877833702353
  0
ENDBLK
  0
BLOCK
  2
-018-_12_
 70
   64
 10
0
 20
0
 30
0
  0
LINE
  8
_1-8_小物
  6
CONTINUOUS
 62
    4
 10
-99.000000000000028
 20
55.166666666666742
 11
-101.00000000000003
 21
55.166666666666742
  0
LINE
  8
_1-8_小物
  6
CONTINUOUS
 62
    4
 10
-100.99999999999991
 20
55.166666666666742
 11
-100.99999999999991
 21
55.233333333333405
  0
LINE
  8
_1-8_小物
  6
CONTINUOUS
 62
    4
 10
-99.000000000000142
 20
55.233333333333405
 11
-99.500000000000142
 21
55.733333333333405
  0
LINE
  8
_1-8_小物
  6
CONTINUOUS
 62
    4
 10
-99.500000000000142
 20
55.733333333333405
 11
-100.49999999999991
 21
55.733333333333405
  0
LINE
  8
_1-8_小物
  6
CONTINUOUS
 62
    4
 10
-100.99999999999991
 20
55.233333333333405
 11
-100.49999999999991
 21
55.733333333333405
  0
LINE
  8
_1-8_小物
  6
CONTINUOUS
 62
    4
 10
-99.000000000000142
 20
55.233333333333405
 11
-99.000000000000142
 21
55.166666666666742
  0
LINE
  8
_1-8_小物
  6
CONTINUOUS
 62
    4
 10
-100.99999999999991
 20
55.233333333333405
 11
-99.000000000000142
 21
55.233333333333405
  0
LINE
  8
_1-8_小物
  6
CONTINUOUS
 62
    4
 10
-100.49999999999991
 20
58.797580011509126
 11
-100.68750000000003
 21
58.905833333333391
  0
LINE
  8
_1-8_小物
  6
CONTINUOUS
 62
    4
 10
-100.68750000000003
 20
58.905833333333391
 11
-100.49999999999997
 21
59.014086655157627
  0
LINE
  8
_1-8_小物
  6
CONTINUOUS
 62
    4
 10
-100.49999999999991
 20
58.797580011509126
 11
-99.500000000000085
 21
59.032580011509054
  0
LINE
  8
_1-8_小物
  6
CONTINUOUS
 62
    4
 10
-99.312500000000028
 20
59.140833333333376
 11
-99.500000000000085
 21
59.032580011509054
  0
LINE
  8
_1-8_小物
  6
CONTINUOUS
 62
    4
 10
-99.500000000000099
 20
59.24908665515764
 11
-99.312500000000028
 21
59.140833333333376
  0
LINE
  8
_1-8_小物
  6
CONTINUOUS
 62
    4
 10
-100.49999999999997
 20
59.014086655157627
 11
-99.500000000000099
 21
59.24908665515764
  0
LINE
  8
_1-8_小物
  6
CONTINUOUS
 62
    4
 10
-100.68750000000003
 20
58.905833333333391
 11
-99.312500000000028
 21
59.140833333333376
  0
LINE
  8
_1-8_小物
  6
CONTINUOUS
 62
    4
 10
-100.49999999999991
 20
58.327580011509099
 11
-100.68750000000003
 21
58.435833333333363
  0
LINE
  8
_1-8_小物
  6
CONTINUOUS
 62
    4
 10
-100.68750000000003
 20
58.435833333333363
 11
-100.49999999999997
 21
58.544086655157628
  0
LINE
  8
_1-8_小物
  6
CONTINUOUS
 62
    4
 10
-100.49999999999991
 20
58.327580011509099
 11
-99.500000000000085
 21
58.562580011509056
  0
LINE
  8
_1-8_小物
  6
CONTINUOUS
 62
    4
 10
-99.312500000000028
 20
58.670833333333348
 11
-99.500000000000085
 21
58.562580011509056
  0
LINE
  8
_1-8_小物
  6
CONTINUOUS
 62
    4
 10
-99.500000000000099
 20
58.779086655157613
 11
-99.312500000000028
 21
58.670833333333348
  0
LINE
  8
_1-8_小物
  6
CONTINUOUS
 62
    4
 10
-100.49999999999997
 20
58.544086655157628
 11
-99.500000000000099
 21
58.779086655157613
  0
LINE
  8
_1-8_小物
  6
CONTINUOUS
 62
    4
 10
-100.68750000000003
 20
58.435833333333363
 11
-99.312500000000028
 21
58.670833333333348
  0
LINE
  8
_1-8_小物
  6
CONTINUOUS
 62
    4
 10
-100.49999999999991
 20
57.8575800115091
 11
-100.68750000000003
 21
57.965833333333421
  0
LINE
  8
_1-8_小物
  6
CONTINUOUS
 62
    4
 10
-100.68750000000003
 20
57.965833333333421
 11
-100.49999999999997
 21
58.074086655157686
  0
LINE
  8
_1-8_小物
  6
CONTINUOUS
 62
    4
 10
-100.49999999999991
 20
57.8575800115091
 11
-99.500000000000085
 21
58.092580011509114
  0
LINE
  8
_1-8_小物
  6
CONTINUOUS
 62
    4
 10
-99.312500000000028
 20
58.20083333333335
 11
-99.500000000000085
 21
58.092580011509114
  0
LINE
  8
_1-8_小物
  6
CONTINUOUS
 62
    4
 10
-99.500000000000099
 20
58.309086655157671
 11
-99.312500000000028
 21
58.20083333333335
  0
LINE
  8
_1-8_小物
  6
CONTINUOUS
 62
    4
 10
-100.49999999999997
 20
58.074086655157686
 11
-99.500000000000099
 21
58.309086655157671
  0
LINE
  8
_1-8_小物
  6
CONTINUOUS
 62
    4
 10
-100.68750000000003
 20
57.965833333333421
 11
-99.312500000000028
 21
58.20083333333335
  0
LINE
  8
_1-8_小物
  6
CONTINUOUS
 62
    4
 10
-100.49999999999991
 20
57.387580011509101
 11
-100.68750000000003
 21
57.495833333333394
  0
LINE
  8
_1-8_小物
  6
CONTINUOUS
 62
    4
 10
-100.68750000000003
 20
57.495833333333394
 11
-100.49999999999997
 21
57.604086655157658
  0
LINE
  8
_1-8_小物
  6
CONTINUOUS
 62
    4
 10
-100.49999999999991
 20
57.387580011509101
 11
-99.500000000000085
 21
57.622580011509086
  0
LINE
  8
_1-8_小物
  6
CONTINUOUS
 62
    4
 10
-99.312500000000028
 20
57.730833333333351
 11
-99.500000000000085
 21
57.622580011509086
  0
LINE
  8
_1-8_小物
  6
CONTINUOUS
 62
    4
 10
-99.500000000000099
 20
57.839086655157644
 11
-99.312500000000028
 21
57.730833333333351
  0
LINE
  8
_1-8_小物
  6
CONTINUOUS
 62
    4
 10
-100.49999999999997
 20
57.604086655157658
 11
-99.500000000000099
 21
57.839086655157644
  0
LINE
  8
_1-8_小物
  6
CONTINUOUS
 62
    4
 10
-100.68750000000003
 20
57.495833333333394
 11
-99.312500000000028
 21
57.730833333333351
  0
LINE
  8
_1-8_小物
  6
CONTINUOUS
 62
    4
 10
-100.49999999999991
 20
56.917580011509159
 11
-100.68750000000003
 21
57.025833333333395
  0
LINE
  8
_1-8_小物
  6
CONTINUOUS
 62
    4
 10
-100.68750000000003
 20
57.025833333333395
 11
-100.49999999999997
 21
57.134086655157716
  0
LINE
  8
_1-8_小物
  6
CONTINUOUS
 62
    4
 10
-100.49999999999991
 20
56.917580011509159
 11
-99.500000000000085
 21
57.152580011509144
  0
LINE
  8
_1-8_小物
  6
CONTINUOUS
 62
    4
 10
-99.312500000000028
 20
57.260833333333409
 11
-99.500000000000085
 21
57.152580011509144
  0
LINE
  8
_1-8_小物
  6
CONTINUOUS
 62
    4
 10
-99.500000000000099
 20
57.369086655157645
 11
-99.312500000000028
 21
57.260833333333409
  0
LINE
  8
_1-8_小物
  6
CONTINUOUS
 62
    4
 10
-100.49999999999997
 20
57.134086655157716
 11
-99.500000000000099
 21
57.369086655157645
  0
LINE
  8
_1-8_小物
  6
CONTINUOUS
 62
    4
 10
-100.68750000000003
 20
57.025833333333395
 11
-99.312500000000028
 21
57.260833333333409
  0
LINE
  8
_1-8_小物
  6
CONTINUOUS
 62
    4
 10
-100.49999999999991
 20
56.447580011509132
 11
-100.68750000000003
 21
56.555833333333396
  0
LINE
  8
_1-8_小物
  6
CONTINUOUS
 62
    4
 10
-100.68750000000003
 20
56.555833333333396
 11
-100.49999999999997
 21
56.664086655157689
  0
LINE
  8
_1-8_小物
  6
CONTINUOUS
 62
    4
 10
-100.49999999999991
 20
56.447580011509132
 11
-99.500000000000085
 21
56.682580011509117
  0
LINE
  8
_1-8_小物
  6
CONTINUOUS
 62
    4
 10
-99.312500000000028
 20
56.790833333333381
 11
-99.500000000000085
 21
56.682580011509117
  0
LINE
  8
_1-8_小物
  6
CONTINUOUS
 62
    4
 10
-99.500000000000099
 20
56.899086655157646
 11
-99.312500000000028
 21
56.790833333333381
  0
LINE
  8
_1-8_小物
  6
CONTINUOUS
 62
    4
 10
-100.49999999999997
 20
56.664086655157689
 11
-99.500000000000099
 21
56.899086655157646
  0
LINE
  8
_1-8_小物
  6
CONTINUOUS
 62
    4
 10
-100.68750000000003
 20
56.555833333333396
 11
-99.312500000000028
 21
56.790833333333381
  0
LINE
  8
_1-8_小物
  6
CONTINUOUS
 62
    4
 10
-100.49999999999991
 20
55.97758001150919
 11
-100.68750000000003
 21
56.085833333333454
  0
LINE
  8
_1-8_小物
  6
CONTINUOUS
 62
    4
 10
-100.68750000000003
 20
56.085833333333454
 11
-100.49999999999997
 21
56.19408665515769
  0
LINE
  8
_1-8_小物
  6
CONTINUOUS
 62
    4
 10
-100.49999999999991
 20
55.97758001150919
 11
-99.500000000000085
 21
56.212580011509118
  0
LINE
  8
_1-8_小物
  6
CONTINUOUS
 62
    4
 10
-99.312500000000028
 20
56.320833333333439
 11
-99.500000000000085
 21
56.212580011509118
  0
LINE
  8
_1-8_小物
  6
CONTINUOUS
 62
    4
 10
-99.500000000000099
 20
56.429086655157704
 11
-99.312500000000028
 21
56.320833333333439
  0
LINE
  8
_1-8_小物
  6
CONTINUOUS
 62
    4
 10
-100.49999999999997
 20
56.19408665515769
 11
-99.500000000000099
 21
56.429086655157704
  0
LINE
  8
_1-8_小物
  6
CONTINUOUS
 62
    4
 10
-100.68750000000003
 20
56.085833333333454
 11
-99.312500000000028
 21
56.320833333333439
  0
LINE
  8
_1-8_小物
  6
CONTINUOUS
 62
    4
 10
-99.500000000000142
 20
59.24908665515764
 11
-99.500000000000142
 21
59.502580011509053
  0
LINE
  8
_1-8_小物
  6
CONTINUOUS
 62
    4
 10
-99.500000000000142
 20
58.779086655157613
 11
-99.500000000000142
 21
59.032580011509054
  0
LINE
  8
_1-8_小物
  6
CONTINUOUS
 62
    4
 10
-99.500000000000142
 20
58.309086655157671
 11
-99.500000000000142
 21
58.562580011509027
  0
LINE
  8
_1-8_小物
  6
CONTINUOUS
 62
    4
 10
-99.500000000000142
 20
57.839086655157644
 11
-99.500000000000142
 21
58.092580011509114
  0
LINE
  8
_1-8_小物
  6
CONTINUOUS
 62
    4
 10
-99.500000000000142
 20
57.369086655157645
 11
-99.500000000000142
 21
57.622580011509086
  0
LINE
  8
_1-8_小物
  6
CONTINUOUS
 62
    4
 10
-99.500000000000142
 20
56.899086655157646
 11
-99.500000000000142
 21
57.152580011509144
  0
LINE
  8
_1-8_小物
  6
CONTINUOUS
 62
    4
 10
-99.500000000000142
 20
55.733333333333405
 11
-99.500000000000142
 21
56.212580011509118
  0
LINE
  8
_1-8_小物
  6
CONTINUOUS
 62
    4
 10
-99.500000000000142
 20
56.429086655157704
 11
-99.500000000000142
 21
56.682580011509117
  0
LINE
  8
_1-8_小物
  6
CONTINUOUS
 62
    4
 10
-100.49999999999991
 20
55.733333333333405
 11
-100.49999999999991
 21
55.97758001150919
  0
LINE
  8
_1-8_小物
  6
CONTINUOUS
 62
    4
 10
-100.49999999999991
 20
56.194086655157719
 11
-100.49999999999991
 21
56.447580011509132
  0
LINE
  8
_1-8_小物
  6
CONTINUOUS
 62
    4
 10
-100.49999999999991
 20
56.664086655157689
 11
-100.49999999999991
 21
56.917580011509159
  0
LINE
  8
_1-8_小物
  6
CONTINUOUS
 62
    4
 10
-100.49999999999991
 20
57.134086655157716
 11
-100.49999999999991
 21
57.387580011509101
  0
LINE
  8
_1-8_小物
  6
CONTINUOUS
 62
    4
 10
-100.49999999999991
 20
57.604086655157658
 11
-100.49999999999991
 21
57.8575800115091
  0
LINE
  8
_1-8_小物
  6
CONTINUOUS
 62
    4
 10
-100.49999999999991
 20
58.074086655157686
 11
-100.49999999999991
 21
58.327580011509099
  0
LINE
  8
_1-8_小物
  6
CONTINUOUS
 62
    4
 10
-100.49999999999991
 20
58.544086655157713
 11
-100.49999999999991
 21
58.797580011509126
  0
LINE
  8
_1-8_小物
  6
CONTINUOUS
 62
    4
 10
-100.56666666666658
 20
59.506666666666717
 11
-100.56666666666658
 21
60.503333333333387
  0
LINE
  8
_1-8_小物
  6
CONTINUOUS
 62
    4
 10
-99.433333333333479
 20
59.506666666666717
 11
-100.56666666666658
 21
59.506666666666717
  0
LINE
  8
_1-8_小物
  6
CONTINUOUS
 62
    4
 10
-99.433333333333479
 20
59.506666666666717
 11
-99.433333333333479
 21
60.503333333333387
  0
LINE
  8
_1-8_小物
  6
CONTINUOUS
 62
    4
 10
-99.433333333333479
 20
60.503333333333387
 11
-100.00000000000003
 21
60.830498485874159
  0
LINE
  8
_1-8_小物
  6
CONTINUOUS
 62
    4
 10
-100.56666666666658
 20
60.503333333333387
 11
-100.00000000000003
 21
60.830498485874159
  0
LINE
  8
_1-8_小物
  6
CONTINUOUS
 62
    4
 10
-100.00000000000003
 20
60.715028432036206
 11
-100.46666666666667
 21
60.445598306414468
  0
LINE
  8
_1-8_小物
  6
CONTINUOUS
 62
    4
 10
-100.46666666666667
 20
59.506666666666717
 11
-100.46666666666667
 21
60.445598306414468
  0
LINE
  8
_1-8_小物
  6
CONTINUOUS
 62
    4
 10
-100.00000000000003
 20
60.715028432036206
 11
-100.21306678169115
 21
59.506666666666717
  0
LINE
  8
_1-8_小物
  6
CONTINUOUS
 62
    4
 10
-100.49999999999991
 20
59.014086655157655
 11
-100.49999999999991
 21
59.506666666666717
  0
LINE
  8
_1-8_小物
  6
CONTINUOUS
 62
    4
 10
-100.00000000000003
 20
60.830498485874159
 11
-100.00000000000003
 21
60.715028432036206
  0
LINE
  8
_1-8_小物
  6
CENTER2
 62
    4
 10
-100.00000000000003
 20
54.8333333333334
 11
-100.00000000000003
 21
61.163831819207445
  0
ENDBLK
  0
BLOCK
  2
-019-_13_
 70
   64
 10
0
 20
0
 30
0
  0
ARC
  8
_1-7_カバ__
  6
CONTINUOUS
 62
    4
 10
-63.833333333333371
 20
55.666666666666629
 40
0.1666666666666666
 50
270
 51
0
  0
LINE
  8
_1-7_カバ__
  6
CONTINUOUS
 62
    4
 10
-63.666666666666686
 20
55.666666666666629
 11
-63.666666666666686
 21
59.333333333333258
  0
ARC
  8
_1-7_カバ__
  6
CONTINUOUS
 62
    4
 10
-63.833333333333371
 20
59.333333333333258
 40
0.1666666666666666
 50
0
 51
90
  0
ARC
  8
_1-7_カバ__
  6
CONTINUOUS
 62
    4
 10
-63.833333333333371
 20
55.666666666666629
 40
0.5
 50
270
 51
0
  0
LINE
  8
_1-7_カバ__
  6
CONTINUOUS
 62
    4
 10
-63.333333333333371
 20
55.666666666666629
 11
-63.333333333333371
 21
59.333333333333258
  0
ARC
  8
_1-7_カバ__
  6
CONTINUOUS
 62
    4
 10
-63.833333333333371
 20
59.333333333333258
 40
0.5
 50
0
 51
90
  0
ARC
  8
_1-7_カバ__
  6
CONTINUOUS
 62
    4
 10
-136.16666666666669
 20
55.666666666666657
 40
0.1666666666666666
 50
180
 51
270
  0
LINE
  8
_1-7_カバ__
  6
CONTINUOUS
 62
    4
 10
-136.33333333333337
 20
55.666666666666657
 11
-136.33333333333337
 21
59.333333333333286
  0
ARC
  8
_1-7_カバ__
  6
CONTINUOUS
 62
    4
 10
-136.16666666666669
 20
59.333333333333286
 40
0.1666666666666666
 50
90
 51
180
  0
ARC
  8
_1-7_カバ__
  6
CONTINUOUS
 62
    4
 10
-136.16666666666669
 20
55.666666666666657
 40
0.5
 50
180
 51
270
  0
LINE
  8
_1-7_カバ__
  6
CONTINUOUS
 62
    4
 10
-136.66666666666669
 20
55.666666666666657
 11
-136.66666666666669
 21
59.333333333333286
  0
ARC
  8
_1-7_カバ__
  6
CONTINUOUS
 62
    4
 10
-136.16666666666669
 20
59.333333333333286
 40
0.5
 50
90
 51
180
  0
LINE
  8
_1-7_カバ__
  6
CONTINUOUS
 62
    4
 10
-63.833333333333371
 20
55.5
 11
-136.16666666666669
 21
55.5
  0
LINE
  8
_1-7_カバ__
  6
CONTINUOUS
 62
    4
 10
-63.833333333333371
 20
55.166666666666629
 11
-136.16666666666669
 21
55.166666666666657
  0
LINE
  8
_1-7_カバ__
  6
CONTINUOUS
 62
    4
 10
-66.666666666666686
 20
59.499999999999915
 11
-66.666666666666686
 21
59.833333333333258
  0
LINE
  8
_1-7_カバ__
  6
CONTINUOUS
 62
    4
 10
-63.833333333333371
 20
59.833333333333258
 11
-66.666666666666686
 21
59.833333333333258
  0
LINE
  8
_1-7_カバ__
  6
CONTINUOUS
 62
    4
 10
-63.833333333333371
 20
59.499999999999915
 11
-66.666666666666686
 21
59.499999999999915
  0
LINE
  8
_1-7_カバ__
  6
CONTINUOUS
 62
    4
 10
-133.33333333333337
 20
59.499999999999943
 11
-133.33333333333337
 21
59.833333333333286
  0
LINE
  8
_1-7_カバ__
  6
CONTINUOUS
 62
    4
 10
-136.16666666666669
 20
59.833333333333286
 11
-133.33333333333337
 21
59.833333333333286
  0
LINE
  8
_1-7_カバ__
  6
CONTINUOUS
 62
    4
 10
-136.16666666666669
 20
59.499999999999943
 11
-133.33333333333337
 21
59.499999999999943
  0
LINE
  8
_1-7_カバ__
  6
DASHED1
 62
    4
 10
-100.75000000000003
 20
55.5
 11
-101.08333333333336
 21
55.166666666666657
  0
LINE
  8
_1-7_カバ__
  6
DASHED1
 62
    4
 10
-99.250000000000028
 20
55.5
 11
-98.916666666666686
 21
55.166666666666629
  0
ENDBLK
  0
BLOCK
  2
-020-_14_
 70
   64
 10
0
 20
0
 30
0
  0
ARC
  8
_1-7_カバ__
  6
CONTINUOUS
 62
    4
 10
91.666666666666458
 20
54.999999920533043
 40
0.5
 50
90
 51
180
  0
ARC
  8
_1-7_カバ__
  6
CONTINUOUS
 62
    4
 10
91.666666666666458
 20
54.999999920533043
 40
0.1666666666666666
 50
90
 51
180
  0
LINE
  8
_1-7_カバ__
  6
CENTER2
 62
    4
 10
114.1666666688497
 20
52.499999920533014
 11
114.1666666688497
 21
57.3333332538663
  0
ARC
  8
_1-7_カバ__
  6
CONTINUOUS
 62
    4
 10
136.16666667103283
 20
59.333333253866385
 40
0.1666666666666666
 50
0
 51
90
  0
LINE
  8
_1-7_カバ__
  6
CONTINUOUS
 62
    4
 10
136.33333333769963
 20
55.6666665871997
 11
136.33333333769963
 21
59.333333253866385
  0
ARC
  8
_1-7_カバ__
  6
CONTINUOUS
 62
    4
 10
136.16666667103283
 20
55.6666665871997
 40
0.1666666666666666
 50
270
 51
0
  0
ARC
  8
_1-7_カバ__
  6
CONTINUOUS
 62
    4
 10
136.16666667103283
 20
55.6666665871997
 40
0.5
 50
270
 51
0
  0
LINE
  8
_1-7_カバ__
  6
CONTINUOUS
 62
    4
 10
136.66666667103283
 20
55.6666665871997
 11
136.66666667103283
 21
59.333333253866385
  0
ARC
  8
_1-7_カバ__
  6
CONTINUOUS
 62
    4
 10
136.16666667103283
 20
59.333333253866385
 40
0.5
 50
0
 51
90
  0
LINE
  8
_1-7_カバ__
  6
CONTINUOUS
 62
    4
 10
133.33333333769951
 20
59.499999920533043
 11
133.33333333769951
 21
59.833333253866385
  0
LINE
  8
_1-7_カバ__
  6
CONTINUOUS
 62
    4
 10
136.16666667103283
 20
59.499999920533043
 11
133.33333333769951
 21
59.499999920533043
  0
LINE
  8
_1-7_カバ__
  6
CONTINUOUS
 62
    4
 10
136.16666667103283
 20
59.833333253866385
 11
133.33333333769951
 21
59.833333253866385
  0
ARC
  8
_1-7_カバ__
  6
CONTINUOUS
 62
    4
 10
90.999999999999773
 20
40.499999920533043
 40
0.1666666666666666
 50
270
 51
0
  0
LINE
  8
_1-7_カバ__
  6
CONTINUOUS
 62
    4
 10
90.999999999999773
 20
40.333333253866385
 11
87.333333333332803
 21
40.333333253866385
  0
ARC
  8
_1-7_カバ__
  6
CONTINUOUS
 62
    4
 10
87.333333333332803
 20
40.499999920533043
 40
0.1666666666666666
 50
180
 51
270
  0
ARC
  8
_1-7_カバ__
  6
CONTINUOUS
 62
    4
 10
87.333333333332803
 20
40.499999920533043
 40
0.5
 50
180
 51
270
  0
LINE
  8
_1-7_カバ__
  6
CONTINUOUS
 62
    4
 10
90.999999999999773
 20
39.999999920533043
 11
87.333333333332803
 21
39.999999920533043
  0
ARC
  8
_1-7_カバ__
  6
CONTINUOUS
 62
    4
 10
90.999999999999773
 20
40.499999920533043
 40
0.5
 50
270
 51
0
  0
LINE
  8
_1-7_カバ__
  6
CONTINUOUS
 62
    4
 10
87.166666666666174
 20
43.333333253866215
 11
86.833333333332803
 21
43.333333253866215
  0
LINE
  8
_1-7_カバ__
  6
CONTINUOUS
 62
    4
 10
87.166666666666174
 20
40.499999920533043
 11
87.166666666666174
 21
43.333333253866215
  0
LINE
  8
_1-7_カバ__
  6
CONTINUOUS
 62
    4
 10
86.833333333332803
 20
40.499999920533043
 11
86.833333333332803
 21
43.333333253866215
  0
LINE
  8
_1-7_カバ__
  6
CONTINUOUS
 62
    4
 10
91.666666666666458
 20
55.1666665871997
 11
136.16666667103283
 21
55.1666665871997
  0
LINE
  8
_1-7_カバ__
  6
CONTINUOUS
 62
    4
 10
91.666666666666458
 20
55.499999920533043
 11
136.16666667103283
 21
55.499999920533043
  0
LINE
  8
_1-7_カバ__
  6
CONTINUOUS
 62
    4
 10
91.166666666666458
 20
54.999999920533043
 11
91.166666666666458
 21
40.499999920533043
  0
LINE
  8
_1-7_カバ__
  6
CONTINUOUS
 62
    4
 10
91.499999999999773
 20
54.999999920533043
 11
91.499999999999773
 21
40.499999920533043
  0
LINE
  8
_1-7_カバ__
  6
DASHED1
 62
    4
 10
114.9166666688497
 20
55.499999920533043
 11
115.25000000218301
 21
55.1666665871997
  0
LINE
  8
_1-7_カバ__
  6
DASHED1
 62
    4
 10
113.4166666688497
 20
55.499999920533043
 11
113.08333333551639
 21
55.1666665871997
  0
ENDBLK
  0
BLOCK
  2
-021-_15_
 70
   64
 10
0
 20
0
 30
0
  0
ARC
  8
_1-8_小物
  6
CONTINUOUS
 62
    4
 10
86.933333333332826
 20
43.333333253866215
 40
0.0999999999999999
 50
90
 51
180
  0
LINE
  8
_1-8_小物
  6
CONTINUOUS
 62
    4
 10
86.16666666666606
 20
40.499999920532929
 11
85.707599280044519
 21
40.499999920532929
  0
ARC
  8
_1-8_小物
  6
CONTINUOUS
 62
    4
 10
86.16666666666606
 20
40.666666587199558
 40
0.1666666666666666
 50
270
 51
0
  0
LINE
  8
_1-8_小物
  6
CONTINUOUS
 62
    4
 10
86.16666666666606
 20
39.999999920532929
 11
85.66666666666606
 21
39.999999920532929
  0
ARC
  8
_1-8_小物
  6
CONTINUOUS
 62
    4
 10
86.16666666666606
 20
40.666666587199558
 40
0.6666666666666666
 50
270
 51
0
  0
LINE
  8
_1-8_小物
  6
CONTINUOUS
 62
    4
 10
86.333333333332803
 20
40.666666587199558
 11
86.333333333332803
 21
43.26666658719958
  0
ARC
  8
_1-8_小物
  6
CONTINUOUS
 62
    4
 10
86.833333333332803
 20
43.26666658719958
 40
0.5
 50
90
 51
180
  0
ARC
  8
_1-8_小物
  6
CONTINUOUS
 62
    4
 10
83.207996260122286
 20
40.91202239634427
 40
0.4999999999999946
 50
100.6398091980884
 51
260.6398091980854
  0
LINE
  8
_1-8_小物
  6
CONTINUOUS
 62
    4
 10
85.707599280044519
 20
40.499999920532929
 11
83.394521959637359
 21
40.881276401918683
  0
ARC
  8
_1-8_小物
  6
CONTINUOUS
 62
    4
 10
83.399943308003344
 20
40.914165915338714
 40
0.0333333333333333
 50
100.63980919816282
 51
260.63980919800883
  0
ARC
  8
_1-8_小物
  6
CONTINUOUS
 62
    4
 10
84.39034682509407
 20
41.388517035884831
 40
0.25
 50
280.63980919808898
 51
100.63980919808665
  0
LINE
  8
_1-8_小物
  6
CONTINUOUS
 62
    4
 10
84.344188262296711
 20
41.634218861438654
 11
83.115679134527568
 21
41.403426047451887
  0
LINE
  8
_1-8_小物
  6
CONTINUOUS
 62
    4
 10
85.66666666666606
 20
39.999999920532929
 11
83.126676034633192
 21
40.418679695043835
  0
LINE
  8
_1-8_小物
  6
CONTINUOUS
 62
    4
 10
86.833333333332803
 20
40.666666587199558
 11
86.833333333332803
 21
43.333333253866215
  0
ARC
  8
_1-8_小物
  6
CONTINUOUS
 62
    4
 10
87.574384780128639
 20
41.478443363274607
 40
0.1666666666666666
 50
177.2805179600324
 51
267.28051796003189
  0
ARC
  8
_1-8_小物
  6
CONTINUOUS
 62
    4
 10
87.399998130784752
 20
41.319872079347817
 40
0.3333333333333333
 50
177.2805179600368
 51
267.28051796003172
  0
LINE
  8
_1-8_小物
  6
CONTINUOUS
 62
    4
 10
87.384182765367655
 20
40.986914146077225
 11
87.717140698638218
 21
40.971098780660128
  0
ARC
  8
_1-8_小物
  6
CONTINUOUS
 62
    4
 10
87.725048381346824
 20
41.137577747295438
 40
0.1666666666666666
 50
267.28051796003189
 51
87.280517960051895
  0
LINE
  8
_1-8_小物
  6
CONTINUOUS
 62
    4
 10
87.566477097420034
 20
41.311964396639297
 11
87.732956064055315
 21
41.30405671393072
  0
LINE
  8
_1-8_小物
  6
CONTINUOUS
 62
    4
 10
87.061814808013992
 20
43.433333253866238
 11
86.933333333332826
 21
43.433333253866238
  0
LINE
  8
_1-8_小物
  6
CONTINUOUS
 62
    4
 10
87.407905813493358
 20
41.486351045983099
 11
87.499635447308947
 21
43.417517888449225
  0
LINE
  8
_1-8_小物
  6
CONTINUOUS
 62
    4
 10
87.16667751403827
 20
43.76666658719958
 11
86.833333333332803
 21
43.76666658719958
  0
ARC
  8
_1-8_小物
  6
CONTINUOUS
 62
    4
 10
87.061814808013992
 20
43.333333253866215
 40
0.0999999999999999
 50
357.28051796006076
 51
90
  0
ARC
  8
_1-8_小物
  6
CONTINUOUS
 62
    4
 10
87.16667751403827
 20
43.433333253866238
 40
0.3333333333333333
 50
357.28051796004121
 51
90
  0
LINE
  8
_1-8_小物
  6
CONTINUOUS
 62
    4
 10
87.067040197514189
 20
41.335687444764886
 11
87.161702187995047
 21
43.328588644241137
  0
LINE
  8
_1-8_小物
  6
CONTINUOUS
 62
    4
 10
84.43650538789143
 20
41.14281521033098
 11
83.393788832963651
 21
40.946926158745924
  0
ENDBLK
  0
BLOCK
  2
-022-_16_
 70
   64
 10
0
 20
0
 30
0
  0
ARC
  8
_1-8_小物
  6
CONTINUOUS
 62
    4
 10
133.33333333769951
 20
59.733333253866391
 40
0.0999999999999999
 50
90
 51
180
  0
LINE
  8
_1-8_小物
  6
CONTINUOUS
 62
    4
 10
136.16666667103277
 20
60.499999920533071
 11
136.16666667103277
 21
60.959067307154697
  0
ARC
  8
_1-8_小物
  6
CONTINUOUS
 62
    4
 10
136.00000000436614
 20
60.499999920533071
 40
0.1666666666666666
 50
270
 51
0
  0
LINE
  8
_1-8_小物
  6
CONTINUOUS
 62
    4
 10
136.66666667103277
 20
60.499999920533071
 11
136.66666667103277
 21
60.999999920533071
  0
ARC
  8
_1-8_小物
  6
CONTINUOUS
 62
    4
 10
136.00000000436614
 20
60.499999920533071
 40
0.6666666666666666
 50
270
 51
0
  0
LINE
  8
_1-8_小物
  6
CONTINUOUS
 62
    4
 10
136.00000000436614
 20
60.333333253866414
 11
133.40000000436612
 21
60.333333253866414
  0
ARC
  8
_1-8_小物
  6
CONTINUOUS
 62
    4
 10
133.40000000436612
 20
59.833333253866414
 40
0.5
 50
90
 51
180
  0
ARC
  8
_1-8_小物
  6
CONTINUOUS
 62
    4
 10
135.75464419522143
 20
63.458670327076931
 40
0.4999999999999946
 50
9.3601908019113864
 51
169.36019080191099
  0
LINE
  8
_1-8_小物
  6
CONTINUOUS
 62
    4
 10
136.16666667103277
 20
60.959067307154697
 11
135.78539018964705
 21
63.272144627561829
  0
ARC
  8
_1-8_小物
  6
CONTINUOUS
 62
    4
 10
135.75250067622693
 20
63.266723279195872
 40
0.0333333333333333
 50
9.3601908019350457
 51
169.36019080189422
  0
ARC
  8
_1-8_小物
  6
CONTINUOUS
 62
    4
 10
135.27814955568084
 20
62.276319762105146
 40
0.25
 50
169.3601908019198
 51
349.3601908019134
  0
LINE
  8
_1-8_小物
  6
CONTINUOUS
 62
    4
 10
135.03244773012705
 20
62.322478324902477
 11
135.26324054411384
 21
63.550987452671649
  0
LINE
  8
_1-8_小物
  6
CONTINUOUS
 62
    4
 10
136.66666667103277
 20
60.999999920533071
 11
136.24798689652181
 21
63.539990552565996
  0
LINE
  8
_1-8_小物
  6
CONTINUOUS
 62
    4
 10
136.00000000436614
 20
59.833333253866414
 11
133.33333333769951
 21
59.833333253866414
  0
ARC
  8
_1-8_小物
  6
CONTINUOUS
 62
    4
 10
135.18822322829112
 20
59.092281807070577
 40
0.1666666666666666
 50
2.7194820399578528
 51
92.719482039968085
  0
ARC
  8
_1-8_小物
  6
CONTINUOUS
 62
    4
 10
135.34679451221791
 20
59.266668456414436
 40
0.3333333333333333
 50
2.7194820399583164
 51
92.719482039968327
  0
LINE
  8
_1-8_小物
  6
CONTINUOUS
 62
    4
 10
135.67975244548848
 20
59.282483821831477
 11
135.69556781090552
 21
58.949525888560913
  0
ARC
  8
_1-8_小物
  6
CONTINUOUS
 62
    4
 10
135.52908884427029
 20
58.941618205852365
 40
0.1666666666666666
 50
182.7194820399676
 51
2.7194820399587911
  0
LINE
  8
_1-8_小物
  6
CONTINUOUS
 62
    4
 10
135.3547021949264
 20
59.100189489779098
 11
135.36260987763501
 21
58.933710523143873
  0
LINE
  8
_1-8_小物
  6
CONTINUOUS
 62
    4
 10
133.23333333769943
 20
59.604851779185225
 11
133.23333333769943
 21
59.733333253866391
  0
LINE
  8
_1-8_小物
  6
CONTINUOUS
 62
    4
 10
135.18031554558257
 20
59.258760773705859
 11
133.24914870311642
 21
59.16703113989027
  0
LINE
  8
_1-8_小物
  6
CONTINUOUS
 62
    4
 10
132.90000000436612
 20
59.499989073160862
 11
132.90000000436612
 21
59.833333253866414
  0
ARC
  8
_1-8_小物
  6
CONTINUOUS
 62
    4
 10
133.33333333769951
 20
59.604851779185225
 40
0.0999999999999999
 50
180
 51
272.71948203992298
  0
ARC
  8
_1-8_小物
  6
CONTINUOUS
 62
    4
 10
133.23333333769943
 20
59.499989073160862
 40
0.3333333333333333
 50
180
 51
272.71948203997806
  0
LINE
  8
_1-8_小物
  6
CONTINUOUS
 62
    4
 10
135.33097914680076
 20
59.599626389685
 11
133.33807794732456
 21
59.504964399204084
  0
LINE
  8
_1-8_小物
  6
CONTINUOUS
 62
    4
 10
135.52385138123475
 20
62.230161199307759
 11
135.71974043281972
 21
63.272877754235537
  0
ENDBLK
  0
ENDSEC
  0
SECTION
  2
ENTITIES
  0
LINE
  8
_0-0_図面枠
  6
CONTINUOUS
 62
    6
 10
410.00000000000006
 20
287
 11
10
 21
287.00000000000006
  0
LINE
  8
_0-0_図面枠
  6
CONTINUOUS
 62
    6
 10
410
 20
9.9999999999998863
 11
410.00000000000006
 21
287
  0
LINE
  8
_0-0_図面枠
  6
CONTINUOUS
 62
    6
 10
9.9999999999999147
 20
10
 11
410
 21
9.9999999999998863
  0
LINE
  8
_0-0_図面枠
  6
CONTINUOUS
 62
    6
 10
10
 20
287.00000000000006
 11
9.9999999999999147
 21
10
  0
LINE
  8
ADD_LINE
  6
DOT
 62
    4
 10
0
 20
148.5
 11
420
 21
148.5
  0
LINE
  8
_0-0_図面枠
  6
CONTINUOUS
 62
    6
 10
210
 20
287
 11
210.00000000000003
 21
9.9999999999999432
  0
LINE
  8
_0-0_図面枠
  6
CONTINUOUS
 62
    4
 10
182.14999999999998
 20
50.199999999999974
 11
40
 21
50.199999999999974
  0
LINE
  8
_0-0_図面枠
  6
CONTINUOUS
 62
    4
 10
182.14999999999998
 20
62.199999999999974
 11
40
 21
62.199999999999974
  0
LINE
  8
_0-0_図面枠
  6
CONTINUOUS
 62
    4
 10
182.14999999999998
 20
56.199999999999974
 11
40
 21
56.199999999999974
  0
LINE
  8
_0-0_図面枠
  6
CONTINUOUS
 62
    4
 10
182.14999999999998
 20
68.199999999999974
 11
40
 21
68.199999999999974
  0
LINE
  8
_0-0_図面枠
  6
CONTINUOUS
 62
    4
 10
182.14999999999998
 20
104.20000000000003
 11
40
 21
104.20000000000003
  0
LINE
  8
_0-0_図面枠
  6
CONTINUOUS
 62
    4
 10
182.14999999999998
 20
98.200000000000031
 11
40
 21
98.200000000000031
  0
LINE
  8
_0-0_図面枠
  6
CONTINUOUS
 62
    4
 10
182.14999999999998
 20
92.200000000000031
 11
40
 21
92.200000000000031
  0
LINE
  8
_0-0_図面枠
  6
CONTINUOUS
 62
    4
 10
182.14999999999998
 20
86.200000000000031
 11
40
 21
86.200000000000031
  0
LINE
  8
_0-0_図面枠
  6
CONTINUOUS
 62
    4
 10
182.14999999999998
 20
80.200000000000031
 11
40
 21
80.200000000000031
  0
LINE
  8
_0-0_図面枠
  6
CONTINUOUS
 62
    4
 10
182.14999999999998
 20
74.199999999999974
 11
40
 21
74.199999999999974
  0
LINE
  8
_0-0_図面枠
  6
CONTINUOUS
 62
    4
 10
182.14999999999998
 20
114.99999999999999
 11
40
 21
114.99999999999999
  0
LINE
  8
_0-0_図面枠
  6
CONTINUOUS
 62
    4
 10
182.14999999999998
 20
44.199999999999974
 11
40
 21
44.199999999999974
  0
LINE
  8
_0-0_図面枠
  6
CONTINUOUS
 62
    4
 10
182.14999999999998
 20
38.199999999999974
 11
40
 21
38.199999999999974
  0
LINE
  8
_0-0_図面枠
  6
CONTINUOUS
 62
    4
 10
182.14999999999998
 20
32.199999999999974
 11
40
 21
32.199999999999974
  0
LINE
  8
_0-0_図面枠
  6
CONTINUOUS
 62
    4
 10
182.14999999999998
 20
26.199999999999974
 11
40
 21
26.199999999999974
  0
TEXT
  8
_0-0_図面枠
 62
    4
 10
165.551264
 20
110.20001049999995
 40
3.2000000000000002
 41
1
 50
0
  1
使用
  0
TEXT
  8
_0-0_図面枠
 62
    4
 10
150.50638249999994
 20
110.20001049999995
 40
3.2000000000000002
 41
1
 50
0
  1
定　尺
  0
TEXT
  8
_0-0_図面枠
 62
    4
 10
148.34354749999997
 20
105.40000399999995
 40
3.2000000000000002
 41
1
 50
0
  1
（ｍｍ）
  0
TEXT
  8
_0-0_図面枠
 62
    4
 10
165.551264
 20
105.40000399999995
 40
3.2000000000000002
 41
1
 50
0
  1
数量
  0
TEXT
  8
_0-0_図面枠
 62
    4
 10
40.497067999999985
 20
99.427549499999927
 40
3.2000000000000002
 41
1
 50
0
  1
　１
  0
TEXT
  8
_0-0_図面枠
 62
    4
 10
149.270477
 20
99.400003999999953
 40
3.2000000000000002
 41
1
 50
0
  1
３０００
  0
TEXT
  8
_0-0_図面枠
 62
    4
 10
177.00512500000002
 20
99.400003999999953
 40
3.2000000000000002
 41
1
 50
0
  1
本
  0
TEXT
  8
_0-0_図面枠
 62
    4
 10
43.586831999999987
 20
93.427549499999927
 40
3.2000000000000002
 41
1
 50
0
  1
２
  0
TEXT
  8
_0-0_図面枠
 62
    4
 10
43.586831999999987
 20
87.427549499999927
 40
3.2000000000000002
 41
1
 50
0
  1
３
  0
TEXT
  8
_0-0_図面枠
 62
    4
 10
43.586831999999987
 20
81.427549499999927
 40
3.2000000000000002
 41
1
 50
0
  1
４
  0
TEXT
  8
_0-0_図面枠
 62
    4
 10
43.586831999999987
 20
75.427560999999955
 40
3.2000000000000002
 41
1
 50
0
  1
５
  0
TEXT
  8
_0-0_図面枠
 62
    4
 10
43.586831999999987
 20
69.427560999999955
 40
3.2000000000000002
 41
1
 50
0
  1
６
  0
LINE
  8
_0-0_図面枠
  6
CONTINUOUS
 62
    4
 10
382.15000000000009
 20
104.19999999999997
 11
240
 21
104.19999999999997
  0
LINE
  8
_0-0_図面枠
  6
CONTINUOUS
 62
    4
 10
382.15000000000009
 20
98.199999999999974
 11
240
 21
98.199999999999974
  0
LINE
  8
_0-0_図面枠
  6
CONTINUOUS
 62
    4
 10
382.15000000000009
 20
92.199999999999974
 11
240
 21
92.199999999999974
  0
LINE
  8
_0-0_図面枠
  6
CONTINUOUS
 62
    4
 10
382.15000000000009
 20
86.199999999999974
 11
240
 21
86.199999999999974
  0
LINE
  8
_0-0_図面枠
  6
CONTINUOUS
 62
    4
 10
382.15000000000009
 20
80.199999999999974
 11
240
 21
80.199999999999974
  0
LINE
  8
_0-0_図面枠
  6
CONTINUOUS
 62
    4
 10
382.15000000000009
 20
74.199999999999974
 11
240
 21
74.199999999999974
  0
LINE
  8
_0-0_図面枠
  6
CONTINUOUS
 62
    4
 10
382.15000000000009
 20
68.199999999999974
 11
240
 21
68.199999999999974
  0
LINE
  8
_0-0_図面枠
  6
CONTINUOUS
 62
    4
 10
382.15000000000009
 20
62.199999999999974
 11
240
 21
62.199999999999974
  0
LINE
  8
_0-0_図面枠
  6
CONTINUOUS
 62
    4
 10
382.15000000000009
 20
56.199999999999974
 11
240
 21
56.199999999999974
  0
LINE
  8
_0-0_図面枠
  6
CONTINUOUS
 62
    4
 10
382.15000000000009
 20
50.199999999999974
 11
240
 21
50.199999999999974
  0
LINE
  8
_0-0_図面枠
  6
CONTINUOUS
 62
    4
 10
382.15000000000009
 20
38.199999999999974
 11
240
 21
38.199999999999974
  0
LINE
  8
_0-0_図面枠
  6
CONTINUOUS
 62
    4
 10
382.15000000000009
 20
114.99999999999999
 11
240
 21
114.99999999999999
  0
LINE
  8
_0-0_図面枠
  6
CONTINUOUS
 62
    4
 10
382.15000000000009
 20
26.199999999999974
 11
240
 21
26.199999999999974
  0
LINE
  8
_0-0_図面枠
  6
CONTINUOUS
 62
    4
 10
382.15000000000009
 20
20.199999999999989
 11
240
 21
20.199999999999989
  0
LINE
  8
_0-0_図面枠
  6
CONTINUOUS
 62
    4
 10
382.15000000000009
 20
44.199999999999974
 11
240
 21
44.199999999999974
  0
LINE
  8
_0-0_図面枠
  6
CONTINUOUS
 62
    4
 10
382.15000000000009
 20
32.199999999999974
 11
240
 21
32.199999999999974
  0
TEXT
  8
_0-0_図面枠
 62
    4
 10
365.55123000000003
 20
110.2000105
 40
3.2000000000000002
 41
1
 50
0
  1
使用
  0
TEXT
  8
_0-0_図面枠
 62
    4
 10
350.50632500000006
 20
110.20002199999998
 40
3.2000000000000002
 41
1
 50
0
  1
定　尺
  0
TEXT
  8
_0-0_図面枠
 62
    4
 10
348.34349000000003
 20
105.40001499999998
 40
3.2000000000000002
 41
1
 50
0
  1
（ｍｍ）
  0
TEXT
  8
_0-0_図面枠
 62
    4
 10
365.55123000000003
 20
105.40000400000001
 40
3.2000000000000002
 41
1
 50
0
  1
数量
  0
TEXT
  8
_0-0_図面枠
 62
    4
 10
240.4970505
 20
99.427549499999984
 40
3.2000000000000002
 41
1
 50
0
  1
　１
  0
TEXT
  8
_0-0_図面枠
 62
    4
 10
243.5868145
 20
93.427549499999984
 40
3.2000000000000002
 41
1
 50
0
  1
２
  0
TEXT
  8
_0-0_図面枠
 62
    4
 10
243.5868145
 20
87.427549499999984
 40
3.2000000000000002
 41
1
 50
0
  1
３
  0
TEXT
  8
_0-0_図面枠
 62
    4
 10
243.5868145
 20
81.427549499999984
 40
3.2000000000000002
 41
1
 50
0
  1
４
  0
TEXT
  8
_0-0_図面枠
 62
    4
 10
243.5868145
 20
75.427560999999983
 40
3.2000000000000002
 41
1
 50
0
  1
５
  0
TEXT
  8
_0-0_図面枠
 62
    4
 10
243.5868145
 20
69.427560999999983
 40
3.2000000000000002
 41
1
 50
0
  1
６
  0
TEXT
  8
_0-0_図面枠
 62
    4
 10
169.36022149999991
 20
99.449991499999996
 40
3.2000000000000002
 41
1
 50
0
  1
１
  0
TEXT
  8
_0-0_図面枠
 62
    4
 10
378.55000000000007
 20
112.8
 40
3.2000000000000002
 41
1
 50
0
  1
単位
  7
TATEGAKI
  0
LINE
  8
_0-0_図面枠
  6
CONTINUOUS
 62
    4
 10
182.14999999999998
 20
20.199999999999989
 11
40
 21
20.199999999999989
  0
LINE
  8
_0-0_図面枠
  6
CONTINUOUS
 62
    4
 10
40
 20
20.199999999999989
 11
40
 21
114.99999999999999
  0
LINE
  8
_0-0_図面枠
  6
CONTINUOUS
 62
    4
 10
47.200000000000017
 20
20.199999999999989
 11
47.200000000000017
 21
114.99999999999999
  0
LINE
  8
_0-0_図面枠
  6
CONTINUOUS
 62
    4
 10
182.14999999999998
 20
20.199999999999989
 11
182.14999999999998
 21
114.99999999999999
  0
LINE
  8
_0-0_図面枠
  6
CONTINUOUS
 62
    4
 10
162.94999999999999
 20
20.199999999999989
 11
162.94999999999999
 21
114.99999999999999
  0
LINE
  8
_0-0_図面枠
  6
CONTINUOUS
 62
    4
 10
147.95000000000002
 20
20.199999999999989
 11
147.95000000000002
 21
114.99999999999999
  0
LINE
  8
_0-0_図面枠
  6
CONTINUOUS
 62
    4
 10
174.95000000000005
 20
20.199999999999989
 11
174.95000000000005
 21
114.99999999999999
  0
LINE
  8
_0-0_図面枠
  6
CONTINUOUS
 62
    4
 10
146.95000000000002
 20
20.199999999999989
 11
146.95000000000002
 21
114.99999999999999
  0
LINE
  8
_0-0_図面枠
  6
CONTINUOUS
 62
    4
 10
240
 20
20.199999999999989
 11
240
 21
114.99999999999999
  0
LINE
  8
_0-0_図面枠
  6
CONTINUOUS
 62
    4
 10
247.20000000000005
 20
20.199999999999989
 11
247.20000000000005
 21
114.99999999999999
  0
LINE
  8
_0-0_図面枠
  6
CONTINUOUS
 62
    4
 10
346.95000000000005
 20
20.199999999999989
 11
346.95000000000005
 21
114.99999999999999
  0
LINE
  8
_0-0_図面枠
  6
CONTINUOUS
 62
    4
 10
382.15000000000009
 20
20.199999999999989
 11
382.15000000000009
 21
114.99999999999999
  0
LINE
  8
_0-0_図面枠
  6
CONTINUOUS
 62
    4
 10
374.95000000000005
 20
20.199999999999989
 11
374.95000000000005
 21
114.99999999999999
  0
LINE
  8
_0-0_図面枠
  6
CONTINUOUS
 62
    4
 10
362.95000000000005
 20
20.199999999999989
 11
362.95000000000005
 21
114.99999999999999
  0
LINE
  8
_0-0_図面枠
  6
CONTINUOUS
 62
    4
 10
347.95000000000005
 20
20.199999999999989
 11
347.95000000000005
 21
114.99999999999999
  0
TEXT
  8
_0-0_図面枠
 62
    4
 10
69.300000000000011
 20
108.00000000000001
 40
3.2000000000000002
 41
1
 50
0
  1
部材名称
  0
TEXT
  8
_0-0_図面枠
 62
    4
 10
178.54999999999995
 20
112.80000000000001
 40
3.2000000000000002
 41
1
 50
0
  1
単位
  7
TATEGAKI
  0
LINE
  8
_0-0_図面枠
  6
CONTINUOUS
 62
    4
 10
100.86666666666669
 20
20.199999999999989
 11
100.86666666666669
 21
114.99999999999999
  0
TEXT
  8
_0-0_図面枠
 62
    4
 10
119.10833333333336
 20
108
 40
3.2000000000000002
 41
1
 50
0
  1
規　格
  0
LINE
  8
_0-0_図面枠
  6
CONTINUOUS
 62
    4
 10
300.86666666666667
 20
20.199999999999989
 11
300.86666666666667
 21
114.99999999999999
  0
TEXT
  8
_0-0_図面枠
 62
    4
 10
267.63333333333333
 20
107.99999999999999
 40
3.2000000000000002
 41
1
 50
0
  1
部材名称
  0
TEXT
  8
_0-0_図面枠
 62
    4
 10
319.10833333333335
 20
107.99999999999999
 40
3.2000000000000002
 41
1
 50
0
  1
規　格
  0
TEXT
  8
_0-0_図面枠
 62
    4
 10
169.36022149999991
 20
93.45000299999991
 40
3.2000000000000002
 41
1
 50
0
  1
６
  0
TEXT
  8
_0-0_図面枠
 62
    4
 10
177.00512500000002
 20
93.400003999999953
 40
3.2000000000000002
 41
1
 50
0
  1
個
  0
TEXT
  8
_0-0_図面枠
 62
    4
 10
169.36022149999991
 20
88.050002999999975
 40
3.2000000000000002
 41
1
 50
0
  1
６
  0
TEXT
  8
_0-0_図面枠
 62
    4
 10
177.00512500000002
 20
87.999992500000047
 40
3.2000000000000002
 41
1
 50
0
  1
本
  0
TEXT
  8
_0-0_図面枠
 62
    4
 10
48.400007499999987
 20
88.000009500000061
 40
3.2000000000000002
 41
1
 50
0
  1
ステンドリリングねじ
  0
TEXT
  8
_0-0_図面枠
 62
    4
 10
102.0666796666667
 20
88.000009500000061
 40
3.2000000000000002
 41
1
 50
0
  1
皿(Ｄ６)４×１６
  0
TEXT
  8
_0-0_図面枠
 62
    4
 10
166.27045749999996
 20
81.45000850000001
 40
3.2000000000000002
 41
1
 50
0
  1
１２
  0
TEXT
  8
_0-0_図面枠
 62
    4
 10
48.400007499999987
 20
81.400009500000053
 40
3.2000000000000002
 41
1
 50
0
  1
ステンタッピンねじ
  0
TEXT
  8
_0-0_図面枠
 62
    4
 10
48.400007499999987
 20
75.400009500000053
 40
3.2000000000000002
 41
1
 50
0
  1
ステンワッシャー
  0
TEXT
  8
_0-0_図面枠
 62
    4
 10
166.27045749999996
 20
75.45000850000001
 40
3.2000000000000002
 41
1
 50
0
  1
１２
  0
TEXT
  8
_0-0_図面枠
 62
    4
 10
177.00512500000002
 20
75.400009500000053
 40
3.2000000000000002
 41
1
 50
0
  1
枚
  0
TEXT
  8
_0-0_図面枠
 62
    4
 10
177.00512500000002
 20
81.399992500000039
 40
3.2000000000000002
 41
1
 50
0
  1
本
  0
TEXT
  8
_0-0_図面枠
 62
    4
 10
149.270477
 20
69.400009499999996
 40
3.2000000000000002
 41
1
 50
0
  1
３１００
  0
TEXT
  8
_0-0_図面枠
 62
    4
 10
169.36022149999991
 20
69.449997499999981
 40
3.2000000000000002
 41
1
 50
0
  1
２
  0
TEXT
  8
_0-0_図面枠
 62
    4
 10
177.00512500000002
 20
69.400009499999996
 40
3.2000000000000002
 41
1
 50
0
  1
本
  0
TEXT
  8
_0-0_図面枠
 62
    4
 10
102.06669116666673
 20
81.400009500000053
 40
3.2000000000000002
 41
1
 50
0
  1
なべ４×３０
  0
TEXT
  8
_0-0_図面枠
 62
    4
 10
102.0666336666667
 20
75.400004000000038
 40
3.2000000000000002
 41
1
 50
0
  1
１．５×１８×４．５穴
  0
TEXT
  8
_0-0_図面枠
 62
    4
 10
349.27047700000003
 20
99.400003999999896
 40
3.2000000000000002
 41
1
 50
0
  1
３０００
  0
TEXT
  8
_0-0_図面枠
 62
    4
 10
377.00512500000002
 20
99.400003999999896
 40
3.2000000000000002
 41
1
 50
0
  1
本
  0
TEXT
  8
_0-0_図面枠
 62
    4
 10
369.36022149999997
 20
99.449991499999939
 40
3.2000000000000002
 41
1
 50
0
  1
１
  0
TEXT
  8
_0-0_図面枠
 62
    4
 10
369.36022149999997
 20
93.450002999999853
 40
3.2000000000000002
 41
1
 50
0
  1
６
  0
TEXT
  8
_0-0_図面枠
 62
    4
 10
377.00512500000002
 20
93.400003999999896
 40
3.2000000000000002
 41
1
 50
0
  1
個
  0
TEXT
  8
_0-0_図面枠
 62
    4
 10
369.36022149999997
 20
88.050002999999919
 40
3.2000000000000002
 41
1
 50
0
  1
６
  0
TEXT
  8
_0-0_図面枠
 62
    4
 10
377.00512500000002
 20
87.999992499999991
 40
3.2000000000000002
 41
1
 50
0
  1
本
  0
TEXT
  8
_0-0_図面枠
 62
    4
 10
248.40000750000002
 20
88.000009500000004
 40
3.2000000000000002
 41
1
 50
0
  1
ステンドリリングねじ
  0
TEXT
  8
_0-0_図面枠
 62
    4
 10
302.06667966666674
 20
88.000009500000004
 40
3.2000000000000002
 41
1
 50
0
  1
皿(Ｄ６)４×１６
  0
TEXT
  8
_0-0_図面枠
 62
    4
 10
366.27045750000002
 20
81.450008499999953
 40
3.2000000000000002
 41
1
 50
0
  1
１２
  0
TEXT
  8
_0-0_図面枠
 62
    4
 10
248.40000750000002
 20
81.400009499999996
 40
3.2000000000000002
 41
1
 50
0
  1
ステンタッピンねじ
  0
TEXT
  8
_0-0_図面枠
 62
    4
 10
248.40000750000002
 20
75.400009499999996
 40
3.2000000000000002
 41
1
 50
0
  1
ステンワッシャー
  0
TEXT
  8
_0-0_図面枠
 62
    4
 10
366.27045750000002
 20
75.450008499999953
 40
3.2000000000000002
 41
1
 50
0
  1
１２
  0
TEXT
  8
_0-0_図面枠
 62
    4
 10
377.00512500000002
 20
75.400009499999996
 40
3.2000000000000002
 41
1
 50
0
  1
枚
  0
TEXT
  8
_0-0_図面枠
 62
    4
 10
377.00512500000002
 20
81.399992499999982
 40
3.2000000000000002
 41
1
 50
0
  1
本
  0
TEXT
  8
_0-0_図面枠
 62
    4
 10
302.06669116666677
 20
81.400009499999996
 40
3.2000000000000002
 41
1
 50
0
  1
なべ４×３０
  0
TEXT
  8
_0-0_図面枠
 62
    4
 10
302.06663366666675
 20
75.400003999999981
 40
3.2000000000000002
 41
1
 50
0
  1
１．５×１８×４．５穴
  0
TEXT
  8
_0-0_図面枠
 62
    4
 10
349.27047700000003
 20
63.400009499999939
 40
3.2000000000000002
 41
1
 50
0
  1
３１００
  0
TEXT
  8
_0-0_図面枠
 62
    4
 10
369.36022149999997
 20
63.449997499999924
 40
3.2000000000000002
 41
1
 50
0
  1
２
  0
TEXT
  8
_0-0_図面枠
 62
    4
 10
377.00512500000002
 20
63.400009499999939
 40
3.2000000000000002
 41
1
 50
0
  1
本
  0
TEXT
  8
_0-0_図面枠
 62
    4
 10
243.5868145
 20
63.427555499999968
 40
3.2000000000000002
 41
1
 50
0
  1
７
  0
TEXT
  8
_0-0_図面枠
 62
    4
 10
377.00512500000013
 20
69.399992499999982
 40
3.2000000000000002
 41
1
 50
0
  1
本
  0
TEXT
  8
_0-0_図面枠
 62
    4
 10
102.06667966666672
 20
94.000009500000061
 40
3.2000000000000002
 41
1
 50
0
  1
Ｌ＝１２０
  0
TEXT
  8
_0-0_図面枠
 62
    4
 10
302.06667966666669
 20
94.000009500000004
 40
3.2000000000000002
 41
1
 50
0
  1
Ｌ＝１３５
  0
TEXT
  8
_0-0_図面枠
 62
    4
 10
122.30833333333337
 20
99.600000000000037
 40
3.2000000000000002
 41
1
 50
0
  1
―
  0
TEXT
  8
_0-0_図面枠
 62
    4
 10
122.30833333333335
 20
69.59999999999998
 40
3.2000000000000002
 41
1
 50
0
  1
―
  0
TEXT
  8
_0-0_図面枠
 62
    4
 10
322.30833333333328
 20
99.59999999999998
 40
3.2000000000000002
 41
1
 50
0
  1
―
  0
TEXT
  8
_0-0_図面枠
 62
    4
 10
322.30833333333328
 20
63.599999999999966
 40
3.2000000000000002
 41
1
 50
0
  1
―
  0
TEXT
  8
_0-0_図面枠
 62
    4
 10
153.84999999999999
 20
93.600000000000037
 40
3.2000000000000002
 41
1
 50
0
  1
―
  0
TEXT
  8
_0-0_図面枠
 62
    4
 10
153.84999999999999
 20
87.600000000000037
 40
3.2000000000000002
 41
1
 50
0
  1
―
  0
TEXT
  8
_0-0_図面枠
 62
    4
 10
153.84999999999999
 20
81.600000000000037
 40
3.2000000000000002
 41
1
 50
0
  1
―
  0
TEXT
  8
_0-0_図面枠
 62
    4
 10
153.84999999999999
 20
75.600000000000023
 40
3.2000000000000002
 41
1
 50
0
  1
―
  0
TEXT
  8
_0-0_図面枠
 62
    4
 10
353.85000000000002
 20
93.59999999999998
 40
3.2000000000000002
 41
1
 50
0
  1
―
  0
TEXT
  8
_0-0_図面枠
 62
    4
 10
353.85000000000002
 20
87.59999999999998
 40
3.2000000000000002
 41
1
 50
0
  1
―
  0
TEXT
  8
_0-0_図面枠
 62
    4
 10
353.85000000000002
 20
81.59999999999998
 40
3.2000000000000002
 41
1
 50
0
  1
―
  0
TEXT
  8
_0-0_図面枠
 62
    4
 10
353.85000000000002
 20
75.599999999999966
 40
3.2000000000000002
 41
1
 50
0
  1
―
  0
TEXT
  8
_0-0_図面枠
 62
    4
 10
353.85000000000002
 20
69.599999999999966
 40
3.2000000000000002
 41
1
 50
0
  1
―
  0
TEXT
  8
_0-0_図面枠
 62
    4
 10
302.06669116666689
 20
69.400009499999996
 40
3.2000000000000002
 41
1
 50
0
  1
Φ６×３０
  0
TEXT
  8
_0-0_図面枠
 62
    4
 10
369.36022149999997
 20
69.449997499999924
 40
3.2000000000000002
 41
1
 50
0
  1
６
  0
TEXT
  8
_0-0_図面枠
 62
    4
 10
43.586831999999987
 20
63.42755549999994
 40
3.2000000000000002
 41
1
 50
0
  1
※
  0
TEXT
  8
_0-0_図面枠
 62
    4
 10
169.36022149999991
 20
63.450002999999938
 40
3.2000000000000002
 41
1
 50
0
  1
１
  0
TEXT
  8
_0-0_図面枠
 62
    4
 10
177.00512500000002
 20
63.400003999999925
 40
3.2000000000000002
 41
1
 50
0
  1
個
  0
TEXT
  8
_0-0_図面枠
 62
    4
 10
153.85000000000002
 20
63.599999999999937
 40
3.2000000000000002
 41
1
 50
0
  1
―
  0
TEXT
  8
_0-0_図面枠
 62
    4
 10
102.06667966666669
 20
63.400003999999925
 40
3.2000000000000002
 41
1
 50
0
  1
ＡＬ　ｔ＝１．５
  0
TEXT
  8
_0-0_図面枠
 62
    4
 10
48.400007499999987
 20
63.400003999999925
 40
3.2000000000000002
 41
1
 50
0
  1
ジョイントプレート
  0
TEXT
  8
_0-0_図面枠
 62
    4
 10
43.586831999999987
 20
57.427555499999954
 40
3.2000000000000002
 41
1
 50
0
  1
※
  0
TEXT
  8
_0-0_図面枠
 62
    4
 10
169.36022149999991
 20
57.450002999999953
 40
3.2000000000000002
 41
1
 50
0
  1
２
  0
TEXT
  8
_0-0_図面枠
 62
    4
 10
177.00512500000002
 20
57.400009499999982
 40
3.2000000000000002
 41
1
 50
0
  1
本
  0
TEXT
  8
_0-0_図面枠
 62
    4
 10
102.06669116666673
 20
57.400009499999967
 40
3.2000000000000002
 41
1
 50
0
  1
１.５×(１×１９)Ｌ＝６００
  0
TEXT
  8
_0-0_図面枠
 62
    4
 10
48.400007500000015
 20
57.400009499999982
 40
3.2000000000000002
 41
1
 50
0
  1
落下防止ワイヤー
  0
TEXT
  8
_0-0_図面枠
 62
    4
 10
153.84999999999999
 20
57.599999999999966
 40
3.2000000000000002
 41
1
 50
0
  1
―
  0
TEXT
  8
_0-0_図面枠
 62
    4
 10
243.58683199999999
 20
57.427555499999954
 40
3.2000000000000002
 41
1
 50
0
  1
※
  0
TEXT
  8
_0-0_図面枠
 62
    4
 10
369.36022149999991
 20
57.450002999999953
 40
3.2000000000000002
 41
1
 50
0
  1
１
  0
TEXT
  8
_0-0_図面枠
 62
    4
 10
377.00512500000002
 20
57.400003999999939
 40
3.2000000000000002
 41
1
 50
0
  1
個
  0
TEXT
  8
_0-0_図面枠
 62
    4
 10
353.85000000000002
 20
57.599999999999966
 40
3.2000000000000002
 41
1
 50
0
  1
―
  0
TEXT
  8
_0-0_図面枠
 62
    4
 10
302.06667966666669
 20
57.400003999999939
 40
3.2000000000000002
 41
1
 50
0
  1
ＡＬ　ｔ＝１．５
  0
TEXT
  8
_0-0_図面枠
 62
    4
 10
248.40000749999999
 20
57.400003999999939
 40
3.2000000000000002
 41
1
 50
0
  1
ジョイントプレート
  0
TEXT
  8
_0-0_図面枠
 62
    4
 10
243.58683199999999
 20
51.427555499999968
 40
3.2000000000000002
 41
1
 50
0
  1
※
  0
TEXT
  8
_0-0_図面枠
 62
    4
 10
369.36022149999991
 20
51.450002999999967
 40
3.2000000000000002
 41
1
 50
0
  1
２
  0
TEXT
  8
_0-0_図面枠
 62
    4
 10
377.00512500000002
 20
51.400009499999996
 40
3.2000000000000002
 41
1
 50
0
  1
本
  0
TEXT
  8
_0-0_図面枠
 62
    4
 10
302.06669116666671
 20
51.400009499999982
 40
3.2000000000000002
 41
1
 50
0
  1
１.５×(１×１９)Ｌ＝６００
  0
TEXT
  8
_0-0_図面枠
 62
    4
 10
248.40000750000002
 20
51.400009499999996
 40
3.2000000000000002
 41
1
 50
0
  1
落下防止ワイヤー
  0
TEXT
  8
_0-0_図面枠
 62
    4
 10
353.84999999999997
 20
51.599999999999966
 40
3.2000000000000002
 41
1
 50
0
  1
―
  0
TEXT
  8
_0-0_図面枠
 62
    4
 10
41.666666666666799
 20
128
 40
3
 41
1
 50
0
  1
（落下防止ワイヤー）
  0
INSERT
  2
-000-
  8
_1-8_小物
 10
210
 20
148.5
 41
1
 42
1
 50
0
  0
LINE
  8
_1-8_小物
  6
CONTINUOUS
 62
    4
 10
157.03985321657854
 20
131.84018902839435
 11
151.17656837665959
 21
130.18752043233465
  0
LINE
  8
_1-8_小物
  6
CONTINUOUS
 62
    4
 10
157.16066740562414
 20
131.35707331101597
 11
151.2464714580253
 21
129.68796469593613
  0
LINE
  8
_1-8_小物
  6
CONTINUOUS
 62
    4
 10
157.03985321657854
 20
127.15981097160562
 11
151.17656837665959
 21
128.81247956766532
  0
LINE
  8
_1-8_小物
  6
CONTINUOUS
 62
    4
 10
157.16066740562414
 20
127.64292668898401
 11
151.2464714580253
 21
129.31203530406384
  0
LINE
  8
_1-8_小物
  6
CONTINUOUS
 62
    4
 10
157.16066751342231
 20
127.64292665856117
 11
157.16066751342231
 21
127.64292665856117
  0
LINE
  8
_1-8_小物
  6
CONTINUOUS
 62
    4
 10
157.16066751342231
 20
127.64292665856117
 11
157.63349044305451
 21
127.54220923628057
  0
LINE
  8
_1-8_小物
  6
CONTINUOUS
 62
    4
 10
157.63349044305451
 20
127.54220923628057
 11
158.12390677547921
 21
127.50097829566566
  0
LINE
  8
_1-8_小物
  6
CONTINUOUS
 62
    4
 10
158.12390677547921
 20
127.50097829566566
 11
158.61701545859836
 21
127.52048661798315
  0
LINE
  8
_1-8_小物
  6
CONTINUOUS
 62
    4
 10
158.61701545859836
 20
127.52048661798315
 11
159.09783363460036
 21
127.60014145273114
  0
LINE
  8
_1-8_小物
  6
CONTINUOUS
 62
    4
 10
159.09783363460036
 20
127.60014145273114
 11
159.55175188651319
 21
127.73752252806307
  0
LINE
  8
_1-8_小物
  6
CONTINUOUS
 62
    4
 10
159.55175188651319
 20
127.73752252806307
 11
159.96497813794616
 21
127.92845558952315
  0
LINE
  8
_1-8_小物
  6
CONTINUOUS
 62
    4
 10
159.96497813794616
 20
127.92845558952315
 11
160.32495671835204
 21
128.16713923265576
  0
LINE
  8
_1-8_小物
  6
CONTINUOUS
 62
    4
 10
160.32495671835204
 20
128.16713923265576
 11
160.62074986072321
 21
128.446321175744
  0
LINE
  8
_1-8_小物
  6
CONTINUOUS
 62
    4
 10
160.62074986072321
 20
128.446321175744
 11
160.8433700401072
 21
128.75751861672009
  0
LINE
  8
_1-8_小物
  6
CONTINUOUS
 62
    4
 10
160.8433700401072
 20
128.75751861672009
 11
160.9860530550047
 21
129.0912759788134
  0
LINE
  8
_1-8_小物
  6
CONTINUOUS
 62
    4
 10
160.9860530550047
 20
129.0912759788134
 11
161.04446355420916
 21
129.43745221346614
  0
LINE
  8
_1-8_小物
  6
CONTINUOUS
 62
    4
 10
161.04446355420916
 20
129.43745221346614
 11
161.01682676425938
 21
129.78552893096199
  0
LINE
  8
_1-8_小物
  6
CONTINUOUS
 62
    4
 10
161.01682676425938
 20
129.78552893096199
 11
160.90398241503306
 21
130.12492999637519
  0
LINE
  8
_1-8_小物
  6
CONTINUOUS
 62
    4
 10
160.90398241503306
 20
130.12492999637519
 11
160.70935922497949
 21
130.44534288007836
  0
LINE
  8
_1-8_小物
  6
CONTINUOUS
 62
    4
 10
160.70935922497949
 20
130.44534288007836
 11
160.43887072124437
 21
130.73703199873694
  0
LINE
  8
_1-8_小物
  6
CONTINUOUS
 62
    4
 10
160.43887072124437
 20
130.73703199873694
 11
160.10073556013987
 21
130.99113452608228
  0
LINE
  8
_1-8_小物
  6
CONTINUOUS
 62
    4
 10
160.10073556013987
 20
130.99113452608228
 11
159.7052278074315
 21
131.19992968540308
  0
LINE
  8
_1-8_小物
  6
CONTINUOUS
 62
    4
 10
159.7052278074315
 20
131.19992968540308
 11
159.26436476604874
 21
131.35707334143885
  0
LINE
  8
_1-8_小物
  6
CONTINUOUS
 62
    4
 10
159.26436476604874
 20
131.35707334143885
 11
158.79154183641654
 21
131.45779076371943
  0
LINE
  8
_1-8_小物
  6
CONTINUOUS
 62
    4
 10
158.79154183641654
 20
131.45779076371943
 11
158.30112550399184
 21
131.49902170433435
  0
LINE
  8
_1-8_小物
  6
CONTINUOUS
 62
    4
 10
158.30112550399184
 20
131.49902170433435
 11
157.80801682087269
 21
131.47951338201685
  0
LINE
  8
_1-8_小物
  6
CONTINUOUS
 62
    4
 10
157.80801682087269
 20
131.47951338201685
 11
157.32719864487069
 21
131.39985854726888
  0
LINE
  8
_1-8_小物
  6
CONTINUOUS
 62
    4
 10
157.32719864487069
 20
131.39985854726888
 11
157.16066740562411
 21
131.35707331101594
  0
LINE
  8
_1-8_小物
  6
CONTINUOUS
 62
    4
 10
157.03985330378111
 20
127.15981094702609
 11
157.03985330378111
 21
127.15981094702609
  0
LINE
  8
_1-8_小物
  6
CONTINUOUS
 62
    4
 10
157.03985330378111
 20
127.15981094702609
 11
157.59949477314501
 21
127.04264060375607
  0
LINE
  8
_1-8_小物
  6
CONTINUOUS
 62
    4
 10
157.59949477314501
 20
127.04264060375607
 11
158.17776258652901
 21
127.00013588225708
  0
LINE
  8
_1-8_小物
  6
CONTINUOUS
 62
    4
 10
158.17776258652901
 20
127.00013588225708
 11
158.75708636904102
 21
127.03358826698343
  0
LINE
  8
_1-8_小物
  6
CONTINUOUS
 62
    4
 10
158.75708636904102
 20
127.03358826698343
 11
159.31986366070143
 21
127.14198132415292
  0
LINE
  8
_1-8_小物
  6
CONTINUOUS
 62
    4
 10
159.31986366070143
 20
127.14198132415292
 11
159.84899475828217
 21
127.32202158557301
  0
LINE
  8
_1-8_小物
  6
CONTINUOUS
 62
    4
 10
159.84899475828217
 20
127.32202158557301
 11
160.3284022811365
 21
127.56823861900521
  0
LINE
  8
_1-8_小物
  6
CONTINUOUS
 62
    4
 10
160.3284022811365
 20
127.56823861900521
 11
160.74351967427444
 21
127.87315124448051
  0
LINE
  8
_1-8_小物
  6
CONTINUOUS
 62
    4
 10
160.74351967427444
 20
127.87315124448051
 11
161.08173380576497
 21
128.22749484616708
  0
LINE
  8
_1-8_小物
  6
CONTINUOUS
 62
    4
 10
161.08173380576497
 20
128.22749484616708
 11
161.33276821036739
 21
128.62050287303418
  0
LINE
  8
_1-8_小物
  6
CONTINUOUS
 62
    4
 10
161.33276821036739
 20
128.62050287303418
 11
161.48899533472741
 21
129.04023397505711
  0
LINE
  8
_1-8_小物
  6
CONTINUOUS
 62
    4
 10
161.48899533472741
 20
129.04023397505711
 11
161.54566829672606
 21
129.47393483509512
  0
LINE
  8
_1-8_小物
  6
CONTINUOUS
 62
    4
 10
161.54566829672606
 20
129.47393483509512
 11
161.50106511709092
 21
129.90842767197913
  0
LINE
  8
_1-8_小物
  6
CONTINUOUS
 62
    4
 10
161.50106511709092
 20
129.90842767197913
 11
161.35654104086493
 21
130.33051064072444
  0
LINE
  8
_1-8_小物
  6
CONTINUOUS
 62
    4
 10
161.35654104086493
 20
130.33051064072444
 11
161.11648735897148
 21
130.72735896391001
  0
LINE
  8
_1-8_小物
  6
CONTINUOUS
 62
    4
 10
161.11648735897148
 20
130.72735896391001
 11
160.7881979810619
 21
131.08691460605075
  0
LINE
  8
_1-8_小物
  6
CONTINUOUS
 62
    4
 10
160.7881979810619
 20
131.08691460605075
 11
160.3816478137615
 21
131.3982526509042
  0
LINE
  8
_1-8_小物
  6
CONTINUOUS
 62
    4
 10
160.3816478137615
 20
131.3982526509042
 11
159.90918967817942
 21
131.6519132495221
  0
LINE
  8
_1-8_小物
  6
CONTINUOUS
 62
    4
 10
159.90918967817942
 20
131.6519132495221
 11
159.38517897568994
 21
131.84018905297393
  0
LINE
  8
_1-8_小物
  6
CONTINUOUS
 62
    4
 10
159.38517897568994
 20
131.84018905297393
 11
158.82553750632604
 21
131.95735939624393
  0
LINE
  8
_1-8_小物
  6
CONTINUOUS
 62
    4
 10
158.82553750632604
 20
131.95735939624393
 11
158.24726969294204
 21
131.99986411774293
  0
LINE
  8
_1-8_小物
  6
CONTINUOUS
 62
    4
 10
158.24726969294204
 20
131.99986411774293
 11
157.66794591043003
 21
131.96641173301657
  0
LINE
  8
_1-8_小物
  6
CONTINUOUS
 62
    4
 10
157.66794591043003
 20
131.96641173301657
 11
157.10516861876962
 21
131.85801867584706
  0
LINE
  8
_1-8_小物
  6
CONTINUOUS
 62
    4
 10
157.10516861876962
 20
131.85801867584706
 11
157.03985321657854
 21
131.84018902839435
  0
ARC
  8
_1-8_小物
  6
CONTINUOUS
 62
    4
 10
149.88841540894526
 20
124.49999999999997
 40
5
 50
74.23983426036601
 51
82.444482010074083
  0
ARC
  8
_1-8_小物
  6
CONTINUOUS
 62
    4
 10
149.82008748449653
 20
123.99999999999997
 40
5
 50
74.258588419679057
 51
81.653895699843488
  0
ARC
  8
_1-8_小物
  6
CONTINUOUS
 62
    4
 10
149.82008748449653
 20
135
 40
5
 50
278.34610430015653
 51
285.74141158032086
  0
ARC
  8
_1-8_小物
  6
CONTINUOUS
 62
    4
 10
149.88841540894526
 20
134.5
 40
5
 50
277.55551798992593
 51
285.76016573963392
  0
INSERT
  2
-001-_1_
  8
_1-8_小物
 10
210
 20
148.5
 41
1
 42
1
 50
0
  0
LINE
  8
_1-8_小物
  6
CONTINUOUS
 62
    4
 10
82.718512396225861
 20
131.84018902839435
 11
88.581797236144808
 21
130.18752043233465
  0
LINE
  8
_1-8_小物
  6
CONTINUOUS
 62
    4
 10
82.59769820718023
 20
131.35707331101597
 11
88.511894154779114
 21
129.68796469593613
  0
LINE
  8
_1-8_小物
  6
CONTINUOUS
 62
    4
 10
82.718512396225861
 20
127.15981097160562
 11
88.581797236144808
 21
128.81247956766532
  0
LINE
  8
_1-8_小物
  6
CONTINUOUS
 62
    4
 10
82.59769820718023
 20
127.64292668898401
 11
88.511894154779114
 21
129.31203530406384
  0
LINE
  8
_1-8_小物
  6
CONTINUOUS
 62
    4
 10
82.597698207180315
 20
131.35707331101594
 11
82.597698207180315
 21
131.35707331101594
  0
LINE
  8
_1-8_小物
  6
CONTINUOUS
 62
    4
 10
82.597698207180315
 20
131.35707331101594
 11
82.124875283394502
 21
131.45779074697211
  0
LINE
  8
_1-8_小物
  6
CONTINUOUS
 62
    4
 10
82.124875283394502
 20
131.45779074697211
 11
81.634458953363151
 21
131.49902170177148
  0
LINE
  8
_1-8_小物
  6
CONTINUOUS
 62
    4
 10
81.634458953363151
 20
131.49902170177148
 11
81.141350269111612
 21
131.47951339371627
  0
LINE
  8
_1-8_小物
  6
CONTINUOUS
 62
    4
 10
81.141350269111612
 20
131.47951339371627
 11
80.660532088485837
 21
131.39985857287513
  0
LINE
  8
_1-8_小物
  6
CONTINUOUS
 62
    4
 10
80.660532088485837
 20
131.39985857287513
 11
80.206613828598407
 21
131.262477510672
  0
LINE
  8
_1-8_小物
  6
CONTINUOUS
 62
    4
 10
80.206613828598407
 20
131.262477510672
 11
79.793387566082274
 21
131.07154446116377
  0
LINE
  8
_1-8_小物
  6
CONTINUOUS
 62
    4
 10
79.793387566082274
 20
131.07154446116377
 11
79.433408971821422
 21
130.8328608284429
  0
LINE
  8
_1-8_小物
  6
CONTINUOUS
 62
    4
 10
79.433408971821422
 20
130.8328608284429
 11
79.137615813244494
 21
130.55367889390996
  0
LINE
  8
_1-8_小物
  6
CONTINUOUS
 62
    4
 10
79.137615813244494
 20
130.55367889390996
 11
78.9149956157963
 21
130.24248145937278
  0
LINE
  8
_1-8_小物
  6
CONTINUOUS
 62
    4
 10
78.9149956157963
 20
130.24248145937278
 11
78.772312581525057
 21
129.90872410140634
  0
LINE
  8
_1-8_小物
  6
CONTINUOUS
 62
    4
 10
78.772312581525057
 20
129.90872410140634
 11
78.713902062225984
 21
129.56254786844303
  0
LINE
  8
_1-8_小物
  6
CONTINUOUS
 62
    4
 10
78.713902062225984
 20
129.56254786844303
 11
78.741538831970828
 21
129.2144711501478
  0
LINE
  8
_1-8_小物
  6
CONTINUOUS
 62
    4
 10
78.741538831970828
 20
129.2144711501478
 11
78.85438316149579
 21
128.8750700814708
  0
LINE
  8
_1-8_小物
  6
CONTINUOUS
 62
    4
 10
78.85438316149579
 20
128.8750700814708
 11
79.049006332950214
 21
128.55465719213848
  0
LINE
  8
_1-8_小物
  6
CONTINUOUS
 62
    4
 10
79.049006332950214
 20
128.55465719213848
 11
79.319494819753572
 21
128.26296806565651
  0
LINE
  8
_1-8_小物
  6
CONTINUOUS
 62
    4
 10
79.319494819753572
 20
128.26296806565651
 11
79.65762996610809
 21
128.0088655285312
  0
LINE
  8
_1-8_小物
  6
CONTINUOUS
 62
    4
 10
79.65762996610809
 20
128.0088655285312
 11
80.053137706696447
 21
127.80007035777102
  0
LINE
  8
_1-8_小物
  6
CONTINUOUS
 62
    4
 10
80.053137706696447
 20
127.80007035777102
 11
80.494000738957411
 21
127.64292668898406
  0
LINE
  8
_1-8_小物
  6
CONTINUOUS
 62
    4
 10
80.494000738957411
 20
127.64292668898406
 11
80.966823662743224
 21
127.54220925302788
  0
LINE
  8
_1-8_小物
  6
CONTINUOUS
 62
    4
 10
80.966823662743224
 20
127.54220925302788
 11
81.457239992774589
 21
127.50097829822853
  0
LINE
  8
_1-8_小物
  6
CONTINUOUS
 62
    4
 10
81.457239992774589
 20
127.50097829822853
 11
81.950348677026128
 21
127.52048660628371
  0
LINE
  8
_1-8_小物
  6
CONTINUOUS
 62
    4
 10
81.950348677026128
 20
127.52048660628371
 11
82.431166857651903
 21
127.60014142712487
  0
LINE
  8
_1-8_小物
  6
CONTINUOUS
 62
    4
 10
82.431166857651903
 20
127.60014142712487
 11
82.597698099382072
 21
127.64292665856115
  0
LINE
  8
_1-8_小物
  6
CONTINUOUS
 62
    4
 10
82.718512396225861
 20
131.84018902839435
 11
82.718512396225861
 21
131.84018902839435
  0
LINE
  8
_1-8_小物
  6
CONTINUOUS
 62
    4
 10
82.718512396225861
 20
131.84018902839435
 11
82.15887093122808
 21
131.9573593833947
  0
LINE
  8
_1-8_小物
  6
CONTINUOUS
 62
    4
 10
82.15887093122808
 20
131.9573593833947
 11
81.580603119427948
 21
131.99986411701445
  0
LINE
  8
_1-8_小物
  6
CONTINUOUS
 62
    4
 10
81.580603119427948
 20
131.99986411701445
 11
81.001279335669395
 21
131.96641174443101
  0
LINE
  8
_1-8_小物
  6
CONTINUOUS
 62
    4
 10
81.001279335669395
 20
131.96641174443101
 11
80.438502039969933
 21
131.8580186990576
  0
LINE
  8
_1-8_小物
  6
CONTINUOUS
 62
    4
 10
80.438502039969933
 20
131.8580186990576
 11
79.909370935680343
 21
131.67797844872834
  0
LINE
  8
_1-8_小物
  6
CONTINUOUS
 62
    4
 10
79.909370935680343
 20
131.67797844872834
 11
79.4299634036512
 21
131.43176142534475
  0
LINE
  8
_1-8_小物
  6
CONTINUOUS
 62
    4
 10
79.4299634036512
 20
131.43176142534475
 11
79.014845999151319
 21
131.12684880857049
  0
LINE
  8
_1-8_小物
  6
CONTINUOUS
 62
    4
 10
79.014845999151319
 20
131.12684880857049
 11
78.676631854456858
 21
130.77250521397306
  0
LINE
  8
_1-8_小物
  6
CONTINUOUS
 62
    4
 10
78.676631854456858
 20
130.77250521397306
 11
78.425597435209752
 21
130.37949719236775
  0
LINE
  8
_1-8_小物
  6
CONTINUOUS
 62
    4
 10
78.425597435209752
 20
130.37949719236775
 11
78.269370295209285
 21
129.95976609361941
  0
LINE
  8
_1-8_小物
  6
CONTINUOUS
 62
    4
 10
78.269370295209285
 20
129.95976609361941
 11
78.212697317049603
 21
129.52606523476931
  0
LINE
  8
_1-8_小物
  6
CONTINUOUS
 62
    4
 10
78.212697317049603
 20
129.52606523476931
 11
78.257300480494209
 21
129.0915723969504
  0
LINE
  8
_1-8_小物
  6
CONTINUOUS
 62
    4
 10
78.257300480494209
 20
129.0915723969504
 11
78.401824540992109
 21
128.66948942517578
  0
LINE
  8
_1-8_小物
  6
CONTINUOUS
 62
    4
 10
78.401824540992109
 20
128.66948942517578
 11
78.641878208097779
 21
128.27264109695858
  0
LINE
  8
_1-8_小物
  6
CONTINUOUS
 62
    4
 10
78.641878208097779
 20
128.27264109695858
 11
78.970167572609228
 21
127.91308544793674
  0
LINE
  8
_1-8_小物
  6
CONTINUOUS
 62
    4
 10
78.970167572609228
 20
127.91308544793674
 11
79.376717728308222
 21
127.60174739456183
  0
LINE
  8
_1-8_小物
  6
CONTINUOUS
 62
    4
 10
79.376717728308222
 20
127.60174739456183
 11
79.84917585443813
 21
127.34808678604097
  0
LINE
  8
_1-8_小物
  6
CONTINUOUS
 62
    4
 10
79.84917585443813
 20
127.34808678604097
 11
80.373186549911864
 21
127.15981097160564
  0
LINE
  8
_1-8_小物
  6
CONTINUOUS
 62
    4
 10
80.373186549911864
 20
127.15981097160564
 11
80.93282801490966
 21
127.04264061660528
  0
LINE
  8
_1-8_小物
  6
CONTINUOUS
 62
    4
 10
80.93282801490966
 20
127.04264061660528
 11
81.511095826709791
 21
127.00013588298553
  0
LINE
  8
_1-8_小物
  6
CONTINUOUS
 62
    4
 10
81.511095826709791
 20
127.00013588298553
 11
82.090419610468345
 21
127.03358825556899
  0
LINE
  8
_1-8_小物
  6
CONTINUOUS
 62
    4
 10
82.090419610468345
 20
127.03358825556899
 11
82.653196906167807
 21
127.1419813009424
  0
LINE
  8
_1-8_小物
  6
CONTINUOUS
 62
    4
 10
82.653196906167807
 20
127.1419813009424
 11
82.718512309023282
 21
127.15981094702607
  0
ARC
  8
_1-8_小物
  6
CONTINUOUS
 62
    4
 10
89.869950203859119
 20
124.49999999999997
 40
5
 50
97.555517989925761
 51
105.76016573963415
  0
ARC
  8
_1-8_小物
  6
CONTINUOUS
 62
    4
 10
89.938278128307871
 20
123.99999999999997
 40
5
 50
98.346104300156512
 51
105.74141158032096
  0
ARC
  8
_1-8_小物
  6
CONTINUOUS
 62
    4
 10
89.938278128307871
 20
135
 40
5
 50
254.25858841967909
 51
261.65389569984347
  0
ARC
  8
_1-8_小物
  6
CONTINUOUS
 62
    4
 10
89.869950203859119
 20
134.5
 40
5
 50
254.23983426036591
 51
262.44448201007424
  0
LINE
  8
_1-8_小物
  6
CONTINUOUS
 62
    4
 10
91.879182806402198
 20
129.24999999999997
 11
118.21251613973553
 21
129.24999999999997
  0
LINE
  8
_1-8_小物
  6
CONTINUOUS
 62
    4
 10
91.879182806402198
 20
129.75
 11
118.21251613973553
 21
129.75
  0
LINE
  8
_1-8_小物
  6
CONTINUOUS
 62
    4
 10
147.87918280640218
 20
129.24999999999997
 11
121.54584947306887
 21
129.24999999999997
  0
LINE
  8
_1-8_小物
  6
CONTINUOUS
 62
    4
 10
147.87918280640218
 20
129.75
 11
121.54584947306887
 21
129.75
  0
TEXT
  8
_0-0_図面枠
 62
    4
 10
241.66666666666674
 20
128
 40
3
 41
1
 50
0
  1
（落下防止ワイヤー）
  0
INSERT
  2
-002-_2_
  8
_1-8_小物
 10
210
 20
148.5
 41
1
 42
1
 50
0
  0
LINE
  8
_1-8_小物
  6
CONTINUOUS
 62
    4
 10
357.03985321657848
 20
131.84018902839435
 11
351.17656837665965
 21
130.18752043233465
  0
LINE
  8
_1-8_小物
  6
CONTINUOUS
 62
    4
 10
357.16066740562411
 20
131.35707331101597
 11
351.24647145802521
 21
129.68796469593613
  0
LINE
  8
_1-8_小物
  6
CONTINUOUS
 62
    4
 10
357.03985321657848
 20
127.15981097160562
 11
351.17656837665965
 21
128.81247956766532
  0
LINE
  8
_1-8_小物
  6
CONTINUOUS
 62
    4
 10
357.16066740562411
 20
127.64292668898401
 11
351.24647145802521
 21
129.31203530406384
  0
LINE
  8
_1-8_小物
  6
CONTINUOUS
 62
    4
 10
357.16066751342225
 20
127.64292665856118
 11
357.16066751342225
 21
127.64292665856118
  0
LINE
  8
_1-8_小物
  6
CONTINUOUS
 62
    4
 10
357.16066751342225
 20
127.64292665856118
 11
357.63349044305443
 21
127.54220923628058
  0
LINE
  8
_1-8_小物
  6
CONTINUOUS
 62
    4
 10
357.63349044305443
 20
127.54220923628058
 11
358.12390677547916
 21
127.50097829566566
  0
LINE
  8
_1-8_小物
  6
CONTINUOUS
 62
    4
 10
358.12390677547916
 20
127.50097829566566
 11
358.6170154585983
 21
127.52048661798314
  0
LINE
  8
_1-8_小物
  6
CONTINUOUS
 62
    4
 10
358.6170154585983
 20
127.52048661798314
 11
359.09783363460031
 21
127.60014145273111
  0
LINE
  8
_1-8_小物
  6
CONTINUOUS
 62
    4
 10
359.09783363460031
 20
127.60014145273111
 11
359.55175188651316
 21
127.73752252806302
  0
LINE
  8
_1-8_小物
  6
CONTINUOUS
 62
    4
 10
359.55175188651316
 20
127.73752252806302
 11
359.9649781379461
 21
127.92845558952313
  0
LINE
  8
_1-8_小物
  6
CONTINUOUS
 62
    4
 10
359.9649781379461
 20
127.92845558952313
 11
360.32495671835204
 21
128.1671392326557
  0
LINE
  8
_1-8_小物
  6
CONTINUOUS
 62
    4
 10
360.32495671835204
 20
128.1671392326557
 11
360.62074986072315
 21
128.44632117574395
  0
LINE
  8
_1-8_小物
  6
CONTINUOUS
 62
    4
 10
360.62074986072315
 20
128.44632117574395
 11
360.84337004010717
 21
128.75751861672001
  0
LINE
  8
_1-8_小物
  6
CONTINUOUS
 62
    4
 10
360.84337004010717
 20
128.75751861672001
 11
360.98605305500473
 21
129.09127597881334
  0
LINE
  8
_1-8_小物
  6
CONTINUOUS
 62
    4
 10
360.98605305500473
 20
129.09127597881334
 11
361.04446355420919
 21
129.43745221346606
  0
LINE
  8
_1-8_小物
  6
CONTINUOUS
 62
    4
 10
361.04446355420919
 20
129.43745221346606
 11
361.01682676425941
 21
129.78552893096193
  0
LINE
  8
_1-8_小物
  6
CONTINUOUS
 62
    4
 10
361.01682676425941
 20
129.78552893096193
 11
360.90398241503311
 21
130.12492999637513
  0
LINE
  8
_1-8_小物
  6
CONTINUOUS
 62
    4
 10
360.90398241503311
 20
130.12492999637513
 11
360.70935922497955
 21
130.4453428800783
  0
LINE
  8
_1-8_小物
  6
CONTINUOUS
 62
    4
 10
360.70935922497955
 20
130.4453428800783
 11
360.43887072124443
 21
130.73703199873688
  0
LINE
  8
_1-8_小物
  6
CONTINUOUS
 62
    4
 10
360.43887072124443
 20
130.73703199873688
 11
360.10073556013998
 21
130.99113452608222
  0
LINE
  8
_1-8_小物
  6
CONTINUOUS
 62
    4
 10
360.10073556013998
 20
130.99113452608222
 11
359.70522780743158
 21
131.19992968540305
  0
LINE
  8
_1-8_小物
  6
CONTINUOUS
 62
    4
 10
359.70522780743158
 20
131.19992968540305
 11
359.26436476604886
 21
131.35707334143882
  0
LINE
  8
_1-8_小物
  6
CONTINUOUS
 62
    4
 10
359.26436476604886
 20
131.35707334143882
 11
358.79154183641668
 21
131.45779076371943
  0
LINE
  8
_1-8_小物
  6
CONTINUOUS
 62
    4
 10
358.79154183641668
 20
131.45779076371943
 11
358.30112550399195
 21
131.49902170433435
  0
LINE
  8
_1-8_小物
  6
CONTINUOUS
 62
    4
 10
358.30112550399195
 20
131.49902170433435
 11
357.80801682087281
 21
131.47951338201685
  0
LINE
  8
_1-8_小物
  6
CONTINUOUS
 62
    4
 10
357.80801682087281
 20
131.47951338201685
 11
357.3271986448708
 21
131.39985854726891
  0
LINE
  8
_1-8_小物
  6
CONTINUOUS
 62
    4
 10
357.3271986448708
 20
131.39985854726891
 11
357.16066740562411
 21
131.35707331101594
  0
LINE
  8
_1-8_小物
  6
CONTINUOUS
 62
    4
 10
357.03985330378111
 20
127.15981094702609
 11
357.03985330378111
 21
127.15981094702609
  0
LINE
  8
_1-8_小物
  6
CONTINUOUS
 62
    4
 10
357.03985330378111
 20
127.15981094702609
 11
357.59949477314501
 21
127.04264060375608
  0
LINE
  8
_1-8_小物
  6
CONTINUOUS
 62
    4
 10
357.59949477314501
 20
127.04264060375608
 11
358.17776258652901
 21
127.00013588225708
  0
LINE
  8
_1-8_小物
  6
CONTINUOUS
 62
    4
 10
358.17776258652901
 20
127.00013588225708
 11
358.75708636904102
 21
127.03358826698343
  0
LINE
  8
_1-8_小物
  6
CONTINUOUS
 62
    4
 10
358.75708636904102
 20
127.03358826698343
 11
359.31986366070146
 21
127.14198132415292
  0
LINE
  8
_1-8_小物
  6
CONTINUOUS
 62
    4
 10
359.31986366070146
 20
127.14198132415292
 11
359.84899475828217
 21
127.32202158557301
  0
LINE
  8
_1-8_小物
  6
CONTINUOUS
 62
    4
 10
359.84899475828217
 20
127.32202158557301
 11
360.3284022811365
 21
127.5682386190052
  0
LINE
  8
_1-8_小物
  6
CONTINUOUS
 62
    4
 10
360.3284022811365
 20
127.5682386190052
 11
360.74351967427447
 21
127.8731512444805
  0
LINE
  8
_1-8_小物
  6
CONTINUOUS
 62
    4
 10
360.74351967427447
 20
127.8731512444805
 11
361.081733805765
 21
128.22749484616705
  0
LINE
  8
_1-8_小物
  6
CONTINUOUS
 62
    4
 10
361.081733805765
 20
128.22749484616705
 11
361.33276821036742
 21
128.62050287303416
  0
LINE
  8
_1-8_小物
  6
CONTINUOUS
 62
    4
 10
361.33276821036742
 20
128.62050287303416
 11
361.48899533472741
 21
129.04023397505711
  0
LINE
  8
_1-8_小物
  6
CONTINUOUS
 62
    4
 10
361.48899533472741
 20
129.04023397505711
 11
361.54566829672609
 21
129.47393483509509
  0
LINE
  8
_1-8_小物
  6
CONTINUOUS
 62
    4
 10
361.54566829672609
 20
129.47393483509509
 11
361.50106511709095
 21
129.9084276719791
  0
LINE
  8
_1-8_小物
  6
CONTINUOUS
 62
    4
 10
361.50106511709095
 20
129.9084276719791
 11
361.35654104086495
 21
130.33051064072441
  0
LINE
  8
_1-8_小物
  6
CONTINUOUS
 62
    4
 10
361.35654104086495
 20
130.33051064072441
 11
361.11648735897154
 21
130.72735896390998
  0
LINE
  8
_1-8_小物
  6
CONTINUOUS
 62
    4
 10
361.11648735897154
 20
130.72735896390998
 11
360.78819798106196
 21
131.08691460605073
  0
LINE
  8
_1-8_小物
  6
CONTINUOUS
 62
    4
 10
360.78819798106196
 20
131.08691460605073
 11
360.38164781376156
 21
131.39825265090417
  0
LINE
  8
_1-8_小物
  6
CONTINUOUS
 62
    4
 10
360.38164781376156
 20
131.39825265090417
 11
359.90918967817947
 21
131.6519132495221
  0
LINE
  8
_1-8_小物
  6
CONTINUOUS
 62
    4
 10
359.90918967817947
 20
131.6519132495221
 11
359.38517897569
 21
131.8401890529739
  0
LINE
  8
_1-8_小物
  6
CONTINUOUS
 62
    4
 10
359.38517897569
 20
131.8401890529739
 11
358.8255375063261
 21
131.95735939624393
  0
LINE
  8
_1-8_小物
  6
CONTINUOUS
 62
    4
 10
358.8255375063261
 20
131.95735939624393
 11
358.2472696929421
 21
131.99986411774293
  0
LINE
  8
_1-8_小物
  6
CONTINUOUS
 62
    4
 10
358.2472696929421
 20
131.99986411774293
 11
357.66794591043009
 21
131.96641173301657
  0
LINE
  8
_1-8_小物
  6
CONTINUOUS
 62
    4
 10
357.66794591043009
 20
131.96641173301657
 11
357.10516861876965
 21
131.85801867584709
  0
LINE
  8
_1-8_小物
  6
CONTINUOUS
 62
    4
 10
357.10516861876965
 20
131.85801867584709
 11
357.03985321657848
 21
131.84018902839432
  0
ARC
  8
_1-8_小物
  6
CONTINUOUS
 62
    4
 10
349.88841540894521
 20
124.49999999999997
 40
5
 50
74.239834260366322
 51
82.444482010073443
  0
ARC
  8
_1-8_小物
  6
CONTINUOUS
 62
    4
 10
349.82008748449653
 20
123.99999999999997
 40
5
 50
74.258588419678418
 51
81.653895699843488
  0
ARC
  8
_1-8_小物
  6
CONTINUOUS
 62
    4
 10
349.82008748449653
 20
135
 40
5
 50
278.34610430015653
 51
285.7414115803216
  0
ARC
  8
_1-8_小物
  6
CONTINUOUS
 62
    4
 10
349.88841540894521
 20
134.5
 40
5
 50
277.55551798992656
 51
285.76016573963363
  0
INSERT
  2
-003-_3_
  8
_1-8_小物
 10
210
 20
148.5
 41
1
 42
1
 50
0
  0
LINE
  8
_1-8_小物
  6
CONTINUOUS
 62
    4
 10
282.71851239622583
 20
131.84018902839435
 11
288.58179723614478
 21
130.18752043233465
  0
LINE
  8
_1-8_小物
  6
CONTINUOUS
 62
    4
 10
282.5976982071802
 20
131.35707331101597
 11
288.5118941547791
 21
129.68796469593613
  0
LINE
  8
_1-8_小物
  6
CONTINUOUS
 62
    4
 10
282.71851239622583
 20
127.15981097160562
 11
288.58179723614478
 21
128.81247956766532
  0
LINE
  8
_1-8_小物
  6
CONTINUOUS
 62
    4
 10
282.5976982071802
 20
127.64292668898401
 11
288.5118941547791
 21
129.31203530406384
  0
LINE
  8
_1-8_小物
  6
CONTINUOUS
 62
    4
 10
282.59769820718031
 20
131.35707331101594
 11
282.59769820718031
 21
131.35707331101594
  0
LINE
  8
_1-8_小物
  6
CONTINUOUS
 62
    4
 10
282.59769820718031
 20
131.35707331101594
 11
282.12487528339449
 21
131.45779074697211
  0
LINE
  8
_1-8_小物
  6
CONTINUOUS
 62
    4
 10
282.12487528339449
 20
131.45779074697211
 11
281.63445895336315
 21
131.49902170177148
  0
LINE
  8
_1-8_小物
  6
CONTINUOUS
 62
    4
 10
281.63445895336315
 20
131.49902170177148
 11
281.14135026911163
 21
131.47951339371627
  0
LINE
  8
_1-8_小物
  6
CONTINUOUS
 62
    4
 10
281.14135026911163
 20
131.47951339371627
 11
280.66053208848581
 21
131.39985857287513
  0
LINE
  8
_1-8_小物
  6
CONTINUOUS
 62
    4
 10
280.66053208848581
 20
131.39985857287513
 11
280.20661382859839
 21
131.262477510672
  0
LINE
  8
_1-8_小物
  6
CONTINUOUS
 62
    4
 10
280.20661382859839
 20
131.262477510672
 11
279.79338756608229
 21
131.07154446116377
  0
LINE
  8
_1-8_小物
  6
CONTINUOUS
 62
    4
 10
279.79338756608229
 20
131.07154446116377
 11
279.43340897182139
 21
130.8328608284429
  0
LINE
  8
_1-8_小物
  6
CONTINUOUS
 62
    4
 10
279.43340897182139
 20
130.8328608284429
 11
279.13761581324451
 21
130.55367889390996
  0
LINE
  8
_1-8_小物
  6
CONTINUOUS
 62
    4
 10
279.13761581324451
 20
130.55367889390996
 11
278.91499561579633
 21
130.24248145937278
  0
LINE
  8
_1-8_小物
  6
CONTINUOUS
 62
    4
 10
278.91499561579633
 20
130.24248145937278
 11
278.77231258152506
 21
129.90872410140634
  0
LINE
  8
_1-8_小物
  6
CONTINUOUS
 62
    4
 10
278.77231258152506
 20
129.90872410140634
 11
278.713902062226
 21
129.56254786844303
  0
LINE
  8
_1-8_小物
  6
CONTINUOUS
 62
    4
 10
278.713902062226
 20
129.56254786844303
 11
278.74153883197084
 21
129.2144711501478
  0
LINE
  8
_1-8_小物
  6
CONTINUOUS
 62
    4
 10
278.74153883197084
 20
129.2144711501478
 11
278.85438316149578
 21
128.8750700814708
  0
LINE
  8
_1-8_小物
  6
CONTINUOUS
 62
    4
 10
278.85438316149578
 20
128.8750700814708
 11
279.04900633295023
 21
128.55465719213848
  0
LINE
  8
_1-8_小物
  6
CONTINUOUS
 62
    4
 10
279.04900633295023
 20
128.55465719213848
 11
279.31949481975357
 21
128.26296806565651
  0
LINE
  8
_1-8_小物
  6
CONTINUOUS
 62
    4
 10
279.31949481975357
 20
128.26296806565651
 11
279.65762996610812
 21
128.0088655285312
  0
LINE
  8
_1-8_小物
  6
CONTINUOUS
 62
    4
 10
279.65762996610812
 20
128.0088655285312
 11
280.05313770669642
 21
127.80007035777102
  0
LINE
  8
_1-8_小物
  6
CONTINUOUS
 62
    4
 10
280.05313770669642
 20
127.80007035777102
 11
280.49400073895742
 21
127.64292668898406
  0
LINE
  8
_1-8_小物
  6
CONTINUOUS
 62
    4
 10
280.49400073895742
 20
127.64292668898406
 11
280.96682366274325
 21
127.54220925302788
  0
LINE
  8
_1-8_小物
  6
CONTINUOUS
 62
    4
 10
280.96682366274325
 20
127.54220925302788
 11
281.45723999277459
 21
127.50097829822853
  0
LINE
  8
_1-8_小物
  6
CONTINUOUS
 62
    4
 10
281.45723999277459
 20
127.50097829822853
 11
281.95034867702611
 21
127.52048660628371
  0
LINE
  8
_1-8_小物
  6
CONTINUOUS
 62
    4
 10
281.95034867702611
 20
127.52048660628371
 11
282.43116685765187
 21
127.60014142712487
  0
LINE
  8
_1-8_小物
  6
CONTINUOUS
 62
    4
 10
282.43116685765187
 20
127.60014142712487
 11
282.59769809938206
 21
127.64292665856115
  0
LINE
  8
_1-8_小物
  6
CONTINUOUS
 62
    4
 10
282.71851239622583
 20
131.84018902839438
 11
282.71851239622583
 21
131.84018902839438
  0
LINE
  8
_1-8_小物
  6
CONTINUOUS
 62
    4
 10
282.71851239622583
 20
131.84018902839438
 11
282.15887093122802
 21
131.9573593833947
  0
LINE
  8
_1-8_小物
  6
CONTINUOUS
 62
    4
 10
282.15887093122802
 20
131.9573593833947
 11
281.58060311942791
 21
131.99986411701445
  0
LINE
  8
_1-8_小物
  6
CONTINUOUS
 62
    4
 10
281.58060311942791
 20
131.99986411701445
 11
281.00127933566938
 21
131.96641174443101
  0
LINE
  8
_1-8_小物
  6
CONTINUOUS
 62
    4
 10
281.00127933566938
 20
131.96641174443101
 11
280.43850203996988
 21
131.8580186990576
  0
LINE
  8
_1-8_小物
  6
CONTINUOUS
 62
    4
 10
280.43850203996988
 20
131.8580186990576
 11
279.90937093568033
 21
131.67797844872834
  0
LINE
  8
_1-8_小物
  6
CONTINUOUS
 62
    4
 10
279.90937093568033
 20
131.67797844872834
 11
279.42996340365119
 21
131.43176142534472
  0
LINE
  8
_1-8_小物
  6
CONTINUOUS
 62
    4
 10
279.42996340365119
 20
131.43176142534472
 11
279.01484599915131
 21
131.12684880857049
  0
LINE
  8
_1-8_小物
  6
CONTINUOUS
 62
    4
 10
279.01484599915131
 20
131.12684880857049
 11
278.67663185445684
 21
130.77250521397303
  0
LINE
  8
_1-8_小物
  6
CONTINUOUS
 62
    4
 10
278.67663185445684
 20
130.77250521397303
 11
278.42559743520974
 21
130.37949719236772
  0
LINE
  8
_1-8_小物
  6
CONTINUOUS
 62
    4
 10
278.42559743520974
 20
130.37949719236772
 11
278.26937029520928
 21
129.95976609361938
  0
LINE
  8
_1-8_小物
  6
CONTINUOUS
 62
    4
 10
278.26937029520928
 20
129.95976609361938
 11
278.21269731704962
 21
129.52606523476928
  0
LINE
  8
_1-8_小物
  6
CONTINUOUS
 62
    4
 10
278.21269731704962
 20
129.52606523476928
 11
278.25730048049422
 21
129.09157239695037
  0
LINE
  8
_1-8_小物
  6
CONTINUOUS
 62
    4
 10
278.25730048049422
 20
129.09157239695037
 11
278.4018245409921
 21
128.66948942517575
  0
LINE
  8
_1-8_小物
  6
CONTINUOUS
 62
    4
 10
278.4018245409921
 20
128.66948942517575
 11
278.64187820809781
 21
128.27264109695858
  0
LINE
  8
_1-8_小物
  6
CONTINUOUS
 62
    4
 10
278.64187820809781
 20
128.27264109695858
 11
278.97016757260923
 21
127.91308544793672
  0
LINE
  8
_1-8_小物
  6
CONTINUOUS
 62
    4
 10
278.97016757260923
 20
127.91308544793672
 11
279.37671772830822
 21
127.60174739456181
  0
LINE
  8
_1-8_小物
  6
CONTINUOUS
 62
    4
 10
279.37671772830822
 20
127.60174739456181
 11
279.84917585443816
 21
127.34808678604097
  0
LINE
  8
_1-8_小物
  6
CONTINUOUS
 62
    4
 10
279.84917585443816
 20
127.34808678604097
 11
280.37318654991191
 21
127.15981097160564
  0
LINE
  8
_1-8_小物
  6
CONTINUOUS
 62
    4
 10
280.37318654991191
 20
127.15981097160564
 11
280.93282801490966
 21
127.04264061660528
  0
LINE
  8
_1-8_小物
  6
CONTINUOUS
 62
    4
 10
280.93282801490966
 20
127.04264061660528
 11
281.51109582670983
 21
127.00013588298553
  0
LINE
  8
_1-8_小物
  6
CONTINUOUS
 62
    4
 10
281.51109582670983
 20
127.00013588298553
 11
282.09041961046836
 21
127.03358825556899
  0
LINE
  8
_1-8_小物
  6
CONTINUOUS
 62
    4
 10
282.09041961046836
 20
127.03358825556899
 11
282.65319690616781
 21
127.14198130094242
  0
LINE
  8
_1-8_小物
  6
CONTINUOUS
 62
    4
 10
282.65319690616781
 20
127.14198130094242
 11
282.71851230902325
 21
127.15981094702607
  0
ARC
  8
_1-8_小物
  6
CONTINUOUS
 62
    4
 10
289.8699502038591
 20
124.49999999999997
 40
5
 50
97.555517989925917
 51
105.76016573963432
  0
ARC
  8
_1-8_小物
  6
CONTINUOUS
 62
    4
 10
289.93827812830784
 20
123.99999999999997
 40
5
 50
98.346104300156512
 51
105.74141158032096
  0
ARC
  8
_1-8_小物
  6
CONTINUOUS
 62
    4
 10
289.93827812830784
 20
135
 40
5
 50
254.25858841967909
 51
261.65389569984347
  0
ARC
  8
_1-8_小物
  6
CONTINUOUS
 62
    4
 10
289.8699502038591
 20
134.5
 40
5
 50
254.23983426036577
 51
262.44448201007407
  0
LINE
  8
_1-8_小物
  6
CONTINUOUS
 62
    4
 10
291.87918280640218
 20
129.24999999999997
 11
318.2125161397355
 21
129.24999999999997
  0
LINE
  8
_1-8_小物
  6
CONTINUOUS
 62
    4
 10
291.87918280640218
 20
129.75
 11
318.2125161397355
 21
129.75
  0
LINE
  8
_1-8_小物
  6
CONTINUOUS
 62
    4
 10
347.87918280640224
 20
129.24999999999997
 11
321.54584947306887
 21
129.24999999999997
  0
LINE
  8
_1-8_小物
  6
CONTINUOUS
 62
    4
 10
347.87918280640224
 20
129.75
 11
321.54584947306887
 21
129.75
  0
TEXT
  8
_0-0_図面枠
 62
    4
 10
20
 20
280
 40
3.2000000000000002
 41
1
 50
0
  1
（ステンレス１００タイプ）
  0
TEXT
  8
_0-0_図面枠
 62
    4
 10
30
 20
270
 40
3.2000000000000002
 41
1
 50
0
  1
◇天井＋天井（１００ＵＵＧ－Ｓ）　Ｓ＝１／３
  0
TEXT
  8
_0-0_図面枠
 62
    4
 10
230
 20
270
 40
3.2000000000000002
 41
1
 50
0
  1
◇天井＋天井コーナー（１００ＵＣＧ－Ｓ）　Ｓ＝１／３
  0
TEXT
  8
_0-0_図面枠
 62
    4
 10
220
 20
280
 40
3.2000000000000002
 41
1
 50
0
  1
（ステンレス１００タイプ）
  0
TEXT
  8
_0-0_図面枠
 62
    4
 10
48.400007499999987
 20
69.400003999999953
 40
3.2000000000000002
 41
1
 50
0
  1
ガスケットＧＳ
  0
TEXT
  8
_0-0_図面枠
 62
    4
 10
248.40000750000002
 20
63.400003999999896
 40
3.2000000000000002
 41
1
 50
0
  1
ガスケットＧＳ
  0
TEXT
  8
_0-0_図面枠
 62
    4
 10
48.400007499999987
 20
99.400003999999953
 40
3.2000000000000002
 41
1
 50
0
  1
ＵＵＧキャップ(Ｂ)Ｓ
  0
TEXT
  8
_0-0_図面枠
 62
    4
 10
48.400007499999987
 20
93.400003999999953
 40
3.2000000000000002
 41
1
 50
0
  1
ＵＵＧホルダー(Ａ)
  0
TEXT
  8
_0-0_図面枠
 62
    4
 10
248.40000750000002
 20
99.400003999999896
 40
3.2000000000000002
 41
1
 50
0
  1
ＵＣＧキャップ(Ｂ)Ｓ
  0
TEXT
  8
_0-0_図面枠
 62
    4
 10
248.40000750000002
 20
93.400003999999896
 40
3.2000000000000002
 41
1
 50
0
  1
ＵＣＧホルダー(Ｂ)
  0
TEXT
  8
_0-0_図面枠
 62
    4
 10
248.40000750000013
 20
69.400003999999953
 40
3.2000000000000002
 41
1
 50
0
  1
アンカープラグ
  0
LINE
  8
_0-0_図面枠
  6
CONTINUOUS
 62
    2
 10
165.00000000000003
 20
246.99999999999989
 11
210.00000000000003
 21
246.99999999999989
  0
LINE
  8
_0-0_図面枠
  6
CONTINUOUS
 62
    2
 10
165.00000000000003
 20
246.99999999999994
 11
165.00000000000003
 21
286.99999999999994
  0
LINE
  8
_0-0_図面枠
  6
CONTINUOUS
 62
    2
 10
184.7618191860187
 20
279.31988384078551
 11
184.7618191860187
 21
276.31988384078551
  0
LINE
  8
_0-0_図面枠
  6
CONTINUOUS
 62
    2
 10
170.03938732168322
 20
270.81988384078551
 11
170.03938732168322
 21
267.81988384078551
  0
LINE
  8
_0-0_図面枠
  6
CONTINUOUS
 62
    2
 10
170.03938732168322
 20
267.81988384078551
 11
184.7618191860187
 21
276.31988384078551
  0
LINE
  8
_0-0_図面枠
  6
CONTINUOUS
 62
    2
 10
184.7618191860187
 20
276.31988384078551
 11
193.42207322386307
 21
271.31988384078551
  0
LINE
  8
_0-0_図面枠
  6
CONTINUOUS
 62
    2
 10
184.7618191860187
 20
279.31988384078551
 11
193.42207322386307
 21
274.31988384078551
  0
LINE
  8
_0-0_図面枠
  6
CONTINUOUS
 62
    2
 10
170.03938732168322
 20
267.81988384078551
 11
178.69964135952759
 21
262.81988384078551
  0
LINE
  8
_0-0_図面枠
  6
CONTINUOUS
 62
    2
 10
170.03938732168322
 20
270.81988384078551
 11
172.63746353303654
 21
269.31988384078551
  0
INSERT
  2
-004-_4_
  8
_0-0_図面枠
 10
210
 20
148.5
 41
1
 42
1
 50
0
  0
LINE
  8
_0-0_図面枠
  6
CONTINUOUS
 62
    3
 10
179.56566676331207
 20
277.2698838407855
 11
188.22592080115649
 21
282.2698838407855
  0
LINE
  8
_0-0_図面枠
  6
CONTINUOUS
 62
    3
 10
179.56566676331207
 20
276.31988384078551
 11
179.56566676331207
 21
277.2698838407855
  0
LINE
  8
_0-0_図面枠
  6
CONTINUOUS
 62
    3
 10
179.56566676331207
 20
276.31988384078551
 11
188.22592080115649
 21
281.31988384078551
  0
LINE
  8
_0-0_図面枠
  6
CONTINUOUS
 62
    3
 10
175.23553974438991
 20
274.7698838407855
 11
166.57528570654549
 21
269.7698838407855
  0
LINE
  8
_0-0_図面枠
  6
CONTINUOUS
 62
    3
 10
175.23553974438991
 20
273.81988384078551
 11
175.23553974438991
 21
274.7698838407855
  0
LINE
  8
_0-0_図面枠
  6
CONTINUOUS
 62
    3
 10
175.23553974438991
 20
273.81988384078551
 11
166.57528570654549
 21
268.81988384078551
  0
LINE
  8
_0-0_図面枠
  6
CONTINUOUS
 62
    3
 10
175.23553974438991
 20
274.7698838407855
 11
178.65634008933839
 21
272.79488384078553
  0
LINE
  8
_0-0_図面枠
  6
CONTINUOUS
 62
    3
 10
175.23553974438991
 20
273.81988384078551
 11
177.83361595574323
 21
272.31988384078551
  0
LINE
  8
_0-0_図面枠
  6
CONTINUOUS
 62
    3
 10
179.56566676331207
 20
276.31988384078551
 11
182.16374297466538
 21
274.81988384078551
  0
TEXT
  8
_0-0_図面枠
 62
    4
 10
178.59740000008938
 20
267.65215495316613
 40
2.5
 41
1
 50
0
  1
-50
  0
TEXT
  8
_0-0_図面枠
 62
    4
 10
201.11325369036049
 20
267.65215495316608
 40
2.5
 41
1
 50
0
  1
+50
  0
TEXT
  8
_0-0_図面枠
 62
    4
 10
201.11325369036044
 20
254.65262076405384
 40
2.5
 41
1
 50
0
  1
+50
  0
TEXT
  8
_0-0_図面枠
 62
    4
 10
178.59699659422003
 20
254.65331953359549
 40
2.5
 41
1
 50
0
  1
-50
  0
LINE
  8
_0-0_図面枠
  6
CONTINUOUS
 62
    2
 10
365.00000000000006
 20
246.99999999999994
 11
410.00000000000006
 21
246.99999999999994
  0
LINE
  8
_0-0_図面枠
  6
CONTINUOUS
 62
    2
 10
382.51081219164189
 20
277.68583390683517
 11
382.51081219164189
 21
274.68583390683517
  0
LINE
  8
_0-0_図面枠
  6
CONTINUOUS
 62
    2
 10
382.51081219164189
 20
274.68583390683517
 11
391.17106622948626
 21
269.68583390683517
  0
LINE
  8
_0-0_図面枠
  6
CONTINUOUS
 62
    2
 10
382.51081219164189
 20
277.68583390683517
 11
391.17106622948626
 21
272.68583390683517
  0
LINE
  8
_0-0_図面枠
  6
CONTINUOUS
 62
    2
 10
375.14959625947415
 20
266.43583390683517
 11
372.9845327500131
 21
265.18583390683517
  0
LINE
  8
_0-0_図面枠
  6
CONTINUOUS
 62
    2
 10
375.14959625947415
 20
270.43583390683517
 11
382.51081219164189
 21
274.68583390683517
  0
LINE
  8
_0-0_図面枠
  6
CONTINUOUS
 62
    2
 10
375.14959625947415
 20
270.43583390683517
 11
375.14959625947415
 21
266.43583390683517
  0
LINE
  8
_0-0_図面枠
  6
CONTINUOUS
 62
    2
 10
375.14959625947415
 20
270.43583390683517
 11
383.80985029731852
 21
265.43583390683517
  0
LINE
  8
_0-0_図面枠
  6
CONTINUOUS
 62
    2
 10
375.14959625947415
 20
266.43583390683517
 11
383.80985029731852
 21
261.43583390683517
  0
LINE
  8
_0-0_図面枠
  6
CONTINUOUS
 62
    2
 10
372.9845327500131
 20
265.18583390683517
 11
381.64478678785747
 21
260.18583390683517
  0
INSERT
  2
-005-_5_
  8
_0-0_図面枠
 10
210
 20
148.5
 41
1
 42
1
 50
0
  0
LINE
  8
_0-0_図面枠
  6
CONTINUOUS
 62
    2
 10
365.00000000000006
 20
247
 11
365.00000000000006
 21
287
  0
LINE
  8
_0-0_図面枠
  6
CONTINUOUS
 62
    3
 10
377.31465976893526
 20
275.63583390683516
 11
385.97491380677968
 21
280.63583390683516
  0
LINE
  8
_0-0_図面枠
  6
CONTINUOUS
 62
    3
 10
377.31465976893526
 20
274.68583390683517
 11
377.31465976893526
 21
275.63583390683516
  0
LINE
  8
_0-0_図面枠
  6
CONTINUOUS
 62
    3
 10
377.31465976893526
 20
274.68583390683517
 11
385.97491380677968
 21
279.68583390683517
  0
LINE
  8
_0-0_図面枠
  6
CONTINUOUS
 62
    3
 10
377.31465976893526
 20
274.68583390683517
 11
379.91273598028857
 21
273.18583390683517
  0
LINE
  8
_0-0_図面枠
  6
CONTINUOUS
 62
    3
 10
372.9845327500131
 20
253.36416609316478
 11
372.9845327500131
 21
276.13583390683516
  0
TEXT
  8
_0-0_図面枠
 62
    4
 10
379.37728020518711
 20
268.0181050192158
 40
2.5
 41
1
 50
0
  1
-50
  0
TEXT
  8
_0-0_図面枠
 62
    4
 10
401.89313389545822
 20
268.01810501921574
 40
2.5
 41
1
 50
0
  1
+50
  0
TEXT
  8
_0-0_図面枠
 62
    4
 10
401.89313389545816
 20
255.0185708301035
 40
2.5
 41
1
 50
0
  1
+50
  0
TEXT
  8
_0-0_図面枠
 62
    4
 10
379.37687679931776
 20
255.01926959964516
 40
2.5
 41
1
 50
0
  1
-50
  0
LINE
  8
_1-0_躯体
  6
CONTINUOUS
 62
    4
 10
78.141588679351884
 20
211.66666666666666
 11
74.448598677058129
 21
211.66666666666666
  0
LINE
  8
_1-0_躯体
  6
CENTER2
 62
    4
 10
110
 20
234.20000066666665
 11
110
 21
198.00000033333336
  0
CIRCLE
  8
_1-f_寸法
  6
CONTINUOUS
 62
    4
 10
128.33333333333331
 20
200
 40
1.6666666666666665
  0
TEXT
  8
_1-f_寸法
 62
    4
 10
127.70833333333331
 20
198.75
 40
2.5
 41
1
 50
0
  1
1
  0
LINE
  8
_1-f_寸法
  6
CONTINUOUS
 62
    4
 10
127.50000000000001
 20
201.44337567297407
 11
126.16826982387218
 21
203.75000000000003
  0
CIRCLE
  8
_1-f_寸法
  6
CONTINUOUS
 62
    4
 10
116.66666666666666
 20
200
 40
1.6666666666666665
  0
TEXT
  8
_1-f_寸法
 62
    4
 10
116.04166666666666
 20
198.75
 40
2.5
 41
1
 50
0
  1
3
  0
LINE
  8
_1-f_寸法
  6
CONTINUOUS
 62
    4
 10
110.49999999999996
 20
203.50000000000006
 11
115.21719014127299
 21
200.82267586576396
  0
LINE
  8
_1-0_躯体
  6
CENTER2
 62
    4
 10
309.99999999999983
 20
234.2000006666666
 11
309.99999999999983
 21
198.00000033333328
  0
CIRCLE
  8
_1-f_寸法
  6
CONTINUOUS
 62
    4
 10
338.33333333333331
 20
200
 40
1.6666666666666665
  0
TEXT
  8
_1-f_寸法
 62
    4
 10
337.70833333333331
 20
198.75
 40
2.5
 41
1
 50
0
  1
1
  0
ARC
  8
_1-0_躯体
  6
CONTINUOUS
 62
    4
 10
130.58333266666665
 20
231.50000066666669
 40
0.8333329999999998
 50
90
 51
180
  0
ARC
  8
_1-0_躯体
  6
CONTINUOUS
 62
    4
 10
142.24999966666672
 20
231.50000066666669
 40
0.8333329999999998
 50
0
 51
90
  0
LINE
  8
_1-0_躯体
  6
CONTINUOUS
 62
    4
 10
130.58333266666665
 20
232.33333366666673
 11
142.24999966666672
 21
232.33333366666673
  0
LINE
  8
_1-0_躯体
  6
CONTINUOUS
 62
    4
 10
144.49999966666672
 20
234.00000066666669
 11
154.99999966666672
 21
234.00000066666669
  0
LINE
  8
_1-0_躯体
  6
CONTINUOUS
 62
    4
 10
128.33333266666665
 20
234.00000066666669
 11
126.66666666666669
 21
234.00000066666669
  0
LINE
  8
_1-0_躯体
  6
CONTINUOUS
 62
    4
 10
126.66666666666669
 20
234.00000066666669
 11
126.66666666666669
 21
221.33333366666673
  0
LINE
  8
_1-0_躯体
  6
CONTINUOUS
 62
    4
 10
154.99999966666672
 20
215.00000066666666
 11
126.66666666666669
 21
215.00000066666666
  0
LINE
  8
_1-0_躯体
  6
CONTINUOUS
 62
    4
 10
154.99999966666672
 20
214.3333336666667
 11
126.66666666666669
 21
214.3333336666667
  0
LINE
  8
_1-0_躯体
  6
CONTINUOUS
 62
    4
 10
154.99999966666672
 20
213.66666666666666
 11
126.66666666666669
 21
213.66666666666666
  0
LINE
  8
_1-0_躯体
  6
CONTINUOUS
 62
    4
 10
130.33333266666665
 20
221.33333366666673
 11
126.66666666666669
 21
221.33333366666673
  0
LINE
  8
_1-0_躯体
  6
CONTINUOUS
 62
    4
 10
129.08333266666665
 20
215.16666666666666
 11
130.04398866666673
 21
215.16666666666666
  0
LINE
  8
_1-0_躯体
  6
CONTINUOUS
 62
    4
 10
129.08333266666665
 20
215.00000066666666
 11
130.08333266666665
 21
215.00000066666666
  0
LINE
  8
_1-0_躯体
  6
CONTINUOUS
 62
    4
 10
136.08333266666665
 20
215.00000066666666
 11
136.41666666666669
 21
215.16666666666666
  0
LINE
  8
_1-0_躯体
  6
CONTINUOUS
 62
    4
 10
136.41666666666669
 20
215.16666666666666
 11
136.74999966666672
 21
215.00000066666666
  0
LINE
  8
_1-0_躯体
  6
CONTINUOUS
 62
    4
 10
134.74999966666672
 20
215.00000066666666
 11
136.08333266666665
 21
215.00000066666666
  0
LINE
  8
_1-0_躯体
  6
CONTINUOUS
 62
    4
 10
134.78934466666675
 20
215.16666666666666
 11
136.04398866666673
 21
215.16666666666666
  0
LINE
  8
_1-0_躯体
  6
CONTINUOUS
 62
    4
 10
136.04398866666673
 20
215.16666666666666
 11
136.41666666666669
 21
215.35300566666666
  0
LINE
  8
_1-0_躯体
  6
CONTINUOUS
 62
    4
 10
136.41666666666669
 20
215.35300566666666
 11
136.78934466666675
 21
215.16666666666666
  0
LINE
  8
_1-0_躯体
  6
CONTINUOUS
 62
    4
 10
129.24999966666672
 20
220.33333366666673
 11
129.41666666666669
 21
220.33333366666673
  0
LINE
  8
_1-0_躯体
  6
CONTINUOUS
 62
    4
 10
129.41666666666669
 20
220.33333366666673
 11
129.41666666666669
 21
220.83333366666673
  0
ARC
  8
_1-0_躯体
  6
CONTINUOUS
 62
    4
 10
128.91666666666669
 20
220.83333366666673
 40
0.5
 50
0
 51
90
  0
LINE
  8
_1-0_躯体
  6
CONTINUOUS
 62
    4
 10
128.58333266666665
 20
221.33333366666673
 11
128.91666666666669
 21
221.33333366666673
  0
ARC
  8
_1-0_躯体
  6
CONTINUOUS
 62
    4
 10
128.58333266666665
 20
220.83333366666673
 40
0.5
 50
90
 51
180
  0
LINE
  8
_1-0_躯体
  6
CONTINUOUS
 62
    4
 10
128.08333266666665
 20
220.83333366666673
 11
128.08333266666665
 21
216.00000066666666
  0
ARC
  8
_1-0_躯体
  6
CONTINUOUS
 62
    4
 10
128.91666666666669
 20
220.83333366666673
 40
0.3333329999999999
 50
0
 51
90
  0
LINE
  8
_1-0_躯体
  6
CONTINUOUS
 62
    4
 10
128.58333266666665
 20
221.16666666666669
 11
128.91666666666669
 21
221.16666666666669
  0
ARC
  8
_1-0_躯体
  6
CONTINUOUS
 62
    4
 10
128.58333266666665
 20
220.83333366666673
 40
0.3333329999999999
 50
90
 51
180
  0
ARC
  8
_1-0_躯体
  6
CONTINUOUS
 62
    4
 10
129.08333266666665
 20
216.00000066666666
 40
0.8333329999999998
 50
180
 51
270
  0
LINE
  8
_1-0_躯体
  6
CONTINUOUS
 62
    4
 10
128.24999966666672
 20
220.83333366666673
 11
128.24999966666672
 21
216.00000066666666
  0
LINE
  8
_1-0_躯体
  6
CONTINUOUS
 62
    4
 10
129.24999966666672
 20
220.33333366666673
 11
129.24999966666672
 21
220.83333366666673
  0
ARC
  8
_1-0_躯体
  6
CONTINUOUS
 62
    4
 10
129.08333266666665
 20
216.00000066666666
 40
1
 50
180
 51
270
  0
LINE
  8
_1-0_躯体
  6
CONTINUOUS
 62
    4
 10
143.58333266666665
 20
220.33333366666673
 11
143.41666666666669
 21
220.33333366666673
  0
LINE
  8
_1-0_躯体
  6
CONTINUOUS
 62
    4
 10
143.41666666666669
 20
220.33333366666673
 11
143.41666666666669
 21
220.83333366666673
  0
ARC
  8
_1-0_躯体
  6
CONTINUOUS
 62
    4
 10
143.91666666666669
 20
220.83333366666673
 40
0.5
 50
90
 51
180
  0
LINE
  8
_1-0_躯体
  6
CONTINUOUS
 62
    4
 10
144.24999966666672
 20
221.33333366666673
 11
143.91666666666669
 21
221.33333366666673
  0
ARC
  8
_1-0_躯体
  6
CONTINUOUS
 62
    4
 10
144.24999966666672
 20
220.83333366666673
 40
0.5
 50
0
 51
90
  0
LINE
  8
_1-0_躯体
  6
CONTINUOUS
 62
    4
 10
144.74999966666672
 20
220.83333366666673
 11
144.74999966666672
 21
216.00000066666666
  0
ARC
  8
_1-0_躯体
  6
CONTINUOUS
 62
    4
 10
143.91666666666669
 20
220.83333366666673
 40
0.3333329999999999
 50
90
 51
180
  0
LINE
  8
_1-0_躯体
  6
CONTINUOUS
 62
    4
 10
144.24999966666672
 20
221.16666666666669
 11
143.91666666666669
 21
221.16666666666669
  0
ARC
  8
_1-0_躯体
  6
CONTINUOUS
 62
    4
 10
144.24999966666672
 20
220.83333366666673
 40
0.3333329999999999
 50
0
 51
90
  0
ARC
  8
_1-0_躯体
  6
CONTINUOUS
 62
    4
 10
143.74999966666672
 20
216.00000066666666
 40
0.8333329999999998
 50
270
 51
0
  0
LINE
  8
_1-0_躯体
  6
CONTINUOUS
 62
    4
 10
144.58333266666665
 20
220.83333366666673
 11
144.58333266666665
 21
216.00000066666666
  0
LINE
  8
_1-0_躯体
  6
CONTINUOUS
 62
    4
 10
143.58333266666665
 20
220.33333366666673
 11
143.58333266666665
 21
220.83333366666673
  0
ARC
  8
_1-0_躯体
  6
CONTINUOUS
 62
    4
 10
143.74999966666672
 20
216.00000066666666
 40
1
 50
270
 51
0
  0
LINE
  8
_1-0_躯体
  6
CONTINUOUS
 62
    4
 10
130.08333266666665
 20
215.00000066666666
 11
130.41666666666669
 21
215.16666666666666
  0
LINE
  8
_1-0_躯体
  6
CONTINUOUS
 62
    4
 10
130.41666666666669
 20
215.16666666666666
 11
130.91666666666669
 21
215.00000066666666
  0
LINE
  8
_1-0_躯体
  6
CONTINUOUS
 62
    4
 10
130.04398866666673
 20
215.16666666666666
 11
130.40387766666663
 21
215.34661166666666
  0
LINE
  8
_1-0_躯体
  6
CONTINUOUS
 62
    4
 10
130.40387766666663
 20
215.34661166666666
 11
130.91666666666669
 21
215.17568266666663
  0
LINE
  8
_1-0_躯体
  6
CONTINUOUS
 62
    4
 10
131.41666666666669
 20
215.16666666666666
 11
130.91666666666669
 21
215.00000066666666
  0
LINE
  8
_1-0_躯体
  6
CONTINUOUS
 62
    4
 10
130.91666666666669
 20
215.17568266666663
 11
131.41666666666669
 21
215.34234866666671
  0
LINE
  8
_1-0_躯体
  6
CONTINUOUS
 62
    4
 10
132.41666666666669
 20
215.16666666666666
 11
131.91666666666669
 21
215.00000066666666
  0
LINE
  8
_1-0_躯体
  6
CONTINUOUS
 62
    4
 10
131.91666666666669
 20
215.17568266666663
 11
132.41666666666669
 21
215.34234866666671
  0
LINE
  8
_1-0_躯体
  6
CONTINUOUS
 62
    4
 10
131.41666666666669
 20
215.16666666666666
 11
131.91666666666669
 21
215.00000066666666
  0
LINE
  8
_1-0_躯体
  6
CONTINUOUS
 62
    4
 10
131.91666666666669
 20
215.17568266666663
 11
131.41666666666669
 21
215.34234866666671
  0
LINE
  8
_1-0_躯体
  6
CONTINUOUS
 62
    4
 10
134.41666666666669
 20
215.16666666666666
 11
133.91666666666669
 21
215.00000066666666
  0
LINE
  8
_1-0_躯体
  6
CONTINUOUS
 62
    4
 10
134.42945466666669
 20
215.34661166666666
 11
133.91666666666669
 21
215.17568266666663
  0
LINE
  8
_1-0_躯体
  6
CONTINUOUS
 62
    4
 10
133.41666666666669
 20
215.16666666666666
 11
133.91666666666669
 21
215.00000066666666
  0
LINE
  8
_1-0_躯体
  6
CONTINUOUS
 62
    4
 10
133.91666666666669
 20
215.17568266666663
 11
133.41666666666669
 21
215.34234866666671
  0
LINE
  8
_1-0_躯体
  6
CONTINUOUS
 62
    4
 10
132.41666666666669
 20
215.16666666666666
 11
132.91666666666669
 21
215.00000066666666
  0
LINE
  8
_1-0_躯体
  6
CONTINUOUS
 62
    4
 10
132.91666666666669
 20
215.17568266666663
 11
132.41666666666669
 21
215.34234866666671
  0
LINE
  8
_1-0_躯体
  6
CONTINUOUS
 62
    4
 10
133.41666666666669
 20
215.16666666666666
 11
132.91666666666669
 21
215.00000066666666
  0
LINE
  8
_1-0_躯体
  6
CONTINUOUS
 62
    4
 10
132.91666666666669
 20
215.17568266666663
 11
133.41666666666669
 21
215.34234866666671
  0
LINE
  8
_1-0_躯体
  6
CONTINUOUS
 62
    4
 10
134.74999966666672
 20
215.00000066666666
 11
134.41666666666669
 21
215.16666666666666
  0
LINE
  8
_1-0_躯体
  6
CONTINUOUS
 62
    4
 10
134.78934466666675
 20
215.16666666666666
 11
134.42945466666669
 21
215.34661166666666
  0
LINE
  8
_1-0_躯体
  6
CONTINUOUS
 62
    4
 10
138.08333266666665
 20
215.00000066666666
 11
136.74999966666672
 21
215.00000066666666
  0
LINE
  8
_1-0_躯体
  6
CONTINUOUS
 62
    4
 10
138.04398866666673
 20
215.16666666666666
 11
136.78934466666675
 21
215.16666666666666
  0
LINE
  8
_1-0_躯体
  6
CONTINUOUS
 62
    4
 10
142.74999966666672
 20
215.00000066666666
 11
142.41666666666669
 21
215.16666666666666
  0
LINE
  8
_1-0_躯体
  6
CONTINUOUS
 62
    4
 10
142.41666666666669
 20
215.16666666666666
 11
141.91666666666669
 21
215.00000066666666
  0
LINE
  8
_1-0_躯体
  6
CONTINUOUS
 62
    4
 10
142.78934466666675
 20
215.16666666666666
 11
142.42945466666669
 21
215.34661166666666
  0
LINE
  8
_1-0_躯体
  6
CONTINUOUS
 62
    4
 10
142.42945466666669
 20
215.34661166666666
 11
141.91666666666669
 21
215.17568266666663
  0
LINE
  8
_1-0_躯体
  6
CONTINUOUS
 62
    4
 10
141.41666666666669
 20
215.16666666666666
 11
141.91666666666669
 21
215.00000066666666
  0
LINE
  8
_1-0_躯体
  6
CONTINUOUS
 62
    4
 10
141.91666666666669
 20
215.17568266666663
 11
141.41666666666669
 21
215.34234866666671
  0
LINE
  8
_1-0_躯体
  6
CONTINUOUS
 62
    4
 10
140.41666666666669
 20
215.16666666666666
 11
140.91666666666669
 21
215.00000066666666
  0
LINE
  8
_1-0_躯体
  6
CONTINUOUS
 62
    4
 10
140.91666666666669
 20
215.17568266666663
 11
140.41666666666669
 21
215.34234866666671
  0
LINE
  8
_1-0_躯体
  6
CONTINUOUS
 62
    4
 10
141.41666666666669
 20
215.16666666666666
 11
140.91666666666669
 21
215.00000066666666
  0
LINE
  8
_1-0_躯体
  6
CONTINUOUS
 62
    4
 10
140.91666666666669
 20
215.17568266666663
 11
141.41666666666669
 21
215.34234866666671
  0
LINE
  8
_1-0_躯体
  6
CONTINUOUS
 62
    4
 10
138.41666666666669
 20
215.16666666666666
 11
138.91666666666669
 21
215.00000066666666
  0
LINE
  8
_1-0_躯体
  6
CONTINUOUS
 62
    4
 10
138.40387766666669
 20
215.34661166666666
 11
138.91666666666669
 21
215.17568266666663
  0
LINE
  8
_1-0_躯体
  6
CONTINUOUS
 62
    4
 10
139.41666666666669
 20
215.16666666666666
 11
138.91666666666669
 21
215.00000066666666
  0
LINE
  8
_1-0_躯体
  6
CONTINUOUS
 62
    4
 10
138.91666666666669
 20
215.17568266666663
 11
139.41666666666669
 21
215.34234866666671
  0
LINE
  8
_1-0_躯体
  6
CONTINUOUS
 62
    4
 10
140.41666666666669
 20
215.16666666666666
 11
139.91666666666669
 21
215.00000066666666
  0
LINE
  8
_1-0_躯体
  6
CONTINUOUS
 62
    4
 10
139.91666666666669
 20
215.17568266666663
 11
140.41666666666669
 21
215.34234866666671
  0
LINE
  8
_1-0_躯体
  6
CONTINUOUS
 62
    4
 10
139.41666666666669
 20
215.16666666666666
 11
139.91666666666669
 21
215.00000066666666
  0
LINE
  8
_1-0_躯体
  6
CONTINUOUS
 62
    4
 10
139.91666666666669
 20
215.17568266666663
 11
139.41666666666669
 21
215.34234866666671
  0
LINE
  8
_1-0_躯体
  6
CONTINUOUS
 62
    4
 10
138.08333266666665
 20
215.00000066666666
 11
138.41666666666669
 21
215.16666666666666
  0
LINE
  8
_1-0_躯体
  6
CONTINUOUS
 62
    4
 10
138.04398866666673
 20
215.16666666666666
 11
138.40387766666669
 21
215.34661166666666
  0
LINE
  8
_1-0_躯体
  6
CONTINUOUS
 62
    4
 10
143.74999966666672
 20
215.16666666666666
 11
142.78934466666675
 21
215.16666666666666
  0
LINE
  8
_1-0_躯体
  6
CONTINUOUS
 62
    4
 10
143.74999966666672
 20
215.00000066666666
 11
142.74999966666672
 21
215.00000066666666
  0
LINE
  8
_1-0_躯体
  6
CONTINUOUS
 62
    4
 10
128.49999966666672
 20
221.00000066666669
 11
128.86666666666673
 21
221.16666666666669
  0
LINE
  8
_1-0_躯体
  6
CONTINUOUS
 62
    4
 10
128.86666666666673
 20
221.16666666666669
 11
129.37294366666669
 21
219.97162366666669
  0
ARC
  8
_1-0_躯体
  6
CONTINUOUS
 62
    4
 10
129.83333266666665
 20
220.16666666666669
 40
0.5
 50
202.95984199999688
 51
0
  0
LINE
  8
_1-0_躯体
  6
CONTINUOUS
 62
    4
 10
128.49999966666672
 20
221.00000066666669
 11
128.49999966666672
 21
219.33333366666673
  0
LINE
  8
_1-0_躯体
  6
CONTINUOUS
 62
    4
 10
128.69999966666666
 20
221.0909096666667
 11
128.69999966666666
 21
219.33333366666673
  0
LINE
  8
_1-0_躯体
  6
CONTINUOUS
 62
    4
 10
130.33333266666665
 20
220.16666666666669
 11
130.33333266666665
 21
225.13076866666668
  0
ARC
  8
_1-0_躯体
  6
CONTINUOUS
 62
    4
 10
129.66666666666669
 20
219.33333366666673
 40
1.1666669999999999
 50
180
 51
270
  0
LINE
  8
_1-0_躯体
  6
CONTINUOUS
 62
    4
 10
129.66666666666669
 20
218.16666666666666
 11
143.16666666666669
 21
218.16666666666666
  0
LINE
  8
_1-0_躯体
  6
CONTINUOUS
 62
    4
 10
128.33333266666665
 20
234.20000066666665
 11
128.33333266666665
 21
225.66666666666669
  0
LINE
  8
_1-0_躯体
  6
CONTINUOUS
 62
    4
 10
144.49999966666672
 20
234.20000066666665
 11
144.49999966666672
 21
225.66666666666669
  0
ARC
  8
_1-0_躯体
  6
CONTINUOUS
 62
    4
 10
129.66666666666669
 20
219.33333366666673
 40
0.9666669999999998
 50
180
 51
270
  0
LINE
  8
_1-0_躯体
  6
CONTINUOUS
 62
    4
 10
143.16666666666669
 20
218.36666666666662
 11
129.66666666666669
 21
218.36666666666662
  0
LINE
  8
_1-0_躯体
  6
CONTINUOUS
 62
    4
 10
128.33333266666665
 20
225.66666666666669
 11
130.33333266666665
 21
225.13076866666668
  0
LINE
  8
_1-0_躯体
  6
CONTINUOUS
 62
    4
 10
128.33333266666665
 20
234.20000066666665
 11
144.49999966666672
 21
234.20000066666665
  0
ARC
  8
_1-0_躯体
  6
CONTINUOUS
 62
    4
 10
130.58333266666665
 20
227.16666666666669
 40
0.8333329999999998
 50
180
 51
270
  0
LINE
  8
_1-0_躯体
  6
CONTINUOUS
 62
    4
 10
129.74999966666672
 20
227.16666666666669
 11
129.74999966666672
 21
231.50000066666669
  0
LINE
  8
_1-0_躯体
  6
CONTINUOUS
 62
    4
 10
130.58333266666665
 20
226.33333366666673
 11
131.41666666666669
 21
226.33333366666673
  0
ARC
  8
_1-0_躯体
  6
CONTINUOUS
 62
    4
 10
133.08333266666665
 20
220.66666666666669
 40
1
 50
180
 51
0
  0
ARC
  8
_1-0_躯体
  6
CONTINUOUS
 62
    4
 10
131.41666666666669
 20
225.66666666666669
 40
0.666667
 50
0
 51
90
  0
LINE
  8
_1-0_躯体
  6
CONTINUOUS
 62
    4
 10
132.08333266666665
 20
220.66666666666669
 11
132.08333266666665
 21
225.66666666666669
  0
ARC
  8
_1-0_躯体
  6
CONTINUOUS
 62
    4
 10
134.74999966666672
 20
225.66666666666669
 40
0.666667
 50
90
 51
180
  0
LINE
  8
_1-0_躯体
  6
CONTINUOUS
 62
    4
 10
134.08333266666665
 20
220.66666666666669
 11
134.08333266666665
 21
225.66666666666669
  0
ARC
  8
_1-0_躯体
  6
CONTINUOUS
 62
    4
 10
138.08333266666665
 20
225.66666666666669
 40
0.666667
 50
0
 51
90
  0
LINE
  8
_1-0_躯体
  6
CONTINUOUS
 62
    4
 10
134.74999966666672
 20
226.33333366666673
 11
138.08333266666665
 21
226.33333366666673
  0
LINE
  8
_1-0_躯体
  6
CONTINUOUS
 62
    4
 10
144.33333266666665
 20
221.00000066666669
 11
143.96666666666664
 21
221.16666666666669
  0
LINE
  8
_1-0_躯体
  6
CONTINUOUS
 62
    4
 10
143.96666666666664
 20
221.16666666666669
 11
143.46038866666669
 21
219.97162366666669
  0
ARC
  8
_1-0_躯体
  6
CONTINUOUS
 62
    4
 10
142.99999966666672
 20
220.16666666666669
 40
0.5
 50
180
 51
337.04015800000184
  0
ARC
  8
_1-0_躯体
  6
CONTINUOUS
 62
    4
 10
143.16666666666669
 20
219.33333366666673
 40
1.1666669999999999
 50
270
 51
0
  0
LINE
  8
_1-0_躯体
  6
CONTINUOUS
 62
    4
 10
144.33333266666665
 20
221.00000066666669
 11
144.33333266666665
 21
219.33333366666673
  0
ARC
  8
_1-0_躯体
  6
CONTINUOUS
 62
    4
 10
143.16666666666669
 20
219.33333366666673
 40
0.9666669999999998
 50
270
 51
0
  0
LINE
  8
_1-0_躯体
  6
CONTINUOUS
 62
    4
 10
144.13333266666672
 20
221.0909096666667
 11
144.13333266666672
 21
219.33333366666673
  0
LINE
  8
_1-0_躯体
  6
CONTINUOUS
 62
    4
 10
142.49999966666672
 20
220.16666666666669
 11
142.49999966666672
 21
225.13076866666668
  0
LINE
  8
_1-0_躯体
  6
CONTINUOUS
 62
    4
 10
144.49999966666672
 20
225.66666666666669
 11
142.49999966666672
 21
225.13076866666668
  0
ARC
  8
_1-0_躯体
  6
CONTINUOUS
 62
    4
 10
139.74999966666672
 20
220.66666666666669
 40
1
 50
180
 51
0
  0
ARC
  8
_1-0_躯体
  6
CONTINUOUS
 62
    4
 10
141.41666666666669
 20
225.66666666666669
 40
0.666667
 50
90
 51
180
  0
LINE
  8
_1-0_躯体
  6
CONTINUOUS
 62
    4
 10
140.74999966666672
 20
220.66666666666669
 11
140.74999966666672
 21
225.66666666666669
  0
LINE
  8
_1-0_躯体
  6
CONTINUOUS
 62
    4
 10
138.74999966666672
 20
220.66666666666669
 11
138.74999966666672
 21
225.66666666666669
  0
ARC
  8
_1-0_躯体
  6
CONTINUOUS
 62
    4
 10
142.24999966666672
 20
227.16666666666669
 40
0.8333329999999998
 50
270
 51
0
  0
LINE
  8
_1-0_躯体
  6
CONTINUOUS
 62
    4
 10
143.08333266666665
 20
227.16666666666669
 11
143.08333266666665
 21
231.50000066666669
  0
LINE
  8
_1-0_躯体
  6
CONTINUOUS
 62
    4
 10
142.24999966666672
 20
226.33333366666673
 11
141.41666666666669
 21
226.33333366666673
  0
LINE
  8
_1-0_躯体
  6
CONTINUOUS
 62
    4
 10
154.99999966666672
 20
213.00000066666666
 11
126.66666666666669
 21
213.00000066666666
  0
LINE
  8
_1-0_躯体
  6
CONTINUOUS
 62
    4
 10
154.99999966666672
 20
212.3333336666667
 11
126.66666666666669
 21
212.3333336666667
  0
LINE
  8
_1-0_躯体
  6
CONTINUOUS
 62
    4
 10
126.66666666666669
 20
211.66666666666666
 11
154.99999966666672
 21
211.66666666666666
  0
INSERT
  2
-006-$QLE
  8
_1-f_寸法
 10
210
 20
148.5
 41
1
 42
1
 50
0
  0
INSERT
  2
-007-$QLE_1_
  8
_1-f_寸法
 10
210
 20
148.5
 41
1
 42
1
 50
0
  0
LINE
  8
_1-0_躯体
  6
CONTINUOUS
 62
    4
 10
126.66666666666669
 20
211.66666666666666
 11
126.66666666666669
 21
215.00000066666666
  0
INSERT
  2
-008-$QLE_2_
  8
_1-f_寸法
 10
210
 20
148.5
 41
1
 42
1
 50
0
  0
LINE
  8
_1-0_躯体
  6
CONTINUOUS
 62
    4
 10
77.750000333333276
 20
232.33333366666673
 11
89.41666633333331
 21
232.33333366666673
  0
LINE
  8
_1-0_躯体
  6
CONTINUOUS
 62
    4
 10
91.66666633333331
 20
234.00000066666669
 11
93.333333333333314
 21
234.00000066666669
  0
LINE
  8
_1-0_躯体
  6
CONTINUOUS
 62
    4
 10
75.500000333333276
 20
234.00000066666669
 11
65.000000333333276
 21
234.00000066666669
  0
LINE
  8
_1-0_躯体
  6
CONTINUOUS
 62
    4
 10
93.333333333333314
 20
234.00000066666669
 11
93.333333333333314
 21
221.33333366666673
  0
LINE
  8
_1-0_躯体
  6
CONTINUOUS
 62
    4
 10
93.333333333333314
 20
211.66666666666666
 11
93.333333333333314
 21
215.00000066666666
  0
LINE
  8
_1-0_躯体
  6
CONTINUOUS
 62
    4
 10
93.333333333333314
 20
215.00000066666666
 11
65.000000333333276
 21
215.00000066666666
  0
LINE
  8
_1-0_躯体
  6
CONTINUOUS
 62
    4
 10
65.000000333333276
 20
213.66666666666666
 11
93.333333333333314
 21
213.66666666666666
  0
LINE
  8
_1-0_躯体
  6
CONTINUOUS
 62
    4
 10
89.66666633333331
 20
221.33333366666673
 11
93.333333333333314
 21
221.33333366666673
  0
LINE
  8
_1-0_躯体
  6
CONTINUOUS
 62
    4
 10
77.500000333333276
 20
221.33333366666673
 11
65.000000333333276
 21
221.33333366666673
  0
LINE
  8
_1-0_躯体
  6
CONTINUOUS
 62
    4
 10
65.000000333333276
 20
214.3333336666667
 11
93.333333333333314
 21
214.3333336666667
  0
LINE
  8
_1-0_躯体
  6
CONTINUOUS
 62
    4
 10
76.250000333333276
 20
215.16666666666666
 11
77.210655333333307
 21
215.16666666666666
  0
LINE
  8
_1-0_躯体
  6
CONTINUOUS
 62
    4
 10
76.250000333333276
 20
215.00000066666666
 11
77.250000333333276
 21
215.00000066666666
  0
LINE
  8
_1-0_躯体
  6
CONTINUOUS
 62
    4
 10
83.250000333333276
 20
215.00000066666666
 11
83.583333333333314
 21
215.16666666666666
  0
LINE
  8
_1-0_躯体
  6
CONTINUOUS
 62
    4
 10
83.583333333333314
 20
215.16666666666666
 11
83.91666633333331
 21
215.00000066666666
  0
LINE
  8
_1-0_躯体
  6
CONTINUOUS
 62
    4
 10
81.916666333333296
 20
215.00000066666666
 11
83.250000333333276
 21
215.00000066666666
  0
LINE
  8
_1-0_躯体
  6
CONTINUOUS
 62
    4
 10
81.956011333333322
 20
215.16666666666666
 11
83.210655333333321
 21
215.16666666666666
  0
LINE
  8
_1-0_躯体
  6
CONTINUOUS
 62
    4
 10
83.210655333333321
 20
215.16666666666666
 11
83.583333333333314
 21
215.35300566666666
  0
LINE
  8
_1-0_躯体
  6
CONTINUOUS
 62
    4
 10
83.583333333333314
 20
215.35300566666666
 11
83.956011333333294
 21
215.16666666666666
  0
LINE
  8
_1-0_躯体
  6
CONTINUOUS
 62
    4
 10
76.416666333333296
 20
220.33333366666673
 11
76.583333333333314
 21
220.33333366666673
  0
LINE
  8
_1-0_躯体
  6
CONTINUOUS
 62
    4
 10
76.583333333333314
 20
220.33333366666673
 11
76.583333333333314
 21
220.83333366666673
  0
ARC
  8
_1-0_躯体
  6
CONTINUOUS
 62
    4
 10
76.083333333333314
 20
220.83333366666673
 40
0.5
 50
0
 51
90
  0
LINE
  8
_1-0_躯体
  6
CONTINUOUS
 62
    4
 10
75.750000333333276
 20
221.33333366666673
 11
76.083333333333314
 21
221.33333366666673
  0
ARC
  8
_1-0_躯体
  6
CONTINUOUS
 62
    4
 10
75.750000333333276
 20
220.83333366666673
 40
0.5
 50
90
 51
180
  0
LINE
  8
_1-0_躯体
  6
CONTINUOUS
 62
    4
 10
75.250000333333276
 20
220.83333366666673
 11
75.250000333333276
 21
216.00000066666666
  0
ARC
  8
_1-0_躯体
  6
CONTINUOUS
 62
    4
 10
76.083333333333314
 20
220.83333366666673
 40
0.3333329999999999
 50
0
 51
90
  0
LINE
  8
_1-0_躯体
  6
CONTINUOUS
 62
    4
 10
75.750000333333276
 20
221.16666666666669
 11
76.083333333333314
 21
221.16666666666669
  0
ARC
  8
_1-0_躯体
  6
CONTINUOUS
 62
    4
 10
75.750000333333276
 20
220.83333366666673
 40
0.3333329999999999
 50
90
 51
180
  0
ARC
  8
_1-0_躯体
  6
CONTINUOUS
 62
    4
 10
76.250000333333276
 20
216.00000066666666
 40
0.8333329999999998
 50
180
 51
270
  0
LINE
  8
_1-0_躯体
  6
CONTINUOUS
 62
    4
 10
75.416666333333296
 20
220.83333366666673
 11
75.416666333333296
 21
216.00000066666666
  0
LINE
  8
_1-0_躯体
  6
CONTINUOUS
 62
    4
 10
76.416666333333296
 20
220.33333366666673
 11
76.416666333333296
 21
220.83333366666673
  0
ARC
  8
_1-0_躯体
  6
CONTINUOUS
 62
    4
 10
76.250000333333276
 20
216.00000066666666
 40
1
 50
180
 51
270
  0
LINE
  8
_1-0_躯体
  6
CONTINUOUS
 62
    4
 10
90.750000333333276
 20
220.33333366666673
 11
90.583333333333314
 21
220.33333366666673
  0
LINE
  8
_1-0_躯体
  6
CONTINUOUS
 62
    4
 10
90.583333333333314
 20
220.33333366666673
 11
90.583333333333314
 21
220.83333366666673
  0
ARC
  8
_1-0_躯体
  6
CONTINUOUS
 62
    4
 10
91.083333333333314
 20
220.83333366666673
 40
0.5
 50
90
 51
180
  0
LINE
  8
_1-0_躯体
  6
CONTINUOUS
 62
    4
 10
91.41666633333331
 20
221.33333366666673
 11
91.083333333333314
 21
221.33333366666673
  0
ARC
  8
_1-0_躯体
  6
CONTINUOUS
 62
    4
 10
91.41666633333331
 20
220.83333366666673
 40
0.5
 50
0
 51
90
  0
LINE
  8
_1-0_躯体
  6
CONTINUOUS
 62
    4
 10
91.91666633333331
 20
220.83333366666673
 11
91.91666633333331
 21
216.00000066666666
  0
ARC
  8
_1-0_躯体
  6
CONTINUOUS
 62
    4
 10
91.083333333333314
 20
220.83333366666673
 40
0.3333329999999999
 50
90
 51
180
  0
LINE
  8
_1-0_躯体
  6
CONTINUOUS
 62
    4
 10
91.41666633333331
 20
221.16666666666669
 11
91.083333333333314
 21
221.16666666666669
  0
ARC
  8
_1-0_躯体
  6
CONTINUOUS
 62
    4
 10
91.41666633333331
 20
220.83333366666673
 40
0.3333329999999999
 50
0
 51
90
  0
ARC
  8
_1-0_躯体
  6
CONTINUOUS
 62
    4
 10
90.91666633333331
 20
216.00000066666666
 40
0.8333329999999998
 50
270
 51
0
  0
LINE
  8
_1-0_躯体
  6
CONTINUOUS
 62
    4
 10
91.750000333333276
 20
220.83333366666673
 11
91.750000333333276
 21
216.00000066666666
  0
LINE
  8
_1-0_躯体
  6
CONTINUOUS
 62
    4
 10
90.750000333333276
 20
220.33333366666673
 11
90.750000333333276
 21
220.83333366666673
  0
ARC
  8
_1-0_躯体
  6
CONTINUOUS
 62
    4
 10
90.91666633333331
 20
216.00000066666666
 40
1
 50
270
 51
0
  0
LINE
  8
_1-0_躯体
  6
CONTINUOUS
 62
    4
 10
77.250000333333276
 20
215.00000066666666
 11
77.583333333333314
 21
215.16666666666666
  0
LINE
  8
_1-0_躯体
  6
CONTINUOUS
 62
    4
 10
77.583333333333314
 20
215.16666666666666
 11
78.083333333333314
 21
215.00000066666666
  0
LINE
  8
_1-0_躯体
  6
CONTINUOUS
 62
    4
 10
77.210655333333307
 20
215.16666666666666
 11
77.570545333333314
 21
215.34661166666666
  0
LINE
  8
_1-0_躯体
  6
CONTINUOUS
 62
    4
 10
77.570545333333314
 20
215.34661166666666
 11
78.083333333333314
 21
215.17568266666663
  0
LINE
  8
_1-0_躯体
  6
CONTINUOUS
 62
    4
 10
78.583333333333314
 20
215.16666666666666
 11
78.083333333333314
 21
215.00000066666666
  0
LINE
  8
_1-0_躯体
  6
CONTINUOUS
 62
    4
 10
78.083333333333314
 20
215.17568266666663
 11
78.583333333333314
 21
215.34234866666671
  0
LINE
  8
_1-0_躯体
  6
CONTINUOUS
 62
    4
 10
79.583333333333314
 20
215.16666666666666
 11
79.083333333333314
 21
215.00000066666666
  0
LINE
  8
_1-0_躯体
  6
CONTINUOUS
 62
    4
 10
79.083333333333314
 20
215.17568266666663
 11
79.583333333333314
 21
215.34234866666671
  0
LINE
  8
_1-0_躯体
  6
CONTINUOUS
 62
    4
 10
78.583333333333314
 20
215.16666666666666
 11
79.083333333333314
 21
215.00000066666666
  0
LINE
  8
_1-0_躯体
  6
CONTINUOUS
 62
    4
 10
79.083333333333314
 20
215.17568266666663
 11
78.583333333333314
 21
215.34234866666671
  0
LINE
  8
_1-0_躯体
  6
CONTINUOUS
 62
    4
 10
81.583333333333314
 20
215.16666666666666
 11
81.083333333333314
 21
215.00000066666666
  0
LINE
  8
_1-0_躯体
  6
CONTINUOUS
 62
    4
 10
81.596121333333315
 20
215.34661166666666
 11
81.083333333333314
 21
215.17568266666663
  0
LINE
  8
_1-0_躯体
  6
CONTINUOUS
 62
    4
 10
80.583333333333314
 20
215.16666666666666
 11
81.083333333333314
 21
215.00000066666666
  0
LINE
  8
_1-0_躯体
  6
CONTINUOUS
 62
    4
 10
81.083333333333314
 20
215.17568266666663
 11
80.583333333333314
 21
215.34234866666671
  0
LINE
  8
_1-0_躯体
  6
CONTINUOUS
 62
    4
 10
79.583333333333314
 20
215.16666666666666
 11
80.083333333333314
 21
215.00000066666666
  0
LINE
  8
_1-0_躯体
  6
CONTINUOUS
 62
    4
 10
80.083333333333314
 20
215.17568266666663
 11
79.583333333333314
 21
215.34234866666671
  0
LINE
  8
_1-0_躯体
  6
CONTINUOUS
 62
    4
 10
80.583333333333314
 20
215.16666666666666
 11
80.083333333333314
 21
215.00000066666666
  0
LINE
  8
_1-0_躯体
  6
CONTINUOUS
 62
    4
 10
80.083333333333314
 20
215.17568266666663
 11
80.583333333333314
 21
215.34234866666671
  0
LINE
  8
_1-0_躯体
  6
CONTINUOUS
 62
    4
 10
81.916666333333296
 20
215.00000066666666
 11
81.583333333333314
 21
215.16666666666666
  0
LINE
  8
_1-0_躯体
  6
CONTINUOUS
 62
    4
 10
81.956011333333322
 20
215.16666666666666
 11
81.596121333333315
 21
215.34661166666666
  0
LINE
  8
_1-0_躯体
  6
CONTINUOUS
 62
    4
 10
85.250000333333276
 20
215.00000066666666
 11
83.91666633333331
 21
215.00000066666666
  0
LINE
  8
_1-0_躯体
  6
CONTINUOUS
 62
    4
 10
85.210655333333321
 20
215.16666666666666
 11
83.956011333333294
 21
215.16666666666666
  0
LINE
  8
_1-0_躯体
  6
CONTINUOUS
 62
    4
 10
89.91666633333331
 20
215.00000066666666
 11
89.583333333333314
 21
215.16666666666666
  0
LINE
  8
_1-0_躯体
  6
CONTINUOUS
 62
    4
 10
89.583333333333314
 20
215.16666666666666
 11
89.083333333333314
 21
215.00000066666666
  0
LINE
  8
_1-0_躯体
  6
CONTINUOUS
 62
    4
 10
89.956011333333294
 20
215.16666666666666
 11
89.596121333333315
 21
215.34661166666666
  0
LINE
  8
_1-0_躯体
  6
CONTINUOUS
 62
    4
 10
89.596121333333315
 20
215.34661166666666
 11
89.083333333333314
 21
215.17568266666663
  0
LINE
  8
_1-0_躯体
  6
CONTINUOUS
 62
    4
 10
88.583333333333314
 20
215.16666666666666
 11
89.083333333333314
 21
215.00000066666666
  0
LINE
  8
_1-0_躯体
  6
CONTINUOUS
 62
    4
 10
89.083333333333314
 20
215.17568266666663
 11
88.583333333333314
 21
215.34234866666671
  0
LINE
  8
_1-0_躯体
  6
CONTINUOUS
 62
    4
 10
87.583333333333314
 20
215.16666666666666
 11
88.083333333333314
 21
215.00000066666666
  0
LINE
  8
_1-0_躯体
  6
CONTINUOUS
 62
    4
 10
88.083333333333314
 20
215.17568266666663
 11
87.583333333333314
 21
215.34234866666671
  0
LINE
  8
_1-0_躯体
  6
CONTINUOUS
 62
    4
 10
88.583333333333314
 20
215.16666666666666
 11
88.083333333333314
 21
215.00000066666666
  0
LINE
  8
_1-0_躯体
  6
CONTINUOUS
 62
    4
 10
88.083333333333314
 20
215.17568266666663
 11
88.583333333333314
 21
215.34234866666671
  0
LINE
  8
_1-0_躯体
  6
CONTINUOUS
 62
    4
 10
85.583333333333314
 20
215.16666666666666
 11
86.083333333333314
 21
215.00000066666666
  0
LINE
  8
_1-0_躯体
  6
CONTINUOUS
 62
    4
 10
85.570545333333314
 20
215.34661166666666
 11
86.083333333333314
 21
215.17568266666663
  0
LINE
  8
_1-0_躯体
  6
CONTINUOUS
 62
    4
 10
86.583333333333314
 20
215.16666666666666
 11
86.083333333333314
 21
215.00000066666666
  0
LINE
  8
_1-0_躯体
  6
CONTINUOUS
 62
    4
 10
86.083333333333314
 20
215.17568266666663
 11
86.583333333333314
 21
215.34234866666671
  0
LINE
  8
_1-0_躯体
  6
CONTINUOUS
 62
    4
 10
87.583333333333314
 20
215.16666666666666
 11
87.083333333333314
 21
215.00000066666666
  0
LINE
  8
_1-0_躯体
  6
CONTINUOUS
 62
    4
 10
87.083333333333314
 20
215.17568266666663
 11
87.583333333333314
 21
215.34234866666671
  0
LINE
  8
_1-0_躯体
  6
CONTINUOUS
 62
    4
 10
86.583333333333314
 20
215.16666666666666
 11
87.083333333333314
 21
215.00000066666666
  0
LINE
  8
_1-0_躯体
  6
CONTINUOUS
 62
    4
 10
87.083333333333314
 20
215.17568266666663
 11
86.583333333333314
 21
215.34234866666671
  0
LINE
  8
_1-0_躯体
  6
CONTINUOUS
 62
    4
 10
85.250000333333276
 20
215.00000066666666
 11
85.583333333333314
 21
215.16666666666666
  0
LINE
  8
_1-0_躯体
  6
CONTINUOUS
 62
    4
 10
85.210655333333321
 20
215.16666666666666
 11
85.570545333333314
 21
215.34661166666666
  0
LINE
  8
_1-0_躯体
  6
CONTINUOUS
 62
    4
 10
90.91666633333331
 20
215.16666666666666
 11
89.956011333333294
 21
215.16666666666666
  0
LINE
  8
_1-0_躯体
  6
CONTINUOUS
 62
    4
 10
90.91666633333331
 20
215.00000066666666
 11
89.91666633333331
 21
215.00000066666666
  0
LINE
  8
_1-0_躯体
  6
CONTINUOUS
 62
    4
 10
75.666666333333296
 20
221.00000066666669
 11
76.033333333333303
 21
221.16666666666669
  0
LINE
  8
_1-0_躯体
  6
CONTINUOUS
 62
    4
 10
76.033333333333303
 20
221.16666666666669
 11
76.539610333333314
 21
219.97162366666669
  0
ARC
  8
_1-0_躯体
  6
CONTINUOUS
 62
    4
 10
77.000000333333276
 20
220.16666666666669
 40
0.5
 50
202.95984199999688
 51
0
  0
LINE
  8
_1-0_躯体
  6
CONTINUOUS
 62
    4
 10
75.666666333333296
 20
221.00000066666669
 11
75.666666333333296
 21
219.33333366666673
  0
LINE
  8
_1-0_躯体
  6
CONTINUOUS
 62
    4
 10
75.866666333333285
 20
221.0909096666667
 11
75.866666333333285
 21
219.33333366666673
  0
LINE
  8
_1-0_躯体
  6
CONTINUOUS
 62
    4
 10
77.500000333333276
 20
220.16666666666669
 11
77.500000333333276
 21
225.13076866666668
  0
ARC
  8
_1-0_躯体
  6
CONTINUOUS
 62
    4
 10
76.833333333333314
 20
219.33333366666673
 40
1.1666669999999999
 50
180
 51
270
  0
LINE
  8
_1-0_躯体
  6
CONTINUOUS
 62
    4
 10
76.833333333333314
 20
218.16666666666666
 11
90.333333333333314
 21
218.16666666666666
  0
LINE
  8
_1-0_躯体
  6
CONTINUOUS
 62
    4
 10
75.500000333333276
 20
234.20000066666665
 11
75.500000333333276
 21
225.66666666666669
  0
LINE
  8
_1-0_躯体
  6
CONTINUOUS
 62
    4
 10
91.66666633333331
 20
234.20000066666665
 11
91.66666633333331
 21
225.66666666666669
  0
ARC
  8
_1-0_躯体
  6
CONTINUOUS
 62
    4
 10
76.833333333333314
 20
219.33333366666673
 40
0.9666669999999998
 50
180
 51
270
  0
LINE
  8
_1-0_躯体
  6
CONTINUOUS
 62
    4
 10
90.333333333333314
 20
218.36666666666662
 11
76.833333333333314
 21
218.36666666666662
  0
LINE
  8
_1-0_躯体
  6
CONTINUOUS
 62
    4
 10
75.500000333333276
 20
225.66666666666669
 11
77.500000333333276
 21
225.13076866666668
  0
LINE
  8
_1-0_躯体
  6
CONTINUOUS
 62
    4
 10
75.500000333333276
 20
234.20000066666665
 11
91.66666633333331
 21
234.20000066666665
  0
ARC
  8
_1-0_躯体
  6
CONTINUOUS
 62
    4
 10
77.750000333333276
 20
227.16666666666669
 40
0.8333329999999998
 50
180
 51
270
  0
ARC
  8
_1-0_躯体
  6
CONTINUOUS
 62
    4
 10
77.750000333333276
 20
231.50000066666669
 40
0.8333329999999998
 50
90
 51
180
  0
LINE
  8
_1-0_躯体
  6
CONTINUOUS
 62
    4
 10
76.916666333333296
 20
227.16666666666669
 11
76.916666333333296
 21
231.50000066666669
  0
LINE
  8
_1-0_躯体
  6
CONTINUOUS
 62
    4
 10
77.750000333333276
 20
226.33333366666673
 11
78.583333333333314
 21
226.33333366666673
  0
ARC
  8
_1-0_躯体
  6
CONTINUOUS
 62
    4
 10
80.250000333333276
 20
220.66666666666669
 40
1
 50
180
 51
0
  0
ARC
  8
_1-0_躯体
  6
CONTINUOUS
 62
    4
 10
78.583333333333314
 20
225.66666666666669
 40
0.666667
 50
0
 51
90
  0
LINE
  8
_1-0_躯体
  6
CONTINUOUS
 62
    4
 10
79.250000333333276
 20
220.66666666666669
 11
79.250000333333276
 21
225.66666666666669
  0
ARC
  8
_1-0_躯体
  6
CONTINUOUS
 62
    4
 10
81.916666333333296
 20
225.66666666666669
 40
0.666667
 50
90
 51
180
  0
LINE
  8
_1-0_躯体
  6
CONTINUOUS
 62
    4
 10
81.250000333333276
 20
220.66666666666669
 11
81.250000333333276
 21
225.66666666666669
  0
ARC
  8
_1-0_躯体
  6
CONTINUOUS
 62
    4
 10
85.250000333333276
 20
225.66666666666669
 40
0.666667
 50
0
 51
90
  0
LINE
  8
_1-0_躯体
  6
CONTINUOUS
 62
    4
 10
81.916666333333296
 20
226.33333366666673
 11
85.250000333333276
 21
226.33333366666673
  0
LINE
  8
_1-0_躯体
  6
CONTINUOUS
 62
    4
 10
91.500000333333276
 20
221.00000066666669
 11
91.133333333333297
 21
221.16666666666669
  0
LINE
  8
_1-0_躯体
  6
CONTINUOUS
 62
    4
 10
91.133333333333297
 20
221.16666666666669
 11
90.627056333333314
 21
219.97162366666669
  0
ARC
  8
_1-0_躯体
  6
CONTINUOUS
 62
    4
 10
90.16666633333331
 20
220.16666666666669
 40
0.5
 50
180
 51
337.04015800000246
  0
ARC
  8
_1-0_躯体
  6
CONTINUOUS
 62
    4
 10
90.333333333333314
 20
219.33333366666673
 40
1.1666669999999999
 50
270
 51
0
  0
LINE
  8
_1-0_躯体
  6
CONTINUOUS
 62
    4
 10
91.500000333333276
 20
221.00000066666669
 11
91.500000333333276
 21
219.33333366666673
  0
ARC
  8
_1-0_躯体
  6
CONTINUOUS
 62
    4
 10
90.333333333333314
 20
219.33333366666673
 40
0.9666669999999998
 50
270
 51
0
  0
LINE
  8
_1-0_躯体
  6
CONTINUOUS
 62
    4
 10
91.300000333333259
 20
221.0909096666667
 11
91.300000333333259
 21
219.33333366666673
  0
LINE
  8
_1-0_躯体
  6
CONTINUOUS
 62
    4
 10
89.66666633333331
 20
220.16666666666669
 11
89.66666633333331
 21
225.13076866666668
  0
LINE
  8
_1-0_躯体
  6
CONTINUOUS
 62
    4
 10
91.66666633333331
 20
225.66666666666669
 11
89.66666633333331
 21
225.13076866666668
  0
ARC
  8
_1-0_躯体
  6
CONTINUOUS
 62
    4
 10
86.91666633333331
 20
220.66666666666669
 40
1
 50
180
 51
0
  0
ARC
  8
_1-0_躯体
  6
CONTINUOUS
 62
    4
 10
88.583333333333314
 20
225.66666666666669
 40
0.666667
 50
90
 51
180
  0
LINE
  8
_1-0_躯体
  6
CONTINUOUS
 62
    4
 10
87.91666633333331
 20
220.66666666666669
 11
87.91666633333331
 21
225.66666666666669
  0
LINE
  8
_1-0_躯体
  6
CONTINUOUS
 62
    4
 10
85.91666633333331
 20
220.66666666666669
 11
85.91666633333331
 21
225.66666666666669
  0
ARC
  8
_1-0_躯体
  6
CONTINUOUS
 62
    4
 10
89.41666633333331
 20
227.16666666666669
 40
0.8333329999999998
 50
270
 51
0
  0
ARC
  8
_1-0_躯体
  6
CONTINUOUS
 62
    4
 10
89.41666633333331
 20
231.50000066666669
 40
0.8333329999999998
 50
0
 51
90
  0
LINE
  8
_1-0_躯体
  6
CONTINUOUS
 62
    4
 10
90.250000333333276
 20
227.16666666666669
 11
90.250000333333276
 21
231.50000066666669
  0
LINE
  8
_1-0_躯体
  6
CONTINUOUS
 62
    4
 10
89.41666633333331
 20
226.33333366666673
 11
88.583333333333314
 21
226.33333366666673
  0
LINE
  8
_1-0_躯体
  6
CONTINUOUS
 62
    4
 10
65.000000333333276
 20
212.3333336666667
 11
93.333333333333314
 21
212.3333336666667
  0
LINE
  8
_1-0_躯体
  6
CONTINUOUS
 62
    4
 10
93.333333333333314
 20
213.00000066666666
 11
65.000000333333276
 21
213.00000066666666
  0
LINE
  8
_1-0_躯体
  6
CONTINUOUS
 62
    4
 10
93.333333333333314
 20
211.66666666666666
 11
65.000000333333276
 21
211.66666666666666
  0
CIRCLE
  8
_1-f_寸法
  6
CONTINUOUS
 62
    4
 10
81.666666666666629
 20
206.66666666666666
 40
1.6666666666666665
  0
TEXT
  8
_1-f_寸法
 62
    4
 10
81.041666666666629
 20
205.41666666666666
 40
2.5
 41
1
 50
0
  1
4
  0
CIRCLE
  8
_1-f_寸法
  6
CONTINUOUS
 62
    4
 10
91.666666666666657
 20
206.66666666666666
 40
1.6666666666666665
  0
TEXT
  8
_1-f_寸法
 62
    4
 10
91.041666666666657
 20
205.41666666666666
 40
2.5
 41
1
 50
0
  1
5
  0
LINE
  8
_1-f_寸法
  6
CONTINUOUS
 62
    4
 10
86.666666666666572
 20
210.29333318333329
 11
83.015803682616621
 21
207.64524067509493
  0
LINE
  8
_1-f_寸法
  6
CONTINUOUS
 62
    4
 10
88.429167116666974
 20
210.9083333333333
 11
90.655457986773854
 21
207.99151940696919
  0
INSERT
  2
-009-_6_
  8
_1-8_小物
 10
210
 20
148.5
 41
1
 42
1
 50
0
  0
LINE
  8
_1-f_寸法
  6
CONTINUOUS
 62
    4
 10
126.66666666666669
 20
235
 11
126.66666666666669
 21
241.59999999999997
  0
LINE
  8
_1-f_寸法
  6
CONTINUOUS
 62
    4
 10
93.333333333333314
 20
235
 11
93.333333333333314
 21
241.59999999999997
  0
POINT
  8
_1-f_寸法
 62
    4
 10
93.333333333333314
 20
240
  0
POINT
  8
_1-f_寸法
 62
    4
 10
126.66666666666669
 20
240
  0
LINE
  8
_1-f_寸法
  6
CONTINUOUS
 62
    4
 10
93.333333333333314
 20
240
 11
126.66666666666669
 21
240
  0
TEXT
  8
_1-f_寸法
 62
    4
 10
107.59999999999999
 20
240
 40
3.2000000000000002
 41
1
 50
0
  1
100
  0
CIRCLE
  8
_1-f_寸法
  6
CONTINUOUS
 62
    4
 10
70.000000000000028
 20
218.33333333333331
 40
1.6666666666666665
  0
TEXT
  8
_1-f_寸法
 62
    4
 10
69.375
 20
217.08333333333331
 40
2.5
 41
1
 50
0
  1
6
  0
LINE
  8
_1-f_寸法
  6
CONTINUOUS
 62
    4
 10
70.699867957627163
 20
216.82073205749603
 11
73.680712072044287
 21
210.37833308580085
  0
LINE
  8
_1-f_寸法
  6
CONTINUOUS
 62
    4
 10
146.66666666666657
 20
201.66666666666666
 11
146.66666666666657
 21
195.06666666666666
  0
LINE
  8
_1-f_寸法
  6
CONTINUOUS
 62
    4
 10
73.333333333333258
 20
201.66666666666666
 11
73.333333333333258
 21
195.06666666666666
  0
POINT
  8
_1-f_寸法
 62
    4
 10
73.333333333333258
 20
196.66666666666666
  0
POINT
  8
_1-f_寸法
 62
    4
 10
146.66666666666657
 20
196.66666666666666
  0
LINE
  8
_1-f_寸法
  6
CONTINUOUS
 62
    4
 10
73.333333333333258
 20
196.66666666666666
 11
146.66666666666657
 21
196.66666666666666
  0
TEXT
  8
_1-f_寸法
 62
    4
 10
107.59999999999992
 20
196.66666666666666
 40
3.2000000000000002
 41
1
 50
0
  1
220
  0
LINE
  8
_1-0_躯体
  6
CONTINUOUS
 62
    6
 10
293.33333333333314
 20
234.00000066666661
 11
293.33333333333314
 21
184.44145355866914
  0
CIRCLE
  8
_1-f_寸法
  6
CONTINUOUS
 62
    4
 10
290
 20
186.66666666666666
 40
1.6666666666666665
  0
TEXT
  8
_1-f_寸法
 62
    4
 10
289.375
 20
185.41666666666666
 40
2.5
 41
1
 50
0
  1
7
  0
ARC
  8
_1-0_躯体
  6
CONTINUOUS
 62
    4
 10
330.58333266666654
 20
231.50000066666661
 40
0.8333329999999998
 50
90
 51
180
  0
ARC
  8
_1-0_躯体
  6
CONTINUOUS
 62
    4
 10
342.24999966666655
 20
231.50000066666661
 40
0.8333329999999998
 50
0
 51
90
  0
LINE
  8
_1-0_躯体
  6
CONTINUOUS
 62
    4
 10
330.58333266666654
 20
232.33333366666665
 11
342.24999966666655
 21
232.33333366666665
  0
LINE
  8
_1-0_躯体
  6
CONTINUOUS
 62
    4
 10
344.49999966666661
 20
234.00000066666661
 11
354.99999966666667
 21
234.00000066666661
  0
LINE
  8
_1-0_躯体
  6
CONTINUOUS
 62
    4
 10
328.33333266666654
 20
234.00000066666661
 11
326.66666666666652
 21
234.00000066666661
  0
LINE
  8
_1-0_躯体
  6
CONTINUOUS
 62
    4
 10
326.66666666666652
 20
234.00000066666661
 11
326.66666666666652
 21
221.33333366666665
  0
LINE
  8
_1-0_躯体
  6
CONTINUOUS
 62
    4
 10
354.99999966666667
 20
215.00000066666658
 11
326.66666666666652
 21
215.00000066666658
  0
LINE
  8
_1-0_躯体
  6
CONTINUOUS
 62
    4
 10
354.99999966666667
 20
214.33333366666662
 11
326.66666666666652
 21
214.33333366666662
  0
LINE
  8
_1-0_躯体
  6
CONTINUOUS
 62
    4
 10
354.99999966666667
 20
213.66666666666657
 11
326.66666666666652
 21
213.66666666666657
  0
LINE
  8
_1-0_躯体
  6
CONTINUOUS
 62
    4
 10
330.33333266666654
 20
221.33333366666665
 11
326.66666666666652
 21
221.33333366666665
  0
LINE
  8
_1-0_躯体
  6
CONTINUOUS
 62
    4
 10
329.08333266666654
 20
215.16666666666657
 11
330.04398866666662
 21
215.16666666666657
  0
LINE
  8
_1-0_躯体
  6
CONTINUOUS
 62
    4
 10
329.08333266666654
 20
215.00000066666658
 11
330.08333266666654
 21
215.00000066666658
  0
LINE
  8
_1-0_躯体
  6
CONTINUOUS
 62
    4
 10
336.08333266666654
 20
215.00000066666658
 11
336.41666666666652
 21
215.16666666666657
  0
LINE
  8
_1-0_躯体
  6
CONTINUOUS
 62
    4
 10
336.41666666666652
 20
215.16666666666657
 11
336.74999966666655
 21
215.00000066666658
  0
LINE
  8
_1-0_躯体
  6
CONTINUOUS
 62
    4
 10
334.74999966666655
 20
215.00000066666658
 11
336.08333266666654
 21
215.00000066666658
  0
LINE
  8
_1-0_躯体
  6
CONTINUOUS
 62
    4
 10
334.78934466666664
 20
215.16666666666657
 11
336.04398866666662
 21
215.16666666666657
  0
LINE
  8
_1-0_躯体
  6
CONTINUOUS
 62
    4
 10
336.04398866666662
 20
215.16666666666657
 11
336.41666666666652
 21
215.3530056666666
  0
LINE
  8
_1-0_躯体
  6
CONTINUOUS
 62
    4
 10
336.41666666666652
 20
215.3530056666666
 11
336.78934466666664
 21
215.16666666666657
  0
LINE
  8
_1-0_躯体
  6
CONTINUOUS
 62
    4
 10
329.24999966666655
 20
220.33333366666665
 11
329.41666666666652
 21
220.33333366666665
  0
LINE
  8
_1-0_躯体
  6
CONTINUOUS
 62
    4
 10
329.41666666666652
 20
220.33333366666665
 11
329.41666666666652
 21
220.83333366666665
  0
ARC
  8
_1-0_躯体
  6
CONTINUOUS
 62
    4
 10
328.91666666666652
 20
220.83333366666665
 40
0.5
 50
0
 51
90
  0
LINE
  8
_1-0_躯体
  6
CONTINUOUS
 62
    4
 10
328.58333266666654
 20
221.33333366666665
 11
328.91666666666652
 21
221.33333366666665
  0
ARC
  8
_1-0_躯体
  6
CONTINUOUS
 62
    4
 10
328.58333266666654
 20
220.83333366666665
 40
0.5
 50
90
 51
180
  0
LINE
  8
_1-0_躯体
  6
CONTINUOUS
 62
    4
 10
328.08333266666654
 20
220.83333366666665
 11
328.08333266666654
 21
216.00000066666658
  0
ARC
  8
_1-0_躯体
  6
CONTINUOUS
 62
    4
 10
328.91666666666652
 20
220.83333366666665
 40
0.3333329999999999
 50
0
 51
90
  0
LINE
  8
_1-0_躯体
  6
CONTINUOUS
 62
    4
 10
328.58333266666654
 20
221.16666666666663
 11
328.91666666666652
 21
221.16666666666663
  0
ARC
  8
_1-0_躯体
  6
CONTINUOUS
 62
    4
 10
328.58333266666654
 20
220.83333366666665
 40
0.3333329999999999
 50
90
 51
180
  0
ARC
  8
_1-0_躯体
  6
CONTINUOUS
 62
    4
 10
329.08333266666654
 20
216.00000066666658
 40
0.8333329999999998
 50
180
 51
270
  0
LINE
  8
_1-0_躯体
  6
CONTINUOUS
 62
    4
 10
328.24999966666655
 20
220.83333366666665
 11
328.24999966666655
 21
216.00000066666658
  0
LINE
  8
_1-0_躯体
  6
CONTINUOUS
 62
    4
 10
329.24999966666655
 20
220.33333366666665
 11
329.24999966666655
 21
220.83333366666665
  0
ARC
  8
_1-0_躯体
  6
CONTINUOUS
 62
    4
 10
329.08333266666654
 20
216.00000066666658
 40
1
 50
180
 51
270
  0
LINE
  8
_1-0_躯体
  6
CONTINUOUS
 62
    4
 10
343.58333266666648
 20
220.33333366666665
 11
343.41666666666657
 21
220.33333366666665
  0
LINE
  8
_1-0_躯体
  6
CONTINUOUS
 62
    4
 10
343.41666666666657
 20
220.33333366666665
 11
343.41666666666657
 21
220.83333366666665
  0
ARC
  8
_1-0_躯体
  6
CONTINUOUS
 62
    4
 10
343.91666666666657
 20
220.83333366666665
 40
0.5
 50
90
 51
180
  0
LINE
  8
_1-0_躯体
  6
CONTINUOUS
 62
    4
 10
344.24999966666661
 20
221.33333366666665
 11
343.91666666666657
 21
221.33333366666665
  0
ARC
  8
_1-0_躯体
  6
CONTINUOUS
 62
    4
 10
344.24999966666661
 20
220.83333366666665
 40
0.5
 50
0
 51
90
  0
LINE
  8
_1-0_躯体
  6
CONTINUOUS
 62
    4
 10
344.74999966666661
 20
220.83333366666665
 11
344.74999966666661
 21
216.00000066666658
  0
ARC
  8
_1-0_躯体
  6
CONTINUOUS
 62
    4
 10
343.91666666666657
 20
220.83333366666665
 40
0.3333329999999999
 50
90
 51
180
  0
LINE
  8
_1-0_躯体
  6
CONTINUOUS
 62
    4
 10
344.24999966666661
 20
221.16666666666663
 11
343.91666666666657
 21
221.16666666666663
  0
ARC
  8
_1-0_躯体
  6
CONTINUOUS
 62
    4
 10
344.24999966666661
 20
220.83333366666665
 40
0.3333329999999999
 50
0
 51
90
  0
ARC
  8
_1-0_躯体
  6
CONTINUOUS
 62
    4
 10
343.74999966666661
 20
216.00000066666658
 40
0.8333329999999998
 50
270
 51
0
  0
LINE
  8
_1-0_躯体
  6
CONTINUOUS
 62
    4
 10
344.58333266666648
 20
220.83333366666665
 11
344.58333266666648
 21
216.00000066666658
  0
LINE
  8
_1-0_躯体
  6
CONTINUOUS
 62
    4
 10
343.58333266666648
 20
220.33333366666665
 11
343.58333266666648
 21
220.83333366666665
  0
ARC
  8
_1-0_躯体
  6
CONTINUOUS
 62
    4
 10
343.74999966666661
 20
216.00000066666658
 40
1
 50
270
 51
0
  0
LINE
  8
_1-0_躯体
  6
CONTINUOUS
 62
    4
 10
330.08333266666654
 20
215.00000066666658
 11
330.41666666666652
 21
215.16666666666657
  0
LINE
  8
_1-0_躯体
  6
CONTINUOUS
 62
    4
 10
330.41666666666652
 20
215.16666666666657
 11
330.91666666666652
 21
215.00000066666658
  0
LINE
  8
_1-0_躯体
  6
CONTINUOUS
 62
    4
 10
330.04398866666662
 20
215.16666666666657
 11
330.40387766666646
 21
215.3466116666666
  0
LINE
  8
_1-0_躯体
  6
CONTINUOUS
 62
    4
 10
330.40387766666646
 20
215.3466116666666
 11
330.91666666666652
 21
215.17568266666655
  0
LINE
  8
_1-0_躯体
  6
CONTINUOUS
 62
    4
 10
331.41666666666652
 20
215.16666666666657
 11
330.91666666666652
 21
215.00000066666658
  0
LINE
  8
_1-0_躯体
  6
CONTINUOUS
 62
    4
 10
330.91666666666652
 20
215.17568266666655
 11
331.41666666666652
 21
215.34234866666662
  0
LINE
  8
_1-0_躯体
  6
CONTINUOUS
 62
    4
 10
332.41666666666652
 20
215.16666666666657
 11
331.91666666666652
 21
215.00000066666658
  0
LINE
  8
_1-0_躯体
  6
CONTINUOUS
 62
    4
 10
331.91666666666652
 20
215.17568266666655
 11
332.41666666666652
 21
215.34234866666662
  0
LINE
  8
_1-0_躯体
  6
CONTINUOUS
 62
    4
 10
331.41666666666652
 20
215.16666666666657
 11
331.91666666666652
 21
215.00000066666658
  0
LINE
  8
_1-0_躯体
  6
CONTINUOUS
 62
    4
 10
331.91666666666652
 20
215.17568266666655
 11
331.41666666666652
 21
215.34234866666662
  0
LINE
  8
_1-0_躯体
  6
CONTINUOUS
 62
    4
 10
334.41666666666652
 20
215.16666666666657
 11
333.91666666666652
 21
215.00000066666658
  0
LINE
  8
_1-0_躯体
  6
CONTINUOUS
 62
    4
 10
334.42945466666652
 20
215.3466116666666
 11
333.91666666666652
 21
215.17568266666655
  0
LINE
  8
_1-0_躯体
  6
CONTINUOUS
 62
    4
 10
333.41666666666652
 20
215.16666666666657
 11
333.91666666666652
 21
215.00000066666658
  0
LINE
  8
_1-0_躯体
  6
CONTINUOUS
 62
    4
 10
333.91666666666652
 20
215.17568266666655
 11
333.41666666666652
 21
215.34234866666662
  0
LINE
  8
_1-0_躯体
  6
CONTINUOUS
 62
    4
 10
332.41666666666652
 20
215.16666666666657
 11
332.91666666666652
 21
215.00000066666658
  0
LINE
  8
_1-0_躯体
  6
CONTINUOUS
 62
    4
 10
332.91666666666652
 20
215.17568266666655
 11
332.41666666666652
 21
215.34234866666662
  0
LINE
  8
_1-0_躯体
  6
CONTINUOUS
 62
    4
 10
333.41666666666652
 20
215.16666666666657
 11
332.91666666666652
 21
215.00000066666658
  0
LINE
  8
_1-0_躯体
  6
CONTINUOUS
 62
    4
 10
332.91666666666652
 20
215.17568266666655
 11
333.41666666666652
 21
215.34234866666662
  0
LINE
  8
_1-0_躯体
  6
CONTINUOUS
 62
    4
 10
334.74999966666655
 20
215.00000066666658
 11
334.41666666666652
 21
215.16666666666657
  0
LINE
  8
_1-0_躯体
  6
CONTINUOUS
 62
    4
 10
334.78934466666664
 20
215.16666666666657
 11
334.42945466666652
 21
215.3466116666666
  0
LINE
  8
_1-0_躯体
  6
CONTINUOUS
 62
    4
 10
338.08333266666654
 20
215.00000066666658
 11
336.74999966666655
 21
215.00000066666658
  0
LINE
  8
_1-0_躯体
  6
CONTINUOUS
 62
    4
 10
338.04398866666662
 20
215.16666666666657
 11
336.78934466666664
 21
215.16666666666657
  0
LINE
  8
_1-0_躯体
  6
CONTINUOUS
 62
    4
 10
342.74999966666655
 20
215.00000066666658
 11
342.41666666666652
 21
215.16666666666657
  0
LINE
  8
_1-0_躯体
  6
CONTINUOUS
 62
    4
 10
342.41666666666652
 20
215.16666666666657
 11
341.91666666666652
 21
215.00000066666658
  0
LINE
  8
_1-0_躯体
  6
CONTINUOUS
 62
    4
 10
342.78934466666658
 20
215.16666666666657
 11
342.42945466666652
 21
215.3466116666666
  0
LINE
  8
_1-0_躯体
  6
CONTINUOUS
 62
    4
 10
342.42945466666652
 20
215.3466116666666
 11
341.91666666666652
 21
215.17568266666655
  0
LINE
  8
_1-0_躯体
  6
CONTINUOUS
 62
    4
 10
341.41666666666652
 20
215.16666666666657
 11
341.91666666666652
 21
215.00000066666658
  0
LINE
  8
_1-0_躯体
  6
CONTINUOUS
 62
    4
 10
341.91666666666652
 20
215.17568266666655
 11
341.41666666666652
 21
215.34234866666662
  0
LINE
  8
_1-0_躯体
  6
CONTINUOUS
 62
    4
 10
340.41666666666652
 20
215.16666666666657
 11
340.91666666666652
 21
215.00000066666658
  0
LINE
  8
_1-0_躯体
  6
CONTINUOUS
 62
    4
 10
340.91666666666652
 20
215.17568266666655
 11
340.41666666666652
 21
215.34234866666662
  0
LINE
  8
_1-0_躯体
  6
CONTINUOUS
 62
    4
 10
341.41666666666652
 20
215.16666666666657
 11
340.91666666666652
 21
215.00000066666658
  0
LINE
  8
_1-0_躯体
  6
CONTINUOUS
 62
    4
 10
340.91666666666652
 20
215.17568266666655
 11
341.41666666666652
 21
215.34234866666662
  0
LINE
  8
_1-0_躯体
  6
CONTINUOUS
 62
    4
 10
338.41666666666652
 20
215.16666666666657
 11
338.91666666666652
 21
215.00000066666658
  0
LINE
  8
_1-0_躯体
  6
CONTINUOUS
 62
    4
 10
338.40387766666657
 20
215.3466116666666
 11
338.91666666666652
 21
215.17568266666655
  0
LINE
  8
_1-0_躯体
  6
CONTINUOUS
 62
    4
 10
339.41666666666652
 20
215.16666666666657
 11
338.91666666666652
 21
215.00000066666658
  0
LINE
  8
_1-0_躯体
  6
CONTINUOUS
 62
    4
 10
338.91666666666652
 20
215.17568266666655
 11
339.41666666666652
 21
215.34234866666662
  0
LINE
  8
_1-0_躯体
  6
CONTINUOUS
 62
    4
 10
340.41666666666652
 20
215.16666666666657
 11
339.91666666666652
 21
215.00000066666658
  0
LINE
  8
_1-0_躯体
  6
CONTINUOUS
 62
    4
 10
339.91666666666652
 20
215.17568266666655
 11
340.41666666666652
 21
215.34234866666662
  0
LINE
  8
_1-0_躯体
  6
CONTINUOUS
 62
    4
 10
339.41666666666652
 20
215.16666666666657
 11
339.91666666666652
 21
215.00000066666658
  0
LINE
  8
_1-0_躯体
  6
CONTINUOUS
 62
    4
 10
339.91666666666652
 20
215.17568266666655
 11
339.41666666666652
 21
215.34234866666662
  0
LINE
  8
_1-0_躯体
  6
CONTINUOUS
 62
    4
 10
338.08333266666654
 20
215.00000066666658
 11
338.41666666666652
 21
215.16666666666657
  0
LINE
  8
_1-0_躯体
  6
CONTINUOUS
 62
    4
 10
338.04398866666662
 20
215.16666666666657
 11
338.40387766666657
 21
215.3466116666666
  0
LINE
  8
_1-0_躯体
  6
CONTINUOUS
 62
    4
 10
343.74999966666661
 20
215.16666666666657
 11
342.78934466666658
 21
215.16666666666657
  0
LINE
  8
_1-0_躯体
  6
CONTINUOUS
 62
    4
 10
343.74999966666661
 20
215.00000066666658
 11
342.74999966666655
 21
215.00000066666658
  0
LINE
  8
_1-0_躯体
  6
CONTINUOUS
 62
    4
 10
328.49999966666655
 20
221.00000066666661
 11
328.86666666666662
 21
221.16666666666663
  0
LINE
  8
_1-0_躯体
  6
CONTINUOUS
 62
    4
 10
328.86666666666662
 20
221.16666666666663
 11
329.37294366666657
 21
219.9716236666666
  0
ARC
  8
_1-0_躯体
  6
CONTINUOUS
 62
    4
 10
329.83333266666654
 20
220.16666666666663
 40
0.5
 50
202.95984199999862
 51
0
  0
LINE
  8
_1-0_躯体
  6
CONTINUOUS
 62
    4
 10
328.49999966666655
 20
221.00000066666661
 11
328.49999966666655
 21
219.33333366666665
  0
LINE
  8
_1-0_躯体
  6
CONTINUOUS
 62
    4
 10
328.69999966666654
 20
221.09090966666662
 11
328.69999966666654
 21
219.33333366666665
  0
LINE
  8
_1-0_躯体
  6
CONTINUOUS
 62
    4
 10
330.33333266666654
 20
220.16666666666663
 11
330.33333266666654
 21
225.1307686666666
  0
ARC
  8
_1-0_躯体
  6
CONTINUOUS
 62
    4
 10
329.66666666666652
 20
219.33333366666665
 40
1.1666669999999999
 50
180
 51
270
  0
LINE
  8
_1-0_躯体
  6
CONTINUOUS
 62
    4
 10
329.66666666666652
 20
218.16666666666657
 11
343.16666666666657
 21
218.16666666666657
  0
LINE
  8
_1-0_躯体
  6
CONTINUOUS
 62
    4
 10
328.33333266666654
 20
234.2000006666666
 11
328.33333266666654
 21
225.66666666666663
  0
LINE
  8
_1-0_躯体
  6
CONTINUOUS
 62
    4
 10
344.49999966666661
 20
234.2000006666666
 11
344.49999966666661
 21
225.66666666666663
  0
ARC
  8
_1-0_躯体
  6
CONTINUOUS
 62
    4
 10
329.66666666666652
 20
219.33333366666665
 40
0.9666669999999998
 50
180
 51
270
  0
LINE
  8
_1-0_躯体
  6
CONTINUOUS
 62
    4
 10
343.16666666666657
 20
218.36666666666656
 11
329.66666666666652
 21
218.36666666666656
  0
LINE
  8
_1-0_躯体
  6
CONTINUOUS
 62
    4
 10
328.33333266666654
 20
225.66666666666663
 11
330.33333266666654
 21
225.1307686666666
  0
LINE
  8
_1-0_躯体
  6
CONTINUOUS
 62
    4
 10
328.33333266666654
 20
234.2000006666666
 11
344.49999966666661
 21
234.2000006666666
  0
ARC
  8
_1-0_躯体
  6
CONTINUOUS
 62
    4
 10
330.58333266666654
 20
227.16666666666663
 40
0.8333329999999998
 50
180
 51
270
  0
LINE
  8
_1-0_躯体
  6
CONTINUOUS
 62
    4
 10
329.74999966666655
 20
227.16666666666663
 11
329.74999966666655
 21
231.50000066666661
  0
LINE
  8
_1-0_躯体
  6
CONTINUOUS
 62
    4
 10
330.58333266666654
 20
226.33333366666665
 11
331.41666666666652
 21
226.33333366666665
  0
ARC
  8
_1-0_躯体
  6
CONTINUOUS
 62
    4
 10
333.08333266666654
 20
220.66666666666663
 40
1
 50
180
 51
0
  0
ARC
  8
_1-0_躯体
  6
CONTINUOUS
 62
    4
 10
331.41666666666652
 20
225.66666666666663
 40
0.666667
 50
0
 51
90
  0
LINE
  8
_1-0_躯体
  6
CONTINUOUS
 62
    4
 10
332.08333266666654
 20
220.66666666666663
 11
332.08333266666654
 21
225.66666666666663
  0
ARC
  8
_1-0_躯体
  6
CONTINUOUS
 62
    4
 10
334.74999966666655
 20
225.66666666666663
 40
0.666667
 50
90
 51
180
  0
LINE
  8
_1-0_躯体
  6
CONTINUOUS
 62
    4
 10
334.08333266666654
 20
220.66666666666663
 11
334.08333266666654
 21
225.66666666666663
  0
ARC
  8
_1-0_躯体
  6
CONTINUOUS
 62
    4
 10
338.08333266666654
 20
225.66666666666663
 40
0.666667
 50
0
 51
90
  0
LINE
  8
_1-0_躯体
  6
CONTINUOUS
 62
    4
 10
334.74999966666655
 20
226.33333366666665
 11
338.08333266666654
 21
226.33333366666665
  0
LINE
  8
_1-0_躯体
  6
CONTINUOUS
 62
    4
 10
344.33333266666648
 20
221.00000066666661
 11
343.96666666666653
 21
221.16666666666663
  0
LINE
  8
_1-0_躯体
  6
CONTINUOUS
 62
    4
 10
343.96666666666653
 20
221.16666666666663
 11
343.46038866666652
 21
219.9716236666666
  0
ARC
  8
_1-0_躯体
  6
CONTINUOUS
 62
    4
 10
342.99999966666655
 20
220.16666666666663
 40
0.5
 50
180
 51
337.04015799999883
  0
ARC
  8
_1-0_躯体
  6
CONTINUOUS
 62
    4
 10
343.16666666666657
 20
219.33333366666665
 40
1.1666669999999999
 50
270
 51
0
  0
LINE
  8
_1-0_躯体
  6
CONTINUOUS
 62
    4
 10
344.33333266666648
 20
221.00000066666661
 11
344.33333266666648
 21
219.33333366666665
  0
ARC
  8
_1-0_躯体
  6
CONTINUOUS
 62
    4
 10
343.16666666666657
 20
219.33333366666665
 40
0.9666669999999998
 50
270
 51
0
  0
LINE
  8
_1-0_躯体
  6
CONTINUOUS
 62
    4
 10
344.1333326666666
 20
221.09090966666662
 11
344.1333326666666
 21
219.33333366666665
  0
LINE
  8
_1-0_躯体
  6
CONTINUOUS
 62
    4
 10
342.49999966666655
 20
220.16666666666663
 11
342.49999966666655
 21
225.1307686666666
  0
LINE
  8
_1-0_躯体
  6
CONTINUOUS
 62
    4
 10
344.49999966666661
 20
225.66666666666663
 11
342.49999966666655
 21
225.1307686666666
  0
ARC
  8
_1-0_躯体
  6
CONTINUOUS
 62
    4
 10
339.74999966666655
 20
220.66666666666663
 40
1
 50
180
 51
0
  0
ARC
  8
_1-0_躯体
  6
CONTINUOUS
 62
    4
 10
341.41666666666652
 20
225.66666666666663
 40
0.666667
 50
90
 51
180
  0
LINE
  8
_1-0_躯体
  6
CONTINUOUS
 62
    4
 10
340.74999966666655
 20
220.66666666666663
 11
340.74999966666655
 21
225.66666666666663
  0
LINE
  8
_1-0_躯体
  6
CONTINUOUS
 62
    4
 10
338.74999966666655
 20
220.66666666666663
 11
338.74999966666655
 21
225.66666666666663
  0
ARC
  8
_1-0_躯体
  6
CONTINUOUS
 62
    4
 10
342.24999966666655
 20
227.16666666666663
 40
0.8333329999999998
 50
270
 51
0
  0
LINE
  8
_1-0_躯体
  6
CONTINUOUS
 62
    4
 10
343.08333266666648
 20
227.16666666666663
 11
343.08333266666648
 21
231.50000066666661
  0
LINE
  8
_1-0_躯体
  6
CONTINUOUS
 62
    4
 10
342.24999966666655
 20
226.33333366666665
 11
341.41666666666652
 21
226.33333366666665
  0
LINE
  8
_1-0_躯体
  6
CONTINUOUS
 62
    4
 10
354.99999966666667
 20
213.00000066666658
 11
326.66666666666652
 21
213.00000066666658
  0
LINE
  8
_1-0_躯体
  6
CONTINUOUS
 62
    4
 10
354.99999966666667
 20
212.33333366666662
 11
326.66666666666652
 21
212.33333366666662
  0
LINE
  8
_1-0_躯体
  6
CONTINUOUS
 62
    4
 10
326.66666666666652
 20
211.66666666666657
 11
354.99999966666667
 21
211.66666666666657
  0
INSERT
  2
-010-$QLE_3_
  8
_1-f_寸法
 10
210
 20
148.5
 41
1
 42
1
 50
0
  0
INSERT
  2
-011-$QLE_4_
  8
_1-f_寸法
 10
210
 20
148.5
 41
1
 42
1
 50
0
  0
LINE
  8
_1-0_躯体
  6
CONTINUOUS
 62
    4
 10
326.66666666666652
 20
211.66666666666657
 11
326.66666666666652
 21
215.00000066666658
  0
INSERT
  2
-012-$QLE_5_
  8
_1-f_寸法
 10
210
 20
148.5
 41
1
 42
1
 50
0
  0
LINE
  8
_1-f_寸法
  6
CONTINUOUS
 62
    4
 10
326.66666666666652
 20
234.99999999999991
 11
326.66666666666652
 21
241.59999999999991
  0
LINE
  8
_1-f_寸法
  6
CONTINUOUS
 62
    4
 10
293.33333333333314
 20
234.99999999999991
 11
293.33333333333314
 21
241.59999999999991
  0
POINT
  8
_1-f_寸法
 62
    4
 10
293.33333333333314
 20
239.99999999999991
  0
POINT
  8
_1-f_寸法
 62
    4
 10
326.66666666666652
 20
239.99999999999991
  0
LINE
  8
_1-f_寸法
  6
CONTINUOUS
 62
    4
 10
293.33333333333314
 20
239.99999999999991
 11
326.66666666666652
 21
239.99999999999991
  0
TEXT
  8
_1-f_寸法
 62
    4
 10
307.5999999999998
 20
239.99999999999991
 40
3.2000000000000002
 41
1
 50
0
  1
100
  0
LINE
  8
_1-f_寸法
  6
CONTINUOUS
 62
    4
 10
276.66666666666663
 20
211.66666666666666
 11
324.99999999999989
 21
211.66666666666666
  0
LINE
  8
_1-f_寸法
  6
CONTINUOUS
 62
    4
 10
346.66666667103311
 20
185
 11
346.66666667103311
 21
201.66666666666666
  0
LINE
  8
_1-f_寸法
  6
CONTINUOUS
 62
    4
 10
291.44337567297407
 20
187.5
 11
294.10712942564379
 21
189.03791894615875
  0
LINE
  8
_1-f_寸法
  6
CONTINUOUS
 62
    4
 10
337.5
 20
201.44337567297407
 11
336.16826986975241
 21
203.74999992053313
  0
CIRCLE
  8
_1-f_寸法
  6
CONTINUOUS
 62
    4
 10
328.33333333551633
 20
200.00000000000003
 40
1.6666666666666665
  0
TEXT
  8
_1-f_寸法
 62
    4
 10
327.70833333551633
 20
198.75000000000003
 40
2.5
 41
1
 50
0
  1
3
  0
LINE
  8
_1-f_寸法
  6
CONTINUOUS
 62
    4
 10
324.53535534342569
 20
203.53333325386643
 11
327.11307505673534
 21
201.13523015765276
  0
INSERT
  2
-013-_7_
  8
_1-8_小物
 10
210
 20
148.5
 41
1
 42
1
 50
0
  0
CIRCLE
  8
_1-f_寸法
  6
CONTINUOUS
 62
    4
 10
101.66666666666666
 20
213.33333333333331
 40
1.6666666666666665
  0
TEXT
  8
_1-f_寸法
 62
    4
 10
101.04166666666666
 20
212.08333333333331
 40
2.5
 41
1
 50
0
  1
2
  0
LINE
  8
_1-f_寸法
  6
CONTINUOUS
 62
    4
 10
100.83333333333333
 20
211.88995766035924
 11
98.702933863054028
 21
208.19999753741769
  0
LINE
  8
_1-f_寸法
  6
CONTINUOUS
 62
    4
 10
348.33333333333331
 20
188.50000627345895
 11
303.33333333333331
 21
188.50000627345895
  0
LINE
  8
_1-f_寸法
  6
CONTINUOUS
 62
    4
 10
353.33333333333331
 20
188.50000627345895
 11
361.59999999999997
 21
188.50000627345895
  0
LINE
  8
_1-f_寸法
  6
CONTINUOUS
 62
    4
 10
353.33333333333331
 20
211.66666666666657
 11
361.59999999999997
 21
211.66666666666657
  0
POINT
  8
_1-f_寸法
 62
    4
 10
360
 20
211.66666666666657
  0
POINT
  8
_1-f_寸法
 62
    4
 10
360
 20
188.50000627345895
  0
LINE
  8
_1-f_寸法
  6
CONTINUOUS
 62
    4
 10
360
 20
211.66666666666657
 11
360
 21
188.50000627345895
  0
TEXT
  8
_1-f_寸法
 62
    4
 10
360
 20
196.8833364700628
 40
3.2000000000000002
 41
1
 50
90
  1
69.5
  0
LINE
  8
_1-0_躯体
  6
CONTINUOUS
 62
    4
 10
142.49999966666672
 20
221.33333366666673
 11
154.99999966666672
 21
221.33333366666673
  0
LINE
  8
_1-0_躯体
  6
CONTINUOUS
 62
    4
 10
342.49999966666655
 20
221.33333366666665
 11
354.99999966666667
 21
221.33333366666665
  0
LINE
  8
_1-0_躯体
  6
CENTER2
 62
    4
 10
296.40512729410693
 20
201.6666665871997
 11
276.66666666666697
 21
201.6666665871997
  0
CIRCLE
  8
_1-f_寸法
  6
CONTINUOUS
 62
    4
 10
297.5
 20
206.66666666666666
 40
1.6666666666666665
  0
TEXT
  8
_1-f_寸法
 62
    4
 10
296.875
 20
205.41666666666666
 40
2.5
 41
1
 50
0
  1
4
  0
LINE
  8
_1-f_寸法
  6
CONTINUOUS
 62
    4
 10
296.66666666666663
 20
205.22329099369259
 11
294.61324860817149
 21
201.66666658719967
  0
CIRCLE
  8
_1-f_寸法
  6
CONTINUOUS
 62
    4
 10
286.66666666666663
 20
196.66666666666666
 40
1.6666666666666665
  0
TEXT
  8
_1-f_寸法
 62
    4
 10
286.04166666666663
 20
195.41666666666666
 40
2.5
 41
1
 50
0
  1
6
  0
LINE
  8
_1-f_寸法
  6
CONTINUOUS
 62
    4
 10
287.84517796864418
 20
197.84517796864421
 11
290.99999992053313
 21
200.99999992053313
  0
LINE
  8
_1-f_寸法
  6
CONTINUOUS
 62
    4
 10
276.66666666666697
 20
201.6666665871997
 11
270.06666666666661
 21
201.6666665871997
  0
LINE
  8
_1-f_寸法
  6
CONTINUOUS
 62
    4
 10
276.66666666666697
 20
211.66666666666657
 11
270.06666666666661
 21
211.66666666666657
  0
POINT
  8
_1-f_寸法
 62
    4
 10
271.66666666666663
 20
211.66666666666657
  0
POINT
  8
_1-f_寸法
 62
    4
 10
271.66666666666663
 20
201.6666665871997
  0
LINE
  8
_1-f_寸法
  6
CONTINUOUS
 62
    4
 10
271.66666666666663
 20
211.66666666666657
 11
271.66666666666663
 21
201.6666665871997
  0
TEXT
  8
_1-f_寸法
 62
    4
 10
271.66666666666663
 20
205.06666662693317
 40
3.2000000000000002
 41
1
 50
90
  1
30
  0
CIRCLE
  8
_1-f_寸法
  6
CONTINUOUS
 62
    4
 10
290
 20
206.66666666666666
 40
1.6666666666666665
  0
TEXT
  8
_1-f_寸法
 62
    4
 10
289.375
 20
205.41666666666666
 40
2.5
 41
1
 50
0
  1
5
  0
LINE
  8
_1-f_寸法
  6
CONTINUOUS
 62
    4
 10
291.43221548228206
 20
205.81429550919518
 11
294.11666666666645
 21
204.21666666666684
  0
LINE
  8
_1-f_寸法
  6
CONTINUOUS
 62
    4
 10
291.66666666666663
 20
209.33333325386639
 11
285.06666666666661
 21
209.33333325386639
  0
LINE
  8
_1-f_寸法
  6
CONTINUOUS
 62
    4
 10
291.66666666666663
 20
211.66666666666666
 11
285.06666666666661
 21
211.66666666666666
  0
POINT
  8
_1-f_寸法
 62
    4
 10
286.66666666666663
 20
211.66666666666666
  0
POINT
  8
_1-f_寸法
 62
    4
 10
286.66666666666663
 20
209.33333325386639
  0
LINE
  8
_1-f_寸法
  6
CONTINUOUS
 62
    4
 10
286.66666666666663
 20
211.66666666666666
 11
286.66666666666663
 21
209.33333325386639
  0
TEXT
  8
_1-f_寸法
 62
    4
 10
286.66666666666663
 20
209.69999996026652
 40
3.2000000000000002
 41
1
 50
90
  1
7
  0
CIRCLE
  8
_1-f_寸法
  6
CONTINUOUS
 62
    4
 10
306.66666666666663
 20
196.66666666666666
 40
1.6666666666666665
  0
TEXT
  8
_1-f_寸法
 62
    4
 10
306.04166666666663
 20
195.41666666666666
 40
2.5
 41
1
 50
0
  1
2
  0
LINE
  8
_1-f_寸法
  6
CONTINUOUS
 62
    4
 10
305.23167660303568
 20
197.5143584119717
 11
298.20256364705347
 21
201.66666662693319
  0
LINE
  8
_1-5_ホルダ__
  6
CONTINUOUS
 62
    4
 10
93.333333333333286
 20
209.33333333333331
 11
93.333333333333286
 21
211.66666666666666
  0
LINE
  8
_1-5_ホルダ__
  6
CONTINUOUS
 62
    4
 10
78.333333333333201
 20
204
 11
78.333333333333201
 21
211.66666666666666
  0
LINE
  8
_1-5_ホルダ__
  6
CONTINUOUS
 62
    4
 10
78.333333333333201
 20
204.00000000000006
 11
118.33333333333329
 21
204
  0
LINE
  8
_1-5_ホルダ__
  6
CONTINUOUS
 62
    4
 10
93.333333333333286
 20
211.66666666666666
 11
78.333333333333201
 21
211.66666666666666
  0
LINE
  8
_1-5_ホルダ__
  6
DASHED1
 62
    4
 10
89.166666666666544
 20
211.13333333333335
 11
89.166666666666544
 21
211.66666666666666
  0
LINE
  8
_1-5_ホルダ__
  6
DASHED1
 62
    4
 10
84.166666666666544
 20
211.13333333333321
 11
84.166666666666544
 21
211.66666666666666
  0
ARC
  8
_1-5_ホルダ__
  6
CONTINUOUS
 62
    4
 10
112.33333333333314
 20
206.83333333333331
 40
0.8333333333333334
 50
90
 51
270
  0
ARC
  8
_1-5_ホルダ__
  6
CONTINUOUS
 62
    4
 10
114.33333333333329
 20
206.83333333333331
 40
0.8333333333333334
 50
270
 51
90
  0
LINE
  8
_1-5_ホルダ__
  6
CONTINUOUS
 62
    4
 10
114.33333333333329
 20
206
 11
112.33333333333314
 21
206
  0
LINE
  8
_1-5_ホルダ__
  6
CONTINUOUS
 62
    4
 10
112.33333333333314
 20
207.66666666666666
 11
114.33333333333329
 21
207.66666666666666
  0
LINE
  8
_1-5_ホルダ__
  6
CONTINUOUS
 62
    4
 10
93.333333333333286
 20
211.13333333333335
 11
78.333333333333201
 21
211.13333333333335
  0
LINE
  8
_1-5_ホルダ__
  6
CENTER2
 62
    4
 10
86.666666666666544
 20
212.66666666666666
 11
86.666666666666544
 21
210.13333333333335
  0
LINE
  8
_1-5_ホルダ__
  6
CONTINUOUS
 62
    4
 10
118.33333333333329
 20
204
 11
118.33333333333329
 21
205.33333333333331
  0
LINE
  8
_1-5_ホルダ__
  6
CONTINUOUS
 62
    4
 10
114.33333333333329
 20
209.33333333333331
 11
93.333333333333286
 21
209.33333333333331
  0
ARC
  8
_1-5_ホルダ__
  6
CONTINUOUS
 62
    4
 10
114.33333333333329
 20
205.33333333333331
 40
4
 50
0
 51
90
  0
LINE
  8
_1-5_ホルダ__
  6
DASHED1
 62
    4
 10
118.33333333333329
 20
205.03333333333336
 11
78.333333333333201
 21
205.03333333333336
  0
LINE
  8
_1-5_ホルダ__
  6
DASHED1
 62
    4
 10
118.33333333333329
 20
204.5
 11
78.333333333333201
 21
204.5
  0
ARC
  8
_1-5_ホルダ__
  6
CONTINUOUS
 62
    4
 10
320.99999999999977
 20
206.49999992053304
 40
0.8333333333333332
 50
270
 51
90
  0
ARC
  8
_1-5_ホルダ__
  6
CONTINUOUS
 62
    4
 10
318.99999999999977
 20
206.49999992053304
 40
0.8333333333333332
 50
90
 51
270
  0
LINE
  8
_1-5_ホルダ__
  6
CONTINUOUS
 62
    4
 10
318.99999999999977
 20
205.6666665871997
 11
320.99999999999977
 21
205.6666665871997
  0
LINE
  8
_1-5_ホルダ__
  6
CONTINUOUS
 62
    4
 10
320.99999999999977
 20
207.33333325386639
 11
318.99999999999977
 21
207.33333325386639
  0
LINE
  8
_1-5_ホルダ__
  6
CONTINUOUS
 62
    4
 10
293.86666666666639
 20
197.33333325386639
 11
293.33333333333314
 21
197.33333325386639
  0
ARC
  8
_1-5_ホルダ__
  6
CONTINUOUS
 62
    4
 10
296.66666666666646
 20
198.99999992053304
 40
1.6666666666666665
 50
270
 51
0
  0
ARC
  8
_1-5_ホルダ__
  6
CONTINUOUS
 62
    4
 10
296.66666666666646
 20
198.99999992053304
 40
1.6666666666666665
 50
270
 51
0
  0
LINE
  8
_1-5_ホルダ__
  6
CONTINUOUS
 62
    4
 10
298.33333333333314
 20
203.36666658719969
 11
298.33333333333314
 21
198.99999992053304
  0
ARC
  8
_1-5_ホルダ__
  6
CONTINUOUS
 62
    4
 10
299.99999999999977
 20
203.36666658719969
 40
1.6666666666666665
 50
90
 51
180
  0
LINE
  8
_1-5_ホルダ__
  6
CONTINUOUS
 62
    4
 10
296.66666666666646
 20
197.33333325386639
 11
293.33333333333314
 21
197.33333325386639
  0
LINE
  8
_1-5_ホルダ__
  6
CONTINUOUS
 62
    4
 10
299.99999999999977
 20
203.99999992053304
 11
299.99999999999977
 21
205.03333325386635
  0
LINE
  8
_1-5_ホルダ__
  6
CONTINUOUS
 62
    4
 10
293.86666666666639
 20
209.33333325386639
 11
293.86666666666639
 21
197.33333325386639
  0
LINE
  8
_1-5_ホルダ__
  6
CONTINUOUS
 62
    4
 10
293.33333333333314
 20
209.33333325386639
 11
293.33333333333314
 21
197.33333325386639
  0
LINE
  8
_1-5_ホルダ__
  6
DASHED1
 62
    4
 10
293.33333333333314
 20
199.1666665871997
 11
293.86666666666639
 21
199.1666665871997
  0
LINE
  8
_1-5_ホルダ__
  6
DASHED1
 62
    4
 10
293.33333333333314
 20
204.1666665871997
 11
293.86666666666639
 21
204.1666665871997
  0
LINE
  8
_1-5_ホルダ__
  6
CENTER2
 62
    4
 10
291.66666666666646
 20
201.6666665871997
 11
295.53333333333308
 21
201.6666665871997
  0
LINE
  8
_1-5_ホルダ__
  6
DASHED1
 62
    4
 10
338.33333333333314
 20
205.03333325386635
 11
299.99999999999977
 21
205.03333325386635
  0
LINE
  8
_1-5_ホルダ__
  6
CONTINUOUS
 62
    4
 10
299.99999999999977
 20
203.99999992053304
 11
338.33333333333314
 21
203.99999992053304
  0
LINE
  8
_1-5_ホルダ__
  6
DASHED1
 62
    4
 10
299.99999999999977
 20
204.53333325386637
 11
338.33333333333314
 21
204.53333325386637
  0
LINE
  8
_1-5_ホルダ__
  6
CONTINUOUS
 62
    4
 10
338.33333333333314
 20
203.99999992053304
 11
338.33333333333314
 21
205.33333325386639
  0
ARC
  8
_1-5_ホルダ__
  6
CONTINUOUS
 62
    4
 10
334.33333333333314
 20
205.33333325386639
 40
4
 50
0
 51
90
  0
LINE
  8
_1-5_ホルダ__
  6
CONTINUOUS
 62
    4
 10
293.33333333333314
 20
209.33333325386639
 11
334.33333333333314
 21
209.33333325386639
  0
INSERT
  2
-014-_8_
  8
_1-8_小物
 10
210
 20
148.5
 41
1
 42
1
 50
0
  0
INSERT
  2
-015-_9_
  8
_1-8_小物
 10
210
 20
148.5
 41
1
 42
1
 50
0
  0
LINE
  8
_1-5_ホルダ__
  6
CENTER2
 62
    4
 10
109.99999999999997
 20
205.83333333333326
 11
109.99999999999997
 21
202
  0
INSERT
  2
-016-_10_
  8
_1-8_小物
 10
210
 20
148.5
 41
1
 42
1
 50
0
  0
INSERT
  2
-017-_11_
  8
_1-8_小物
 10
210
 20
148.5
 41
1
 42
1
 50
0
  0
INSERT
  2
-018-_12_
  8
_1-8_小物
 10
210
 20
148.5
 41
1
 42
1
 50
0
  0
INSERT
  2
-019-_13_
  8
_1-7_カバ__
 10
210
 20
148.5
 41
1
 42
1
 50
0
  0
INSERT
  2
-020-_14_
  8
_1-7_カバ__
 10
210
 20
148.5
 41
1
 42
1
 50
0
  0
INSERT
  2
-021-_15_
  8
_1-8_小物
 10
210
 20
148.5
 41
1
 42
1
 50
0
  0
INSERT
  2
-022-_16_
  8
_1-8_小物
 10
210
 20
148.5
 41
1
 42
1
 50
0
  0
LINE
  8
_1-f_寸法
  6
CONTINUOUS
 62
    4
 10
156.66666666666669
 20
203.66666666666663
 11
163.26666666666668
 21
203.66666666666663
  0
LINE
  8
_1-f_寸法
  6
CONTINUOUS
 62
    4
 10
156.66666666666669
 20
211.66666666666666
 11
163.26666666666668
 21
211.66666666666666
  0
POINT
  8
_1-f_寸法
 62
    4
 10
161.66666666666669
 20
211.66666666666666
  0
POINT
  8
_1-f_寸法
 62
    4
 10
161.66666666666669
 20
203.66666666666663
  0
LINE
  8
_1-f_寸法
  6
CONTINUOUS
 62
    4
 10
161.66666666666669
 20
211.66666666666666
 11
161.66666666666669
 21
203.66666666666663
  0
TEXT
  8
_1-f_寸法
 62
    4
 10
161.66666666666669
 20
206.06666666666666
 40
3.2000000000000002
 41
1
 50
90
  1
24
  0
LINE
  8
_1-f_寸法
  6
CONTINUOUS
 62
    4
 10
156.66666666666669
 20
203.66666666666663
 11
148.33333333333334
 21
203.66666666666663
  0
LINE
  8
_1-f_寸法
  6
CONTINUOUS
 62
    4
 10
348.33333333333331
 20
188.49999992053304
 11
354.93333333333328
 21
188.49999992053304
  0
LINE
  8
_1-f_寸法
  6
CONTINUOUS
 62
    4
 10
348.33333333333331
 20
203.6666665871997
 11
354.93333333333328
 21
203.6666665871997
  0
POINT
  8
_1-f_寸法
 62
    4
 10
353.33333333333331
 20
203.6666665871997
  0
POINT
  8
_1-f_寸法
 62
    4
 10
353.33333333333331
 20
188.49999992053304
  0
LINE
  8
_1-f_寸法
  6
CONTINUOUS
 62
    4
 10
353.33333333333331
 20
203.6666665871997
 11
353.33333333333331
 21
188.49999992053304
  0
TEXT
  8
_1-f_寸法
 62
    4
 10
353.33333333333331
 20
192.8833332538664
 40
3.2000000000000002
 41
1
 50
90
  1
45.5
  0
LINE
  8
_1-f_寸法
  6
CONTINUOUS
 62
    4
 10
348.33333333333331
 20
203.6666665871997
 11
354.93333333333328
 21
203.6666665871997
  0
LINE
  8
_1-f_寸法
  6
CONTINUOUS
 62
    4
 10
348.33333333333331
 20
211.66666666666657
 11
354.93333333333328
 21
211.66666666666657
  0
POINT
  8
_1-f_寸法
 62
    4
 10
353.33333333333331
 20
211.66666666666657
  0
POINT
  8
_1-f_寸法
 62
    4
 10
353.33333333333331
 20
203.6666665871997
  0
LINE
  8
_1-f_寸法
  6
CONTINUOUS
 62
    4
 10
353.33333333333331
 20
211.66666666666657
 11
353.33333333333331
 21
203.6666665871997
  0
TEXT
  8
_1-f_寸法
 62
    4
 10
353.33333333333331
 20
206.06666662693317
 40
3.2000000000000002
 41
1
 50
90
  1
24
  0
LINE
  8
_1-f_寸法
  6
CONTINUOUS
 62
    4
 10
301.49999999999977
 20
185
 11
301.49999999999977
 21
178.40000000000001
  0
LINE
  8
_1-f_寸法
  6
CONTINUOUS
 62
    4
 10
293.33333333333314
 20
185
 11
293.33333333333314
 21
178.40000000000001
  0
POINT
  8
_1-f_寸法
 62
    4
 10
293.33333333333314
 20
180
  0
POINT
  8
_1-f_寸法
 62
    4
 10
301.49999999999977
 20
180
  0
LINE
  8
_1-f_寸法
  6
CONTINUOUS
 62
    4
 10
293.33333333333314
 20
180
 11
301.49999999999977
 21
180
  0
TEXT
  8
_1-f_寸法
 62
    4
 10
294.21666666666636
 20
180
 40
3.2000000000000002
 41
1
 50
0
  1
24.5
  0
LINE
  8
_1-f_寸法
  6
CONTINUOUS
 62
    4
 10
346.66666667103311
 20
185
 11
346.66666667103311
 21
178.40000000000001
  0
POINT
  8
_1-f_寸法
 62
    4
 10
346.66666667103311
 20
180
  0
LINE
  8
_1-f_寸法
  6
CONTINUOUS
 62
    4
 10
301.49999999999977
 20
180
 11
346.66666667103311
 21
180
  0
TEXT
  8
_1-f_寸法
 62
    4
 10
320.08333333551644
 20
180
 40
3.2000000000000002
 41
1
 50
0
  1
135.5
  0
LINE
  8
_1-f_寸法
  6
CONTINUOUS
 62
    4
 10
346.66666666666663
 20
180
 11
346.66666666666663
 21
173.40000000000001
  0
LINE
  8
_1-f_寸法
  6
CONTINUOUS
 62
    4
 10
293.33333333333314
 20
180
 11
293.33333333333314
 21
173.40000000000001
  0
POINT
  8
_1-f_寸法
 62
    4
 10
293.33333333333314
 20
175
  0
POINT
  8
_1-f_寸法
 62
    4
 10
346.66666666666663
 20
175
  0
LINE
  8
_1-f_寸法
  6
CONTINUOUS
 62
    4
 10
293.33333333333314
 20
175
 11
346.66666666666663
 21
175
  0
TEXT
  8
_1-f_寸法
 62
    4
 10
317.59999999999985
 20
175
 40
3.2000000000000002
 41
1
 50
0
  1
160
  0
ENDSEC
  0
EOF
