  0
SECTION
  2
HEADER
  9
$ACADVER
  1
AC1009
  9
$INSBASE
 10
0
 20
0
 30
0
  9
$EXTMIN
 10
0
 20
0
  9
$EXTMAX
 10
420
 20
297
  9
$LIMMIN
 10
0
 20
0
  9
$LIMMAX
 10
420
 20
297
  9
$LTSCALE
 40
1
  0
ENDSEC
  0
SECTION
  2
TABLES
  0
TABLE
  2
LTYPE
 70
     9
  0
LTYPE
  2
CONTINUOUS
 70
    64
  3
実線
 72
    65
 73
     0
 40
0.0
  0
LTYPE
  2
DASHED1
 70
    64
  3
--  --  --  --  --  --  --  --  
 72
    65
 73
     2
 40
2.5
 49
1.25
 49
-1.25
  0
LTYPE
  2
DASHED2
 70
    64
  3
----    ----    ----    ----    
 72
    65
 73
     2
 40
5.0
 49
2.5
 49
-2.5
  0
LTYPE
  2
DASHED3
 70
    64
  3
------  ------  ------  ------  
 72
    65
 73
     2
 40
5.0
 49
3.75
 49
-1.25
  0
LTYPE
  2
CENTER1
 70
    64
  3
----- - ----- - ----- - ----- - 
 72
    65
 73
     4
 40
10.0
 49
6.25
 49
-1.25
 49
1.25
 49
-1.25
  0
LTYPE
  2
CENTER2
 70
    64
  3
----------  --  ----------  --  
 72
    65
 73
     4
 40
20.0
 49
12.5
 49
-2.5
 49
2.5
 49
-2.5
  0
LTYPE
  2
PHANTOM1
 70
    64
  3
--- - - --- - - --- - - --- - - 
 72
    65
 73
     6
 40
10.0
 49
3.25
 49
-1.25
 49
1.25
 49
-1.25
 49
1.25
 49
-1.25
  0
LTYPE
  2
PHANTOM2
 70
    64
  3
--------  -  -  --------  -  -  
 72
    65
 73
     6
 40
20.0
 49
10.0
 49
-2.5
 49
1.25
 49
-2.5
 49
1.25
 49
-2.5
  0
LTYPE
  2
DOT
 70
    64
  3
-   -   -   -   -   -   -   -   
 72
    65
 73
     2
 40
2.5
 49
0.625
 49
-1.875
  0
LTYPE
  2
DUMMY
 70
    64
  3
ダミー
 72
    65
 73
     0
 40
0.0
  0
LTYPE
  2
RAND1
 70
    64
  3
ランダム線1
 72
    65
 73
     4
 40
10.0
 49
1.0
 49
-2.0
 49
3.0
 49
-4.0
  0
LTYPE
  2
RAND2
 70
    64
  3
ランダム線2
 72
    65
 73
     4
 40
14.0
 49
2.0
 49
-3.0
 49
4.0
 49
-5.0
  0
LTYPE
  2
RAND3
 70
    64
  3
ランダム線3
 72
    65
 73
     4
 40
18.0
 49
3.0
 49
-4.0
 49
5.0
 49
-6.0
  0
LTYPE
  2
RAND4
 70
    64
  3
ランダム線4
 72
    65
 73
     4
 40
22.0
 49
4.0
 49
-5.0
 49
6.0
 49
-7.0
  0
LTYPE
  2
RAND5
 70
    64
  3
ランダム線5
 72
    65
 73
     4
 40
26.0
 49
5.0
 49
-6.0
 49
7.0
 49
-8.0
  0
LTYPE
  2
LONG1
 70
    64
  3
----------  --  ----------  --  
 72
    65
 73
     4
 40
40.0
 49
32.5
 49
-2.5
 49
2.5
 49
-2.5
  0
LTYPE
  2
LONG2
 70
    64
  3
--------  -  -  --------  -  -  
 72
    65
 73
     6
 40
40.0
 49
30.0
 49
-2.5
 49
1.25
 49
-2.5
 49
1.25
 49
-2.5
  0
LTYPE
  2
LONG3
 70
    64
  3
+++++++++++++++..+++++++++++++++
 72
    65
 73
     2
 40
40.0
 49
37.5
 49
-2.5
  0
LTYPE
  2
LONG4
 70
    64
  3
+++++++++++++++..+++++++++++++++
 72
    65
 73
     2
 40
80.0
 49
75.0
 49
-5.0
  0
LTYPE
  2
LONG5
 70
    64
  3
----------  --  ----------  --  
 72
    65
 73
     4
 40
60.0
 49
37.5
 49
-7.5
 49
7.5
 49
-7.5
  0
LTYPE
  2
dashed
 70
   64
  3
-------   -------------   ------
 72
   65
 73
    2
 40
7.5
 49
6
 49
-1.5
  0
LTYPE
  2
dashed_spaced
 70
   64
  3
----        --------        ----
 72
   65
 73
    2
 40
12
 49
6
 49
-6
  0
LTYPE
  2
long_dashed_dotted
 70
   64
  3
------------- --- --------------
 72
   65
 73
    4
 40
15.25
 49
12
 49
-1.5
 49
0.25
 49
-1.5
  0
LTYPE
  2
long_dashed_double-dotted
 70
   64
  3
----------- --- --- ------------
 72
   65
 73
    6
 40
17
 49
12
 49
-1.5
 49
0.25
 49
-1.5
 49
0.25
 49
-1.5
  0
LTYPE
  2
long_dashed_triplicate-dotted
 70
   64
  3
--------- --- --- --- ----------
 72
   65
 73
    8
 40
18.75
 49
12
 49
-1.5
 49
0.25
 49
-1.5
 49
0.25
 49
-1.5
 49
0.25
 49
-1.5
  0
LTYPE
  2
dotted
 70
   64
  3
   -       -       -       -    
 72
   65
 73
    2
 40
1.75
 49
0.25
 49
-1.5
  0
LTYPE
  2
chain
 70
   64
  3
-------------- -- --------------
 72
   65
 73
    4
 40
18.5
 49
12
 49
-1.5
 49
3.5
 49
-1.5
  0
LTYPE
  2
chain_double_dash
 70
   64
  3
------------ -- -- -------------
 72
   65
 73
    6
 40
23.5
 49
12
 49
-1.5
 49
3.5
 49
-1.5
 49
3.5
 49
-1.5
  0
LTYPE
  2
dashed_dotted
 70
   64
  3
-----------     -     ----------
 72
   65
 73
    4
 40
9.25
 49
6
 49
-1.5
 49
0.25
 49
-1.5
  0
LTYPE
  2
double-dashed_dotted
 70
   64
  3
------   -----------   -   -----
 72
   65
 73
    6
 40
16.75
 49
6
 49
-1.5
 49
6
 49
-1.5
 49
0.25
 49
-1.5
  0
LTYPE
  2
dashed_double-dotted
 70
   64
  3
---------    -    -    ---------
 72
   65
 73
    6
 40
11
 49
6
 49
-1.5
 49
0.25
 49
-1.5
 49
0.25
 49
-1.5
  0
LTYPE
  2
double-dashed_double-dotted
 70
   64
  3
-----   ---------   -   -   ----
 72
   65
 73
    8
 40
18.5
 49
6
 49
-1.5
 49
6
 49
-1.5
 49
0.25
 49
-1.5
 49
0.25
 49
-1.5
  0
LTYPE
  2
dashed_triplicate-dotted
 70
   64
  3
-------    -    -    -    ------
 72
   65
 73
    8
 40
12.75
 49
6
 49
-1.5
 49
0.25
 49
-1.5
 49
0.25
 49
-1.5
 49
0.25
 49
-1.5
  0
LTYPE
  2
double-dashed_triplicate-dotted
 70
   64
  3
-----  ---------  -  -  -  -----
 72
   65
 73
   10
 40
20.25
 49
6
 49
-1.5
 49
6
 49
-1.5
 49
0.25
 49
-1.5
 49
0.25
 49
-1.5
 49
0.25
 49
-1.5
  0
LTYPE
  2
undefined
 70
   64
  3
--------------------------------
 72
   65
 73
    0
 40
0
  0
ENDTAB
  0
TABLE
  2
STYLE
  5
3
100
AcDbSymbolTable
 70
     1
  0
STYLE
  5
10
100
AcDbSymbolTableRecord
100
AcDbTextStyleTableRecord
  2
STANDARD
 70
     0
 40
0.0
 41
1.0
 50
0.0
 71
     0
 42
0.2
  3
txt
  4
bigfont.shx
  0
STYLE
  5
26
100
AcDbSymbolTableRecord
100
AcDbTextStyleTableRecord
  2
TATEGAKI
 70
    68
 40
0.0
 41
1.0
 50
0.0
 71
     0
 42
1.0
  3
txt
  4
bigfont.shx
  0
ENDTAB
  0
TABLE
  2
LAYER
 70
    7
  0
LAYER
  2
_0-0_図面枠
 70
   64
 62
    7
  6
CONTINUOUS
  0
LAYER
  2
_1-0_躯体
 70
   64
 62
    7
  6
CONTINUOUS
  0
LAYER
  2
_1-5_ホルダ__
 70
   64
 62
    7
  6
CONTINUOUS
  0
LAYER
  2
_1-7_カバ__
 70
   64
 62
    7
  6
CONTINUOUS
  0
LAYER
  2
_1-8_小物
 70
   64
 62
    7
  6
CONTINUOUS
  0
LAYER
  2
_1-f_寸法
 70
   64
 62
    7
  6
CONTINUOUS
  0
LAYER
  2
ADD_LINE
 70
   64
 62
    7
  6
CONTINUOUS
  0
ENDTAB
  0
ENDSEC
  0
SECTION
  2
BLOCKS
  0
BLOCK
  2
-000-
 70
   64
 10
0
 20
0
 30
0
  0
LINE
  8
_1-8_小物
  6
CONTINUOUS
 62
    4
 10
-61.787483860264473
 20
-19
 11
-59.787483860264473
 21
-19
  0
LINE
  8
_1-8_小物
  6
CONTINUOUS
 62
    4
 10
-62.120817193597816
 20
-19.707106781186582
 11
-62.120817193597816
 21
-18.292893218813447
  0
LINE
  8
_1-8_小物
  6
CONTINUOUS
 62
    4
 10
-62.120817193597816
 20
-18.292893218813447
 11
-59.45415052693113
 21
-18.292893218813447
  0
LINE
  8
_1-8_小物
  6
CONTINUOUS
 62
    4
 10
-59.45415052693113
 20
-19.707106781186582
 11
-59.45415052693113
 21
-18.292893218813447
  0
LINE
  8
_1-8_小物
  6
CONTINUOUS
 62
    4
 10
-62.120817193597816
 20
-19.707106781186582
 11
-59.45415052693113
 21
-19.707106781186582
  0
ENDBLK
  0
BLOCK
  2
-001-_1_
 70
   64
 10
0
 20
0
 30
0
  0
LINE
  8
_1-8_小物
  6
CONTINUOUS
 62
    4
 10
-118.45415052693113
 20
-19
 11
-120.45415052693113
 21
-19
  0
LINE
  8
_1-8_小物
  6
CONTINUOUS
 62
    4
 10
-118.1208171935978
 20
-19.707106781186582
 11
-118.1208171935978
 21
-18.292893218813447
  0
LINE
  8
_1-8_小物
  6
CONTINUOUS
 62
    4
 10
-118.1208171935978
 20
-18.292893218813447
 11
-120.78748386026447
 21
-18.292893218813447
  0
LINE
  8
_1-8_小物
  6
CONTINUOUS
 62
    4
 10
-120.78748386026447
 20
-19.707106781186582
 11
-120.78748386026447
 21
-18.292893218813447
  0
LINE
  8
_1-8_小物
  6
CONTINUOUS
 62
    4
 10
-118.1208171935978
 20
-19.707106781186582
 11
-120.78748386026447
 21
-19.707106781186582
  0
ENDBLK
  0
BLOCK
  2
-002-_2_
 70
   64
 10
0
 20
0
 30
0
  0
LINE
  8
_1-8_小物
  6
CONTINUOUS
 62
    4
 10
138.21251613973556
 20
-19
 11
140.21251613973556
 21
-19
  0
LINE
  8
_1-8_小物
  6
CONTINUOUS
 62
    4
 10
137.87918280640224
 20
-19.707106781186582
 11
137.87918280640224
 21
-18.292893218813447
  0
LINE
  8
_1-8_小物
  6
CONTINUOUS
 62
    4
 10
137.87918280640224
 20
-18.292893218813447
 11
140.54584947306887
 21
-18.292893218813447
  0
LINE
  8
_1-8_小物
  6
CONTINUOUS
 62
    4
 10
140.54584947306887
 20
-19.707106781186582
 11
140.54584947306887
 21
-18.292893218813447
  0
LINE
  8
_1-8_小物
  6
CONTINUOUS
 62
    4
 10
137.87918280640224
 20
-19.707106781186582
 11
140.54584947306887
 21
-19.707106781186582
  0
ENDBLK
  0
BLOCK
  2
-003-_3_
 70
   64
 10
0
 20
0
 30
0
  0
LINE
  8
_1-8_小物
  6
CONTINUOUS
 62
    4
 10
81.54584947306887
 20
-19
 11
79.54584947306887
 21
-19
  0
LINE
  8
_1-8_小物
  6
CONTINUOUS
 62
    4
 10
81.879182806402184
 20
-19.707106781186582
 11
81.879182806402184
 21
-18.292893218813447
  0
LINE
  8
_1-8_小物
  6
CONTINUOUS
 62
    4
 10
81.879182806402184
 20
-18.292893218813447
 11
79.212516139735499
 21
-18.292893218813447
  0
LINE
  8
_1-8_小物
  6
CONTINUOUS
 62
    4
 10
79.212516139735499
 20
-19.707106781186582
 11
79.212516139735499
 21
-18.292893218813447
  0
LINE
  8
_1-8_小物
  6
CONTINUOUS
 62
    4
 10
81.879182806402184
 20
-19.707106781186582
 11
79.212516139735499
 21
-19.707106781186582
  0
ENDBLK
  0
BLOCK
  2
-004-_4_
 70
   64
 10
0
 20
0
 30
0
  0
LINE
  8
_0-0_図面枠
  6
CONTINUOUS
 62
    7
 10
-24.810007453201848
 20
116.25002701811366
 11
-24.279677367301844
 21
116.55618006006364
  0
LINE
  8
_0-0_図面枠
  6
CONTINUOUS
 62
    7
 10
-25.715874111051818
 20
118.20168690416364
 11
-24.810007453201848
 21
116.25002701811366
  0
LINE
  8
_0-0_図面枠
  6
CONTINUOUS
 62
    7
 10
-22.335133719051811
 20
117.67874121381362
 11
-25.715874111051818
 21
118.20168690416364
  0
LINE
  8
_0-0_図面枠
  6
CONTINUOUS
 62
    7
 10
-22.865463804951816
 20
117.37258817186364
 11
-22.335133719051811
 21
117.67874121381362
  0
LINE
  8
_0-0_図面枠
  6
CONTINUOUS
 62
    7
 10
-18.269269727201817
 20
114.71926180846367
 11
-22.865463804951816
 21
117.37258817186364
  0
LINE
  8
_0-0_図面枠
  6
CONTINUOUS
 62
    7
 10
-13.67307564950184
 20
117.37258817186364
 11
-18.269269727201817
 21
114.71926180846367
  0
LINE
  8
_0-0_図面枠
  6
CONTINUOUS
 62
    7
 10
-14.203405735401844
 20
117.67874121381362
 11
-13.67307564950184
 21
117.37258817186364
  0
LINE
  8
_0-0_図面枠
  6
CONTINUOUS
 62
    7
 10
-10.822665343401837
 20
118.20168690416364
 11
-14.203405735401844
 21
117.67874121381362
  0
LINE
  8
_0-0_図面枠
  6
CONTINUOUS
 62
    7
 10
-11.728532001251807
 20
116.25002701811366
 11
-10.822665343401837
 21
118.20168690416364
  0
LINE
  8
_0-0_図面枠
  6
CONTINUOUS
 62
    7
 10
-12.258862087151812
 20
116.55618006006364
 11
-11.728532001251807
 21
116.25002701811366
  0
LINE
  8
_0-0_図面枠
  6
CONTINUOUS
 62
    7
 10
-16.855056164851845
 20
113.90285369661365
 11
-12.258862087151812
 21
116.55618006006364
  0
LINE
  8
_0-0_図面枠
  6
CONTINUOUS
 62
    7
 10
-12.258862087151812
 20
111.24952733321368
 11
-16.855056164851845
 21
113.90285369661365
  0
LINE
  8
_0-0_図面枠
  6
CONTINUOUS
 62
    7
 10
-11.728532001251807
 20
111.55568037516366
 11
-12.258862087151812
 21
111.24952733321368
  0
LINE
  8
_0-0_図面枠
  6
CONTINUOUS
 62
    7
 10
-10.822665343401837
 20
109.60402048906366
 11
-11.728532001251807
 21
111.55568037516366
  0
LINE
  8
_0-0_図面枠
  6
CONTINUOUS
 62
    7
 10
-14.203405735401844
 20
110.12696617946364
 11
-10.822665343401837
 21
109.60402048906366
  0
LINE
  8
_0-0_図面枠
  6
CONTINUOUS
 62
    7
 10
-13.67307564950184
 20
110.43311922141368
 11
-14.203405735401844
 21
110.12696617946364
  0
LINE
  8
_0-0_図面枠
  6
CONTINUOUS
 62
    7
 10
-18.269269727201817
 20
113.08644558481365
 11
-13.67307564950184
 21
110.43311922141368
  0
LINE
  8
_0-0_図面枠
  6
CONTINUOUS
 62
    7
 10
-22.865463804951816
 20
110.43311922141368
 11
-18.269269727201817
 21
113.08644558481365
  0
LINE
  8
_0-0_図面枠
  6
CONTINUOUS
 62
    7
 10
-22.335133719051811
 20
110.12696617946364
 11
-22.865463804951816
 21
110.43311922141368
  0
LINE
  8
_0-0_図面枠
  6
CONTINUOUS
 62
    7
 10
-25.715874111051818
 20
109.60402048906366
 11
-22.335133719051811
 21
110.12696617946364
  0
LINE
  8
_0-0_図面枠
  6
CONTINUOUS
 62
    7
 10
-24.810007453201848
 20
111.55568037516366
 11
-25.715874111051818
 21
109.60402048906366
  0
LINE
  8
_0-0_図面枠
  6
CONTINUOUS
 62
    7
 10
-24.279677367301844
 20
111.24952733321368
 11
-24.810007453201848
 21
111.55568037516366
  0
LINE
  8
_0-0_図面枠
  6
CONTINUOUS
 62
    7
 10
-19.68348328960181
 20
113.90285369661365
 11
-24.279677367301844
 21
111.24952733321368
  0
LINE
  8
_0-0_図面枠
  6
CONTINUOUS
 62
    7
 10
-24.279677367301844
 20
116.55618006006364
 11
-19.68348328960181
 21
113.90285369661365
  0
LINE
  8
_0-0_図面枠
  6
CONTINUOUS
 62
    7
 10
-10.822665343401837
 20
118.20168690416364
 11
-10.822665343401837
 21
118.81409251311368
  0
LINE
  8
_0-0_図面枠
  6
CONTINUOUS
 62
    7
 10
-14.203405735401844
 20
117.67874121381362
 11
-14.203405735401844
 21
118.29114682271364
  0
LINE
  8
_0-0_図面枠
  6
CONTINUOUS
 62
    7
 10
-10.822665343401837
 20
118.81409251311368
 11
-14.203405735401844
 21
118.29114682271364
  0
LINE
  8
_0-0_図面枠
  6
CONTINUOUS
 62
    7
 10
-22.335133719051811
 20
117.67874121381362
 11
-22.335133719051811
 21
118.29114682271364
  0
LINE
  8
_0-0_図面枠
  6
CONTINUOUS
 62
    7
 10
-25.715874111051818
 20
118.20168690416364
 11
-25.715874111051818
 21
118.81409251311368
  0
LINE
  8
_0-0_図面枠
  6
CONTINUOUS
 62
    7
 10
-22.335133719051811
 20
118.29114682271364
 11
-25.715874111051818
 21
118.81409251311368
  0
LINE
  8
_0-0_図面枠
  6
CONTINUOUS
 62
    7
 10
-18.269269727201817
 20
114.71926180846367
 11
-18.269269727201817
 21
115.33166741736363
  0
LINE
  8
_0-0_図面枠
  6
CONTINUOUS
 62
    7
 10
-14.203405735401844
 20
117.67884073886364
 11
-18.269269727201817
 21
115.33166741736363
  0
LINE
  8
_0-0_図面枠
  6
CONTINUOUS
 62
    7
 10
-18.269269727201817
 20
115.33166741736363
 11
-22.335133719051811
 21
117.67884073886364
  0
LINE
  8
_0-0_図面枠
  6
CONTINUOUS
 62
    7
 10
-12.258862087151812
 20
111.24952733321368
 11
-12.258862087151812
 21
111.86193294211364
  0
LINE
  8
_0-0_図面枠
  6
CONTINUOUS
 62
    7
 10
-12.258862087151812
 20
111.86193294211364
 11
-16.324639878401825
 21
114.20905650111365
  0
LINE
  8
_0-0_図面枠
  6
CONTINUOUS
 62
    7
 10
-24.279677367301844
 20
111.24952733321368
 11
-24.279677367301844
 21
111.86193294211364
  0
LINE
  8
_0-0_図面枠
  6
CONTINUOUS
 62
    7
 10
-20.21389957605183
 20
114.20905650111365
 11
-24.279677367301844
 21
111.86193294211364
  0
LINE
  8
_0-0_図面枠
  6
CONTINUOUS
 62
    7
 10
-24.810007453201848
 20
111.55568037516366
 11
-24.810007453201848
 21
112.16808598406362
  0
LINE
  8
_0-0_図面枠
  6
CONTINUOUS
 62
    7
 10
-24.279677367301844
 20
111.86193294211364
 11
-24.810007453201848
 21
112.16808598406362
  0
LINE
  8
_0-0_図面枠
  6
CONTINUOUS
 62
    7
 10
-25.715874111051818
 20
109.60402048906366
 11
-25.715874111051818
 21
110.21642609801364
  0
LINE
  8
_0-0_図面枠
  6
CONTINUOUS
 62
    7
 10
-24.810007453201848
 20
112.16808598406362
 11
-25.715874111051818
 21
110.21642609801364
  0
LINE
  8
_0-0_図面枠
  6
CONTINUOUS
 62
    7
 10
-11.728532001251807
 20
111.55568037516366
 11
-11.728532001251807
 21
112.16808598406362
  0
LINE
  8
_0-0_図面枠
  6
CONTINUOUS
 62
    7
 10
-11.728532001251807
 20
112.16808598406362
 11
-12.258862087151812
 21
111.86193294211364
  0
LINE
  8
_0-0_図面枠
  6
CONTINUOUS
 62
    7
 10
-10.822665343401837
 20
109.60402048906366
 11
-10.822665343401837
 21
110.21642609801364
  0
LINE
  8
_0-0_図面枠
  6
CONTINUOUS
 62
    7
 10
-10.822665343401837
 20
110.21642609801364
 11
-11.728532001251807
 21
112.16808598406362
  0
LINE
  8
_0-0_図面枠
  6
CONTINUOUS
 62
    7
 10
-22.335133719051811
 20
110.12696617946364
 11
-22.335133719051811
 21
110.73927226331364
  0
LINE
  8
_0-0_図面枠
  6
CONTINUOUS
 62
    7
 10
-14.203405735401844
 20
110.12696617946364
 11
-14.203405735401844
 21
110.73927226331364
  0
LINE
  8
ADD_LINE
  6
DOT
 62
    4
 10
-25.715874111051818
 20
118.20168690416364
 11
-10.823068770943877
 21
109.60332173206365
  0
LINE
  8
ADD_LINE
  6
DOT
 62
    4
 10
-10.822665343401837
 20
118.20168690416364
 11
-25.715470683509778
 21
109.60332173206365
  0
ENDBLK
  0
BLOCK
  2
-005-_5_
 70
   64
 10
0
 20
0
 30
0
  0
LINE
  8
_0-0_図面枠
  6
CONTINUOUS
 62
    7
 10
175.96987275189582
 20
116.61597708416326
 11
176.50020283779583
 21
116.92213012611325
  0
LINE
  8
_0-0_図面枠
  6
CONTINUOUS
 62
    7
 10
175.06400609404585
 20
118.56763697021324
 11
175.96987275189582
 21
116.61597708416326
  0
LINE
  8
_0-0_図面枠
  6
CONTINUOUS
 62
    7
 10
178.44474648604586
 20
118.04469127986323
 11
175.06400609404585
 21
118.56763697021324
  0
LINE
  8
_0-0_図面枠
  6
CONTINUOUS
 62
    7
 10
177.91441640014585
 20
117.73853823791325
 11
178.44474648604586
 21
118.04469127986323
  0
LINE
  8
_0-0_図面枠
  6
CONTINUOUS
 62
    7
 10
182.51061047789585
 20
115.08521187451328
 11
177.91441640014585
 21
117.73853823791325
  0
LINE
  8
_0-0_図面枠
  6
CONTINUOUS
 62
    7
 10
187.10680455559583
 20
117.73853823791325
 11
182.51061047789585
 21
115.08521187451328
  0
LINE
  8
_0-0_図面枠
  6
CONTINUOUS
 62
    7
 10
186.57647446969582
 20
118.04469127986323
 11
187.10680455559583
 21
117.73853823791325
  0
LINE
  8
_0-0_図面枠
  6
CONTINUOUS
 62
    7
 10
189.95721486169583
 20
118.56763697021324
 11
186.57647446969582
 21
118.04469127986323
  0
LINE
  8
_0-0_図面枠
  6
CONTINUOUS
 62
    7
 10
189.05134820384586
 20
116.61597708416326
 11
189.95721486169583
 21
118.56763697021324
  0
LINE
  8
_0-0_図面枠
  6
CONTINUOUS
 62
    7
 10
188.52101811794586
 20
116.92213012611325
 11
189.05134820384586
 21
116.61597708416326
  0
LINE
  8
_0-0_図面枠
  6
CONTINUOUS
 62
    7
 10
183.92482404024582
 20
114.26880376266325
 11
188.52101811794586
 21
116.92213012611325
  0
LINE
  8
_0-0_図面枠
  6
CONTINUOUS
 62
    7
 10
188.52101811794586
 20
111.61547739926328
 11
183.92482404024582
 21
114.26880376266325
  0
LINE
  8
_0-0_図面枠
  6
CONTINUOUS
 62
    7
 10
189.05134820384586
 20
111.92163044121327
 11
188.52101811794586
 21
111.61547739926328
  0
LINE
  8
_0-0_図面枠
  6
CONTINUOUS
 62
    7
 10
189.95721486169583
 20
109.96997055511326
 11
189.05134820384586
 21
111.92163044121327
  0
LINE
  8
_0-0_図面枠
  6
CONTINUOUS
 62
    7
 10
186.57647446969582
 20
110.49291624551324
 11
189.95721486169583
 21
109.96997055511326
  0
LINE
  8
_0-0_図面枠
  6
CONTINUOUS
 62
    7
 10
187.10680455559583
 20
110.79906928746328
 11
186.57647446969582
 21
110.49291624551324
  0
LINE
  8
_0-0_図面枠
  6
CONTINUOUS
 62
    7
 10
182.51061047789585
 20
113.45239565086325
 11
187.10680455559583
 21
110.79906928746328
  0
LINE
  8
_0-0_図面枠
  6
CONTINUOUS
 62
    7
 10
177.91441640014585
 20
110.79906928746328
 11
182.51061047789585
 21
113.45239565086325
  0
LINE
  8
_0-0_図面枠
  6
CONTINUOUS
 62
    7
 10
178.44474648604586
 20
110.49291624551324
 11
177.91441640014585
 21
110.79906928746328
  0
LINE
  8
_0-0_図面枠
  6
CONTINUOUS
 62
    7
 10
175.06400609404585
 20
109.96997055511326
 11
178.44474648604586
 21
110.49291624551324
  0
LINE
  8
_0-0_図面枠
  6
CONTINUOUS
 62
    7
 10
175.96987275189582
 20
111.92163044121327
 11
175.06400609404585
 21
109.96997055511326
  0
LINE
  8
_0-0_図面枠
  6
CONTINUOUS
 62
    7
 10
176.50020283779583
 20
111.61547739926328
 11
175.96987275189582
 21
111.92163044121327
  0
LINE
  8
_0-0_図面枠
  6
CONTINUOUS
 62
    7
 10
181.09639691549586
 20
114.26880376266325
 11
176.50020283779583
 21
111.61547739926328
  0
LINE
  8
_0-0_図面枠
  6
CONTINUOUS
 62
    7
 10
176.50020283779583
 20
116.92213012611325
 11
181.09639691549586
 21
114.26880376266325
  0
LINE
  8
_0-0_図面枠
  6
CONTINUOUS
 62
    7
 10
189.95721486169583
 20
118.56763697021324
 11
189.95721486169583
 21
119.18004257916328
  0
LINE
  8
_0-0_図面枠
  6
CONTINUOUS
 62
    7
 10
186.57647446969582
 20
118.04469127986323
 11
186.57647446969582
 21
118.65709688876325
  0
LINE
  8
_0-0_図面枠
  6
CONTINUOUS
 62
    7
 10
189.95721486169583
 20
119.18004257916328
 11
186.57647446969582
 21
118.65709688876325
  0
LINE
  8
_0-0_図面枠
  6
CONTINUOUS
 62
    7
 10
178.44474648604586
 20
118.04469127986323
 11
178.44474648604586
 21
118.65709688876325
  0
LINE
  8
_0-0_図面枠
  6
CONTINUOUS
 62
    7
 10
175.06400609404585
 20
118.56763697021324
 11
175.06400609404585
 21
119.18004257916328
  0
LINE
  8
_0-0_図面枠
  6
CONTINUOUS
 62
    7
 10
178.44474648604586
 20
118.65709688876325
 11
175.06400609404585
 21
119.18004257916328
  0
LINE
  8
_0-0_図面枠
  6
CONTINUOUS
 62
    7
 10
182.51061047789585
 20
115.08521187451328
 11
182.51061047789585
 21
115.69761748341324
  0
LINE
  8
_0-0_図面枠
  6
CONTINUOUS
 62
    7
 10
186.57647446969582
 20
118.04479080491325
 11
182.51061047789585
 21
115.69761748341324
  0
LINE
  8
_0-0_図面枠
  6
CONTINUOUS
 62
    7
 10
182.51061047789585
 20
115.69761748341324
 11
178.44474648604586
 21
118.04479080491325
  0
LINE
  8
_0-0_図面枠
  6
CONTINUOUS
 62
    7
 10
188.52101811794586
 20
111.61547739926328
 11
188.52101811794586
 21
112.22788300816325
  0
LINE
  8
_0-0_図面枠
  6
CONTINUOUS
 62
    7
 10
188.52101811794586
 20
112.22788300816325
 11
184.45524032669584
 21
114.57500656716326
  0
LINE
  8
_0-0_図面枠
  6
CONTINUOUS
 62
    7
 10
176.50020283779583
 20
111.61547739926328
 11
176.50020283779583
 21
112.22788300816325
  0
LINE
  8
_0-0_図面枠
  6
CONTINUOUS
 62
    7
 10
180.56598062904584
 20
114.57500656716326
 11
176.50020283779583
 21
112.22788300816325
  0
LINE
  8
_0-0_図面枠
  6
CONTINUOUS
 62
    7
 10
175.96987275189582
 20
111.92163044121327
 11
175.96987275189582
 21
112.53403605011323
  0
LINE
  8
_0-0_図面枠
  6
CONTINUOUS
 62
    7
 10
176.50020283779583
 20
112.22788300816325
 11
175.96987275189582
 21
112.53403605011323
  0
LINE
  8
_0-0_図面枠
  6
CONTINUOUS
 62
    7
 10
175.06400609404585
 20
109.96997055511326
 11
175.06400609404585
 21
110.58237616406325
  0
LINE
  8
_0-0_図面枠
  6
CONTINUOUS
 62
    7
 10
175.96987275189582
 20
112.53403605011323
 11
175.06400609404585
 21
110.58237616406325
  0
LINE
  8
_0-0_図面枠
  6
CONTINUOUS
 62
    7
 10
189.05134820384586
 20
111.92163044121327
 11
189.05134820384586
 21
112.53403605011323
  0
LINE
  8
_0-0_図面枠
  6
CONTINUOUS
 62
    7
 10
189.05134820384586
 20
112.53403605011323
 11
188.52101811794586
 21
112.22788300816325
  0
LINE
  8
_0-0_図面枠
  6
CONTINUOUS
 62
    7
 10
189.95721486169583
 20
109.96997055511326
 11
189.95721486169583
 21
110.58237616406325
  0
LINE
  8
_0-0_図面枠
  6
CONTINUOUS
 62
    7
 10
189.95721486169583
 20
110.58237616406325
 11
189.05134820384586
 21
112.53403605011323
  0
LINE
  8
_0-0_図面枠
  6
CONTINUOUS
 62
    7
 10
178.44474648604586
 20
110.49291624551324
 11
178.44474648604586
 21
111.10522232936324
  0
LINE
  8
_0-0_図面枠
  6
CONTINUOUS
 62
    7
 10
186.57647446969582
 20
110.49291624551324
 11
186.57647446969582
 21
111.10522232936324
  0
LINE
  8
ADD_LINE
  6
DOT
 62
    4
 10
175.06400609404585
 20
118.56763697021324
 11
189.95681143415379
 21
109.96927179811325
  0
LINE
  8
ADD_LINE
  6
DOT
 62
    4
 10
189.95721486169583
 20
118.56763697021324
 11
175.06440952158789
 21
109.96927179811325
  0
ENDBLK
  0
BLOCK
  2
-006-_6_
 70
   64
 10
0
 20
0
 30
0
  0
LINE
  8
_1-8_小物
  6
CONTINUOUS
 62
    4
 10
-99.000000000000028
 20
53.3333333333334
 11
-101.00000000000003
 21
53.3333333333334
  0
LINE
  8
_1-8_小物
  6
CONTINUOUS
 62
    4
 10
-100.99999999999991
 20
53.3333333333334
 11
-100.99999999999991
 21
53.400000000000091
  0
LINE
  8
_1-8_小物
  6
CONTINUOUS
 62
    4
 10
-99.000000000000142
 20
53.400000000000091
 11
-99.500000000000142
 21
53.900000000000091
  0
LINE
  8
_1-8_小物
  6
CONTINUOUS
 62
    4
 10
-99.500000000000142
 20
53.900000000000091
 11
-100.49999999999991
 21
53.900000000000091
  0
LINE
  8
_1-8_小物
  6
CONTINUOUS
 62
    4
 10
-100.99999999999991
 20
53.400000000000091
 11
-100.49999999999991
 21
53.900000000000091
  0
LINE
  8
_1-8_小物
  6
CONTINUOUS
 62
    4
 10
-99.000000000000142
 20
53.400000000000091
 11
-99.000000000000142
 21
53.3333333333334
  0
LINE
  8
_1-8_小物
  6
CONTINUOUS
 62
    4
 10
-100.99999999999991
 20
53.400000000000091
 11
-99.000000000000142
 21
53.400000000000091
  0
LINE
  8
_1-8_小物
  6
CONTINUOUS
 62
    4
 10
-100.49999999999991
 20
56.964246678175783
 11
-100.68750000000003
 21
57.072500000000048
  0
LINE
  8
_1-8_小物
  6
CONTINUOUS
 62
    4
 10
-100.68750000000003
 20
57.072500000000048
 11
-100.49999999999997
 21
57.180753321824284
  0
LINE
  8
_1-8_小物
  6
CONTINUOUS
 62
    4
 10
-100.49999999999991
 20
56.964246678175783
 11
-99.500000000000085
 21
57.199246678175712
  0
LINE
  8
_1-8_小物
  6
CONTINUOUS
 62
    4
 10
-99.312500000000028
 20
57.307500000000033
 11
-99.500000000000085
 21
57.199246678175712
  0
LINE
  8
_1-8_小物
  6
CONTINUOUS
 62
    4
 10
-99.500000000000099
 20
57.415753321824297
 11
-99.312500000000028
 21
57.307500000000033
  0
LINE
  8
_1-8_小物
  6
CONTINUOUS
 62
    4
 10
-100.49999999999997
 20
57.180753321824284
 11
-99.500000000000099
 21
57.415753321824297
  0
LINE
  8
_1-8_小物
  6
CONTINUOUS
 62
    4
 10
-100.68750000000003
 20
57.072500000000048
 11
-99.312500000000028
 21
57.307500000000033
  0
LINE
  8
_1-8_小物
  6
CONTINUOUS
 62
    4
 10
-100.49999999999991
 20
56.494246678175756
 11
-100.68750000000003
 21
56.60250000000002
  0
LINE
  8
_1-8_小物
  6
CONTINUOUS
 62
    4
 10
-100.68750000000003
 20
56.60250000000002
 11
-100.49999999999997
 21
56.710753321824313
  0
LINE
  8
_1-8_小物
  6
CONTINUOUS
 62
    4
 10
-100.49999999999991
 20
56.494246678175756
 11
-99.500000000000085
 21
56.729246678175741
  0
LINE
  8
_1-8_小物
  6
CONTINUOUS
 62
    4
 10
-99.312500000000028
 20
56.837500000000006
 11
-99.500000000000085
 21
56.729246678175741
  0
LINE
  8
_1-8_小物
  6
CONTINUOUS
 62
    4
 10
-99.500000000000099
 20
56.94575332182427
 11
-99.312500000000028
 21
56.837500000000006
  0
LINE
  8
_1-8_小物
  6
CONTINUOUS
 62
    4
 10
-100.49999999999997
 20
56.710753321824313
 11
-99.500000000000099
 21
56.94575332182427
  0
LINE
  8
_1-8_小物
  6
CONTINUOUS
 62
    4
 10
-100.68750000000003
 20
56.60250000000002
 11
-99.312500000000028
 21
56.837500000000006
  0
LINE
  8
_1-8_小物
  6
CONTINUOUS
 62
    4
 10
-100.49999999999991
 20
56.024246678175757
 11
-100.68750000000003
 21
56.132500000000078
  0
LINE
  8
_1-8_小物
  6
CONTINUOUS
 62
    4
 10
-100.68750000000003
 20
56.132500000000078
 11
-100.49999999999997
 21
56.240753321824343
  0
LINE
  8
_1-8_小物
  6
CONTINUOUS
 62
    4
 10
-100.49999999999991
 20
56.024246678175757
 11
-99.500000000000085
 21
56.259246678175771
  0
LINE
  8
_1-8_小物
  6
CONTINUOUS
 62
    4
 10
-99.312500000000028
 20
56.367500000000007
 11
-99.500000000000085
 21
56.259246678175771
  0
LINE
  8
_1-8_小物
  6
CONTINUOUS
 62
    4
 10
-99.500000000000099
 20
56.475753321824328
 11
-99.312500000000028
 21
56.367500000000007
  0
LINE
  8
_1-8_小物
  6
CONTINUOUS
 62
    4
 10
-100.49999999999997
 20
56.240753321824343
 11
-99.500000000000099
 21
56.475753321824328
  0
LINE
  8
_1-8_小物
  6
CONTINUOUS
 62
    4
 10
-100.68750000000003
 20
56.132500000000078
 11
-99.312500000000028
 21
56.367500000000007
  0
LINE
  8
_1-8_小物
  6
CONTINUOUS
 62
    4
 10
-100.49999999999991
 20
55.554246678175787
 11
-100.68750000000003
 21
55.662500000000051
  0
LINE
  8
_1-8_小物
  6
CONTINUOUS
 62
    4
 10
-100.68750000000003
 20
55.662500000000051
 11
-100.49999999999997
 21
55.770753321824316
  0
LINE
  8
_1-8_小物
  6
CONTINUOUS
 62
    4
 10
-100.49999999999991
 20
55.554246678175787
 11
-99.500000000000085
 21
55.789246678175743
  0
LINE
  8
_1-8_小物
  6
CONTINUOUS
 62
    4
 10
-99.312500000000028
 20
55.897500000000036
 11
-99.500000000000085
 21
55.789246678175743
  0
LINE
  8
_1-8_小物
  6
CONTINUOUS
 62
    4
 10
-99.500000000000099
 20
56.005753321824301
 11
-99.312500000000028
 21
55.897500000000036
  0
LINE
  8
_1-8_小物
  6
CONTINUOUS
 62
    4
 10
-100.49999999999997
 20
55.770753321824316
 11
-99.500000000000099
 21
56.005753321824301
  0
LINE
  8
_1-8_小物
  6
CONTINUOUS
 62
    4
 10
-100.68750000000003
 20
55.662500000000051
 11
-99.312500000000028
 21
55.897500000000036
  0
LINE
  8
_1-8_小物
  6
CONTINUOUS
 62
    4
 10
-100.49999999999991
 20
55.084246678175816
 11
-100.68750000000003
 21
55.192500000000052
  0
LINE
  8
_1-8_小物
  6
CONTINUOUS
 62
    4
 10
-100.68750000000003
 20
55.192500000000052
 11
-100.49999999999997
 21
55.300753321824374
  0
LINE
  8
_1-8_小物
  6
CONTINUOUS
 62
    4
 10
-100.49999999999991
 20
55.084246678175816
 11
-99.500000000000085
 21
55.319246678175801
  0
LINE
  8
_1-8_小物
  6
CONTINUOUS
 62
    4
 10
-99.312500000000028
 20
55.427500000000066
 11
-99.500000000000085
 21
55.319246678175801
  0
LINE
  8
_1-8_小物
  6
CONTINUOUS
 62
    4
 10
-99.500000000000099
 20
55.535753321824302
 11
-99.312500000000028
 21
55.427500000000066
  0
LINE
  8
_1-8_小物
  6
CONTINUOUS
 62
    4
 10
-100.49999999999997
 20
55.300753321824374
 11
-99.500000000000099
 21
55.535753321824302
  0
LINE
  8
_1-8_小物
  6
CONTINUOUS
 62
    4
 10
-100.68750000000003
 20
55.192500000000052
 11
-99.312500000000028
 21
55.427500000000066
  0
LINE
  8
_1-8_小物
  6
CONTINUOUS
 62
    4
 10
-100.49999999999991
 20
54.614246678175789
 11
-100.68750000000003
 21
54.722500000000082
  0
LINE
  8
_1-8_小物
  6
CONTINUOUS
 62
    4
 10
-100.68750000000003
 20
54.722500000000082
 11
-100.49999999999997
 21
54.830753321824346
  0
LINE
  8
_1-8_小物
  6
CONTINUOUS
 62
    4
 10
-100.49999999999991
 20
54.614246678175789
 11
-99.500000000000085
 21
54.849246678175774
  0
LINE
  8
_1-8_小物
  6
CONTINUOUS
 62
    4
 10
-99.312500000000028
 20
54.957500000000039
 11
-99.500000000000085
 21
54.849246678175774
  0
LINE
  8
_1-8_小物
  6
CONTINUOUS
 62
    4
 10
-99.500000000000099
 20
55.065753321824332
 11
-99.312500000000028
 21
54.957500000000039
  0
LINE
  8
_1-8_小物
  6
CONTINUOUS
 62
    4
 10
-100.49999999999997
 20
54.830753321824346
 11
-99.500000000000099
 21
55.065753321824332
  0
LINE
  8
_1-8_小物
  6
CONTINUOUS
 62
    4
 10
-100.68750000000003
 20
54.722500000000082
 11
-99.312500000000028
 21
54.957500000000039
  0
LINE
  8
_1-8_小物
  6
CONTINUOUS
 62
    4
 10
-100.49999999999991
 20
54.144246678175847
 11
-100.68750000000003
 21
54.252500000000111
  0
LINE
  8
_1-8_小物
  6
CONTINUOUS
 62
    4
 10
-100.68750000000003
 20
54.252500000000111
 11
-100.49999999999997
 21
54.360753321824347
  0
LINE
  8
_1-8_小物
  6
CONTINUOUS
 62
    4
 10
-100.49999999999991
 20
54.144246678175847
 11
-99.500000000000085
 21
54.379246678175775
  0
LINE
  8
_1-8_小物
  6
CONTINUOUS
 62
    4
 10
-99.312500000000028
 20
54.487500000000097
 11
-99.500000000000085
 21
54.379246678175775
  0
LINE
  8
_1-8_小物
  6
CONTINUOUS
 62
    4
 10
-99.500000000000099
 20
54.595753321824361
 11
-99.312500000000028
 21
54.487500000000097
  0
LINE
  8
_1-8_小物
  6
CONTINUOUS
 62
    4
 10
-100.49999999999997
 20
54.360753321824347
 11
-99.500000000000099
 21
54.595753321824361
  0
LINE
  8
_1-8_小物
  6
CONTINUOUS
 62
    4
 10
-100.68750000000003
 20
54.252500000000111
 11
-99.312500000000028
 21
54.487500000000097
  0
LINE
  8
_1-8_小物
  6
CONTINUOUS
 62
    4
 10
-99.500000000000142
 20
57.415753321824297
 11
-99.500000000000142
 21
57.66924667817571
  0
LINE
  8
_1-8_小物
  6
CONTINUOUS
 62
    4
 10
-99.500000000000142
 20
56.94575332182427
 11
-99.500000000000142
 21
57.199246678175712
  0
LINE
  8
_1-8_小物
  6
CONTINUOUS
 62
    4
 10
-99.500000000000142
 20
56.475753321824328
 11
-99.500000000000142
 21
56.729246678175684
  0
LINE
  8
_1-8_小物
  6
CONTINUOUS
 62
    4
 10
-99.500000000000142
 20
56.005753321824301
 11
-99.500000000000142
 21
56.259246678175771
  0
LINE
  8
_1-8_小物
  6
CONTINUOUS
 62
    4
 10
-99.500000000000142
 20
55.535753321824302
 11
-99.500000000000142
 21
55.789246678175743
  0
LINE
  8
_1-8_小物
  6
CONTINUOUS
 62
    4
 10
-99.500000000000142
 20
55.065753321824332
 11
-99.500000000000142
 21
55.319246678175801
  0
LINE
  8
_1-8_小物
  6
CONTINUOUS
 62
    4
 10
-99.500000000000142
 20
53.900000000000091
 11
-99.500000000000142
 21
54.379246678175775
  0
LINE
  8
_1-8_小物
  6
CONTINUOUS
 62
    4
 10
-99.500000000000142
 20
54.595753321824361
 11
-99.500000000000142
 21
54.849246678175774
  0
LINE
  8
_1-8_小物
  6
CONTINUOUS
 62
    4
 10
-100.49999999999991
 20
53.900000000000091
 11
-100.49999999999991
 21
54.144246678175847
  0
LINE
  8
_1-8_小物
  6
CONTINUOUS
 62
    4
 10
-100.49999999999991
 20
54.360753321824404
 11
-100.49999999999991
 21
54.614246678175789
  0
LINE
  8
_1-8_小物
  6
CONTINUOUS
 62
    4
 10
-100.49999999999991
 20
54.830753321824346
 11
-100.49999999999991
 21
55.084246678175816
  0
LINE
  8
_1-8_小物
  6
CONTINUOUS
 62
    4
 10
-100.49999999999991
 20
55.300753321824374
 11
-100.49999999999991
 21
55.554246678175787
  0
LINE
  8
_1-8_小物
  6
CONTINUOUS
 62
    4
 10
-100.49999999999991
 20
55.770753321824316
 11
-100.49999999999991
 21
56.024246678175757
  0
LINE
  8
_1-8_小物
  6
CONTINUOUS
 62
    4
 10
-100.49999999999991
 20
56.240753321824343
 11
-100.49999999999991
 21
56.494246678175756
  0
LINE
  8
_1-8_小物
  6
CONTINUOUS
 62
    4
 10
-100.49999999999991
 20
56.71075332182437
 11
-100.49999999999991
 21
56.964246678175783
  0
LINE
  8
_1-8_小物
  6
CONTINUOUS
 62
    4
 10
-100.56666666666658
 20
57.673333333333403
 11
-100.56666666666658
 21
58.670000000000073
  0
LINE
  8
_1-8_小物
  6
CONTINUOUS
 62
    4
 10
-99.433333333333479
 20
57.673333333333403
 11
-100.56666666666658
 21
57.673333333333403
  0
LINE
  8
_1-8_小物
  6
CONTINUOUS
 62
    4
 10
-99.433333333333479
 20
57.673333333333403
 11
-99.433333333333479
 21
58.670000000000073
  0
LINE
  8
_1-8_小物
  6
CONTINUOUS
 62
    4
 10
-99.433333333333479
 20
58.670000000000073
 11
-100.00000000000003
 21
58.997165152540816
  0
LINE
  8
_1-8_小物
  6
CONTINUOUS
 62
    4
 10
-100.56666666666658
 20
58.670000000000073
 11
-100.00000000000003
 21
58.997165152540816
  0
LINE
  8
_1-8_小物
  6
CONTINUOUS
 62
    4
 10
-100.00000000000003
 20
58.881695098702863
 11
-100.46666666666667
 21
58.612264973081125
  0
LINE
  8
_1-8_小物
  6
CONTINUOUS
 62
    4
 10
-100.46666666666667
 20
57.673333333333403
 11
-100.46666666666667
 21
58.612264973081125
  0
LINE
  8
_1-8_小物
  6
CONTINUOUS
 62
    4
 10
-100.00000000000003
 20
58.881695098702863
 11
-100.21306678169115
 21
57.673333333333403
  0
LINE
  8
_1-8_小物
  6
CONTINUOUS
 62
    4
 10
-100.49999999999991
 20
57.180753321824341
 11
-100.49999999999991
 21
57.673333333333403
  0
LINE
  8
_1-8_小物
  6
CONTINUOUS
 62
    4
 10
-100.00000000000003
 20
58.997165152540816
 11
-100.00000000000003
 21
58.881695098702863
  0
LINE
  8
_1-8_小物
  6
CENTER2
 62
    4
 10
-100.00000000000003
 20
53.000000000000057
 11
-100.00000000000003
 21
59.330498485874102
  0
ENDBLK
  0
BLOCK
  2
-007-$QLE
 70
   64
 10
0
 20
0
 30
0
  0
LINE
  8
_1-f_寸法
  6
CONTINUOUS
 62
    4
 10
-63.279502333333255
 20
83.833334000000036
 11
-60.492511338632141
 21
88.660544003059272
  0
LINE
  8
_1-f_寸法
  6
CONTINUOUS
 62
    4
 10
-60.492511338632141
 20
88.660544003059272
 11
-40.97251133863216
 21
88.660544003059272
  0
POINT
  8
_1-f_寸法
 62
    4
 10
-63.279502333333255
 20
83.833334000000036
  0
TEXT
  8
_1-f_寸法
 62
    4
 10
-60.172511338632148
 20
88.660544003059272
 40
3.2000000000000002
 41
1
 50
0
  1
野縁受(別途)
  0
ENDBLK
  0
BLOCK
  2
-008-$QLE_1_
 70
   64
 10
0
 20
0
 30
0
  0
LINE
  8
_1-f_寸法
  6
CONTINUOUS
 62
    4
 10
-65.250000333333276
 20
68.250000499999999
 11
-61.015727839203407
 21
75.583975592924332
  0
LINE
  8
_1-f_寸法
  6
CONTINUOUS
 62
    4
 10
-61.015727839203407
 20
75.583975592924332
 11
-44.695727839203414
 21
75.583975592924332
  0
POINT
  8
_1-f_寸法
 62
    4
 10
-65.250000333333276
 20
68.250000499999999
  0
TEXT
  8
_1-f_寸法
 62
    4
 10
-60.695727839203414
 20
75.583975592924332
 40
3.2000000000000002
 41
1
 50
0
  1
野縁(別途)
  0
ENDBLK
  0
BLOCK
  2
-009-$QLE_2_
 70
   64
 10
0
 20
0
 30
0
  0
LINE
  8
_1-f_寸法
  6
CONTINUOUS
 62
    4
 10
-56.666667166666571
 20
64.833334333333283
 11
-54.806624929696738
 21
68.055021991989122
  0
LINE
  8
_1-f_寸法
  6
CONTINUOUS
 62
    4
 10
-54.806624929696738
 20
68.055021991989122
 11
-38.486624929696745
 21
68.055021991989122
  0
POINT
  8
_1-f_寸法
 62
    4
 10
-56.666667166666571
 20
64.833334333333283
  0
TEXT
  8
_1-f_寸法
 62
    4
 10
-54.486624929696745
 20
68.055021991989122
 40
3.2000000000000002
 41
1
 50
0
  1
天井仕上面
  0
ENDBLK
  0
BLOCK
  2
-010-_7_
 70
   64
 10
0
 20
0
 30
0
  0
LINE
  8
_1-8_小物
  6
CONTINUOUS
 62
    4
 10
-126.03333288333326
 20
60.966666666666612
 11
-120.63333288333303
 21
60.966666666666612
  0
LINE
  8
_1-8_小物
  6
CONTINUOUS
 62
    4
 10
-126.03333288333326
 20
60.516666666666595
 11
-120.63333288333303
 21
60.516666666666595
  0
LINE
  8
_1-8_小物
  6
CONTINUOUS
 62
    4
 10
-126.03333288333326
 20
60.966666666666612
 11
-126.03333288333326
 21
60.516666666666595
  0
LINE
  8
_1-8_小物
  6
CONTINUOUS
 62
    4
 10
-120.63333288333303
 20
60.966666666666612
 11
-120.63333288333303
 21
60.516666666666595
  0
LINE
  8
_1-8_小物
  6
DASHED1
 62
    4
 10
-124.15833288333326
 20
60.966666666666612
 11
-124.15833288333326
 21
60.516666666666595
  0
LINE
  8
_1-8_小物
  6
DASHED1
 62
    4
 10
-122.50833288333303
 20
60.966666666666612
 11
-122.50833288333303
 21
60.516666666666595
  0
LINE
  8
_1-8_小物
  6
CONTINUOUS
 62
    4
 10
-122.97333333333376
 20
63.125535366666696
 11
-122.97333333333376
 21
63.358342866666533
  0
LINE
  8
_1-8_小物
  6
CONTINUOUS
 62
    4
 10
-123.69333333333337
 20
63.146676366666441
 11
-123.69333333333337
 21
62.913868866666832
  0
LINE
  8
_1-8_小物
  6
CONTINUOUS
 62
    4
 10
-122.97333333333376
 20
63.358342866666533
 11
-123.69333333333337
 21
63.146676366666441
  0
LINE
  8
_1-8_小物
  6
CONTINUOUS
 62
    4
 10
-122.80833273333377
 20
63.453606066666822
 11
-123.85833303333332
 21
63.241938666666698
  0
LINE
  8
_1-8_小物
  6
CONTINUOUS
 62
    4
 10
-122.80833273333377
 20
63.453606066666822
 11
-122.97333333333376
 21
63.358342866666533
  0
LINE
  8
_1-8_小物
  6
CONTINUOUS
 62
    4
 10
-123.85833303333332
 20
63.241938666666698
 11
-123.69333333333337
 21
63.337201866666788
  0
LINE
  8
_1-8_小物
  6
CONTINUOUS
 62
    4
 10
-123.69333333333337
 20
63.146676366666441
 11
-123.85833303333332
 21
63.241938666666698
  0
LINE
  8
_1-8_小物
  6
CONTINUOUS
 62
    4
 10
-122.97333333333376
 20
62.702201466666509
 11
-122.97333333333376
 21
62.935009866666576
  0
LINE
  8
_1-8_小物
  6
CONTINUOUS
 62
    4
 10
-123.69333333333337
 20
62.723342466666679
 11
-123.69333333333337
 21
62.490534966666644
  0
LINE
  8
_1-8_小物
  6
CONTINUOUS
 62
    4
 10
-122.97333333333376
 20
63.125535366666696
 11
-123.69333333333337
 21
62.913868866666832
  0
LINE
  8
_1-8_小物
  6
CONTINUOUS
 62
    4
 10
-122.97333333333376
 20
62.935009866666576
 11
-123.69333333333337
 21
62.723342466666679
  0
LINE
  8
_1-8_小物
  6
CONTINUOUS
 62
    4
 10
-122.80833273333377
 20
63.030272166666634
 11
-123.85833303333332
 21
62.818605666666542
  0
LINE
  8
_1-8_小物
  6
CONTINUOUS
 62
    4
 10
-122.80833273333377
 20
63.030272166666634
 11
-122.97333333333376
 21
63.125535366666696
  0
LINE
  8
_1-8_小物
  6
CONTINUOUS
 62
    4
 10
-122.80833273333377
 20
63.030272166666634
 11
-122.97333333333376
 21
62.935009866666576
  0
LINE
  8
_1-8_小物
  6
CONTINUOUS
 62
    4
 10
-123.85833303333332
 20
62.818605666666542
 11
-123.69333333333337
 21
62.913868866666832
  0
LINE
  8
_1-8_小物
  6
CONTINUOUS
 62
    4
 10
-123.69333333333337
 20
62.723342466666679
 11
-123.85833303333332
 21
62.818605666666542
  0
LINE
  8
_1-8_小物
  6
CONTINUOUS
 62
    4
 10
-122.97333333333376
 20
62.278868466666751
 11
-122.97333333333376
 21
62.511675966666786
  0
LINE
  8
_1-8_小物
  6
CONTINUOUS
 62
    4
 10
-123.69333333333337
 20
62.300009466666694
 11
-123.69333333333337
 21
62.067201966666659
  0
LINE
  8
_1-8_小物
  6
CONTINUOUS
 62
    4
 10
-122.97333333333376
 20
62.702201466666509
 11
-123.69333333333337
 21
62.490534966666644
  0
LINE
  8
_1-8_小物
  6
CONTINUOUS
 62
    4
 10
-122.97333333333376
 20
62.511675966666786
 11
-123.69333333333337
 21
62.300009466666694
  0
LINE
  8
_1-8_小物
  6
CONTINUOUS
 62
    4
 10
-122.80833273333377
 20
62.606939166666649
 11
-123.85833303333332
 21
62.395272666666557
  0
LINE
  8
_1-8_小物
  6
CONTINUOUS
 62
    4
 10
-122.80833273333377
 20
62.606939166666649
 11
-122.97333333333376
 21
62.702201466666509
  0
LINE
  8
_1-8_小物
  6
CONTINUOUS
 62
    4
 10
-122.80833273333377
 20
62.606939166666649
 11
-122.97333333333376
 21
62.511675966666786
  0
LINE
  8
_1-8_小物
  6
CONTINUOUS
 62
    4
 10
-123.85833303333332
 20
62.395272666666557
 11
-123.69333333333337
 21
62.490534966666644
  0
LINE
  8
_1-8_小物
  6
CONTINUOUS
 62
    4
 10
-123.69333333333337
 20
62.300009466666694
 11
-123.85833303333332
 21
62.395272666666557
  0
LINE
  8
_1-8_小物
  6
CONTINUOUS
 62
    4
 10
-122.97333333333376
 20
61.855535466666595
 11
-122.97333333333376
 21
62.08834296666663
  0
LINE
  8
_1-8_小物
  6
CONTINUOUS
 62
    4
 10
-123.69333333333337
 20
61.876676466666538
 11
-123.69333333333337
 21
61.643868066666698
  0
LINE
  8
_1-8_小物
  6
CONTINUOUS
 62
    4
 10
-122.97333333333376
 20
62.278868466666751
 11
-123.69333333333337
 21
62.067201966666659
  0
LINE
  8
_1-8_小物
  6
CONTINUOUS
 62
    4
 10
-122.97333333333376
 20
62.08834296666663
 11
-123.69333333333337
 21
61.876676466666538
  0
LINE
  8
_1-8_小物
  6
CONTINUOUS
 62
    4
 10
-122.80833273333377
 20
62.18360526666666
 11
-123.85833303333332
 21
61.971938766666796
  0
LINE
  8
_1-8_小物
  6
CONTINUOUS
 62
    4
 10
-122.80833273333377
 20
62.18360526666666
 11
-122.97333333333376
 21
62.278868466666751
  0
LINE
  8
_1-8_小物
  6
CONTINUOUS
 62
    4
 10
-122.80833273333377
 20
62.18360526666666
 11
-122.97333333333376
 21
62.08834296666663
  0
LINE
  8
_1-8_小物
  6
CONTINUOUS
 62
    4
 10
-123.85833303333332
 20
61.971938766666796
 11
-123.69333333333337
 21
62.067201966666659
  0
LINE
  8
_1-8_小物
  6
CONTINUOUS
 62
    4
 10
-123.69333333333337
 20
61.876676466666538
 11
-123.85833303333332
 21
61.971938766666796
  0
LINE
  8
_1-8_小物
  6
CONTINUOUS
 62
    4
 10
-122.97333333333376
 20
61.432201566666606
 11
-122.97333333333376
 21
61.665009966666673
  0
LINE
  8
_1-8_小物
  6
CONTINUOUS
 62
    4
 10
-123.69333333333337
 20
61.453342566666521
 11
-123.69333333333337
 21
61.220535066666741
  0
LINE
  8
_1-8_小物
  6
CONTINUOUS
 62
    4
 10
-122.97333333333376
 20
61.855535466666595
 11
-123.69333333333337
 21
61.643868066666698
  0
LINE
  8
_1-8_小物
  6
CONTINUOUS
 62
    4
 10
-122.97333333333376
 20
61.665009966666673
 11
-123.69333333333337
 21
61.453342566666521
  0
LINE
  8
_1-8_小物
  6
CONTINUOUS
 62
    4
 10
-122.80833273333377
 20
61.760272266666732
 11
-123.85833303333332
 21
61.54860576666664
  0
LINE
  8
_1-8_小物
  6
CONTINUOUS
 62
    4
 10
-122.80833273333377
 20
61.760272266666732
 11
-122.97333333333376
 21
61.855535466666595
  0
LINE
  8
_1-8_小物
  6
CONTINUOUS
 62
    4
 10
-122.80833273333377
 20
61.760272266666732
 11
-122.97333333333376
 21
61.665009966666673
  0
LINE
  8
_1-8_小物
  6
CONTINUOUS
 62
    4
 10
-123.85833303333332
 20
61.54860576666664
 11
-123.69333333333337
 21
61.643868066666698
  0
LINE
  8
_1-8_小物
  6
CONTINUOUS
 62
    4
 10
-123.69333333333337
 20
61.453342566666521
 11
-123.85833303333332
 21
61.54860576666664
  0
LINE
  8
_1-8_小物
  6
CONTINUOUS
 62
    4
 10
-122.97333333333376
 20
61.008868566666848
 11
-123.69333333333337
 21
60.797202066666756
  0
LINE
  8
_1-8_小物
  6
CONTINUOUS
 62
    4
 10
-122.97333333333376
 20
60.8183430666665
 11
-123.69333333333337
 21
60.606676566666607
  0
LINE
  8
_1-8_小物
  6
CONTINUOUS
 62
    4
 10
-122.80833273333377
 20
60.913605366666559
 11
-123.85833303333332
 21
60.701938866666467
  0
LINE
  8
_1-8_小物
  6
CONTINUOUS
 62
    4
 10
-122.80833273333377
 20
60.913605366666559
 11
-122.97333333333376
 21
61.008868566666848
  0
LINE
  8
_1-8_小物
  6
CONTINUOUS
 62
    4
 10
-122.80833273333377
 20
60.913605366666559
 11
-122.97333333333376
 21
60.8183430666665
  0
LINE
  8
_1-8_小物
  6
CONTINUOUS
 62
    4
 10
-123.85833303333332
 20
60.701938866666467
 11
-123.69333333333337
 21
60.797202066666756
  0
LINE
  8
_1-8_小物
  6
CONTINUOUS
 62
    4
 10
-123.69333333333337
 20
60.606676566666607
 11
-123.85833303333332
 21
60.701938866666467
  0
LINE
  8
_1-8_小物
  6
CONTINUOUS
 62
    4
 10
-122.97333333333376
 20
60.516666666666595
 11
-122.97333333333376
 21
60.8183430666665
  0
LINE
  8
_1-8_小物
  6
CONTINUOUS
 62
    4
 10
-122.97333333333376
 20
61.008868566666848
 11
-122.97333333333376
 21
61.241676066666656
  0
LINE
  8
_1-8_小物
  6
CONTINUOUS
 62
    4
 10
-123.69333333333337
 20
61.030009566666592
 11
-123.69333333333337
 21
60.797202066666756
  0
LINE
  8
_1-8_小物
  6
CONTINUOUS
 62
    4
 10
-122.97333333333376
 20
61.432201566666606
 11
-123.69333333333337
 21
61.220535066666741
  0
LINE
  8
_1-8_小物
  6
CONTINUOUS
 62
    4
 10
-122.97333333333376
 20
61.241676066666656
 11
-123.69333333333337
 21
61.030009566666592
  0
LINE
  8
_1-8_小物
  6
CONTINUOUS
 62
    4
 10
-122.80833273333377
 20
61.336939266666747
 11
-123.85833303333332
 21
61.125272766666654
  0
LINE
  8
_1-8_小物
  6
CONTINUOUS
 62
    4
 10
-122.80833273333377
 20
61.336939266666747
 11
-122.97333333333376
 21
61.432201566666606
  0
LINE
  8
_1-8_小物
  6
CONTINUOUS
 62
    4
 10
-122.80833273333377
 20
61.336939266666747
 11
-122.97333333333376
 21
61.241676066666656
  0
LINE
  8
_1-8_小物
  6
CONTINUOUS
 62
    4
 10
-123.85833303333332
 20
61.125272766666654
 11
-123.69333333333337
 21
61.220535066666741
  0
LINE
  8
_1-8_小物
  6
CONTINUOUS
 62
    4
 10
-123.69333333333337
 20
61.030009566666592
 11
-123.85833303333332
 21
61.125272766666654
  0
ARC
  8
_1-8_小物
  6
CONTINUOUS
 62
    4
 10
-122.58333273333322
 20
60.237627966666565
 40
0.2999996999999999
 50
299.99999999998971
 51
0
  0
ARC
  8
_1-8_小物
  6
CONTINUOUS
 62
    4
 10
-124.08333303333308
 20
60.237627966666565
 40
0.2999996999999999
 50
180
 51
239.99999999995677
  0
ARC
  8
_1-8_小物
  6
CONTINUOUS
 62
    4
 10
-123.33333333333343
 20
61.536666366666566
 40
1.8
 50
239.99999999999139
 51
299.99999999999886
  0
LINE
  8
_1-8_小物
  6
CONTINUOUS
 62
    4
 10
-122.28333303333335
 20
60.516666666666595
 11
-122.28333303333335
 21
60.237627966666565
  0
LINE
  8
_1-8_小物
  6
CONTINUOUS
 62
    4
 10
-124.38333273333325
 20
60.516666666666595
 11
-122.28333303333335
 21
60.516666666666595
  0
LINE
  8
_1-8_小物
  6
CONTINUOUS
 62
    4
 10
-124.38333273333325
 20
60.516666666666595
 11
-124.38333273333325
 21
60.237627966666565
  0
LINE
  8
_1-8_小物
  6
CONTINUOUS
 62
    4
 10
-123.69333333333337
 20
60.606676566666607
 11
-123.69333333333337
 21
60.516666666666595
  0
LINE
  8
_1-8_小物
  6
CONTINUOUS
 62
    4
 10
-122.97333333333376
 20
66.088868166666487
 11
-122.97333333333376
 21
66.321676566666554
  0
LINE
  8
_1-8_小物
  6
CONTINUOUS
 62
    4
 10
-123.69333333333337
 20
66.110009166666629
 11
-123.69333333333337
 21
65.877201666666593
  0
LINE
  8
_1-8_小物
  6
CONTINUOUS
 62
    4
 10
-122.97333333333376
 20
66.512202066666674
 11
-123.69333333333337
 21
66.300535566666611
  0
LINE
  8
_1-8_小物
  6
CONTINUOUS
 62
    4
 10
-122.97333333333376
 20
66.321676566666554
 11
-123.69333333333337
 21
66.110009166666629
  0
LINE
  8
_1-8_小物
  6
CONTINUOUS
 62
    4
 10
-122.80833273333377
 20
66.416938866666811
 11
-123.85833303333332
 21
66.205272366666748
  0
LINE
  8
_1-8_小物
  6
CONTINUOUS
 62
    4
 10
-122.80833273333377
 20
66.416938866666811
 11
-122.97333333333376
 21
66.512202066666674
  0
LINE
  8
_1-8_小物
  6
CONTINUOUS
 62
    4
 10
-122.80833273333377
 20
66.416938866666811
 11
-122.97333333333376
 21
66.321676566666554
  0
LINE
  8
_1-8_小物
  6
CONTINUOUS
 62
    4
 10
-123.85833303333332
 20
66.205272366666748
 11
-123.69333333333337
 21
66.300535566666611
  0
LINE
  8
_1-8_小物
  6
CONTINUOUS
 62
    4
 10
-123.69333333333337
 20
66.110009166666629
 11
-123.85833303333332
 21
66.205272366666748
  0
LINE
  8
_1-8_小物
  6
CONTINUOUS
 62
    4
 10
-122.97333333333376
 20
65.665535166666501
 11
-122.97333333333376
 21
65.898342666666537
  0
LINE
  8
_1-8_小物
  6
CONTINUOUS
 62
    4
 10
-123.69333333333337
 20
65.686676166666672
 11
-123.69333333333337
 21
65.453868666666636
  0
LINE
  8
_1-8_小物
  6
CONTINUOUS
 62
    4
 10
-122.97333333333376
 20
66.088868166666487
 11
-123.69333333333337
 21
65.877201666666593
  0
LINE
  8
_1-8_小物
  6
CONTINUOUS
 62
    4
 10
-122.97333333333376
 20
65.898342666666537
 11
-123.69333333333337
 21
65.686676166666672
  0
LINE
  8
_1-8_小物
  6
CONTINUOUS
 62
    4
 10
-122.80833273333377
 20
65.993605866666655
 11
-123.85833303333332
 21
65.781939366666762
  0
LINE
  8
_1-8_小物
  6
CONTINUOUS
 62
    4
 10
-122.80833273333377
 20
65.993605866666655
 11
-122.97333333333376
 21
66.088868166666487
  0
LINE
  8
_1-8_小物
  6
CONTINUOUS
 62
    4
 10
-122.80833273333377
 20
65.993605866666655
 11
-122.97333333333376
 21
65.898342666666537
  0
LINE
  8
_1-8_小物
  6
CONTINUOUS
 62
    4
 10
-123.85833303333332
 20
65.781939366666762
 11
-123.69333333333337
 21
65.877201666666593
  0
LINE
  8
_1-8_小物
  6
CONTINUOUS
 62
    4
 10
-123.69333333333337
 20
65.686676166666672
 11
-123.85833303333332
 21
65.781939366666762
  0
LINE
  8
_1-8_小物
  6
CONTINUOUS
 62
    4
 10
-122.97333333333376
 20
65.242202166666573
 11
-122.97333333333376
 21
65.475009666666608
  0
LINE
  8
_1-8_小物
  6
CONTINUOUS
 62
    4
 10
-123.69333333333337
 20
65.263343166666516
 11
-123.69333333333337
 21
65.030534766666676
  0
LINE
  8
_1-8_小物
  6
CONTINUOUS
 62
    4
 10
-122.97333333333376
 20
65.665535166666501
 11
-123.69333333333337
 21
65.453868666666636
  0
LINE
  8
_1-8_小物
  6
CONTINUOUS
 62
    4
 10
-122.97333333333376
 20
65.475009666666608
 11
-123.69333333333337
 21
65.263343166666516
  0
LINE
  8
_1-8_小物
  6
CONTINUOUS
 62
    4
 10
-122.80833273333377
 20
65.570271966666638
 11
-123.85833303333332
 21
65.358605466666575
  0
LINE
  8
_1-8_小物
  6
CONTINUOUS
 62
    4
 10
-122.80833273333377
 20
65.570271966666638
 11
-122.97333333333376
 21
65.665535166666501
  0
LINE
  8
_1-8_小物
  6
CONTINUOUS
 62
    4
 10
-122.80833273333377
 20
65.570271966666638
 11
-122.97333333333376
 21
65.475009666666608
  0
LINE
  8
_1-8_小物
  6
CONTINUOUS
 62
    4
 10
-123.85833303333332
 20
65.358605466666575
 11
-123.69333333333337
 21
65.453868666666636
  0
LINE
  8
_1-8_小物
  6
CONTINUOUS
 62
    4
 10
-123.69333333333337
 20
65.263343166666516
 11
-123.85833303333332
 21
65.358605466666575
  0
LINE
  8
_1-8_小物
  6
CONTINUOUS
 62
    4
 10
-122.97333333333376
 20
64.818868266666584
 11
-122.97333333333376
 21
65.051676666666623
  0
LINE
  8
_1-8_小物
  6
CONTINUOUS
 62
    4
 10
-123.69333333333337
 20
64.840009266666726
 11
-123.69333333333337
 21
64.607201766666691
  0
LINE
  8
_1-8_小物
  6
CONTINUOUS
 62
    4
 10
-122.97333333333376
 20
65.242202166666573
 11
-123.69333333333337
 21
65.030534766666676
  0
LINE
  8
_1-8_小物
  6
CONTINUOUS
 62
    4
 10
-122.97333333333376
 20
65.051676666666623
 11
-123.69333333333337
 21
64.840009266666726
  0
LINE
  8
_1-8_小物
  6
CONTINUOUS
 62
    4
 10
-122.80833273333377
 20
65.146938966666482
 11
-123.85833303333332
 21
64.935272466666618
  0
LINE
  8
_1-8_小物
  6
CONTINUOUS
 62
    4
 10
-122.80833273333377
 20
65.146938966666482
 11
-122.97333333333376
 21
65.242202166666573
  0
LINE
  8
_1-8_小物
  6
CONTINUOUS
 62
    4
 10
-122.80833273333377
 20
65.146938966666482
 11
-122.97333333333376
 21
65.051676666666623
  0
LINE
  8
_1-8_小物
  6
CONTINUOUS
 62
    4
 10
-123.85833303333332
 20
64.935272466666618
 11
-123.69333333333337
 21
65.030534766666676
  0
LINE
  8
_1-8_小物
  6
CONTINUOUS
 62
    4
 10
-123.69333333333337
 20
64.840009266666726
 11
-123.85833303333332
 21
64.935272466666618
  0
LINE
  8
_1-8_小物
  6
CONTINUOUS
 62
    4
 10
-122.97333333333376
 20
64.559789766666597
 11
-122.97333333333376
 21
64.628342766666634
  0
LINE
  8
_1-8_小物
  6
CONTINUOUS
 62
    4
 10
-123.69333333333337
 20
64.416676266666769
 11
-123.69333333333337
 21
64.183868766666734
  0
LINE
  8
_1-8_小物
  6
CONTINUOUS
 62
    4
 10
-122.97333333333376
 20
64.818868266666584
 11
-123.69333333333337
 21
64.607201766666691
  0
LINE
  8
_1-8_小物
  6
CONTINUOUS
 62
    4
 10
-122.97333333333376
 20
64.628342766666634
 11
-123.44128473333352
 21
64.490774166666768
  0
LINE
  8
_1-8_小物
  6
CONTINUOUS
 62
    4
 10
-123.77822583333339
 20
64.528087266666432
 11
-122.80833273333377
 21
64.723605966666724
  0
LINE
  8
_1-8_小物
  6
CONTINUOUS
 62
    4
 10
-122.80833273333377
 20
64.723605966666724
 11
-122.97333333333376
 21
64.818868266666584
  0
LINE
  8
_1-8_小物
  6
CONTINUOUS
 62
    4
 10
-122.80833273333377
 20
64.723605966666724
 11
-122.97333333333376
 21
64.628342766666634
  0
LINE
  8
_1-8_小物
  6
CONTINUOUS
 62
    4
 10
-123.81127923333337
 20
64.539105966666682
 11
-123.69333333333337
 21
64.607201766666691
  0
LINE
  8
_1-8_小物
  6
CONTINUOUS
 62
    4
 10
-123.69333333333337
 20
64.416676266666769
 11
-123.85833303333332
 21
64.511939466666632
  0
LINE
  8
_1-8_小物
  6
CONTINUOUS
 62
    4
 10
-122.97333333333376
 20
63.972201366666411
 11
-122.97333333333376
 21
64.205009766666706
  0
LINE
  8
_1-8_小物
  6
CONTINUOUS
 62
    4
 10
-123.69333333333337
 20
63.993343266666614
 11
-123.69333333333337
 21
63.760534866666546
  0
LINE
  8
_1-8_小物
  6
CONTINUOUS
 62
    4
 10
-122.97333333333376
 20
64.395535266666599
 11
-123.69333333333337
 21
64.183868766666734
  0
LINE
  8
_1-8_小物
  6
CONTINUOUS
 62
    4
 10
-122.97333333333376
 20
64.205009766666706
 11
-123.69333333333337
 21
63.993343266666614
  0
LINE
  8
_1-8_小物
  6
CONTINUOUS
 62
    4
 10
-122.80833273333377
 20
64.300272066666736
 11
-123.85833303333332
 21
64.088605566666672
  0
LINE
  8
_1-8_小物
  6
CONTINUOUS
 62
    4
 10
-122.80833273333377
 20
64.300272066666736
 11
-122.97333333333376
 21
64.395535266666599
  0
LINE
  8
_1-8_小物
  6
CONTINUOUS
 62
    4
 10
-122.80833273333377
 20
64.300272066666736
 11
-122.97333333333376
 21
64.205009766666706
  0
LINE
  8
_1-8_小物
  6
CONTINUOUS
 62
    4
 10
-123.85833303333332
 20
64.088605566666672
 11
-123.69333333333337
 21
64.183868766666734
  0
LINE
  8
_1-8_小物
  6
CONTINUOUS
 62
    4
 10
-123.69333333333337
 20
63.993343266666614
 11
-123.85833303333332
 21
64.088605566666672
  0
LINE
  8
_1-8_小物
  6
CONTINUOUS
 62
    4
 10
-122.97333333333376
 20
63.548868366666682
 11
-122.97333333333376
 21
63.781675866666689
  0
LINE
  8
_1-8_小物
  6
CONTINUOUS
 62
    4
 10
-123.69333333333337
 20
63.570009366666596
 11
-123.69333333333337
 21
63.337201866666788
  0
LINE
  8
_1-8_小物
  6
CONTINUOUS
 62
    4
 10
-122.97333333333376
 20
63.972201366666411
 11
-123.69333333333337
 21
63.760534866666546
  0
LINE
  8
_1-8_小物
  6
CONTINUOUS
 62
    4
 10
-122.97333333333376
 20
63.781675866666689
 11
-123.69333333333337
 21
63.570009366666596
  0
LINE
  8
_1-8_小物
  6
CONTINUOUS
 62
    4
 10
-122.80833273333377
 20
63.87693906666658
 11
-123.85833303333332
 21
63.665272566666715
  0
LINE
  8
_1-8_小物
  6
CONTINUOUS
 62
    4
 10
-122.80833273333377
 20
63.87693906666658
 11
-122.97333333333376
 21
63.972201366666411
  0
LINE
  8
_1-8_小物
  6
CONTINUOUS
 62
    4
 10
-122.80833273333377
 20
63.87693906666658
 11
-122.97333333333376
 21
63.781675866666689
  0
LINE
  8
_1-8_小物
  6
CONTINUOUS
 62
    4
 10
-123.85833303333332
 20
63.665272566666715
 11
-123.69333333333337
 21
63.760534866666546
  0
LINE
  8
_1-8_小物
  6
CONTINUOUS
 62
    4
 10
-123.69333333333337
 20
63.570009366666596
 11
-123.85833303333332
 21
63.665272566666715
  0
LINE
  8
_1-8_小物
  6
CONTINUOUS
 62
    4
 10
-122.97333333333376
 20
63.548868366666682
 11
-123.69333333333337
 21
63.337201866666788
  0
LINE
  8
_1-8_小物
  6
CONTINUOUS
 62
    4
 10
-122.80833273333377
 20
63.453606066666822
 11
-122.97333333333376
 21
63.548868366666682
  0
LINE
  8
_1-8_小物
  6
CONTINUOUS
 62
    4
 10
-123.07860003333332
 20
67.370586966666593
 11
-123.59781093333305
 21
67.157787366666696
  0
LINE
  8
_1-8_小物
  6
CONTINUOUS
 62
    4
 10
-123.78114543333328
 20
67.051939266666665
 11
-122.8933026333338
 21
67.263605766666558
  0
LINE
  8
_1-8_小物
  6
CONTINUOUS
 62
    4
 10
-123.05830323333379
 20
67.168342566666695
 11
-123.61614573333333
 21
66.956676066666802
  0
LINE
  8
_1-8_小物
  6
CONTINUOUS
 62
    4
 10
-123.63640473333338
 20
66.734453466666679
 11
-123.0361146333334
 21
66.947253066666832
  0
LINE
  8
_1-8_小物
  6
CONTINUOUS
 62
    4
 10
-122.85081813333339
 20
66.840272766666573
 11
-123.81973923333356
 21
66.628605366666676
  0
LINE
  8
_1-8_小物
  6
CONTINUOUS
 62
    4
 10
-123.65473953333304
 20
66.533343066666646
 11
-123.01581783333334
 21
66.74500956666671
  0
LINE
  8
_1-8_小物
  6
CONTINUOUS
 62
    4
 10
-123.65473953333304
 20
66.533343066666646
 11
-123.67548543333345
 21
66.305781666666633
  0
LINE
  8
_1-8_小物
  6
CONTINUOUS
 62
    4
 10
-123.61614573333333
 20
66.956676066666802
 11
-123.63640473333338
 21
66.734453466666679
  0
LINE
  8
_1-8_小物
  6
CONTINUOUS
 62
    4
 10
-123.0361146333334
 20
66.947253066666832
 11
-123.05830323333379
 21
67.168342566666695
  0
LINE
  8
_1-8_小物
  6
CONTINUOUS
 62
    4
 10
-122.99190573333338
 20
66.506741766666579
 11
-123.01581783333334
 21
66.74500956666671
  0
LINE
  8
_1-8_小物
  6
CONTINUOUS
 62
    4
 10
-122.8933026333338
 20
67.263605766666558
 11
-123.07860003333332
 21
67.370586966666593
  0
LINE
  8
_1-8_小物
  6
CONTINUOUS
 62
    4
 10
-123.05830323333379
 20
67.168342566666695
 11
-122.8933026333338
 21
67.263605766666558
  0
LINE
  8
_1-8_小物
  6
CONTINUOUS
 62
    4
 10
-122.85081813333339
 20
66.840272766666573
 11
-123.0361146333334
 21
66.947253066666832
  0
LINE
  8
_1-8_小物
  6
CONTINUOUS
 62
    4
 10
-122.85081813333339
 20
66.840272766666573
 11
-123.01581783333334
 21
66.74500956666671
  0
LINE
  8
_1-8_小物
  6
CONTINUOUS
 62
    4
 10
-123.78114543333328
 20
67.051939266666665
 11
-123.59781093333305
 21
67.157787366666696
  0
LINE
  8
_1-8_小物
  6
CONTINUOUS
 62
    4
 10
-123.61614573333333
 20
66.956676066666802
 11
-123.78114543333328
 21
67.051939266666665
  0
LINE
  8
_1-8_小物
  6
CONTINUOUS
 62
    4
 10
-123.81973923333356
 20
66.628605366666676
 11
-123.63640473333338
 21
66.734453466666679
  0
LINE
  8
_1-8_小物
  6
CONTINUOUS
 62
    4
 10
-123.65473953333304
 20
66.533343066666646
 11
-123.81973923333356
 21
66.628605366666676
  0
LINE
  8
_1-8_小物
  6
CONTINUOUS
 62
    4
 10
-123.33333333333343
 20
68.106676266666625
 11
-123.07860003333332
 21
67.370586966666593
  0
LINE
  8
_1-8_小物
  6
CONTINUOUS
 62
    4
 10
-123.59781093333305
 20
67.157787366666696
 11
-123.33333333333343
 21
68.106676266666625
  0
LINE
  8
_1-8_小物
  6
CONTINUOUS
 62
    4
 10
-122.97333333333376
 20
64.559789766666597
 11
-122.97333333333376
 21
64.395535266666599
  0
LINE
  8
_1-8_小物
  6
CONTINUOUS
 62
    4
 10
-123.81127923333337
 20
64.539105966666682
 11
-123.85833303333332
 21
64.511939466666632
  0
LINE
  8
_1-8_小物
  6
CONTINUOUS
 62
    4
 10
-123.69333333333337
 20
64.416676266666769
 11
-123.44128473333352
 21
64.490774166666768
  0
LINE
  8
_1-8_小物
  6
CONTINUOUS
 62
    4
 10
-123.77822583333339
 20
64.528087266666432
 11
-123.85833303333332
 21
64.511939466666632
  0
LINE
  8
_1-8_小物
  6
CENTER2
 62
    4
 10
-123.33333333333343
 20
69.006676266666489
 11
-123.33333333333343
 21
58.83666636666652
  0
ENDBLK
  0
BLOCK
  2
-011-_8_
 70
   64
 10
0
 20
0
 30
0
  0
LINE
  8
_1-7_カバ__
  6
CONTINUOUS
 62
    4
 10
-100.00000000000006
 20
53.404044011452044
 11
-99.929289321881413
 21
53.3333333333334
  0
LINE
  8
_1-7_カバ__
  6
CONTINUOUS
 62
    4
 10
-100.00000000000006
 20
53.404044011452044
 11
-100.0707106781187
 21
53.3333333333334
  0
LINE
  8
_1-7_カバ__
  6
CONTINUOUS
 62
    4
 10
-63.833333333333428
 20
53.833333333333314
 11
-63.833333333333428
 21
57.500000000000057
  0
LINE
  8
_1-7_カバ__
  6
CONTINUOUS
 62
    4
 10
-99.929289321881413
 20
53.3333333333334
 11
-63.333333333333428
 21
53.3333333333334
  0
LINE
  8
_1-7_カバ__
  6
CONTINUOUS
 62
    4
 10
-63.333333333333428
 20
53.3333333333334
 11
-63.333333333333428
 21
58.000000000000028
  0
LINE
  8
_1-7_カバ__
  6
CONTINUOUS
 62
    4
 10
-136.16666666666674
 20
53.833333333333314
 11
-63.833333333333428
 21
53.833333333333314
  0
LINE
  8
_1-7_カバ__
  6
CONTINUOUS
 62
    4
 10
-136.16666666666674
 20
53.833333333333314
 11
-136.16666666666674
 21
57.500000000000057
  0
LINE
  8
_1-7_カバ__
  6
CONTINUOUS
 62
    4
 10
-136.66666666666674
 20
53.3333333333334
 11
-100.0707106781187
 21
53.3333333333334
  0
LINE
  8
_1-7_カバ__
  6
CONTINUOUS
 62
    4
 10
-136.66666666666674
 20
53.3333333333334
 11
-136.66666666666674
 21
58.000000000000028
  0
LINE
  8
_1-7_カバ__
  6
CONTINUOUS
 62
    4
 10
-100.00000000000006
 20
55.5
 11
-100.00000000000006
 21
51.666666666666742
  0
LINE
  8
_1-7_カバ__
  6
DASHED1
 62
    4
 10
-99.250000000000028
 20
53.666666666666657
 11
-98.916666666666771
 21
53.3333333333334
  0
LINE
  8
_1-7_カバ__
  6
DASHED1
 62
    4
 10
-100.75000000000003
 20
53.666666666666657
 11
-101.0833333333333
 21
53.3333333333334
  0
LINE
  8
_1-7_カバ__
  6
DASHED1
 62
    4
 10
-99.250000000000028
 20
53.666666666666657
 11
-99.250000000000028
 21
53.833333333333314
  0
LINE
  8
_1-7_カバ__
  6
DASHED1
 62
    4
 10
-100.75000000000003
 20
53.666666666666657
 11
-100.75000000000003
 21
53.833333333333314
  0
LINE
  8
_1-7_カバ__
  6
DASHED1
 62
    4
 10
-100.75000000000003
 20
53.666666666666657
 11
-99.250000000000028
 21
53.666666666666657
  0
LINE
  8
_1-7_カバ__
  6
CONTINUOUS
 62
    4
 10
-136.16666666666674
 20
57.500000000000028
 11
-133.3333333333334
 21
57.500000000000028
  0
LINE
  8
_1-7_カバ__
  6
CONTINUOUS
 62
    4
 10
-133.3333333333334
 20
57.500000000000028
 11
-133.3333333333334
 21
58.000000000000028
  0
LINE
  8
_1-7_カバ__
  6
CONTINUOUS
 62
    4
 10
-136.66666666666674
 20
58.000000000000028
 11
-133.3333333333334
 21
58.000000000000028
  0
LINE
  8
_1-7_カバ__
  6
CONTINUOUS
 62
    4
 10
-63.833333333333428
 20
57.500000000000028
 11
-66.666666666666742
 21
57.500000000000028
  0
LINE
  8
_1-7_カバ__
  6
CONTINUOUS
 62
    4
 10
-66.666666666666742
 20
57.500000000000028
 11
-66.666666666666742
 21
58.000000000000028
  0
LINE
  8
_1-7_カバ__
  6
CONTINUOUS
 62
    4
 10
-63.333333333333428
 20
58.000000000000028
 11
-66.666666666666742
 21
58.000000000000028
  0
ENDBLK
  0
BLOCK
  2
-012-$QLE_3_
 70
   64
 10
0
 20
0
 30
0
  0
LINE
  8
_1-f_寸法
  6
CONTINUOUS
 62
    4
 10
136.72049766666657
 20
83.833333999999951
 11
139.50748866136774
 21
88.660544003059186
  0
LINE
  8
_1-f_寸法
  6
CONTINUOUS
 62
    4
 10
139.50748866136774
 20
88.660544003059186
 11
159.02748866136773
 21
88.660544003059186
  0
POINT
  8
_1-f_寸法
 62
    4
 10
136.72049766666657
 20
83.833333999999951
  0
TEXT
  8
_1-f_寸法
 62
    4
 10
139.82748866136774
 20
88.660544003059186
 40
3.2000000000000002
 41
1
 50
0
  1
野縁受(別途)
  0
ENDBLK
  0
BLOCK
  2
-013-$QLE_4_
 70
   64
 10
0
 20
0
 30
0
  0
LINE
  8
_1-f_寸法
  6
CONTINUOUS
 62
    4
 10
134.74999966666661
 20
68.250000499999942
 11
138.98427216079642
 21
75.583975592924276
  0
LINE
  8
_1-f_寸法
  6
CONTINUOUS
 62
    4
 10
138.98427216079642
 20
75.583975592924276
 11
155.30427216079636
 21
75.583975592924276
  0
POINT
  8
_1-f_寸法
 62
    4
 10
134.74999966666661
 20
68.250000499999942
  0
TEXT
  8
_1-f_寸法
 62
    4
 10
139.30427216079647
 20
75.583975592924276
 40
3.2000000000000002
 41
1
 50
0
  1
野縁(別途)
  0
ENDBLK
  0
BLOCK
  2
-014-$QLE_5_
 70
   64
 10
0
 20
0
 30
0
  0
LINE
  8
_1-f_寸法
  6
CONTINUOUS
 62
    4
 10
143.33333316666665
 20
64.833333666666618
 11
145.19337540363654
 21
68.055021325322457
  0
LINE
  8
_1-f_寸法
  6
CONTINUOUS
 62
    4
 10
145.19337540363654
 20
68.055021325322457
 11
161.51337540363653
 21
68.055021325322457
  0
POINT
  8
_1-f_寸法
 62
    4
 10
143.33333316666665
 20
64.833333666666618
  0
TEXT
  8
_1-f_寸法
 62
    4
 10
145.51337540363653
 20
68.055021325322457
 40
3.2000000000000002
 41
1
 50
0
  1
天井仕上面
  0
ENDBLK
  0
BLOCK
  2
-015-_9_
 70
   64
 10
0
 20
0
 30
0
  0
LINE
  8
_1-8_小物
  6
CONTINUOUS
 62
    4
 10
115.16666667103306
 20
53.333333253866442
 11
113.16666667103306
 21
53.333333253866442
  0
LINE
  8
_1-8_小物
  6
CONTINUOUS
 62
    4
 10
113.16666667103317
 20
53.333333253866442
 11
113.16666667103317
 21
53.399999920533133
  0
LINE
  8
_1-8_小物
  6
CONTINUOUS
 62
    4
 10
115.16666667103294
 20
53.399999920533133
 11
114.66666667103294
 21
53.899999920533133
  0
LINE
  8
_1-8_小物
  6
CONTINUOUS
 62
    4
 10
114.66666667103294
 20
53.899999920533133
 11
113.66666667103317
 21
53.899999920533133
  0
LINE
  8
_1-8_小物
  6
CONTINUOUS
 62
    4
 10
113.16666667103317
 20
53.399999920533133
 11
113.66666667103317
 21
53.899999920533133
  0
LINE
  8
_1-8_小物
  6
CONTINUOUS
 62
    4
 10
115.16666667103294
 20
53.399999920533133
 11
115.16666667103294
 21
53.333333253866442
  0
LINE
  8
_1-8_小物
  6
CONTINUOUS
 62
    4
 10
113.16666667103317
 20
53.399999920533133
 11
115.16666667103294
 21
53.399999920533133
  0
LINE
  8
_1-8_小物
  6
CONTINUOUS
 62
    4
 10
113.66666667103317
 20
56.964246598708826
 11
113.47916667103306
 21
57.072499920533119
  0
LINE
  8
_1-8_小物
  6
CONTINUOUS
 62
    4
 10
113.47916667103306
 20
57.072499920533119
 11
113.66666667103306
 21
57.180753242357355
  0
LINE
  8
_1-8_小物
  6
CONTINUOUS
 62
    4
 10
113.66666667103317
 20
56.964246598708826
 11
114.66666667103294
 21
57.199246598708783
  0
LINE
  8
_1-8_小物
  6
CONTINUOUS
 62
    4
 10
114.85416667103306
 20
57.307499920533076
 11
114.66666667103294
 21
57.199246598708783
  0
LINE
  8
_1-8_小物
  6
CONTINUOUS
 62
    4
 10
114.66666667103294
 20
57.415753242357368
 11
114.85416667103306
 21
57.307499920533076
  0
LINE
  8
_1-8_小物
  6
CONTINUOUS
 62
    4
 10
113.66666667103306
 20
57.180753242357355
 11
114.66666667103294
 21
57.415753242357368
  0
LINE
  8
_1-8_小物
  6
CONTINUOUS
 62
    4
 10
113.47916667103306
 20
57.072499920533119
 11
114.85416667103306
 21
57.307499920533076
  0
LINE
  8
_1-8_小物
  6
CONTINUOUS
 62
    4
 10
113.66666667103317
 20
56.494246598708799
 11
113.47916667103306
 21
56.602499920533091
  0
LINE
  8
_1-8_小物
  6
CONTINUOUS
 62
    4
 10
113.47916667103306
 20
56.602499920533091
 11
113.66666667103306
 21
56.710753242357356
  0
LINE
  8
_1-8_小物
  6
CONTINUOUS
 62
    4
 10
113.66666667103317
 20
56.494246598708799
 11
114.66666667103294
 21
56.729246598708784
  0
LINE
  8
_1-8_小物
  6
CONTINUOUS
 62
    4
 10
114.85416667103306
 20
56.837499920533048
 11
114.66666667103294
 21
56.729246598708784
  0
LINE
  8
_1-8_小物
  6
CONTINUOUS
 62
    4
 10
114.66666667103294
 20
56.945753242357341
 11
114.85416667103306
 21
56.837499920533048
  0
LINE
  8
_1-8_小物
  6
CONTINUOUS
 62
    4
 10
113.66666667103306
 20
56.710753242357356
 11
114.66666667103294
 21
56.945753242357341
  0
LINE
  8
_1-8_小物
  6
CONTINUOUS
 62
    4
 10
113.47916667103306
 20
56.602499920533091
 11
114.85416667103306
 21
56.837499920533048
  0
LINE
  8
_1-8_小物
  6
CONTINUOUS
 62
    4
 10
113.66666667103317
 20
56.024246598708828
 11
113.47916667103306
 21
56.132499920533121
  0
LINE
  8
_1-8_小物
  6
CONTINUOUS
 62
    4
 10
113.47916667103306
 20
56.132499920533121
 11
113.66666667103306
 21
56.240753242357414
  0
LINE
  8
_1-8_小物
  6
CONTINUOUS
 62
    4
 10
113.66666667103317
 20
56.024246598708828
 11
114.66666667103294
 21
56.259246598708842
  0
LINE
  8
_1-8_小物
  6
CONTINUOUS
 62
    4
 10
114.85416667103306
 20
56.367499920533078
 11
114.66666667103294
 21
56.259246598708842
  0
LINE
  8
_1-8_小物
  6
CONTINUOUS
 62
    4
 10
114.66666667103294
 20
56.475753242357371
 11
114.85416667103306
 21
56.367499920533078
  0
LINE
  8
_1-8_小物
  6
CONTINUOUS
 62
    4
 10
113.66666667103306
 20
56.240753242357414
 11
114.66666667103294
 21
56.475753242357371
  0
LINE
  8
_1-8_小物
  6
CONTINUOUS
 62
    4
 10
113.47916667103306
 20
56.132499920533121
 11
114.85416667103306
 21
56.367499920533078
  0
LINE
  8
_1-8_小物
  6
CONTINUOUS
 62
    4
 10
113.66666667103317
 20
55.554246598708829
 11
113.47916667103306
 21
55.662499920533094
  0
LINE
  8
_1-8_小物
  6
CONTINUOUS
 62
    4
 10
113.47916667103306
 20
55.662499920533094
 11
113.66666667103306
 21
55.770753242357387
  0
LINE
  8
_1-8_小物
  6
CONTINUOUS
 62
    4
 10
113.66666667103317
 20
55.554246598708829
 11
114.66666667103294
 21
55.789246598708814
  0
LINE
  8
_1-8_小物
  6
CONTINUOUS
 62
    4
 10
114.85416667103306
 20
55.897499920533079
 11
114.66666667103294
 21
55.789246598708814
  0
LINE
  8
_1-8_小物
  6
CONTINUOUS
 62
    4
 10
114.66666667103294
 20
56.005753242357343
 11
114.85416667103306
 21
55.897499920533079
  0
LINE
  8
_1-8_小物
  6
CONTINUOUS
 62
    4
 10
113.66666667103306
 20
55.770753242357387
 11
114.66666667103294
 21
56.005753242357343
  0
LINE
  8
_1-8_小物
  6
CONTINUOUS
 62
    4
 10
113.47916667103306
 20
55.662499920533094
 11
114.85416667103306
 21
55.897499920533079
  0
LINE
  8
_1-8_小物
  6
CONTINUOUS
 62
    4
 10
113.66666667103317
 20
55.084246598708887
 11
113.47916667103306
 21
55.192499920533123
  0
LINE
  8
_1-8_小物
  6
CONTINUOUS
 62
    4
 10
113.47916667103306
 20
55.192499920533123
 11
113.66666667103306
 21
55.300753242357416
  0
LINE
  8
_1-8_小物
  6
CONTINUOUS
 62
    4
 10
113.66666667103317
 20
55.084246598708887
 11
114.66666667103294
 21
55.319246598708844
  0
LINE
  8
_1-8_小物
  6
CONTINUOUS
 62
    4
 10
114.85416667103306
 20
55.427499920533137
 11
114.66666667103294
 21
55.319246598708844
  0
LINE
  8
_1-8_小物
  6
CONTINUOUS
 62
    4
 10
114.66666667103294
 20
55.535753242357373
 11
114.85416667103306
 21
55.427499920533137
  0
LINE
  8
_1-8_小物
  6
CONTINUOUS
 62
    4
 10
113.66666667103306
 20
55.300753242357416
 11
114.66666667103294
 21
55.535753242357373
  0
LINE
  8
_1-8_小物
  6
CONTINUOUS
 62
    4
 10
113.47916667103306
 20
55.192499920533123
 11
114.85416667103306
 21
55.427499920533137
  0
LINE
  8
_1-8_小物
  6
CONTINUOUS
 62
    4
 10
113.66666667103317
 20
54.61424659870886
 11
113.47916667103306
 21
54.722499920533124
  0
LINE
  8
_1-8_小物
  6
CONTINUOUS
 62
    4
 10
113.47916667103306
 20
54.722499920533124
 11
113.66666667103306
 21
54.830753242357389
  0
LINE
  8
_1-8_小物
  6
CONTINUOUS
 62
    4
 10
113.66666667103317
 20
54.61424659870886
 11
114.66666667103294
 21
54.849246598708817
  0
LINE
  8
_1-8_小物
  6
CONTINUOUS
 62
    4
 10
114.85416667103306
 20
54.95749992053311
 11
114.66666667103294
 21
54.849246598708817
  0
LINE
  8
_1-8_小物
  6
CONTINUOUS
 62
    4
 10
114.66666667103294
 20
55.065753242357374
 11
114.85416667103306
 21
54.95749992053311
  0
LINE
  8
_1-8_小物
  6
CONTINUOUS
 62
    4
 10
113.66666667103306
 20
54.830753242357389
 11
114.66666667103294
 21
55.065753242357374
  0
LINE
  8
_1-8_小物
  6
CONTINUOUS
 62
    4
 10
113.47916667103306
 20
54.722499920533124
 11
114.85416667103306
 21
54.95749992053311
  0
LINE
  8
_1-8_小物
  6
CONTINUOUS
 62
    4
 10
113.66666667103317
 20
54.144246598708889
 11
113.47916667103306
 21
54.252499920533182
  0
LINE
  8
_1-8_小物
  6
CONTINUOUS
 62
    4
 10
113.47916667103306
 20
54.252499920533182
 11
113.66666667103306
 21
54.360753242357418
  0
LINE
  8
_1-8_小物
  6
CONTINUOUS
 62
    4
 10
113.66666667103317
 20
54.144246598708889
 11
114.66666667103294
 21
54.379246598708846
  0
LINE
  8
_1-8_小物
  6
CONTINUOUS
 62
    4
 10
114.85416667103306
 20
54.487499920533139
 11
114.66666667103294
 21
54.379246598708846
  0
LINE
  8
_1-8_小物
  6
CONTINUOUS
 62
    4
 10
114.66666667103294
 20
54.595753242357432
 11
114.85416667103306
 21
54.487499920533139
  0
LINE
  8
_1-8_小物
  6
CONTINUOUS
 62
    4
 10
113.66666667103306
 20
54.360753242357418
 11
114.66666667103294
 21
54.595753242357432
  0
LINE
  8
_1-8_小物
  6
CONTINUOUS
 62
    4
 10
113.47916667103306
 20
54.252499920533182
 11
114.85416667103306
 21
54.487499920533139
  0
LINE
  8
_1-8_小物
  6
CONTINUOUS
 62
    4
 10
114.66666667103294
 20
57.415753242357368
 11
114.66666667103294
 21
57.669246598708753
  0
LINE
  8
_1-8_小物
  6
CONTINUOUS
 62
    4
 10
114.66666667103294
 20
56.945753242357341
 11
114.66666667103294
 21
57.199246598708783
  0
LINE
  8
_1-8_小物
  6
CONTINUOUS
 62
    4
 10
114.66666667103294
 20
56.475753242357371
 11
114.66666667103294
 21
56.729246598708755
  0
LINE
  8
_1-8_小物
  6
CONTINUOUS
 62
    4
 10
114.66666667103294
 20
56.005753242357343
 11
114.66666667103294
 21
56.259246598708842
  0
LINE
  8
_1-8_小物
  6
CONTINUOUS
 62
    4
 10
114.66666667103294
 20
55.535753242357373
 11
114.66666667103294
 21
55.789246598708814
  0
LINE
  8
_1-8_小物
  6
CONTINUOUS
 62
    4
 10
114.66666667103294
 20
55.065753242357374
 11
114.66666667103294
 21
55.319246598708844
  0
LINE
  8
_1-8_小物
  6
CONTINUOUS
 62
    4
 10
114.66666667103294
 20
53.899999920533133
 11
114.66666667103294
 21
54.379246598708846
  0
LINE
  8
_1-8_小物
  6
CONTINUOUS
 62
    4
 10
114.66666667103294
 20
54.595753242357432
 11
114.66666667103294
 21
54.849246598708817
  0
LINE
  8
_1-8_小物
  6
CONTINUOUS
 62
    4
 10
113.66666667103317
 20
53.899999920533133
 11
113.66666667103317
 21
54.144246598708889
  0
LINE
  8
_1-8_小物
  6
CONTINUOUS
 62
    4
 10
113.66666667103317
 20
54.360753242357447
 11
113.66666667103317
 21
54.61424659870886
  0
LINE
  8
_1-8_小物
  6
CONTINUOUS
 62
    4
 10
113.66666667103317
 20
54.830753242357389
 11
113.66666667103317
 21
55.084246598708887
  0
LINE
  8
_1-8_小物
  6
CONTINUOUS
 62
    4
 10
113.66666667103317
 20
55.300753242357416
 11
113.66666667103317
 21
55.554246598708829
  0
LINE
  8
_1-8_小物
  6
CONTINUOUS
 62
    4
 10
113.66666667103317
 20
55.770753242357387
 11
113.66666667103317
 21
56.024246598708828
  0
LINE
  8
_1-8_小物
  6
CONTINUOUS
 62
    4
 10
113.66666667103317
 20
56.240753242357414
 11
113.66666667103317
 21
56.494246598708799
  0
LINE
  8
_1-8_小物
  6
CONTINUOUS
 62
    4
 10
113.66666667103317
 20
56.710753242357441
 11
113.66666667103317
 21
56.964246598708826
  0
LINE
  8
_1-8_小物
  6
CONTINUOUS
 62
    4
 10
113.60000000436645
 20
57.673333253866446
 11
113.60000000436645
 21
58.669999920533115
  0
LINE
  8
_1-8_小物
  6
CONTINUOUS
 62
    4
 10
114.73333333769955
 20
57.673333253866446
 11
113.60000000436645
 21
57.673333253866446
  0
LINE
  8
_1-8_小物
  6
CONTINUOUS
 62
    4
 10
114.73333333769955
 20
57.673333253866446
 11
114.73333333769955
 21
58.669999920533115
  0
LINE
  8
_1-8_小物
  6
CONTINUOUS
 62
    4
 10
114.73333333769955
 20
58.669999920533115
 11
114.16666667103306
 21
58.997165073073859
  0
LINE
  8
_1-8_小物
  6
CONTINUOUS
 62
    4
 10
113.60000000436645
 20
58.669999920533115
 11
114.16666667103306
 21
58.997165073073859
  0
LINE
  8
_1-8_小物
  6
CONTINUOUS
 62
    4
 10
114.16666667103306
 20
58.881695019235906
 11
113.70000000436636
 21
58.612264893614167
  0
LINE
  8
_1-8_小物
  6
CONTINUOUS
 62
    4
 10
113.70000000436636
 20
57.673333253866446
 11
113.70000000436636
 21
58.612264893614167
  0
LINE
  8
_1-8_小物
  6
CONTINUOUS
 62
    4
 10
114.16666667103306
 20
58.881695019235906
 11
113.95359988934189
 21
57.673333253866446
  0
LINE
  8
_1-8_小物
  6
CONTINUOUS
 62
    4
 10
113.66666667103317
 20
57.180753242357383
 11
113.66666667103317
 21
57.673333253866446
  0
LINE
  8
_1-8_小物
  6
CONTINUOUS
 62
    4
 10
114.16666667103306
 20
58.997165073073859
 11
114.16666667103306
 21
58.881695019235906
  0
LINE
  8
_1-8_小物
  6
CENTER2
 62
    4
 10
114.16666667103306
 20
52.999999920533128
 11
114.16666667103306
 21
59.330498406407173
  0
ENDBLK
  0
BLOCK
  2
-016-_10_
 70
   64
 10
0
 20
0
 30
0
  0
ARC
  8
_1-8_小物
  6
CONTINUOUS
 62
    4
 10
-66.666666666666742
 20
57.900000000000034
 40
0.0999999999999999
 50
90
 51
180.00000000001629
  0
ARC
  8
_1-8_小物
  6
CONTINUOUS
 62
    4
 10
-64.000000000000114
 20
58.666666666666686
 40
0.1666666666666666
 50
270
 51
0
  0
ARC
  8
_1-8_小物
  6
CONTINUOUS
 62
    4
 10
-64.000000000000114
 20
58.666666666666686
 40
0.6666666666666666
 50
270
 51
0
  0
ARC
  8
_1-8_小物
  6
CONTINUOUS
 62
    4
 10
-66.600000000000108
 20
58.000000000000028
 40
0.5
 50
90
 51
180
  0
ARC
  8
_1-8_小物
  6
CONTINUOUS
 62
    4
 10
-64.646905692383257
 20
57.333345771630235
 40
0.3333333333333333
 50
4.5242577737897873
 51
94.524257773794673
  0
LINE
  8
_1-8_小物
  6
CONTINUOUS
 62
    4
 10
-66.766666666666765
 20
57.608214496870033
 11
-66.766666666666765
 21
57.900000000000034
  0
ARC
  8
_1-8_小物
  6
CONTINUOUS
 62
    4
 10
-66.666666666666742
 20
57.608214496870033
 40
0.0999999999999999
 50
180
 51
274.52425777377272
  0
LINE
  8
_1-8_小物
  6
CONTINUOUS
 62
    4
 10
-64.000000000000114
 20
58.000000000000028
 11
-66.666666666666742
 21
58.000000000000028
  0
LINE
  8
_1-8_小物
  6
CONTINUOUS
 62
    4
 10
-64.673199412907309
 20
57.665640447139936
 11
-66.658778550509595
 21
57.508526094217132
  0
ARC
  8
_1-8_小物
  6
CONTINUOUS
 62
    4
 10
-64.861106360873293
 20
57.082333894406588
 40
0.1666666666666666
 50
4.5242577737849174
 51
94.524257773794673
  0
LINE
  8
_1-8_小物
  6
CONTINUOUS
 62
    4
 10
-64.874253221135291
 20
57.248481232161481
 11
-66.74037294614277
 21
57.100819430363373
  0
LINE
  8
_1-8_小物
  6
CONTINUOUS
 62
    4
 10
-67.100000000000108
 20
57.433114105873102
 11
-67.100000000000108
 21
58.000000000000028
  0
ARC
  8
_1-8_小物
  6
CONTINUOUS
 62
    4
 10
-66.766666666666765
 20
57.433114105873102
 40
0.3333333333333333
 50
180
 51
274.52425777378983
  0
LINE
  8
_1-8_小物
  6
CONTINUOUS
 62
    4
 10
-64.314611016873528
 20
57.35963949215423
 11
-64.290946668401943
 21
57.060574284195468
  0
LINE
  8
_1-8_小物
  6
CONTINUOUS
 62
    4
 10
-64.694959023118429
 20
57.095480754668557
 11
-64.689700279013607
 21
57.02902181956668
  0
ARC
  8
_1-8_小物
  6
CONTINUOUS
 62
    4
 10
-64.490323473707775
 20
57.044798051881031
 40
0.1999999999999963
 50
184.52425777378016
 51
4.5242577737801639
  0
LINE
  8
_1-8_小物
  6
CONTINUOUS
 62
    4
 10
-66.100000000000108
 20
58.666666666666686
 11
-66.266666666666765
 21
58.500000000000028
  0
LINE
  8
_1-8_小物
  6
CONTINUOUS
 62
    4
 10
-66.100000000000108
 20
58.666666666666686
 11
-65.933333333333451
 21
58.500000000000028
  0
LINE
  8
_1-8_小物
  6
CONTINUOUS
 62
    4
 10
-64.000000000000114
 20
58.500000000000028
 11
-65.933333333333451
 21
58.500000000000028
  0
LINE
  8
_1-8_小物
  6
CONTINUOUS
 62
    4
 10
-66.266666666666765
 20
58.500000000000028
 11
-66.600000000000108
 21
58.500000000000028
  0
ARC
  8
_1-8_小物
  6
CONTINUOUS
 62
    4
 10
-64.245355809144769
 20
62.125337073210517
 40
0.4999999999999946
 50
9.360190801915131
 51
169.36019080191218
  0
LINE
  8
_1-8_小物
  6
CONTINUOUS
 62
    4
 10
-63.833333333333456
 20
59.625734053288312
 11
-64.214609814719211
 21
61.938811373695444
  0
ARC
  8
_1-8_小物
  6
CONTINUOUS
 62
    4
 10
-64.247499328139213
 20
61.933390025329487
 40
0.0333333333333333
 50
9.3601908019509352
 51
169.36019080188521
  0
ARC
  8
_1-8_小物
  6
CONTINUOUS
 62
    4
 10
-64.721850448685359
 20
60.942986508238761
 40
0.25
 50
169.3601908019134
 51
349.36019080191221
  0
LINE
  8
_1-8_小物
  6
CONTINUOUS
 62
    4
 10
-64.96755227423921
 20
60.98914507103612
 11
-64.736759460252415
 21
62.217654198805235
  0
LINE
  8
_1-8_小物
  6
CONTINUOUS
 62
    4
 10
-63.333333333333456
 20
59.666666666666686
 11
-63.752013107844334
 21
62.206657298699611
  0
LINE
  8
_1-8_小物
  6
CONTINUOUS
 62
    4
 10
-64.476148623131564
 20
60.896827945441402
 11
-64.280259571546424
 21
61.939544500369152
  0
LINE
  8
_1-8_小物
  6
CONTINUOUS
 62
    4
 10
-63.833333333333456
 20
58.666666666666686
 11
-63.833333333333456
 21
59.625734053288312
  0
LINE
  8
_1-8_小物
  6
CONTINUOUS
 62
    4
 10
-63.333333333333456
 20
58.666666666666686
 11
-63.333333333333456
 21
59.666666666666686
  0
ENDBLK
  0
BLOCK
  2
-017-_11_
 70
   64
 10
0
 20
0
 30
0
  0
ARC
  8
_1-8_小物
  6
CONTINUOUS
 62
    4
 10
-133.3333333333334
 20
57.900000000000034
 40
0.0999999999999999
 50
0
 51
90
  0
ARC
  8
_1-8_小物
  6
CONTINUOUS
 62
    4
 10
-136.00000000000003
 20
58.666666666666686
 40
0.1666666666666666
 50
180
 51
270
  0
ARC
  8
_1-8_小物
  6
CONTINUOUS
 62
    4
 10
-136.00000000000003
 20
58.666666666666686
 40
0.6666666666666666
 50
180
 51
270
  0
ARC
  8
_1-8_小物
  6
CONTINUOUS
 62
    4
 10
-133.40000000000006
 20
58.000000000000028
 40
0.5
 50
0
 51
90
  0
ARC
  8
_1-8_小物
  6
CONTINUOUS
 62
    4
 10
-135.35309430761689
 20
57.333345771630235
 40
0.3333333333333333
 50
85.475742226210215
 51
175.47574222621023
  0
LINE
  8
_1-8_小物
  6
CONTINUOUS
 62
    4
 10
-133.23333333333338
 20
57.608214496870033
 11
-133.23333333333338
 21
57.900000000000034
  0
ARC
  8
_1-8_小物
  6
CONTINUOUS
 62
    4
 10
-133.3333333333334
 20
57.608214496870033
 40
0.0999999999999999
 50
265.47574222621108
 51
0
  0
LINE
  8
_1-8_小物
  6
CONTINUOUS
 62
    4
 10
-136.00000000000003
 20
58.000000000000028
 11
-133.3333333333334
 21
58.000000000000028
  0
LINE
  8
_1-8_小物
  6
CONTINUOUS
 62
    4
 10
-135.32680058709286
 20
57.665640447139936
 11
-133.34122144949058
 21
57.508526094217132
  0
ARC
  8
_1-8_小物
  6
CONTINUOUS
 62
    4
 10
-135.13889363912688
 20
57.082333894406588
 40
0.1666666666666666
 50
85.47574222621509
 51
175.47574222621509
  0
LINE
  8
_1-8_小物
  6
CONTINUOUS
 62
    4
 10
-135.12574677886485
 20
57.248481232161481
 11
-133.25962705385737
 21
57.100819430363373
  0
LINE
  8
_1-8_小物
  6
CONTINUOUS
 62
    4
 10
-132.90000000000006
 20
57.433114105873102
 11
-132.90000000000006
 21
58.000000000000028
  0
ARC
  8
_1-8_小物
  6
CONTINUOUS
 62
    4
 10
-133.23333333333338
 20
57.433114105873102
 40
0.3333333333333333
 50
265.47574222621017
 51
0
  0
LINE
  8
_1-8_小物
  6
CONTINUOUS
 62
    4
 10
-135.68538898312661
 20
57.35963949215423
 11
-135.7090533315982
 21
57.060574284195468
  0
LINE
  8
_1-8_小物
  6
CONTINUOUS
 62
    4
 10
-135.30504097688174
 20
57.095480754668557
 11
-135.31029972098656
 21
57.02902181956668
  0
ARC
  8
_1-8_小物
  6
CONTINUOUS
 62
    4
 10
-135.5096765262924
 20
57.044798051881031
 40
0.1999999999999963
 50
175.47574222621984
 51
355.47574222621984
  0
LINE
  8
_1-8_小物
  6
CONTINUOUS
 62
    4
 10
-133.90000000000006
 20
58.666666666666686
 11
-133.73333333333338
 21
58.500000000000028
  0
LINE
  8
_1-8_小物
  6
CONTINUOUS
 62
    4
 10
-133.90000000000006
 20
58.666666666666686
 11
-134.06666666666672
 21
58.500000000000028
  0
LINE
  8
_1-8_小物
  6
CONTINUOUS
 62
    4
 10
-136.00000000000003
 20
58.500000000000028
 11
-134.06666666666672
 21
58.500000000000028
  0
LINE
  8
_1-8_小物
  6
CONTINUOUS
 62
    4
 10
-133.73333333333338
 20
58.500000000000028
 11
-133.40000000000006
 21
58.500000000000028
  0
ARC
  8
_1-8_小物
  6
CONTINUOUS
 62
    4
 10
-135.7546441908554
 20
62.125337073210517
 40
0.4999999999999946
 50
10.639809198087802
 51
170.6398091980854
  0
LINE
  8
_1-8_小物
  6
CONTINUOUS
 62
    4
 10
-136.16666666666671
 20
59.625734053288312
 11
-135.78539018528093
 21
61.938811373695444
  0
ARC
  8
_1-8_小物
  6
CONTINUOUS
 62
    4
 10
-135.75250067186096
 20
61.933390025329487
 40
0.0333333333333333
 50
10.639809198123826
 51
170.63980919805701
  0
ARC
  8
_1-8_小物
  6
CONTINUOUS
 62
    4
 10
-135.27814955131478
 20
60.942986508238761
 40
0.25
 50
190.63980919808779
 51
10.639809198087789
  0
LINE
  8
_1-8_小物
  6
CONTINUOUS
 62
    4
 10
-135.03244772576093
 20
60.98914507103612
 11
-135.26324053974773
 21
62.217654198805235
  0
LINE
  8
_1-8_小物
  6
CONTINUOUS
 62
    4
 10
-136.66666666666671
 20
59.666666666666686
 11
-136.24798689215584
 21
62.206657298699611
  0
LINE
  8
_1-8_小物
  6
CONTINUOUS
 62
    4
 10
-135.52385137686861
 20
60.896827945441402
 11
-135.71974042845375
 21
61.939544500369152
  0
LINE
  8
_1-8_小物
  6
CONTINUOUS
 62
    4
 10
-136.16666666666671
 20
58.666666666666686
 11
-136.16666666666671
 21
59.625734053288312
  0
LINE
  8
_1-8_小物
  6
CONTINUOUS
 62
    4
 10
-136.66666666666671
 20
58.666666666666686
 11
-136.66666666666671
 21
59.666666666666686
  0
ENDBLK
  0
BLOCK
  2
-018-_12_
 70
   64
 10
0
 20
0
 30
0
  0
LINE
  8
_1-8_小物
  6
CONTINUOUS
 62
    4
 10
84.366666666666447
 20
54.499999920532701
 11
84.366666666666447
 21
48.499999920533384
  0
LINE
  8
_1-8_小物
  6
CONTINUOUS
 62
    4
 10
84.366666666666447
 20
48.499999920533384
 11
83.866666666666333
 21
48.499999920533384
  0
ARC
  8
_1-8_小物
  6
CONTINUOUS
 62
    4
 10
83.733333830861284
 20
51.499999920533043
 40
1.5999999999998398
 50
324.29996100000506
 51
0
  0
ARC
  8
_1-8_小物
  6
CONTINUOUS
 62
    4
 10
84.382999830861309
 20
51.966832920533108
 40
0.7999999999999201
 50
35.70005899999191
 51
91.169858000005462
  0
ARC
  8
_1-8_小物
  6
CONTINUOUS
 62
    4
 10
83.733333830861284
 20
51.499999920533043
 40
1.5999999999998398
 50
0
 51
35.700039000000658
  0
ARC
  8
_1-8_小物
  6
CONTINUOUS
 62
    4
 10
84.382999830861309
 20
51.033166920532977
 40
0.7999999999999201
 50
268.83014199999451
 51
324.29994100000806
  0
LINE
  8
_1-8_小物
  6
CONTINUOUS
 62
    4
 10
84.366666666666447
 20
54.499999920532701
 11
83.866666666666333
 21
54.499999920532701
  0
LINE
  8
_1-8_小物
  6
CONTINUOUS
 62
    4
 10
83.866666666666333
 20
54.499999920532701
 11
83.866666666666333
 21
48.499999920533384
  0
LINE
  8
_1-8_小物
  6
CONTINUOUS
 62
    4
 10
84.366666666666333
 20
50.583333253865732
 11
83.866666666666333
 21
50.583333253865732
  0
LINE
  8
_1-8_小物
  6
CONTINUOUS
 62
    4
 10
84.366666666666333
 20
52.416666587199359
 11
83.866666666666333
 21
52.416666587199359
  0
ENDBLK
  0
BLOCK
  2
-019-_13_
 70
   64
 10
0
 20
0
 30
0
  0
LINE
  8
_1-8_小物
  6
CONTINUOUS
 62
    4
 10
81.284244333333049
 20
49.919414920533228
 11
79.633239333333108
 21
50.155272920533235
  0
LINE
  8
_1-8_小物
  6
CONTINUOUS
 62
    4
 10
78.383239333334245
 20
50.344190920533293
 11
79.547734333334347
 21
49.920349920533255
  0
LINE
  8
_1-8_小物
  6
CONTINUOUS
 62
    4
 10
79.547734333334347
 20
49.920349920533255
 11
81.248639333333244
 21
49.672260920533319
  0
ARC
  8
_1-8_小物
  6
CONTINUOUS
 62
    4
 10
81.270102333333057
 20
49.820419920533169
 40
0.0999999999999899
 50
351.86989799997593
 51
81.86989800004045
  0
LINE
  8
_1-8_小物
  6
CONTINUOUS
 62
    4
 10
81.36206733333313
 20
49.757071920533377
 11
81.369096333333346
 21
49.80627792053329
  0
ARC
  8
_1-8_小物
  6
CONTINUOUS
 62
    4
 10
81.263072333333071
 20
49.771213920533256
 40
0.0999999999999899
 50
261.70153400002863
 51
351.86989800004045
  0
LINE
  8
_1-8_小物
  6
CONTINUOUS
 62
    4
 10
74.139063333334207
 20
52.878230920532843
 11
73.613580333334198
 21
52.405084920533028
  0
LINE
  8
_1-8_小物
  6
CONTINUOUS
 62
    4
 10
73.593954333334295
 20
52.030603920533082
 11
81.333333333333258
 21
51.624999920533156
  0
LINE
  8
_1-8_小物
  6
CONTINUOUS
 62
    4
 10
74.139063333334207
 20
52.878235920532831
 11
73.613580333334198
 21
52.405089920533015
  0
LINE
  8
_1-8_小物
  6
CONTINUOUS
 62
    4
 10
73.593954333334295
 20
50.969395920533003
 11
81.333333333333258
 21
51.374999920533043
  0
LINE
  8
_1-8_小物
  6
CONTINUOUS
 62
    4
 10
74.139063333334207
 20
50.121762920533257
 11
73.613580333334198
 21
50.59490992053307
  0
LINE
  8
_1-8_小物
  6
CONTINUOUS
 62
    4
 10
81.284244333333049
 20
53.080584920532857
 11
79.633239333333108
 21
52.84472692053285
  0
LINE
  8
_1-8_小物
  6
CONTINUOUS
 62
    4
 10
79.547734333334347
 20
53.079649920533058
 11
81.248639333333244
 21
53.327738920532994
  0
LINE
  8
_1-8_小物
  6
CONTINUOUS
 62
    4
 10
80.104672333334179
 20
52.064905920533107
 11
79.605358333334152
 21
52.091073920532864
  0
LINE
  8
_1-8_小物
  6
CONTINUOUS
 62
    4
 10
80.104672333334179
 20
50.935093920532978
 11
79.605358333334152
 21
50.908925920533221
  0
LINE
  8
_1-8_小物
  6
CONTINUOUS
 62
    4
 10
83.333333333333144
 20
52.499999920532815
 11
80.333333333333144
 21
52.499999920532815
  0
LINE
  8
_1-8_小物
  6
CONTINUOUS
 62
    4
 10
83.333333333333144
 20
50.499999920533156
 11
80.333333333333144
 21
50.499999920533156
  0
ARC
  8
_1-8_小物
  6
CONTINUOUS
 62
    4
 10
81.270102333333057
 20
53.179579920532916
 40
0.0999999999999899
 50
278.13010199995955
 51
8.1301020000240669
  0
LINE
  8
_1-8_小物
  6
CONTINUOUS
 62
    4
 10
81.36206733333313
 20
53.242927920532935
 11
81.369096333333346
 21
53.193721920533022
  0
ARC
  8
_1-8_小物
  6
CONTINUOUS
 62
    4
 10
81.263072333333071
 20
53.228785920533056
 40
0.0999999999999899
 50
8.1301019999595656
 51
98.298465999971356
  0
LINE
  8
_1-8_小物
  6
CONTINUOUS
 62
    4
 10
81.333333333333258
 20
51.624999920533156
 11
81.333333333333258
 21
51.499999920533043
  0
LINE
  8
_1-8_小物
  6
CONTINUOUS
 62
    4
 10
83.333333333333144
 20
52.749999920532929
 11
82.083333333333258
 21
52.499999920532815
  0
LINE
  8
_1-8_小物
  6
CONTINUOUS
 62
    4
 10
83.333333333333144
 20
51.749999920533043
 11
82.083333333333258
 21
51.499999920533043
  0
LINE
  8
_1-8_小物
  6
CONTINUOUS
 62
    4
 10
83.333333333333144
 20
51.249999920533156
 11
82.083333333333258
 21
51.499999920533043
  0
LINE
  8
_1-8_小物
  6
CONTINUOUS
 62
    4
 10
82.083333333333258
 20
51.499999920533043
 11
83.333333333333144
 21
51.499999920533043
  0
LINE
  8
_1-8_小物
  6
CONTINUOUS
 62
    4
 10
81.333333333333258
 20
51.374999920533043
 11
81.333333333333258
 21
51.499999920533043
  0
LINE
  8
_1-8_小物
  6
CONTINUOUS
 62
    4
 10
83.333333333333144
 20
50.249999920533156
 11
82.083333333333258
 21
50.499999920533156
  0
LINE
  8
_1-8_小物
  6
CONTINUOUS
 62
    4
 10
80.333333333333144
 20
52.499999920532815
 11
80.104672333334179
 21
52.064905920533107
  0
LINE
  8
_1-8_小物
  6
CONTINUOUS
 62
    4
 10
80.333333333333144
 20
50.499999920533156
 11
80.104672333334179
 21
50.935093920532978
  0
LINE
  8
_1-8_小物
  6
CONTINUOUS
 62
    4
 10
74.333333333334167
 20
51.499999920533043
 11
74.800694698606321
 21
51.032638555260888
  0
LINE
  8
_1-8_小物
  6
CONTINUOUS
 62
    4
 10
78.369025370797317
 20
52.384590458903091
 11
79.633239333333108
 21
52.84472692053285
  0
LINE
  8
_1-8_小物
  6
CONTINUOUS
 62
    4
 10
78.369025370797317
 20
50.615409382163222
 11
79.633239333333108
 21
50.155272920533235
  0
LINE
  8
_1-8_小物
  6
CONTINUOUS
 62
    4
 10
74.093269333334206
 20
52.004435920532984
 11
74.139063333334207
 21
52.878235920532831
  0
LINE
  8
_1-8_小物
  6
CONTINUOUS
 62
    4
 10
75.886665333334236
 20
52.786648920533054
 11
75.387350333334325
 21
52.812816920532924
  0
LINE
  8
_1-8_小物
  6
CONTINUOUS
 62
    4
 10
74.093269333334206
 20
50.995563920533101
 11
74.139063333334207
 21
50.121762920533257
  0
LINE
  8
_1-8_小物
  6
CONTINUOUS
 62
    4
 10
75.886665333334236
 20
50.213350920533259
 11
75.387350333334325
 21
50.187182920533161
  0
LINE
  8
_1-8_小物
  6
CONTINUOUS
 62
    4
 10
74.800694333334036
 20
51.967360920533025
 11
74.333333333334167
 21
51.499999920533043
  0
LINE
  8
_1-8_小物
  6
CONTINUOUS
 62
    4
 10
74.61221033333436
 20
52.352753920533047
 11
74.638378333334117
 21
52.85206792053296
  0
LINE
  8
_1-8_小物
  6
CONTINUOUS
 62
    4
 10
75.111525333334043
 20
52.326585920533063
 11
74.61221033333436
 21
52.352753920533047
  0
LINE
  8
_1-8_小物
  6
CONTINUOUS
 62
    4
 10
75.387350333334325
 20
52.812816920532924
 11
75.111525333334043
 21
52.326585920533063
  0
LINE
  8
_1-8_小物
  6
CONTINUOUS
 62
    4
 10
74.638378333334117
 20
52.85206792053296
 11
74.139063333334207
 21
52.878235920532831
  0
LINE
  8
_1-8_小物
  6
CONTINUOUS
 62
    4
 10
74.61221033333436
 20
50.647245920533152
 11
74.638378333334117
 21
50.147930920533241
  0
LINE
  8
_1-8_小物
  6
CONTINUOUS
 62
    4
 10
75.111525333334043
 20
50.673413920533022
 11
74.61221033333436
 21
50.647245920533152
  0
LINE
  8
_1-8_小物
  6
CONTINUOUS
 62
    4
 10
75.387350333334325
 20
50.187182920533161
 11
75.111525333334043
 21
50.673413920533022
  0
LINE
  8
_1-8_小物
  6
CONTINUOUS
 62
    4
 10
74.638378333334117
 20
50.147930920533241
 11
74.139063333334207
 21
50.121762920533257
  0
LINE
  8
_1-8_小物
  6
CONTINUOUS
 62
    4
 10
78.383239333334245
 20
52.655808920533019
 11
79.547734333334347
 21
53.079649920533058
  0
LINE
  8
_1-8_小物
  6
CONTINUOUS
 62
    4
 10
79.605358333334152
 20
52.091073920532864
 11
79.63152633333425
 21
52.590388920532774
  0
LINE
  8
_1-8_小物
  6
CONTINUOUS
 62
    4
 10
79.63152633333425
 20
52.590388920532774
 11
79.132211333334112
 21
52.6165569205331
  0
LINE
  8
_1-8_小物
  6
CONTINUOUS
 62
    4
 10
78.357071333334147
 20
52.156493920533109
 11
78.383239333334245
 21
52.655808920533019
  0
LINE
  8
_1-8_小物
  6
CONTINUOUS
 62
    4
 10
78.85638533333406
 20
52.130325920533011
 11
78.357071333334147
 21
52.156493920533109
  0
LINE
  8
_1-8_小物
  6
CONTINUOUS
 62
    4
 10
79.132211333334112
 20
52.6165569205331
 11
78.85638533333406
 21
52.130325920533011
  0
LINE
  8
_1-8_小物
  6
CONTINUOUS
 62
    4
 10
78.383239333334245
 20
52.655808920533019
 11
77.883924333334221
 21
52.681976920532776
  0
LINE
  8
_1-8_小物
  6
CONTINUOUS
 62
    4
 10
77.108784333334256
 20
52.221913920533012
 11
77.134952333334127
 21
52.721228920532923
  0
LINE
  8
_1-8_小物
  6
CONTINUOUS
 62
    4
 10
77.608098333334169
 20
52.195745920532914
 11
77.108784333334256
 21
52.221913920533012
  0
LINE
  8
_1-8_小物
  6
CONTINUOUS
 62
    4
 10
77.883924333334221
 20
52.681976920532776
 11
77.608098333334169
 21
52.195745920532914
  0
LINE
  8
_1-8_小物
  6
CONTINUOUS
 62
    4
 10
77.134952333334127
 20
52.721228920532923
 11
76.635637333334103
 21
52.747396920533021
  0
LINE
  8
_1-8_小物
  6
CONTINUOUS
 62
    4
 10
75.860497333334138
 20
52.287333920532916
 11
75.886665333334236
 21
52.786648920533054
  0
LINE
  8
_1-8_小物
  6
CONTINUOUS
 62
    4
 10
76.359812333334162
 20
52.261165920533045
 11
75.860497333334138
 21
52.287333920532916
  0
LINE
  8
_1-8_小物
  6
CONTINUOUS
 62
    4
 10
76.635637333334103
 20
52.747396920533021
 11
76.359812333334162
 21
52.261165920533045
  0
LINE
  8
_1-8_小物
  6
CONTINUOUS
 62
    4
 10
79.605358333334152
 20
50.908925920533221
 11
79.63152633333425
 21
50.40961092053297
  0
LINE
  8
_1-8_小物
  6
CONTINUOUS
 62
    4
 10
79.63152633333425
 20
50.40961092053297
 11
79.132211333334112
 21
50.383442920533213
  0
LINE
  8
_1-8_小物
  6
CONTINUOUS
 62
    4
 10
78.357071333334147
 20
50.843505920532976
 11
78.383239333334245
 21
50.344190920533293
  0
LINE
  8
_1-8_小物
  6
CONTINUOUS
 62
    4
 10
78.85638533333406
 20
50.869673920533074
 11
78.357071333334147
 21
50.843505920532976
  0
LINE
  8
_1-8_小物
  6
CONTINUOUS
 62
    4
 10
79.132211333334112
 20
50.383442920533213
 11
78.85638533333406
 21
50.869673920533074
  0
LINE
  8
_1-8_小物
  6
CONTINUOUS
 62
    4
 10
78.383239333334245
 20
50.344190920533293
 11
77.883924333334221
 21
50.318022920533309
  0
LINE
  8
_1-8_小物
  6
CONTINUOUS
 62
    4
 10
77.108784333334256
 20
50.778085920533073
 11
77.134952333334127
 21
50.278770920533162
  0
LINE
  8
_1-8_小物
  6
CONTINUOUS
 62
    4
 10
77.608098333334169
 20
50.804253920533171
 11
77.108784333334256
 21
50.778085920533073
  0
LINE
  8
_1-8_小物
  6
CONTINUOUS
 62
    4
 10
77.883924333334221
 20
50.318022920533309
 11
77.608098333334169
 21
50.804253920533171
  0
LINE
  8
_1-8_小物
  6
CONTINUOUS
 62
    4
 10
77.134952333334127
 20
50.278770920533162
 11
76.635637333334103
 21
50.252602920533292
  0
LINE
  8
_1-8_小物
  6
CONTINUOUS
 62
    4
 10
75.860497333334138
 20
50.712665920533169
 11
75.886665333334236
 21
50.213350920533259
  0
LINE
  8
_1-8_小物
  6
CONTINUOUS
 62
    4
 10
76.359812333334162
 20
50.738833920533153
 11
75.860497333334138
 21
50.712665920533169
  0
LINE
  8
_1-8_小物
  6
CONTINUOUS
 62
    4
 10
76.635637333334103
 20
50.252602920533292
 11
76.359812333334162
 21
50.738833920533153
  0
LINE
  8
_1-8_小物
  6
CONTINUOUS
 62
    4
 10
73.613580333334198
 20
52.405089920533015
 11
73.593954333334295
 21
52.030603920533082
  0
LINE
  8
_1-8_小物
  6
CONTINUOUS
 62
    4
 10
73.613580333334198
 20
50.59490992053307
 11
73.593954333334295
 21
50.969395920533003
  0
LINE
  8
_1-8_小物
  6
CONTINUOUS
 62
    4
 10
83.333333333333144
 20
52.749999920532929
 11
83.333333333333144
 21
50.249999920533156
  0
ENDBLK
  0
BLOCK
  2
-020-_14_
 70
   64
 10
0
 20
0
 30
0
  0
LINE
  8
_1-5_ホルダ__
  6
CONTINUOUS
 62
    4
 10
91.166666666666401
 20
53.833333253866385
 11
136.16666667103311
 21
53.833333253866385
  0
LINE
  8
_1-5_ホルダ__
  6
CENTER2
 62
    4
 10
114.16666667103311
 20
51.666666587199785
 11
114.16666667103311
 21
55.499999920533043
  0
LINE
  8
_1-5_ホルダ__
  6
CONTINUOUS
 62
    4
 10
114.16666667103311
 20
53.404043931985086
 11
114.23737734915176
 21
53.333333253866442
  0
LINE
  8
_1-5_ホルダ__
  6
CONTINUOUS
 62
    4
 10
114.16666667103311
 20
53.404043931985086
 11
114.09595599291447
 21
53.333333253866442
  0
LINE
  8
_1-5_ホルダ__
  6
CONTINUOUS
 62
    4
 10
91.666666666666686
 20
53.333333253866442
 11
114.09595599291447
 21
53.333333253866442
  0
LINE
  8
_1-5_ホルダ__
  6
CONTINUOUS
 62
    4
 10
114.23737734915176
 20
53.333333253866442
 11
136.66666667103311
 21
53.333333253866442
  0
LINE
  8
_1-5_ホルダ__
  6
DASHED1
 62
    4
 10
114.91666667103311
 20
53.6666665871997
 11
115.25000000436637
 21
53.333333253866442
  0
LINE
  8
_1-5_ホルダ__
  6
DASHED1
 62
    4
 10
113.41666667103311
 20
53.6666665871997
 11
113.08333333769986
 21
53.333333253866442
  0
LINE
  8
_1-5_ホルダ__
  6
DASHED1
 62
    4
 10
114.91666667103311
 20
53.6666665871997
 11
114.91666667103311
 21
53.833333253866385
  0
LINE
  8
_1-5_ホルダ__
  6
DASHED1
 62
    4
 10
113.41666667103311
 20
53.6666665871997
 11
113.41666667103311
 21
53.833333253866385
  0
LINE
  8
_1-5_ホルダ__
  6
DASHED1
 62
    4
 10
113.41666667103311
 20
53.6666665871997
 11
114.91666667103311
 21
53.6666665871997
  0
LINE
  8
_1-5_ホルダ__
  6
CONTINUOUS
 62
    4
 10
136.66666667103311
 20
53.333333253866442
 11
136.66666667103311
 21
57.999999920533128
  0
LINE
  8
_1-5_ホルダ__
  6
CONTINUOUS
 62
    4
 10
136.16666667103311
 20
53.833333253866385
 11
136.16666667103311
 21
57.499999920533128
  0
LINE
  8
_1-5_ホルダ__
  6
CONTINUOUS
 62
    4
 10
136.16666667103311
 20
57.499999920533128
 11
133.3333333376998
 21
57.499999920533128
  0
LINE
  8
_1-5_ホルダ__
  6
CONTINUOUS
 62
    4
 10
133.3333333376998
 20
57.499999920533128
 11
133.3333333376998
 21
57.999999920533128
  0
LINE
  8
_1-5_ホルダ__
  6
CONTINUOUS
 62
    4
 10
136.66666667103311
 20
57.999999920533128
 11
133.3333333376998
 21
57.999999920533128
  0
LINE
  8
_1-5_ホルダ__
  6
CONTINUOUS
 62
    4
 10
86.999999999999659
 20
38.333333253866442
 11
86.999999999999659
 21
41.666666587199643
  0
LINE
  8
_1-5_ホルダ__
  6
CONTINUOUS
 62
    4
 10
87.5
 20
41.666666587199643
 11
86.999999999999659
 21
41.666666587199643
  0
LINE
  8
_1-5_ホルダ__
  6
CONTINUOUS
 62
    4
 10
87.5
 20
38.833333253866385
 11
87.5
 21
41.666666587199643
  0
LINE
  8
_1-5_ホルダ__
  6
CONTINUOUS
 62
    4
 10
91.166666666666401
 20
38.833333253866385
 11
87.5
 21
38.833333253866385
  0
LINE
  8
_1-5_ホルダ__
  6
CONTINUOUS
 62
    4
 10
91.166666666666401
 20
38.833333253866385
 11
91.166666666666401
 21
53.833333253866385
  0
LINE
  8
_1-5_ホルダ__
  6
CONTINUOUS
 62
    4
 10
91.666666666666686
 20
38.333333253866442
 11
86.999999999999659
 21
38.333333253866442
  0
LINE
  8
_1-5_ホルダ__
  6
CONTINUOUS
 62
    4
 10
91.666666666666686
 20
53.333333253866442
 11
91.666666666666686
 21
38.333333253866442
  0
ENDBLK
  0
BLOCK
  2
-021-_15_
 70
   64
 10
0
 20
0
 30
0
  0
ARC
  8
_1-8_小物
  6
CONTINUOUS
 62
    4
 10
87.099999999999625
 20
41.666666587199643
 40
0.0999999999999999
 50
89.999999999967429
 51
180
  0
ARC
  8
_1-8_小物
  6
CONTINUOUS
 62
    4
 10
86.333333333332973
 20
38.999999920533014
 40
0.1666666666666666
 50
270
 51
0
  0
ARC
  8
_1-8_小物
  6
CONTINUOUS
 62
    4
 10
86.333333333332973
 20
38.999999920533014
 40
0.6666666666666666
 50
270
 51
0
  0
ARC
  8
_1-8_小物
  6
CONTINUOUS
 62
    4
 10
86.999999999999602
 20
41.599999920532952
 40
0.5
 50
90
 51
180
  0
ARC
  8
_1-8_小物
  6
CONTINUOUS
 62
    4
 10
87.666654228369396
 20
39.646905612916157
 40
0.3333333333333333
 50
175.47574222621509
 51
265.47574222621506
  0
LINE
  8
_1-8_小物
  6
CONTINUOUS
 62
    4
 10
87.391785503129597
 20
41.766666587199666
 11
87.099999999999625
 21
41.766666587199666
  0
ARC
  8
_1-8_小物
  6
CONTINUOUS
 62
    4
 10
87.391785503129597
 20
41.666666587199643
 40
0.0999999999999999
 50
355.47574222621233
 51
90
  0
LINE
  8
_1-8_小物
  6
CONTINUOUS
 62
    4
 10
86.999999999999602
 20
38.999999920533014
 11
86.999999999999602
 21
41.666666587199643
  0
LINE
  8
_1-8_小物
  6
CONTINUOUS
 62
    4
 10
87.334359552859723
 20
39.673199333440209
 11
87.491473905782527
 21
41.658778471042439
  0
ARC
  8
_1-8_小物
  6
CONTINUOUS
 62
    4
 10
87.917666105593071
 20
39.861106281406194
 40
0.1666666666666666
 50
175.47574222623456
 51
265.47574222619556
  0
LINE
  8
_1-8_小物
  6
CONTINUOUS
 62
    4
 10
87.751518767838149
 20
39.874253141668191
 11
87.899180569636258
 21
41.740372866675671
  0
LINE
  8
_1-8_小物
  6
CONTINUOUS
 62
    4
 10
87.566885894126528
 20
42.099999920532952
 11
86.999999999999602
 21
42.099999920532952
  0
ARC
  8
_1-8_小物
  6
CONTINUOUS
 62
    4
 10
87.566885894126528
 20
41.766666587199666
 40
0.3333333333333333
 50
355.47574222621506
 51
90
  0
LINE
  8
_1-8_小物
  6
CONTINUOUS
 62
    4
 10
87.640360507845401
 20
39.314610937406428
 11
87.939425715804191
 21
39.290946588934844
  0
LINE
  8
_1-8_小物
  6
CONTINUOUS
 62
    4
 10
87.904519245331073
 20
39.694958943651329
 11
87.970978180432951
 21
39.689700199546564
  0
ARC
  8
_1-8_小物
  6
CONTINUOUS
 62
    4
 10
87.955201948118599
 20
39.490323394240619
 40
0.1999999999999963
 50
265.47574222621171
 51
85.475742226211707
  0
LINE
  8
_1-8_小物
  6
CONTINUOUS
 62
    4
 10
86.333333333332973
 20
41.099999920532952
 11
86.499999999999602
 21
41.266666587199666
  0
LINE
  8
_1-8_小物
  6
CONTINUOUS
 62
    4
 10
86.333333333332973
 20
41.099999920532952
 11
86.499999999999602
 21
40.933333253866351
  0
LINE
  8
_1-8_小物
  6
CONTINUOUS
 62
    4
 10
86.499999999999602
 20
38.999999920533014
 11
86.499999999999602
 21
40.933333253866351
  0
LINE
  8
_1-8_小物
  6
CONTINUOUS
 62
    4
 10
86.499999999999602
 20
41.266666587199666
 11
86.499999999999602
 21
41.599999920532952
  0
ARC
  8
_1-8_小物
  6
CONTINUOUS
 62
    4
 10
82.874662926789142
 20
39.245355729677726
 40
0.4999999999999946
 50
100.6398091980884
 51
260.6398091980854
  0
LINE
  8
_1-8_小物
  6
CONTINUOUS
 62
    4
 10
85.374265946711319
 20
38.8333332538663
 11
83.061188626304215
 21
39.214609735252111
  0
ARC
  8
_1-8_小物
  6
CONTINUOUS
 62
    4
 10
83.066609974670143
 20
39.24749924867217
 40
0.0333333333333333
 50
100.63980919807582
 51
260.63980919810518
  0
ARC
  8
_1-8_小物
  6
CONTINUOUS
 62
    4
 10
84.05701349176087
 20
39.721850369218259
 40
0.25
 50
280.63980919808779
 51
100.63980919808898
  0
LINE
  8
_1-8_小物
  6
CONTINUOUS
 62
    4
 10
84.010854928963511
 20
39.967552194772111
 11
82.782345801194424
 21
39.736759380785315
  0
LINE
  8
_1-8_小物
  6
CONTINUOUS
 62
    4
 10
85.333333333332973
 20
38.3333332538663
 11
82.793342701300048
 21
38.752013028377291
  0
LINE
  8
_1-8_小物
  6
CONTINUOUS
 62
    4
 10
84.103172054558229
 20
39.476148543664436
 11
83.060455499630507
 21
39.280259492079324
  0
LINE
  8
_1-8_小物
  6
CONTINUOUS
 62
    4
 10
86.333333333332973
 20
38.8333332538663
 11
85.374265946711319
 21
38.8333332538663
  0
LINE
  8
_1-8_小物
  6
CONTINUOUS
 62
    4
 10
86.333333333332973
 20
38.3333332538663
 11
85.333333333332973
 21
38.3333332538663
  0
ENDBLK
  0
BLOCK
  2
-022-_16_
 70
   64
 10
0
 20
0
 30
0
  0
ARC
  8
_1-8_小物
  6
CONTINUOUS
 62
    4
 10
133.3333333376998
 20
57.899999920533133
 40
0.0999999999999999
 50
90
 51
180.00000000001629
  0
ARC
  8
_1-8_小物
  6
CONTINUOUS
 62
    4
 10
136.00000000436648
 20
58.666666587199785
 40
0.1666666666666666
 50
270
 51
0
  0
ARC
  8
_1-8_小物
  6
CONTINUOUS
 62
    4
 10
136.00000000436648
 20
58.666666587199785
 40
0.6666666666666666
 50
270
 51
0
  0
ARC
  8
_1-8_小物
  6
CONTINUOUS
 62
    4
 10
133.40000000436646
 20
57.999999920533128
 40
0.5
 50
90
 51
180
  0
ARC
  8
_1-8_小物
  6
CONTINUOUS
 62
    4
 10
135.35309431198323
 20
57.333345692163363
 40
0.3333333333333333
 50
4.5242577737849174
 51
94.524257773775176
  0
LINE
  8
_1-8_小物
  6
CONTINUOUS
 62
    4
 10
133.23333333769972
 20
57.608214417403133
 11
133.23333333769972
 21
57.899999920533133
  0
ARC
  8
_1-8_小物
  6
CONTINUOUS
 62
    4
 10
133.3333333376998
 20
57.608214417403133
 40
0.0999999999999999
 50
180
 51
274.52425777377141
  0
LINE
  8
_1-8_小物
  6
CONTINUOUS
 62
    4
 10
136.00000000436648
 20
57.999999920533128
 11
133.3333333376998
 21
57.999999920533128
  0
LINE
  8
_1-8_小物
  6
CONTINUOUS
 62
    4
 10
135.32680059145923
 20
57.665640367673006
 11
133.34122145385697
 21
57.508526014750203
  0
ARC
  8
_1-8_小物
  6
CONTINUOUS
 62
    4
 10
135.13889364349325
 20
57.082333814939659
 40
0.1666666666666666
 50
4.5242577737946581
 51
94.524257773765441
  0
LINE
  8
_1-8_小物
  6
CONTINUOUS
 62
    4
 10
135.12574678323119
 20
57.248481152694524
 11
133.25962705822377
 21
57.100819350896472
  0
LINE
  8
_1-8_小物
  6
CONTINUOUS
 62
    4
 10
132.90000000436646
 20
57.433114026406201
 11
132.90000000436646
 21
57.999999920533128
  0
ARC
  8
_1-8_小物
  6
CONTINUOUS
 62
    4
 10
133.23333333769972
 20
57.433114026406201
 40
0.3333333333333333
 50
180
 51
274.52425777379466
  0
LINE
  8
_1-8_小物
  6
CONTINUOUS
 62
    4
 10
135.68538898749296
 20
57.359639412687329
 11
135.70905333596465
 21
57.060574204728539
  0
LINE
  8
_1-8_小物
  6
CONTINUOUS
 62
    4
 10
135.30504098124811
 20
57.095480675201685
 11
135.31029972535282
 21
57.029021740099779
  0
ARC
  8
_1-8_小物
  6
CONTINUOUS
 62
    4
 10
135.50967653065879
 20
57.044797972414159
 40
0.1999999999999963
 50
184.52425777379705
 51
4.5242577737795386
  0
LINE
  8
_1-8_小物
  6
CONTINUOUS
 62
    4
 10
133.90000000436646
 20
58.666666587199785
 11
133.73333333769972
 21
58.499999920533128
  0
LINE
  8
_1-8_小物
  6
CONTINUOUS
 62
    4
 10
133.90000000436646
 20
58.666666587199785
 11
134.06666667103309
 21
58.499999920533128
  0
LINE
  8
_1-8_小物
  6
CONTINUOUS
 62
    4
 10
136.00000000436648
 20
58.499999920533128
 11
134.06666667103309
 21
58.499999920533128
  0
LINE
  8
_1-8_小物
  6
CONTINUOUS
 62
    4
 10
133.73333333769972
 20
58.499999920533128
 11
133.40000000436646
 21
58.499999920533128
  0
ARC
  8
_1-8_小物
  6
CONTINUOUS
 62
    4
 10
135.75464419522177
 20
62.125336993743588
 40
0.4999999999999946
 50
9.3601908019146016
 51
169.36019080191218
  0
LINE
  8
_1-8_小物
  6
CONTINUOUS
 62
    4
 10
136.16666667103311
 20
59.625733973821411
 11
135.78539018964739
 21
61.938811294228515
  0
ARC
  8
_1-8_小物
  6
CONTINUOUS
 62
    4
 10
135.75250067622721
 20
61.933389945862587
 40
0.0333333333333333
 50
9.3601908018868425
 51
169.36019080194225
  0
ARC
  8
_1-8_小物
  6
CONTINUOUS
 62
    4
 10
135.27814955568113
 20
60.94298642877186
 40
0.25
 50
169.3601908019134
 51
349.3601908019134
  0
LINE
  8
_1-8_小物
  6
CONTINUOUS
 62
    4
 10
135.03244773012739
 20
60.989144991569219
 11
135.26324054411413
 21
62.217654119338306
  0
LINE
  8
_1-8_小物
  6
CONTINUOUS
 62
    4
 10
136.66666667103311
 20
59.666666587199785
 11
136.24798689652209
 21
62.206657219232682
  0
LINE
  8
_1-8_小物
  6
CONTINUOUS
 62
    4
 10
135.52385138123498
 20
60.896827865974501
 11
135.71974043282017
 21
61.939544420902223
  0
LINE
  8
_1-8_小物
  6
CONTINUOUS
 62
    4
 10
136.16666667103311
 20
58.666666587199785
 11
136.16666667103311
 21
59.625733973821411
  0
LINE
  8
_1-8_小物
  6
CONTINUOUS
 62
    4
 10
136.66666667103311
 20
58.666666587199785
 11
136.66666667103311
 21
59.666666587199785
  0
ENDBLK
  0
ENDSEC
  0
SECTION
  2
ENTITIES
  0
LINE
  8
_0-0_図面枠
  6
CONTINUOUS
 62
    6
 10
410.00000000000006
 20
287
 11
10
 21
287.00000000000006
  0
LINE
  8
_0-0_図面枠
  6
CONTINUOUS
 62
    6
 10
410
 20
9.9999999999998863
 11
410.00000000000006
 21
287
  0
LINE
  8
_0-0_図面枠
  6
CONTINUOUS
 62
    6
 10
9.9999999999999147
 20
10
 11
410
 21
9.9999999999998863
  0
LINE
  8
_0-0_図面枠
  6
CONTINUOUS
 62
    6
 10
10
 20
287.00000000000006
 11
9.9999999999999147
 21
10
  0
LINE
  8
ADD_LINE
  6
DOT
 62
    4
 10
0
 20
148.5
 11
420
 21
148.5
  0
LINE
  8
_0-0_図面枠
  6
CONTINUOUS
 62
    6
 10
210
 20
287
 11
210.00000000000003
 21
9.9999999999999432
  0
LINE
  8
_0-0_図面枠
  6
CONTINUOUS
 62
    4
 10
182.14999999999998
 20
50.199999999999974
 11
40
 21
50.199999999999974
  0
LINE
  8
_0-0_図面枠
  6
CONTINUOUS
 62
    4
 10
182.14999999999998
 20
62.199999999999974
 11
40
 21
62.199999999999974
  0
LINE
  8
_0-0_図面枠
  6
CONTINUOUS
 62
    4
 10
182.14999999999998
 20
56.199999999999974
 11
40
 21
56.199999999999974
  0
LINE
  8
_0-0_図面枠
  6
CONTINUOUS
 62
    4
 10
182.14999999999998
 20
68.199999999999974
 11
40
 21
68.199999999999974
  0
LINE
  8
_0-0_図面枠
  6
CONTINUOUS
 62
    4
 10
182.14999999999998
 20
104.20000000000003
 11
40
 21
104.20000000000003
  0
LINE
  8
_0-0_図面枠
  6
CONTINUOUS
 62
    4
 10
182.14999999999998
 20
98.200000000000031
 11
40
 21
98.200000000000031
  0
LINE
  8
_0-0_図面枠
  6
CONTINUOUS
 62
    4
 10
182.14999999999998
 20
92.200000000000031
 11
40
 21
92.200000000000031
  0
LINE
  8
_0-0_図面枠
  6
CONTINUOUS
 62
    4
 10
182.14999999999998
 20
86.200000000000031
 11
40
 21
86.200000000000031
  0
LINE
  8
_0-0_図面枠
  6
CONTINUOUS
 62
    4
 10
182.14999999999998
 20
80.200000000000031
 11
40
 21
80.200000000000031
  0
LINE
  8
_0-0_図面枠
  6
CONTINUOUS
 62
    4
 10
182.14999999999998
 20
74.199999999999974
 11
40
 21
74.199999999999974
  0
LINE
  8
_0-0_図面枠
  6
CONTINUOUS
 62
    4
 10
182.14999999999998
 20
114.99999999999999
 11
40
 21
114.99999999999999
  0
LINE
  8
_0-0_図面枠
  6
CONTINUOUS
 62
    4
 10
182.14999999999998
 20
44.199999999999974
 11
40
 21
44.199999999999974
  0
LINE
  8
_0-0_図面枠
  6
CONTINUOUS
 62
    4
 10
182.14999999999998
 20
38.199999999999974
 11
40
 21
38.199999999999974
  0
LINE
  8
_0-0_図面枠
  6
CONTINUOUS
 62
    4
 10
182.14999999999998
 20
32.199999999999974
 11
40
 21
32.199999999999974
  0
LINE
  8
_0-0_図面枠
  6
CONTINUOUS
 62
    4
 10
182.14999999999998
 20
26.199999999999974
 11
40
 21
26.199999999999974
  0
TEXT
  8
_0-0_図面枠
 62
    4
 10
165.551264
 20
110.20001049999995
 40
3.2000000000000002
 41
1
 50
0
  1
使用
  0
TEXT
  8
_0-0_図面枠
 62
    4
 10
150.50638249999994
 20
110.20001049999995
 40
3.2000000000000002
 41
1
 50
0
  1
定　尺
  0
TEXT
  8
_0-0_図面枠
 62
    4
 10
148.34354749999997
 20
105.40000399999995
 40
3.2000000000000002
 41
1
 50
0
  1
（ｍｍ）
  0
TEXT
  8
_0-0_図面枠
 62
    4
 10
165.551264
 20
105.40000399999995
 40
3.2000000000000002
 41
1
 50
0
  1
数量
  0
TEXT
  8
_0-0_図面枠
 62
    4
 10
40.497067999999985
 20
99.427549499999927
 40
3.2000000000000002
 41
1
 50
0
  1
　１
  0
TEXT
  8
_0-0_図面枠
 62
    4
 10
149.270477
 20
99.400003999999953
 40
3.2000000000000002
 41
1
 50
0
  1
３０００
  0
TEXT
  8
_0-0_図面枠
 62
    4
 10
177.00512500000002
 20
99.400003999999953
 40
3.2000000000000002
 41
1
 50
0
  1
本
  0
TEXT
  8
_0-0_図面枠
 62
    4
 10
43.586831999999987
 20
93.427549499999927
 40
3.2000000000000002
 41
1
 50
0
  1
２
  0
TEXT
  8
_0-0_図面枠
 62
    4
 10
43.586831999999987
 20
87.427549499999927
 40
3.2000000000000002
 41
1
 50
0
  1
３
  0
TEXT
  8
_0-0_図面枠
 62
    4
 10
43.586831999999987
 20
81.427549499999927
 40
3.2000000000000002
 41
1
 50
0
  1
４
  0
TEXT
  8
_0-0_図面枠
 62
    4
 10
43.586831999999987
 20
75.427560999999955
 40
3.2000000000000002
 41
1
 50
0
  1
５
  0
TEXT
  8
_0-0_図面枠
 62
    4
 10
43.586831999999987
 20
69.427560999999955
 40
3.2000000000000002
 41
1
 50
0
  1
６
  0
LINE
  8
_0-0_図面枠
  6
CONTINUOUS
 62
    4
 10
382.15000000000009
 20
104.19999999999997
 11
240
 21
104.19999999999997
  0
LINE
  8
_0-0_図面枠
  6
CONTINUOUS
 62
    4
 10
382.15000000000009
 20
98.199999999999974
 11
240
 21
98.199999999999974
  0
LINE
  8
_0-0_図面枠
  6
CONTINUOUS
 62
    4
 10
382.15000000000009
 20
92.199999999999974
 11
240
 21
92.199999999999974
  0
LINE
  8
_0-0_図面枠
  6
CONTINUOUS
 62
    4
 10
382.15000000000009
 20
86.199999999999974
 11
240
 21
86.199999999999974
  0
LINE
  8
_0-0_図面枠
  6
CONTINUOUS
 62
    4
 10
382.15000000000009
 20
80.199999999999974
 11
240
 21
80.199999999999974
  0
LINE
  8
_0-0_図面枠
  6
CONTINUOUS
 62
    4
 10
382.15000000000009
 20
74.199999999999974
 11
240
 21
74.199999999999974
  0
LINE
  8
_0-0_図面枠
  6
CONTINUOUS
 62
    4
 10
382.15000000000009
 20
68.199999999999974
 11
240
 21
68.199999999999974
  0
LINE
  8
_0-0_図面枠
  6
CONTINUOUS
 62
    4
 10
382.15000000000009
 20
62.199999999999974
 11
240
 21
62.199999999999974
  0
LINE
  8
_0-0_図面枠
  6
CONTINUOUS
 62
    4
 10
382.15000000000009
 20
56.199999999999974
 11
240
 21
56.199999999999974
  0
LINE
  8
_0-0_図面枠
  6
CONTINUOUS
 62
    4
 10
382.15000000000009
 20
50.199999999999974
 11
240
 21
50.199999999999974
  0
LINE
  8
_0-0_図面枠
  6
CONTINUOUS
 62
    4
 10
382.15000000000009
 20
38.199999999999974
 11
240
 21
38.199999999999974
  0
LINE
  8
_0-0_図面枠
  6
CONTINUOUS
 62
    4
 10
382.15000000000009
 20
114.99999999999999
 11
240
 21
114.99999999999999
  0
LINE
  8
_0-0_図面枠
  6
CONTINUOUS
 62
    4
 10
382.15000000000009
 20
26.199999999999974
 11
240
 21
26.199999999999974
  0
LINE
  8
_0-0_図面枠
  6
CONTINUOUS
 62
    4
 10
382.15000000000009
 20
20.199999999999989
 11
240
 21
20.199999999999989
  0
LINE
  8
_0-0_図面枠
  6
CONTINUOUS
 62
    4
 10
382.15000000000009
 20
44.199999999999974
 11
240
 21
44.199999999999974
  0
LINE
  8
_0-0_図面枠
  6
CONTINUOUS
 62
    4
 10
382.15000000000009
 20
32.199999999999974
 11
240
 21
32.199999999999974
  0
TEXT
  8
_0-0_図面枠
 62
    4
 10
365.55123000000003
 20
110.2000105
 40
3.2000000000000002
 41
1
 50
0
  1
使用
  0
TEXT
  8
_0-0_図面枠
 62
    4
 10
350.50632500000006
 20
110.20002199999998
 40
3.2000000000000002
 41
1
 50
0
  1
定　尺
  0
TEXT
  8
_0-0_図面枠
 62
    4
 10
348.34349000000003
 20
105.40001499999998
 40
3.2000000000000002
 41
1
 50
0
  1
（ｍｍ）
  0
TEXT
  8
_0-0_図面枠
 62
    4
 10
365.55123000000003
 20
105.40000400000001
 40
3.2000000000000002
 41
1
 50
0
  1
数量
  0
TEXT
  8
_0-0_図面枠
 62
    4
 10
240.4970505
 20
99.427549499999984
 40
3.2000000000000002
 41
1
 50
0
  1
　１
  0
TEXT
  8
_0-0_図面枠
 62
    4
 10
243.5868145
 20
93.427549499999984
 40
3.2000000000000002
 41
1
 50
0
  1
２
  0
TEXT
  8
_0-0_図面枠
 62
    4
 10
243.5868145
 20
87.427549499999984
 40
3.2000000000000002
 41
1
 50
0
  1
３
  0
TEXT
  8
_0-0_図面枠
 62
    4
 10
243.5868145
 20
81.427549499999984
 40
3.2000000000000002
 41
1
 50
0
  1
４
  0
TEXT
  8
_0-0_図面枠
 62
    4
 10
243.5868145
 20
75.427560999999983
 40
3.2000000000000002
 41
1
 50
0
  1
５
  0
TEXT
  8
_0-0_図面枠
 62
    4
 10
243.5868145
 20
69.427560999999983
 40
3.2000000000000002
 41
1
 50
0
  1
６
  0
TEXT
  8
_0-0_図面枠
 62
    4
 10
169.36022149999991
 20
99.449991499999996
 40
3.2000000000000002
 41
1
 50
0
  1
１
  0
TEXT
  8
_0-0_図面枠
 62
    4
 10
378.55000000000007
 20
112.8
 40
3.2000000000000002
 41
1
 50
0
  1
単位
  7
TATEGAKI
  0
LINE
  8
_0-0_図面枠
  6
CONTINUOUS
 62
    4
 10
182.14999999999998
 20
20.199999999999989
 11
40
 21
20.199999999999989
  0
LINE
  8
_0-0_図面枠
  6
CONTINUOUS
 62
    4
 10
40
 20
20.199999999999989
 11
40
 21
114.99999999999999
  0
LINE
  8
_0-0_図面枠
  6
CONTINUOUS
 62
    4
 10
47.200000000000017
 20
20.199999999999989
 11
47.200000000000017
 21
114.99999999999999
  0
LINE
  8
_0-0_図面枠
  6
CONTINUOUS
 62
    4
 10
182.14999999999998
 20
20.199999999999989
 11
182.14999999999998
 21
114.99999999999999
  0
LINE
  8
_0-0_図面枠
  6
CONTINUOUS
 62
    4
 10
162.94999999999999
 20
20.199999999999989
 11
162.94999999999999
 21
114.99999999999999
  0
LINE
  8
_0-0_図面枠
  6
CONTINUOUS
 62
    4
 10
147.95000000000002
 20
20.199999999999989
 11
147.95000000000002
 21
114.99999999999999
  0
LINE
  8
_0-0_図面枠
  6
CONTINUOUS
 62
    4
 10
174.95000000000005
 20
20.199999999999989
 11
174.95000000000005
 21
114.99999999999999
  0
LINE
  8
_0-0_図面枠
  6
CONTINUOUS
 62
    4
 10
146.95000000000002
 20
20.199999999999989
 11
146.95000000000002
 21
114.99999999999999
  0
LINE
  8
_0-0_図面枠
  6
CONTINUOUS
 62
    4
 10
240
 20
20.199999999999989
 11
240
 21
114.99999999999999
  0
LINE
  8
_0-0_図面枠
  6
CONTINUOUS
 62
    4
 10
247.20000000000005
 20
20.199999999999989
 11
247.20000000000005
 21
114.99999999999999
  0
LINE
  8
_0-0_図面枠
  6
CONTINUOUS
 62
    4
 10
346.95000000000005
 20
20.199999999999989
 11
346.95000000000005
 21
114.99999999999999
  0
LINE
  8
_0-0_図面枠
  6
CONTINUOUS
 62
    4
 10
382.15000000000009
 20
20.199999999999989
 11
382.15000000000009
 21
114.99999999999999
  0
LINE
  8
_0-0_図面枠
  6
CONTINUOUS
 62
    4
 10
374.95000000000005
 20
20.199999999999989
 11
374.95000000000005
 21
114.99999999999999
  0
LINE
  8
_0-0_図面枠
  6
CONTINUOUS
 62
    4
 10
362.95000000000005
 20
20.199999999999989
 11
362.95000000000005
 21
114.99999999999999
  0
LINE
  8
_0-0_図面枠
  6
CONTINUOUS
 62
    4
 10
347.95000000000005
 20
20.199999999999989
 11
347.95000000000005
 21
114.99999999999999
  0
TEXT
  8
_0-0_図面枠
 62
    4
 10
69.300000000000011
 20
108.00000000000001
 40
3.2000000000000002
 41
1
 50
0
  1
部材名称
  0
TEXT
  8
_0-0_図面枠
 62
    4
 10
178.54999999999995
 20
112.80000000000001
 40
3.2000000000000002
 41
1
 50
0
  1
単位
  7
TATEGAKI
  0
LINE
  8
_0-0_図面枠
  6
CONTINUOUS
 62
    4
 10
100.86666666666669
 20
20.199999999999989
 11
100.86666666666669
 21
114.99999999999999
  0
TEXT
  8
_0-0_図面枠
 62
    4
 10
119.10833333333336
 20
108
 40
3.2000000000000002
 41
1
 50
0
  1
規　格
  0
LINE
  8
_0-0_図面枠
  6
CONTINUOUS
 62
    4
 10
300.86666666666667
 20
20.199999999999989
 11
300.86666666666667
 21
114.99999999999999
  0
TEXT
  8
_0-0_図面枠
 62
    4
 10
267.63333333333333
 20
107.99999999999999
 40
3.2000000000000002
 41
1
 50
0
  1
部材名称
  0
TEXT
  8
_0-0_図面枠
 62
    4
 10
319.10833333333335
 20
107.99999999999999
 40
3.2000000000000002
 41
1
 50
0
  1
規　格
  0
TEXT
  8
_0-0_図面枠
 62
    4
 10
169.36022149999991
 20
93.45000299999991
 40
3.2000000000000002
 41
1
 50
0
  1
６
  0
TEXT
  8
_0-0_図面枠
 62
    4
 10
177.00512500000002
 20
93.400003999999953
 40
3.2000000000000002
 41
1
 50
0
  1
個
  0
TEXT
  8
_0-0_図面枠
 62
    4
 10
169.36022149999991
 20
88.050002999999975
 40
3.2000000000000002
 41
1
 50
0
  1
６
  0
TEXT
  8
_0-0_図面枠
 62
    4
 10
177.00512500000002
 20
87.999992500000047
 40
3.2000000000000002
 41
1
 50
0
  1
本
  0
TEXT
  8
_0-0_図面枠
 62
    4
 10
48.400007499999987
 20
88.000009500000061
 40
3.2000000000000002
 41
1
 50
0
  1
ステンドリリングねじ
  0
TEXT
  8
_0-0_図面枠
 62
    4
 10
102.0666796666667
 20
88.000009500000061
 40
3.2000000000000002
 41
1
 50
0
  1
皿(Ｄ６)４×１６
  0
TEXT
  8
_0-0_図面枠
 62
    4
 10
166.27045749999996
 20
81.45000850000001
 40
3.2000000000000002
 41
1
 50
0
  1
１２
  0
TEXT
  8
_0-0_図面枠
 62
    4
 10
48.400007499999987
 20
81.400009500000053
 40
3.2000000000000002
 41
1
 50
0
  1
ステンタッピンねじ
  0
TEXT
  8
_0-0_図面枠
 62
    4
 10
48.400007499999987
 20
75.400009500000053
 40
3.2000000000000002
 41
1
 50
0
  1
ステンワッシャー
  0
TEXT
  8
_0-0_図面枠
 62
    4
 10
166.27045749999996
 20
75.45000850000001
 40
3.2000000000000002
 41
1
 50
0
  1
１２
  0
TEXT
  8
_0-0_図面枠
 62
    4
 10
177.00512500000002
 20
75.400009500000053
 40
3.2000000000000002
 41
1
 50
0
  1
枚
  0
TEXT
  8
_0-0_図面枠
 62
    4
 10
177.00512500000002
 20
81.399992500000039
 40
3.2000000000000002
 41
1
 50
0
  1
本
  0
TEXT
  8
_0-0_図面枠
 62
    4
 10
149.270477
 20
69.400009499999996
 40
3.2000000000000002
 41
1
 50
0
  1
３１００
  0
TEXT
  8
_0-0_図面枠
 62
    4
 10
169.36022149999991
 20
69.449997499999981
 40
3.2000000000000002
 41
1
 50
0
  1
２
  0
TEXT
  8
_0-0_図面枠
 62
    4
 10
177.00512500000002
 20
69.400009499999996
 40
3.2000000000000002
 41
1
 50
0
  1
本
  0
TEXT
  8
_0-0_図面枠
 62
    4
 10
102.06669116666673
 20
81.400009500000053
 40
3.2000000000000002
 41
1
 50
0
  1
なべ４×３０
  0
TEXT
  8
_0-0_図面枠
 62
    4
 10
102.0666336666667
 20
75.400004000000038
 40
3.2000000000000002
 41
1
 50
0
  1
１．５×１８×４．５穴
  0
TEXT
  8
_0-0_図面枠
 62
    4
 10
349.27047700000003
 20
99.400003999999896
 40
3.2000000000000002
 41
1
 50
0
  1
３０００
  0
TEXT
  8
_0-0_図面枠
 62
    4
 10
377.00512500000002
 20
99.400003999999896
 40
3.2000000000000002
 41
1
 50
0
  1
本
  0
TEXT
  8
_0-0_図面枠
 62
    4
 10
369.36022149999997
 20
99.449991499999939
 40
3.2000000000000002
 41
1
 50
0
  1
１
  0
TEXT
  8
_0-0_図面枠
 62
    4
 10
369.36022149999997
 20
93.450002999999853
 40
3.2000000000000002
 41
1
 50
0
  1
６
  0
TEXT
  8
_0-0_図面枠
 62
    4
 10
377.00512500000002
 20
93.400003999999896
 40
3.2000000000000002
 41
1
 50
0
  1
個
  0
TEXT
  8
_0-0_図面枠
 62
    4
 10
369.36022149999997
 20
88.050002999999919
 40
3.2000000000000002
 41
1
 50
0
  1
６
  0
TEXT
  8
_0-0_図面枠
 62
    4
 10
377.00512500000002
 20
87.999992499999991
 40
3.2000000000000002
 41
1
 50
0
  1
本
  0
TEXT
  8
_0-0_図面枠
 62
    4
 10
248.40000750000002
 20
88.000009500000004
 40
3.2000000000000002
 41
1
 50
0
  1
ステンドリリングねじ
  0
TEXT
  8
_0-0_図面枠
 62
    4
 10
302.06667966666674
 20
88.000009500000004
 40
3.2000000000000002
 41
1
 50
0
  1
皿(Ｄ６)４×１６
  0
TEXT
  8
_0-0_図面枠
 62
    4
 10
366.27045750000002
 20
81.450008499999953
 40
3.2000000000000002
 41
1
 50
0
  1
１２
  0
TEXT
  8
_0-0_図面枠
 62
    4
 10
248.40000750000002
 20
81.400009499999996
 40
3.2000000000000002
 41
1
 50
0
  1
ステンタッピンねじ
  0
TEXT
  8
_0-0_図面枠
 62
    4
 10
248.40000750000002
 20
75.400009499999996
 40
3.2000000000000002
 41
1
 50
0
  1
ステンワッシャー
  0
TEXT
  8
_0-0_図面枠
 62
    4
 10
366.27045750000002
 20
75.450008499999953
 40
3.2000000000000002
 41
1
 50
0
  1
１２
  0
TEXT
  8
_0-0_図面枠
 62
    4
 10
377.00512500000002
 20
75.400009499999996
 40
3.2000000000000002
 41
1
 50
0
  1
枚
  0
TEXT
  8
_0-0_図面枠
 62
    4
 10
377.00512500000002
 20
81.399992499999982
 40
3.2000000000000002
 41
1
 50
0
  1
本
  0
TEXT
  8
_0-0_図面枠
 62
    4
 10
302.06669116666677
 20
81.400009499999996
 40
3.2000000000000002
 41
1
 50
0
  1
なべ４×３０
  0
TEXT
  8
_0-0_図面枠
 62
    4
 10
302.06663366666675
 20
75.400003999999981
 40
3.2000000000000002
 41
1
 50
0
  1
１．５×１８×４．５穴
  0
TEXT
  8
_0-0_図面枠
 62
    4
 10
349.27047700000003
 20
63.400009499999939
 40
3.2000000000000002
 41
1
 50
0
  1
３１００
  0
TEXT
  8
_0-0_図面枠
 62
    4
 10
369.36022149999997
 20
63.449997499999924
 40
3.2000000000000002
 41
1
 50
0
  1
２
  0
TEXT
  8
_0-0_図面枠
 62
    4
 10
377.00512500000002
 20
63.400009499999939
 40
3.2000000000000002
 41
1
 50
0
  1
本
  0
TEXT
  8
_0-0_図面枠
 62
    4
 10
243.5868145
 20
63.427555499999968
 40
3.2000000000000002
 41
1
 50
0
  1
７
  0
TEXT
  8
_0-0_図面枠
 62
    4
 10
377.00512500000013
 20
69.399992499999982
 40
3.2000000000000002
 41
1
 50
0
  1
本
  0
TEXT
  8
_0-0_図面枠
 62
    4
 10
20
 20
280
 40
3.2000000000000002
 41
1
 50
0
  1
（アルミ１００タイプ）
  0
TEXT
  8
_0-0_図面枠
 62
    4
 10
220
 20
280
 40
3.2000000000000002
 41
1
 50
0
  1
（アルミ１００タイプ）
  0
TEXT
  8
_0-0_図面枠
 62
    4
 10
30
 20
270
 40
3.2000000000000002
 41
1
 50
0
  1
◇天井＋天井（１００ＵＵＧ－Ａ）　Ｓ＝１／３
  0
TEXT
  8
_0-0_図面枠
 62
    4
 10
230
 20
270
 40
3.2000000000000002
 41
1
 50
0
  1
◇天井＋天井コーナー（１００ＵＣＧ－Ａ）　Ｓ＝１／３
  0
TEXT
  8
_0-0_図面枠
 62
    4
 10
48.400007499999987
 20
69.400003999999953
 40
3.2000000000000002
 41
1
 50
0
  1
ガスケットＧＡ１５
  0
TEXT
  8
_0-0_図面枠
 62
    4
 10
248.40000750000002
 20
63.400003999999896
 40
3.2000000000000002
 41
1
 50
0
  1
ガスケットＧＡ１５
  0
TEXT
  8
_0-0_図面枠
 62
    4
 10
102.06667966666672
 20
94.000009500000061
 40
3.2000000000000002
 41
1
 50
0
  1
Ｌ＝１２０
  0
TEXT
  8
_0-0_図面枠
 62
    4
 10
302.06667966666669
 20
94.000009500000004
 40
3.2000000000000002
 41
1
 50
0
  1
Ｌ＝１３５
  0
TEXT
  8
_0-0_図面枠
 62
    4
 10
122.30833333333337
 20
99.600000000000037
 40
3.2000000000000002
 41
1
 50
0
  1
―
  0
TEXT
  8
_0-0_図面枠
 62
    4
 10
122.30833333333335
 20
69.59999999999998
 40
3.2000000000000002
 41
1
 50
0
  1
―
  0
TEXT
  8
_0-0_図面枠
 62
    4
 10
322.30833333333328
 20
99.59999999999998
 40
3.2000000000000002
 41
1
 50
0
  1
―
  0
TEXT
  8
_0-0_図面枠
 62
    4
 10
322.30833333333328
 20
63.599999999999966
 40
3.2000000000000002
 41
1
 50
0
  1
―
  0
TEXT
  8
_0-0_図面枠
 62
    4
 10
153.84999999999999
 20
93.600000000000037
 40
3.2000000000000002
 41
1
 50
0
  1
―
  0
TEXT
  8
_0-0_図面枠
 62
    4
 10
153.84999999999999
 20
87.600000000000037
 40
3.2000000000000002
 41
1
 50
0
  1
―
  0
TEXT
  8
_0-0_図面枠
 62
    4
 10
153.84999999999999
 20
81.600000000000037
 40
3.2000000000000002
 41
1
 50
0
  1
―
  0
TEXT
  8
_0-0_図面枠
 62
    4
 10
153.84999999999999
 20
75.600000000000023
 40
3.2000000000000002
 41
1
 50
0
  1
―
  0
TEXT
  8
_0-0_図面枠
 62
    4
 10
353.85000000000002
 20
93.59999999999998
 40
3.2000000000000002
 41
1
 50
0
  1
―
  0
TEXT
  8
_0-0_図面枠
 62
    4
 10
353.85000000000002
 20
87.59999999999998
 40
3.2000000000000002
 41
1
 50
0
  1
―
  0
TEXT
  8
_0-0_図面枠
 62
    4
 10
353.85000000000002
 20
81.59999999999998
 40
3.2000000000000002
 41
1
 50
0
  1
―
  0
TEXT
  8
_0-0_図面枠
 62
    4
 10
353.85000000000002
 20
75.599999999999966
 40
3.2000000000000002
 41
1
 50
0
  1
―
  0
TEXT
  8
_0-0_図面枠
 62
    4
 10
353.85000000000002
 20
69.599999999999966
 40
3.2000000000000002
 41
1
 50
0
  1
―
  0
TEXT
  8
_0-0_図面枠
 62
    4
 10
302.06669116666689
 20
69.400009499999996
 40
3.2000000000000002
 41
1
 50
0
  1
Φ６×３０
  0
TEXT
  8
_0-0_図面枠
 62
    4
 10
369.36022149999997
 20
69.449997499999924
 40
3.2000000000000002
 41
1
 50
0
  1
６
  0
TEXT
  8
_0-0_図面枠
 62
    4
 10
43.586831999999987
 20
63.42755549999994
 40
3.2000000000000002
 41
1
 50
0
  1
※
  0
TEXT
  8
_0-0_図面枠
 62
    4
 10
169.36022149999991
 20
63.450002999999938
 40
3.2000000000000002
 41
1
 50
0
  1
１
  0
TEXT
  8
_0-0_図面枠
 62
    4
 10
177.00512500000002
 20
63.400003999999925
 40
3.2000000000000002
 41
1
 50
0
  1
個
  0
TEXT
  8
_0-0_図面枠
 62
    4
 10
153.85000000000002
 20
63.599999999999937
 40
3.2000000000000002
 41
1
 50
0
  1
―
  0
TEXT
  8
_0-0_図面枠
 62
    4
 10
102.06667966666669
 20
63.400003999999925
 40
3.2000000000000002
 41
1
 50
0
  1
ＡＬ　ｔ＝１．５
  0
TEXT
  8
_0-0_図面枠
 62
    4
 10
48.400007499999987
 20
63.400003999999925
 40
3.2000000000000002
 41
1
 50
0
  1
ジョイントプレート
  0
TEXT
  8
_0-0_図面枠
 62
    4
 10
43.586831999999987
 20
57.427555499999954
 40
3.2000000000000002
 41
1
 50
0
  1
※
  0
TEXT
  8
_0-0_図面枠
 62
    4
 10
169.36022149999991
 20
57.450002999999953
 40
3.2000000000000002
 41
1
 50
0
  1
２
  0
TEXT
  8
_0-0_図面枠
 62
    4
 10
177.00512500000002
 20
57.400009499999982
 40
3.2000000000000002
 41
1
 50
0
  1
本
  0
TEXT
  8
_0-0_図面枠
 62
    4
 10
102.06669116666673
 20
57.400009499999967
 40
3.2000000000000002
 41
1
 50
0
  1
１.５×(１×１９)Ｌ＝６００
  0
TEXT
  8
_0-0_図面枠
 62
    4
 10
48.400007500000015
 20
57.400009499999982
 40
3.2000000000000002
 41
1
 50
0
  1
落下防止ワイヤー
  0
TEXT
  8
_0-0_図面枠
 62
    4
 10
153.84999999999999
 20
57.599999999999966
 40
3.2000000000000002
 41
1
 50
0
  1
―
  0
TEXT
  8
_0-0_図面枠
 62
    4
 10
243.58683199999999
 20
57.427555499999954
 40
3.2000000000000002
 41
1
 50
0
  1
※
  0
TEXT
  8
_0-0_図面枠
 62
    4
 10
369.36022149999991
 20
57.450002999999953
 40
3.2000000000000002
 41
1
 50
0
  1
１
  0
TEXT
  8
_0-0_図面枠
 62
    4
 10
377.00512500000002
 20
57.400003999999939
 40
3.2000000000000002
 41
1
 50
0
  1
個
  0
TEXT
  8
_0-0_図面枠
 62
    4
 10
353.85000000000002
 20
57.599999999999966
 40
3.2000000000000002
 41
1
 50
0
  1
―
  0
TEXT
  8
_0-0_図面枠
 62
    4
 10
302.06667966666669
 20
57.400003999999939
 40
3.2000000000000002
 41
1
 50
0
  1
ＡＬ　ｔ＝１．５
  0
TEXT
  8
_0-0_図面枠
 62
    4
 10
248.40000749999999
 20
57.400003999999939
 40
3.2000000000000002
 41
1
 50
0
  1
ジョイントプレート
  0
TEXT
  8
_0-0_図面枠
 62
    4
 10
243.58683199999999
 20
51.427555499999968
 40
3.2000000000000002
 41
1
 50
0
  1
※
  0
TEXT
  8
_0-0_図面枠
 62
    4
 10
369.36022149999991
 20
51.450002999999967
 40
3.2000000000000002
 41
1
 50
0
  1
２
  0
TEXT
  8
_0-0_図面枠
 62
    4
 10
377.00512500000002
 20
51.400009499999996
 40
3.2000000000000002
 41
1
 50
0
  1
本
  0
TEXT
  8
_0-0_図面枠
 62
    4
 10
302.06669116666671
 20
51.400009499999982
 40
3.2000000000000002
 41
1
 50
0
  1
１.５×(１×１９)Ｌ＝６００
  0
TEXT
  8
_0-0_図面枠
 62
    4
 10
248.40000750000002
 20
51.400009499999996
 40
3.2000000000000002
 41
1
 50
0
  1
落下防止ワイヤー
  0
TEXT
  8
_0-0_図面枠
 62
    4
 10
353.84999999999997
 20
51.599999999999966
 40
3.2000000000000002
 41
1
 50
0
  1
―
  0
TEXT
  8
_0-0_図面枠
 62
    4
 10
41.666666666666799
 20
128
 40
3
 41
1
 50
0
  1
（落下防止ワイヤー）
  0
INSERT
  2
-000-
  8
_1-8_小物
 10
210
 20
148.5
 41
1
 42
1
 50
0
  0
LINE
  8
_1-8_小物
  6
CONTINUOUS
 62
    4
 10
157.03985321657854
 20
131.84018902839435
 11
151.17656837665959
 21
130.18752043233465
  0
LINE
  8
_1-8_小物
  6
CONTINUOUS
 62
    4
 10
157.16066740562414
 20
131.35707331101597
 11
151.2464714580253
 21
129.68796469593613
  0
LINE
  8
_1-8_小物
  6
CONTINUOUS
 62
    4
 10
157.03985321657854
 20
127.15981097160562
 11
151.17656837665959
 21
128.81247956766532
  0
LINE
  8
_1-8_小物
  6
CONTINUOUS
 62
    4
 10
157.16066740562414
 20
127.64292668898401
 11
151.2464714580253
 21
129.31203530406384
  0
LINE
  8
_1-8_小物
  6
CONTINUOUS
 62
    4
 10
157.16066751342231
 20
127.64292665856117
 11
157.16066751342231
 21
127.64292665856117
  0
LINE
  8
_1-8_小物
  6
CONTINUOUS
 62
    4
 10
157.16066751342231
 20
127.64292665856117
 11
157.63349044305451
 21
127.54220923628057
  0
LINE
  8
_1-8_小物
  6
CONTINUOUS
 62
    4
 10
157.63349044305451
 20
127.54220923628057
 11
158.12390677547921
 21
127.50097829566566
  0
LINE
  8
_1-8_小物
  6
CONTINUOUS
 62
    4
 10
158.12390677547921
 20
127.50097829566566
 11
158.61701545859836
 21
127.52048661798315
  0
LINE
  8
_1-8_小物
  6
CONTINUOUS
 62
    4
 10
158.61701545859836
 20
127.52048661798315
 11
159.09783363460036
 21
127.60014145273114
  0
LINE
  8
_1-8_小物
  6
CONTINUOUS
 62
    4
 10
159.09783363460036
 20
127.60014145273114
 11
159.55175188651319
 21
127.73752252806307
  0
LINE
  8
_1-8_小物
  6
CONTINUOUS
 62
    4
 10
159.55175188651319
 20
127.73752252806307
 11
159.96497813794616
 21
127.92845558952315
  0
LINE
  8
_1-8_小物
  6
CONTINUOUS
 62
    4
 10
159.96497813794616
 20
127.92845558952315
 11
160.32495671835204
 21
128.16713923265576
  0
LINE
  8
_1-8_小物
  6
CONTINUOUS
 62
    4
 10
160.32495671835204
 20
128.16713923265576
 11
160.62074986072321
 21
128.446321175744
  0
LINE
  8
_1-8_小物
  6
CONTINUOUS
 62
    4
 10
160.62074986072321
 20
128.446321175744
 11
160.8433700401072
 21
128.75751861672009
  0
LINE
  8
_1-8_小物
  6
CONTINUOUS
 62
    4
 10
160.8433700401072
 20
128.75751861672009
 11
160.9860530550047
 21
129.0912759788134
  0
LINE
  8
_1-8_小物
  6
CONTINUOUS
 62
    4
 10
160.9860530550047
 20
129.0912759788134
 11
161.04446355420916
 21
129.43745221346614
  0
LINE
  8
_1-8_小物
  6
CONTINUOUS
 62
    4
 10
161.04446355420916
 20
129.43745221346614
 11
161.01682676425938
 21
129.78552893096199
  0
LINE
  8
_1-8_小物
  6
CONTINUOUS
 62
    4
 10
161.01682676425938
 20
129.78552893096199
 11
160.90398241503306
 21
130.12492999637519
  0
LINE
  8
_1-8_小物
  6
CONTINUOUS
 62
    4
 10
160.90398241503306
 20
130.12492999637519
 11
160.70935922497949
 21
130.44534288007836
  0
LINE
  8
_1-8_小物
  6
CONTINUOUS
 62
    4
 10
160.70935922497949
 20
130.44534288007836
 11
160.43887072124437
 21
130.73703199873694
  0
LINE
  8
_1-8_小物
  6
CONTINUOUS
 62
    4
 10
160.43887072124437
 20
130.73703199873694
 11
160.10073556013987
 21
130.99113452608228
  0
LINE
  8
_1-8_小物
  6
CONTINUOUS
 62
    4
 10
160.10073556013987
 20
130.99113452608228
 11
159.7052278074315
 21
131.19992968540308
  0
LINE
  8
_1-8_小物
  6
CONTINUOUS
 62
    4
 10
159.7052278074315
 20
131.19992968540308
 11
159.26436476604874
 21
131.35707334143885
  0
LINE
  8
_1-8_小物
  6
CONTINUOUS
 62
    4
 10
159.26436476604874
 20
131.35707334143885
 11
158.79154183641654
 21
131.45779076371943
  0
LINE
  8
_1-8_小物
  6
CONTINUOUS
 62
    4
 10
158.79154183641654
 20
131.45779076371943
 11
158.30112550399184
 21
131.49902170433435
  0
LINE
  8
_1-8_小物
  6
CONTINUOUS
 62
    4
 10
158.30112550399184
 20
131.49902170433435
 11
157.80801682087269
 21
131.47951338201685
  0
LINE
  8
_1-8_小物
  6
CONTINUOUS
 62
    4
 10
157.80801682087269
 20
131.47951338201685
 11
157.32719864487069
 21
131.39985854726888
  0
LINE
  8
_1-8_小物
  6
CONTINUOUS
 62
    4
 10
157.32719864487069
 20
131.39985854726888
 11
157.16066740562411
 21
131.35707331101594
  0
LINE
  8
_1-8_小物
  6
CONTINUOUS
 62
    4
 10
157.03985330378111
 20
127.15981094702609
 11
157.03985330378111
 21
127.15981094702609
  0
LINE
  8
_1-8_小物
  6
CONTINUOUS
 62
    4
 10
157.03985330378111
 20
127.15981094702609
 11
157.59949477314501
 21
127.04264060375607
  0
LINE
  8
_1-8_小物
  6
CONTINUOUS
 62
    4
 10
157.59949477314501
 20
127.04264060375607
 11
158.17776258652901
 21
127.00013588225708
  0
LINE
  8
_1-8_小物
  6
CONTINUOUS
 62
    4
 10
158.17776258652901
 20
127.00013588225708
 11
158.75708636904102
 21
127.03358826698343
  0
LINE
  8
_1-8_小物
  6
CONTINUOUS
 62
    4
 10
158.75708636904102
 20
127.03358826698343
 11
159.31986366070143
 21
127.14198132415292
  0
LINE
  8
_1-8_小物
  6
CONTINUOUS
 62
    4
 10
159.31986366070143
 20
127.14198132415292
 11
159.84899475828217
 21
127.32202158557301
  0
LINE
  8
_1-8_小物
  6
CONTINUOUS
 62
    4
 10
159.84899475828217
 20
127.32202158557301
 11
160.3284022811365
 21
127.56823861900521
  0
LINE
  8
_1-8_小物
  6
CONTINUOUS
 62
    4
 10
160.3284022811365
 20
127.56823861900521
 11
160.74351967427444
 21
127.87315124448051
  0
LINE
  8
_1-8_小物
  6
CONTINUOUS
 62
    4
 10
160.74351967427444
 20
127.87315124448051
 11
161.08173380576497
 21
128.22749484616708
  0
LINE
  8
_1-8_小物
  6
CONTINUOUS
 62
    4
 10
161.08173380576497
 20
128.22749484616708
 11
161.33276821036739
 21
128.62050287303418
  0
LINE
  8
_1-8_小物
  6
CONTINUOUS
 62
    4
 10
161.33276821036739
 20
128.62050287303418
 11
161.48899533472741
 21
129.04023397505711
  0
LINE
  8
_1-8_小物
  6
CONTINUOUS
 62
    4
 10
161.48899533472741
 20
129.04023397505711
 11
161.54566829672606
 21
129.47393483509512
  0
LINE
  8
_1-8_小物
  6
CONTINUOUS
 62
    4
 10
161.54566829672606
 20
129.47393483509512
 11
161.50106511709092
 21
129.90842767197913
  0
LINE
  8
_1-8_小物
  6
CONTINUOUS
 62
    4
 10
161.50106511709092
 20
129.90842767197913
 11
161.35654104086493
 21
130.33051064072444
  0
LINE
  8
_1-8_小物
  6
CONTINUOUS
 62
    4
 10
161.35654104086493
 20
130.33051064072444
 11
161.11648735897148
 21
130.72735896391001
  0
LINE
  8
_1-8_小物
  6
CONTINUOUS
 62
    4
 10
161.11648735897148
 20
130.72735896391001
 11
160.7881979810619
 21
131.08691460605075
  0
LINE
  8
_1-8_小物
  6
CONTINUOUS
 62
    4
 10
160.7881979810619
 20
131.08691460605075
 11
160.3816478137615
 21
131.3982526509042
  0
LINE
  8
_1-8_小物
  6
CONTINUOUS
 62
    4
 10
160.3816478137615
 20
131.3982526509042
 11
159.90918967817942
 21
131.6519132495221
  0
LINE
  8
_1-8_小物
  6
CONTINUOUS
 62
    4
 10
159.90918967817942
 20
131.6519132495221
 11
159.38517897568994
 21
131.84018905297393
  0
LINE
  8
_1-8_小物
  6
CONTINUOUS
 62
    4
 10
159.38517897568994
 20
131.84018905297393
 11
158.82553750632604
 21
131.95735939624393
  0
LINE
  8
_1-8_小物
  6
CONTINUOUS
 62
    4
 10
158.82553750632604
 20
131.95735939624393
 11
158.24726969294204
 21
131.99986411774293
  0
LINE
  8
_1-8_小物
  6
CONTINUOUS
 62
    4
 10
158.24726969294204
 20
131.99986411774293
 11
157.66794591043003
 21
131.96641173301657
  0
LINE
  8
_1-8_小物
  6
CONTINUOUS
 62
    4
 10
157.66794591043003
 20
131.96641173301657
 11
157.10516861876962
 21
131.85801867584706
  0
LINE
  8
_1-8_小物
  6
CONTINUOUS
 62
    4
 10
157.10516861876962
 20
131.85801867584706
 11
157.03985321657854
 21
131.84018902839435
  0
ARC
  8
_1-8_小物
  6
CONTINUOUS
 62
    4
 10
149.88841540894526
 20
124.49999999999997
 40
5
 50
74.23983426036601
 51
82.444482010074083
  0
ARC
  8
_1-8_小物
  6
CONTINUOUS
 62
    4
 10
149.82008748449653
 20
123.99999999999997
 40
5
 50
74.258588419679057
 51
81.653895699843488
  0
ARC
  8
_1-8_小物
  6
CONTINUOUS
 62
    4
 10
149.82008748449653
 20
135
 40
5
 50
278.34610430015653
 51
285.74141158032086
  0
ARC
  8
_1-8_小物
  6
CONTINUOUS
 62
    4
 10
149.88841540894526
 20
134.5
 40
5
 50
277.55551798992593
 51
285.76016573963392
  0
INSERT
  2
-001-_1_
  8
_1-8_小物
 10
210
 20
148.5
 41
1
 42
1
 50
0
  0
LINE
  8
_1-8_小物
  6
CONTINUOUS
 62
    4
 10
82.718512396225861
 20
131.84018902839435
 11
88.581797236144808
 21
130.18752043233465
  0
LINE
  8
_1-8_小物
  6
CONTINUOUS
 62
    4
 10
82.59769820718023
 20
131.35707331101597
 11
88.511894154779114
 21
129.68796469593613
  0
LINE
  8
_1-8_小物
  6
CONTINUOUS
 62
    4
 10
82.718512396225861
 20
127.15981097160562
 11
88.581797236144808
 21
128.81247956766532
  0
LINE
  8
_1-8_小物
  6
CONTINUOUS
 62
    4
 10
82.59769820718023
 20
127.64292668898401
 11
88.511894154779114
 21
129.31203530406384
  0
LINE
  8
_1-8_小物
  6
CONTINUOUS
 62
    4
 10
82.597698207180315
 20
131.35707331101594
 11
82.597698207180315
 21
131.35707331101594
  0
LINE
  8
_1-8_小物
  6
CONTINUOUS
 62
    4
 10
82.597698207180315
 20
131.35707331101594
 11
82.124875283394502
 21
131.45779074697211
  0
LINE
  8
_1-8_小物
  6
CONTINUOUS
 62
    4
 10
82.124875283394502
 20
131.45779074697211
 11
81.634458953363151
 21
131.49902170177148
  0
LINE
  8
_1-8_小物
  6
CONTINUOUS
 62
    4
 10
81.634458953363151
 20
131.49902170177148
 11
81.141350269111612
 21
131.47951339371627
  0
LINE
  8
_1-8_小物
  6
CONTINUOUS
 62
    4
 10
81.141350269111612
 20
131.47951339371627
 11
80.660532088485837
 21
131.39985857287513
  0
LINE
  8
_1-8_小物
  6
CONTINUOUS
 62
    4
 10
80.660532088485837
 20
131.39985857287513
 11
80.206613828598407
 21
131.262477510672
  0
LINE
  8
_1-8_小物
  6
CONTINUOUS
 62
    4
 10
80.206613828598407
 20
131.262477510672
 11
79.793387566082274
 21
131.07154446116377
  0
LINE
  8
_1-8_小物
  6
CONTINUOUS
 62
    4
 10
79.793387566082274
 20
131.07154446116377
 11
79.433408971821422
 21
130.8328608284429
  0
LINE
  8
_1-8_小物
  6
CONTINUOUS
 62
    4
 10
79.433408971821422
 20
130.8328608284429
 11
79.137615813244494
 21
130.55367889390996
  0
LINE
  8
_1-8_小物
  6
CONTINUOUS
 62
    4
 10
79.137615813244494
 20
130.55367889390996
 11
78.9149956157963
 21
130.24248145937278
  0
LINE
  8
_1-8_小物
  6
CONTINUOUS
 62
    4
 10
78.9149956157963
 20
130.24248145937278
 11
78.772312581525057
 21
129.90872410140634
  0
LINE
  8
_1-8_小物
  6
CONTINUOUS
 62
    4
 10
78.772312581525057
 20
129.90872410140634
 11
78.713902062225984
 21
129.56254786844303
  0
LINE
  8
_1-8_小物
  6
CONTINUOUS
 62
    4
 10
78.713902062225984
 20
129.56254786844303
 11
78.741538831970828
 21
129.2144711501478
  0
LINE
  8
_1-8_小物
  6
CONTINUOUS
 62
    4
 10
78.741538831970828
 20
129.2144711501478
 11
78.85438316149579
 21
128.8750700814708
  0
LINE
  8
_1-8_小物
  6
CONTINUOUS
 62
    4
 10
78.85438316149579
 20
128.8750700814708
 11
79.049006332950214
 21
128.55465719213848
  0
LINE
  8
_1-8_小物
  6
CONTINUOUS
 62
    4
 10
79.049006332950214
 20
128.55465719213848
 11
79.319494819753572
 21
128.26296806565651
  0
LINE
  8
_1-8_小物
  6
CONTINUOUS
 62
    4
 10
79.319494819753572
 20
128.26296806565651
 11
79.65762996610809
 21
128.0088655285312
  0
LINE
  8
_1-8_小物
  6
CONTINUOUS
 62
    4
 10
79.65762996610809
 20
128.0088655285312
 11
80.053137706696447
 21
127.80007035777102
  0
LINE
  8
_1-8_小物
  6
CONTINUOUS
 62
    4
 10
80.053137706696447
 20
127.80007035777102
 11
80.494000738957411
 21
127.64292668898406
  0
LINE
  8
_1-8_小物
  6
CONTINUOUS
 62
    4
 10
80.494000738957411
 20
127.64292668898406
 11
80.966823662743224
 21
127.54220925302788
  0
LINE
  8
_1-8_小物
  6
CONTINUOUS
 62
    4
 10
80.966823662743224
 20
127.54220925302788
 11
81.457239992774589
 21
127.50097829822853
  0
LINE
  8
_1-8_小物
  6
CONTINUOUS
 62
    4
 10
81.457239992774589
 20
127.50097829822853
 11
81.950348677026128
 21
127.52048660628371
  0
LINE
  8
_1-8_小物
  6
CONTINUOUS
 62
    4
 10
81.950348677026128
 20
127.52048660628371
 11
82.431166857651903
 21
127.60014142712487
  0
LINE
  8
_1-8_小物
  6
CONTINUOUS
 62
    4
 10
82.431166857651903
 20
127.60014142712487
 11
82.597698099382072
 21
127.64292665856115
  0
LINE
  8
_1-8_小物
  6
CONTINUOUS
 62
    4
 10
82.718512396225861
 20
131.84018902839435
 11
82.718512396225861
 21
131.84018902839435
  0
LINE
  8
_1-8_小物
  6
CONTINUOUS
 62
    4
 10
82.718512396225861
 20
131.84018902839435
 11
82.15887093122808
 21
131.9573593833947
  0
LINE
  8
_1-8_小物
  6
CONTINUOUS
 62
    4
 10
82.15887093122808
 20
131.9573593833947
 11
81.580603119427948
 21
131.99986411701445
  0
LINE
  8
_1-8_小物
  6
CONTINUOUS
 62
    4
 10
81.580603119427948
 20
131.99986411701445
 11
81.001279335669395
 21
131.96641174443101
  0
LINE
  8
_1-8_小物
  6
CONTINUOUS
 62
    4
 10
81.001279335669395
 20
131.96641174443101
 11
80.438502039969933
 21
131.8580186990576
  0
LINE
  8
_1-8_小物
  6
CONTINUOUS
 62
    4
 10
80.438502039969933
 20
131.8580186990576
 11
79.909370935680343
 21
131.67797844872834
  0
LINE
  8
_1-8_小物
  6
CONTINUOUS
 62
    4
 10
79.909370935680343
 20
131.67797844872834
 11
79.4299634036512
 21
131.43176142534475
  0
LINE
  8
_1-8_小物
  6
CONTINUOUS
 62
    4
 10
79.4299634036512
 20
131.43176142534475
 11
79.014845999151319
 21
131.12684880857049
  0
LINE
  8
_1-8_小物
  6
CONTINUOUS
 62
    4
 10
79.014845999151319
 20
131.12684880857049
 11
78.676631854456858
 21
130.77250521397306
  0
LINE
  8
_1-8_小物
  6
CONTINUOUS
 62
    4
 10
78.676631854456858
 20
130.77250521397306
 11
78.425597435209752
 21
130.37949719236775
  0
LINE
  8
_1-8_小物
  6
CONTINUOUS
 62
    4
 10
78.425597435209752
 20
130.37949719236775
 11
78.269370295209285
 21
129.95976609361941
  0
LINE
  8
_1-8_小物
  6
CONTINUOUS
 62
    4
 10
78.269370295209285
 20
129.95976609361941
 11
78.212697317049603
 21
129.52606523476931
  0
LINE
  8
_1-8_小物
  6
CONTINUOUS
 62
    4
 10
78.212697317049603
 20
129.52606523476931
 11
78.257300480494209
 21
129.0915723969504
  0
LINE
  8
_1-8_小物
  6
CONTINUOUS
 62
    4
 10
78.257300480494209
 20
129.0915723969504
 11
78.401824540992109
 21
128.66948942517578
  0
LINE
  8
_1-8_小物
  6
CONTINUOUS
 62
    4
 10
78.401824540992109
 20
128.66948942517578
 11
78.641878208097779
 21
128.27264109695858
  0
LINE
  8
_1-8_小物
  6
CONTINUOUS
 62
    4
 10
78.641878208097779
 20
128.27264109695858
 11
78.970167572609228
 21
127.91308544793674
  0
LINE
  8
_1-8_小物
  6
CONTINUOUS
 62
    4
 10
78.970167572609228
 20
127.91308544793674
 11
79.376717728308222
 21
127.60174739456183
  0
LINE
  8
_1-8_小物
  6
CONTINUOUS
 62
    4
 10
79.376717728308222
 20
127.60174739456183
 11
79.84917585443813
 21
127.34808678604097
  0
LINE
  8
_1-8_小物
  6
CONTINUOUS
 62
    4
 10
79.84917585443813
 20
127.34808678604097
 11
80.373186549911864
 21
127.15981097160564
  0
LINE
  8
_1-8_小物
  6
CONTINUOUS
 62
    4
 10
80.373186549911864
 20
127.15981097160564
 11
80.93282801490966
 21
127.04264061660528
  0
LINE
  8
_1-8_小物
  6
CONTINUOUS
 62
    4
 10
80.93282801490966
 20
127.04264061660528
 11
81.511095826709791
 21
127.00013588298553
  0
LINE
  8
_1-8_小物
  6
CONTINUOUS
 62
    4
 10
81.511095826709791
 20
127.00013588298553
 11
82.090419610468345
 21
127.03358825556899
  0
LINE
  8
_1-8_小物
  6
CONTINUOUS
 62
    4
 10
82.090419610468345
 20
127.03358825556899
 11
82.653196906167807
 21
127.1419813009424
  0
LINE
  8
_1-8_小物
  6
CONTINUOUS
 62
    4
 10
82.653196906167807
 20
127.1419813009424
 11
82.718512309023282
 21
127.15981094702607
  0
ARC
  8
_1-8_小物
  6
CONTINUOUS
 62
    4
 10
89.869950203859119
 20
124.49999999999997
 40
5
 50
97.555517989925761
 51
105.76016573963415
  0
ARC
  8
_1-8_小物
  6
CONTINUOUS
 62
    4
 10
89.938278128307871
 20
123.99999999999997
 40
5
 50
98.346104300156512
 51
105.74141158032096
  0
ARC
  8
_1-8_小物
  6
CONTINUOUS
 62
    4
 10
89.938278128307871
 20
135
 40
5
 50
254.25858841967909
 51
261.65389569984347
  0
ARC
  8
_1-8_小物
  6
CONTINUOUS
 62
    4
 10
89.869950203859119
 20
134.5
 40
5
 50
254.23983426036591
 51
262.44448201007424
  0
LINE
  8
_1-8_小物
  6
CONTINUOUS
 62
    4
 10
91.879182806402198
 20
129.24999999999997
 11
118.21251613973553
 21
129.24999999999997
  0
LINE
  8
_1-8_小物
  6
CONTINUOUS
 62
    4
 10
91.879182806402198
 20
129.75
 11
118.21251613973553
 21
129.75
  0
LINE
  8
_1-8_小物
  6
CONTINUOUS
 62
    4
 10
147.87918280640218
 20
129.24999999999997
 11
121.54584947306887
 21
129.24999999999997
  0
LINE
  8
_1-8_小物
  6
CONTINUOUS
 62
    4
 10
147.87918280640218
 20
129.75
 11
121.54584947306887
 21
129.75
  0
TEXT
  8
_0-0_図面枠
 62
    4
 10
241.66666666666674
 20
128
 40
3
 41
1
 50
0
  1
（落下防止ワイヤー）
  0
INSERT
  2
-002-_2_
  8
_1-8_小物
 10
210
 20
148.5
 41
1
 42
1
 50
0
  0
LINE
  8
_1-8_小物
  6
CONTINUOUS
 62
    4
 10
357.03985321657848
 20
131.84018902839435
 11
351.17656837665965
 21
130.18752043233465
  0
LINE
  8
_1-8_小物
  6
CONTINUOUS
 62
    4
 10
357.16066740562411
 20
131.35707331101597
 11
351.24647145802521
 21
129.68796469593613
  0
LINE
  8
_1-8_小物
  6
CONTINUOUS
 62
    4
 10
357.03985321657848
 20
127.15981097160562
 11
351.17656837665965
 21
128.81247956766532
  0
LINE
  8
_1-8_小物
  6
CONTINUOUS
 62
    4
 10
357.16066740562411
 20
127.64292668898401
 11
351.24647145802521
 21
129.31203530406384
  0
LINE
  8
_1-8_小物
  6
CONTINUOUS
 62
    4
 10
357.16066751342225
 20
127.64292665856118
 11
357.16066751342225
 21
127.64292665856118
  0
LINE
  8
_1-8_小物
  6
CONTINUOUS
 62
    4
 10
357.16066751342225
 20
127.64292665856118
 11
357.63349044305443
 21
127.54220923628058
  0
LINE
  8
_1-8_小物
  6
CONTINUOUS
 62
    4
 10
357.63349044305443
 20
127.54220923628058
 11
358.12390677547916
 21
127.50097829566566
  0
LINE
  8
_1-8_小物
  6
CONTINUOUS
 62
    4
 10
358.12390677547916
 20
127.50097829566566
 11
358.6170154585983
 21
127.52048661798314
  0
LINE
  8
_1-8_小物
  6
CONTINUOUS
 62
    4
 10
358.6170154585983
 20
127.52048661798314
 11
359.09783363460031
 21
127.60014145273111
  0
LINE
  8
_1-8_小物
  6
CONTINUOUS
 62
    4
 10
359.09783363460031
 20
127.60014145273111
 11
359.55175188651316
 21
127.73752252806302
  0
LINE
  8
_1-8_小物
  6
CONTINUOUS
 62
    4
 10
359.55175188651316
 20
127.73752252806302
 11
359.9649781379461
 21
127.92845558952313
  0
LINE
  8
_1-8_小物
  6
CONTINUOUS
 62
    4
 10
359.9649781379461
 20
127.92845558952313
 11
360.32495671835204
 21
128.1671392326557
  0
LINE
  8
_1-8_小物
  6
CONTINUOUS
 62
    4
 10
360.32495671835204
 20
128.1671392326557
 11
360.62074986072315
 21
128.44632117574395
  0
LINE
  8
_1-8_小物
  6
CONTINUOUS
 62
    4
 10
360.62074986072315
 20
128.44632117574395
 11
360.84337004010717
 21
128.75751861672001
  0
LINE
  8
_1-8_小物
  6
CONTINUOUS
 62
    4
 10
360.84337004010717
 20
128.75751861672001
 11
360.98605305500473
 21
129.09127597881334
  0
LINE
  8
_1-8_小物
  6
CONTINUOUS
 62
    4
 10
360.98605305500473
 20
129.09127597881334
 11
361.04446355420919
 21
129.43745221346606
  0
LINE
  8
_1-8_小物
  6
CONTINUOUS
 62
    4
 10
361.04446355420919
 20
129.43745221346606
 11
361.01682676425941
 21
129.78552893096193
  0
LINE
  8
_1-8_小物
  6
CONTINUOUS
 62
    4
 10
361.01682676425941
 20
129.78552893096193
 11
360.90398241503311
 21
130.12492999637513
  0
LINE
  8
_1-8_小物
  6
CONTINUOUS
 62
    4
 10
360.90398241503311
 20
130.12492999637513
 11
360.70935922497955
 21
130.4453428800783
  0
LINE
  8
_1-8_小物
  6
CONTINUOUS
 62
    4
 10
360.70935922497955
 20
130.4453428800783
 11
360.43887072124443
 21
130.73703199873688
  0
LINE
  8
_1-8_小物
  6
CONTINUOUS
 62
    4
 10
360.43887072124443
 20
130.73703199873688
 11
360.10073556013998
 21
130.99113452608222
  0
LINE
  8
_1-8_小物
  6
CONTINUOUS
 62
    4
 10
360.10073556013998
 20
130.99113452608222
 11
359.70522780743158
 21
131.19992968540305
  0
LINE
  8
_1-8_小物
  6
CONTINUOUS
 62
    4
 10
359.70522780743158
 20
131.19992968540305
 11
359.26436476604886
 21
131.35707334143882
  0
LINE
  8
_1-8_小物
  6
CONTINUOUS
 62
    4
 10
359.26436476604886
 20
131.35707334143882
 11
358.79154183641668
 21
131.45779076371943
  0
LINE
  8
_1-8_小物
  6
CONTINUOUS
 62
    4
 10
358.79154183641668
 20
131.45779076371943
 11
358.30112550399195
 21
131.49902170433435
  0
LINE
  8
_1-8_小物
  6
CONTINUOUS
 62
    4
 10
358.30112550399195
 20
131.49902170433435
 11
357.80801682087281
 21
131.47951338201685
  0
LINE
  8
_1-8_小物
  6
CONTINUOUS
 62
    4
 10
357.80801682087281
 20
131.47951338201685
 11
357.3271986448708
 21
131.39985854726891
  0
LINE
  8
_1-8_小物
  6
CONTINUOUS
 62
    4
 10
357.3271986448708
 20
131.39985854726891
 11
357.16066740562411
 21
131.35707331101594
  0
LINE
  8
_1-8_小物
  6
CONTINUOUS
 62
    4
 10
357.03985330378111
 20
127.15981094702609
 11
357.03985330378111
 21
127.15981094702609
  0
LINE
  8
_1-8_小物
  6
CONTINUOUS
 62
    4
 10
357.03985330378111
 20
127.15981094702609
 11
357.59949477314501
 21
127.04264060375608
  0
LINE
  8
_1-8_小物
  6
CONTINUOUS
 62
    4
 10
357.59949477314501
 20
127.04264060375608
 11
358.17776258652901
 21
127.00013588225708
  0
LINE
  8
_1-8_小物
  6
CONTINUOUS
 62
    4
 10
358.17776258652901
 20
127.00013588225708
 11
358.75708636904102
 21
127.03358826698343
  0
LINE
  8
_1-8_小物
  6
CONTINUOUS
 62
    4
 10
358.75708636904102
 20
127.03358826698343
 11
359.31986366070146
 21
127.14198132415292
  0
LINE
  8
_1-8_小物
  6
CONTINUOUS
 62
    4
 10
359.31986366070146
 20
127.14198132415292
 11
359.84899475828217
 21
127.32202158557301
  0
LINE
  8
_1-8_小物
  6
CONTINUOUS
 62
    4
 10
359.84899475828217
 20
127.32202158557301
 11
360.3284022811365
 21
127.5682386190052
  0
LINE
  8
_1-8_小物
  6
CONTINUOUS
 62
    4
 10
360.3284022811365
 20
127.5682386190052
 11
360.74351967427447
 21
127.8731512444805
  0
LINE
  8
_1-8_小物
  6
CONTINUOUS
 62
    4
 10
360.74351967427447
 20
127.8731512444805
 11
361.081733805765
 21
128.22749484616705
  0
LINE
  8
_1-8_小物
  6
CONTINUOUS
 62
    4
 10
361.081733805765
 20
128.22749484616705
 11
361.33276821036742
 21
128.62050287303416
  0
LINE
  8
_1-8_小物
  6
CONTINUOUS
 62
    4
 10
361.33276821036742
 20
128.62050287303416
 11
361.48899533472741
 21
129.04023397505711
  0
LINE
  8
_1-8_小物
  6
CONTINUOUS
 62
    4
 10
361.48899533472741
 20
129.04023397505711
 11
361.54566829672609
 21
129.47393483509509
  0
LINE
  8
_1-8_小物
  6
CONTINUOUS
 62
    4
 10
361.54566829672609
 20
129.47393483509509
 11
361.50106511709095
 21
129.9084276719791
  0
LINE
  8
_1-8_小物
  6
CONTINUOUS
 62
    4
 10
361.50106511709095
 20
129.9084276719791
 11
361.35654104086495
 21
130.33051064072441
  0
LINE
  8
_1-8_小物
  6
CONTINUOUS
 62
    4
 10
361.35654104086495
 20
130.33051064072441
 11
361.11648735897154
 21
130.72735896390998
  0
LINE
  8
_1-8_小物
  6
CONTINUOUS
 62
    4
 10
361.11648735897154
 20
130.72735896390998
 11
360.78819798106196
 21
131.08691460605073
  0
LINE
  8
_1-8_小物
  6
CONTINUOUS
 62
    4
 10
360.78819798106196
 20
131.08691460605073
 11
360.38164781376156
 21
131.39825265090417
  0
LINE
  8
_1-8_小物
  6
CONTINUOUS
 62
    4
 10
360.38164781376156
 20
131.39825265090417
 11
359.90918967817947
 21
131.6519132495221
  0
LINE
  8
_1-8_小物
  6
CONTINUOUS
 62
    4
 10
359.90918967817947
 20
131.6519132495221
 11
359.38517897569
 21
131.8401890529739
  0
LINE
  8
_1-8_小物
  6
CONTINUOUS
 62
    4
 10
359.38517897569
 20
131.8401890529739
 11
358.8255375063261
 21
131.95735939624393
  0
LINE
  8
_1-8_小物
  6
CONTINUOUS
 62
    4
 10
358.8255375063261
 20
131.95735939624393
 11
358.2472696929421
 21
131.99986411774293
  0
LINE
  8
_1-8_小物
  6
CONTINUOUS
 62
    4
 10
358.2472696929421
 20
131.99986411774293
 11
357.66794591043009
 21
131.96641173301657
  0
LINE
  8
_1-8_小物
  6
CONTINUOUS
 62
    4
 10
357.66794591043009
 20
131.96641173301657
 11
357.10516861876965
 21
131.85801867584709
  0
LINE
  8
_1-8_小物
  6
CONTINUOUS
 62
    4
 10
357.10516861876965
 20
131.85801867584709
 11
357.03985321657848
 21
131.84018902839432
  0
ARC
  8
_1-8_小物
  6
CONTINUOUS
 62
    4
 10
349.88841540894521
 20
124.49999999999997
 40
5
 50
74.239834260366322
 51
82.444482010073443
  0
ARC
  8
_1-8_小物
  6
CONTINUOUS
 62
    4
 10
349.82008748449653
 20
123.99999999999997
 40
5
 50
74.258588419678418
 51
81.653895699843488
  0
ARC
  8
_1-8_小物
  6
CONTINUOUS
 62
    4
 10
349.82008748449653
 20
135
 40
5
 50
278.34610430015653
 51
285.7414115803216
  0
ARC
  8
_1-8_小物
  6
CONTINUOUS
 62
    4
 10
349.88841540894521
 20
134.5
 40
5
 50
277.55551798992656
 51
285.76016573963363
  0
INSERT
  2
-003-_3_
  8
_1-8_小物
 10
210
 20
148.5
 41
1
 42
1
 50
0
  0
LINE
  8
_1-8_小物
  6
CONTINUOUS
 62
    4
 10
282.71851239622583
 20
131.84018902839435
 11
288.58179723614478
 21
130.18752043233465
  0
LINE
  8
_1-8_小物
  6
CONTINUOUS
 62
    4
 10
282.5976982071802
 20
131.35707331101597
 11
288.5118941547791
 21
129.68796469593613
  0
LINE
  8
_1-8_小物
  6
CONTINUOUS
 62
    4
 10
282.71851239622583
 20
127.15981097160562
 11
288.58179723614478
 21
128.81247956766532
  0
LINE
  8
_1-8_小物
  6
CONTINUOUS
 62
    4
 10
282.5976982071802
 20
127.64292668898401
 11
288.5118941547791
 21
129.31203530406384
  0
LINE
  8
_1-8_小物
  6
CONTINUOUS
 62
    4
 10
282.59769820718031
 20
131.35707331101594
 11
282.59769820718031
 21
131.35707331101594
  0
LINE
  8
_1-8_小物
  6
CONTINUOUS
 62
    4
 10
282.59769820718031
 20
131.35707331101594
 11
282.12487528339449
 21
131.45779074697211
  0
LINE
  8
_1-8_小物
  6
CONTINUOUS
 62
    4
 10
282.12487528339449
 20
131.45779074697211
 11
281.63445895336315
 21
131.49902170177148
  0
LINE
  8
_1-8_小物
  6
CONTINUOUS
 62
    4
 10
281.63445895336315
 20
131.49902170177148
 11
281.14135026911163
 21
131.47951339371627
  0
LINE
  8
_1-8_小物
  6
CONTINUOUS
 62
    4
 10
281.14135026911163
 20
131.47951339371627
 11
280.66053208848581
 21
131.39985857287513
  0
LINE
  8
_1-8_小物
  6
CONTINUOUS
 62
    4
 10
280.66053208848581
 20
131.39985857287513
 11
280.20661382859839
 21
131.262477510672
  0
LINE
  8
_1-8_小物
  6
CONTINUOUS
 62
    4
 10
280.20661382859839
 20
131.262477510672
 11
279.79338756608229
 21
131.07154446116377
  0
LINE
  8
_1-8_小物
  6
CONTINUOUS
 62
    4
 10
279.79338756608229
 20
131.07154446116377
 11
279.43340897182139
 21
130.8328608284429
  0
LINE
  8
_1-8_小物
  6
CONTINUOUS
 62
    4
 10
279.43340897182139
 20
130.8328608284429
 11
279.13761581324451
 21
130.55367889390996
  0
LINE
  8
_1-8_小物
  6
CONTINUOUS
 62
    4
 10
279.13761581324451
 20
130.55367889390996
 11
278.91499561579633
 21
130.24248145937278
  0
LINE
  8
_1-8_小物
  6
CONTINUOUS
 62
    4
 10
278.91499561579633
 20
130.24248145937278
 11
278.77231258152506
 21
129.90872410140634
  0
LINE
  8
_1-8_小物
  6
CONTINUOUS
 62
    4
 10
278.77231258152506
 20
129.90872410140634
 11
278.713902062226
 21
129.56254786844303
  0
LINE
  8
_1-8_小物
  6
CONTINUOUS
 62
    4
 10
278.713902062226
 20
129.56254786844303
 11
278.74153883197084
 21
129.2144711501478
  0
LINE
  8
_1-8_小物
  6
CONTINUOUS
 62
    4
 10
278.74153883197084
 20
129.2144711501478
 11
278.85438316149578
 21
128.8750700814708
  0
LINE
  8
_1-8_小物
  6
CONTINUOUS
 62
    4
 10
278.85438316149578
 20
128.8750700814708
 11
279.04900633295023
 21
128.55465719213848
  0
LINE
  8
_1-8_小物
  6
CONTINUOUS
 62
    4
 10
279.04900633295023
 20
128.55465719213848
 11
279.31949481975357
 21
128.26296806565651
  0
LINE
  8
_1-8_小物
  6
CONTINUOUS
 62
    4
 10
279.31949481975357
 20
128.26296806565651
 11
279.65762996610812
 21
128.0088655285312
  0
LINE
  8
_1-8_小物
  6
CONTINUOUS
 62
    4
 10
279.65762996610812
 20
128.0088655285312
 11
280.05313770669642
 21
127.80007035777102
  0
LINE
  8
_1-8_小物
  6
CONTINUOUS
 62
    4
 10
280.05313770669642
 20
127.80007035777102
 11
280.49400073895742
 21
127.64292668898406
  0
LINE
  8
_1-8_小物
  6
CONTINUOUS
 62
    4
 10
280.49400073895742
 20
127.64292668898406
 11
280.96682366274325
 21
127.54220925302788
  0
LINE
  8
_1-8_小物
  6
CONTINUOUS
 62
    4
 10
280.96682366274325
 20
127.54220925302788
 11
281.45723999277459
 21
127.50097829822853
  0
LINE
  8
_1-8_小物
  6
CONTINUOUS
 62
    4
 10
281.45723999277459
 20
127.50097829822853
 11
281.95034867702611
 21
127.52048660628371
  0
LINE
  8
_1-8_小物
  6
CONTINUOUS
 62
    4
 10
281.95034867702611
 20
127.52048660628371
 11
282.43116685765187
 21
127.60014142712487
  0
LINE
  8
_1-8_小物
  6
CONTINUOUS
 62
    4
 10
282.43116685765187
 20
127.60014142712487
 11
282.59769809938206
 21
127.64292665856115
  0
LINE
  8
_1-8_小物
  6
CONTINUOUS
 62
    4
 10
282.71851239622583
 20
131.84018902839438
 11
282.71851239622583
 21
131.84018902839438
  0
LINE
  8
_1-8_小物
  6
CONTINUOUS
 62
    4
 10
282.71851239622583
 20
131.84018902839438
 11
282.15887093122802
 21
131.9573593833947
  0
LINE
  8
_1-8_小物
  6
CONTINUOUS
 62
    4
 10
282.15887093122802
 20
131.9573593833947
 11
281.58060311942791
 21
131.99986411701445
  0
LINE
  8
_1-8_小物
  6
CONTINUOUS
 62
    4
 10
281.58060311942791
 20
131.99986411701445
 11
281.00127933566938
 21
131.96641174443101
  0
LINE
  8
_1-8_小物
  6
CONTINUOUS
 62
    4
 10
281.00127933566938
 20
131.96641174443101
 11
280.43850203996988
 21
131.8580186990576
  0
LINE
  8
_1-8_小物
  6
CONTINUOUS
 62
    4
 10
280.43850203996988
 20
131.8580186990576
 11
279.90937093568033
 21
131.67797844872834
  0
LINE
  8
_1-8_小物
  6
CONTINUOUS
 62
    4
 10
279.90937093568033
 20
131.67797844872834
 11
279.42996340365119
 21
131.43176142534472
  0
LINE
  8
_1-8_小物
  6
CONTINUOUS
 62
    4
 10
279.42996340365119
 20
131.43176142534472
 11
279.01484599915131
 21
131.12684880857049
  0
LINE
  8
_1-8_小物
  6
CONTINUOUS
 62
    4
 10
279.01484599915131
 20
131.12684880857049
 11
278.67663185445684
 21
130.77250521397303
  0
LINE
  8
_1-8_小物
  6
CONTINUOUS
 62
    4
 10
278.67663185445684
 20
130.77250521397303
 11
278.42559743520974
 21
130.37949719236772
  0
LINE
  8
_1-8_小物
  6
CONTINUOUS
 62
    4
 10
278.42559743520974
 20
130.37949719236772
 11
278.26937029520928
 21
129.95976609361938
  0
LINE
  8
_1-8_小物
  6
CONTINUOUS
 62
    4
 10
278.26937029520928
 20
129.95976609361938
 11
278.21269731704962
 21
129.52606523476928
  0
LINE
  8
_1-8_小物
  6
CONTINUOUS
 62
    4
 10
278.21269731704962
 20
129.52606523476928
 11
278.25730048049422
 21
129.09157239695037
  0
LINE
  8
_1-8_小物
  6
CONTINUOUS
 62
    4
 10
278.25730048049422
 20
129.09157239695037
 11
278.4018245409921
 21
128.66948942517575
  0
LINE
  8
_1-8_小物
  6
CONTINUOUS
 62
    4
 10
278.4018245409921
 20
128.66948942517575
 11
278.64187820809781
 21
128.27264109695858
  0
LINE
  8
_1-8_小物
  6
CONTINUOUS
 62
    4
 10
278.64187820809781
 20
128.27264109695858
 11
278.97016757260923
 21
127.91308544793672
  0
LINE
  8
_1-8_小物
  6
CONTINUOUS
 62
    4
 10
278.97016757260923
 20
127.91308544793672
 11
279.37671772830822
 21
127.60174739456181
  0
LINE
  8
_1-8_小物
  6
CONTINUOUS
 62
    4
 10
279.37671772830822
 20
127.60174739456181
 11
279.84917585443816
 21
127.34808678604097
  0
LINE
  8
_1-8_小物
  6
CONTINUOUS
 62
    4
 10
279.84917585443816
 20
127.34808678604097
 11
280.37318654991191
 21
127.15981097160564
  0
LINE
  8
_1-8_小物
  6
CONTINUOUS
 62
    4
 10
280.37318654991191
 20
127.15981097160564
 11
280.93282801490966
 21
127.04264061660528
  0
LINE
  8
_1-8_小物
  6
CONTINUOUS
 62
    4
 10
280.93282801490966
 20
127.04264061660528
 11
281.51109582670983
 21
127.00013588298553
  0
LINE
  8
_1-8_小物
  6
CONTINUOUS
 62
    4
 10
281.51109582670983
 20
127.00013588298553
 11
282.09041961046836
 21
127.03358825556899
  0
LINE
  8
_1-8_小物
  6
CONTINUOUS
 62
    4
 10
282.09041961046836
 20
127.03358825556899
 11
282.65319690616781
 21
127.14198130094242
  0
LINE
  8
_1-8_小物
  6
CONTINUOUS
 62
    4
 10
282.65319690616781
 20
127.14198130094242
 11
282.71851230902325
 21
127.15981094702607
  0
ARC
  8
_1-8_小物
  6
CONTINUOUS
 62
    4
 10
289.8699502038591
 20
124.49999999999997
 40
5
 50
97.555517989925917
 51
105.76016573963432
  0
ARC
  8
_1-8_小物
  6
CONTINUOUS
 62
    4
 10
289.93827812830784
 20
123.99999999999997
 40
5
 50
98.346104300156512
 51
105.74141158032096
  0
ARC
  8
_1-8_小物
  6
CONTINUOUS
 62
    4
 10
289.93827812830784
 20
135
 40
5
 50
254.25858841967909
 51
261.65389569984347
  0
ARC
  8
_1-8_小物
  6
CONTINUOUS
 62
    4
 10
289.8699502038591
 20
134.5
 40
5
 50
254.23983426036577
 51
262.44448201007407
  0
LINE
  8
_1-8_小物
  6
CONTINUOUS
 62
    4
 10
291.87918280640218
 20
129.24999999999997
 11
318.2125161397355
 21
129.24999999999997
  0
LINE
  8
_1-8_小物
  6
CONTINUOUS
 62
    4
 10
291.87918280640218
 20
129.75
 11
318.2125161397355
 21
129.75
  0
LINE
  8
_1-8_小物
  6
CONTINUOUS
 62
    4
 10
347.87918280640224
 20
129.24999999999997
 11
321.54584947306887
 21
129.24999999999997
  0
LINE
  8
_1-8_小物
  6
CONTINUOUS
 62
    4
 10
347.87918280640224
 20
129.75
 11
321.54584947306887
 21
129.75
  0
TEXT
  8
_0-0_図面枠
 62
    4
 10
48.400007499999987
 20
99.400003999999953
 40
3.2000000000000002
 41
1
 50
0
  1
ＵＵＧキャップ(Ｂ)Ａ
  0
TEXT
  8
_0-0_図面枠
 62
    4
 10
48.400007499999987
 20
93.400003999999953
 40
3.2000000000000002
 41
1
 50
0
  1
ＵＵＧホルダー(Ａ)
  0
TEXT
  8
_0-0_図面枠
 62
    4
 10
248.40000750000002
 20
99.400003999999896
 40
3.2000000000000002
 41
1
 50
0
  1
ＵＣＧキャップ(Ｂ)Ａ
  0
TEXT
  8
_0-0_図面枠
 62
    4
 10
248.40000750000002
 20
93.400003999999896
 40
3.2000000000000002
 41
1
 50
0
  1
ＵＣＧホルダー(Ｂ)
  0
TEXT
  8
_0-0_図面枠
 62
    4
 10
248.40000750000013
 20
69.400003999999953
 40
3.2000000000000002
 41
1
 50
0
  1
アンカープラグ
  0
LINE
  8
_0-0_図面枠
  6
CONTINUOUS
 62
    2
 10
165.00000000000003
 20
246.99999999999994
 11
210.00000000000003
 21
246.99999999999994
  0
LINE
  8
_0-0_図面枠
  6
CONTINUOUS
 62
    2
 10
165.00000000000003
 20
247
 11
165.00000000000003
 21
287
  0
LINE
  8
_0-0_図面枠
  6
CONTINUOUS
 62
    2
 10
184.7618191860187
 20
279.31988384078556
 11
184.7618191860187
 21
276.31988384078556
  0
LINE
  8
_0-0_図面枠
  6
CONTINUOUS
 62
    2
 10
170.03938732168322
 20
270.81988384078556
 11
170.03938732168322
 21
267.81988384078556
  0
LINE
  8
_0-0_図面枠
  6
CONTINUOUS
 62
    2
 10
170.03938732168322
 20
267.81988384078556
 11
184.7618191860187
 21
276.31988384078556
  0
LINE
  8
_0-0_図面枠
  6
CONTINUOUS
 62
    2
 10
184.7618191860187
 20
276.31988384078556
 11
193.42207322386307
 21
271.31988384078556
  0
LINE
  8
_0-0_図面枠
  6
CONTINUOUS
 62
    2
 10
184.7618191860187
 20
279.31988384078556
 11
193.42207322386307
 21
274.31988384078556
  0
LINE
  8
_0-0_図面枠
  6
CONTINUOUS
 62
    2
 10
170.03938732168322
 20
267.81988384078556
 11
178.69964135952759
 21
262.81988384078556
  0
LINE
  8
_0-0_図面枠
  6
CONTINUOUS
 62
    2
 10
170.03938732168322
 20
270.81988384078556
 11
172.63746353303654
 21
269.31988384078556
  0
INSERT
  2
-004-_4_
  8
_0-0_図面枠
 10
210
 20
148.5
 41
1
 42
1
 50
0
  0
LINE
  8
_0-0_図面枠
  6
CONTINUOUS
 62
    3
 10
179.56566676331207
 20
277.26988384078555
 11
188.22592080115649
 21
282.26988384078555
  0
LINE
  8
_0-0_図面枠
  6
CONTINUOUS
 62
    3
 10
179.56566676331207
 20
276.31988384078556
 11
179.56566676331207
 21
277.26988384078555
  0
LINE
  8
_0-0_図面枠
  6
CONTINUOUS
 62
    3
 10
179.56566676331207
 20
276.31988384078556
 11
188.22592080115649
 21
281.31988384078556
  0
LINE
  8
_0-0_図面枠
  6
CONTINUOUS
 62
    3
 10
175.23553974438991
 20
274.76988384078555
 11
166.57528570654549
 21
269.76988384078555
  0
LINE
  8
_0-0_図面枠
  6
CONTINUOUS
 62
    3
 10
175.23553974438991
 20
273.81988384078556
 11
175.23553974438991
 21
274.76988384078555
  0
LINE
  8
_0-0_図面枠
  6
CONTINUOUS
 62
    3
 10
175.23553974438991
 20
273.81988384078556
 11
166.57528570654549
 21
268.81988384078556
  0
LINE
  8
_0-0_図面枠
  6
CONTINUOUS
 62
    3
 10
175.23553974438991
 20
274.76988384078555
 11
178.65634008933839
 21
272.79488384078559
  0
LINE
  8
_0-0_図面枠
  6
CONTINUOUS
 62
    3
 10
175.23553974438991
 20
273.81988384078556
 11
177.83361595574323
 21
272.31988384078556
  0
LINE
  8
_0-0_図面枠
  6
CONTINUOUS
 62
    3
 10
179.56566676331207
 20
276.31988384078556
 11
182.16374297466538
 21
274.81988384078556
  0
TEXT
  8
_0-0_図面枠
 62
    4
 10
178.59740000008938
 20
267.65215495316619
 40
2.5
 41
1
 50
0
  1
-50
  0
TEXT
  8
_0-0_図面枠
 62
    4
 10
201.11325369036049
 20
267.65215495316613
 40
2.5
 41
1
 50
0
  1
+50
  0
TEXT
  8
_0-0_図面枠
 62
    4
 10
201.11325369036044
 20
254.65262076405389
 40
2.5
 41
1
 50
0
  1
+50
  0
TEXT
  8
_0-0_図面枠
 62
    4
 10
178.59699659422003
 20
254.65331953359555
 40
2.5
 41
1
 50
0
  1
-50
  0
LINE
  8
_0-0_図面枠
  6
CONTINUOUS
 62
    2
 10
365.00000000000006
 20
246.99999999999994
 11
410.00000000000006
 21
246.99999999999994
  0
LINE
  8
_0-0_図面枠
  6
CONTINUOUS
 62
    2
 10
382.51081219164189
 20
277.68583390683517
 11
382.51081219164189
 21
274.68583390683517
  0
LINE
  8
_0-0_図面枠
  6
CONTINUOUS
 62
    2
 10
382.51081219164189
 20
274.68583390683517
 11
391.17106622948626
 21
269.68583390683517
  0
LINE
  8
_0-0_図面枠
  6
CONTINUOUS
 62
    2
 10
382.51081219164189
 20
277.68583390683517
 11
391.17106622948626
 21
272.68583390683517
  0
LINE
  8
_0-0_図面枠
  6
CONTINUOUS
 62
    2
 10
375.14959625947415
 20
266.43583390683517
 11
372.9845327500131
 21
265.18583390683517
  0
LINE
  8
_0-0_図面枠
  6
CONTINUOUS
 62
    2
 10
375.14959625947415
 20
270.43583390683517
 11
382.51081219164189
 21
274.68583390683517
  0
LINE
  8
_0-0_図面枠
  6
CONTINUOUS
 62
    2
 10
375.14959625947415
 20
270.43583390683517
 11
375.14959625947415
 21
266.43583390683517
  0
LINE
  8
_0-0_図面枠
  6
CONTINUOUS
 62
    2
 10
375.14959625947415
 20
270.43583390683517
 11
383.80985029731852
 21
265.43583390683517
  0
LINE
  8
_0-0_図面枠
  6
CONTINUOUS
 62
    2
 10
375.14959625947415
 20
266.43583390683517
 11
383.80985029731852
 21
261.43583390683517
  0
LINE
  8
_0-0_図面枠
  6
CONTINUOUS
 62
    2
 10
372.9845327500131
 20
265.18583390683517
 11
381.64478678785747
 21
260.18583390683517
  0
INSERT
  2
-005-_5_
  8
_0-0_図面枠
 10
210
 20
148.5
 41
1
 42
1
 50
0
  0
LINE
  8
_0-0_図面枠
  6
CONTINUOUS
 62
    2
 10
365.00000000000006
 20
247
 11
365.00000000000006
 21
287
  0
LINE
  8
_0-0_図面枠
  6
CONTINUOUS
 62
    3
 10
377.31465976893526
 20
275.63583390683516
 11
385.97491380677968
 21
280.63583390683516
  0
LINE
  8
_0-0_図面枠
  6
CONTINUOUS
 62
    3
 10
377.31465976893526
 20
274.68583390683517
 11
377.31465976893526
 21
275.63583390683516
  0
LINE
  8
_0-0_図面枠
  6
CONTINUOUS
 62
    3
 10
377.31465976893526
 20
274.68583390683517
 11
385.97491380677968
 21
279.68583390683517
  0
LINE
  8
_0-0_図面枠
  6
CONTINUOUS
 62
    3
 10
377.31465976893526
 20
274.68583390683517
 11
379.91273598028857
 21
273.18583390683517
  0
LINE
  8
_0-0_図面枠
  6
CONTINUOUS
 62
    3
 10
372.9845327500131
 20
253.36416609316478
 11
372.9845327500131
 21
276.13583390683516
  0
TEXT
  8
_0-0_図面枠
 62
    4
 10
379.37728020518711
 20
268.0181050192158
 40
2.5
 41
1
 50
0
  1
-50
  0
TEXT
  8
_0-0_図面枠
 62
    4
 10
401.89313389545822
 20
268.01810501921574
 40
2.5
 41
1
 50
0
  1
+50
  0
TEXT
  8
_0-0_図面枠
 62
    4
 10
401.89313389545816
 20
255.0185708301035
 40
2.5
 41
1
 50
0
  1
+50
  0
TEXT
  8
_0-0_図面枠
 62
    4
 10
379.37687679931776
 20
255.01926959964516
 40
2.5
 41
1
 50
0
  1
-50
  0
LINE
  8
_1-0_躯体
  6
CONTINUOUS
 62
    4
 10
78.141588679351884
 20
210
 11
74.448598677058129
 21
210
  0
LINE
  8
_1-0_躯体
  6
CENTER2
 62
    4
 10
110
 20
232.533334
 11
110
 21
196.3333336666667
  0
INSERT
  2
-006-_6_
  8
_1-8_小物
 10
210
 20
148.5
 41
1
 42
1
 50
0
  0
CIRCLE
  8
_1-f_寸法
  6
CONTINUOUS
 62
    4
 10
128.33333333333331
 20
198.33333333333331
 40
1.6666666666666665
  0
TEXT
  8
_1-f_寸法
 62
    4
 10
127.70833333333331
 20
197.08333333333331
 40
2.5
 41
1
 50
0
  1
1
  0
LINE
  8
_1-f_寸法
  6
CONTINUOUS
 62
    4
 10
127.50000000000001
 20
199.77670900630739
 11
126.16826982387218
 21
202.08333333333337
  0
CIRCLE
  8
_1-f_寸法
  6
CONTINUOUS
 62
    4
 10
116.66666666666666
 20
198.33333333333331
 40
1.6666666666666665
  0
TEXT
  8
_1-f_寸法
 62
    4
 10
116.04166666666666
 20
197.08333333333331
 40
2.5
 41
1
 50
0
  1
3
  0
LINE
  8
_1-f_寸法
  6
CONTINUOUS
 62
    4
 10
110.49999999999996
 20
201.8333333333334
 11
115.21719014127299
 21
199.1560091990973
  0
LINE
  8
_1-0_躯体
  6
CENTER2
 62
    4
 10
309.99999999999983
 20
232.53333399999991
 11
309.99999999999983
 21
196.33333366666662
  0
CIRCLE
  8
_1-f_寸法
  6
CONTINUOUS
 62
    4
 10
338.33333333333331
 20
198.33333333333331
 40
1.6666666666666665
  0
TEXT
  8
_1-f_寸法
 62
    4
 10
337.70833333333331
 20
197.08333333333331
 40
2.5
 41
1
 50
0
  1
1
  0
ARC
  8
_1-0_躯体
  6
CONTINUOUS
 62
    4
 10
130.58333266666665
 20
229.83333400000004
 40
0.8333329999999998
 50
90
 51
180
  0
ARC
  8
_1-0_躯体
  6
CONTINUOUS
 62
    4
 10
142.24999966666672
 20
229.83333400000004
 40
0.8333329999999998
 50
0
 51
90
  0
LINE
  8
_1-0_躯体
  6
CONTINUOUS
 62
    4
 10
130.58333266666665
 20
230.66666700000007
 11
142.24999966666672
 21
230.66666700000007
  0
LINE
  8
_1-0_躯体
  6
CONTINUOUS
 62
    4
 10
144.49999966666672
 20
232.33333400000004
 11
154.99999966666672
 21
232.33333400000004
  0
LINE
  8
_1-0_躯体
  6
CONTINUOUS
 62
    4
 10
128.33333266666665
 20
232.33333400000004
 11
126.66666666666669
 21
232.33333400000004
  0
LINE
  8
_1-0_躯体
  6
CONTINUOUS
 62
    4
 10
126.66666666666669
 20
232.33333400000004
 11
126.66666666666669
 21
219.66666700000007
  0
LINE
  8
_1-0_躯体
  6
CONTINUOUS
 62
    4
 10
154.99999966666672
 20
213.33333399999998
 11
126.66666666666669
 21
213.33333399999998
  0
LINE
  8
_1-0_躯体
  6
CONTINUOUS
 62
    4
 10
154.99999966666672
 20
212.66666700000002
 11
126.66666666666669
 21
212.66666700000002
  0
LINE
  8
_1-0_躯体
  6
CONTINUOUS
 62
    4
 10
154.99999966666672
 20
212
 11
126.66666666666669
 21
212
  0
LINE
  8
_1-0_躯体
  6
CONTINUOUS
 62
    4
 10
130.33333266666665
 20
219.66666700000007
 11
126.66666666666669
 21
219.66666700000007
  0
LINE
  8
_1-0_躯体
  6
CONTINUOUS
 62
    4
 10
129.08333266666665
 20
213.5
 11
130.04398866666673
 21
213.5
  0
LINE
  8
_1-0_躯体
  6
CONTINUOUS
 62
    4
 10
129.08333266666665
 20
213.33333399999998
 11
130.08333266666665
 21
213.33333399999998
  0
LINE
  8
_1-0_躯体
  6
CONTINUOUS
 62
    4
 10
136.08333266666665
 20
213.33333399999998
 11
136.41666666666669
 21
213.5
  0
LINE
  8
_1-0_躯体
  6
CONTINUOUS
 62
    4
 10
136.41666666666669
 20
213.5
 11
136.74999966666672
 21
213.33333399999998
  0
LINE
  8
_1-0_躯体
  6
CONTINUOUS
 62
    4
 10
134.74999966666672
 20
213.33333399999998
 11
136.08333266666665
 21
213.33333399999998
  0
LINE
  8
_1-0_躯体
  6
CONTINUOUS
 62
    4
 10
134.78934466666675
 20
213.5
 11
136.04398866666673
 21
213.5
  0
LINE
  8
_1-0_躯体
  6
CONTINUOUS
 62
    4
 10
136.04398866666673
 20
213.5
 11
136.41666666666669
 21
213.686339
  0
LINE
  8
_1-0_躯体
  6
CONTINUOUS
 62
    4
 10
136.41666666666669
 20
213.686339
 11
136.78934466666675
 21
213.5
  0
LINE
  8
_1-0_躯体
  6
CONTINUOUS
 62
    4
 10
129.24999966666672
 20
218.66666700000007
 11
129.41666666666669
 21
218.66666700000007
  0
LINE
  8
_1-0_躯体
  6
CONTINUOUS
 62
    4
 10
129.41666666666669
 20
218.66666700000007
 11
129.41666666666669
 21
219.16666700000007
  0
ARC
  8
_1-0_躯体
  6
CONTINUOUS
 62
    4
 10
128.91666666666669
 20
219.16666700000007
 40
0.5
 50
0
 51
90
  0
LINE
  8
_1-0_躯体
  6
CONTINUOUS
 62
    4
 10
128.58333266666665
 20
219.66666700000007
 11
128.91666666666669
 21
219.66666700000007
  0
ARC
  8
_1-0_躯体
  6
CONTINUOUS
 62
    4
 10
128.58333266666665
 20
219.16666700000007
 40
0.5
 50
90
 51
180
  0
LINE
  8
_1-0_躯体
  6
CONTINUOUS
 62
    4
 10
128.08333266666665
 20
219.16666700000007
 11
128.08333266666665
 21
214.33333399999998
  0
ARC
  8
_1-0_躯体
  6
CONTINUOUS
 62
    4
 10
128.91666666666669
 20
219.16666700000007
 40
0.3333329999999999
 50
0
 51
90
  0
LINE
  8
_1-0_躯体
  6
CONTINUOUS
 62
    4
 10
128.58333266666665
 20
219.50000000000003
 11
128.91666666666669
 21
219.50000000000003
  0
ARC
  8
_1-0_躯体
  6
CONTINUOUS
 62
    4
 10
128.58333266666665
 20
219.16666700000007
 40
0.3333329999999999
 50
90
 51
180
  0
ARC
  8
_1-0_躯体
  6
CONTINUOUS
 62
    4
 10
129.08333266666665
 20
214.33333399999998
 40
0.8333329999999998
 50
180
 51
270
  0
LINE
  8
_1-0_躯体
  6
CONTINUOUS
 62
    4
 10
128.24999966666672
 20
219.16666700000007
 11
128.24999966666672
 21
214.33333399999998
  0
LINE
  8
_1-0_躯体
  6
CONTINUOUS
 62
    4
 10
129.24999966666672
 20
218.66666700000007
 11
129.24999966666672
 21
219.16666700000007
  0
ARC
  8
_1-0_躯体
  6
CONTINUOUS
 62
    4
 10
129.08333266666665
 20
214.33333399999998
 40
1
 50
180
 51
270
  0
LINE
  8
_1-0_躯体
  6
CONTINUOUS
 62
    4
 10
143.58333266666665
 20
218.66666700000007
 11
143.41666666666669
 21
218.66666700000007
  0
LINE
  8
_1-0_躯体
  6
CONTINUOUS
 62
    4
 10
143.41666666666669
 20
218.66666700000007
 11
143.41666666666669
 21
219.16666700000007
  0
ARC
  8
_1-0_躯体
  6
CONTINUOUS
 62
    4
 10
143.91666666666669
 20
219.16666700000007
 40
0.5
 50
90
 51
180
  0
LINE
  8
_1-0_躯体
  6
CONTINUOUS
 62
    4
 10
144.24999966666672
 20
219.66666700000007
 11
143.91666666666669
 21
219.66666700000007
  0
ARC
  8
_1-0_躯体
  6
CONTINUOUS
 62
    4
 10
144.24999966666672
 20
219.16666700000007
 40
0.5
 50
0
 51
90
  0
LINE
  8
_1-0_躯体
  6
CONTINUOUS
 62
    4
 10
144.74999966666672
 20
219.16666700000007
 11
144.74999966666672
 21
214.33333399999998
  0
ARC
  8
_1-0_躯体
  6
CONTINUOUS
 62
    4
 10
143.91666666666669
 20
219.16666700000007
 40
0.3333329999999999
 50
90
 51
180
  0
LINE
  8
_1-0_躯体
  6
CONTINUOUS
 62
    4
 10
144.24999966666672
 20
219.50000000000003
 11
143.91666666666669
 21
219.50000000000003
  0
ARC
  8
_1-0_躯体
  6
CONTINUOUS
 62
    4
 10
144.24999966666672
 20
219.16666700000007
 40
0.3333329999999999
 50
0
 51
90
  0
ARC
  8
_1-0_躯体
  6
CONTINUOUS
 62
    4
 10
143.74999966666672
 20
214.33333399999998
 40
0.8333329999999998
 50
270
 51
0
  0
LINE
  8
_1-0_躯体
  6
CONTINUOUS
 62
    4
 10
144.58333266666665
 20
219.16666700000007
 11
144.58333266666665
 21
214.33333399999998
  0
LINE
  8
_1-0_躯体
  6
CONTINUOUS
 62
    4
 10
143.58333266666665
 20
218.66666700000007
 11
143.58333266666665
 21
219.16666700000007
  0
ARC
  8
_1-0_躯体
  6
CONTINUOUS
 62
    4
 10
143.74999966666672
 20
214.33333399999998
 40
1
 50
270
 51
0
  0
LINE
  8
_1-0_躯体
  6
CONTINUOUS
 62
    4
 10
130.08333266666665
 20
213.33333399999998
 11
130.41666666666669
 21
213.5
  0
LINE
  8
_1-0_躯体
  6
CONTINUOUS
 62
    4
 10
130.41666666666669
 20
213.5
 11
130.91666666666669
 21
213.33333399999998
  0
LINE
  8
_1-0_躯体
  6
CONTINUOUS
 62
    4
 10
130.04398866666673
 20
213.5
 11
130.40387766666663
 21
213.679945
  0
LINE
  8
_1-0_躯体
  6
CONTINUOUS
 62
    4
 10
130.40387766666663
 20
213.679945
 11
130.91666666666669
 21
213.50901599999997
  0
LINE
  8
_1-0_躯体
  6
CONTINUOUS
 62
    4
 10
131.41666666666669
 20
213.5
 11
130.91666666666669
 21
213.33333399999998
  0
LINE
  8
_1-0_躯体
  6
CONTINUOUS
 62
    4
 10
130.91666666666669
 20
213.50901599999997
 11
131.41666666666669
 21
213.67568200000005
  0
LINE
  8
_1-0_躯体
  6
CONTINUOUS
 62
    4
 10
132.41666666666669
 20
213.5
 11
131.91666666666669
 21
213.33333399999998
  0
LINE
  8
_1-0_躯体
  6
CONTINUOUS
 62
    4
 10
131.91666666666669
 20
213.50901599999997
 11
132.41666666666669
 21
213.67568200000005
  0
LINE
  8
_1-0_躯体
  6
CONTINUOUS
 62
    4
 10
131.41666666666669
 20
213.5
 11
131.91666666666669
 21
213.33333399999998
  0
LINE
  8
_1-0_躯体
  6
CONTINUOUS
 62
    4
 10
131.91666666666669
 20
213.50901599999997
 11
131.41666666666669
 21
213.67568200000005
  0
LINE
  8
_1-0_躯体
  6
CONTINUOUS
 62
    4
 10
134.41666666666669
 20
213.5
 11
133.91666666666669
 21
213.33333399999998
  0
LINE
  8
_1-0_躯体
  6
CONTINUOUS
 62
    4
 10
134.42945466666669
 20
213.679945
 11
133.91666666666669
 21
213.50901599999997
  0
LINE
  8
_1-0_躯体
  6
CONTINUOUS
 62
    4
 10
133.41666666666669
 20
213.5
 11
133.91666666666669
 21
213.33333399999998
  0
LINE
  8
_1-0_躯体
  6
CONTINUOUS
 62
    4
 10
133.91666666666669
 20
213.50901599999997
 11
133.41666666666669
 21
213.67568200000005
  0
LINE
  8
_1-0_躯体
  6
CONTINUOUS
 62
    4
 10
132.41666666666669
 20
213.5
 11
132.91666666666669
 21
213.33333399999998
  0
LINE
  8
_1-0_躯体
  6
CONTINUOUS
 62
    4
 10
132.91666666666669
 20
213.50901599999997
 11
132.41666666666669
 21
213.67568200000005
  0
LINE
  8
_1-0_躯体
  6
CONTINUOUS
 62
    4
 10
133.41666666666669
 20
213.5
 11
132.91666666666669
 21
213.33333399999998
  0
LINE
  8
_1-0_躯体
  6
CONTINUOUS
 62
    4
 10
132.91666666666669
 20
213.50901599999997
 11
133.41666666666669
 21
213.67568200000005
  0
LINE
  8
_1-0_躯体
  6
CONTINUOUS
 62
    4
 10
134.74999966666672
 20
213.33333399999998
 11
134.41666666666669
 21
213.5
  0
LINE
  8
_1-0_躯体
  6
CONTINUOUS
 62
    4
 10
134.78934466666675
 20
213.5
 11
134.42945466666669
 21
213.679945
  0
LINE
  8
_1-0_躯体
  6
CONTINUOUS
 62
    4
 10
138.08333266666665
 20
213.33333399999998
 11
136.74999966666672
 21
213.33333399999998
  0
LINE
  8
_1-0_躯体
  6
CONTINUOUS
 62
    4
 10
138.04398866666673
 20
213.5
 11
136.78934466666675
 21
213.5
  0
LINE
  8
_1-0_躯体
  6
CONTINUOUS
 62
    4
 10
142.74999966666672
 20
213.33333399999998
 11
142.41666666666669
 21
213.5
  0
LINE
  8
_1-0_躯体
  6
CONTINUOUS
 62
    4
 10
142.41666666666669
 20
213.5
 11
141.91666666666669
 21
213.33333399999998
  0
LINE
  8
_1-0_躯体
  6
CONTINUOUS
 62
    4
 10
142.78934466666675
 20
213.5
 11
142.42945466666669
 21
213.679945
  0
LINE
  8
_1-0_躯体
  6
CONTINUOUS
 62
    4
 10
142.42945466666669
 20
213.679945
 11
141.91666666666669
 21
213.50901599999997
  0
LINE
  8
_1-0_躯体
  6
CONTINUOUS
 62
    4
 10
141.41666666666669
 20
213.5
 11
141.91666666666669
 21
213.33333399999998
  0
LINE
  8
_1-0_躯体
  6
CONTINUOUS
 62
    4
 10
141.91666666666669
 20
213.50901599999997
 11
141.41666666666669
 21
213.67568200000005
  0
LINE
  8
_1-0_躯体
  6
CONTINUOUS
 62
    4
 10
140.41666666666669
 20
213.5
 11
140.91666666666669
 21
213.33333399999998
  0
LINE
  8
_1-0_躯体
  6
CONTINUOUS
 62
    4
 10
140.91666666666669
 20
213.50901599999997
 11
140.41666666666669
 21
213.67568200000005
  0
LINE
  8
_1-0_躯体
  6
CONTINUOUS
 62
    4
 10
141.41666666666669
 20
213.5
 11
140.91666666666669
 21
213.33333399999998
  0
LINE
  8
_1-0_躯体
  6
CONTINUOUS
 62
    4
 10
140.91666666666669
 20
213.50901599999997
 11
141.41666666666669
 21
213.67568200000005
  0
LINE
  8
_1-0_躯体
  6
CONTINUOUS
 62
    4
 10
138.41666666666669
 20
213.5
 11
138.91666666666669
 21
213.33333399999998
  0
LINE
  8
_1-0_躯体
  6
CONTINUOUS
 62
    4
 10
138.40387766666669
 20
213.679945
 11
138.91666666666669
 21
213.50901599999997
  0
LINE
  8
_1-0_躯体
  6
CONTINUOUS
 62
    4
 10
139.41666666666669
 20
213.5
 11
138.91666666666669
 21
213.33333399999998
  0
LINE
  8
_1-0_躯体
  6
CONTINUOUS
 62
    4
 10
138.91666666666669
 20
213.50901599999997
 11
139.41666666666669
 21
213.67568200000005
  0
LINE
  8
_1-0_躯体
  6
CONTINUOUS
 62
    4
 10
140.41666666666669
 20
213.5
 11
139.91666666666669
 21
213.33333399999998
  0
LINE
  8
_1-0_躯体
  6
CONTINUOUS
 62
    4
 10
139.91666666666669
 20
213.50901599999997
 11
140.41666666666669
 21
213.67568200000005
  0
LINE
  8
_1-0_躯体
  6
CONTINUOUS
 62
    4
 10
139.41666666666669
 20
213.5
 11
139.91666666666669
 21
213.33333399999998
  0
LINE
  8
_1-0_躯体
  6
CONTINUOUS
 62
    4
 10
139.91666666666669
 20
213.50901599999997
 11
139.41666666666669
 21
213.67568200000005
  0
LINE
  8
_1-0_躯体
  6
CONTINUOUS
 62
    4
 10
138.08333266666665
 20
213.33333399999998
 11
138.41666666666669
 21
213.5
  0
LINE
  8
_1-0_躯体
  6
CONTINUOUS
 62
    4
 10
138.04398866666673
 20
213.5
 11
138.40387766666669
 21
213.679945
  0
LINE
  8
_1-0_躯体
  6
CONTINUOUS
 62
    4
 10
143.74999966666672
 20
213.5
 11
142.78934466666675
 21
213.5
  0
LINE
  8
_1-0_躯体
  6
CONTINUOUS
 62
    4
 10
143.74999966666672
 20
213.33333399999998
 11
142.74999966666672
 21
213.33333399999998
  0
LINE
  8
_1-0_躯体
  6
CONTINUOUS
 62
    4
 10
128.49999966666672
 20
219.33333400000004
 11
128.86666666666673
 21
219.50000000000003
  0
LINE
  8
_1-0_躯体
  6
CONTINUOUS
 62
    4
 10
128.86666666666673
 20
219.50000000000003
 11
129.37294366666669
 21
218.304957
  0
ARC
  8
_1-0_躯体
  6
CONTINUOUS
 62
    4
 10
129.83333266666665
 20
218.50000000000003
 40
0.5
 50
202.95984199999688
 51
0
  0
LINE
  8
_1-0_躯体
  6
CONTINUOUS
 62
    4
 10
128.49999966666672
 20
219.33333400000004
 11
128.49999966666672
 21
217.66666700000007
  0
LINE
  8
_1-0_躯体
  6
CONTINUOUS
 62
    4
 10
128.69999966666666
 20
219.42424300000005
 11
128.69999966666666
 21
217.66666700000007
  0
LINE
  8
_1-0_躯体
  6
CONTINUOUS
 62
    4
 10
130.33333266666665
 20
218.50000000000003
 11
130.33333266666665
 21
223.46410200000003
  0
ARC
  8
_1-0_躯体
  6
CONTINUOUS
 62
    4
 10
129.66666666666669
 20
217.66666700000007
 40
1.1666669999999999
 50
180
 51
270
  0
LINE
  8
_1-0_躯体
  6
CONTINUOUS
 62
    4
 10
129.66666666666669
 20
216.5
 11
143.16666666666669
 21
216.5
  0
LINE
  8
_1-0_躯体
  6
CONTINUOUS
 62
    4
 10
128.33333266666665
 20
232.533334
 11
128.33333266666665
 21
224.00000000000003
  0
LINE
  8
_1-0_躯体
  6
CONTINUOUS
 62
    4
 10
144.49999966666672
 20
232.533334
 11
144.49999966666672
 21
224.00000000000003
  0
ARC
  8
_1-0_躯体
  6
CONTINUOUS
 62
    4
 10
129.66666666666669
 20
217.66666700000007
 40
0.9666669999999998
 50
180
 51
270
  0
LINE
  8
_1-0_躯体
  6
CONTINUOUS
 62
    4
 10
143.16666666666669
 20
216.69999999999996
 11
129.66666666666669
 21
216.69999999999996
  0
LINE
  8
_1-0_躯体
  6
CONTINUOUS
 62
    4
 10
128.33333266666665
 20
224.00000000000003
 11
130.33333266666665
 21
223.46410200000003
  0
LINE
  8
_1-0_躯体
  6
CONTINUOUS
 62
    4
 10
128.33333266666665
 20
232.533334
 11
144.49999966666672
 21
232.533334
  0
ARC
  8
_1-0_躯体
  6
CONTINUOUS
 62
    4
 10
130.58333266666665
 20
225.50000000000003
 40
0.8333329999999998
 50
180
 51
270
  0
LINE
  8
_1-0_躯体
  6
CONTINUOUS
 62
    4
 10
129.74999966666672
 20
225.50000000000003
 11
129.74999966666672
 21
229.83333400000004
  0
LINE
  8
_1-0_躯体
  6
CONTINUOUS
 62
    4
 10
130.58333266666665
 20
224.66666700000007
 11
131.41666666666669
 21
224.66666700000007
  0
ARC
  8
_1-0_躯体
  6
CONTINUOUS
 62
    4
 10
133.08333266666665
 20
219.00000000000003
 40
1
 50
180
 51
0
  0
ARC
  8
_1-0_躯体
  6
CONTINUOUS
 62
    4
 10
131.41666666666669
 20
224.00000000000003
 40
0.666667
 50
0
 51
90
  0
LINE
  8
_1-0_躯体
  6
CONTINUOUS
 62
    4
 10
132.08333266666665
 20
219.00000000000003
 11
132.08333266666665
 21
224.00000000000003
  0
ARC
  8
_1-0_躯体
  6
CONTINUOUS
 62
    4
 10
134.74999966666672
 20
224.00000000000003
 40
0.666667
 50
90
 51
180
  0
LINE
  8
_1-0_躯体
  6
CONTINUOUS
 62
    4
 10
134.08333266666665
 20
219.00000000000003
 11
134.08333266666665
 21
224.00000000000003
  0
ARC
  8
_1-0_躯体
  6
CONTINUOUS
 62
    4
 10
138.08333266666665
 20
224.00000000000003
 40
0.666667
 50
0
 51
90
  0
LINE
  8
_1-0_躯体
  6
CONTINUOUS
 62
    4
 10
134.74999966666672
 20
224.66666700000007
 11
138.08333266666665
 21
224.66666700000007
  0
LINE
  8
_1-0_躯体
  6
CONTINUOUS
 62
    4
 10
144.33333266666665
 20
219.33333400000004
 11
143.96666666666664
 21
219.50000000000003
  0
LINE
  8
_1-0_躯体
  6
CONTINUOUS
 62
    4
 10
143.96666666666664
 20
219.50000000000003
 11
143.46038866666669
 21
218.304957
  0
ARC
  8
_1-0_躯体
  6
CONTINUOUS
 62
    4
 10
142.99999966666672
 20
218.50000000000003
 40
0.5
 50
180
 51
337.04015800000184
  0
ARC
  8
_1-0_躯体
  6
CONTINUOUS
 62
    4
 10
143.16666666666669
 20
217.66666700000007
 40
1.1666669999999999
 50
270
 51
0
  0
LINE
  8
_1-0_躯体
  6
CONTINUOUS
 62
    4
 10
144.33333266666665
 20
219.33333400000004
 11
144.33333266666665
 21
217.66666700000007
  0
ARC
  8
_1-0_躯体
  6
CONTINUOUS
 62
    4
 10
143.16666666666669
 20
217.66666700000007
 40
0.9666669999999998
 50
270
 51
0
  0
LINE
  8
_1-0_躯体
  6
CONTINUOUS
 62
    4
 10
144.13333266666672
 20
219.42424300000005
 11
144.13333266666672
 21
217.66666700000007
  0
LINE
  8
_1-0_躯体
  6
CONTINUOUS
 62
    4
 10
142.49999966666672
 20
218.50000000000003
 11
142.49999966666672
 21
223.46410200000003
  0
LINE
  8
_1-0_躯体
  6
CONTINUOUS
 62
    4
 10
144.49999966666672
 20
224.00000000000003
 11
142.49999966666672
 21
223.46410200000003
  0
ARC
  8
_1-0_躯体
  6
CONTINUOUS
 62
    4
 10
139.74999966666672
 20
219.00000000000003
 40
1
 50
180
 51
0
  0
ARC
  8
_1-0_躯体
  6
CONTINUOUS
 62
    4
 10
141.41666666666669
 20
224.00000000000003
 40
0.666667
 50
90
 51
180
  0
LINE
  8
_1-0_躯体
  6
CONTINUOUS
 62
    4
 10
140.74999966666672
 20
219.00000000000003
 11
140.74999966666672
 21
224.00000000000003
  0
LINE
  8
_1-0_躯体
  6
CONTINUOUS
 62
    4
 10
138.74999966666672
 20
219.00000000000003
 11
138.74999966666672
 21
224.00000000000003
  0
ARC
  8
_1-0_躯体
  6
CONTINUOUS
 62
    4
 10
142.24999966666672
 20
225.50000000000003
 40
0.8333329999999998
 50
270
 51
0
  0
LINE
  8
_1-0_躯体
  6
CONTINUOUS
 62
    4
 10
143.08333266666665
 20
225.50000000000003
 11
143.08333266666665
 21
229.83333400000004
  0
LINE
  8
_1-0_躯体
  6
CONTINUOUS
 62
    4
 10
142.24999966666672
 20
224.66666700000007
 11
141.41666666666669
 21
224.66666700000007
  0
LINE
  8
_1-0_躯体
  6
CONTINUOUS
 62
    4
 10
154.99999966666672
 20
211.33333399999998
 11
126.66666666666669
 21
211.33333399999998
  0
LINE
  8
_1-0_躯体
  6
CONTINUOUS
 62
    4
 10
154.99999966666672
 20
210.66666700000002
 11
126.66666666666669
 21
210.66666700000002
  0
LINE
  8
_1-0_躯体
  6
CONTINUOUS
 62
    4
 10
126.66666666666669
 20
210
 11
154.99999966666672
 21
210
  0
INSERT
  2
-007-$QLE
  8
_1-f_寸法
 10
210
 20
148.5
 41
1
 42
1
 50
0
  0
INSERT
  2
-008-$QLE_1_
  8
_1-f_寸法
 10
210
 20
148.5
 41
1
 42
1
 50
0
  0
LINE
  8
_1-0_躯体
  6
CONTINUOUS
 62
    4
 10
126.66666666666669
 20
210
 11
126.66666666666669
 21
213.33333399999998
  0
INSERT
  2
-009-$QLE_2_
  8
_1-f_寸法
 10
210
 20
148.5
 41
1
 42
1
 50
0
  0
LINE
  8
_1-0_躯体
  6
CONTINUOUS
 62
    4
 10
77.750000333333276
 20
230.66666700000007
 11
89.41666633333331
 21
230.66666700000007
  0
LINE
  8
_1-0_躯体
  6
CONTINUOUS
 62
    4
 10
91.66666633333331
 20
232.33333400000004
 11
93.333333333333314
 21
232.33333400000004
  0
LINE
  8
_1-0_躯体
  6
CONTINUOUS
 62
    4
 10
75.500000333333276
 20
232.33333400000004
 11
65.000000333333276
 21
232.33333400000004
  0
LINE
  8
_1-0_躯体
  6
CONTINUOUS
 62
    4
 10
93.333333333333314
 20
232.33333400000004
 11
93.333333333333314
 21
219.66666700000007
  0
LINE
  8
_1-0_躯体
  6
CONTINUOUS
 62
    4
 10
93.333333333333314
 20
210
 11
93.333333333333314
 21
213.33333399999998
  0
LINE
  8
_1-0_躯体
  6
CONTINUOUS
 62
    4
 10
93.333333333333314
 20
213.33333399999998
 11
65.000000333333276
 21
213.33333399999998
  0
LINE
  8
_1-0_躯体
  6
CONTINUOUS
 62
    4
 10
65.000000333333276
 20
212
 11
93.333333333333314
 21
212
  0
LINE
  8
_1-0_躯体
  6
CONTINUOUS
 62
    4
 10
89.66666633333331
 20
219.66666700000007
 11
93.333333333333314
 21
219.66666700000007
  0
LINE
  8
_1-0_躯体
  6
CONTINUOUS
 62
    4
 10
77.500000333333276
 20
219.66666700000007
 11
65.000000333333276
 21
219.66666700000007
  0
LINE
  8
_1-0_躯体
  6
CONTINUOUS
 62
    4
 10
65.000000333333276
 20
212.66666700000002
 11
93.333333333333314
 21
212.66666700000002
  0
LINE
  8
_1-0_躯体
  6
CONTINUOUS
 62
    4
 10
76.250000333333276
 20
213.5
 11
77.210655333333307
 21
213.5
  0
LINE
  8
_1-0_躯体
  6
CONTINUOUS
 62
    4
 10
76.250000333333276
 20
213.33333399999998
 11
77.250000333333276
 21
213.33333399999998
  0
LINE
  8
_1-0_躯体
  6
CONTINUOUS
 62
    4
 10
83.250000333333276
 20
213.33333399999998
 11
83.583333333333314
 21
213.5
  0
LINE
  8
_1-0_躯体
  6
CONTINUOUS
 62
    4
 10
83.583333333333314
 20
213.5
 11
83.91666633333331
 21
213.33333399999998
  0
LINE
  8
_1-0_躯体
  6
CONTINUOUS
 62
    4
 10
81.916666333333296
 20
213.33333399999998
 11
83.250000333333276
 21
213.33333399999998
  0
LINE
  8
_1-0_躯体
  6
CONTINUOUS
 62
    4
 10
81.956011333333322
 20
213.5
 11
83.210655333333321
 21
213.5
  0
LINE
  8
_1-0_躯体
  6
CONTINUOUS
 62
    4
 10
83.210655333333321
 20
213.5
 11
83.583333333333314
 21
213.686339
  0
LINE
  8
_1-0_躯体
  6
CONTINUOUS
 62
    4
 10
83.583333333333314
 20
213.686339
 11
83.956011333333294
 21
213.5
  0
LINE
  8
_1-0_躯体
  6
CONTINUOUS
 62
    4
 10
76.416666333333296
 20
218.66666700000007
 11
76.583333333333314
 21
218.66666700000007
  0
LINE
  8
_1-0_躯体
  6
CONTINUOUS
 62
    4
 10
76.583333333333314
 20
218.66666700000007
 11
76.583333333333314
 21
219.16666700000007
  0
ARC
  8
_1-0_躯体
  6
CONTINUOUS
 62
    4
 10
76.083333333333314
 20
219.16666700000007
 40
0.5
 50
0
 51
90
  0
LINE
  8
_1-0_躯体
  6
CONTINUOUS
 62
    4
 10
75.750000333333276
 20
219.66666700000007
 11
76.083333333333314
 21
219.66666700000007
  0
ARC
  8
_1-0_躯体
  6
CONTINUOUS
 62
    4
 10
75.750000333333276
 20
219.16666700000007
 40
0.5
 50
90
 51
180
  0
LINE
  8
_1-0_躯体
  6
CONTINUOUS
 62
    4
 10
75.250000333333276
 20
219.16666700000007
 11
75.250000333333276
 21
214.33333399999998
  0
ARC
  8
_1-0_躯体
  6
CONTINUOUS
 62
    4
 10
76.083333333333314
 20
219.16666700000007
 40
0.3333329999999999
 50
0
 51
90
  0
LINE
  8
_1-0_躯体
  6
CONTINUOUS
 62
    4
 10
75.750000333333276
 20
219.50000000000003
 11
76.083333333333314
 21
219.50000000000003
  0
ARC
  8
_1-0_躯体
  6
CONTINUOUS
 62
    4
 10
75.750000333333276
 20
219.16666700000007
 40
0.3333329999999999
 50
90
 51
180
  0
ARC
  8
_1-0_躯体
  6
CONTINUOUS
 62
    4
 10
76.250000333333276
 20
214.33333399999998
 40
0.8333329999999998
 50
180
 51
270
  0
LINE
  8
_1-0_躯体
  6
CONTINUOUS
 62
    4
 10
75.416666333333296
 20
219.16666700000007
 11
75.416666333333296
 21
214.33333399999998
  0
LINE
  8
_1-0_躯体
  6
CONTINUOUS
 62
    4
 10
76.416666333333296
 20
218.66666700000007
 11
76.416666333333296
 21
219.16666700000007
  0
ARC
  8
_1-0_躯体
  6
CONTINUOUS
 62
    4
 10
76.250000333333276
 20
214.33333399999998
 40
1
 50
180
 51
270
  0
LINE
  8
_1-0_躯体
  6
CONTINUOUS
 62
    4
 10
90.750000333333276
 20
218.66666700000007
 11
90.583333333333314
 21
218.66666700000007
  0
LINE
  8
_1-0_躯体
  6
CONTINUOUS
 62
    4
 10
90.583333333333314
 20
218.66666700000007
 11
90.583333333333314
 21
219.16666700000007
  0
ARC
  8
_1-0_躯体
  6
CONTINUOUS
 62
    4
 10
91.083333333333314
 20
219.16666700000007
 40
0.5
 50
90
 51
180
  0
LINE
  8
_1-0_躯体
  6
CONTINUOUS
 62
    4
 10
91.41666633333331
 20
219.66666700000007
 11
91.083333333333314
 21
219.66666700000007
  0
ARC
  8
_1-0_躯体
  6
CONTINUOUS
 62
    4
 10
91.41666633333331
 20
219.16666700000007
 40
0.5
 50
0
 51
90
  0
LINE
  8
_1-0_躯体
  6
CONTINUOUS
 62
    4
 10
91.91666633333331
 20
219.16666700000007
 11
91.91666633333331
 21
214.33333399999998
  0
ARC
  8
_1-0_躯体
  6
CONTINUOUS
 62
    4
 10
91.083333333333314
 20
219.16666700000007
 40
0.3333329999999999
 50
90
 51
180
  0
LINE
  8
_1-0_躯体
  6
CONTINUOUS
 62
    4
 10
91.41666633333331
 20
219.50000000000003
 11
91.083333333333314
 21
219.50000000000003
  0
ARC
  8
_1-0_躯体
  6
CONTINUOUS
 62
    4
 10
91.41666633333331
 20
219.16666700000007
 40
0.3333329999999999
 50
0
 51
90
  0
ARC
  8
_1-0_躯体
  6
CONTINUOUS
 62
    4
 10
90.91666633333331
 20
214.33333399999998
 40
0.8333329999999998
 50
270
 51
0
  0
LINE
  8
_1-0_躯体
  6
CONTINUOUS
 62
    4
 10
91.750000333333276
 20
219.16666700000007
 11
91.750000333333276
 21
214.33333399999998
  0
LINE
  8
_1-0_躯体
  6
CONTINUOUS
 62
    4
 10
90.750000333333276
 20
218.66666700000007
 11
90.750000333333276
 21
219.16666700000007
  0
ARC
  8
_1-0_躯体
  6
CONTINUOUS
 62
    4
 10
90.91666633333331
 20
214.33333399999998
 40
1
 50
270
 51
0
  0
LINE
  8
_1-0_躯体
  6
CONTINUOUS
 62
    4
 10
77.250000333333276
 20
213.33333399999998
 11
77.583333333333314
 21
213.5
  0
LINE
  8
_1-0_躯体
  6
CONTINUOUS
 62
    4
 10
77.583333333333314
 20
213.5
 11
78.083333333333314
 21
213.33333399999998
  0
LINE
  8
_1-0_躯体
  6
CONTINUOUS
 62
    4
 10
77.210655333333307
 20
213.5
 11
77.570545333333314
 21
213.679945
  0
LINE
  8
_1-0_躯体
  6
CONTINUOUS
 62
    4
 10
77.570545333333314
 20
213.679945
 11
78.083333333333314
 21
213.50901599999997
  0
LINE
  8
_1-0_躯体
  6
CONTINUOUS
 62
    4
 10
78.583333333333314
 20
213.5
 11
78.083333333333314
 21
213.33333399999998
  0
LINE
  8
_1-0_躯体
  6
CONTINUOUS
 62
    4
 10
78.083333333333314
 20
213.50901599999997
 11
78.583333333333314
 21
213.67568200000005
  0
LINE
  8
_1-0_躯体
  6
CONTINUOUS
 62
    4
 10
79.583333333333314
 20
213.5
 11
79.083333333333314
 21
213.33333399999998
  0
LINE
  8
_1-0_躯体
  6
CONTINUOUS
 62
    4
 10
79.083333333333314
 20
213.50901599999997
 11
79.583333333333314
 21
213.67568200000005
  0
LINE
  8
_1-0_躯体
  6
CONTINUOUS
 62
    4
 10
78.583333333333314
 20
213.5
 11
79.083333333333314
 21
213.33333399999998
  0
LINE
  8
_1-0_躯体
  6
CONTINUOUS
 62
    4
 10
79.083333333333314
 20
213.50901599999997
 11
78.583333333333314
 21
213.67568200000005
  0
LINE
  8
_1-0_躯体
  6
CONTINUOUS
 62
    4
 10
81.583333333333314
 20
213.5
 11
81.083333333333314
 21
213.33333399999998
  0
LINE
  8
_1-0_躯体
  6
CONTINUOUS
 62
    4
 10
81.596121333333315
 20
213.679945
 11
81.083333333333314
 21
213.50901599999997
  0
LINE
  8
_1-0_躯体
  6
CONTINUOUS
 62
    4
 10
80.583333333333314
 20
213.5
 11
81.083333333333314
 21
213.33333399999998
  0
LINE
  8
_1-0_躯体
  6
CONTINUOUS
 62
    4
 10
81.083333333333314
 20
213.50901599999997
 11
80.583333333333314
 21
213.67568200000005
  0
LINE
  8
_1-0_躯体
  6
CONTINUOUS
 62
    4
 10
79.583333333333314
 20
213.5
 11
80.083333333333314
 21
213.33333399999998
  0
LINE
  8
_1-0_躯体
  6
CONTINUOUS
 62
    4
 10
80.083333333333314
 20
213.50901599999997
 11
79.583333333333314
 21
213.67568200000005
  0
LINE
  8
_1-0_躯体
  6
CONTINUOUS
 62
    4
 10
80.583333333333314
 20
213.5
 11
80.083333333333314
 21
213.33333399999998
  0
LINE
  8
_1-0_躯体
  6
CONTINUOUS
 62
    4
 10
80.083333333333314
 20
213.50901599999997
 11
80.583333333333314
 21
213.67568200000005
  0
LINE
  8
_1-0_躯体
  6
CONTINUOUS
 62
    4
 10
81.916666333333296
 20
213.33333399999998
 11
81.583333333333314
 21
213.5
  0
LINE
  8
_1-0_躯体
  6
CONTINUOUS
 62
    4
 10
81.956011333333322
 20
213.5
 11
81.596121333333315
 21
213.679945
  0
LINE
  8
_1-0_躯体
  6
CONTINUOUS
 62
    4
 10
85.250000333333276
 20
213.33333399999998
 11
83.91666633333331
 21
213.33333399999998
  0
LINE
  8
_1-0_躯体
  6
CONTINUOUS
 62
    4
 10
85.210655333333321
 20
213.5
 11
83.956011333333294
 21
213.5
  0
LINE
  8
_1-0_躯体
  6
CONTINUOUS
 62
    4
 10
89.91666633333331
 20
213.33333399999998
 11
89.583333333333314
 21
213.5
  0
LINE
  8
_1-0_躯体
  6
CONTINUOUS
 62
    4
 10
89.583333333333314
 20
213.5
 11
89.083333333333314
 21
213.33333399999998
  0
LINE
  8
_1-0_躯体
  6
CONTINUOUS
 62
    4
 10
89.956011333333294
 20
213.5
 11
89.596121333333315
 21
213.679945
  0
LINE
  8
_1-0_躯体
  6
CONTINUOUS
 62
    4
 10
89.596121333333315
 20
213.679945
 11
89.083333333333314
 21
213.50901599999997
  0
LINE
  8
_1-0_躯体
  6
CONTINUOUS
 62
    4
 10
88.583333333333314
 20
213.5
 11
89.083333333333314
 21
213.33333399999998
  0
LINE
  8
_1-0_躯体
  6
CONTINUOUS
 62
    4
 10
89.083333333333314
 20
213.50901599999997
 11
88.583333333333314
 21
213.67568200000005
  0
LINE
  8
_1-0_躯体
  6
CONTINUOUS
 62
    4
 10
87.583333333333314
 20
213.5
 11
88.083333333333314
 21
213.33333399999998
  0
LINE
  8
_1-0_躯体
  6
CONTINUOUS
 62
    4
 10
88.083333333333314
 20
213.50901599999997
 11
87.583333333333314
 21
213.67568200000005
  0
LINE
  8
_1-0_躯体
  6
CONTINUOUS
 62
    4
 10
88.583333333333314
 20
213.5
 11
88.083333333333314
 21
213.33333399999998
  0
LINE
  8
_1-0_躯体
  6
CONTINUOUS
 62
    4
 10
88.083333333333314
 20
213.50901599999997
 11
88.583333333333314
 21
213.67568200000005
  0
LINE
  8
_1-0_躯体
  6
CONTINUOUS
 62
    4
 10
85.583333333333314
 20
213.5
 11
86.083333333333314
 21
213.33333399999998
  0
LINE
  8
_1-0_躯体
  6
CONTINUOUS
 62
    4
 10
85.570545333333314
 20
213.679945
 11
86.083333333333314
 21
213.50901599999997
  0
LINE
  8
_1-0_躯体
  6
CONTINUOUS
 62
    4
 10
86.583333333333314
 20
213.5
 11
86.083333333333314
 21
213.33333399999998
  0
LINE
  8
_1-0_躯体
  6
CONTINUOUS
 62
    4
 10
86.083333333333314
 20
213.50901599999997
 11
86.583333333333314
 21
213.67568200000005
  0
LINE
  8
_1-0_躯体
  6
CONTINUOUS
 62
    4
 10
87.583333333333314
 20
213.5
 11
87.083333333333314
 21
213.33333399999998
  0
LINE
  8
_1-0_躯体
  6
CONTINUOUS
 62
    4
 10
87.083333333333314
 20
213.50901599999997
 11
87.583333333333314
 21
213.67568200000005
  0
LINE
  8
_1-0_躯体
  6
CONTINUOUS
 62
    4
 10
86.583333333333314
 20
213.5
 11
87.083333333333314
 21
213.33333399999998
  0
LINE
  8
_1-0_躯体
  6
CONTINUOUS
 62
    4
 10
87.083333333333314
 20
213.50901599999997
 11
86.583333333333314
 21
213.67568200000005
  0
LINE
  8
_1-0_躯体
  6
CONTINUOUS
 62
    4
 10
85.250000333333276
 20
213.33333399999998
 11
85.583333333333314
 21
213.5
  0
LINE
  8
_1-0_躯体
  6
CONTINUOUS
 62
    4
 10
85.210655333333321
 20
213.5
 11
85.570545333333314
 21
213.679945
  0
LINE
  8
_1-0_躯体
  6
CONTINUOUS
 62
    4
 10
90.91666633333331
 20
213.5
 11
89.956011333333294
 21
213.5
  0
LINE
  8
_1-0_躯体
  6
CONTINUOUS
 62
    4
 10
90.91666633333331
 20
213.33333399999998
 11
89.91666633333331
 21
213.33333399999998
  0
LINE
  8
_1-0_躯体
  6
CONTINUOUS
 62
    4
 10
75.666666333333296
 20
219.33333400000004
 11
76.033333333333303
 21
219.50000000000003
  0
LINE
  8
_1-0_躯体
  6
CONTINUOUS
 62
    4
 10
76.033333333333303
 20
219.50000000000003
 11
76.539610333333314
 21
218.304957
  0
ARC
  8
_1-0_躯体
  6
CONTINUOUS
 62
    4
 10
77.000000333333276
 20
218.50000000000003
 40
0.5
 50
202.95984199999688
 51
0
  0
LINE
  8
_1-0_躯体
  6
CONTINUOUS
 62
    4
 10
75.666666333333296
 20
219.33333400000004
 11
75.666666333333296
 21
217.66666700000007
  0
LINE
  8
_1-0_躯体
  6
CONTINUOUS
 62
    4
 10
75.866666333333285
 20
219.42424300000005
 11
75.866666333333285
 21
217.66666700000007
  0
LINE
  8
_1-0_躯体
  6
CONTINUOUS
 62
    4
 10
77.500000333333276
 20
218.50000000000003
 11
77.500000333333276
 21
223.46410200000003
  0
ARC
  8
_1-0_躯体
  6
CONTINUOUS
 62
    4
 10
76.833333333333314
 20
217.66666700000007
 40
1.1666669999999999
 50
180
 51
270
  0
LINE
  8
_1-0_躯体
  6
CONTINUOUS
 62
    4
 10
76.833333333333314
 20
216.5
 11
90.333333333333314
 21
216.5
  0
LINE
  8
_1-0_躯体
  6
CONTINUOUS
 62
    4
 10
75.500000333333276
 20
232.533334
 11
75.500000333333276
 21
224.00000000000003
  0
LINE
  8
_1-0_躯体
  6
CONTINUOUS
 62
    4
 10
91.66666633333331
 20
232.533334
 11
91.66666633333331
 21
224.00000000000003
  0
ARC
  8
_1-0_躯体
  6
CONTINUOUS
 62
    4
 10
76.833333333333314
 20
217.66666700000007
 40
0.9666669999999998
 50
180
 51
270
  0
LINE
  8
_1-0_躯体
  6
CONTINUOUS
 62
    4
 10
90.333333333333314
 20
216.69999999999996
 11
76.833333333333314
 21
216.69999999999996
  0
LINE
  8
_1-0_躯体
  6
CONTINUOUS
 62
    4
 10
75.500000333333276
 20
224.00000000000003
 11
77.500000333333276
 21
223.46410200000003
  0
LINE
  8
_1-0_躯体
  6
CONTINUOUS
 62
    4
 10
75.500000333333276
 20
232.533334
 11
91.66666633333331
 21
232.533334
  0
ARC
  8
_1-0_躯体
  6
CONTINUOUS
 62
    4
 10
77.750000333333276
 20
225.50000000000003
 40
0.8333329999999998
 50
180
 51
270
  0
ARC
  8
_1-0_躯体
  6
CONTINUOUS
 62
    4
 10
77.750000333333276
 20
229.83333400000004
 40
0.8333329999999998
 50
90
 51
180
  0
LINE
  8
_1-0_躯体
  6
CONTINUOUS
 62
    4
 10
76.916666333333296
 20
225.50000000000003
 11
76.916666333333296
 21
229.83333400000004
  0
LINE
  8
_1-0_躯体
  6
CONTINUOUS
 62
    4
 10
77.750000333333276
 20
224.66666700000007
 11
78.583333333333314
 21
224.66666700000007
  0
ARC
  8
_1-0_躯体
  6
CONTINUOUS
 62
    4
 10
80.250000333333276
 20
219.00000000000003
 40
1
 50
180
 51
0
  0
ARC
  8
_1-0_躯体
  6
CONTINUOUS
 62
    4
 10
78.583333333333314
 20
224.00000000000003
 40
0.666667
 50
0
 51
90
  0
LINE
  8
_1-0_躯体
  6
CONTINUOUS
 62
    4
 10
79.250000333333276
 20
219.00000000000003
 11
79.250000333333276
 21
224.00000000000003
  0
ARC
  8
_1-0_躯体
  6
CONTINUOUS
 62
    4
 10
81.916666333333296
 20
224.00000000000003
 40
0.666667
 50
90
 51
180
  0
LINE
  8
_1-0_躯体
  6
CONTINUOUS
 62
    4
 10
81.250000333333276
 20
219.00000000000003
 11
81.250000333333276
 21
224.00000000000003
  0
ARC
  8
_1-0_躯体
  6
CONTINUOUS
 62
    4
 10
85.250000333333276
 20
224.00000000000003
 40
0.666667
 50
0
 51
90
  0
LINE
  8
_1-0_躯体
  6
CONTINUOUS
 62
    4
 10
81.916666333333296
 20
224.66666700000007
 11
85.250000333333276
 21
224.66666700000007
  0
LINE
  8
_1-0_躯体
  6
CONTINUOUS
 62
    4
 10
91.500000333333276
 20
219.33333400000004
 11
91.133333333333297
 21
219.50000000000003
  0
LINE
  8
_1-0_躯体
  6
CONTINUOUS
 62
    4
 10
91.133333333333297
 20
219.50000000000003
 11
90.627056333333314
 21
218.304957
  0
ARC
  8
_1-0_躯体
  6
CONTINUOUS
 62
    4
 10
90.16666633333331
 20
218.50000000000003
 40
0.5
 50
180
 51
337.04015800000246
  0
ARC
  8
_1-0_躯体
  6
CONTINUOUS
 62
    4
 10
90.333333333333314
 20
217.66666700000007
 40
1.1666669999999999
 50
270
 51
0
  0
LINE
  8
_1-0_躯体
  6
CONTINUOUS
 62
    4
 10
91.500000333333276
 20
219.33333400000004
 11
91.500000333333276
 21
217.66666700000007
  0
ARC
  8
_1-0_躯体
  6
CONTINUOUS
 62
    4
 10
90.333333333333314
 20
217.66666700000007
 40
0.9666669999999998
 50
270
 51
0
  0
LINE
  8
_1-0_躯体
  6
CONTINUOUS
 62
    4
 10
91.300000333333259
 20
219.42424300000005
 11
91.300000333333259
 21
217.66666700000007
  0
LINE
  8
_1-0_躯体
  6
CONTINUOUS
 62
    4
 10
89.66666633333331
 20
218.50000000000003
 11
89.66666633333331
 21
223.46410200000003
  0
LINE
  8
_1-0_躯体
  6
CONTINUOUS
 62
    4
 10
91.66666633333331
 20
224.00000000000003
 11
89.66666633333331
 21
223.46410200000003
  0
ARC
  8
_1-0_躯体
  6
CONTINUOUS
 62
    4
 10
86.91666633333331
 20
219.00000000000003
 40
1
 50
180
 51
0
  0
ARC
  8
_1-0_躯体
  6
CONTINUOUS
 62
    4
 10
88.583333333333314
 20
224.00000000000003
 40
0.666667
 50
90
 51
180
  0
LINE
  8
_1-0_躯体
  6
CONTINUOUS
 62
    4
 10
87.91666633333331
 20
219.00000000000003
 11
87.91666633333331
 21
224.00000000000003
  0
LINE
  8
_1-0_躯体
  6
CONTINUOUS
 62
    4
 10
85.91666633333331
 20
219.00000000000003
 11
85.91666633333331
 21
224.00000000000003
  0
ARC
  8
_1-0_躯体
  6
CONTINUOUS
 62
    4
 10
89.41666633333331
 20
225.50000000000003
 40
0.8333329999999998
 50
270
 51
0
  0
ARC
  8
_1-0_躯体
  6
CONTINUOUS
 62
    4
 10
89.41666633333331
 20
229.83333400000004
 40
0.8333329999999998
 50
0
 51
90
  0
LINE
  8
_1-0_躯体
  6
CONTINUOUS
 62
    4
 10
90.250000333333276
 20
225.50000000000003
 11
90.250000333333276
 21
229.83333400000004
  0
LINE
  8
_1-0_躯体
  6
CONTINUOUS
 62
    4
 10
89.41666633333331
 20
224.66666700000007
 11
88.583333333333314
 21
224.66666700000007
  0
LINE
  8
_1-0_躯体
  6
CONTINUOUS
 62
    4
 10
65.000000333333276
 20
210.66666700000002
 11
93.333333333333314
 21
210.66666700000002
  0
LINE
  8
_1-0_躯体
  6
CONTINUOUS
 62
    4
 10
93.333333333333314
 20
211.33333399999998
 11
65.000000333333276
 21
211.33333399999998
  0
LINE
  8
_1-0_躯体
  6
CONTINUOUS
 62
    4
 10
93.333333333333314
 20
210
 11
65.000000333333276
 21
210
  0
CIRCLE
  8
_1-f_寸法
  6
CONTINUOUS
 62
    4
 10
81.666666666666629
 20
205
 40
1.6666666666666665
  0
TEXT
  8
_1-f_寸法
 62
    4
 10
81.041666666666629
 20
203.75
 40
2.5
 41
1
 50
0
  1
4
  0
CIRCLE
  8
_1-f_寸法
  6
CONTINUOUS
 62
    4
 10
91.666666666666657
 20
205
 40
1.6666666666666665
  0
TEXT
  8
_1-f_寸法
 62
    4
 10
91.041666666666657
 20
203.75
 40
2.5
 41
1
 50
0
  1
5
  0
LINE
  8
_1-f_寸法
  6
CONTINUOUS
 62
    4
 10
86.666666666666572
 20
208.6266665166666
 11
83.015803682616621
 21
205.97857400842827
  0
LINE
  8
_1-f_寸法
  6
CONTINUOUS
 62
    4
 10
88.429167116666974
 20
209.24166666666662
 11
90.655457986773854
 21
206.32485274030253
  0
INSERT
  2
-010-_7_
  8
_1-8_小物
 10
210
 20
148.5
 41
1
 42
1
 50
0
  0
LINE
  8
_1-f_寸法
  6
CONTINUOUS
 62
    4
 10
126.66666666666669
 20
233.33333333333331
 11
126.66666666666669
 21
239.93333333333331
  0
LINE
  8
_1-f_寸法
  6
CONTINUOUS
 62
    4
 10
93.333333333333314
 20
233.33333333333331
 11
93.333333333333314
 21
239.93333333333331
  0
POINT
  8
_1-f_寸法
 62
    4
 10
93.333333333333314
 20
238.33333333333331
  0
POINT
  8
_1-f_寸法
 62
    4
 10
126.66666666666669
 20
238.33333333333331
  0
LINE
  8
_1-f_寸法
  6
CONTINUOUS
 62
    4
 10
93.333333333333314
 20
238.33333333333331
 11
126.66666666666669
 21
238.33333333333331
  0
TEXT
  8
_1-f_寸法
 62
    4
 10
107.59999999999999
 20
238.33333333333331
 40
3.2000000000000002
 41
1
 50
0
  1
100
  0
CIRCLE
  8
_1-f_寸法
  6
CONTINUOUS
 62
    4
 10
70.000000000000028
 20
216.66666666666666
 40
1.6666666666666665
  0
TEXT
  8
_1-f_寸法
 62
    4
 10
69.375
 20
215.41666666666666
 40
2.5
 41
1
 50
0
  1
6
  0
LINE
  8
_1-f_寸法
  6
CONTINUOUS
 62
    4
 10
70.699867957627163
 20
215.15406539082937
 11
73.680712072044287
 21
208.71166641913419
  0
INSERT
  2
-011-_8_
  8
_1-7_カバ__
 10
210
 20
148.5
 41
1
 42
1
 50
0
  0
LINE
  8
_1-f_寸法
  6
CONTINUOUS
 62
    4
 10
146.66666666666657
 20
200
 11
146.66666666666657
 21
193.40000000000001
  0
LINE
  8
_1-f_寸法
  6
CONTINUOUS
 62
    4
 10
73.333333333333258
 20
200
 11
73.333333333333258
 21
193.40000000000001
  0
POINT
  8
_1-f_寸法
 62
    4
 10
73.333333333333258
 20
195
  0
POINT
  8
_1-f_寸法
 62
    4
 10
146.66666666666657
 20
195
  0
LINE
  8
_1-f_寸法
  6
CONTINUOUS
 62
    4
 10
73.333333333333258
 20
195
 11
146.66666666666657
 21
195
  0
TEXT
  8
_1-f_寸法
 62
    4
 10
107.59999999999992
 20
195
 40
3.2000000000000002
 41
1
 50
0
  1
220
  0
LINE
  8
_1-0_躯体
  6
CONTINUOUS
 62
    6
 10
293.33333333333314
 20
232.33333399999995
 11
293.33333333333314
 21
182.77478689200248
  0
CIRCLE
  8
_1-f_寸法
  6
CONTINUOUS
 62
    4
 10
290
 20
185
 40
1.6666666666666665
  0
TEXT
  8
_1-f_寸法
 62
    4
 10
289.375
 20
183.75
 40
2.5
 41
1
 50
0
  1
7
  0
ARC
  8
_1-0_躯体
  6
CONTINUOUS
 62
    4
 10
330.58333266666654
 20
229.83333399999995
 40
0.8333329999999998
 50
90
 51
180
  0
ARC
  8
_1-0_躯体
  6
CONTINUOUS
 62
    4
 10
342.24999966666655
 20
229.83333399999995
 40
0.8333329999999998
 50
0
 51
90
  0
LINE
  8
_1-0_躯体
  6
CONTINUOUS
 62
    4
 10
330.58333266666654
 20
230.66666699999999
 11
342.24999966666655
 21
230.66666699999999
  0
LINE
  8
_1-0_躯体
  6
CONTINUOUS
 62
    4
 10
344.49999966666661
 20
232.33333399999995
 11
354.99999966666667
 21
232.33333399999995
  0
LINE
  8
_1-0_躯体
  6
CONTINUOUS
 62
    4
 10
328.33333266666654
 20
232.33333399999995
 11
326.66666666666652
 21
232.33333399999995
  0
LINE
  8
_1-0_躯体
  6
CONTINUOUS
 62
    4
 10
326.66666666666652
 20
232.33333399999995
 11
326.66666666666652
 21
219.66666699999999
  0
LINE
  8
_1-0_躯体
  6
CONTINUOUS
 62
    4
 10
354.99999966666667
 20
213.33333399999992
 11
326.66666666666652
 21
213.33333399999992
  0
LINE
  8
_1-0_躯体
  6
CONTINUOUS
 62
    4
 10
354.99999966666667
 20
212.66666699999996
 11
326.66666666666652
 21
212.66666699999996
  0
LINE
  8
_1-0_躯体
  6
CONTINUOUS
 62
    4
 10
354.99999966666667
 20
211.99999999999991
 11
326.66666666666652
 21
211.99999999999991
  0
LINE
  8
_1-0_躯体
  6
CONTINUOUS
 62
    4
 10
330.33333266666654
 20
219.66666699999999
 11
326.66666666666652
 21
219.66666699999999
  0
LINE
  8
_1-0_躯体
  6
CONTINUOUS
 62
    4
 10
329.08333266666654
 20
213.49999999999991
 11
330.04398866666662
 21
213.49999999999991
  0
LINE
  8
_1-0_躯体
  6
CONTINUOUS
 62
    4
 10
329.08333266666654
 20
213.33333399999992
 11
330.08333266666654
 21
213.33333399999992
  0
LINE
  8
_1-0_躯体
  6
CONTINUOUS
 62
    4
 10
336.08333266666654
 20
213.33333399999992
 11
336.41666666666652
 21
213.49999999999991
  0
LINE
  8
_1-0_躯体
  6
CONTINUOUS
 62
    4
 10
336.41666666666652
 20
213.49999999999991
 11
336.74999966666655
 21
213.33333399999992
  0
LINE
  8
_1-0_躯体
  6
CONTINUOUS
 62
    4
 10
334.74999966666655
 20
213.33333399999992
 11
336.08333266666654
 21
213.33333399999992
  0
LINE
  8
_1-0_躯体
  6
CONTINUOUS
 62
    4
 10
334.78934466666664
 20
213.49999999999991
 11
336.04398866666662
 21
213.49999999999991
  0
LINE
  8
_1-0_躯体
  6
CONTINUOUS
 62
    4
 10
336.04398866666662
 20
213.49999999999991
 11
336.41666666666652
 21
213.68633899999992
  0
LINE
  8
_1-0_躯体
  6
CONTINUOUS
 62
    4
 10
336.41666666666652
 20
213.68633899999992
 11
336.78934466666664
 21
213.49999999999991
  0
LINE
  8
_1-0_躯体
  6
CONTINUOUS
 62
    4
 10
329.24999966666655
 20
218.66666699999999
 11
329.41666666666652
 21
218.66666699999999
  0
LINE
  8
_1-0_躯体
  6
CONTINUOUS
 62
    4
 10
329.41666666666652
 20
218.66666699999999
 11
329.41666666666652
 21
219.16666699999999
  0
ARC
  8
_1-0_躯体
  6
CONTINUOUS
 62
    4
 10
328.91666666666652
 20
219.16666699999999
 40
0.5
 50
0
 51
90
  0
LINE
  8
_1-0_躯体
  6
CONTINUOUS
 62
    4
 10
328.58333266666654
 20
219.66666699999999
 11
328.91666666666652
 21
219.66666699999999
  0
ARC
  8
_1-0_躯体
  6
CONTINUOUS
 62
    4
 10
328.58333266666654
 20
219.16666699999999
 40
0.5
 50
90
 51
180
  0
LINE
  8
_1-0_躯体
  6
CONTINUOUS
 62
    4
 10
328.08333266666654
 20
219.16666699999999
 11
328.08333266666654
 21
214.33333399999992
  0
ARC
  8
_1-0_躯体
  6
CONTINUOUS
 62
    4
 10
328.91666666666652
 20
219.16666699999999
 40
0.3333329999999999
 50
0
 51
90
  0
LINE
  8
_1-0_躯体
  6
CONTINUOUS
 62
    4
 10
328.58333266666654
 20
219.49999999999994
 11
328.91666666666652
 21
219.49999999999994
  0
ARC
  8
_1-0_躯体
  6
CONTINUOUS
 62
    4
 10
328.58333266666654
 20
219.16666699999999
 40
0.3333329999999999
 50
90
 51
180
  0
ARC
  8
_1-0_躯体
  6
CONTINUOUS
 62
    4
 10
329.08333266666654
 20
214.33333399999992
 40
0.8333329999999998
 50
180
 51
270
  0
LINE
  8
_1-0_躯体
  6
CONTINUOUS
 62
    4
 10
328.24999966666655
 20
219.16666699999999
 11
328.24999966666655
 21
214.33333399999992
  0
LINE
  8
_1-0_躯体
  6
CONTINUOUS
 62
    4
 10
329.24999966666655
 20
218.66666699999999
 11
329.24999966666655
 21
219.16666699999999
  0
ARC
  8
_1-0_躯体
  6
CONTINUOUS
 62
    4
 10
329.08333266666654
 20
214.33333399999992
 40
1
 50
180
 51
270
  0
LINE
  8
_1-0_躯体
  6
CONTINUOUS
 62
    4
 10
343.58333266666648
 20
218.66666699999999
 11
343.41666666666657
 21
218.66666699999999
  0
LINE
  8
_1-0_躯体
  6
CONTINUOUS
 62
    4
 10
343.41666666666657
 20
218.66666699999999
 11
343.41666666666657
 21
219.16666699999999
  0
ARC
  8
_1-0_躯体
  6
CONTINUOUS
 62
    4
 10
343.91666666666657
 20
219.16666699999999
 40
0.5
 50
90
 51
180
  0
LINE
  8
_1-0_躯体
  6
CONTINUOUS
 62
    4
 10
344.24999966666661
 20
219.66666699999999
 11
343.91666666666657
 21
219.66666699999999
  0
ARC
  8
_1-0_躯体
  6
CONTINUOUS
 62
    4
 10
344.24999966666661
 20
219.16666699999999
 40
0.5
 50
0
 51
90
  0
LINE
  8
_1-0_躯体
  6
CONTINUOUS
 62
    4
 10
344.74999966666661
 20
219.16666699999999
 11
344.74999966666661
 21
214.33333399999992
  0
ARC
  8
_1-0_躯体
  6
CONTINUOUS
 62
    4
 10
343.91666666666657
 20
219.16666699999999
 40
0.3333329999999999
 50
90
 51
180
  0
LINE
  8
_1-0_躯体
  6
CONTINUOUS
 62
    4
 10
344.24999966666661
 20
219.49999999999994
 11
343.91666666666657
 21
219.49999999999994
  0
ARC
  8
_1-0_躯体
  6
CONTINUOUS
 62
    4
 10
344.24999966666661
 20
219.16666699999999
 40
0.3333329999999999
 50
0
 51
90
  0
ARC
  8
_1-0_躯体
  6
CONTINUOUS
 62
    4
 10
343.74999966666661
 20
214.33333399999992
 40
0.8333329999999998
 50
270
 51
0
  0
LINE
  8
_1-0_躯体
  6
CONTINUOUS
 62
    4
 10
344.58333266666648
 20
219.16666699999999
 11
344.58333266666648
 21
214.33333399999992
  0
LINE
  8
_1-0_躯体
  6
CONTINUOUS
 62
    4
 10
343.58333266666648
 20
218.66666699999999
 11
343.58333266666648
 21
219.16666699999999
  0
ARC
  8
_1-0_躯体
  6
CONTINUOUS
 62
    4
 10
343.74999966666661
 20
214.33333399999992
 40
1
 50
270
 51
0
  0
LINE
  8
_1-0_躯体
  6
CONTINUOUS
 62
    4
 10
330.08333266666654
 20
213.33333399999992
 11
330.41666666666652
 21
213.49999999999991
  0
LINE
  8
_1-0_躯体
  6
CONTINUOUS
 62
    4
 10
330.41666666666652
 20
213.49999999999991
 11
330.91666666666652
 21
213.33333399999992
  0
LINE
  8
_1-0_躯体
  6
CONTINUOUS
 62
    4
 10
330.04398866666662
 20
213.49999999999991
 11
330.40387766666646
 21
213.67994499999992
  0
LINE
  8
_1-0_躯体
  6
CONTINUOUS
 62
    4
 10
330.40387766666646
 20
213.67994499999992
 11
330.91666666666652
 21
213.50901599999989
  0
LINE
  8
_1-0_躯体
  6
CONTINUOUS
 62
    4
 10
331.41666666666652
 20
213.49999999999991
 11
330.91666666666652
 21
213.33333399999992
  0
LINE
  8
_1-0_躯体
  6
CONTINUOUS
 62
    4
 10
330.91666666666652
 20
213.50901599999989
 11
331.41666666666652
 21
213.67568199999997
  0
LINE
  8
_1-0_躯体
  6
CONTINUOUS
 62
    4
 10
332.41666666666652
 20
213.49999999999991
 11
331.91666666666652
 21
213.33333399999992
  0
LINE
  8
_1-0_躯体
  6
CONTINUOUS
 62
    4
 10
331.91666666666652
 20
213.50901599999989
 11
332.41666666666652
 21
213.67568199999997
  0
LINE
  8
_1-0_躯体
  6
CONTINUOUS
 62
    4
 10
331.41666666666652
 20
213.49999999999991
 11
331.91666666666652
 21
213.33333399999992
  0
LINE
  8
_1-0_躯体
  6
CONTINUOUS
 62
    4
 10
331.91666666666652
 20
213.50901599999989
 11
331.41666666666652
 21
213.67568199999997
  0
LINE
  8
_1-0_躯体
  6
CONTINUOUS
 62
    4
 10
334.41666666666652
 20
213.49999999999991
 11
333.91666666666652
 21
213.33333399999992
  0
LINE
  8
_1-0_躯体
  6
CONTINUOUS
 62
    4
 10
334.42945466666652
 20
213.67994499999992
 11
333.91666666666652
 21
213.50901599999989
  0
LINE
  8
_1-0_躯体
  6
CONTINUOUS
 62
    4
 10
333.41666666666652
 20
213.49999999999991
 11
333.91666666666652
 21
213.33333399999992
  0
LINE
  8
_1-0_躯体
  6
CONTINUOUS
 62
    4
 10
333.91666666666652
 20
213.50901599999989
 11
333.41666666666652
 21
213.67568199999997
  0
LINE
  8
_1-0_躯体
  6
CONTINUOUS
 62
    4
 10
332.41666666666652
 20
213.49999999999991
 11
332.91666666666652
 21
213.33333399999992
  0
LINE
  8
_1-0_躯体
  6
CONTINUOUS
 62
    4
 10
332.91666666666652
 20
213.50901599999989
 11
332.41666666666652
 21
213.67568199999997
  0
LINE
  8
_1-0_躯体
  6
CONTINUOUS
 62
    4
 10
333.41666666666652
 20
213.49999999999991
 11
332.91666666666652
 21
213.33333399999992
  0
LINE
  8
_1-0_躯体
  6
CONTINUOUS
 62
    4
 10
332.91666666666652
 20
213.50901599999989
 11
333.41666666666652
 21
213.67568199999997
  0
LINE
  8
_1-0_躯体
  6
CONTINUOUS
 62
    4
 10
334.74999966666655
 20
213.33333399999992
 11
334.41666666666652
 21
213.49999999999991
  0
LINE
  8
_1-0_躯体
  6
CONTINUOUS
 62
    4
 10
334.78934466666664
 20
213.49999999999991
 11
334.42945466666652
 21
213.67994499999992
  0
LINE
  8
_1-0_躯体
  6
CONTINUOUS
 62
    4
 10
338.08333266666654
 20
213.33333399999992
 11
336.74999966666655
 21
213.33333399999992
  0
LINE
  8
_1-0_躯体
  6
CONTINUOUS
 62
    4
 10
338.04398866666662
 20
213.49999999999991
 11
336.78934466666664
 21
213.49999999999991
  0
LINE
  8
_1-0_躯体
  6
CONTINUOUS
 62
    4
 10
342.74999966666655
 20
213.33333399999992
 11
342.41666666666652
 21
213.49999999999991
  0
LINE
  8
_1-0_躯体
  6
CONTINUOUS
 62
    4
 10
342.41666666666652
 20
213.49999999999991
 11
341.91666666666652
 21
213.33333399999992
  0
LINE
  8
_1-0_躯体
  6
CONTINUOUS
 62
    4
 10
342.78934466666658
 20
213.49999999999991
 11
342.42945466666652
 21
213.67994499999992
  0
LINE
  8
_1-0_躯体
  6
CONTINUOUS
 62
    4
 10
342.42945466666652
 20
213.67994499999992
 11
341.91666666666652
 21
213.50901599999989
  0
LINE
  8
_1-0_躯体
  6
CONTINUOUS
 62
    4
 10
341.41666666666652
 20
213.49999999999991
 11
341.91666666666652
 21
213.33333399999992
  0
LINE
  8
_1-0_躯体
  6
CONTINUOUS
 62
    4
 10
341.91666666666652
 20
213.50901599999989
 11
341.41666666666652
 21
213.67568199999997
  0
LINE
  8
_1-0_躯体
  6
CONTINUOUS
 62
    4
 10
340.41666666666652
 20
213.49999999999991
 11
340.91666666666652
 21
213.33333399999992
  0
LINE
  8
_1-0_躯体
  6
CONTINUOUS
 62
    4
 10
340.91666666666652
 20
213.50901599999989
 11
340.41666666666652
 21
213.67568199999997
  0
LINE
  8
_1-0_躯体
  6
CONTINUOUS
 62
    4
 10
341.41666666666652
 20
213.49999999999991
 11
340.91666666666652
 21
213.33333399999992
  0
LINE
  8
_1-0_躯体
  6
CONTINUOUS
 62
    4
 10
340.91666666666652
 20
213.50901599999989
 11
341.41666666666652
 21
213.67568199999997
  0
LINE
  8
_1-0_躯体
  6
CONTINUOUS
 62
    4
 10
338.41666666666652
 20
213.49999999999991
 11
338.91666666666652
 21
213.33333399999992
  0
LINE
  8
_1-0_躯体
  6
CONTINUOUS
 62
    4
 10
338.40387766666657
 20
213.67994499999992
 11
338.91666666666652
 21
213.50901599999989
  0
LINE
  8
_1-0_躯体
  6
CONTINUOUS
 62
    4
 10
339.41666666666652
 20
213.49999999999991
 11
338.91666666666652
 21
213.33333399999992
  0
LINE
  8
_1-0_躯体
  6
CONTINUOUS
 62
    4
 10
338.91666666666652
 20
213.50901599999989
 11
339.41666666666652
 21
213.67568199999997
  0
LINE
  8
_1-0_躯体
  6
CONTINUOUS
 62
    4
 10
340.41666666666652
 20
213.49999999999991
 11
339.91666666666652
 21
213.33333399999992
  0
LINE
  8
_1-0_躯体
  6
CONTINUOUS
 62
    4
 10
339.91666666666652
 20
213.50901599999989
 11
340.41666666666652
 21
213.67568199999997
  0
LINE
  8
_1-0_躯体
  6
CONTINUOUS
 62
    4
 10
339.41666666666652
 20
213.49999999999991
 11
339.91666666666652
 21
213.33333399999992
  0
LINE
  8
_1-0_躯体
  6
CONTINUOUS
 62
    4
 10
339.91666666666652
 20
213.50901599999989
 11
339.41666666666652
 21
213.67568199999997
  0
LINE
  8
_1-0_躯体
  6
CONTINUOUS
 62
    4
 10
338.08333266666654
 20
213.33333399999992
 11
338.41666666666652
 21
213.49999999999991
  0
LINE
  8
_1-0_躯体
  6
CONTINUOUS
 62
    4
 10
338.04398866666662
 20
213.49999999999991
 11
338.40387766666657
 21
213.67994499999992
  0
LINE
  8
_1-0_躯体
  6
CONTINUOUS
 62
    4
 10
343.74999966666661
 20
213.49999999999991
 11
342.78934466666658
 21
213.49999999999991
  0
LINE
  8
_1-0_躯体
  6
CONTINUOUS
 62
    4
 10
343.74999966666661
 20
213.33333399999992
 11
342.74999966666655
 21
213.33333399999992
  0
LINE
  8
_1-0_躯体
  6
CONTINUOUS
 62
    4
 10
328.49999966666655
 20
219.33333399999995
 11
328.86666666666662
 21
219.49999999999994
  0
LINE
  8
_1-0_躯体
  6
CONTINUOUS
 62
    4
 10
328.86666666666662
 20
219.49999999999994
 11
329.37294366666657
 21
218.30495699999994
  0
ARC
  8
_1-0_躯体
  6
CONTINUOUS
 62
    4
 10
329.83333266666654
 20
218.49999999999994
 40
0.5
 50
202.95984199999563
 51
0
  0
LINE
  8
_1-0_躯体
  6
CONTINUOUS
 62
    4
 10
328.49999966666655
 20
219.33333399999995
 11
328.49999966666655
 21
217.66666699999999
  0
LINE
  8
_1-0_躯体
  6
CONTINUOUS
 62
    4
 10
328.69999966666654
 20
219.42424299999996
 11
328.69999966666654
 21
217.66666699999999
  0
LINE
  8
_1-0_躯体
  6
CONTINUOUS
 62
    4
 10
330.33333266666654
 20
218.49999999999994
 11
330.33333266666654
 21
223.46410199999994
  0
ARC
  8
_1-0_躯体
  6
CONTINUOUS
 62
    4
 10
329.66666666666652
 20
217.66666699999999
 40
1.1666669999999999
 50
180
 51
270
  0
LINE
  8
_1-0_躯体
  6
CONTINUOUS
 62
    4
 10
329.66666666666652
 20
216.49999999999991
 11
343.16666666666657
 21
216.49999999999991
  0
LINE
  8
_1-0_躯体
  6
CONTINUOUS
 62
    4
 10
328.33333266666654
 20
232.53333399999991
 11
328.33333266666654
 21
223.99999999999994
  0
LINE
  8
_1-0_躯体
  6
CONTINUOUS
 62
    4
 10
344.49999966666661
 20
232.53333399999991
 11
344.49999966666661
 21
223.99999999999994
  0
ARC
  8
_1-0_躯体
  6
CONTINUOUS
 62
    4
 10
329.66666666666652
 20
217.66666699999999
 40
0.9666669999999998
 50
180
 51
270
  0
LINE
  8
_1-0_躯体
  6
CONTINUOUS
 62
    4
 10
343.16666666666657
 20
216.69999999999987
 11
329.66666666666652
 21
216.69999999999987
  0
LINE
  8
_1-0_躯体
  6
CONTINUOUS
 62
    4
 10
328.33333266666654
 20
223.99999999999994
 11
330.33333266666654
 21
223.46410199999994
  0
LINE
  8
_1-0_躯体
  6
CONTINUOUS
 62
    4
 10
328.33333266666654
 20
232.53333399999991
 11
344.49999966666661
 21
232.53333399999991
  0
ARC
  8
_1-0_躯体
  6
CONTINUOUS
 62
    4
 10
330.58333266666654
 20
225.49999999999994
 40
0.8333329999999998
 50
180
 51
270
  0
LINE
  8
_1-0_躯体
  6
CONTINUOUS
 62
    4
 10
329.74999966666655
 20
225.49999999999994
 11
329.74999966666655
 21
229.83333399999995
  0
LINE
  8
_1-0_躯体
  6
CONTINUOUS
 62
    4
 10
330.58333266666654
 20
224.66666699999999
 11
331.41666666666652
 21
224.66666699999999
  0
ARC
  8
_1-0_躯体
  6
CONTINUOUS
 62
    4
 10
333.08333266666654
 20
218.99999999999994
 40
1
 50
180
 51
0
  0
ARC
  8
_1-0_躯体
  6
CONTINUOUS
 62
    4
 10
331.41666666666652
 20
223.99999999999994
 40
0.666667
 50
0
 51
90
  0
LINE
  8
_1-0_躯体
  6
CONTINUOUS
 62
    4
 10
332.08333266666654
 20
218.99999999999994
 11
332.08333266666654
 21
223.99999999999994
  0
ARC
  8
_1-0_躯体
  6
CONTINUOUS
 62
    4
 10
334.74999966666655
 20
223.99999999999994
 40
0.666667
 50
90
 51
180
  0
LINE
  8
_1-0_躯体
  6
CONTINUOUS
 62
    4
 10
334.08333266666654
 20
218.99999999999994
 11
334.08333266666654
 21
223.99999999999994
  0
ARC
  8
_1-0_躯体
  6
CONTINUOUS
 62
    4
 10
338.08333266666654
 20
223.99999999999994
 40
0.666667
 50
0
 51
90
  0
LINE
  8
_1-0_躯体
  6
CONTINUOUS
 62
    4
 10
334.74999966666655
 20
224.66666699999999
 11
338.08333266666654
 21
224.66666699999999
  0
LINE
  8
_1-0_躯体
  6
CONTINUOUS
 62
    4
 10
344.33333266666648
 20
219.33333399999995
 11
343.96666666666653
 21
219.49999999999994
  0
LINE
  8
_1-0_躯体
  6
CONTINUOUS
 62
    4
 10
343.96666666666653
 20
219.49999999999994
 11
343.46038866666652
 21
218.30495699999994
  0
ARC
  8
_1-0_躯体
  6
CONTINUOUS
 62
    4
 10
342.99999966666655
 20
218.49999999999994
 40
0.5
 50
180
 51
337.04015800000184
  0
ARC
  8
_1-0_躯体
  6
CONTINUOUS
 62
    4
 10
343.16666666666657
 20
217.66666699999999
 40
1.1666669999999999
 50
270
 51
0
  0
LINE
  8
_1-0_躯体
  6
CONTINUOUS
 62
    4
 10
344.33333266666648
 20
219.33333399999995
 11
344.33333266666648
 21
217.66666699999999
  0
ARC
  8
_1-0_躯体
  6
CONTINUOUS
 62
    4
 10
343.16666666666657
 20
217.66666699999999
 40
0.9666669999999998
 50
270
 51
0
  0
LINE
  8
_1-0_躯体
  6
CONTINUOUS
 62
    4
 10
344.1333326666666
 20
219.42424299999996
 11
344.1333326666666
 21
217.66666699999999
  0
LINE
  8
_1-0_躯体
  6
CONTINUOUS
 62
    4
 10
342.49999966666655
 20
218.49999999999994
 11
342.49999966666655
 21
223.46410199999994
  0
LINE
  8
_1-0_躯体
  6
CONTINUOUS
 62
    4
 10
344.49999966666661
 20
223.99999999999994
 11
342.49999966666655
 21
223.46410199999994
  0
ARC
  8
_1-0_躯体
  6
CONTINUOUS
 62
    4
 10
339.74999966666655
 20
218.99999999999994
 40
1
 50
180
 51
0
  0
ARC
  8
_1-0_躯体
  6
CONTINUOUS
 62
    4
 10
341.41666666666652
 20
223.99999999999994
 40
0.666667
 50
90
 51
180
  0
LINE
  8
_1-0_躯体
  6
CONTINUOUS
 62
    4
 10
340.74999966666655
 20
218.99999999999994
 11
340.74999966666655
 21
223.99999999999994
  0
LINE
  8
_1-0_躯体
  6
CONTINUOUS
 62
    4
 10
338.74999966666655
 20
218.99999999999994
 11
338.74999966666655
 21
223.99999999999994
  0
ARC
  8
_1-0_躯体
  6
CONTINUOUS
 62
    4
 10
342.24999966666655
 20
225.49999999999994
 40
0.8333329999999998
 50
270
 51
0
  0
LINE
  8
_1-0_躯体
  6
CONTINUOUS
 62
    4
 10
343.08333266666648
 20
225.49999999999994
 11
343.08333266666648
 21
229.83333399999995
  0
LINE
  8
_1-0_躯体
  6
CONTINUOUS
 62
    4
 10
342.24999966666655
 20
224.66666699999999
 11
341.41666666666652
 21
224.66666699999999
  0
LINE
  8
_1-0_躯体
  6
CONTINUOUS
 62
    4
 10
354.99999966666667
 20
211.33333399999992
 11
326.66666666666652
 21
211.33333399999992
  0
LINE
  8
_1-0_躯体
  6
CONTINUOUS
 62
    4
 10
354.99999966666667
 20
210.66666699999996
 11
326.66666666666652
 21
210.66666699999996
  0
LINE
  8
_1-0_躯体
  6
CONTINUOUS
 62
    4
 10
326.66666666666652
 20
209.99999999999991
 11
354.99999966666667
 21
209.99999999999991
  0
INSERT
  2
-012-$QLE_3_
  8
_1-f_寸法
 10
210
 20
148.5
 41
1
 42
1
 50
0
  0
INSERT
  2
-013-$QLE_4_
  8
_1-f_寸法
 10
210
 20
148.5
 41
1
 42
1
 50
0
  0
LINE
  8
_1-0_躯体
  6
CONTINUOUS
 62
    4
 10
326.66666666666652
 20
209.99999999999991
 11
326.66666666666652
 21
213.33333399999992
  0
INSERT
  2
-014-$QLE_5_
  8
_1-f_寸法
 10
210
 20
148.5
 41
1
 42
1
 50
0
  0
LINE
  8
_1-f_寸法
  6
CONTINUOUS
 62
    4
 10
326.66666666666652
 20
233.33333333333326
 11
326.66666666666652
 21
239.93333333333322
  0
LINE
  8
_1-f_寸法
  6
CONTINUOUS
 62
    4
 10
293.33333333333314
 20
233.33333333333326
 11
293.33333333333314
 21
239.93333333333322
  0
POINT
  8
_1-f_寸法
 62
    4
 10
293.33333333333314
 20
238.33333333333326
  0
POINT
  8
_1-f_寸法
 62
    4
 10
326.66666666666652
 20
238.33333333333326
  0
LINE
  8
_1-f_寸法
  6
CONTINUOUS
 62
    4
 10
293.33333333333314
 20
238.33333333333326
 11
326.66666666666652
 21
238.33333333333326
  0
TEXT
  8
_1-f_寸法
 62
    4
 10
307.5999999999998
 20
238.33333333333326
 40
3.2000000000000002
 41
1
 50
0
  1
100
  0
LINE
  8
_1-f_寸法
  6
CONTINUOUS
 62
    4
 10
276.66666666666663
 20
210
 11
324.99999999999989
 21
210
  0
LINE
  8
_1-f_寸法
  6
CONTINUOUS
 62
    4
 10
346.66666667103311
 20
183.33333333333331
 11
346.66666667103311
 21
200
  0
LINE
  8
_1-f_寸法
  6
CONTINUOUS
 62
    4
 10
156.66666666666669
 20
201.8333333333334
 11
163.26666666666668
 21
201.8333333333334
  0
LINE
  8
_1-f_寸法
  6
CONTINUOUS
 62
    4
 10
156.66666666666669
 20
210
 11
163.26666666666668
 21
210
  0
POINT
  8
_1-f_寸法
 62
    4
 10
161.66666666666669
 20
210
  0
POINT
  8
_1-f_寸法
 62
    4
 10
161.66666666666669
 20
201.8333333333334
  0
LINE
  8
_1-f_寸法
  6
CONTINUOUS
 62
    4
 10
161.66666666666669
 20
210
 11
161.66666666666669
 21
201.8333333333334
  0
TEXT
  8
_1-f_寸法
 62
    4
 10
161.66666666666669
 20
202.7166666666667
 40
3.2000000000000002
 41
1
 50
90
  1
24.5
  0
LINE
  8
_1-f_寸法
  6
CONTINUOUS
 62
    4
 10
156.66666666666669
 20
201.8333333333334
 11
148.33333333333334
 21
201.8333333333334
  0
LINE
  8
_1-f_寸法
  6
CONTINUOUS
 62
    4
 10
291.44337567297407
 20
185.83333333333331
 11
294.10712942564379
 21
187.3712522794921
  0
LINE
  8
_1-f_寸法
  6
CONTINUOUS
 62
    4
 10
337.5
 20
199.77670900630739
 11
336.16826986975241
 21
202.08333325386644
  0
CIRCLE
  8
_1-f_寸法
  6
CONTINUOUS
 62
    4
 10
328.33333333551633
 20
198.33333333333337
 40
1.6666666666666665
  0
TEXT
  8
_1-f_寸法
 62
    4
 10
327.70833333551633
 20
197.08333333333337
 40
2.5
 41
1
 50
0
  1
3
  0
LINE
  8
_1-f_寸法
  6
CONTINUOUS
 62
    4
 10
324.53535534342569
 20
201.86666658719975
 11
327.11307505673534
 21
199.4685634909861
  0
INSERT
  2
-015-_9_
  8
_1-8_小物
 10
210
 20
148.5
 41
1
 42
1
 50
0
  0
CIRCLE
  8
_1-f_寸法
  6
CONTINUOUS
 62
    4
 10
101.66666666666666
 20
211.66666666666666
 40
1.6666666666666665
  0
TEXT
  8
_1-f_寸法
 62
    4
 10
101.04166666666666
 20
210.41666666666666
 40
2.5
 41
1
 50
0
  1
2
  0
LINE
  8
_1-f_寸法
  6
CONTINUOUS
 62
    4
 10
100.83333333333333
 20
210.22329099369259
 11
98.702933863054028
 21
206.53333087075103
  0
LINE
  8
_1-0_躯体
  6
CONTINUOUS
 62
    4
 10
142.49999966666672
 20
219.66666700000007
 11
154.99999966666672
 21
219.66666700000007
  0
LINE
  8
_1-0_躯体
  6
CONTINUOUS
 62
    4
 10
342.49999966666655
 20
219.66666699999999
 11
354.99999966666667
 21
219.66666699999999
  0
LINE
  8
_1-0_躯体
  6
CENTER2
 62
    4
 10
296.40512729410693
 20
199.99999992053304
 11
276.66666666666697
 21
199.99999992053304
  0
CIRCLE
  8
_1-f_寸法
  6
CONTINUOUS
 62
    4
 10
297.5
 20
205
 40
1.6666666666666665
  0
TEXT
  8
_1-f_寸法
 62
    4
 10
296.875
 20
203.75
 40
2.5
 41
1
 50
0
  1
4
  0
LINE
  8
_1-f_寸法
  6
CONTINUOUS
 62
    4
 10
296.66666666666663
 20
203.55662432702593
 11
294.61324860817149
 21
199.99999992053301
  0
CIRCLE
  8
_1-f_寸法
  6
CONTINUOUS
 62
    4
 10
286.66666666666663
 20
195
 40
1.6666666666666665
  0
TEXT
  8
_1-f_寸法
 62
    4
 10
286.04166666666663
 20
193.75
 40
2.5
 41
1
 50
0
  1
6
  0
LINE
  8
_1-f_寸法
  6
CONTINUOUS
 62
    4
 10
287.84517796864418
 20
196.17851130197755
 11
290.99999992053313
 21
199.33333325386644
  0
LINE
  8
_1-f_寸法
  6
CONTINUOUS
 62
    4
 10
276.66666666666697
 20
199.99999992053304
 11
270.06666666666661
 21
199.99999992053304
  0
LINE
  8
_1-f_寸法
  6
CONTINUOUS
 62
    4
 10
276.66666666666697
 20
209.99999999999991
 11
270.06666666666661
 21
209.99999999999991
  0
POINT
  8
_1-f_寸法
 62
    4
 10
271.66666666666663
 20
209.99999999999991
  0
POINT
  8
_1-f_寸法
 62
    4
 10
271.66666666666663
 20
199.99999992053304
  0
LINE
  8
_1-f_寸法
  6
CONTINUOUS
 62
    4
 10
271.66666666666663
 20
209.99999999999991
 11
271.66666666666663
 21
199.99999992053304
  0
TEXT
  8
_1-f_寸法
 62
    4
 10
271.66666666666663
 20
203.39999996026648
 40
3.2000000000000002
 41
1
 50
90
  1
30
  0
CIRCLE
  8
_1-f_寸法
  6
CONTINUOUS
 62
    4
 10
290
 20
205
 40
1.6666666666666665
  0
TEXT
  8
_1-f_寸法
 62
    4
 10
289.375
 20
203.75
 40
2.5
 41
1
 50
0
  1
5
  0
LINE
  8
_1-f_寸法
  6
CONTINUOUS
 62
    4
 10
291.43221548228206
 20
204.14762884252849
 11
294.11666666666645
 21
202.55000000000018
  0
LINE
  8
_1-f_寸法
  6
CONTINUOUS
 62
    4
 10
291.66666666666663
 20
207.6666665871997
 11
285.06666666666661
 21
207.6666665871997
  0
LINE
  8
_1-f_寸法
  6
CONTINUOUS
 62
    4
 10
291.66666666666663
 20
210
 11
285.06666666666661
 21
210
  0
POINT
  8
_1-f_寸法
 62
    4
 10
286.66666666666663
 20
210
  0
POINT
  8
_1-f_寸法
 62
    4
 10
286.66666666666663
 20
207.6666665871997
  0
LINE
  8
_1-f_寸法
  6
CONTINUOUS
 62
    4
 10
286.66666666666663
 20
210
 11
286.66666666666663
 21
207.6666665871997
  0
TEXT
  8
_1-f_寸法
 62
    4
 10
286.66666666666663
 20
208.03333329359987
 40
3.2000000000000002
 41
1
 50
90
  1
7
  0
CIRCLE
  8
_1-f_寸法
  6
CONTINUOUS
 62
    4
 10
306.66666666666663
 20
195
 40
1.6666666666666665
  0
TEXT
  8
_1-f_寸法
 62
    4
 10
306.04166666666663
 20
193.75
 40
2.5
 41
1
 50
0
  1
2
  0
LINE
  8
_1-f_寸法
  6
CONTINUOUS
 62
    4
 10
305.23167660303568
 20
195.84769174530504
 11
298.20256364705347
 21
199.99999996026651
  0
LINE
  8
_1-5_ホルダ__
  6
CONTINUOUS
 62
    4
 10
93.333333333333286
 20
207.66666666666666
 11
93.333333333333286
 21
210
  0
LINE
  8
_1-5_ホルダ__
  6
CONTINUOUS
 62
    4
 10
78.333333333333201
 20
202.33333333333331
 11
78.333333333333201
 21
210
  0
LINE
  8
_1-5_ホルダ__
  6
CONTINUOUS
 62
    4
 10
78.333333333333201
 20
202.3333333333334
 11
118.33333333333329
 21
202.33333333333331
  0
LINE
  8
_1-5_ホルダ__
  6
CONTINUOUS
 62
    4
 10
93.333333333333286
 20
210
 11
78.333333333333201
 21
210
  0
LINE
  8
_1-5_ホルダ__
  6
DASHED1
 62
    4
 10
89.166666666666544
 20
209.4666666666667
 11
89.166666666666544
 21
210
  0
LINE
  8
_1-5_ホルダ__
  6
DASHED1
 62
    4
 10
84.166666666666544
 20
209.46666666666653
 11
84.166666666666544
 21
210
  0
ARC
  8
_1-5_ホルダ__
  6
CONTINUOUS
 62
    4
 10
112.33333333333314
 20
205.16666666666666
 40
0.8333333333333334
 50
90
 51
270
  0
ARC
  8
_1-5_ホルダ__
  6
CONTINUOUS
 62
    4
 10
114.33333333333329
 20
205.16666666666666
 40
0.8333333333333334
 50
270
 51
90
  0
LINE
  8
_1-5_ホルダ__
  6
CONTINUOUS
 62
    4
 10
114.33333333333329
 20
204.33333333333331
 11
112.33333333333314
 21
204.33333333333331
  0
LINE
  8
_1-5_ホルダ__
  6
CONTINUOUS
 62
    4
 10
112.33333333333314
 20
206
 11
114.33333333333329
 21
206
  0
LINE
  8
_1-5_ホルダ__
  6
CONTINUOUS
 62
    4
 10
93.333333333333286
 20
209.4666666666667
 11
78.333333333333201
 21
209.4666666666667
  0
LINE
  8
_1-5_ホルダ__
  6
CENTER2
 62
    4
 10
86.666666666666544
 20
211
 11
86.666666666666544
 21
208.4666666666667
  0
LINE
  8
_1-5_ホルダ__
  6
CONTINUOUS
 62
    4
 10
118.33333333333329
 20
202.33333333333331
 11
118.33333333333329
 21
203.66666666666666
  0
LINE
  8
_1-5_ホルダ__
  6
CONTINUOUS
 62
    4
 10
114.33333333333329
 20
207.66666666666666
 11
93.333333333333286
 21
207.66666666666666
  0
ARC
  8
_1-5_ホルダ__
  6
CONTINUOUS
 62
    4
 10
114.33333333333329
 20
203.66666666666666
 40
4
 50
0
 51
90
  0
LINE
  8
_1-5_ホルダ__
  6
DASHED1
 62
    4
 10
118.33333333333329
 20
203.3666666666667
 11
78.333333333333201
 21
203.3666666666667
  0
LINE
  8
_1-5_ホルダ__
  6
DASHED1
 62
    4
 10
118.33333333333329
 20
202.83333333333331
 11
78.333333333333201
 21
202.83333333333331
  0
ARC
  8
_1-5_ホルダ__
  6
CONTINUOUS
 62
    4
 10
320.99999999999977
 20
204.83333325386639
 40
0.8333333333333332
 50
270
 51
90
  0
ARC
  8
_1-5_ホルダ__
  6
CONTINUOUS
 62
    4
 10
318.99999999999977
 20
204.83333325386639
 40
0.8333333333333332
 50
90
 51
270
  0
LINE
  8
_1-5_ホルダ__
  6
CONTINUOUS
 62
    4
 10
318.99999999999977
 20
203.99999992053304
 11
320.99999999999977
 21
203.99999992053304
  0
LINE
  8
_1-5_ホルダ__
  6
CONTINUOUS
 62
    4
 10
320.99999999999977
 20
205.6666665871997
 11
318.99999999999977
 21
205.6666665871997
  0
LINE
  8
_1-5_ホルダ__
  6
CONTINUOUS
 62
    4
 10
293.86666666666639
 20
195.6666665871997
 11
293.33333333333314
 21
195.6666665871997
  0
ARC
  8
_1-5_ホルダ__
  6
CONTINUOUS
 62
    4
 10
296.66666666666646
 20
197.33333325386639
 40
1.6666666666666665
 50
270
 51
0
  0
ARC
  8
_1-5_ホルダ__
  6
CONTINUOUS
 62
    4
 10
296.66666666666646
 20
197.33333325386639
 40
1.6666666666666665
 50
270
 51
0
  0
LINE
  8
_1-5_ホルダ__
  6
CONTINUOUS
 62
    4
 10
298.33333333333314
 20
201.699999920533
 11
298.33333333333314
 21
197.33333325386639
  0
ARC
  8
_1-5_ホルダ__
  6
CONTINUOUS
 62
    4
 10
299.99999999999977
 20
201.699999920533
 40
1.6666666666666665
 50
90
 51
180
  0
LINE
  8
_1-5_ホルダ__
  6
CONTINUOUS
 62
    4
 10
296.66666666666646
 20
195.6666665871997
 11
293.33333333333314
 21
195.6666665871997
  0
LINE
  8
_1-5_ホルダ__
  6
CONTINUOUS
 62
    4
 10
299.99999999999977
 20
202.33333325386639
 11
299.99999999999977
 21
203.36666658719969
  0
LINE
  8
_1-5_ホルダ__
  6
CONTINUOUS
 62
    4
 10
293.86666666666639
 20
207.6666665871997
 11
293.86666666666639
 21
195.6666665871997
  0
LINE
  8
_1-5_ホルダ__
  6
CONTINUOUS
 62
    4
 10
293.33333333333314
 20
207.6666665871997
 11
293.33333333333314
 21
195.6666665871997
  0
LINE
  8
_1-5_ホルダ__
  6
DASHED1
 62
    4
 10
293.33333333333314
 20
197.49999992053304
 11
293.86666666666639
 21
197.49999992053304
  0
LINE
  8
_1-5_ホルダ__
  6
DASHED1
 62
    4
 10
293.33333333333314
 20
202.49999992053304
 11
293.86666666666639
 21
202.49999992053304
  0
LINE
  8
_1-5_ホルダ__
  6
CENTER2
 62
    4
 10
291.66666666666646
 20
199.99999992053304
 11
295.53333333333308
 21
199.99999992053304
  0
LINE
  8
_1-5_ホルダ__
  6
DASHED1
 62
    4
 10
338.33333333333314
 20
203.36666658719969
 11
299.99999999999977
 21
203.36666658719969
  0
LINE
  8
_1-5_ホルダ__
  6
CONTINUOUS
 62
    4
 10
299.99999999999977
 20
202.33333325386639
 11
338.33333333333314
 21
202.33333325386639
  0
LINE
  8
_1-5_ホルダ__
  6
DASHED1
 62
    4
 10
299.99999999999977
 20
202.86666658719972
 11
338.33333333333314
 21
202.86666658719972
  0
LINE
  8
_1-5_ホルダ__
  6
CONTINUOUS
 62
    4
 10
338.33333333333314
 20
202.33333325386639
 11
338.33333333333314
 21
203.6666665871997
  0
ARC
  8
_1-5_ホルダ__
  6
CONTINUOUS
 62
    4
 10
334.33333333333314
 20
203.6666665871997
 40
4
 50
0
 51
90
  0
LINE
  8
_1-5_ホルダ__
  6
CONTINUOUS
 62
    4
 10
293.33333333333314
 20
207.6666665871997
 11
334.33333333333314
 21
207.6666665871997
  0
INSERT
  2
-016-_10_
  8
_1-8_小物
 10
210
 20
148.5
 41
1
 42
1
 50
0
  0
INSERT
  2
-017-_11_
  8
_1-8_小物
 10
210
 20
148.5
 41
1
 42
1
 50
0
  0
INSERT
  2
-018-_12_
  8
_1-8_小物
 10
210
 20
148.5
 41
1
 42
1
 50
0
  0
INSERT
  2
-019-_13_
  8
_1-8_小物
 10
210
 20
148.5
 41
1
 42
1
 50
0
  0
INSERT
  2
-020-_14_
  8
_1-5_ホルダ__
 10
210
 20
148.5
 41
1
 42
1
 50
0
  0
INSERT
  2
-021-_15_
  8
_1-8_小物
 10
210
 20
148.5
 41
1
 42
1
 50
0
  0
INSERT
  2
-022-_16_
  8
_1-8_小物
 10
210
 20
148.5
 41
1
 42
1
 50
0
  0
LINE
  8
_1-f_寸法
  6
CONTINUOUS
 62
    4
 10
346.66666667103311
 20
201.83333325386644
 11
354.93333333333328
 21
201.83333325386644
  0
LINE
  8
_1-f_寸法
  6
CONTINUOUS
 62
    4
 10
346.66666667103311
 20
209.99999999999991
 11
354.93333333333328
 21
209.99999999999991
  0
POINT
  8
_1-f_寸法
 62
    4
 10
353.33333333333331
 20
209.99999999999991
  0
POINT
  8
_1-f_寸法
 62
    4
 10
353.33333333333331
 20
201.83333325386644
  0
LINE
  8
_1-f_寸法
  6
CONTINUOUS
 62
    4
 10
353.33333333333331
 20
209.99999999999991
 11
353.33333333333331
 21
201.83333325386644
  0
TEXT
  8
_1-f_寸法
 62
    4
 10
353.33333333333331
 20
202.7166666269332
 40
3.2000000000000002
 41
1
 50
90
  1
24.5
  0
LINE
  8
_1-f_寸法
  6
CONTINUOUS
 62
    4
 10
346.66666667103311
 20
186.83333325386644
 11
354.93333333333328
 21
186.83333325386644
  0
POINT
  8
_1-f_寸法
 62
    4
 10
353.33333333333331
 20
186.83333325386644
  0
LINE
  8
_1-f_寸法
  6
CONTINUOUS
 62
    4
 10
353.33333333333331
 20
201.83333325386644
 11
353.33333333333331
 21
186.83333325386644
  0
TEXT
  8
_1-f_寸法
 62
    4
 10
353.33333333333331
 20
192.73333325386648
 40
3.2000000000000002
 41
1
 50
90
  1
45
  0
LINE
  8
_1-f_寸法
  6
CONTINUOUS
 62
    4
 10
353.33333333333331
 20
186.83333325386644
 11
361.59999999999997
 21
186.83333325386644
  0
LINE
  8
_1-f_寸法
  6
CONTINUOUS
 62
    4
 10
353.33333333333331
 20
209.99999999999991
 11
361.59999999999997
 21
209.99999999999991
  0
POINT
  8
_1-f_寸法
 62
    4
 10
360
 20
209.99999999999991
  0
POINT
  8
_1-f_寸法
 62
    4
 10
360
 20
186.83333325386644
  0
LINE
  8
_1-f_寸法
  6
CONTINUOUS
 62
    4
 10
360
 20
209.99999999999991
 11
360
 21
186.83333325386644
  0
TEXT
  8
_1-f_寸法
 62
    4
 10
360
 20
195.2166666269332
 40
3.2000000000000002
 41
1
 50
90
  1
69.5
  0
LINE
  8
_1-f_寸法
  6
CONTINUOUS
 62
    4
 10
346.66666667103311
 20
186.83333325386644
 11
303.37329543270812
 21
186.83333325386644
  0
LINE
  8
_1-f_寸法
  6
CONTINUOUS
 62
    4
 10
301.66666666666663
 20
183.33333333333331
 11
301.66666666666663
 21
176.73333333333335
  0
LINE
  8
_1-f_寸法
  6
CONTINUOUS
 62
    4
 10
293.33333333333314
 20
183.33333333333331
 11
293.33333333333314
 21
176.73333333333335
  0
POINT
  8
_1-f_寸法
 62
    4
 10
293.33333333333314
 20
178.33333333333331
  0
POINT
  8
_1-f_寸法
 62
    4
 10
301.66666666666663
 20
178.33333333333331
  0
LINE
  8
_1-f_寸法
  6
CONTINUOUS
 62
    4
 10
293.33333333333314
 20
178.33333333333331
 11
301.66666666666663
 21
178.33333333333331
  0
TEXT
  8
_1-f_寸法
 62
    4
 10
295.89999999999986
 20
178.33333333333331
 40
3.2000000000000002
 41
1
 50
0
  1
25
  0
LINE
  8
_1-f_寸法
  6
CONTINUOUS
 62
    4
 10
346.66666667103311
 20
183.33333333333331
 11
346.66666667103311
 21
176.73333333333335
  0
POINT
  8
_1-f_寸法
 62
    4
 10
346.66666667103311
 20
178.33333333333331
  0
LINE
  8
_1-f_寸法
  6
CONTINUOUS
 62
    4
 10
301.66666666666663
 20
178.33333333333331
 11
346.66666667103311
 21
178.33333333333331
  0
TEXT
  8
_1-f_寸法
 62
    4
 10
321.76666666884984
 20
178.33333333333331
 40
3.2000000000000002
 41
1
 50
0
  1
135
  0
LINE
  8
_1-f_寸法
  6
CONTINUOUS
 62
    4
 10
346.66666666666663
 20
178.33333333333331
 11
346.66666666666663
 21
171.73333333333335
  0
LINE
  8
_1-f_寸法
  6
CONTINUOUS
 62
    4
 10
293.33333333333314
 20
178.33333333333331
 11
293.33333333333314
 21
171.73333333333335
  0
POINT
  8
_1-f_寸法
 62
    4
 10
293.33333333333314
 20
173.33333333333331
  0
POINT
  8
_1-f_寸法
 62
    4
 10
346.66666666666663
 20
173.33333333333331
  0
LINE
  8
_1-f_寸法
  6
CONTINUOUS
 62
    4
 10
293.33333333333314
 20
173.33333333333331
 11
346.66666666666663
 21
173.33333333333331
  0
TEXT
  8
_1-f_寸法
 62
    4
 10
317.59999999999985
 20
173.33333333333331
 40
3.2000000000000002
 41
1
 50
0
  1
160
  0
ENDSEC
  0
EOF
