  0
SECTION
  2
HEADER
  9
$ACADVER
  1
AC1009
  9
$INSBASE
 10
0
 20
0
 30
0
  9
$EXTMIN
 10
0
 20
0
  9
$EXTMAX
 10
420
 20
297
  9
$LIMMIN
 10
0
 20
0
  9
$LIMMAX
 10
420
 20
297
  9
$LTSCALE
 40
1
  0
ENDSEC
  0
SECTION
  2
TABLES
  0
TABLE
  2
LTYPE
 70
     9
  0
LTYPE
  2
CONTINUOUS
 70
    64
  3
実線
 72
    65
 73
     0
 40
0.0
  0
LTYPE
  2
DASHED1
 70
    64
  3
--  --  --  --  --  --  --  --  
 72
    65
 73
     2
 40
2.5
 49
1.25
 49
-1.25
  0
LTYPE
  2
DASHED2
 70
    64
  3
----    ----    ----    ----    
 72
    65
 73
     2
 40
5.0
 49
2.5
 49
-2.5
  0
LTYPE
  2
DASHED3
 70
    64
  3
------  ------  ------  ------  
 72
    65
 73
     2
 40
5.0
 49
3.75
 49
-1.25
  0
LTYPE
  2
CENTER1
 70
    64
  3
----- - ----- - ----- - ----- - 
 72
    65
 73
     4
 40
10.0
 49
6.25
 49
-1.25
 49
1.25
 49
-1.25
  0
LTYPE
  2
CENTER2
 70
    64
  3
----------  --  ----------  --  
 72
    65
 73
     4
 40
20.0
 49
12.5
 49
-2.5
 49
2.5
 49
-2.5
  0
LTYPE
  2
PHANTOM1
 70
    64
  3
--- - - --- - - --- - - --- - - 
 72
    65
 73
     6
 40
10.0
 49
3.25
 49
-1.25
 49
1.25
 49
-1.25
 49
1.25
 49
-1.25
  0
LTYPE
  2
PHANTOM2
 70
    64
  3
--------  -  -  --------  -  -  
 72
    65
 73
     6
 40
20.0
 49
10.0
 49
-2.5
 49
1.25
 49
-2.5
 49
1.25
 49
-2.5
  0
LTYPE
  2
DOT
 70
    64
  3
-   -   -   -   -   -   -   -   
 72
    65
 73
     2
 40
2.5
 49
0.625
 49
-1.875
  0
LTYPE
  2
DUMMY
 70
    64
  3
ダミー
 72
    65
 73
     0
 40
0.0
  0
LTYPE
  2
RAND1
 70
    64
  3
ランダム線1
 72
    65
 73
     4
 40
10.0
 49
1.0
 49
-2.0
 49
3.0
 49
-4.0
  0
LTYPE
  2
RAND2
 70
    64
  3
ランダム線2
 72
    65
 73
     4
 40
14.0
 49
2.0
 49
-3.0
 49
4.0
 49
-5.0
  0
LTYPE
  2
RAND3
 70
    64
  3
ランダム線3
 72
    65
 73
     4
 40
18.0
 49
3.0
 49
-4.0
 49
5.0
 49
-6.0
  0
LTYPE
  2
RAND4
 70
    64
  3
ランダム線4
 72
    65
 73
     4
 40
22.0
 49
4.0
 49
-5.0
 49
6.0
 49
-7.0
  0
LTYPE
  2
RAND5
 70
    64
  3
ランダム線5
 72
    65
 73
     4
 40
26.0
 49
5.0
 49
-6.0
 49
7.0
 49
-8.0
  0
LTYPE
  2
LONG1
 70
    64
  3
----------  --  ----------  --  
 72
    65
 73
     4
 40
40.0
 49
32.5
 49
-2.5
 49
2.5
 49
-2.5
  0
LTYPE
  2
LONG2
 70
    64
  3
--------  -  -  --------  -  -  
 72
    65
 73
     6
 40
40.0
 49
30.0
 49
-2.5
 49
1.25
 49
-2.5
 49
1.25
 49
-2.5
  0
LTYPE
  2
LONG3
 70
    64
  3
+++++++++++++++..+++++++++++++++
 72
    65
 73
     2
 40
40.0
 49
37.5
 49
-2.5
  0
LTYPE
  2
LONG4
 70
    64
  3
+++++++++++++++..+++++++++++++++
 72
    65
 73
     2
 40
80.0
 49
75.0
 49
-5.0
  0
LTYPE
  2
LONG5
 70
    64
  3
----------  --  ----------  --  
 72
    65
 73
     4
 40
60.0
 49
37.5
 49
-7.5
 49
7.5
 49
-7.5
  0
LTYPE
  2
dashed
 70
   64
  3
-------   -------------   ------
 72
   65
 73
    2
 40
7.5
 49
6
 49
-1.5
  0
LTYPE
  2
dashed_spaced
 70
   64
  3
----        --------        ----
 72
   65
 73
    2
 40
12
 49
6
 49
-6
  0
LTYPE
  2
long_dashed_dotted
 70
   64
  3
------------- --- --------------
 72
   65
 73
    4
 40
15.25
 49
12
 49
-1.5
 49
0.25
 49
-1.5
  0
LTYPE
  2
long_dashed_double-dotted
 70
   64
  3
----------- --- --- ------------
 72
   65
 73
    6
 40
17
 49
12
 49
-1.5
 49
0.25
 49
-1.5
 49
0.25
 49
-1.5
  0
LTYPE
  2
long_dashed_triplicate-dotted
 70
   64
  3
--------- --- --- --- ----------
 72
   65
 73
    8
 40
18.75
 49
12
 49
-1.5
 49
0.25
 49
-1.5
 49
0.25
 49
-1.5
 49
0.25
 49
-1.5
  0
LTYPE
  2
dotted
 70
   64
  3
   -       -       -       -    
 72
   65
 73
    2
 40
1.75
 49
0.25
 49
-1.5
  0
LTYPE
  2
chain
 70
   64
  3
-------------- -- --------------
 72
   65
 73
    4
 40
18.5
 49
12
 49
-1.5
 49
3.5
 49
-1.5
  0
LTYPE
  2
chain_double_dash
 70
   64
  3
------------ -- -- -------------
 72
   65
 73
    6
 40
23.5
 49
12
 49
-1.5
 49
3.5
 49
-1.5
 49
3.5
 49
-1.5
  0
LTYPE
  2
dashed_dotted
 70
   64
  3
-----------     -     ----------
 72
   65
 73
    4
 40
9.25
 49
6
 49
-1.5
 49
0.25
 49
-1.5
  0
LTYPE
  2
double-dashed_dotted
 70
   64
  3
------   -----------   -   -----
 72
   65
 73
    6
 40
16.75
 49
6
 49
-1.5
 49
6
 49
-1.5
 49
0.25
 49
-1.5
  0
LTYPE
  2
dashed_double-dotted
 70
   64
  3
---------    -    -    ---------
 72
   65
 73
    6
 40
11
 49
6
 49
-1.5
 49
0.25
 49
-1.5
 49
0.25
 49
-1.5
  0
LTYPE
  2
double-dashed_double-dotted
 70
   64
  3
-----   ---------   -   -   ----
 72
   65
 73
    8
 40
18.5
 49
6
 49
-1.5
 49
6
 49
-1.5
 49
0.25
 49
-1.5
 49
0.25
 49
-1.5
  0
LTYPE
  2
dashed_triplicate-dotted
 70
   64
  3
-------    -    -    -    ------
 72
   65
 73
    8
 40
12.75
 49
6
 49
-1.5
 49
0.25
 49
-1.5
 49
0.25
 49
-1.5
 49
0.25
 49
-1.5
  0
LTYPE
  2
double-dashed_triplicate-dotted
 70
   64
  3
-----  ---------  -  -  -  -----
 72
   65
 73
   10
 40
20.25
 49
6
 49
-1.5
 49
6
 49
-1.5
 49
0.25
 49
-1.5
 49
0.25
 49
-1.5
 49
0.25
 49
-1.5
  0
LTYPE
  2
undefined
 70
   64
  3
--------------------------------
 72
   65
 73
    0
 40
0
  0
ENDTAB
  0
TABLE
  2
STYLE
  5
3
100
AcDbSymbolTable
 70
     1
  0
STYLE
  5
10
100
AcDbSymbolTableRecord
100
AcDbTextStyleTableRecord
  2
STANDARD
 70
     0
 40
0.0
 41
1.0
 50
0.0
 71
     0
 42
0.2
  3
txt
  4
bigfont.shx
  0
STYLE
  5
26
100
AcDbSymbolTableRecord
100
AcDbTextStyleTableRecord
  2
TATEGAKI
 70
    68
 40
0.0
 41
1.0
 50
0.0
 71
     0
 42
1.0
  3
txt
  4
bigfont.shx
  0
ENDTAB
  0
TABLE
  2
LAYER
 70
    9
  0
LAYER
  2
_0-0_図面枠
 70
   64
 62
    7
  6
CONTINUOUS
  0
LAYER
  2
_1-0_躯体
 70
   64
 62
    7
  6
CONTINUOUS
  0
LAYER
  2
_1-4_フレ__ム
 70
   64
 62
    7
  6
CONTINUOUS
  0
LAYER
  2
_1-5_ア__ム
 70
   64
 62
    7
  6
CONTINUOUS
  0
LAYER
  2
_1-6_ばね
 70
   64
 62
    7
  6
CONTINUOUS
  0
LAYER
  2
_1-7_カバ__
 70
   64
 62
    7
  6
CONTINUOUS
  0
LAYER
  2
_1-8_小物
 70
   64
 62
    7
  6
CONTINUOUS
  0
LAYER
  2
_1-f_寸法
 70
   64
 62
    7
  6
CONTINUOUS
  0
LAYER
  2
ADD_LINE
 70
   64
 62
    7
  6
CONTINUOUS
  0
ENDTAB
  0
ENDSEC
  0
SECTION
  2
BLOCKS
  0
BLOCK
  2
-000-
 70
   64
 10
0
 20
0
 30
0
  0
LINE
  8
_1-8_小物
  6
CONTINUOUS
 62
    4
 10
-78.197241666666741
 20
56.573391666666595
 11
-78.162351666667121
 21
55.907638333333267
  0
LINE
  8
_1-8_小物
  6
CONTINUOUS
 62
    4
 10
-78.249578333333659
 20
57.572021666666529
 11
-78.897885000000315
 21
57.204254999999904
  0
LINE
  8
_1-8_小物
  6
CONTINUOUS
 62
    4
 10
-78.897885000000315
 20
57.204254999999904
 11
-78.862995000000097
 21
56.538501666666576
  0
LINE
  8
_1-8_小物
  6
CONTINUOUS
 62
    4
 10
-78.862995000000097
 20
56.538501666666576
 11
-78.197241666666741
 21
56.573391666666595
  0
LINE
  8
_1-8_小物
  6
CONTINUOUS
 62
    4
 10
-78.284468333333564
 20
58.237774999999971
 11
-78.249578333333659
 21
57.572021666666529
  0
LINE
  8
_1-8_小物
  6
CONTINUOUS
 62
    4
 10
-78.336805000000197
 20
59.236403333333357
 11
-78.985111666667137
 21
58.86863666666639
  0
LINE
  8
_1-8_小物
  6
CONTINUOUS
 62
    4
 10
-78.985111666667137
 20
58.86863666666639
 11
-78.950221666666948
 21
58.20288333333329
  0
LINE
  8
_1-8_小物
  6
CONTINUOUS
 62
    4
 10
-78.950221666666948
 20
58.20288333333329
 11
-78.284468333333564
 21
58.237774999999971
  0
LINE
  8
_1-8_小物
  6
CONTINUOUS
 62
    4
 10
-78.371695000000415
 20
59.902156666666684
 11
-78.336805000000197
 21
59.236403333333357
  0
LINE
  8
_1-8_小物
  6
CONTINUOUS
 62
    4
 10
-78.424031666666735
 20
60.900786666666392
 11
-79.072338333333391
 21
60.533019999999993
  0
LINE
  8
_1-8_小物
  6
CONTINUOUS
 62
    4
 10
-79.072338333333391
 20
60.533019999999993
 11
-79.037448333333799
 21
59.867266666666666
  0
LINE
  8
_1-8_小物
  6
CONTINUOUS
 62
    4
 10
-79.037448333333799
 20
59.867266666666666
 11
-78.371695000000415
 21
59.902156666666684
  0
LINE
  8
_1-8_小物
  6
CONTINUOUS
 62
    4
 10
-78.458921666666953
 20
61.566539999999947
 11
-78.424031666666735
 21
60.900786666666392
  0
LINE
  8
_1-8_小物
  6
CONTINUOUS
 62
    4
 10
-78.511258333333586
 20
62.565169999999995
 11
-79.159565000000242
 21
62.197401666666593
  0
LINE
  8
_1-8_小物
  6
CONTINUOUS
 62
    4
 10
-79.159565000000242
 20
62.197401666666593
 11
-79.124675000000309
 21
61.531648333333266
  0
LINE
  8
_1-8_小物
  6
CONTINUOUS
 62
    4
 10
-79.124675000000309
 20
61.531648333333266
 11
-78.458921666666953
 21
61.566539999999947
  0
LINE
  8
_1-8_小物
  6
CONTINUOUS
 62
    4
 10
-78.54614833333352
 20
63.230921666666546
 11
-78.511258333333586
 21
62.565169999999995
  0
LINE
  8
_1-8_小物
  6
CONTINUOUS
 62
    4
 10
-79.246791666667065
 20
63.861784999999855
 11
-79.211901666666847
 21
63.196031666666528
  0
LINE
  8
_1-8_小物
  6
CONTINUOUS
 62
    4
 10
-79.211901666666847
 20
63.196031666666528
 11
-78.54614833333352
 21
63.230921666666546
  0
LINE
  8
_1-8_小物
  6
CONTINUOUS
 62
    4
 10
-78.66666666666697
 20
64.166666666666657
 11
-79.246791666667065
 21
63.861784999999855
  0
LINE
  8
_1-8_小物
  6
CONTINUOUS
 62
    4
 10
-81.802758333333571
 20
56.573391666666595
 11
-81.837648333333448
 21
55.907638333333267
  0
LINE
  8
_1-8_小物
  6
CONTINUOUS
 62
    4
 10
-81.750421666666909
 20
57.572021666666529
 11
-81.102115000000282
 21
57.204254999999904
  0
LINE
  8
_1-8_小物
  6
CONTINUOUS
 62
    4
 10
-81.102115000000282
 20
57.204254999999904
 11
-81.137005000000499
 21
56.538501666666576
  0
LINE
  8
_1-8_小物
  6
CONTINUOUS
 62
    4
 10
-81.137005000000499
 20
56.538501666666576
 11
-81.802758333333571
 21
56.573391666666595
  0
LINE
  8
_1-8_小物
  6
CONTINUOUS
 62
    4
 10
-81.71553166666672
 20
58.237774999999971
 11
-81.750421666666909
 21
57.572021666666529
  0
LINE
  8
_1-8_小物
  6
CONTINUOUS
 62
    4
 10
-81.663195000000371
 20
59.236403333333357
 11
-81.014888333333744
 21
58.86863666666639
  0
LINE
  8
_1-8_小物
  6
CONTINUOUS
 62
    4
 10
-81.014888333333744
 20
58.86863666666639
 11
-81.049778333333336
 21
58.20288333333329
  0
LINE
  8
_1-8_小物
  6
CONTINUOUS
 62
    4
 10
-81.049778333333336
 20
58.20288333333329
 11
-81.71553166666672
 21
58.237774999999971
  0
LINE
  8
_1-8_小物
  6
CONTINUOUS
 62
    4
 10
-81.628305000000466
 20
59.902156666666684
 11
-81.663195000000371
 21
59.236403333333357
  0
LINE
  8
_1-8_小物
  6
CONTINUOUS
 62
    4
 10
-81.575968333333833
 20
60.900786666666392
 11
-80.927661666666893
 21
60.533019999999993
  0
LINE
  8
_1-8_小物
  6
CONTINUOUS
 62
    4
 10
-80.927661666666893
 20
60.533019999999993
 11
-80.962551666666826
 21
59.867266666666666
  0
LINE
  8
_1-8_小物
  6
CONTINUOUS
 62
    4
 10
-80.962551666666826
 20
59.867266666666666
 11
-81.628305000000466
 21
59.902156666666684
  0
LINE
  8
_1-8_小物
  6
CONTINUOUS
 62
    4
 10
-81.541078333333644
 20
61.566539999999947
 11
-81.575968333333833
 21
60.900786666666392
  0
LINE
  8
_1-8_小物
  6
CONTINUOUS
 62
    4
 10
-81.488741666666698
 20
62.565169999999995
 11
-80.84043500000007
 21
62.197401666666593
  0
LINE
  8
_1-8_小物
  6
CONTINUOUS
 62
    4
 10
-80.84043500000007
 20
62.197401666666593
 11
-80.875325000000259
 21
61.531648333333266
  0
LINE
  8
_1-8_小物
  6
CONTINUOUS
 62
    4
 10
-80.875325000000259
 20
61.531648333333266
 11
-81.541078333333644
 21
61.566539999999947
  0
LINE
  8
_1-8_小物
  6
CONTINUOUS
 62
    4
 10
-81.453851666667106
 20
63.230921666666546
 11
-81.488741666666698
 21
62.565169999999995
  0
LINE
  8
_1-8_小物
  6
CONTINUOUS
 62
    4
 10
-80.753208333333532
 20
63.861784999999855
 11
-80.788098333333721
 21
63.196031666666528
  0
LINE
  8
_1-8_小物
  6
CONTINUOUS
 62
    4
 10
-80.788098333333721
 20
63.196031666666528
 11
-81.453851666667106
 21
63.230921666666546
  0
LINE
  8
_1-8_小物
  6
CONTINUOUS
 62
    4
 10
-80.019768333333559
 20
56.186434999999875
 11
-79.375201666667039
 21
56.758324999999928
  0
LINE
  8
_1-8_小物
  6
CONTINUOUS
 62
    4
 10
-80.623148333333717
 20
56.789813333333342
 11
-80
 21
56.166666666666544
  0
LINE
  8
_1-8_小物
  6
CONTINUOUS
 62
    4
 10
-81.333333333333314
 20
64.166666666666657
 11
-80.753208333333532
 21
63.861784999999855
  0
LINE
  8
_1-8_小物
  6
CONTINUOUS
 62
    4
 10
-78.458921666666953
 20
61.566539999999947
 11
-77.893800000000454
 21
63.119199999999779
  0
LINE
  8
_1-8_小物
  6
CONTINUOUS
 62
    4
 10
-78.813648333333447
 20
61.566539999999947
 11
-78.207030000000174
 21
63.233206666666575
  0
LINE
  8
_1-8_小物
  6
CONTINUOUS
 62
    4
 10
-81.541078333333644
 20
61.566539999999947
 11
-82.106200000000172
 21
63.119199999999779
  0
LINE
  8
_1-8_小物
  6
CONTINUOUS
 62
    4
 10
-81.186351666667179
 20
61.566539999999947
 11
-81.792970000000423
 21
63.233206666666575
  0
LINE
  8
_1-8_小物
  6
CONTINUOUS
 62
    4
 10
-79.327418333333583
 20
55.846579999999818
 11
-78.162351666667121
 21
55.907638333333267
  0
LINE
  8
_1-8_小物
  6
CONTINUOUS
 62
    4
 10
-78.162351666667121
 20
55.907638333333267
 11
-78.793213333333682
 21
55.206995000000035
  0
LINE
  8
_1-8_小物
  6
CONTINUOUS
 62
    4
 10
-78.793213333333682
 20
55.206995000000035
 11
-79.292528333333394
 21
55.180826666666491
  0
LINE
  8
_1-8_小物
  6
CONTINUOUS
 62
    4
 10
-79.292528333333394
 20
55.180826666666491
 11
-79.833333333333314
 21
65.499999999999801
  0
LINE
  8
_1-8_小物
  6
CONTINUOUS
 62
    4
 10
-78.66666666666697
 20
64.166666666666657
 11
-78.66666666666697
 21
65.499999999999801
  0
LINE
  8
_1-8_小物
  6
CONTINUOUS
 62
    4
 10
-80.672581666666986
 20
55.846579999999818
 11
-81.837648333333448
 21
55.907638333333267
  0
LINE
  8
_1-8_小物
  6
CONTINUOUS
 62
    4
 10
-81.837648333333448
 20
55.907638333333267
 11
-81.206786666666943
 21
55.206995000000035
  0
LINE
  8
_1-8_小物
  6
CONTINUOUS
 62
    4
 10
-81.206786666666943
 20
55.206995000000035
 11
-80.707471666666891
 21
55.180826666666491
  0
LINE
  8
_1-8_小物
  6
CONTINUOUS
 62
    4
 10
-80.707471666666891
 20
55.180826666666491
 11
-80.16666666666697
 21
65.499999999999801
  0
LINE
  8
_1-8_小物
  6
CONTINUOUS
 62
    4
 10
-81.333333333333314
 20
64.166666666666657
 11
-81.333333333333314
 21
65.499999999999801
  0
LINE
  8
_1-8_小物
  6
CONTINUOUS
 62
    4
 10
-82.106200000000172
 20
63.119199999999779
 11
-82.436985000000277
 21
65.387073333333461
  0
ARC
  8
_1-8_小物
  6
CONTINUOUS
 62
    4
 10
-82.305048333333616
 20
65.406318333333303
 40
0.1333333333333333
 50
98.130101999959862
 51
188.29846600002313
  0
LINE
  8
_1-8_小物
  6
CONTINUOUS
 62
    4
 10
-82.32390500000048
 20
65.538311666666601
 11
-82.258296666666865
 21
65.547683333333367
  0
ARC
  8
_1-8_小物
  6
CONTINUOUS
 62
    4
 10
-82.239439999999973
 20
65.415689999999955
 40
0.1333333333333333
 50
8.130102000040166
 51
98.13010200022066
  0
LINE
  8
_1-8_小物
  6
CONTINUOUS
 62
    4
 10
-82.107446666666874
 20
65.434546666666535
 11
-81.792970000000423
 21
63.233206666666575
  0
LINE
  8
_1-8_小物
  6
CONTINUOUS
 62
    4
 10
-77.893800000000454
 20
63.119199999999779
 11
-77.56301500000032
 21
65.387073333333461
  0
ARC
  8
_1-8_小物
  6
CONTINUOUS
 62
    4
 10
-77.694951666666981
 20
65.406318333333303
 40
0.1333333333333333
 50
351.70153399996479
 51
81.869898000046192
  0
LINE
  8
_1-8_小物
  6
CONTINUOUS
 62
    4
 10
-77.676096666667036
 20
65.538311666666601
 11
-77.741703333333732
 21
65.547683333333367
  0
ARC
  8
_1-8_小物
  6
CONTINUOUS
 62
    4
 10
-77.760559999999998
 20
65.415689999999955
 40
0.1333333333333333
 50
81.869898000046192
 51
171.86989799999611
  0
LINE
  8
_1-8_小物
  6
CONTINUOUS
 62
    4
 10
-77.892553333333723
 20
65.434546666666535
 11
-78.207030000000174
 21
63.233206666666575
  0
LINE
  8
_1-8_小物
  6
CONTINUOUS
 62
    4
 10
-77.893800000000454
 20
63.119199999999779
 11
-77.56301500000032
 21
65.387073333333461
  0
ARC
  8
_1-8_小物
  6
CONTINUOUS
 62
    4
 10
-77.694951666666981
 20
65.406318333333303
 40
0.1333333333333333
 50
351.70153399996479
 51
81.869898000046192
  0
LINE
  8
_1-8_小物
  6
CONTINUOUS
 62
    4
 10
-77.676096666667036
 20
65.538311666666601
 11
-77.741703333333732
 21
65.547683333333367
  0
ARC
  8
_1-8_小物
  6
CONTINUOUS
 62
    4
 10
-77.760559999999998
 20
65.415689999999955
 40
0.1333333333333333
 50
81.869898000046192
 51
171.86989799999611
  0
LINE
  8
_1-8_小物
  6
CONTINUOUS
 62
    4
 10
-77.892553333333723
 20
65.434546666666535
 11
-78.207030000000174
 21
63.233206666666575
  0
LINE
  8
_1-8_小物
  6
CONTINUOUS
 62
    4
 10
-78.333333333333314
 20
68.166666666666657
 11
-78.66666666666697
 21
66.500000000000028
  0
LINE
  8
_1-8_小物
  6
CONTINUOUS
 62
    4
 10
-78.66666666666697
 20
68.166666666666657
 11
-78.66666666666697
 21
65.499999999999801
  0
LINE
  8
_1-8_小物
  6
CONTINUOUS
 62
    4
 10
-79.833333333333314
 20
65.499999999999801
 11
-80
 21
65.499999999999801
  0
LINE
  8
_1-8_小物
  6
CONTINUOUS
 62
    4
 10
-80
 20
66.500000000000028
 11
-80
 21
68.166666666666657
  0
LINE
  8
_1-8_小物
  6
CONTINUOUS
 62
    4
 10
-79.66666666666697
 20
68.166666666666657
 11
-80
 21
66.500000000000028
  0
LINE
  8
_1-8_小物
  6
CONTINUOUS
 62
    4
 10
-80.333333333333627
 20
68.166666666666657
 11
-80
 21
66.500000000000028
  0
LINE
  8
_1-8_小物
  6
CONTINUOUS
 62
    4
 10
-81.666666666666657
 20
68.166666666666657
 11
-81.333333333333314
 21
66.500000000000028
  0
LINE
  8
_1-8_小物
  6
CONTINUOUS
 62
    4
 10
-81.333333333333314
 20
68.166666666666657
 11
-81.333333333333314
 21
65.499999999999801
  0
LINE
  8
_1-8_小物
  6
CONTINUOUS
 62
    4
 10
-80.16666666666697
 20
65.499999999999801
 11
-80
 21
65.499999999999801
  0
LINE
  8
_1-8_小物
  6
CONTINUOUS
 62
    4
 10
-78.333333333333314
 20
68.166666666666657
 11
-81.666666666666657
 21
68.166666666666657
  0
ENDBLK
  0
BLOCK
  2
-001-_1_
 70
   64
 10
0
 20
0
 30
0
  0
LINE
  8
_1-8_小物
  6
CONTINUOUS
 62
    4
 10
-118.19724166666674
 20
56.573391666666595
 11
-118.16235166666712
 21
55.907638333333267
  0
LINE
  8
_1-8_小物
  6
CONTINUOUS
 62
    4
 10
-118.24957833333366
 20
57.572021666666529
 11
-118.89788500000031
 21
57.204254999999904
  0
LINE
  8
_1-8_小物
  6
CONTINUOUS
 62
    4
 10
-118.89788500000031
 20
57.204254999999904
 11
-118.8629950000001
 21
56.538501666666576
  0
LINE
  8
_1-8_小物
  6
CONTINUOUS
 62
    4
 10
-118.8629950000001
 20
56.538501666666576
 11
-118.19724166666674
 21
56.573391666666595
  0
LINE
  8
_1-8_小物
  6
CONTINUOUS
 62
    4
 10
-118.28446833333356
 20
58.237774999999971
 11
-118.24957833333366
 21
57.572021666666529
  0
LINE
  8
_1-8_小物
  6
CONTINUOUS
 62
    4
 10
-118.3368050000002
 20
59.236403333333357
 11
-118.98511166666714
 21
58.86863666666639
  0
LINE
  8
_1-8_小物
  6
CONTINUOUS
 62
    4
 10
-118.98511166666714
 20
58.86863666666639
 11
-118.95022166666695
 21
58.20288333333329
  0
LINE
  8
_1-8_小物
  6
CONTINUOUS
 62
    4
 10
-118.95022166666695
 20
58.20288333333329
 11
-118.28446833333356
 21
58.237774999999971
  0
LINE
  8
_1-8_小物
  6
CONTINUOUS
 62
    4
 10
-118.37169500000041
 20
59.902156666666684
 11
-118.3368050000002
 21
59.236403333333357
  0
LINE
  8
_1-8_小物
  6
CONTINUOUS
 62
    4
 10
-118.42403166666674
 20
60.900786666666392
 11
-119.07233833333339
 21
60.533019999999993
  0
LINE
  8
_1-8_小物
  6
CONTINUOUS
 62
    4
 10
-119.07233833333339
 20
60.533019999999993
 11
-119.0374483333338
 21
59.867266666666666
  0
LINE
  8
_1-8_小物
  6
CONTINUOUS
 62
    4
 10
-119.0374483333338
 20
59.867266666666666
 11
-118.37169500000041
 21
59.902156666666684
  0
LINE
  8
_1-8_小物
  6
CONTINUOUS
 62
    4
 10
-118.45892166666695
 20
61.566539999999947
 11
-118.42403166666674
 21
60.900786666666392
  0
LINE
  8
_1-8_小物
  6
CONTINUOUS
 62
    4
 10
-118.51125833333359
 20
62.565169999999995
 11
-119.15956500000024
 21
62.197401666666593
  0
LINE
  8
_1-8_小物
  6
CONTINUOUS
 62
    4
 10
-119.15956500000024
 20
62.197401666666593
 11
-119.12467500000031
 21
61.531648333333266
  0
LINE
  8
_1-8_小物
  6
CONTINUOUS
 62
    4
 10
-119.12467500000031
 20
61.531648333333266
 11
-118.45892166666695
 21
61.566539999999947
  0
LINE
  8
_1-8_小物
  6
CONTINUOUS
 62
    4
 10
-118.54614833333352
 20
63.230921666666546
 11
-118.51125833333359
 21
62.565169999999995
  0
LINE
  8
_1-8_小物
  6
CONTINUOUS
 62
    4
 10
-119.24679166666706
 20
63.861784999999855
 11
-119.21190166666685
 21
63.196031666666528
  0
LINE
  8
_1-8_小物
  6
CONTINUOUS
 62
    4
 10
-119.21190166666685
 20
63.196031666666528
 11
-118.54614833333352
 21
63.230921666666546
  0
LINE
  8
_1-8_小物
  6
CONTINUOUS
 62
    4
 10
-118.66666666666697
 20
64.166666666666657
 11
-119.24679166666706
 21
63.861784999999855
  0
LINE
  8
_1-8_小物
  6
CONTINUOUS
 62
    4
 10
-121.80275833333357
 20
56.573391666666595
 11
-121.83764833333345
 21
55.907638333333267
  0
LINE
  8
_1-8_小物
  6
CONTINUOUS
 62
    4
 10
-121.75042166666691
 20
57.572021666666529
 11
-121.10211500000028
 21
57.204254999999904
  0
LINE
  8
_1-8_小物
  6
CONTINUOUS
 62
    4
 10
-121.10211500000028
 20
57.204254999999904
 11
-121.1370050000005
 21
56.538501666666576
  0
LINE
  8
_1-8_小物
  6
CONTINUOUS
 62
    4
 10
-121.1370050000005
 20
56.538501666666576
 11
-121.80275833333357
 21
56.573391666666595
  0
LINE
  8
_1-8_小物
  6
CONTINUOUS
 62
    4
 10
-121.71553166666672
 20
58.237774999999971
 11
-121.75042166666691
 21
57.572021666666529
  0
LINE
  8
_1-8_小物
  6
CONTINUOUS
 62
    4
 10
-121.66319500000037
 20
59.236403333333357
 11
-121.01488833333374
 21
58.86863666666639
  0
LINE
  8
_1-8_小物
  6
CONTINUOUS
 62
    4
 10
-121.01488833333374
 20
58.86863666666639
 11
-121.04977833333334
 21
58.20288333333329
  0
LINE
  8
_1-8_小物
  6
CONTINUOUS
 62
    4
 10
-121.04977833333334
 20
58.20288333333329
 11
-121.71553166666672
 21
58.237774999999971
  0
LINE
  8
_1-8_小物
  6
CONTINUOUS
 62
    4
 10
-121.62830500000047
 20
59.902156666666684
 11
-121.66319500000037
 21
59.236403333333357
  0
LINE
  8
_1-8_小物
  6
CONTINUOUS
 62
    4
 10
-121.57596833333383
 20
60.900786666666392
 11
-120.92766166666689
 21
60.533019999999993
  0
LINE
  8
_1-8_小物
  6
CONTINUOUS
 62
    4
 10
-120.92766166666689
 20
60.533019999999993
 11
-120.96255166666683
 21
59.867266666666666
  0
LINE
  8
_1-8_小物
  6
CONTINUOUS
 62
    4
 10
-120.96255166666683
 20
59.867266666666666
 11
-121.62830500000047
 21
59.902156666666684
  0
LINE
  8
_1-8_小物
  6
CONTINUOUS
 62
    4
 10
-121.54107833333364
 20
61.566539999999947
 11
-121.57596833333383
 21
60.900786666666392
  0
LINE
  8
_1-8_小物
  6
CONTINUOUS
 62
    4
 10
-121.4887416666667
 20
62.565169999999995
 11
-120.84043500000007
 21
62.197401666666593
  0
LINE
  8
_1-8_小物
  6
CONTINUOUS
 62
    4
 10
-120.84043500000007
 20
62.197401666666593
 11
-120.87532500000026
 21
61.531648333333266
  0
LINE
  8
_1-8_小物
  6
CONTINUOUS
 62
    4
 10
-120.87532500000026
 20
61.531648333333266
 11
-121.54107833333364
 21
61.566539999999947
  0
LINE
  8
_1-8_小物
  6
CONTINUOUS
 62
    4
 10
-121.45385166666711
 20
63.230921666666546
 11
-121.4887416666667
 21
62.565169999999995
  0
LINE
  8
_1-8_小物
  6
CONTINUOUS
 62
    4
 10
-120.75320833333353
 20
63.861784999999855
 11
-120.78809833333372
 21
63.196031666666528
  0
LINE
  8
_1-8_小物
  6
CONTINUOUS
 62
    4
 10
-120.78809833333372
 20
63.196031666666528
 11
-121.45385166666711
 21
63.230921666666546
  0
LINE
  8
_1-8_小物
  6
CONTINUOUS
 62
    4
 10
-120.01976833333356
 20
56.186434999999875
 11
-119.37520166666704
 21
56.758324999999928
  0
LINE
  8
_1-8_小物
  6
CONTINUOUS
 62
    4
 10
-120.62314833333372
 20
56.789813333333342
 11
-120
 21
56.166666666666544
  0
LINE
  8
_1-8_小物
  6
CONTINUOUS
 62
    4
 10
-121.33333333333331
 20
64.166666666666657
 11
-120.75320833333353
 21
63.861784999999855
  0
LINE
  8
_1-8_小物
  6
CONTINUOUS
 62
    4
 10
-118.45892166666695
 20
61.566539999999947
 11
-117.89380000000045
 21
63.119199999999779
  0
LINE
  8
_1-8_小物
  6
CONTINUOUS
 62
    4
 10
-118.81364833333345
 20
61.566539999999947
 11
-118.20703000000017
 21
63.233206666666575
  0
LINE
  8
_1-8_小物
  6
CONTINUOUS
 62
    4
 10
-121.54107833333364
 20
61.566539999999947
 11
-122.10620000000017
 21
63.119199999999779
  0
LINE
  8
_1-8_小物
  6
CONTINUOUS
 62
    4
 10
-121.18635166666718
 20
61.566539999999947
 11
-121.79297000000042
 21
63.233206666666575
  0
LINE
  8
_1-8_小物
  6
CONTINUOUS
 62
    4
 10
-119.32741833333358
 20
55.846579999999818
 11
-118.16235166666712
 21
55.907638333333267
  0
LINE
  8
_1-8_小物
  6
CONTINUOUS
 62
    4
 10
-118.16235166666712
 20
55.907638333333267
 11
-118.79321333333368
 21
55.206995000000035
  0
LINE
  8
_1-8_小物
  6
CONTINUOUS
 62
    4
 10
-118.79321333333368
 20
55.206995000000035
 11
-119.29252833333339
 21
55.180826666666491
  0
LINE
  8
_1-8_小物
  6
CONTINUOUS
 62
    4
 10
-119.29252833333339
 20
55.180826666666491
 11
-119.83333333333331
 21
65.499999999999801
  0
LINE
  8
_1-8_小物
  6
CONTINUOUS
 62
    4
 10
-118.66666666666697
 20
64.166666666666657
 11
-118.66666666666697
 21
65.499999999999801
  0
LINE
  8
_1-8_小物
  6
CONTINUOUS
 62
    4
 10
-120.67258166666699
 20
55.846579999999818
 11
-121.83764833333345
 21
55.907638333333267
  0
LINE
  8
_1-8_小物
  6
CONTINUOUS
 62
    4
 10
-121.83764833333345
 20
55.907638333333267
 11
-121.20678666666694
 21
55.206995000000035
  0
LINE
  8
_1-8_小物
  6
CONTINUOUS
 62
    4
 10
-121.20678666666694
 20
55.206995000000035
 11
-120.70747166666689
 21
55.180826666666491
  0
LINE
  8
_1-8_小物
  6
CONTINUOUS
 62
    4
 10
-120.70747166666689
 20
55.180826666666491
 11
-120.16666666666697
 21
65.499999999999801
  0
LINE
  8
_1-8_小物
  6
CONTINUOUS
 62
    4
 10
-121.33333333333331
 20
64.166666666666657
 11
-121.33333333333331
 21
65.499999999999801
  0
LINE
  8
_1-8_小物
  6
CONTINUOUS
 62
    4
 10
-122.10620000000017
 20
63.119199999999779
 11
-122.43698500000028
 21
65.387073333333461
  0
ARC
  8
_1-8_小物
  6
CONTINUOUS
 62
    4
 10
-122.30504833333362
 20
65.406318333333303
 40
0.1333333333333333
 50
98.130101999959862
 51
188.29846600002313
  0
LINE
  8
_1-8_小物
  6
CONTINUOUS
 62
    4
 10
-122.32390500000048
 20
65.538311666666601
 11
-122.25829666666687
 21
65.547683333333367
  0
ARC
  8
_1-8_小物
  6
CONTINUOUS
 62
    4
 10
-122.23943999999997
 20
65.415689999999955
 40
0.1333333333333333
 50
8.130102000040166
 51
98.13010200022066
  0
LINE
  8
_1-8_小物
  6
CONTINUOUS
 62
    4
 10
-122.10744666666687
 20
65.434546666666535
 11
-121.79297000000042
 21
63.233206666666575
  0
LINE
  8
_1-8_小物
  6
CONTINUOUS
 62
    4
 10
-117.89380000000045
 20
63.119199999999779
 11
-117.56301500000032
 21
65.387073333333461
  0
ARC
  8
_1-8_小物
  6
CONTINUOUS
 62
    4
 10
-117.69495166666698
 20
65.406318333333303
 40
0.1333333333333333
 50
351.70153399996479
 51
81.869898000040166
  0
LINE
  8
_1-8_小物
  6
CONTINUOUS
 62
    4
 10
-117.67609666666704
 20
65.538311666666601
 11
-117.74170333333373
 21
65.547683333333367
  0
ARC
  8
_1-8_小物
  6
CONTINUOUS
 62
    4
 10
-117.76056
 20
65.415689999999955
 40
0.1333333333333333
 50
81.869898000046192
 51
171.86989799999611
  0
LINE
  8
_1-8_小物
  6
CONTINUOUS
 62
    4
 10
-117.89255333333372
 20
65.434546666666535
 11
-118.20703000000017
 21
63.233206666666575
  0
LINE
  8
_1-8_小物
  6
CONTINUOUS
 62
    4
 10
-117.89380000000045
 20
63.119199999999779
 11
-117.56301500000032
 21
65.387073333333461
  0
ARC
  8
_1-8_小物
  6
CONTINUOUS
 62
    4
 10
-117.69495166666698
 20
65.406318333333303
 40
0.1333333333333333
 50
351.70153399996479
 51
81.869898000040166
  0
LINE
  8
_1-8_小物
  6
CONTINUOUS
 62
    4
 10
-117.67609666666704
 20
65.538311666666601
 11
-117.74170333333373
 21
65.547683333333367
  0
ARC
  8
_1-8_小物
  6
CONTINUOUS
 62
    4
 10
-117.76056
 20
65.415689999999955
 40
0.1333333333333333
 50
81.869898000046192
 51
171.86989799999611
  0
LINE
  8
_1-8_小物
  6
CONTINUOUS
 62
    4
 10
-117.89255333333372
 20
65.434546666666535
 11
-118.20703000000017
 21
63.233206666666575
  0
LINE
  8
_1-8_小物
  6
CONTINUOUS
 62
    4
 10
-118.33333333333331
 20
68.166666666666657
 11
-118.66666666666697
 21
66.500000000000028
  0
LINE
  8
_1-8_小物
  6
CONTINUOUS
 62
    4
 10
-118.66666666666697
 20
68.166666666666657
 11
-118.66666666666697
 21
65.499999999999801
  0
LINE
  8
_1-8_小物
  6
CONTINUOUS
 62
    4
 10
-119.83333333333331
 20
65.499999999999801
 11
-120
 21
65.499999999999801
  0
LINE
  8
_1-8_小物
  6
CONTINUOUS
 62
    4
 10
-120
 20
66.500000000000028
 11
-120
 21
68.166666666666657
  0
LINE
  8
_1-8_小物
  6
CONTINUOUS
 62
    4
 10
-119.66666666666697
 20
68.166666666666657
 11
-120
 21
66.500000000000028
  0
LINE
  8
_1-8_小物
  6
CONTINUOUS
 62
    4
 10
-120.33333333333363
 20
68.166666666666657
 11
-120
 21
66.500000000000028
  0
LINE
  8
_1-8_小物
  6
CONTINUOUS
 62
    4
 10
-121.66666666666666
 20
68.166666666666657
 11
-121.33333333333331
 21
66.500000000000028
  0
LINE
  8
_1-8_小物
  6
CONTINUOUS
 62
    4
 10
-121.33333333333331
 20
68.166666666666657
 11
-121.33333333333331
 21
65.499999999999801
  0
LINE
  8
_1-8_小物
  6
CONTINUOUS
 62
    4
 10
-120.16666666666697
 20
65.499999999999801
 11
-120
 21
65.499999999999801
  0
LINE
  8
_1-8_小物
  6
CONTINUOUS
 62
    4
 10
-118.33333333333331
 20
68.166666666666657
 11
-121.66666666666666
 21
68.166666666666657
  0
ENDBLK
  0
BLOCK
  2
-002-_2_
 70
   64
 10
0
 20
0
 30
0
  0
LINE
  8
_1-8_小物
  6
CONTINUOUS
 62
    4
 10
121.80275833333326
 20
56.573391666666595
 11
121.83764833333282
 21
55.907638333333267
  0
LINE
  8
_1-8_小物
  6
CONTINUOUS
 62
    4
 10
121.75042166666628
 20
57.572021666666529
 11
121.10211499999969
 21
57.204254999999904
  0
LINE
  8
_1-8_小物
  6
CONTINUOUS
 62
    4
 10
121.10211499999969
 20
57.204254999999904
 11
121.13700499999987
 21
56.538501666666576
  0
LINE
  8
_1-8_小物
  6
CONTINUOUS
 62
    4
 10
121.13700499999987
 20
56.538501666666576
 11
121.80275833333326
 21
56.573391666666595
  0
LINE
  8
_1-8_小物
  6
CONTINUOUS
 62
    4
 10
121.71553166666638
 20
58.237774999999971
 11
121.75042166666628
 21
57.572021666666529
  0
LINE
  8
_1-8_小物
  6
CONTINUOUS
 62
    4
 10
121.66319499999975
 20
59.236403333333357
 11
121.01488833333281
 21
58.86863666666639
  0
LINE
  8
_1-8_小物
  6
CONTINUOUS
 62
    4
 10
121.01488833333281
 20
58.86863666666639
 11
121.04977833333305
 21
58.20288333333329
  0
LINE
  8
_1-8_小物
  6
CONTINUOUS
 62
    4
 10
121.04977833333305
 20
58.20288333333329
 11
121.71553166666638
 21
58.237774999999971
  0
LINE
  8
_1-8_小物
  6
CONTINUOUS
 62
    4
 10
121.62830499999956
 20
59.902156666666684
 11
121.66319499999975
 21
59.236403333333357
  0
LINE
  8
_1-8_小物
  6
CONTINUOUS
 62
    4
 10
121.57596833333321
 20
60.900786666666392
 11
120.92766166666661
 21
60.533019999999993
  0
LINE
  8
_1-8_小物
  6
CONTINUOUS
 62
    4
 10
120.92766166666661
 20
60.533019999999993
 11
120.96255166666617
 21
59.867266666666666
  0
LINE
  8
_1-8_小物
  6
CONTINUOUS
 62
    4
 10
120.96255166666617
 20
59.867266666666666
 11
121.62830499999956
 21
59.902156666666684
  0
LINE
  8
_1-8_小物
  6
CONTINUOUS
 62
    4
 10
121.54107833333302
 20
61.566539999999947
 11
121.57596833333321
 21
60.900786666666392
  0
LINE
  8
_1-8_小物
  6
CONTINUOUS
 62
    4
 10
121.48874166666639
 20
62.565169999999995
 11
120.84043499999973
 21
62.197401666666593
  0
LINE
  8
_1-8_小物
  6
CONTINUOUS
 62
    4
 10
120.84043499999973
 20
62.197401666666593
 11
120.87532499999963
 21
61.531648333333266
  0
LINE
  8
_1-8_小物
  6
CONTINUOUS
 62
    4
 10
120.87532499999963
 20
61.531648333333266
 11
121.54107833333302
 21
61.566539999999947
  0
LINE
  8
_1-8_小物
  6
CONTINUOUS
 62
    4
 10
121.45385166666648
 20
63.230921666666546
 11
121.48874166666639
 21
62.565169999999995
  0
LINE
  8
_1-8_小物
  6
CONTINUOUS
 62
    4
 10
120.75320833333291
 20
63.861784999999855
 11
120.7880983333331
 21
63.196031666666528
  0
LINE
  8
_1-8_小物
  6
CONTINUOUS
 62
    4
 10
120.7880983333331
 20
63.196031666666528
 11
121.45385166666648
 21
63.230921666666546
  0
LINE
  8
_1-8_小物
  6
CONTINUOUS
 62
    4
 10
121.33333333333303
 20
64.166666666666657
 11
120.75320833333291
 21
63.861784999999855
  0
LINE
  8
_1-8_小物
  6
CONTINUOUS
 62
    4
 10
118.1972416666664
 20
56.573391666666595
 11
118.1623516666665
 21
55.907638333333267
  0
LINE
  8
_1-8_小物
  6
CONTINUOUS
 62
    4
 10
118.24957833333303
 20
57.572021666666529
 11
118.89788499999969
 21
57.204254999999904
  0
LINE
  8
_1-8_小物
  6
CONTINUOUS
 62
    4
 10
118.89788499999969
 20
57.204254999999904
 11
118.8629949999995
 21
56.538501666666576
  0
LINE
  8
_1-8_小物
  6
CONTINUOUS
 62
    4
 10
118.8629949999995
 20
56.538501666666576
 11
118.1972416666664
 21
56.573391666666595
  0
LINE
  8
_1-8_小物
  6
CONTINUOUS
 62
    4
 10
118.28446833333328
 20
58.237774999999971
 11
118.24957833333303
 21
57.572021666666529
  0
LINE
  8
_1-8_小物
  6
CONTINUOUS
 62
    4
 10
118.33680499999957
 20
59.236403333333357
 11
118.98511166666623
 21
58.86863666666639
  0
LINE
  8
_1-8_小物
  6
CONTINUOUS
 62
    4
 10
118.98511166666623
 20
58.86863666666639
 11
118.95022166666661
 21
58.20288333333329
  0
LINE
  8
_1-8_小物
  6
CONTINUOUS
 62
    4
 10
118.95022166666661
 20
58.20288333333329
 11
118.28446833333328
 21
58.237774999999971
  0
LINE
  8
_1-8_小物
  6
CONTINUOUS
 62
    4
 10
118.37169499999948
 20
59.902156666666684
 11
118.33680499999957
 21
59.236403333333357
  0
LINE
  8
_1-8_小物
  6
CONTINUOUS
 62
    4
 10
118.42403166666611
 20
60.900786666666392
 11
119.07233833333305
 21
60.533019999999993
  0
LINE
  8
_1-8_小物
  6
CONTINUOUS
 62
    4
 10
119.07233833333305
 20
60.533019999999993
 11
119.03744833333315
 21
59.867266666666666
  0
LINE
  8
_1-8_小物
  6
CONTINUOUS
 62
    4
 10
119.03744833333315
 20
59.867266666666666
 11
118.37169499999948
 21
59.902156666666684
  0
LINE
  8
_1-8_小物
  6
CONTINUOUS
 62
    4
 10
118.45892166666636
 20
61.566539999999947
 11
118.42403166666611
 21
60.900786666666392
  0
LINE
  8
_1-8_小物
  6
CONTINUOUS
 62
    4
 10
118.51125833333327
 20
62.565169999999995
 11
119.15956499999993
 21
62.197401666666593
  0
LINE
  8
_1-8_小物
  6
CONTINUOUS
 62
    4
 10
119.15956499999993
 20
62.197401666666593
 11
119.12467499999968
 21
61.531648333333266
  0
LINE
  8
_1-8_小物
  6
CONTINUOUS
 62
    4
 10
119.12467499999968
 20
61.531648333333266
 11
118.45892166666636
 21
61.566539999999947
  0
LINE
  8
_1-8_小物
  6
CONTINUOUS
 62
    4
 10
118.54614833333289
 20
63.230921666666546
 11
118.51125833333327
 21
62.565169999999995
  0
LINE
  8
_1-8_小物
  6
CONTINUOUS
 62
    4
 10
119.24679166666647
 20
63.861784999999855
 11
119.21190166666622
 21
63.196031666666528
  0
LINE
  8
_1-8_小物
  6
CONTINUOUS
 62
    4
 10
119.21190166666622
 20
63.196031666666528
 11
118.54614833333289
 21
63.230921666666546
  0
LINE
  8
_1-8_小物
  6
CONTINUOUS
 62
    4
 10
119.98023166666644
 20
56.186434999999875
 11
120.62479833333293
 21
56.758324999999928
  0
LINE
  8
_1-8_小物
  6
CONTINUOUS
 62
    4
 10
119.37685166666625
 20
56.789813333333342
 11
120
 21
56.166666666666544
  0
LINE
  8
_1-8_小物
  6
CONTINUOUS
 62
    4
 10
118.66666666666663
 20
64.166666666666657
 11
119.24679166666647
 21
63.861784999999855
  0
LINE
  8
_1-8_小物
  6
CONTINUOUS
 62
    4
 10
121.54107833333302
 20
61.566539999999947
 11
122.10619999999955
 21
63.119199999999779
  0
LINE
  8
_1-8_小物
  6
CONTINUOUS
 62
    4
 10
121.18635166666655
 20
61.566539999999947
 11
121.7929699999998
 21
63.233206666666575
  0
LINE
  8
_1-8_小物
  6
CONTINUOUS
 62
    4
 10
118.45892166666636
 20
61.566539999999947
 11
117.89379999999983
 21
63.119199999999779
  0
LINE
  8
_1-8_小物
  6
CONTINUOUS
 62
    4
 10
118.81364833333282
 20
61.566539999999947
 11
118.20702999999958
 21
63.233206666666575
  0
LINE
  8
_1-8_小物
  6
CONTINUOUS
 62
    4
 10
120.67258166666636
 20
55.846579999999818
 11
121.83764833333282
 21
55.907638333333267
  0
LINE
  8
_1-8_小物
  6
CONTINUOUS
 62
    4
 10
121.83764833333282
 20
55.907638333333267
 11
121.20678666666629
 21
55.206995000000035
  0
LINE
  8
_1-8_小物
  6
CONTINUOUS
 62
    4
 10
121.20678666666629
 20
55.206995000000035
 11
120.70747166666661
 21
55.180826666666491
  0
LINE
  8
_1-8_小物
  6
CONTINUOUS
 62
    4
 10
120.70747166666661
 20
55.180826666666491
 11
120.16666666666663
 21
65.499999999999801
  0
LINE
  8
_1-8_小物
  6
CONTINUOUS
 62
    4
 10
121.33333333333303
 20
64.166666666666657
 11
121.33333333333303
 21
65.499999999999801
  0
LINE
  8
_1-8_小物
  6
CONTINUOUS
 62
    4
 10
119.32741833333296
 20
55.846579999999818
 11
118.1623516666665
 21
55.907638333333267
  0
LINE
  8
_1-8_小物
  6
CONTINUOUS
 62
    4
 10
118.1623516666665
 20
55.907638333333267
 11
118.79321333333303
 21
55.206995000000035
  0
LINE
  8
_1-8_小物
  6
CONTINUOUS
 62
    4
 10
118.79321333333303
 20
55.206995000000035
 11
119.29252833333305
 21
55.180826666666491
  0
LINE
  8
_1-8_小物
  6
CONTINUOUS
 62
    4
 10
119.29252833333305
 20
55.180826666666491
 11
119.83333333333303
 21
65.499999999999801
  0
LINE
  8
_1-8_小物
  6
CONTINUOUS
 62
    4
 10
118.66666666666663
 20
64.166666666666657
 11
118.66666666666663
 21
65.499999999999801
  0
LINE
  8
_1-8_小物
  6
CONTINUOUS
 62
    4
 10
117.89379999999983
 20
63.119199999999779
 11
117.56301499999972
 21
65.387073333333461
  0
ARC
  8
_1-8_小物
  6
CONTINUOUS
 62
    4
 10
117.69495166666638
 20
65.406318333333303
 40
0.1333333333333333
 50
98.130101999965902
 51
188.29846600002136
  0
LINE
  8
_1-8_小物
  6
CONTINUOUS
 62
    4
 10
117.67609499999946
 20
65.538311666666601
 11
117.74170333333313
 21
65.547683333333367
  0
ARC
  8
_1-8_小物
  6
CONTINUOUS
 62
    4
 10
117.76056
 20
65.415689999999955
 40
0.1333333333333333
 50
8.130102000040166
 51
98.13010200021462
  0
LINE
  8
_1-8_小物
  6
CONTINUOUS
 62
    4
 10
117.89255333333313
 20
65.434546666666535
 11
118.20702999999958
 21
63.233206666666575
  0
LINE
  8
_1-8_小物
  6
CONTINUOUS
 62
    4
 10
122.10619999999955
 20
63.119199999999779
 11
122.43698499999965
 21
65.387073333333461
  0
ARC
  8
_1-8_小物
  6
CONTINUOUS
 62
    4
 10
122.30504833333299
 20
65.406318333333303
 40
0.1333333333333333
 50
351.70153399996303
 51
81.869898000034084
  0
LINE
  8
_1-8_小物
  6
CONTINUOUS
 62
    4
 10
122.32390333333296
 20
65.538311666666601
 11
122.25829666666624
 21
65.547683333333367
  0
ARC
  8
_1-8_小物
  6
CONTINUOUS
 62
    4
 10
122.23943999999995
 20
65.415689999999955
 40
0.1333333333333333
 50
81.869898000058299
 51
171.86989799999611
  0
LINE
  8
_1-8_小物
  6
CONTINUOUS
 62
    4
 10
122.10744666666625
 20
65.434546666666535
 11
121.7929699999998
 21
63.233206666666575
  0
LINE
  8
_1-8_小物
  6
CONTINUOUS
 62
    4
 10
122.10619999999955
 20
63.119199999999779
 11
122.43698499999965
 21
65.387073333333461
  0
ARC
  8
_1-8_小物
  6
CONTINUOUS
 62
    4
 10
122.30504833333299
 20
65.406318333333303
 40
0.1333333333333333
 50
351.70153399996303
 51
81.869898000034084
  0
LINE
  8
_1-8_小物
  6
CONTINUOUS
 62
    4
 10
122.32390333333296
 20
65.538311666666601
 11
122.25829666666624
 21
65.547683333333367
  0
ARC
  8
_1-8_小物
  6
CONTINUOUS
 62
    4
 10
122.23943999999995
 20
65.415689999999955
 40
0.1333333333333333
 50
81.869898000058299
 51
171.86989799999611
  0
LINE
  8
_1-8_小物
  6
CONTINUOUS
 62
    4
 10
122.10744666666625
 20
65.434546666666535
 11
121.7929699999998
 21
63.233206666666575
  0
LINE
  8
_1-8_小物
  6
CONTINUOUS
 62
    4
 10
121.66666666666663
 20
68.166666666666657
 11
121.33333333333303
 21
66.500000000000028
  0
LINE
  8
_1-8_小物
  6
CONTINUOUS
 62
    4
 10
121.33333333333303
 20
68.166666666666657
 11
121.33333333333303
 21
65.499999999999801
  0
LINE
  8
_1-8_小物
  6
CONTINUOUS
 62
    4
 10
120.16666666666663
 20
65.499999999999801
 11
120
 21
65.499999999999801
  0
LINE
  8
_1-8_小物
  6
CONTINUOUS
 62
    4
 10
120
 20
66.500000000000028
 11
120
 21
68.166666666666657
  0
LINE
  8
_1-8_小物
  6
CONTINUOUS
 62
    4
 10
120.33333333333303
 20
68.166666666666657
 11
120
 21
66.500000000000028
  0
LINE
  8
_1-8_小物
  6
CONTINUOUS
 62
    4
 10
119.66666666666634
 20
68.166666666666657
 11
120
 21
66.500000000000028
  0
LINE
  8
_1-8_小物
  6
CONTINUOUS
 62
    4
 10
118.33333333333331
 20
68.166666666666657
 11
118.66666666666663
 21
66.500000000000028
  0
LINE
  8
_1-8_小物
  6
CONTINUOUS
 62
    4
 10
118.66666666666663
 20
68.166666666666657
 11
118.66666666666663
 21
65.499999999999801
  0
LINE
  8
_1-8_小物
  6
CONTINUOUS
 62
    4
 10
119.83333333333303
 20
65.499999999999801
 11
120
 21
65.499999999999801
  0
LINE
  8
_1-8_小物
  6
CONTINUOUS
 62
    4
 10
121.66666666666663
 20
68.166666666666657
 11
118.33333333333331
 21
68.166666666666657
  0
ENDBLK
  0
BLOCK
  2
-003-_3_
 70
   64
 10
0
 20
0
 30
0
  0
LINE
  8
_1-8_小物
  6
CONTINUOUS
 62
    4
 10
-61.787483860264587
 20
-19
 11
-59.787483860264587
 21
-19
  0
LINE
  8
_1-8_小物
  6
CONTINUOUS
 62
    4
 10
-62.120817193597929
 20
-19.707106781186582
 11
-62.120817193597929
 21
-18.292893218813447
  0
LINE
  8
_1-8_小物
  6
CONTINUOUS
 62
    4
 10
-62.120817193597929
 20
-18.292893218813447
 11
-59.454150526931244
 21
-18.292893218813447
  0
LINE
  8
_1-8_小物
  6
CONTINUOUS
 62
    4
 10
-59.454150526931244
 20
-19.707106781186582
 11
-59.454150526931244
 21
-18.292893218813447
  0
LINE
  8
_1-8_小物
  6
CONTINUOUS
 62
    4
 10
-62.120817193597929
 20
-19.707106781186582
 11
-59.454150526931244
 21
-19.707106781186582
  0
ENDBLK
  0
BLOCK
  2
-004-_4_
 70
   64
 10
0
 20
0
 30
0
  0
LINE
  8
_1-8_小物
  6
CONTINUOUS
 62
    4
 10
-118.45415052693124
 20
-19
 11
-120.45415052693124
 21
-19
  0
LINE
  8
_1-8_小物
  6
CONTINUOUS
 62
    4
 10
-118.12081719359792
 20
-19.707106781186582
 11
-118.12081719359792
 21
-18.292893218813447
  0
LINE
  8
_1-8_小物
  6
CONTINUOUS
 62
    4
 10
-118.12081719359792
 20
-18.292893218813447
 11
-120.78748386026459
 21
-18.292893218813447
  0
LINE
  8
_1-8_小物
  6
CONTINUOUS
 62
    4
 10
-120.78748386026459
 20
-19.707106781186582
 11
-120.78748386026459
 21
-18.292893218813447
  0
LINE
  8
_1-8_小物
  6
CONTINUOUS
 62
    4
 10
-118.12081719359792
 20
-19.707106781186582
 11
-120.78748386026459
 21
-19.707106781186582
  0
ENDBLK
  0
BLOCK
  2
-005-_5_
 70
   64
 10
0
 20
0
 30
0
  0
LINE
  8
_1-8_小物
  6
CONTINUOUS
 62
    4
 10
138.21251613973538
 20
-19
 11
140.21251613973538
 21
-19
  0
LINE
  8
_1-8_小物
  6
CONTINUOUS
 62
    4
 10
137.87918280640207
 20
-19.707106781186582
 11
137.87918280640207
 21
-18.292893218813447
  0
LINE
  8
_1-8_小物
  6
CONTINUOUS
 62
    4
 10
137.87918280640207
 20
-18.292893218813447
 11
140.54584947306876
 21
-18.292893218813447
  0
LINE
  8
_1-8_小物
  6
CONTINUOUS
 62
    4
 10
140.54584947306876
 20
-19.707106781186582
 11
140.54584947306876
 21
-18.292893218813447
  0
LINE
  8
_1-8_小物
  6
CONTINUOUS
 62
    4
 10
137.87918280640207
 20
-19.707106781186582
 11
140.54584947306876
 21
-19.707106781186582
  0
ENDBLK
  0
BLOCK
  2
-006-_6_
 70
   64
 10
0
 20
0
 30
0
  0
LINE
  8
_1-8_小物
  6
CONTINUOUS
 62
    4
 10
81.545849473068756
 20
-19
 11
79.545849473068756
 21
-19
  0
LINE
  8
_1-8_小物
  6
CONTINUOUS
 62
    4
 10
81.879182806402071
 20
-19.707106781186582
 11
81.879182806402071
 21
-18.292893218813447
  0
LINE
  8
_1-8_小物
  6
CONTINUOUS
 62
    4
 10
81.879182806402071
 20
-18.292893218813447
 11
79.212516139735385
 21
-18.292893218813447
  0
LINE
  8
_1-8_小物
  6
CONTINUOUS
 62
    4
 10
79.212516139735385
 20
-19.707106781186582
 11
79.212516139735385
 21
-18.292893218813447
  0
LINE
  8
_1-8_小物
  6
CONTINUOUS
 62
    4
 10
81.879182806402071
 20
-19.707106781186582
 11
79.212516139735385
 21
-19.707106781186582
  0
ENDBLK
  0
BLOCK
  2
-007-_7_
 70
   64
 10
0
 20
0
 30
0
  0
LINE
  8
ADD_LINE
  6
DOT
 62
    4
 10
-117.49999999999999
 20
69.166666666666771
 11
-117.49999999999999
 21
68.166666666666657
  0
LINE
  8
ADD_LINE
  6
DOT
 62
    4
 10
-122.49999999999999
 20
69.166666666666771
 11
-122.49999999999999
 21
68.166666666666657
  0
LINE
  8
_1-4_フレ__ム
  6
CENTER2
 62
    4
 10
-119.99999999999999
 20
66.5
 11
-119.99999999999999
 21
70.333333333333485
  0
LINE
  8
_1-4_フレ__ム
  6
CONTINUOUS
 62
    4
 10
-119.99999999999999
 20
69.066666666666748
 11
-120.09999999999974
 21
69.166666666666771
  0
LINE
  8
_1-4_フレ__ム
  6
CONTINUOUS
 62
    4
 10
-119.89999999999962
 20
69.166666666666771
 11
-119.99999999999999
 21
69.066666666666748
  0
LINE
  8
_1-4_フレ__ム
  6
CONTINUOUS
 62
    4
 10
-115.33333349226602
 20
69.166666666666771
 11
-119.89999999999962
 21
69.166666666666771
  0
LINE
  8
_1-4_フレ__ム
  6
CONTINUOUS
 62
    4
 10
-115.33333349226602
 20
70.000000000000028
 11
-115.33333349226602
 21
69.166666666666771
  0
LINE
  8
_1-4_フレ__ム
  6
CONTINUOUS
 62
    4
 10
-115.33333349226602
 20
70.000000000000028
 11
-114.33333349226601
 21
70.000000000000028
  0
LINE
  8
_1-4_フレ__ム
  6
CONTINUOUS
 62
    4
 10
-120.09999999999974
 20
69.166666666666771
 11
-125.9999999015334
 21
69.166666666666771
  0
ARC
  8
_1-4_フレ__ム
  6
CONTINUOUS
 62
    4
 10
-106.099999901533
 20
68.43333333333365
 40
0.2666666666666667
 50
270
 51
0
  0
ARC
  8
_1-4_フレ__ム
  6
CONTINUOUS
 62
    4
 10
-106.19999990153306
 20
68.333333333333485
 40
0.1666666666666666
 50
180
 51
270
  0
LINE
  8
_1-4_フレ__ム
  6
CONTINUOUS
 62
    4
 10
-106.19999990153306
 20
68.166666666666657
 11
-106.099999901533
 21
68.166666666666657
  0
ARC
  8
_1-4_フレ__ム
  6
CONTINUOUS
 62
    4
 10
-108.33333323486657
 20
69.166666666666771
 40
0.1666666666666666
 50
270
 51
0
  0
LINE
  8
_1-4_フレ__ム
  6
CONTINUOUS
 62
    4
 10
-105.83333323486657
 20
68.43333333333365
 11
-105.83333323486657
 21
69.433333333333394
  0
ARC
  8
_1-4_フレ__ム
  6
CONTINUOUS
 62
    4
 10
-106.4666665681999
 20
69.433333333333394
 40
0.6333333333333333
 50
0
 51
90
  0
LINE
  8
_1-4_フレ__ム
  6
CONTINUOUS
 62
    4
 10
-114.33333349226601
 20
70.000000000000028
 11
-114.33333349226601
 21
69.000000000000142
  0
LINE
  8
_1-4_フレ__ム
  6
CONTINUOUS
 62
    4
 10
-108.33333323486657
 20
69.000000000000142
 11
-114.33333349226601
 21
69.000000000000142
  0
LINE
  8
_1-4_フレ__ム
  6
CONTINUOUS
 62
    4
 10
-124.99999990153309
 20
68.166666666666657
 11
-125.9999999015334
 21
69.166666666666771
  0
LINE
  8
_1-4_フレ__ム
  6
CONTINUOUS
 62
    4
 10
-124.99999990153309
 20
68.166666666666657
 11
-107.33333341279982
 21
68.166666666666657
  0
LINE
  8
ADD_LINE
  6
DOT
 62
    4
 10
-108.83333323486657
 20
69.000000000000142
 11
-108.83333323486657
 21
68.166666666666657
  0
LINE
  8
_1-4_フレ__ム
  6
CENTER2
 62
    4
 10
-106.849999901533
 20
68.983333333333491
 11
-106.849999901533
 21
69.816666666666521
  0
LINE
  8
_1-4_フレ__ム
  6
CENTER2
 62
    4
 10
-106.849999901533
 20
68.983333333333491
 11
-107.68333323486664
 21
68.983333333333491
  0
LINE
  8
_1-4_フレ__ム
  6
CENTER2
 62
    4
 10
-106.849999901533
 20
68.983333333333491
 11
-106.849999901533
 21
68.149999999999892
  0
LINE
  8
_1-4_フレ__ム
  6
CENTER2
 62
    4
 10
-106.849999901533
 20
68.983333333333491
 11
-106.01666656819967
 21
68.983333333333491
  0
ARC
  8
_1-4_フレ__ム
  6
CONTINUOUS
 62
    4
 10
-106.849999901533
 20
68.983333333333491
 40
0.4833333333332726
 50
0
 51
180
  0
LINE
  8
_1-4_フレ__ム
  6
CONTINUOUS
 62
    4
 10
-107.33333323486657
 20
68.166666666666657
 11
-107.33333323486657
 21
68.983333333333491
  0
LINE
  8
_1-4_フレ__ム
  6
CONTINUOUS
 62
    4
 10
-106.36666656820003
 20
68.983333333333491
 11
-106.36666656820003
 21
68.333333333333485
  0
LINE
  8
_1-4_フレ__ム
  6
CONTINUOUS
 62
    4
 10
-108.1666665681999
 20
69.966666666666725
 11
-108.1666665681999
 21
69.166666666666771
  0
LINE
  8
_1-4_フレ__ム
  6
CONTINUOUS
 62
    4
 10
-106.4666665681999
 20
70.066666666666748
 11
-108.06666656819988
 21
70.066666666666748
  0
ARC
  8
_1-4_フレ__ム
  6
CONTINUOUS
 62
    4
 10
-108.06666656819988
 20
69.966666666666725
 40
0.0999999999999999
 50
90
 51
180
  0
ENDBLK
  0
BLOCK
  2
-008-_8_
 70
   64
 10
0
 20
0
 30
0
  0
LINE
  8
_1-8_小物
  6
CONTINUOUS
 62
    4
 10
-108.96111101591627
 20
69.230313555190946
 11
-109.04814805296098
 21
69.129306961543421
  0
ARC
  8
_1-8_小物
  6
CONTINUOUS
 62
    4
 10
-105.96666656819961
 20
69.933333333333394
 40
0.1333333333333333
 50
0
 51
89.999998490725531
  0
ARC
  8
_1-8_小物
  6
CONTINUOUS
 62
    4
 10
-105.96666656819961
 20
69.933333333333394
 40
0.2666666666666666
 50
0
 51
89.999998490725531
  0
ARC
  8
_1-8_小物
  6
CONTINUOUS
 62
    4
 10
-105.96666656819961
 20
68.300000000000011
 40
0.2666666666666666
 50
270
 51
0
  0
ARC
  8
_1-8_小物
  6
CONTINUOUS
 62
    4
 10
-106.69999990153296
 20
67.79398867043335
 40
0.5
 50
53.031405798550502
 51
131.81031489580602
  0
ARC
  8
_1-8_小物
  6
CONTINUOUS
 62
    4
 10
-106.31912768486629
 20
68.300000000000011
 40
0.1333333333333333
 50
233.03140197499249
 51
269.99999849072555
  0
LINE
  8
_1-8_小物
  6
CONTINUOUS
 62
    4
 10
-106.322758405033
 20
68.03333333333336
 11
-105.96666656819961
 21
68.03333333333336
  0
ARC
  8
_1-8_小物
  6
CONTINUOUS
 62
    4
 10
-105.96666656819961
 20
68.300000000000011
 40
0.1333333333333333
 50
270
 51
0
  0
ARC
  8
_1-8_小物
  6
CONTINUOUS
 62
    4
 10
-106.69999990153296
 20
67.750333466766733
 40
0.3999999999999999
 50
55.537811429940156
 51
127.63786311680128
  0
LINE
  8
_1-8_小物
  6
CONTINUOUS
 62
    4
 10
-106.31912768836632
 20
68.166666666666686
 11
-105.96666656819961
 21
68.166666666666686
  0
ARC
  8
_1-8_小物
  6
CONTINUOUS
 62
    4
 10
-106.322758405033
 20
68.300000000000011
 40
0.2666666666666666
 50
235.5378114299065
 51
270
  0
LINE
  8
_1-8_小物
  6
CONTINUOUS
 62
    4
 10
-107.03333323486629
 20
68.166666666666686
 11
-106.94426734323297
 21
68.067087972566696
  0
LINE
  8
_1-8_小物
  6
CONTINUOUS
 62
    4
 10
-105.69999990153296
 20
68.300000000000011
 11
-105.69999990153296
 21
69.933333333333394
  0
LINE
  8
_1-8_小物
  6
CONTINUOUS
 62
    4
 10
-105.83333323486633
 20
68.300000000000011
 11
-105.83333323486633
 21
69.933333333333394
  0
ARC
  8
_1-8_小物
  6
CONTINUOUS
 62
    4
 10
-108.69999990153296
 20
69.53333333333336
 40
0.5333333333333333
 50
180
 51
0.0000086701147097
  0
ARC
  8
_1-8_小物
  6
CONTINUOUS
 62
    4
 10
-108.69999990153296
 20
69.53333333333336
 40
0.3999999999999999
 50
180.00000000009771
 51
0.000001882395793
  0
LINE
  8
_1-8_小物
  6
CONTINUOUS
 62
    4
 10
-109.09999990153298
 20
69.53333333333336
 11
-109.23333323486631
 21
69.53333333333336
  0
LINE
  8
_1-8_小物
  6
CONTINUOUS
 62
    4
 10
-110.16666656819966
 20
69
 11
-110.16666656819966
 21
69.133333333333326
  0
LINE
  8
_1-8_小物
  6
DASHED1
 62
    4
 10
-107.58333322779333
 20
70.200000000000045
 11
-107.58333322779333
 21
70.06666666666672
  0
LINE
  8
_1-8_小物
  6
CONTINUOUS
 62
    4
 10
-109.66666656819966
 20
69.133333333333326
 11
-109.66666656819966
 21
69
  0
LINE
  8
_1-8_小物
  6
CONTINUOUS
 62
    4
 10
-110.16666656819966
 20
69.133333333333326
 11
-109.05276674300819
 21
69.133333333333326
  0
LINE
  8
_1-8_小物
  6
CONTINUOUS
 62
    4
 10
-110.16666656819966
 20
69
 11
-108.33333323486657
 21
69
  0
LINE
  8
_1-8_小物
  6
CONTINUOUS
 62
    4
 10
-108.34723306005773
 20
69.133333333333326
 11
-108.17003391868107
 21
69.133333333333326
  0
ARC
  8
_1-8_小物
  6
CONTINUOUS
 62
    4
 10
-107.26977142654987
 20
68.700000000000045
 40
0.1333333333333333
 50
241.52902134411201
 51
270
  0
LINE
  8
_1-8_小物
  6
CONTINUOUS
 62
    4
 10
-107.33333323486657
 20
68.433333333333394
 11
-106.36666656820003
 21
68.433333333333394
  0
LINE
  8
_1-8_小物
  6
CONTINUOUS
 62
    4
 10
-107.26977142654987
 20
68.566666666666663
 11
-106.36666656820003
 21
68.566666666666663
  0
LINE
  8
_1-8_小物
  6
CONTINUOUS
 62
    4
 10
-105.96666656469965
 20
70.06666666666672
 11
-108.06666656819965
 21
70.06666666666672
  0
LINE
  8
_1-8_小物
  6
CONTINUOUS
 62
    4
 10
-108.16666656819966
 20
69.53333333333336
 11
-108.16666656819966
 21
69.966666666666725
  0
ARC
  8
_1-8_小物
  6
CONTINUOUS
 62
    4
 10
-108.06666656819965
 20
69.966666666666725
 40
0.0999999999999999
 50
90
 51
180
  0
LINE
  8
_1-8_小物
  6
CONTINUOUS
 62
    4
 10
-105.96666656119962
 20
70.200000000000045
 11
-108.06666656819962
 21
70.200000000000045
  0
LINE
  8
_1-8_小物
  6
CONTINUOUS
 62
    4
 10
-108.29999990153294
 20
69.53333333333336
 11
-108.29999990153294
 21
69.966666666666697
  0
ARC
  8
_1-8_小物
  6
CONTINUOUS
 62
    4
 10
-108.06666656819962
 20
69.966666666666697
 40
0.2333333333333333
 50
90
 51
180
  0
ENDBLK
  0
BLOCK
  2
-009-_9_
 70
   64
 10
0
 20
0
 30
0
  0
LINE
  8
_1-5_ア__ム
  6
CONTINUOUS
 62
    4
 10
-123.33316655467968
 20
75.666665497779491
 11
-123.33316655467968
 21
71.999998942879699
  0
ARC
  8
_1-5_ア__ム
  6
CONTINUOUS
 62
    4
 10
-121.66649988801302
 20
71.999998942879699
 40
1.6666666666666665
 50
180
 51
270
  0
LINE
  8
_1-5_ア__ム
  6
CONTINUOUS
 62
    4
 10
-76.66649988801305
 20
75.666665516412905
 11
-76.66649988801305
 21
71.999998942879699
  0
ARC
  8
_1-5_ア__ム
  6
CONTINUOUS
 62
    4
 10
-78.333166554679678
 20
71.999998942879699
 40
1.6666666666666665
 50
270
 51
0
  0
LINE
  8
_1-5_ア__ム
  6
CONTINUOUS
 62
    4
 10
-123.33316655467968
 20
75.666665516412905
 11
-76.66649988801305
 21
75.666665516412905
  0
LINE
  8
_1-5_ア__ム
  6
DASHED1
 62
    4
 10
-123.33316655467968
 20
74.733332197712969
 11
-76.66649988801305
 21
74.733332197712969
  0
LINE
  8
_1-5_ア__ム
  6
CONTINUOUS
 62
    4
 10
-121.66649988801302
 20
70.333332276213042
 11
-78.333166554679678
 21
70.333332276213042
  0
LINE
  8
_1-5_ア__ム
  6
DASHED1
 62
    4
 10
-123.33316655467968
 20
73.99999886437962
 11
-76.66649988801305
 21
73.99999886437962
  0
LINE
  8
_1-5_ア__ム
  6
DASHED1
 62
    4
 10
-119.33316655467968
 20
74.733332197712969
 11
-119.33316655467968
 21
73.99999886437962
  0
LINE
  8
_1-5_ア__ム
  6
DASHED1
 62
    4
 10
-113.99983322134605
 20
74.733332197712969
 11
-113.99983322134605
 21
73.99999886437962
  0
LINE
  8
_1-5_ア__ム
  6
DASHED1
 62
    4
 10
-104.99983322134651
 20
74.733332197712969
 11
-104.99983322134651
 21
73.99999886437962
  0
LINE
  8
_1-5_ア__ム
  6
DASHED1
 62
    4
 10
-102.99983322134619
 20
74.733332197712969
 11
-102.99983322134619
 21
73.99999886437962
  0
LINE
  8
_1-5_ア__ム
  6
DASHED1
 62
    4
 10
-116.99983322134635
 20
74.733332197712969
 11
-116.99983322134635
 21
73.99999886437962
  0
LINE
  8
_1-5_ア__ム
  6
DASHED1
 62
    4
 10
-108.66649988801302
 20
74.733332197712969
 11
-108.66649988801302
 21
73.99999886437962
  0
LINE
  8
_1-5_ア__ム
  6
DASHED1
 62
    4
 10
-104.33316655467968
 20
74.733332197712969
 11
-104.33316655467968
 21
73.99999886437962
  0
ENDBLK
  0
BLOCK
  2
-010-_10_
 70
   64
 10
0
 20
0
 30
0
  0
LINE
  8
_1-6_ばね
  6
CENTER2
 62
    4
 10
-121.01649988801277
 20
68.249998857062963
 11
-121.01649988801277
 21
74.916665523729648
  0
LINE
  8
_1-6_ばね
  6
CENTER2
 62
    4
 10
-117.68316655467945
 20
71.583332190396305
 11
-124.3498332213461
 21
71.583332190396305
  0
CIRCLE
  8
_1-6_ばね
  6
CONTINUOUS
 62
    4
 10
-121.01649988801277
 20
71.583332190396305
 40
1.5500000073166575
  0
LINE
  8
_1-6_ばね
  6
CONTINUOUS
 62
    4
 10
-119.30765849497163
 20
69.874490797355122
 11
-114.70265788425218
 21
74.479491408074637
  0
ARC
  8
_1-6_ばね
  6
CONTINUOUS
 62
    4
 10
-114.08983200722382
 20
73.866665531046294
 40
0.8666666666666667
 50
90
 51
135.00000000000065
  0
LINE
  8
_1-6_ばね
  6
CONTINUOUS
 62
    4
 10
-119.92048437199996
 20
70.487316674383493
 11
-115.31548376128055
 21
75.092317285102951
  0
ARC
  8
_1-6_ばね
  6
CONTINUOUS
 62
    4
 10
-114.08983200722386
 20
73.866665531046266
 40
1.7333333333333334
 50
90
 51
135
  0
LINE
  8
_1-6_ばね
  6
CENTER2
 62
    4
 10
-119.6140714334858
 20
70.180903735869293
 11
-115.0090708227663
 21
74.785904346588836
  0
ARC
  8
_1-6_ばね
  6
CENTER2
 62
    4
 10
-114.08983200722378
 20
73.866665531046294
 40
1.2999999999999998
 50
90
 51
134.99999999999912
  0
ARC
  8
_1-6_ばね
  6
CONTINUOUS
 62
    4
 10
-105.24983322134611
 20
73.866665531046266
 40
1.7333333333333334
 50
0
 51
90
  0
ARC
  8
_1-6_ばね
  6
CONTINUOUS
 62
    4
 10
-105.24983322134614
 20
73.866665531046294
 40
0.8666666666666667
 50
0
 51
90
  0
ARC
  8
_1-6_ばね
  6
CENTER2
 62
    4
 10
-105.24983322134611
 20
73.866665531046294
 40
1.2999999999999998
 50
0
 51
90
  0
LINE
  8
_1-6_ばね
  6
CONTINUOUS
 62
    4
 10
-104.36649988801278
 20
71.599998864379614
 11
-103.53316655467944
 21
71.599998864379614
  0
LINE
  8
_1-6_ばね
  6
CONTINUOUS
 62
    4
 10
-104.38316655467943
 20
71.599998864379614
 11
-104.38316655467943
 21
73.866665531046294
  0
LINE
  8
_1-6_ばね
  6
CENTER2
 62
    4
 10
-103.94983322134611
 20
71.599998864379614
 11
-103.94983322134611
 21
73.866665531046294
  0
LINE
  8
_1-6_ばね
  6
CONTINUOUS
 62
    4
 10
-103.51649988801279
 20
71.599998864379614
 11
-103.51649988801279
 21
73.866665531046266
  0
LINE
  8
_1-6_ばね
  6
CONTINUOUS
 62
    4
 10
-114.08983200722386
 20
75.599998864379614
 11
-105.24983322134611
 21
75.599998864379614
  0
LINE
  8
_1-6_ばね
  6
CENTER2
 62
    4
 10
-114.08983200722378
 20
75.166665531046306
 11
-105.24983322134611
 21
75.166665531046306
  0
LINE
  8
_1-6_ばね
  6
CONTINUOUS
 62
    4
 10
-114.08983200722382
 20
74.733332197712969
 11
-105.24983322134611
 21
74.733332197712969
  0
ARC
  8
_1-6_ばね
  6
CONTINUOUS
 62
    4
 10
-121.01649988801277
 20
71.583332190396305
 40
2.416666673983324
 50
5.1052516629132807
 51
315.00000000000045
  0
ARC
  8
_1-6_ばね
  6
CENTER2
 62
    4
 10
-121.01649988801277
 20
71.583332190396305
 40
1.9833333406499909
 50
353.60072244347799
 51
314.99999999999977
  0
LINE
  8
_1-6_ばね
  6
CONTINUOUS
 62
    4
 10
-106.46588689995494
 20
69.183919922607203
 11
-107.69560435612348
 21
71.538765602431397
  0
LINE
  8
_1-6_ばね
  6
CENTER2
 62
    4
 10
-106.849999901533
 20
68.983333333333491
 11
-108.07971735770155
 21
71.338179013157657
  0
ARC
  8
_1-6_ばね
  6
CONTINUOUS
 62
    4
 10
-109.2320563624358
 20
70.736419245336606
 40
1.7333333333333334
 50
27.573889345971384
 51
82.573889345972276
  0
ARC
  8
_1-6_ばね
  6
CONTINUOUS
 62
    4
 10
-109.23205636243577
 20
70.736419245336606
 40
0.8666666666666667
 50
27.573889345973267
 51
82.573889345969945
  0
ARC
  8
_1-6_ばね
  6
CENTER2
 62
    4
 10
-109.23205636243578
 20
70.736419245336521
 40
1.2999999999999998
 50
27.573889345974663
 51
82.573889345971963
  0
LINE
  8
_1-6_ばね
  6
CONTINUOUS
 62
    4
 10
-107.23411290311105
 20
68.782746744059807
 11
-108.4638303592796
 21
71.13759242388403
  0
LINE
  8
_1-6_ばね
  6
CENTER2
 62
    4
 10
-117.30778860503366
 20
73.100012441349833
 11
-119.39087737177545
 21
73.371523804246408
  0
LINE
  8
_1-6_ばね
  6
CENTER2
 62
    4
 10
-109.06403460661356
 20
72.025515319944816
 11
-116.22346801544592
 21
72.958681276880867
  0
LINE
  8
_1-6_ばね
  6
CONTINUOUS
 62
    4
 10
-109.00802735467282
 20
72.455214011480905
 11
-115.83686006818959
 21
73.345289224137218
  0
LINE
  8
_1-6_ばね
  6
CONTINUOUS
 62
    4
 10
-116.92118065777736
 20
73.486620388606127
 11
-120.70415598691328
 21
73.9796962497104
  0
LINE
  8
_1-6_ばね
  6
CONTINUOUS
 62
    4
 10
-117.69439655229
 20
72.713404494093481
 11
-118.97757050963503
 21
72.880654356679543
  0
LINE
  8
_1-6_ばね
  6
CONTINUOUS
 62
    4
 10
-109.12004185855429
 20
71.595816628408812
 11
-116.61007596270224
 21
72.572073329624516
  0
ARC
  8
_1-6_ばね
  6
CONTINUOUS
 62
    4
 10
-106.84999990549952
 20
68.983332183079654
 40
0.4333333333333333
 50
207.57375477576656
 51
27.574023915840087
  0
ENDBLK
  0
BLOCK
  2
-011-_11_
 70
   64
 10
0
 20
0
 30
0
  0
LINE
  8
_1-4_フレ__ム
  6
CONTINUOUS
 62
    4
 10
-75.000000079466929
 20
68.166666685666684
 11
-74.000000098466955
 21
69.166666666666629
  0
LINE
  8
_1-4_フレ__ム
  6
CONTINUOUS
 62
    4
 10
-74.000000098466955
 20
69.166666666666629
 11
-74.707106879653509
 21
69.166666666666629
  0
ARC
  8
_1-4_フレ__ム
  6
CONTINUOUS
 62
    4
 10
-91.166666666666842
 20
68.166666666666657
 40
0.5
 50
90
 51
180
  0
LINE
  8
_1-4_フレ__ム
  6
CONTINUOUS
 62
    4
 10
-80.000000000000142
 20
68.566666666666748
 11
-80.099999999999909
 21
68.666666666666657
  0
LINE
  8
_1-4_フレ__ム
  6
CONTINUOUS
 62
    4
 10
-79.899999999999807
 20
68.666666666666657
 11
-80.000000000000142
 21
68.566666666666748
  0
LINE
  8
_1-4_フレ__ム
  6
CONTINUOUS
 62
    4
 10
-91.666666666666799
 20
68.166666666666657
 11
-75.000000000000142
 21
68.166666666666657
  0
ARC
  8
_1-4_フレ__ム
  6
CONTINUOUS
 62
    4
 10
-86.566666666666478
 20
70.066666666666663
 40
0.2666666666666667
 50
90
 51
180
  0
LINE
  8
_1-4_フレ__ム
  6
CONTINUOUS
 62
    4
 10
-85.099999999999937
 20
70.333333333333371
 11
-86.566666666666478
 21
70.333333333333371
  0
ARC
  8
_1-4_フレ__ム
  6
CONTINUOUS
 62
    4
 10
-85.099999999999937
 20
70.066666666666663
 40
0.2666666666666667
 50
0
 51
90
  0
LINE
  8
_1-4_フレ__ム
  6
CONTINUOUS
 62
    4
 10
-84.833333333333513
 20
69.833333333333314
 11
-84.833333333333513
 21
70.066666666666663
  0
LINE
  8
_1-4_フレ__ム
  6
CONTINUOUS
 62
    4
 10
-86.066666666666748
 20
69.833333333333314
 11
-84.833333333333513
 21
69.833333333333314
  0
ARC
  8
_1-4_フレ__ム
  6
CONTINUOUS
 62
    4
 10
-86.066666666666748
 20
69.56666666666672
 40
0.2666666666666667
 50
90
 51
180
  0
LINE
  8
_1-4_フレ__ム
  6
CONTINUOUS
 62
    4
 10
-86.833333333333201
 20
70.066666666666663
 11
-86.833333333333201
 21
68.666666666666657
  0
LINE
  8
_1-4_フレ__ム
  6
CONTINUOUS
 62
    4
 10
-86.833333333333201
 20
68.666666666666657
 11
-91.166666666666842
 21
68.666666666666657
  0
LINE
  8
_1-4_フレ__ム
  6
CONTINUOUS
 62
    4
 10
-86.333333333333172
 20
68.666666666666657
 11
-86.333333333333172
 21
69.56666666666672
  0
LINE
  8
_1-4_フレ__ム
  6
CONTINUOUS
 62
    4
 10
-80.099999999999909
 20
68.666666666666657
 11
-86.333333333333172
 21
68.666666666666657
  0
LINE
  8
_1-4_フレ__ム
  6
CONTINUOUS
 62
    4
 10
-75.207106879653509
 20
68.666666666666657
 11
-74.707106879653509
 21
69.166666666666629
  0
LINE
  8
_1-4_フレ__ム
  6
CONTINUOUS
 62
    4
 10
-75.207106879653509
 20
68.666666666666657
 11
-79.899999999999807
 21
68.666666666666657
  0
LINE
  8
_1-4_フレ__ム
  6
DASHED1
 62
    4
 10
-77.500000000000142
 20
68.666666666666657
 11
-77.500000000000142
 21
68.166666666666515
  0
LINE
  8
_1-4_フレ__ム
  6
DASHED1
 62
    4
 10
-82.500000000000142
 20
68.666666666666657
 11
-82.500000000000142
 21
68.166666666666515
  0
LINE
  8
ADD_LINE
  6
DOT
 62
    4
 10
-80
 20
70.333333333333314
 11
-80
 21
66.5
  0
ENDBLK
  0
BLOCK
  2
-012-_12_
 70
   64
 10
0
 20
0
 30
0
  0
LINE
  8
_1-8_小物
  6
CONTINUOUS
 62
    4
 10
-116.99999999999949
 20
69.666666666666771
 11
-122.9999999999998
 21
69.666666666666771
  0
LINE
  8
_1-8_小物
  6
CONTINUOUS
 62
    4
 10
-116.99999999999949
 20
69.166666666666771
 11
-122.9999999999998
 21
69.166666666666771
  0
LINE
  8
_1-8_小物
  6
CONTINUOUS
 62
    4
 10
-116.99999999999949
 20
69.666666666666771
 11
-116.99999999999949
 21
69.166666666666771
  0
LINE
  8
_1-8_小物
  6
CONTINUOUS
 62
    4
 10
-122.9999999999998
 20
69.666666666666771
 11
-122.9999999999998
 21
69.166666666666771
  0
LINE
  8
_1-8_小物
  6
CONTINUOUS
 62
    4
 10
-118.49999999999949
 20
69.666666666666771
 11
-118.53630426126634
 21
70.081626271666806
  0
LINE
  8
_1-8_小物
  6
CONTINUOUS
 62
    4
 10
-121.46369573876635
 20
70.081626271666806
 11
-121.49999999999949
 21
69.666666666666771
  0
ARC
  8
_1-8_小物
  6
CONTINUOUS
 62
    4
 10
-121.13495148836662
 20
70.052864876566701
 40
0.3299999999999999
 50
127.36755803205052
 51
175.00000000119871
  0
ARC
  8
_1-8_小物
  6
CONTINUOUS
 62
    4
 10
-118.86504851163298
 20
70.052864876566701
 40
0.3299999999999999
 50
4.999999998801071
 51
52.632441967947514
  0
ARC
  8
_1-8_小物
  6
CONTINUOUS
 62
    4
 10
-119.9999999999998
 20
68.566666666666748
 40
2.1999999999999997
 50
52.632441967704636
 51
68.266383543397822
  0
ARC
  8
_1-8_小物
  6
CONTINUOUS
 62
    4
 10
-119.9999999999998
 20
68.566666666666748
 40
2.1999999999999997
 50
111.74840859090295
 51
127.36755803230515
  0
LINE
  8
_1-8_小物
  6
CONTINUOUS
 62
    4
 10
-119.89499999999967
 20
70.7530423765335
 11
-119.89499999999967
 21
70.607770746533362
  0
LINE
  8
_1-8_小物
  6
CONTINUOUS
 62
    4
 10
-119.77923710603267
 20
70.7530423765335
 11
-119.89499999999967
 21
70.7530423765335
  0
LINE
  8
_1-8_小物
  6
CONTINUOUS
 62
    4
 10
-119.18583224383306
 20
70.607770746533362
 11
-119.77923710603267
 21
70.7530423765335
  0
LINE
  8
_1-8_小物
  6
CONTINUOUS
 62
    4
 10
-120.22076289399971
 20
70.7530423765335
 11
-120.65406631656646
 21
70.664563769400189
  0
LINE
  8
_1-8_小物
  6
CONTINUOUS
 62
    4
 10
-120.65406631656646
 20
70.664563769400189
 11
-120.81416775619931
 21
70.607770746533362
  0
LINE
  8
_1-8_小物
  6
CONTINUOUS
 62
    4
 10
-120.10499999999971
 20
70.7530423765335
 11
-120.22076289399971
 21
70.7530423765335
  0
LINE
  8
_1-8_小物
  6
CONTINUOUS
 62
    4
 10
-120.10499999999971
 20
70.607770746533362
 11
-120.10499999999971
 21
70.7530423765335
  0
LINE
  8
_1-8_小物
  6
CONTINUOUS
 62
    4
 10
-119.89499999999967
 20
70.607770746533362
 11
-119.9999999999998
 21
70.609472471333476
  0
LINE
  8
_1-8_小物
  6
CONTINUOUS
 62
    4
 10
-119.9999999999998
 20
70.609472471333476
 11
-120.10499999999971
 21
70.607770746533362
  0
LINE
  8
_1-8_小物
  6
CONTINUOUS
 62
    4
 10
-118.53630426126634
 20
70.081626271666806
 11
-121.46369573876635
 21
70.081626271666806
  0
LINE
  8
_1-8_小物
  6
CONTINUOUS
 62
    4
 10
-119.9999999999998
 20
70.315135148900168
 11
-121.33523704516645
 21
70.315135148900168
  0
LINE
  8
_1-8_小物
  6
CONTINUOUS
 62
    4
 10
-118.66476295486623
 20
70.315135148900168
 11
-119.9999999999998
 21
70.315135148900168
  0
ENDBLK
  0
BLOCK
  2
-013-_13_
 70
   64
 10
0
 20
0
 30
0
  0
LINE
  8
_1-8_小物
  6
CONTINUOUS
 62
    4
 10
-76.999999999999488
 20
69.166666666666629
 11
-82.999999999999801
 21
69.166666666666629
  0
LINE
  8
_1-8_小物
  6
CONTINUOUS
 62
    4
 10
-76.999999999999488
 20
68.666666666666629
 11
-82.999999999999801
 21
68.666666666666629
  0
LINE
  8
_1-8_小物
  6
CONTINUOUS
 62
    4
 10
-76.999999999999488
 20
69.166666666666629
 11
-76.999999999999488
 21
68.666666666666629
  0
LINE
  8
_1-8_小物
  6
CONTINUOUS
 62
    4
 10
-82.999999999999801
 20
69.166666666666629
 11
-82.999999999999801
 21
68.666666666666629
  0
LINE
  8
_1-8_小物
  6
CONTINUOUS
 62
    4
 10
-78.499999999999488
 20
69.166666666666629
 11
-78.536304261266338
 21
69.581626271666664
  0
LINE
  8
_1-8_小物
  6
CONTINUOUS
 62
    4
 10
-81.463695738766347
 20
69.581626271666664
 11
-81.499999999999488
 21
69.166666666666629
  0
ARC
  8
_1-8_小物
  6
CONTINUOUS
 62
    4
 10
-81.134951488366625
 20
69.552864876566559
 40
0.3299999999999999
 50
127.36755803205052
 51
175.00000000120363
  0
ARC
  8
_1-8_小物
  6
CONTINUOUS
 62
    4
 10
-78.865048511632978
 20
69.552864876566559
 40
0.3299999999999999
 50
4.9999999987963699
 51
52.632441967949475
  0
ARC
  8
_1-8_小物
  6
CONTINUOUS
 62
    4
 10
-79.999999999999801
 20
68.066666666666606
 40
2.1999999999999997
 50
52.632441967704935
 51
68.266383543398163
  0
ARC
  8
_1-8_小物
  6
CONTINUOUS
 62
    4
 10
-79.999999999999801
 20
68.066666666666606
 40
2.1999999999999997
 50
111.74840859090358
 51
127.36755803230515
  0
LINE
  8
_1-8_小物
  6
CONTINUOUS
 62
    4
 10
-79.894999999999669
 20
70.253042376533358
 11
-79.894999999999669
 21
70.10777074653322
  0
LINE
  8
_1-8_小物
  6
CONTINUOUS
 62
    4
 10
-79.779237106032667
 20
70.253042376533358
 11
-79.894999999999669
 21
70.253042376533358
  0
LINE
  8
_1-8_小物
  6
CONTINUOUS
 62
    4
 10
-79.185832243833062
 20
70.10777074653322
 11
-79.779237106032667
 21
70.253042376533358
  0
LINE
  8
_1-8_小物
  6
CONTINUOUS
 62
    4
 10
-80.220762893999705
 20
70.253042376533358
 11
-80.654066316566457
 21
70.164563769400047
  0
LINE
  8
_1-8_小物
  6
CONTINUOUS
 62
    4
 10
-80.654066316566457
 20
70.164563769400047
 11
-80.814167756199311
 21
70.10777074653322
  0
LINE
  8
_1-8_小物
  6
CONTINUOUS
 62
    4
 10
-80.104999999999706
 20
70.253042376533358
 11
-80.220762893999705
 21
70.253042376533358
  0
LINE
  8
_1-8_小物
  6
CONTINUOUS
 62
    4
 10
-80.104999999999706
 20
70.10777074653322
 11
-80.104999999999706
 21
70.253042376533358
  0
LINE
  8
_1-8_小物
  6
CONTINUOUS
 62
    4
 10
-79.894999999999669
 20
70.10777074653322
 11
-79.999999999999801
 21
70.109472471333333
  0
LINE
  8
_1-8_小物
  6
CONTINUOUS
 62
    4
 10
-79.999999999999801
 20
70.109472471333333
 11
-80.104999999999706
 21
70.10777074653322
  0
LINE
  8
_1-8_小物
  6
CONTINUOUS
 62
    4
 10
-78.536304261266338
 20
69.581626271666664
 11
-81.463695738766347
 21
69.581626271666664
  0
LINE
  8
_1-8_小物
  6
CONTINUOUS
 62
    4
 10
-79.999999999999801
 20
69.815135148900026
 11
-81.335237045166451
 21
69.815135148900026
  0
LINE
  8
_1-8_小物
  6
CONTINUOUS
 62
    4
 10
-78.664762954866234
 20
69.815135148900026
 11
-79.999999999999801
 21
69.815135148900026
  0
ENDBLK
  0
BLOCK
  2
-014-_14_
 70
   64
 10
0
 20
0
 30
0
  0
LINE
  8
_1-4_フレ__ム
  6
CONTINUOUS
 62
    4
 10
124.99999992053301
 20
68.166666685666684
 11
125.99999990153299
 21
69.166666666666629
  0
LINE
  8
_1-4_フレ__ム
  6
CONTINUOUS
 62
    4
 10
125.99999990153299
 20
69.166666666666629
 11
125.29289312034649
 21
69.166666666666629
  0
ARC
  8
_1-4_フレ__ム
  6
CONTINUOUS
 62
    4
 10
108.83333333333314
 20
68.166666666666657
 40
0.5
 50
90
 51
180
  0
LINE
  8
_1-4_フレ__ム
  6
CONTINUOUS
 62
    4
 10
119.99999999999983
 20
68.566666666666748
 11
119.90000000000009
 21
68.666666666666657
  0
LINE
  8
_1-4_フレ__ム
  6
CONTINUOUS
 62
    4
 10
120.10000000000019
 20
68.666666666666657
 11
119.99999999999983
 21
68.566666666666748
  0
LINE
  8
_1-4_フレ__ム
  6
CONTINUOUS
 62
    4
 10
108.33333333333314
 20
68.166666666666657
 11
124.99999999999983
 21
68.166666666666657
  0
ARC
  8
_1-4_フレ__ム
  6
CONTINUOUS
 62
    4
 10
113.43333333333351
 20
70.066666666666663
 40
0.2666666666666667
 50
90
 51
180
  0
LINE
  8
_1-4_フレ__ム
  6
CONTINUOUS
 62
    4
 10
114.90000000000009
 20
70.333333333333371
 11
113.43333333333351
 21
70.333333333333371
  0
ARC
  8
_1-4_フレ__ム
  6
CONTINUOUS
 62
    4
 10
114.90000000000009
 20
70.066666666666663
 40
0.2666666666666667
 50
0
 51
90
  0
LINE
  8
_1-4_フレ__ム
  6
CONTINUOUS
 62
    4
 10
115.16666666666652
 20
69.833333333333314
 11
115.16666666666652
 21
70.066666666666663
  0
LINE
  8
_1-4_フレ__ム
  6
CONTINUOUS
 62
    4
 10
113.93333333333322
 20
69.833333333333314
 11
115.16666666666652
 21
69.833333333333314
  0
ARC
  8
_1-4_フレ__ム
  6
CONTINUOUS
 62
    4
 10
113.93333333333322
 20
69.56666666666672
 40
0.2666666666666667
 50
90
 51
180
  0
LINE
  8
_1-4_フレ__ム
  6
CONTINUOUS
 62
    4
 10
113.1666666666668
 20
70.066666666666663
 11
113.1666666666668
 21
68.666666666666657
  0
LINE
  8
_1-4_フレ__ム
  6
CONTINUOUS
 62
    4
 10
113.1666666666668
 20
68.666666666666657
 11
108.83333333333314
 21
68.666666666666657
  0
LINE
  8
_1-4_フレ__ム
  6
CONTINUOUS
 62
    4
 10
113.6666666666668
 20
68.666666666666657
 11
113.6666666666668
 21
69.56666666666672
  0
LINE
  8
_1-4_フレ__ム
  6
CONTINUOUS
 62
    4
 10
119.90000000000009
 20
68.666666666666657
 11
113.6666666666668
 21
68.666666666666657
  0
LINE
  8
_1-4_フレ__ム
  6
CONTINUOUS
 62
    4
 10
124.79289312034649
 20
68.666666666666657
 11
125.29289312034649
 21
69.166666666666629
  0
LINE
  8
_1-4_フレ__ム
  6
CONTINUOUS
 62
    4
 10
124.79289312034649
 20
68.666666666666657
 11
120.10000000000019
 21
68.666666666666657
  0
LINE
  8
_1-4_フレ__ム
  6
DASHED1
 62
    4
 10
122.49999999999983
 20
68.666666666666657
 11
122.49999999999983
 21
68.166666666666515
  0
LINE
  8
_1-4_フレ__ム
  6
DASHED1
 62
    4
 10
117.49999999999983
 20
68.666666666666657
 11
117.49999999999983
 21
68.166666666666515
  0
LINE
  8
ADD_LINE
  6
DOT
 62
    4
 10
120
 20
70.333333333333314
 11
120
 21
66.5
  0
ENDBLK
  0
BLOCK
  2
-015-_15_
 70
   64
 10
0
 20
0
 30
0
  0
LINE
  8
_1-8_小物
  6
CONTINUOUS
 62
    4
 10
123.00000000000051
 20
69.166666666666629
 11
117.00000000000023
 21
69.166666666666629
  0
LINE
  8
_1-8_小物
  6
CONTINUOUS
 62
    4
 10
123.00000000000051
 20
68.666666666666629
 11
117.00000000000023
 21
68.666666666666629
  0
LINE
  8
_1-8_小物
  6
CONTINUOUS
 62
    4
 10
123.00000000000051
 20
69.166666666666629
 11
123.00000000000051
 21
68.666666666666629
  0
LINE
  8
_1-8_小物
  6
CONTINUOUS
 62
    4
 10
117.00000000000023
 20
69.166666666666629
 11
117.00000000000023
 21
68.666666666666629
  0
LINE
  8
_1-8_小物
  6
CONTINUOUS
 62
    4
 10
121.50000000000051
 20
69.166666666666629
 11
121.46369573873363
 21
69.581626271666664
  0
LINE
  8
_1-8_小物
  6
CONTINUOUS
 62
    4
 10
118.53630426123368
 20
69.581626271666664
 11
118.50000000000051
 21
69.166666666666629
  0
ARC
  8
_1-8_小物
  6
CONTINUOUS
 62
    4
 10
118.8650485116334
 20
69.552864876566559
 40
0.3299999999999999
 50
127.36755803205445
 51
175.00000000120406
  0
ARC
  8
_1-8_小物
  6
CONTINUOUS
 62
    4
 10
121.13495148836705
 20
69.552864876566559
 40
0.3299999999999999
 50
4.9999999987967998
 51
52.632441967953397
  0
ARC
  8
_1-8_小物
  6
CONTINUOUS
 62
    4
 10
120.00000000000023
 20
68.066666666666606
 40
2.1999999999999997
 50
52.632441967705518
 51
68.266383543398845
  0
ARC
  8
_1-8_小物
  6
CONTINUOUS
 62
    4
 10
120.00000000000023
 20
68.066666666666606
 40
2.1999999999999997
 50
111.74840859090426
 51
127.36755803230515
  0
LINE
  8
_1-8_小物
  6
CONTINUOUS
 62
    4
 10
120.1050000000003
 20
70.253042376533358
 11
120.1050000000003
 21
70.10777074653322
  0
LINE
  8
_1-8_小物
  6
CONTINUOUS
 62
    4
 10
120.22076289396733
 20
70.253042376533358
 11
120.1050000000003
 21
70.253042376533358
  0
LINE
  8
_1-8_小物
  6
CONTINUOUS
 62
    4
 10
120.81416775616691
 20
70.10777074653322
 11
120.22076289396733
 21
70.253042376533358
  0
LINE
  8
_1-8_小物
  6
CONTINUOUS
 62
    4
 10
119.77923710600027
 20
70.253042376533358
 11
119.34593368343354
 21
70.164563769400047
  0
LINE
  8
_1-8_小物
  6
CONTINUOUS
 62
    4
 10
119.34593368343354
 20
70.164563769400047
 11
119.18583224380069
 21
70.10777074653322
  0
LINE
  8
_1-8_小物
  6
CONTINUOUS
 62
    4
 10
119.89500000000027
 20
70.253042376533358
 11
119.77923710600027
 21
70.253042376533358
  0
LINE
  8
_1-8_小物
  6
CONTINUOUS
 62
    4
 10
119.89500000000027
 20
70.10777074653322
 11
119.89500000000027
 21
70.253042376533358
  0
LINE
  8
_1-8_小物
  6
CONTINUOUS
 62
    4
 10
120.1050000000003
 20
70.10777074653322
 11
120.00000000000023
 21
70.109472471333333
  0
LINE
  8
_1-8_小物
  6
CONTINUOUS
 62
    4
 10
120.00000000000023
 20
70.109472471333333
 11
119.89500000000027
 21
70.10777074653322
  0
LINE
  8
_1-8_小物
  6
CONTINUOUS
 62
    4
 10
121.46369573873363
 20
69.581626271666664
 11
118.53630426123368
 21
69.581626271666664
  0
LINE
  8
_1-8_小物
  6
CONTINUOUS
 62
    4
 10
120.00000000000023
 20
69.815135148900026
 11
118.66476295483358
 21
69.815135148900026
  0
LINE
  8
_1-8_小物
  6
CONTINUOUS
 62
    4
 10
121.33523704513374
 20
69.815135148900026
 11
120.00000000000023
 21
69.815135148900026
  0
ENDBLK
  0
BLOCK
  2
-016-_16_
 70
   64
 10
0
 20
0
 30
0
  0
LINE
  8
_1-8_小物
  6
CONTINUOUS
 62
    4
 10
80.073391666666112
 20
77.697245669958249
 11
79.407638333332784
 21
77.662355669958686
  0
LINE
  8
_1-8_小物
  6
CONTINUOUS
 62
    4
 10
81.072021666666046
 20
77.749582336625224
 11
80.704254999999421
 21
78.397889003291823
  0
LINE
  8
_1-8_小物
  6
CONTINUOUS
 62
    4
 10
80.704254999999421
 20
78.397889003291823
 11
80.038501666666093
 21
78.362999003291634
  0
LINE
  8
_1-8_小物
  6
CONTINUOUS
 62
    4
 10
80.038501666666093
 20
78.362999003291634
 11
80.073391666666112
 21
77.697245669958249
  0
LINE
  8
_1-8_小物
  6
CONTINUOUS
 62
    4
 10
81.737774999999488
 20
77.784472336625129
 11
81.072021666666046
 21
77.749582336625224
  0
LINE
  8
_1-8_小物
  6
CONTINUOUS
 62
    4
 10
82.736403333332873
 20
77.836809003291762
 11
82.368636666665907
 21
78.485115669958702
  0
LINE
  8
_1-8_小物
  6
CONTINUOUS
 62
    4
 10
82.368636666665907
 20
78.485115669958702
 11
81.702883333332807
 21
78.450225669958456
  0
LINE
  8
_1-8_小物
  6
CONTINUOUS
 62
    4
 10
81.702883333332807
 20
78.450225669958456
 11
81.737774999999488
 21
77.784472336625129
  0
LINE
  8
_1-8_小物
  6
CONTINUOUS
 62
    4
 10
83.402156666666201
 20
77.871699003291951
 11
82.736403333332873
 21
77.836809003291762
  0
LINE
  8
_1-8_小物
  6
CONTINUOUS
 62
    4
 10
84.400786666665908
 20
77.9240356699583
 11
84.03301999999951
 21
78.572342336624899
  0
LINE
  8
_1-8_小物
  6
CONTINUOUS
 62
    4
 10
84.03301999999951
 20
78.572342336624899
 11
83.367266666666183
 21
78.537452336625336
  0
LINE
  8
_1-8_小物
  6
CONTINUOUS
 62
    4
 10
83.367266666666183
 20
78.537452336625336
 11
83.402156666666201
 21
77.871699003291951
  0
LINE
  8
_1-8_小物
  6
CONTINUOUS
 62
    4
 10
85.066539999999463
 20
77.958925669958489
 11
84.400786666665908
 21
77.9240356699583
  0
LINE
  8
_1-8_小物
  6
CONTINUOUS
 62
    4
 10
86.065169999999512
 20
78.011262336625123
 11
85.69740166666611
 21
78.659569003291779
  0
LINE
  8
_1-8_小物
  6
CONTINUOUS
 62
    4
 10
85.69740166666611
 20
78.659569003291779
 11
85.031648333332782
 21
78.624679003291874
  0
LINE
  8
_1-8_小物
  6
CONTINUOUS
 62
    4
 10
85.031648333332782
 20
78.624679003291874
 11
85.066539999999463
 21
77.958925669958489
  0
LINE
  8
_1-8_小物
  6
CONTINUOUS
 62
    4
 10
86.730921666666063
 20
78.046152336625028
 11
86.065169999999512
 21
78.011262336625123
  0
LINE
  8
_1-8_小物
  6
CONTINUOUS
 62
    4
 10
87.361784999999372
 20
78.746795669958601
 11
86.696031666666045
 21
78.711905669958412
  0
LINE
  8
_1-8_小物
  6
CONTINUOUS
 62
    4
 10
86.696031666666045
 20
78.711905669958412
 11
86.730921666666063
 21
78.046152336625028
  0
LINE
  8
_1-8_小物
  6
CONTINUOUS
 62
    4
 10
87.666666666666174
 20
78.166670669958478
 11
87.361784999999372
 21
78.746795669958601
  0
LINE
  8
_1-8_小物
  6
CONTINUOUS
 62
    4
 10
80.073391666666112
 20
81.302762336625108
 11
79.407638333332784
 21
81.337652336625013
  0
LINE
  8
_1-8_小物
  6
CONTINUOUS
 62
    4
 10
81.072021666666046
 20
81.250425669958474
 11
80.704254999999421
 21
80.602119003291818
  0
LINE
  8
_1-8_小物
  6
CONTINUOUS
 62
    4
 10
80.704254999999421
 20
80.602119003291818
 11
80.038501666666093
 21
80.637009003292007
  0
LINE
  8
_1-8_小物
  6
CONTINUOUS
 62
    4
 10
80.038501666666093
 20
80.637009003292007
 11
80.073391666666112
 21
81.302762336625108
  0
LINE
  8
_1-8_小物
  6
CONTINUOUS
 62
    4
 10
81.737774999999488
 20
81.215535669958228
 11
81.072021666666046
 21
81.250425669958474
  0
LINE
  8
_1-8_小物
  6
CONTINUOUS
 62
    4
 10
82.736403333332873
 20
81.163199003291936
 11
82.368636666665907
 21
80.51489233662528
  0
LINE
  8
_1-8_小物
  6
CONTINUOUS
 62
    4
 10
82.368636666665907
 20
80.51489233662528
 11
81.702883333332807
 21
80.549782336624901
  0
LINE
  8
_1-8_小物
  6
CONTINUOUS
 62
    4
 10
81.702883333332807
 20
80.549782336624901
 11
81.737774999999488
 21
81.215535669958228
  0
LINE
  8
_1-8_小物
  6
CONTINUOUS
 62
    4
 10
83.402156666666201
 20
81.128309003292031
 11
82.736403333332873
 21
81.163199003291936
  0
LINE
  8
_1-8_小物
  6
CONTINUOUS
 62
    4
 10
84.400786666665908
 20
81.075972336625398
 11
84.03301999999951
 21
80.427665669958458
  0
LINE
  8
_1-8_小物
  6
CONTINUOUS
 62
    4
 10
84.03301999999951
 20
80.427665669958458
 11
83.367266666666183
 21
80.462555669958363
  0
LINE
  8
_1-8_小物
  6
CONTINUOUS
 62
    4
 10
83.367266666666183
 20
80.462555669958363
 11
83.402156666666201
 21
81.128309003292031
  0
LINE
  8
_1-8_小物
  6
CONTINUOUS
 62
    4
 10
85.066539999999463
 20
81.041082336625152
 11
84.400786666665908
 21
81.075972336625398
  0
LINE
  8
_1-8_小物
  6
CONTINUOUS
 62
    4
 10
86.065169999999512
 20
80.988745669958234
 11
85.69740166666611
 21
80.340439003291579
  0
LINE
  8
_1-8_小物
  6
CONTINUOUS
 62
    4
 10
85.69740166666611
 20
80.340439003291579
 11
85.031648333332782
 21
80.375329003291824
  0
LINE
  8
_1-8_小物
  6
CONTINUOUS
 62
    4
 10
85.031648333332782
 20
80.375329003291824
 11
85.066539999999463
 21
81.041082336625152
  0
LINE
  8
_1-8_小物
  6
CONTINUOUS
 62
    4
 10
86.730921666666063
 20
80.953855669958614
 11
86.065169999999512
 21
80.988745669958234
  0
LINE
  8
_1-8_小物
  6
CONTINUOUS
 62
    4
 10
87.361784999999372
 20
80.25321233662504
 11
86.696031666666045
 21
80.288102336625286
  0
LINE
  8
_1-8_小物
  6
CONTINUOUS
 62
    4
 10
86.696031666666045
 20
80.288102336625286
 11
86.730921666666063
 21
80.953855669958614
  0
LINE
  8
_1-8_小物
  6
CONTINUOUS
 62
    4
 10
79.686434999999392
 20
79.519772336625067
 11
80.258324999999445
 21
78.875205669958575
  0
LINE
  8
_1-8_小物
  6
CONTINUOUS
 62
    4
 10
80.289813333332859
 20
80.123152336625253
 11
79.66666666666606
 21
79.500004003291508
  0
LINE
  8
_1-8_小物
  6
CONTINUOUS
 62
    4
 10
87.666666666666174
 20
80.833337336624879
 11
87.361784999999372
 21
80.25321233662504
  0
LINE
  8
_1-8_小物
  6
CONTINUOUS
 62
    4
 10
85.066539999999463
 20
77.958925669958489
 11
86.619199999999296
 21
77.393804003291962
  0
LINE
  8
_1-8_小物
  6
CONTINUOUS
 62
    4
 10
85.066539999999463
 20
78.313652336624955
 11
86.733206666666092
 21
77.70703400329171
  0
LINE
  8
_1-8_小物
  6
CONTINUOUS
 62
    4
 10
85.066539999999463
 20
81.041082336625152
 11
86.619199999999296
 21
81.60620400329168
  0
LINE
  8
_1-8_小物
  6
CONTINUOUS
 62
    4
 10
85.066539999999463
 20
80.686355669958687
 11
86.733206666666092
 21
81.292974003291931
  0
LINE
  8
_1-8_小物
  6
CONTINUOUS
 62
    4
 10
79.346579999999335
 20
78.827422336625148
 11
79.407638333332784
 21
77.662355669958686
  0
LINE
  8
_1-8_小物
  6
CONTINUOUS
 62
    4
 10
79.407638333332784
 20
77.662355669958686
 11
78.706994999999552
 21
78.293217336625219
  0
LINE
  8
_1-8_小物
  6
CONTINUOUS
 62
    4
 10
78.706994999999552
 20
78.293217336625219
 11
78.680826666666007
 21
78.792532336624902
  0
LINE
  8
_1-8_小物
  6
CONTINUOUS
 62
    4
 10
78.680826666666007
 20
78.792532336624902
 11
88.999999999999318
 21
79.333337336624879
  0
LINE
  8
_1-8_小物
  6
CONTINUOUS
 62
    4
 10
87.666666666666174
 20
78.166670669958478
 11
88.999999999999318
 21
78.166670669958478
  0
LINE
  8
_1-8_小物
  6
CONTINUOUS
 62
    4
 10
79.346579999999335
 20
80.172585669958551
 11
79.407638333332784
 21
81.337652336625013
  0
LINE
  8
_1-8_小物
  6
CONTINUOUS
 62
    4
 10
79.407638333332784
 20
81.337652336625013
 11
78.706994999999552
 21
80.70679066995848
  0
LINE
  8
_1-8_小物
  6
CONTINUOUS
 62
    4
 10
78.706994999999552
 20
80.70679066995848
 11
78.680826666666007
 21
80.207475669958455
  0
LINE
  8
_1-8_小物
  6
CONTINUOUS
 62
    4
 10
78.680826666666007
 20
80.207475669958455
 11
88.999999999999318
 21
79.666670669958478
  0
LINE
  8
_1-8_小物
  6
CONTINUOUS
 62
    4
 10
87.666666666666174
 20
80.833337336624879
 11
88.999999999999318
 21
80.833337336624879
  0
LINE
  8
_1-8_小物
  6
CONTINUOUS
 62
    4
 10
86.619199999999296
 20
81.60620400329168
 11
88.887073333332978
 21
81.936989003291785
  0
ARC
  8
_1-8_小物
  6
CONTINUOUS
 62
    4
 10
88.90631833333282
 20
81.805052336625124
 40
0.1333333333333333
 50
8.1301019999676249
 51
98.298466000035219
  0
LINE
  8
_1-8_小物
  6
CONTINUOUS
 62
    4
 10
89.038311666666118
 20
81.823909003292044
 11
89.047683333332884
 21
81.758300669958373
  0
ARC
  8
_1-8_小物
  6
CONTINUOUS
 62
    4
 10
88.915689999999472
 20
81.73944400329151
 40
0.1333333333333333
 50
278.13010200004015
 51
8.1301020002163114
  0
LINE
  8
_1-8_小物
  6
CONTINUOUS
 62
    4
 10
88.934546666666051
 20
81.607450669958382
 11
86.733206666666092
 21
81.292974003291931
  0
LINE
  8
_1-8_小物
  6
CONTINUOUS
 62
    4
 10
86.619199999999296
 20
77.393804003291962
 11
88.887073333332978
 21
77.063019003291856
  0
ARC
  8
_1-8_小物
  6
CONTINUOUS
 62
    4
 10
88.90631833333282
 20
77.194955669958517
 40
0.1333333333333333
 50
261.70153399996479
 51
351.86989800003238
  0
LINE
  8
_1-8_小物
  6
CONTINUOUS
 62
    4
 10
89.038311666666118
 20
77.176100669958544
 11
89.047683333332884
 21
77.241707336625268
  0
ARC
  8
_1-8_小物
  6
CONTINUOUS
 62
    4
 10
88.915689999999472
 20
77.260564003291563
 40
0.1333333333333333
 50
351.86989800004449
 51
81.86989800000822
  0
LINE
  8
_1-8_小物
  6
CONTINUOUS
 62
    4
 10
88.934546666666051
 20
77.392557336625259
 11
86.733206666666092
 21
77.70703400329171
  0
LINE
  8
_1-8_小物
  6
CONTINUOUS
 62
    4
 10
86.619199999999296
 20
77.393804003291962
 11
88.887073333332978
 21
77.063019003291856
  0
ARC
  8
_1-8_小物
  6
CONTINUOUS
 62
    4
 10
88.90631833333282
 20
77.194955669958517
 40
0.1333333333333333
 50
261.70153399996479
 51
351.86989800003238
  0
LINE
  8
_1-8_小物
  6
CONTINUOUS
 62
    4
 10
89.038311666666118
 20
77.176100669958544
 11
89.047683333332884
 21
77.241707336625268
  0
ARC
  8
_1-8_小物
  6
CONTINUOUS
 62
    4
 10
88.915689999999472
 20
77.260564003291563
 40
0.1333333333333333
 50
351.86989800004449
 51
81.86989800000822
  0
LINE
  8
_1-8_小物
  6
CONTINUOUS
 62
    4
 10
88.934546666666051
 20
77.392557336625259
 11
86.733206666666092
 21
77.70703400329171
  0
LINE
  8
_1-8_小物
  6
CONTINUOUS
 62
    4
 10
91.666666666666174
 20
77.833337336624879
 11
89.999999999999545
 21
78.166670669958478
  0
LINE
  8
_1-8_小物
  6
CONTINUOUS
 62
    4
 10
91.666666666666174
 20
78.166670669958478
 11
88.999999999999318
 21
78.166670669958478
  0
LINE
  8
_1-8_小物
  6
CONTINUOUS
 62
    4
 10
88.999999999999318
 20
79.333337336624879
 11
88.999999999999318
 21
79.500004003291508
  0
LINE
  8
_1-8_小物
  6
CONTINUOUS
 62
    4
 10
89.999999999999545
 20
79.500004003291508
 11
91.666666666666174
 21
79.500004003291508
  0
LINE
  8
_1-8_小物
  6
CONTINUOUS
 62
    4
 10
91.666666666666174
 20
79.166670669958478
 11
89.999999999999545
 21
79.500004003291508
  0
LINE
  8
_1-8_小物
  6
CONTINUOUS
 62
    4
 10
91.666666666666174
 20
79.833337336625164
 11
89.999999999999545
 21
79.500004003291508
  0
LINE
  8
_1-8_小物
  6
CONTINUOUS
 62
    4
 10
91.666666666666174
 20
81.166670669958194
 11
89.999999999999545
 21
80.833337336624879
  0
LINE
  8
_1-8_小物
  6
CONTINUOUS
 62
    4
 10
91.666666666666174
 20
80.833337336624879
 11
88.999999999999318
 21
80.833337336624879
  0
LINE
  8
_1-8_小物
  6
CONTINUOUS
 62
    4
 10
88.999999999999318
 20
79.666670669958478
 11
88.999999999999318
 21
79.500004003291508
  0
LINE
  8
_1-8_小物
  6
CONTINUOUS
 62
    4
 10
91.666666666666174
 20
77.833337336624879
 11
91.666666666666174
 21
81.166670669958194
  0
ENDBLK
  0
BLOCK
  2
-017-_17_
 70
   64
 10
0
 20
0
 30
0
  0
LINE
  8
_1-4_フレ__ム
  6
CONTINUOUS
 62
    4
 10
92.666666666666629
 20
79.600004003291502
 11
92.566666666667174
 21
79.500004003291593
  0
LINE
  8
_1-4_フレ__ム
  6
CONTINUOUS
 62
    4
 10
92.566666666667174
 20
79.500004003291593
 11
92.666666666667027
 21
79.400004003291315
  0
LINE
  8
_1-4_フレ__ム
  6
CONTINUOUS
 62
    4
 10
92.666666666667027
 20
74.833337336625164
 11
92.666666666667027
 21
79.400004003291315
  0
LINE
  8
_1-4_フレ__ム
  6
CONTINUOUS
 62
    4
 10
92.666666666666629
 20
84.833337336624851
 11
92.666666666666629
 21
79.600004003291502
  0
ARC
  8
_1-4_フレ__ム
  6
CONTINUOUS
 62
    4
 10
94.433333328967649
 20
86.500004003291366
 40
0.1666666666666666
 50
270
 51
90
  0
LINE
  8
_1-4_フレ__ム
  6
CONTINUOUS
 62
    4
 10
94.333333328967683
 20
86.333337336624709
 11
94.333333328967683
 21
83.166670669958194
  0
LINE
  8
_1-4_フレ__ム
  6
CONTINUOUS
 62
    4
 10
93.833333328967683
 20
86.666670669958023
 11
94.433333328967649
 21
86.666670669958023
  0
LINE
  8
_1-4_フレ__ム
  6
CONTINUOUS
 62
    4
 10
93.833333328967683
 20
83.166670669958194
 11
94.333333328967683
 21
83.166670669958194
  0
LINE
  8
_1-4_フレ__ム
  6
CONTINUOUS
 62
    4
 10
93.833333328967683
 20
84.833337336624851
 11
92.666666666666629
 21
84.833337336624851
  0
LINE
  8
_1-4_フレ__ム
  6
CONTINUOUS
 62
    4
 10
93.833333328967683
 20
84.833337336624851
 11
93.833333328967683
 21
83.166670669958194
  0
LINE
  8
_1-4_フレ__ム
  6
CONTINUOUS
 62
    4
 10
93.833333328967683
 20
86.666670669958023
 11
93.833333328967683
 21
85.833337336624851
  0
ARC
  8
_1-4_フレ__ム
  6
CONTINUOUS
 62
    4
 10
93.000000000000512
 20
72.500004003291508
 40
0.1666666666666666
 50
180
 51
270
  0
ARC
  8
_1-4_フレ__ム
  6
CONTINUOUS
 62
    4
 10
92.816666666667516
 20
71.01667066995816
 40
0.4833333333332726
 50
270
 51
90
  0
ARC
  8
_1-4_フレ__ム
  6
CONTINUOUS
 62
    4
 10
93.300000000000637
 20
70.600004003291644
 40
0.5999999999999999
 50
270
 51
0
  0
LINE
  8
_1-4_フレ__ム
  6
CONTINUOUS
 62
    4
 10
92.000000000000057
 20
70.366670669958154
 11
92.000000000000057
 21
70.266670669958245
  0
LINE
  8
_1-4_フレ__ム
  6
CONTINUOUS
 62
    4
 10
92.816666666667516
 20
70.533337336624896
 11
92.16666666666697
 21
70.533337336624811
  0
ARC
  8
_1-4_フレ__ム
  6
CONTINUOUS
 62
    4
 10
92.16666666666697
 20
70.366670669958154
 40
0.1666666666666666
 50
90
 51
180
  0
ARC
  8
_1-4_フレ__ム
  6
CONTINUOUS
 62
    4
 10
92.266666666667163
 20
70.266670669958245
 40
0.2666666666666667
 50
180
 51
270
  0
LINE
  8
_1-4_フレ__ム
  6
CONTINUOUS
 62
    4
 10
92.266666666667163
 20
70.000004003291565
 11
93.300000000000637
 21
70.000004003291593
  0
LINE
  8
_1-4_フレ__ム
  6
CONTINUOUS
 62
    4
 10
91.666666666666629
 20
71.500004003291593
 11
92.816666666667516
 21
71.500004003291593
  0
LINE
  8
_1-4_フレ__ム
  6
CONTINUOUS
 62
    4
 10
93.833333328967683
 20
85.833337336624851
 11
91.666666666666629
 21
85.833337336624851
  0
LINE
  8
_1-4_フレ__ム
  6
CONTINUOUS
 62
    4
 10
91.666666666666629
 20
71.500004003291593
 11
91.666666666666629
 21
85.833337336624851
  0
LINE
  8
_1-4_フレ__ム
  6
CONTINUOUS
 62
    4
 10
92.666666666667027
 20
74.833337336625164
 11
92.833333333333826
 21
74.833337336625164
  0
LINE
  8
_1-4_フレ__ム
  6
CONTINUOUS
 62
    4
 10
92.833333333333826
 20
72.500004003291508
 11
92.833333333333826
 21
74.833337336625164
  0
LINE
  8
_1-4_フレ__ム
  6
CONTINUOUS
 62
    4
 10
94.333333328967683
 20
86.333337336624709
 11
94.433333328967649
 21
86.333337336624709
  0
LINE
  8
_1-4_フレ__ム
  6
CENTER2
 62
    4
 10
93.833333333333371
 20
79.500004003291593
 11
90
 21
79.500004003291593
  0
LINE
  8
_1-4_フレ__ム
  6
CENTER2
 62
    4
 10
92.816666666667516
 20
71.01667066995816
 11
93.650000000000659
 21
71.01667066995816
  0
LINE
  8
_1-4_フレ__ム
  6
CENTER2
 62
    4
 10
92.816666666667516
 20
71.01667066995816
 11
92.816666666667516
 21
71.850004003291644
  0
LINE
  8
_1-4_フレ__ム
  6
CENTER2
 62
    4
 10
92.816666666667516
 20
71.01667066995816
 11
91.983333333334031
 21
71.01667066995816
  0
LINE
  8
_1-4_フレ__ム
  6
CENTER2
 62
    4
 10
92.816666666667516
 20
71.01667066995816
 11
92.816666666667516
 21
70.18333733662476
  0
LINE
  8
_1-4_フレ__ム
  6
DASHED1
 62
    4
 10
92.666666666667027
 20
82.000004003291906
 11
91.666666666666629
 21
82.000004003291906
  0
LINE
  8
_1-4_フレ__ム
  6
DASHED1
 62
    4
 10
92.666666666667027
 20
77.000004003291906
 11
91.666666666666629
 21
77.000004003291906
  0
LINE
  8
_1-4_フレ__ム
  6
DASHED1
 62
    4
 10
92.833333333333599
 20
73.333337336624936
 11
91.666666666666629
 21
73.333337336624936
  0
LINE
  8
_1-4_フレ__ム
  6
CONTINUOUS
 62
    4
 10
93.800000000000523
 20
72.333337336624993
 11
93.000000000000512
 21
72.333337336624993
  0
LINE
  8
_1-4_フレ__ム
  6
CONTINUOUS
 62
    4
 10
93.900000000000546
 20
70.600004003291644
 11
93.900000000000546
 21
72.23333733662497
  0
ARC
  8
_1-4_フレ__ム
  6
CONTINUOUS
 62
    4
 10
93.800000000000523
 20
72.23333733662497
 40
0.0999999999999999
 50
0
 51
90
  0
ENDBLK
  0
BLOCK
  2
-018-_18_
 70
   64
 10
0
 20
0
 30
0
  0
LINE
  8
_1-8_小物
  6
CONTINUOUS
 62
    4
 10
93.063646888524829
 20
73.127781784341579
 11
92.962640294877303
 21
73.214818821386302
  0
ARC
  8
_1-8_小物
  6
CONTINUOUS
 62
    4
 10
93.766666666667277
 20
70.133337336624919
 40
0.1333333333333333
 50
270
 51
359.99999849072555
  0
ARC
  8
_1-8_小物
  6
CONTINUOUS
 62
    4
 10
93.766666666667277
 20
70.133337336624919
 40
0.2666666666666666
 50
270
 51
359.99999849072555
  0
ARC
  8
_1-8_小物
  6
CONTINUOUS
 62
    4
 10
92.133333333333894
 20
70.133337336624919
 40
0.2666666666666666
 50
180
 51
270
  0
ARC
  8
_1-8_小物
  6
CONTINUOUS
 62
    4
 10
91.627322003767233
 20
70.866670669958268
 40
0.5
 50
323.03140579855119
 51
41.810314895802605
  0
ARC
  8
_1-8_小物
  6
CONTINUOUS
 62
    4
 10
92.133333333333894
 20
70.485798453291579
 40
0.1333333333333333
 50
143.03140197500721
 51
179.99999849072555
  0
LINE
  8
_1-8_小物
  6
CONTINUOUS
 62
    4
 10
91.866666666667243
 20
70.489429173458291
 11
91.866666666667243
 21
70.133337336624919
  0
ARC
  8
_1-8_小物
  6
CONTINUOUS
 62
    4
 10
92.133333333333894
 20
70.133337336624919
 40
0.1333333333333333
 50
180
 51
270
  0
ARC
  8
_1-8_小物
  6
CONTINUOUS
 62
    4
 10
91.583666800100616
 20
70.866670669958268
 40
0.3999999999999999
 50
325.53781142994416
 51
37.637863116802919
  0
LINE
  8
_1-8_小物
  6
CONTINUOUS
 62
    4
 10
92.000000000000568
 20
70.485798456791628
 11
92.000000000000568
 21
70.133337336624919
  0
ARC
  8
_1-8_小物
  6
CONTINUOUS
 62
    4
 10
92.133333333333894
 20
70.489429173458291
 40
0.2666666666666666
 50
145.53781142990746
 51
180
  0
LINE
  8
_1-8_小物
  6
CONTINUOUS
 62
    4
 10
92.000000000000568
 20
71.20000400329161
 11
91.900421305900579
 21
71.110938111658271
  0
LINE
  8
_1-8_小物
  6
CONTINUOUS
 62
    4
 10
92.133333333333894
 20
69.866670669958268
 11
93.766666666667277
 21
69.866670669958268
  0
LINE
  8
_1-8_小物
  6
CONTINUOUS
 62
    4
 10
92.133333333333894
 20
70.000004003291622
 11
93.766666666667277
 21
70.000004003291622
  0
ARC
  8
_1-8_小物
  6
CONTINUOUS
 62
    4
 10
93.366666666667243
 20
72.866670669958268
 40
0.5333333333333333
 50
90
 51
270.00000867010863
  0
ARC
  8
_1-8_小物
  6
CONTINUOUS
 62
    4
 10
93.366666666667243
 20
72.866670669958268
 40
0.3999999999999999
 50
90.0000000000977
 51
270.0000018823917
  0
LINE
  8
_1-8_小物
  6
CONTINUOUS
 62
    4
 10
93.366666666667243
 20
73.266670669958273
 11
93.366666666667243
 21
73.400004003291599
  0
LINE
  8
_1-8_小物
  6
CONTINUOUS
 62
    4
 10
92.833333333333883
 20
74.333337336624965
 11
92.966666666667209
 21
74.333337336624965
  0
LINE
  8
_1-8_小物
  6
DASHED1
 62
    4
 10
94.033333333333928
 20
71.750003996218652
 11
93.900000000000603
 21
71.750003996218652
  0
LINE
  8
_1-8_小物
  6
CONTINUOUS
 62
    4
 10
92.966666666667209
 20
73.833337336624965
 11
92.833333333333883
 21
73.833337336624965
  0
LINE
  8
_1-8_小物
  6
CONTINUOUS
 62
    4
 10
92.966666666667209
 20
74.333337336624965
 11
92.966666666667209
 21
73.219437511433512
  0
LINE
  8
_1-8_小物
  6
CONTINUOUS
 62
    4
 10
92.966666666667209
 20
72.513903828483024
 11
92.966666666667209
 21
72.336704687105964
  0
LINE
  8
_1-8_小物
  6
CONTINUOUS
 62
    4
 10
92.833333333333883
 20
74.333337336624965
 11
92.833333333333883
 21
72.500004003291508
  0
ARC
  8
_1-8_小物
  6
CONTINUOUS
 62
    4
 10
92.533333333333928
 20
71.436442194975172
 40
0.1333333333333333
 50
151.52902134424266
 51
180
  0
LINE
  8
_1-8_小物
  6
CONTINUOUS
 62
    4
 10
92.400000000000546
 20
71.436442194975172
 11
92.400000000000546
 21
70.533337336624896
  0
LINE
  8
_1-8_小物
  6
CONTINUOUS
 62
    4
 10
92.266666666667277
 20
71.500004003291593
 11
92.266666666667277
 21
70.533337336624896
  0
LINE
  8
_1-8_小物
  6
CONTINUOUS
 62
    4
 10
93.366666666667243
 20
72.466670669958262
 11
93.80000000000058
 21
72.466670669958262
  0
LINE
  8
_1-8_小物
  6
CONTINUOUS
 62
    4
 10
94.033333333333928
 20
70.133337329624908
 11
94.033333333333928
 21
72.233337336624913
  0
ARC
  8
_1-8_小物
  6
CONTINUOUS
 62
    4
 10
93.80000000000058
 20
72.233337336624913
 40
0.2333333333333333
 50
0
 51
90
  0
LINE
  8
_1-8_小物
  6
CONTINUOUS
 62
    4
 10
93.366666666667243
 20
72.333337336624965
 11
93.800000000000637
 21
72.333337336624965
  0
LINE
  8
_1-8_小物
  6
CONTINUOUS
 62
    4
 10
93.900000000000603
 20
70.133337333124956
 11
93.900000000000603
 21
72.23333733662497
  0
ARC
  8
_1-8_小物
  6
CONTINUOUS
 62
    4
 10
93.800000000000637
 20
72.23333733662497
 40
0.0999999999999999
 50
0
 51
90
  0
ENDBLK
  0
BLOCK
  2
-019-_19_
 70
   64
 10
0
 20
0
 30
0
  0
LINE
  8
_1-8_小物
  6
CONTINUOUS
 62
    4
 10
93.166666666666799
 20
76.500004003291224
 11
93.166666666666799
 21
82.500004003291565
  0
LINE
  8
_1-8_小物
  6
CONTINUOUS
 62
    4
 10
92.666666666666799
 20
76.500004003291224
 11
92.666666666666799
 21
82.500004003291565
  0
LINE
  8
_1-8_小物
  6
CONTINUOUS
 62
    4
 10
93.166666666666799
 20
76.500004003291224
 11
92.666666666666799
 21
76.500004003291224
  0
LINE
  8
_1-8_小物
  6
CONTINUOUS
 62
    4
 10
93.166666666666799
 20
82.500004003291565
 11
92.666666666666799
 21
82.500004003291565
  0
LINE
  8
_1-8_小物
  6
CONTINUOUS
 62
    4
 10
93.166666666666799
 20
78.000004003291224
 11
93.581626271666835
 21
78.036308264558102
  0
LINE
  8
_1-8_小物
  6
CONTINUOUS
 62
    4
 10
93.581626271666835
 20
80.963699742058111
 11
93.166666666666799
 21
81.000004003291224
  0
ARC
  8
_1-8_小物
  6
CONTINUOUS
 62
    4
 10
93.55286487656673
 20
80.634955491658388
 40
0.3299999999999999
 50
37.367558032050525
 51
85.000000001203631
  0
ARC
  8
_1-8_小物
  6
CONTINUOUS
 62
    4
 10
93.55286487656673
 20
78.365052514924741
 40
0.3299999999999999
 50
274.99999999879594
 51
322.63244196794557
  0
ARC
  8
_1-8_小物
  6
CONTINUOUS
 62
    4
 10
92.066666666666777
 20
79.500004003291565
 40
2.1999999999999997
 50
322.63244196770438
 51
338.26638354339775
  0
ARC
  8
_1-8_小物
  6
CONTINUOUS
 62
    4
 10
92.066666666666777
 20
79.500004003291565
 40
2.1999999999999997
 50
21.74840859090288
 51
37.367558032305141
  0
LINE
  8
_1-8_小物
  6
CONTINUOUS
 62
    4
 10
94.253042376533529
 20
79.395004003291433
 11
94.10777074653339
 21
79.395004003291433
  0
LINE
  8
_1-8_小物
  6
CONTINUOUS
 62
    4
 10
94.253042376533529
 20
79.279241109324403
 11
94.253042376533529
 21
79.395004003291433
  0
LINE
  8
_1-8_小物
  6
CONTINUOUS
 62
    4
 10
94.10777074653339
 20
78.685836247124826
 11
94.253042376533529
 21
79.279241109324403
  0
LINE
  8
_1-8_小物
  6
CONTINUOUS
 62
    4
 10
94.253042376533529
 20
79.720766897291469
 11
94.164563769400218
 21
80.154070319858192
  0
LINE
  8
_1-8_小物
  6
CONTINUOUS
 62
    4
 10
94.164563769400218
 20
80.154070319858192
 11
94.10777074653339
 21
80.314171759491046
  0
LINE
  8
_1-8_小物
  6
CONTINUOUS
 62
    4
 10
94.253042376533529
 20
79.605004003291469
 11
94.253042376533529
 21
79.720766897291469
  0
LINE
  8
_1-8_小物
  6
CONTINUOUS
 62
    4
 10
94.10777074653339
 20
79.605004003291469
 11
94.253042376533529
 21
79.605004003291469
  0
LINE
  8
_1-8_小物
  6
CONTINUOUS
 62
    4
 10
94.10777074653339
 20
79.395004003291433
 11
94.109472471333504
 21
79.500004003291565
  0
LINE
  8
_1-8_小物
  6
CONTINUOUS
 62
    4
 10
94.109472471333504
 20
79.500004003291565
 11
94.10777074653339
 21
79.605004003291469
  0
LINE
  8
_1-8_小物
  6
CONTINUOUS
 62
    4
 10
93.581626271666835
 20
78.036308264558102
 11
93.581626271666835
 21
80.963699742058111
  0
LINE
  8
_1-8_小物
  6
CONTINUOUS
 62
    4
 10
93.815135148900197
 20
79.500004003291565
 11
93.815135148900197
 21
80.835241048458215
  0
LINE
  8
_1-8_小物
  6
CONTINUOUS
 62
    4
 10
93.815135148900197
 20
78.164766958157998
 11
93.815135148900197
 21
79.500004003291565
  0
ENDBLK
  0
BLOCK
  2
-020-_20_
 70
   64
 10
0
 20
0
 30
0
  0
LINE
  8
_1-5_ア__ム
  6
CONTINUOUS
 62
    4
 10
99.166666666666856
 20
75.666666666666799
 11
99.166666666666856
 21
72.000000111767037
  0
ARC
  8
_1-5_ア__ム
  6
CONTINUOUS
 62
    4
 10
100.83333333333348
 20
72.000000111767037
 40
1.6666666666666665
 50
180
 51
270
  0
LINE
  8
_1-5_ア__ム
  6
DASHED1
 62
    4
 10
103.16666666666674
 20
74.733333366600306
 11
103.16666666666674
 21
73.999995078835468
  0
LINE
  8
_1-5_ア__ム
  6
DASHED1
 62
    4
 10
108.50000000000045
 20
74.733333366600306
 11
108.50000000000045
 21
73.999995078835468
  0
LINE
  8
_1-5_ア__ム
  6
CONTINUOUS
 62
    4
 10
123.16666666666686
 20
75.666666685300243
 11
123.16666666666686
 21
72.000000111767037
  0
ARC
  8
_1-5_ア__ム
  6
CONTINUOUS
 62
    4
 10
121.50000000000011
 20
72.000000111767037
 40
1.6666666666666665
 50
270
 51
0
  0
LINE
  8
_1-5_ア__ム
  6
CONTINUOUS
 62
    4
 10
99.166666666666856
 20
75.666666685300243
 11
123.16666666666686
 21
75.666666685300243
  0
LINE
  8
_1-5_ア__ム
  6
DASHED1
 62
    4
 10
99.166666666666856
 20
74.733333366600306
 11
123.16666666666686
 21
74.733333366600306
  0
LINE
  8
_1-5_ア__ム
  6
DASHED1
 62
    4
 10
99.166666666666856
 20
73.999995078835468
 11
123.16666666666686
 21
73.999995078835468
  0
LINE
  8
_1-5_ア__ム
  6
CONTINUOUS
 62
    4
 10
100.83333333333348
 20
70.333333445100379
 11
121.50000000000011
 21
70.333333445100379
  0
LINE
  8
_1-5_ア__ム
  6
DASHED1
 62
    4
 10
112.39999999999975
 20
74.733333366600306
 11
112.39999999999975
 21
73.999995078835468
  0
LINE
  8
_1-5_ア__ム
  6
DASHED1
 62
    4
 10
115.1999999999997
 20
74.733333366600306
 11
115.1999999999997
 21
73.999995078835468
  0
LINE
  8
_1-5_ア__ム
  6
DASHED1
 62
    4
 10
113.86666666666633
 20
74.733333366600306
 11
113.86666666666633
 21
73.999995078835468
  0
LINE
  8
_1-5_ア__ム
  6
DASHED1
 62
    4
 10
121.06666666666649
 20
73.999995078835468
 11
121.06666666666649
 21
74.733333366600306
  0
ENDBLK
  0
BLOCK
  2
-021-_21_
 70
   64
 10
0
 20
0
 30
0
  0
LINE
  8
_1-6_ばね
  6
CENTER2
 62
    4
 10
96.74999999781727
 20
88.666670669958251
 11
96.74999999781727
 21
82.000004003291593
  0
LINE
  8
_1-6_ばね
  6
CENTER2
 62
    4
 10
100.08333333115053
 20
85.333337336624936
 11
93.416666664483898
 21
85.333337336624936
  0
CIRCLE
  8
_1-6_ばね
  6
CONTINUOUS
 62
    4
 10
96.74999999781727
 20
85.333337336624936
 40
1.5500000021829385
  0
ARC
  8
_1-6_ばね
  6
CONTINUOUS
 62
    4
 10
108.03767306323317
 20
73.866666699933631
 40
0.8666666666666667
 50
90
 51
120.49335808176116
  0
ARC
  8
_1-6_ばね
  6
CONTINUOUS
 62
    4
 10
104.32899360343259
 20
74.700000055883606
 40
0.8666666666666667
 50
270
 51
300.49335808176113
  0
LINE
  8
_1-6_ばね
  6
CONTINUOUS
 62
    4
 10
104.32899360343259
 20
72.966666722550258
 11
99.316666666665981
 21
72.966666722550258
  0
LINE
  8
_1-6_ばね
  6
CONTINUOUS
 62
    4
 10
107.59789305016346
 20
74.6134629581029
 11
105.2085536295719
 21
73.206407539545154
  0
ARC
  8
_1-6_ばね
  6
CONTINUOUS
 62
    4
 10
104.32899360343259
 20
74.700000055883606
 40
1.7333333333333334
 50
270
 51
300.49335808175488
  0
ARC
  8
_1-6_ばね
  6
CONTINUOUS
 62
    4
 10
108.03767306323306
 20
73.866666699933603
 40
1.7333333333333334
 50
90
 51
120.49335808175535
  0
ARC
  8
_1-6_ばね
  6
CENTER2
 62
    4
 10
104.32899360343271
 20
74.700000055883521
 40
1.2999999999999998
 50
270
 51
300.49335808175232
  0
ARC
  8
_1-6_ばね
  6
CENTER2
 62
    4
 10
108.03767306323306
 20
73.866666699933546
 40
1.2999999999999998
 50
90
 51
120.49335808175448
  0
ARC
  8
_1-6_ばね
  6
CONTINUOUS
 62
    4
 10
99.316666666666322
 20
74.700000055883606
 40
0.8666666666666667
 50
180
 51
270
  0
ARC
  8
_1-6_ばね
  6
CONTINUOUS
 62
    4
 10
99.316666666665981
 20
74.700000055883606
 40
1.7333333333333334
 50
180
 51
270
  0
ARC
  8
_1-6_ばね
  6
CENTER2
 62
    4
 10
99.316666666666322
 20
74.700000055883521
 40
1.2999999999999998
 50
180
 51
270
  0
ARC
  8
_1-6_ばね
  6
CONTINUOUS
 62
    4
 10
112.38333333333293
 20
73.866666699933631
 40
0.8666666666666667
 50
0
 51
90
  0
LINE
  8
_1-6_ばね
  6
CONTINUOUS
 62
    4
 10
113.24999999999955
 20
73.066666699933705
 11
113.24999999999955
 21
73.86666669993366
  0
LINE
  8
_1-6_ばね
  6
CONTINUOUS
 62
    4
 10
114.11666666666633
 20
73.066666699933705
 11
114.11666666666633
 21
73.866666699933603
  0
ARC
  8
_1-6_ばね
  6
CONTINUOUS
 62
    4
 10
112.38333333333304
 20
73.866666699933603
 40
1.7333333333333334
 50
0
 51
90
  0
ARC
  8
_1-6_ばね
  6
CENTER2
 62
    4
 10
112.38333333333293
 20
73.866666699933546
 40
1.2999999999999998
 50
0
 51
90
  0
LINE
  8
_1-6_ばね
  6
CENTER2
 62
    4
 10
113.68333333333294
 20
73.066666699933705
 11
113.68333333333294
 21
73.866666699933546
  0
LINE
  8
_1-6_ばね
  6
CONTINUOUS
 62
    4
 10
116.85464601614376
 20
71.78992596140202
 11
118.89743119779439
 21
73.50402625389944
  0
LINE
  8
_1-6_ばね
  6
CONTINUOUS
 62
    4
 10
118.89743119779439
 20
73.50402625389944
 11
119.45451379285612
 21
72.84012106986296
  0
LINE
  8
_1-6_ばね
  6
CONTINUOUS
 62
    4
 10
117.41172861120543
 20
71.126020777365568
 11
119.45451379285612
 21
72.84012106986296
  0
LINE
  8
_1-6_ばね
  6
CENTER2
 62
    4
 10
117.13318731367463
 20
71.457973369383808
 11
119.17597249532525
 21
73.1720736618812
  0
ARC
  8
_1-6_ばね
  6
CONTINUOUS
 62
    4
 10
115.78333333333302
 20
73.066666699933648
 40
1.6666666666666665
 50
179.99999999999804
 51
309.99999999999829
  0
ARC
  8
_1-6_ばね
  6
CENTER2
 62
    4
 10
115.78333333333302
 20
73.066666699933648
 40
2.0999999999999996
 50
179.99999999999844
 51
309.99999999999733
  0
ARC
  8
_1-6_ばね
  6
CONTINUOUS
 62
    4
 10
115.78333333333302
 20
73.066666699933648
 40
2.5333333333333328
 50
179.99999999999872
 51
309.99999999999665
  0
LINE
  8
_1-6_ばね
  6
CONTINUOUS
 62
    4
 10
112.38333333333293
 20
74.733333366600306
 11
108.03767306323317
 21
74.733333366600306
  0
LINE
  8
_1-6_ばね
  6
CONTINUOUS
 62
    4
 10
112.38333333333304
 20
75.600000033266952
 11
108.03767306323306
 21
75.600000033266952
  0
LINE
  8
_1-6_ばね
  6
CENTER2
 62
    4
 10
104.32899360343271
 20
73.400000055883538
 11
99.316666666666322
 21
73.400000055883538
  0
LINE
  8
_1-6_ばね
  6
CONTINUOUS
 62
    4
 10
107.15811303709376
 20
75.360259216271999
 11
104.7687736165023
 21
73.953203797714309
  0
LINE
  8
_1-6_ばね
  6
CONTINUOUS
 62
    4
 10
104.32899360343259
 20
73.833333389216932
 11
99.316666666666322
 21
73.833333389216932
  0
LINE
  8
_1-6_ばね
  6
CENTER2
 62
    4
 10
112.38333333333293
 20
75.166666699933558
 11
108.03767306323306
 21
75.166666699933558
  0
LINE
  8
_1-6_ばね
  6
CENTER2
 62
    4
 10
107.43253259958163
 20
75.018972936393084
 11
104.98866362303721
 21
73.579805668629717
  0
LINE
  8
_1-6_ばね
  6
CONTINUOUS
 62
    4
 10
94.770382555663957
 20
83.947194280857758
 11
97.426598438383223
 21
80.153724862475542
  0
LINE
  8
_1-6_ばね
  6
CONTINUOUS
 62
    4
 10
97.583333333332746
 20
79.656625284304596
 11
97.583333333332746
 21
74.700000055883606
  0
LINE
  8
_1-6_ばね
  6
CONTINUOUS
 62
    4
 10
95.480314327380995
 20
84.444293859028704
 11
98.136530210100602
 21
80.650824440646062
  0
LINE
  8
_1-6_ばね
  6
CONTINUOUS
 62
    4
 10
98.449999999999648
 20
79.656625284304255
 11
98.449999999999648
 21
74.700000055883606
  0
LINE
  8
_1-6_ばね
  6
CENTER2
 62
    4
 10
95.125348441522476
 20
84.195744069943231
 11
97.78156432424197
 21
80.402274651560731
  0
LINE
  8
_1-6_ばね
  6
CENTER2
 62
    4
 10
98.016666666666254
 20
79.656625284304369
 11
98.016666666666254
 21
74.700000055883521
  0
ARC
  8
_1-6_ばね
  6
CONTINUOUS
 62
    4
 10
96.716666666666072
 20
79.656625284304596
 40
0.8666666666666667
 50
0
 51
34.999999999998103
  0
ARC
  8
_1-6_ばね
  6
CONTINUOUS
 62
    4
 10
96.716666666666356
 20
79.656625284304255
 40
1.7333333333333334
 50
0
 51
35.00000000000103
  0
ARC
  8
_1-6_ばね
  6
CENTER2
 62
    4
 10
96.716666666666299
 20
79.656625284304369
 40
1.2999999999999998
 50
0
 51
35.000000000000568
  0
LINE
  8
_1-6_ばね
  6
CONTINUOUS
 62
    4
 10
97.269044433089562
 20
80.378735301089932
 11
93.215436732661772
 21
70.847082308787265
  0
LINE
  8
_1-6_ばね
  6
CONTINUOUS
 62
    4
 10
92.417896600673089
 20
71.18625903112914
 11
96.683124482692051
 21
81.215515710360478
  0
LINE
  8
_1-6_ばね
  6
CONTINUOUS
 62
    4
 10
98.973909983256021
 20
84.387556090778759
 11
97.668824310316154
 21
81.31877768916479
  0
ARC
  8
_1-6_ばね
  6
CONTINUOUS
 62
    4
 10
96.74999999781727
 20
85.333337336624936
 40
2.4166666688496052
 50
336.96099060802413
 51
214.99999999999864
  0
ARC
  8
_1-6_ばね
  6
CENTER2
 62
    4
 10
96.74999999781727
 20
85.333337336624936
 40
1.9833333355162719
 50
336.9609906080226
 51
215.00000000000171
  0
ARC
  8
_1-6_ばね
  6
CONTINUOUS
 62
    4
 10
96.74999999781727
 20
85.333337336624936
 40
2.4166666688496052
 50
265.10525171980134
 51
336.96099060802413
  0
ARC
  8
_1-6_ばね
  6
CENTER2
 62
    4
 10
96.74999999781727
 20
85.333337336624936
 40
1.9833333355162719
 50
253.60072249540849
 51
336.9609906080226
  0
LINE
  8
_1-6_ばね
  6
CENTER2
 62
    4
 10
97.375864335117342
 20
81.73716789380012
 11
98.034744903615206
 21
83.286459637456062
  0
LINE
  8
_1-6_ばね
  6
CONTINUOUS
 62
    4
 10
97.082904359918643
 20
82.155558098435364
 11
97.450743833915112
 21
83.020495823572332
  0
LINE
  8
_1-6_ばね
  6
CENTER2
 62
    4
 10
92.816666666667516
 20
71.01667066995816
 11
96.976084457890806
 21
80.797125505725205
  0
ARC
  8
_1-6_ばね
  6
CONTINUOUS
 62
    4
 10
92.816666666667516
 20
71.01667066995816
 40
0.4333333333333333
 50
156.96099060802416
 51
336.96099060802464
  0
ENDBLK
  0
BLOCK
  2
-022-_22_
 70
   64
 10
0
 20
0
 30
0
  0
LINE
  8
_0-0_図面枠
  6
CONTINUOUS
 62
    7
 10
-17.103643301208507
 20
124.78846734235105
 11
-17.633973387058489
 21
124.48231430040107
  0
LINE
  8
_0-0_図面枠
  6
CONTINUOUS
 62
    7
 10
-16.197776643308515
 20
122.83680745630102
 11
-17.103643301208507
 21
124.78846734235105
  0
LINE
  8
_0-0_図面枠
  6
CONTINUOUS
 62
    7
 10
-19.578517035358487
 20
123.35975314665103
 11
-16.197776643308515
 21
122.83680745630102
  0
LINE
  8
_0-0_図面枠
  6
CONTINUOUS
 62
    7
 10
-19.048186949458483
 20
123.66590618860107
 11
-19.578517035358487
 21
123.35975314665103
  0
LINE
  8
_0-0_図面枠
  6
CONTINUOUS
 62
    7
 10
-23.64438102715846
 20
126.31923255200104
 11
-19.048186949458483
 21
123.66590618860107
  0
LINE
  8
_0-0_図面枠
  6
CONTINUOUS
 62
    7
 10
-28.240575104858493
 20
123.66590618860107
 11
-23.64438102715846
 21
126.31923255200104
  0
LINE
  8
_0-0_図面枠
  6
CONTINUOUS
 62
    7
 10
-27.710245019008511
 20
123.35975314665103
 11
-28.240575104858493
 21
123.66590618860107
  0
LINE
  8
_0-0_図面枠
  6
CONTINUOUS
 62
    7
 10
-31.090985411008518
 20
122.83680745630102
 11
-27.710245019008511
 21
123.35975314665103
  0
LINE
  8
_0-0_図面枠
  6
CONTINUOUS
 62
    7
 10
-30.185118753158491
 20
124.78846734235105
 11
-31.090985411008518
 21
122.83680745630102
  0
LINE
  8
_0-0_図面枠
  6
CONTINUOUS
 62
    7
 10
-29.654788667258487
 20
124.48231430040107
 11
-30.185118753158491
 21
124.78846734235105
  0
LINE
  8
_0-0_図面枠
  6
CONTINUOUS
 62
    7
 10
-25.05859458955851
 20
127.13564066385106
 11
-29.654788667258487
 21
124.48231430040107
  0
LINE
  8
_0-0_図面枠
  6
CONTINUOUS
 62
    7
 10
-29.654788667258487
 20
129.78896702725103
 11
-25.05859458955851
 21
127.13564066385106
  0
LINE
  8
_0-0_図面枠
  6
CONTINUOUS
 62
    7
 10
-30.185118753158491
 20
129.48281398535107
 11
-29.654788667258487
 21
129.78896702725103
  0
LINE
  8
_0-0_図面枠
  6
CONTINUOUS
 62
    7
 10
-31.090985411008518
 20
131.43447387140105
 11
-30.185118753158491
 21
129.48281398535107
  0
LINE
  8
_0-0_図面枠
  6
CONTINUOUS
 62
    7
 10
-27.710245019008511
 20
130.91152818105104
 11
-31.090985411008518
 21
131.43447387140105
  0
LINE
  8
_0-0_図面枠
  6
CONTINUOUS
 62
    7
 10
-28.240575104858493
 20
130.60537513910106
 11
-27.710245019008511
 21
130.91152818105104
  0
LINE
  8
_0-0_図面枠
  6
CONTINUOUS
 62
    7
 10
-23.64438102715846
 20
127.95204877565106
 11
-28.240575104858493
 21
130.60537513910106
  0
LINE
  8
_0-0_図面枠
  6
CONTINUOUS
 62
    7
 10
-19.048186949458483
 20
130.60537513910106
 11
-23.64438102715846
 21
127.95204877565106
  0
LINE
  8
_0-0_図面枠
  6
CONTINUOUS
 62
    7
 10
-19.578517035358487
 20
130.91152818105104
 11
-19.048186949458483
 21
130.60537513910106
  0
LINE
  8
_0-0_図面枠
  6
CONTINUOUS
 62
    7
 10
-16.197776643308515
 20
131.43447387140105
 11
-19.578517035358487
 21
130.91152818105104
  0
LINE
  8
_0-0_図面枠
  6
CONTINUOUS
 62
    7
 10
-17.103643301208507
 20
129.48281398535107
 11
-16.197776643308515
 21
131.43447387140105
  0
LINE
  8
_0-0_図面枠
  6
CONTINUOUS
 62
    7
 10
-17.633973387058489
 20
129.78896702725103
 11
-17.103643301208507
 21
129.48281398535107
  0
LINE
  8
_0-0_図面枠
  6
CONTINUOUS
 62
    7
 10
-22.230167464808488
 20
127.13564066385106
 11
-17.633973387058489
 21
129.78896702725103
  0
LINE
  8
_0-0_図面枠
  6
CONTINUOUS
 62
    7
 10
-17.633973387058489
 20
124.48231430040107
 11
-22.230167464808488
 21
127.13564066385106
  0
LINE
  8
_0-0_図面枠
  6
CONTINUOUS
 62
    7
 10
-31.090985411008518
 20
122.83680745630102
 11
-31.090985411008518
 21
122.22440184740105
  0
LINE
  8
_0-0_図面枠
  6
CONTINUOUS
 62
    7
 10
-27.710245019008511
 20
123.35975314665103
 11
-27.710245019008511
 21
122.74734753775107
  0
LINE
  8
_0-0_図面枠
  6
CONTINUOUS
 62
    7
 10
-31.090985411008518
 20
122.22440184740105
 11
-27.710245019008511
 21
122.74734753775107
  0
LINE
  8
_0-0_図面枠
  6
CONTINUOUS
 62
    7
 10
-19.578517035358487
 20
123.35975314665103
 11
-19.578517035358487
 21
122.74734753775107
  0
LINE
  8
_0-0_図面枠
  6
CONTINUOUS
 62
    7
 10
-16.197776643308515
 20
122.83680745630102
 11
-16.197776643308515
 21
122.22440184740105
  0
LINE
  8
_0-0_図面枠
  6
CONTINUOUS
 62
    7
 10
-19.578517035358487
 20
122.74734753775107
 11
-16.197776643308515
 21
122.22440184740105
  0
LINE
  8
_0-0_図面枠
  6
CONTINUOUS
 62
    7
 10
-23.64438102715846
 20
126.31923255200104
 11
-23.64438102715846
 21
125.70682694310108
  0
LINE
  8
_0-0_図面枠
  6
CONTINUOUS
 62
    7
 10
-27.710245019008511
 20
123.35965362160107
 11
-23.64438102715846
 21
125.70682694310108
  0
LINE
  8
_0-0_図面枠
  6
CONTINUOUS
 62
    7
 10
-23.64438102715846
 20
125.70682694310108
 11
-19.578517035358487
 21
123.35965362160107
  0
LINE
  8
_0-0_図面枠
  6
CONTINUOUS
 62
    7
 10
-29.654788667258487
 20
129.78896702725103
 11
-29.654788667258487
 21
129.17656141835107
  0
LINE
  8
_0-0_図面枠
  6
CONTINUOUS
 62
    7
 10
-29.654788667258487
 20
129.17656141835107
 11
-25.589010876008473
 21
126.82943785940108
  0
LINE
  8
_0-0_図面枠
  6
CONTINUOUS
 62
    7
 10
-17.633973387058489
 20
129.78896702725103
 11
-17.633973387058489
 21
129.17656141835107
  0
LINE
  8
_0-0_図面枠
  6
CONTINUOUS
 62
    7
 10
-21.699751178358468
 20
126.82943785940108
 11
-17.633973387058489
 21
129.17656141835107
  0
LINE
  8
_0-0_図面枠
  6
CONTINUOUS
 62
    7
 10
-17.103643301208507
 20
129.48281398535107
 11
-17.103643301208507
 21
128.87040837640103
  0
LINE
  8
_0-0_図面枠
  6
CONTINUOUS
 62
    7
 10
-17.633973387058489
 20
129.17656141835107
 11
-17.103643301208507
 21
128.87040837640103
  0
LINE
  8
_0-0_図面枠
  6
CONTINUOUS
 62
    7
 10
-16.197776643308515
 20
131.43447387140105
 11
-16.197776643308515
 21
130.82206826250103
  0
LINE
  8
_0-0_図面枠
  6
CONTINUOUS
 62
    7
 10
-17.103643301208507
 20
128.87040837640103
 11
-16.197776643308515
 21
130.82206826250103
  0
LINE
  8
_0-0_図面枠
  6
CONTINUOUS
 62
    7
 10
-30.185118753158491
 20
129.48281398535107
 11
-30.185118753158491
 21
128.87040837640103
  0
LINE
  8
_0-0_図面枠
  6
CONTINUOUS
 62
    7
 10
-30.185118753158491
 20
128.87040837640103
 11
-29.654788667258487
 21
129.17656141835107
  0
LINE
  8
_0-0_図面枠
  6
CONTINUOUS
 62
    7
 10
-31.090985411008518
 20
131.43447387140105
 11
-31.090985411008518
 21
130.82206826250103
  0
LINE
  8
_0-0_図面枠
  6
CONTINUOUS
 62
    7
 10
-31.090985411008518
 20
130.82206826250103
 11
-30.185118753158491
 21
128.87040837640103
  0
LINE
  8
_0-0_図面枠
  6
CONTINUOUS
 62
    7
 10
-19.578517035358487
 20
130.91152818105104
 11
-19.578517035358487
 21
130.29922209715107
  0
LINE
  8
_0-0_図面枠
  6
CONTINUOUS
 62
    7
 10
-27.710245019008511
 20
130.91152818105104
 11
-27.710245019008511
 21
130.29922209715107
  0
LINE
  8
ADD_LINE
  6
DOT
 62
    4
 10
-31.090985411008518
 20
131.43447387140105
 11
-16.198180070863003
 21
122.83610869927935
  0
LINE
  8
ADD_LINE
  6
DOT
 62
    4
 10
-16.197776643308515
 20
131.43447387140105
 11
-31.090581983453916
 21
122.83610869927935
  0
ENDBLK
  0
BLOCK
  2
-023-_23_
 70
   64
 10
0
 20
0
 30
0
  0
LINE
  8
_0-0_図面枠
  6
CONTINUOUS
 62
    7
 10
181.88186991188218
 20
125.54988384232558
 11
181.35153982603214
 21
125.2437308003756
  0
LINE
  8
_0-0_図面枠
  6
CONTINUOUS
 62
    7
 10
182.78773656978217
 20
123.59822395627555
 11
181.88186991188218
 21
125.54988384232558
  0
LINE
  8
_0-0_図面枠
  6
CONTINUOUS
 62
    7
 10
179.4069961777322
 20
124.12116964662556
 11
182.78773656978217
 21
123.59822395627555
  0
LINE
  8
_0-0_図面枠
  6
CONTINUOUS
 62
    7
 10
179.9373262636322
 20
124.4273226885756
 11
179.4069961777322
 21
124.12116964662556
  0
LINE
  8
_0-0_図面枠
  6
CONTINUOUS
 62
    7
 10
175.34113218593217
 20
127.08064905197557
 11
179.9373262636322
 21
124.4273226885756
  0
LINE
  8
_0-0_図面枠
  6
CONTINUOUS
 62
    7
 10
170.74493810823213
 20
124.4273226885756
 11
175.34113218593217
 21
127.08064905197557
  0
LINE
  8
_0-0_図面枠
  6
CONTINUOUS
 62
    7
 10
171.27526819408217
 20
124.12116964662556
 11
170.74493810823213
 21
124.4273226885756
  0
LINE
  8
_0-0_図面枠
  6
CONTINUOUS
 62
    7
 10
167.89452780208217
 20
123.59822395627555
 11
171.27526819408217
 21
124.12116964662556
  0
LINE
  8
_0-0_図面枠
  6
CONTINUOUS
 62
    7
 10
168.80039445993219
 20
125.54988384232558
 11
167.89452780208217
 21
123.59822395627555
  0
LINE
  8
_0-0_図面枠
  6
CONTINUOUS
 62
    7
 10
169.3307245458322
 20
125.2437308003756
 11
168.80039445993219
 21
125.54988384232558
  0
LINE
  8
_0-0_図面枠
  6
CONTINUOUS
 62
    7
 10
173.92691862353217
 20
127.89705716382559
 11
169.3307245458322
 21
125.2437308003756
  0
LINE
  8
_0-0_図面枠
  6
CONTINUOUS
 62
    7
 10
169.3307245458322
 20
130.55038352722556
 11
173.92691862353217
 21
127.89705716382559
  0
LINE
  8
_0-0_図面枠
  6
CONTINUOUS
 62
    7
 10
168.80039445993219
 20
130.2442304853256
 11
169.3307245458322
 21
130.55038352722556
  0
LINE
  8
_0-0_図面枠
  6
CONTINUOUS
 62
    7
 10
167.89452780208217
 20
132.19589037137558
 11
168.80039445993219
 21
130.2442304853256
  0
LINE
  8
_0-0_図面枠
  6
CONTINUOUS
 62
    7
 10
171.27526819408217
 20
131.67294468102557
 11
167.89452780208217
 21
132.19589037137558
  0
LINE
  8
_0-0_図面枠
  6
CONTINUOUS
 62
    7
 10
170.74493810823213
 20
131.36679163907559
 11
171.27526819408217
 21
131.67294468102557
  0
LINE
  8
_0-0_図面枠
  6
CONTINUOUS
 62
    7
 10
175.34113218593217
 20
128.71346527562559
 11
170.74493810823213
 21
131.36679163907559
  0
LINE
  8
_0-0_図面枠
  6
CONTINUOUS
 62
    7
 10
179.9373262636322
 20
131.36679163907559
 11
175.34113218593217
 21
128.71346527562559
  0
LINE
  8
_0-0_図面枠
  6
CONTINUOUS
 62
    7
 10
179.4069961777322
 20
131.67294468102557
 11
179.9373262636322
 21
131.36679163907559
  0
LINE
  8
_0-0_図面枠
  6
CONTINUOUS
 62
    7
 10
182.78773656978217
 20
132.19589037137558
 11
179.4069961777322
 21
131.67294468102557
  0
LINE
  8
_0-0_図面枠
  6
CONTINUOUS
 62
    7
 10
181.88186991188218
 20
130.2442304853256
 11
182.78773656978217
 21
132.19589037137558
  0
LINE
  8
_0-0_図面枠
  6
CONTINUOUS
 62
    7
 10
181.35153982603214
 20
130.55038352722556
 11
181.88186991188218
 21
130.2442304853256
  0
LINE
  8
_0-0_図面枠
  6
CONTINUOUS
 62
    7
 10
176.7553457482822
 20
127.89705716382559
 11
181.35153982603214
 21
130.55038352722556
  0
LINE
  8
_0-0_図面枠
  6
CONTINUOUS
 62
    7
 10
181.35153982603214
 20
125.2437308003756
 11
176.7553457482822
 21
127.89705716382559
  0
LINE
  8
_0-0_図面枠
  6
CONTINUOUS
 62
    7
 10
167.89452780208217
 20
123.59822395627555
 11
167.89452780208217
 21
122.98581834737558
  0
LINE
  8
_0-0_図面枠
  6
CONTINUOUS
 62
    7
 10
171.27526819408217
 20
124.12116964662556
 11
171.27526819408217
 21
123.5087640377256
  0
LINE
  8
_0-0_図面枠
  6
CONTINUOUS
 62
    7
 10
167.89452780208217
 20
122.98581834737558
 11
171.27526819408217
 21
123.5087640377256
  0
LINE
  8
_0-0_図面枠
  6
CONTINUOUS
 62
    7
 10
179.4069961777322
 20
124.12116964662556
 11
179.4069961777322
 21
123.5087640377256
  0
LINE
  8
_0-0_図面枠
  6
CONTINUOUS
 62
    7
 10
182.78773656978217
 20
123.59822395627555
 11
182.78773656978217
 21
122.98581834737558
  0
LINE
  8
_0-0_図面枠
  6
CONTINUOUS
 62
    7
 10
179.4069961777322
 20
123.5087640377256
 11
182.78773656978217
 21
122.98581834737558
  0
LINE
  8
_0-0_図面枠
  6
CONTINUOUS
 62
    7
 10
175.34113218593217
 20
127.08064905197557
 11
175.34113218593217
 21
126.46824344307561
  0
LINE
  8
_0-0_図面枠
  6
CONTINUOUS
 62
    7
 10
171.27526819408217
 20
124.1210701215756
 11
175.34113218593217
 21
126.46824344307561
  0
LINE
  8
_0-0_図面枠
  6
CONTINUOUS
 62
    7
 10
175.34113218593217
 20
126.46824344307561
 11
179.4069961777322
 21
124.1210701215756
  0
LINE
  8
_0-0_図面枠
  6
CONTINUOUS
 62
    7
 10
169.3307245458322
 20
130.55038352722556
 11
169.3307245458322
 21
129.9379779183256
  0
LINE
  8
_0-0_図面枠
  6
CONTINUOUS
 62
    7
 10
169.3307245458322
 20
129.9379779183256
 11
173.39650233708215
 21
127.59085435937561
  0
LINE
  8
_0-0_図面枠
  6
CONTINUOUS
 62
    7
 10
181.35153982603214
 20
130.55038352722556
 11
181.35153982603214
 21
129.9379779183256
  0
LINE
  8
_0-0_図面枠
  6
CONTINUOUS
 62
    7
 10
177.28576203473216
 20
127.59085435937561
 11
181.35153982603214
 21
129.9379779183256
  0
LINE
  8
_0-0_図面枠
  6
CONTINUOUS
 62
    7
 10
181.88186991188218
 20
130.2442304853256
 11
181.88186991188218
 21
129.63182487637556
  0
LINE
  8
_0-0_図面枠
  6
CONTINUOUS
 62
    7
 10
181.35153982603214
 20
129.9379779183256
 11
181.88186991188218
 21
129.63182487637556
  0
LINE
  8
_0-0_図面枠
  6
CONTINUOUS
 62
    7
 10
182.78773656978217
 20
132.19589037137558
 11
182.78773656978217
 21
131.58348476247556
  0
LINE
  8
_0-0_図面枠
  6
CONTINUOUS
 62
    7
 10
181.88186991188218
 20
129.63182487637556
 11
182.78773656978217
 21
131.58348476247556
  0
LINE
  8
_0-0_図面枠
  6
CONTINUOUS
 62
    7
 10
168.80039445993219
 20
130.2442304853256
 11
168.80039445993219
 21
129.63182487637556
  0
LINE
  8
_0-0_図面枠
  6
CONTINUOUS
 62
    7
 10
168.80039445993219
 20
129.63182487637556
 11
169.3307245458322
 21
129.9379779183256
  0
LINE
  8
_0-0_図面枠
  6
CONTINUOUS
 62
    7
 10
167.89452780208217
 20
132.19589037137558
 11
167.89452780208217
 21
131.58348476247556
  0
LINE
  8
_0-0_図面枠
  6
CONTINUOUS
 62
    7
 10
167.89452780208217
 20
131.58348476247556
 11
168.80039445993219
 21
129.63182487637556
  0
LINE
  8
_0-0_図面枠
  6
CONTINUOUS
 62
    7
 10
179.4069961777322
 20
131.67294468102557
 11
179.4069961777322
 21
131.0606385971256
  0
LINE
  8
_0-0_図面枠
  6
CONTINUOUS
 62
    7
 10
171.27526819408217
 20
131.67294468102557
 11
171.27526819408217
 21
131.0606385971256
  0
LINE
  8
ADD_LINE
  6
DOT
 62
    4
 10
167.89452780208217
 20
132.19589037137558
 11
182.78733314222762
 21
123.59752519925388
  0
LINE
  8
ADD_LINE
  6
DOT
 62
    4
 10
182.78773656978217
 20
132.19589037137558
 11
167.89493122963671
 21
123.59752519925388
  0
ENDBLK
  0
BLOCK
  2
-024-_24_
 70
   64
 10
0
 20
0
 30
0
  0
ARC
  8
_1-8_小物
  6
CONTINUOUS
 62
    4
 10
-74.999833221346364
 20
71.433332183079642
 40
0.0999999999999999
 50
180
 51
270
  0
LINE
  8
_1-8_小物
  6
CONTINUOUS
 62
    4
 10
-72.16649988801305
 20
70.666665516412934
 11
-72.16649988801305
 21
70.207598129791336
  0
ARC
  8
_1-8_小物
  6
CONTINUOUS
 62
    4
 10
-72.333166554679678
 20
70.666665516412934
 40
0.1666666666666666
 50
0
 51
90
  0
LINE
  8
_1-8_小物
  6
CONTINUOUS
 62
    4
 10
-71.66649988801305
 20
70.666665516412934
 11
-71.66649988801305
 21
70.166665516412934
  0
ARC
  8
_1-8_小物
  6
CONTINUOUS
 62
    4
 10
-72.333166554679678
 20
70.666665516412934
 40
0.6666666666666666
 50
0
 51
90
  0
LINE
  8
_1-8_小物
  6
CONTINUOUS
 62
    4
 10
-72.333166554679678
 20
70.833332183079619
 11
-74.933166554679701
 21
70.833332183079619
  0
ARC
  8
_1-8_小物
  6
CONTINUOUS
 62
    4
 10
-74.933166554679701
 20
71.333332183079619
 40
0.5
 50
180
 51
270
  0
ARC
  8
_1-8_小物
  6
CONTINUOUS
 62
    4
 10
-72.578522363824391
 20
67.707995109869103
 40
0.4999999999999946
 50
190.63980919808779
 51
350.63980919808859
  0
LINE
  8
_1-8_小物
  6
CONTINUOUS
 62
    4
 10
-72.16649988801305
 20
70.207598129791336
 11
-72.547776369398832
 21
67.894520809384204
  0
ARC
  8
_1-8_小物
  6
CONTINUOUS
 62
    4
 10
-72.580665882818835
 20
67.899942157750161
 40
0.0333333333333333
 50
190.6398091981238
 51
350.63980919805704
  0
ARC
  8
_1-8_小物
  6
CONTINUOUS
 62
    4
 10
-73.055017003364981
 20
68.890345674840887
 40
0.25
 50
10.639809198086599
 51
190.63980919808139
  0
LINE
  8
_1-8_小物
  6
CONTINUOUS
 62
    4
 10
-73.300718828918775
 20
68.844187112043556
 11
-73.069926014932037
 21
67.615677984274384
  0
LINE
  8
_1-8_小物
  6
CONTINUOUS
 62
    4
 10
-71.66649988801305
 20
70.166665516412934
 11
-72.085179662523956
 21
67.626674884380037
  0
LINE
  8
_1-8_小物
  6
CONTINUOUS
 62
    4
 10
-72.333166554679678
 20
71.333332183079619
 11
-74.999833221346364
 21
71.333332183079619
  0
ARC
  8
_1-8_小物
  6
CONTINUOUS
 62
    4
 10
-73.144943330754757
 20
72.074383629875456
 40
0.1666666666666666
 50
267.28051796004212
 51
357.28051796003189
  0
ARC
  8
_1-8_小物
  6
CONTINUOUS
 62
    4
 10
-72.986372046827967
 20
71.899996980531597
 40
0.3333333333333333
 50
267.28051796004149
 51
357.28051796003678
  0
LINE
  8
_1-8_小物
  6
CONTINUOUS
 62
    4
 10
-72.653414113557346
 20
71.884181615114528
 11
-72.637598748140249
 21
72.217139548385092
  0
ARC
  8
_1-8_小物
  6
CONTINUOUS
 62
    4
 10
-72.804077714775588
 20
72.225047231093669
 40
0.1666666666666666
 50
357.28051796004166
 51
177.28051796004127
  0
LINE
  8
_1-8_小物
  6
CONTINUOUS
 62
    4
 10
-72.978464364119418
 20
72.066475947166907
 11
-72.970556681410869
 21
72.23295491380216
  0
LINE
  8
_1-8_小物
  6
CONTINUOUS
 62
    4
 10
-75.099833221346387
 20
71.561813657760808
 11
-75.099833221346387
 21
71.433332183079642
  0
LINE
  8
_1-8_小物
  6
CONTINUOUS
 62
    4
 10
-73.152851013463248
 20
71.907904663240174
 11
-75.084017855929289
 21
71.999634297055763
  0
LINE
  8
_1-8_小物
  6
CONTINUOUS
 62
    4
 10
-75.433166554679701
 20
71.666676363785143
 11
-75.433166554679701
 21
71.333332183079619
  0
ARC
  8
_1-8_小物
  6
CONTINUOUS
 62
    4
 10
-74.999833221346364
 20
71.561813657760808
 40
0.0999999999999999
 50
87.280517960044477
 51
180
  0
ARC
  8
_1-8_小物
  6
CONTINUOUS
 62
    4
 10
-75.099833221346387
 20
71.666676363785143
 40
0.3333333333333333
 50
87.280517960036804
 51
180
  0
LINE
  8
_1-8_小物
  6
CONTINUOUS
 62
    4
 10
-73.002187412245007
 20
71.567039047261034
 11
-74.995088611721258
 21
71.661701037741921
  0
LINE
  8
_1-8_小物
  6
CONTINUOUS
 62
    4
 10
-72.809315177811129
 20
68.936504237638275
 11
-72.613426126225988
 21
67.893787682710496
  0
ENDBLK
  0
BLOCK
  2
-025-_25_
 70
   64
 10
0
 20
0
 30
0
  0
ARC
  8
_1-8_小物
  6
CONTINUOUS
 62
    4
 10
-124.99983322134635
 20
71.433332183079642
 40
0.0999999999999999
 50
270
 51
0
  0
LINE
  8
_1-8_小物
  6
CONTINUOUS
 62
    4
 10
-127.83316655467966
 20
70.666665516412934
 11
-127.83316655467966
 21
70.207598129791336
  0
ARC
  8
_1-8_小物
  6
CONTINUOUS
 62
    4
 10
-127.66649988801302
 20
70.666665516412934
 40
0.1666666666666666
 50
90
 51
180
  0
LINE
  8
_1-8_小物
  6
CONTINUOUS
 62
    4
 10
-128.33316655467968
 20
70.666665516412934
 11
-128.33316655467968
 21
70.166665516412934
  0
ARC
  8
_1-8_小物
  6
CONTINUOUS
 62
    4
 10
-127.66649988801302
 20
70.666665516412934
 40
0.6666666666666666
 50
90
 51
180
  0
LINE
  8
_1-8_小物
  6
CONTINUOUS
 62
    4
 10
-127.66649988801302
 20
70.833332183079619
 11
-125.06649988801301
 21
70.833332183079619
  0
ARC
  8
_1-8_小物
  6
CONTINUOUS
 62
    4
 10
-125.06649988801301
 20
71.333332183079619
 40
0.5
 50
270
 51
0
  0
ARC
  8
_1-8_小物
  6
CONTINUOUS
 62
    4
 10
-127.42114407886832
 20
67.707995109869103
 40
0.4999999999999946
 50
189.36019080191164
 51
349.36019080191221
  0
LINE
  8
_1-8_小物
  6
CONTINUOUS
 62
    4
 10
-127.83316655467966
 20
70.207598129791336
 11
-127.45189007329388
 21
67.894520809384204
  0
ARC
  8
_1-8_小物
  6
CONTINUOUS
 62
    4
 10
-127.41900055987388
 20
67.899942157750161
 40
0.0333333333333333
 50
189.36019080194299
 51
349.36019080188066
  0
ARC
  8
_1-8_小物
  6
CONTINUOUS
 62
    4
 10
-126.94464943932773
 20
68.890345674840887
 40
0.25
 50
349.3601908019192
 51
169.36019080191227
  0
LINE
  8
_1-8_小物
  6
CONTINUOUS
 62
    4
 10
-126.69894761377392
 20
68.844187112043556
 11
-126.92974042776068
 21
67.615677984274384
  0
LINE
  8
_1-8_小物
  6
CONTINUOUS
 62
    4
 10
-128.33316655467968
 20
70.166665516412934
 11
-127.91448678016876
 21
67.626674884380037
  0
LINE
  8
_1-8_小物
  6
CONTINUOUS
 62
    4
 10
-127.66649988801302
 20
71.333332183079619
 11
-124.99983322134635
 21
71.333332183079619
  0
ARC
  8
_1-8_小物
  6
CONTINUOUS
 62
    4
 10
-126.85472311193796
 20
72.074383629875456
 40
0.1666666666666666
 50
182.71948203996828
 51
272.71948203996271
  0
ARC
  8
_1-8_小物
  6
CONTINUOUS
 62
    4
 10
-127.01329439586475
 20
71.899996980531597
 40
0.3333333333333333
 50
182.71948203996331
 51
272.71948203996095
  0
LINE
  8
_1-8_小物
  6
CONTINUOUS
 62
    4
 10
-127.34625232913537
 20
71.884181615114528
 11
-127.36206769455245
 21
72.217139548385092
  0
ARC
  8
_1-8_小物
  6
CONTINUOUS
 62
    4
 10
-127.19558872791713
 20
72.225047231093669
 40
0.1666666666666666
 50
2.7194820399585478
 51
182.71948203995856
  0
LINE
  8
_1-8_小物
  6
CONTINUOUS
 62
    4
 10
-127.0212020785733
 20
72.066475947166907
 11
-127.02910976128183
 21
72.23295491380216
  0
LINE
  8
_1-8_小物
  6
CONTINUOUS
 62
    4
 10
-124.89983322134633
 20
71.561813657760808
 11
-124.89983322134633
 21
71.433332183079642
  0
LINE
  8
_1-8_小物
  6
CONTINUOUS
 62
    4
 10
-126.84681542922945
 20
71.907904663240174
 11
-124.91564858676341
 21
71.999634297055763
  0
LINE
  8
_1-8_小物
  6
CONTINUOUS
 62
    4
 10
-124.56649988801301
 20
71.666676363785143
 11
-124.56649988801301
 21
71.333332183079619
  0
ARC
  8
_1-8_小物
  6
CONTINUOUS
 62
    4
 10
-124.99983322134635
 20
71.561813657760808
 40
0.0999999999999999
 50
0
 51
92.719482039955523
  0
ARC
  8
_1-8_小物
  6
CONTINUOUS
 62
    4
 10
-124.89983322134633
 20
71.666676363785143
 40
0.3333333333333333
 50
0
 51
92.719482039960766
  0
LINE
  8
_1-8_小物
  6
CONTINUOUS
 62
    4
 10
-126.99747903044771
 20
71.567039047261034
 11
-125.00457783097146
 21
71.661701037741921
  0
LINE
  8
_1-8_小物
  6
CONTINUOUS
 62
    4
 10
-127.19035126488157
 20
68.936504237638275
 11
-127.38624031646671
 21
67.893787682710496
  0
ENDBLK
  0
BLOCK
  2
-026-_26_
 70
   64
 10
0
 20
0
 30
0
  0
LINE
  8
_1-7_カバ__
  6
CENTER2
 62
    4
 10
-99.9996664426927
 20
77.666665516412877
 11
-99.9996664426927
 21
73.833332183079733
  0
ARC
  8
_1-7_カバ__
  6
CONTINUOUS
 62
    4
 10
-127.83299977602597
 20
75.499998849746248
 40
0.1666666666666666
 50
90
 51
180
  0
LINE
  8
_1-7_カバ__
  6
CONTINUOUS
 62
    4
 10
-127.99966644269271
 20
75.499998849746248
 11
-127.99966644269271
 21
71.833332183079733
  0
ARC
  8
_1-7_カバ__
  6
CONTINUOUS
 62
    4
 10
-127.83299977602597
 20
71.833332183079733
 40
0.1666666666666666
 50
180
 51
270
  0
ARC
  8
_1-7_カバ__
  6
CONTINUOUS
 62
    4
 10
-127.83299977602597
 20
75.499998849746248
 40
0.5
 50
90
 51
180
  0
LINE
  8
_1-7_カバ__
  6
CONTINUOUS
 62
    4
 10
-128.33299977602604
 20
75.499998849746248
 11
-128.33299977602604
 21
71.833332183079733
  0
ARC
  8
_1-7_カバ__
  6
CONTINUOUS
 62
    4
 10
-127.83299977602597
 20
71.833332183079733
 40
0.5
 50
180
 51
270
  0
ARC
  8
_1-7_カバ__
  6
CONTINUOUS
 62
    4
 10
-72.166333109359357
 20
75.499998849746191
 40
0.1666666666666666
 50
0
 51
90
  0
LINE
  8
_1-7_カバ__
  6
CONTINUOUS
 62
    4
 10
-71.999666442692728
 20
75.499998849746191
 11
-71.999666442692728
 21
71.833332183079676
  0
ARC
  8
_1-7_カバ__
  6
CONTINUOUS
 62
    4
 10
-72.166333109359357
 20
71.833332183079676
 40
0.1666666666666666
 50
270
 51
0
  0
ARC
  8
_1-7_カバ__
  6
CONTINUOUS
 62
    4
 10
-72.166333109359357
 20
75.499998849746191
 40
0.5
 50
0
 51
90
  0
LINE
  8
_1-7_カバ__
  6
CONTINUOUS
 62
    4
 10
-71.666333109359357
 20
75.499998849746191
 11
-71.666333109359357
 21
71.833332183079676
  0
ARC
  8
_1-7_カバ__
  6
CONTINUOUS
 62
    4
 10
-72.166333109359357
 20
71.833332183079676
 40
0.5
 50
270
 51
0
  0
LINE
  8
_1-7_カバ__
  6
CONTINUOUS
 62
    4
 10
-127.83299977602597
 20
75.666665516412905
 11
-99.9996664426927
 21
75.666665516412905
  0
LINE
  8
_1-7_カバ__
  6
CONTINUOUS
 62
    4
 10
-127.83299977602597
 20
75.999998849746248
 11
-99.9996664426927
 21
75.999998849746248
  0
LINE
  8
_1-7_カバ__
  6
CONTINUOUS
 62
    4
 10
-72.166333109359357
 20
75.666665516412905
 11
-99.9996664426927
 21
75.666665516412905
  0
LINE
  8
_1-7_カバ__
  6
CONTINUOUS
 62
    4
 10
-72.166333109359357
 20
75.999998849746191
 11
-99.9996664426927
 21
75.999998849746248
  0
LINE
  8
_1-7_カバ__
  6
CONTINUOUS
 62
    4
 10
-124.9996664426927
 20
71.666665516413047
 11
-124.9996664426927
 21
71.333332183079563
  0
LINE
  8
_1-7_カバ__
  6
CONTINUOUS
 62
    4
 10
-127.83299977602597
 20
71.666665516413047
 11
-124.9996664426927
 21
71.666665516413047
  0
LINE
  8
_1-7_カバ__
  6
CONTINUOUS
 62
    4
 10
-127.83299977602597
 20
71.333332183079563
 11
-124.9996664426927
 21
71.333332183079563
  0
LINE
  8
_1-7_カバ__
  6
CONTINUOUS
 62
    4
 10
-74.999666442692728
 20
71.666665516413019
 11
-74.999666442692728
 21
71.333332183079534
  0
LINE
  8
_1-7_カバ__
  6
CONTINUOUS
 62
    4
 10
-72.166333109359357
 20
71.666665516413019
 11
-74.999666442692728
 21
71.666665516413019
  0
LINE
  8
_1-7_カバ__
  6
CONTINUOUS
 62
    4
 10
-72.166333109359357
 20
71.333332183079534
 11
-74.999666442692728
 21
71.333332183079534
  0
LINE
  8
_1-7_カバ__
  6
DASHED1
 62
    4
 10
-99.249666442692615
 20
75.666665516412905
 11
-98.916333109359357
 21
75.999998849746248
  0
LINE
  8
_1-7_カバ__
  6
DASHED1
 62
    4
 10
-100.7496664426927
 20
75.666665516412905
 11
-101.08299977602603
 21
75.999998849746248
  0
ENDBLK
  0
BLOCK
  2
-027-_27_
 70
   64
 10
0
 20
0
 30
0
  0
ARC
  8
_1-7_カバ__
  6
CONTINUOUS
 62
    4
 10
99.666666666666856
 20
76.166666685300243
 40
0.1666666666666666
 50
180
 51
270
  0
ARC
  8
_1-7_カバ__
  6
CONTINUOUS
 62
    4
 10
99.666666666666856
 20
76.166666685300243
 40
0.5
 50
180
 51
270
  0
ARC
  8
_1-7_カバ__
  6
CONTINUOUS
 62
    4
 10
127.5000000043666
 20
75.500000018633557
 40
0.1666666666666666
 50
0
 51
90
  0
LINE
  8
_1-7_カバ__
  6
CONTINUOUS
 62
    4
 10
127.66666667103328
 20
75.500000018633557
 11
127.66666667103328
 21
71.8333333519669
  0
ARC
  8
_1-7_カバ__
  6
CONTINUOUS
 62
    4
 10
127.5000000043666
 20
71.8333333519669
 40
0.1666666666666666
 50
270
 51
0
  0
ARC
  8
_1-7_カバ__
  6
CONTINUOUS
 62
    4
 10
127.5000000043666
 20
71.8333333519669
 40
0.5
 50
270
 51
0
  0
LINE
  8
_1-7_カバ__
  6
CONTINUOUS
 62
    4
 10
128.0000000043666
 20
75.500000018633557
 11
128.0000000043666
 21
71.8333333519669
  0
ARC
  8
_1-7_カバ__
  6
CONTINUOUS
 62
    4
 10
127.5000000043666
 20
75.500000018633557
 40
0.5
 50
0
 51
90
  0
LINE
  8
_1-7_カバ__
  6
CONTINUOUS
 62
    4
 10
124.66666667103328
 20
71.666666685300243
 11
124.66666667103328
 21
71.3333333519669
  0
LINE
  8
_1-7_カバ__
  6
CONTINUOUS
 62
    4
 10
127.5000000043666
 20
71.666666685300243
 11
124.66666667103328
 21
71.666666685300243
  0
LINE
  8
_1-7_カバ__
  6
CONTINUOUS
 62
    4
 10
127.5000000043666
 20
71.3333333519669
 11
124.66666667103328
 21
71.3333333519669
  0
LINE
  8
_1-7_カバ__
  6
CONTINUOUS
 62
    4
 10
99.666666666666856
 20
76.000000018633557
 11
127.5000000043666
 21
76.000000018633557
  0
LINE
  8
_1-7_カバ__
  6
CONTINUOUS
 62
    4
 10
99.666666666666856
 20
75.666666685300243
 11
127.5000000043666
 21
75.666666685300243
  0
LINE
  8
_1-7_カバ__
  6
CENTER2
 62
    4
 10
113.83333333551673
 20
77.666666685300243
 11
113.83333333551673
 21
73.833333351966985
  0
ARC
  8
_1-7_カバ__
  6
CONTINUOUS
 62
    4
 10
95.333333333333144
 20
90.666666685300243
 40
0.1666666666666666
 50
90
 51
180
  0
LINE
  8
_1-7_カバ__
  6
CONTINUOUS
 62
    4
 10
99.000000000000114
 20
90.8333333519669
 11
95.333333333333144
 21
90.8333333519669
  0
ARC
  8
_1-7_カバ__
  6
CONTINUOUS
 62
    4
 10
99.000000000000114
 20
90.666666685300243
 40
0.1666666666666666
 50
0
 51
90
  0
ARC
  8
_1-7_カバ__
  6
CONTINUOUS
 62
    4
 10
99.000000000000114
 20
90.666666685300243
 40
0.5
 50
0
 51
90
  0
LINE
  8
_1-7_カバ__
  6
CONTINUOUS
 62
    4
 10
99.000000000000114
 20
91.166666685300243
 11
95.333333333333144
 21
91.166666685300243
  0
ARC
  8
_1-7_カバ__
  6
CONTINUOUS
 62
    4
 10
95.333333333333144
 20
90.666666685300243
 40
0.5
 50
90
 51
180
  0
LINE
  8
_1-7_カバ__
  6
CONTINUOUS
 62
    4
 10
95.166666666666515
 20
87.833333351967042
 11
94.833333333333144
 21
87.833333351967042
  0
LINE
  8
_1-7_カバ__
  6
CONTINUOUS
 62
    4
 10
95.166666666666515
 20
90.666666685300243
 11
95.166666666666515
 21
87.833333351967042
  0
LINE
  8
_1-7_カバ__
  6
CONTINUOUS
 62
    4
 10
94.833333333333144
 20
90.666666685300243
 11
94.833333333333144
 21
87.833333351967042
  0
LINE
  8
_1-7_カバ__
  6
CONTINUOUS
 62
    4
 10
99.166666666666856
 20
76.166673038226065
 11
99.166666666666856
 21
90.666666685300243
  0
LINE
  8
_1-7_カバ__
  6
CONTINUOUS
 62
    4
 10
99.500000000000114
 20
76.166673038226065
 11
99.500000000000114
 21
90.666666685300243
  0
LINE
  8
_1-7_カバ__
  6
DASHED1
 62
    4
 10
114.58333333551673
 20
75.666666685300243
 11
114.9166666688501
 21
76.000000018633557
  0
LINE
  8
_1-7_カバ__
  6
DASHED1
 62
    4
 10
113.08333333551673
 20
75.666666685300243
 11
112.75000000218336
 21
76.000000018633557
  0
ENDBLK
  0
BLOCK
  2
-028-_28_
 70
   64
 10
0
 20
0
 30
0
  0
ARC
  8
_1-8_小物
  6
CONTINUOUS
 62
    4
 10
124.66666667103328
 20
71.433333351966894
 40
0.0999999999999999
 50
180
 51
270
  0
LINE
  8
_1-8_小物
  6
CONTINUOUS
 62
    4
 10
127.5000000043666
 20
70.666666685300186
 11
127.5000000043666
 21
70.207599298678588
  0
ARC
  8
_1-8_小物
  6
CONTINUOUS
 62
    4
 10
127.33333333769997
 20
70.666666685300186
 40
0.1666666666666666
 50
0
 51
90
  0
LINE
  8
_1-8_小物
  6
CONTINUOUS
 62
    4
 10
128.0000000043666
 20
70.666666685300186
 11
128.0000000043666
 21
70.166666685300186
  0
ARC
  8
_1-8_小物
  6
CONTINUOUS
 62
    4
 10
127.33333333769997
 20
70.666666685300186
 40
0.6666666666666666
 50
0
 51
90
  0
LINE
  8
_1-8_小物
  6
CONTINUOUS
 62
    4
 10
127.33333333769997
 20
70.833333351966871
 11
124.73333333769995
 21
70.833333351966871
  0
ARC
  8
_1-8_小物
  6
CONTINUOUS
 62
    4
 10
124.73333333769995
 20
71.333333351966871
 40
0.5
 50
180
 51
270
  0
ARC
  8
_1-8_小物
  6
CONTINUOUS
 62
    4
 10
127.08797752855526
 20
67.707996278756355
 40
0.4999999999999946
 50
190.63980919808779
 51
350.63980919808859
  0
LINE
  8
_1-8_小物
  6
CONTINUOUS
 62
    4
 10
127.5000000043666
 20
70.207599298678588
 11
127.11872352298082
 21
67.894521978271456
  0
ARC
  8
_1-8_小物
  6
CONTINUOUS
 62
    4
 10
127.08583400956081
 20
67.899943326637413
 40
0.0333333333333333
 50
190.63980919810578
 51
350.63980919804908
  0
ARC
  8
_1-8_小物
  6
CONTINUOUS
 62
    4
 10
126.61148288901467
 20
68.890346843728139
 40
0.25
 50
10.639809198089004
 51
190.63980919808259
  0
LINE
  8
_1-8_小物
  6
CONTINUOUS
 62
    4
 10
126.36578106346087
 20
68.844188280930808
 11
126.59657387744761
 21
67.615679153161636
  0
LINE
  8
_1-8_小物
  6
CONTINUOUS
 62
    4
 10
128.0000000043666
 20
70.166666685300186
 11
127.58132022985569
 21
67.626676053267289
  0
LINE
  8
_1-8_小物
  6
CONTINUOUS
 62
    4
 10
127.33333333769997
 20
71.333333351966871
 11
124.66666667103328
 21
71.333333351966871
  0
ARC
  8
_1-8_小物
  6
CONTINUOUS
 62
    4
 10
126.52155656162489
 20
72.074384798762708
 40
0.1666666666666666
 50
267.2805179600324
 51
357.28051796003234
  0
ARC
  8
_1-8_小物
  6
CONTINUOUS
 62
    4
 10
126.68012784555168
 20
71.899998149418849
 40
0.3333333333333333
 50
267.28051796004149
 51
357.28051796003678
  0
LINE
  8
_1-8_小物
  6
CONTINUOUS
 62
    4
 10
127.0130857788223
 20
71.88418278400178
 11
127.0289011442394
 21
72.217140717272343
  0
ARC
  8
_1-8_小物
  6
CONTINUOUS
 62
    4
 10
126.86242217760406
 20
72.225048399980921
 40
0.1666666666666666
 50
357.28051796004212
 51
177.28051796004218
  0
LINE
  8
_1-8_小物
  6
CONTINUOUS
 62
    4
 10
126.68803552826023
 20
72.066477116054159
 11
126.69594321096872
 21
72.232956082689412
  0
LINE
  8
_1-8_小物
  6
CONTINUOUS
 62
    4
 10
124.56666667103326
 20
71.56181482664806
 11
124.56666667103326
 21
71.433333351966894
  0
LINE
  8
_1-8_小物
  6
CONTINUOUS
 62
    4
 10
126.51364887891634
 20
71.907905832127426
 11
124.58248203645036
 21
71.999635465943015
  0
LINE
  8
_1-8_小物
  6
CONTINUOUS
 62
    4
 10
124.23333333769995
 20
71.666677532672395
 11
124.23333333769995
 21
71.333333351966871
  0
ARC
  8
_1-8_小物
  6
CONTINUOUS
 62
    4
 10
124.66666667103328
 20
71.56181482664806
 40
0.0999999999999999
 50
87.280517960044477
 51
180
  0
ARC
  8
_1-8_小物
  6
CONTINUOUS
 62
    4
 10
124.56666667103326
 20
71.666677532672395
 40
0.3333333333333333
 50
87.280517960041692
 51
180
  0
LINE
  8
_1-8_小物
  6
CONTINUOUS
 62
    4
 10
126.66431248013464
 20
71.567040216148285
 11
124.67141128065839
 21
71.661702206629172
  0
LINE
  8
_1-8_小物
  6
CONTINUOUS
 62
    4
 10
126.85718471456846
 20
68.936505406525526
 11
127.05307376615366
 21
67.893788851597748
  0
ENDBLK
  0
BLOCK
  2
-029-_29_
 70
   64
 10
0
 20
0
 30
0
  0
ARC
  8
_1-8_小物
  6
CONTINUOUS
 62
    4
 10
94.933333333333167
 20
87.833333351967042
 40
0.0999999999999999
 50
180
 51
270
  0
LINE
  8
_1-8_小物
  6
CONTINUOUS
 62
    4
 10
94.166666666666629
 20
90.666666685300385
 11
93.707599280045031
 21
90.666666685300413
  0
ARC
  8
_1-8_小物
  6
CONTINUOUS
 62
    4
 10
94.166666666666629
 20
90.500000018633756
 40
0.1666666666666666
 50
0
 51
90
  0
LINE
  8
_1-8_小物
  6
CONTINUOUS
 62
    4
 10
94.166666666666686
 20
91.166666685300385
 11
93.666666666666686
 21
91.166666685300413
  0
ARC
  8
_1-8_小物
  6
CONTINUOUS
 62
    4
 10
94.166666666666629
 20
90.500000018633756
 40
0.6666666666666666
 50
0
 51
90
  0
LINE
  8
_1-8_小物
  6
CONTINUOUS
 62
    4
 10
94.333333333333314
 20
90.500000018633756
 11
94.333333333333144
 21
87.900000018633733
  0
ARC
  8
_1-8_小物
  6
CONTINUOUS
 62
    4
 10
94.833333333333144
 20
87.900000018633705
 40
0.5
 50
179.99999999999673
 51
269.99999999999346
  0
ARC
  8
_1-8_小物
  6
CONTINUOUS
 62
    4
 10
91.207996260122741
 20
90.254644209489186
 40
0.4999999999999946
 50
99.360190801908175
 51
259.36019080190522
  0
LINE
  8
_1-8_小物
  6
CONTINUOUS
 62
    4
 10
93.707599280045031
 20
90.666666685300413
 11
91.394521959637927
 21
90.285390203914773
  0
ARC
  8
_1-8_小物
  6
CONTINUOUS
 62
    4
 10
91.399943308003799
 20
90.252500690494742
 40
0.0333333333333333
 50
99.360190801991195
 51
259.36019080182814
  0
ARC
  8
_1-8_小物
  6
CONTINUOUS
 62
    4
 10
92.390346825094525
 20
89.778149569948596
 40
0.25
 50
259.36019080191221
 51
79.360190801911017
  0
LINE
  8
_1-8_小物
  6
CONTINUOUS
 62
    4
 10
92.344188262297166
 20
89.532447744394773
 11
91.115679134528023
 21
89.763240558381597
  0
LINE
  8
_1-8_小物
  6
CONTINUOUS
 62
    4
 10
93.666666666666686
 20
91.166666685300413
 11
91.126676034633761
 21
90.747986910789677
  0
LINE
  8
_1-8_小物
  6
CONTINUOUS
 62
    4
 10
94.833333333333314
 20
90.500000018633727
 11
94.833333333333144
 21
87.833333351967042
  0
ARC
  8
_1-8_小物
  6
CONTINUOUS
 62
    4
 10
95.574384780129094
 20
89.688223242558621
 40
0.1666666666666666
 50
92.719482039968085
 51
182.71948203995782
  0
ARC
  8
_1-8_小物
  6
CONTINUOUS
 62
    4
 10
95.399998130785264
 20
89.846794526485411
 40
0.3333333333333333
 50
92.71948203995855
 51
182.71948203996317
  0
LINE
  8
_1-8_小物
  6
CONTINUOUS
 62
    4
 10
95.384182765368223
 20
90.179752459756003
 11
95.717140698638786
 21
90.1955678251731
  0
ARC
  8
_1-8_小物
  6
CONTINUOUS
 62
    4
 10
95.725048381347335
 20
90.02908885853779
 40
0.1666666666666666
 50
272.71948203996811
 51
92.719482039968113
  0
LINE
  8
_1-8_小物
  6
CONTINUOUS
 62
    4
 10
95.566477097420602
 20
89.854702209193931
 11
95.732956064055827
 21
89.862609891902423
  0
LINE
  8
_1-8_小物
  6
CONTINUOUS
 62
    4
 10
95.061814808014333
 20
87.733333351967019
 11
94.933333333333167
 21
87.733333351967019
  0
LINE
  8
_1-8_小物
  6
CONTINUOUS
 62
    4
 10
95.407905813493812
 20
89.680315559850044
 11
95.499635447309288
 21
87.749148717384088
  0
LINE
  8
_1-8_小物
  6
CONTINUOUS
 62
    4
 10
95.166677514038668
 20
87.400000018633648
 11
94.833333333333144
 21
87.400000018633705
  0
ARC
  8
_1-8_小物
  6
CONTINUOUS
 62
    4
 10
95.061814808014333
 20
87.833333351967042
 40
0.0999999999999999
 50
270
 51
2.7194820399718083
  0
ARC
  8
_1-8_小物
  6
CONTINUOUS
 62
    4
 10
95.166677514038724
 20
87.733333351966991
 40
0.3333333333333333
 50
270
 51
2.7194820399636797
  0
LINE
  8
_1-8_小物
  6
CONTINUOUS
 62
    4
 10
95.0670401975147
 20
89.830979161068399
 11
95.161702187995502
 21
87.838077961592091
  0
LINE
  8
_1-8_小物
  6
CONTINUOUS
 62
    4
 10
92.436505387891941
 20
90.023851395502362
 11
91.393788832964162
 21
90.219740447087617
  0
ENDBLK
  0
BLOCK
  2
-030-_30_
 70
   64
 10
0
 20
0
 30
0
  0
LINE
  8
_1-8_小物
  6
CONTINUOUS
 62
    4
 10
112.8333333355165
 20
76.000000018633557
 11
114.8333333355165
 21
76.000000018633557
  0
LINE
  8
_1-8_小物
  6
CONTINUOUS
 62
    4
 10
114.83333333551639
 20
76.000000018633557
 11
114.83333333551639
 21
75.933333351966894
  0
LINE
  8
_1-8_小物
  6
CONTINUOUS
 62
    4
 10
112.83333333551661
 20
75.933333351966894
 11
113.33333333551661
 21
75.433333351966894
  0
LINE
  8
_1-8_小物
  6
CONTINUOUS
 62
    4
 10
113.33333333551661
 20
75.433333351966894
 11
114.33333333551639
 21
75.433333351966894
  0
LINE
  8
_1-8_小物
  6
CONTINUOUS
 62
    4
 10
114.83333333551639
 20
75.933333351966894
 11
114.33333333551639
 21
75.433333351966894
  0
LINE
  8
_1-8_小物
  6
CONTINUOUS
 62
    4
 10
112.83333333551661
 20
75.933333351966894
 11
112.83333333551661
 21
76.000000018633557
  0
LINE
  8
_1-8_小物
  6
CONTINUOUS
 62
    4
 10
114.83333333551639
 20
75.933333351966894
 11
112.83333333551661
 21
75.933333351966894
  0
LINE
  8
_1-8_小物
  6
CONTINUOUS
 62
    4
 10
114.33333333551639
 20
72.36908667379123
 11
114.5208333355165
 21
72.260833351966937
  0
LINE
  8
_1-8_小物
  6
CONTINUOUS
 62
    4
 10
114.5208333355165
 20
72.260833351966937
 11
114.3333333355165
 21
72.152580030142673
  0
LINE
  8
_1-8_小物
  6
CONTINUOUS
 62
    4
 10
114.33333333551639
 20
72.36908667379123
 11
113.3333333355165
 21
72.134086673791245
  0
LINE
  8
_1-8_小物
  6
CONTINUOUS
 62
    4
 10
113.1458333355165
 20
72.02583335196698
 11
113.3333333355165
 21
72.134086673791245
  0
LINE
  8
_1-8_小物
  6
CONTINUOUS
 62
    4
 10
113.33333333551661
 20
71.917580030142688
 11
113.1458333355165
 21
72.02583335196698
  0
LINE
  8
_1-8_小物
  6
CONTINUOUS
 62
    4
 10
114.3333333355165
 20
72.152580030142673
 11
113.33333333551661
 21
71.917580030142688
  0
LINE
  8
_1-8_小物
  6
CONTINUOUS
 62
    4
 10
114.5208333355165
 20
72.260833351966937
 11
113.1458333355165
 21
72.02583335196698
  0
LINE
  8
_1-8_小物
  6
CONTINUOUS
 62
    4
 10
114.33333333551639
 20
72.839086673791201
 11
114.5208333355165
 21
72.730833351966936
  0
LINE
  8
_1-8_小物
  6
CONTINUOUS
 62
    4
 10
114.5208333355165
 20
72.730833351966936
 11
114.3333333355165
 21
72.622580030142672
  0
LINE
  8
_1-8_小物
  6
CONTINUOUS
 62
    4
 10
114.33333333551639
 20
72.839086673791201
 11
113.3333333355165
 21
72.604086673791244
  0
LINE
  8
_1-8_小物
  6
CONTINUOUS
 62
    4
 10
113.1458333355165
 20
72.495833351966951
 11
113.3333333355165
 21
72.604086673791244
  0
LINE
  8
_1-8_小物
  6
CONTINUOUS
 62
    4
 10
113.33333333551661
 20
72.387580030142686
 11
113.1458333355165
 21
72.495833351966951
  0
LINE
  8
_1-8_小物
  6
CONTINUOUS
 62
    4
 10
114.3333333355165
 20
72.622580030142672
 11
113.33333333551661
 21
72.387580030142686
  0
LINE
  8
_1-8_小物
  6
CONTINUOUS
 62
    4
 10
114.5208333355165
 20
72.730833351966936
 11
113.1458333355165
 21
72.495833351966951
  0
LINE
  8
_1-8_小物
  6
CONTINUOUS
 62
    4
 10
114.33333333551639
 20
73.309086673791199
 11
114.5208333355165
 21
73.200833351966935
  0
LINE
  8
_1-8_小物
  6
CONTINUOUS
 62
    4
 10
114.5208333355165
 20
73.200833351966935
 11
114.3333333355165
 21
73.092580030142642
  0
LINE
  8
_1-8_小物
  6
CONTINUOUS
 62
    4
 10
114.33333333551639
 20
73.309086673791199
 11
113.3333333355165
 21
73.074086673791214
  0
LINE
  8
_1-8_小物
  6
CONTINUOUS
 62
    4
 10
113.1458333355165
 20
72.96583335196695
 11
113.3333333355165
 21
73.074086673791214
  0
LINE
  8
_1-8_小物
  6
CONTINUOUS
 62
    4
 10
113.33333333551661
 20
72.857580030142685
 11
113.1458333355165
 21
72.96583335196695
  0
LINE
  8
_1-8_小物
  6
CONTINUOUS
 62
    4
 10
114.3333333355165
 20
73.092580030142642
 11
113.33333333551661
 21
72.857580030142685
  0
LINE
  8
_1-8_小物
  6
CONTINUOUS
 62
    4
 10
114.5208333355165
 20
73.200833351966935
 11
113.1458333355165
 21
72.96583335196695
  0
LINE
  8
_1-8_小物
  6
CONTINUOUS
 62
    4
 10
114.33333333551639
 20
73.779086673791198
 11
114.5208333355165
 21
73.670833351966905
  0
LINE
  8
_1-8_小物
  6
CONTINUOUS
 62
    4
 10
114.5208333355165
 20
73.670833351966905
 11
114.3333333355165
 21
73.562580030142641
  0
LINE
  8
_1-8_小物
  6
CONTINUOUS
 62
    4
 10
114.33333333551639
 20
73.779086673791198
 11
113.3333333355165
 21
73.544086673791213
  0
LINE
  8
_1-8_小物
  6
CONTINUOUS
 62
    4
 10
113.1458333355165
 20
73.435833351966949
 11
113.3333333355165
 21
73.544086673791213
  0
LINE
  8
_1-8_小物
  6
CONTINUOUS
 62
    4
 10
113.33333333551661
 20
73.327580030142656
 11
113.1458333355165
 21
73.435833351966949
  0
LINE
  8
_1-8_小物
  6
CONTINUOUS
 62
    4
 10
114.3333333355165
 20
73.562580030142641
 11
113.33333333551661
 21
73.327580030142656
  0
LINE
  8
_1-8_小物
  6
CONTINUOUS
 62
    4
 10
114.5208333355165
 20
73.670833351966905
 11
113.1458333355165
 21
73.435833351966949
  0
LINE
  8
_1-8_小物
  6
CONTINUOUS
 62
    4
 10
114.33333333551639
 20
74.249086673791169
 11
114.5208333355165
 21
74.140833351966904
  0
LINE
  8
_1-8_小物
  6
CONTINUOUS
 62
    4
 10
114.5208333355165
 20
74.140833351966904
 11
114.3333333355165
 21
74.03258003014264
  0
LINE
  8
_1-8_小物
  6
CONTINUOUS
 62
    4
 10
114.33333333551639
 20
74.249086673791169
 11
113.3333333355165
 21
74.014086673791212
  0
LINE
  8
_1-8_小物
  6
CONTINUOUS
 62
    4
 10
113.1458333355165
 20
73.905833351966919
 11
113.3333333355165
 21
74.014086673791212
  0
LINE
  8
_1-8_小物
  6
CONTINUOUS
 62
    4
 10
113.33333333551661
 20
73.797580030142655
 11
113.1458333355165
 21
73.905833351966919
  0
LINE
  8
_1-8_小物
  6
CONTINUOUS
 62
    4
 10
114.3333333355165
 20
74.03258003014264
 11
113.33333333551661
 21
73.797580030142655
  0
LINE
  8
_1-8_小物
  6
CONTINUOUS
 62
    4
 10
114.5208333355165
 20
74.140833351966904
 11
113.1458333355165
 21
73.905833351966919
  0
LINE
  8
_1-8_小物
  6
CONTINUOUS
 62
    4
 10
114.33333333551639
 20
74.719086673791168
 11
114.5208333355165
 21
74.610833351966903
  0
LINE
  8
_1-8_小物
  6
CONTINUOUS
 62
    4
 10
114.5208333355165
 20
74.610833351966903
 11
114.3333333355165
 21
74.50258003014261
  0
LINE
  8
_1-8_小物
  6
CONTINUOUS
 62
    4
 10
114.33333333551639
 20
74.719086673791168
 11
113.3333333355165
 21
74.484086673791182
  0
LINE
  8
_1-8_小物
  6
CONTINUOUS
 62
    4
 10
113.1458333355165
 20
74.375833351966918
 11
113.3333333355165
 21
74.484086673791182
  0
LINE
  8
_1-8_小物
  6
CONTINUOUS
 62
    4
 10
113.33333333551661
 20
74.267580030142653
 11
113.1458333355165
 21
74.375833351966918
  0
LINE
  8
_1-8_小物
  6
CONTINUOUS
 62
    4
 10
114.3333333355165
 20
74.50258003014261
 11
113.33333333551661
 21
74.267580030142653
  0
LINE
  8
_1-8_小物
  6
CONTINUOUS
 62
    4
 10
114.5208333355165
 20
74.610833351966903
 11
113.1458333355165
 21
74.375833351966918
  0
LINE
  8
_1-8_小物
  6
CONTINUOUS
 62
    4
 10
114.33333333551639
 20
75.189086673791167
 11
114.5208333355165
 21
75.080833351966874
  0
LINE
  8
_1-8_小物
  6
CONTINUOUS
 62
    4
 10
114.5208333355165
 20
75.080833351966874
 11
114.3333333355165
 21
74.972580030142609
  0
LINE
  8
_1-8_小物
  6
CONTINUOUS
 62
    4
 10
114.33333333551639
 20
75.189086673791167
 11
113.3333333355165
 21
74.954086673791181
  0
LINE
  8
_1-8_小物
  6
CONTINUOUS
 62
    4
 10
113.1458333355165
 20
74.845833351966917
 11
113.3333333355165
 21
74.954086673791181
  0
LINE
  8
_1-8_小物
  6
CONTINUOUS
 62
    4
 10
113.33333333551661
 20
74.737580030142624
 11
113.1458333355165
 21
74.845833351966917
  0
LINE
  8
_1-8_小物
  6
CONTINUOUS
 62
    4
 10
114.3333333355165
 20
74.972580030142609
 11
113.33333333551661
 21
74.737580030142624
  0
LINE
  8
_1-8_小物
  6
CONTINUOUS
 62
    4
 10
114.5208333355165
 20
75.080833351966874
 11
113.1458333355165
 21
74.845833351966917
  0
LINE
  8
_1-8_小物
  6
CONTINUOUS
 62
    4
 10
113.33333333551661
 20
71.917580030142688
 11
113.33333333551661
 21
71.664086673791246
  0
LINE
  8
_1-8_小物
  6
CONTINUOUS
 62
    4
 10
113.33333333551661
 20
72.387580030142686
 11
113.33333333551661
 21
72.134086673791245
  0
LINE
  8
_1-8_小物
  6
CONTINUOUS
 62
    4
 10
113.33333333551661
 20
72.857580030142685
 11
113.33333333551661
 21
72.604086673791272
  0
LINE
  8
_1-8_小物
  6
CONTINUOUS
 62
    4
 10
113.33333333551661
 20
73.327580030142656
 11
113.33333333551661
 21
73.074086673791214
  0
LINE
  8
_1-8_小物
  6
CONTINUOUS
 62
    4
 10
113.33333333551661
 20
73.797580030142655
 11
113.33333333551661
 21
73.544086673791213
  0
LINE
  8
_1-8_小物
  6
CONTINUOUS
 62
    4
 10
113.33333333551661
 20
74.267580030142653
 11
113.33333333551661
 21
74.014086673791212
  0
LINE
  8
_1-8_小物
  6
CONTINUOUS
 62
    4
 10
113.33333333551661
 20
75.433333351966894
 11
113.33333333551661
 21
74.954086673791181
  0
LINE
  8
_1-8_小物
  6
CONTINUOUS
 62
    4
 10
113.33333333551661
 20
74.737580030142624
 11
113.33333333551661
 21
74.484086673791239
  0
LINE
  8
_1-8_小物
  6
CONTINUOUS
 62
    4
 10
114.33333333551639
 20
75.433333351966894
 11
114.33333333551639
 21
75.189086673791167
  0
LINE
  8
_1-8_小物
  6
CONTINUOUS
 62
    4
 10
114.33333333551639
 20
74.972580030142581
 11
114.33333333551639
 21
74.719086673791168
  0
LINE
  8
_1-8_小物
  6
CONTINUOUS
 62
    4
 10
114.33333333551639
 20
74.50258003014261
 11
114.33333333551639
 21
74.249086673791169
  0
LINE
  8
_1-8_小物
  6
CONTINUOUS
 62
    4
 10
114.33333333551639
 20
74.032580030142583
 11
114.33333333551639
 21
73.779086673791198
  0
LINE
  8
_1-8_小物
  6
CONTINUOUS
 62
    4
 10
114.33333333551639
 20
73.562580030142641
 11
114.33333333551639
 21
73.309086673791199
  0
LINE
  8
_1-8_小物
  6
CONTINUOUS
 62
    4
 10
114.33333333551639
 20
73.092580030142642
 11
114.33333333551639
 21
72.839086673791201
  0
LINE
  8
_1-8_小物
  6
CONTINUOUS
 62
    4
 10
114.33333333551639
 20
72.622580030142615
 11
114.33333333551639
 21
72.36908667379123
  0
LINE
  8
_1-8_小物
  6
CONTINUOUS
 62
    4
 10
114.40000000218311
 20
71.660000018633582
 11
114.40000000218311
 21
70.663333351966912
  0
LINE
  8
_1-8_小物
  6
CONTINUOUS
 62
    4
 10
113.26666666884989
 20
71.660000018633582
 11
114.40000000218311
 21
71.660000018633582
  0
LINE
  8
_1-8_小物
  6
CONTINUOUS
 62
    4
 10
113.26666666884989
 20
71.660000018633582
 11
113.26666666884989
 21
70.663333351966912
  0
LINE
  8
_1-8_小物
  6
CONTINUOUS
 62
    4
 10
113.26666666884989
 20
70.663333351966912
 11
113.8333333355165
 21
70.336168199426197
  0
LINE
  8
_1-8_小物
  6
CONTINUOUS
 62
    4
 10
114.40000000218311
 20
70.663333351966912
 11
113.8333333355165
 21
70.336168199426197
  0
LINE
  8
_1-8_小物
  6
CONTINUOUS
 62
    4
 10
113.8333333355165
 20
70.451638253264093
 11
114.3000000021832
 21
70.721068378885889
  0
LINE
  8
_1-8_小物
  6
CONTINUOUS
 62
    4
 10
114.3000000021832
 20
71.660000018633582
 11
114.3000000021832
 21
70.721068378885889
  0
LINE
  8
_1-8_小物
  6
CONTINUOUS
 62
    4
 10
113.8333333355165
 20
70.451638253264093
 11
114.04640011720767
 21
71.660000018633582
  0
LINE
  8
_1-8_小物
  6
CONTINUOUS
 62
    4
 10
114.33333333551639
 20
72.152580030142644
 11
114.33333333551639
 21
71.660000018633582
  0
LINE
  8
_1-8_小物
  6
CONTINUOUS
 62
    4
 10
113.8333333355165
 20
70.336168199426197
 11
113.8333333355165
 21
70.451638253264093
  0
LINE
  8
_1-8_小物
  6
CENTER2
 62
    4
 10
113.8333333355165
 20
76.3333333519669
 11
113.8333333355165
 21
70.002834866092854
  0
ENDBLK
  0
BLOCK
  2
-031-_31_
 70
   64
 10
0
 20
0
 30
0
  0
LINE
  8
_1-8_小物
  6
CONTINUOUS
 62
    4
 10
-100.9996664426927
 20
75.999999999999943
 11
-98.9996664426927
 21
75.999999999999943
  0
LINE
  8
_1-8_小物
  6
CONTINUOUS
 62
    4
 10
-98.999666442692813
 20
75.999999999999943
 11
-98.999666442692813
 21
75.93333333333328
  0
LINE
  8
_1-8_小物
  6
CONTINUOUS
 62
    4
 10
-100.99966644269259
 20
75.93333333333328
 11
-100.49966644269259
 21
75.43333333333328
  0
LINE
  8
_1-8_小物
  6
CONTINUOUS
 62
    4
 10
-100.49966644269259
 20
75.43333333333328
 11
-99.499666442692813
 21
75.43333333333328
  0
LINE
  8
_1-8_小物
  6
CONTINUOUS
 62
    4
 10
-98.999666442692813
 20
75.93333333333328
 11
-99.499666442692813
 21
75.43333333333328
  0
LINE
  8
_1-8_小物
  6
CONTINUOUS
 62
    4
 10
-100.99966644269259
 20
75.93333333333328
 11
-100.99966644269259
 21
75.999999999999943
  0
LINE
  8
_1-8_小物
  6
CONTINUOUS
 62
    4
 10
-98.999666442692813
 20
75.93333333333328
 11
-100.99966644269259
 21
75.93333333333328
  0
LINE
  8
_1-8_小物
  6
CONTINUOUS
 62
    4
 10
-99.499666442692813
 20
72.369086655157616
 11
-99.3121664426927
 21
72.260833333333323
  0
LINE
  8
_1-8_小物
  6
CONTINUOUS
 62
    4
 10
-99.3121664426927
 20
72.260833333333323
 11
-99.499666442692757
 21
72.152580011509059
  0
LINE
  8
_1-8_小物
  6
CONTINUOUS
 62
    4
 10
-99.499666442692813
 20
72.369086655157616
 11
-100.49966644269264
 21
72.134086655157631
  0
LINE
  8
_1-8_小物
  6
CONTINUOUS
 62
    4
 10
-100.6871664426927
 20
72.025833333333367
 11
-100.49966644269264
 21
72.134086655157631
  0
LINE
  8
_1-8_小物
  6
CONTINUOUS
 62
    4
 10
-100.49966644269261
 20
71.917580011509074
 11
-100.6871664426927
 21
72.025833333333367
  0
LINE
  8
_1-8_小物
  6
CONTINUOUS
 62
    4
 10
-99.499666442692757
 20
72.152580011509059
 11
-100.49966644269261
 21
71.917580011509074
  0
LINE
  8
_1-8_小物
  6
CONTINUOUS
 62
    4
 10
-99.3121664426927
 20
72.260833333333323
 11
-100.6871664426927
 21
72.025833333333367
  0
LINE
  8
_1-8_小物
  6
CONTINUOUS
 62
    4
 10
-99.499666442692813
 20
72.839086655157587
 11
-99.3121664426927
 21
72.730833333333322
  0
LINE
  8
_1-8_小物
  6
CONTINUOUS
 62
    4
 10
-99.3121664426927
 20
72.730833333333322
 11
-99.499666442692757
 21
72.622580011509058
  0
LINE
  8
_1-8_小物
  6
CONTINUOUS
 62
    4
 10
-99.499666442692813
 20
72.839086655157587
 11
-100.49966644269264
 21
72.60408665515763
  0
LINE
  8
_1-8_小物
  6
CONTINUOUS
 62
    4
 10
-100.6871664426927
 20
72.495833333333337
 11
-100.49966644269264
 21
72.60408665515763
  0
LINE
  8
_1-8_小物
  6
CONTINUOUS
 62
    4
 10
-100.49966644269261
 20
72.387580011509073
 11
-100.6871664426927
 21
72.495833333333337
  0
LINE
  8
_1-8_小物
  6
CONTINUOUS
 62
    4
 10
-99.499666442692757
 20
72.622580011509058
 11
-100.49966644269261
 21
72.387580011509073
  0
LINE
  8
_1-8_小物
  6
CONTINUOUS
 62
    4
 10
-99.3121664426927
 20
72.730833333333322
 11
-100.6871664426927
 21
72.495833333333337
  0
LINE
  8
_1-8_小物
  6
CONTINUOUS
 62
    4
 10
-99.499666442692813
 20
73.309086655157586
 11
-99.3121664426927
 21
73.200833333333321
  0
LINE
  8
_1-8_小物
  6
CONTINUOUS
 62
    4
 10
-99.3121664426927
 20
73.200833333333321
 11
-99.499666442692757
 21
73.092580011509028
  0
LINE
  8
_1-8_小物
  6
CONTINUOUS
 62
    4
 10
-99.499666442692813
 20
73.309086655157586
 11
-100.49966644269264
 21
73.0740866551576
  0
LINE
  8
_1-8_小物
  6
CONTINUOUS
 62
    4
 10
-100.6871664426927
 20
72.965833333333336
 11
-100.49966644269264
 21
73.0740866551576
  0
LINE
  8
_1-8_小物
  6
CONTINUOUS
 62
    4
 10
-100.49966644269261
 20
72.857580011509071
 11
-100.6871664426927
 21
72.965833333333336
  0
LINE
  8
_1-8_小物
  6
CONTINUOUS
 62
    4
 10
-99.499666442692757
 20
73.092580011509028
 11
-100.49966644269261
 21
72.857580011509071
  0
LINE
  8
_1-8_小物
  6
CONTINUOUS
 62
    4
 10
-99.3121664426927
 20
73.200833333333321
 11
-100.6871664426927
 21
72.965833333333336
  0
LINE
  8
_1-8_小物
  6
CONTINUOUS
 62
    4
 10
-99.499666442692813
 20
73.779086655157585
 11
-99.3121664426927
 21
73.670833333333292
  0
LINE
  8
_1-8_小物
  6
CONTINUOUS
 62
    4
 10
-99.3121664426927
 20
73.670833333333292
 11
-99.499666442692757
 21
73.562580011509027
  0
LINE
  8
_1-8_小物
  6
CONTINUOUS
 62
    4
 10
-99.499666442692813
 20
73.779086655157585
 11
-100.49966644269264
 21
73.544086655157599
  0
LINE
  8
_1-8_小物
  6
CONTINUOUS
 62
    4
 10
-100.6871664426927
 20
73.435833333333335
 11
-100.49966644269264
 21
73.544086655157599
  0
LINE
  8
_1-8_小物
  6
CONTINUOUS
 62
    4
 10
-100.49966644269261
 20
73.327580011509042
 11
-100.6871664426927
 21
73.435833333333335
  0
LINE
  8
_1-8_小物
  6
CONTINUOUS
 62
    4
 10
-99.499666442692757
 20
73.562580011509027
 11
-100.49966644269261
 21
73.327580011509042
  0
LINE
  8
_1-8_小物
  6
CONTINUOUS
 62
    4
 10
-99.3121664426927
 20
73.670833333333292
 11
-100.6871664426927
 21
73.435833333333335
  0
LINE
  8
_1-8_小物
  6
CONTINUOUS
 62
    4
 10
-99.499666442692813
 20
74.249086655157555
 11
-99.3121664426927
 21
74.140833333333291
  0
LINE
  8
_1-8_小物
  6
CONTINUOUS
 62
    4
 10
-99.3121664426927
 20
74.140833333333291
 11
-99.499666442692757
 21
74.032580011509026
  0
LINE
  8
_1-8_小物
  6
CONTINUOUS
 62
    4
 10
-99.499666442692813
 20
74.249086655157555
 11
-100.49966644269264
 21
74.014086655157598
  0
LINE
  8
_1-8_小物
  6
CONTINUOUS
 62
    4
 10
-100.6871664426927
 20
73.905833333333305
 11
-100.49966644269264
 21
74.014086655157598
  0
LINE
  8
_1-8_小物
  6
CONTINUOUS
 62
    4
 10
-100.49966644269261
 20
73.797580011509041
 11
-100.6871664426927
 21
73.905833333333305
  0
LINE
  8
_1-8_小物
  6
CONTINUOUS
 62
    4
 10
-99.499666442692757
 20
74.032580011509026
 11
-100.49966644269261
 21
73.797580011509041
  0
LINE
  8
_1-8_小物
  6
CONTINUOUS
 62
    4
 10
-99.3121664426927
 20
74.140833333333291
 11
-100.6871664426927
 21
73.905833333333305
  0
LINE
  8
_1-8_小物
  6
CONTINUOUS
 62
    4
 10
-99.499666442692813
 20
74.719086655157554
 11
-99.3121664426927
 21
74.610833333333289
  0
LINE
  8
_1-8_小物
  6
CONTINUOUS
 62
    4
 10
-99.3121664426927
 20
74.610833333333289
 11
-99.499666442692757
 21
74.502580011508996
  0
LINE
  8
_1-8_小物
  6
CONTINUOUS
 62
    4
 10
-99.499666442692813
 20
74.719086655157554
 11
-100.49966644269264
 21
74.484086655157569
  0
LINE
  8
_1-8_小物
  6
CONTINUOUS
 62
    4
 10
-100.6871664426927
 20
74.375833333333304
 11
-100.49966644269264
 21
74.484086655157569
  0
LINE
  8
_1-8_小物
  6
CONTINUOUS
 62
    4
 10
-100.49966644269261
 20
74.26758001150904
 11
-100.6871664426927
 21
74.375833333333304
  0
LINE
  8
_1-8_小物
  6
CONTINUOUS
 62
    4
 10
-99.499666442692757
 20
74.502580011508996
 11
-100.49966644269261
 21
74.26758001150904
  0
LINE
  8
_1-8_小物
  6
CONTINUOUS
 62
    4
 10
-99.3121664426927
 20
74.610833333333289
 11
-100.6871664426927
 21
74.375833333333304
  0
LINE
  8
_1-8_小物
  6
CONTINUOUS
 62
    4
 10
-99.499666442692813
 20
75.189086655157553
 11
-99.3121664426927
 21
75.08083333333326
  0
LINE
  8
_1-8_小物
  6
CONTINUOUS
 62
    4
 10
-99.3121664426927
 20
75.08083333333326
 11
-99.499666442692757
 21
74.972580011508995
  0
LINE
  8
_1-8_小物
  6
CONTINUOUS
 62
    4
 10
-99.499666442692813
 20
75.189086655157553
 11
-100.49966644269264
 21
74.954086655157568
  0
LINE
  8
_1-8_小物
  6
CONTINUOUS
 62
    4
 10
-100.6871664426927
 20
74.845833333333303
 11
-100.49966644269264
 21
74.954086655157568
  0
LINE
  8
_1-8_小物
  6
CONTINUOUS
 62
    4
 10
-100.49966644269261
 20
74.73758001150901
 11
-100.6871664426927
 21
74.845833333333303
  0
LINE
  8
_1-8_小物
  6
CONTINUOUS
 62
    4
 10
-99.499666442692757
 20
74.972580011508995
 11
-100.49966644269261
 21
74.73758001150901
  0
LINE
  8
_1-8_小物
  6
CONTINUOUS
 62
    4
 10
-99.3121664426927
 20
75.08083333333326
 11
-100.6871664426927
 21
74.845833333333303
  0
LINE
  8
_1-8_小物
  6
CONTINUOUS
 62
    4
 10
-100.49966644269259
 20
71.917580011509074
 11
-100.49966644269259
 21
71.664086655157632
  0
LINE
  8
_1-8_小物
  6
CONTINUOUS
 62
    4
 10
-100.49966644269259
 20
72.387580011509073
 11
-100.49966644269259
 21
72.134086655157631
  0
LINE
  8
_1-8_小物
  6
CONTINUOUS
 62
    4
 10
-100.49966644269259
 20
72.857580011509071
 11
-100.49966644269259
 21
72.604086655157658
  0
LINE
  8
_1-8_小物
  6
CONTINUOUS
 62
    4
 10
-100.49966644269259
 20
73.327580011509042
 11
-100.49966644269259
 21
73.0740866551576
  0
LINE
  8
_1-8_小物
  6
CONTINUOUS
 62
    4
 10
-100.49966644269259
 20
73.797580011509041
 11
-100.49966644269259
 21
73.544086655157599
  0
LINE
  8
_1-8_小物
  6
CONTINUOUS
 62
    4
 10
-100.49966644269259
 20
74.26758001150904
 11
-100.49966644269259
 21
74.014086655157598
  0
LINE
  8
_1-8_小物
  6
CONTINUOUS
 62
    4
 10
-100.49966644269259
 20
75.43333333333328
 11
-100.49966644269259
 21
74.954086655157568
  0
LINE
  8
_1-8_小物
  6
CONTINUOUS
 62
    4
 10
-100.49966644269259
 20
74.73758001150901
 11
-100.49966644269259
 21
74.484086655157626
  0
LINE
  8
_1-8_小物
  6
CONTINUOUS
 62
    4
 10
-99.499666442692813
 20
75.43333333333328
 11
-99.499666442692813
 21
75.189086655157553
  0
LINE
  8
_1-8_小物
  6
CONTINUOUS
 62
    4
 10
-99.499666442692813
 20
74.972580011508967
 11
-99.499666442692813
 21
74.719086655157554
  0
LINE
  8
_1-8_小物
  6
CONTINUOUS
 62
    4
 10
-99.499666442692813
 20
74.502580011508996
 11
-99.499666442692813
 21
74.249086655157555
  0
LINE
  8
_1-8_小物
  6
CONTINUOUS
 62
    4
 10
-99.499666442692813
 20
74.032580011508969
 11
-99.499666442692813
 21
73.779086655157585
  0
LINE
  8
_1-8_小物
  6
CONTINUOUS
 62
    4
 10
-99.499666442692813
 20
73.562580011509027
 11
-99.499666442692813
 21
73.309086655157586
  0
LINE
  8
_1-8_小物
  6
CONTINUOUS
 62
    4
 10
-99.499666442692813
 20
73.092580011509028
 11
-99.499666442692813
 21
72.839086655157587
  0
LINE
  8
_1-8_小物
  6
CONTINUOUS
 62
    4
 10
-99.499666442692813
 20
72.622580011509001
 11
-99.499666442692813
 21
72.369086655157616
  0
LINE
  8
_1-8_小物
  6
CONTINUOUS
 62
    4
 10
-99.432999776026151
 20
71.659999999999968
 11
-99.432999776026151
 21
70.663333333333298
  0
LINE
  8
_1-8_小物
  6
CONTINUOUS
 62
    4
 10
-100.56633310935925
 20
71.659999999999968
 11
-99.432999776026151
 21
71.659999999999968
  0
LINE
  8
_1-8_小物
  6
CONTINUOUS
 62
    4
 10
-100.56633310935925
 20
71.659999999999968
 11
-100.56633310935925
 21
70.663333333333298
  0
LINE
  8
_1-8_小物
  6
CONTINUOUS
 62
    4
 10
-100.56633310935925
 20
70.663333333333298
 11
-99.9996664426927
 21
70.336168180792583
  0
LINE
  8
_1-8_小物
  6
CONTINUOUS
 62
    4
 10
-99.432999776026151
 20
70.663333333333298
 11
-99.9996664426927
 21
70.336168180792583
  0
LINE
  8
_1-8_小物
  6
CONTINUOUS
 62
    4
 10
-99.9996664426927
 20
70.451638234630479
 11
-99.53299977602606
 21
70.721068360252275
  0
LINE
  8
_1-8_小物
  6
CONTINUOUS
 62
    4
 10
-99.53299977602606
 20
71.659999999999968
 11
-99.53299977602606
 21
70.721068360252275
  0
LINE
  8
_1-8_小物
  6
CONTINUOUS
 62
    4
 10
-99.9996664426927
 20
70.451638234630479
 11
-99.78659966100156
 21
71.659999999999968
  0
LINE
  8
_1-8_小物
  6
CONTINUOUS
 62
    4
 10
-99.499666442692813
 20
72.152580011509031
 11
-99.499666442692813
 21
71.659999999999968
  0
LINE
  8
_1-8_小物
  6
CONTINUOUS
 62
    4
 10
-99.9996664426927
 20
70.336168180792583
 11
-99.9996664426927
 21
70.451638234630479
  0
LINE
  8
_1-8_小物
  6
CENTER2
 62
    4
 10
-99.9996664426927
 20
76.333333333333286
 11
-99.9996664426927
 21
70.002834847459241
  0
ENDBLK
  0
ENDSEC
  0
SECTION
  2
ENTITIES
  0
LINE
  8
_0-0_図面枠
  6
CONTINUOUS
 62
    6
 10
410.00000000000006
 20
287
 11
10
 21
287.00000000000006
  0
LINE
  8
_0-0_図面枠
  6
CONTINUOUS
 62
    6
 10
410
 20
9.9999999999998863
 11
410.00000000000006
 21
287
  0
LINE
  8
_0-0_図面枠
  6
CONTINUOUS
 62
    6
 10
9.9999999999999147
 20
10
 11
410
 21
9.9999999999998863
  0
LINE
  8
_0-0_図面枠
  6
CONTINUOUS
 62
    6
 10
10
 20
287.00000000000006
 11
9.9999999999999147
 21
10
  0
LINE
  8
ADD_LINE
  6
DOT
 62
    4
 10
0
 20
148.5
 11
420
 21
148.5
  0
LINE
  8
_0-0_図面枠
  6
CONTINUOUS
 62
    6
 10
210
 20
287
 11
210.00000000000003
 21
9.9999999999999432
  0
LINE
  8
_1-0_躯体
  6
CONTINUOUS
 62
    6
 10
118.33333333333333
 20
216.66666666666666
 11
141.66666666666663
 21
216.66666666666666
  0
LINE
  8
_1-0_躯体
  6
CONTINUOUS
 62
    6
 10
78.333333333333314
 20
216.66666666666666
 11
101.66666666666666
 21
216.66666666666666
  0
LINE
  8
_1-0_躯体
  6
CONTINUOUS
 62
    6
 10
101.66666666666666
 20
216.66666666666666
 11
101.66666666666666
 21
193.33333333333331
  0
LINE
  8
_1-0_躯体
  6
CONTINUOUS
 62
    6
 10
118.33333333333333
 20
216.66666666666666
 11
118.33333333333333
 21
193.33333333333331
  0
LINE
  8
_1-0_躯体
  6
CONTINUOUS
 62
    6
 10
318.33333333333326
 20
216.66666666666666
 11
341.66666666666663
 21
216.66666666666666
  0
LINE
  8
_1-0_躯体
  6
CONTINUOUS
 62
    6
 10
318.33333333333326
 20
216.66666666666666
 11
318.33333333333326
 21
193.33333333333329
  0
LINE
  8
_1-0_躯体
  6
CONTINUOUS
 62
    6
 10
301.66666666666663
 20
241.66666666666666
 11
301.66666666666663
 21
193.33333333333329
  0
INSERT
  2
-000-
  8
_1-8_小物
 10
210
 20
148.5
 41
1
 42
1
 50
0
  0
INSERT
  2
-001-_1_
  8
_1-8_小物
 10
210
 20
148.5
 41
1
 42
1
 50
0
  0
INSERT
  2
-002-_2_
  8
_1-8_小物
 10
210
 20
148.5
 41
1
 42
1
 50
0
  0
LINE
  8
_1-0_躯体
  6
CENTER2
 62
    4
 10
90
 20
219.79724203365018
 11
90
 21
200
  0
LINE
  8
_1-0_躯体
  6
CENTER2
 62
    4
 10
130
 20
219.79724203365026
 11
130
 21
200
  0
LINE
  8
_1-0_躯体
  6
CENTER2
 62
    4
 10
330
 20
219.79724203365018
 11
330
 21
200
  0
LINE
  8
_1-f_寸法
  6
CONTINUOUS
 62
    4
 10
285
 20
216.66666666666666
 11
317.5
 21
216.66666666666666
  0
LINE
  8
_1-f_寸法
  6
CONTINUOUS
 62
    4
 10
138.33333333333331
 20
226.66666666666666
 11
138.33333333333331
 21
233.26666666666665
  0
LINE
  8
_1-f_寸法
  6
CONTINUOUS
 62
    4
 10
81.666666666666657
 20
226.66666666666666
 11
81.666666666666657
 21
233.26666666666665
  0
POINT
  8
_1-f_寸法
 62
    4
 10
81.666666666666657
 20
231.66666666666666
  0
POINT
  8
_1-f_寸法
 62
    4
 10
138.33333333333331
 20
231.66666666666666
  0
LINE
  8
_1-f_寸法
  6
CONTINUOUS
 62
    4
 10
81.666666666666657
 20
231.66666666666666
 11
138.33333333333331
 21
231.66666666666666
  0
TEXT
  8
_1-f_寸法
 62
    4
 10
107.59999999999998
 20
231.66666666666666
 40
3.2000000000000002
 41
1
 50
0
  1
170
  0
CIRCLE
  8
_1-f_寸法
  6
CONTINUOUS
 62
    4
 10
103.33333333333333
 20
228.33333333333331
 40
1.6666666666666665
  0
TEXT
  8
_1-f_寸法
 62
    4
 10
102.70833333333333
 20
227.08333333333331
 40
2.5
 41
1
 50
0
  1
4
  0
CIRCLE
  8
_1-f_寸法
  6
CONTINUOUS
 62
    4
 10
93.333333333333329
 20
228.33333333333331
 40
1.6666666666666665
  0
TEXT
  8
_1-f_寸法
 62
    4
 10
92.708333333333329
 20
227.08333333333331
 40
2.5
 41
1
 50
0
  1
3
  0
CIRCLE
  8
_1-f_寸法
  6
CONTINUOUS
 62
    4
 10
130
 20
228.33333333333331
 40
1.6666666666666665
  0
TEXT
  8
_1-f_寸法
 62
    4
 10
129.375
 20
227.08333333333331
 40
2.5
 41
1
 50
0
  1
5
  0
CIRCLE
  8
_1-f_寸法
  6
CONTINUOUS
 62
    4
 10
125
 20
228.33333333333331
 40
1.6666666666666665
  0
TEXT
  8
_1-f_寸法
 62
    4
 10
124.375
 20
227.08333333333331
 40
2.5
 41
1
 50
0
  1
2
  0
CIRCLE
  8
_1-f_寸法
  6
CONTINUOUS
 62
    4
 10
118.33333333333333
 20
228.33333333333331
 40
1.6666666666666665
  0
TEXT
  8
_1-f_寸法
 62
    4
 10
117.70833333333333
 20
227.08333333333331
 40
2.5
 41
1
 50
0
  1
1
  0
CIRCLE
  8
_1-f_寸法
  6
CONTINUOUS
 62
    4
 10
113.33333333333333
 20
228.33333333333331
 40
1.6666666666666665
  0
LINE
  8
_1-f_寸法
  6
CONTINUOUS
 62
    4
 10
94.166666666666657
 20
226.88995766035924
 11
95.844806995859543
 21
223.98333334796681
  0
LINE
  8
_1-f_寸法
  6
CONTINUOUS
 62
    4
 10
102.5
 20
226.88995766035924
 11
96.934946354242655
 21
217.25100199906115
  0
LINE
  8
_1-f_寸法
  6
CONTINUOUS
 62
    4
 10
124.16666666666666
 20
226.88995766035924
 11
122.03626719638737
 21
223.19999753741769
  0
CIRCLE
  8
_1-f_寸法
  6
CONTINUOUS
 62
    4
 10
141.66666666666666
 20
221.66666666666666
 40
1.6666666666666665
  0
CIRCLE
  8
_1-f_寸法
  6
CONTINUOUS
 62
    4
 10
141.66666666666666
 20
221.66666666666666
 40
1.6666666666666665
  0
CIRCLE
  8
_1-f_寸法
  6
CONTINUOUS
 62
    4
 10
123.33333333333333
 20
211.66666666666666
 40
1.6666666666666665
  0
CIRCLE
  8
_1-f_寸法
  6
CONTINUOUS
 62
    4
 10
136.66666666666666
 20
205
 40
1.6666666666666665
  0
CIRCLE
  8
_1-f_寸法
  6
CONTINUOUS
 62
    4
 10
136.66666666666666
 20
211.66666666666666
 40
1.6666666666666665
  0
LINE
  8
_1-f_寸法
  6
CONTINUOUS
 62
    4
 10
124.35343990164939
 20
212.98468046289804
 11
128.04166666666669
 21
217.75
  0
LINE
  8
_1-f_寸法
  6
CONTINUOUS
 62
    4
 10
135.50555761477466
 20
212.86232696432324
 11
130
 21
218.53171404361672
  0
LINE
  8
_1-f_寸法
  6
CONTINUOUS
 62
    4
 10
135.70179680153262
 20
206.35897164103375
 11
130.74999999999983
 21
213.33333333333326
  0
LINE
  8
_1-f_寸法
  6
CONTINUOUS
 62
    4
 10
101.66666666666666
 20
201.66666666666666
 11
101.66666666666666
 21
195.06666666666666
  0
LINE
  8
_1-f_寸法
  6
CONTINUOUS
 62
    4
 10
90
 20
201.66666666666666
 11
90
 21
195.06666666666666
  0
POINT
  8
_1-f_寸法
 62
    4
 10
90
 20
196.66666666666666
  0
POINT
  8
_1-f_寸法
 62
    4
 10
101.66666666666666
 20
196.66666666666666
  0
LINE
  8
_1-f_寸法
  6
CONTINUOUS
 62
    4
 10
90
 20
196.66666666666666
 11
101.66666666666666
 21
196.66666666666666
  0
TEXT
  8
_1-f_寸法
 62
    4
 10
94.23333333333332
 20
196.66666666666666
 40
3.2000000000000002
 41
1
 50
0
  1
35
  0
LINE
  8
_1-f_寸法
  6
CONTINUOUS
 62
    4
 10
118.33333333333333
 20
201.66666666666666
 11
118.33333333333333
 21
195.06666666666666
  0
LINE
  8
_1-f_寸法
  6
CONTINUOUS
 62
    4
 10
130
 20
201.66666666666666
 11
130
 21
195.06666666666666
  0
POINT
  8
_1-f_寸法
 62
    4
 10
130
 20
196.66666666666666
  0
POINT
  8
_1-f_寸法
 62
    4
 10
118.33333333333333
 20
196.66666666666666
  0
LINE
  8
_1-f_寸法
  6
CONTINUOUS
 62
    4
 10
130
 20
196.66666666666666
 11
118.33333333333333
 21
196.66666666666666
  0
TEXT
  8
_1-f_寸法
 62
    4
 10
122.56666666666666
 20
196.66666666666666
 40
3.2000000000000002
 41
1
 50
0
  1
35
  0
LINE
  8
_1-f_寸法
  6
CONTINUOUS
 62
    4
 10
318.33333333333326
 20
201.66666666666666
 11
318.33333333333326
 21
195.06666666666666
  0
LINE
  8
_1-f_寸法
  6
CONTINUOUS
 62
    4
 10
329.99999999999989
 20
201.66666666666666
 11
329.99999999999989
 21
195.06666666666666
  0
POINT
  8
_1-f_寸法
 62
    4
 10
329.99999999999989
 20
196.66666666666666
  0
POINT
  8
_1-f_寸法
 62
    4
 10
318.33333333333326
 20
196.66666666666666
  0
LINE
  8
_1-f_寸法
  6
CONTINUOUS
 62
    4
 10
329.99999999999989
 20
196.66666666666666
 11
318.33333333333326
 21
196.66666666666666
  0
TEXT
  8
_1-f_寸法
 62
    4
 10
322.56666666666661
 20
196.66666666666666
 40
3.2000000000000002
 41
1
 50
0
  1
35
  0
CIRCLE
  8
_1-f_寸法
  6
CONTINUOUS
 62
    4
 10
313.33333333333331
 20
235
 40
1.6666666666666665
  0
TEXT
  8
_1-f_寸法
 62
    4
 10
312.70833333333331
 20
233.75
 40
2.5
 41
1
 50
0
  1
3
  0
CIRCLE
  8
_1-f_寸法
  6
CONTINUOUS
 62
    4
 10
330
 20
228.33333333333331
 40
1.6666666666666665
  0
TEXT
  8
_1-f_寸法
 62
    4
 10
329.375
 20
227.08333333333331
 40
2.5
 41
1
 50
0
  1
5
  0
CIRCLE
  8
_1-f_寸法
  6
CONTINUOUS
 62
    4
 10
323.33333333333331
 20
211.66666666666666
 40
1.6666666666666665
  0
CIRCLE
  8
_1-f_寸法
  6
CONTINUOUS
 62
    4
 10
336.66666666666663
 20
205
 40
1.6666666666666665
  0
CIRCLE
  8
_1-f_寸法
  6
CONTINUOUS
 62
    4
 10
315
 20
228.33333333333331
 40
1.6666666666666665
  0
TEXT
  8
_1-f_寸法
 62
    4
 10
314.375
 20
227.08333333333331
 40
2.5
 41
1
 50
0
  1
1
  0
CIRCLE
  8
_1-f_寸法
  6
CONTINUOUS
 62
    4
 10
320
 20
228.33333333333331
 40
1.6666666666666665
  0
CIRCLE
  8
_1-f_寸法
  6
CONTINUOUS
 62
    4
 10
336.66666666666663
 20
211.66666666666666
 40
1.6666666666666665
  0
CIRCLE
  8
_1-f_寸法
  6
CONTINUOUS
 62
    4
 10
341.66666667103311
 20
221.66666666666663
 40
1.6666666666666665
  0
CIRCLE
  8
_1-f_寸法
  6
CONTINUOUS
 62
    4
 10
341.66666667103311
 20
221.66666666666663
 40
1.6666666666666665
  0
LINE
  8
_1-f_寸法
  6
CONTINUOUS
 62
    4
 10
335.5055576147746
 20
212.86232696432324
 11
330
 21
218.53171404361672
  0
LINE
  8
_1-f_寸法
  6
CONTINUOUS
 62
    4
 10
330.74999999999983
 20
213.33333333333326
 11
335.70179680153257
 21
206.35897164103375
  0
LINE
  8
_1-f_寸法
  6
CONTINUOUS
 62
    4
 10
328.04166666666663
 20
217.75
 11
324.35343990164938
 21
212.98468046289804
  0
LINE
  8
_1-0_躯体
  6
CENTER2
 62
    4
 10
310
 20
241.66666666666666
 11
310
 21
193.33333333333331
  0
LINE
  8
_1-0_躯体
  6
CENTER2
 62
    4
 10
110
 20
226.83333333333337
 11
110
 21
193.33333333333331
  0
LINE
  8
_1-f_寸法
  6
CONTINUOUS
 62
    4
 10
118.33333333333333
 20
191.66666666666666
 11
118.33333333333333
 21
185.06666666666666
  0
LINE
  8
_1-f_寸法
  6
CONTINUOUS
 62
    4
 10
101.66666666666666
 20
191.66666666666666
 11
101.66666666666666
 21
185.06666666666666
  0
POINT
  8
_1-f_寸法
 62
    4
 10
101.66666666666666
 20
186.66666666666666
  0
POINT
  8
_1-f_寸法
 62
    4
 10
118.33333333333333
 20
186.66666666666666
  0
LINE
  8
_1-f_寸法
  6
CONTINUOUS
 62
    4
 10
101.66666666666666
 20
186.66666666666666
 11
118.33333333333333
 21
186.66666666666666
  0
TEXT
  8
_1-f_寸法
 62
    4
 10
108.39999999999999
 20
186.66666666666666
 40
3.2000000000000002
 41
1
 50
0
  1
50
  0
LINE
  8
_1-f_寸法
  6
CONTINUOUS
 62
    4
 10
318.33333333333331
 20
191.66666666666666
 11
318.33333333333331
 21
185.06666666666666
  0
LINE
  8
_1-f_寸法
  6
CONTINUOUS
 62
    4
 10
301.66666666666663
 20
191.66666666666666
 11
301.66666666666663
 21
185.06666666666666
  0
POINT
  8
_1-f_寸法
 62
    4
 10
301.66666666666663
 20
186.66666666666666
  0
POINT
  8
_1-f_寸法
 62
    4
 10
318.33333333333331
 20
186.66666666666666
  0
LINE
  8
_1-f_寸法
  6
CONTINUOUS
 62
    4
 10
301.66666666666663
 20
186.66666666666666
 11
318.33333333333331
 21
186.66666666666666
  0
TEXT
  8
_1-f_寸法
 62
    4
 10
308.39999999999998
 20
186.66666666666666
 40
3.2000000000000002
 41
1
 50
0
  1
50
  0
LINE
  8
_1-f_寸法
  6
CONTINUOUS
 62
    4
 10
312.5
 20
233.55662432702593
 11
308.45833333333292
 21
226.55625231310114
  0
CIRCLE
  8
_1-f_寸法
  6
CONTINUOUS
 62
    4
 10
335
 20
228.33333333333331
 40
1.6666666666666665
  0
TEXT
  8
_1-f_寸法
 62
    4
 10
334.375
 20
227.08333333333331
 40
2.5
 41
1
 50
0
  1
2
  0
LINE
  8
_1-f_寸法
  6
CONTINUOUS
 62
    4
 10
332.03626720714533
 20
223.19999755605107
 11
334.16666666666663
 21
226.88995766035924
  0
CIRCLE
  8
_1-f_寸法
  6
CONTINUOUS
 62
    4
 10
296.66666666666595
 20
235.00000000000003
 40
1.6666666666666665
  0
TEXT
  8
_1-f_寸法
 62
    4
 10
296.04166666666595
 20
233.75000000000003
 40
2.5
 41
1
 50
0
  1
4
  0
LINE
  8
_1-f_寸法
  6
CONTINUOUS
 62
    4
 10
298.17927127729047
 20
234.30013924978246
 11
302.24999999999943
 21
232.41667066995819
  0
CIRCLE
  8
_1-f_寸法
  6
CONTINUOUS
 62
    4
 10
306.66666666666663
 20
243.33333333333331
 40
1.6666666666666665
  0
CIRCLE
  8
_1-f_寸法
  6
CONTINUOUS
 62
    4
 10
306.66666666666663
 20
243.33333333333331
 40
1.6666666666666665
  0
CIRCLE
  8
_1-f_寸法
  6
CONTINUOUS
 62
    4
 10
78.333333333333314
 20
221.66666666666666
 40
1.6666666666666665
  0
CIRCLE
  8
_1-f_寸法
  6
CONTINUOUS
 62
    4
 10
78.333333333333314
 20
221.66666666666666
 40
1.6666666666666665
  0
LINE
  8
_1-f_寸法
  6
CONTINUOUS
 62
    4
 10
79.511844635310922
 20
220.48815536468908
 11
81.833333333333314
 21
218.16666666666666
  0
CIRCLE
  8
_1-f_寸法
  6
CONTINUOUS
 62
    4
 10
291.66666666666629
 20
233.33333333333329
 40
1.6666666666666665
  0
CIRCLE
  8
_1-f_寸法
  6
CONTINUOUS
 62
    4
 10
296.66666666666629
 20
223.33333333333329
 40
1.6666666666666665
  0
CIRCLE
  8
_1-f_寸法
  6
CONTINUOUS
 62
    4
 10
289.99999999999966
 20
223.33333333333329
 40
1.6666666666666665
  0
LINE
  8
_1-f_寸法
  6
CONTINUOUS
 62
    4
 10
291.48472575504059
 20
224.09054348256251
 11
298.33333333333292
 21
227.58333341279996
  0
LINE
  8
_1-f_寸法
  6
CONTINUOUS
 62
    4
 10
303.53171404361626
 20
228.33333333333331
 11
298.01388414202268
 21
224.31454832092373
  0
LINE
  8
_1-f_寸法
  6
CONTINUOUS
 62
    4
 10
302.74999999999966
 20
230.29166674613316
 11
293.273907156051
 21
232.89224854889812
  0
CIRCLE
  8
_1-f_寸法
  6
CONTINUOUS
 62
    4
 10
96.666666666666657
 20
211.66666666666666
 40
1.6666666666666665
  0
CIRCLE
  8
_1-f_寸法
  6
CONTINUOUS
 62
    4
 10
83.333333333333329
 20
205
 40
1.6666666666666665
  0
CIRCLE
  8
_1-f_寸法
  6
CONTINUOUS
 62
    4
 10
83.333333333333329
 20
211.66666666666666
 40
1.6666666666666665
  0
LINE
  8
_1-f_寸法
  6
CONTINUOUS
 62
    4
 10
95.646560098350591
 20
212.98468046289804
 11
91.958333333333314
 21
217.75
  0
LINE
  8
_1-f_寸法
  6
CONTINUOUS
 62
    4
 10
84.494442385225341
 20
212.86232696432324
 11
90
 21
218.53171404361672
  0
LINE
  8
_1-f_寸法
  6
CONTINUOUS
 62
    4
 10
84.298203198467377
 20
206.35897164103375
 11
89.250000000000171
 21
213.33333333333326
  0
TEXT
  8
_1-f_寸法
 62
    4
 10
112.70833333333333
 20
227.08333333333331
 40
2.5
 41
1
 50
0
  1
6
  0
TEXT
  8
_1-f_寸法
 62
    4
 10
136.04166666666666
 20
210.41666666666666
 40
2.5
 41
1
 50
0
  1
7
  0
TEXT
  8
_1-f_寸法
 62
    4
 10
122.70833333333333
 20
210.41666666666666
 40
2.5
 41
1
 50
0
  1
8
  0
TEXT
  8
_1-f_寸法
 62
    4
 10
136.04166666666666
 20
203.75
 40
2.5
 41
1
 50
0
  1
9
  0
TEXT
  8
_1-f_寸法
 62
    4
 10
82.708333333333329
 20
203.75
 40
2.5
 41
1
 50
0
  1
9
  0
TEXT
  8
_1-f_寸法
 62
    4
 10
96.041666666666657
 20
210.41666666666666
 40
2.5
 41
1
 50
0
  1
8
  0
TEXT
  8
_1-f_寸法
 62
    4
 10
82.708333333333329
 20
210.41666666666666
 40
2.5
 41
1
 50
0
  1
7
  0
TEXT
  8
_1-f_寸法
 62
    4
 10
77.083333333333314
 20
220.41666666666666
 40
2.5
 41
1
 50
0
  1
10
  0
TEXT
  8
_1-f_寸法
 62
    4
 10
140.41666666666666
 20
220.41666666666666
 40
2.5
 41
1
 50
0
  1
10
  0
TEXT
  8
_1-f_寸法
 62
    4
 10
340.41666667103311
 20
220.41666666666663
 40
2.5
 41
1
 50
0
  1
10
  0
TEXT
  8
_1-f_寸法
 62
    4
 10
319.375
 20
227.08333333333331
 40
2.5
 41
1
 50
0
  1
6
  0
TEXT
  8
_1-f_寸法
 62
    4
 10
336.04166666666663
 20
210.41666666666666
 40
2.5
 41
1
 50
0
  1
7
  0
TEXT
  8
_1-f_寸法
 62
    4
 10
322.70833333333331
 20
210.41666666666666
 40
2.5
 41
1
 50
0
  1
8
  0
TEXT
  8
_1-f_寸法
 62
    4
 10
336.04166666666663
 20
203.75
 40
2.5
 41
1
 50
0
  1
9
  0
TEXT
  8
_1-f_寸法
 62
    4
 10
291.04166666666629
 20
232.08333333333329
 40
2.5
 41
1
 50
0
  1
8
  0
TEXT
  8
_1-f_寸法
 62
    4
 10
289.37499999999966
 20
222.08333333333329
 40
2.5
 41
1
 50
0
  1
9
  0
TEXT
  8
_1-f_寸法
 62
    4
 10
296.04166666666629
 20
222.08333333333329
 40
2.5
 41
1
 50
0
  1
7
  0
TEXT
  8
_1-f_寸法
 62
    4
 10
305.41666666666663
 20
242.08333333333331
 40
2.5
 41
1
 50
0
  1
10
  0
TEXT
  8
_0-0_図面枠
 62
    4
 10
41.666666666666686
 20
128
 40
3
 41
1
 50
0
  1
（落下防止ワイヤー）
  0
INSERT
  2
-003-_3_
  8
_1-8_小物
 10
210
 20
148.5
 41
1
 42
1
 50
0
  0
LINE
  8
_1-8_小物
  6
CONTINUOUS
 62
    4
 10
157.03985321657842
 20
131.84018902839435
 11
151.17656837665947
 21
130.18752043233465
  0
LINE
  8
_1-8_小物
  6
CONTINUOUS
 62
    4
 10
157.16066740562403
 20
131.35707331101597
 11
151.24647145802518
 21
129.68796469593613
  0
LINE
  8
_1-8_小物
  6
CONTINUOUS
 62
    4
 10
157.03985321657842
 20
127.15981097160562
 11
151.17656837665947
 21
128.81247956766532
  0
LINE
  8
_1-8_小物
  6
CONTINUOUS
 62
    4
 10
157.16066740562403
 20
127.64292668898401
 11
151.24647145802518
 21
129.31203530406384
  0
LINE
  8
_1-8_小物
  6
CONTINUOUS
 62
    4
 10
157.1606675134222
 20
127.64292665856117
 11
157.1606675134222
 21
127.64292665856117
  0
LINE
  8
_1-8_小物
  6
CONTINUOUS
 62
    4
 10
157.1606675134222
 20
127.64292665856117
 11
157.6334904430544
 21
127.54220923628057
  0
LINE
  8
_1-8_小物
  6
CONTINUOUS
 62
    4
 10
157.6334904430544
 20
127.54220923628057
 11
158.1239067754791
 21
127.50097829566566
  0
LINE
  8
_1-8_小物
  6
CONTINUOUS
 62
    4
 10
158.1239067754791
 20
127.50097829566566
 11
158.61701545859825
 21
127.52048661798315
  0
LINE
  8
_1-8_小物
  6
CONTINUOUS
 62
    4
 10
158.61701545859825
 20
127.52048661798315
 11
159.09783363460025
 21
127.60014145273114
  0
LINE
  8
_1-8_小物
  6
CONTINUOUS
 62
    4
 10
159.09783363460025
 20
127.60014145273114
 11
159.55175188651307
 21
127.73752252806307
  0
LINE
  8
_1-8_小物
  6
CONTINUOUS
 62
    4
 10
159.55175188651307
 20
127.73752252806307
 11
159.96497813794605
 21
127.92845558952315
  0
LINE
  8
_1-8_小物
  6
CONTINUOUS
 62
    4
 10
159.96497813794605
 20
127.92845558952315
 11
160.32495671835193
 21
128.16713923265576
  0
LINE
  8
_1-8_小物
  6
CONTINUOUS
 62
    4
 10
160.32495671835193
 20
128.16713923265576
 11
160.62074986072309
 21
128.446321175744
  0
LINE
  8
_1-8_小物
  6
CONTINUOUS
 62
    4
 10
160.62074986072309
 20
128.446321175744
 11
160.84337004010709
 21
128.75751861672009
  0
LINE
  8
_1-8_小物
  6
CONTINUOUS
 62
    4
 10
160.84337004010709
 20
128.75751861672009
 11
160.98605305500459
 21
129.0912759788134
  0
LINE
  8
_1-8_小物
  6
CONTINUOUS
 62
    4
 10
160.98605305500459
 20
129.0912759788134
 11
161.04446355420905
 21
129.43745221346614
  0
LINE
  8
_1-8_小物
  6
CONTINUOUS
 62
    4
 10
161.04446355420905
 20
129.43745221346614
 11
161.01682676425926
 21
129.78552893096199
  0
LINE
  8
_1-8_小物
  6
CONTINUOUS
 62
    4
 10
161.01682676425926
 20
129.78552893096199
 11
160.90398241503294
 21
130.12492999637519
  0
LINE
  8
_1-8_小物
  6
CONTINUOUS
 62
    4
 10
160.90398241503294
 20
130.12492999637519
 11
160.70935922497938
 21
130.44534288007836
  0
LINE
  8
_1-8_小物
  6
CONTINUOUS
 62
    4
 10
160.70935922497938
 20
130.44534288007836
 11
160.43887072124426
 21
130.73703199873694
  0
LINE
  8
_1-8_小物
  6
CONTINUOUS
 62
    4
 10
160.43887072124426
 20
130.73703199873694
 11
160.10073556013975
 21
130.99113452608228
  0
LINE
  8
_1-8_小物
  6
CONTINUOUS
 62
    4
 10
160.10073556013975
 20
130.99113452608228
 11
159.70522780743138
 21
131.19992968540308
  0
LINE
  8
_1-8_小物
  6
CONTINUOUS
 62
    4
 10
159.70522780743138
 20
131.19992968540308
 11
159.26436476604863
 21
131.35707334143885
  0
LINE
  8
_1-8_小物
  6
CONTINUOUS
 62
    4
 10
159.26436476604863
 20
131.35707334143885
 11
158.79154183641643
 21
131.45779076371943
  0
LINE
  8
_1-8_小物
  6
CONTINUOUS
 62
    4
 10
158.79154183641643
 20
131.45779076371943
 11
158.30112550399173
 21
131.49902170433435
  0
LINE
  8
_1-8_小物
  6
CONTINUOUS
 62
    4
 10
158.30112550399173
 20
131.49902170433435
 11
157.80801682087258
 21
131.47951338201685
  0
LINE
  8
_1-8_小物
  6
CONTINUOUS
 62
    4
 10
157.80801682087258
 20
131.47951338201685
 11
157.32719864487058
 21
131.39985854726888
  0
LINE
  8
_1-8_小物
  6
CONTINUOUS
 62
    4
 10
157.32719864487058
 20
131.39985854726888
 11
157.160667405624
 21
131.35707331101594
  0
LINE
  8
_1-8_小物
  6
CONTINUOUS
 62
    4
 10
157.039853303781
 20
127.15981094702609
 11
157.039853303781
 21
127.15981094702609
  0
LINE
  8
_1-8_小物
  6
CONTINUOUS
 62
    4
 10
157.039853303781
 20
127.15981094702609
 11
157.5994947731449
 21
127.04264060375607
  0
LINE
  8
_1-8_小物
  6
CONTINUOUS
 62
    4
 10
157.5994947731449
 20
127.04264060375607
 11
158.1777625865289
 21
127.00013588225708
  0
LINE
  8
_1-8_小物
  6
CONTINUOUS
 62
    4
 10
158.1777625865289
 20
127.00013588225708
 11
158.75708636904091
 21
127.03358826698343
  0
LINE
  8
_1-8_小物
  6
CONTINUOUS
 62
    4
 10
158.75708636904091
 20
127.03358826698343
 11
159.31986366070132
 21
127.14198132415292
  0
LINE
  8
_1-8_小物
  6
CONTINUOUS
 62
    4
 10
159.31986366070132
 20
127.14198132415292
 11
159.84899475828206
 21
127.32202158557301
  0
LINE
  8
_1-8_小物
  6
CONTINUOUS
 62
    4
 10
159.84899475828206
 20
127.32202158557301
 11
160.32840228113639
 21
127.56823861900521
  0
LINE
  8
_1-8_小物
  6
CONTINUOUS
 62
    4
 10
160.32840228113639
 20
127.56823861900521
 11
160.74351967427432
 21
127.87315124448051
  0
LINE
  8
_1-8_小物
  6
CONTINUOUS
 62
    4
 10
160.74351967427432
 20
127.87315124448051
 11
161.08173380576486
 21
128.22749484616708
  0
LINE
  8
_1-8_小物
  6
CONTINUOUS
 62
    4
 10
161.08173380576486
 20
128.22749484616708
 11
161.33276821036728
 21
128.62050287303418
  0
LINE
  8
_1-8_小物
  6
CONTINUOUS
 62
    4
 10
161.33276821036728
 20
128.62050287303418
 11
161.48899533472729
 21
129.04023397505711
  0
LINE
  8
_1-8_小物
  6
CONTINUOUS
 62
    4
 10
161.48899533472729
 20
129.04023397505711
 11
161.54566829672595
 21
129.47393483509512
  0
LINE
  8
_1-8_小物
  6
CONTINUOUS
 62
    4
 10
161.54566829672595
 20
129.47393483509512
 11
161.5010651170908
 21
129.90842767197913
  0
LINE
  8
_1-8_小物
  6
CONTINUOUS
 62
    4
 10
161.5010651170908
 20
129.90842767197913
 11
161.35654104086481
 21
130.33051064072444
  0
LINE
  8
_1-8_小物
  6
CONTINUOUS
 62
    4
 10
161.35654104086481
 20
130.33051064072444
 11
161.11648735897137
 21
130.72735896391001
  0
LINE
  8
_1-8_小物
  6
CONTINUOUS
 62
    4
 10
161.11648735897137
 20
130.72735896391001
 11
160.78819798106178
 21
131.08691460605075
  0
LINE
  8
_1-8_小物
  6
CONTINUOUS
 62
    4
 10
160.78819798106178
 20
131.08691460605075
 11
160.38164781376139
 21
131.3982526509042
  0
LINE
  8
_1-8_小物
  6
CONTINUOUS
 62
    4
 10
160.38164781376139
 20
131.3982526509042
 11
159.9091896781793
 21
131.6519132495221
  0
LINE
  8
_1-8_小物
  6
CONTINUOUS
 62
    4
 10
159.9091896781793
 20
131.6519132495221
 11
159.38517897568983
 21
131.84018905297393
  0
LINE
  8
_1-8_小物
  6
CONTINUOUS
 62
    4
 10
159.38517897568983
 20
131.84018905297393
 11
158.82553750632593
 21
131.95735939624393
  0
LINE
  8
_1-8_小物
  6
CONTINUOUS
 62
    4
 10
158.82553750632593
 20
131.95735939624393
 11
158.24726969294193
 21
131.99986411774293
  0
LINE
  8
_1-8_小物
  6
CONTINUOUS
 62
    4
 10
158.24726969294193
 20
131.99986411774293
 11
157.66794591042992
 21
131.96641173301657
  0
LINE
  8
_1-8_小物
  6
CONTINUOUS
 62
    4
 10
157.66794591042992
 20
131.96641173301657
 11
157.10516861876951
 21
131.85801867584706
  0
LINE
  8
_1-8_小物
  6
CONTINUOUS
 62
    4
 10
157.10516861876951
 20
131.85801867584706
 11
157.03985321657842
 21
131.84018902839435
  0
ARC
  8
_1-8_小物
  6
CONTINUOUS
 62
    4
 10
149.88841540894515
 20
124.49999999999997
 40
5
 50
74.23983426036601
 51
82.444482010074083
  0
ARC
  8
_1-8_小物
  6
CONTINUOUS
 62
    4
 10
149.82008748449641
 20
123.99999999999997
 40
5
 50
74.258588419679057
 51
81.653895699843488
  0
ARC
  8
_1-8_小物
  6
CONTINUOUS
 62
    4
 10
149.82008748449641
 20
135
 40
5
 50
278.34610430015653
 51
285.74141158032086
  0
ARC
  8
_1-8_小物
  6
CONTINUOUS
 62
    4
 10
149.88841540894515
 20
134.5
 40
5
 50
277.55551798992593
 51
285.76016573963392
  0
INSERT
  2
-004-_4_
  8
_1-8_小物
 10
210
 20
148.5
 41
1
 42
1
 50
0
  0
LINE
  8
_1-8_小物
  6
CONTINUOUS
 62
    4
 10
82.718512396225748
 20
131.84018902839435
 11
88.581797236144695
 21
130.18752043233465
  0
LINE
  8
_1-8_小物
  6
CONTINUOUS
 62
    4
 10
82.597698207180116
 20
131.35707331101597
 11
88.511894154779
 21
129.68796469593613
  0
LINE
  8
_1-8_小物
  6
CONTINUOUS
 62
    4
 10
82.718512396225748
 20
127.15981097160562
 11
88.581797236144695
 21
128.81247956766532
  0
LINE
  8
_1-8_小物
  6
CONTINUOUS
 62
    4
 10
82.597698207180116
 20
127.64292668898401
 11
88.511894154779
 21
129.31203530406384
  0
LINE
  8
_1-8_小物
  6
CONTINUOUS
 62
    4
 10
82.597698207180201
 20
131.35707331101594
 11
82.597698207180201
 21
131.35707331101594
  0
LINE
  8
_1-8_小物
  6
CONTINUOUS
 62
    4
 10
82.597698207180201
 20
131.35707331101594
 11
82.124875283394388
 21
131.45779074697211
  0
LINE
  8
_1-8_小物
  6
CONTINUOUS
 62
    4
 10
82.124875283394388
 20
131.45779074697211
 11
81.634458953363037
 21
131.49902170177148
  0
LINE
  8
_1-8_小物
  6
CONTINUOUS
 62
    4
 10
81.634458953363037
 20
131.49902170177148
 11
81.141350269111499
 21
131.47951339371627
  0
LINE
  8
_1-8_小物
  6
CONTINUOUS
 62
    4
 10
81.141350269111499
 20
131.47951339371627
 11
80.660532088485724
 21
131.39985857287513
  0
LINE
  8
_1-8_小物
  6
CONTINUOUS
 62
    4
 10
80.660532088485724
 20
131.39985857287513
 11
80.206613828598293
 21
131.262477510672
  0
LINE
  8
_1-8_小物
  6
CONTINUOUS
 62
    4
 10
80.206613828598293
 20
131.262477510672
 11
79.79338756608216
 21
131.07154446116377
  0
LINE
  8
_1-8_小物
  6
CONTINUOUS
 62
    4
 10
79.79338756608216
 20
131.07154446116377
 11
79.433408971821308
 21
130.8328608284429
  0
LINE
  8
_1-8_小物
  6
CONTINUOUS
 62
    4
 10
79.433408971821308
 20
130.8328608284429
 11
79.137615813244381
 21
130.55367889390996
  0
LINE
  8
_1-8_小物
  6
CONTINUOUS
 62
    4
 10
79.137615813244381
 20
130.55367889390996
 11
78.914995615796187
 21
130.24248145937278
  0
LINE
  8
_1-8_小物
  6
CONTINUOUS
 62
    4
 10
78.914995615796187
 20
130.24248145937278
 11
78.772312581524943
 21
129.90872410140634
  0
LINE
  8
_1-8_小物
  6
CONTINUOUS
 62
    4
 10
78.772312581524943
 20
129.90872410140634
 11
78.71390206222587
 21
129.56254786844303
  0
LINE
  8
_1-8_小物
  6
CONTINUOUS
 62
    4
 10
78.71390206222587
 20
129.56254786844303
 11
78.741538831970715
 21
129.2144711501478
  0
LINE
  8
_1-8_小物
  6
CONTINUOUS
 62
    4
 10
78.741538831970715
 20
129.2144711501478
 11
78.854383161495676
 21
128.8750700814708
  0
LINE
  8
_1-8_小物
  6
CONTINUOUS
 62
    4
 10
78.854383161495676
 20
128.8750700814708
 11
79.0490063329501
 21
128.55465719213848
  0
LINE
  8
_1-8_小物
  6
CONTINUOUS
 62
    4
 10
79.0490063329501
 20
128.55465719213848
 11
79.319494819753459
 21
128.26296806565651
  0
LINE
  8
_1-8_小物
  6
CONTINUOUS
 62
    4
 10
79.319494819753459
 20
128.26296806565651
 11
79.657629966107976
 21
128.0088655285312
  0
LINE
  8
_1-8_小物
  6
CONTINUOUS
 62
    4
 10
79.657629966107976
 20
128.0088655285312
 11
80.053137706696333
 21
127.80007035777102
  0
LINE
  8
_1-8_小物
  6
CONTINUOUS
 62
    4
 10
80.053137706696333
 20
127.80007035777102
 11
80.494000738957297
 21
127.64292668898406
  0
LINE
  8
_1-8_小物
  6
CONTINUOUS
 62
    4
 10
80.494000738957297
 20
127.64292668898406
 11
80.96682366274311
 21
127.54220925302788
  0
LINE
  8
_1-8_小物
  6
CONTINUOUS
 62
    4
 10
80.96682366274311
 20
127.54220925302788
 11
81.457239992774475
 21
127.50097829822853
  0
LINE
  8
_1-8_小物
  6
CONTINUOUS
 62
    4
 10
81.457239992774475
 20
127.50097829822853
 11
81.950348677026014
 21
127.52048660628371
  0
LINE
  8
_1-8_小物
  6
CONTINUOUS
 62
    4
 10
81.950348677026014
 20
127.52048660628371
 11
82.431166857651789
 21
127.60014142712487
  0
LINE
  8
_1-8_小物
  6
CONTINUOUS
 62
    4
 10
82.431166857651789
 20
127.60014142712487
 11
82.597698099381958
 21
127.64292665856115
  0
LINE
  8
_1-8_小物
  6
CONTINUOUS
 62
    4
 10
82.718512396225748
 20
131.84018902839435
 11
82.718512396225748
 21
131.84018902839435
  0
LINE
  8
_1-8_小物
  6
CONTINUOUS
 62
    4
 10
82.718512396225748
 20
131.84018902839435
 11
82.158870931227966
 21
131.9573593833947
  0
LINE
  8
_1-8_小物
  6
CONTINUOUS
 62
    4
 10
82.158870931227966
 20
131.9573593833947
 11
81.580603119427835
 21
131.99986411701445
  0
LINE
  8
_1-8_小物
  6
CONTINUOUS
 62
    4
 10
81.580603119427835
 20
131.99986411701445
 11
81.001279335669281
 21
131.96641174443101
  0
LINE
  8
_1-8_小物
  6
CONTINUOUS
 62
    4
 10
81.001279335669281
 20
131.96641174443101
 11
80.438502039969819
 21
131.8580186990576
  0
LINE
  8
_1-8_小物
  6
CONTINUOUS
 62
    4
 10
80.438502039969819
 20
131.8580186990576
 11
79.909370935680229
 21
131.67797844872834
  0
LINE
  8
_1-8_小物
  6
CONTINUOUS
 62
    4
 10
79.909370935680229
 20
131.67797844872834
 11
79.429963403651087
 21
131.43176142534475
  0
LINE
  8
_1-8_小物
  6
CONTINUOUS
 62
    4
 10
79.429963403651087
 20
131.43176142534475
 11
79.014845999151206
 21
131.12684880857049
  0
LINE
  8
_1-8_小物
  6
CONTINUOUS
 62
    4
 10
79.014845999151206
 20
131.12684880857049
 11
78.676631854456744
 21
130.77250521397306
  0
LINE
  8
_1-8_小物
  6
CONTINUOUS
 62
    4
 10
78.676631854456744
 20
130.77250521397306
 11
78.425597435209639
 21
130.37949719236775
  0
LINE
  8
_1-8_小物
  6
CONTINUOUS
 62
    4
 10
78.425597435209639
 20
130.37949719236775
 11
78.269370295209171
 21
129.95976609361941
  0
LINE
  8
_1-8_小物
  6
CONTINUOUS
 62
    4
 10
78.269370295209171
 20
129.95976609361941
 11
78.212697317049489
 21
129.52606523476931
  0
LINE
  8
_1-8_小物
  6
CONTINUOUS
 62
    4
 10
78.212697317049489
 20
129.52606523476931
 11
78.257300480494095
 21
129.0915723969504
  0
LINE
  8
_1-8_小物
  6
CONTINUOUS
 62
    4
 10
78.257300480494095
 20
129.0915723969504
 11
78.401824540991996
 21
128.66948942517578
  0
LINE
  8
_1-8_小物
  6
CONTINUOUS
 62
    4
 10
78.401824540991996
 20
128.66948942517578
 11
78.641878208097665
 21
128.27264109695858
  0
LINE
  8
_1-8_小物
  6
CONTINUOUS
 62
    4
 10
78.641878208097665
 20
128.27264109695858
 11
78.970167572609114
 21
127.91308544793674
  0
LINE
  8
_1-8_小物
  6
CONTINUOUS
 62
    4
 10
78.970167572609114
 20
127.91308544793674
 11
79.376717728308108
 21
127.60174739456183
  0
LINE
  8
_1-8_小物
  6
CONTINUOUS
 62
    4
 10
79.376717728308108
 20
127.60174739456183
 11
79.849175854438016
 21
127.34808678604097
  0
LINE
  8
_1-8_小物
  6
CONTINUOUS
 62
    4
 10
79.849175854438016
 20
127.34808678604097
 11
80.37318654991175
 21
127.15981097160564
  0
LINE
  8
_1-8_小物
  6
CONTINUOUS
 62
    4
 10
80.37318654991175
 20
127.15981097160564
 11
80.932828014909546
 21
127.04264061660528
  0
LINE
  8
_1-8_小物
  6
CONTINUOUS
 62
    4
 10
80.932828014909546
 20
127.04264061660528
 11
81.511095826709678
 21
127.00013588298553
  0
LINE
  8
_1-8_小物
  6
CONTINUOUS
 62
    4
 10
81.511095826709678
 20
127.00013588298553
 11
82.090419610468231
 21
127.03358825556899
  0
LINE
  8
_1-8_小物
  6
CONTINUOUS
 62
    4
 10
82.090419610468231
 20
127.03358825556899
 11
82.653196906167693
 21
127.1419813009424
  0
LINE
  8
_1-8_小物
  6
CONTINUOUS
 62
    4
 10
82.653196906167693
 20
127.1419813009424
 11
82.718512309023168
 21
127.15981094702607
  0
ARC
  8
_1-8_小物
  6
CONTINUOUS
 62
    4
 10
89.869950203859005
 20
124.49999999999997
 40
5
 50
97.555517989925761
 51
105.76016573963415
  0
ARC
  8
_1-8_小物
  6
CONTINUOUS
 62
    4
 10
89.938278128307758
 20
123.99999999999997
 40
5
 50
98.346104300156512
 51
105.74141158032096
  0
ARC
  8
_1-8_小物
  6
CONTINUOUS
 62
    4
 10
89.938278128307758
 20
135
 40
5
 50
254.25858841967909
 51
261.65389569984347
  0
ARC
  8
_1-8_小物
  6
CONTINUOUS
 62
    4
 10
89.869950203859005
 20
134.5
 40
5
 50
254.23983426036591
 51
262.44448201007424
  0
LINE
  8
_1-8_小物
  6
CONTINUOUS
 62
    4
 10
91.879182806402085
 20
129.24999999999997
 11
118.21251613973541
 21
129.24999999999997
  0
LINE
  8
_1-8_小物
  6
CONTINUOUS
 62
    4
 10
91.879182806402085
 20
129.75
 11
118.21251613973541
 21
129.75
  0
LINE
  8
_1-8_小物
  6
CONTINUOUS
 62
    4
 10
147.87918280640207
 20
129.24999999999997
 11
121.54584947306876
 21
129.24999999999997
  0
LINE
  8
_1-8_小物
  6
CONTINUOUS
 62
    4
 10
147.87918280640207
 20
129.75
 11
121.54584947306876
 21
129.75
  0
TEXT
  8
_0-0_図面枠
 62
    4
 10
241.66666666666663
 20
128
 40
3
 41
1
 50
0
  1
（落下防止ワイヤー）
  0
INSERT
  2
-005-_5_
  8
_1-8_小物
 10
210
 20
148.5
 41
1
 42
1
 50
0
  0
LINE
  8
_1-8_小物
  6
CONTINUOUS
 62
    4
 10
357.03985321657842
 20
131.84018902839435
 11
351.17656837665947
 21
130.18752043233465
  0
LINE
  8
_1-8_小物
  6
CONTINUOUS
 62
    4
 10
357.16066740562405
 20
131.35707331101597
 11
351.24647145802516
 21
129.68796469593613
  0
LINE
  8
_1-8_小物
  6
CONTINUOUS
 62
    4
 10
357.03985321657842
 20
127.15981097160562
 11
351.17656837665947
 21
128.81247956766532
  0
LINE
  8
_1-8_小物
  6
CONTINUOUS
 62
    4
 10
357.16066740562405
 20
127.64292668898401
 11
351.24647145802516
 21
129.31203530406384
  0
LINE
  8
_1-8_小物
  6
CONTINUOUS
 62
    4
 10
357.1606675134222
 20
127.64292665856115
 11
357.1606675134222
 21
127.64292665856115
  0
LINE
  8
_1-8_小物
  6
CONTINUOUS
 62
    4
 10
357.1606675134222
 20
127.64292665856115
 11
357.63349044305437
 21
127.54220923628056
  0
LINE
  8
_1-8_小物
  6
CONTINUOUS
 62
    4
 10
357.63349044305437
 20
127.54220923628056
 11
358.1239067754791
 21
127.50097829566566
  0
LINE
  8
_1-8_小物
  6
CONTINUOUS
 62
    4
 10
358.1239067754791
 20
127.50097829566566
 11
358.61701545859825
 21
127.52048661798315
  0
LINE
  8
_1-8_小物
  6
CONTINUOUS
 62
    4
 10
358.61701545859825
 20
127.52048661798315
 11
359.09783363460025
 21
127.60014145273114
  0
LINE
  8
_1-8_小物
  6
CONTINUOUS
 62
    4
 10
359.09783363460025
 20
127.60014145273114
 11
359.55175188651305
 21
127.73752252806307
  0
LINE
  8
_1-8_小物
  6
CONTINUOUS
 62
    4
 10
359.55175188651305
 20
127.73752252806307
 11
359.96497813794605
 21
127.92845558952317
  0
LINE
  8
_1-8_小物
  6
CONTINUOUS
 62
    4
 10
359.96497813794605
 20
127.92845558952317
 11
360.32495671835193
 21
128.16713923265576
  0
LINE
  8
_1-8_小物
  6
CONTINUOUS
 62
    4
 10
360.32495671835193
 20
128.16713923265576
 11
360.62074986072309
 21
128.44632117574403
  0
LINE
  8
_1-8_小物
  6
CONTINUOUS
 62
    4
 10
360.62074986072309
 20
128.44632117574403
 11
360.84337004010706
 21
128.75751861672009
  0
LINE
  8
_1-8_小物
  6
CONTINUOUS
 62
    4
 10
360.84337004010706
 20
128.75751861672009
 11
360.98605305500456
 21
129.09127597881343
  0
LINE
  8
_1-8_小物
  6
CONTINUOUS
 62
    4
 10
360.98605305500456
 20
129.09127597881343
 11
361.04446355420902
 21
129.43745221346614
  0
LINE
  8
_1-8_小物
  6
CONTINUOUS
 62
    4
 10
361.04446355420902
 20
129.43745221346614
 11
361.01682676425924
 21
129.78552893096202
  0
LINE
  8
_1-8_小物
  6
CONTINUOUS
 62
    4
 10
361.01682676425924
 20
129.78552893096202
 11
360.90398241503294
 21
130.12492999637522
  0
LINE
  8
_1-8_小物
  6
CONTINUOUS
 62
    4
 10
360.90398241503294
 20
130.12492999637522
 11
360.70935922497932
 21
130.44534288007839
  0
LINE
  8
_1-8_小物
  6
CONTINUOUS
 62
    4
 10
360.70935922497932
 20
130.44534288007839
 11
360.4388707212442
 21
130.73703199873694
  0
LINE
  8
_1-8_小物
  6
CONTINUOUS
 62
    4
 10
360.4388707212442
 20
130.73703199873694
 11
360.1007355601397
 21
130.99113452608228
  0
LINE
  8
_1-8_小物
  6
CONTINUOUS
 62
    4
 10
360.1007355601397
 20
130.99113452608228
 11
359.70522780743136
 21
131.19992968540308
  0
LINE
  8
_1-8_小物
  6
CONTINUOUS
 62
    4
 10
359.70522780743136
 20
131.19992968540308
 11
359.26436476604857
 21
131.35707334143885
  0
LINE
  8
_1-8_小物
  6
CONTINUOUS
 62
    4
 10
359.26436476604857
 20
131.35707334143885
 11
358.7915418364164
 21
131.45779076371943
  0
LINE
  8
_1-8_小物
  6
CONTINUOUS
 62
    4
 10
358.7915418364164
 20
131.45779076371943
 11
358.30112550399167
 21
131.49902170433435
  0
LINE
  8
_1-8_小物
  6
CONTINUOUS
 62
    4
 10
358.30112550399167
 20
131.49902170433435
 11
357.80801682087252
 21
131.47951338201685
  0
LINE
  8
_1-8_小物
  6
CONTINUOUS
 62
    4
 10
357.80801682087252
 20
131.47951338201685
 11
357.32719864487052
 21
131.39985854726888
  0
LINE
  8
_1-8_小物
  6
CONTINUOUS
 62
    4
 10
357.32719864487052
 20
131.39985854726888
 11
357.16066740562394
 21
131.35707331101594
  0
LINE
  8
_1-8_小物
  6
CONTINUOUS
 62
    4
 10
357.039853303781
 20
127.15981094702607
 11
357.039853303781
 21
127.15981094702607
  0
LINE
  8
_1-8_小物
  6
CONTINUOUS
 62
    4
 10
357.039853303781
 20
127.15981094702607
 11
357.5994947731449
 21
127.04264060375607
  0
LINE
  8
_1-8_小物
  6
CONTINUOUS
 62
    4
 10
357.5994947731449
 20
127.04264060375607
 11
358.1777625865289
 21
127.00013588225708
  0
LINE
  8
_1-8_小物
  6
CONTINUOUS
 62
    4
 10
358.1777625865289
 20
127.00013588225708
 11
358.75708636904091
 21
127.03358826698343
  0
LINE
  8
_1-8_小物
  6
CONTINUOUS
 62
    4
 10
358.75708636904091
 20
127.03358826698343
 11
359.31986366070134
 21
127.14198132415294
  0
LINE
  8
_1-8_小物
  6
CONTINUOUS
 62
    4
 10
359.31986366070134
 20
127.14198132415294
 11
359.84899475828206
 21
127.32202158557303
  0
LINE
  8
_1-8_小物
  6
CONTINUOUS
 62
    4
 10
359.84899475828206
 20
127.32202158557303
 11
360.32840228113639
 21
127.56823861900523
  0
LINE
  8
_1-8_小物
  6
CONTINUOUS
 62
    4
 10
360.32840228113639
 20
127.56823861900523
 11
360.7435196742743
 21
127.87315124448052
  0
LINE
  8
_1-8_小物
  6
CONTINUOUS
 62
    4
 10
360.7435196742743
 20
127.87315124448052
 11
361.08173380576483
 21
128.2274948461671
  0
LINE
  8
_1-8_小物
  6
CONTINUOUS
 62
    4
 10
361.08173380576483
 20
128.2274948461671
 11
361.33276821036725
 21
128.62050287303421
  0
LINE
  8
_1-8_小物
  6
CONTINUOUS
 62
    4
 10
361.33276821036725
 20
128.62050287303421
 11
361.48899533472729
 21
129.04023397505713
  0
LINE
  8
_1-8_小物
  6
CONTINUOUS
 62
    4
 10
361.48899533472729
 20
129.04023397505713
 11
361.54566829672592
 21
129.47393483509512
  0
LINE
  8
_1-8_小物
  6
CONTINUOUS
 62
    4
 10
361.54566829672592
 20
129.47393483509512
 11
361.50106511709077
 21
129.90842767197915
  0
LINE
  8
_1-8_小物
  6
CONTINUOUS
 62
    4
 10
361.50106511709077
 20
129.90842767197915
 11
361.35654104086478
 21
130.33051064072447
  0
LINE
  8
_1-8_小物
  6
CONTINUOUS
 62
    4
 10
361.35654104086478
 20
130.33051064072447
 11
361.11648735897131
 21
130.72735896391001
  0
LINE
  8
_1-8_小物
  6
CONTINUOUS
 62
    4
 10
361.11648735897131
 20
130.72735896391001
 11
360.78819798106173
 21
131.08691460605075
  0
LINE
  8
_1-8_小物
  6
CONTINUOUS
 62
    4
 10
360.78819798106173
 20
131.08691460605075
 11
360.38164781376133
 21
131.3982526509042
  0
LINE
  8
_1-8_小物
  6
CONTINUOUS
 62
    4
 10
360.38164781376133
 20
131.3982526509042
 11
359.90918967817925
 21
131.6519132495221
  0
LINE
  8
_1-8_小物
  6
CONTINUOUS
 62
    4
 10
359.90918967817925
 20
131.6519132495221
 11
359.38517897568977
 21
131.84018905297393
  0
LINE
  8
_1-8_小物
  6
CONTINUOUS
 62
    4
 10
359.38517897568977
 20
131.84018905297393
 11
358.82553750632587
 21
131.95735939624393
  0
LINE
  8
_1-8_小物
  6
CONTINUOUS
 62
    4
 10
358.82553750632587
 20
131.95735939624393
 11
358.24726969294187
 21
131.99986411774293
  0
LINE
  8
_1-8_小物
  6
CONTINUOUS
 62
    4
 10
358.24726969294187
 20
131.99986411774293
 11
357.66794591042986
 21
131.96641173301657
  0
LINE
  8
_1-8_小物
  6
CONTINUOUS
 62
    4
 10
357.66794591042986
 20
131.96641173301657
 11
357.10516861876948
 21
131.85801867584706
  0
LINE
  8
_1-8_小物
  6
CONTINUOUS
 62
    4
 10
357.10516861876948
 20
131.85801867584706
 11
357.03985321657842
 21
131.84018902839438
  0
ARC
  8
_1-8_小物
  6
CONTINUOUS
 62
    4
 10
349.88841540894515
 20
124.49999999999997
 40
5
 50
74.239834260366322
 51
82.444482010074083
  0
ARC
  8
_1-8_小物
  6
CONTINUOUS
 62
    4
 10
349.82008748449636
 20
123.99999999999997
 40
5
 50
74.258588419678418
 51
81.653895699842849
  0
ARC
  8
_1-8_小物
  6
CONTINUOUS
 62
    4
 10
349.82008748449636
 20
135
 40
5
 50
278.34610430015715
 51
285.7414115803216
  0
ARC
  8
_1-8_小物
  6
CONTINUOUS
 62
    4
 10
349.88841540894515
 20
134.5
 40
5
 50
277.55551798992593
 51
285.76016573963363
  0
INSERT
  2
-006-_6_
  8
_1-8_小物
 10
210
 20
148.5
 41
1
 42
1
 50
0
  0
LINE
  8
_1-8_小物
  6
CONTINUOUS
 62
    4
 10
282.71851239622572
 20
131.84018902839435
 11
288.58179723614467
 21
130.18752043233465
  0
LINE
  8
_1-8_小物
  6
CONTINUOUS
 62
    4
 10
282.59769820718009
 20
131.35707331101597
 11
288.51189415477899
 21
129.68796469593613
  0
LINE
  8
_1-8_小物
  6
CONTINUOUS
 62
    4
 10
282.71851239622572
 20
127.15981097160562
 11
288.58179723614467
 21
128.81247956766532
  0
LINE
  8
_1-8_小物
  6
CONTINUOUS
 62
    4
 10
282.59769820718009
 20
127.64292668898401
 11
288.51189415477899
 21
129.31203530406384
  0
LINE
  8
_1-8_小物
  6
CONTINUOUS
 62
    4
 10
282.5976982071802
 20
131.35707331101594
 11
282.5976982071802
 21
131.35707331101594
  0
LINE
  8
_1-8_小物
  6
CONTINUOUS
 62
    4
 10
282.5976982071802
 20
131.35707331101594
 11
282.12487528339437
 21
131.45779074697211
  0
LINE
  8
_1-8_小物
  6
CONTINUOUS
 62
    4
 10
282.12487528339437
 20
131.45779074697211
 11
281.63445895336304
 21
131.49902170177148
  0
LINE
  8
_1-8_小物
  6
CONTINUOUS
 62
    4
 10
281.63445895336304
 20
131.49902170177148
 11
281.14135026911151
 21
131.47951339371627
  0
LINE
  8
_1-8_小物
  6
CONTINUOUS
 62
    4
 10
281.14135026911151
 20
131.47951339371627
 11
280.6605320884857
 21
131.39985857287513
  0
LINE
  8
_1-8_小物
  6
CONTINUOUS
 62
    4
 10
280.6605320884857
 20
131.39985857287513
 11
280.20661382859828
 21
131.262477510672
  0
LINE
  8
_1-8_小物
  6
CONTINUOUS
 62
    4
 10
280.20661382859828
 20
131.262477510672
 11
279.79338756608217
 21
131.07154446116377
  0
LINE
  8
_1-8_小物
  6
CONTINUOUS
 62
    4
 10
279.79338756608217
 20
131.07154446116377
 11
279.43340897182128
 21
130.8328608284429
  0
LINE
  8
_1-8_小物
  6
CONTINUOUS
 62
    4
 10
279.43340897182128
 20
130.8328608284429
 11
279.13761581324439
 21
130.55367889390996
  0
LINE
  8
_1-8_小物
  6
CONTINUOUS
 62
    4
 10
279.13761581324439
 20
130.55367889390996
 11
278.91499561579622
 21
130.24248145937278
  0
LINE
  8
_1-8_小物
  6
CONTINUOUS
 62
    4
 10
278.91499561579622
 20
130.24248145937278
 11
278.77231258152494
 21
129.90872410140634
  0
LINE
  8
_1-8_小物
  6
CONTINUOUS
 62
    4
 10
278.77231258152494
 20
129.90872410140634
 11
278.71390206222588
 21
129.56254786844303
  0
LINE
  8
_1-8_小物
  6
CONTINUOUS
 62
    4
 10
278.71390206222588
 20
129.56254786844303
 11
278.74153883197073
 21
129.2144711501478
  0
LINE
  8
_1-8_小物
  6
CONTINUOUS
 62
    4
 10
278.74153883197073
 20
129.2144711501478
 11
278.85438316149566
 21
128.8750700814708
  0
LINE
  8
_1-8_小物
  6
CONTINUOUS
 62
    4
 10
278.85438316149566
 20
128.8750700814708
 11
279.04900633295011
 21
128.55465719213848
  0
LINE
  8
_1-8_小物
  6
CONTINUOUS
 62
    4
 10
279.04900633295011
 20
128.55465719213848
 11
279.31949481975346
 21
128.26296806565651
  0
LINE
  8
_1-8_小物
  6
CONTINUOUS
 62
    4
 10
279.31949481975346
 20
128.26296806565651
 11
279.657629966108
 21
128.0088655285312
  0
LINE
  8
_1-8_小物
  6
CONTINUOUS
 62
    4
 10
279.657629966108
 20
128.0088655285312
 11
280.0531377066963
 21
127.80007035777102
  0
LINE
  8
_1-8_小物
  6
CONTINUOUS
 62
    4
 10
280.0531377066963
 20
127.80007035777102
 11
280.49400073895731
 21
127.64292668898406
  0
LINE
  8
_1-8_小物
  6
CONTINUOUS
 62
    4
 10
280.49400073895731
 20
127.64292668898406
 11
280.96682366274314
 21
127.54220925302788
  0
LINE
  8
_1-8_小物
  6
CONTINUOUS
 62
    4
 10
280.96682366274314
 20
127.54220925302788
 11
281.45723999277448
 21
127.50097829822853
  0
LINE
  8
_1-8_小物
  6
CONTINUOUS
 62
    4
 10
281.45723999277448
 20
127.50097829822853
 11
281.950348677026
 21
127.52048660628371
  0
LINE
  8
_1-8_小物
  6
CONTINUOUS
 62
    4
 10
281.950348677026
 20
127.52048660628371
 11
282.43116685765176
 21
127.60014142712487
  0
LINE
  8
_1-8_小物
  6
CONTINUOUS
 62
    4
 10
282.43116685765176
 20
127.60014142712487
 11
282.59769809938194
 21
127.64292665856115
  0
LINE
  8
_1-8_小物
  6
CONTINUOUS
 62
    4
 10
282.71851239622572
 20
131.84018902839438
 11
282.71851239622572
 21
131.84018902839438
  0
LINE
  8
_1-8_小物
  6
CONTINUOUS
 62
    4
 10
282.71851239622572
 20
131.84018902839438
 11
282.15887093122791
 21
131.9573593833947
  0
LINE
  8
_1-8_小物
  6
CONTINUOUS
 62
    4
 10
282.15887093122791
 20
131.9573593833947
 11
281.58060311942779
 21
131.99986411701445
  0
LINE
  8
_1-8_小物
  6
CONTINUOUS
 62
    4
 10
281.58060311942779
 20
131.99986411701445
 11
281.00127933566927
 21
131.96641174443101
  0
LINE
  8
_1-8_小物
  6
CONTINUOUS
 62
    4
 10
281.00127933566927
 20
131.96641174443101
 11
280.43850203996976
 21
131.8580186990576
  0
LINE
  8
_1-8_小物
  6
CONTINUOUS
 62
    4
 10
280.43850203996976
 20
131.8580186990576
 11
279.90937093568022
 21
131.67797844872834
  0
LINE
  8
_1-8_小物
  6
CONTINUOUS
 62
    4
 10
279.90937093568022
 20
131.67797844872834
 11
279.42996340365107
 21
131.43176142534472
  0
LINE
  8
_1-8_小物
  6
CONTINUOUS
 62
    4
 10
279.42996340365107
 20
131.43176142534472
 11
279.01484599915119
 21
131.12684880857049
  0
LINE
  8
_1-8_小物
  6
CONTINUOUS
 62
    4
 10
279.01484599915119
 20
131.12684880857049
 11
278.67663185445673
 21
130.77250521397303
  0
LINE
  8
_1-8_小物
  6
CONTINUOUS
 62
    4
 10
278.67663185445673
 20
130.77250521397303
 11
278.42559743520962
 21
130.37949719236772
  0
LINE
  8
_1-8_小物
  6
CONTINUOUS
 62
    4
 10
278.42559743520962
 20
130.37949719236772
 11
278.26937029520917
 21
129.95976609361938
  0
LINE
  8
_1-8_小物
  6
CONTINUOUS
 62
    4
 10
278.26937029520917
 20
129.95976609361938
 11
278.2126973170495
 21
129.52606523476928
  0
LINE
  8
_1-8_小物
  6
CONTINUOUS
 62
    4
 10
278.2126973170495
 20
129.52606523476928
 11
278.25730048049411
 21
129.09157239695037
  0
LINE
  8
_1-8_小物
  6
CONTINUOUS
 62
    4
 10
278.25730048049411
 20
129.09157239695037
 11
278.40182454099198
 21
128.66948942517575
  0
LINE
  8
_1-8_小物
  6
CONTINUOUS
 62
    4
 10
278.40182454099198
 20
128.66948942517575
 11
278.64187820809769
 21
128.27264109695858
  0
LINE
  8
_1-8_小物
  6
CONTINUOUS
 62
    4
 10
278.64187820809769
 20
128.27264109695858
 11
278.97016757260911
 21
127.91308544793672
  0
LINE
  8
_1-8_小物
  6
CONTINUOUS
 62
    4
 10
278.97016757260911
 20
127.91308544793672
 11
279.37671772830811
 21
127.60174739456181
  0
LINE
  8
_1-8_小物
  6
CONTINUOUS
 62
    4
 10
279.37671772830811
 20
127.60174739456181
 11
279.84917585443804
 21
127.34808678604097
  0
LINE
  8
_1-8_小物
  6
CONTINUOUS
 62
    4
 10
279.84917585443804
 20
127.34808678604097
 11
280.37318654991179
 21
127.15981097160564
  0
LINE
  8
_1-8_小物
  6
CONTINUOUS
 62
    4
 10
280.37318654991179
 20
127.15981097160564
 11
280.93282801490955
 21
127.04264061660528
  0
LINE
  8
_1-8_小物
  6
CONTINUOUS
 62
    4
 10
280.93282801490955
 20
127.04264061660528
 11
281.51109582670972
 21
127.00013588298553
  0
LINE
  8
_1-8_小物
  6
CONTINUOUS
 62
    4
 10
281.51109582670972
 20
127.00013588298553
 11
282.09041961046825
 21
127.03358825556899
  0
LINE
  8
_1-8_小物
  6
CONTINUOUS
 62
    4
 10
282.09041961046825
 20
127.03358825556899
 11
282.65319690616769
 21
127.14198130094242
  0
LINE
  8
_1-8_小物
  6
CONTINUOUS
 62
    4
 10
282.65319690616769
 20
127.14198130094242
 11
282.71851230902314
 21
127.15981094702607
  0
ARC
  8
_1-8_小物
  6
CONTINUOUS
 62
    4
 10
289.86995020385899
 20
124.49999999999997
 40
5
 50
97.555517989925917
 51
105.76016573963432
  0
ARC
  8
_1-8_小物
  6
CONTINUOUS
 62
    4
 10
289.93827812830773
 20
123.99999999999997
 40
5
 50
98.346104300156512
 51
105.74141158032096
  0
ARC
  8
_1-8_小物
  6
CONTINUOUS
 62
    4
 10
289.93827812830773
 20
135
 40
5
 50
254.25858841967909
 51
261.65389569984347
  0
ARC
  8
_1-8_小物
  6
CONTINUOUS
 62
    4
 10
289.86995020385899
 20
134.5
 40
5
 50
254.23983426036577
 51
262.44448201007407
  0
LINE
  8
_1-8_小物
  6
CONTINUOUS
 62
    4
 10
291.87918280640207
 20
129.24999999999997
 11
318.21251613973538
 21
129.24999999999997
  0
LINE
  8
_1-8_小物
  6
CONTINUOUS
 62
    4
 10
291.87918280640207
 20
129.75
 11
318.21251613973538
 21
129.75
  0
LINE
  8
_1-8_小物
  6
CONTINUOUS
 62
    4
 10
347.87918280640207
 20
129.24999999999997
 11
321.54584947306876
 21
129.24999999999997
  0
LINE
  8
_1-8_小物
  6
CONTINUOUS
 62
    4
 10
347.87918280640207
 20
129.75
 11
321.54584947306876
 21
129.75
  0
LINE
  8
_0-0_図面枠
  6
CONTINUOUS
 62
    4
 10
182.14999999999998
 20
56.199999999999974
 11
40
 21
56.199999999999974
  0
LINE
  8
_0-0_図面枠
  6
CONTINUOUS
 62
    4
 10
182.14999999999998
 20
68.199999999999974
 11
40
 21
68.199999999999974
  0
LINE
  8
_0-0_図面枠
  6
CONTINUOUS
 62
    4
 10
182.14999999999998
 20
62.199999999999974
 11
40
 21
62.199999999999974
  0
LINE
  8
_0-0_図面枠
  6
CONTINUOUS
 62
    4
 10
182.14999999999998
 20
74.199999999999974
 11
40
 21
74.199999999999974
  0
LINE
  8
_0-0_図面枠
  6
CONTINUOUS
 62
    4
 10
182.14999999999998
 20
110.20000000000003
 11
40
 21
110.20000000000003
  0
LINE
  8
_0-0_図面枠
  6
CONTINUOUS
 62
    4
 10
182.14999999999998
 20
104.20000000000003
 11
40
 21
104.20000000000003
  0
LINE
  8
_0-0_図面枠
  6
CONTINUOUS
 62
    4
 10
182.14999999999998
 20
98.200000000000031
 11
40
 21
98.200000000000031
  0
LINE
  8
_0-0_図面枠
  6
CONTINUOUS
 62
    4
 10
182.14999999999998
 20
92.200000000000031
 11
40
 21
92.200000000000031
  0
LINE
  8
_0-0_図面枠
  6
CONTINUOUS
 62
    4
 10
182.14999999999998
 20
86.200000000000031
 11
40
 21
86.200000000000031
  0
LINE
  8
_0-0_図面枠
  6
CONTINUOUS
 62
    4
 10
182.14999999999998
 20
80.199999999999974
 11
40
 21
80.199999999999974
  0
LINE
  8
_0-0_図面枠
  6
CONTINUOUS
 62
    4
 10
182.14999999999998
 20
120.99999999999999
 11
40
 21
120.99999999999999
  0
LINE
  8
_0-0_図面枠
  6
CONTINUOUS
 62
    4
 10
182.14999999999998
 20
50.199999999999974
 11
40
 21
50.199999999999974
  0
TEXT
  8
_0-0_図面枠
 62
    4
 10
165.551264
 20
116.20001049999995
 40
3.2000000000000002
 41
1
 50
0
  1
使用
  0
TEXT
  8
_0-0_図面枠
 62
    4
 10
150.50638249999994
 20
116.20001049999995
 40
3.2000000000000002
 41
1
 50
0
  1
定　尺
  0
TEXT
  8
_0-0_図面枠
 62
    4
 10
148.34354749999997
 20
111.40000399999995
 40
3.2000000000000002
 41
1
 50
0
  1
（ｍｍ）
  0
TEXT
  8
_0-0_図面枠
 62
    4
 10
165.551264
 20
111.40000399999995
 40
3.2000000000000002
 41
1
 50
0
  1
数量
  0
TEXT
  8
_0-0_図面枠
 62
    4
 10
40.497067999999985
 20
105.42754949999993
 40
3.2000000000000002
 41
1
 50
0
  1
　１
  0
TEXT
  8
_0-0_図面枠
 62
    4
 10
149.270477
 20
105.40000399999995
 40
3.2000000000000002
 41
1
 50
0
  1
３０００
  0
TEXT
  8
_0-0_図面枠
 62
    4
 10
177.00512500000002
 20
105.40000399999995
 40
3.2000000000000002
 41
1
 50
0
  1
本
  0
TEXT
  8
_0-0_図面枠
 62
    4
 10
43.586831999999987
 20
99.427549499999927
 40
3.2000000000000002
 41
1
 50
0
  1
２
  0
TEXT
  8
_0-0_図面枠
 62
    4
 10
43.586831999999987
 20
93.427549499999927
 40
3.2000000000000002
 41
1
 50
0
  1
３
  0
TEXT
  8
_0-0_図面枠
 62
    4
 10
43.586831999999987
 20
87.427549499999927
 40
3.2000000000000002
 41
1
 50
0
  1
４
  0
TEXT
  8
_0-0_図面枠
 62
    4
 10
169.36022149999991
 20
87.45000299999991
 40
3.2000000000000002
 41
1
 50
0
  1
１
  0
TEXT
  8
_0-0_図面枠
 62
    4
 10
43.586831999999987
 20
81.427560999999955
 40
3.2000000000000002
 41
1
 50
0
  1
５
  0
TEXT
  8
_0-0_図面枠
 62
    4
 10
177.00512500000002
 20
81.399992499999982
 40
3.2000000000000002
 41
1
 50
0
  1
本
  0
TEXT
  8
_0-0_図面枠
 62
    4
 10
43.586831999999987
 20
75.427560999999955
 40
3.2000000000000002
 41
1
 50
0
  1
６
  0
TEXT
  8
_0-0_図面枠
 62
    4
 10
43.586831999999987
 20
69.427555499999968
 40
3.2000000000000002
 41
1
 50
0
  1
７
  0
TEXT
  8
_0-0_図面枠
 62
    4
 10
43.586831999999987
 20
63.427555499999968
 40
3.2000000000000002
 41
1
 50
0
  1
８
  0
TEXT
  8
_0-0_図面枠
 62
    4
 10
43.586831999999987
 20
57.427555499999968
 40
3.2000000000000002
 41
1
 50
0
  1
９
  0
LINE
  8
_0-0_図面枠
  6
CONTINUOUS
 62
    4
 10
382.15000000000009
 20
110.19999999999997
 11
240
 21
110.19999999999997
  0
LINE
  8
_0-0_図面枠
  6
CONTINUOUS
 62
    4
 10
382.15000000000009
 20
104.19999999999997
 11
240
 21
104.19999999999997
  0
LINE
  8
_0-0_図面枠
  6
CONTINUOUS
 62
    4
 10
382.15000000000009
 20
98.199999999999974
 11
240
 21
98.199999999999974
  0
LINE
  8
_0-0_図面枠
  6
CONTINUOUS
 62
    4
 10
382.15000000000009
 20
92.199999999999974
 11
240
 21
92.199999999999974
  0
LINE
  8
_0-0_図面枠
  6
CONTINUOUS
 62
    4
 10
382.15000000000009
 20
86.199999999999974
 11
240
 21
86.199999999999974
  0
LINE
  8
_0-0_図面枠
  6
CONTINUOUS
 62
    4
 10
382.15000000000009
 20
80.199999999999974
 11
240
 21
80.199999999999974
  0
LINE
  8
_0-0_図面枠
  6
CONTINUOUS
 62
    4
 10
382.15000000000009
 20
74.199999999999974
 11
240
 21
74.199999999999974
  0
LINE
  8
_0-0_図面枠
  6
CONTINUOUS
 62
    4
 10
382.15000000000009
 20
68.199999999999974
 11
240
 21
68.199999999999974
  0
LINE
  8
_0-0_図面枠
  6
CONTINUOUS
 62
    4
 10
382.15000000000009
 20
62.199999999999974
 11
240
 21
62.199999999999974
  0
LINE
  8
_0-0_図面枠
  6
CONTINUOUS
 62
    4
 10
382.15000000000009
 20
56.199999999999974
 11
240
 21
56.199999999999974
  0
LINE
  8
_0-0_図面枠
  6
CONTINUOUS
 62
    4
 10
382.15000000000009
 20
120.99999999999999
 11
240
 21
120.99999999999999
  0
LINE
  8
_0-0_図面枠
  6
CONTINUOUS
 62
    4
 10
382.15000000000009
 20
50.199999999999974
 11
240
 21
50.199999999999974
  0
TEXT
  8
_0-0_図面枠
 62
    4
 10
365.55123000000003
 20
116.2000105
 40
3.2000000000000002
 41
1
 50
0
  1
使用
  0
TEXT
  8
_0-0_図面枠
 62
    4
 10
350.50632500000006
 20
116.20002199999998
 40
3.2000000000000002
 41
1
 50
0
  1
定　尺
  0
TEXT
  8
_0-0_図面枠
 62
    4
 10
348.34349000000003
 20
111.40001499999998
 40
3.2000000000000002
 41
1
 50
0
  1
（ｍｍ）
  0
TEXT
  8
_0-0_図面枠
 62
    4
 10
365.55123000000003
 20
111.40000400000001
 40
3.2000000000000002
 41
1
 50
0
  1
数量
  0
TEXT
  8
_0-0_図面枠
 62
    4
 10
240.4970505
 20
105.42754949999998
 40
3.2000000000000002
 41
1
 50
0
  1
　１
  0
TEXT
  8
_0-0_図面枠
 62
    4
 10
243.5868145
 20
99.427549499999984
 40
3.2000000000000002
 41
1
 50
0
  1
２
  0
TEXT
  8
_0-0_図面枠
 62
    4
 10
243.5868145
 20
93.427549499999984
 40
3.2000000000000002
 41
1
 50
0
  1
３
  0
TEXT
  8
_0-0_図面枠
 62
    4
 10
243.5868145
 20
87.427549499999984
 40
3.2000000000000002
 41
1
 50
0
  1
４
  0
TEXT
  8
_0-0_図面枠
 62
    4
 10
243.5868145
 20
81.427560999999983
 40
3.2000000000000002
 41
1
 50
0
  1
５
  0
TEXT
  8
_0-0_図面枠
 62
    4
 10
243.5868145
 20
75.427560999999983
 40
3.2000000000000002
 41
1
 50
0
  1
６
  0
TEXT
  8
_0-0_図面枠
 62
    4
 10
243.5868145
 20
69.427560999999983
 40
3.2000000000000002
 41
1
 50
0
  1
７
  0
TEXT
  8
_0-0_図面枠
 62
    4
 10
243.5868145
 20
63.427555499999968
 40
3.2000000000000002
 41
1
 50
0
  1
８
  0
TEXT
  8
_0-0_図面枠
 62
    4
 10
243.5868145
 20
57.427555499999968
 40
3.2000000000000002
 41
1
 50
0
  1
９
  0
TEXT
  8
_0-0_図面枠
 62
    4
 10
240.4970505
 20
51.427555499999968
 40
3.2000000000000002
 41
1
 50
0
  1
１０
  0
TEXT
  8
_0-0_図面枠
 62
    4
 10
169.36022149999991
 20
105.4499915
 40
3.2000000000000002
 41
1
 50
0
  1
１
  0
TEXT
  8
_0-0_図面枠
 62
    4
 10
48.400007499999987
 20
99.400003999999953
 40
3.2000000000000002
 41
1
 50
0
  1
ＳＳＧアーム(Ａ)
  0
TEXT
  8
_0-0_図面枠
 62
    4
 10
48.400007499999987
 20
93.400003999999953
 40
3.2000000000000002
 41
1
 50
0
  1
ＳＳＧばね(Ａ)
  0
TEXT
  8
_0-0_図面枠
 62
    4
 10
48.400007499999987
 20
87.400003999999953
 40
3.2000000000000002
 41
1
 50
0
  1
ＳＳＧばねフレーム
  0
TEXT
  8
_0-0_図面枠
 62
    4
 10
149.270477
 20
87.400003999999953
 40
3.2000000000000002
 41
1
 50
0
  1
３０００
  0
TEXT
  8
_0-0_図面枠
 62
    4
 10
169.36022149999991
 20
93.449991499999996
 40
3.2000000000000002
 41
1
 50
0
  1
６
  0
TEXT
  8
_0-0_図面枠
 62
    4
 10
48.400007499999987
 20
81.400003999999953
 40
3.2000000000000002
 41
1
 50
0
  1
ＳＳＧフレーム(Ａ)
  0
TEXT
  8
_0-0_図面枠
 62
    4
 10
149.270477
 20
81.400003999999953
 40
3.2000000000000002
 41
1
 50
0
  1
３０００
  0
TEXT
  8
_0-0_図面枠
 62
    4
 10
169.36022149999991
 20
81.45000299999991
 40
3.2000000000000002
 41
1
 50
0
  1
１
  0
TEXT
  8
_0-0_図面枠
 62
    4
 10
177.00512500000002
 20
93.40000400000001
 40
3.2000000000000002
 41
1
 50
0
  1
個
  0
TEXT
  8
_0-0_図面枠
 62
    4
 10
378.55000000000007
 20
118.8
 40
3.2000000000000002
 41
1
 50
0
  1
単位
  7
TATEGAKI
  0
TEXT
  8
_0-0_図面枠
 62
    4
 10
40.497050499999972
 20
51.427555499999968
 40
3.2000000000000002
 41
1
 50
0
  1
１０
  0
TEXT
  8
_0-0_図面枠
 62
    4
 10
349.27047700000014
 20
105.40000399999995
 40
3.2000000000000002
 41
1
 50
0
  1
３０００
  0
TEXT
  8
_0-0_図面枠
 62
    4
 10
377.00512500000013
 20
105.40000399999995
 40
3.2000000000000002
 41
1
 50
0
  1
本
  0
TEXT
  8
_0-0_図面枠
 62
    4
 10
369.36022150000008
 20
87.45000299999991
 40
3.2000000000000002
 41
1
 50
0
  1
１
  0
TEXT
  8
_0-0_図面枠
 62
    4
 10
377.00512500000013
 20
81.399992499999982
 40
3.2000000000000002
 41
1
 50
0
  1
本
  0
TEXT
  8
_0-0_図面枠
 62
    4
 10
369.36022150000008
 20
105.4499915
 40
3.2000000000000002
 41
1
 50
0
  1
１
  0
TEXT
  8
_0-0_図面枠
 62
    4
 10
349.27047700000014
 20
87.400003999999953
 40
3.2000000000000002
 41
1
 50
0
  1
３０００
  0
TEXT
  8
_0-0_図面枠
 62
    4
 10
369.36022150000008
 20
93.449991499999996
 40
3.2000000000000002
 41
1
 50
0
  1
６
  0
TEXT
  8
_0-0_図面枠
 62
    4
 10
248.40000750000007
 20
81.400003999999953
 40
3.2000000000000002
 41
1
 50
0
  1
ＳＳＧフレーム(Ａ)
  0
TEXT
  8
_0-0_図面枠
 62
    4
 10
349.27047700000014
 20
81.400003999999953
 40
3.2000000000000002
 41
1
 50
0
  1
３０００
  0
TEXT
  8
_0-0_図面枠
 62
    4
 10
369.36022150000008
 20
81.45000299999991
 40
3.2000000000000002
 41
1
 50
0
  1
１
  0
TEXT
  8
_0-0_図面枠
 62
    4
 10
377.00512500000013
 20
93.40000400000001
 40
3.2000000000000002
 41
1
 50
0
  1
個
  0
TEXT
  8
_0-0_図面枠
 62
    4
 10
248.40000750000007
 20
99.400003999999953
 40
3.2000000000000002
 41
1
 50
0
  1
ＳＣＧアーム(Ａ)
  0
TEXT
  8
_0-0_図面枠
 62
    4
 10
248.40000750000007
 20
93.400003999999953
 40
3.2000000000000002
 41
1
 50
0
  1
ＳＣＧばね(Ａ)
  0
TEXT
  8
_0-0_図面枠
 62
    4
 10
248.40000750000007
 20
87.400003999999953
 40
3.2000000000000002
 41
1
 50
0
  1
ＳＣＧばねフレーム
  0
TEXT
  8
_0-0_図面枠
 62
    4
 10
177.00512500000002
 20
87.400003999999953
 40
3.2000000000000002
 41
1
 50
0
  1
本
  0
TEXT
  8
_0-0_図面枠
 62
    4
 10
69.300000000000011
 20
114.00000000000001
 40
3.2000000000000002
 41
1
 50
0
  1
部材名称
  0
TEXT
  8
_0-0_図面枠
 62
    4
 10
178.54999999999995
 20
118.80000000000001
 40
3.2000000000000002
 41
1
 50
0
  1
単位
  7
TATEGAKI
  0
TEXT
  8
_0-0_図面枠
 62
    4
 10
119.10833333333336
 20
114
 40
3.2000000000000002
 41
1
 50
0
  1
規　格
  0
TEXT
  8
_0-0_図面枠
 62
    4
 10
267.63333333333333
 20
113.99999999999999
 40
3.2000000000000002
 41
1
 50
0
  1
部材名称
  0
TEXT
  8
_0-0_図面枠
 62
    4
 10
319.10833333333335
 20
113.99999999999999
 40
3.2000000000000002
 41
1
 50
0
  1
規　格
  0
TEXT
  8
_0-0_図面枠
 62
    4
 10
166.27045749999996
 20
70.050008499999961
 40
3.2000000000000002
 41
1
 50
0
  1
１２
  0
TEXT
  8
_0-0_図面枠
 62
    4
 10
169.36022149999991
 20
76.050002999999919
 40
3.2000000000000002
 41
1
 50
0
  1
６
  0
TEXT
  8
_0-0_図面枠
 62
    4
 10
48.400007499999987
 20
70.000009500000004
 40
3.2000000000000002
 41
1
 50
0
  1
ステンタッピンねじ
  0
TEXT
  8
_0-0_図面枠
 62
    4
 10
48.400007499999987
 20
64.000009500000004
 40
3.2000000000000002
 41
1
 50
0
  1
ステンワッシャー
  0
TEXT
  8
_0-0_図面枠
 62
    4
 10
149.270477
 20
52.000009500000004
 40
3.2000000000000002
 41
1
 50
0
  1
３１００
  0
TEXT
  8
_0-0_図面枠
 62
    4
 10
169.36022149999991
 20
52.049997499999989
 40
3.2000000000000002
 41
1
 50
0
  1
２
  0
TEXT
  8
_0-0_図面枠
 62
    4
 10
177.00512500000002
 20
52.000009500000004
 40
3.2000000000000002
 41
1
 50
0
  1
本
  0
TEXT
  8
_0-0_図面枠
 62
    4
 10
166.27045749999996
 20
64.050008499999961
 40
3.2000000000000002
 41
1
 50
0
  1
１２
  0
TEXT
  8
_0-0_図面枠
 62
    4
 10
166.27045749999996
 20
58.050008499999961
 40
3.2000000000000002
 41
1
 50
0
  1
１２
  0
TEXT
  8
_0-0_図面枠
 62
    4
 10
177.00512500000002
 20
75.999992499999991
 40
3.2000000000000002
 41
1
 50
0
  1
本
  0
TEXT
  8
_0-0_図面枠
 62
    4
 10
177.00512500000002
 20
57.999992499999991
 40
3.2000000000000002
 41
1
 50
0
  1
本
  0
TEXT
  8
_0-0_図面枠
 62
    4
 10
177.00512500000002
 20
64.000009500000004
 40
3.2000000000000002
 41
1
 50
0
  1
枚
  0
TEXT
  8
_0-0_図面枠
 62
    4
 10
177.00512500000002
 20
69.999992499999991
 40
3.2000000000000002
 41
1
 50
0
  1
本
  0
TEXT
  8
_0-0_図面枠
 62
    4
 10
102.06669116666673
 20
70.000009500000004
 40
3.2000000000000002
 41
1
 50
0
  1
なべ５×５０
  0
TEXT
  8
_0-0_図面枠
 62
    4
 10
102.0666336666667
 20
64.00000399999999
 40
3.2000000000000002
 41
1
 50
0
  1
１．５×１８×５．５穴
  0
TEXT
  8
_0-0_図面枠
 62
    4
 10
48.400007499999987
 20
76.000009500000004
 40
3.2000000000000002
 41
1
 50
0
  1
ステンドリリングねじ
  0
TEXT
  8
_0-0_図面枠
 62
    4
 10
366.27045750000013
 20
69.450008499999953
 40
3.2000000000000002
 41
1
 50
0
  1
１２
  0
TEXT
  8
_0-0_図面枠
 62
    4
 10
369.36022150000008
 20
75.45000299999991
 40
3.2000000000000002
 41
1
 50
0
  1
６
  0
TEXT
  8
_0-0_図面枠
 62
    4
 10
248.40000750000007
 20
69.400009499999996
 40
3.2000000000000002
 41
1
 50
0
  1
ステンタッピンねじ
  0
TEXT
  8
_0-0_図面枠
 62
    4
 10
248.40000750000007
 20
63.400009499999996
 40
3.2000000000000002
 41
1
 50
0
  1
ステンワッシャー
  0
TEXT
  8
_0-0_図面枠
 62
    4
 10
349.27047700000014
 20
51.400009499999996
 40
3.2000000000000002
 41
1
 50
0
  1
３１００
  0
TEXT
  8
_0-0_図面枠
 62
    4
 10
369.36022150000008
 20
51.449997499999981
 40
3.2000000000000002
 41
1
 50
0
  1
２
  0
TEXT
  8
_0-0_図面枠
 62
    4
 10
377.00512500000013
 20
51.400009499999996
 40
3.2000000000000002
 41
1
 50
0
  1
本
  0
TEXT
  8
_0-0_図面枠
 62
    4
 10
366.27045750000013
 20
63.450008499999953
 40
3.2000000000000002
 41
1
 50
0
  1
１２
  0
TEXT
  8
_0-0_図面枠
 62
    4
 10
366.27045750000013
 20
57.450008499999953
 40
3.2000000000000002
 41
1
 50
0
  1
１２
  0
TEXT
  8
_0-0_図面枠
 62
    4
 10
377.00512500000013
 20
75.399992499999982
 40
3.2000000000000002
 41
1
 50
0
  1
本
  0
TEXT
  8
_0-0_図面枠
 62
    4
 10
377.00512500000013
 20
57.399992499999982
 40
3.2000000000000002
 41
1
 50
0
  1
本
  0
TEXT
  8
_0-0_図面枠
 62
    4
 10
377.00512500000013
 20
63.400009499999996
 40
3.2000000000000002
 41
1
 50
0
  1
枚
  0
TEXT
  8
_0-0_図面枠
 62
    4
 10
377.00512500000013
 20
69.399992499999982
 40
3.2000000000000002
 41
1
 50
0
  1
本
  0
TEXT
  8
_0-0_図面枠
 62
    4
 10
302.06669116666689
 20
69.400009499999996
 40
3.2000000000000002
 41
1
 50
0
  1
なべ５×５０
  0
TEXT
  8
_0-0_図面枠
 62
    4
 10
302.06663366666686
 20
63.400003999999981
 40
3.2000000000000002
 41
1
 50
0
  1
１．５×１８×５．５穴
  0
TEXT
  8
_0-0_図面枠
 62
    4
 10
248.40000750000007
 20
75.400009499999996
 40
3.2000000000000002
 41
1
 50
0
  1
ステンドリリングねじ
  0
TEXT
  8
_0-0_図面枠
 62
    4
 10
169.36022149999991
 20
99.45000299999991
 40
3.2000000000000002
 41
1
 50
0
  1
６
  0
TEXT
  8
_0-0_図面枠
 62
    4
 10
177.00512500000002
 20
99.400003999999953
 40
3.2000000000000002
 41
1
 50
0
  1
個
  0
TEXT
  8
_0-0_図面枠
 62
    4
 10
369.36022150000008
 20
99.449991499999996
 40
3.2000000000000002
 41
1
 50
0
  1
６
  0
TEXT
  8
_0-0_図面枠
 62
    4
 10
377.00512500000013
 20
99.40000400000001
 40
3.2000000000000002
 41
1
 50
0
  1
個
  0
LINE
  8
_0-0_図面枠
  6
CONTINUOUS
 62
    4
 10
182.14999999999998
 20
38.199999999999974
 11
40
 21
38.199999999999974
  0
LINE
  8
_0-0_図面枠
  6
CONTINUOUS
 62
    4
 10
182.14999999999998
 20
32.199999999999974
 11
40
 21
32.199999999999974
  0
LINE
  8
_0-0_図面枠
  6
CONTINUOUS
 62
    4
 10
182.14999999999998
 20
26.199999999999974
 11
40
 21
26.199999999999974
  0
TEXT
  8
_0-0_図面枠
 62
    4
 10
43.586831999999987
 20
33.427555499999968
 40
3.2000000000000002
 41
1
 50
0
  1
※
  0
TEXT
  8
_0-0_図面枠
 62
    4
 10
43.586831999999987
 20
27.427560999999955
 40
3.2000000000000002
 41
1
 50
0
  1
※
  0
LINE
  8
_0-0_図面枠
  6
CONTINUOUS
 62
    4
 10
382.15000000000009
 20
38.199999999999974
 11
240
 21
38.199999999999974
  0
LINE
  8
_0-0_図面枠
  6
CONTINUOUS
 62
    4
 10
382.15000000000009
 20
26.199999999999974
 11
240
 21
26.199999999999974
  0
LINE
  8
_0-0_図面枠
  6
CONTINUOUS
 62
    4
 10
382.15000000000009
 20
32.199999999999974
 11
240
 21
32.199999999999974
  0
TEXT
  8
_0-0_図面枠
 62
    4
 10
243.5868145
 20
33.427555499999968
 40
3.2000000000000002
 41
1
 50
0
  1
※
  0
TEXT
  8
_0-0_図面枠
 62
    4
 10
243.5868145
 20
27.427555499999968
 40
3.2000000000000002
 41
1
 50
0
  1
※
  0
TEXT
  8
_0-0_図面枠
 62
    4
 10
169.36022149999991
 20
40.050002999999975
 40
3.2000000000000002
 41
1
 50
0
  1
１
  0
TEXT
  8
_0-0_図面枠
 62
    4
 10
177.00512500000002
 20
40.000003999999961
 40
3.2000000000000002
 41
1
 50
0
  1
個
  0
TEXT
  8
_0-0_図面枠
 62
    4
 10
149.270477
 20
34.000014999999991
 40
3.2000000000000002
 41
1
 50
0
  1
６０００
  0
TEXT
  8
_0-0_図面枠
 62
    4
 10
169.36022149999991
 20
34.050002999999975
 40
3.2000000000000002
 41
1
 50
0
  1
１
  0
TEXT
  8
_0-0_図面枠
 62
    4
 10
177.00512500000002
 20
34.000009500000004
 40
3.2000000000000002
 41
1
 50
0
  1
巻
  0
TEXT
  8
_0-0_図面枠
 62
    4
 10
48.400007499999987
 20
34.000009500000004
 40
3.2000000000000002
 41
1
 50
0
  1
ブチルテープ
  0
TEXT
  8
_0-0_図面枠
 62
    4
 10
169.36022149999991
 20
28.050002999999975
 40
3.2000000000000002
 41
1
 50
0
  1
２
  0
TEXT
  8
_0-0_図面枠
 62
    4
 10
177.00512500000002
 20
28.000009500000004
 40
3.2000000000000002
 41
1
 50
0
  1
本
  0
TEXT
  8
_0-0_図面枠
 62
    4
 10
102.06669116666673
 20
34.000009500000004
 40
3.2000000000000002
 41
1
 50
0
  1
ｔ１．０×ｗ３０
  0
TEXT
  8
_0-0_図面枠
 62
    4
 10
102.06669116666673
 20
28.00000949999999
 40
3.2000000000000002
 41
1
 50
0
  1
１.５×(１×１９)Ｌ＝６００
  0
TEXT
  8
_0-0_図面枠
 62
    4
 10
43.586831999999987
 20
39.427555499999983
 40
3.2000000000000002
 41
1
 50
0
  1
※
  0
TEXT
  8
_0-0_図面枠
 62
    4
 10
369.8602370000001
 20
39.450002999999967
 40
3.2000000000000002
 41
1
 50
0
  1
１
  0
TEXT
  8
_0-0_図面枠
 62
    4
 10
377.00510200000008
 20
39.400003999999981
 40
3.2000000000000002
 41
1
 50
0
  1
個
  0
TEXT
  8
_0-0_図面枠
 62
    4
 10
349.27041950000012
 20
33.400009499999996
 40
3.2000000000000002
 41
1
 50
0
  1
６０００
  0
TEXT
  8
_0-0_図面枠
 62
    4
 10
369.8602370000001
 20
33.450002999999967
 40
3.2000000000000002
 41
1
 50
0
  1
１
  0
TEXT
  8
_0-0_図面枠
 62
    4
 10
377.00510200000008
 20
33.400009499999996
 40
3.2000000000000002
 41
1
 50
0
  1
巻
  0
TEXT
  8
_0-0_図面枠
 62
    4
 10
248.400013
 20
33.400009499999996
 40
3.2000000000000002
 41
1
 50
0
  1
ブチルテープ
  0
TEXT
  8
_0-0_図面枠
 62
    4
 10
369.8602370000001
 20
27.450002999999967
 40
3.2000000000000002
 41
1
 50
0
  1
２
  0
TEXT
  8
_0-0_図面枠
 62
    4
 10
377.00510200000008
 20
27.400006499999975
 40
3.2000000000000002
 41
1
 50
0
  1
本
  0
TEXT
  8
_0-0_図面枠
 62
    4
 10
302.06663366666669
 20
33.400009499999996
 40
3.2000000000000002
 41
1
 50
0
  1
ｔ１．０×ｗ３０
  0
TEXT
  8
_0-0_図面枠
 62
    4
 10
302.06669116666671
 20
27.400009499999982
 40
3.2000000000000002
 41
1
 50
0
  1
１.５×(１×１９)Ｌ＝６００
  0
TEXT
  8
_0-0_図面枠
 62
    4
 10
243.5868145
 20
39.427555499999983
 40
3.2000000000000002
 41
1
 50
0
  1
※
  0
TEXT
  8
_0-0_図面枠
 62
    4
 10
248.40000750000002
 20
27.400009499999996
 40
3.2000000000000002
 41
1
 50
0
  1
落下防止ワイヤー
  0
TEXT
  8
_0-0_図面枠
 62
    4
 10
48.400007500000015
 20
28.000009500000004
 40
3.2000000000000002
 41
1
 50
0
  1
落下防止ワイヤー
  0
LINE
  8
_0-0_図面枠
  6
CONTINUOUS
 62
    4
 10
182.14999999999998
 20
44.199999999999974
 11
40
 21
44.199999999999974
  0
LINE
  8
_0-0_図面枠
  6
CONTINUOUS
 62
    4
 10
382.15000000000009
 20
44.199999999999974
 11
240
 21
44.199999999999974
  0
LINE
  8
_0-0_図面枠
  6
CONTINUOUS
 62
    4
 10
47.200000000000017
 20
26.199999999999989
 11
47.200000000000017
 21
121
  0
LINE
  8
_0-0_図面枠
  6
CONTINUOUS
 62
    4
 10
182.14999999999998
 20
26.199999999999974
 11
182.14999999999998
 21
120.99999999999999
  0
LINE
  8
_0-0_図面枠
  6
CONTINUOUS
 62
    4
 10
162.94999999999999
 20
26.199999999999974
 11
162.94999999999999
 21
120.99999999999999
  0
LINE
  8
_0-0_図面枠
  6
CONTINUOUS
 62
    4
 10
147.95000000000002
 20
26.199999999999974
 11
147.95000000000002
 21
120.99999999999999
  0
LINE
  8
_0-0_図面枠
  6
CONTINUOUS
 62
    4
 10
174.95000000000005
 20
26.199999999999974
 11
174.95000000000005
 21
120.99999999999999
  0
LINE
  8
_0-0_図面枠
  6
CONTINUOUS
 62
    4
 10
146.95000000000002
 20
26.199999999999974
 11
146.95000000000002
 21
120.99999999999999
  0
LINE
  8
_0-0_図面枠
  6
CONTINUOUS
 62
    4
 10
100.86666666666669
 20
26.199999999999989
 11
100.86666666666669
 21
121
  0
LINE
  8
_0-0_図面枠
  6
CONTINUOUS
 62
    4
 10
240
 20
26.199999999999989
 11
240
 21
121
  0
LINE
  8
_0-0_図面枠
  6
CONTINUOUS
 62
    4
 10
247.20000000000005
 20
26.199999999999989
 11
247.20000000000005
 21
121
  0
LINE
  8
_0-0_図面枠
  6
CONTINUOUS
 62
    4
 10
346.95000000000005
 20
26.199999999999974
 11
346.95000000000005
 21
120.99999999999997
  0
LINE
  8
_0-0_図面枠
  6
CONTINUOUS
 62
    4
 10
382.15000000000009
 20
26.199999999999974
 11
382.15000000000009
 21
120.99999999999997
  0
LINE
  8
_0-0_図面枠
  6
CONTINUOUS
 62
    4
 10
374.95000000000005
 20
26.199999999999974
 11
374.95000000000005
 21
120.99999999999997
  0
LINE
  8
_0-0_図面枠
  6
CONTINUOUS
 62
    4
 10
362.95000000000005
 20
26.199999999999974
 11
362.95000000000005
 21
120.99999999999997
  0
LINE
  8
_0-0_図面枠
  6
CONTINUOUS
 62
    4
 10
347.95000000000005
 20
26.199999999999974
 11
347.95000000000005
 21
120.99999999999997
  0
LINE
  8
_0-0_図面枠
  6
CONTINUOUS
 62
    4
 10
300.86666666666667
 20
26.199999999999989
 11
300.86666666666667
 21
120.99999999999997
  0
TEXT
  8
_0-0_図面枠
 62
    4
 10
153.85000000000002
 20
45.599999999999994
 40
3.2000000000000002
 41
1
 50
0
  1
―
  0
TEXT
  8
_0-0_図面枠
 62
    4
 10
169.36022149999991
 20
45.45000299999991
 40
3.2000000000000002
 41
1
 50
0
  1
６
  0
TEXT
  8
_0-0_図面枠
 62
    4
 10
122.30833333333337
 20
45.599999999999994
 40
3.2000000000000002
 41
1
 50
0
  1
―
  0
TEXT
  8
_0-0_図面枠
 62
    4
 10
48.400007499999987
 20
45.400003999999953
 40
3.2000000000000002
 41
1
 50
0
  1
ＳＳＧクリップ
  0
TEXT
  8
_0-0_図面枠
 62
    4
 10
353.85000000000002
 20
45.599999999999994
 40
3.2000000000000002
 41
1
 50
0
  1
―
  0
TEXT
  8
_0-0_図面枠
 62
    4
 10
369.36022149999991
 20
45.45000299999991
 40
3.2000000000000002
 41
1
 50
0
  1
６
  0
TEXT
  8
_0-0_図面枠
 62
    4
 10
322.30833333333334
 20
45.599999999999994
 40
3.2000000000000002
 41
1
 50
0
  1
―
  0
TEXT
  8
_0-0_図面枠
 62
    4
 10
248.40000749999999
 20
45.400003999999953
 40
3.2000000000000002
 41
1
 50
0
  1
ＳＳＧクリップ
  0
TEXT
  8
_0-0_図面枠
 62
    4
 10
240.49705049999997
 20
45.427555499999968
 40
3.2000000000000002
 41
1
 50
0
  1
１１
  0
TEXT
  8
_0-0_図面枠
 62
    4
 10
40.497050499999972
 20
45.427555499999968
 40
3.2000000000000002
 41
1
 50
0
  1
１１
  0
LINE
  8
_0-0_図面枠
  6
CONTINUOUS
 62
    4
 10
40
 20
26.199999999999974
 11
40
 21
121
  0
TEXT
  8
_0-0_図面枠
 62
    4
 10
102.06669116666674
 20
99.40000400000001
 40
3.2000000000000002
 41
1
 50
0
  1
Ｌ＝１４０
  0
TEXT
  8
_0-0_図面枠
 62
    4
 10
122.30833333333337
 20
105.60000000000005
 40
3.2000000000000002
 41
1
 50
0
  1
―
  0
TEXT
  8
_0-0_図面枠
 62
    4
 10
122.30833333333337
 20
93.600000000000051
 40
3.2000000000000002
 41
1
 50
0
  1
―
  0
TEXT
  8
_0-0_図面枠
 62
    4
 10
122.30833333333337
 20
87.600000000000051
 40
3.2000000000000002
 41
1
 50
0
  1
―
  0
TEXT
  8
_0-0_図面枠
 62
    4
 10
122.30833333333337
 20
81.600000000000051
 40
3.2000000000000002
 41
1
 50
0
  1
―
  0
TEXT
  8
_0-0_図面枠
 62
    4
 10
122.30833333333337
 20
51.599999999999994
 40
3.2000000000000002
 41
1
 50
0
  1
―
  0
TEXT
  8
_0-0_図面枠
 62
    4
 10
153.85000000000002
 20
99.600000000000051
 40
3.2000000000000002
 41
1
 50
0
  1
―
  0
TEXT
  8
_0-0_図面枠
 62
    4
 10
153.85000000000002
 20
93.600000000000051
 40
3.2000000000000002
 41
1
 50
0
  1
―
  0
TEXT
  8
_0-0_図面枠
 62
    4
 10
153.85000000000002
 20
75
 40
3.2000000000000002
 41
1
 50
0
  1
―
  0
TEXT
  8
_0-0_図面枠
 62
    4
 10
153.85000000000002
 20
69.599999999999994
 40
3.2000000000000002
 41
1
 50
0
  1
―
  0
TEXT
  8
_0-0_図面枠
 62
    4
 10
153.85000000000002
 20
63.599999999999994
 40
3.2000000000000002
 41
1
 50
0
  1
―
  0
TEXT
  8
_0-0_図面枠
 62
    4
 10
153.85000000000002
 20
57.599999999999994
 40
3.2000000000000002
 41
1
 50
0
  1
―
  0
TEXT
  8
_0-0_図面枠
 62
    4
 10
153.85000000000002
 20
39.599999999999994
 40
3.2000000000000002
 41
1
 50
0
  1
―
  0
TEXT
  8
_0-0_図面枠
 62
    4
 10
153.85000000000002
 20
27.599999999999994
 40
3.2000000000000002
 41
1
 50
0
  1
―
  0
TEXT
  8
_0-0_図面枠
 62
    4
 10
102.06669116666676
 20
57.400009499999996
 40
3.2000000000000002
 41
1
 50
0
  1
φ８×４０
  0
TEXT
  8
_0-0_図面枠
 62
    4
 10
102.0666796666667
 20
39.400003999999953
 40
3.2000000000000002
 41
1
 50
0
  1
ＡＬ　ｔ＝１．５
  0
TEXT
  8
_0-0_図面枠
 62
    4
 10
322.30833333333328
 20
105.59999999999999
 40
3.2000000000000002
 41
1
 50
0
  1
―
  0
TEXT
  8
_0-0_図面枠
 62
    4
 10
322.30833333333328
 20
93.599999999999994
 40
3.2000000000000002
 41
1
 50
0
  1
―
  0
TEXT
  8
_0-0_図面枠
 62
    4
 10
322.30833333333328
 20
87.599999999999994
 40
3.2000000000000002
 41
1
 50
0
  1
―
  0
TEXT
  8
_0-0_図面枠
 62
    4
 10
322.30833333333328
 20
81.599999999999994
 40
3.2000000000000002
 41
1
 50
0
  1
―
  0
TEXT
  8
_0-0_図面枠
 62
    4
 10
302.06669116666671
 20
99.400003999999953
 40
3.2000000000000002
 41
1
 50
0
  1
Ｌ＝７２
  0
TEXT
  8
_0-0_図面枠
 62
    4
 10
377.00512500000013
 20
87.399992499999982
 40
3.2000000000000002
 41
1
 50
0
  1
本
  0
TEXT
  8
_0-0_図面枠
 62
    4
 10
353.85000000000002
 20
39.599999999999994
 40
3.2000000000000002
 41
1
 50
0
  1
―
  0
TEXT
  8
_0-0_図面枠
 62
    4
 10
353.85000000000002
 20
27.599999999999994
 40
3.2000000000000002
 41
1
 50
0
  1
―
  0
TEXT
  8
_0-0_図面枠
 62
    4
 10
353.85000000000002
 20
57.599999999999994
 40
3.2000000000000002
 41
1
 50
0
  1
―
  0
TEXT
  8
_0-0_図面枠
 62
    4
 10
353.85000000000002
 20
63.599999999999994
 40
3.2000000000000002
 41
1
 50
0
  1
―
  0
TEXT
  8
_0-0_図面枠
 62
    4
 10
353.85000000000002
 20
69.599999999999994
 40
3.2000000000000002
 41
1
 50
0
  1
―
  0
TEXT
  8
_0-0_図面枠
 62
    4
 10
353.85000000000002
 20
75.599999999999994
 40
3.2000000000000002
 41
1
 50
0
  1
―
  0
TEXT
  8
_0-0_図面枠
 62
    4
 10
353.85000000000002
 20
93.599999999999994
 40
3.2000000000000002
 41
1
 50
0
  1
―
  0
TEXT
  8
_0-0_図面枠
 62
    4
 10
353.85000000000002
 20
99.599999999999994
 40
3.2000000000000002
 41
1
 50
0
  1
―
  0
TEXT
  8
_0-0_図面枠
 62
    4
 10
302.06669116666683
 20
57.400009499999996
 40
3.2000000000000002
 41
1
 50
0
  1
φ８×４０
  0
TEXT
  8
_0-0_図面枠
 62
    4
 10
322.30833333333334
 20
51.599999999999994
 40
3.2000000000000002
 41
1
 50
0
  1
―
  0
TEXT
  8
_0-0_図面枠
 62
    4
 10
302.06667966666669
 20
39.400003999999953
 40
3.2000000000000002
 41
1
 50
0
  1
ＡＬ　ｔ＝１．５
  0
INSERT
  2
-007-_7_
  8
_1-4_フレ__ム
 10
210
 20
148.5
 41
1
 42
1
 50
0
  0
INSERT
  2
-008-_8_
  8
_1-8_小物
 10
210
 20
148.5
 41
1
 42
1
 50
0
  0
INSERT
  2
-009-_9_
  8
_1-5_ア__ム
 10
210
 20
148.5
 41
1
 42
1
 50
0
  0
INSERT
  2
-010-_10_
  8
_1-6_ばね
 10
210
 20
148.5
 41
1
 42
1
 50
0
  0
INSERT
  2
-011-_11_
  8
_1-4_フレ__ム
 10
210
 20
148.5
 41
1
 42
1
 50
0
  0
INSERT
  2
-012-_12_
  8
_1-8_小物
 10
210
 20
148.5
 41
1
 42
1
 50
0
  0
INSERT
  2
-013-_13_
  8
_1-8_小物
 10
210
 20
148.5
 41
1
 42
1
 50
0
  0
INSERT
  2
-014-_14_
  8
_1-4_フレ__ム
 10
210
 20
148.5
 41
1
 42
1
 50
0
  0
INSERT
  2
-015-_15_
  8
_1-8_小物
 10
210
 20
148.5
 41
1
 42
1
 50
0
  0
TEXT
  8
_0-0_図面枠
 62
    4
 10
102.0666796666667
 20
76.000009500000004
 40
3.2000000000000002
 41
1
 50
0
  1
皿(Ｄ６)４×１６
  0
TEXT
  8
_0-0_図面枠
 62
    4
 10
302.06667966666669
 20
75.400009499999996
 40
3.2000000000000002
 41
1
 50
0
  1
皿(Ｄ６)４×１６
  0
TEXT
  8
_0-0_図面枠
 62
    4
 10
48.400007499999987
 20
40.000003999999961
 40
3.2000000000000002
 41
1
 50
0
  1
ジョイントプレート
  0
TEXT
  8
_0-0_図面枠
 62
    4
 10
248.400013
 20
39.400003999999981
 40
3.2000000000000002
 41
1
 50
0
  1
ジョイントプレート
  0
LINE
  8
_1-f_寸法
  6
CONTINUOUS
 62
    4
 10
338.00000000436694
 20
243.33333333333331
 11
338.00000000436694
 21
254.93333333333331
  0
LINE
  8
_1-f_寸法
  6
CONTINUOUS
 62
    4
 10
301.66666666666663
 20
243.33333333333331
 11
301.66666666666663
 21
254.93333333333331
  0
POINT
  8
_1-f_寸法
 62
    4
 10
301.66666666666663
 20
253.33333333333331
  0
POINT
  8
_1-f_寸法
 62
    4
 10
338.00000000436694
 20
253.33333333333331
  0
LINE
  8
_1-f_寸法
  6
CONTINUOUS
 62
    4
 10
301.66666666666663
 20
253.33333333333331
 11
338.00000000436694
 21
253.33333333333331
  0
TEXT
  8
_1-f_寸法
 62
    4
 10
317.43333333551675
 20
253.33333333333331
 40
3.2000000000000002
 41
1
 50
0
  1
109
  0
LINE
  8
_1-f_寸法
  6
CONTINUOUS
 62
    4
 10
338.00000000436648
 20
243.33333333333331
 11
338.00000000436648
 21
226.66666666666666
  0
LINE
  8
_1-0_躯体
  6
CENTER2
 62
    4
 10
304.73846062743996
 20
228.00000400329159
 11
285
 21
228.00000400329159
  0
INSERT
  2
-016-_16_
  8
_1-8_小物
 10
210
 20
148.5
 41
1
 42
1
 50
0
  0
INSERT
  2
-017-_17_
  8
_1-4_フレ__ム
 10
210
 20
148.5
 41
1
 42
1
 50
0
  0
INSERT
  2
-018-_18_
  8
_1-8_小物
 10
210
 20
148.5
 41
1
 42
1
 50
0
  0
INSERT
  2
-019-_19_
  8
_1-8_小物
 10
210
 20
148.5
 41
1
 42
1
 50
0
  0
INSERT
  2
-020-_20_
  8
_1-5_ア__ム
 10
210
 20
148.5
 41
1
 42
1
 50
0
  0
INSERT
  2
-021-_21_
  8
_1-6_ばね
 10
210
 20
148.5
 41
1
 42
1
 50
0
  0
LINE
  8
_1-f_寸法
  6
CONTINUOUS
 62
    4
 10
348.33333333333331
 20
239.66666033237431
 11
356.59999999999997
 21
239.66666033237431
  0
LINE
  8
_1-f_寸法
  6
CONTINUOUS
 62
    4
 10
348.33333333333331
 20
216.66666666666666
 11
356.59999999999997
 21
216.66666666666666
  0
POINT
  8
_1-f_寸法
 62
    4
 10
355
 20
216.66666666666666
  0
POINT
  8
_1-f_寸法
 62
    4
 10
355
 20
239.66666033237431
  0
LINE
  8
_1-f_寸法
  6
CONTINUOUS
 62
    4
 10
355
 20
216.66666666666666
 11
355
 21
239.66666033237431
  0
TEXT
  8
_1-f_寸法
 62
    4
 10
355
 20
226.5666634995205
 40
3.2000000000000002
 41
1
 50
90
  1
69
  0
LINE
  8
_1-f_寸法
  6
CONTINUOUS
 62
    4
 10
343.33333333333331
 20
239.66666031374081
 11
311.66666666666663
 21
239.66666031374081
  0
LINE
  8
_1-f_寸法
  6
CONTINUOUS
 62
    4
 10
285
 20
228.00000400329159
 11
278.39999999999998
 21
228.00000400329159
  0
LINE
  8
_1-f_寸法
  6
CONTINUOUS
 62
    4
 10
285
 20
216.66666666666666
 11
278.39999999999998
 21
216.66666666666666
  0
POINT
  8
_1-f_寸法
 62
    4
 10
280
 20
216.66666666666666
  0
POINT
  8
_1-f_寸法
 62
    4
 10
280
 20
228.00000400329159
  0
LINE
  8
_1-f_寸法
  6
CONTINUOUS
 62
    4
 10
280
 20
216.66666666666666
 11
280
 21
228.00000400329159
  0
TEXT
  8
_1-f_寸法
 62
    4
 10
280
 20
220.73333533497913
 40
3.2000000000000002
 41
1
 50
90
  1
34
  0
TEXT
  8
_0-0_図面枠
 62
    4
 10
20
 20
280
 40
3.2000000000000002
 41
1
 50
0
  1
（ステンレス５０タイプ）
  0
TEXT
  8
_0-0_図面枠
 62
    4
 10
30
 20
270
 40
3.2000000000000002
 41
1
 50
0
  1
◇内壁＋内壁（５０ＫＫＧ－Ｓ）　Ｓ＝１／３
  0
TEXT
  8
_0-0_図面枠
 62
    4
 10
220
 20
280
 40
3.2000000000000002
 41
1
 50
0
  1
（ステンレス５０タイプ）
  0
TEXT
  8
_0-0_図面枠
 62
    4
 10
230
 20
270
 40
3.2000000000000002
 41
1
 50
0
  1
◇内壁＋内壁コーナー（５０ＫＣＧ－Ｓ）　Ｓ＝１／３
  0
TEXT
  8
_0-0_図面枠
 62
    4
 10
248.40000750000002
 20
51.400003999999953
 40
3.2000000000000002
 41
1
 50
0
  1
ガスケットＧＳ
  0
TEXT
  8
_0-0_図面枠
 62
    4
 10
48.400007500000015
 20
51.400003999999953
 40
3.2000000000000002
 41
1
 50
0
  1
ガスケットＧＳ
  0
TEXT
  8
_0-0_図面枠
 62
    4
 10
48.400007499999987
 20
105.40000399999995
 40
3.2000000000000002
 41
1
 50
0
  1
ＵＵＧキャップ(Ａ)Ｓ
  0
TEXT
  8
_0-0_図面枠
 62
    4
 10
248.40000750000007
 20
105.40000399999995
 40
3.2000000000000002
 41
1
 50
0
  1
ＵＣＧキャップ(Ａ)Ｓ
  0
TEXT
  8
_0-0_図面枠
 62
    4
 10
177.00512500000002
 20
45.399992499999982
 40
3.2000000000000002
 41
1
 50
0
  1
個
  0
TEXT
  8
_0-0_図面枠
 62
    4
 10
377.00512500000002
 20
45.399992499999982
 40
3.2000000000000002
 41
1
 50
0
  1
個
  0
TEXT
  8
_0-0_図面枠
 62
    4
 10
48.400007500000015
 20
57.400003999999953
 40
3.2000000000000002
 41
1
 50
0
  1
アンカープラグ
  0
TEXT
  8
_0-0_図面枠
 62
    4
 10
248.40000750000007
 20
57.400003999999953
 40
3.2000000000000002
 41
1
 50
0
  1
アンカープラグ
  0
LINE
  8
_0-0_図面枠
  6
CONTINUOUS
 62
    2
 10
165.00000000000003
 20
246.99999999999994
 11
210.00000000000003
 21
246.99999999999994
  0
LINE
  8
_0-0_図面枠
  6
CONTINUOUS
 62
    2
 10
165.00000000000003
 20
246.99999999999994
 11
165.00000000000003
 21
287
  0
INSERT
  2
-022-_22_
  8
_0-0_図面枠
 10
210
 20
148.5
 41
1
 42
1
 50
0
  0
LINE
  8
_0-0_図面枠
  6
CONTINUOUS
 62
    2
 10
178.99460475445105
 20
263.11505807960714
 11
181.1596682639121
 21
261.86505807960714
  0
LINE
  8
_0-0_図面枠
  6
CONTINUOUS
 62
    2
 10
181.1596682639121
 20
261.86505807960714
 11
195.88210012824757
 21
270.36505807960714
  0
LINE
  8
_0-0_図面枠
  6
CONTINUOUS
 62
    2
 10
195.88210012824757
 20
270.36505807960714
 11
193.71703661878647
 21
271.61505807960714
  0
LINE
  8
_0-0_図面枠
  6
CONTINUOUS
 62
    2
 10
181.1596682639121
 20
261.86505807960714
 11
181.1596682639121
 21
251.86505807960714
  0
LINE
  8
_0-0_図面枠
  6
CONTINUOUS
 62
    2
 10
178.99460475445105
 20
263.11505807960714
 11
178.99460475445105
 21
253.11505807960714
  0
LINE
  8
_0-0_図面枠
  6
CONTINUOUS
 62
    2
 10
195.88210012824757
 20
270.36505807960714
 11
195.88210012824757
 21
270.18409224854935
  0
LINE
  8
_0-0_図面枠
  6
CONTINUOUS
 62
    2
 10
195.88210012824757
 20
268.01364867294285
 11
195.88210012824757
 21
260.36505807960714
  0
LINE
  8
_0-0_図面枠
  6
CONTINUOUS
 62
    2
 10
193.71703661878647
 20
271.61505807960714
 11
193.71703661878647
 21
271.52033947808678
  0
LINE
  8
_0-0_図面枠
  6
CONTINUOUS
 62
    2
 10
193.71703661878647
 20
270.73757885370628
 11
193.71703661878647
 21
269.11505807960714
  0
LINE
  8
_0-0_図面枠
  6
CONTINUOUS
 62
    3
 10
184.19075717715768
 20
266.11505807960714
 11
184.19075717715768
 21
263.61505807960714
  0
LINE
  8
_0-0_図面枠
  6
CONTINUOUS
 62
    3
 10
188.52088419607989
 20
268.61505807960714
 11
188.52088419607989
 21
266.11505807960714
  0
LINE
  8
_0-0_図面枠
  6
CONTINUOUS
 62
    3
 10
184.19075717715768
 20
266.11505807960714
 11
178.99460475445105
 21
263.11505807960714
  0
LINE
  8
_0-0_図面枠
  6
CONTINUOUS
 62
    3
 10
188.52088419607989
 20
268.61505807960714
 11
184.19075717715774
 21
271.11505807960714
  0
LINE
  8
_0-0_図面枠
  6
CONTINUOUS
 62
    3
 10
184.19075717715768
 20
266.11505807960714
 11
179.86063015823552
 21
268.61505807960714
  0
LINE
  8
_0-0_図面枠
  6
CONTINUOUS
 62
    3
 10
178.99460475445105
 20
263.11505807960714
 11
175.53050313931331
 21
261.11505807960714
  0
LINE
  8
_0-0_図面枠
  6
CONTINUOUS
 62
    3
 10
193.71703661878647
 20
271.61505807960714
 11
197.18113823392426
 21
273.61505807960714
  0
LINE
  8
_0-0_図面枠
  6
CONTINUOUS
 62
    3
 10
193.71703661878647
 20
271.61505807960714
 11
193.68236424150385
 21
271.59503997324953
  0
LINE
  8
_0-0_図面枠
  6
CONTINUOUS
 62
    3
 10
192.51835025799224
 20
270.92299618652862
 11
188.52088419607989
 21
268.61505807960714
  0
TEXT
  8
_0-0_図面枠
 62
    4
 10
195.7385458179771
 20
280.88494192039275
 40
2.5
 41
1
 50
0
  1
+25
  0
TEXT
  8
_0-0_図面枠
 62
    4
 10
173.22228872183663
 20
267.88610650082211
 40
2.5
 41
1
 50
0
  1
-25
  0
TEXT
  8
_0-0_図面枠
 62
    4
 10
173.22269212770598
 20
280.88494192039275
 40
2.5
 41
1
 50
0
  1
-25
  0
TEXT
  8
_0-0_図面枠
 62
    4
 10
195.73854581797704
 20
267.88540773128045
 40
2.5
 41
1
 50
0
  1
+25
  0
LINE
  8
_0-0_図面枠
  6
CONTINUOUS
 62
    2
 10
365.00000000000006
 20
246.99999999999994
 11
410.00000000000006
 21
246.99999999999994
  0
LINE
  8
_0-0_図面枠
  6
CONTINUOUS
 62
    2
 10
365.00000000000006
 20
247
 11
365.00000000000006
 21
287
  0
INSERT
  2
-023-_23_
  8
_0-0_図面枠
 10
210
 20
148.5
 41
1
 42
1
 50
0
  0
LINE
  8
_0-0_図面枠
  6
CONTINUOUS
 62
    4
 10
392.70254983187715
 20
272.37647457958167
 11
392.66787745459447
 21
272.35645647322406
  0
LINE
  8
_0-0_図面枠
  6
CONTINUOUS
 62
    2
 10
377.98011796754173
 20
263.87647457958167
 11
380.14518147700278
 21
262.62647457958167
  0
LINE
  8
_0-0_図面枠
  6
CONTINUOUS
 62
    2
 10
380.14518147700278
 20
262.62647457958167
 11
380.14518147700278
 21
252.62647457958167
  0
LINE
  8
_0-0_図面枠
  6
CONTINUOUS
 62
    2
 10
377.98011796754173
 20
263.87647457958167
 11
377.98011796754173
 21
253.87647457958167
  0
LINE
  8
_0-0_図面枠
  6
CONTINUOUS
 62
    2
 10
387.50639740917057
 20
266.87647457958161
 11
390.97049902430831
 21
264.87647457958161
  0
LINE
  8
_0-0_図面枠
  6
CONTINUOUS
 62
    2
 10
390.97049902430831
 20
264.87647457958161
 11
393.13556253376942
 21
266.12647457958161
  0
LINE
  8
_0-0_図面枠
  6
CONTINUOUS
 62
    2
 10
380.14518147700278
 20
262.62647457958167
 11
387.50639740917046
 21
266.87647457958167
  0
LINE
  8
_0-0_図面枠
  6
CONTINUOUS
 62
    2
 10
390.97049902430831
 20
264.87647457958161
 11
390.97049902430831
 21
254.87647457958161
  0
LINE
  8
_0-0_図面枠
  6
CONTINUOUS
 62
    2
 10
393.13556253376942
 20
266.12647457958161
 11
393.13556253376942
 21
256.12647457958161
  0
LINE
  8
_0-0_図面枠
  6
CONTINUOUS
 62
    3
 10
377.98011796754173
 20
263.87647457958167
 11
374.51601635240394
 21
261.87647457958167
  0
LINE
  8
_0-0_図面枠
  6
CONTINUOUS
 62
    3
 10
383.17627039024836
 20
266.87647457958167
 11
383.17627039024836
 21
264.37647457958167
  0
LINE
  8
_0-0_図面枠
  6
CONTINUOUS
 62
    3
 10
383.17627039024836
 20
266.87647457958167
 11
377.98011796754173
 21
263.87647457958167
  0
LINE
  8
_0-0_図面枠
  6
CONTINUOUS
 62
    3
 10
396.16665144701494
 20
264.37647457958167
 11
383.17627039024836
 21
271.87647457958167
  0
LINE
  8
_0-0_図面枠
  6
CONTINUOUS
 62
    3
 10
396.16665144701494
 20
264.37647457958167
 11
400.4967784659371
 21
266.87647457958167
  0
LINE
  8
_0-0_図面枠
  6
CONTINUOUS
 62
    3
 10
396.16665144701494
 20
264.37647457958161
 11
396.16665144701494
 21
254.37647457958161
  0
LINE
  8
_0-0_図面枠
  6
CONTINUOUS
 62
    3
 10
383.17627039024836
 20
266.87647457958167
 11
378.84614337132615
 21
269.37647457958167
  0
TEXT
  8
_0-0_図面枠
 62
    4
 10
372.20860876835116
 20
281.64635842036728
 40
2.5
 41
1
 50
0
  1
-25
  0
TEXT
  8
_0-0_図面枠
 62
    4
 10
394.72446245862221
 20
268.64682423125498
 40
2.5
 41
1
 50
0
  1
+25
  0
TEXT
  8
_0-0_図面枠
 62
    4
 10
394.72446245862227
 20
281.64635842036728
 40
2.5
 41
1
 50
0
  1
+25
  0
TEXT
  8
_0-0_図面枠
 62
    4
 10
372.20820536248181
 20
268.64752300079664
 40
2.5
 41
1
 50
0
  1
-25
  0
INSERT
  2
-024-_24_
  8
_1-8_小物
 10
210
 20
148.5
 41
1
 42
1
 50
0
  0
INSERT
  2
-025-_25_
  8
_1-8_小物
 10
210
 20
148.5
 41
1
 42
1
 50
0
  0
INSERT
  2
-026-_26_
  8
_1-7_カバ__
 10
210
 20
148.5
 41
1
 42
1
 50
0
  0
INSERT
  2
-027-_27_
  8
_1-7_カバ__
 10
210
 20
148.5
 41
1
 42
1
 50
0
  0
INSERT
  2
-028-_28_
  8
_1-8_小物
 10
210
 20
148.5
 41
1
 42
1
 50
0
  0
INSERT
  2
-029-_29_
  8
_1-8_小物
 10
210
 20
148.5
 41
1
 42
1
 50
0
  0
INSERT
  2
-030-_30_
  8
_1-8_小物
 10
210
 20
148.5
 41
1
 42
1
 50
0
  0
LINE
  8
_1-f_寸法
  6
CONTINUOUS
 62
    4
 10
343.33333333333331
 20
224.50000001863356
 11
349.93333333333328
 21
224.50000001863356
  0
LINE
  8
_1-f_寸法
  6
CONTINUOUS
 62
    4
 10
343.33333333333331
 20
216.66666666666666
 11
349.93333333333328
 21
216.66666666666666
  0
POINT
  8
_1-f_寸法
 62
    4
 10
348.33333333333331
 20
216.66666666666666
  0
POINT
  8
_1-f_寸法
 62
    4
 10
348.33333333333331
 20
224.50000001863356
  0
LINE
  8
_1-f_寸法
  6
CONTINUOUS
 62
    4
 10
348.33333333333331
 20
216.66666666666666
 11
348.33333333333331
 21
224.50000001863356
  0
TEXT
  8
_1-f_寸法
 62
    4
 10
348.33333333333331
 20
217.38333334265013
 40
3.2000000000000002
 41
1
 50
90
  1
23.5
  0
LINE
  8
_1-f_寸法
  6
CONTINUOUS
 62
    4
 10
343.33333333333331
 20
239.66666031374081
 11
349.93333333333328
 21
239.66666031374081
  0
POINT
  8
_1-f_寸法
 62
    4
 10
348.33333333333331
 20
239.66666031374081
  0
LINE
  8
_1-f_寸法
  6
CONTINUOUS
 62
    4
 10
348.33333333333331
 20
224.50000001863356
 11
348.33333333333331
 21
239.66666031374081
  0
TEXT
  8
_1-f_寸法
 62
    4
 10
348.33333333333331
 20
228.88333016618722
 40
3.2000000000000002
 41
1
 50
90
  1
45.5
  0
LINE
  8
_1-f_寸法
  6
CONTINUOUS
 62
    4
 10
309.50000000000011
 20
243.33333333333331
 11
309.50000000000011
 21
249.93333333333331
  0
LINE
  8
_1-f_寸法
  6
CONTINUOUS
 62
    4
 10
301.66666666666663
 20
243.33333333333331
 11
301.66666666666663
 21
249.93333333333331
  0
POINT
  8
_1-f_寸法
 62
    4
 10
301.66666666666663
 20
248.33333333333331
  0
POINT
  8
_1-f_寸法
 62
    4
 10
309.50000000000011
 20
248.33333333333331
  0
LINE
  8
_1-f_寸法
  6
CONTINUOUS
 62
    4
 10
301.66666666666663
 20
248.33333333333331
 11
309.50000000000011
 21
248.33333333333331
  0
TEXT
  8
_1-f_寸法
 62
    4
 10
302.38333333333333
 20
248.33333333333331
 40
3.2000000000000002
 41
1
 50
0
  1
23.5
  0
LINE
  8
_1-f_寸法
  6
CONTINUOUS
 62
    4
 10
338.00000000436648
 20
243.33333333333331
 11
338.00000000436648
 21
249.93333333333331
  0
POINT
  8
_1-f_寸法
 62
    4
 10
338.00000000436648
 20
248.33333333333331
  0
LINE
  8
_1-f_寸法
  6
CONTINUOUS
 62
    4
 10
309.50000000000011
 20
248.33333333333331
 11
338.00000000436648
 21
248.33333333333331
  0
TEXT
  8
_1-f_寸法
 62
    4
 10
320.55000000218331
 20
248.33333333333331
 40
3.2000000000000002
 41
1
 50
0
  1
85.5
  0
LINE
  8
_1-f_寸法
  6
CONTINUOUS
 62
    4
 10
143.33333333333331
 20
224.49999884974619
 11
149.93333333333331
 21
224.49999884974619
  0
LINE
  8
_1-f_寸法
  6
CONTINUOUS
 62
    4
 10
143.33333333333331
 20
216.66666666666666
 11
149.93333333333331
 21
216.66666666666666
  0
POINT
  8
_1-f_寸法
 62
    4
 10
148.33333333333331
 20
216.66666666666666
  0
POINT
  8
_1-f_寸法
 62
    4
 10
148.33333333333331
 20
224.49999884974619
  0
LINE
  8
_1-f_寸法
  6
CONTINUOUS
 62
    4
 10
148.33333333333331
 20
216.66666666666666
 11
148.33333333333331
 21
224.49999884974619
  0
TEXT
  8
_1-f_寸法
 62
    4
 10
148.33333333333331
 20
217.38333275820642
 40
3.2000000000000002
 41
1
 50
90
  1
23.5
  0
LINE
  8
_1-f_寸法
  6
CONTINUOUS
 62
    4
 10
321.17851130517749
 20
227.15482203455571
 11
323.83333333551673
 21
224.50000001863356
  0
LINE
  8
_1-f_寸法
  6
CONTINUOUS
 62
    4
 10
317.30940106600048
 20
224.3333333519669
 11
315.83333333333337
 21
226.88995766035924
  0
LINE
  8
_1-f_寸法
  6
CONTINUOUS
 62
    4
 10
305.48815536468902
 20
242.15482203135574
 11
302.56503956704387
 21
239.23170623371061
  0
LINE
  8
_1-f_寸法
  6
CONTINUOUS
 62
    4
 10
340.48815536905556
 20
220.48815536468902
 11
337.5699089285215
 21
217.56990892415504
  0
LINE
  8
_1-f_寸法
  6
CONTINUOUS
 62
    4
 10
140.48815536468908
 20
220.48815536468908
 11
137.96436227426685
 21
217.96436227426685
  0
LINE
  8
_1-f_寸法
  6
CONTINUOUS
 62
    4
 10
117.5
 20
226.88995766035924
 11
116.02393159247551
 21
224.33333218307956
  0
LINE
  8
_1-f_寸法
  6
CONTINUOUS
 62
    4
 10
113.33333333333333
 20
228.33333333333331
 11
110.0003335573073
 21
224.49999884974619
  0
INSERT
  2
-031-_31_
  8
_1-8_小物
 10
210
 20
148.5
 41
1
 42
1
 50
0
  0
LINE
  8
_1-f_寸法
  6
CONTINUOUS
 62
    4
 10
129.1369469312846
 20
226.90752928706377
 11
124.098229768553
 21
218.58333280477319
  0
LINE
  8
_1-f_寸法
  6
CONTINUOUS
 62
    4
 10
324.01923667486915
 20
218.57862156979073
 11
329.12884417077061
 21
226.9124655354797
  0
ENDSEC
  0
EOF
