  0
SECTION
  2
HEADER
  9
$ACADVER
  1
AC1009
  9
$INSBASE
 10
0
 20
0
 30
0
  9
$EXTMIN
 10
0
 20
0
  9
$EXTMAX
 10
420
 20
297
  9
$LIMMIN
 10
0
 20
0
  9
$LIMMAX
 10
420
 20
297
  9
$LTSCALE
 40
1
  0
ENDSEC
  0
SECTION
  2
TABLES
  0
TABLE
  2
LTYPE
 70
     9
  0
LTYPE
  2
CONTINUOUS
 70
    64
  3
実線
 72
    65
 73
     0
 40
0.0
  0
LTYPE
  2
DASHED1
 70
    64
  3
--  --  --  --  --  --  --  --  
 72
    65
 73
     2
 40
2.5
 49
1.25
 49
-1.25
  0
LTYPE
  2
DASHED2
 70
    64
  3
----    ----    ----    ----    
 72
    65
 73
     2
 40
5.0
 49
2.5
 49
-2.5
  0
LTYPE
  2
DASHED3
 70
    64
  3
------  ------  ------  ------  
 72
    65
 73
     2
 40
5.0
 49
3.75
 49
-1.25
  0
LTYPE
  2
CENTER1
 70
    64
  3
----- - ----- - ----- - ----- - 
 72
    65
 73
     4
 40
10.0
 49
6.25
 49
-1.25
 49
1.25
 49
-1.25
  0
LTYPE
  2
CENTER2
 70
    64
  3
----------  --  ----------  --  
 72
    65
 73
     4
 40
20.0
 49
12.5
 49
-2.5
 49
2.5
 49
-2.5
  0
LTYPE
  2
PHANTOM1
 70
    64
  3
--- - - --- - - --- - - --- - - 
 72
    65
 73
     6
 40
10.0
 49
3.25
 49
-1.25
 49
1.25
 49
-1.25
 49
1.25
 49
-1.25
  0
LTYPE
  2
PHANTOM2
 70
    64
  3
--------  -  -  --------  -  -  
 72
    65
 73
     6
 40
20.0
 49
10.0
 49
-2.5
 49
1.25
 49
-2.5
 49
1.25
 49
-2.5
  0
LTYPE
  2
DOT
 70
    64
  3
-   -   -   -   -   -   -   -   
 72
    65
 73
     2
 40
2.5
 49
0.625
 49
-1.875
  0
LTYPE
  2
DUMMY
 70
    64
  3
ダミー
 72
    65
 73
     0
 40
0.0
  0
LTYPE
  2
RAND1
 70
    64
  3
ランダム線1
 72
    65
 73
     4
 40
10.0
 49
1.0
 49
-2.0
 49
3.0
 49
-4.0
  0
LTYPE
  2
RAND2
 70
    64
  3
ランダム線2
 72
    65
 73
     4
 40
14.0
 49
2.0
 49
-3.0
 49
4.0
 49
-5.0
  0
LTYPE
  2
RAND3
 70
    64
  3
ランダム線3
 72
    65
 73
     4
 40
18.0
 49
3.0
 49
-4.0
 49
5.0
 49
-6.0
  0
LTYPE
  2
RAND4
 70
    64
  3
ランダム線4
 72
    65
 73
     4
 40
22.0
 49
4.0
 49
-5.0
 49
6.0
 49
-7.0
  0
LTYPE
  2
RAND5
 70
    64
  3
ランダム線5
 72
    65
 73
     4
 40
26.0
 49
5.0
 49
-6.0
 49
7.0
 49
-8.0
  0
LTYPE
  2
LONG1
 70
    64
  3
----------  --  ----------  --  
 72
    65
 73
     4
 40
40.0
 49
32.5
 49
-2.5
 49
2.5
 49
-2.5
  0
LTYPE
  2
LONG2
 70
    64
  3
--------  -  -  --------  -  -  
 72
    65
 73
     6
 40
40.0
 49
30.0
 49
-2.5
 49
1.25
 49
-2.5
 49
1.25
 49
-2.5
  0
LTYPE
  2
LONG3
 70
    64
  3
+++++++++++++++..+++++++++++++++
 72
    65
 73
     2
 40
40.0
 49
37.5
 49
-2.5
  0
LTYPE
  2
LONG4
 70
    64
  3
+++++++++++++++..+++++++++++++++
 72
    65
 73
     2
 40
80.0
 49
75.0
 49
-5.0
  0
LTYPE
  2
LONG5
 70
    64
  3
----------  --  ----------  --  
 72
    65
 73
     4
 40
60.0
 49
37.5
 49
-7.5
 49
7.5
 49
-7.5
  0
LTYPE
  2
dashed
 70
   64
  3
-------   -------------   ------
 72
   65
 73
    2
 40
7.5
 49
6
 49
-1.5
  0
LTYPE
  2
dashed_spaced
 70
   64
  3
----        --------        ----
 72
   65
 73
    2
 40
12
 49
6
 49
-6
  0
LTYPE
  2
long_dashed_dotted
 70
   64
  3
------------- --- --------------
 72
   65
 73
    4
 40
15.25
 49
12
 49
-1.5
 49
0.25
 49
-1.5
  0
LTYPE
  2
long_dashed_double-dotted
 70
   64
  3
----------- --- --- ------------
 72
   65
 73
    6
 40
17
 49
12
 49
-1.5
 49
0.25
 49
-1.5
 49
0.25
 49
-1.5
  0
LTYPE
  2
long_dashed_triplicate-dotted
 70
   64
  3
--------- --- --- --- ----------
 72
   65
 73
    8
 40
18.75
 49
12
 49
-1.5
 49
0.25
 49
-1.5
 49
0.25
 49
-1.5
 49
0.25
 49
-1.5
  0
LTYPE
  2
dotted
 70
   64
  3
   -       -       -       -    
 72
   65
 73
    2
 40
1.75
 49
0.25
 49
-1.5
  0
LTYPE
  2
chain
 70
   64
  3
-------------- -- --------------
 72
   65
 73
    4
 40
18.5
 49
12
 49
-1.5
 49
3.5
 49
-1.5
  0
LTYPE
  2
chain_double_dash
 70
   64
  3
------------ -- -- -------------
 72
   65
 73
    6
 40
23.5
 49
12
 49
-1.5
 49
3.5
 49
-1.5
 49
3.5
 49
-1.5
  0
LTYPE
  2
dashed_dotted
 70
   64
  3
-----------     -     ----------
 72
   65
 73
    4
 40
9.25
 49
6
 49
-1.5
 49
0.25
 49
-1.5
  0
LTYPE
  2
double-dashed_dotted
 70
   64
  3
------   -----------   -   -----
 72
   65
 73
    6
 40
16.75
 49
6
 49
-1.5
 49
6
 49
-1.5
 49
0.25
 49
-1.5
  0
LTYPE
  2
dashed_double-dotted
 70
   64
  3
---------    -    -    ---------
 72
   65
 73
    6
 40
11
 49
6
 49
-1.5
 49
0.25
 49
-1.5
 49
0.25
 49
-1.5
  0
LTYPE
  2
double-dashed_double-dotted
 70
   64
  3
-----   ---------   -   -   ----
 72
   65
 73
    8
 40
18.5
 49
6
 49
-1.5
 49
6
 49
-1.5
 49
0.25
 49
-1.5
 49
0.25
 49
-1.5
  0
LTYPE
  2
dashed_triplicate-dotted
 70
   64
  3
-------    -    -    -    ------
 72
   65
 73
    8
 40
12.75
 49
6
 49
-1.5
 49
0.25
 49
-1.5
 49
0.25
 49
-1.5
 49
0.25
 49
-1.5
  0
LTYPE
  2
double-dashed_triplicate-dotted
 70
   64
  3
-----  ---------  -  -  -  -----
 72
   65
 73
   10
 40
20.25
 49
6
 49
-1.5
 49
6
 49
-1.5
 49
0.25
 49
-1.5
 49
0.25
 49
-1.5
 49
0.25
 49
-1.5
  0
LTYPE
  2
undefined
 70
   64
  3
--------------------------------
 72
   65
 73
    0
 40
0
  0
ENDTAB
  0
TABLE
  2
STYLE
  5
3
100
AcDbSymbolTable
 70
     1
  0
STYLE
  5
10
100
AcDbSymbolTableRecord
100
AcDbTextStyleTableRecord
  2
STANDARD
 70
     0
 40
0.0
 41
1.0
 50
0.0
 71
     0
 42
0.2
  3
txt
  4
bigfont.shx
  0
STYLE
  5
26
100
AcDbSymbolTableRecord
100
AcDbTextStyleTableRecord
  2
TATEGAKI
 70
    68
 40
0.0
 41
1.0
 50
0.0
 71
     0
 42
1.0
  3
txt
  4
bigfont.shx
  0
ENDTAB
  0
TABLE
  2
LAYER
 70
   10
  0
LAYER
  2
_0-0_図面枠
 70
   64
 62
    7
  6
CONTINUOUS
  0
LAYER
  2
_0-f_
 70
   64
 62
    7
  6
CONTINUOUS
  0
LAYER
  2
_1-0_躯体
 70
   64
 62
    7
  6
CONTINUOUS
  0
LAYER
  2
_1-4_フレ__ム
 70
   64
 62
    7
  6
CONTINUOUS
  0
LAYER
  2
_1-5_ア__ム
 70
   64
 62
    7
  6
CONTINUOUS
  0
LAYER
  2
_1-6_ばね
 70
   64
 62
    7
  6
CONTINUOUS
  0
LAYER
  2
_1-7_カバ__
 70
   64
 62
    7
  6
CONTINUOUS
  0
LAYER
  2
_1-8_小物
 70
   64
 62
    7
  6
CONTINUOUS
  0
LAYER
  2
_1-f_寸法
 70
   64
 62
    7
  6
CONTINUOUS
  0
LAYER
  2
ADD_LINE
 70
   64
 62
    7
  6
CONTINUOUS
  0
ENDTAB
  0
ENDSEC
  0
SECTION
  2
BLOCKS
  0
BLOCK
  2
-000-
 70
   64
 10
0
 20
0
 30
0
  0
LINE
  8
_1-8_小物
  6
CONTINUOUS
 62
    4
 10
-61.787483860264587
 20
-19
 11
-59.787483860264587
 21
-19
  0
LINE
  8
_1-8_小物
  6
CONTINUOUS
 62
    4
 10
-62.120817193597929
 20
-19.707106781186582
 11
-62.120817193597929
 21
-18.292893218813447
  0
LINE
  8
_1-8_小物
  6
CONTINUOUS
 62
    4
 10
-62.120817193597929
 20
-18.292893218813447
 11
-59.454150526931244
 21
-18.292893218813447
  0
LINE
  8
_1-8_小物
  6
CONTINUOUS
 62
    4
 10
-59.454150526931244
 20
-19.707106781186582
 11
-59.454150526931244
 21
-18.292893218813447
  0
LINE
  8
_1-8_小物
  6
CONTINUOUS
 62
    4
 10
-62.120817193597929
 20
-19.707106781186582
 11
-59.454150526931244
 21
-19.707106781186582
  0
ENDBLK
  0
BLOCK
  2
-001-_1_
 70
   64
 10
0
 20
0
 30
0
  0
LINE
  8
_1-8_小物
  6
CONTINUOUS
 62
    4
 10
-118.45415052693124
 20
-19
 11
-120.45415052693124
 21
-19
  0
LINE
  8
_1-8_小物
  6
CONTINUOUS
 62
    4
 10
-118.12081719359792
 20
-19.707106781186582
 11
-118.12081719359792
 21
-18.292893218813447
  0
LINE
  8
_1-8_小物
  6
CONTINUOUS
 62
    4
 10
-118.12081719359792
 20
-18.292893218813447
 11
-120.78748386026459
 21
-18.292893218813447
  0
LINE
  8
_1-8_小物
  6
CONTINUOUS
 62
    4
 10
-120.78748386026459
 20
-19.707106781186582
 11
-120.78748386026459
 21
-18.292893218813447
  0
LINE
  8
_1-8_小物
  6
CONTINUOUS
 62
    4
 10
-118.12081719359792
 20
-19.707106781186582
 11
-120.78748386026459
 21
-19.707106781186582
  0
ENDBLK
  0
BLOCK
  2
-002-_2_
 70
   64
 10
0
 20
0
 30
0
  0
LINE
  8
_1-8_小物
  6
CONTINUOUS
 62
    4
 10
138.21251613973538
 20
-19
 11
140.21251613973538
 21
-19
  0
LINE
  8
_1-8_小物
  6
CONTINUOUS
 62
    4
 10
137.87918280640207
 20
-19.707106781186582
 11
137.87918280640207
 21
-18.292893218813447
  0
LINE
  8
_1-8_小物
  6
CONTINUOUS
 62
    4
 10
137.87918280640207
 20
-18.292893218813447
 11
140.54584947306876
 21
-18.292893218813447
  0
LINE
  8
_1-8_小物
  6
CONTINUOUS
 62
    4
 10
140.54584947306876
 20
-19.707106781186582
 11
140.54584947306876
 21
-18.292893218813447
  0
LINE
  8
_1-8_小物
  6
CONTINUOUS
 62
    4
 10
137.87918280640207
 20
-19.707106781186582
 11
140.54584947306876
 21
-19.707106781186582
  0
ENDBLK
  0
BLOCK
  2
-003-_3_
 70
   64
 10
0
 20
0
 30
0
  0
LINE
  8
_1-8_小物
  6
CONTINUOUS
 62
    4
 10
81.545849473068756
 20
-19
 11
79.545849473068756
 21
-19
  0
LINE
  8
_1-8_小物
  6
CONTINUOUS
 62
    4
 10
81.879182806402071
 20
-19.707106781186582
 11
81.879182806402071
 21
-18.292893218813447
  0
LINE
  8
_1-8_小物
  6
CONTINUOUS
 62
    4
 10
81.879182806402071
 20
-18.292893218813447
 11
79.212516139735385
 21
-18.292893218813447
  0
LINE
  8
_1-8_小物
  6
CONTINUOUS
 62
    4
 10
79.212516139735385
 20
-19.707106781186582
 11
79.212516139735385
 21
-18.292893218813447
  0
LINE
  8
_1-8_小物
  6
CONTINUOUS
 62
    4
 10
81.879182806402071
 20
-19.707106781186582
 11
79.212516139735385
 21
-19.707106781186582
  0
ENDBLK
  0
BLOCK
  2
-004-
 70
   64
 10
0
 20
0
 30
0
  0
LINE
  8
_1-8_小物
  6
CONTINUOUS
 62
    4
 10
-61.787483860264587
 20
-19
 11
-59.787483860264587
 21
-19
  0
LINE
  8
_1-8_小物
  6
CONTINUOUS
 62
    4
 10
-62.120817193597929
 20
-19.707106781186582
 11
-62.120817193597929
 21
-18.292893218813447
  0
LINE
  8
_1-8_小物
  6
CONTINUOUS
 62
    4
 10
-62.120817193597929
 20
-18.292893218813447
 11
-59.454150526931244
 21
-18.292893218813447
  0
LINE
  8
_1-8_小物
  6
CONTINUOUS
 62
    4
 10
-59.454150526931244
 20
-19.707106781186582
 11
-59.454150526931244
 21
-18.292893218813447
  0
LINE
  8
_1-8_小物
  6
CONTINUOUS
 62
    4
 10
-62.120817193597929
 20
-19.707106781186582
 11
-59.454150526931244
 21
-19.707106781186582
  0
ENDBLK
  0
BLOCK
  2
-005-_4_
 70
   64
 10
0
 20
0
 30
0
  0
LINE
  8
_1-8_小物
  6
CONTINUOUS
 62
    4
 10
-118.45415052693124
 20
-19
 11
-120.45415052693124
 21
-19
  0
LINE
  8
_1-8_小物
  6
CONTINUOUS
 62
    4
 10
-118.12081719359792
 20
-19.707106781186582
 11
-118.12081719359792
 21
-18.292893218813447
  0
LINE
  8
_1-8_小物
  6
CONTINUOUS
 62
    4
 10
-118.12081719359792
 20
-18.292893218813447
 11
-120.78748386026459
 21
-18.292893218813447
  0
LINE
  8
_1-8_小物
  6
CONTINUOUS
 62
    4
 10
-120.78748386026459
 20
-19.707106781186582
 11
-120.78748386026459
 21
-18.292893218813447
  0
LINE
  8
_1-8_小物
  6
CONTINUOUS
 62
    4
 10
-118.12081719359792
 20
-19.707106781186582
 11
-120.78748386026459
 21
-19.707106781186582
  0
ENDBLK
  0
BLOCK
  2
-006-_5_
 70
   64
 10
0
 20
0
 30
0
  0
LINE
  8
_1-8_小物
  6
CONTINUOUS
 62
    4
 10
138.21251613973538
 20
-19
 11
140.21251613973538
 21
-19
  0
LINE
  8
_1-8_小物
  6
CONTINUOUS
 62
    4
 10
137.87918280640207
 20
-19.707106781186582
 11
137.87918280640207
 21
-18.292893218813447
  0
LINE
  8
_1-8_小物
  6
CONTINUOUS
 62
    4
 10
137.87918280640207
 20
-18.292893218813447
 11
140.54584947306876
 21
-18.292893218813447
  0
LINE
  8
_1-8_小物
  6
CONTINUOUS
 62
    4
 10
140.54584947306876
 20
-19.707106781186582
 11
140.54584947306876
 21
-18.292893218813447
  0
LINE
  8
_1-8_小物
  6
CONTINUOUS
 62
    4
 10
137.87918280640207
 20
-19.707106781186582
 11
140.54584947306876
 21
-19.707106781186582
  0
ENDBLK
  0
BLOCK
  2
-007-_6_
 70
   64
 10
0
 20
0
 30
0
  0
LINE
  8
_1-8_小物
  6
CONTINUOUS
 62
    4
 10
81.545849473068756
 20
-19
 11
79.545849473068756
 21
-19
  0
LINE
  8
_1-8_小物
  6
CONTINUOUS
 62
    4
 10
81.879182806402071
 20
-19.707106781186582
 11
81.879182806402071
 21
-18.292893218813447
  0
LINE
  8
_1-8_小物
  6
CONTINUOUS
 62
    4
 10
81.879182806402071
 20
-18.292893218813447
 11
79.212516139735385
 21
-18.292893218813447
  0
LINE
  8
_1-8_小物
  6
CONTINUOUS
 62
    4
 10
79.212516139735385
 20
-19.707106781186582
 11
79.212516139735385
 21
-18.292893218813447
  0
LINE
  8
_1-8_小物
  6
CONTINUOUS
 62
    4
 10
81.879182806402071
 20
-19.707106781186582
 11
79.212516139735385
 21
-19.707106781186582
  0
ENDBLK
  0
BLOCK
  2
-008-_7_
 70
   64
 10
0
 20
0
 30
0
  0
LINE
  8
_1-8_小物
  6
CONTINUOUS
 62
    4
 10
-134.86390833333343
 20
43.406724999999994
 11
-134.82901833333378
 21
42.740971666666638
  0
LINE
  8
_1-8_小物
  6
CONTINUOUS
 62
    4
 10
-134.91624500000032
 20
44.405354999999901
 11
-135.564551666667
 21
44.037588333333304
  0
LINE
  8
_1-8_小物
  6
CONTINUOUS
 62
    4
 10
-135.564551666667
 20
44.037588333333304
 11
-135.52966166666675
 21
43.371834999999948
  0
LINE
  8
_1-8_小物
  6
CONTINUOUS
 62
    4
 10
-135.52966166666675
 20
43.371834999999948
 11
-134.86390833333343
 21
43.406724999999994
  0
LINE
  8
_1-8_小物
  6
CONTINUOUS
 62
    4
 10
-134.95113500000022
 20
45.071108333333342
 11
-134.91624500000032
 21
44.405354999999901
  0
LINE
  8
_1-8_小物
  6
CONTINUOUS
 62
    4
 10
-135.00347166666685
 20
46.069736666666699
 11
-135.65177833333379
 21
45.70196999999979
  0
LINE
  8
_1-8_小物
  6
CONTINUOUS
 62
    4
 10
-135.65177833333379
 20
45.70196999999979
 11
-135.61688833333363
 21
45.036216666666661
  0
LINE
  8
_1-8_小物
  6
CONTINUOUS
 62
    4
 10
-135.61688833333363
 20
45.036216666666661
 11
-134.95113500000022
 21
45.071108333333342
  0
LINE
  8
_1-8_小物
  6
CONTINUOUS
 62
    4
 10
-135.03836166666707
 20
46.735490000000055
 11
-135.00347166666685
 21
46.069736666666699
  0
LINE
  8
_1-8_小物
  6
CONTINUOUS
 62
    4
 10
-135.09069833333339
 20
47.734119999999791
 11
-135.73900500000008
 21
47.366353333333365
  0
LINE
  8
_1-8_小物
  6
CONTINUOUS
 62
    4
 10
-135.73900500000008
 20
47.366353333333365
 11
-135.70411500000046
 21
46.700600000000009
  0
LINE
  8
_1-8_小物
  6
CONTINUOUS
 62
    4
 10
-135.70411500000046
 20
46.700600000000009
 11
-135.03836166666707
 21
46.735490000000055
  0
LINE
  8
_1-8_小物
  6
CONTINUOUS
 62
    4
 10
-135.12558833333361
 20
48.399873333333318
 11
-135.09069833333339
 21
47.734119999999791
  0
LINE
  8
_1-8_小物
  6
CONTINUOUS
 62
    4
 10
-135.17792500000024
 20
49.398503333333366
 11
-135.8262316666669
 21
49.030734999999993
  0
LINE
  8
_1-8_小物
  6
CONTINUOUS
 62
    4
 10
-135.8262316666669
 20
49.030734999999993
 11
-135.79134166666697
 21
48.364981666666637
  0
LINE
  8
_1-8_小物
  6
CONTINUOUS
 62
    4
 10
-135.79134166666697
 20
48.364981666666637
 11
-135.12558833333361
 21
48.399873333333318
  0
LINE
  8
_1-8_小物
  6
CONTINUOUS
 62
    4
 10
-135.21281500000018
 20
50.064254999999946
 11
-135.17792500000024
 21
49.398503333333366
  0
LINE
  8
_1-8_小物
  6
CONTINUOUS
 62
    4
 10
-135.91345833333372
 20
50.695118333333255
 11
-135.8785683333335
 21
50.029364999999899
  0
LINE
  8
_1-8_小物
  6
CONTINUOUS
 62
    4
 10
-135.8785683333335
 20
50.029364999999899
 11
-135.21281500000018
 21
50.064254999999946
  0
LINE
  8
_1-8_小物
  6
CONTINUOUS
 62
    4
 10
-135.33333333333366
 20
51.000000000000028
 11
-135.91345833333372
 21
50.695118333333255
  0
LINE
  8
_1-8_小物
  6
CONTINUOUS
 62
    4
 10
-138.46942500000023
 20
43.406724999999994
 11
-138.5043150000001
 21
42.740971666666638
  0
LINE
  8
_1-8_小物
  6
CONTINUOUS
 62
    4
 10
-138.41708833333357
 20
44.405354999999901
 11
-137.76878166666694
 21
44.037588333333304
  0
LINE
  8
_1-8_小物
  6
CONTINUOUS
 62
    4
 10
-137.76878166666694
 20
44.037588333333304
 11
-137.80367166666719
 21
43.371834999999948
  0
LINE
  8
_1-8_小物
  6
CONTINUOUS
 62
    4
 10
-137.80367166666719
 20
43.371834999999948
 11
-138.46942500000023
 21
43.406724999999994
  0
LINE
  8
_1-8_小物
  6
CONTINUOUS
 62
    4
 10
-138.38219833333341
 20
45.071108333333342
 11
-138.41708833333357
 21
44.405354999999901
  0
LINE
  8
_1-8_小物
  6
CONTINUOUS
 62
    4
 10
-138.32986166666703
 20
46.069736666666699
 11
-137.6815550000004
 21
45.70196999999979
  0
LINE
  8
_1-8_小物
  6
CONTINUOUS
 62
    4
 10
-137.6815550000004
 20
45.70196999999979
 11
-137.71644499999999
 21
45.036216666666661
  0
LINE
  8
_1-8_小物
  6
CONTINUOUS
 62
    4
 10
-137.71644499999999
 20
45.036216666666661
 11
-138.38219833333341
 21
45.071108333333342
  0
LINE
  8
_1-8_小物
  6
CONTINUOUS
 62
    4
 10
-138.29497166666712
 20
46.735490000000055
 11
-138.32986166666703
 21
46.069736666666699
  0
LINE
  8
_1-8_小物
  6
CONTINUOUS
 62
    4
 10
-138.24263500000049
 20
47.734119999999791
 11
-137.59432833333355
 21
47.366353333333365
  0
LINE
  8
_1-8_小物
  6
CONTINUOUS
 62
    4
 10
-137.59432833333355
 20
47.366353333333365
 11
-137.62921833333348
 21
46.700600000000009
  0
LINE
  8
_1-8_小物
  6
CONTINUOUS
 62
    4
 10
-137.62921833333348
 20
46.700600000000009
 11
-138.29497166666712
 21
46.735490000000055
  0
LINE
  8
_1-8_小物
  6
CONTINUOUS
 62
    4
 10
-138.20774500000033
 20
48.399873333333318
 11
-138.24263500000049
 21
47.734119999999791
  0
LINE
  8
_1-8_小物
  6
CONTINUOUS
 62
    4
 10
-138.15540833333336
 20
49.398503333333366
 11
-137.50710166666676
 21
49.030734999999993
  0
LINE
  8
_1-8_小物
  6
CONTINUOUS
 62
    4
 10
-137.50710166666676
 20
49.030734999999993
 11
-137.54199166666692
 21
48.364981666666637
  0
LINE
  8
_1-8_小物
  6
CONTINUOUS
 62
    4
 10
-137.54199166666692
 20
48.364981666666637
 11
-138.20774500000033
 21
48.399873333333318
  0
LINE
  8
_1-8_小物
  6
CONTINUOUS
 62
    4
 10
-138.12051833333379
 20
50.064254999999946
 11
-138.15540833333336
 21
49.398503333333366
  0
LINE
  8
_1-8_小物
  6
CONTINUOUS
 62
    4
 10
-137.41987500000022
 20
50.695118333333255
 11
-137.45476500000038
 21
50.029364999999899
  0
LINE
  8
_1-8_小物
  6
CONTINUOUS
 62
    4
 10
-137.45476500000038
 20
50.029364999999899
 11
-138.12051833333379
 21
50.064254999999946
  0
LINE
  8
_1-8_小物
  6
CONTINUOUS
 62
    4
 10
-136.68643500000024
 20
43.019768333333275
 11
-136.0418683333337
 21
43.591658333333299
  0
LINE
  8
_1-8_小物
  6
CONTINUOUS
 62
    4
 10
-137.28981500000037
 20
43.623146666666685
 11
-136.66666666666669
 21
42.999999999999886
  0
LINE
  8
_1-8_小物
  6
CONTINUOUS
 62
    4
 10
-137.99999999999997
 20
51.000000000000028
 11
-137.41987500000022
 21
50.695118333333255
  0
LINE
  8
_1-8_小物
  6
CONTINUOUS
 62
    4
 10
-135.12558833333361
 20
48.399873333333318
 11
-134.56046666666711
 21
49.95253333333315
  0
LINE
  8
_1-8_小物
  6
CONTINUOUS
 62
    4
 10
-135.4803150000001
 20
48.399873333333318
 11
-134.87369666666683
 21
50.066539999999975
  0
LINE
  8
_1-8_小物
  6
CONTINUOUS
 62
    4
 10
-138.20774500000033
 20
48.399873333333318
 11
-138.77286666666686
 21
49.95253333333315
  0
LINE
  8
_1-8_小物
  6
CONTINUOUS
 62
    4
 10
-137.85301833333386
 20
48.399873333333318
 11
-138.45963666666711
 21
50.066539999999975
  0
LINE
  8
_1-8_小物
  6
CONTINUOUS
 62
    4
 10
-135.99408500000024
 20
42.679913333333189
 11
-134.82901833333378
 21
42.740971666666638
  0
LINE
  8
_1-8_小物
  6
CONTINUOUS
 62
    4
 10
-134.82901833333378
 20
42.740971666666638
 11
-135.45988000000034
 21
42.040328333333377
  0
LINE
  8
_1-8_小物
  6
CONTINUOUS
 62
    4
 10
-135.45988000000034
 20
42.040328333333377
 11
-135.95919500000008
 21
42.01415999999989
  0
LINE
  8
_1-8_小物
  6
CONTINUOUS
 62
    4
 10
-135.95919500000008
 20
42.01415999999989
 11
-136.49999999999997
 21
52.333333333333201
  0
LINE
  8
_1-8_小物
  6
CONTINUOUS
 62
    4
 10
-135.33333333333366
 20
51.000000000000028
 11
-135.33333333333366
 21
52.333333333333201
  0
LINE
  8
_1-8_小物
  6
CONTINUOUS
 62
    4
 10
-137.33924833333364
 20
42.679913333333189
 11
-138.5043150000001
 21
42.740971666666638
  0
LINE
  8
_1-8_小物
  6
CONTINUOUS
 62
    4
 10
-138.5043150000001
 20
42.740971666666638
 11
-137.8734533333336
 21
42.040328333333377
  0
LINE
  8
_1-8_小物
  6
CONTINUOUS
 62
    4
 10
-137.8734533333336
 20
42.040328333333377
 11
-137.37413833333355
 21
42.01415999999989
  0
LINE
  8
_1-8_小物
  6
CONTINUOUS
 62
    4
 10
-137.37413833333355
 20
42.01415999999989
 11
-136.83333333333366
 21
52.333333333333201
  0
LINE
  8
_1-8_小物
  6
CONTINUOUS
 62
    4
 10
-137.99999999999997
 20
51.000000000000028
 11
-137.99999999999997
 21
52.333333333333201
  0
LINE
  8
_1-8_小物
  6
CONTINUOUS
 62
    4
 10
-138.77286666666686
 20
49.95253333333315
 11
-139.10365166666696
 21
52.220406666666833
  0
ARC
  8
_1-8_小物
  6
CONTINUOUS
 62
    4
 10
-138.9717150000003
 20
52.239651666666646
 40
0.1333333333333333
 50
98.130101999953808
 51
188.29846600001281
  0
LINE
  8
_1-8_小物
  6
CONTINUOUS
 62
    4
 10
-138.99057166666714
 20
52.371644999999972
 11
-138.92496333333355
 21
52.381016666666739
  0
ARC
  8
_1-8_小物
  6
CONTINUOUS
 62
    4
 10
-138.90610666666663
 20
52.249023333333326
 40
0.1333333333333333
 50
8.1301020000280779
 51
98.13010200021462
  0
LINE
  8
_1-8_小物
  6
CONTINUOUS
 62
    4
 10
-138.77411333333356
 20
52.267879999999906
 11
-138.45963666666711
 21
50.066539999999975
  0
LINE
  8
_1-8_小物
  6
CONTINUOUS
 62
    4
 10
-134.56046666666711
 20
49.95253333333315
 11
-134.22968166666698
 21
52.220406666666833
  0
ARC
  8
_1-8_小物
  6
CONTINUOUS
 62
    4
 10
-134.36161833333364
 20
52.239651666666646
 40
0.1333333333333333
 50
351.70153399996479
 51
81.869898000034084
  0
LINE
  8
_1-8_小物
  6
CONTINUOUS
 62
    4
 10
-134.34276333333372
 20
52.371644999999972
 11
-134.40837000000039
 21
52.381016666666739
  0
ARC
  8
_1-8_小物
  6
CONTINUOUS
 62
    4
 10
-134.42722666666666
 20
52.249023333333326
 40
0.1333333333333333
 50
81.869898000046192
 51
171.86989799997193
  0
LINE
  8
_1-8_小物
  6
CONTINUOUS
 62
    4
 10
-134.55922000000038
 20
52.267879999999906
 11
-134.87369666666683
 21
50.066539999999975
  0
LINE
  8
_1-8_小物
  6
CONTINUOUS
 62
    4
 10
-134.56046666666711
 20
49.95253333333315
 11
-134.22968166666698
 21
52.220406666666833
  0
ARC
  8
_1-8_小物
  6
CONTINUOUS
 62
    4
 10
-134.36161833333364
 20
52.239651666666646
 40
0.1333333333333333
 50
351.70153399996479
 51
81.869898000034084
  0
LINE
  8
_1-8_小物
  6
CONTINUOUS
 62
    4
 10
-134.34276333333372
 20
52.371644999999972
 11
-134.40837000000039
 21
52.381016666666739
  0
ARC
  8
_1-8_小物
  6
CONTINUOUS
 62
    4
 10
-134.42722666666666
 20
52.249023333333326
 40
0.1333333333333333
 50
81.869898000046192
 51
171.86989799997193
  0
LINE
  8
_1-8_小物
  6
CONTINUOUS
 62
    4
 10
-134.55922000000038
 20
52.267879999999906
 11
-134.87369666666683
 21
50.066539999999975
  0
LINE
  8
_1-8_小物
  6
CONTINUOUS
 62
    4
 10
-134.99999999999997
 20
55.000000000000028
 11
-135.33333333333366
 21
53.333333333333371
  0
LINE
  8
_1-8_小物
  6
CONTINUOUS
 62
    4
 10
-135.33333333333366
 20
55.000000000000028
 11
-135.33333333333366
 21
52.333333333333201
  0
LINE
  8
_1-8_小物
  6
CONTINUOUS
 62
    4
 10
-136.49999999999997
 20
52.333333333333201
 11
-136.66666666666669
 21
52.333333333333201
  0
LINE
  8
_1-8_小物
  6
CONTINUOUS
 62
    4
 10
-136.66666666666669
 20
53.333333333333371
 11
-136.66666666666669
 21
55.000000000000028
  0
LINE
  8
_1-8_小物
  6
CONTINUOUS
 62
    4
 10
-136.33333333333366
 20
55.000000000000028
 11
-136.66666666666669
 21
53.333333333333371
  0
LINE
  8
_1-8_小物
  6
CONTINUOUS
 62
    4
 10
-137.00000000000028
 20
55.000000000000028
 11
-136.66666666666669
 21
53.333333333333371
  0
LINE
  8
_1-8_小物
  6
CONTINUOUS
 62
    4
 10
-138.33333333333331
 20
55.000000000000028
 11
-137.99999999999997
 21
53.333333333333371
  0
LINE
  8
_1-8_小物
  6
CONTINUOUS
 62
    4
 10
-137.99999999999997
 20
55.000000000000028
 11
-137.99999999999997
 21
52.333333333333201
  0
LINE
  8
_1-8_小物
  6
CONTINUOUS
 62
    4
 10
-136.83333333333366
 20
52.333333333333201
 11
-136.66666666666669
 21
52.333333333333201
  0
LINE
  8
_1-8_小物
  6
CONTINUOUS
 62
    4
 10
-134.99999999999997
 20
55.000000000000028
 11
-138.33333333333331
 21
55.000000000000028
  0
ENDBLK
  0
BLOCK
  2
-009-_8_
 70
   64
 10
0
 20
0
 30
0
  0
LINE
  8
_1-8_小物
  6
CONTINUOUS
 62
    4
 10
-61.530575000000113
 20
43.406724999999994
 11
-61.495685000000492
 21
42.740971666666638
  0
LINE
  8
_1-8_小物
  6
CONTINUOUS
 62
    4
 10
-61.58291166666703
 20
44.405354999999901
 11
-62.231218333333686
 21
44.037588333333304
  0
LINE
  8
_1-8_小物
  6
CONTINUOUS
 62
    4
 10
-62.231218333333686
 20
44.037588333333304
 11
-62.19632833333344
 21
43.371834999999948
  0
LINE
  8
_1-8_小物
  6
CONTINUOUS
 62
    4
 10
-62.19632833333344
 20
43.371834999999948
 11
-61.530575000000113
 21
43.406724999999994
  0
LINE
  8
_1-8_小物
  6
CONTINUOUS
 62
    4
 10
-61.617801666666935
 20
45.071108333333342
 11
-61.58291166666703
 21
44.405354999999901
  0
LINE
  8
_1-8_小物
  6
CONTINUOUS
 62
    4
 10
-61.670138333333568
 20
46.069736666666699
 11
-62.318445000000509
 21
45.70196999999979
  0
LINE
  8
_1-8_小物
  6
CONTINUOUS
 62
    4
 10
-62.318445000000509
 20
45.70196999999979
 11
-62.28355500000032
 21
45.036216666666661
  0
LINE
  8
_1-8_小物
  6
CONTINUOUS
 62
    4
 10
-62.28355500000032
 20
45.036216666666661
 11
-61.617801666666935
 21
45.071108333333342
  0
LINE
  8
_1-8_小物
  6
CONTINUOUS
 62
    4
 10
-61.705028333333757
 20
46.735490000000055
 11
-61.670138333333568
 21
46.069736666666699
  0
LINE
  8
_1-8_小物
  6
CONTINUOUS
 62
    4
 10
-61.757365000000107
 20
47.734119999999791
 11
-62.405671666666763
 21
47.366353333333365
  0
LINE
  8
_1-8_小物
  6
CONTINUOUS
 62
    4
 10
-62.405671666666763
 20
47.366353333333365
 11
-62.370781666667142
 21
46.700600000000009
  0
LINE
  8
_1-8_小物
  6
CONTINUOUS
 62
    4
 10
-62.370781666667142
 20
46.700600000000009
 11
-61.705028333333757
 21
46.735490000000055
  0
LINE
  8
_1-8_小物
  6
CONTINUOUS
 62
    4
 10
-61.792255000000296
 20
48.399873333333318
 11
-61.757365000000107
 21
47.734119999999791
  0
LINE
  8
_1-8_小物
  6
CONTINUOUS
 62
    4
 10
-61.844591666666929
 20
49.398503333333366
 11
-62.492898333333585
 21
49.030734999999993
  0
LINE
  8
_1-8_小物
  6
CONTINUOUS
 62
    4
 10
-62.492898333333585
 20
49.030734999999993
 11
-62.45800833333368
 21
48.364981666666637
  0
LINE
  8
_1-8_小物
  6
CONTINUOUS
 62
    4
 10
-62.45800833333368
 20
48.364981666666637
 11
-61.792255000000296
 21
48.399873333333318
  0
LINE
  8
_1-8_小物
  6
CONTINUOUS
 62
    4
 10
-61.879481666666891
 20
50.064254999999946
 11
-61.844591666666929
 21
49.398503333333366
  0
LINE
  8
_1-8_小物
  6
CONTINUOUS
 62
    4
 10
-62.580125000000407
 20
50.695118333333255
 11
-62.545235000000218
 21
50.029364999999899
  0
LINE
  8
_1-8_小物
  6
CONTINUOUS
 62
    4
 10
-62.545235000000218
 20
50.029364999999899
 11
-61.879481666666891
 21
50.064254999999946
  0
LINE
  8
_1-8_小物
  6
CONTINUOUS
 62
    4
 10
-62.000000000000341
 20
51.000000000000028
 11
-62.580125000000407
 21
50.695118333333255
  0
LINE
  8
_1-8_小物
  6
CONTINUOUS
 62
    4
 10
-65.136091666666914
 20
43.406724999999994
 11
-65.170981666666819
 21
42.740971666666638
  0
LINE
  8
_1-8_小物
  6
CONTINUOUS
 62
    4
 10
-65.083755000000281
 20
44.405354999999901
 11
-64.435448333333625
 21
44.037588333333304
  0
LINE
  8
_1-8_小物
  6
CONTINUOUS
 62
    4
 10
-64.435448333333625
 20
44.037588333333304
 11
-64.470338333333871
 21
43.371834999999948
  0
LINE
  8
_1-8_小物
  6
CONTINUOUS
 62
    4
 10
-64.470338333333871
 20
43.371834999999948
 11
-65.136091666666914
 21
43.406724999999994
  0
LINE
  8
_1-8_小物
  6
CONTINUOUS
 62
    4
 10
-65.048865000000092
 20
45.071108333333342
 11
-65.083755000000281
 21
44.405354999999901
  0
LINE
  8
_1-8_小物
  6
CONTINUOUS
 62
    4
 10
-64.996528333333742
 20
46.069736666666699
 11
-64.348221666667087
 21
45.70196999999979
  0
LINE
  8
_1-8_小物
  6
CONTINUOUS
 62
    4
 10
-64.348221666667087
 20
45.70196999999979
 11
-64.383111666666707
 21
45.036216666666661
  0
LINE
  8
_1-8_小物
  6
CONTINUOUS
 62
    4
 10
-64.383111666666707
 20
45.036216666666661
 11
-65.048865000000092
 21
45.071108333333342
  0
LINE
  8
_1-8_小物
  6
CONTINUOUS
 62
    4
 10
-64.961638333333838
 20
46.735490000000055
 11
-64.996528333333742
 21
46.069736666666699
  0
LINE
  8
_1-8_小物
  6
CONTINUOUS
 62
    4
 10
-64.909301666667204
 20
47.734119999999791
 11
-64.260995000000264
 21
47.366353333333365
  0
LINE
  8
_1-8_小物
  6
CONTINUOUS
 62
    4
 10
-64.260995000000264
 20
47.366353333333365
 11
-64.295885000000169
 21
46.700600000000009
  0
LINE
  8
_1-8_小物
  6
CONTINUOUS
 62
    4
 10
-64.295885000000169
 20
46.700600000000009
 11
-64.961638333333838
 21
46.735490000000055
  0
LINE
  8
_1-8_小物
  6
CONTINUOUS
 62
    4
 10
-64.874411666667015
 20
48.399873333333318
 11
-64.909301666667204
 21
47.734119999999791
  0
LINE
  8
_1-8_小物
  6
CONTINUOUS
 62
    4
 10
-64.822075000000041
 20
49.398503333333366
 11
-64.173768333333442
 21
49.030734999999993
  0
LINE
  8
_1-8_小物
  6
CONTINUOUS
 62
    4
 10
-64.173768333333442
 20
49.030734999999993
 11
-64.208658333333631
 21
48.364981666666637
  0
LINE
  8
_1-8_小物
  6
CONTINUOUS
 62
    4
 10
-64.208658333333631
 20
48.364981666666637
 11
-64.874411666667015
 21
48.399873333333318
  0
LINE
  8
_1-8_小物
  6
CONTINUOUS
 62
    4
 10
-64.787185000000477
 20
50.064254999999946
 11
-64.822075000000041
 21
49.398503333333366
  0
LINE
  8
_1-8_小物
  6
CONTINUOUS
 62
    4
 10
-64.086541666666903
 20
50.695118333333255
 11
-64.121431666667092
 21
50.029364999999899
  0
LINE
  8
_1-8_小物
  6
CONTINUOUS
 62
    4
 10
-64.121431666667092
 20
50.029364999999899
 11
-64.787185000000477
 21
50.064254999999946
  0
LINE
  8
_1-8_小物
  6
CONTINUOUS
 62
    4
 10
-63.35310166666693
 20
43.019768333333275
 11
-62.708535000000381
 21
43.591658333333299
  0
LINE
  8
_1-8_小物
  6
CONTINUOUS
 62
    4
 10
-63.956481666667059
 20
43.623146666666685
 11
-63.333333333333371
 21
42.999999999999886
  0
LINE
  8
_1-8_小物
  6
CONTINUOUS
 62
    4
 10
-64.666666666666686
 20
51.000000000000028
 11
-64.086541666666903
 21
50.695118333333255
  0
LINE
  8
_1-8_小物
  6
CONTINUOUS
 62
    4
 10
-61.792255000000296
 20
48.399873333333318
 11
-61.227133333333825
 21
49.95253333333315
  0
LINE
  8
_1-8_小物
  6
CONTINUOUS
 62
    4
 10
-62.146981666666818
 20
48.399873333333318
 11
-61.540363333333516
 21
50.066539999999975
  0
LINE
  8
_1-8_小物
  6
CONTINUOUS
 62
    4
 10
-64.874411666667015
 20
48.399873333333318
 11
-65.439533333333543
 21
49.95253333333315
  0
LINE
  8
_1-8_小物
  6
CONTINUOUS
 62
    4
 10
-64.51968500000055
 20
48.399873333333318
 11
-65.126303333333794
 21
50.066539999999975
  0
LINE
  8
_1-8_小物
  6
CONTINUOUS
 62
    4
 10
-62.660751666666954
 20
42.679913333333189
 11
-61.495685000000492
 21
42.740971666666638
  0
LINE
  8
_1-8_小物
  6
CONTINUOUS
 62
    4
 10
-61.495685000000492
 20
42.740971666666638
 11
-62.126546666667025
 21
42.040328333333377
  0
LINE
  8
_1-8_小物
  6
CONTINUOUS
 62
    4
 10
-62.126546666667025
 20
42.040328333333377
 11
-62.625861666666765
 21
42.01415999999989
  0
LINE
  8
_1-8_小物
  6
CONTINUOUS
 62
    4
 10
-62.625861666666765
 20
42.01415999999989
 11
-63.166666666666686
 21
52.333333333333201
  0
LINE
  8
_1-8_小物
  6
CONTINUOUS
 62
    4
 10
-62.000000000000341
 20
51.000000000000028
 11
-62.000000000000341
 21
52.333333333333201
  0
LINE
  8
_1-8_小物
  6
CONTINUOUS
 62
    4
 10
-64.005915000000357
 20
42.679913333333189
 11
-65.170981666666819
 21
42.740971666666638
  0
LINE
  8
_1-8_小物
  6
CONTINUOUS
 62
    4
 10
-65.170981666666819
 20
42.740971666666638
 11
-64.540120000000286
 21
42.040328333333377
  0
LINE
  8
_1-8_小物
  6
CONTINUOUS
 62
    4
 10
-64.540120000000286
 20
42.040328333333377
 11
-64.040805000000262
 21
42.01415999999989
  0
LINE
  8
_1-8_小物
  6
CONTINUOUS
 62
    4
 10
-64.040805000000262
 20
42.01415999999989
 11
-63.500000000000341
 21
52.333333333333201
  0
LINE
  8
_1-8_小物
  6
CONTINUOUS
 62
    4
 10
-64.666666666666686
 20
51.000000000000028
 11
-64.666666666666686
 21
52.333333333333201
  0
LINE
  8
_1-8_小物
  6
CONTINUOUS
 62
    4
 10
-65.439533333333543
 20
49.95253333333315
 11
-65.770318333333648
 21
52.220406666666833
  0
ARC
  8
_1-8_小物
  6
CONTINUOUS
 62
    4
 10
-65.638381666666987
 20
52.239651666666646
 40
0.1333333333333333
 50
98.130101999965902
 51
188.29846600001105
  0
LINE
  8
_1-8_小物
  6
CONTINUOUS
 62
    4
 10
-65.657238333333851
 20
52.371644999999972
 11
-65.591630000000237
 21
52.381016666666739
  0
ARC
  8
_1-8_小物
  6
CONTINUOUS
 62
    4
 10
-65.572773333333316
 20
52.249023333333326
 40
0.1333333333333333
 50
8.1301020000280779
 51
98.130102000226714
  0
LINE
  8
_1-8_小物
  6
CONTINUOUS
 62
    4
 10
-65.440780000000245
 20
52.267879999999906
 11
-65.126303333333794
 21
50.066539999999975
  0
LINE
  8
_1-8_小物
  6
CONTINUOUS
 62
    4
 10
-61.227133333333825
 20
49.95253333333315
 11
-60.896348333333663
 21
52.220406666666833
  0
ARC
  8
_1-8_小物
  6
CONTINUOUS
 62
    4
 10
-61.028285000000324
 20
52.239651666666646
 40
0.1333333333333333
 50
351.70153399996303
 51
81.869898000046192
  0
LINE
  8
_1-8_小物
  6
CONTINUOUS
 62
    4
 10
-61.009430000000407
 20
52.371644999999972
 11
-61.075036666667074
 21
52.381016666666739
  0
ARC
  8
_1-8_小物
  6
CONTINUOUS
 62
    4
 10
-61.093893333333369
 20
52.249023333333326
 40
0.1333333333333333
 50
81.869898000046192
 51
171.86989799997193
  0
LINE
  8
_1-8_小物
  6
CONTINUOUS
 62
    4
 10
-61.225886666667066
 20
52.267879999999906
 11
-61.540363333333516
 21
50.066539999999975
  0
LINE
  8
_1-8_小物
  6
CONTINUOUS
 62
    4
 10
-61.227133333333825
 20
49.95253333333315
 11
-60.896348333333663
 21
52.220406666666833
  0
ARC
  8
_1-8_小物
  6
CONTINUOUS
 62
    4
 10
-61.028285000000324
 20
52.239651666666646
 40
0.1333333333333333
 50
351.70153399996303
 51
81.869898000046192
  0
LINE
  8
_1-8_小物
  6
CONTINUOUS
 62
    4
 10
-61.009430000000407
 20
52.371644999999972
 11
-61.075036666667074
 21
52.381016666666739
  0
ARC
  8
_1-8_小物
  6
CONTINUOUS
 62
    4
 10
-61.093893333333369
 20
52.249023333333326
 40
0.1333333333333333
 50
81.869898000046192
 51
171.86989799997193
  0
LINE
  8
_1-8_小物
  6
CONTINUOUS
 62
    4
 10
-61.225886666667066
 20
52.267879999999906
 11
-61.540363333333516
 21
50.066539999999975
  0
LINE
  8
_1-8_小物
  6
CONTINUOUS
 62
    4
 10
-61.666666666666686
 20
55.000000000000028
 11
-62.000000000000341
 21
53.333333333333371
  0
LINE
  8
_1-8_小物
  6
CONTINUOUS
 62
    4
 10
-62.000000000000341
 20
55.000000000000028
 11
-62.000000000000341
 21
52.333333333333201
  0
LINE
  8
_1-8_小物
  6
CONTINUOUS
 62
    4
 10
-63.166666666666686
 20
52.333333333333201
 11
-63.333333333333371
 21
52.333333333333201
  0
LINE
  8
_1-8_小物
  6
CONTINUOUS
 62
    4
 10
-63.333333333333371
 20
53.333333333333371
 11
-63.333333333333371
 21
55.000000000000028
  0
LINE
  8
_1-8_小物
  6
CONTINUOUS
 62
    4
 10
-63.000000000000341
 20
55.000000000000028
 11
-63.333333333333371
 21
53.333333333333371
  0
LINE
  8
_1-8_小物
  6
CONTINUOUS
 62
    4
 10
-63.66666666666697
 20
55.000000000000028
 11
-63.333333333333371
 21
53.333333333333371
  0
LINE
  8
_1-8_小物
  6
CONTINUOUS
 62
    4
 10
-65
 20
55.000000000000028
 11
-64.666666666666686
 21
53.333333333333371
  0
LINE
  8
_1-8_小物
  6
CONTINUOUS
 62
    4
 10
-64.666666666666686
 20
55.000000000000028
 11
-64.666666666666686
 21
52.333333333333201
  0
LINE
  8
_1-8_小物
  6
CONTINUOUS
 62
    4
 10
-63.500000000000341
 20
52.333333333333201
 11
-63.333333333333371
 21
52.333333333333201
  0
LINE
  8
_1-8_小物
  6
CONTINUOUS
 62
    4
 10
-61.666666666666686
 20
55.000000000000028
 11
-65
 21
55.000000000000028
  0
ENDBLK
  0
BLOCK
  2
-010-_9_
 70
   64
 10
0
 20
0
 30
0
  0
LINE
  8
_1-8_小物
  6
CONTINUOUS
 62
    4
 10
138.46942499999989
 20
43.406724999999966
 11
138.50431499999951
 21
42.74097166666661
  0
LINE
  8
_1-8_小物
  6
CONTINUOUS
 62
    4
 10
138.41708833333297
 20
44.405354999999872
 11
137.76878166666631
 21
44.037588333333275
  0
LINE
  8
_1-8_小物
  6
CONTINUOUS
 62
    4
 10
137.76878166666631
 20
44.037588333333275
 11
137.80367166666656
 21
43.371834999999919
  0
LINE
  8
_1-8_小物
  6
CONTINUOUS
 62
    4
 10
137.80367166666656
 20
43.371834999999919
 11
138.46942499999989
 21
43.406724999999966
  0
LINE
  8
_1-8_小物
  6
CONTINUOUS
 62
    4
 10
138.38219833333306
 20
45.071108333333314
 11
138.41708833333297
 21
44.405354999999872
  0
LINE
  8
_1-8_小物
  6
CONTINUOUS
 62
    4
 10
138.32986166666643
 20
46.069736666666643
 11
137.68155499999949
 21
45.701969999999761
  0
LINE
  8
_1-8_小物
  6
CONTINUOUS
 62
    4
 10
137.68155499999949
 20
45.701969999999761
 11
137.71644499999968
 21
45.036216666666633
  0
LINE
  8
_1-8_小物
  6
CONTINUOUS
 62
    4
 10
137.71644499999968
 20
45.036216666666633
 11
138.38219833333306
 21
45.071108333333314
  0
LINE
  8
_1-8_小物
  6
CONTINUOUS
 62
    4
 10
138.29497166666624
 20
46.735490000000027
 11
138.32986166666643
 21
46.069736666666643
  0
LINE
  8
_1-8_小物
  6
CONTINUOUS
 62
    4
 10
138.24263499999989
 20
47.734119999999763
 11
137.59432833333324
 21
47.366353333333336
  0
LINE
  8
_1-8_小物
  6
CONTINUOUS
 62
    4
 10
137.59432833333324
 20
47.366353333333336
 11
137.62921833333286
 21
46.700599999999952
  0
LINE
  8
_1-8_小物
  6
CONTINUOUS
 62
    4
 10
137.62921833333286
 20
46.700599999999952
 11
138.29497166666624
 21
46.735490000000027
  0
LINE
  8
_1-8_小物
  6
CONTINUOUS
 62
    4
 10
138.2077449999997
 20
48.399873333333289
 11
138.24263499999989
 21
47.734119999999763
  0
LINE
  8
_1-8_小物
  6
CONTINUOUS
 62
    4
 10
138.15540833333307
 20
49.398503333333338
 11
137.50710166666641
 21
49.030734999999964
  0
LINE
  8
_1-8_小物
  6
CONTINUOUS
 62
    4
 10
137.50710166666641
 20
49.030734999999964
 11
137.54199166666632
 21
48.364981666666608
  0
LINE
  8
_1-8_小物
  6
CONTINUOUS
 62
    4
 10
137.54199166666632
 20
48.364981666666608
 11
138.2077449999997
 21
48.399873333333289
  0
LINE
  8
_1-8_小物
  6
CONTINUOUS
 62
    4
 10
138.12051833333317
 20
50.064254999999918
 11
138.15540833333307
 21
49.398503333333338
  0
LINE
  8
_1-8_小物
  6
CONTINUOUS
 62
    4
 10
137.41987499999959
 20
50.695118333333227
 11
137.45476499999978
 21
50.029364999999871
  0
LINE
  8
_1-8_小物
  6
CONTINUOUS
 62
    4
 10
137.45476499999978
 20
50.029364999999871
 11
138.12051833333317
 21
50.064254999999918
  0
LINE
  8
_1-8_小物
  6
CONTINUOUS
 62
    4
 10
137.99999999999966
 20
51
 11
137.41987499999959
 21
50.695118333333227
  0
LINE
  8
_1-8_小物
  6
CONTINUOUS
 62
    4
 10
134.86390833333309
 20
43.406724999999966
 11
134.82901833333318
 21
42.74097166666661
  0
LINE
  8
_1-8_小物
  6
CONTINUOUS
 62
    4
 10
134.91624499999972
 20
44.405354999999872
 11
135.56455166666638
 21
44.037588333333275
  0
LINE
  8
_1-8_小物
  6
CONTINUOUS
 62
    4
 10
135.56455166666638
 20
44.037588333333275
 11
135.52966166666613
 21
43.371834999999919
  0
LINE
  8
_1-8_小物
  6
CONTINUOUS
 62
    4
 10
135.52966166666613
 20
43.371834999999919
 11
134.86390833333309
 21
43.406724999999966
  0
LINE
  8
_1-8_小物
  6
CONTINUOUS
 62
    4
 10
134.95113499999991
 20
45.071108333333314
 11
134.91624499999972
 21
44.405354999999872
  0
LINE
  8
_1-8_小物
  6
CONTINUOUS
 62
    4
 10
135.00347166666626
 20
46.069736666666643
 11
135.65177833333291
 21
45.701969999999761
  0
LINE
  8
_1-8_小物
  6
CONTINUOUS
 62
    4
 10
135.65177833333291
 20
45.701969999999761
 11
135.61688833333329
 21
45.036216666666633
  0
LINE
  8
_1-8_小物
  6
CONTINUOUS
 62
    4
 10
135.61688833333329
 20
45.036216666666633
 11
134.95113499999991
 21
45.071108333333314
  0
LINE
  8
_1-8_小物
  6
CONTINUOUS
 62
    4
 10
135.03836166666616
 20
46.735490000000027
 11
135.00347166666626
 21
46.069736666666643
  0
LINE
  8
_1-8_小物
  6
CONTINUOUS
 62
    4
 10
135.0906983333328
 20
47.734119999999763
 11
135.73900499999974
 21
47.366353333333336
  0
LINE
  8
_1-8_小物
  6
CONTINUOUS
 62
    4
 10
135.73900499999974
 20
47.366353333333336
 11
135.70411499999983
 21
46.700599999999952
  0
LINE
  8
_1-8_小物
  6
CONTINUOUS
 62
    4
 10
135.70411499999983
 20
46.700599999999952
 11
135.03836166666616
 21
46.735490000000027
  0
LINE
  8
_1-8_小物
  6
CONTINUOUS
 62
    4
 10
135.12558833333298
 20
48.399873333333289
 11
135.0906983333328
 21
47.734119999999763
  0
LINE
  8
_1-8_小物
  6
CONTINUOUS
 62
    4
 10
135.17792499999996
 20
49.398503333333338
 11
135.82623166666656
 21
49.030734999999964
  0
LINE
  8
_1-8_小物
  6
CONTINUOUS
 62
    4
 10
135.82623166666656
 20
49.030734999999964
 11
135.79134166666637
 21
48.364981666666608
  0
LINE
  8
_1-8_小物
  6
CONTINUOUS
 62
    4
 10
135.79134166666637
 20
48.364981666666608
 11
135.12558833333298
 21
48.399873333333289
  0
LINE
  8
_1-8_小物
  6
CONTINUOUS
 62
    4
 10
135.21281499999952
 20
50.064254999999918
 11
135.17792499999996
 21
49.398503333333338
  0
LINE
  8
_1-8_小物
  6
CONTINUOUS
 62
    4
 10
135.9134583333331
 20
50.695118333333227
 11
135.87856833333291
 21
50.029364999999871
  0
LINE
  8
_1-8_小物
  6
CONTINUOUS
 62
    4
 10
135.87856833333291
 20
50.029364999999871
 11
135.21281499999952
 21
50.064254999999918
  0
LINE
  8
_1-8_小物
  6
CONTINUOUS
 62
    4
 10
136.64689833333307
 20
43.019768333333246
 11
137.29146499999962
 21
43.591658333333271
  0
LINE
  8
_1-8_小物
  6
CONTINUOUS
 62
    4
 10
136.04351833333294
 20
43.623146666666628
 11
136.66666666666663
 21
42.999999999999829
  0
LINE
  8
_1-8_小物
  6
CONTINUOUS
 62
    4
 10
135.33333333333331
 20
51
 11
135.9134583333331
 21
50.695118333333227
  0
LINE
  8
_1-8_小物
  6
CONTINUOUS
 62
    4
 10
138.2077449999997
 20
48.399873333333289
 11
138.77286666666623
 21
49.952533333333122
  0
LINE
  8
_1-8_小物
  6
CONTINUOUS
 62
    4
 10
137.85301833333324
 20
48.399873333333289
 11
138.45963666666648
 21
50.066539999999947
  0
LINE
  8
_1-8_小物
  6
CONTINUOUS
 62
    4
 10
135.12558833333298
 20
48.399873333333289
 11
134.56046666666646
 21
49.952533333333122
  0
LINE
  8
_1-8_小物
  6
CONTINUOUS
 62
    4
 10
135.48031499999945
 20
48.399873333333289
 11
134.87369666666621
 21
50.066539999999947
  0
LINE
  8
_1-8_小物
  6
CONTINUOUS
 62
    4
 10
137.33924833333305
 20
42.679913333333161
 11
138.50431499999951
 21
42.74097166666661
  0
LINE
  8
_1-8_小物
  6
CONTINUOUS
 62
    4
 10
138.50431499999951
 20
42.74097166666661
 11
137.87345333333298
 21
42.040328333333321
  0
LINE
  8
_1-8_小物
  6
CONTINUOUS
 62
    4
 10
137.87345333333298
 20
42.040328333333321
 11
137.37413833333324
 21
42.014159999999862
  0
LINE
  8
_1-8_小物
  6
CONTINUOUS
 62
    4
 10
137.37413833333324
 20
42.014159999999862
 11
136.83333333333331
 21
52.333333333333172
  0
LINE
  8
_1-8_小物
  6
CONTINUOUS
 62
    4
 10
137.99999999999966
 20
51
 11
137.99999999999966
 21
52.333333333333172
  0
LINE
  8
_1-8_小物
  6
CONTINUOUS
 62
    4
 10
135.99408499999964
 20
42.679913333333161
 11
134.82901833333318
 21
42.74097166666661
  0
LINE
  8
_1-8_小物
  6
CONTINUOUS
 62
    4
 10
134.82901833333318
 20
42.74097166666661
 11
135.45987999999971
 21
42.040328333333321
  0
LINE
  8
_1-8_小物
  6
CONTINUOUS
 62
    4
 10
135.45987999999971
 20
42.040328333333321
 11
135.95919499999974
 21
42.014159999999862
  0
LINE
  8
_1-8_小物
  6
CONTINUOUS
 62
    4
 10
135.95919499999974
 20
42.014159999999862
 11
136.49999999999966
 21
52.333333333333172
  0
LINE
  8
_1-8_小物
  6
CONTINUOUS
 62
    4
 10
135.33333333333331
 20
51
 11
135.33333333333331
 21
52.333333333333172
  0
LINE
  8
_1-8_小物
  6
CONTINUOUS
 62
    4
 10
134.56046666666646
 20
49.952533333333122
 11
134.22968166666635
 21
52.220406666666804
  0
ARC
  8
_1-8_小物
  6
CONTINUOUS
 62
    4
 10
134.36161833333301
 20
52.239651666666589
 40
0.1333333333333333
 50
98.130101999939981
 51
188.29846599999718
  0
LINE
  8
_1-8_小物
  6
CONTINUOUS
 62
    4
 10
134.34276166666615
 20
52.371644999999944
 11
134.40836999999976
 21
52.38101666666671
  0
ARC
  8
_1-8_小物
  6
CONTINUOUS
 62
    4
 10
134.42722666666668
 20
52.249023333333298
 40
0.1333333333333333
 50
8.1301020000159863
 51
98.130102000238807
  0
LINE
  8
_1-8_小物
  6
CONTINUOUS
 62
    4
 10
134.55921999999975
 20
52.267879999999877
 11
134.87369666666621
 21
50.066539999999947
  0
LINE
  8
_1-8_小物
  6
CONTINUOUS
 62
    4
 10
138.77286666666623
 20
49.952533333333122
 11
139.10365166666634
 21
52.220406666666804
  0
ARC
  8
_1-8_小物
  6
CONTINUOUS
 62
    4
 10
138.97171499999968
 20
52.239651666666589
 40
0.1333333333333333
 50
351.70153399995951
 51
81.869898000060005
  0
LINE
  8
_1-8_小物
  6
CONTINUOUS
 62
    4
 10
138.99056999999959
 20
52.371644999999944
 11
138.92496333333293
 21
52.38101666666671
  0
ARC
  8
_1-8_小物
  6
CONTINUOUS
 62
    4
 10
138.90610666666663
 20
52.249023333333298
 40
0.1333333333333333
 50
81.869898000034112
 51
171.86989799998403
  0
LINE
  8
_1-8_小物
  6
CONTINUOUS
 62
    4
 10
138.77411333333293
 20
52.267879999999877
 11
138.45963666666648
 21
50.066539999999947
  0
LINE
  8
_1-8_小物
  6
CONTINUOUS
 62
    4
 10
138.77286666666623
 20
49.952533333333122
 11
139.10365166666634
 21
52.220406666666804
  0
ARC
  8
_1-8_小物
  6
CONTINUOUS
 62
    4
 10
138.97171499999968
 20
52.239651666666589
 40
0.1333333333333333
 50
351.70153399995951
 51
81.869898000060005
  0
LINE
  8
_1-8_小物
  6
CONTINUOUS
 62
    4
 10
138.99056999999959
 20
52.371644999999944
 11
138.92496333333293
 21
52.38101666666671
  0
ARC
  8
_1-8_小物
  6
CONTINUOUS
 62
    4
 10
138.90610666666663
 20
52.249023333333298
 40
0.1333333333333333
 50
81.869898000034112
 51
171.86989799998403
  0
LINE
  8
_1-8_小物
  6
CONTINUOUS
 62
    4
 10
138.77411333333293
 20
52.267879999999877
 11
138.45963666666648
 21
50.066539999999947
  0
LINE
  8
_1-8_小物
  6
CONTINUOUS
 62
    4
 10
138.33333333333331
 20
55
 11
137.99999999999966
 21
53.333333333333314
  0
LINE
  8
_1-8_小物
  6
CONTINUOUS
 62
    4
 10
137.99999999999966
 20
55
 11
137.99999999999966
 21
52.333333333333172
  0
LINE
  8
_1-8_小物
  6
CONTINUOUS
 62
    4
 10
136.83333333333331
 20
52.333333333333172
 11
136.66666666666663
 21
52.333333333333172
  0
LINE
  8
_1-8_小物
  6
CONTINUOUS
 62
    4
 10
136.66666666666663
 20
53.333333333333314
 11
136.66666666666663
 21
55
  0
LINE
  8
_1-8_小物
  6
CONTINUOUS
 62
    4
 10
136.99999999999966
 20
55
 11
136.66666666666663
 21
53.333333333333314
  0
LINE
  8
_1-8_小物
  6
CONTINUOUS
 62
    4
 10
136.33333333333303
 20
55
 11
136.66666666666663
 21
53.333333333333314
  0
LINE
  8
_1-8_小物
  6
CONTINUOUS
 62
    4
 10
135
 20
55
 11
135.33333333333331
 21
53.333333333333314
  0
LINE
  8
_1-8_小物
  6
CONTINUOUS
 62
    4
 10
135.33333333333331
 20
55
 11
135.33333333333331
 21
52.333333333333172
  0
LINE
  8
_1-8_小物
  6
CONTINUOUS
 62
    4
 10
136.49999999999966
 20
52.333333333333172
 11
136.66666666666663
 21
52.333333333333172
  0
LINE
  8
_1-8_小物
  6
CONTINUOUS
 62
    4
 10
138.33333333333331
 20
55
 11
135
 21
55
  0
ENDBLK
  0
BLOCK
  2
-011-_10_
 70
   64
 10
0
 20
0
 30
0
  0
LINE
  8
ADD_LINE
  6
DOT
 62
    4
 10
-134.16666658720018
 20
56.000000000000142
 11
-134.16666658720018
 21
55.000000000000028
  0
LINE
  8
ADD_LINE
  6
DOT
 62
    4
 10
-139.16666658720018
 20
56.000000000000142
 11
-139.16666658720018
 21
55.000000000000028
  0
LINE
  8
_1-4_フレ__ム
  6
CENTER2
 62
    4
 10
-136.66666658720018
 20
53.333333333333371
 11
-136.66666658720018
 21
57.166666666666856
  0
LINE
  8
_1-4_フレ__ム
  6
CONTINUOUS
 62
    4
 10
-136.66666658720018
 20
55.900000000000119
 11
-136.76666658719995
 21
56.000000000000142
  0
LINE
  8
_1-4_フレ__ム
  6
CONTINUOUS
 62
    4
 10
-136.56666658719982
 20
56.000000000000142
 11
-136.66666658720018
 21
55.900000000000119
  0
LINE
  8
_1-4_フレ__ム
  6
CONTINUOUS
 62
    4
 10
-132.00000007946625
 20
56.000000000000142
 11
-136.56666658719982
 21
56.000000000000142
  0
LINE
  8
_1-4_フレ__ム
  6
CONTINUOUS
 62
    4
 10
-132.00000007946625
 20
56.8333333333334
 11
-132.00000007946625
 21
56.000000000000142
  0
LINE
  8
_1-4_フレ__ム
  6
CONTINUOUS
 62
    4
 10
-132.00000007946625
 20
56.8333333333334
 11
-131.00000007946619
 21
56.8333333333334
  0
LINE
  8
_1-4_フレ__ム
  6
CONTINUOUS
 62
    4
 10
-136.76666658719995
 20
56.000000000000142
 11
-142.6666664887336
 21
56.000000000000142
  0
ARC
  8
_1-4_フレ__ム
  6
CONTINUOUS
 62
    4
 10
-122.76666648873319
 20
55.266666666667021
 40
0.2666666666666667
 50
270
 51
0
  0
ARC
  8
_1-4_フレ__ム
  6
CONTINUOUS
 62
    4
 10
-122.86666648873324
 20
55.166666666666856
 40
0.1666666666666666
 50
180
 51
270
  0
LINE
  8
_1-4_フレ__ム
  6
CONTINUOUS
 62
    4
 10
-122.86666648873324
 20
55.000000000000028
 11
-122.76666648873319
 21
55.000000000000028
  0
ARC
  8
_1-4_フレ__ム
  6
CONTINUOUS
 62
    4
 10
-124.99999982206677
 20
56.000000000000142
 40
0.1666666666666666
 50
270
 51
0
  0
LINE
  8
_1-4_フレ__ム
  6
CONTINUOUS
 62
    4
 10
-122.49999982206677
 20
55.266666666667021
 11
-122.49999982206677
 21
56.266666666666765
  0
ARC
  8
_1-4_フレ__ム
  6
CONTINUOUS
 62
    4
 10
-123.13333315540009
 20
56.266666666666765
 40
0.6333333333333333
 50
0
 51
90
  0
LINE
  8
_1-4_フレ__ム
  6
CONTINUOUS
 62
    4
 10
-131.00000007946619
 20
56.8333333333334
 11
-131.00000007946619
 21
55.833333333333513
  0
LINE
  8
_1-4_フレ__ム
  6
CONTINUOUS
 62
    4
 10
-124.99999982206677
 20
55.833333333333513
 11
-131.00000007946619
 21
55.833333333333513
  0
LINE
  8
_1-4_フレ__ム
  6
CONTINUOUS
 62
    4
 10
-141.66666648873328
 20
55.000000000000028
 11
-142.6666664887336
 21
56.000000000000142
  0
LINE
  8
_1-4_フレ__ム
  6
CONTINUOUS
 62
    4
 10
-141.66666648873328
 20
55.000000000000028
 11
-124
 21
55.000000000000028
  0
LINE
  8
ADD_LINE
  6
DOT
 62
    4
 10
-125.49999982206677
 20
55.833333333333513
 11
-125.49999982206677
 21
55.000000000000028
  0
LINE
  8
_1-4_フレ__ム
  6
CENTER2
 62
    4
 10
-123.51666648873319
 20
55.816666666666862
 11
-123.51666648873319
 21
56.649999999999892
  0
LINE
  8
_1-4_フレ__ム
  6
CENTER2
 62
    4
 10
-123.51666648873319
 20
55.816666666666862
 11
-124.34999982206682
 21
55.816666666666862
  0
LINE
  8
_1-4_フレ__ム
  6
CENTER2
 62
    4
 10
-123.51666648873319
 20
55.816666666666862
 11
-123.51666648873319
 21
54.983333333333263
  0
LINE
  8
_1-4_フレ__ム
  6
CENTER2
 62
    4
 10
-123.51666648873319
 20
55.816666666666862
 11
-122.68333315539985
 21
55.816666666666862
  0
ARC
  8
_1-4_フレ__ム
  6
CONTINUOUS
 62
    4
 10
-123.51666648873319
 20
55.816666666666862
 40
0.4833333333332726
 50
0
 51
180
  0
LINE
  8
_1-4_フレ__ム
  6
CONTINUOUS
 62
    4
 10
-123.99999982206677
 20
55.000000000000028
 11
-123.99999982206677
 21
55.816666666666862
  0
LINE
  8
_1-4_フレ__ム
  6
CONTINUOUS
 62
    4
 10
-123.03333315540021
 20
55.816666666666862
 11
-123.03333315540021
 21
55.166666666666856
  0
LINE
  8
_1-4_フレ__ム
  6
CONTINUOUS
 62
    4
 10
-124.8333331554001
 20
56.800000000000097
 11
-124.8333331554001
 21
56.000000000000142
  0
LINE
  8
_1-4_フレ__ム
  6
CONTINUOUS
 62
    4
 10
-123.13333315540009
 20
56.900000000000119
 11
-124.73333315540012
 21
56.900000000000119
  0
ARC
  8
_1-4_フレ__ム
  6
CONTINUOUS
 62
    4
 10
-124.73333315540012
 20
56.800000000000097
 40
0.0999999999999999
 50
90
 51
180
  0
ENDBLK
  0
BLOCK
  2
-012-_11_
 70
   64
 10
0
 20
0
 30
0
  0
LINE
  8
_1-8_小物
  6
CONTINUOUS
 62
    4
 10
-125.62777778104973
 20
56.063646888524318
 11
-125.71481481809444
 21
55.962640294876792
  0
ARC
  8
_1-8_小物
  6
CONTINUOUS
 62
    4
 10
-122.63333333333307
 20
56.766666666666765
 40
0.1333333333333333
 50
0
 51
89.999998490725531
  0
ARC
  8
_1-8_小物
  6
CONTINUOUS
 62
    4
 10
-122.63333333333307
 20
56.766666666666765
 40
0.2666666666666666
 50
0
 51
89.999998490725531
  0
ARC
  8
_1-8_小物
  6
CONTINUOUS
 62
    4
 10
-122.63333333333307
 20
55.133333333333383
 40
0.2666666666666666
 50
270
 51
0
  0
ARC
  8
_1-8_小物
  6
CONTINUOUS
 62
    4
 10
-123.36666666666642
 20
54.627322003766722
 40
0.5
 50
53.031405798549194
 51
131.81031489580602
  0
ARC
  8
_1-8_小物
  6
CONTINUOUS
 62
    4
 10
-122.98579444999973
 20
55.133333333333383
 40
0.1333333333333333
 50
233.03140197499249
 51
269.99999849072555
  0
LINE
  8
_1-8_小物
  6
CONTINUOUS
 62
    4
 10
-122.98942517016644
 20
54.866666666666731
 11
-122.63333333333307
 21
54.866666666666731
  0
ARC
  8
_1-8_小物
  6
CONTINUOUS
 62
    4
 10
-122.63333333333307
 20
55.133333333333383
 40
0.1333333333333333
 50
270
 51
0
  0
ARC
  8
_1-8_小物
  6
CONTINUOUS
 62
    4
 10
-123.36666666666642
 20
54.583666800100104
 40
0.3999999999999999
 50
55.537811429940156
 51
127.63786311679968
  0
LINE
  8
_1-8_小物
  6
CONTINUOUS
 62
    4
 10
-122.98579445349978
 20
55.000000000000057
 11
-122.63333333333307
 21
55.000000000000057
  0
ARC
  8
_1-8_小物
  6
CONTINUOUS
 62
    4
 10
-122.98942517016644
 20
55.133333333333383
 40
0.2666666666666666
 50
235.53781142990394
 51
270
  0
LINE
  8
_1-8_小物
  6
CONTINUOUS
 62
    4
 10
-123.69999999999975
 20
55.000000000000057
 11
-123.61093410836642
 21
54.900421305900068
  0
LINE
  8
_1-8_小物
  6
CONTINUOUS
 62
    4
 10
-122.36666666666642
 20
55.133333333333383
 11
-122.36666666666642
 21
56.766666666666765
  0
LINE
  8
_1-8_小物
  6
CONTINUOUS
 62
    4
 10
-122.49999999999977
 20
55.133333333333383
 11
-122.49999999999977
 21
56.766666666666765
  0
ARC
  8
_1-8_小物
  6
CONTINUOUS
 62
    4
 10
-125.36666666666642
 20
56.366666666666731
 40
0.5333333333333333
 50
180
 51
0.0000086701147097
  0
ARC
  8
_1-8_小物
  6
CONTINUOUS
 62
    4
 10
-125.36666666666642
 20
56.366666666666731
 40
0.3999999999999999
 50
180.00000000009771
 51
0.000001882395793
  0
LINE
  8
_1-8_小物
  6
CONTINUOUS
 62
    4
 10
-125.76666666666642
 20
56.366666666666731
 11
-125.89999999999972
 21
56.366666666666731
  0
LINE
  8
_1-8_小物
  6
CONTINUOUS
 62
    4
 10
-126.83333333333312
 20
55.833333333333371
 11
-126.83333333333312
 21
55.966666666666697
  0
LINE
  8
_1-8_小物
  6
DASHED1
 62
    4
 10
-124.24999999292679
 20
57.033333333333417
 11
-124.24999999292679
 21
56.900000000000091
  0
LINE
  8
_1-8_小物
  6
CONTINUOUS
 62
    4
 10
-126.33333333333312
 20
55.966666666666697
 11
-126.33333333333312
 21
55.833333333333371
  0
LINE
  8
_1-8_小物
  6
CONTINUOUS
 62
    4
 10
-126.83333333333312
 20
55.966666666666697
 11
-125.71943350814165
 21
55.966666666666697
  0
LINE
  8
_1-8_小物
  6
CONTINUOUS
 62
    4
 10
-126.83333333333312
 20
55.833333333333371
 11
-125
 21
55.833333333333371
  0
LINE
  8
_1-8_小物
  6
CONTINUOUS
 62
    4
 10
-125.01389982519117
 20
55.966666666666697
 11
-124.8367006838145
 21
55.966666666666697
  0
ARC
  8
_1-8_小物
  6
CONTINUOUS
 62
    4
 10
-123.93643819168332
 20
55.533333333333417
 40
0.1333333333333333
 50
241.52902134412275
 51
270
  0
LINE
  8
_1-8_小物
  6
CONTINUOUS
 62
    4
 10
-124
 20
55.266666666666765
 11
-123.03333333333346
 21
55.266666666666765
  0
LINE
  8
_1-8_小物
  6
CONTINUOUS
 62
    4
 10
-123.93643819168332
 20
55.400000000000034
 11
-123.03333333333346
 21
55.400000000000034
  0
LINE
  8
_1-8_小物
  6
CONTINUOUS
 62
    4
 10
-122.63333332983311
 20
56.900000000000091
 11
-124.73333333333309
 21
56.900000000000091
  0
LINE
  8
_1-8_小物
  6
CONTINUOUS
 62
    4
 10
-124.83333333333312
 20
56.366666666666731
 11
-124.83333333333312
 21
56.800000000000097
  0
ARC
  8
_1-8_小物
  6
CONTINUOUS
 62
    4
 10
-124.73333333333309
 20
56.800000000000097
 40
0.0999999999999999
 50
90
 51
180
  0
LINE
  8
_1-8_小物
  6
CONTINUOUS
 62
    4
 10
-122.63333332633306
 20
57.033333333333417
 11
-124.73333333333305
 21
57.033333333333417
  0
LINE
  8
_1-8_小物
  6
CONTINUOUS
 62
    4
 10
-124.9666666666664
 20
56.366666666666731
 11
-124.9666666666664
 21
56.800000000000068
  0
ARC
  8
_1-8_小物
  6
CONTINUOUS
 62
    4
 10
-124.73333333333305
 20
56.800000000000068
 40
0.2333333333333333
 50
90
 51
180
  0
ENDBLK
  0
BLOCK
  2
-013-_12_
 70
   64
 10
0
 20
0
 30
0
  0
LINE
  8
_1-5_ア__ム
  6
CONTINUOUS
 62
    4
 10
-139.99999999999994
 20
62.333333314699814
 11
-139.99999999999994
 21
58.666666759800052
  0
ARC
  8
_1-5_ア__ム
  6
CONTINUOUS
 62
    4
 10
-138.33333333333331
 20
58.666666759800052
 40
1.6666666666666665
 50
180
 51
270
  0
LINE
  8
_1-5_ア__ム
  6
DASHED1
 62
    4
 10
-135.99999999999994
 20
61.400000014633321
 11
-135.99999999999994
 21
60.666666681299972
  0
LINE
  8
_1-5_ア__ム
  6
DASHED1
 62
    4
 10
-130.66666666666634
 20
61.400000014633321
 11
-130.66666666666634
 21
60.666666681299972
  0
LINE
  8
_1-5_ア__ム
  6
DASHED1
 62
    4
 10
-121.66666666666674
 20
61.400000014633321
 11
-121.66666666666674
 21
60.666666681299972
  0
LINE
  8
_1-5_ア__ム
  6
DASHED1
 62
    4
 10
-119.66666666666644
 20
61.400000014633321
 11
-119.66666666666644
 21
60.666666681299972
  0
LINE
  8
_1-5_ア__ム
  6
DASHED1
 62
    4
 10
-133.6666666666666
 20
61.400000014633321
 11
-133.6666666666666
 21
60.666666681299972
  0
LINE
  8
_1-5_ア__ム
  6
DASHED1
 62
    4
 10
-125.3333333333333
 20
61.400000014633321
 11
-125.3333333333333
 21
60.666666681299972
  0
LINE
  8
_1-5_ア__ム
  6
DASHED1
 62
    4
 10
-120.99999999999993
 20
61.400000014633321
 11
-120.99999999999993
 21
60.666666681299972
  0
LINE
  8
_1-5_ア__ム
  6
CONTINUOUS
 62
    4
 10
-59.999999999999972
 20
62.333333333333258
 11
-59.999999999999972
 21
58.666666759800052
  0
ARC
  8
_1-5_ア__ム
  6
CONTINUOUS
 62
    4
 10
-61.666666666666629
 20
58.666666759800052
 40
1.6666666666666665
 50
270
 51
0
  0
LINE
  8
_1-5_ア__ム
  6
CONTINUOUS
 62
    4
 10
-139.99999999999994
 20
62.333333333333258
 11
-59.999999999999972
 21
62.333333333333258
  0
LINE
  8
_1-5_ア__ム
  6
DASHED1
 62
    4
 10
-139.99999999999994
 20
61.400000014633321
 11
-59.999999999999972
 21
61.400000014633321
  0
LINE
  8
_1-5_ア__ム
  6
DASHED1
 62
    4
 10
-139.99999999999994
 20
60.666666681299972
 11
-59.999999999999972
 21
60.666666681299972
  0
LINE
  8
_1-5_ア__ム
  6
CONTINUOUS
 62
    4
 10
-138.33333333333331
 20
57.000000093133394
 11
-61.666666666666629
 21
57.000000093133394
  0
ENDBLK
  0
BLOCK
  2
-014-_13_
 70
   64
 10
0
 20
0
 30
0
  0
ARC
  8
_1-4_フレ__ム
  6
CONTINUOUS
 62
    4
 10
-84.83333325386684
 20
55.000000000000028
 40
0.5
 50
90
 51
180
  0
LINE
  8
_1-4_フレ__ム
  6
CONTINUOUS
 62
    4
 10
-63.33333325386684
 20
55.400000000000119
 11
-63.433333253866607
 21
55.500000000000028
  0
LINE
  8
_1-4_フレ__ム
  6
CONTINUOUS
 62
    4
 10
-63.233333253866931
 20
55.500000000000028
 11
-63.33333325386684
 21
55.400000000000119
  0
LINE
  8
_1-4_フレ__ム
  6
CONTINUOUS
 62
    4
 10
-85.333333253867153
 20
55.000000000000028
 11
-58.33333325386684
 21
55.000000000000028
  0
LINE
  8
_1-4_フレ__ム
  6
CONTINUOUS
 62
    4
 10
-58.333333333333655
 20
55.000000019000055
 11
-57.333333352333597
 21
56
  0
LINE
  8
_1-4_フレ__ム
  6
CONTINUOUS
 62
    4
 10
-57.333333352333597
 20
56
 11
-58.040440133520178
 21
56
  0
LINE
  8
_1-4_フレ__ム
  6
CONTINUOUS
 62
    4
 10
-58.540440133520178
 20
55.500000000000028
 11
-58.040440133520178
 21
56
  0
LINE
  8
_1-4_フレ__ム
  6
CONTINUOUS
 62
    4
 10
-58.540440133520178
 20
55.500000000000028
 11
-63.233333253866931
 21
55.500000000000028
  0
LINE
  8
_1-4_フレ__ム
  6
CONTINUOUS
 62
    4
 10
-74.112653052606845
 20
55.500000000000028
 11
-84.83333325386684
 21
55.500000000000028
  0
ARC
  8
_1-4_フレ__ム
  6
CONTINUOUS
 62
    4
 10
-74.112653052606845
 20
55.833333333333371
 40
0.3333333333333333
 50
270
 51
326.30993247401886
  0
ARC
  8
_1-4_フレ__ム
  6
CONTINUOUS
 62
    4
 10
-72.755863880281453
 20
56.666666666666686
 40
0.3333333333333333
 50
90
 51
146.30993247402563
  0
ARC
  8
_1-4_フレ__ム
  6
CONTINUOUS
 62
    4
 10
-72.577469294118828
 20
56.333333333333371
 40
0.1666666666666666
 50
90
 51
146.30993247403649
  0
LINE
  8
_1-4_フレ__ム
  6
CONTINUOUS
 62
    4
 10
-63.433333253866607
 20
55.500000000000028
 11
-73.021913738563342
 21
55.500000000000028
  0
ARC
  8
_1-4_フレ__ム
  6
CONTINUOUS
 62
    4
 10
-73.021913738563342
 20
55.666666666666686
 40
0.1666666666666666
 50
146.30993247403649
 51
270
  0
LINE
  8
_1-4_フレ__ム
  6
CONTINUOUS
 62
    4
 10
-73.835302954494182
 20
55.648433267924929
 11
-73.033213978394173
 21
56.851566732075071
  0
LINE
  8
_1-4_フレ__ム
  6
CONTINUOUS
 62
    4
 10
-73.160588787619645
 20
55.759116699370907
 11
-72.716144343175245
 21
56.425783366037535
  0
LINE
  8
_1-4_フレ__ム
  6
CONTINUOUS
 62
    4
 10
-71.666666587200325
 20
56.500000000000028
 11
-72.577469294118828
 21
56.500000000000028
  0
ARC
  8
_1-4_フレ__ム
  6
CONTINUOUS
 62
    4
 10
-71.666666587200325
 20
56.833333333333371
 40
0.3333333333333333
 50
270
 51
0
  0
LINE
  8
_1-4_フレ__ム
  6
CONTINUOUS
 62
    4
 10
-71.333333253866925
 20
56.833333333333371
 11
-71.333333253866925
 21
57.000000000000028
  0
LINE
  8
_1-4_フレ__ム
  6
CONTINUOUS
 62
    4
 10
-71.333333253866925
 20
57.000000000000028
 11
-72.755863880281453
 21
57.000000000000028
  0
LINE
  8
ADD_LINE
  6
DOT
 62
    4
 10
-63.33333325386684
 20
57.166666666666686
 11
-63.33333325386684
 21
53.333333333333371
  0
LINE
  8
_1-4_フレ__ム
  6
DASHED1
 62
    4
 10
-60.83333325386684
 20
55.500000000000028
 11
-60.83333325386684
 21
54.999999999999886
  0
LINE
  8
_1-4_フレ__ム
  6
DASHED1
 62
    4
 10
-65.83333325386684
 20
55.500000000000028
 11
-65.83333325386684
 21
54.999999999999886
  0
ENDBLK
  0
BLOCK
  2
-015-_14_
 70
   64
 10
0
 20
0
 30
0
  0
ARC
  8
_1-4_フレ__ム
  6
CONTINUOUS
 62
    4
 10
115.16666674613316
 20
55
 40
0.5
 50
90
 51
180
  0
LINE
  8
_1-4_フレ__ム
  6
CONTINUOUS
 62
    4
 10
136.66666674613316
 20
55.400000000000091
 11
136.56666674613336
 21
55.5
  0
LINE
  8
_1-4_フレ__ム
  6
CONTINUOUS
 62
    4
 10
136.76666674613307
 20
55.5
 11
136.66666674613316
 21
55.400000000000091
  0
LINE
  8
_1-4_フレ__ム
  6
CONTINUOUS
 62
    4
 10
114.66666674613282
 20
55
 11
141.66666674613316
 21
55
  0
LINE
  8
_1-4_フレ__ム
  6
CONTINUOUS
 62
    4
 10
141.66666666666634
 20
55.000000019000026
 11
142.66666664766637
 21
55.999999999999943
  0
LINE
  8
_1-4_フレ__ム
  6
CONTINUOUS
 62
    4
 10
142.66666664766637
 20
55.999999999999943
 11
141.95955986647982
 21
55.999999999999943
  0
LINE
  8
_1-4_フレ__ム
  6
CONTINUOUS
 62
    4
 10
141.45955986647982
 20
55.5
 11
141.95955986647982
 21
55.999999999999943
  0
LINE
  8
_1-4_フレ__ム
  6
CONTINUOUS
 62
    4
 10
141.45955986647982
 20
55.5
 11
136.76666674613307
 21
55.5
  0
LINE
  8
_1-4_フレ__ム
  6
CONTINUOUS
 62
    4
 10
125.88734694739316
 20
55.5
 11
115.16666674613316
 21
55.5
  0
ARC
  8
_1-4_フレ__ム
  6
CONTINUOUS
 62
    4
 10
125.88734694739316
 20
55.833333333333314
 40
0.3333333333333333
 50
270
 51
326.3099324740229
  0
ARC
  8
_1-4_フレ__ム
  6
CONTINUOUS
 62
    4
 10
127.24413611971852
 20
56.666666666666657
 40
0.3333333333333333
 50
90
 51
146.30993247403242
  0
ARC
  8
_1-4_フレ__ム
  6
CONTINUOUS
 62
    4
 10
127.42253070588117
 20
56.333333333333314
 40
0.1666666666666666
 50
90
 51
146.30993247404189
  0
LINE
  8
_1-4_フレ__ム
  6
CONTINUOUS
 62
    4
 10
136.56666674613336
 20
55.5
 11
126.97808626143666
 21
55.5
  0
ARC
  8
_1-4_フレ__ム
  6
CONTINUOUS
 62
    4
 10
126.97808626143666
 20
55.666666666666657
 40
0.1666666666666666
 50
146.30993247403106
 51
270
  0
LINE
  8
_1-4_フレ__ム
  6
CONTINUOUS
 62
    4
 10
126.16469704550582
 20
55.648433267924872
 11
126.9667860216058
 21
56.851566732075014
  0
LINE
  8
_1-4_フレ__ム
  6
CONTINUOUS
 62
    4
 10
126.83941121238036
 20
55.75911669937085
 11
127.28385565682476
 21
56.425783366037479
  0
LINE
  8
_1-4_フレ__ム
  6
CONTINUOUS
 62
    4
 10
128.33333341279967
 20
56.5
 11
127.42253070588117
 21
56.5
  0
ARC
  8
_1-4_フレ__ム
  6
CONTINUOUS
 62
    4
 10
128.33333341279967
 20
56.833333333333314
 40
0.3333333333333333
 50
270
 51
0
  0
LINE
  8
_1-4_フレ__ム
  6
CONTINUOUS
 62
    4
 10
128.66666674613305
 20
56.833333333333314
 11
128.66666674613305
 21
57
  0
LINE
  8
_1-4_フレ__ム
  6
CONTINUOUS
 62
    4
 10
128.66666674613305
 20
57
 11
127.24413611971852
 21
57
  0
LINE
  8
ADD_LINE
  6
DOT
 62
    4
 10
136.66666674613316
 20
57.166666666666657
 11
136.66666674613316
 21
53.333333333333314
  0
LINE
  8
_1-4_フレ__ム
  6
DASHED1
 62
    4
 10
139.16666674613316
 20
55.5
 11
139.16666674613316
 21
54.999999999999829
  0
LINE
  8
_1-4_フレ__ム
  6
DASHED1
 62
    4
 10
134.16666674613316
 20
55.5
 11
134.16666674613316
 21
54.999999999999829
  0
ENDBLK
  0
BLOCK
  2
-016-_15_
 70
   64
 10
0
 20
0
 30
0
  0
LINE
  8
_1-8_小物
  6
CONTINUOUS
 62
    4
 10
-133.66666658719973
 20
56.500000000000142
 11
-139.66666658720004
 21
56.500000000000142
  0
LINE
  8
_1-8_小物
  6
CONTINUOUS
 62
    4
 10
-133.66666658719973
 20
56.000000000000142
 11
-139.66666658720004
 21
56.000000000000142
  0
LINE
  8
_1-8_小物
  6
CONTINUOUS
 62
    4
 10
-133.66666658719973
 20
56.500000000000142
 11
-133.66666658719973
 21
56.000000000000142
  0
LINE
  8
_1-8_小物
  6
CONTINUOUS
 62
    4
 10
-139.66666658720004
 20
56.500000000000142
 11
-139.66666658720004
 21
56.000000000000142
  0
LINE
  8
_1-8_小物
  6
CONTINUOUS
 62
    4
 10
-135.16666658719973
 20
56.500000000000142
 11
-135.20297084846658
 21
56.914959605000178
  0
LINE
  8
_1-8_小物
  6
CONTINUOUS
 62
    4
 10
-138.13036232596659
 20
56.914959605000178
 11
-138.16666658719973
 21
56.500000000000142
  0
ARC
  8
_1-8_小物
  6
CONTINUOUS
 62
    4
 10
-137.80161807556686
 20
56.886198209900073
 40
0.3299999999999999
 50
127.36755803205052
 51
175.00000000119829
  0
ARC
  8
_1-8_小物
  6
CONTINUOUS
 62
    4
 10
-135.53171509883322
 20
56.886198209900073
 40
0.3299999999999999
 50
4.9999999988008561
 51
52.63244196794556
  0
ARC
  8
_1-8_小物
  6
CONTINUOUS
 62
    4
 10
-136.66666658720004
 20
55.400000000000119
 40
2.1999999999999997
 50
52.632441967704345
 51
68.266383543397481
  0
ARC
  8
_1-8_小物
  6
CONTINUOUS
 62
    4
 10
-136.66666658720004
 20
55.400000000000119
 40
2.1999999999999997
 50
111.74840859090261
 51
127.36755803230515
  0
LINE
  8
_1-8_小物
  6
CONTINUOUS
 62
    4
 10
-136.56166658719991
 20
57.586375709866871
 11
-136.56166658719991
 21
57.441104079866733
  0
LINE
  8
_1-8_小物
  6
CONTINUOUS
 62
    4
 10
-136.44590369323291
 20
57.586375709866871
 11
-136.56166658719991
 21
57.586375709866871
  0
LINE
  8
_1-8_小物
  6
CONTINUOUS
 62
    4
 10
-135.8524988310333
 20
57.441104079866733
 11
-136.44590369323291
 21
57.586375709866871
  0
LINE
  8
_1-8_小物
  6
CONTINUOUS
 62
    4
 10
-136.88742948119994
 20
57.586375709866871
 11
-137.3207329037667
 21
57.49789710273356
  0
LINE
  8
_1-8_小物
  6
CONTINUOUS
 62
    4
 10
-137.3207329037667
 20
57.49789710273356
 11
-137.48083434339955
 21
57.441104079866733
  0
LINE
  8
_1-8_小物
  6
CONTINUOUS
 62
    4
 10
-136.77166658719995
 20
57.586375709866871
 11
-136.88742948119994
 21
57.586375709866871
  0
LINE
  8
_1-8_小物
  6
CONTINUOUS
 62
    4
 10
-136.77166658719995
 20
57.441104079866733
 11
-136.77166658719995
 21
57.586375709866871
  0
LINE
  8
_1-8_小物
  6
CONTINUOUS
 62
    4
 10
-136.56166658719991
 20
57.441104079866733
 11
-136.66666658720004
 21
57.442805804666847
  0
LINE
  8
_1-8_小物
  6
CONTINUOUS
 62
    4
 10
-136.66666658720004
 20
57.442805804666847
 11
-136.77166658719995
 21
57.441104079866733
  0
LINE
  8
_1-8_小物
  6
CONTINUOUS
 62
    4
 10
-135.20297084846658
 20
56.914959605000178
 11
-138.13036232596659
 21
56.914959605000178
  0
LINE
  8
_1-8_小物
  6
CONTINUOUS
 62
    4
 10
-136.66666658720004
 20
57.14846848223354
 11
-138.00190363236669
 21
57.14846848223354
  0
LINE
  8
_1-8_小物
  6
CONTINUOUS
 62
    4
 10
-135.33142954206647
 20
57.14846848223354
 11
-136.66666658720004
 21
57.14846848223354
  0
ENDBLK
  0
BLOCK
  2
-017-_16_
 70
   64
 10
0
 20
0
 30
0
  0
LINE
  8
_1-8_小物
  6
CONTINUOUS
 62
    4
 10
-60.333333253866385
 20
56.000000000000171
 11
-66.333333253866698
 21
56.000000000000171
  0
LINE
  8
_1-8_小物
  6
CONTINUOUS
 62
    4
 10
-60.333333253866385
 20
55.500000000000171
 11
-66.333333253866698
 21
55.500000000000171
  0
LINE
  8
_1-8_小物
  6
CONTINUOUS
 62
    4
 10
-60.333333253866385
 20
56.000000000000171
 11
-60.333333253866385
 21
55.500000000000171
  0
LINE
  8
_1-8_小物
  6
CONTINUOUS
 62
    4
 10
-66.333333253866698
 20
56.000000000000171
 11
-66.333333253866698
 21
55.500000000000171
  0
LINE
  8
_1-8_小物
  6
CONTINUOUS
 62
    4
 10
-61.833333253866385
 20
56.000000000000171
 11
-61.869637515133235
 21
56.414959605000206
  0
LINE
  8
_1-8_小物
  6
CONTINUOUS
 62
    4
 10
-64.797028992633244
 20
56.414959605000206
 11
-64.833333253866385
 21
56.000000000000171
  0
ARC
  8
_1-8_小物
  6
CONTINUOUS
 62
    4
 10
-64.468284742233521
 20
56.386198209900101
 40
0.3299999999999999
 50
127.36755803205445
 51
175.00000000119871
  0
ARC
  8
_1-8_小物
  6
CONTINUOUS
 62
    4
 10
-62.198381765499875
 20
56.386198209900101
 40
0.3299999999999999
 50
4.999999998801286
 51
52.632441967949475
  0
ARC
  8
_1-8_小物
  6
CONTINUOUS
 62
    4
 10
-63.333333253866698
 20
54.900000000000148
 40
2.1999999999999997
 50
52.632441967704935
 51
68.266383543398447
  0
ARC
  8
_1-8_小物
  6
CONTINUOUS
 62
    4
 10
-63.333333253866698
 20
54.900000000000148
 40
2.1999999999999997
 50
111.74840859090331
 51
127.36755803230515
  0
LINE
  8
_1-8_小物
  6
CONTINUOUS
 62
    4
 10
-63.228333253866566
 20
57.0863757098669
 11
-63.228333253866566
 21
56.941104079866761
  0
LINE
  8
_1-8_小物
  6
CONTINUOUS
 62
    4
 10
-63.112570359899564
 20
57.0863757098669
 11
-63.228333253866566
 21
57.0863757098669
  0
LINE
  8
_1-8_小物
  6
CONTINUOUS
 62
    4
 10
-62.519165497699959
 20
56.941104079866761
 11
-63.112570359899564
 21
57.0863757098669
  0
LINE
  8
_1-8_小物
  6
CONTINUOUS
 62
    4
 10
-63.554096147866602
 20
57.0863757098669
 11
-63.987399570433354
 21
56.997897102733589
  0
LINE
  8
_1-8_小物
  6
CONTINUOUS
 62
    4
 10
-63.987399570433354
 20
56.997897102733589
 11
-64.147501010066208
 21
56.941104079866761
  0
LINE
  8
_1-8_小物
  6
CONTINUOUS
 62
    4
 10
-63.438333253866602
 20
57.0863757098669
 11
-63.554096147866602
 21
57.0863757098669
  0
LINE
  8
_1-8_小物
  6
CONTINUOUS
 62
    4
 10
-63.438333253866602
 20
56.941104079866761
 11
-63.438333253866602
 21
57.0863757098669
  0
LINE
  8
_1-8_小物
  6
CONTINUOUS
 62
    4
 10
-63.228333253866566
 20
56.941104079866761
 11
-63.333333253866698
 21
56.942805804666875
  0
LINE
  8
_1-8_小物
  6
CONTINUOUS
 62
    4
 10
-63.333333253866698
 20
56.942805804666875
 11
-63.438333253866602
 21
56.941104079866761
  0
LINE
  8
_1-8_小物
  6
CONTINUOUS
 62
    4
 10
-61.869637515133235
 20
56.414959605000206
 11
-64.797028992633244
 21
56.414959605000206
  0
LINE
  8
_1-8_小物
  6
CONTINUOUS
 62
    4
 10
-63.333333253866698
 20
56.648468482233568
 11
-64.668570299033348
 21
56.648468482233568
  0
LINE
  8
_1-8_小物
  6
CONTINUOUS
 62
    4
 10
-61.998096208733131
 20
56.648468482233568
 11
-63.333333253866698
 21
56.648468482233568
  0
ENDBLK
  0
BLOCK
  2
-018-_17_
 70
   64
 10
0
 20
0
 30
0
  0
LINE
  8
_1-8_小物
  6
CONTINUOUS
 62
    4
 10
139.6666667461335
 20
56.000000000000227
 11
133.66666674613322
 21
56.000000000000227
  0
LINE
  8
_1-8_小物
  6
CONTINUOUS
 62
    4
 10
139.6666667461335
 20
55.500000000000227
 11
133.66666674613322
 21
55.500000000000227
  0
LINE
  8
_1-8_小物
  6
CONTINUOUS
 62
    4
 10
139.6666667461335
 20
56.000000000000227
 11
139.6666667461335
 21
55.500000000000227
  0
LINE
  8
_1-8_小物
  6
CONTINUOUS
 62
    4
 10
133.66666674613322
 20
56.000000000000227
 11
133.66666674613322
 21
55.500000000000227
  0
LINE
  8
_1-8_小物
  6
CONTINUOUS
 62
    4
 10
138.1666667461335
 20
56.000000000000227
 11
138.13036248486662
 21
56.414959605000263
  0
LINE
  8
_1-8_小物
  6
CONTINUOUS
 62
    4
 10
135.20297100736667
 20
56.414959605000263
 11
135.1666667461335
 21
56.000000000000227
  0
ARC
  8
_1-8_小物
  6
CONTINUOUS
 62
    4
 10
135.53171525776639
 20
56.386198209900158
 40
0.3299999999999999
 50
127.36755803205445
 51
175.0000000012032
  0
ARC
  8
_1-8_小物
  6
CONTINUOUS
 62
    4
 10
137.80161823450004
 20
56.386198209900158
 40
0.3299999999999999
 50
4.9999999987967998
 51
52.632441967945567
  0
ARC
  8
_1-8_小物
  6
CONTINUOUS
 62
    4
 10
136.66666674613322
 20
54.900000000000205
 40
2.1999999999999997
 50
52.632441967704345
 51
68.266383543397481
  0
ARC
  8
_1-8_小物
  6
CONTINUOUS
 62
    4
 10
136.66666674613322
 20
54.900000000000205
 40
2.1999999999999997
 50
111.74840859090288
 51
127.36755803230515
  0
LINE
  8
_1-8_小物
  6
CONTINUOUS
 62
    4
 10
136.77166674613329
 20
57.086375709866957
 11
136.77166674613329
 21
56.941104079866818
  0
LINE
  8
_1-8_小物
  6
CONTINUOUS
 62
    4
 10
136.88742964010032
 20
57.086375709866957
 11
136.77166674613329
 21
57.086375709866957
  0
LINE
  8
_1-8_小物
  6
CONTINUOUS
 62
    4
 10
137.4808345022999
 20
56.941104079866818
 11
136.88742964010032
 21
57.086375709866957
  0
LINE
  8
_1-8_小物
  6
CONTINUOUS
 62
    4
 10
136.44590385213326
 20
57.086375709866957
 11
136.01260042956653
 21
56.997897102733646
  0
LINE
  8
_1-8_小物
  6
CONTINUOUS
 62
    4
 10
136.01260042956653
 20
56.997897102733646
 11
135.85249898993368
 21
56.941104079866818
  0
LINE
  8
_1-8_小物
  6
CONTINUOUS
 62
    4
 10
136.56166674613326
 20
57.086375709866957
 11
136.44590385213326
 21
57.086375709866957
  0
LINE
  8
_1-8_小物
  6
CONTINUOUS
 62
    4
 10
136.56166674613326
 20
56.941104079866818
 11
136.56166674613326
 21
57.086375709866957
  0
LINE
  8
_1-8_小物
  6
CONTINUOUS
 62
    4
 10
136.77166674613329
 20
56.941104079866818
 11
136.66666674613322
 21
56.942805804666932
  0
LINE
  8
_1-8_小物
  6
CONTINUOUS
 62
    4
 10
136.66666674613322
 20
56.942805804666932
 11
136.56166674613326
 21
56.941104079866818
  0
LINE
  8
_1-8_小物
  6
CONTINUOUS
 62
    4
 10
138.13036248486662
 20
56.414959605000263
 11
135.20297100736667
 21
56.414959605000263
  0
LINE
  8
_1-8_小物
  6
CONTINUOUS
 62
    4
 10
136.66666674613322
 20
56.648468482233625
 11
135.33142970096657
 21
56.648468482233625
  0
LINE
  8
_1-8_小物
  6
CONTINUOUS
 62
    4
 10
138.00190379126673
 20
56.648468482233625
 11
136.66666674613322
 21
56.648468482233625
  0
ENDBLK
  0
BLOCK
  2
-019-_18_
 70
   64
 10
0
 20
0
 30
0
  0
LINE
  8
_1-8_小物
  6
CONTINUOUS
 62
    4
 10
63.406724999999938
 20
64.530575079466644
 11
62.74097166666661
 21
64.495685079467023
  0
LINE
  8
_1-8_小物
  6
CONTINUOUS
 62
    4
 10
64.405354999999872
 20
64.582911746133561
 11
64.037588333333247
 21
65.231218412800217
  0
LINE
  8
_1-8_小物
  6
CONTINUOUS
 62
    4
 10
64.037588333333247
 20
65.231218412800217
 11
63.371834999999919
 21
65.1963284128
  0
LINE
  8
_1-8_小物
  6
CONTINUOUS
 62
    4
 10
63.371834999999919
 20
65.1963284128
 11
63.406724999999938
 21
64.530575079466644
  0
LINE
  8
_1-8_小物
  6
CONTINUOUS
 62
    4
 10
65.071108333333314
 20
64.617801746133466
 11
64.405354999999872
 21
64.582911746133561
  0
LINE
  8
_1-8_小物
  6
CONTINUOUS
 62
    4
 10
66.069736666666643
 20
64.6701384128001
 11
65.701969999999733
 21
65.31844507946704
  0
LINE
  8
_1-8_小物
  6
CONTINUOUS
 62
    4
 10
65.701969999999733
 20
65.31844507946704
 11
65.036216666666633
 21
65.283555079466851
  0
LINE
  8
_1-8_小物
  6
CONTINUOUS
 62
    4
 10
65.036216666666633
 20
65.283555079466851
 11
65.071108333333314
 21
64.617801746133466
  0
LINE
  8
_1-8_小物
  6
CONTINUOUS
 62
    4
 10
66.735490000000027
 20
64.705028412800317
 11
66.069736666666643
 21
64.6701384128001
  0
LINE
  8
_1-8_小物
  6
CONTINUOUS
 62
    4
 10
67.734119999999734
 20
64.757365079466638
 11
67.366353333333336
 21
65.405671746133294
  0
LINE
  8
_1-8_小物
  6
CONTINUOUS
 62
    4
 10
67.366353333333336
 20
65.405671746133294
 11
66.700599999999952
 21
65.370781746133673
  0
LINE
  8
_1-8_小物
  6
CONTINUOUS
 62
    4
 10
66.700599999999952
 20
65.370781746133673
 11
66.735490000000027
 21
64.705028412800317
  0
LINE
  8
_1-8_小物
  6
CONTINUOUS
 62
    4
 10
68.399873333333289
 20
64.792255079466855
 11
67.734119999999734
 21
64.757365079466638
  0
LINE
  8
_1-8_小物
  6
CONTINUOUS
 62
    4
 10
69.398503333333338
 20
64.844591746133489
 11
69.030734999999936
 21
65.492898412800116
  0
LINE
  8
_1-8_小物
  6
CONTINUOUS
 62
    4
 10
69.030734999999936
 20
65.492898412800116
 11
68.364981666666608
 21
65.458008412800211
  0
LINE
  8
_1-8_小物
  6
CONTINUOUS
 62
    4
 10
68.364981666666608
 20
65.458008412800211
 11
68.399873333333289
 21
64.792255079466855
  0
LINE
  8
_1-8_小物
  6
CONTINUOUS
 62
    4
 10
70.064254999999889
 20
64.879481746133393
 11
69.398503333333338
 21
64.844591746133489
  0
LINE
  8
_1-8_小物
  6
CONTINUOUS
 62
    4
 10
70.695118333333198
 20
65.580125079466967
 11
70.029364999999871
 21
65.54523507946675
  0
LINE
  8
_1-8_小物
  6
CONTINUOUS
 62
    4
 10
70.029364999999871
 20
65.54523507946675
 11
70.064254999999889
 21
64.879481746133393
  0
LINE
  8
_1-8_小物
  6
CONTINUOUS
 62
    4
 10
71
 20
65.000000079466872
 11
70.695118333333198
 21
65.580125079466967
  0
LINE
  8
_1-8_小物
  6
CONTINUOUS
 62
    4
 10
63.406724999999938
 20
68.136091746133445
 11
62.74097166666661
 21
68.17098174613335
  0
LINE
  8
_1-8_小物
  6
CONTINUOUS
 62
    4
 10
64.405354999999872
 20
68.083755079466812
 11
64.037588333333247
 21
67.435448412800184
  0
LINE
  8
_1-8_小物
  6
CONTINUOUS
 62
    4
 10
64.037588333333247
 20
67.435448412800184
 11
63.371834999999919
 21
67.470338412800402
  0
LINE
  8
_1-8_小物
  6
CONTINUOUS
 62
    4
 10
63.371834999999919
 20
67.470338412800402
 11
63.406724999999938
 21
68.136091746133445
  0
LINE
  8
_1-8_小物
  6
CONTINUOUS
 62
    4
 10
65.071108333333314
 20
68.048865079466623
 11
64.405354999999872
 21
68.083755079466812
  0
LINE
  8
_1-8_小物
  6
CONTINUOUS
 62
    4
 10
66.069736666666643
 20
67.996528412800274
 11
65.701969999999733
 21
67.348221746133646
  0
LINE
  8
_1-8_小物
  6
CONTINUOUS
 62
    4
 10
65.701969999999733
 20
67.348221746133646
 11
65.036216666666633
 21
67.383111746133238
  0
LINE
  8
_1-8_小物
  6
CONTINUOUS
 62
    4
 10
65.036216666666633
 20
67.383111746133238
 11
65.071108333333314
 21
68.048865079466623
  0
LINE
  8
_1-8_小物
  6
CONTINUOUS
 62
    4
 10
66.735490000000027
 20
67.961638412800369
 11
66.069736666666643
 21
67.996528412800274
  0
LINE
  8
_1-8_小物
  6
CONTINUOUS
 62
    4
 10
67.734119999999734
 20
67.909301746133735
 11
67.366353333333336
 21
67.260995079466795
  0
LINE
  8
_1-8_小物
  6
CONTINUOUS
 62
    4
 10
67.366353333333336
 20
67.260995079466795
 11
66.700599999999952
 21
67.2958850794667
  0
LINE
  8
_1-8_小物
  6
CONTINUOUS
 62
    4
 10
66.700599999999952
 20
67.2958850794667
 11
66.735490000000027
 21
67.961638412800369
  0
LINE
  8
_1-8_小物
  6
CONTINUOUS
 62
    4
 10
68.399873333333289
 20
67.874411746133546
 11
67.734119999999734
 21
67.909301746133735
  0
LINE
  8
_1-8_小物
  6
CONTINUOUS
 62
    4
 10
69.398503333333338
 20
67.8220750794666
 11
69.030734999999936
 21
67.173768412799973
  0
LINE
  8
_1-8_小物
  6
CONTINUOUS
 62
    4
 10
69.030734999999936
 20
67.173768412799973
 11
68.364981666666608
 21
67.208658412800162
  0
LINE
  8
_1-8_小物
  6
CONTINUOUS
 62
    4
 10
68.364981666666608
 20
67.208658412800162
 11
68.399873333333289
 21
67.874411746133546
  0
LINE
  8
_1-8_小物
  6
CONTINUOUS
 62
    4
 10
70.064254999999889
 20
67.787185079467008
 11
69.398503333333338
 21
67.8220750794666
  0
LINE
  8
_1-8_小物
  6
CONTINUOUS
 62
    4
 10
70.695118333333198
 20
67.086541746133435
 11
70.029364999999871
 21
67.121431746133624
  0
LINE
  8
_1-8_小物
  6
CONTINUOUS
 62
    4
 10
70.029364999999871
 20
67.121431746133624
 11
70.064254999999889
 21
67.787185079467008
  0
LINE
  8
_1-8_小物
  6
CONTINUOUS
 62
    4
 10
63.019768333333218
 20
66.353101746133461
 11
63.591658333333271
 21
65.708535079466913
  0
LINE
  8
_1-8_小物
  6
CONTINUOUS
 62
    4
 10
63.623146666666628
 20
66.956481746133619
 11
62.999999999999829
 21
66.333333412799902
  0
LINE
  8
_1-8_小物
  6
CONTINUOUS
 62
    4
 10
71
 20
67.666666746133217
 11
70.695118333333198
 21
67.086541746133435
  0
LINE
  8
_1-8_小物
  6
CONTINUOUS
 62
    4
 10
68.399873333333289
 20
64.792255079466855
 11
69.952533333333122
 21
64.227133412800328
  0
LINE
  8
_1-8_小物
  6
CONTINUOUS
 62
    4
 10
68.399873333333289
 20
65.146981746133321
 11
70.066539999999918
 21
64.540363412800076
  0
LINE
  8
_1-8_小物
  6
CONTINUOUS
 62
    4
 10
68.399873333333289
 20
67.874411746133546
 11
69.952533333333122
 21
68.439533412800074
  0
LINE
  8
_1-8_小物
  6
CONTINUOUS
 62
    4
 10
68.399873333333289
 20
67.519685079467081
 11
70.066539999999918
 21
68.126303412800326
  0
LINE
  8
_1-8_小物
  6
CONTINUOUS
 62
    4
 10
62.679913333333161
 20
65.660751746133485
 11
62.74097166666661
 21
64.495685079467023
  0
LINE
  8
_1-8_小物
  6
CONTINUOUS
 62
    4
 10
62.74097166666661
 20
64.495685079467023
 11
62.040328333333321
 21
65.126546746133556
  0
LINE
  8
_1-8_小物
  6
CONTINUOUS
 62
    4
 10
62.040328333333321
 20
65.126546746133556
 11
62.014159999999833
 21
65.625861746133296
  0
LINE
  8
_1-8_小物
  6
CONTINUOUS
 62
    4
 10
62.014159999999833
 20
65.625861746133296
 11
72.333333333333144
 21
66.166666746133217
  0
LINE
  8
_1-8_小物
  6
CONTINUOUS
 62
    4
 10
71
 20
65.000000079466872
 11
72.333333333333144
 21
65.000000079466872
  0
LINE
  8
_1-8_小物
  6
CONTINUOUS
 62
    4
 10
62.679913333333161
 20
67.005915079466888
 11
62.74097166666661
 21
68.17098174613335
  0
LINE
  8
_1-8_小物
  6
CONTINUOUS
 62
    4
 10
62.74097166666661
 20
68.17098174613335
 11
62.040328333333321
 21
67.540120079466817
  0
LINE
  8
_1-8_小物
  6
CONTINUOUS
 62
    4
 10
62.040328333333321
 20
67.540120079466817
 11
62.014159999999833
 21
67.040805079466793
  0
LINE
  8
_1-8_小物
  6
CONTINUOUS
 62
    4
 10
62.014159999999833
 20
67.040805079466793
 11
72.333333333333144
 21
66.500000079466872
  0
LINE
  8
_1-8_小物
  6
CONTINUOUS
 62
    4
 10
71
 20
67.666666746133217
 11
72.333333333333144
 21
67.666666746133217
  0
LINE
  8
_1-8_小物
  6
CONTINUOUS
 62
    4
 10
69.952533333333122
 20
68.439533412800074
 11
72.220406666666804
 21
68.770318412800179
  0
ARC
  8
_1-8_小物
  6
CONTINUOUS
 62
    4
 10
72.239651666666589
 20
68.638381746133518
 40
0.1333333333333333
 50
8.13010199995208
 51
98.298466000012823
  0
LINE
  8
_1-8_小物
  6
CONTINUOUS
 62
    4
 10
72.371644999999944
 20
68.657238412800382
 11
72.38101666666671
 21
68.591630079466768
  0
ARC
  8
_1-8_小物
  6
CONTINUOUS
 62
    4
 10
72.249023333333298
 20
68.572773412799876
 40
0.1333333333333333
 50
278.130102000016
 51
8.130102000228419
  0
LINE
  8
_1-8_小物
  6
CONTINUOUS
 62
    4
 10
72.267879999999877
 20
68.440780079466776
 11
70.066539999999918
 21
68.126303412800326
  0
LINE
  8
_1-8_小物
  6
CONTINUOUS
 62
    4
 10
69.952533333333122
 20
64.227133412800328
 11
72.220406666666804
 21
63.896348412800222
  0
ARC
  8
_1-8_小物
  6
CONTINUOUS
 62
    4
 10
72.239651666666589
 20
64.028285079466883
 40
0.1333333333333333
 50
261.70153399996479
 51
351.86989800004795
  0
LINE
  8
_1-8_小物
  6
CONTINUOUS
 62
    4
 10
72.371644999999944
 20
64.009430079466938
 11
72.38101666666671
 21
64.075036746133634
  0
ARC
  8
_1-8_小物
  6
CONTINUOUS
 62
    4
 10
72.249023333333298
 20
64.0938934127999
 40
0.1333333333333333
 50
351.86989800004449
 51
81.869897999984005
  0
LINE
  8
_1-8_小物
  6
CONTINUOUS
 62
    4
 10
72.267879999999877
 20
64.225886746133625
 11
70.066539999999918
 21
64.540363412800076
  0
LINE
  8
_1-8_小物
  6
CONTINUOUS
 62
    4
 10
69.952533333333122
 20
64.227133412800328
 11
72.220406666666804
 21
63.896348412800222
  0
ARC
  8
_1-8_小物
  6
CONTINUOUS
 62
    4
 10
72.239651666666589
 20
64.028285079466883
 40
0.1333333333333333
 50
261.70153399996479
 51
351.86989800004795
  0
LINE
  8
_1-8_小物
  6
CONTINUOUS
 62
    4
 10
72.371644999999944
 20
64.009430079466938
 11
72.38101666666671
 21
64.075036746133634
  0
ARC
  8
_1-8_小物
  6
CONTINUOUS
 62
    4
 10
72.249023333333298
 20
64.0938934127999
 40
0.1333333333333333
 50
351.86989800004449
 51
81.869897999984005
  0
LINE
  8
_1-8_小物
  6
CONTINUOUS
 62
    4
 10
72.267879999999877
 20
64.225886746133625
 11
70.066539999999918
 21
64.540363412800076
  0
LINE
  8
_1-8_小物
  6
CONTINUOUS
 62
    4
 10
75
 20
64.666666746133217
 11
73.333333333333314
 21
65.000000079466872
  0
LINE
  8
_1-8_小物
  6
CONTINUOUS
 62
    4
 10
75
 20
65.000000079466872
 11
72.333333333333144
 21
65.000000079466872
  0
LINE
  8
_1-8_小物
  6
CONTINUOUS
 62
    4
 10
72.333333333333144
 20
66.166666746133217
 11
72.333333333333144
 21
66.333333412799902
  0
LINE
  8
_1-8_小物
  6
CONTINUOUS
 62
    4
 10
73.333333333333314
 20
66.333333412799902
 11
75
 21
66.333333412799902
  0
LINE
  8
_1-8_小物
  6
CONTINUOUS
 62
    4
 10
75
 20
66.000000079466872
 11
73.333333333333314
 21
66.333333412799902
  0
LINE
  8
_1-8_小物
  6
CONTINUOUS
 62
    4
 10
75
 20
66.666666746133529
 11
73.333333333333314
 21
66.333333412799902
  0
LINE
  8
_1-8_小物
  6
CONTINUOUS
 62
    4
 10
75
 20
68.00000007946656
 11
73.333333333333314
 21
67.666666746133217
  0
LINE
  8
_1-8_小物
  6
CONTINUOUS
 62
    4
 10
75
 20
67.666666746133217
 11
72.333333333333144
 21
67.666666746133217
  0
LINE
  8
_1-8_小物
  6
CONTINUOUS
 62
    4
 10
72.333333333333144
 20
66.500000079466872
 11
72.333333333333144
 21
66.333333412799902
  0
LINE
  8
_1-8_小物
  6
CONTINUOUS
 62
    4
 10
75
 20
64.666666746133217
 11
75
 21
68.00000007946656
  0
ENDBLK
  0
BLOCK
  2
-020-_19_
 70
   64
 10
0
 20
0
 30
0
  0
LINE
  8
_1-4_フレ__ム
  6
CONTINUOUS
 62
    4
 10
76
 20
66.433333412799811
 11
75.900000000000546
 21
66.333333412799902
  0
LINE
  8
_1-4_フレ__ム
  6
CONTINUOUS
 62
    4
 10
75.900000000000546
 20
66.333333412799902
 11
76.000000000000398
 21
66.233333412799595
  0
LINE
  8
_1-4_フレ__ム
  6
CONTINUOUS
 62
    4
 10
76.000000000000398
 20
61.666666746133444
 11
76.000000000000398
 21
66.233333412799595
  0
LINE
  8
_1-4_フレ__ム
  6
CONTINUOUS
 62
    4
 10
76
 20
71.66666674613316
 11
76
 21
66.433333412799811
  0
ARC
  8
_1-4_フレ__ム
  6
CONTINUOUS
 62
    4
 10
77.76666666230102
 20
73.333333412799675
 40
0.1666666666666666
 50
270
 51
90
  0
LINE
  8
_1-4_フレ__ム
  6
CONTINUOUS
 62
    4
 10
77.666666662301054
 20
73.166666746132989
 11
77.666666662301054
 21
70.000000079466474
  0
LINE
  8
_1-4_フレ__ム
  6
CONTINUOUS
 62
    4
 10
77.166666662301054
 20
73.500000079466332
 11
77.76666666230102
 21
73.500000079466332
  0
LINE
  8
_1-4_フレ__ム
  6
CONTINUOUS
 62
    4
 10
77.166666662301054
 20
70.000000079466474
 11
77.666666662301054
 21
70.000000079466474
  0
LINE
  8
_1-4_フレ__ム
  6
CONTINUOUS
 62
    4
 10
77.166666662301054
 20
71.66666674613316
 11
76
 21
71.66666674613316
  0
LINE
  8
_1-4_フレ__ム
  6
CONTINUOUS
 62
    4
 10
77.166666662301054
 20
71.66666674613316
 11
77.166666662301054
 21
70.000000079466474
  0
LINE
  8
_1-4_フレ__ム
  6
CONTINUOUS
 62
    4
 10
77.166666662301054
 20
73.500000079466332
 11
77.166666662301054
 21
72.66666674613316
  0
ARC
  8
_1-4_フレ__ム
  6
CONTINUOUS
 62
    4
 10
76.333333333333883
 20
59.333333412799817
 40
0.1666666666666666
 50
180
 51
270
  0
ARC
  8
_1-4_フレ__ム
  6
CONTINUOUS
 62
    4
 10
76.150000000000887
 20
57.850000079466469
 40
0.4833333333332726
 50
270
 51
90
  0
ARC
  8
_1-4_フレ__ム
  6
CONTINUOUS
 62
    4
 10
76.633333333334008
 20
57.433333412799954
 40
0.5999999999999999
 50
270
 51
0
  0
LINE
  8
_1-4_フレ__ム
  6
CONTINUOUS
 62
    4
 10
75.333333333333428
 20
57.200000079466463
 11
75.333333333333428
 21
57.100000079466554
  0
LINE
  8
_1-4_フレ__ム
  6
CONTINUOUS
 62
    4
 10
76.150000000000887
 20
57.366666746133205
 11
75.500000000000341
 21
57.36666674613312
  0
ARC
  8
_1-4_フレ__ム
  6
CONTINUOUS
 62
    4
 10
75.500000000000341
 20
57.200000079466463
 40
0.1666666666666666
 50
90
 51
180
  0
ARC
  8
_1-4_フレ__ム
  6
CONTINUOUS
 62
    4
 10
75.600000000000534
 20
57.100000079466554
 40
0.2666666666666667
 50
180
 51
270
  0
LINE
  8
_1-4_フレ__ム
  6
CONTINUOUS
 62
    4
 10
75.600000000000534
 20
56.833333412799846
 11
76.633333333334008
 21
56.833333412799902
  0
LINE
  8
_1-4_フレ__ム
  6
CONTINUOUS
 62
    4
 10
75
 20
58.333333412799902
 11
76.150000000000887
 21
58.333333412799902
  0
LINE
  8
_1-4_フレ__ム
  6
CONTINUOUS
 62
    4
 10
77.166666662301054
 20
72.66666674613316
 11
75
 21
72.66666674613316
  0
LINE
  8
_1-4_フレ__ム
  6
CONTINUOUS
 62
    4
 10
75
 20
58.333333412799902
 11
75
 21
72.66666674613316
  0
LINE
  8
_1-4_フレ__ム
  6
CONTINUOUS
 62
    4
 10
76.000000000000398
 20
61.666666746133444
 11
76.166666666667197
 21
61.666666746133444
  0
LINE
  8
_1-4_フレ__ム
  6
CONTINUOUS
 62
    4
 10
76.166666666667197
 20
59.333333412799817
 11
76.166666666667197
 21
61.666666746133444
  0
LINE
  8
_1-4_フレ__ム
  6
CONTINUOUS
 62
    4
 10
77.666666662301054
 20
73.166666746132989
 11
77.76666666230102
 21
73.166666746132989
  0
LINE
  8
_1-4_フレ__ム
  6
CENTER2
 62
    4
 10
77.166666666666742
 20
66.333333412799902
 11
73.333333333333371
 21
66.333333412799902
  0
LINE
  8
_1-4_フレ__ム
  6
CENTER2
 62
    4
 10
76.150000000000887
 20
57.850000079466469
 11
76.983333333334031
 21
57.850000079466469
  0
LINE
  8
_1-4_フレ__ム
  6
CENTER2
 62
    4
 10
76.150000000000887
 20
57.850000079466469
 11
76.150000000000887
 21
58.683333412799954
  0
LINE
  8
_1-4_フレ__ム
  6
CENTER2
 62
    4
 10
76.150000000000887
 20
57.850000079466469
 11
75.316666666667402
 21
57.850000079466469
  0
LINE
  8
_1-4_フレ__ム
  6
CENTER2
 62
    4
 10
76.150000000000887
 20
57.850000079466469
 11
76.150000000000887
 21
57.016666746133069
  0
LINE
  8
_1-4_フレ__ム
  6
DASHED1
 62
    4
 10
76.000000000000398
 20
68.833333412800187
 11
75
 21
68.833333412800187
  0
LINE
  8
_1-4_フレ__ム
  6
DASHED1
 62
    4
 10
76.000000000000398
 20
63.833333412800187
 11
75
 21
63.833333412800187
  0
LINE
  8
_1-4_フレ__ム
  6
DASHED1
 62
    4
 10
76.16666666666697
 20
60.166666746133217
 11
75
 21
60.166666746133217
  0
LINE
  8
_1-4_フレ__ム
  6
CONTINUOUS
 62
    4
 10
77.133333333333894
 20
59.166666746133302
 11
76.333333333333883
 21
59.166666746133302
  0
LINE
  8
_1-4_フレ__ム
  6
CONTINUOUS
 62
    4
 10
77.233333333333917
 20
57.433333412799954
 11
77.233333333333917
 21
59.066666746133279
  0
ARC
  8
_1-4_フレ__ム
  6
CONTINUOUS
 62
    4
 10
77.133333333333894
 20
59.066666746133279
 40
0.0999999999999999
 50
0
 51
90
  0
ENDBLK
  0
BLOCK
  2
-021-_20_
 70
   64
 10
0
 20
0
 30
0
  0
LINE
  8
_1-8_小物
  6
CONTINUOUS
 62
    4
 10
76.3969802218582
 20
59.961111193849888
 11
76.295973628210675
 21
60.048148230894583
  0
ARC
  8
_1-8_小物
  6
CONTINUOUS
 62
    4
 10
77.100000000000648
 20
56.966666746133228
 40
0.1333333333333333
 50
270
 51
359.99999849072555
  0
ARC
  8
_1-8_小物
  6
CONTINUOUS
 62
    4
 10
77.100000000000648
 20
56.966666746133228
 40
0.2666666666666666
 50
270
 51
359.99999849072555
  0
ARC
  8
_1-8_小物
  6
CONTINUOUS
 62
    4
 10
75.466666666667265
 20
56.966666746133228
 40
0.2666666666666666
 50
180
 51
270
  0
ARC
  8
_1-8_小物
  6
CONTINUOUS
 62
    4
 10
74.960655337100604
 20
57.700000079466577
 40
0.5
 50
323.03140579854858
 51
41.810314895802605
  0
ARC
  8
_1-8_小物
  6
CONTINUOUS
 62
    4
 10
75.466666666667265
 20
57.319127862799888
 40
0.1333333333333333
 50
143.03140197500721
 51
179.99999849072555
  0
LINE
  8
_1-8_小物
  6
CONTINUOUS
 62
    4
 10
75.200000000000614
 20
57.3227585829666
 11
75.200000000000614
 21
56.966666746133228
  0
ARC
  8
_1-8_小物
  6
CONTINUOUS
 62
    4
 10
75.466666666667265
 20
56.966666746133228
 40
0.1333333333333333
 50
180
 51
270
  0
ARC
  8
_1-8_小物
  6
CONTINUOUS
 62
    4
 10
74.917000133433987
 20
57.700000079466577
 40
0.3999999999999999
 50
325.5378114299408
 51
37.637863116799679
  0
LINE
  8
_1-8_小物
  6
CONTINUOUS
 62
    4
 10
75.33333333333394
 20
57.319127866299937
 11
75.33333333333394
 21
56.966666746133228
  0
ARC
  8
_1-8_小物
  6
CONTINUOUS
 62
    4
 10
75.466666666667265
 20
57.3227585829666
 40
0.2666666666666666
 50
145.53781142990746
 51
180
  0
LINE
  8
_1-8_小物
  6
CONTINUOUS
 62
    4
 10
75.33333333333394
 20
58.033333412799891
 11
75.23375463923395
 21
57.94426752116658
  0
LINE
  8
_1-8_小物
  6
CONTINUOUS
 62
    4
 10
75.466666666667265
 20
56.700000079466577
 11
77.100000000000648
 21
56.700000079466577
  0
LINE
  8
_1-8_小物
  6
CONTINUOUS
 62
    4
 10
75.466666666667265
 20
56.833333412799931
 11
77.100000000000648
 21
56.833333412799931
  0
ARC
  8
_1-8_小物
  6
CONTINUOUS
 62
    4
 10
76.700000000000614
 20
59.700000079466577
 40
0.5333333333333333
 50
90
 51
270.00000867010863
  0
ARC
  8
_1-8_小物
  6
CONTINUOUS
 62
    4
 10
76.700000000000614
 20
59.700000079466577
 40
0.3999999999999999
 50
90.0000000000977
 51
270.0000018823917
  0
LINE
  8
_1-8_小物
  6
CONTINUOUS
 62
    4
 10
76.700000000000614
 20
60.100000079466582
 11
76.700000000000614
 21
60.233333412799908
  0
LINE
  8
_1-8_小物
  6
CONTINUOUS
 62
    4
 10
76.166666666667254
 20
61.166666746133274
 11
76.30000000000058
 21
61.166666746133274
  0
LINE
  8
_1-8_小物
  6
DASHED1
 62
    4
 10
77.3666666666673
 20
58.583333405726933
 11
77.233333333333974
 21
58.583333405726933
  0
LINE
  8
_1-8_小物
  6
CONTINUOUS
 62
    4
 10
76.30000000000058
 20
60.666666746133274
 11
76.166666666667254
 21
60.666666746133274
  0
LINE
  8
_1-8_小物
  6
CONTINUOUS
 62
    4
 10
76.30000000000058
 20
61.166666746133274
 11
76.30000000000058
 21
60.052766920941792
  0
LINE
  8
_1-8_小物
  6
CONTINUOUS
 62
    4
 10
76.30000000000058
 20
59.347233237991333
 11
76.30000000000058
 21
59.170034096614273
  0
LINE
  8
_1-8_小物
  6
CONTINUOUS
 62
    4
 10
76.166666666667254
 20
61.166666746133274
 11
76.166666666667254
 21
59.333333412799817
  0
ARC
  8
_1-8_小物
  6
CONTINUOUS
 62
    4
 10
75.8666666666673
 20
58.269771604483481
 40
0.1333333333333333
 50
151.52902134424266
 51
180
  0
LINE
  8
_1-8_小物
  6
CONTINUOUS
 62
    4
 10
75.733333333333917
 20
58.269771604483481
 11
75.733333333333917
 21
57.366666746133205
  0
LINE
  8
_1-8_小物
  6
CONTINUOUS
 62
    4
 10
75.600000000000648
 20
58.333333412799902
 11
75.600000000000648
 21
57.366666746133205
  0
LINE
  8
_1-8_小物
  6
CONTINUOUS
 62
    4
 10
76.700000000000614
 20
59.300000079466543
 11
77.133333333333951
 21
59.300000079466543
  0
LINE
  8
_1-8_小物
  6
CONTINUOUS
 62
    4
 10
77.3666666666673
 20
56.966666739133217
 11
77.3666666666673
 21
59.066666746133194
  0
ARC
  8
_1-8_小物
  6
CONTINUOUS
 62
    4
 10
77.133333333333951
 20
59.066666746133194
 40
0.2333333333333333
 50
0
 51
90
  0
LINE
  8
_1-8_小物
  6
CONTINUOUS
 62
    4
 10
76.700000000000614
 20
59.166666746133274
 11
77.133333333334008
 21
59.166666746133274
  0
LINE
  8
_1-8_小物
  6
CONTINUOUS
 62
    4
 10
77.233333333333974
 20
56.966666742633265
 11
77.233333333333974
 21
59.066666746133279
  0
ARC
  8
_1-8_小物
  6
CONTINUOUS
 62
    4
 10
77.133333333334008
 20
59.066666746133279
 40
0.0999999999999999
 50
0
 51
90
  0
ENDBLK
  0
BLOCK
  2
-022-_21_
 70
   64
 10
0
 20
0
 30
0
  0
LINE
  8
_1-8_小物
  6
CONTINUOUS
 62
    4
 10
76.500000000000171
 20
63.333333412799504
 11
76.500000000000171
 21
69.333333412799846
  0
LINE
  8
_1-8_小物
  6
CONTINUOUS
 62
    4
 10
76.000000000000171
 20
63.333333412799504
 11
76.000000000000171
 21
69.333333412799846
  0
LINE
  8
_1-8_小物
  6
CONTINUOUS
 62
    4
 10
76.500000000000171
 20
63.333333412799504
 11
76.000000000000171
 21
63.333333412799504
  0
LINE
  8
_1-8_小物
  6
CONTINUOUS
 62
    4
 10
76.500000000000171
 20
69.333333412799846
 11
76.000000000000171
 21
69.333333412799846
  0
LINE
  8
_1-8_小物
  6
CONTINUOUS
 62
    4
 10
76.500000000000171
 20
64.833333412799504
 11
76.914959605000206
 21
64.869637674066382
  0
LINE
  8
_1-8_小物
  6
CONTINUOUS
 62
    4
 10
76.914959605000206
 20
67.797029151566392
 11
76.500000000000171
 21
67.833333412799504
  0
ARC
  8
_1-8_小物
  6
CONTINUOUS
 62
    4
 10
76.886198209900101
 20
67.468284901166669
 40
0.3299999999999999
 50
37.367558032054447
 51
85.000000001204057
  0
ARC
  8
_1-8_小物
  6
CONTINUOUS
 62
    4
 10
76.886198209900101
 20
65.198381924433022
 40
0.3299999999999999
 50
274.9999999987964
 51
322.63244196794949
  0
ARC
  8
_1-8_小物
  6
CONTINUOUS
 62
    4
 10
75.400000000000148
 20
66.333333412799846
 40
2.1999999999999997
 50
322.63244196770495
 51
338.26638354339843
  0
ARC
  8
_1-8_小物
  6
CONTINUOUS
 62
    4
 10
75.400000000000148
 20
66.333333412799846
 40
2.1999999999999997
 50
21.748408590903569
 51
37.367558032305141
  0
LINE
  8
_1-8_小物
  6
CONTINUOUS
 62
    4
 10
77.5863757098669
 20
66.228333412799714
 11
77.441104079866761
 21
66.228333412799714
  0
LINE
  8
_1-8_小物
  6
CONTINUOUS
 62
    4
 10
77.5863757098669
 20
66.112570518832683
 11
77.5863757098669
 21
66.228333412799714
  0
LINE
  8
_1-8_小物
  6
CONTINUOUS
 62
    4
 10
77.441104079866761
 20
65.519165656633106
 11
77.5863757098669
 21
66.112570518832683
  0
LINE
  8
_1-8_小物
  6
CONTINUOUS
 62
    4
 10
77.5863757098669
 20
66.55409630679975
 11
77.497897102733589
 21
66.987399729366473
  0
LINE
  8
_1-8_小物
  6
CONTINUOUS
 62
    4
 10
77.497897102733589
 20
66.987399729366473
 11
77.441104079866761
 21
67.147501168999327
  0
LINE
  8
_1-8_小物
  6
CONTINUOUS
 62
    4
 10
77.5863757098669
 20
66.43833341279975
 11
77.5863757098669
 21
66.55409630679975
  0
LINE
  8
_1-8_小物
  6
CONTINUOUS
 62
    4
 10
77.441104079866761
 20
66.43833341279975
 11
77.5863757098669
 21
66.43833341279975
  0
LINE
  8
_1-8_小物
  6
CONTINUOUS
 62
    4
 10
77.441104079866761
 20
66.228333412799714
 11
77.442805804666875
 21
66.333333412799846
  0
LINE
  8
_1-8_小物
  6
CONTINUOUS
 62
    4
 10
77.442805804666875
 20
66.333333412799846
 11
77.441104079866761
 21
66.43833341279975
  0
LINE
  8
_1-8_小物
  6
CONTINUOUS
 62
    4
 10
76.914959605000206
 20
64.869637674066382
 11
76.914959605000206
 21
67.797029151566392
  0
LINE
  8
_1-8_小物
  6
CONTINUOUS
 62
    4
 10
77.148468482233568
 20
66.333333412799846
 11
77.148468482233568
 21
67.668570457966496
  0
LINE
  8
_1-8_小物
  6
CONTINUOUS
 62
    4
 10
77.148468482233568
 20
64.998096367666278
 11
77.148468482233568
 21
66.333333412799846
  0
ENDBLK
  0
BLOCK
  2
-023-_22_
 70
   64
 10
0
 20
0
 30
0
  0
LINE
  8
_1-5_ア__ム
  6
CONTINUOUS
 62
    4
 10
82.333333333332405
 20
62.333333394166431
 11
82.333333333332405
 21
58.666666839266668
  0
ARC
  8
_1-5_ア__ム
  6
CONTINUOUS
 62
    4
 10
83.999999999999091
 20
58.666666839266668
 40
1.6666666666666665
 50
180
 51
270
  0
LINE
  8
_1-5_ア__ム
  6
DASHED1
 62
    4
 10
86.333333333332348
 20
61.400000094099937
 11
86.333333333332348
 21
60.666661806335071
  0
LINE
  8
_1-5_ア__ム
  6
DASHED1
 62
    4
 10
91.66666666666606
 20
61.400000094099937
 11
91.66666666666606
 21
60.666661806335071
  0
LINE
  8
_1-5_ア__ム
  6
DASHED1
 62
    4
 10
95.566666666665299
 20
61.400000094099937
 11
95.566666666665299
 21
60.666661806335071
  0
LINE
  8
_1-5_ア__ム
  6
DASHED1
 62
    4
 10
98.366666666665253
 20
61.400000094099937
 11
98.366666666665253
 21
60.666661806335071
  0
LINE
  8
_1-5_ア__ム
  6
DASHED1
 62
    4
 10
97.033333333331939
 20
61.400000094099937
 11
97.033333333331939
 21
60.666661806335071
  0
LINE
  8
_1-5_ア__ム
  6
DASHED1
 62
    4
 10
104.23333333333204
 20
60.666661806335071
 11
104.23333333333204
 21
61.400000094099937
  0
LINE
  8
_1-5_ア__ム
  6
CONTINUOUS
 62
    4
 10
139.66666666666572
 20
62.333333412799846
 11
139.66666666666572
 21
58.666666839266668
  0
ARC
  8
_1-5_ア__ム
  6
CONTINUOUS
 62
    4
 10
137.99999999999898
 20
58.666666839266668
 40
1.6666666666666665
 50
270
 51
0
  0
LINE
  8
_1-5_ア__ム
  6
CONTINUOUS
 62
    4
 10
82.333333333332405
 20
62.333333412799846
 11
139.66666666666572
 21
62.333333412799846
  0
LINE
  8
_1-5_ア__ム
  6
DASHED1
 62
    4
 10
82.333333333332405
 20
61.400000094099937
 11
139.66666666666572
 21
61.400000094099937
  0
LINE
  8
_1-5_ア__ム
  6
DASHED1
 62
    4
 10
82.333333333332405
 20
60.666661806335071
 11
139.66666666666572
 21
60.666661806335071
  0
LINE
  8
_1-5_ア__ム
  6
CONTINUOUS
 62
    4
 10
83.999999999999091
 20
57.000000172599982
 11
137.99999999999898
 21
57.000000172599982
  0
ENDBLK
  0
BLOCK
  2
-024-_23_
 70
   64
 10
0
 20
0
 30
0
  0
LINE
  8
_1-0_躯体
  6
CENTER2
 62
    4
 10
-136.66666658720018
 20
61.405127313106561
 11
-136.66666658720018
 21
38.333333333333314
  0
LINE
  8
_1-0_躯体
  6
CONTINUOUS
 62
    6
 10
-148.33333333333334
 20
55.000000000000028
 11
-125
 21
55.000000000000028
  0
LINE
  8
_1-0_躯体
  6
CENTER2
 62
    4
 10
-63.33333325386684
 20
61.405127313106561
 11
-63.33333325386684
 21
38.333333333333314
  0
LINE
  8
_1-0_躯体
  6
CONTINUOUS
 62
    6
 10
-51.666666666666742
 20
55.000000000000028
 11
-75
 21
55.000000000000028
  0
LINE
  8
_1-0_躯体
  6
CONTINUOUS
 62
    6
 10
-75
 20
55.000000000000028
 11
-75
 21
31.666666666666686
  0
LINE
  8
_1-0_躯体
  6
CONTINUOUS
 62
    6
 10
-125
 20
55.000000000000028
 11
-125
 21
31.666666666666686
  0
ENDBLK
  0
BLOCK
  2
-025-_24_
 70
   64
 10
0
 20
0
 30
0
  0
LINE
  8
_0-0_図面枠
  6
CONTINUOUS
 62
    7
 10
-17.103643301208535
 20
124.78846734235105
 11
-17.633973387058518
 21
124.48231430040107
  0
LINE
  8
_0-0_図面枠
  6
CONTINUOUS
 62
    7
 10
-16.197776643308543
 20
122.83680745630102
 11
-17.103643301208535
 21
124.78846734235105
  0
LINE
  8
_0-0_図面枠
  6
CONTINUOUS
 62
    7
 10
-19.578517035358516
 20
123.35975314665103
 11
-16.197776643308543
 21
122.83680745630102
  0
LINE
  8
_0-0_図面枠
  6
CONTINUOUS
 62
    7
 10
-19.048186949458511
 20
123.66590618860107
 11
-19.578517035358516
 21
123.35975314665103
  0
LINE
  8
_0-0_図面枠
  6
CONTINUOUS
 62
    7
 10
-23.644381027158488
 20
126.31923255200104
 11
-19.048186949458511
 21
123.66590618860107
  0
LINE
  8
_0-0_図面枠
  6
CONTINUOUS
 62
    7
 10
-28.240575104858522
 20
123.66590618860107
 11
-23.644381027158488
 21
126.31923255200104
  0
LINE
  8
_0-0_図面枠
  6
CONTINUOUS
 62
    7
 10
-27.710245019008539
 20
123.35975314665103
 11
-28.240575104858522
 21
123.66590618860107
  0
LINE
  8
_0-0_図面枠
  6
CONTINUOUS
 62
    7
 10
-31.090985411008546
 20
122.83680745630102
 11
-27.710245019008539
 21
123.35975314665103
  0
LINE
  8
_0-0_図面枠
  6
CONTINUOUS
 62
    7
 10
-30.18511875315852
 20
124.78846734235105
 11
-31.090985411008546
 21
122.83680745630102
  0
LINE
  8
_0-0_図面枠
  6
CONTINUOUS
 62
    7
 10
-29.654788667258515
 20
124.48231430040107
 11
-30.18511875315852
 21
124.78846734235105
  0
LINE
  8
_0-0_図面枠
  6
CONTINUOUS
 62
    7
 10
-25.058594589558538
 20
127.13564066385106
 11
-29.654788667258515
 21
124.48231430040107
  0
LINE
  8
_0-0_図面枠
  6
CONTINUOUS
 62
    7
 10
-29.654788667258515
 20
129.78896702725103
 11
-25.058594589558538
 21
127.13564066385106
  0
LINE
  8
_0-0_図面枠
  6
CONTINUOUS
 62
    7
 10
-30.18511875315852
 20
129.48281398535107
 11
-29.654788667258515
 21
129.78896702725103
  0
LINE
  8
_0-0_図面枠
  6
CONTINUOUS
 62
    7
 10
-31.090985411008546
 20
131.43447387140105
 11
-30.18511875315852
 21
129.48281398535107
  0
LINE
  8
_0-0_図面枠
  6
CONTINUOUS
 62
    7
 10
-27.710245019008539
 20
130.91152818105104
 11
-31.090985411008546
 21
131.43447387140105
  0
LINE
  8
_0-0_図面枠
  6
CONTINUOUS
 62
    7
 10
-28.240575104858522
 20
130.60537513910106
 11
-27.710245019008539
 21
130.91152818105104
  0
LINE
  8
_0-0_図面枠
  6
CONTINUOUS
 62
    7
 10
-23.644381027158488
 20
127.95204877565106
 11
-28.240575104858522
 21
130.60537513910106
  0
LINE
  8
_0-0_図面枠
  6
CONTINUOUS
 62
    7
 10
-19.048186949458511
 20
130.60537513910106
 11
-23.644381027158488
 21
127.95204877565106
  0
LINE
  8
_0-0_図面枠
  6
CONTINUOUS
 62
    7
 10
-19.578517035358516
 20
130.91152818105104
 11
-19.048186949458511
 21
130.60537513910106
  0
LINE
  8
_0-0_図面枠
  6
CONTINUOUS
 62
    7
 10
-16.197776643308543
 20
131.43447387140105
 11
-19.578517035358516
 21
130.91152818105104
  0
LINE
  8
_0-0_図面枠
  6
CONTINUOUS
 62
    7
 10
-17.103643301208535
 20
129.48281398535107
 11
-16.197776643308543
 21
131.43447387140105
  0
LINE
  8
_0-0_図面枠
  6
CONTINUOUS
 62
    7
 10
-17.633973387058518
 20
129.78896702725103
 11
-17.103643301208535
 21
129.48281398535107
  0
LINE
  8
_0-0_図面枠
  6
CONTINUOUS
 62
    7
 10
-22.230167464808517
 20
127.13564066385106
 11
-17.633973387058518
 21
129.78896702725103
  0
LINE
  8
_0-0_図面枠
  6
CONTINUOUS
 62
    7
 10
-17.633973387058518
 20
124.48231430040107
 11
-22.230167464808517
 21
127.13564066385106
  0
LINE
  8
_0-0_図面枠
  6
CONTINUOUS
 62
    7
 10
-31.090985411008546
 20
122.83680745630102
 11
-31.090985411008546
 21
122.22440184740105
  0
LINE
  8
_0-0_図面枠
  6
CONTINUOUS
 62
    7
 10
-27.710245019008539
 20
123.35975314665103
 11
-27.710245019008539
 21
122.74734753775107
  0
LINE
  8
_0-0_図面枠
  6
CONTINUOUS
 62
    7
 10
-31.090985411008546
 20
122.22440184740105
 11
-27.710245019008539
 21
122.74734753775107
  0
LINE
  8
_0-0_図面枠
  6
CONTINUOUS
 62
    7
 10
-19.578517035358516
 20
123.35975314665103
 11
-19.578517035358516
 21
122.74734753775107
  0
LINE
  8
_0-0_図面枠
  6
CONTINUOUS
 62
    7
 10
-16.197776643308543
 20
122.83680745630102
 11
-16.197776643308543
 21
122.22440184740105
  0
LINE
  8
_0-0_図面枠
  6
CONTINUOUS
 62
    7
 10
-19.578517035358516
 20
122.74734753775107
 11
-16.197776643308543
 21
122.22440184740105
  0
LINE
  8
_0-0_図面枠
  6
CONTINUOUS
 62
    7
 10
-23.644381027158488
 20
126.31923255200104
 11
-23.644381027158488
 21
125.70682694310108
  0
LINE
  8
_0-0_図面枠
  6
CONTINUOUS
 62
    7
 10
-27.710245019008539
 20
123.35965362160107
 11
-23.644381027158488
 21
125.70682694310108
  0
LINE
  8
_0-0_図面枠
  6
CONTINUOUS
 62
    7
 10
-23.644381027158488
 20
125.70682694310108
 11
-19.578517035358516
 21
123.35965362160107
  0
LINE
  8
_0-0_図面枠
  6
CONTINUOUS
 62
    7
 10
-29.654788667258515
 20
129.78896702725103
 11
-29.654788667258515
 21
129.17656141835107
  0
LINE
  8
_0-0_図面枠
  6
CONTINUOUS
 62
    7
 10
-29.654788667258515
 20
129.17656141835107
 11
-25.589010876008501
 21
126.82943785940108
  0
LINE
  8
_0-0_図面枠
  6
CONTINUOUS
 62
    7
 10
-17.633973387058518
 20
129.78896702725103
 11
-17.633973387058518
 21
129.17656141835107
  0
LINE
  8
_0-0_図面枠
  6
CONTINUOUS
 62
    7
 10
-21.699751178358497
 20
126.82943785940108
 11
-17.633973387058518
 21
129.17656141835107
  0
LINE
  8
_0-0_図面枠
  6
CONTINUOUS
 62
    7
 10
-17.103643301208535
 20
129.48281398535107
 11
-17.103643301208535
 21
128.87040837640103
  0
LINE
  8
_0-0_図面枠
  6
CONTINUOUS
 62
    7
 10
-17.633973387058518
 20
129.17656141835107
 11
-17.103643301208535
 21
128.87040837640103
  0
LINE
  8
_0-0_図面枠
  6
CONTINUOUS
 62
    7
 10
-16.197776643308543
 20
131.43447387140105
 11
-16.197776643308543
 21
130.82206826250103
  0
LINE
  8
_0-0_図面枠
  6
CONTINUOUS
 62
    7
 10
-17.103643301208535
 20
128.87040837640103
 11
-16.197776643308543
 21
130.82206826250103
  0
LINE
  8
_0-0_図面枠
  6
CONTINUOUS
 62
    7
 10
-30.18511875315852
 20
129.48281398535107
 11
-30.18511875315852
 21
128.87040837640103
  0
LINE
  8
_0-0_図面枠
  6
CONTINUOUS
 62
    7
 10
-30.18511875315852
 20
128.87040837640103
 11
-29.654788667258515
 21
129.17656141835107
  0
LINE
  8
_0-0_図面枠
  6
CONTINUOUS
 62
    7
 10
-31.090985411008546
 20
131.43447387140105
 11
-31.090985411008546
 21
130.82206826250103
  0
LINE
  8
_0-0_図面枠
  6
CONTINUOUS
 62
    7
 10
-31.090985411008546
 20
130.82206826250103
 11
-30.18511875315852
 21
128.87040837640103
  0
LINE
  8
_0-0_図面枠
  6
CONTINUOUS
 62
    7
 10
-19.578517035358516
 20
130.91152818105104
 11
-19.578517035358516
 21
130.29922209715107
  0
LINE
  8
_0-0_図面枠
  6
CONTINUOUS
 62
    7
 10
-27.710245019008539
 20
130.91152818105104
 11
-27.710245019008539
 21
130.29922209715107
  0
LINE
  8
ADD_LINE
  6
DOT
 62
    4
 10
-31.090985411008546
 20
131.43447387140105
 11
-16.198180070863032
 21
122.83610869927935
  0
LINE
  8
ADD_LINE
  6
DOT
 62
    4
 10
-16.197776643308543
 20
131.43447387140105
 11
-31.090581983453944
 21
122.83610869927935
  0
ENDBLK
  0
BLOCK
  2
-026-_25_
 70
   64
 10
0
 20
0
 30
0
  0
LINE
  8
_0-0_図面枠
  6
CONTINUOUS
 62
    7
 10
181.88186991188218
 20
125.54988384232564
 11
181.35153982603214
 21
125.24373080037566
  0
LINE
  8
_0-0_図面枠
  6
CONTINUOUS
 62
    7
 10
182.78773656978217
 20
123.5982239562756
 11
181.88186991188218
 21
125.54988384232564
  0
LINE
  8
_0-0_図面枠
  6
CONTINUOUS
 62
    7
 10
179.4069961777322
 20
124.12116964662562
 11
182.78773656978217
 21
123.5982239562756
  0
LINE
  8
_0-0_図面枠
  6
CONTINUOUS
 62
    7
 10
179.9373262636322
 20
124.42732268857566
 11
179.4069961777322
 21
124.12116964662562
  0
LINE
  8
_0-0_図面枠
  6
CONTINUOUS
 62
    7
 10
175.34113218593217
 20
127.08064905197563
 11
179.9373262636322
 21
124.42732268857566
  0
LINE
  8
_0-0_図面枠
  6
CONTINUOUS
 62
    7
 10
170.74493810823213
 20
124.42732268857566
 11
175.34113218593217
 21
127.08064905197563
  0
LINE
  8
_0-0_図面枠
  6
CONTINUOUS
 62
    7
 10
171.27526819408217
 20
124.12116964662562
 11
170.74493810823213
 21
124.42732268857566
  0
LINE
  8
_0-0_図面枠
  6
CONTINUOUS
 62
    7
 10
167.89452780208217
 20
123.5982239562756
 11
171.27526819408217
 21
124.12116964662562
  0
LINE
  8
_0-0_図面枠
  6
CONTINUOUS
 62
    7
 10
168.80039445993219
 20
125.54988384232564
 11
167.89452780208217
 21
123.5982239562756
  0
LINE
  8
_0-0_図面枠
  6
CONTINUOUS
 62
    7
 10
169.3307245458322
 20
125.24373080037566
 11
168.80039445993219
 21
125.54988384232564
  0
LINE
  8
_0-0_図面枠
  6
CONTINUOUS
 62
    7
 10
173.92691862353217
 20
127.89705716382565
 11
169.3307245458322
 21
125.24373080037566
  0
LINE
  8
_0-0_図面枠
  6
CONTINUOUS
 62
    7
 10
169.3307245458322
 20
130.55038352722562
 11
173.92691862353217
 21
127.89705716382565
  0
LINE
  8
_0-0_図面枠
  6
CONTINUOUS
 62
    7
 10
168.80039445993219
 20
130.24423048532566
 11
169.3307245458322
 21
130.55038352722562
  0
LINE
  8
_0-0_図面枠
  6
CONTINUOUS
 62
    7
 10
167.89452780208217
 20
132.19589037137564
 11
168.80039445993219
 21
130.24423048532566
  0
LINE
  8
_0-0_図面枠
  6
CONTINUOUS
 62
    7
 10
171.27526819408217
 20
131.67294468102563
 11
167.89452780208217
 21
132.19589037137564
  0
LINE
  8
_0-0_図面枠
  6
CONTINUOUS
 62
    7
 10
170.74493810823213
 20
131.36679163907564
 11
171.27526819408217
 21
131.67294468102563
  0
LINE
  8
_0-0_図面枠
  6
CONTINUOUS
 62
    7
 10
175.34113218593217
 20
128.71346527562565
 11
170.74493810823213
 21
131.36679163907564
  0
LINE
  8
_0-0_図面枠
  6
CONTINUOUS
 62
    7
 10
179.9373262636322
 20
131.36679163907564
 11
175.34113218593217
 21
128.71346527562565
  0
LINE
  8
_0-0_図面枠
  6
CONTINUOUS
 62
    7
 10
179.4069961777322
 20
131.67294468102563
 11
179.9373262636322
 21
131.36679163907564
  0
LINE
  8
_0-0_図面枠
  6
CONTINUOUS
 62
    7
 10
182.78773656978217
 20
132.19589037137564
 11
179.4069961777322
 21
131.67294468102563
  0
LINE
  8
_0-0_図面枠
  6
CONTINUOUS
 62
    7
 10
181.88186991188218
 20
130.24423048532566
 11
182.78773656978217
 21
132.19589037137564
  0
LINE
  8
_0-0_図面枠
  6
CONTINUOUS
 62
    7
 10
181.35153982603214
 20
130.55038352722562
 11
181.88186991188218
 21
130.24423048532566
  0
LINE
  8
_0-0_図面枠
  6
CONTINUOUS
 62
    7
 10
176.7553457482822
 20
127.89705716382565
 11
181.35153982603214
 21
130.55038352722562
  0
LINE
  8
_0-0_図面枠
  6
CONTINUOUS
 62
    7
 10
181.35153982603214
 20
125.24373080037566
 11
176.7553457482822
 21
127.89705716382565
  0
LINE
  8
_0-0_図面枠
  6
CONTINUOUS
 62
    7
 10
167.89452780208217
 20
123.5982239562756
 11
167.89452780208217
 21
122.98581834737564
  0
LINE
  8
_0-0_図面枠
  6
CONTINUOUS
 62
    7
 10
171.27526819408217
 20
124.12116964662562
 11
171.27526819408217
 21
123.50876403772565
  0
LINE
  8
_0-0_図面枠
  6
CONTINUOUS
 62
    7
 10
167.89452780208217
 20
122.98581834737564
 11
171.27526819408217
 21
123.50876403772565
  0
LINE
  8
_0-0_図面枠
  6
CONTINUOUS
 62
    7
 10
179.4069961777322
 20
124.12116964662562
 11
179.4069961777322
 21
123.50876403772565
  0
LINE
  8
_0-0_図面枠
  6
CONTINUOUS
 62
    7
 10
182.78773656978217
 20
123.5982239562756
 11
182.78773656978217
 21
122.98581834737564
  0
LINE
  8
_0-0_図面枠
  6
CONTINUOUS
 62
    7
 10
179.4069961777322
 20
123.50876403772565
 11
182.78773656978217
 21
122.98581834737564
  0
LINE
  8
_0-0_図面枠
  6
CONTINUOUS
 62
    7
 10
175.34113218593217
 20
127.08064905197563
 11
175.34113218593217
 21
126.46824344307566
  0
LINE
  8
_0-0_図面枠
  6
CONTINUOUS
 62
    7
 10
171.27526819408217
 20
124.12107012157566
 11
175.34113218593217
 21
126.46824344307566
  0
LINE
  8
_0-0_図面枠
  6
CONTINUOUS
 62
    7
 10
175.34113218593217
 20
126.46824344307566
 11
179.4069961777322
 21
124.12107012157566
  0
LINE
  8
_0-0_図面枠
  6
CONTINUOUS
 62
    7
 10
169.3307245458322
 20
130.55038352722562
 11
169.3307245458322
 21
129.93797791832566
  0
LINE
  8
_0-0_図面枠
  6
CONTINUOUS
 62
    7
 10
169.3307245458322
 20
129.93797791832566
 11
173.39650233708215
 21
127.59085435937567
  0
LINE
  8
_0-0_図面枠
  6
CONTINUOUS
 62
    7
 10
181.35153982603214
 20
130.55038352722562
 11
181.35153982603214
 21
129.93797791832566
  0
LINE
  8
_0-0_図面枠
  6
CONTINUOUS
 62
    7
 10
177.28576203473216
 20
127.59085435937567
 11
181.35153982603214
 21
129.93797791832566
  0
LINE
  8
_0-0_図面枠
  6
CONTINUOUS
 62
    7
 10
181.88186991188218
 20
130.24423048532566
 11
181.88186991188218
 21
129.63182487637562
  0
LINE
  8
_0-0_図面枠
  6
CONTINUOUS
 62
    7
 10
181.35153982603214
 20
129.93797791832566
 11
181.88186991188218
 21
129.63182487637562
  0
LINE
  8
_0-0_図面枠
  6
CONTINUOUS
 62
    7
 10
182.78773656978217
 20
132.19589037137564
 11
182.78773656978217
 21
131.58348476247562
  0
LINE
  8
_0-0_図面枠
  6
CONTINUOUS
 62
    7
 10
181.88186991188218
 20
129.63182487637562
 11
182.78773656978217
 21
131.58348476247562
  0
LINE
  8
_0-0_図面枠
  6
CONTINUOUS
 62
    7
 10
168.80039445993219
 20
130.24423048532566
 11
168.80039445993219
 21
129.63182487637562
  0
LINE
  8
_0-0_図面枠
  6
CONTINUOUS
 62
    7
 10
168.80039445993219
 20
129.63182487637562
 11
169.3307245458322
 21
129.93797791832566
  0
LINE
  8
_0-0_図面枠
  6
CONTINUOUS
 62
    7
 10
167.89452780208217
 20
132.19589037137564
 11
167.89452780208217
 21
131.58348476247562
  0
LINE
  8
_0-0_図面枠
  6
CONTINUOUS
 62
    7
 10
167.89452780208217
 20
131.58348476247562
 11
168.80039445993219
 21
129.63182487637562
  0
LINE
  8
_0-0_図面枠
  6
CONTINUOUS
 62
    7
 10
179.4069961777322
 20
131.67294468102563
 11
179.4069961777322
 21
131.06063859712566
  0
LINE
  8
_0-0_図面枠
  6
CONTINUOUS
 62
    7
 10
171.27526819408217
 20
131.67294468102563
 11
171.27526819408217
 21
131.06063859712566
  0
LINE
  8
ADD_LINE
  6
DOT
 62
    4
 10
167.89452780208217
 20
132.19589037137564
 11
182.78733314222762
 21
123.59752519925394
  0
LINE
  8
ADD_LINE
  6
DOT
 62
    4
 10
182.78773656978217
 20
132.19589037137564
 11
167.89493122963671
 21
123.59752519925394
  0
ENDBLK
  0
BLOCK
  2
-027-_26_
 70
   64
 10
0
 20
0
 30
0
  0
LINE
  8
_1-7_カバ__
  6
CENTER2
 62
    4
 10
-99.999999999999972
 20
64.333333333333286
 11
-99.999999999999972
 21
60.333333333333201
  0
LINE
  8
_1-7_カバ__
  6
CENTER2
 62
    4
 10
-128.33333333333323
 20
64.333333333333286
 11
-128.33333333333323
 21
60.333333333333201
  0
LINE
  8
_1-7_カバ__
  6
CENTER2
 62
    4
 10
-71.666666666666742
 20
64.333333333333286
 11
-71.666666666666742
 21
60.333333333333201
  0
ARC
  8
_1-7_カバ__
  6
CONTINUOUS
 62
    4
 10
-144.49999999999989
 20
62.166666666666629
 40
0.1666666666666666
 50
90
 51
180
  0
LINE
  8
_1-7_カバ__
  6
CONTINUOUS
 62
    4
 10
-144.66666666666657
 20
58.5
 11
-144.66666666666657
 21
62.166666666666629
  0
ARC
  8
_1-7_カバ__
  6
CONTINUOUS
 62
    4
 10
-144.49999999999989
 20
58.5
 40
0.1666666666666666
 50
180
 51
270
  0
ARC
  8
_1-7_カバ__
  6
CONTINUOUS
 62
    4
 10
-144.49999999999989
 20
62.166666666666629
 40
0.5
 50
90
 51
180
  0
LINE
  8
_1-7_カバ__
  6
CONTINUOUS
 62
    4
 10
-144.99999999999989
 20
58.5
 11
-144.99999999999989
 21
62.166666666666629
  0
ARC
  8
_1-7_カバ__
  6
CONTINUOUS
 62
    4
 10
-144.49999999999989
 20
58.5
 40
0.5
 50
180
 51
270
  0
ARC
  8
_1-7_カバ__
  6
CONTINUOUS
 62
    4
 10
-55.500000000000057
 20
62.166666666666629
 40
0.1666666666666666
 50
0
 51
90
  0
LINE
  8
_1-7_カバ__
  6
CONTINUOUS
 62
    4
 10
-55.333333333333371
 20
58.5
 11
-55.333333333333371
 21
62.166666666666629
  0
ARC
  8
_1-7_カバ__
  6
CONTINUOUS
 62
    4
 10
-55.500000000000057
 20
58.5
 40
0.1666666666666666
 50
270
 51
0
  0
ARC
  8
_1-7_カバ__
  6
CONTINUOUS
 62
    4
 10
-55.500000000000057
 20
62.166666666666629
 40
0.5
 50
0
 51
90
  0
LINE
  8
_1-7_カバ__
  6
CONTINUOUS
 62
    4
 10
-55.000000000000057
 20
58.5
 11
-55.000000000000057
 21
62.166666666666629
  0
ARC
  8
_1-7_カバ__
  6
CONTINUOUS
 62
    4
 10
-55.500000000000057
 20
58.5
 40
0.5
 50
270
 51
0
  0
LINE
  8
_1-7_カバ__
  6
CONTINUOUS
 62
    4
 10
-144.49999999999989
 20
62.333333333333286
 11
-55.500000000000057
 21
62.333333333333286
  0
LINE
  8
_1-7_カバ__
  6
CONTINUOUS
 62
    4
 10
-144.49999999999989
 20
62.666666666666629
 11
-55.500000000000057
 21
62.666666666666629
  0
LINE
  8
_1-7_カバ__
  6
CONTINUOUS
 62
    4
 10
-141.66666666666657
 20
58.333333333333314
 11
-141.66666666666657
 21
58
  0
LINE
  8
_1-7_カバ__
  6
CONTINUOUS
 62
    4
 10
-144.49999999999989
 20
58
 11
-141.66666666666657
 21
58
  0
LINE
  8
_1-7_カバ__
  6
CONTINUOUS
 62
    4
 10
-144.49999999999989
 20
58.333333333333314
 11
-141.66666666666657
 21
58.333333333333314
  0
LINE
  8
_1-7_カバ__
  6
CONTINUOUS
 62
    4
 10
-58.333333333333371
 20
58.333333333333314
 11
-58.333333333333371
 21
58
  0
LINE
  8
_1-7_カバ__
  6
CONTINUOUS
 62
    4
 10
-55.500000000000057
 20
58
 11
-58.333333333333371
 21
58
  0
LINE
  8
_1-7_カバ__
  6
CONTINUOUS
 62
    4
 10
-55.500000000000057
 20
58.333333333333314
 11
-58.333333333333371
 21
58.333333333333314
  0
LINE
  8
_1-7_カバ__
  6
DASHED1
 62
    4
 10
-127.58333333333323
 20
62.333333333333286
 11
-127.2499999999999
 21
62.666666666666629
  0
LINE
  8
_1-7_カバ__
  6
DASHED1
 62
    4
 10
-129.08333333333323
 20
62.333333333333286
 11
-129.41666666666657
 21
62.666666666666629
  0
LINE
  8
_1-7_カバ__
  6
DASHED1
 62
    4
 10
-70.916666666666742
 20
62.333333333333258
 11
-70.583333333333371
 21
62.666666666666572
  0
LINE
  8
_1-7_カバ__
  6
DASHED1
 62
    4
 10
-72.416666666666742
 20
62.333333333333258
 11
-72.750000000000057
 21
62.666666666666572
  0
ENDBLK
  0
BLOCK
  2
-028-_27_
 70
   64
 10
0
 20
0
 30
0
  0
ARC
  8
_1-8_小物
  6
CONTINUOUS
 62
    4
 10
-58.333333333333371
 20
58.100000000000023
 40
0.0999999999999999
 50
180
 51
270
  0
LINE
  8
_1-8_小物
  6
CONTINUOUS
 62
    4
 10
-55.500000000000057
 20
57.333333333333314
 11
-55.500000000000057
 21
56.874265946711716
  0
ARC
  8
_1-8_小物
  6
CONTINUOUS
 62
    4
 10
-55.666666666666714
 20
57.333333333333314
 40
0.1666666666666666
 50
0
 51
90
  0
LINE
  8
_1-8_小物
  6
CONTINUOUS
 62
    4
 10
-55.000000000000057
 20
57.333333333333314
 11
-55.000000000000057
 21
56.833333333333314
  0
ARC
  8
_1-8_小物
  6
CONTINUOUS
 62
    4
 10
-55.666666666666714
 20
57.333333333333314
 40
0.6666666666666666
 50
0
 51
90
  0
LINE
  8
_1-8_小物
  6
CONTINUOUS
 62
    4
 10
-55.666666666666714
 20
57.5
 11
-58.266666666666708
 21
57.5
  0
ARC
  8
_1-8_小物
  6
CONTINUOUS
 62
    4
 10
-58.266666666666708
 20
58
 40
0.5
 50
180
 51
270
  0
ARC
  8
_1-8_小物
  6
CONTINUOUS
 62
    4
 10
-55.912022475811398
 20
54.374662926789483
 40
0.4999999999999946
 50
190.63980919808779
 51
350.63980919808859
  0
LINE
  8
_1-8_小物
  6
CONTINUOUS
 62
    4
 10
-55.500000000000057
 20
56.874265946711716
 11
-55.881276481385839
 21
54.561188626304585
  0
ARC
  8
_1-8_小物
  6
CONTINUOUS
 62
    4
 10
-55.914165994805842
 20
54.566609974670541
 40
0.0333333333333333
 50
190.63980919811479
 51
350.63980919804908
  0
ARC
  8
_1-8_小物
  6
CONTINUOUS
 62
    4
 10
-56.388517115351988
 20
55.557013491761268
 40
0.25
 50
10.639809198086599
 51
190.63980919808139
  0
LINE
  8
_1-8_小物
  6
CONTINUOUS
 62
    4
 10
-56.634218940905811
 20
55.510854928963937
 11
-56.403426126919044
 21
54.282345801194765
  0
LINE
  8
_1-8_小物
  6
CONTINUOUS
 62
    4
 10
-55.000000000000057
 20
56.833333333333314
 11
-55.418679774510963
 21
54.293342701300418
  0
LINE
  8
_1-8_小物
  6
CONTINUOUS
 62
    4
 10
-55.666666666666714
 20
58
 11
-58.333333333333371
 21
58
  0
ARC
  8
_1-8_小物
  6
CONTINUOUS
 62
    4
 10
-56.478443442741764
 20
58.741051446795836
 40
0.1666666666666666
 50
267.28051796004212
 51
357.28051796003189
  0
ARC
  8
_1-8_小物
  6
CONTINUOUS
 62
    4
 10
-56.319872158814974
 20
58.566664797451978
 40
0.3333333333333333
 50
267.28051796004149
 51
357.28051796003678
  0
LINE
  8
_1-8_小物
  6
CONTINUOUS
 62
    4
 10
-55.986914225544353
 20
58.550849432034909
 11
-55.971098860127285
 21
58.883807365305472
  0
ARC
  8
_1-8_小物
  6
CONTINUOUS
 62
    4
 10
-56.137577826762595
 20
58.891715048014049
 40
0.1666666666666666
 50
357.28051796004121
 51
177.28051796004172
  0
LINE
  8
_1-8_小物
  6
CONTINUOUS
 62
    4
 10
-56.311964476106425
 20
58.733143764087288
 11
-56.304056793397905
 21
58.899622730722541
  0
LINE
  8
_1-8_小物
  6
CONTINUOUS
 62
    4
 10
-58.433333333333394
 20
58.228481474681189
 11
-58.433333333333394
 21
58.100000000000023
  0
LINE
  8
_1-8_小物
  6
CONTINUOUS
 62
    4
 10
-56.486351125450284
 20
58.574572480160555
 11
-58.417517967916325
 21
58.666302113976144
  0
LINE
  8
_1-8_小物
  6
CONTINUOUS
 62
    4
 10
-58.766666666666708
 20
58.333344180705524
 11
-58.766666666666708
 21
58
  0
ARC
  8
_1-8_小物
  6
CONTINUOUS
 62
    4
 10
-58.333333333333371
 20
58.228481474681189
 40
0.0999999999999999
 50
87.280517960044477
 51
180
  0
ARC
  8
_1-8_小物
  6
CONTINUOUS
 62
    4
 10
-58.433333333333394
 20
58.333344180705524
 40
0.3333333333333333
 50
87.280517960036804
 51
180
  0
LINE
  8
_1-8_小物
  6
CONTINUOUS
 62
    4
 10
-56.335687524232014
 20
58.233706864181414
 11
-58.328588723708265
 21
58.328368854662301
  0
LINE
  8
_1-8_小物
  6
CONTINUOUS
 62
    4
 10
-56.142815289798165
 20
55.603172054558655
 11
-55.946926238213024
 21
54.560455499630876
  0
ENDBLK
  0
BLOCK
  2
-029-_28_
 70
   64
 10
0
 20
0
 30
0
  0
ARC
  8
_1-8_小物
  6
CONTINUOUS
 62
    4
 10
-141.66666666666657
 20
58.100000000000023
 40
0.0999999999999999
 50
270
 51
0
  0
LINE
  8
_1-8_小物
  6
CONTINUOUS
 62
    4
 10
-144.49999999999989
 20
57.333333333333314
 11
-144.49999999999989
 21
56.874265946711716
  0
ARC
  8
_1-8_小物
  6
CONTINUOUS
 62
    4
 10
-144.33333333333323
 20
57.333333333333314
 40
0.1666666666666666
 50
90
 51
180
  0
LINE
  8
_1-8_小物
  6
CONTINUOUS
 62
    4
 10
-144.99999999999989
 20
57.333333333333314
 11
-144.99999999999989
 21
56.833333333333314
  0
ARC
  8
_1-8_小物
  6
CONTINUOUS
 62
    4
 10
-144.33333333333323
 20
57.333333333333314
 40
0.6666666666666666
 50
90
 51
180
  0
LINE
  8
_1-8_小物
  6
CONTINUOUS
 62
    4
 10
-144.33333333333323
 20
57.5
 11
-141.73333333333323
 21
57.5
  0
ARC
  8
_1-8_小物
  6
CONTINUOUS
 62
    4
 10
-141.73333333333323
 20
58
 40
0.5
 50
270
 51
0
  0
ARC
  8
_1-8_小物
  6
CONTINUOUS
 62
    4
 10
-144.08797752418855
 20
54.374662926789483
 40
0.4999999999999946
 50
189.36019080191193
 51
349.36019080191221
  0
LINE
  8
_1-8_小物
  6
CONTINUOUS
 62
    4
 10
-144.49999999999989
 20
56.874265946711716
 11
-144.1187235186141
 21
54.561188626304585
  0
ARC
  8
_1-8_小物
  6
CONTINUOUS
 62
    4
 10
-144.0858340051941
 20
54.566609974670541
 40
0.0333333333333333
 50
189.36019080195092
 51
349.36019080188521
  0
ARC
  8
_1-8_小物
  6
CONTINUOUS
 62
    4
 10
-143.61148288464796
 20
55.557013491761268
 40
0.25
 50
349.36019080191983
 51
169.36019080191102
  0
LINE
  8
_1-8_小物
  6
CONTINUOUS
 62
    4
 10
-143.36578105909413
 20
55.510854928963937
 11
-143.5965738730809
 21
54.282345801194765
  0
LINE
  8
_1-8_小物
  6
CONTINUOUS
 62
    4
 10
-144.99999999999989
 20
56.833333333333314
 11
-144.58132022548898
 21
54.293342701300418
  0
LINE
  8
_1-8_小物
  6
CONTINUOUS
 62
    4
 10
-144.33333333333323
 20
58
 11
-141.66666666666657
 21
58
  0
ARC
  8
_1-8_小物
  6
CONTINUOUS
 62
    4
 10
-143.52155655725818
 20
58.741051446795836
 40
0.1666666666666666
 50
182.71948203996851
 51
272.7194820399676
  0
ARC
  8
_1-8_小物
  6
CONTINUOUS
 62
    4
 10
-143.68012784118497
 20
58.566664797451978
 40
0.3333333333333333
 50
182.71948203996342
 51
272.7194820399634
  0
LINE
  8
_1-8_小物
  6
CONTINUOUS
 62
    4
 10
-144.01308577445559
 20
58.550849432034909
 11
-144.02890113987266
 21
58.883807365305472
  0
ARC
  8
_1-8_小物
  6
CONTINUOUS
 62
    4
 10
-143.86242217323735
 20
58.891715048014049
 40
0.1666666666666666
 50
2.7194820399583164
 51
182.71948203995879
  0
LINE
  8
_1-8_小物
  6
CONTINUOUS
 62
    4
 10
-143.68803552389352
 20
58.733143764087288
 11
-143.69594320660204
 21
58.899622730722541
  0
LINE
  8
_1-8_小物
  6
CONTINUOUS
 62
    4
 10
-141.56666666666655
 20
58.228481474681189
 11
-141.56666666666655
 21
58.100000000000023
  0
LINE
  8
_1-8_小物
  6
CONTINUOUS
 62
    4
 10
-143.51364887454966
 20
58.574572480160555
 11
-141.58248203208362
 21
58.666302113976144
  0
LINE
  8
_1-8_小物
  6
CONTINUOUS
 62
    4
 10
-141.23333333333323
 20
58.333344180705524
 11
-141.23333333333323
 21
58
  0
ARC
  8
_1-8_小物
  6
CONTINUOUS
 62
    4
 10
-141.66666666666657
 20
58.228481474681189
 40
0.0999999999999999
 50
0
 51
92.719482039955523
  0
ARC
  8
_1-8_小物
  6
CONTINUOUS
 62
    4
 10
-141.56666666666655
 20
58.333344180705524
 40
0.3333333333333333
 50
0
 51
92.719482039958322
  0
LINE
  8
_1-8_小物
  6
CONTINUOUS
 62
    4
 10
-143.66431247576793
 20
58.233706864181414
 11
-141.67141127629168
 21
58.328368854662301
  0
LINE
  8
_1-8_小物
  6
CONTINUOUS
 62
    4
 10
-143.85718471020178
 20
55.603172054558655
 11
-144.05307376178692
 21
54.560455499630876
  0
ENDBLK
  0
BLOCK
  2
-030-_29_
 70
   64
 10
0
 20
0
 30
0
  0
LINE
  8
_1-8_小物
  6
CONTINUOUS
 62
    4
 10
-129.33333333333323
 20
62.666666666666629
 11
-127.33333333333323
 21
62.666666666666629
  0
LINE
  8
_1-8_小物
  6
CONTINUOUS
 62
    4
 10
-127.33333333333334
 20
62.666666666666629
 11
-127.33333333333334
 21
62.599999999999937
  0
LINE
  8
_1-8_小物
  6
CONTINUOUS
 62
    4
 10
-129.33333333333312
 20
62.599999999999937
 11
-128.83333333333312
 21
62.099999999999937
  0
LINE
  8
_1-8_小物
  6
CONTINUOUS
 62
    4
 10
-128.83333333333312
 20
62.099999999999937
 11
-127.83333333333334
 21
62.099999999999937
  0
LINE
  8
_1-8_小物
  6
CONTINUOUS
 62
    4
 10
-127.33333333333334
 20
62.599999999999937
 11
-127.83333333333334
 21
62.099999999999937
  0
LINE
  8
_1-8_小物
  6
CONTINUOUS
 62
    4
 10
-129.33333333333312
 20
62.599999999999937
 11
-129.33333333333312
 21
62.666666666666629
  0
LINE
  8
_1-8_小物
  6
CONTINUOUS
 62
    4
 10
-127.33333333333334
 20
62.599999999999937
 11
-129.33333333333312
 21
62.599999999999937
  0
LINE
  8
_1-8_小物
  6
CONTINUOUS
 62
    4
 10
-127.83333333333334
 20
59.035753321824274
 11
-127.64583333333323
 21
58.927500000000009
  0
LINE
  8
_1-8_小物
  6
CONTINUOUS
 62
    4
 10
-127.64583333333323
 20
58.927500000000009
 11
-127.83333333333331
 21
58.819246678175716
  0
LINE
  8
_1-8_小物
  6
CONTINUOUS
 62
    4
 10
-127.83333333333334
 20
59.035753321824274
 11
-128.83333333333314
 21
58.800753321824288
  0
LINE
  8
_1-8_小物
  6
CONTINUOUS
 62
    4
 10
-129.02083333333323
 20
58.692500000000024
 11
-128.83333333333314
 21
58.800753321824288
  0
LINE
  8
_1-8_小物
  6
CONTINUOUS
 62
    4
 10
-128.83333333333314
 20
58.584246678175759
 11
-129.02083333333323
 21
58.692500000000024
  0
LINE
  8
_1-8_小物
  6
CONTINUOUS
 62
    4
 10
-127.83333333333331
 20
58.819246678175716
 11
-128.83333333333314
 21
58.584246678175759
  0
LINE
  8
_1-8_小物
  6
CONTINUOUS
 62
    4
 10
-127.64583333333323
 20
58.927500000000009
 11
-129.02083333333323
 21
58.692500000000024
  0
LINE
  8
_1-8_小物
  6
CONTINUOUS
 62
    4
 10
-127.83333333333334
 20
59.505753321824272
 11
-127.64583333333323
 21
59.39749999999998
  0
LINE
  8
_1-8_小物
  6
CONTINUOUS
 62
    4
 10
-127.64583333333323
 20
59.39749999999998
 11
-127.83333333333331
 21
59.289246678175715
  0
LINE
  8
_1-8_小物
  6
CONTINUOUS
 62
    4
 10
-127.83333333333334
 20
59.505753321824272
 11
-128.83333333333314
 21
59.270753321824287
  0
LINE
  8
_1-8_小物
  6
CONTINUOUS
 62
    4
 10
-129.02083333333323
 20
59.162500000000023
 11
-128.83333333333314
 21
59.270753321824287
  0
LINE
  8
_1-8_小物
  6
CONTINUOUS
 62
    4
 10
-128.83333333333314
 20
59.05424667817573
 11
-129.02083333333323
 21
59.162500000000023
  0
LINE
  8
_1-8_小物
  6
CONTINUOUS
 62
    4
 10
-127.83333333333331
 20
59.289246678175715
 11
-128.83333333333314
 21
59.05424667817573
  0
LINE
  8
_1-8_小物
  6
CONTINUOUS
 62
    4
 10
-127.64583333333323
 20
59.39749999999998
 11
-129.02083333333323
 21
59.162500000000023
  0
LINE
  8
_1-8_小物
  6
CONTINUOUS
 62
    4
 10
-127.83333333333334
 20
59.975753321824243
 11
-127.64583333333323
 21
59.867499999999978
  0
LINE
  8
_1-8_小物
  6
CONTINUOUS
 62
    4
 10
-127.64583333333323
 20
59.867499999999978
 11
-127.83333333333331
 21
59.759246678175714
  0
LINE
  8
_1-8_小物
  6
CONTINUOUS
 62
    4
 10
-127.83333333333334
 20
59.975753321824243
 11
-128.83333333333314
 21
59.740753321824286
  0
LINE
  8
_1-8_小物
  6
CONTINUOUS
 62
    4
 10
-129.02083333333323
 20
59.632499999999993
 11
-128.83333333333314
 21
59.740753321824286
  0
LINE
  8
_1-8_小物
  6
CONTINUOUS
 62
    4
 10
-128.83333333333314
 20
59.524246678175729
 11
-129.02083333333323
 21
59.632499999999993
  0
LINE
  8
_1-8_小物
  6
CONTINUOUS
 62
    4
 10
-127.83333333333331
 20
59.759246678175714
 11
-128.83333333333314
 21
59.524246678175729
  0
LINE
  8
_1-8_小物
  6
CONTINUOUS
 62
    4
 10
-127.64583333333323
 20
59.867499999999978
 11
-129.02083333333323
 21
59.632499999999993
  0
LINE
  8
_1-8_小物
  6
CONTINUOUS
 62
    4
 10
-127.83333333333334
 20
60.445753321824242
 11
-127.64583333333323
 21
60.337499999999977
  0
LINE
  8
_1-8_小物
  6
CONTINUOUS
 62
    4
 10
-127.64583333333323
 20
60.337499999999977
 11
-127.83333333333331
 21
60.229246678175684
  0
LINE
  8
_1-8_小物
  6
CONTINUOUS
 62
    4
 10
-127.83333333333334
 20
60.445753321824242
 11
-128.83333333333314
 21
60.210753321824257
  0
LINE
  8
_1-8_小物
  6
CONTINUOUS
 62
    4
 10
-129.02083333333323
 20
60.102499999999992
 11
-128.83333333333314
 21
60.210753321824257
  0
LINE
  8
_1-8_小物
  6
CONTINUOUS
 62
    4
 10
-128.83333333333314
 20
59.994246678175728
 11
-129.02083333333323
 21
60.102499999999992
  0
LINE
  8
_1-8_小物
  6
CONTINUOUS
 62
    4
 10
-127.83333333333331
 20
60.229246678175684
 11
-128.83333333333314
 21
59.994246678175728
  0
LINE
  8
_1-8_小物
  6
CONTINUOUS
 62
    4
 10
-127.64583333333323
 20
60.337499999999977
 11
-129.02083333333323
 21
60.102499999999992
  0
LINE
  8
_1-8_小物
  6
CONTINUOUS
 62
    4
 10
-127.83333333333334
 20
60.915753321824241
 11
-127.64583333333323
 21
60.807499999999948
  0
LINE
  8
_1-8_小物
  6
CONTINUOUS
 62
    4
 10
-127.64583333333323
 20
60.807499999999948
 11
-127.83333333333331
 21
60.699246678175683
  0
LINE
  8
_1-8_小物
  6
CONTINUOUS
 62
    4
 10
-127.83333333333334
 20
60.915753321824241
 11
-128.83333333333314
 21
60.680753321824255
  0
LINE
  8
_1-8_小物
  6
CONTINUOUS
 62
    4
 10
-129.02083333333323
 20
60.572499999999991
 11
-128.83333333333314
 21
60.680753321824255
  0
LINE
  8
_1-8_小物
  6
CONTINUOUS
 62
    4
 10
-128.83333333333314
 20
60.464246678175698
 11
-129.02083333333323
 21
60.572499999999991
  0
LINE
  8
_1-8_小物
  6
CONTINUOUS
 62
    4
 10
-127.83333333333331
 20
60.699246678175683
 11
-128.83333333333314
 21
60.464246678175698
  0
LINE
  8
_1-8_小物
  6
CONTINUOUS
 62
    4
 10
-127.64583333333323
 20
60.807499999999948
 11
-129.02083333333323
 21
60.572499999999991
  0
LINE
  8
_1-8_小物
  6
CONTINUOUS
 62
    4
 10
-127.83333333333334
 20
61.385753321824211
 11
-127.64583333333323
 21
61.277499999999947
  0
LINE
  8
_1-8_小物
  6
CONTINUOUS
 62
    4
 10
-127.64583333333323
 20
61.277499999999947
 11
-127.83333333333331
 21
61.169246678175682
  0
LINE
  8
_1-8_小物
  6
CONTINUOUS
 62
    4
 10
-127.83333333333334
 20
61.385753321824211
 11
-128.83333333333314
 21
61.150753321824254
  0
LINE
  8
_1-8_小物
  6
CONTINUOUS
 62
    4
 10
-129.02083333333323
 20
61.042499999999961
 11
-128.83333333333314
 21
61.150753321824254
  0
LINE
  8
_1-8_小物
  6
CONTINUOUS
 62
    4
 10
-128.83333333333314
 20
60.934246678175697
 11
-129.02083333333323
 21
61.042499999999961
  0
LINE
  8
_1-8_小物
  6
CONTINUOUS
 62
    4
 10
-127.83333333333331
 20
61.169246678175682
 11
-128.83333333333314
 21
60.934246678175697
  0
LINE
  8
_1-8_小物
  6
CONTINUOUS
 62
    4
 10
-127.64583333333323
 20
61.277499999999947
 11
-129.02083333333323
 21
61.042499999999961
  0
LINE
  8
_1-8_小物
  6
CONTINUOUS
 62
    4
 10
-127.83333333333334
 20
61.85575332182421
 11
-127.64583333333323
 21
61.747499999999945
  0
LINE
  8
_1-8_小物
  6
CONTINUOUS
 62
    4
 10
-127.64583333333323
 20
61.747499999999945
 11
-127.83333333333331
 21
61.639246678175653
  0
LINE
  8
_1-8_小物
  6
CONTINUOUS
 62
    4
 10
-127.83333333333334
 20
61.85575332182421
 11
-128.83333333333314
 21
61.620753321824225
  0
LINE
  8
_1-8_小物
  6
CONTINUOUS
 62
    4
 10
-129.02083333333323
 20
61.51249999999996
 11
-128.83333333333314
 21
61.620753321824225
  0
LINE
  8
_1-8_小物
  6
CONTINUOUS
 62
    4
 10
-128.83333333333314
 20
61.404246678175696
 11
-129.02083333333323
 21
61.51249999999996
  0
LINE
  8
_1-8_小物
  6
CONTINUOUS
 62
    4
 10
-127.83333333333331
 20
61.639246678175653
 11
-128.83333333333314
 21
61.404246678175696
  0
LINE
  8
_1-8_小物
  6
CONTINUOUS
 62
    4
 10
-127.64583333333323
 20
61.747499999999945
 11
-129.02083333333323
 21
61.51249999999996
  0
LINE
  8
_1-8_小物
  6
CONTINUOUS
 62
    4
 10
-128.83333333333312
 20
58.584246678175759
 11
-128.83333333333312
 21
58.330753321824318
  0
LINE
  8
_1-8_小物
  6
CONTINUOUS
 62
    4
 10
-128.83333333333312
 20
59.05424667817573
 11
-128.83333333333312
 21
58.800753321824288
  0
LINE
  8
_1-8_小物
  6
CONTINUOUS
 62
    4
 10
-128.83333333333312
 20
59.524246678175729
 11
-128.83333333333312
 21
59.270753321824316
  0
LINE
  8
_1-8_小物
  6
CONTINUOUS
 62
    4
 10
-128.83333333333312
 20
59.994246678175728
 11
-128.83333333333312
 21
59.740753321824286
  0
LINE
  8
_1-8_小物
  6
CONTINUOUS
 62
    4
 10
-128.83333333333312
 20
60.464246678175698
 11
-128.83333333333312
 21
60.210753321824257
  0
LINE
  8
_1-8_小物
  6
CONTINUOUS
 62
    4
 10
-128.83333333333312
 20
60.934246678175697
 11
-128.83333333333312
 21
60.680753321824255
  0
LINE
  8
_1-8_小物
  6
CONTINUOUS
 62
    4
 10
-128.83333333333312
 20
62.099999999999937
 11
-128.83333333333312
 21
61.620753321824225
  0
LINE
  8
_1-8_小物
  6
CONTINUOUS
 62
    4
 10
-128.83333333333312
 20
61.404246678175696
 11
-128.83333333333312
 21
61.150753321824283
  0
LINE
  8
_1-8_小物
  6
CONTINUOUS
 62
    4
 10
-127.83333333333334
 20
62.099999999999937
 11
-127.83333333333334
 21
61.85575332182421
  0
LINE
  8
_1-8_小物
  6
CONTINUOUS
 62
    4
 10
-127.83333333333334
 20
61.639246678175624
 11
-127.83333333333334
 21
61.385753321824211
  0
LINE
  8
_1-8_小物
  6
CONTINUOUS
 62
    4
 10
-127.83333333333334
 20
61.169246678175682
 11
-127.83333333333334
 21
60.915753321824241
  0
LINE
  8
_1-8_小物
  6
CONTINUOUS
 62
    4
 10
-127.83333333333334
 20
60.699246678175655
 11
-127.83333333333334
 21
60.445753321824242
  0
LINE
  8
_1-8_小物
  6
CONTINUOUS
 62
    4
 10
-127.83333333333334
 20
60.229246678175684
 11
-127.83333333333334
 21
59.975753321824243
  0
LINE
  8
_1-8_小物
  6
CONTINUOUS
 62
    4
 10
-127.83333333333334
 20
59.759246678175714
 11
-127.83333333333334
 21
59.505753321824272
  0
LINE
  8
_1-8_小物
  6
CONTINUOUS
 62
    4
 10
-127.83333333333334
 20
59.289246678175687
 11
-127.83333333333334
 21
59.035753321824274
  0
LINE
  8
_1-8_小物
  6
CONTINUOUS
 62
    4
 10
-127.76666666666671
 20
58.326666666666625
 11
-127.76666666666671
 21
57.329999999999956
  0
LINE
  8
_1-8_小物
  6
CONTINUOUS
 62
    4
 10
-128.89999999999975
 20
58.326666666666625
 11
-127.76666666666671
 21
58.326666666666625
  0
LINE
  8
_1-8_小物
  6
CONTINUOUS
 62
    4
 10
-128.89999999999975
 20
58.326666666666625
 11
-128.89999999999975
 21
57.329999999999956
  0
LINE
  8
_1-8_小物
  6
CONTINUOUS
 62
    4
 10
-128.89999999999975
 20
57.329999999999956
 11
-128.33333333333323
 21
57.002834847459241
  0
LINE
  8
_1-8_小物
  6
CONTINUOUS
 62
    4
 10
-127.76666666666671
 20
57.329999999999956
 11
-128.33333333333323
 21
57.002834847459241
  0
LINE
  8
_1-8_小物
  6
CONTINUOUS
 62
    4
 10
-128.33333333333323
 20
57.118304901297165
 11
-127.86666666666662
 21
57.387735026918932
  0
LINE
  8
_1-8_小物
  6
CONTINUOUS
 62
    4
 10
-127.86666666666662
 20
58.326666666666625
 11
-127.86666666666662
 21
57.387735026918932
  0
LINE
  8
_1-8_小物
  6
CONTINUOUS
 62
    4
 10
-128.33333333333323
 20
57.118304901297165
 11
-128.12026655164215
 21
58.326666666666625
  0
LINE
  8
_1-8_小物
  6
CONTINUOUS
 62
    4
 10
-127.83333333333334
 20
58.819246678175688
 11
-127.83333333333334
 21
58.326666666666625
  0
LINE
  8
_1-8_小物
  6
CONTINUOUS
 62
    4
 10
-128.33333333333323
 20
57.002834847459241
 11
-128.33333333333323
 21
57.118304901297165
  0
LINE
  8
_1-8_小物
  6
CENTER2
 62
    4
 10
-128.33333333333323
 20
62.999999999999943
 11
-128.33333333333323
 21
56.669501514125898
  0
ENDBLK
  0
BLOCK
  2
-031-_30_
 70
   64
 10
0
 20
0
 30
0
  0
LINE
  8
_1-8_小物
  6
CONTINUOUS
 62
    4
 10
-72.666666666666742
 20
62.666666666666629
 11
-70.666666666666742
 21
62.666666666666629
  0
LINE
  8
_1-8_小物
  6
CONTINUOUS
 62
    4
 10
-70.666666666666856
 20
62.666666666666629
 11
-70.666666666666856
 21
62.599999999999937
  0
LINE
  8
_1-8_小物
  6
CONTINUOUS
 62
    4
 10
-72.666666666666629
 20
62.599999999999937
 11
-72.166666666666629
 21
62.099999999999937
  0
LINE
  8
_1-8_小物
  6
CONTINUOUS
 62
    4
 10
-72.166666666666629
 20
62.099999999999937
 11
-71.166666666666856
 21
62.099999999999937
  0
LINE
  8
_1-8_小物
  6
CONTINUOUS
 62
    4
 10
-70.666666666666856
 20
62.599999999999937
 11
-71.166666666666856
 21
62.099999999999937
  0
LINE
  8
_1-8_小物
  6
CONTINUOUS
 62
    4
 10
-72.666666666666629
 20
62.599999999999937
 11
-72.666666666666629
 21
62.666666666666629
  0
LINE
  8
_1-8_小物
  6
CONTINUOUS
 62
    4
 10
-70.666666666666856
 20
62.599999999999937
 11
-72.666666666666629
 21
62.599999999999937
  0
LINE
  8
_1-8_小物
  6
CONTINUOUS
 62
    4
 10
-71.166666666666856
 20
59.035753321824274
 11
-70.979166666666742
 21
58.927500000000009
  0
LINE
  8
_1-8_小物
  6
CONTINUOUS
 62
    4
 10
-70.979166666666742
 20
58.927500000000009
 11
-71.166666666666799
 21
58.819246678175716
  0
LINE
  8
_1-8_小物
  6
CONTINUOUS
 62
    4
 10
-71.166666666666856
 20
59.035753321824274
 11
-72.166666666666686
 21
58.800753321824288
  0
LINE
  8
_1-8_小物
  6
CONTINUOUS
 62
    4
 10
-72.354166666666742
 20
58.692500000000024
 11
-72.166666666666686
 21
58.800753321824288
  0
LINE
  8
_1-8_小物
  6
CONTINUOUS
 62
    4
 10
-72.166666666666686
 20
58.584246678175759
 11
-72.354166666666742
 21
58.692500000000024
  0
LINE
  8
_1-8_小物
  6
CONTINUOUS
 62
    4
 10
-71.166666666666799
 20
58.819246678175716
 11
-72.166666666666686
 21
58.584246678175759
  0
LINE
  8
_1-8_小物
  6
CONTINUOUS
 62
    4
 10
-70.979166666666742
 20
58.927500000000009
 11
-72.354166666666742
 21
58.692500000000024
  0
LINE
  8
_1-8_小物
  6
CONTINUOUS
 62
    4
 10
-71.166666666666856
 20
59.505753321824272
 11
-70.979166666666742
 21
59.39749999999998
  0
LINE
  8
_1-8_小物
  6
CONTINUOUS
 62
    4
 10
-70.979166666666742
 20
59.39749999999998
 11
-71.166666666666799
 21
59.289246678175715
  0
LINE
  8
_1-8_小物
  6
CONTINUOUS
 62
    4
 10
-71.166666666666856
 20
59.505753321824272
 11
-72.166666666666686
 21
59.270753321824287
  0
LINE
  8
_1-8_小物
  6
CONTINUOUS
 62
    4
 10
-72.354166666666742
 20
59.162500000000023
 11
-72.166666666666686
 21
59.270753321824287
  0
LINE
  8
_1-8_小物
  6
CONTINUOUS
 62
    4
 10
-72.166666666666686
 20
59.05424667817573
 11
-72.354166666666742
 21
59.162500000000023
  0
LINE
  8
_1-8_小物
  6
CONTINUOUS
 62
    4
 10
-71.166666666666799
 20
59.289246678175715
 11
-72.166666666666686
 21
59.05424667817573
  0
LINE
  8
_1-8_小物
  6
CONTINUOUS
 62
    4
 10
-70.979166666666742
 20
59.39749999999998
 11
-72.354166666666742
 21
59.162500000000023
  0
LINE
  8
_1-8_小物
  6
CONTINUOUS
 62
    4
 10
-71.166666666666856
 20
59.975753321824243
 11
-70.979166666666742
 21
59.867499999999978
  0
LINE
  8
_1-8_小物
  6
CONTINUOUS
 62
    4
 10
-70.979166666666742
 20
59.867499999999978
 11
-71.166666666666799
 21
59.759246678175714
  0
LINE
  8
_1-8_小物
  6
CONTINUOUS
 62
    4
 10
-71.166666666666856
 20
59.975753321824243
 11
-72.166666666666686
 21
59.740753321824286
  0
LINE
  8
_1-8_小物
  6
CONTINUOUS
 62
    4
 10
-72.354166666666742
 20
59.632499999999993
 11
-72.166666666666686
 21
59.740753321824286
  0
LINE
  8
_1-8_小物
  6
CONTINUOUS
 62
    4
 10
-72.166666666666686
 20
59.524246678175729
 11
-72.354166666666742
 21
59.632499999999993
  0
LINE
  8
_1-8_小物
  6
CONTINUOUS
 62
    4
 10
-71.166666666666799
 20
59.759246678175714
 11
-72.166666666666686
 21
59.524246678175729
  0
LINE
  8
_1-8_小物
  6
CONTINUOUS
 62
    4
 10
-70.979166666666742
 20
59.867499999999978
 11
-72.354166666666742
 21
59.632499999999993
  0
LINE
  8
_1-8_小物
  6
CONTINUOUS
 62
    4
 10
-71.166666666666856
 20
60.445753321824242
 11
-70.979166666666742
 21
60.337499999999977
  0
LINE
  8
_1-8_小物
  6
CONTINUOUS
 62
    4
 10
-70.979166666666742
 20
60.337499999999977
 11
-71.166666666666799
 21
60.229246678175684
  0
LINE
  8
_1-8_小物
  6
CONTINUOUS
 62
    4
 10
-71.166666666666856
 20
60.445753321824242
 11
-72.166666666666686
 21
60.210753321824257
  0
LINE
  8
_1-8_小物
  6
CONTINUOUS
 62
    4
 10
-72.354166666666742
 20
60.102499999999992
 11
-72.166666666666686
 21
60.210753321824257
  0
LINE
  8
_1-8_小物
  6
CONTINUOUS
 62
    4
 10
-72.166666666666686
 20
59.994246678175728
 11
-72.354166666666742
 21
60.102499999999992
  0
LINE
  8
_1-8_小物
  6
CONTINUOUS
 62
    4
 10
-71.166666666666799
 20
60.229246678175684
 11
-72.166666666666686
 21
59.994246678175728
  0
LINE
  8
_1-8_小物
  6
CONTINUOUS
 62
    4
 10
-70.979166666666742
 20
60.337499999999977
 11
-72.354166666666742
 21
60.102499999999992
  0
LINE
  8
_1-8_小物
  6
CONTINUOUS
 62
    4
 10
-71.166666666666856
 20
60.915753321824241
 11
-70.979166666666742
 21
60.807499999999948
  0
LINE
  8
_1-8_小物
  6
CONTINUOUS
 62
    4
 10
-70.979166666666742
 20
60.807499999999948
 11
-71.166666666666799
 21
60.699246678175683
  0
LINE
  8
_1-8_小物
  6
CONTINUOUS
 62
    4
 10
-71.166666666666856
 20
60.915753321824241
 11
-72.166666666666686
 21
60.680753321824255
  0
LINE
  8
_1-8_小物
  6
CONTINUOUS
 62
    4
 10
-72.354166666666742
 20
60.572499999999991
 11
-72.166666666666686
 21
60.680753321824255
  0
LINE
  8
_1-8_小物
  6
CONTINUOUS
 62
    4
 10
-72.166666666666686
 20
60.464246678175698
 11
-72.354166666666742
 21
60.572499999999991
  0
LINE
  8
_1-8_小物
  6
CONTINUOUS
 62
    4
 10
-71.166666666666799
 20
60.699246678175683
 11
-72.166666666666686
 21
60.464246678175698
  0
LINE
  8
_1-8_小物
  6
CONTINUOUS
 62
    4
 10
-70.979166666666742
 20
60.807499999999948
 11
-72.354166666666742
 21
60.572499999999991
  0
LINE
  8
_1-8_小物
  6
CONTINUOUS
 62
    4
 10
-71.166666666666856
 20
61.385753321824211
 11
-70.979166666666742
 21
61.277499999999947
  0
LINE
  8
_1-8_小物
  6
CONTINUOUS
 62
    4
 10
-70.979166666666742
 20
61.277499999999947
 11
-71.166666666666799
 21
61.169246678175682
  0
LINE
  8
_1-8_小物
  6
CONTINUOUS
 62
    4
 10
-71.166666666666856
 20
61.385753321824211
 11
-72.166666666666686
 21
61.150753321824254
  0
LINE
  8
_1-8_小物
  6
CONTINUOUS
 62
    4
 10
-72.354166666666742
 20
61.042499999999961
 11
-72.166666666666686
 21
61.150753321824254
  0
LINE
  8
_1-8_小物
  6
CONTINUOUS
 62
    4
 10
-72.166666666666686
 20
60.934246678175697
 11
-72.354166666666742
 21
61.042499999999961
  0
LINE
  8
_1-8_小物
  6
CONTINUOUS
 62
    4
 10
-71.166666666666799
 20
61.169246678175682
 11
-72.166666666666686
 21
60.934246678175697
  0
LINE
  8
_1-8_小物
  6
CONTINUOUS
 62
    4
 10
-70.979166666666742
 20
61.277499999999947
 11
-72.354166666666742
 21
61.042499999999961
  0
LINE
  8
_1-8_小物
  6
CONTINUOUS
 62
    4
 10
-71.166666666666856
 20
61.85575332182421
 11
-70.979166666666742
 21
61.747499999999945
  0
LINE
  8
_1-8_小物
  6
CONTINUOUS
 62
    4
 10
-70.979166666666742
 20
61.747499999999945
 11
-71.166666666666799
 21
61.639246678175653
  0
LINE
  8
_1-8_小物
  6
CONTINUOUS
 62
    4
 10
-71.166666666666856
 20
61.85575332182421
 11
-72.166666666666686
 21
61.620753321824225
  0
LINE
  8
_1-8_小物
  6
CONTINUOUS
 62
    4
 10
-72.354166666666742
 20
61.51249999999996
 11
-72.166666666666686
 21
61.620753321824225
  0
LINE
  8
_1-8_小物
  6
CONTINUOUS
 62
    4
 10
-72.166666666666686
 20
61.404246678175696
 11
-72.354166666666742
 21
61.51249999999996
  0
LINE
  8
_1-8_小物
  6
CONTINUOUS
 62
    4
 10
-71.166666666666799
 20
61.639246678175653
 11
-72.166666666666686
 21
61.404246678175696
  0
LINE
  8
_1-8_小物
  6
CONTINUOUS
 62
    4
 10
-70.979166666666742
 20
61.747499999999945
 11
-72.354166666666742
 21
61.51249999999996
  0
LINE
  8
_1-8_小物
  6
CONTINUOUS
 62
    4
 10
-72.166666666666629
 20
58.584246678175759
 11
-72.166666666666629
 21
58.330753321824318
  0
LINE
  8
_1-8_小物
  6
CONTINUOUS
 62
    4
 10
-72.166666666666629
 20
59.05424667817573
 11
-72.166666666666629
 21
58.800753321824288
  0
LINE
  8
_1-8_小物
  6
CONTINUOUS
 62
    4
 10
-72.166666666666629
 20
59.524246678175729
 11
-72.166666666666629
 21
59.270753321824316
  0
LINE
  8
_1-8_小物
  6
CONTINUOUS
 62
    4
 10
-72.166666666666629
 20
59.994246678175728
 11
-72.166666666666629
 21
59.740753321824286
  0
LINE
  8
_1-8_小物
  6
CONTINUOUS
 62
    4
 10
-72.166666666666629
 20
60.464246678175698
 11
-72.166666666666629
 21
60.210753321824257
  0
LINE
  8
_1-8_小物
  6
CONTINUOUS
 62
    4
 10
-72.166666666666629
 20
60.934246678175697
 11
-72.166666666666629
 21
60.680753321824255
  0
LINE
  8
_1-8_小物
  6
CONTINUOUS
 62
    4
 10
-72.166666666666629
 20
62.099999999999937
 11
-72.166666666666629
 21
61.620753321824225
  0
LINE
  8
_1-8_小物
  6
CONTINUOUS
 62
    4
 10
-72.166666666666629
 20
61.404246678175696
 11
-72.166666666666629
 21
61.150753321824283
  0
LINE
  8
_1-8_小物
  6
CONTINUOUS
 62
    4
 10
-71.166666666666856
 20
62.099999999999937
 11
-71.166666666666856
 21
61.85575332182421
  0
LINE
  8
_1-8_小物
  6
CONTINUOUS
 62
    4
 10
-71.166666666666856
 20
61.639246678175624
 11
-71.166666666666856
 21
61.385753321824211
  0
LINE
  8
_1-8_小物
  6
CONTINUOUS
 62
    4
 10
-71.166666666666856
 20
61.169246678175682
 11
-71.166666666666856
 21
60.915753321824241
  0
LINE
  8
_1-8_小物
  6
CONTINUOUS
 62
    4
 10
-71.166666666666856
 20
60.699246678175655
 11
-71.166666666666856
 21
60.445753321824242
  0
LINE
  8
_1-8_小物
  6
CONTINUOUS
 62
    4
 10
-71.166666666666856
 20
60.229246678175684
 11
-71.166666666666856
 21
59.975753321824243
  0
LINE
  8
_1-8_小物
  6
CONTINUOUS
 62
    4
 10
-71.166666666666856
 20
59.759246678175714
 11
-71.166666666666856
 21
59.505753321824272
  0
LINE
  8
_1-8_小物
  6
CONTINUOUS
 62
    4
 10
-71.166666666666856
 20
59.289246678175687
 11
-71.166666666666856
 21
59.035753321824274
  0
LINE
  8
_1-8_小物
  6
CONTINUOUS
 62
    4
 10
-71.100000000000193
 20
58.326666666666625
 11
-71.100000000000193
 21
57.329999999999956
  0
LINE
  8
_1-8_小物
  6
CONTINUOUS
 62
    4
 10
-72.233333333333292
 20
58.326666666666625
 11
-71.100000000000193
 21
58.326666666666625
  0
LINE
  8
_1-8_小物
  6
CONTINUOUS
 62
    4
 10
-72.233333333333292
 20
58.326666666666625
 11
-72.233333333333292
 21
57.329999999999956
  0
LINE
  8
_1-8_小物
  6
CONTINUOUS
 62
    4
 10
-72.233333333333292
 20
57.329999999999956
 11
-71.666666666666742
 21
57.002834847459241
  0
LINE
  8
_1-8_小物
  6
CONTINUOUS
 62
    4
 10
-71.100000000000193
 20
57.329999999999956
 11
-71.666666666666742
 21
57.002834847459241
  0
LINE
  8
_1-8_小物
  6
CONTINUOUS
 62
    4
 10
-71.666666666666742
 20
57.118304901297165
 11
-71.200000000000102
 21
57.387735026918932
  0
LINE
  8
_1-8_小物
  6
CONTINUOUS
 62
    4
 10
-71.200000000000102
 20
58.326666666666625
 11
-71.200000000000102
 21
57.387735026918932
  0
LINE
  8
_1-8_小物
  6
CONTINUOUS
 62
    4
 10
-71.666666666666742
 20
57.118304901297165
 11
-71.453599884975631
 21
58.326666666666625
  0
LINE
  8
_1-8_小物
  6
CONTINUOUS
 62
    4
 10
-71.166666666666856
 20
58.819246678175688
 11
-71.166666666666856
 21
58.326666666666625
  0
LINE
  8
_1-8_小物
  6
CONTINUOUS
 62
    4
 10
-71.666666666666742
 20
57.002834847459241
 11
-71.666666666666742
 21
57.118304901297165
  0
LINE
  8
_1-8_小物
  6
CENTER2
 62
    4
 10
-71.666666666666742
 20
62.999999999999943
 11
-71.666666666666742
 21
56.669501514125898
  0
ENDBLK
  0
BLOCK
  2
-032-_31_
 70
   64
 10
0
 20
0
 30
0
  0
ARC
  8
_1-7_カバ__
  6
CONTINUOUS
 62
    4
 10
78.500000002949946
 20
77.500000079466474
 40
0.5
 50
90
 51
180
  0
LINE
  8
_1-7_カバ__
  6
CONTINUOUS
 62
    4
 10
78.500000002949946
 20
78.000000079466474
 11
82.166666669616745
 21
78.000000079466474
  0
ARC
  8
_1-7_カバ__
  6
CONTINUOUS
 62
    4
 10
82.166666669616745
 20
77.500000079466474
 40
0.5
 50
0
 51
90
  0
ARC
  8
_1-7_カバ__
  6
CONTINUOUS
 62
    4
 10
82.166666669616745
 20
77.500000079466474
 40
0.1666666666666666
 50
0
 51
90
  0
LINE
  8
_1-7_カバ__
  6
CONTINUOUS
 62
    4
 10
78.500000002949946
 20
77.66666674613316
 11
82.166666669616745
 21
77.66666674613316
  0
ARC
  8
_1-7_カバ__
  6
CONTINUOUS
 62
    4
 10
78.500000002949946
 20
77.500000079466474
 40
0.1666666666666666
 50
90
 51
180
  0
LINE
  8
_1-7_カバ__
  6
CONTINUOUS
 62
    4
 10
78.000000002949946
 20
74.666666746133217
 11
78.33333333628326
 21
74.666666746133217
  0
LINE
  8
_1-7_カバ__
  6
CONTINUOUS
 62
    4
 10
78.000000002949946
 20
77.500000079466474
 11
78.000000002949946
 21
74.666666746133217
  0
LINE
  8
_1-7_カバ__
  6
CONTINUOUS
 62
    4
 10
78.33333333628326
 20
77.500000079466474
 11
78.33333333628326
 21
74.666666746133217
  0
ARC
  8
_1-7_カバ__
  6
CONTINUOUS
 62
    4
 10
82.833333336283431
 20
62.833333412799846
 40
0.1666666666666666
 50
180
 51
270
  0
LINE
  8
_1-7_カバ__
  6
CENTER2
 62
    4
 10
128.00000000294995
 20
65.333333412799846
 11
128.00000000294995
 21
60.333333412799846
  0
ARC
  8
_1-7_カバ__
  6
CONTINUOUS
 62
    4
 10
144.16666666961657
 20
62.16666674613316
 40
0.5
 50
0
 51
90
  0
LINE
  8
_1-7_カバ__
  6
CONTINUOUS
 62
    4
 10
144.66666666961657
 20
58.500000079466417
 11
144.66666666961657
 21
62.16666674613316
  0
ARC
  8
_1-7_カバ__
  6
CONTINUOUS
 62
    4
 10
144.16666666961657
 20
58.500000079466417
 40
0.5
 50
270
 51
0
  0
ARC
  8
_1-7_カバ__
  6
CONTINUOUS
 62
    4
 10
144.16666666961657
 20
58.500000079466417
 40
0.1666666666666666
 50
270
 51
0
  0
LINE
  8
_1-7_カバ__
  6
CONTINUOUS
 62
    4
 10
144.33333333628326
 20
58.500000079466417
 11
144.33333333628326
 21
62.16666674613316
  0
ARC
  8
_1-7_カバ__
  6
CONTINUOUS
 62
    4
 10
144.16666666961657
 20
62.16666674613316
 40
0.1666666666666666
 50
0
 51
90
  0
LINE
  8
_1-7_カバ__
  6
CONTINUOUS
 62
    4
 10
141.33333333628326
 20
58.000000079466417
 11
141.33333333628326
 21
58.333333412799789
  0
LINE
  8
_1-7_カバ__
  6
CONTINUOUS
 62
    4
 10
144.16666666961657
 20
58.000000079466417
 11
141.33333333628326
 21
58.000000079466417
  0
LINE
  8
_1-7_カバ__
  6
CONTINUOUS
 62
    4
 10
144.16666666961657
 20
58.333333412799789
 11
141.33333333628326
 21
58.333333412799789
  0
LINE
  8
_1-7_カバ__
  6
CONTINUOUS
 62
    4
 10
82.833333336283431
 20
62.66666674613316
 11
144.16666666961657
 21
62.66666674613316
  0
LINE
  8
_1-7_カバ__
  6
CENTER2
 62
    4
 10
91.00000000295006
 20
65.333333412799846
 11
91.00000000295006
 21
60.333333412799846
  0
ARC
  8
_1-7_カバ__
  6
CONTINUOUS
 62
    4
 10
82.833333336283431
 20
62.833333412799846
 40
0.5
 50
180
 51
270
  0
LINE
  8
_1-7_カバ__
  6
CONTINUOUS
 62
    4
 10
82.833333336283431
 20
62.333333412799846
 11
144.16666666961657
 21
62.333333412799846
  0
LINE
  8
_1-7_カバ__
  6
CONTINUOUS
 62
    4
 10
82.666666669616745
 20
77.500000079466474
 11
82.666666669616745
 21
62.833333412799846
  0
LINE
  8
_1-7_カバ__
  6
CONTINUOUS
 62
    4
 10
82.333333336283431
 20
77.500000079466474
 11
82.333333336283431
 21
62.833333412799846
  0
LINE
  8
_1-7_カバ__
  6
DASHED1
 62
    4
 10
128.75000000294995
 20
62.333333412799846
 11
129.08333333628332
 21
62.66666674613316
  0
LINE
  8
_1-7_カバ__
  6
DASHED1
 62
    4
 10
127.25000000294995
 20
62.333333412799846
 11
126.91666666961663
 21
62.66666674613316
  0
LINE
  8
_1-7_カバ__
  6
DASHED1
 62
    4
 10
91.75000000295006
 20
62.333333412799846
 11
92.083333336283431
 21
62.66666674613316
  0
LINE
  8
_1-7_カバ__
  6
DASHED1
 62
    4
 10
90.25000000295006
 20
62.333333412799846
 11
89.916666669616745
 21
62.66666674613316
  0
ENDBLK
  0
BLOCK
  2
-033-_32_
 70
   64
 10
0
 20
0
 30
0
  0
LINE
  8
_1-8_小物
  6
CONTINUOUS
 62
    4
 10
90.00000000295006
 20
62.66666674613316
 11
92.00000000295006
 21
62.66666674613316
  0
LINE
  8
_1-8_小物
  6
CONTINUOUS
 62
    4
 10
92.000000002949946
 20
62.66666674613316
 11
92.000000002949946
 21
62.600000079466469
  0
LINE
  8
_1-8_小物
  6
CONTINUOUS
 62
    4
 10
90.000000002950173
 20
62.600000079466469
 11
90.500000002950173
 21
62.100000079466469
  0
LINE
  8
_1-8_小物
  6
CONTINUOUS
 62
    4
 10
90.500000002950173
 20
62.100000079466469
 11
91.500000002949946
 21
62.100000079466469
  0
LINE
  8
_1-8_小物
  6
CONTINUOUS
 62
    4
 10
92.000000002949946
 20
62.600000079466469
 11
91.500000002949946
 21
62.100000079466469
  0
LINE
  8
_1-8_小物
  6
CONTINUOUS
 62
    4
 10
90.000000002950173
 20
62.600000079466469
 11
90.000000002950173
 21
62.66666674613316
  0
LINE
  8
_1-8_小物
  6
CONTINUOUS
 62
    4
 10
92.000000002949946
 20
62.600000079466469
 11
90.000000002950173
 21
62.600000079466469
  0
LINE
  8
_1-8_小物
  6
CONTINUOUS
 62
    4
 10
91.500000002949946
 20
59.035753401290805
 11
91.68750000295006
 21
58.92750007946654
  0
LINE
  8
_1-8_小物
  6
CONTINUOUS
 62
    4
 10
91.68750000295006
 20
58.92750007946654
 11
91.500000002950003
 21
58.819246757642247
  0
LINE
  8
_1-8_小物
  6
CONTINUOUS
 62
    4
 10
91.500000002949946
 20
59.035753401290805
 11
90.50000000295006
 21
58.80075340129082
  0
LINE
  8
_1-8_小物
  6
CONTINUOUS
 62
    4
 10
90.31250000295006
 20
58.692500079466555
 11
90.50000000295006
 21
58.80075340129082
  0
LINE
  8
_1-8_小物
  6
CONTINUOUS
 62
    4
 10
90.50000000295006
 20
58.584246757642291
 11
90.31250000295006
 21
58.692500079466555
  0
LINE
  8
_1-8_小物
  6
CONTINUOUS
 62
    4
 10
91.500000002950003
 20
58.819246757642247
 11
90.50000000295006
 21
58.584246757642291
  0
LINE
  8
_1-8_小物
  6
CONTINUOUS
 62
    4
 10
91.68750000295006
 20
58.92750007946654
 11
90.31250000295006
 21
58.692500079466555
  0
LINE
  8
_1-8_小物
  6
CONTINUOUS
 62
    4
 10
91.500000002949946
 20
59.505753401290804
 11
91.68750000295006
 21
59.397500079466511
  0
LINE
  8
_1-8_小物
  6
CONTINUOUS
 62
    4
 10
91.68750000295006
 20
59.397500079466511
 11
91.500000002950003
 21
59.289246757642246
  0
LINE
  8
_1-8_小物
  6
CONTINUOUS
 62
    4
 10
91.500000002949946
 20
59.505753401290804
 11
90.50000000295006
 21
59.270753401290818
  0
LINE
  8
_1-8_小物
  6
CONTINUOUS
 62
    4
 10
90.31250000295006
 20
59.162500079466554
 11
90.50000000295006
 21
59.270753401290818
  0
LINE
  8
_1-8_小物
  6
CONTINUOUS
 62
    4
 10
90.50000000295006
 20
59.054246757642261
 11
90.31250000295006
 21
59.162500079466554
  0
LINE
  8
_1-8_小物
  6
CONTINUOUS
 62
    4
 10
91.500000002950003
 20
59.289246757642246
 11
90.50000000295006
 21
59.054246757642261
  0
LINE
  8
_1-8_小物
  6
CONTINUOUS
 62
    4
 10
91.68750000295006
 20
59.397500079466511
 11
90.31250000295006
 21
59.162500079466554
  0
LINE
  8
_1-8_小物
  6
CONTINUOUS
 62
    4
 10
91.500000002949946
 20
59.975753401290774
 11
91.68750000295006
 21
59.86750007946651
  0
LINE
  8
_1-8_小物
  6
CONTINUOUS
 62
    4
 10
91.68750000295006
 20
59.86750007946651
 11
91.500000002950003
 21
59.759246757642245
  0
LINE
  8
_1-8_小物
  6
CONTINUOUS
 62
    4
 10
91.500000002949946
 20
59.975753401290774
 11
90.50000000295006
 21
59.740753401290817
  0
LINE
  8
_1-8_小物
  6
CONTINUOUS
 62
    4
 10
90.31250000295006
 20
59.632500079466524
 11
90.50000000295006
 21
59.740753401290817
  0
LINE
  8
_1-8_小物
  6
CONTINUOUS
 62
    4
 10
90.50000000295006
 20
59.52424675764226
 11
90.31250000295006
 21
59.632500079466524
  0
LINE
  8
_1-8_小物
  6
CONTINUOUS
 62
    4
 10
91.500000002950003
 20
59.759246757642245
 11
90.50000000295006
 21
59.52424675764226
  0
LINE
  8
_1-8_小物
  6
CONTINUOUS
 62
    4
 10
91.68750000295006
 20
59.86750007946651
 11
90.31250000295006
 21
59.632500079466524
  0
LINE
  8
_1-8_小物
  6
CONTINUOUS
 62
    4
 10
91.500000002949946
 20
60.445753401290773
 11
91.68750000295006
 21
60.337500079466508
  0
LINE
  8
_1-8_小物
  6
CONTINUOUS
 62
    4
 10
91.68750000295006
 20
60.337500079466508
 11
91.500000002950003
 21
60.229246757642215
  0
LINE
  8
_1-8_小物
  6
CONTINUOUS
 62
    4
 10
91.500000002949946
 20
60.445753401290773
 11
90.50000000295006
 21
60.210753401290788
  0
LINE
  8
_1-8_小物
  6
CONTINUOUS
 62
    4
 10
90.31250000295006
 20
60.102500079466523
 11
90.50000000295006
 21
60.210753401290788
  0
LINE
  8
_1-8_小物
  6
CONTINUOUS
 62
    4
 10
90.50000000295006
 20
59.994246757642259
 11
90.31250000295006
 21
60.102500079466523
  0
LINE
  8
_1-8_小物
  6
CONTINUOUS
 62
    4
 10
91.500000002950003
 20
60.229246757642215
 11
90.50000000295006
 21
59.994246757642259
  0
LINE
  8
_1-8_小物
  6
CONTINUOUS
 62
    4
 10
91.68750000295006
 20
60.337500079466508
 11
90.31250000295006
 21
60.102500079466523
  0
LINE
  8
_1-8_小物
  6
CONTINUOUS
 62
    4
 10
91.500000002949946
 20
60.915753401290772
 11
91.68750000295006
 21
60.807500079466479
  0
LINE
  8
_1-8_小物
  6
CONTINUOUS
 62
    4
 10
91.68750000295006
 20
60.807500079466479
 11
91.500000002950003
 21
60.699246757642214
  0
LINE
  8
_1-8_小物
  6
CONTINUOUS
 62
    4
 10
91.500000002949946
 20
60.915753401290772
 11
90.50000000295006
 21
60.680753401290787
  0
LINE
  8
_1-8_小物
  6
CONTINUOUS
 62
    4
 10
90.31250000295006
 20
60.572500079466522
 11
90.50000000295006
 21
60.680753401290787
  0
LINE
  8
_1-8_小物
  6
CONTINUOUS
 62
    4
 10
90.50000000295006
 20
60.464246757642229
 11
90.31250000295006
 21
60.572500079466522
  0
LINE
  8
_1-8_小物
  6
CONTINUOUS
 62
    4
 10
91.500000002950003
 20
60.699246757642214
 11
90.50000000295006
 21
60.464246757642229
  0
LINE
  8
_1-8_小物
  6
CONTINUOUS
 62
    4
 10
91.68750000295006
 20
60.807500079466479
 11
90.31250000295006
 21
60.572500079466522
  0
LINE
  8
_1-8_小物
  6
CONTINUOUS
 62
    4
 10
91.500000002949946
 20
61.385753401290742
 11
91.68750000295006
 21
61.277500079466478
  0
LINE
  8
_1-8_小物
  6
CONTINUOUS
 62
    4
 10
91.68750000295006
 20
61.277500079466478
 11
91.500000002950003
 21
61.169246757642213
  0
LINE
  8
_1-8_小物
  6
CONTINUOUS
 62
    4
 10
91.500000002949946
 20
61.385753401290742
 11
90.50000000295006
 21
61.150753401290785
  0
LINE
  8
_1-8_小物
  6
CONTINUOUS
 62
    4
 10
90.31250000295006
 20
61.042500079466492
 11
90.50000000295006
 21
61.150753401290785
  0
LINE
  8
_1-8_小物
  6
CONTINUOUS
 62
    4
 10
90.50000000295006
 20
60.934246757642228
 11
90.31250000295006
 21
61.042500079466492
  0
LINE
  8
_1-8_小物
  6
CONTINUOUS
 62
    4
 10
91.500000002950003
 20
61.169246757642213
 11
90.50000000295006
 21
60.934246757642228
  0
LINE
  8
_1-8_小物
  6
CONTINUOUS
 62
    4
 10
91.68750000295006
 20
61.277500079466478
 11
90.31250000295006
 21
61.042500079466492
  0
LINE
  8
_1-8_小物
  6
CONTINUOUS
 62
    4
 10
91.500000002949946
 20
61.855753401290741
 11
91.68750000295006
 21
61.747500079466477
  0
LINE
  8
_1-8_小物
  6
CONTINUOUS
 62
    4
 10
91.68750000295006
 20
61.747500079466477
 11
91.500000002950003
 21
61.639246757642184
  0
LINE
  8
_1-8_小物
  6
CONTINUOUS
 62
    4
 10
91.500000002949946
 20
61.855753401290741
 11
90.50000000295006
 21
61.620753401290756
  0
LINE
  8
_1-8_小物
  6
CONTINUOUS
 62
    4
 10
90.31250000295006
 20
61.512500079466491
 11
90.50000000295006
 21
61.620753401290756
  0
LINE
  8
_1-8_小物
  6
CONTINUOUS
 62
    4
 10
90.50000000295006
 20
61.404246757642227
 11
90.31250000295006
 21
61.512500079466491
  0
LINE
  8
_1-8_小物
  6
CONTINUOUS
 62
    4
 10
91.500000002950003
 20
61.639246757642184
 11
90.50000000295006
 21
61.404246757642227
  0
LINE
  8
_1-8_小物
  6
CONTINUOUS
 62
    4
 10
91.68750000295006
 20
61.747500079466477
 11
90.31250000295006
 21
61.512500079466491
  0
LINE
  8
_1-8_小物
  6
CONTINUOUS
 62
    4
 10
90.500000002950173
 20
58.584246757642291
 11
90.500000002950173
 21
58.330753401290849
  0
LINE
  8
_1-8_小物
  6
CONTINUOUS
 62
    4
 10
90.500000002950173
 20
59.054246757642261
 11
90.500000002950173
 21
58.80075340129082
  0
LINE
  8
_1-8_小物
  6
CONTINUOUS
 62
    4
 10
90.500000002950173
 20
59.52424675764226
 11
90.500000002950173
 21
59.270753401290847
  0
LINE
  8
_1-8_小物
  6
CONTINUOUS
 62
    4
 10
90.500000002950173
 20
59.994246757642259
 11
90.500000002950173
 21
59.740753401290817
  0
LINE
  8
_1-8_小物
  6
CONTINUOUS
 62
    4
 10
90.500000002950173
 20
60.464246757642229
 11
90.500000002950173
 21
60.210753401290788
  0
LINE
  8
_1-8_小物
  6
CONTINUOUS
 62
    4
 10
90.500000002950173
 20
60.934246757642228
 11
90.500000002950173
 21
60.680753401290787
  0
LINE
  8
_1-8_小物
  6
CONTINUOUS
 62
    4
 10
90.500000002950173
 20
62.100000079466469
 11
90.500000002950173
 21
61.620753401290756
  0
LINE
  8
_1-8_小物
  6
CONTINUOUS
 62
    4
 10
90.500000002950173
 20
61.404246757642227
 11
90.500000002950173
 21
61.150753401290814
  0
LINE
  8
_1-8_小物
  6
CONTINUOUS
 62
    4
 10
91.500000002949946
 20
62.100000079466469
 11
91.500000002949946
 21
61.855753401290741
  0
LINE
  8
_1-8_小物
  6
CONTINUOUS
 62
    4
 10
91.500000002949946
 20
61.639246757642155
 11
91.500000002949946
 21
61.385753401290742
  0
LINE
  8
_1-8_小物
  6
CONTINUOUS
 62
    4
 10
91.500000002949946
 20
61.169246757642213
 11
91.500000002949946
 21
60.915753401290772
  0
LINE
  8
_1-8_小物
  6
CONTINUOUS
 62
    4
 10
91.500000002949946
 20
60.699246757642186
 11
91.500000002949946
 21
60.445753401290773
  0
LINE
  8
_1-8_小物
  6
CONTINUOUS
 62
    4
 10
91.500000002949946
 20
60.229246757642215
 11
91.500000002949946
 21
59.975753401290774
  0
LINE
  8
_1-8_小物
  6
CONTINUOUS
 62
    4
 10
91.500000002949946
 20
59.759246757642245
 11
91.500000002949946
 21
59.505753401290804
  0
LINE
  8
_1-8_小物
  6
CONTINUOUS
 62
    4
 10
91.500000002949946
 20
59.289246757642218
 11
91.500000002949946
 21
59.035753401290805
  0
LINE
  8
_1-8_小物
  6
CONTINUOUS
 62
    4
 10
91.566666669616609
 20
58.326666746133156
 11
91.566666669616609
 21
57.330000079466487
  0
LINE
  8
_1-8_小物
  6
CONTINUOUS
 62
    4
 10
90.433333336283454
 20
58.326666746133156
 11
91.566666669616609
 21
58.326666746133156
  0
LINE
  8
_1-8_小物
  6
CONTINUOUS
 62
    4
 10
90.433333336283454
 20
58.326666746133156
 11
90.433333336283454
 21
57.330000079466487
  0
LINE
  8
_1-8_小物
  6
CONTINUOUS
 62
    4
 10
90.433333336283454
 20
57.330000079466487
 11
91.00000000295006
 21
57.002834926925772
  0
LINE
  8
_1-8_小物
  6
CONTINUOUS
 62
    4
 10
91.566666669616609
 20
57.330000079466487
 11
91.00000000295006
 21
57.002834926925772
  0
LINE
  8
_1-8_小物
  6
CONTINUOUS
 62
    4
 10
91.00000000295006
 20
57.118304980763696
 11
91.4666666696167
 21
57.387735106385463
  0
LINE
  8
_1-8_小物
  6
CONTINUOUS
 62
    4
 10
91.4666666696167
 20
58.326666746133156
 11
91.4666666696167
 21
57.387735106385463
  0
LINE
  8
_1-8_小物
  6
CONTINUOUS
 62
    4
 10
91.00000000295006
 20
57.118304980763696
 11
91.213066784641171
 21
58.326666746133156
  0
LINE
  8
_1-8_小物
  6
CONTINUOUS
 62
    4
 10
91.500000002949946
 20
58.819246757642219
 11
91.500000002949946
 21
58.326666746133156
  0
LINE
  8
_1-8_小物
  6
CONTINUOUS
 62
    4
 10
91.00000000295006
 20
57.002834926925772
 11
91.00000000295006
 21
57.118304980763696
  0
LINE
  8
_1-8_小物
  6
CENTER2
 62
    4
 10
91.00000000295006
 20
63.000000079466474
 11
91.00000000295006
 21
56.669501593592429
  0
ENDBLK
  0
BLOCK
  2
-034-_33_
 70
   64
 10
0
 20
0
 30
0
  0
LINE
  8
_1-8_小物
  6
CONTINUOUS
 62
    4
 10
127.00000000294995
 20
62.66666674613316
 11
129.00000000294995
 21
62.66666674613316
  0
LINE
  8
_1-8_小物
  6
CONTINUOUS
 62
    4
 10
129.00000000294983
 20
62.66666674613316
 11
129.00000000294983
 21
62.600000079466469
  0
LINE
  8
_1-8_小物
  6
CONTINUOUS
 62
    4
 10
127.00000000295006
 20
62.600000079466469
 11
127.50000000295006
 21
62.100000079466469
  0
LINE
  8
_1-8_小物
  6
CONTINUOUS
 62
    4
 10
127.50000000295006
 20
62.100000079466469
 11
128.50000000294983
 21
62.100000079466469
  0
LINE
  8
_1-8_小物
  6
CONTINUOUS
 62
    4
 10
129.00000000294983
 20
62.600000079466469
 11
128.50000000294983
 21
62.100000079466469
  0
LINE
  8
_1-8_小物
  6
CONTINUOUS
 62
    4
 10
127.00000000295006
 20
62.600000079466469
 11
127.00000000295006
 21
62.66666674613316
  0
LINE
  8
_1-8_小物
  6
CONTINUOUS
 62
    4
 10
129.00000000294983
 20
62.600000079466469
 11
127.00000000295006
 21
62.600000079466469
  0
LINE
  8
_1-8_小物
  6
CONTINUOUS
 62
    4
 10
128.50000000294983
 20
59.035753401290805
 11
128.68750000294995
 21
58.92750007946654
  0
LINE
  8
_1-8_小物
  6
CONTINUOUS
 62
    4
 10
128.68750000294995
 20
58.92750007946654
 11
128.50000000294989
 21
58.819246757642247
  0
LINE
  8
_1-8_小物
  6
CONTINUOUS
 62
    4
 10
128.50000000294983
 20
59.035753401290805
 11
127.50000000294995
 21
58.80075340129082
  0
LINE
  8
_1-8_小物
  6
CONTINUOUS
 62
    4
 10
127.31250000294995
 20
58.692500079466555
 11
127.50000000294995
 21
58.80075340129082
  0
LINE
  8
_1-8_小物
  6
CONTINUOUS
 62
    4
 10
127.50000000294995
 20
58.584246757642291
 11
127.31250000294995
 21
58.692500079466555
  0
LINE
  8
_1-8_小物
  6
CONTINUOUS
 62
    4
 10
128.50000000294989
 20
58.819246757642247
 11
127.50000000294995
 21
58.584246757642291
  0
LINE
  8
_1-8_小物
  6
CONTINUOUS
 62
    4
 10
128.68750000294995
 20
58.92750007946654
 11
127.31250000294995
 21
58.692500079466555
  0
LINE
  8
_1-8_小物
  6
CONTINUOUS
 62
    4
 10
128.50000000294983
 20
59.505753401290804
 11
128.68750000294995
 21
59.397500079466511
  0
LINE
  8
_1-8_小物
  6
CONTINUOUS
 62
    4
 10
128.68750000294995
 20
59.397500079466511
 11
128.50000000294989
 21
59.289246757642246
  0
LINE
  8
_1-8_小物
  6
CONTINUOUS
 62
    4
 10
128.50000000294983
 20
59.505753401290804
 11
127.50000000294995
 21
59.270753401290818
  0
LINE
  8
_1-8_小物
  6
CONTINUOUS
 62
    4
 10
127.31250000294995
 20
59.162500079466554
 11
127.50000000294995
 21
59.270753401290818
  0
LINE
  8
_1-8_小物
  6
CONTINUOUS
 62
    4
 10
127.50000000294995
 20
59.054246757642261
 11
127.31250000294995
 21
59.162500079466554
  0
LINE
  8
_1-8_小物
  6
CONTINUOUS
 62
    4
 10
128.50000000294989
 20
59.289246757642246
 11
127.50000000294995
 21
59.054246757642261
  0
LINE
  8
_1-8_小物
  6
CONTINUOUS
 62
    4
 10
128.68750000294995
 20
59.397500079466511
 11
127.31250000294995
 21
59.162500079466554
  0
LINE
  8
_1-8_小物
  6
CONTINUOUS
 62
    4
 10
128.50000000294983
 20
59.975753401290774
 11
128.68750000294995
 21
59.86750007946651
  0
LINE
  8
_1-8_小物
  6
CONTINUOUS
 62
    4
 10
128.68750000294995
 20
59.86750007946651
 11
128.50000000294989
 21
59.759246757642245
  0
LINE
  8
_1-8_小物
  6
CONTINUOUS
 62
    4
 10
128.50000000294983
 20
59.975753401290774
 11
127.50000000294995
 21
59.740753401290817
  0
LINE
  8
_1-8_小物
  6
CONTINUOUS
 62
    4
 10
127.31250000294995
 20
59.632500079466524
 11
127.50000000294995
 21
59.740753401290817
  0
LINE
  8
_1-8_小物
  6
CONTINUOUS
 62
    4
 10
127.50000000294995
 20
59.52424675764226
 11
127.31250000294995
 21
59.632500079466524
  0
LINE
  8
_1-8_小物
  6
CONTINUOUS
 62
    4
 10
128.50000000294989
 20
59.759246757642245
 11
127.50000000294995
 21
59.52424675764226
  0
LINE
  8
_1-8_小物
  6
CONTINUOUS
 62
    4
 10
128.68750000294995
 20
59.86750007946651
 11
127.31250000294995
 21
59.632500079466524
  0
LINE
  8
_1-8_小物
  6
CONTINUOUS
 62
    4
 10
128.50000000294983
 20
60.445753401290773
 11
128.68750000294995
 21
60.337500079466508
  0
LINE
  8
_1-8_小物
  6
CONTINUOUS
 62
    4
 10
128.68750000294995
 20
60.337500079466508
 11
128.50000000294989
 21
60.229246757642215
  0
LINE
  8
_1-8_小物
  6
CONTINUOUS
 62
    4
 10
128.50000000294983
 20
60.445753401290773
 11
127.50000000294995
 21
60.210753401290788
  0
LINE
  8
_1-8_小物
  6
CONTINUOUS
 62
    4
 10
127.31250000294995
 20
60.102500079466523
 11
127.50000000294995
 21
60.210753401290788
  0
LINE
  8
_1-8_小物
  6
CONTINUOUS
 62
    4
 10
127.50000000294995
 20
59.994246757642259
 11
127.31250000294995
 21
60.102500079466523
  0
LINE
  8
_1-8_小物
  6
CONTINUOUS
 62
    4
 10
128.50000000294989
 20
60.229246757642215
 11
127.50000000294995
 21
59.994246757642259
  0
LINE
  8
_1-8_小物
  6
CONTINUOUS
 62
    4
 10
128.68750000294995
 20
60.337500079466508
 11
127.31250000294995
 21
60.102500079466523
  0
LINE
  8
_1-8_小物
  6
CONTINUOUS
 62
    4
 10
128.50000000294983
 20
60.915753401290772
 11
128.68750000294995
 21
60.807500079466479
  0
LINE
  8
_1-8_小物
  6
CONTINUOUS
 62
    4
 10
128.68750000294995
 20
60.807500079466479
 11
128.50000000294989
 21
60.699246757642214
  0
LINE
  8
_1-8_小物
  6
CONTINUOUS
 62
    4
 10
128.50000000294983
 20
60.915753401290772
 11
127.50000000294995
 21
60.680753401290787
  0
LINE
  8
_1-8_小物
  6
CONTINUOUS
 62
    4
 10
127.31250000294995
 20
60.572500079466522
 11
127.50000000294995
 21
60.680753401290787
  0
LINE
  8
_1-8_小物
  6
CONTINUOUS
 62
    4
 10
127.50000000294995
 20
60.464246757642229
 11
127.31250000294995
 21
60.572500079466522
  0
LINE
  8
_1-8_小物
  6
CONTINUOUS
 62
    4
 10
128.50000000294989
 20
60.699246757642214
 11
127.50000000294995
 21
60.464246757642229
  0
LINE
  8
_1-8_小物
  6
CONTINUOUS
 62
    4
 10
128.68750000294995
 20
60.807500079466479
 11
127.31250000294995
 21
60.572500079466522
  0
LINE
  8
_1-8_小物
  6
CONTINUOUS
 62
    4
 10
128.50000000294983
 20
61.385753401290742
 11
128.68750000294995
 21
61.277500079466478
  0
LINE
  8
_1-8_小物
  6
CONTINUOUS
 62
    4
 10
128.68750000294995
 20
61.277500079466478
 11
128.50000000294989
 21
61.169246757642213
  0
LINE
  8
_1-8_小物
  6
CONTINUOUS
 62
    4
 10
128.50000000294983
 20
61.385753401290742
 11
127.50000000294995
 21
61.150753401290785
  0
LINE
  8
_1-8_小物
  6
CONTINUOUS
 62
    4
 10
127.31250000294995
 20
61.042500079466492
 11
127.50000000294995
 21
61.150753401290785
  0
LINE
  8
_1-8_小物
  6
CONTINUOUS
 62
    4
 10
127.50000000294995
 20
60.934246757642228
 11
127.31250000294995
 21
61.042500079466492
  0
LINE
  8
_1-8_小物
  6
CONTINUOUS
 62
    4
 10
128.50000000294989
 20
61.169246757642213
 11
127.50000000294995
 21
60.934246757642228
  0
LINE
  8
_1-8_小物
  6
CONTINUOUS
 62
    4
 10
128.68750000294995
 20
61.277500079466478
 11
127.31250000294995
 21
61.042500079466492
  0
LINE
  8
_1-8_小物
  6
CONTINUOUS
 62
    4
 10
128.50000000294983
 20
61.855753401290741
 11
128.68750000294995
 21
61.747500079466477
  0
LINE
  8
_1-8_小物
  6
CONTINUOUS
 62
    4
 10
128.68750000294995
 20
61.747500079466477
 11
128.50000000294989
 21
61.639246757642184
  0
LINE
  8
_1-8_小物
  6
CONTINUOUS
 62
    4
 10
128.50000000294983
 20
61.855753401290741
 11
127.50000000294995
 21
61.620753401290756
  0
LINE
  8
_1-8_小物
  6
CONTINUOUS
 62
    4
 10
127.31250000294995
 20
61.512500079466491
 11
127.50000000294995
 21
61.620753401290756
  0
LINE
  8
_1-8_小物
  6
CONTINUOUS
 62
    4
 10
127.50000000294995
 20
61.404246757642227
 11
127.31250000294995
 21
61.512500079466491
  0
LINE
  8
_1-8_小物
  6
CONTINUOUS
 62
    4
 10
128.50000000294989
 20
61.639246757642184
 11
127.50000000294995
 21
61.404246757642227
  0
LINE
  8
_1-8_小物
  6
CONTINUOUS
 62
    4
 10
128.68750000294995
 20
61.747500079466477
 11
127.31250000294995
 21
61.512500079466491
  0
LINE
  8
_1-8_小物
  6
CONTINUOUS
 62
    4
 10
127.50000000295006
 20
58.584246757642291
 11
127.50000000295006
 21
58.330753401290849
  0
LINE
  8
_1-8_小物
  6
CONTINUOUS
 62
    4
 10
127.50000000295006
 20
59.054246757642261
 11
127.50000000295006
 21
58.80075340129082
  0
LINE
  8
_1-8_小物
  6
CONTINUOUS
 62
    4
 10
127.50000000295006
 20
59.52424675764226
 11
127.50000000295006
 21
59.270753401290847
  0
LINE
  8
_1-8_小物
  6
CONTINUOUS
 62
    4
 10
127.50000000295006
 20
59.994246757642259
 11
127.50000000295006
 21
59.740753401290817
  0
LINE
  8
_1-8_小物
  6
CONTINUOUS
 62
    4
 10
127.50000000295006
 20
60.464246757642229
 11
127.50000000295006
 21
60.210753401290788
  0
LINE
  8
_1-8_小物
  6
CONTINUOUS
 62
    4
 10
127.50000000295006
 20
60.934246757642228
 11
127.50000000295006
 21
60.680753401290787
  0
LINE
  8
_1-8_小物
  6
CONTINUOUS
 62
    4
 10
127.50000000295006
 20
62.100000079466469
 11
127.50000000295006
 21
61.620753401290756
  0
LINE
  8
_1-8_小物
  6
CONTINUOUS
 62
    4
 10
127.50000000295006
 20
61.404246757642227
 11
127.50000000295006
 21
61.150753401290814
  0
LINE
  8
_1-8_小物
  6
CONTINUOUS
 62
    4
 10
128.50000000294983
 20
62.100000079466469
 11
128.50000000294983
 21
61.855753401290741
  0
LINE
  8
_1-8_小物
  6
CONTINUOUS
 62
    4
 10
128.50000000294983
 20
61.639246757642155
 11
128.50000000294983
 21
61.385753401290742
  0
LINE
  8
_1-8_小物
  6
CONTINUOUS
 62
    4
 10
128.50000000294983
 20
61.169246757642213
 11
128.50000000294983
 21
60.915753401290772
  0
LINE
  8
_1-8_小物
  6
CONTINUOUS
 62
    4
 10
128.50000000294983
 20
60.699246757642186
 11
128.50000000294983
 21
60.445753401290773
  0
LINE
  8
_1-8_小物
  6
CONTINUOUS
 62
    4
 10
128.50000000294983
 20
60.229246757642215
 11
128.50000000294983
 21
59.975753401290774
  0
LINE
  8
_1-8_小物
  6
CONTINUOUS
 62
    4
 10
128.50000000294983
 20
59.759246757642245
 11
128.50000000294983
 21
59.505753401290804
  0
LINE
  8
_1-8_小物
  6
CONTINUOUS
 62
    4
 10
128.50000000294983
 20
59.289246757642218
 11
128.50000000294983
 21
59.035753401290805
  0
LINE
  8
_1-8_小物
  6
CONTINUOUS
 62
    4
 10
128.5666666696165
 20
58.326666746133156
 11
128.5666666696165
 21
57.330000079466487
  0
LINE
  8
_1-8_小物
  6
CONTINUOUS
 62
    4
 10
127.43333333628334
 20
58.326666746133156
 11
128.5666666696165
 21
58.326666746133156
  0
LINE
  8
_1-8_小物
  6
CONTINUOUS
 62
    4
 10
127.43333333628334
 20
58.326666746133156
 11
127.43333333628334
 21
57.330000079466487
  0
LINE
  8
_1-8_小物
  6
CONTINUOUS
 62
    4
 10
127.43333333628334
 20
57.330000079466487
 11
128.00000000294995
 21
57.002834926925772
  0
LINE
  8
_1-8_小物
  6
CONTINUOUS
 62
    4
 10
128.5666666696165
 20
57.330000079466487
 11
128.00000000294995
 21
57.002834926925772
  0
LINE
  8
_1-8_小物
  6
CONTINUOUS
 62
    4
 10
128.00000000294995
 20
57.118304980763696
 11
128.46666666961659
 21
57.387735106385463
  0
LINE
  8
_1-8_小物
  6
CONTINUOUS
 62
    4
 10
128.46666666961659
 20
58.326666746133156
 11
128.46666666961659
 21
57.387735106385463
  0
LINE
  8
_1-8_小物
  6
CONTINUOUS
 62
    4
 10
128.00000000294995
 20
57.118304980763696
 11
128.21306678464106
 21
58.326666746133156
  0
LINE
  8
_1-8_小物
  6
CONTINUOUS
 62
    4
 10
128.50000000294983
 20
58.819246757642219
 11
128.50000000294983
 21
58.326666746133156
  0
LINE
  8
_1-8_小物
  6
CONTINUOUS
 62
    4
 10
128.00000000294995
 20
57.002834926925772
 11
128.00000000294995
 21
57.118304980763696
  0
LINE
  8
_1-8_小物
  6
CENTER2
 62
    4
 10
128.00000000294995
 20
63.000000079466474
 11
128.00000000294995
 21
56.669501593592429
  0
ENDBLK
  0
BLOCK
  2
-035-_34_
 70
   64
 10
0
 20
0
 30
0
  0
ARC
  8
_1-8_小物
  6
CONTINUOUS
 62
    4
 10
141.33333333628326
 20
58.10000007946644
 40
0.0999999999999999
 50
180
 51
270
  0
LINE
  8
_1-8_小物
  6
CONTINUOUS
 62
    4
 10
144.16666666961657
 20
57.333333412799732
 11
144.16666666961657
 21
56.874266026178134
  0
ARC
  8
_1-8_小物
  6
CONTINUOUS
 62
    4
 10
144.00000000294995
 20
57.333333412799732
 40
0.1666666666666666
 50
0
 51
90
  0
LINE
  8
_1-8_小物
  6
CONTINUOUS
 62
    4
 10
144.66666666961657
 20
57.333333412799732
 11
144.66666666961657
 21
56.833333412799732
  0
ARC
  8
_1-8_小物
  6
CONTINUOUS
 62
    4
 10
144.00000000294995
 20
57.333333412799732
 40
0.6666666666666666
 50
0
 51
90
  0
LINE
  8
_1-8_小物
  6
CONTINUOUS
 62
    4
 10
144.00000000294995
 20
57.500000079466417
 11
141.40000000294992
 21
57.500000079466417
  0
ARC
  8
_1-8_小物
  6
CONTINUOUS
 62
    4
 10
141.40000000294992
 20
58.000000079466417
 40
0.5
 50
180
 51
270
  0
ARC
  8
_1-8_小物
  6
CONTINUOUS
 62
    4
 10
143.75464419380523
 20
54.374663006255901
 40
0.4999999999999946
 50
190.63980919808779
 51
350.63980919808859
  0
LINE
  8
_1-8_小物
  6
CONTINUOUS
 62
    4
 10
144.16666666961657
 20
56.874266026178134
 11
143.78539018823085
 21
54.561188705771002
  0
ARC
  8
_1-8_小物
  6
CONTINUOUS
 62
    4
 10
143.75250067481079
 20
54.566610054136959
 40
0.0333333333333333
 50
190.63980919810578
 51
350.63980919806494
  0
ARC
  8
_1-8_小物
  6
CONTINUOUS
 62
    4
 10
143.27814955426459
 20
55.557013571227685
 40
0.25
 50
10.639809198086599
 51
190.6398091980802
  0
LINE
  8
_1-8_小物
  6
CONTINUOUS
 62
    4
 10
143.03244772871085
 20
55.510855008430354
 11
143.26324054269759
 21
54.282345880661182
  0
LINE
  8
_1-8_小物
  6
CONTINUOUS
 62
    4
 10
144.66666666961657
 20
56.833333412799732
 11
144.24798689510567
 21
54.293342780766835
  0
LINE
  8
_1-8_小物
  6
CONTINUOUS
 62
    4
 10
144.00000000294995
 20
58.000000079466417
 11
141.33333333628326
 21
58.000000079466417
  0
ARC
  8
_1-8_小物
  6
CONTINUOUS
 62
    4
 10
143.18822322687492
 20
58.741051526262254
 40
0.1666666666666666
 50
267.2805179600129
 51
357.28051796003143
  0
ARC
  8
_1-8_小物
  6
CONTINUOUS
 62
    4
 10
143.34679451080166
 20
58.566664876918395
 40
0.3333333333333333
 50
267.28051796004149
 51
357.28051796003678
  0
LINE
  8
_1-8_小物
  6
CONTINUOUS
 62
    4
 10
143.67975244407228
 20
58.550849511501326
 11
143.69556780948938
 21
58.88380744477189
  0
ARC
  8
_1-8_小物
  6
CONTINUOUS
 62
    4
 10
143.52908884285404
 20
58.891715127480467
 40
0.1666666666666666
 50
357.28051796004212
 51
177.28051796004218
  0
LINE
  8
_1-8_小物
  6
CONTINUOUS
 62
    4
 10
143.35470219351021
 20
58.733143843553705
 11
143.3626098762187
 21
58.899622810188959
  0
LINE
  8
_1-8_小物
  6
CONTINUOUS
 62
    4
 10
141.23333333628318
 20
58.228481554147606
 11
141.23333333628318
 21
58.10000007946644
  0
LINE
  8
_1-8_小物
  6
CONTINUOUS
 62
    4
 10
143.18031554416632
 20
58.574572559626972
 11
141.24914870170034
 21
58.666302193442561
  0
LINE
  8
_1-8_小物
  6
CONTINUOUS
 62
    4
 10
140.90000000294992
 20
58.333344260171941
 11
140.90000000294992
 21
58.000000079466417
  0
ARC
  8
_1-8_小物
  6
CONTINUOUS
 62
    4
 10
141.33333333628326
 20
58.228481554147606
 40
0.0999999999999999
 50
87.280517960044477
 51
180
  0
ARC
  8
_1-8_小物
  6
CONTINUOUS
 62
    4
 10
141.23333333628318
 20
58.333344260171941
 40
0.3333333333333333
 50
87.280517960022166
 51
180
  0
LINE
  8
_1-8_小物
  6
CONTINUOUS
 62
    4
 10
143.33097914538462
 20
58.233706943647832
 11
141.33807794590837
 21
58.328368934128719
  0
LINE
  8
_1-8_小物
  6
CONTINUOUS
 62
    4
 10
143.52385137981844
 20
55.603172134025073
 11
143.71974043140364
 21
54.560455579097294
  0
ENDBLK
  0
BLOCK
  2
-036-_35_
 70
   64
 10
0
 20
0
 30
0
  0
ARC
  8
_1-8_小物
  6
CONTINUOUS
 62
    4
 10
78.100000002949912
 20
74.666666746133217
 40
0.0999999999999999
 50
180
 51
270
  0
LINE
  8
_1-8_小物
  6
CONTINUOUS
 62
    4
 10
77.333333336283545
 20
77.500000079466645
 11
76.874265949662004
 21
77.500000079466702
  0
ARC
  8
_1-8_小物
  6
CONTINUOUS
 62
    4
 10
77.333333336283545
 20
77.333333412799959
 40
0.1666666666666666
 50
0
 51
90
  0
LINE
  8
_1-8_小物
  6
CONTINUOUS
 62
    4
 10
77.333333336283658
 20
78.000000079466645
 11
76.833333336283658
 21
78.000000079466702
  0
ARC
  8
_1-8_小物
  6
CONTINUOUS
 62
    4
 10
77.333333336283545
 20
77.333333412799959
 40
0.6666666666666666
 50
0
 51
89.999999999990223
  0
LINE
  8
_1-8_小物
  6
CONTINUOUS
 62
    4
 10
77.50000000295023
 20
77.333333412799959
 11
77.500000002949946
 21
74.733333412799993
  0
ARC
  8
_1-8_小物
  6
CONTINUOUS
 62
    4
 10
78.000000002949946
 20
74.733333412799908
 40
0.5
 50
179.99999999999022
 51
269.99999999998698
  0
ARC
  8
_1-8_小物
  6
CONTINUOUS
 62
    4
 10
74.374662929739657
 20
77.087977603655588
 40
0.4999999999999946
 50
99.360190801901751
 51
259.36019080190522
  0
LINE
  8
_1-8_小物
  6
CONTINUOUS
 62
    4
 10
76.874265949662004
 20
77.500000079466702
 11
74.561188629254787
 21
77.118723598081203
  0
ARC
  8
_1-8_小物
  6
CONTINUOUS
 62
    4
 10
74.566609977620715
 20
77.085834084661144
 40
0.0333333333333333
 50
99.360190801894788
 51
259.36019080182814
  0
ARC
  8
_1-8_小物
  6
CONTINUOUS
 62
    4
 10
75.557013494711384
 20
76.611482964114884
 40
0.25
 50
259.36019080189942
 51
79.36019080189817
  0
LINE
  8
_1-8_小物
  6
CONTINUOUS
 62
    4
 10
75.510854931914082
 20
76.36578113856109
 11
74.282345804144882
 21
76.596573952547999
  0
LINE
  8
_1-8_小物
  6
CONTINUOUS
 62
    4
 10
76.833333336283658
 20
78.000000079466702
 11
74.293342704250676
 21
77.58132030495608
  0
LINE
  8
_1-8_小物
  6
CONTINUOUS
 62
    4
 10
78.00000000295023
 20
77.333333412799902
 11
78.000000002949946
 21
74.666666746133217
  0
ARC
  8
_1-8_小物
  6
CONTINUOUS
 62
    4
 10
78.74105144974601
 20
76.521556636724796
 40
0.1666666666666666
 50
92.719482039948559
 51
182.71948203995782
  0
ARC
  8
_1-8_小物
  6
CONTINUOUS
 62
    4
 10
78.566664800402123
 20
76.680127920651586
 40
0.3333333333333333
 50
92.719482039948787
 51
182.71948203995345
  0
LINE
  8
_1-8_小物
  6
CONTINUOUS
 62
    4
 10
78.550849434985139
 20
77.013085853922234
 11
78.883807368255702
 21
77.028901219339247
  0
ARC
  8
_1-8_小物
  6
CONTINUOUS
 62
    4
 10
78.891715050964251
 20
76.862422252703936
 40
0.1666666666666666
 50
272.7194820399481
 51
92.719482039948559
  0
LINE
  8
_1-8_小物
  6
CONTINUOUS
 62
    4
 10
78.733143767037404
 20
76.688035603360106
 11
78.899622733672686
 21
76.695943286068598
  0
LINE
  8
_1-8_小物
  6
CONTINUOUS
 62
    4
 10
78.228481477631078
 20
74.566666746133166
 11
78.100000002949912
 21
74.566666746133166
  0
LINE
  8
_1-8_小物
  6
CONTINUOUS
 62
    4
 10
78.574572483110671
 20
76.513648954016276
 11
78.66630211692609
 21
74.582482111550235
  0
LINE
  8
_1-8_小物
  6
CONTINUOUS
 62
    4
 10
78.333344183655413
 20
74.23333341279988
 11
78.000000002949832
 21
74.233333412799908
  0
ARC
  8
_1-8_小物
  6
CONTINUOUS
 62
    4
 10
78.228481477631078
 20
74.666666746133217
 40
0.0999999999999999
 50
270
 51
2.7194820399718083
  0
ARC
  8
_1-8_小物
  6
CONTINUOUS
 62
    4
 10
78.333344183655413
 20
74.566666746133137
 40
0.3333333333333333
 50
270
 51
2.7194820399681134
  0
LINE
  8
_1-8_小物
  6
CONTINUOUS
 62
    4
 10
78.233706867131559
 20
76.664312555234574
 11
78.32836885761219
 21
74.671411355758352
  0
LINE
  8
_1-8_小物
  6
CONTINUOUS
 62
    4
 10
75.603172057508857
 20
76.857184789668736
 11
74.560455502581021
 21
77.053073841254019
  0
ENDBLK
  0
ENDSEC
  0
SECTION
  2
ENTITIES
  0
LINE
  8
_0-0_図面枠
  6
CONTINUOUS
 62
    6
 10
410.00000000000006
 20
287
 11
10
 21
287.00000000000006
  0
LINE
  8
_0-0_図面枠
  6
CONTINUOUS
 62
    6
 10
410
 20
9.9999999999998863
 11
410.00000000000006
 21
287
  0
LINE
  8
_0-0_図面枠
  6
CONTINUOUS
 62
    6
 10
9.9999999999999147
 20
10
 11
410
 21
9.9999999999998863
  0
LINE
  8
_0-0_図面枠
  6
CONTINUOUS
 62
    6
 10
10
 20
287.00000000000006
 11
9.9999999999999147
 21
10
  0
LINE
  8
ADD_LINE
  6
DOT
 62
    4
 10
0
 20
148.5
 11
420
 21
148.5
  0
LINE
  8
_0-0_図面枠
  6
CONTINUOUS
 62
    6
 10
210
 20
287
 11
210.00000000000003
 21
9.9999999999999432
  0
TEXT
  8
_0-0_図面枠
 62
    4
 10
41.666666666666686
 20
128
 40
3
 41
1
 50
0
  1
（落下防止ワイヤー）
  0
INSERT
  2
-000-
  8
_1-8_小物
 10
210
 20
148.5
 41
1
 42
1
 50
0
  0
LINE
  8
_1-8_小物
  6
CONTINUOUS
 62
    4
 10
157.03985321657842
 20
131.84018902839435
 11
151.17656837665947
 21
130.18752043233465
  0
LINE
  8
_1-8_小物
  6
CONTINUOUS
 62
    4
 10
157.16066740562403
 20
131.35707331101597
 11
151.24647145802518
 21
129.68796469593613
  0
LINE
  8
_1-8_小物
  6
CONTINUOUS
 62
    4
 10
157.03985321657842
 20
127.15981097160562
 11
151.17656837665947
 21
128.81247956766532
  0
LINE
  8
_1-8_小物
  6
CONTINUOUS
 62
    4
 10
157.16066740562403
 20
127.64292668898401
 11
151.24647145802518
 21
129.31203530406384
  0
LINE
  8
_1-8_小物
  6
CONTINUOUS
 62
    4
 10
157.1606675134222
 20
127.64292665856117
 11
157.1606675134222
 21
127.64292665856117
  0
LINE
  8
_1-8_小物
  6
CONTINUOUS
 62
    4
 10
157.1606675134222
 20
127.64292665856117
 11
157.6334904430544
 21
127.54220923628057
  0
LINE
  8
_1-8_小物
  6
CONTINUOUS
 62
    4
 10
157.6334904430544
 20
127.54220923628057
 11
158.1239067754791
 21
127.50097829566566
  0
LINE
  8
_1-8_小物
  6
CONTINUOUS
 62
    4
 10
158.1239067754791
 20
127.50097829566566
 11
158.61701545859825
 21
127.52048661798315
  0
LINE
  8
_1-8_小物
  6
CONTINUOUS
 62
    4
 10
158.61701545859825
 20
127.52048661798315
 11
159.09783363460025
 21
127.60014145273114
  0
LINE
  8
_1-8_小物
  6
CONTINUOUS
 62
    4
 10
159.09783363460025
 20
127.60014145273114
 11
159.55175188651307
 21
127.73752252806307
  0
LINE
  8
_1-8_小物
  6
CONTINUOUS
 62
    4
 10
159.55175188651307
 20
127.73752252806307
 11
159.96497813794605
 21
127.92845558952315
  0
LINE
  8
_1-8_小物
  6
CONTINUOUS
 62
    4
 10
159.96497813794605
 20
127.92845558952315
 11
160.32495671835193
 21
128.16713923265576
  0
LINE
  8
_1-8_小物
  6
CONTINUOUS
 62
    4
 10
160.32495671835193
 20
128.16713923265576
 11
160.62074986072309
 21
128.446321175744
  0
LINE
  8
_1-8_小物
  6
CONTINUOUS
 62
    4
 10
160.62074986072309
 20
128.446321175744
 11
160.84337004010709
 21
128.75751861672009
  0
LINE
  8
_1-8_小物
  6
CONTINUOUS
 62
    4
 10
160.84337004010709
 20
128.75751861672009
 11
160.98605305500459
 21
129.0912759788134
  0
LINE
  8
_1-8_小物
  6
CONTINUOUS
 62
    4
 10
160.98605305500459
 20
129.0912759788134
 11
161.04446355420905
 21
129.43745221346614
  0
LINE
  8
_1-8_小物
  6
CONTINUOUS
 62
    4
 10
161.04446355420905
 20
129.43745221346614
 11
161.01682676425926
 21
129.78552893096199
  0
LINE
  8
_1-8_小物
  6
CONTINUOUS
 62
    4
 10
161.01682676425926
 20
129.78552893096199
 11
160.90398241503294
 21
130.12492999637519
  0
LINE
  8
_1-8_小物
  6
CONTINUOUS
 62
    4
 10
160.90398241503294
 20
130.12492999637519
 11
160.70935922497938
 21
130.44534288007836
  0
LINE
  8
_1-8_小物
  6
CONTINUOUS
 62
    4
 10
160.70935922497938
 20
130.44534288007836
 11
160.43887072124426
 21
130.73703199873694
  0
LINE
  8
_1-8_小物
  6
CONTINUOUS
 62
    4
 10
160.43887072124426
 20
130.73703199873694
 11
160.10073556013975
 21
130.99113452608228
  0
LINE
  8
_1-8_小物
  6
CONTINUOUS
 62
    4
 10
160.10073556013975
 20
130.99113452608228
 11
159.70522780743138
 21
131.19992968540308
  0
LINE
  8
_1-8_小物
  6
CONTINUOUS
 62
    4
 10
159.70522780743138
 20
131.19992968540308
 11
159.26436476604863
 21
131.35707334143885
  0
LINE
  8
_1-8_小物
  6
CONTINUOUS
 62
    4
 10
159.26436476604863
 20
131.35707334143885
 11
158.79154183641643
 21
131.45779076371943
  0
LINE
  8
_1-8_小物
  6
CONTINUOUS
 62
    4
 10
158.79154183641643
 20
131.45779076371943
 11
158.30112550399173
 21
131.49902170433435
  0
LINE
  8
_1-8_小物
  6
CONTINUOUS
 62
    4
 10
158.30112550399173
 20
131.49902170433435
 11
157.80801682087258
 21
131.47951338201685
  0
LINE
  8
_1-8_小物
  6
CONTINUOUS
 62
    4
 10
157.80801682087258
 20
131.47951338201685
 11
157.32719864487058
 21
131.39985854726888
  0
LINE
  8
_1-8_小物
  6
CONTINUOUS
 62
    4
 10
157.32719864487058
 20
131.39985854726888
 11
157.160667405624
 21
131.35707331101594
  0
LINE
  8
_1-8_小物
  6
CONTINUOUS
 62
    4
 10
157.039853303781
 20
127.15981094702609
 11
157.039853303781
 21
127.15981094702609
  0
LINE
  8
_1-8_小物
  6
CONTINUOUS
 62
    4
 10
157.039853303781
 20
127.15981094702609
 11
157.5994947731449
 21
127.04264060375607
  0
LINE
  8
_1-8_小物
  6
CONTINUOUS
 62
    4
 10
157.5994947731449
 20
127.04264060375607
 11
158.1777625865289
 21
127.00013588225708
  0
LINE
  8
_1-8_小物
  6
CONTINUOUS
 62
    4
 10
158.1777625865289
 20
127.00013588225708
 11
158.75708636904091
 21
127.03358826698343
  0
LINE
  8
_1-8_小物
  6
CONTINUOUS
 62
    4
 10
158.75708636904091
 20
127.03358826698343
 11
159.31986366070132
 21
127.14198132415292
  0
LINE
  8
_1-8_小物
  6
CONTINUOUS
 62
    4
 10
159.31986366070132
 20
127.14198132415292
 11
159.84899475828206
 21
127.32202158557301
  0
LINE
  8
_1-8_小物
  6
CONTINUOUS
 62
    4
 10
159.84899475828206
 20
127.32202158557301
 11
160.32840228113639
 21
127.56823861900521
  0
LINE
  8
_1-8_小物
  6
CONTINUOUS
 62
    4
 10
160.32840228113639
 20
127.56823861900521
 11
160.74351967427432
 21
127.87315124448051
  0
LINE
  8
_1-8_小物
  6
CONTINUOUS
 62
    4
 10
160.74351967427432
 20
127.87315124448051
 11
161.08173380576486
 21
128.22749484616708
  0
LINE
  8
_1-8_小物
  6
CONTINUOUS
 62
    4
 10
161.08173380576486
 20
128.22749484616708
 11
161.33276821036728
 21
128.62050287303418
  0
LINE
  8
_1-8_小物
  6
CONTINUOUS
 62
    4
 10
161.33276821036728
 20
128.62050287303418
 11
161.48899533472729
 21
129.04023397505711
  0
LINE
  8
_1-8_小物
  6
CONTINUOUS
 62
    4
 10
161.48899533472729
 20
129.04023397505711
 11
161.54566829672595
 21
129.47393483509512
  0
LINE
  8
_1-8_小物
  6
CONTINUOUS
 62
    4
 10
161.54566829672595
 20
129.47393483509512
 11
161.5010651170908
 21
129.90842767197913
  0
LINE
  8
_1-8_小物
  6
CONTINUOUS
 62
    4
 10
161.5010651170908
 20
129.90842767197913
 11
161.35654104086481
 21
130.33051064072444
  0
LINE
  8
_1-8_小物
  6
CONTINUOUS
 62
    4
 10
161.35654104086481
 20
130.33051064072444
 11
161.11648735897137
 21
130.72735896391001
  0
LINE
  8
_1-8_小物
  6
CONTINUOUS
 62
    4
 10
161.11648735897137
 20
130.72735896391001
 11
160.78819798106178
 21
131.08691460605075
  0
LINE
  8
_1-8_小物
  6
CONTINUOUS
 62
    4
 10
160.78819798106178
 20
131.08691460605075
 11
160.38164781376139
 21
131.3982526509042
  0
LINE
  8
_1-8_小物
  6
CONTINUOUS
 62
    4
 10
160.38164781376139
 20
131.3982526509042
 11
159.9091896781793
 21
131.6519132495221
  0
LINE
  8
_1-8_小物
  6
CONTINUOUS
 62
    4
 10
159.9091896781793
 20
131.6519132495221
 11
159.38517897568983
 21
131.84018905297393
  0
LINE
  8
_1-8_小物
  6
CONTINUOUS
 62
    4
 10
159.38517897568983
 20
131.84018905297393
 11
158.82553750632593
 21
131.95735939624393
  0
LINE
  8
_1-8_小物
  6
CONTINUOUS
 62
    4
 10
158.82553750632593
 20
131.95735939624393
 11
158.24726969294193
 21
131.99986411774293
  0
LINE
  8
_1-8_小物
  6
CONTINUOUS
 62
    4
 10
158.24726969294193
 20
131.99986411774293
 11
157.66794591042992
 21
131.96641173301657
  0
LINE
  8
_1-8_小物
  6
CONTINUOUS
 62
    4
 10
157.66794591042992
 20
131.96641173301657
 11
157.10516861876951
 21
131.85801867584706
  0
LINE
  8
_1-8_小物
  6
CONTINUOUS
 62
    4
 10
157.10516861876951
 20
131.85801867584706
 11
157.03985321657842
 21
131.84018902839435
  0
ARC
  8
_1-8_小物
  6
CONTINUOUS
 62
    4
 10
149.88841540894515
 20
124.49999999999997
 40
5
 50
74.23983426036601
 51
82.444482010074083
  0
ARC
  8
_1-8_小物
  6
CONTINUOUS
 62
    4
 10
149.82008748449641
 20
123.99999999999997
 40
5
 50
74.258588419679057
 51
81.653895699843488
  0
ARC
  8
_1-8_小物
  6
CONTINUOUS
 62
    4
 10
149.82008748449641
 20
135
 40
5
 50
278.34610430015653
 51
285.74141158032086
  0
ARC
  8
_1-8_小物
  6
CONTINUOUS
 62
    4
 10
149.88841540894515
 20
134.5
 40
5
 50
277.55551798992593
 51
285.76016573963392
  0
INSERT
  2
-001-_1_
  8
_1-8_小物
 10
210
 20
148.5
 41
1
 42
1
 50
0
  0
LINE
  8
_1-8_小物
  6
CONTINUOUS
 62
    4
 10
82.718512396225748
 20
131.84018902839435
 11
88.581797236144695
 21
130.18752043233465
  0
LINE
  8
_1-8_小物
  6
CONTINUOUS
 62
    4
 10
82.597698207180116
 20
131.35707331101597
 11
88.511894154779
 21
129.68796469593613
  0
LINE
  8
_1-8_小物
  6
CONTINUOUS
 62
    4
 10
82.718512396225748
 20
127.15981097160562
 11
88.581797236144695
 21
128.81247956766532
  0
LINE
  8
_1-8_小物
  6
CONTINUOUS
 62
    4
 10
82.597698207180116
 20
127.64292668898401
 11
88.511894154779
 21
129.31203530406384
  0
LINE
  8
_1-8_小物
  6
CONTINUOUS
 62
    4
 10
82.597698207180201
 20
131.35707331101594
 11
82.597698207180201
 21
131.35707331101594
  0
LINE
  8
_1-8_小物
  6
CONTINUOUS
 62
    4
 10
82.597698207180201
 20
131.35707331101594
 11
82.124875283394388
 21
131.45779074697211
  0
LINE
  8
_1-8_小物
  6
CONTINUOUS
 62
    4
 10
82.124875283394388
 20
131.45779074697211
 11
81.634458953363037
 21
131.49902170177148
  0
LINE
  8
_1-8_小物
  6
CONTINUOUS
 62
    4
 10
81.634458953363037
 20
131.49902170177148
 11
81.141350269111499
 21
131.47951339371627
  0
LINE
  8
_1-8_小物
  6
CONTINUOUS
 62
    4
 10
81.141350269111499
 20
131.47951339371627
 11
80.660532088485724
 21
131.39985857287513
  0
LINE
  8
_1-8_小物
  6
CONTINUOUS
 62
    4
 10
80.660532088485724
 20
131.39985857287513
 11
80.206613828598293
 21
131.262477510672
  0
LINE
  8
_1-8_小物
  6
CONTINUOUS
 62
    4
 10
80.206613828598293
 20
131.262477510672
 11
79.79338756608216
 21
131.07154446116377
  0
LINE
  8
_1-8_小物
  6
CONTINUOUS
 62
    4
 10
79.79338756608216
 20
131.07154446116377
 11
79.433408971821308
 21
130.8328608284429
  0
LINE
  8
_1-8_小物
  6
CONTINUOUS
 62
    4
 10
79.433408971821308
 20
130.8328608284429
 11
79.137615813244381
 21
130.55367889390996
  0
LINE
  8
_1-8_小物
  6
CONTINUOUS
 62
    4
 10
79.137615813244381
 20
130.55367889390996
 11
78.914995615796187
 21
130.24248145937278
  0
LINE
  8
_1-8_小物
  6
CONTINUOUS
 62
    4
 10
78.914995615796187
 20
130.24248145937278
 11
78.772312581524943
 21
129.90872410140634
  0
LINE
  8
_1-8_小物
  6
CONTINUOUS
 62
    4
 10
78.772312581524943
 20
129.90872410140634
 11
78.71390206222587
 21
129.56254786844303
  0
LINE
  8
_1-8_小物
  6
CONTINUOUS
 62
    4
 10
78.71390206222587
 20
129.56254786844303
 11
78.741538831970715
 21
129.2144711501478
  0
LINE
  8
_1-8_小物
  6
CONTINUOUS
 62
    4
 10
78.741538831970715
 20
129.2144711501478
 11
78.854383161495676
 21
128.8750700814708
  0
LINE
  8
_1-8_小物
  6
CONTINUOUS
 62
    4
 10
78.854383161495676
 20
128.8750700814708
 11
79.0490063329501
 21
128.55465719213848
  0
LINE
  8
_1-8_小物
  6
CONTINUOUS
 62
    4
 10
79.0490063329501
 20
128.55465719213848
 11
79.319494819753459
 21
128.26296806565651
  0
LINE
  8
_1-8_小物
  6
CONTINUOUS
 62
    4
 10
79.319494819753459
 20
128.26296806565651
 11
79.657629966107976
 21
128.0088655285312
  0
LINE
  8
_1-8_小物
  6
CONTINUOUS
 62
    4
 10
79.657629966107976
 20
128.0088655285312
 11
80.053137706696333
 21
127.80007035777102
  0
LINE
  8
_1-8_小物
  6
CONTINUOUS
 62
    4
 10
80.053137706696333
 20
127.80007035777102
 11
80.494000738957297
 21
127.64292668898406
  0
LINE
  8
_1-8_小物
  6
CONTINUOUS
 62
    4
 10
80.494000738957297
 20
127.64292668898406
 11
80.96682366274311
 21
127.54220925302788
  0
LINE
  8
_1-8_小物
  6
CONTINUOUS
 62
    4
 10
80.96682366274311
 20
127.54220925302788
 11
81.457239992774475
 21
127.50097829822853
  0
LINE
  8
_1-8_小物
  6
CONTINUOUS
 62
    4
 10
81.457239992774475
 20
127.50097829822853
 11
81.950348677026014
 21
127.52048660628371
  0
LINE
  8
_1-8_小物
  6
CONTINUOUS
 62
    4
 10
81.950348677026014
 20
127.52048660628371
 11
82.431166857651789
 21
127.60014142712487
  0
LINE
  8
_1-8_小物
  6
CONTINUOUS
 62
    4
 10
82.431166857651789
 20
127.60014142712487
 11
82.597698099381958
 21
127.64292665856115
  0
LINE
  8
_1-8_小物
  6
CONTINUOUS
 62
    4
 10
82.718512396225748
 20
131.84018902839435
 11
82.718512396225748
 21
131.84018902839435
  0
LINE
  8
_1-8_小物
  6
CONTINUOUS
 62
    4
 10
82.718512396225748
 20
131.84018902839435
 11
82.158870931227966
 21
131.9573593833947
  0
LINE
  8
_1-8_小物
  6
CONTINUOUS
 62
    4
 10
82.158870931227966
 20
131.9573593833947
 11
81.580603119427835
 21
131.99986411701445
  0
LINE
  8
_1-8_小物
  6
CONTINUOUS
 62
    4
 10
81.580603119427835
 20
131.99986411701445
 11
81.001279335669281
 21
131.96641174443101
  0
LINE
  8
_1-8_小物
  6
CONTINUOUS
 62
    4
 10
81.001279335669281
 20
131.96641174443101
 11
80.438502039969819
 21
131.8580186990576
  0
LINE
  8
_1-8_小物
  6
CONTINUOUS
 62
    4
 10
80.438502039969819
 20
131.8580186990576
 11
79.909370935680229
 21
131.67797844872834
  0
LINE
  8
_1-8_小物
  6
CONTINUOUS
 62
    4
 10
79.909370935680229
 20
131.67797844872834
 11
79.429963403651087
 21
131.43176142534475
  0
LINE
  8
_1-8_小物
  6
CONTINUOUS
 62
    4
 10
79.429963403651087
 20
131.43176142534475
 11
79.014845999151206
 21
131.12684880857049
  0
LINE
  8
_1-8_小物
  6
CONTINUOUS
 62
    4
 10
79.014845999151206
 20
131.12684880857049
 11
78.676631854456744
 21
130.77250521397306
  0
LINE
  8
_1-8_小物
  6
CONTINUOUS
 62
    4
 10
78.676631854456744
 20
130.77250521397306
 11
78.425597435209639
 21
130.37949719236775
  0
LINE
  8
_1-8_小物
  6
CONTINUOUS
 62
    4
 10
78.425597435209639
 20
130.37949719236775
 11
78.269370295209171
 21
129.95976609361941
  0
LINE
  8
_1-8_小物
  6
CONTINUOUS
 62
    4
 10
78.269370295209171
 20
129.95976609361941
 11
78.212697317049489
 21
129.52606523476931
  0
LINE
  8
_1-8_小物
  6
CONTINUOUS
 62
    4
 10
78.212697317049489
 20
129.52606523476931
 11
78.257300480494095
 21
129.0915723969504
  0
LINE
  8
_1-8_小物
  6
CONTINUOUS
 62
    4
 10
78.257300480494095
 20
129.0915723969504
 11
78.401824540991996
 21
128.66948942517578
  0
LINE
  8
_1-8_小物
  6
CONTINUOUS
 62
    4
 10
78.401824540991996
 20
128.66948942517578
 11
78.641878208097665
 21
128.27264109695858
  0
LINE
  8
_1-8_小物
  6
CONTINUOUS
 62
    4
 10
78.641878208097665
 20
128.27264109695858
 11
78.970167572609114
 21
127.91308544793674
  0
LINE
  8
_1-8_小物
  6
CONTINUOUS
 62
    4
 10
78.970167572609114
 20
127.91308544793674
 11
79.376717728308108
 21
127.60174739456183
  0
LINE
  8
_1-8_小物
  6
CONTINUOUS
 62
    4
 10
79.376717728308108
 20
127.60174739456183
 11
79.849175854438016
 21
127.34808678604097
  0
LINE
  8
_1-8_小物
  6
CONTINUOUS
 62
    4
 10
79.849175854438016
 20
127.34808678604097
 11
80.37318654991175
 21
127.15981097160564
  0
LINE
  8
_1-8_小物
  6
CONTINUOUS
 62
    4
 10
80.37318654991175
 20
127.15981097160564
 11
80.932828014909546
 21
127.04264061660528
  0
LINE
  8
_1-8_小物
  6
CONTINUOUS
 62
    4
 10
80.932828014909546
 20
127.04264061660528
 11
81.511095826709678
 21
127.00013588298553
  0
LINE
  8
_1-8_小物
  6
CONTINUOUS
 62
    4
 10
81.511095826709678
 20
127.00013588298553
 11
82.090419610468231
 21
127.03358825556899
  0
LINE
  8
_1-8_小物
  6
CONTINUOUS
 62
    4
 10
82.090419610468231
 20
127.03358825556899
 11
82.653196906167693
 21
127.1419813009424
  0
LINE
  8
_1-8_小物
  6
CONTINUOUS
 62
    4
 10
82.653196906167693
 20
127.1419813009424
 11
82.718512309023168
 21
127.15981094702607
  0
ARC
  8
_1-8_小物
  6
CONTINUOUS
 62
    4
 10
89.869950203859005
 20
124.49999999999997
 40
5
 50
97.555517989925761
 51
105.76016573963415
  0
ARC
  8
_1-8_小物
  6
CONTINUOUS
 62
    4
 10
89.938278128307758
 20
123.99999999999997
 40
5
 50
98.346104300156512
 51
105.74141158032096
  0
ARC
  8
_1-8_小物
  6
CONTINUOUS
 62
    4
 10
89.938278128307758
 20
135
 40
5
 50
254.25858841967909
 51
261.65389569984347
  0
ARC
  8
_1-8_小物
  6
CONTINUOUS
 62
    4
 10
89.869950203859005
 20
134.5
 40
5
 50
254.23983426036591
 51
262.44448201007424
  0
LINE
  8
_1-8_小物
  6
CONTINUOUS
 62
    4
 10
91.879182806402085
 20
129.24999999999997
 11
118.21251613973541
 21
129.24999999999997
  0
LINE
  8
_1-8_小物
  6
CONTINUOUS
 62
    4
 10
91.879182806402085
 20
129.75
 11
118.21251613973541
 21
129.75
  0
LINE
  8
_1-8_小物
  6
CONTINUOUS
 62
    4
 10
147.87918280640207
 20
129.24999999999997
 11
121.54584947306876
 21
129.24999999999997
  0
LINE
  8
_1-8_小物
  6
CONTINUOUS
 62
    4
 10
147.87918280640207
 20
129.75
 11
121.54584947306876
 21
129.75
  0
TEXT
  8
_0-0_図面枠
 62
    4
 10
241.66666666666663
 20
128
 40
3
 41
1
 50
0
  1
（落下防止ワイヤー）
  0
INSERT
  2
-002-_2_
  8
_1-8_小物
 10
210
 20
148.5
 41
1
 42
1
 50
0
  0
LINE
  8
_1-8_小物
  6
CONTINUOUS
 62
    4
 10
357.03985321657842
 20
131.84018902839435
 11
351.17656837665947
 21
130.18752043233465
  0
LINE
  8
_1-8_小物
  6
CONTINUOUS
 62
    4
 10
357.16066740562405
 20
131.35707331101597
 11
351.24647145802516
 21
129.68796469593613
  0
LINE
  8
_1-8_小物
  6
CONTINUOUS
 62
    4
 10
357.03985321657842
 20
127.15981097160562
 11
351.17656837665947
 21
128.81247956766532
  0
LINE
  8
_1-8_小物
  6
CONTINUOUS
 62
    4
 10
357.16066740562405
 20
127.64292668898401
 11
351.24647145802516
 21
129.31203530406384
  0
LINE
  8
_1-8_小物
  6
CONTINUOUS
 62
    4
 10
357.1606675134222
 20
127.64292665856115
 11
357.1606675134222
 21
127.64292665856115
  0
LINE
  8
_1-8_小物
  6
CONTINUOUS
 62
    4
 10
357.1606675134222
 20
127.64292665856115
 11
357.63349044305437
 21
127.54220923628056
  0
LINE
  8
_1-8_小物
  6
CONTINUOUS
 62
    4
 10
357.63349044305437
 20
127.54220923628056
 11
358.1239067754791
 21
127.50097829566566
  0
LINE
  8
_1-8_小物
  6
CONTINUOUS
 62
    4
 10
358.1239067754791
 20
127.50097829566566
 11
358.61701545859825
 21
127.52048661798315
  0
LINE
  8
_1-8_小物
  6
CONTINUOUS
 62
    4
 10
358.61701545859825
 20
127.52048661798315
 11
359.09783363460025
 21
127.60014145273114
  0
LINE
  8
_1-8_小物
  6
CONTINUOUS
 62
    4
 10
359.09783363460025
 20
127.60014145273114
 11
359.55175188651305
 21
127.73752252806307
  0
LINE
  8
_1-8_小物
  6
CONTINUOUS
 62
    4
 10
359.55175188651305
 20
127.73752252806307
 11
359.96497813794605
 21
127.92845558952317
  0
LINE
  8
_1-8_小物
  6
CONTINUOUS
 62
    4
 10
359.96497813794605
 20
127.92845558952317
 11
360.32495671835193
 21
128.16713923265576
  0
LINE
  8
_1-8_小物
  6
CONTINUOUS
 62
    4
 10
360.32495671835193
 20
128.16713923265576
 11
360.62074986072309
 21
128.44632117574403
  0
LINE
  8
_1-8_小物
  6
CONTINUOUS
 62
    4
 10
360.62074986072309
 20
128.44632117574403
 11
360.84337004010706
 21
128.75751861672009
  0
LINE
  8
_1-8_小物
  6
CONTINUOUS
 62
    4
 10
360.84337004010706
 20
128.75751861672009
 11
360.98605305500456
 21
129.09127597881343
  0
LINE
  8
_1-8_小物
  6
CONTINUOUS
 62
    4
 10
360.98605305500456
 20
129.09127597881343
 11
361.04446355420902
 21
129.43745221346614
  0
LINE
  8
_1-8_小物
  6
CONTINUOUS
 62
    4
 10
361.04446355420902
 20
129.43745221346614
 11
361.01682676425924
 21
129.78552893096202
  0
LINE
  8
_1-8_小物
  6
CONTINUOUS
 62
    4
 10
361.01682676425924
 20
129.78552893096202
 11
360.90398241503294
 21
130.12492999637522
  0
LINE
  8
_1-8_小物
  6
CONTINUOUS
 62
    4
 10
360.90398241503294
 20
130.12492999637522
 11
360.70935922497932
 21
130.44534288007839
  0
LINE
  8
_1-8_小物
  6
CONTINUOUS
 62
    4
 10
360.70935922497932
 20
130.44534288007839
 11
360.4388707212442
 21
130.73703199873694
  0
LINE
  8
_1-8_小物
  6
CONTINUOUS
 62
    4
 10
360.4388707212442
 20
130.73703199873694
 11
360.1007355601397
 21
130.99113452608228
  0
LINE
  8
_1-8_小物
  6
CONTINUOUS
 62
    4
 10
360.1007355601397
 20
130.99113452608228
 11
359.70522780743136
 21
131.19992968540308
  0
LINE
  8
_1-8_小物
  6
CONTINUOUS
 62
    4
 10
359.70522780743136
 20
131.19992968540308
 11
359.26436476604857
 21
131.35707334143885
  0
LINE
  8
_1-8_小物
  6
CONTINUOUS
 62
    4
 10
359.26436476604857
 20
131.35707334143885
 11
358.7915418364164
 21
131.45779076371943
  0
LINE
  8
_1-8_小物
  6
CONTINUOUS
 62
    4
 10
358.7915418364164
 20
131.45779076371943
 11
358.30112550399167
 21
131.49902170433435
  0
LINE
  8
_1-8_小物
  6
CONTINUOUS
 62
    4
 10
358.30112550399167
 20
131.49902170433435
 11
357.80801682087252
 21
131.47951338201685
  0
LINE
  8
_1-8_小物
  6
CONTINUOUS
 62
    4
 10
357.80801682087252
 20
131.47951338201685
 11
357.32719864487052
 21
131.39985854726888
  0
LINE
  8
_1-8_小物
  6
CONTINUOUS
 62
    4
 10
357.32719864487052
 20
131.39985854726888
 11
357.16066740562394
 21
131.35707331101594
  0
LINE
  8
_1-8_小物
  6
CONTINUOUS
 62
    4
 10
357.039853303781
 20
127.15981094702607
 11
357.039853303781
 21
127.15981094702607
  0
LINE
  8
_1-8_小物
  6
CONTINUOUS
 62
    4
 10
357.039853303781
 20
127.15981094702607
 11
357.5994947731449
 21
127.04264060375607
  0
LINE
  8
_1-8_小物
  6
CONTINUOUS
 62
    4
 10
357.5994947731449
 20
127.04264060375607
 11
358.1777625865289
 21
127.00013588225708
  0
LINE
  8
_1-8_小物
  6
CONTINUOUS
 62
    4
 10
358.1777625865289
 20
127.00013588225708
 11
358.75708636904091
 21
127.03358826698343
  0
LINE
  8
_1-8_小物
  6
CONTINUOUS
 62
    4
 10
358.75708636904091
 20
127.03358826698343
 11
359.31986366070134
 21
127.14198132415294
  0
LINE
  8
_1-8_小物
  6
CONTINUOUS
 62
    4
 10
359.31986366070134
 20
127.14198132415294
 11
359.84899475828206
 21
127.32202158557303
  0
LINE
  8
_1-8_小物
  6
CONTINUOUS
 62
    4
 10
359.84899475828206
 20
127.32202158557303
 11
360.32840228113639
 21
127.56823861900523
  0
LINE
  8
_1-8_小物
  6
CONTINUOUS
 62
    4
 10
360.32840228113639
 20
127.56823861900523
 11
360.7435196742743
 21
127.87315124448052
  0
LINE
  8
_1-8_小物
  6
CONTINUOUS
 62
    4
 10
360.7435196742743
 20
127.87315124448052
 11
361.08173380576483
 21
128.2274948461671
  0
LINE
  8
_1-8_小物
  6
CONTINUOUS
 62
    4
 10
361.08173380576483
 20
128.2274948461671
 11
361.33276821036725
 21
128.62050287303421
  0
LINE
  8
_1-8_小物
  6
CONTINUOUS
 62
    4
 10
361.33276821036725
 20
128.62050287303421
 11
361.48899533472729
 21
129.04023397505713
  0
LINE
  8
_1-8_小物
  6
CONTINUOUS
 62
    4
 10
361.48899533472729
 20
129.04023397505713
 11
361.54566829672592
 21
129.47393483509512
  0
LINE
  8
_1-8_小物
  6
CONTINUOUS
 62
    4
 10
361.54566829672592
 20
129.47393483509512
 11
361.50106511709077
 21
129.90842767197915
  0
LINE
  8
_1-8_小物
  6
CONTINUOUS
 62
    4
 10
361.50106511709077
 20
129.90842767197915
 11
361.35654104086478
 21
130.33051064072447
  0
LINE
  8
_1-8_小物
  6
CONTINUOUS
 62
    4
 10
361.35654104086478
 20
130.33051064072447
 11
361.11648735897131
 21
130.72735896391001
  0
LINE
  8
_1-8_小物
  6
CONTINUOUS
 62
    4
 10
361.11648735897131
 20
130.72735896391001
 11
360.78819798106173
 21
131.08691460605075
  0
LINE
  8
_1-8_小物
  6
CONTINUOUS
 62
    4
 10
360.78819798106173
 20
131.08691460605075
 11
360.38164781376133
 21
131.3982526509042
  0
LINE
  8
_1-8_小物
  6
CONTINUOUS
 62
    4
 10
360.38164781376133
 20
131.3982526509042
 11
359.90918967817925
 21
131.6519132495221
  0
LINE
  8
_1-8_小物
  6
CONTINUOUS
 62
    4
 10
359.90918967817925
 20
131.6519132495221
 11
359.38517897568977
 21
131.84018905297393
  0
LINE
  8
_1-8_小物
  6
CONTINUOUS
 62
    4
 10
359.38517897568977
 20
131.84018905297393
 11
358.82553750632587
 21
131.95735939624393
  0
LINE
  8
_1-8_小物
  6
CONTINUOUS
 62
    4
 10
358.82553750632587
 20
131.95735939624393
 11
358.24726969294187
 21
131.99986411774293
  0
LINE
  8
_1-8_小物
  6
CONTINUOUS
 62
    4
 10
358.24726969294187
 20
131.99986411774293
 11
357.66794591042986
 21
131.96641173301657
  0
LINE
  8
_1-8_小物
  6
CONTINUOUS
 62
    4
 10
357.66794591042986
 20
131.96641173301657
 11
357.10516861876948
 21
131.85801867584706
  0
LINE
  8
_1-8_小物
  6
CONTINUOUS
 62
    4
 10
357.10516861876948
 20
131.85801867584706
 11
357.03985321657842
 21
131.84018902839438
  0
ARC
  8
_1-8_小物
  6
CONTINUOUS
 62
    4
 10
349.88841540894515
 20
124.49999999999997
 40
5
 50
74.239834260366322
 51
82.444482010074083
  0
ARC
  8
_1-8_小物
  6
CONTINUOUS
 62
    4
 10
349.82008748449636
 20
123.99999999999997
 40
5
 50
74.258588419678418
 51
81.653895699842849
  0
ARC
  8
_1-8_小物
  6
CONTINUOUS
 62
    4
 10
349.82008748449636
 20
135
 40
5
 50
278.34610430015715
 51
285.7414115803216
  0
ARC
  8
_1-8_小物
  6
CONTINUOUS
 62
    4
 10
349.88841540894515
 20
134.5
 40
5
 50
277.55551798992593
 51
285.76016573963363
  0
INSERT
  2
-003-_3_
  8
_1-8_小物
 10
210
 20
148.5
 41
1
 42
1
 50
0
  0
LINE
  8
_1-8_小物
  6
CONTINUOUS
 62
    4
 10
282.71851239622572
 20
131.84018902839435
 11
288.58179723614467
 21
130.18752043233465
  0
LINE
  8
_1-8_小物
  6
CONTINUOUS
 62
    4
 10
282.59769820718009
 20
131.35707331101597
 11
288.51189415477899
 21
129.68796469593613
  0
LINE
  8
_1-8_小物
  6
CONTINUOUS
 62
    4
 10
282.71851239622572
 20
127.15981097160562
 11
288.58179723614467
 21
128.81247956766532
  0
LINE
  8
_1-8_小物
  6
CONTINUOUS
 62
    4
 10
282.59769820718009
 20
127.64292668898401
 11
288.51189415477899
 21
129.31203530406384
  0
LINE
  8
_1-8_小物
  6
CONTINUOUS
 62
    4
 10
282.5976982071802
 20
131.35707331101594
 11
282.5976982071802
 21
131.35707331101594
  0
LINE
  8
_1-8_小物
  6
CONTINUOUS
 62
    4
 10
282.5976982071802
 20
131.35707331101594
 11
282.12487528339437
 21
131.45779074697211
  0
LINE
  8
_1-8_小物
  6
CONTINUOUS
 62
    4
 10
282.12487528339437
 20
131.45779074697211
 11
281.63445895336304
 21
131.49902170177148
  0
LINE
  8
_1-8_小物
  6
CONTINUOUS
 62
    4
 10
281.63445895336304
 20
131.49902170177148
 11
281.14135026911151
 21
131.47951339371627
  0
LINE
  8
_1-8_小物
  6
CONTINUOUS
 62
    4
 10
281.14135026911151
 20
131.47951339371627
 11
280.6605320884857
 21
131.39985857287513
  0
LINE
  8
_1-8_小物
  6
CONTINUOUS
 62
    4
 10
280.6605320884857
 20
131.39985857287513
 11
280.20661382859828
 21
131.262477510672
  0
LINE
  8
_1-8_小物
  6
CONTINUOUS
 62
    4
 10
280.20661382859828
 20
131.262477510672
 11
279.79338756608217
 21
131.07154446116377
  0
LINE
  8
_1-8_小物
  6
CONTINUOUS
 62
    4
 10
279.79338756608217
 20
131.07154446116377
 11
279.43340897182128
 21
130.8328608284429
  0
LINE
  8
_1-8_小物
  6
CONTINUOUS
 62
    4
 10
279.43340897182128
 20
130.8328608284429
 11
279.13761581324439
 21
130.55367889390996
  0
LINE
  8
_1-8_小物
  6
CONTINUOUS
 62
    4
 10
279.13761581324439
 20
130.55367889390996
 11
278.91499561579622
 21
130.24248145937278
  0
LINE
  8
_1-8_小物
  6
CONTINUOUS
 62
    4
 10
278.91499561579622
 20
130.24248145937278
 11
278.77231258152494
 21
129.90872410140634
  0
LINE
  8
_1-8_小物
  6
CONTINUOUS
 62
    4
 10
278.77231258152494
 20
129.90872410140634
 11
278.71390206222588
 21
129.56254786844303
  0
LINE
  8
_1-8_小物
  6
CONTINUOUS
 62
    4
 10
278.71390206222588
 20
129.56254786844303
 11
278.74153883197073
 21
129.2144711501478
  0
LINE
  8
_1-8_小物
  6
CONTINUOUS
 62
    4
 10
278.74153883197073
 20
129.2144711501478
 11
278.85438316149566
 21
128.8750700814708
  0
LINE
  8
_1-8_小物
  6
CONTINUOUS
 62
    4
 10
278.85438316149566
 20
128.8750700814708
 11
279.04900633295011
 21
128.55465719213848
  0
LINE
  8
_1-8_小物
  6
CONTINUOUS
 62
    4
 10
279.04900633295011
 20
128.55465719213848
 11
279.31949481975346
 21
128.26296806565651
  0
LINE
  8
_1-8_小物
  6
CONTINUOUS
 62
    4
 10
279.31949481975346
 20
128.26296806565651
 11
279.657629966108
 21
128.0088655285312
  0
LINE
  8
_1-8_小物
  6
CONTINUOUS
 62
    4
 10
279.657629966108
 20
128.0088655285312
 11
280.0531377066963
 21
127.80007035777102
  0
LINE
  8
_1-8_小物
  6
CONTINUOUS
 62
    4
 10
280.0531377066963
 20
127.80007035777102
 11
280.49400073895731
 21
127.64292668898406
  0
LINE
  8
_1-8_小物
  6
CONTINUOUS
 62
    4
 10
280.49400073895731
 20
127.64292668898406
 11
280.96682366274314
 21
127.54220925302788
  0
LINE
  8
_1-8_小物
  6
CONTINUOUS
 62
    4
 10
280.96682366274314
 20
127.54220925302788
 11
281.45723999277448
 21
127.50097829822853
  0
LINE
  8
_1-8_小物
  6
CONTINUOUS
 62
    4
 10
281.45723999277448
 20
127.50097829822853
 11
281.950348677026
 21
127.52048660628371
  0
LINE
  8
_1-8_小物
  6
CONTINUOUS
 62
    4
 10
281.950348677026
 20
127.52048660628371
 11
282.43116685765176
 21
127.60014142712487
  0
LINE
  8
_1-8_小物
  6
CONTINUOUS
 62
    4
 10
282.43116685765176
 20
127.60014142712487
 11
282.59769809938194
 21
127.64292665856115
  0
LINE
  8
_1-8_小物
  6
CONTINUOUS
 62
    4
 10
282.71851239622572
 20
131.84018902839438
 11
282.71851239622572
 21
131.84018902839438
  0
LINE
  8
_1-8_小物
  6
CONTINUOUS
 62
    4
 10
282.71851239622572
 20
131.84018902839438
 11
282.15887093122791
 21
131.9573593833947
  0
LINE
  8
_1-8_小物
  6
CONTINUOUS
 62
    4
 10
282.15887093122791
 20
131.9573593833947
 11
281.58060311942779
 21
131.99986411701445
  0
LINE
  8
_1-8_小物
  6
CONTINUOUS
 62
    4
 10
281.58060311942779
 20
131.99986411701445
 11
281.00127933566927
 21
131.96641174443101
  0
LINE
  8
_1-8_小物
  6
CONTINUOUS
 62
    4
 10
281.00127933566927
 20
131.96641174443101
 11
280.43850203996976
 21
131.8580186990576
  0
LINE
  8
_1-8_小物
  6
CONTINUOUS
 62
    4
 10
280.43850203996976
 20
131.8580186990576
 11
279.90937093568022
 21
131.67797844872834
  0
LINE
  8
_1-8_小物
  6
CONTINUOUS
 62
    4
 10
279.90937093568022
 20
131.67797844872834
 11
279.42996340365107
 21
131.43176142534472
  0
LINE
  8
_1-8_小物
  6
CONTINUOUS
 62
    4
 10
279.42996340365107
 20
131.43176142534472
 11
279.01484599915119
 21
131.12684880857049
  0
LINE
  8
_1-8_小物
  6
CONTINUOUS
 62
    4
 10
279.01484599915119
 20
131.12684880857049
 11
278.67663185445673
 21
130.77250521397303
  0
LINE
  8
_1-8_小物
  6
CONTINUOUS
 62
    4
 10
278.67663185445673
 20
130.77250521397303
 11
278.42559743520962
 21
130.37949719236772
  0
LINE
  8
_1-8_小物
  6
CONTINUOUS
 62
    4
 10
278.42559743520962
 20
130.37949719236772
 11
278.26937029520917
 21
129.95976609361938
  0
LINE
  8
_1-8_小物
  6
CONTINUOUS
 62
    4
 10
278.26937029520917
 20
129.95976609361938
 11
278.2126973170495
 21
129.52606523476928
  0
LINE
  8
_1-8_小物
  6
CONTINUOUS
 62
    4
 10
278.2126973170495
 20
129.52606523476928
 11
278.25730048049411
 21
129.09157239695037
  0
LINE
  8
_1-8_小物
  6
CONTINUOUS
 62
    4
 10
278.25730048049411
 20
129.09157239695037
 11
278.40182454099198
 21
128.66948942517575
  0
LINE
  8
_1-8_小物
  6
CONTINUOUS
 62
    4
 10
278.40182454099198
 20
128.66948942517575
 11
278.64187820809769
 21
128.27264109695858
  0
LINE
  8
_1-8_小物
  6
CONTINUOUS
 62
    4
 10
278.64187820809769
 20
128.27264109695858
 11
278.97016757260911
 21
127.91308544793672
  0
LINE
  8
_1-8_小物
  6
CONTINUOUS
 62
    4
 10
278.97016757260911
 20
127.91308544793672
 11
279.37671772830811
 21
127.60174739456181
  0
LINE
  8
_1-8_小物
  6
CONTINUOUS
 62
    4
 10
279.37671772830811
 20
127.60174739456181
 11
279.84917585443804
 21
127.34808678604097
  0
LINE
  8
_1-8_小物
  6
CONTINUOUS
 62
    4
 10
279.84917585443804
 20
127.34808678604097
 11
280.37318654991179
 21
127.15981097160564
  0
LINE
  8
_1-8_小物
  6
CONTINUOUS
 62
    4
 10
280.37318654991179
 20
127.15981097160564
 11
280.93282801490955
 21
127.04264061660528
  0
LINE
  8
_1-8_小物
  6
CONTINUOUS
 62
    4
 10
280.93282801490955
 20
127.04264061660528
 11
281.51109582670972
 21
127.00013588298553
  0
LINE
  8
_1-8_小物
  6
CONTINUOUS
 62
    4
 10
281.51109582670972
 20
127.00013588298553
 11
282.09041961046825
 21
127.03358825556899
  0
LINE
  8
_1-8_小物
  6
CONTINUOUS
 62
    4
 10
282.09041961046825
 20
127.03358825556899
 11
282.65319690616769
 21
127.14198130094242
  0
LINE
  8
_1-8_小物
  6
CONTINUOUS
 62
    4
 10
282.65319690616769
 20
127.14198130094242
 11
282.71851230902314
 21
127.15981094702607
  0
ARC
  8
_1-8_小物
  6
CONTINUOUS
 62
    4
 10
289.86995020385899
 20
124.49999999999997
 40
5
 50
97.555517989925917
 51
105.76016573963432
  0
ARC
  8
_1-8_小物
  6
CONTINUOUS
 62
    4
 10
289.93827812830773
 20
123.99999999999997
 40
5
 50
98.346104300156512
 51
105.74141158032096
  0
ARC
  8
_1-8_小物
  6
CONTINUOUS
 62
    4
 10
289.93827812830773
 20
135
 40
5
 50
254.25858841967909
 51
261.65389569984347
  0
ARC
  8
_1-8_小物
  6
CONTINUOUS
 62
    4
 10
289.86995020385899
 20
134.5
 40
5
 50
254.23983426036577
 51
262.44448201007407
  0
LINE
  8
_1-8_小物
  6
CONTINUOUS
 62
    4
 10
291.87918280640207
 20
129.24999999999997
 11
318.21251613973538
 21
129.24999999999997
  0
LINE
  8
_1-8_小物
  6
CONTINUOUS
 62
    4
 10
291.87918280640207
 20
129.75
 11
318.21251613973538
 21
129.75
  0
LINE
  8
_1-8_小物
  6
CONTINUOUS
 62
    4
 10
347.87918280640207
 20
129.24999999999997
 11
321.54584947306876
 21
129.24999999999997
  0
LINE
  8
_1-8_小物
  6
CONTINUOUS
 62
    4
 10
347.87918280640207
 20
129.75
 11
321.54584947306876
 21
129.75
  0
TEXT
  8
_0-0_図面枠
 62
    4
 10
41.666666666666686
 20
128
 40
3
 41
1
 50
0
  1
（落下防止ワイヤー）
  0
INSERT
  2
-004-
  8
_1-8_小物
 10
210
 20
148.5
 41
1
 42
1
 50
0
  0
LINE
  8
_1-8_小物
  6
CONTINUOUS
 62
    4
 10
157.03985321657842
 20
131.84018902839435
 11
151.17656837665947
 21
130.18752043233465
  0
LINE
  8
_1-8_小物
  6
CONTINUOUS
 62
    4
 10
157.16066740562403
 20
131.35707331101597
 11
151.24647145802518
 21
129.68796469593613
  0
LINE
  8
_1-8_小物
  6
CONTINUOUS
 62
    4
 10
157.03985321657842
 20
127.15981097160562
 11
151.17656837665947
 21
128.81247956766532
  0
LINE
  8
_1-8_小物
  6
CONTINUOUS
 62
    4
 10
157.16066740562403
 20
127.64292668898401
 11
151.24647145802518
 21
129.31203530406384
  0
LINE
  8
_1-8_小物
  6
CONTINUOUS
 62
    4
 10
157.1606675134222
 20
127.64292665856117
 11
157.1606675134222
 21
127.64292665856117
  0
LINE
  8
_1-8_小物
  6
CONTINUOUS
 62
    4
 10
157.1606675134222
 20
127.64292665856117
 11
157.6334904430544
 21
127.54220923628057
  0
LINE
  8
_1-8_小物
  6
CONTINUOUS
 62
    4
 10
157.6334904430544
 20
127.54220923628057
 11
158.1239067754791
 21
127.50097829566566
  0
LINE
  8
_1-8_小物
  6
CONTINUOUS
 62
    4
 10
158.1239067754791
 20
127.50097829566566
 11
158.61701545859825
 21
127.52048661798315
  0
LINE
  8
_1-8_小物
  6
CONTINUOUS
 62
    4
 10
158.61701545859825
 20
127.52048661798315
 11
159.09783363460025
 21
127.60014145273114
  0
LINE
  8
_1-8_小物
  6
CONTINUOUS
 62
    4
 10
159.09783363460025
 20
127.60014145273114
 11
159.55175188651307
 21
127.73752252806307
  0
LINE
  8
_1-8_小物
  6
CONTINUOUS
 62
    4
 10
159.55175188651307
 20
127.73752252806307
 11
159.96497813794605
 21
127.92845558952315
  0
LINE
  8
_1-8_小物
  6
CONTINUOUS
 62
    4
 10
159.96497813794605
 20
127.92845558952315
 11
160.32495671835193
 21
128.16713923265576
  0
LINE
  8
_1-8_小物
  6
CONTINUOUS
 62
    4
 10
160.32495671835193
 20
128.16713923265576
 11
160.62074986072309
 21
128.446321175744
  0
LINE
  8
_1-8_小物
  6
CONTINUOUS
 62
    4
 10
160.62074986072309
 20
128.446321175744
 11
160.84337004010709
 21
128.75751861672009
  0
LINE
  8
_1-8_小物
  6
CONTINUOUS
 62
    4
 10
160.84337004010709
 20
128.75751861672009
 11
160.98605305500459
 21
129.0912759788134
  0
LINE
  8
_1-8_小物
  6
CONTINUOUS
 62
    4
 10
160.98605305500459
 20
129.0912759788134
 11
161.04446355420905
 21
129.43745221346614
  0
LINE
  8
_1-8_小物
  6
CONTINUOUS
 62
    4
 10
161.04446355420905
 20
129.43745221346614
 11
161.01682676425926
 21
129.78552893096199
  0
LINE
  8
_1-8_小物
  6
CONTINUOUS
 62
    4
 10
161.01682676425926
 20
129.78552893096199
 11
160.90398241503294
 21
130.12492999637519
  0
LINE
  8
_1-8_小物
  6
CONTINUOUS
 62
    4
 10
160.90398241503294
 20
130.12492999637519
 11
160.70935922497938
 21
130.44534288007836
  0
LINE
  8
_1-8_小物
  6
CONTINUOUS
 62
    4
 10
160.70935922497938
 20
130.44534288007836
 11
160.43887072124426
 21
130.73703199873694
  0
LINE
  8
_1-8_小物
  6
CONTINUOUS
 62
    4
 10
160.43887072124426
 20
130.73703199873694
 11
160.10073556013975
 21
130.99113452608228
  0
LINE
  8
_1-8_小物
  6
CONTINUOUS
 62
    4
 10
160.10073556013975
 20
130.99113452608228
 11
159.70522780743138
 21
131.19992968540308
  0
LINE
  8
_1-8_小物
  6
CONTINUOUS
 62
    4
 10
159.70522780743138
 20
131.19992968540308
 11
159.26436476604863
 21
131.35707334143885
  0
LINE
  8
_1-8_小物
  6
CONTINUOUS
 62
    4
 10
159.26436476604863
 20
131.35707334143885
 11
158.79154183641643
 21
131.45779076371943
  0
LINE
  8
_1-8_小物
  6
CONTINUOUS
 62
    4
 10
158.79154183641643
 20
131.45779076371943
 11
158.30112550399173
 21
131.49902170433435
  0
LINE
  8
_1-8_小物
  6
CONTINUOUS
 62
    4
 10
158.30112550399173
 20
131.49902170433435
 11
157.80801682087258
 21
131.47951338201685
  0
LINE
  8
_1-8_小物
  6
CONTINUOUS
 62
    4
 10
157.80801682087258
 20
131.47951338201685
 11
157.32719864487058
 21
131.39985854726888
  0
LINE
  8
_1-8_小物
  6
CONTINUOUS
 62
    4
 10
157.32719864487058
 20
131.39985854726888
 11
157.160667405624
 21
131.35707331101594
  0
LINE
  8
_1-8_小物
  6
CONTINUOUS
 62
    4
 10
157.039853303781
 20
127.15981094702609
 11
157.039853303781
 21
127.15981094702609
  0
LINE
  8
_1-8_小物
  6
CONTINUOUS
 62
    4
 10
157.039853303781
 20
127.15981094702609
 11
157.5994947731449
 21
127.04264060375607
  0
LINE
  8
_1-8_小物
  6
CONTINUOUS
 62
    4
 10
157.5994947731449
 20
127.04264060375607
 11
158.1777625865289
 21
127.00013588225708
  0
LINE
  8
_1-8_小物
  6
CONTINUOUS
 62
    4
 10
158.1777625865289
 20
127.00013588225708
 11
158.75708636904091
 21
127.03358826698343
  0
LINE
  8
_1-8_小物
  6
CONTINUOUS
 62
    4
 10
158.75708636904091
 20
127.03358826698343
 11
159.31986366070132
 21
127.14198132415292
  0
LINE
  8
_1-8_小物
  6
CONTINUOUS
 62
    4
 10
159.31986366070132
 20
127.14198132415292
 11
159.84899475828206
 21
127.32202158557301
  0
LINE
  8
_1-8_小物
  6
CONTINUOUS
 62
    4
 10
159.84899475828206
 20
127.32202158557301
 11
160.32840228113639
 21
127.56823861900521
  0
LINE
  8
_1-8_小物
  6
CONTINUOUS
 62
    4
 10
160.32840228113639
 20
127.56823861900521
 11
160.74351967427432
 21
127.87315124448051
  0
LINE
  8
_1-8_小物
  6
CONTINUOUS
 62
    4
 10
160.74351967427432
 20
127.87315124448051
 11
161.08173380576486
 21
128.22749484616708
  0
LINE
  8
_1-8_小物
  6
CONTINUOUS
 62
    4
 10
161.08173380576486
 20
128.22749484616708
 11
161.33276821036728
 21
128.62050287303418
  0
LINE
  8
_1-8_小物
  6
CONTINUOUS
 62
    4
 10
161.33276821036728
 20
128.62050287303418
 11
161.48899533472729
 21
129.04023397505711
  0
LINE
  8
_1-8_小物
  6
CONTINUOUS
 62
    4
 10
161.48899533472729
 20
129.04023397505711
 11
161.54566829672595
 21
129.47393483509512
  0
LINE
  8
_1-8_小物
  6
CONTINUOUS
 62
    4
 10
161.54566829672595
 20
129.47393483509512
 11
161.5010651170908
 21
129.90842767197913
  0
LINE
  8
_1-8_小物
  6
CONTINUOUS
 62
    4
 10
161.5010651170908
 20
129.90842767197913
 11
161.35654104086481
 21
130.33051064072444
  0
LINE
  8
_1-8_小物
  6
CONTINUOUS
 62
    4
 10
161.35654104086481
 20
130.33051064072444
 11
161.11648735897137
 21
130.72735896391001
  0
LINE
  8
_1-8_小物
  6
CONTINUOUS
 62
    4
 10
161.11648735897137
 20
130.72735896391001
 11
160.78819798106178
 21
131.08691460605075
  0
LINE
  8
_1-8_小物
  6
CONTINUOUS
 62
    4
 10
160.78819798106178
 20
131.08691460605075
 11
160.38164781376139
 21
131.3982526509042
  0
LINE
  8
_1-8_小物
  6
CONTINUOUS
 62
    4
 10
160.38164781376139
 20
131.3982526509042
 11
159.9091896781793
 21
131.6519132495221
  0
LINE
  8
_1-8_小物
  6
CONTINUOUS
 62
    4
 10
159.9091896781793
 20
131.6519132495221
 11
159.38517897568983
 21
131.84018905297393
  0
LINE
  8
_1-8_小物
  6
CONTINUOUS
 62
    4
 10
159.38517897568983
 20
131.84018905297393
 11
158.82553750632593
 21
131.95735939624393
  0
LINE
  8
_1-8_小物
  6
CONTINUOUS
 62
    4
 10
158.82553750632593
 20
131.95735939624393
 11
158.24726969294193
 21
131.99986411774293
  0
LINE
  8
_1-8_小物
  6
CONTINUOUS
 62
    4
 10
158.24726969294193
 20
131.99986411774293
 11
157.66794591042992
 21
131.96641173301657
  0
LINE
  8
_1-8_小物
  6
CONTINUOUS
 62
    4
 10
157.66794591042992
 20
131.96641173301657
 11
157.10516861876951
 21
131.85801867584706
  0
LINE
  8
_1-8_小物
  6
CONTINUOUS
 62
    4
 10
157.10516861876951
 20
131.85801867584706
 11
157.03985321657842
 21
131.84018902839435
  0
ARC
  8
_1-8_小物
  6
CONTINUOUS
 62
    4
 10
149.88841540894515
 20
124.49999999999997
 40
5
 50
74.23983426036601
 51
82.444482010074083
  0
ARC
  8
_1-8_小物
  6
CONTINUOUS
 62
    4
 10
149.82008748449641
 20
123.99999999999997
 40
5
 50
74.258588419679057
 51
81.653895699843488
  0
ARC
  8
_1-8_小物
  6
CONTINUOUS
 62
    4
 10
149.82008748449641
 20
135
 40
5
 50
278.34610430015653
 51
285.74141158032086
  0
ARC
  8
_1-8_小物
  6
CONTINUOUS
 62
    4
 10
149.88841540894515
 20
134.5
 40
5
 50
277.55551798992593
 51
285.76016573963392
  0
INSERT
  2
-005-_4_
  8
_1-8_小物
 10
210
 20
148.5
 41
1
 42
1
 50
0
  0
LINE
  8
_1-8_小物
  6
CONTINUOUS
 62
    4
 10
82.718512396225748
 20
131.84018902839435
 11
88.581797236144695
 21
130.18752043233465
  0
LINE
  8
_1-8_小物
  6
CONTINUOUS
 62
    4
 10
82.597698207180116
 20
131.35707331101597
 11
88.511894154779
 21
129.68796469593613
  0
LINE
  8
_1-8_小物
  6
CONTINUOUS
 62
    4
 10
82.718512396225748
 20
127.15981097160562
 11
88.581797236144695
 21
128.81247956766532
  0
LINE
  8
_1-8_小物
  6
CONTINUOUS
 62
    4
 10
82.597698207180116
 20
127.64292668898401
 11
88.511894154779
 21
129.31203530406384
  0
LINE
  8
_1-8_小物
  6
CONTINUOUS
 62
    4
 10
82.597698207180201
 20
131.35707331101594
 11
82.597698207180201
 21
131.35707331101594
  0
LINE
  8
_1-8_小物
  6
CONTINUOUS
 62
    4
 10
82.597698207180201
 20
131.35707331101594
 11
82.124875283394388
 21
131.45779074697211
  0
LINE
  8
_1-8_小物
  6
CONTINUOUS
 62
    4
 10
82.124875283394388
 20
131.45779074697211
 11
81.634458953363037
 21
131.49902170177148
  0
LINE
  8
_1-8_小物
  6
CONTINUOUS
 62
    4
 10
81.634458953363037
 20
131.49902170177148
 11
81.141350269111499
 21
131.47951339371627
  0
LINE
  8
_1-8_小物
  6
CONTINUOUS
 62
    4
 10
81.141350269111499
 20
131.47951339371627
 11
80.660532088485724
 21
131.39985857287513
  0
LINE
  8
_1-8_小物
  6
CONTINUOUS
 62
    4
 10
80.660532088485724
 20
131.39985857287513
 11
80.206613828598293
 21
131.262477510672
  0
LINE
  8
_1-8_小物
  6
CONTINUOUS
 62
    4
 10
80.206613828598293
 20
131.262477510672
 11
79.79338756608216
 21
131.07154446116377
  0
LINE
  8
_1-8_小物
  6
CONTINUOUS
 62
    4
 10
79.79338756608216
 20
131.07154446116377
 11
79.433408971821308
 21
130.8328608284429
  0
LINE
  8
_1-8_小物
  6
CONTINUOUS
 62
    4
 10
79.433408971821308
 20
130.8328608284429
 11
79.137615813244381
 21
130.55367889390996
  0
LINE
  8
_1-8_小物
  6
CONTINUOUS
 62
    4
 10
79.137615813244381
 20
130.55367889390996
 11
78.914995615796187
 21
130.24248145937278
  0
LINE
  8
_1-8_小物
  6
CONTINUOUS
 62
    4
 10
78.914995615796187
 20
130.24248145937278
 11
78.772312581524943
 21
129.90872410140634
  0
LINE
  8
_1-8_小物
  6
CONTINUOUS
 62
    4
 10
78.772312581524943
 20
129.90872410140634
 11
78.71390206222587
 21
129.56254786844303
  0
LINE
  8
_1-8_小物
  6
CONTINUOUS
 62
    4
 10
78.71390206222587
 20
129.56254786844303
 11
78.741538831970715
 21
129.2144711501478
  0
LINE
  8
_1-8_小物
  6
CONTINUOUS
 62
    4
 10
78.741538831970715
 20
129.2144711501478
 11
78.854383161495676
 21
128.8750700814708
  0
LINE
  8
_1-8_小物
  6
CONTINUOUS
 62
    4
 10
78.854383161495676
 20
128.8750700814708
 11
79.0490063329501
 21
128.55465719213848
  0
LINE
  8
_1-8_小物
  6
CONTINUOUS
 62
    4
 10
79.0490063329501
 20
128.55465719213848
 11
79.319494819753459
 21
128.26296806565651
  0
LINE
  8
_1-8_小物
  6
CONTINUOUS
 62
    4
 10
79.319494819753459
 20
128.26296806565651
 11
79.657629966107976
 21
128.0088655285312
  0
LINE
  8
_1-8_小物
  6
CONTINUOUS
 62
    4
 10
79.657629966107976
 20
128.0088655285312
 11
80.053137706696333
 21
127.80007035777102
  0
LINE
  8
_1-8_小物
  6
CONTINUOUS
 62
    4
 10
80.053137706696333
 20
127.80007035777102
 11
80.494000738957297
 21
127.64292668898406
  0
LINE
  8
_1-8_小物
  6
CONTINUOUS
 62
    4
 10
80.494000738957297
 20
127.64292668898406
 11
80.96682366274311
 21
127.54220925302788
  0
LINE
  8
_1-8_小物
  6
CONTINUOUS
 62
    4
 10
80.96682366274311
 20
127.54220925302788
 11
81.457239992774475
 21
127.50097829822853
  0
LINE
  8
_1-8_小物
  6
CONTINUOUS
 62
    4
 10
81.457239992774475
 20
127.50097829822853
 11
81.950348677026014
 21
127.52048660628371
  0
LINE
  8
_1-8_小物
  6
CONTINUOUS
 62
    4
 10
81.950348677026014
 20
127.52048660628371
 11
82.431166857651789
 21
127.60014142712487
  0
LINE
  8
_1-8_小物
  6
CONTINUOUS
 62
    4
 10
82.431166857651789
 20
127.60014142712487
 11
82.597698099381958
 21
127.64292665856115
  0
LINE
  8
_1-8_小物
  6
CONTINUOUS
 62
    4
 10
82.718512396225748
 20
131.84018902839435
 11
82.718512396225748
 21
131.84018902839435
  0
LINE
  8
_1-8_小物
  6
CONTINUOUS
 62
    4
 10
82.718512396225748
 20
131.84018902839435
 11
82.158870931227966
 21
131.9573593833947
  0
LINE
  8
_1-8_小物
  6
CONTINUOUS
 62
    4
 10
82.158870931227966
 20
131.9573593833947
 11
81.580603119427835
 21
131.99986411701445
  0
LINE
  8
_1-8_小物
  6
CONTINUOUS
 62
    4
 10
81.580603119427835
 20
131.99986411701445
 11
81.001279335669281
 21
131.96641174443101
  0
LINE
  8
_1-8_小物
  6
CONTINUOUS
 62
    4
 10
81.001279335669281
 20
131.96641174443101
 11
80.438502039969819
 21
131.8580186990576
  0
LINE
  8
_1-8_小物
  6
CONTINUOUS
 62
    4
 10
80.438502039969819
 20
131.8580186990576
 11
79.909370935680229
 21
131.67797844872834
  0
LINE
  8
_1-8_小物
  6
CONTINUOUS
 62
    4
 10
79.909370935680229
 20
131.67797844872834
 11
79.429963403651087
 21
131.43176142534475
  0
LINE
  8
_1-8_小物
  6
CONTINUOUS
 62
    4
 10
79.429963403651087
 20
131.43176142534475
 11
79.014845999151206
 21
131.12684880857049
  0
LINE
  8
_1-8_小物
  6
CONTINUOUS
 62
    4
 10
79.014845999151206
 20
131.12684880857049
 11
78.676631854456744
 21
130.77250521397306
  0
LINE
  8
_1-8_小物
  6
CONTINUOUS
 62
    4
 10
78.676631854456744
 20
130.77250521397306
 11
78.425597435209639
 21
130.37949719236775
  0
LINE
  8
_1-8_小物
  6
CONTINUOUS
 62
    4
 10
78.425597435209639
 20
130.37949719236775
 11
78.269370295209171
 21
129.95976609361941
  0
LINE
  8
_1-8_小物
  6
CONTINUOUS
 62
    4
 10
78.269370295209171
 20
129.95976609361941
 11
78.212697317049489
 21
129.52606523476931
  0
LINE
  8
_1-8_小物
  6
CONTINUOUS
 62
    4
 10
78.212697317049489
 20
129.52606523476931
 11
78.257300480494095
 21
129.0915723969504
  0
LINE
  8
_1-8_小物
  6
CONTINUOUS
 62
    4
 10
78.257300480494095
 20
129.0915723969504
 11
78.401824540991996
 21
128.66948942517578
  0
LINE
  8
_1-8_小物
  6
CONTINUOUS
 62
    4
 10
78.401824540991996
 20
128.66948942517578
 11
78.641878208097665
 21
128.27264109695858
  0
LINE
  8
_1-8_小物
  6
CONTINUOUS
 62
    4
 10
78.641878208097665
 20
128.27264109695858
 11
78.970167572609114
 21
127.91308544793674
  0
LINE
  8
_1-8_小物
  6
CONTINUOUS
 62
    4
 10
78.970167572609114
 20
127.91308544793674
 11
79.376717728308108
 21
127.60174739456183
  0
LINE
  8
_1-8_小物
  6
CONTINUOUS
 62
    4
 10
79.376717728308108
 20
127.60174739456183
 11
79.849175854438016
 21
127.34808678604097
  0
LINE
  8
_1-8_小物
  6
CONTINUOUS
 62
    4
 10
79.849175854438016
 20
127.34808678604097
 11
80.37318654991175
 21
127.15981097160564
  0
LINE
  8
_1-8_小物
  6
CONTINUOUS
 62
    4
 10
80.37318654991175
 20
127.15981097160564
 11
80.932828014909546
 21
127.04264061660528
  0
LINE
  8
_1-8_小物
  6
CONTINUOUS
 62
    4
 10
80.932828014909546
 20
127.04264061660528
 11
81.511095826709678
 21
127.00013588298553
  0
LINE
  8
_1-8_小物
  6
CONTINUOUS
 62
    4
 10
81.511095826709678
 20
127.00013588298553
 11
82.090419610468231
 21
127.03358825556899
  0
LINE
  8
_1-8_小物
  6
CONTINUOUS
 62
    4
 10
82.090419610468231
 20
127.03358825556899
 11
82.653196906167693
 21
127.1419813009424
  0
LINE
  8
_1-8_小物
  6
CONTINUOUS
 62
    4
 10
82.653196906167693
 20
127.1419813009424
 11
82.718512309023168
 21
127.15981094702607
  0
ARC
  8
_1-8_小物
  6
CONTINUOUS
 62
    4
 10
89.869950203859005
 20
124.49999999999997
 40
5
 50
97.555517989925761
 51
105.76016573963415
  0
ARC
  8
_1-8_小物
  6
CONTINUOUS
 62
    4
 10
89.938278128307758
 20
123.99999999999997
 40
5
 50
98.346104300156512
 51
105.74141158032096
  0
ARC
  8
_1-8_小物
  6
CONTINUOUS
 62
    4
 10
89.938278128307758
 20
135
 40
5
 50
254.25858841967909
 51
261.65389569984347
  0
ARC
  8
_1-8_小物
  6
CONTINUOUS
 62
    4
 10
89.869950203859005
 20
134.5
 40
5
 50
254.23983426036591
 51
262.44448201007424
  0
LINE
  8
_1-8_小物
  6
CONTINUOUS
 62
    4
 10
91.879182806402085
 20
129.24999999999997
 11
118.21251613973541
 21
129.24999999999997
  0
LINE
  8
_1-8_小物
  6
CONTINUOUS
 62
    4
 10
91.879182806402085
 20
129.75
 11
118.21251613973541
 21
129.75
  0
LINE
  8
_1-8_小物
  6
CONTINUOUS
 62
    4
 10
147.87918280640207
 20
129.24999999999997
 11
121.54584947306876
 21
129.24999999999997
  0
LINE
  8
_1-8_小物
  6
CONTINUOUS
 62
    4
 10
147.87918280640207
 20
129.75
 11
121.54584947306876
 21
129.75
  0
TEXT
  8
_0-0_図面枠
 62
    4
 10
241.66666666666663
 20
128
 40
3
 41
1
 50
0
  1
（落下防止ワイヤー）
  0
INSERT
  2
-006-_5_
  8
_1-8_小物
 10
210
 20
148.5
 41
1
 42
1
 50
0
  0
LINE
  8
_1-8_小物
  6
CONTINUOUS
 62
    4
 10
357.03985321657842
 20
131.84018902839435
 11
351.17656837665947
 21
130.18752043233465
  0
LINE
  8
_1-8_小物
  6
CONTINUOUS
 62
    4
 10
357.16066740562405
 20
131.35707331101597
 11
351.24647145802516
 21
129.68796469593613
  0
LINE
  8
_1-8_小物
  6
CONTINUOUS
 62
    4
 10
357.03985321657842
 20
127.15981097160562
 11
351.17656837665947
 21
128.81247956766532
  0
LINE
  8
_1-8_小物
  6
CONTINUOUS
 62
    4
 10
357.16066740562405
 20
127.64292668898401
 11
351.24647145802516
 21
129.31203530406384
  0
LINE
  8
_1-8_小物
  6
CONTINUOUS
 62
    4
 10
357.1606675134222
 20
127.64292665856115
 11
357.1606675134222
 21
127.64292665856115
  0
LINE
  8
_1-8_小物
  6
CONTINUOUS
 62
    4
 10
357.1606675134222
 20
127.64292665856115
 11
357.63349044305437
 21
127.54220923628056
  0
LINE
  8
_1-8_小物
  6
CONTINUOUS
 62
    4
 10
357.63349044305437
 20
127.54220923628056
 11
358.1239067754791
 21
127.50097829566566
  0
LINE
  8
_1-8_小物
  6
CONTINUOUS
 62
    4
 10
358.1239067754791
 20
127.50097829566566
 11
358.61701545859825
 21
127.52048661798315
  0
LINE
  8
_1-8_小物
  6
CONTINUOUS
 62
    4
 10
358.61701545859825
 20
127.52048661798315
 11
359.09783363460025
 21
127.60014145273114
  0
LINE
  8
_1-8_小物
  6
CONTINUOUS
 62
    4
 10
359.09783363460025
 20
127.60014145273114
 11
359.55175188651305
 21
127.73752252806307
  0
LINE
  8
_1-8_小物
  6
CONTINUOUS
 62
    4
 10
359.55175188651305
 20
127.73752252806307
 11
359.96497813794605
 21
127.92845558952317
  0
LINE
  8
_1-8_小物
  6
CONTINUOUS
 62
    4
 10
359.96497813794605
 20
127.92845558952317
 11
360.32495671835193
 21
128.16713923265576
  0
LINE
  8
_1-8_小物
  6
CONTINUOUS
 62
    4
 10
360.32495671835193
 20
128.16713923265576
 11
360.62074986072309
 21
128.44632117574403
  0
LINE
  8
_1-8_小物
  6
CONTINUOUS
 62
    4
 10
360.62074986072309
 20
128.44632117574403
 11
360.84337004010706
 21
128.75751861672009
  0
LINE
  8
_1-8_小物
  6
CONTINUOUS
 62
    4
 10
360.84337004010706
 20
128.75751861672009
 11
360.98605305500456
 21
129.09127597881343
  0
LINE
  8
_1-8_小物
  6
CONTINUOUS
 62
    4
 10
360.98605305500456
 20
129.09127597881343
 11
361.04446355420902
 21
129.43745221346614
  0
LINE
  8
_1-8_小物
  6
CONTINUOUS
 62
    4
 10
361.04446355420902
 20
129.43745221346614
 11
361.01682676425924
 21
129.78552893096202
  0
LINE
  8
_1-8_小物
  6
CONTINUOUS
 62
    4
 10
361.01682676425924
 20
129.78552893096202
 11
360.90398241503294
 21
130.12492999637522
  0
LINE
  8
_1-8_小物
  6
CONTINUOUS
 62
    4
 10
360.90398241503294
 20
130.12492999637522
 11
360.70935922497932
 21
130.44534288007839
  0
LINE
  8
_1-8_小物
  6
CONTINUOUS
 62
    4
 10
360.70935922497932
 20
130.44534288007839
 11
360.4388707212442
 21
130.73703199873694
  0
LINE
  8
_1-8_小物
  6
CONTINUOUS
 62
    4
 10
360.4388707212442
 20
130.73703199873694
 11
360.1007355601397
 21
130.99113452608228
  0
LINE
  8
_1-8_小物
  6
CONTINUOUS
 62
    4
 10
360.1007355601397
 20
130.99113452608228
 11
359.70522780743136
 21
131.19992968540308
  0
LINE
  8
_1-8_小物
  6
CONTINUOUS
 62
    4
 10
359.70522780743136
 20
131.19992968540308
 11
359.26436476604857
 21
131.35707334143885
  0
LINE
  8
_1-8_小物
  6
CONTINUOUS
 62
    4
 10
359.26436476604857
 20
131.35707334143885
 11
358.7915418364164
 21
131.45779076371943
  0
LINE
  8
_1-8_小物
  6
CONTINUOUS
 62
    4
 10
358.7915418364164
 20
131.45779076371943
 11
358.30112550399167
 21
131.49902170433435
  0
LINE
  8
_1-8_小物
  6
CONTINUOUS
 62
    4
 10
358.30112550399167
 20
131.49902170433435
 11
357.80801682087252
 21
131.47951338201685
  0
LINE
  8
_1-8_小物
  6
CONTINUOUS
 62
    4
 10
357.80801682087252
 20
131.47951338201685
 11
357.32719864487052
 21
131.39985854726888
  0
LINE
  8
_1-8_小物
  6
CONTINUOUS
 62
    4
 10
357.32719864487052
 20
131.39985854726888
 11
357.16066740562394
 21
131.35707331101594
  0
LINE
  8
_1-8_小物
  6
CONTINUOUS
 62
    4
 10
357.039853303781
 20
127.15981094702607
 11
357.039853303781
 21
127.15981094702607
  0
LINE
  8
_1-8_小物
  6
CONTINUOUS
 62
    4
 10
357.039853303781
 20
127.15981094702607
 11
357.5994947731449
 21
127.04264060375607
  0
LINE
  8
_1-8_小物
  6
CONTINUOUS
 62
    4
 10
357.5994947731449
 20
127.04264060375607
 11
358.1777625865289
 21
127.00013588225708
  0
LINE
  8
_1-8_小物
  6
CONTINUOUS
 62
    4
 10
358.1777625865289
 20
127.00013588225708
 11
358.75708636904091
 21
127.03358826698343
  0
LINE
  8
_1-8_小物
  6
CONTINUOUS
 62
    4
 10
358.75708636904091
 20
127.03358826698343
 11
359.31986366070134
 21
127.14198132415294
  0
LINE
  8
_1-8_小物
  6
CONTINUOUS
 62
    4
 10
359.31986366070134
 20
127.14198132415294
 11
359.84899475828206
 21
127.32202158557303
  0
LINE
  8
_1-8_小物
  6
CONTINUOUS
 62
    4
 10
359.84899475828206
 20
127.32202158557303
 11
360.32840228113639
 21
127.56823861900523
  0
LINE
  8
_1-8_小物
  6
CONTINUOUS
 62
    4
 10
360.32840228113639
 20
127.56823861900523
 11
360.7435196742743
 21
127.87315124448052
  0
LINE
  8
_1-8_小物
  6
CONTINUOUS
 62
    4
 10
360.7435196742743
 20
127.87315124448052
 11
361.08173380576483
 21
128.2274948461671
  0
LINE
  8
_1-8_小物
  6
CONTINUOUS
 62
    4
 10
361.08173380576483
 20
128.2274948461671
 11
361.33276821036725
 21
128.62050287303421
  0
LINE
  8
_1-8_小物
  6
CONTINUOUS
 62
    4
 10
361.33276821036725
 20
128.62050287303421
 11
361.48899533472729
 21
129.04023397505713
  0
LINE
  8
_1-8_小物
  6
CONTINUOUS
 62
    4
 10
361.48899533472729
 20
129.04023397505713
 11
361.54566829672592
 21
129.47393483509512
  0
LINE
  8
_1-8_小物
  6
CONTINUOUS
 62
    4
 10
361.54566829672592
 20
129.47393483509512
 11
361.50106511709077
 21
129.90842767197915
  0
LINE
  8
_1-8_小物
  6
CONTINUOUS
 62
    4
 10
361.50106511709077
 20
129.90842767197915
 11
361.35654104086478
 21
130.33051064072447
  0
LINE
  8
_1-8_小物
  6
CONTINUOUS
 62
    4
 10
361.35654104086478
 20
130.33051064072447
 11
361.11648735897131
 21
130.72735896391001
  0
LINE
  8
_1-8_小物
  6
CONTINUOUS
 62
    4
 10
361.11648735897131
 20
130.72735896391001
 11
360.78819798106173
 21
131.08691460605075
  0
LINE
  8
_1-8_小物
  6
CONTINUOUS
 62
    4
 10
360.78819798106173
 20
131.08691460605075
 11
360.38164781376133
 21
131.3982526509042
  0
LINE
  8
_1-8_小物
  6
CONTINUOUS
 62
    4
 10
360.38164781376133
 20
131.3982526509042
 11
359.90918967817925
 21
131.6519132495221
  0
LINE
  8
_1-8_小物
  6
CONTINUOUS
 62
    4
 10
359.90918967817925
 20
131.6519132495221
 11
359.38517897568977
 21
131.84018905297393
  0
LINE
  8
_1-8_小物
  6
CONTINUOUS
 62
    4
 10
359.38517897568977
 20
131.84018905297393
 11
358.82553750632587
 21
131.95735939624393
  0
LINE
  8
_1-8_小物
  6
CONTINUOUS
 62
    4
 10
358.82553750632587
 20
131.95735939624393
 11
358.24726969294187
 21
131.99986411774293
  0
LINE
  8
_1-8_小物
  6
CONTINUOUS
 62
    4
 10
358.24726969294187
 20
131.99986411774293
 11
357.66794591042986
 21
131.96641173301657
  0
LINE
  8
_1-8_小物
  6
CONTINUOUS
 62
    4
 10
357.66794591042986
 20
131.96641173301657
 11
357.10516861876948
 21
131.85801867584706
  0
LINE
  8
_1-8_小物
  6
CONTINUOUS
 62
    4
 10
357.10516861876948
 20
131.85801867584706
 11
357.03985321657842
 21
131.84018902839438
  0
ARC
  8
_1-8_小物
  6
CONTINUOUS
 62
    4
 10
349.88841540894515
 20
124.49999999999997
 40
5
 50
74.239834260366322
 51
82.444482010074083
  0
ARC
  8
_1-8_小物
  6
CONTINUOUS
 62
    4
 10
349.82008748449636
 20
123.99999999999997
 40
5
 50
74.258588419678418
 51
81.653895699842849
  0
ARC
  8
_1-8_小物
  6
CONTINUOUS
 62
    4
 10
349.82008748449636
 20
135
 40
5
 50
278.34610430015715
 51
285.7414115803216
  0
ARC
  8
_1-8_小物
  6
CONTINUOUS
 62
    4
 10
349.88841540894515
 20
134.5
 40
5
 50
277.55551798992593
 51
285.76016573963363
  0
INSERT
  2
-007-_6_
  8
_1-8_小物
 10
210
 20
148.5
 41
1
 42
1
 50
0
  0
LINE
  8
_1-8_小物
  6
CONTINUOUS
 62
    4
 10
282.71851239622572
 20
131.84018902839435
 11
288.58179723614467
 21
130.18752043233465
  0
LINE
  8
_1-8_小物
  6
CONTINUOUS
 62
    4
 10
282.59769820718009
 20
131.35707331101597
 11
288.51189415477899
 21
129.68796469593613
  0
LINE
  8
_1-8_小物
  6
CONTINUOUS
 62
    4
 10
282.71851239622572
 20
127.15981097160562
 11
288.58179723614467
 21
128.81247956766532
  0
LINE
  8
_1-8_小物
  6
CONTINUOUS
 62
    4
 10
282.59769820718009
 20
127.64292668898401
 11
288.51189415477899
 21
129.31203530406384
  0
LINE
  8
_1-8_小物
  6
CONTINUOUS
 62
    4
 10
282.5976982071802
 20
131.35707331101594
 11
282.5976982071802
 21
131.35707331101594
  0
LINE
  8
_1-8_小物
  6
CONTINUOUS
 62
    4
 10
282.5976982071802
 20
131.35707331101594
 11
282.12487528339437
 21
131.45779074697211
  0
LINE
  8
_1-8_小物
  6
CONTINUOUS
 62
    4
 10
282.12487528339437
 20
131.45779074697211
 11
281.63445895336304
 21
131.49902170177148
  0
LINE
  8
_1-8_小物
  6
CONTINUOUS
 62
    4
 10
281.63445895336304
 20
131.49902170177148
 11
281.14135026911151
 21
131.47951339371627
  0
LINE
  8
_1-8_小物
  6
CONTINUOUS
 62
    4
 10
281.14135026911151
 20
131.47951339371627
 11
280.6605320884857
 21
131.39985857287513
  0
LINE
  8
_1-8_小物
  6
CONTINUOUS
 62
    4
 10
280.6605320884857
 20
131.39985857287513
 11
280.20661382859828
 21
131.262477510672
  0
LINE
  8
_1-8_小物
  6
CONTINUOUS
 62
    4
 10
280.20661382859828
 20
131.262477510672
 11
279.79338756608217
 21
131.07154446116377
  0
LINE
  8
_1-8_小物
  6
CONTINUOUS
 62
    4
 10
279.79338756608217
 20
131.07154446116377
 11
279.43340897182128
 21
130.8328608284429
  0
LINE
  8
_1-8_小物
  6
CONTINUOUS
 62
    4
 10
279.43340897182128
 20
130.8328608284429
 11
279.13761581324439
 21
130.55367889390996
  0
LINE
  8
_1-8_小物
  6
CONTINUOUS
 62
    4
 10
279.13761581324439
 20
130.55367889390996
 11
278.91499561579622
 21
130.24248145937278
  0
LINE
  8
_1-8_小物
  6
CONTINUOUS
 62
    4
 10
278.91499561579622
 20
130.24248145937278
 11
278.77231258152494
 21
129.90872410140634
  0
LINE
  8
_1-8_小物
  6
CONTINUOUS
 62
    4
 10
278.77231258152494
 20
129.90872410140634
 11
278.71390206222588
 21
129.56254786844303
  0
LINE
  8
_1-8_小物
  6
CONTINUOUS
 62
    4
 10
278.71390206222588
 20
129.56254786844303
 11
278.74153883197073
 21
129.2144711501478
  0
LINE
  8
_1-8_小物
  6
CONTINUOUS
 62
    4
 10
278.74153883197073
 20
129.2144711501478
 11
278.85438316149566
 21
128.8750700814708
  0
LINE
  8
_1-8_小物
  6
CONTINUOUS
 62
    4
 10
278.85438316149566
 20
128.8750700814708
 11
279.04900633295011
 21
128.55465719213848
  0
LINE
  8
_1-8_小物
  6
CONTINUOUS
 62
    4
 10
279.04900633295011
 20
128.55465719213848
 11
279.31949481975346
 21
128.26296806565651
  0
LINE
  8
_1-8_小物
  6
CONTINUOUS
 62
    4
 10
279.31949481975346
 20
128.26296806565651
 11
279.657629966108
 21
128.0088655285312
  0
LINE
  8
_1-8_小物
  6
CONTINUOUS
 62
    4
 10
279.657629966108
 20
128.0088655285312
 11
280.0531377066963
 21
127.80007035777102
  0
LINE
  8
_1-8_小物
  6
CONTINUOUS
 62
    4
 10
280.0531377066963
 20
127.80007035777102
 11
280.49400073895731
 21
127.64292668898406
  0
LINE
  8
_1-8_小物
  6
CONTINUOUS
 62
    4
 10
280.49400073895731
 20
127.64292668898406
 11
280.96682366274314
 21
127.54220925302788
  0
LINE
  8
_1-8_小物
  6
CONTINUOUS
 62
    4
 10
280.96682366274314
 20
127.54220925302788
 11
281.45723999277448
 21
127.50097829822853
  0
LINE
  8
_1-8_小物
  6
CONTINUOUS
 62
    4
 10
281.45723999277448
 20
127.50097829822853
 11
281.950348677026
 21
127.52048660628371
  0
LINE
  8
_1-8_小物
  6
CONTINUOUS
 62
    4
 10
281.950348677026
 20
127.52048660628371
 11
282.43116685765176
 21
127.60014142712487
  0
LINE
  8
_1-8_小物
  6
CONTINUOUS
 62
    4
 10
282.43116685765176
 20
127.60014142712487
 11
282.59769809938194
 21
127.64292665856115
  0
LINE
  8
_1-8_小物
  6
CONTINUOUS
 62
    4
 10
282.71851239622572
 20
131.84018902839438
 11
282.71851239622572
 21
131.84018902839438
  0
LINE
  8
_1-8_小物
  6
CONTINUOUS
 62
    4
 10
282.71851239622572
 20
131.84018902839438
 11
282.15887093122791
 21
131.9573593833947
  0
LINE
  8
_1-8_小物
  6
CONTINUOUS
 62
    4
 10
282.15887093122791
 20
131.9573593833947
 11
281.58060311942779
 21
131.99986411701445
  0
LINE
  8
_1-8_小物
  6
CONTINUOUS
 62
    4
 10
281.58060311942779
 20
131.99986411701445
 11
281.00127933566927
 21
131.96641174443101
  0
LINE
  8
_1-8_小物
  6
CONTINUOUS
 62
    4
 10
281.00127933566927
 20
131.96641174443101
 11
280.43850203996976
 21
131.8580186990576
  0
LINE
  8
_1-8_小物
  6
CONTINUOUS
 62
    4
 10
280.43850203996976
 20
131.8580186990576
 11
279.90937093568022
 21
131.67797844872834
  0
LINE
  8
_1-8_小物
  6
CONTINUOUS
 62
    4
 10
279.90937093568022
 20
131.67797844872834
 11
279.42996340365107
 21
131.43176142534472
  0
LINE
  8
_1-8_小物
  6
CONTINUOUS
 62
    4
 10
279.42996340365107
 20
131.43176142534472
 11
279.01484599915119
 21
131.12684880857049
  0
LINE
  8
_1-8_小物
  6
CONTINUOUS
 62
    4
 10
279.01484599915119
 20
131.12684880857049
 11
278.67663185445673
 21
130.77250521397303
  0
LINE
  8
_1-8_小物
  6
CONTINUOUS
 62
    4
 10
278.67663185445673
 20
130.77250521397303
 11
278.42559743520962
 21
130.37949719236772
  0
LINE
  8
_1-8_小物
  6
CONTINUOUS
 62
    4
 10
278.42559743520962
 20
130.37949719236772
 11
278.26937029520917
 21
129.95976609361938
  0
LINE
  8
_1-8_小物
  6
CONTINUOUS
 62
    4
 10
278.26937029520917
 20
129.95976609361938
 11
278.2126973170495
 21
129.52606523476928
  0
LINE
  8
_1-8_小物
  6
CONTINUOUS
 62
    4
 10
278.2126973170495
 20
129.52606523476928
 11
278.25730048049411
 21
129.09157239695037
  0
LINE
  8
_1-8_小物
  6
CONTINUOUS
 62
    4
 10
278.25730048049411
 20
129.09157239695037
 11
278.40182454099198
 21
128.66948942517575
  0
LINE
  8
_1-8_小物
  6
CONTINUOUS
 62
    4
 10
278.40182454099198
 20
128.66948942517575
 11
278.64187820809769
 21
128.27264109695858
  0
LINE
  8
_1-8_小物
  6
CONTINUOUS
 62
    4
 10
278.64187820809769
 20
128.27264109695858
 11
278.97016757260911
 21
127.91308544793672
  0
LINE
  8
_1-8_小物
  6
CONTINUOUS
 62
    4
 10
278.97016757260911
 20
127.91308544793672
 11
279.37671772830811
 21
127.60174739456181
  0
LINE
  8
_1-8_小物
  6
CONTINUOUS
 62
    4
 10
279.37671772830811
 20
127.60174739456181
 11
279.84917585443804
 21
127.34808678604097
  0
LINE
  8
_1-8_小物
  6
CONTINUOUS
 62
    4
 10
279.84917585443804
 20
127.34808678604097
 11
280.37318654991179
 21
127.15981097160564
  0
LINE
  8
_1-8_小物
  6
CONTINUOUS
 62
    4
 10
280.37318654991179
 20
127.15981097160564
 11
280.93282801490955
 21
127.04264061660528
  0
LINE
  8
_1-8_小物
  6
CONTINUOUS
 62
    4
 10
280.93282801490955
 20
127.04264061660528
 11
281.51109582670972
 21
127.00013588298553
  0
LINE
  8
_1-8_小物
  6
CONTINUOUS
 62
    4
 10
281.51109582670972
 20
127.00013588298553
 11
282.09041961046825
 21
127.03358825556899
  0
LINE
  8
_1-8_小物
  6
CONTINUOUS
 62
    4
 10
282.09041961046825
 20
127.03358825556899
 11
282.65319690616769
 21
127.14198130094242
  0
LINE
  8
_1-8_小物
  6
CONTINUOUS
 62
    4
 10
282.65319690616769
 20
127.14198130094242
 11
282.71851230902314
 21
127.15981094702607
  0
ARC
  8
_1-8_小物
  6
CONTINUOUS
 62
    4
 10
289.86995020385899
 20
124.49999999999997
 40
5
 50
97.555517989925917
 51
105.76016573963432
  0
ARC
  8
_1-8_小物
  6
CONTINUOUS
 62
    4
 10
289.93827812830773
 20
123.99999999999997
 40
5
 50
98.346104300156512
 51
105.74141158032096
  0
ARC
  8
_1-8_小物
  6
CONTINUOUS
 62
    4
 10
289.93827812830773
 20
135
 40
5
 50
254.25858841967909
 51
261.65389569984347
  0
ARC
  8
_1-8_小物
  6
CONTINUOUS
 62
    4
 10
289.86995020385899
 20
134.5
 40
5
 50
254.23983426036577
 51
262.44448201007407
  0
LINE
  8
_1-8_小物
  6
CONTINUOUS
 62
    4
 10
291.87918280640207
 20
129.24999999999997
 11
318.21251613973538
 21
129.24999999999997
  0
LINE
  8
_1-8_小物
  6
CONTINUOUS
 62
    4
 10
291.87918280640207
 20
129.75
 11
318.21251613973538
 21
129.75
  0
LINE
  8
_1-8_小物
  6
CONTINUOUS
 62
    4
 10
347.87918280640207
 20
129.24999999999997
 11
321.54584947306876
 21
129.24999999999997
  0
LINE
  8
_1-8_小物
  6
CONTINUOUS
 62
    4
 10
347.87918280640207
 20
129.75
 11
321.54584947306876
 21
129.75
  0
LINE
  8
_0-0_図面枠
  6
CONTINUOUS
 62
    4
 10
182.14999999999998
 20
56.199999999999989
 11
40
 21
56.199999999999989
  0
LINE
  8
_0-0_図面枠
  6
CONTINUOUS
 62
    4
 10
182.14999999999998
 20
68.199999999999989
 11
40
 21
68.199999999999989
  0
LINE
  8
_0-0_図面枠
  6
CONTINUOUS
 62
    4
 10
182.14999999999998
 20
62.199999999999989
 11
40
 21
62.199999999999989
  0
LINE
  8
_0-0_図面枠
  6
CONTINUOUS
 62
    4
 10
182.14999999999998
 20
74.199999999999989
 11
40
 21
74.199999999999989
  0
LINE
  8
_0-0_図面枠
  6
CONTINUOUS
 62
    4
 10
182.14999999999998
 20
110.20000000000005
 11
40
 21
110.20000000000005
  0
LINE
  8
_0-0_図面枠
  6
CONTINUOUS
 62
    4
 10
182.14999999999998
 20
104.20000000000005
 11
40
 21
104.20000000000005
  0
LINE
  8
_0-0_図面枠
  6
CONTINUOUS
 62
    4
 10
182.14999999999998
 20
98.200000000000045
 11
40
 21
98.200000000000045
  0
LINE
  8
_0-0_図面枠
  6
CONTINUOUS
 62
    4
 10
182.14999999999998
 20
92.200000000000045
 11
40
 21
92.200000000000045
  0
LINE
  8
_0-0_図面枠
  6
CONTINUOUS
 62
    4
 10
182.14999999999998
 20
86.200000000000045
 11
40
 21
86.200000000000045
  0
LINE
  8
_0-0_図面枠
  6
CONTINUOUS
 62
    4
 10
182.14999999999998
 20
80.199999999999989
 11
40
 21
80.199999999999989
  0
LINE
  8
_0-0_図面枠
  6
CONTINUOUS
 62
    4
 10
182.14999999999998
 20
121
 11
40
 21
121
  0
LINE
  8
_0-0_図面枠
  6
CONTINUOUS
 62
    4
 10
182.14999999999998
 20
50.199999999999989
 11
40
 21
50.199999999999989
  0
TEXT
  8
_0-0_図面枠
 62
    4
 10
165.55126400000003
 20
116.20001049999996
 40
3.2000000000000002
 41
1
 50
0
  1
使用
  0
TEXT
  8
_0-0_図面枠
 62
    4
 10
150.50638249999997
 20
116.20001049999996
 40
3.2000000000000002
 41
1
 50
0
  1
定　尺
  0
TEXT
  8
_0-0_図面枠
 62
    4
 10
148.3435475
 20
111.40000399999997
 40
3.2000000000000002
 41
1
 50
0
  1
（ｍｍ）
  0
TEXT
  8
_0-0_図面枠
 62
    4
 10
165.55126400000003
 20
111.40000399999997
 40
3.2000000000000002
 41
1
 50
0
  1
数量
  0
TEXT
  8
_0-0_図面枠
 62
    4
 10
40.497068000000013
 20
105.42754949999994
 40
3.2000000000000002
 41
1
 50
0
  1
　１
  0
TEXT
  8
_0-0_図面枠
 62
    4
 10
149.27047700000003
 20
105.40000399999997
 40
3.2000000000000002
 41
1
 50
0
  1
３０００
  0
TEXT
  8
_0-0_図面枠
 62
    4
 10
177.00512500000002
 20
105.40000399999997
 40
3.2000000000000002
 41
1
 50
0
  1
本
  0
TEXT
  8
_0-0_図面枠
 62
    4
 10
43.586831999999958
 20
99.427549499999941
 40
3.2000000000000002
 41
1
 50
0
  1
２
  0
TEXT
  8
_0-0_図面枠
 62
    4
 10
43.586831999999958
 20
93.427549499999941
 40
3.2000000000000002
 41
1
 50
0
  1
３
  0
TEXT
  8
_0-0_図面枠
 62
    4
 10
43.586831999999958
 20
87.427549499999941
 40
3.2000000000000002
 41
1
 50
0
  1
４
  0
TEXT
  8
_0-0_図面枠
 62
    4
 10
169.36022149999994
 20
87.450002999999924
 40
3.2000000000000002
 41
1
 50
0
  1
１
  0
TEXT
  8
_0-0_図面枠
 62
    4
 10
43.586831999999958
 20
81.427560999999969
 40
3.2000000000000002
 41
1
 50
0
  1
５
  0
TEXT
  8
_0-0_図面枠
 62
    4
 10
177.00512500000002
 20
81.399992499999996
 40
3.2000000000000002
 41
1
 50
0
  1
本
  0
TEXT
  8
_0-0_図面枠
 62
    4
 10
43.586831999999958
 20
75.427560999999969
 40
3.2000000000000002
 41
1
 50
0
  1
６
  0
TEXT
  8
_0-0_図面枠
 62
    4
 10
43.586831999999958
 20
69.427555499999983
 40
3.2000000000000002
 41
1
 50
0
  1
７
  0
TEXT
  8
_0-0_図面枠
 62
    4
 10
43.586831999999958
 20
63.427555499999983
 40
3.2000000000000002
 41
1
 50
0
  1
８
  0
TEXT
  8
_0-0_図面枠
 62
    4
 10
43.586831999999958
 20
57.427555499999983
 40
3.2000000000000002
 41
1
 50
0
  1
９
  0
LINE
  8
_0-0_図面枠
  6
CONTINUOUS
 62
    4
 10
382.15000000000009
 20
110.19999999999999
 11
240
 21
110.19999999999999
  0
LINE
  8
_0-0_図面枠
  6
CONTINUOUS
 62
    4
 10
382.15000000000009
 20
104.19999999999999
 11
240
 21
104.19999999999999
  0
LINE
  8
_0-0_図面枠
  6
CONTINUOUS
 62
    4
 10
382.15000000000009
 20
98.199999999999989
 11
240
 21
98.199999999999989
  0
LINE
  8
_0-0_図面枠
  6
CONTINUOUS
 62
    4
 10
382.15000000000009
 20
92.199999999999989
 11
240
 21
92.199999999999989
  0
LINE
  8
_0-0_図面枠
  6
CONTINUOUS
 62
    4
 10
382.15000000000009
 20
86.199999999999989
 11
240
 21
86.199999999999989
  0
LINE
  8
_0-0_図面枠
  6
CONTINUOUS
 62
    4
 10
382.15000000000009
 20
80.199999999999989
 11
240
 21
80.199999999999989
  0
LINE
  8
_0-0_図面枠
  6
CONTINUOUS
 62
    4
 10
382.15000000000009
 20
74.199999999999989
 11
240
 21
74.199999999999989
  0
LINE
  8
_0-0_図面枠
  6
CONTINUOUS
 62
    4
 10
382.15000000000009
 20
68.199999999999989
 11
240
 21
68.199999999999989
  0
LINE
  8
_0-0_図面枠
  6
CONTINUOUS
 62
    4
 10
382.15000000000009
 20
62.199999999999989
 11
240
 21
62.199999999999989
  0
LINE
  8
_0-0_図面枠
  6
CONTINUOUS
 62
    4
 10
382.15000000000009
 20
56.199999999999989
 11
240
 21
56.199999999999989
  0
LINE
  8
_0-0_図面枠
  6
CONTINUOUS
 62
    4
 10
382.15000000000009
 20
121
 11
240
 21
121
  0
LINE
  8
_0-0_図面枠
  6
CONTINUOUS
 62
    4
 10
382.15000000000009
 20
50.199999999999989
 11
240
 21
50.199999999999989
  0
TEXT
  8
_0-0_図面枠
 62
    4
 10
365.55123000000003
 20
116.20001050000002
 40
3.2000000000000002
 41
1
 50
0
  1
使用
  0
TEXT
  8
_0-0_図面枠
 62
    4
 10
350.50632500000006
 20
116.20002199999999
 40
3.2000000000000002
 41
1
 50
0
  1
定　尺
  0
TEXT
  8
_0-0_図面枠
 62
    4
 10
348.34349000000003
 20
111.400015
 40
3.2000000000000002
 41
1
 50
0
  1
（ｍｍ）
  0
TEXT
  8
_0-0_図面枠
 62
    4
 10
365.55123000000003
 20
111.40000400000002
 40
3.2000000000000002
 41
1
 50
0
  1
数量
  0
TEXT
  8
_0-0_図面枠
 62
    4
 10
240.4970505
 20
105.4275495
 40
3.2000000000000002
 41
1
 50
0
  1
　１
  0
TEXT
  8
_0-0_図面枠
 62
    4
 10
243.5868145
 20
99.427549499999998
 40
3.2000000000000002
 41
1
 50
0
  1
２
  0
TEXT
  8
_0-0_図面枠
 62
    4
 10
243.5868145
 20
93.427549499999998
 40
3.2000000000000002
 41
1
 50
0
  1
３
  0
TEXT
  8
_0-0_図面枠
 62
    4
 10
243.5868145
 20
87.427549499999998
 40
3.2000000000000002
 41
1
 50
0
  1
４
  0
TEXT
  8
_0-0_図面枠
 62
    4
 10
243.5868145
 20
81.427560999999997
 40
3.2000000000000002
 41
1
 50
0
  1
５
  0
TEXT
  8
_0-0_図面枠
 62
    4
 10
243.5868145
 20
75.427560999999997
 40
3.2000000000000002
 41
1
 50
0
  1
６
  0
TEXT
  8
_0-0_図面枠
 62
    4
 10
243.5868145
 20
69.427560999999997
 40
3.2000000000000002
 41
1
 50
0
  1
７
  0
TEXT
  8
_0-0_図面枠
 62
    4
 10
243.5868145
 20
63.427555499999983
 40
3.2000000000000002
 41
1
 50
0
  1
８
  0
TEXT
  8
_0-0_図面枠
 62
    4
 10
243.5868145
 20
57.427555499999983
 40
3.2000000000000002
 41
1
 50
0
  1
９
  0
TEXT
  8
_0-0_図面枠
 62
    4
 10
240.4970505
 20
51.427555499999983
 40
3.2000000000000002
 41
1
 50
0
  1
１０
  0
TEXT
  8
_0-0_図面枠
 62
    4
 10
169.36022149999994
 20
105.44999150000001
 40
3.2000000000000002
 41
1
 50
0
  1
１
  0
TEXT
  8
_0-0_図面枠
 62
    4
 10
48.400007500000015
 20
87.400003999999967
 40
3.2000000000000002
 41
1
 50
0
  1
ＳＳＧばねフレーム
  0
TEXT
  8
_0-0_図面枠
 62
    4
 10
149.27047700000003
 20
87.400003999999967
 40
3.2000000000000002
 41
1
 50
0
  1
３０００
  0
TEXT
  8
_0-0_図面枠
 62
    4
 10
169.36022149999994
 20
93.44999150000001
 40
3.2000000000000002
 41
1
 50
0
  1
６
  0
TEXT
  8
_0-0_図面枠
 62
    4
 10
149.27047700000003
 20
81.400003999999967
 40
3.2000000000000002
 41
1
 50
0
  1
３０００
  0
TEXT
  8
_0-0_図面枠
 62
    4
 10
169.36022149999994
 20
81.450002999999924
 40
3.2000000000000002
 41
1
 50
0
  1
１
  0
TEXT
  8
_0-0_図面枠
 62
    4
 10
177.00512500000002
 20
93.400004000000024
 40
3.2000000000000002
 41
1
 50
0
  1
個
  0
TEXT
  8
_0-0_図面枠
 62
    4
 10
178.54999999999998
 20
118.80000000000001
 40
3.2000000000000002
 41
1
 50
0
  1
単位
  7
TATEGAKI
  0
TEXT
  8
_0-0_図面枠
 62
    4
 10
378.55000000000007
 20
118.80000000000001
 40
3.2000000000000002
 41
1
 50
0
  1
単位
  7
TATEGAKI
  0
TEXT
  8
_0-0_図面枠
 62
    4
 10
177.00512500000002
 20
69.399992499999996
 40
3.2000000000000002
 41
1
 50
0
  1
本
  0
TEXT
  8
_0-0_図面枠
 62
    4
 10
40.4970505
 20
51.427555499999983
 40
3.2000000000000002
 41
1
 50
0
  1
１０
  0
TEXT
  8
_0-0_図面枠
 62
    4
 10
349.27047700000014
 20
105.40000399999997
 40
3.2000000000000002
 41
1
 50
0
  1
３０００
  0
TEXT
  8
_0-0_図面枠
 62
    4
 10
377.00512500000013
 20
105.40000399999997
 40
3.2000000000000002
 41
1
 50
0
  1
本
  0
TEXT
  8
_0-0_図面枠
 62
    4
 10
369.36022150000008
 20
87.450002999999924
 40
3.2000000000000002
 41
1
 50
0
  1
１
  0
TEXT
  8
_0-0_図面枠
 62
    4
 10
377.00512500000013
 20
81.399992499999996
 40
3.2000000000000002
 41
1
 50
0
  1
本
  0
TEXT
  8
_0-0_図面枠
 62
    4
 10
369.36022150000008
 20
105.44999150000001
 40
3.2000000000000002
 41
1
 50
0
  1
１
  0
TEXT
  8
_0-0_図面枠
 62
    4
 10
349.27047700000014
 20
87.400003999999967
 40
3.2000000000000002
 41
1
 50
0
  1
３０００
  0
TEXT
  8
_0-0_図面枠
 62
    4
 10
369.36022150000008
 20
93.44999150000001
 40
3.2000000000000002
 41
1
 50
0
  1
６
  0
TEXT
  8
_0-0_図面枠
 62
    4
 10
349.27047700000014
 20
81.400003999999967
 40
3.2000000000000002
 41
1
 50
0
  1
３０００
  0
TEXT
  8
_0-0_図面枠
 62
    4
 10
369.36022150000008
 20
81.450002999999924
 40
3.2000000000000002
 41
1
 50
0
  1
１
  0
TEXT
  8
_0-0_図面枠
 62
    4
 10
377.00512500000013
 20
93.400004000000024
 40
3.2000000000000002
 41
1
 50
0
  1
個
  0
TEXT
  8
_0-0_図面枠
 62
    4
 10
377.00512500000013
 20
69.399992499999996
 40
3.2000000000000002
 41
1
 50
0
  1
本
  0
TEXT
  8
_0-0_図面枠
 62
    4
 10
248.4000075000001
 20
87.400003999999967
 40
3.2000000000000002
 41
1
 50
0
  1
ＳＣＧばねフレーム
  0
TEXT
  8
_0-0_図面枠
 62
    4
 10
177.00512500000002
 20
87.400003999999967
 40
3.2000000000000002
 41
1
 50
0
  1
本
  0
TEXT
  8
_0-0_図面枠
 62
    4
 10
67.633333333333383
 20
114.00000000000003
 40
3.2000000000000002
 41
1
 50
0
  1
部材名称
  0
TEXT
  8
_0-0_図面枠
 62
    4
 10
119.10833333333338
 20
114.00000000000001
 40
3.2000000000000002
 41
1
 50
0
  1
規　格
  0
TEXT
  8
_0-0_図面枠
 62
    4
 10
319.10833333333335
 20
114
 40
3.2000000000000002
 41
1
 50
0
  1
規　格
  0
TEXT
  8
_0-0_図面枠
 62
    4
 10
267.63333333333333
 20
114
 40
3.2000000000000002
 41
1
 50
0
  1
部材名称
  0
TEXT
  8
_0-0_図面枠
 62
    4
 10
48.400007500000015
 20
99.400003999999967
 40
3.2000000000000002
 41
1
 50
0
  1
ＳＳＧアーム(Ｃ)
  0
TEXT
  8
_0-0_図面枠
 62
    4
 10
48.400007500000015
 20
93.400003999999967
 40
3.2000000000000002
 41
1
 50
0
  1
ＳＳＧばね(Ｃ)
  0
TEXT
  8
_0-0_図面枠
 62
    4
 10
48.400007500000015
 20
81.400003999999967
 40
3.2000000000000002
 41
1
 50
0
  1
ＳＳＧフレーム(Ｃ)
  0
TEXT
  8
_0-0_図面枠
 62
    4
 10
248.4000075000001
 20
99.400003999999967
 40
3.2000000000000002
 41
1
 50
0
  1
ＳＣＧアーム(Ｃ)
  0
TEXT
  8
_0-0_図面枠
 62
    4
 10
248.4000075000001
 20
93.400003999999967
 40
3.2000000000000002
 41
1
 50
0
  1
ＳＣＧばね(Ｃ)
  0
TEXT
  8
_0-0_図面枠
 62
    4
 10
248.4000075000001
 20
81.400003999999967
 40
3.2000000000000002
 41
1
 50
0
  1
ＳＳＧフレーム(Ｃ)
  0
TEXT
  8
_0-0_図面枠
 62
    4
 10
166.27045749999999
 20
69.450008499999967
 40
3.2000000000000002
 41
1
 50
0
  1
１２
  0
TEXT
  8
_0-0_図面枠
 62
    4
 10
48.400007500000015
 20
69.40000950000001
 40
3.2000000000000002
 41
1
 50
0
  1
ステンタッピンねじ
  0
TEXT
  8
_0-0_図面枠
 62
    4
 10
48.400007500000015
 20
63.40000950000001
 40
3.2000000000000002
 41
1
 50
0
  1
ステンワッシャー
  0
TEXT
  8
_0-0_図面枠
 62
    4
 10
149.27047700000003
 20
51.40000950000001
 40
3.2000000000000002
 41
1
 50
0
  1
３１００
  0
TEXT
  8
_0-0_図面枠
 62
    4
 10
169.36022149999994
 20
51.449997499999995
 40
3.2000000000000002
 41
1
 50
0
  1
２
  0
TEXT
  8
_0-0_図面枠
 62
    4
 10
177.00512500000002
 20
51.40000950000001
 40
3.2000000000000002
 41
1
 50
0
  1
本
  0
TEXT
  8
_0-0_図面枠
 62
    4
 10
166.27045749999999
 20
63.450008499999967
 40
3.2000000000000002
 41
1
 50
0
  1
１２
  0
TEXT
  8
_0-0_図面枠
 62
    4
 10
166.27045749999999
 20
57.450008499999967
 40
3.2000000000000002
 41
1
 50
0
  1
１２
  0
TEXT
  8
_0-0_図面枠
 62
    4
 10
177.00512500000002
 20
57.399992499999996
 40
3.2000000000000002
 41
1
 50
0
  1
本
  0
TEXT
  8
_0-0_図面枠
 62
    4
 10
177.00512500000002
 20
63.40000950000001
 40
3.2000000000000002
 41
1
 50
0
  1
枚
  0
TEXT
  8
_0-0_図面枠
 62
    4
 10
177.00512500000002
 20
69.399992499999996
 40
3.2000000000000002
 41
1
 50
0
  1
本
  0
TEXT
  8
_0-0_図面枠
 62
    4
 10
102.06669116666677
 20
69.40000950000001
 40
3.2000000000000002
 41
1
 50
0
  1
なべ５×５０
  0
TEXT
  8
_0-0_図面枠
 62
    4
 10
102.06663366666675
 20
63.400003999999996
 40
3.2000000000000002
 41
1
 50
0
  1
１．５×１８×５．５穴
  0
TEXT
  8
_0-0_図面枠
 62
    4
 10
366.27045750000013
 20
69.450008499999967
 40
3.2000000000000002
 41
1
 50
0
  1
１２
  0
TEXT
  8
_0-0_図面枠
 62
    4
 10
248.4000075000001
 20
69.40000950000001
 40
3.2000000000000002
 41
1
 50
0
  1
ステンタッピンねじ
  0
TEXT
  8
_0-0_図面枠
 62
    4
 10
248.4000075000001
 20
63.40000950000001
 40
3.2000000000000002
 41
1
 50
0
  1
ステンワッシャー
  0
TEXT
  8
_0-0_図面枠
 62
    4
 10
349.27047700000014
 20
51.40000950000001
 40
3.2000000000000002
 41
1
 50
0
  1
３１００
  0
TEXT
  8
_0-0_図面枠
 62
    4
 10
369.36022150000008
 20
51.449997499999995
 40
3.2000000000000002
 41
1
 50
0
  1
２
  0
TEXT
  8
_0-0_図面枠
 62
    4
 10
377.00512500000013
 20
51.40000950000001
 40
3.2000000000000002
 41
1
 50
0
  1
本
  0
TEXT
  8
_0-0_図面枠
 62
    4
 10
366.27045750000013
 20
63.450008499999967
 40
3.2000000000000002
 41
1
 50
0
  1
１２
  0
TEXT
  8
_0-0_図面枠
 62
    4
 10
366.27045750000013
 20
57.450008499999967
 40
3.2000000000000002
 41
1
 50
0
  1
１２
  0
TEXT
  8
_0-0_図面枠
 62
    4
 10
377.00512500000013
 20
57.399992499999996
 40
3.2000000000000002
 41
1
 50
0
  1
本
  0
TEXT
  8
_0-0_図面枠
 62
    4
 10
377.00512500000013
 20
63.40000950000001
 40
3.2000000000000002
 41
1
 50
0
  1
枚
  0
TEXT
  8
_0-0_図面枠
 62
    4
 10
377.00512500000013
 20
69.399992499999996
 40
3.2000000000000002
 41
1
 50
0
  1
本
  0
TEXT
  8
_0-0_図面枠
 62
    4
 10
302.06669116666689
 20
69.40000950000001
 40
3.2000000000000002
 41
1
 50
0
  1
なべ５×５０
  0
TEXT
  8
_0-0_図面枠
 62
    4
 10
302.06663366666686
 20
63.400003999999996
 40
3.2000000000000002
 41
1
 50
0
  1
１．５×１８×５．５穴
  0
TEXT
  8
_0-0_図面枠
 62
    4
 10
48.400007500000015
 20
76.000009500000004
 40
3.2000000000000002
 41
1
 50
0
  1
ステンドリリングねじ
  0
TEXT
  8
_0-0_図面枠
 62
    4
 10
248.40000750000002
 20
76.000009500000004
 40
3.2000000000000002
 41
1
 50
0
  1
ステンドリリングねじ
  0
TEXT
  8
_0-0_図面枠
 62
    4
 10
169.36022149999994
 20
99.44999150000001
 40
3.2000000000000002
 41
1
 50
0
  1
６
  0
TEXT
  8
_0-0_図面枠
 62
    4
 10
177.00512500000002
 20
99.400004000000024
 40
3.2000000000000002
 41
1
 50
0
  1
個
  0
TEXT
  8
_0-0_図面枠
 62
    4
 10
369.36022150000008
 20
99.449991499999953
 40
3.2000000000000002
 41
1
 50
0
  1
６
  0
TEXT
  8
_0-0_図面枠
 62
    4
 10
377.00512500000013
 20
99.400003999999967
 40
3.2000000000000002
 41
1
 50
0
  1
個
  0
LINE
  8
_0-0_図面枠
  6
CONTINUOUS
 62
    4
 10
182.14999999999998
 20
38.199999999999989
 11
40
 21
38.199999999999989
  0
LINE
  8
_0-0_図面枠
  6
CONTINUOUS
 62
    4
 10
182.14999999999998
 20
32.199999999999989
 11
40
 21
32.199999999999989
  0
LINE
  8
_0-0_図面枠
  6
CONTINUOUS
 62
    4
 10
182.14999999999998
 20
26.199999999999989
 11
40
 21
26.199999999999989
  0
TEXT
  8
_0-0_図面枠
 62
    4
 10
43.586831999999958
 20
33.427555499999983
 40
3.2000000000000002
 41
1
 50
0
  1
※
  0
TEXT
  8
_0-0_図面枠
 62
    4
 10
43.586831999999958
 20
27.427560999999969
 40
3.2000000000000002
 41
1
 50
0
  1
※
  0
LINE
  8
_0-0_図面枠
  6
CONTINUOUS
 62
    4
 10
382.15000000000009
 20
38.199999999999989
 11
240
 21
38.199999999999989
  0
LINE
  8
_0-0_図面枠
  6
CONTINUOUS
 62
    4
 10
382.15000000000009
 20
26.199999999999989
 11
240
 21
26.199999999999989
  0
LINE
  8
_0-0_図面枠
  6
CONTINUOUS
 62
    4
 10
382.15000000000009
 20
32.199999999999989
 11
240
 21
32.199999999999989
  0
TEXT
  8
_0-0_図面枠
 62
    4
 10
243.5868145
 20
33.427555499999983
 40
3.2000000000000002
 41
1
 50
0
  1
※
  0
TEXT
  8
_0-0_図面枠
 62
    4
 10
243.5868145
 20
27.427555499999983
 40
3.2000000000000002
 41
1
 50
0
  1
※
  0
TEXT
  8
_0-0_図面枠
 62
    4
 10
169.36022149999994
 20
39.450002999999981
 40
3.2000000000000002
 41
1
 50
0
  1
１
  0
TEXT
  8
_0-0_図面枠
 62
    4
 10
177.00512500000002
 20
39.400003999999967
 40
3.2000000000000002
 41
1
 50
0
  1
個
  0
TEXT
  8
_0-0_図面枠
 62
    4
 10
149.27047700000003
 20
33.400014999999996
 40
3.2000000000000002
 41
1
 50
0
  1
６０００
  0
TEXT
  8
_0-0_図面枠
 62
    4
 10
169.36022149999994
 20
33.450002999999981
 40
3.2000000000000002
 41
1
 50
0
  1
１
  0
TEXT
  8
_0-0_図面枠
 62
    4
 10
177.00512500000002
 20
33.40000950000001
 40
3.2000000000000002
 41
1
 50
0
  1
巻
  0
TEXT
  8
_0-0_図面枠
 62
    4
 10
48.400007500000015
 20
33.40000950000001
 40
3.2000000000000002
 41
1
 50
0
  1
ブチルテープ
  0
TEXT
  8
_0-0_図面枠
 62
    4
 10
169.36022149999994
 20
27.450002999999981
 40
3.2000000000000002
 41
1
 50
0
  1
２
  0
TEXT
  8
_0-0_図面枠
 62
    4
 10
177.00512500000002
 20
27.40000950000001
 40
3.2000000000000002
 41
1
 50
0
  1
本
  0
TEXT
  8
_0-0_図面枠
 62
    4
 10
102.06669116666677
 20
33.40000950000001
 40
3.2000000000000002
 41
1
 50
0
  1
ｔ１．０×ｗ３０
  0
TEXT
  8
_0-0_図面枠
 62
    4
 10
102.06669116666677
 20
27.40000950000001
 40
3.2000000000000002
 41
1
 50
0
  1
１.５×(１×１９)Ｌ＝６００
  0
TEXT
  8
_0-0_図面枠
 62
    4
 10
43.586831999999958
 20
39.427555499999983
 40
3.2000000000000002
 41
1
 50
0
  1
※
  0
TEXT
  8
_0-0_図面枠
 62
    4
 10
369.8602370000001
 20
39.450002999999981
 40
3.2000000000000002
 41
1
 50
0
  1
１
  0
TEXT
  8
_0-0_図面枠
 62
    4
 10
377.00510200000008
 20
39.400003999999996
 40
3.2000000000000002
 41
1
 50
0
  1
個
  0
TEXT
  8
_0-0_図面枠
 62
    4
 10
349.27041950000012
 20
33.40000950000001
 40
3.2000000000000002
 41
1
 50
0
  1
６０００
  0
TEXT
  8
_0-0_図面枠
 62
    4
 10
369.8602370000001
 20
33.450002999999981
 40
3.2000000000000002
 41
1
 50
0
  1
１
  0
TEXT
  8
_0-0_図面枠
 62
    4
 10
377.00510200000008
 20
33.40000950000001
 40
3.2000000000000002
 41
1
 50
0
  1
巻
  0
TEXT
  8
_0-0_図面枠
 62
    4
 10
248.400013
 20
33.40000950000001
 40
3.2000000000000002
 41
1
 50
0
  1
ブチルテープ
  0
TEXT
  8
_0-0_図面枠
 62
    4
 10
369.8602370000001
 20
27.450002999999981
 40
3.2000000000000002
 41
1
 50
0
  1
２
  0
TEXT
  8
_0-0_図面枠
 62
    4
 10
377.00510200000008
 20
27.400006499999989
 40
3.2000000000000002
 41
1
 50
0
  1
本
  0
TEXT
  8
_0-0_図面枠
 62
    4
 10
302.06663366666669
 20
33.40000950000001
 40
3.2000000000000002
 41
1
 50
0
  1
ｔ１．０×ｗ３０
  0
TEXT
  8
_0-0_図面枠
 62
    4
 10
302.06669116666671
 20
27.400009499999982
 40
3.2000000000000002
 41
1
 50
0
  1
１.５×(１×１９)Ｌ＝６００
  0
TEXT
  8
_0-0_図面枠
 62
    4
 10
243.5868145
 20
39.427558500000004
 40
3.2000000000000002
 41
1
 50
0
  1
※
  0
TEXT
  8
_0-0_図面枠
 62
    4
 10
248.40000750000002
 20
27.40000950000001
 40
3.2000000000000002
 41
1
 50
0
  1
落下防止ワイヤー
  0
TEXT
  8
_0-0_図面枠
 62
    4
 10
48.400007500000015
 20
27.40000950000001
 40
3.2000000000000002
 41
1
 50
0
  1
落下防止ワイヤー
  0
LINE
  8
_0-0_図面枠
  6
CONTINUOUS
 62
    4
 10
240
 20
26.199999999999989
 11
240
 21
121.00000000000003
  0
LINE
  8
_0-0_図面枠
  6
CONTINUOUS
 62
    4
 10
247.20000000000005
 20
26.199999999999989
 11
247.20000000000005
 21
121.00000000000003
  0
LINE
  8
_0-0_図面枠
  6
CONTINUOUS
 62
    4
 10
346.95000000000005
 20
26.199999999999989
 11
346.95000000000005
 21
121
  0
LINE
  8
_0-0_図面枠
  6
CONTINUOUS
 62
    4
 10
382.15000000000009
 20
26.199999999999989
 11
382.15000000000009
 21
121
  0
LINE
  8
_0-0_図面枠
  6
CONTINUOUS
 62
    4
 10
374.95000000000005
 20
26.199999999999989
 11
374.95000000000005
 21
121
  0
LINE
  8
_0-0_図面枠
  6
CONTINUOUS
 62
    4
 10
362.95000000000005
 20
26.199999999999989
 11
362.95000000000005
 21
121
  0
LINE
  8
_0-0_図面枠
  6
CONTINUOUS
 62
    4
 10
347.95000000000005
 20
26.199999999999989
 11
347.95000000000005
 21
121
  0
LINE
  8
_0-0_図面枠
  6
CONTINUOUS
 62
    4
 10
300.86666666666667
 20
26.199999999999989
 11
300.86666666666667
 21
121
  0
LINE
  8
_0-0_図面枠
  6
CONTINUOUS
 62
    4
 10
40
 20
26.199999999999989
 11
40
 21
121.00000000000003
  0
LINE
  8
_0-0_図面枠
  6
CONTINUOUS
 62
    4
 10
47.200000000000045
 20
26.199999999999989
 11
47.200000000000045
 21
121.00000000000003
  0
LINE
  8
_0-0_図面枠
  6
CONTINUOUS
 62
    4
 10
162.95000000000002
 20
26.199999999999989
 11
162.95000000000002
 21
121.00000000000001
  0
LINE
  8
_0-0_図面枠
  6
CONTINUOUS
 62
    4
 10
147.95000000000005
 20
26.199999999999989
 11
147.95000000000005
 21
121.00000000000001
  0
LINE
  8
_0-0_図面枠
  6
CONTINUOUS
 62
    4
 10
174.95000000000005
 20
26.199999999999989
 11
174.95000000000005
 21
121.00000000000001
  0
LINE
  8
_0-0_図面枠
  6
CONTINUOUS
 62
    4
 10
146.95000000000005
 20
26.199999999999989
 11
146.95000000000005
 21
121.00000000000001
  0
LINE
  8
_0-0_図面枠
  6
CONTINUOUS
 62
    4
 10
182.14999999999998
 20
26.199999999999989
 11
182.14999999999998
 21
121.00000000000001
  0
LINE
  8
_0-0_図面枠
  6
CONTINUOUS
 62
    4
 10
100.86666666666673
 20
26.199999999999989
 11
100.86666666666673
 21
121.00000000000003
  0
TEXT
  8
_0-0_図面枠
 62
    4
 10
122.30833333333341
 20
105.60000000000007
 40
3.2000000000000002
 41
1
 50
0
  1
―
  0
TEXT
  8
_0-0_図面枠
 62
    4
 10
122.30833333333341
 20
93.600000000000065
 40
3.2000000000000002
 41
1
 50
0
  1
―
  0
TEXT
  8
_0-0_図面枠
 62
    4
 10
122.30833333333341
 20
87.600000000000065
 40
3.2000000000000002
 41
1
 50
0
  1
―
  0
TEXT
  8
_0-0_図面枠
 62
    4
 10
122.30833333333341
 20
81.600000000000065
 40
3.2000000000000002
 41
1
 50
0
  1
―
  0
TEXT
  8
_0-0_図面枠
 62
    4
 10
153.85000000000005
 20
93.600000000000051
 40
3.2000000000000002
 41
1
 50
0
  1
―
  0
TEXT
  8
_0-0_図面枠
 62
    4
 10
153.85000000000005
 20
99.600000000000051
 40
3.2000000000000002
 41
1
 50
0
  1
―
  0
TEXT
  8
_0-0_図面枠
 62
    4
 10
102.06669116666676
 20
99.400004000000024
 40
3.2000000000000002
 41
1
 50
0
  1
Ｌ＝２４０
  0
LINE
  8
_0-0_図面枠
  6
CONTINUOUS
 62
    4
 10
182.14999999999998
 20
44.199999999999989
 11
40
 21
44.199999999999989
  0
LINE
  8
_0-0_図面枠
  6
CONTINUOUS
 62
    4
 10
382.15000000000009
 20
44.199999999999989
 11
240
 21
44.199999999999989
  0
TEXT
  8
_0-0_図面枠
 62
    4
 10
40.4970505
 20
45.427555499999983
 40
3.2000000000000002
 41
1
 50
0
  1
１１
  0
TEXT
  8
_0-0_図面枠
 62
    4
 10
240.4970505
 20
45.427555499999983
 40
3.2000000000000002
 41
1
 50
0
  1
１１
  0
TEXT
  8
_0-0_図面枠
 62
    4
 10
122.30833333333339
 20
51.59999999999998
 40
3.2000000000000002
 41
1
 50
0
  1
―
  0
TEXT
  8
_0-0_図面枠
 62
    4
 10
102.06669116666671
 20
57.400009499999982
 40
3.2000000000000002
 41
1
 50
0
  1
φ８×４０
  0
TEXT
  8
_0-0_図面枠
 62
    4
 10
122.30833333333337
 20
45.599999999999994
 40
3.2000000000000002
 41
1
 50
0
  1
―
  0
TEXT
  8
_0-0_図面枠
 62
    4
 10
48.400007499999987
 20
45.400003999999967
 40
3.2000000000000002
 41
1
 50
0
  1
ＳＳＧクリップ
  0
TEXT
  8
_0-0_図面枠
 62
    4
 10
322.30833333333339
 20
51.59999999999998
 40
3.2000000000000002
 41
1
 50
0
  1
―
  0
TEXT
  8
_0-0_図面枠
 62
    4
 10
302.06669116666671
 20
57.400009499999982
 40
3.2000000000000002
 41
1
 50
0
  1
φ８×４０
  0
TEXT
  8
_0-0_図面枠
 62
    4
 10
322.30833333333334
 20
45.599999999999994
 40
3.2000000000000002
 41
1
 50
0
  1
―
  0
TEXT
  8
_0-0_図面枠
 62
    4
 10
248.40000749999999
 20
45.400003999999967
 40
3.2000000000000002
 41
1
 50
0
  1
ＳＳＧクリップ
  0
TEXT
  8
_0-0_図面枠
 62
    4
 10
102.06667966666672
 20
39.400003999999967
 40
3.2000000000000002
 41
1
 50
0
  1
ＡＬ　ｔ＝１．５
  0
TEXT
  8
_0-0_図面枠
 62
    4
 10
302.06667966666669
 20
39.400003999999967
 40
3.2000000000000002
 41
1
 50
0
  1
ＡＬ　ｔ＝１．５
  0
TEXT
  8
_0-0_図面枠
 62
    4
 10
322.30833333333328
 20
105.60000000000001
 40
3.2000000000000002
 41
1
 50
0
  1
―
  0
TEXT
  8
_0-0_図面枠
 62
    4
 10
322.30833333333328
 20
93.600000000000009
 40
3.2000000000000002
 41
1
 50
0
  1
―
  0
TEXT
  8
_0-0_図面枠
 62
    4
 10
322.30833333333328
 20
87.600000000000009
 40
3.2000000000000002
 41
1
 50
0
  1
―
  0
TEXT
  8
_0-0_図面枠
 62
    4
 10
322.30833333333328
 20
81.600000000000009
 40
3.2000000000000002
 41
1
 50
0
  1
―
  0
TEXT
  8
_0-0_図面枠
 62
    4
 10
353.85000000000002
 20
93.599999999999994
 40
3.2000000000000002
 41
1
 50
0
  1
―
  0
TEXT
  8
_0-0_図面枠
 62
    4
 10
353.85000000000002
 20
99.599999999999994
 40
3.2000000000000002
 41
1
 50
0
  1
―
  0
TEXT
  8
_0-0_図面枠
 62
    4
 10
302.06669116666671
 20
99.400003999999967
 40
3.2000000000000002
 41
1
 50
0
  1
Ｌ＝１７２
  0
TEXT
  8
_0-0_図面枠
 62
    4
 10
377.00512500000013
 20
87.399992499999996
 40
3.2000000000000002
 41
1
 50
0
  1
本
  0
TEXT
  8
_0-0_図面枠
 62
    4
 10
377.00512500000013
 20
75.399992499999996
 40
3.2000000000000002
 41
1
 50
0
  1
本
  0
TEXT
  8
_0-0_図面枠
 62
    4
 10
377.00510200000008
 20
45.400003999999996
 40
3.2000000000000002
 41
1
 50
0
  1
個
  0
TEXT
  8
_0-0_図面枠
 62
    4
 10
177.00512500000002
 20
45.400003999999967
 40
3.2000000000000002
 41
1
 50
0
  1
個
  0
TEXT
  8
_0-0_図面枠
 62
    4
 10
153.85000000000005
 20
27.599999999999994
 40
3.2000000000000002
 41
1
 50
0
  1
―
  0
TEXT
  8
_0-0_図面枠
 62
    4
 10
153.85000000000005
 20
39.599999999999994
 40
3.2000000000000002
 41
1
 50
0
  1
―
  0
TEXT
  8
_0-0_図面枠
 62
    4
 10
153.85000000000005
 20
45.599999999999994
 40
3.2000000000000002
 41
1
 50
0
  1
―
  0
TEXT
  8
_0-0_図面枠
 62
    4
 10
153.85000000000005
 20
57.599999999999994
 40
3.2000000000000002
 41
1
 50
0
  1
―
  0
TEXT
  8
_0-0_図面枠
 62
    4
 10
153.85000000000005
 20
63.599999999999994
 40
3.2000000000000002
 41
1
 50
0
  1
―
  0
TEXT
  8
_0-0_図面枠
 62
    4
 10
153.85000000000005
 20
69.599999999999994
 40
3.2000000000000002
 41
1
 50
0
  1
―
  0
TEXT
  8
_0-0_図面枠
 62
    4
 10
153.85000000000005
 20
75.599999999999994
 40
3.2000000000000002
 41
1
 50
0
  1
―
  0
TEXT
  8
_0-0_図面枠
 62
    4
 10
177.00512500000002
 20
75.399992499999996
 40
3.2000000000000002
 41
1
 50
0
  1
本
  0
TEXT
  8
_0-0_図面枠
 62
    4
 10
166.27045749999999
 20
75.450008499999967
 40
3.2000000000000002
 41
1
 50
0
  1
１２
  0
TEXT
  8
_0-0_図面枠
 62
    4
 10
177.00512500000002
 20
75.399992499999996
 40
3.2000000000000002
 41
1
 50
0
  1
本
  0
TEXT
  8
_0-0_図面枠
 62
    4
 10
169.36022149999994
 20
45.449991499999953
 40
3.2000000000000002
 41
1
 50
0
  1
６
  0
TEXT
  8
_0-0_図面枠
 62
    4
 10
369.36022149999997
 20
45.449991499999953
 40
3.2000000000000002
 41
1
 50
0
  1
６
  0
TEXT
  8
_0-0_図面枠
 62
    4
 10
366.27045750000013
 20
75.450008499999967
 40
3.2000000000000002
 41
1
 50
0
  1
１２
  0
TEXT
  8
_0-0_図面枠
 62
    4
 10
353.85000000000002
 20
75.599999999999994
 40
3.2000000000000002
 41
1
 50
0
  1
―
  0
TEXT
  8
_0-0_図面枠
 62
    4
 10
353.85000000000002
 20
69.599999999999994
 40
3.2000000000000002
 41
1
 50
0
  1
―
  0
TEXT
  8
_0-0_図面枠
 62
    4
 10
353.85000000000002
 20
63.599999999999994
 40
3.2000000000000002
 41
1
 50
0
  1
―
  0
TEXT
  8
_0-0_図面枠
 62
    4
 10
353.85000000000002
 20
57.599999999999994
 40
3.2000000000000002
 41
1
 50
0
  1
―
  0
TEXT
  8
_0-0_図面枠
 62
    4
 10
353.85000000000002
 20
45.599999999999994
 40
3.2000000000000002
 41
1
 50
0
  1
―
  0
TEXT
  8
_0-0_図面枠
 62
    4
 10
353.85000000000002
 20
39.599999999999994
 40
3.2000000000000002
 41
1
 50
0
  1
―
  0
TEXT
  8
_0-0_図面枠
 62
    4
 10
353.85000000000002
 20
27.599999999999994
 40
3.2000000000000002
 41
1
 50
0
  1
―
  0
TEXT
  8
_0-0_図面枠
 62
    4
 10
102.06667966666673
 20
76.000009500000004
 40
3.2000000000000002
 41
1
 50
0
  1
皿(Ｄ６)４×１６
  0
TEXT
  8
_0-0_図面枠
 62
    4
 10
48.400007500000015
 20
39.400003999999967
 40
3.2000000000000002
 41
1
 50
0
  1
ジョイントプレート
  0
TEXT
  8
_0-0_図面枠
 62
    4
 10
248.400013
 20
39.400003999999996
 40
3.2000000000000002
 41
1
 50
0
  1
ジョイントプレート
  0
TEXT
  8
_0-f_
 62
    4
 10
20
 20
280
 40
3.2000000000000002
 41
1
 50
0
  1
（ステンレス１５０タイプ）
  0
TEXT
  8
_0-f_
 62
    4
 10
220
 20
280
 40
3.2000000000000002
 41
1
 50
0
  1
（ステンレス１５０タイプ）
  0
TEXT
  8
_0-f_
 62
    4
 10
30
 20
270
 40
3.2000000000000002
 41
1
 50
0
  1
◇内壁＋内壁（１５０ＫＫＧ－Ｓ）　Ｓ＝１／３
  0
TEXT
  8
_0-f_
 62
    4
 10
230
 20
270
 40
3.2000000000000002
 41
1
 50
0
  1
◇内壁＋内壁コーナー（１５０ＫＣＧ－Ｓ）　Ｓ＝１／３
  0
TEXT
  8
_0-0_図面枠
 62
    4
 10
302.06667966666674
 20
76.000009500000004
 40
3.2000000000000002
 41
1
 50
0
  1
皿(Ｄ６)４×１６
  0
TEXT
  8
_0-0_図面枠
 62
    4
 10
248.40000750000002
 20
51.400003999999967
 40
3.2000000000000002
 41
1
 50
0
  1
ガスケットＧＳ
  0
TEXT
  8
_0-0_図面枠
 62
    4
 10
48.400007500000015
 20
51.400003999999967
 40
3.2000000000000002
 41
1
 50
0
  1
ガスケットＧＳ
  0
TEXT
  8
_0-0_図面枠
 62
    4
 10
48.400007500000015
 20
105.40000399999997
 40
3.2000000000000002
 41
1
 50
0
  1
ＵＵＧキャップ(Ｃ)Ｓ
  0
TEXT
  8
_0-0_図面枠
 62
    4
 10
248.4000075000001
 20
105.40000399999997
 40
3.2000000000000002
 41
1
 50
0
  1
ＵＣＧキャップ(Ｃ)Ｓ
  0
TEXT
  8
_0-0_図面枠
 62
    4
 10
48.400007499999987
 20
57.400003999999939
 40
3.2000000000000002
 41
1
 50
0
  1
アンカープラグ
  0
TEXT
  8
_0-0_図面枠
 62
    4
 10
248.40000749999999
 20
57.400003999999939
 40
3.2000000000000002
 41
1
 50
0
  1
アンカープラグ
  0
INSERT
  2
-008-_7_
  8
_1-8_小物
 10
210
 20
148.5
 41
1
 42
1
 50
0
  0
INSERT
  2
-009-_8_
  8
_1-8_小物
 10
210
 20
148.5
 41
1
 42
1
 50
0
  0
INSERT
  2
-010-_9_
  8
_1-8_小物
 10
210
 20
148.5
 41
1
 42
1
 50
0
  0
LINE
  8
_1-f_寸法
  6
CONTINUOUS
 62
    4
 10
85.000000000001961
 20
188.5
 11
85.000000000001961
 21
181.90000000000001
  0
LINE
  8
_1-f_寸法
  6
CONTINUOUS
 62
    4
 10
73.333333333335247
 20
188.5
 11
73.333333333335247
 21
181.90000000000001
  0
POINT
  8
_1-f_寸法
 62
    4
 10
73.333333333335247
 20
183.5
  0
POINT
  8
_1-f_寸法
 62
    4
 10
85.000000000001961
 20
183.5
  0
LINE
  8
_1-f_寸法
  6
CONTINUOUS
 62
    4
 10
73.333333333335247
 20
183.5
 11
85.000000000001961
 21
183.5
  0
TEXT
  8
_1-f_寸法
 62
    4
 10
77.566666666668596
 20
183.5
 40
3.2000000000000002
 41
1
 50
0
  1
35
  0
LINE
  8
_1-f_寸法
  6
CONTINUOUS
 62
    4
 10
134.99999999999804
 20
188.5
 11
134.99999999999804
 21
181.90000000000001
  0
LINE
  8
_1-f_寸法
  6
CONTINUOUS
 62
    4
 10
146.66666666666472
 20
188.5
 11
146.66666666666472
 21
181.90000000000001
  0
POINT
  8
_1-f_寸法
 62
    4
 10
146.66666666666472
 20
183.5
  0
POINT
  8
_1-f_寸法
 62
    4
 10
134.99999999999804
 20
183.5
  0
LINE
  8
_1-f_寸法
  6
CONTINUOUS
 62
    4
 10
146.66666666666472
 20
183.5
 11
134.99999999999804
 21
183.5
  0
TEXT
  8
_1-f_寸法
 62
    4
 10
139.23333333333136
 20
183.5
 40
3.2000000000000002
 41
1
 50
0
  1
35
  0
LINE
  8
_1-f_寸法
  6
CONTINUOUS
 62
    4
 10
334.99999999999801
 20
188.49999999999994
 11
334.99999999999801
 21
181.89999999999998
  0
LINE
  8
_1-f_寸法
  6
CONTINUOUS
 62
    4
 10
346.6666666666647
 20
188.49999999999994
 11
346.6666666666647
 21
181.89999999999998
  0
POINT
  8
_1-f_寸法
 62
    4
 10
346.6666666666647
 20
183.49999999999994
  0
POINT
  8
_1-f_寸法
 62
    4
 10
334.99999999999801
 20
183.49999999999994
  0
LINE
  8
_1-f_寸法
  6
CONTINUOUS
 62
    4
 10
346.6666666666647
 20
183.49999999999994
 11
334.99999999999801
 21
183.49999999999994
  0
TEXT
  8
_1-f_寸法
 62
    4
 10
339.2333333333313
 20
183.49999999999994
 40
3.2000000000000002
 41
1
 50
0
  1
35
  0
LINE
  8
_1-f_寸法
  6
CONTINUOUS
 62
    4
 10
268.33333333333371
 20
203.50000000000011
 11
333.33333333333331
 21
203.50000000000011
  0
CIRCLE
  8
_1-f_寸法
  6
CONTINUOUS
 62
    4
 10
158.33333341279985
 20
208.50000000000003
 40
1.6666666666666665
  0
CIRCLE
  8
_1-f_寸法
  6
CONTINUOUS
 62
    4
 10
158.33333341279985
 20
208.50000000000003
 40
1.6666666666666665
  0
CIRCLE
  8
_1-f_寸法
  6
CONTINUOUS
 62
    4
 10
140.0000000794665
 20
198.50000000000003
 40
1.6666666666666665
  0
CIRCLE
  8
_1-f_寸法
  6
CONTINUOUS
 62
    4
 10
153.33333341279985
 20
191.83333333333337
 40
1.6666666666666665
  0
CIRCLE
  8
_1-f_寸法
  6
CONTINUOUS
 62
    4
 10
153.33333341279985
 20
198.50000000000003
 40
1.6666666666666665
  0
LINE
  8
_1-f_寸法
  6
CONTINUOUS
 62
    4
 10
141.02010664778254
 20
199.81801379623141
 11
144.70833341279985
 21
204.58333333333337
  0
LINE
  8
_1-f_寸法
  6
CONTINUOUS
 62
    4
 10
152.17222436090782
 20
199.69566029765667
 11
146.66666674613316
 21
205.36504737695012
  0
LINE
  8
_1-f_寸法
  6
CONTINUOUS
 62
    4
 10
152.36846354766575
 20
193.19230497436709
 11
147.41666674613299
 21
200.16666666666663
  0
LINE
  8
_1-f_寸法
  6
CONTINUOUS
 62
    4
 10
281.51260461062407
 20
221.13346857982438
 11
285.58333333333303
 21
219.25000000000014
  0
CIRCLE
  8
_1-f_寸法
  6
CONTINUOUS
 62
    4
 10
279.99999999999955
 20
221.83332933004203
 40
1.6666666666666665
  0
TEXT
  8
_1-f_寸法
 62
    4
 10
279.37499999999955
 20
220.58332933004203
 40
2.5
 41
1
 50
0
  1
4
  0
CIRCLE
  8
_1-f_寸法
  6
CONTINUOUS
 62
    4
 10
358.33333333333331
 20
208.5
 40
1.6666666666666665
  0
CIRCLE
  8
_1-f_寸法
  6
CONTINUOUS
 62
    4
 10
358.33333333333331
 20
208.5
 40
1.6666666666666665
  0
CIRCLE
  8
_1-f_寸法
  6
CONTINUOUS
 62
    4
 10
340
 20
198.5
 40
1.6666666666666665
  0
CIRCLE
  8
_1-f_寸法
  6
CONTINUOUS
 62
    4
 10
353.33333333333331
 20
191.83333333333331
 40
1.6666666666666665
  0
CIRCLE
  8
_1-f_寸法
  6
CONTINUOUS
 62
    4
 10
353.33333333333331
 20
198.5
 40
1.6666666666666665
  0
LINE
  8
_1-f_寸法
  6
CONTINUOUS
 62
    4
 10
341.02010656831601
 20
199.81801379623136
 11
344.70833333333331
 21
204.58333333333331
  0
LINE
  8
_1-f_寸法
  6
CONTINUOUS
 62
    4
 10
352.17222428144123
 20
199.69566029765662
 11
346.66666666666663
 21
205.36504737695009
  0
LINE
  8
_1-f_寸法
  6
CONTINUOUS
 62
    4
 10
352.36846346819925
 20
193.19230497436706
 11
347.41666666666652
 21
200.16666666666657
  0
CIRCLE
  8
_1-f_寸法
  6
CONTINUOUS
 62
    4
 10
296.6666666666668
 20
221.83333331469981
 40
1.6666666666666665
  0
TEXT
  8
_1-f_寸法
 62
    4
 10
296.0416666666668
 20
220.58333331469981
 40
2.5
 41
1
 50
0
  1
3
  0
CIRCLE
  8
_1-f_寸法
  6
CONTINUOUS
 62
    4
 10
321.66666666666669
 20
215.16666031374075
 40
1.6666666666666665
  0
TEXT
  8
_1-f_寸法
 62
    4
 10
321.04166666666669
 20
213.91666031374075
 40
2.5
 41
1
 50
0
  1
1
  0
CIRCLE
  8
_1-f_寸法
  6
CONTINUOUS
 62
    4
 10
334.16669949781641
 20
215.16666666719371
 40
1.6666666666666665
  0
CIRCLE
  8
_1-f_寸法
  6
CONTINUOUS
 62
    4
 10
297.50003283114989
 20
215.16666666719371
 40
1.6666666666666665
  0
CIRCLE
  8
_1-f_寸法
  6
CONTINUOUS
 62
    4
 10
351.66666665793366
 20
215.16666664803327
 40
1.6666666666666665
  0
TEXT
  8
_1-f_寸法
 62
    4
 10
351.04166665793366
 20
213.91666664803327
 40
2.5
 41
1
 50
0
  1
2
  0
LINE
  8
_1-f_寸法
  6
CONTINUOUS
 62
    4
 10
348.70293386507899
 20
210.033330870751
 11
350.83333332460035
 21
213.7232909750592
  0
CIRCLE
  8
_1-f_寸法
  6
CONTINUOUS
 62
    4
 10
345.00000000000006
 20
215.16666666666669
 40
1.6666666666666665
  0
TEXT
  8
_1-f_寸法
 62
    4
 10
344.37500000000006
 20
213.91666666666669
 40
2.5
 41
1
 50
0
  1
5
  0
CIRCLE
  8
_1-f_寸法
  6
CONTINUOUS
 62
    4
 10
290
 20
230.16666666666666
 40
1.6666666666666665
  0
CIRCLE
  8
_1-f_寸法
  6
CONTINUOUS
 62
    4
 10
290
 20
230.16666666666666
 40
1.6666666666666665
  0
CIRCLE
  8
_1-f_寸法
  6
CONTINUOUS
 62
    4
 10
61.666666587200154
 20
208.50000000000003
 40
1.6666666666666665
  0
CIRCLE
  8
_1-f_寸法
  6
CONTINUOUS
 62
    4
 10
61.666666587200154
 20
208.50000000000003
 40
1.6666666666666665
  0
CIRCLE
  8
_1-f_寸法
  6
CONTINUOUS
 62
    4
 10
141.66666666666657
 20
215.16666666666654
 40
1.6666666666666665
  0
CIRCLE
  8
_1-f_寸法
  6
CONTINUOUS
 62
    4
 10
133.33333333333331
 20
215.16666666666663
 40
1.6666666666666665
  0
TEXT
  8
_1-f_寸法
 62
    4
 10
132.70833333333331
 20
213.91666666666663
 40
2.5
 41
1
 50
0
  1
2
  0
CIRCLE
  8
_1-f_寸法
  6
CONTINUOUS
 62
    4
 10
126.66666666666666
 20
215.16666666666663
 40
1.6666666666666665
  0
TEXT
  8
_1-f_寸法
 62
    4
 10
126.04166666666666
 20
213.91666666666663
 40
2.5
 41
1
 50
0
  1
1
  0
LINE
  8
_1-f_寸法
  6
CONTINUOUS
 62
    4
 10
132.5
 20
213.72329099369256
 11
130.36960052972069
 21
210.033330870751
  0
CIRCLE
  8
_1-f_寸法
  6
CONTINUOUS
 62
    4
 10
146.66666666666666
 20
215.16666666666669
 40
1.6666666666666665
  0
TEXT
  8
_1-f_寸法
 62
    4
 10
146.04166666666666
 20
213.91666666666669
 40
2.5
 41
1
 50
0
  1
5
  0
CIRCLE
  8
_1-f_寸法
  6
CONTINUOUS
 62
    4
 10
76.666666666666657
 20
215.16666666666663
 40
1.6666666666666665
  0
TEXT
  8
_1-f_寸法
 62
    4
 10
76.041666666666657
 20
213.91666666666663
 40
2.5
 41
1
 50
0
  1
3
  0
LINE
  8
_1-f_寸法
  6
CONTINUOUS
 62
    4
 10
77.5
 20
213.72329099369256
 11
79.178140329192871
 21
210.81666668130018
  0
CIRCLE
  8
_1-f_寸法
  6
CONTINUOUS
 62
    4
 10
90.000000079466489
 20
215.16666666666663
 40
1.6666666666666665
  0
TEXT
  8
_1-f_寸法
 62
    4
 10
89.375000079466489
 20
213.91666666666663
 40
2.5
 41
1
 50
0
  1
4
  0
LINE
  8
_1-f_寸法
  6
CONTINUOUS
 62
    4
 10
89.16666674613316
 20
213.72329099369256
 11
83.601613100375815
 21
204.08433533239452
  0
CIRCLE
  8
_1-f_寸法
  6
CONTINUOUS
 62
    4
 10
85.000000000000071
 20
215.16666666666654
 40
1.6666666666666665
  0
CIRCLE
  8
_1-f_寸法
  6
CONTINUOUS
 62
    4
 10
79.999999920533497
 20
198.50000000000003
 40
1.6666666666666665
  0
CIRCLE
  8
_1-f_寸法
  6
CONTINUOUS
 62
    4
 10
66.666666587200154
 20
191.83333333333337
 40
1.6666666666666665
  0
CIRCLE
  8
_1-f_寸法
  6
CONTINUOUS
 62
    4
 10
66.666666587200154
 20
198.50000000000003
 40
1.6666666666666665
  0
LINE
  8
_1-f_寸法
  6
CONTINUOUS
 62
    4
 10
78.979893352217459
 20
199.81801379623141
 11
75.291666587200154
 21
204.58333333333337
  0
LINE
  8
_1-f_寸法
  6
CONTINUOUS
 62
    4
 10
67.827775639092181
 20
199.69566029765667
 11
73.33333325386684
 21
205.36504737695012
  0
LINE
  8
_1-f_寸法
  6
CONTINUOUS
 62
    4
 10
67.631536452334245
 20
193.19230497436709
 11
72.583333253866982
 21
200.16666666666663
  0
CIRCLE
  8
_1-f_寸法
  6
CONTINUOUS
 62
    4
 10
275
 20
220.16666666666669
 40
1.6666666666666665
  0
CIRCLE
  8
_1-f_寸法
  6
CONTINUOUS
 62
    4
 10
280
 20
210.16666666666669
 40
1.6666666666666665
  0
CIRCLE
  8
_1-f_寸法
  6
CONTINUOUS
 62
    4
 10
273.33333333333331
 20
210.16666666666669
 40
1.6666666666666665
  0
LINE
  8
_1-f_寸法
  6
CONTINUOUS
 62
    4
 10
274.8180590883743
 20
210.92387681589594
 11
281.66666666666657
 21
214.41666674613339
  0
LINE
  8
_1-f_寸法
  6
CONTINUOUS
 62
    4
 10
286.86504737694997
 20
215.16666666666674
 11
281.34721747535639
 21
211.14788165425716
  0
LINE
  8
_1-f_寸法
  6
CONTINUOUS
 62
    4
 10
286.08333333333331
 20
217.12500007946656
 11
276.60724048938471
 21
219.72558188223152
  0
LINE
  8
_1-f_寸法
  6
CONTINUOUS
 62
    4
 10
65
 20
213.50000000000003
 11
65
 21
220.10000000000002
  0
LINE
  8
_1-f_寸法
  6
CONTINUOUS
 62
    4
 10
154.99999999999989
 20
213.50000000000003
 11
154.99999999999989
 21
220.10000000000002
  0
POINT
  8
_1-f_寸法
 62
    4
 10
154.99999999999989
 20
218.50000000000003
  0
POINT
  8
_1-f_寸法
 62
    4
 10
65
 20
218.50000000000003
  0
LINE
  8
_1-f_寸法
  6
CONTINUOUS
 62
    4
 10
154.99999999999989
 20
218.50000000000003
 11
65
 21
218.50000000000003
  0
TEXT
  8
_1-f_寸法
 62
    4
 10
107.59999999999992
 20
218.50000000000003
 40
3.2000000000000002
 41
1
 50
0
  1
270
  0
TEXT
  8
_1-f_寸法
 62
    4
 10
84.375000000000071
 20
213.91666666666654
 40
2.5
 41
1
 50
0
  1
6
  0
TEXT
  8
_1-f_寸法
 62
    4
 10
141.04166666666657
 20
213.91666666666654
 40
2.5
 41
1
 50
0
  1
6
  0
TEXT
  8
_1-f_寸法
 62
    4
 10
157.08333341279985
 20
207.25000000000003
 40
2.5
 41
1
 50
0
  1
10
  0
TEXT
  8
_1-f_寸法
 62
    4
 10
60.416666587200154
 20
207.25000000000003
 40
2.5
 41
1
 50
0
  1
10
  0
TEXT
  8
_1-f_寸法
 62
    4
 10
66.041666587200154
 20
197.25000000000003
 40
2.5
 41
1
 50
0
  1
7
  0
TEXT
  8
_1-f_寸法
 62
    4
 10
79.374999920533497
 20
197.25000000000003
 40
2.5
 41
1
 50
0
  1
8
  0
TEXT
  8
_1-f_寸法
 62
    4
 10
66.041666587200154
 20
190.58333333333337
 40
2.5
 41
1
 50
0
  1
9
  0
TEXT
  8
_1-f_寸法
 62
    4
 10
152.70833341279985
 20
197.25000000000003
 40
2.5
 41
1
 50
0
  1
7
  0
TEXT
  8
_1-f_寸法
 62
    4
 10
139.3750000794665
 20
197.25000000000003
 40
2.5
 41
1
 50
0
  1
8
  0
TEXT
  8
_1-f_寸法
 62
    4
 10
152.70833341279985
 20
190.58333333333337
 40
2.5
 41
1
 50
0
  1
9
  0
TEXT
  8
_1-f_寸法
 62
    4
 10
288.75
 20
228.91666666666666
 40
2.5
 41
1
 50
0
  1
10
  0
TEXT
  8
_1-f_寸法
 62
    4
 10
357.08333333333331
 20
207.25
 40
2.5
 41
1
 50
0
  1
10
  0
TEXT
  8
_1-f_寸法
 62
    4
 10
274.375
 20
218.91666666666669
 40
2.5
 41
1
 50
0
  1
8
  0
TEXT
  8
_1-f_寸法
 62
    4
 10
279.375
 20
208.91666666666669
 40
2.5
 41
1
 50
0
  1
7
  0
TEXT
  8
_1-f_寸法
 62
    4
 10
272.70833333333331
 20
208.91666666666669
 40
2.5
 41
1
 50
0
  1
9
  0
TEXT
  8
_1-f_寸法
 62
    4
 10
352.70833333333331
 20
190.58333333333331
 40
2.5
 41
1
 50
0
  1
9
  0
TEXT
  8
_1-f_寸法
 62
    4
 10
339.375
 20
197.25
 40
2.5
 41
1
 50
0
  1
8
  0
TEXT
  8
_1-f_寸法
 62
    4
 10
352.70833333333331
 20
197.25
 40
2.5
 41
1
 50
0
  1
7
  0
TEXT
  8
_1-f_寸法
 62
    4
 10
333.54169949781641
 20
213.91666666719371
 40
2.5
 41
1
 50
0
  1
6
  0
TEXT
  8
_1-f_寸法
 62
    4
 10
296.87503283114989
 20
213.91666666719371
 40
2.5
 41
1
 50
0
  1
6
  0
INSERT
  2
-011-_10_
  8
_1-4_フレ__ム
 10
210
 20
148.5
 41
1
 42
1
 50
0
  0
INSERT
  2
-012-_11_
  8
_1-8_小物
 10
210
 20
148.5
 41
1
 42
1
 50
0
  0
LINE
  8
_1-6_ばね
  6
CENTER2
 62
    4
 10
72.316666746133478
 20
203.50000000731669
 11
72.316666746133478
 21
210.16666667398334
  0
LINE
  8
_1-6_ばね
  6
CENTER2
 62
    4
 10
75.650000079466849
 20
206.83333334065003
 11
68.983333412800135
 21
206.83333334065003
  0
CIRCLE
  8
_1-6_ばね
  6
CONTINUOUS
 62
    4
 10
72.316666746133478
 20
206.83333334064994
 40
1.466666673983362
  0
LINE
  8
_1-6_ばね
  6
CONTINUOUS
 62
    4
 10
73.966582574075829
 20
205.18341751270765
 11
78.429324286363141
 21
209.64615922499496
  0
ARC
  8
_1-6_ばね
  6
CONTINUOUS
 62
    4
 10
79.042150163391454
 20
209.03333334796665
 40
0.8666666666666667
 50
90
 51
135.00000000000134
  0
LINE
  8
_1-6_ばね
  6
CENTER2
 62
    4
 10
73.660169635561658
 20
205.48983045122182
 11
78.122911347848969
 21
209.95257216350916
  0
LINE
  8
_1-6_ばね
  6
CONTINUOUS
 62
    4
 10
73.353756697047515
 20
205.79624338973599
 11
77.81649840933477
 21
210.2589851020233
  0
ARC
  8
_1-6_ばね
  6
CONTINUOUS
 62
    4
 10
79.042150163391454
 20
209.03333334796662
 40
1.7333333333333334
 50
90
 51
134.99999999999935
  0
ARC
  8
_1-6_ばね
  6
CENTER2
 62
    4
 10
79.04215016339154
 20
209.03333334796665
 40
1.2999999999999998
 50
90
 51
135
  0
LINE
  8
_1-6_ばね
  6
CONTINUOUS
 62
    4
 10
88.966666746133484
 20
206.76666668129997
 11
89.800000079466827
 21
206.76666668129997
  0
LINE
  8
_1-6_ばね
  6
CONTINUOUS
 62
    4
 10
88.950000079466832
 20
206.76666668129997
 11
88.950000079466832
 21
209.03333334796665
  0
LINE
  8
_1-6_ばね
  6
CENTER2
 62
    4
 10
89.383333412800155
 20
206.76666668129997
 11
89.383333412800155
 21
209.03333334796665
  0
LINE
  8
_1-6_ばね
  6
CONTINUOUS
 62
    4
 10
89.816666746133507
 20
206.76666668129997
 11
89.816666746133507
 21
209.03333334796662
  0
ARC
  8
_1-6_ばね
  6
CONTINUOUS
 62
    4
 10
88.083333412800158
 20
209.03333334796662
 40
1.7333333333333334
 50
0
 51
90
  0
ARC
  8
_1-6_ばね
  6
CONTINUOUS
 62
    4
 10
88.083333412800158
 20
209.03333334796665
 40
0.8666666666666667
 50
0
 51
90
  0
ARC
  8
_1-6_ばね
  6
CENTER2
 62
    4
 10
88.083333412800158
 20
209.03333334796665
 40
1.2999999999999998
 50
0
 51
90
  0
LINE
  8
_1-6_ばね
  6
CONTINUOUS
 62
    4
 10
79.042150163391454
 20
210.76666668129997
 11
88.083333412800158
 21
210.76666668129997
  0
LINE
  8
_1-6_ばね
  6
CENTER2
 62
    4
 10
79.04215016339154
 20
210.33333334796663
 11
88.083333412800158
 21
210.33333334796663
  0
LINE
  8
_1-6_ばね
  6
CONTINUOUS
 62
    4
 10
79.042150163391454
 20
209.90000001463332
 11
88.083333412800158
 21
209.90000001463332
  0
ARC
  8
_1-6_ばね
  6
CENTER2
 62
    4
 10
72.316666746133478
 20
206.83333334064994
 40
1.9000000073166954
 50
354.47249681728158
 51
315
  0
ARC
  8
_1-6_ばね
  6
CONTINUOUS
 62
    4
 10
72.316666746133478
 20
206.83333334064994
 40
2.3333333406500287
 50
6.0551963201018557
 51
315.00000000000051
  0
ARC
  8
_1-6_ばね
  6
CONTINUOUS
 62
    4
 10
84.081185033979253
 20
206.04211903948308
 40
1.7333333333333334
 50
28.235762146983564
 51
83.235762146982509
  0
ARC
  8
_1-6_ばね
  6
CONTINUOUS
 62
    4
 10
84.081185033979139
 20
206.0421190394832
 40
0.8666666666666667
 50
28.235762146986108
 51
83.235762146982154
  0
ARC
  8
_1-6_ばね
  6
CENTER2
 62
    4
 10
84.08118503397921
 20
206.04211903948311
 40
1.2999999999999998
 50
28.235762146983561
 51
83.235762146982395
  0
LINE
  8
_1-6_ばね
  6
CONTINUOUS
 62
    4
 10
86.865103787478532
 20
204.52167699318483
 11
85.608266138826096
 21
206.86216034555503
  0
LINE
  8
_1-6_ばね
  6
CENTER2
 62
    4
 10
86.483333511266807
 20
204.31666666666686
 11
85.226495862614371
 21
206.65715001903712
  0
LINE
  8
_1-6_ばね
  6
CONTINUOUS
 62
    4
 10
86.101563235055124
 20
204.11165634014893
 11
84.844725586402575
 21
206.45213969251918
  0
INSERT
  2
-013-_12_
  8
_1-5_ア__ム
 10
210
 20
148.5
 41
1
 42
1
 50
0
  0
ARC
  8
_1-6_ばね
  6
CONTINUOUS
 62
    4
 10
86.483333511266807
 20
204.31666666666686
 40
0.4333333333333333
 50
208.23576214698025
 51
28.235762146979372
  0
LINE
  8
_1-6_ばね
  6
CONTINUOUS
 62
    4
 10
84.285344259846084
 20
207.76338701831088
 11
77.36712105096754
 21
208.58395598959936
  0
LINE
  8
_1-6_ばね
  6
CONTINUOUS
 62
    4
 10
76.271429085928304
 20
208.71391577861681
 11
72.591492607133773
 21
209.15039225525553
  0
LINE
  8
_1-6_ばね
  6
CONTINUOUS
 62
    4
 10
75.491227051512567
 20
207.9337137442011
 11
74.291561583102578
 21
208.07600580815762
  0
LINE
  8
_1-6_ばね
  6
CONTINUOUS
 62
    4
 10
84.18326464691259
 20
206.90275302889714
 11
76.586919016551803
 21
207.80375395518365
  0
LINE
  8
_1-6_ばね
  6
CENTER2
 62
    4
 10
84.23430445337938
 20
207.33307002360397
 11
76.977020033759715
 21
208.19385497239159
  0
LINE
  8
_1-6_ばね
  6
CENTER2
 62
    4
 10
75.881328068720507
 20
208.32381476140898
 11
73.885487382712796
 21
208.56054099719614
  0
ARC
  8
_1-6_ばね
  6
CONTINUOUS
 62
    4
 10
286.15000000000089
 20
206.68333341279981
 40
0.4333333333333333
 50
157.58501805951943
 51
337.58501805951943
  0
INSERT
  2
-014-_13_
  8
_1-4_フレ__ム
 10
210
 20
148.5
 41
1
 42
1
 50
0
  0
INSERT
  2
-015-_14_
  8
_1-4_フレ__ム
 10
210
 20
148.5
 41
1
 42
1
 50
0
  0
INSERT
  2
-016-_15_
  8
_1-8_小物
 10
210
 20
148.5
 41
1
 42
1
 50
0
  0
INSERT
  2
-017-_16_
  8
_1-8_小物
 10
210
 20
148.5
 41
1
 42
1
 50
0
  0
INSERT
  2
-018-_17_
  8
_1-8_小物
 10
210
 20
148.5
 41
1
 42
1
 50
0
  0
INSERT
  2
-019-_18_
  8
_1-8_小物
 10
210
 20
148.5
 41
1
 42
1
 50
0
  0
INSERT
  2
-020-_19_
  8
_1-4_フレ__ム
 10
210
 20
148.5
 41
1
 42
1
 50
0
  0
INSERT
  2
-021-_20_
  8
_1-8_小物
 10
210
 20
148.5
 41
1
 42
1
 50
0
  0
INSERT
  2
-022-_21_
  8
_1-8_小物
 10
210
 20
148.5
 41
1
 42
1
 50
0
  0
LINE
  8
_1-6_ばね
  6
CENTER2
 62
    4
 10
289.99999999563346
 20
224.00000007946656
 11
289.99999999563346
 21
217.33333341279985
  0
LINE
  8
_1-6_ばね
  6
CENTER2
 62
    4
 10
293.33333332896672
 20
220.66666674613319
 11
286.66666666230003
 21
220.66666674613319
  0
CIRCLE
  8
_1-6_ばね
  6
CONTINUOUS
 62
    4
 10
289.9999999956334
 20
220.6666667461331
 40
1.466666673983362
  0
ARC
  8
_1-6_ばね
  6
CONTINUOUS
 62
    4
 10
292.48333333333198
 20
209.86666680201668
 40
0.8666666666666667
 50
180
 51
270
  0
ARC
  8
_1-6_ばね
  6
CONTINUOUS
 62
    4
 10
292.48333333333164
 20
209.86666680201668
 40
1.7333333333333334
 50
180
 51
270
  0
ARC
  8
_1-6_ばね
  6
CENTER2
 62
    4
 10
292.48333333333198
 20
209.8666668020166
 40
1.2999999999999998
 50
180
 51
270
  0
ARC
  8
_1-6_ばね
  6
CENTER2
 62
    4
 10
289.9999999956334
 20
220.6666667461331
 40
1.9000000073166954
 50
254.47249681728235
 51
214.99999999999986
  0
ARC
  8
_1-6_ばね
  6
CONTINUOUS
 62
    4
 10
289.9999999956334
 20
220.6666667461331
 40
2.3333333406500287
 50
266.05519632010254
 51
214.99999999999369
  0
ARC
  8
_1-6_ばね
  6
CONTINUOUS
 62
    4
 10
301.20433973208219
 20
209.03333344606671
 40
0.8666666666666667
 50
90
 51
120.49335808176116
  0
ARC
  8
_1-6_ばね
  6
CONTINUOUS
 62
    4
 10
297.4956602722815
 20
209.86666680201668
 40
0.8666666666666667
 50
270
 51
300.49335808175789
  0
LINE
  8
_1-6_ばね
  6
CONTINUOUS
 62
    4
 10
300.76455971901248
 20
209.78012970423595
 11
298.37522029842091
 21
208.37307428567823
  0
ARC
  8
_1-6_ばね
  6
CONTINUOUS
 62
    4
 10
297.4956602722815
 20
209.86666680201668
 40
1.7333333333333334
 50
270
 51
300.49335808175329
  0
ARC
  8
_1-6_ばね
  6
CONTINUOUS
 62
    4
 10
301.20433973208208
 20
209.03333344606665
 40
1.7333333333333334
 50
90
 51
120.49335808175535
  0
ARC
  8
_1-6_ばね
  6
CENTER2
 62
    4
 10
297.49566027228173
 20
209.8666668020166
 40
1.2999999999999998
 50
270
 51
300.49335808175169
  0
ARC
  8
_1-6_ばね
  6
CENTER2
 62
    4
 10
301.20433973208208
 20
209.03333344606665
 40
1.2999999999999998
 50
90
 51
120.49335808175448
  0
LINE
  8
_1-6_ばね
  6
CENTER2
 62
    4
 10
300.54466971247757
 20
210.15352783332042
 11
298.15533029188612
 21
208.74647241476276
  0
LINE
  8
_1-6_ばね
  6
CONTINUOUS
 62
    4
 10
300.32477970594266
 20
210.52692596240507
 11
297.93544028535132
 21
209.11987054384741
  0
LINE
  8
_1-6_ばね
  6
CONTINUOUS
 62
    4
 10
306.41666666884862
 20
208.23333344606675
 11
306.41666666884862
 21
209.03333344606671
  0
LINE
  8
_1-6_ばね
  6
CONTINUOUS
 62
    4
 10
307.28333333551541
 20
208.23333344606675
 11
307.28333333551541
 21
209.03333344606665
  0
LINE
  8
_1-6_ばね
  6
CENTER2
 62
    4
 10
306.85000000218201
 20
208.23333344606675
 11
306.85000000218201
 21
209.03333344606665
  0
LINE
  8
_1-6_ばね
  6
CONTINUOUS
 62
    4
 10
310.02131268499284
 20
206.95659270753507
 11
312.06409786664346
 21
208.67069300003249
  0
LINE
  8
_1-6_ばね
  6
CONTINUOUS
 62
    4
 10
312.06409786664346
 20
208.67069300003249
 11
312.62118046170519
 21
208.00678781599606
  0
LINE
  8
_1-6_ばね
  6
CONTINUOUS
 62
    4
 10
310.57839528005445
 20
206.29268752349861
 11
312.62118046170519
 21
208.00678781599606
  0
LINE
  8
_1-6_ばね
  6
CENTER2
 62
    4
 10
310.2998539825237
 20
206.62464011551685
 11
312.34263916417433
 21
208.33874040801427
  0
ARC
  8
_1-6_ばね
  6
CONTINUOUS
 62
    4
 10
308.95000000218204
 20
208.23333344606669
 40
1.6666666666666665
 50
179.99999999999804
 51
309.99999999999829
  0
ARC
  8
_1-6_ばね
  6
CENTER2
 62
    4
 10
308.95000000218204
 20
208.23333344606669
 40
2.0999999999999996
 50
179.99999999999844
 51
309.99999999999733
  0
ARC
  8
_1-6_ばね
  6
CONTINUOUS
 62
    4
 10
308.95000000218204
 20
208.23333344606669
 40
2.5333333333333328
 50
179.99999999999872
 51
309.99999999999744
  0
ARC
  8
_1-6_ばね
  6
CONTINUOUS
 62
    4
 10
305.55000000218195
 20
209.03333344606671
 40
0.8666666666666667
 50
0
 51
90
  0
ARC
  8
_1-6_ばね
  6
CONTINUOUS
 62
    4
 10
305.55000000218206
 20
209.03333344606665
 40
1.7333333333333334
 50
0
 51
90
  0
ARC
  8
_1-6_ばね
  6
CENTER2
 62
    4
 10
305.55000000218195
 20
209.03333344606665
 40
1.2999999999999998
 50
0
 51
90
  0
LINE
  8
_1-6_ばね
  6
CONTINUOUS
 62
    4
 10
305.55000000218195
 20
209.90000011273335
 11
301.20433973208219
 21
209.90000011273335
  0
LINE
  8
_1-6_ばね
  6
CENTER2
 62
    4
 10
305.55000000218195
 20
210.3333334460666
 11
301.20433973208208
 21
210.3333334460666
  0
LINE
  8
_1-6_ばね
  6
CONTINUOUS
 62
    4
 10
305.55000000218206
 20
210.7666667794
 11
301.20433973208208
 21
210.7666667794
  0
LINE
  8
_1-6_ばね
  6
CONTINUOUS
 62
    4
 10
297.4956602722815
 20
209.00000013534998
 11
292.48333333333198
 21
209.00000013534998
  0
LINE
  8
_1-6_ばね
  6
CENTER2
 62
    4
 10
297.49566027228173
 20
208.56666680201658
 11
292.48333333333198
 21
208.56666680201658
  0
LINE
  8
_1-6_ばね
  6
CONTINUOUS
 62
    4
 10
297.4956602722815
 20
208.13333346868333
 11
292.48333333333164
 21
208.13333346868333
  0
LINE
  8
_1-6_ばね
  6
CONTINUOUS
 62
    4
 10
288.0886452196321
 20
219.32832172378414
 11
290.59326510504889
 21
215.75135382677962
  0
LINE
  8
_1-6_ばね
  6
CONTINUOUS
 62
    4
 10
290.74999999999841
 20
215.25425424860867
 11
290.74999999999841
 21
209.8666668020166
  0
LINE
  8
_1-6_ばね
  6
CONTINUOUS
 62
    4
 10
288.79857699134936
 20
219.82542130195492
 11
291.30319687676626
 21
216.2484534049502
  0
LINE
  8
_1-6_ばね
  6
CONTINUOUS
 62
    4
 10
291.61666666666537
 20
215.25425424860839
 11
291.61666666666537
 21
209.8666668020166
  0
LINE
  8
_1-6_ばね
  6
CENTER2
 62
    4
 10
288.44361110549073
 20
219.57687151286962
 11
290.94823099090763
 21
215.99990361586487
  0
LINE
  8
_1-6_ばね
  6
CENTER2
 62
    4
 10
291.18333333333197
 20
215.25425424860845
 11
291.18333333333197
 21
209.8666668020166
  0
ARC
  8
_1-6_ばね
  6
CONTINUOUS
 62
    4
 10
289.88333333333179
 20
215.25425424860867
 40
0.8666666666666667
 50
0
 51
35.00000000000334
  0
ARC
  8
_1-6_ばね
  6
CONTINUOUS
 62
    4
 10
289.88333333333202
 20
215.25425424860839
 40
1.7333333333333334
 50
0
 51
34.999999999999957
  0
ARC
  8
_1-6_ばね
  6
CENTER2
 62
    4
 10
289.88333333333196
 20
215.25425424860845
 40
1.2999999999999998
 50
0
 51
35.000000000002622
  0
INSERT
  2
-023-_22_
  8
_1-5_ア__ム
 10
210
 20
148.5
 41
1
 42
1
 50
0
  0
LINE
  8
_1-6_ばね
  6
CONTINUOUS
 62
    4
 10
292.15704150469458
 20
219.77693846919908
 11
290.92463029484497
 21
216.7891025143403
  0
LINE
  8
_1-6_ばね
  6
CONTINUOUS
 62
    4
 10
290.53242385061748
 20
215.83824414302353
 11
286.55059342185609
 21
206.18476482855402
  0
LINE
  8
_1-6_ばね
  6
CONTINUOUS
 62
    4
 10
285.74940657814568
 20
206.51523533037894
 11
289.94245997515884
 21
216.68079987580956
  0
LINE
  8
_1-6_ばね
  6
CONTINUOUS
 62
    4
 10
290.33466641938634
 20
217.63165824712632
 11
290.66386683756821
 21
218.42976592250059
  0
LINE
  8
_1-6_ばね
  6
CENTER2
 62
    4
 10
291.23999260361393
 20
218.69008818439005
 11
290.62964835711568
 21
217.21038038073326
  0
LINE
  8
_1-6_ばね
  6
CENTER2
 62
    4
 10
290.23744191288819
 20
216.25952200941651
 11
286.15000000000089
 21
206.35000007946647
  0
LINE
  8
_1-0_躯体
  6
CENTER2
 62
    4
 10
288.07179396077356
 20
214.8333333333334
 11
268.33333333333331
 21
214.8333333333334
  0
LINE
  8
_1-f_寸法
  6
CONTINUOUS
 62
    4
 10
268.33333333333371
 20
203.50000000000011
 11
261.73333333333369
 21
203.50000000000011
  0
LINE
  8
_1-f_寸法
  6
CONTINUOUS
 62
    4
 10
268.33333333333371
 20
214.8333333333334
 11
261.73333333333369
 21
214.8333333333334
  0
POINT
  8
_1-f_寸法
 62
    4
 10
263.33333333333371
 20
214.8333333333334
  0
POINT
  8
_1-f_寸法
 62
    4
 10
263.33333333333371
 20
203.50000000000011
  0
LINE
  8
_1-f_寸法
  6
CONTINUOUS
 62
    4
 10
263.33333333333371
 20
214.8333333333334
 11
263.33333333333371
 21
203.50000000000011
  0
TEXT
  8
_1-f_寸法
 62
    4
 10
263.33333333333371
 20
207.56666666666678
 40
3.2000000000000002
 41
1
 50
90
  1
34
  0
LINE
  8
_1-f_寸法
  6
CONTINUOUS
 62
    4
 10
364.99999999999989
 20
226.49998737361469
 11
373.26666666666654
 21
226.49998737361469
  0
LINE
  8
_1-f_寸法
  6
CONTINUOUS
 62
    4
 10
364.99999999999989
 20
203.5
 11
373.26666666666654
 21
203.5
  0
POINT
  8
_1-f_寸法
 62
    4
 10
371.66666666666657
 20
203.5
  0
POINT
  8
_1-f_寸法
 62
    4
 10
371.66666666666657
 20
226.49998737361469
  0
LINE
  8
_1-f_寸法
  6
CONTINUOUS
 62
    4
 10
371.66666666666657
 20
203.5
 11
371.66666666666657
 21
226.49998737361469
  0
TEXT
  8
_1-f_寸法
 62
    4
 10
371.66666666666657
 20
213.39999368680736
 40
3.2000000000000002
 41
1
 50
90
  1
69
  0
LINE
  8
_1-f_寸法
  6
CONTINUOUS
 62
    4
 10
359.99999999999989
 20
226.49999364707415
 11
295
 21
226.49999364707415
  0
LINE
  8
_1-f_寸法
  6
CONTINUOUS
 62
    4
 10
354.66666666961737
 20
230.16666666666669
 11
354.66666666961737
 21
213.50000000000003
  0
LINE
  8
_1-f_寸法
  6
CONTINUOUS
 62
    4
 10
354.66666666961737
 20
230.16666666666669
 11
354.66666666961737
 21
241.76666666666665
  0
LINE
  8
_1-f_寸法
  6
CONTINUOUS
 62
    4
 10
285
 20
230.16666666666669
 11
285
 21
241.76666666666665
  0
POINT
  8
_1-f_寸法
 62
    4
 10
285
 20
240.16666666666666
  0
POINT
  8
_1-f_寸法
 62
    4
 10
354.66666666961737
 20
240.16666666666666
  0
LINE
  8
_1-f_寸法
  6
CONTINUOUS
 62
    4
 10
285
 20
240.16666666666666
 11
354.66666666961737
 21
240.16666666666666
  0
TEXT
  8
_1-f_寸法
 62
    4
 10
317.43333333480865
 20
240.16666666666666
 40
3.2000000000000002
 41
1
 50
0
  1
209
  0
LINE
  8
_1-f_寸法
  6
CONTINUOUS
 62
    4
 10
135
 20
178.50000000000003
 11
135
 21
171.90000000000003
  0
LINE
  8
_1-f_寸法
  6
CONTINUOUS
 62
    4
 10
85
 20
178.50000000000003
 11
85
 21
171.90000000000003
  0
POINT
  8
_1-f_寸法
 62
    4
 10
85
 20
173.50000000000003
  0
POINT
  8
_1-f_寸法
 62
    4
 10
135
 20
173.50000000000003
  0
LINE
  8
_1-f_寸法
  6
CONTINUOUS
 62
    4
 10
85
 20
173.50000000000003
 11
135
 21
173.50000000000003
  0
TEXT
  8
_1-f_寸法
 62
    4
 10
107.59999999999999
 20
173.50000000000003
 40
3.2000000000000002
 41
1
 50
0
  1
150
  0
LINE
  8
_1-0_躯体
  6
CENTER2
 62
    4
 10
110
 20
180.16666666666669
 11
110
 21
216.83333333333337
  0
INSERT
  2
-024-_23_
  8
_1-0_躯体
 10
210
 20
148.5
 41
1
 42
1
 50
0
  0
LINE
  8
_1-0_躯体
  6
CENTER2
 62
    4
 10
346.66666674613316
 20
209.90512731310656
 11
346.66666674613316
 21
186.83333333333331
  0
LINE
  8
_1-0_躯体
  6
CONTINUOUS
 62
    6
 10
358.33333333333326
 20
203.5
 11
335
 21
203.5
  0
LINE
  8
_1-0_躯体
  6
CENTER2
 62
    4
 10
310
 20
180.16666666666666
 11
310
 21
233.24045199048243
  0
LINE
  8
_1-0_躯体
  6
CONTINUOUS
 62
    6
 10
285
 20
228.142200830886
 11
285
 21
180.16666666666666
  0
LINE
  8
_1-0_躯体
  6
CONTINUOUS
 62
    6
 10
335
 20
203.5
 11
335
 21
180.16666666666666
  0
LINE
  8
_1-f_寸法
  6
CONTINUOUS
 62
    4
 10
335
 20
178.5
 11
335
 21
171.90000000000001
  0
LINE
  8
_1-f_寸法
  6
CONTINUOUS
 62
    4
 10
285
 20
178.5
 11
285
 21
171.90000000000001
  0
POINT
  8
_1-f_寸法
 62
    4
 10
285
 20
173.5
  0
POINT
  8
_1-f_寸法
 62
    4
 10
335
 20
173.5
  0
LINE
  8
_1-f_寸法
  6
CONTINUOUS
 62
    4
 10
285
 20
173.5
 11
335
 21
173.5
  0
TEXT
  8
_1-f_寸法
 62
    4
 10
307.59999999999997
 20
173.5
 40
3.2000000000000002
 41
1
 50
0
  1
150
  0
LINE
  8
_0-0_図面枠
  6
CONTINUOUS
 62
    2
 10
165
 20
246.99999999999994
 11
210
 21
246.99999999999994
  0
LINE
  8
_0-0_図面枠
  6
CONTINUOUS
 62
    2
 10
165
 20
246.99999999999994
 11
165
 21
287
  0
INSERT
  2
-025-_24_
  8
_0-0_図面枠
 10
210
 20
148.5
 41
1
 42
1
 50
0
  0
LINE
  8
_0-0_図面枠
  6
CONTINUOUS
 62
    2
 10
178.99460475445102
 20
263.11505807960714
 11
181.15966826391207
 21
261.86505807960714
  0
LINE
  8
_0-0_図面枠
  6
CONTINUOUS
 62
    2
 10
181.15966826391207
 20
261.86505807960714
 11
195.88210012824754
 21
270.36505807960714
  0
LINE
  8
_0-0_図面枠
  6
CONTINUOUS
 62
    2
 10
195.88210012824754
 20
270.36505807960714
 11
193.71703661878644
 21
271.61505807960714
  0
LINE
  8
_0-0_図面枠
  6
CONTINUOUS
 62
    2
 10
181.15966826391207
 20
261.86505807960714
 11
181.15966826391207
 21
251.86505807960714
  0
LINE
  8
_0-0_図面枠
  6
CONTINUOUS
 62
    2
 10
178.99460475445102
 20
263.11505807960714
 11
178.99460475445102
 21
253.11505807960714
  0
LINE
  8
_0-0_図面枠
  6
CONTINUOUS
 62
    2
 10
195.88210012824754
 20
270.36505807960714
 11
195.88210012824754
 21
270.18409224854935
  0
LINE
  8
_0-0_図面枠
  6
CONTINUOUS
 62
    2
 10
195.88210012824754
 20
268.01364867294285
 11
195.88210012824754
 21
260.36505807960714
  0
LINE
  8
_0-0_図面枠
  6
CONTINUOUS
 62
    2
 10
193.71703661878644
 20
271.61505807960714
 11
193.71703661878644
 21
271.52033947808678
  0
LINE
  8
_0-0_図面枠
  6
CONTINUOUS
 62
    2
 10
193.71703661878644
 20
270.73757885370628
 11
193.71703661878644
 21
269.11505807960714
  0
LINE
  8
_0-0_図面枠
  6
CONTINUOUS
 62
    3
 10
184.19075717715765
 20
266.11505807960714
 11
184.19075717715765
 21
263.61505807960714
  0
LINE
  8
_0-0_図面枠
  6
CONTINUOUS
 62
    3
 10
188.52088419607986
 20
268.61505807960714
 11
188.52088419607986
 21
266.11505807960714
  0
LINE
  8
_0-0_図面枠
  6
CONTINUOUS
 62
    3
 10
184.19075717715765
 20
266.11505807960714
 11
178.99460475445102
 21
263.11505807960714
  0
LINE
  8
_0-0_図面枠
  6
CONTINUOUS
 62
    3
 10
188.52088419607986
 20
268.61505807960714
 11
184.19075717715771
 21
271.11505807960714
  0
LINE
  8
_0-0_図面枠
  6
CONTINUOUS
 62
    3
 10
184.19075717715765
 20
266.11505807960714
 11
179.86063015823549
 21
268.61505807960714
  0
LINE
  8
_0-0_図面枠
  6
CONTINUOUS
 62
    3
 10
178.99460475445102
 20
263.11505807960714
 11
175.53050313931328
 21
261.11505807960714
  0
LINE
  8
_0-0_図面枠
  6
CONTINUOUS
 62
    3
 10
193.71703661878644
 20
271.61505807960714
 11
197.18113823392423
 21
273.61505807960714
  0
LINE
  8
_0-0_図面枠
  6
CONTINUOUS
 62
    3
 10
193.71703661878644
 20
271.61505807960714
 11
193.68236424150382
 21
271.59503997324953
  0
LINE
  8
_0-0_図面枠
  6
CONTINUOUS
 62
    3
 10
192.51835025799221
 20
270.92299618652862
 11
188.52088419607986
 21
268.61505807960714
  0
TEXT
  8
_0-0_図面枠
 62
    4
 10
173.22269212770595
 20
280.88494192039275
 40
2.5
 41
1
 50
0
  1
-75
  0
TEXT
  8
_0-0_図面枠
 62
    4
 10
195.73854581797707
 20
280.88494192039269
 40
2.5
 41
1
 50
0
  1
+75
  0
TEXT
  8
_0-0_図面枠
 62
    4
 10
195.73854581797701
 20
267.88540773128045
 40
2.5
 41
1
 50
0
  1
+75
  0
TEXT
  8
_0-0_図面枠
 62
    4
 10
173.22228872183661
 20
267.88610650082211
 40
2.5
 41
1
 50
0
  1
-75
  0
LINE
  8
_0-0_図面枠
  6
CONTINUOUS
 62
    2
 10
365.00000000000006
 20
247
 11
410.00000000000006
 21
247
  0
LINE
  8
_0-0_図面枠
  6
CONTINUOUS
 62
    2
 10
365.00000000000006
 20
247.00000000000006
 11
365.00000000000006
 21
287.00000000000006
  0
INSERT
  2
-026-_25_
  8
_0-0_図面枠
 10
210
 20
148.5
 41
1
 42
1
 50
0
  0
LINE
  8
_0-0_図面枠
  6
CONTINUOUS
 62
    4
 10
392.70254983187715
 20
272.37647457958172
 11
392.66787745459447
 21
272.35645647322411
  0
LINE
  8
_0-0_図面枠
  6
CONTINUOUS
 62
    2
 10
377.98011796754173
 20
263.87647457958172
 11
380.14518147700278
 21
262.62647457958172
  0
LINE
  8
_0-0_図面枠
  6
CONTINUOUS
 62
    2
 10
380.14518147700278
 20
262.62647457958172
 11
380.14518147700278
 21
252.62647457958172
  0
LINE
  8
_0-0_図面枠
  6
CONTINUOUS
 62
    2
 10
377.98011796754173
 20
263.87647457958172
 11
377.98011796754173
 21
253.87647457958172
  0
LINE
  8
_0-0_図面枠
  6
CONTINUOUS
 62
    2
 10
387.50639740917057
 20
266.87647457958167
 11
390.97049902430831
 21
264.87647457958167
  0
LINE
  8
_0-0_図面枠
  6
CONTINUOUS
 62
    2
 10
390.97049902430831
 20
264.87647457958167
 11
393.13556253376942
 21
266.12647457958167
  0
LINE
  8
_0-0_図面枠
  6
CONTINUOUS
 62
    2
 10
380.14518147700278
 20
262.62647457958172
 11
387.50639740917046
 21
266.87647457958172
  0
LINE
  8
_0-0_図面枠
  6
CONTINUOUS
 62
    2
 10
390.97049902430831
 20
264.87647457958167
 11
390.97049902430831
 21
254.87647457958167
  0
LINE
  8
_0-0_図面枠
  6
CONTINUOUS
 62
    2
 10
393.13556253376942
 20
266.12647457958167
 11
393.13556253376942
 21
256.12647457958167
  0
LINE
  8
_0-0_図面枠
  6
CONTINUOUS
 62
    3
 10
377.98011796754173
 20
263.87647457958172
 11
374.51601635240394
 21
261.87647457958172
  0
LINE
  8
_0-0_図面枠
  6
CONTINUOUS
 62
    3
 10
383.17627039024836
 20
266.87647457958172
 11
383.17627039024836
 21
264.37647457958172
  0
LINE
  8
_0-0_図面枠
  6
CONTINUOUS
 62
    3
 10
383.17627039024836
 20
266.87647457958172
 11
377.98011796754173
 21
263.87647457958172
  0
LINE
  8
_0-0_図面枠
  6
CONTINUOUS
 62
    3
 10
396.16665144701494
 20
264.37647457958172
 11
383.17627039024836
 21
271.87647457958172
  0
LINE
  8
_0-0_図面枠
  6
CONTINUOUS
 62
    3
 10
396.16665144701494
 20
264.37647457958172
 11
400.4967784659371
 21
266.87647457958172
  0
LINE
  8
_0-0_図面枠
  6
CONTINUOUS
 62
    3
 10
396.16665144701494
 20
264.37647457958167
 11
396.16665144701494
 21
254.37647457958167
  0
LINE
  8
_0-0_図面枠
  6
CONTINUOUS
 62
    3
 10
383.17627039024836
 20
266.87647457958172
 11
378.84614337132615
 21
269.37647457958172
  0
TEXT
  8
_0-0_図面枠
 62
    4
 10
372.20860876835116
 20
281.64635842036733
 40
2.5
 41
1
 50
0
  1
-75
  0
TEXT
  8
_0-0_図面枠
 62
    4
 10
394.72446245862227
 20
281.64635842036728
 40
2.5
 41
1
 50
0
  1
+75
  0
TEXT
  8
_0-0_図面枠
 62
    4
 10
394.72446245862227
 20
268.64682423125504
 40
2.5
 41
1
 50
0
  1
+75
  0
TEXT
  8
_0-0_図面枠
 62
    4
 10
372.20820536248186
 20
268.6475230007967
 40
2.5
 41
1
 50
0
  1
-75
  0
INSERT
  2
-027-_26_
  8
_1-7_カバ__
 10
210
 20
148.5
 41
1
 42
1
 50
0
  0
INSERT
  2
-028-_27_
  8
_1-8_小物
 10
210
 20
148.5
 41
1
 42
1
 50
0
  0
INSERT
  2
-029-_28_
  8
_1-8_小物
 10
210
 20
148.5
 41
1
 42
1
 50
0
  0
INSERT
  2
-030-_29_
  8
_1-8_小物
 10
210
 20
148.5
 41
1
 42
1
 50
0
  0
INSERT
  2
-031-_30_
  8
_1-8_小物
 10
210
 20
148.5
 41
1
 42
1
 50
0
  0
LINE
  8
_1-f_寸法
  6
CONTINUOUS
 62
    4
 10
159.99999999999991
 20
211.16666666666663
 11
166.59999999999988
 21
211.16666666666663
  0
LINE
  8
_1-f_寸法
  6
CONTINUOUS
 62
    4
 10
159.99999999999991
 20
203.50000000000003
 11
166.59999999999988
 21
203.50000000000003
  0
POINT
  8
_1-f_寸法
 62
    4
 10
164.99999999999989
 20
203.50000000000003
  0
POINT
  8
_1-f_寸法
 62
    4
 10
164.99999999999989
 20
211.16666666666663
  0
LINE
  8
_1-f_寸法
  6
CONTINUOUS
 62
    4
 10
164.99999999999989
 20
203.50000000000003
 11
164.99999999999989
 21
211.16666666666663
  0
TEXT
  8
_1-f_寸法
 62
    4
 10
164.99999999999989
 20
205.73333333333335
 40
3.2000000000000002
 41
1
 50
90
  1
23
  0
INSERT
  2
-032-_31_
  8
_1-7_カバ__
 10
210
 20
148.5
 41
1
 42
1
 50
0
  0
INSERT
  2
-033-_32_
  8
_1-8_小物
 10
210
 20
148.5
 41
1
 42
1
 50
0
  0
INSERT
  2
-034-_33_
  8
_1-8_小物
 10
210
 20
148.5
 41
1
 42
1
 50
0
  0
LINE
  8
_1-f_寸法
  6
CONTINUOUS
 62
    4
 10
335.3198699671874
 20
213.96334807000156
 11
338.00000000294995
 21
211.16666674613316
  0
LINE
  8
_1-f_寸法
  6
CONTINUOUS
 62
    4
 10
298.59753469289967
 20
213.91236708526222
 11
301.00000000295006
 21
211.16666674613316
  0
LINE
  8
_1-f_寸法
  6
CONTINUOUS
 62
    4
 10
324.07228907454675
 20
211.00000007946647
 11
322.5
 21
213.72328464076668
  0
INSERT
  2
-035-_34_
  8
_1-8_小物
 10
210
 20
148.5
 41
1
 42
1
 50
0
  0
INSERT
  2
-036-_35_
  8
_1-8_小物
 10
210
 20
148.5
 41
1
 42
1
 50
0
  0
LINE
  8
_1-f_寸法
  6
CONTINUOUS
 62
    4
 10
357.15482203135576
 20
207.32148869802245
 11
354.25829491731622
 21
204.42496158398291
  0
LINE
  8
_1-f_寸法
  6
CONTINUOUS
 62
    4
 10
288.82148869802245
 20
228.98815536468911
 11
285.93126770947657
 21
226.09793437614326
  0
POINT
  8
_1-f_寸法
 62
    4
 10
364.99999999999989
 20
226.49998737361469
  0
LINE
  8
_1-f_寸法
  6
CONTINUOUS
 62
    4
 10
364.99999999999989
 20
211.16666674613316
 11
364.99999999999989
 21
226.49998737361469
  0
TEXT
  8
_1-f_寸法
 62
    4
 10
364.99999999999989
 20
217.23332705987391
 40
3.2000000000000002
 41
1
 50
90
  1
46
  0
LINE
  8
_1-f_寸法
  6
CONTINUOUS
 62
    4
 10
359.99999999999989
 20
211.16666674613316
 11
366.59999999999991
 21
211.16666674613316
  0
LINE
  8
_1-f_寸法
  6
CONTINUOUS
 62
    4
 10
359.99999999999989
 20
203.5
 11
366.59999999999991
 21
203.5
  0
POINT
  8
_1-f_寸法
 62
    4
 10
364.99999999999989
 20
203.5
  0
POINT
  8
_1-f_寸法
 62
    4
 10
364.99999999999989
 20
211.16666674613316
  0
LINE
  8
_1-f_寸法
  6
CONTINUOUS
 62
    4
 10
364.99999999999989
 20
203.5
 11
364.99999999999989
 21
211.16666674613316
  0
TEXT
  8
_1-f_寸法
 62
    4
 10
364.99999999999989
 20
205.73333337306659
 40
3.2000000000000002
 41
1
 50
90
  1
23
  0
LINE
  8
_1-f_寸法
  6
CONTINUOUS
 62
    4
 10
359.99999999999989
 20
226.49999364707415
 11
366.59999999999991
 21
226.49999364707415
  0
POINT
  8
_1-f_寸法
 62
    4
 10
364.99999999999989
 20
226.49999364707415
  0
LINE
  8
_1-f_寸法
  6
CONTINUOUS
 62
    4
 10
364.99999999999989
 20
211.16666674613316
 11
364.99999999999989
 21
226.49999364707415
  0
TEXT
  8
_1-f_寸法
 62
    4
 10
364.99999999999989
 20
217.23333019660367
 40
3.2000000000000002
 41
1
 50
90
  1
46
  0
LINE
  8
_1-f_寸法
  6
CONTINUOUS
 62
    4
 10
292.66666666961675
 20
230.16666666666669
 11
292.66666666961675
 21
236.76666666666668
  0
LINE
  8
_1-f_寸法
  6
CONTINUOUS
 62
    4
 10
285
 20
230.16666666666669
 11
285
 21
236.76666666666668
  0
POINT
  8
_1-f_寸法
 62
    4
 10
285
 20
235.16666666666669
  0
POINT
  8
_1-f_寸法
 62
    4
 10
292.66666666961675
 20
235.16666666666669
  0
LINE
  8
_1-f_寸法
  6
CONTINUOUS
 62
    4
 10
285
 20
235.16666666666669
 11
292.66666666961675
 21
235.16666666666669
  0
TEXT
  8
_1-f_寸法
 62
    4
 10
287.23333333480838
 20
235.16666666666669
 40
3.2000000000000002
 41
1
 50
0
  1
23
  0
LINE
  8
_1-f_寸法
  6
CONTINUOUS
 62
    4
 10
354.66666666961737
 20
230.16666666666669
 11
354.66666666961737
 21
236.76666666666668
  0
POINT
  8
_1-f_寸法
 62
    4
 10
354.66666666961737
 20
235.16666666666669
  0
LINE
  8
_1-f_寸法
  6
CONTINUOUS
 62
    4
 10
292.66666666961675
 20
235.16666666666669
 11
354.66666666961737
 21
235.16666666666669
  0
TEXT
  8
_1-f_寸法
 62
    4
 10
321.26666666961705
 20
235.16666666666669
 40
3.2000000000000002
 41
1
 50
0
  1
186
  0
LINE
  8
_1-f_寸法
  6
CONTINUOUS
 62
    4
 10
125.83333333333333
 20
213.72329099369256
 11
124.26104054504313
 21
210.99999999999991
  0
LINE
  8
_1-f_寸法
  6
CONTINUOUS
 62
    4
 10
83.933026000559266
 20
213.88629786733759
 11
81.666666666666771
 21
211.16666666666663
  0
LINE
  8
_1-f_寸法
  6
CONTINUOUS
 62
    4
 10
140.59969266722572
 20
213.88629786733759
 11
138.33333333333326
 21
211.16666666666663
  0
LINE
  8
_1-f_寸法
  6
CONTINUOUS
 62
    4
 10
295.83333333333348
 20
220.38995764172574
 11
291.61666666666537
 21
213.08647673647457
  0
LINE
  8
_1-f_寸法
  6
CONTINUOUS
 62
    4
 10
62.845177889177705
 20
207.32148869802248
 11
65.336276260425592
 21
204.83039032677462
  0
LINE
  8
_1-f_寸法
  6
CONTINUOUS
 62
    4
 10
157.15482211082229
 20
207.32148869802248
 11
154.72183780237089
 21
204.88850438957107
  0
LINE
  8
_1-f_寸法
  6
CONTINUOUS
 62
    4
 10
145.53401258736039
 20
213.94401687444952
 11
137.52016206066324
 21
205.29342102145341
  0
LINE
  8
_1-f_寸法
  6
CONTINUOUS
 62
    4
 10
343.99867172131763
 20
213.83433057690229
 11
337.53955513113897
 21
205.24003207806072
  0
ENDSEC
  0
EOF
