  0
SECTION
  2
HEADER
  9
$ACADVER
  1
AC1009
  9
$INSBASE
 10
0
 20
0
 30
0
  9
$EXTMIN
 10
0
 20
0
  9
$EXTMAX
 10
420
 20
297
  9
$LIMMIN
 10
0
 20
0
  9
$LIMMAX
 10
420
 20
297
  9
$LTSCALE
 40
1
  0
ENDSEC
  0
SECTION
  2
TABLES
  0
TABLE
  2
LTYPE
 70
     9
  0
LTYPE
  2
CONTINUOUS
 70
    64
  3
実線
 72
    65
 73
     0
 40
0.0
  0
LTYPE
  2
DASHED1
 70
    64
  3
--  --  --  --  --  --  --  --  
 72
    65
 73
     2
 40
2.5
 49
1.25
 49
-1.25
  0
LTYPE
  2
DASHED2
 70
    64
  3
----    ----    ----    ----    
 72
    65
 73
     2
 40
5.0
 49
2.5
 49
-2.5
  0
LTYPE
  2
DASHED3
 70
    64
  3
------  ------  ------  ------  
 72
    65
 73
     2
 40
5.0
 49
3.75
 49
-1.25
  0
LTYPE
  2
CENTER1
 70
    64
  3
----- - ----- - ----- - ----- - 
 72
    65
 73
     4
 40
10.0
 49
6.25
 49
-1.25
 49
1.25
 49
-1.25
  0
LTYPE
  2
CENTER2
 70
    64
  3
----------  --  ----------  --  
 72
    65
 73
     4
 40
20.0
 49
12.5
 49
-2.5
 49
2.5
 49
-2.5
  0
LTYPE
  2
PHANTOM1
 70
    64
  3
--- - - --- - - --- - - --- - - 
 72
    65
 73
     6
 40
10.0
 49
3.25
 49
-1.25
 49
1.25
 49
-1.25
 49
1.25
 49
-1.25
  0
LTYPE
  2
PHANTOM2
 70
    64
  3
--------  -  -  --------  -  -  
 72
    65
 73
     6
 40
20.0
 49
10.0
 49
-2.5
 49
1.25
 49
-2.5
 49
1.25
 49
-2.5
  0
LTYPE
  2
DOT
 70
    64
  3
-   -   -   -   -   -   -   -   
 72
    65
 73
     2
 40
2.5
 49
0.625
 49
-1.875
  0
LTYPE
  2
DUMMY
 70
    64
  3
ダミー
 72
    65
 73
     0
 40
0.0
  0
LTYPE
  2
RAND1
 70
    64
  3
ランダム線1
 72
    65
 73
     4
 40
10.0
 49
1.0
 49
-2.0
 49
3.0
 49
-4.0
  0
LTYPE
  2
RAND2
 70
    64
  3
ランダム線2
 72
    65
 73
     4
 40
14.0
 49
2.0
 49
-3.0
 49
4.0
 49
-5.0
  0
LTYPE
  2
RAND3
 70
    64
  3
ランダム線3
 72
    65
 73
     4
 40
18.0
 49
3.0
 49
-4.0
 49
5.0
 49
-6.0
  0
LTYPE
  2
RAND4
 70
    64
  3
ランダム線4
 72
    65
 73
     4
 40
22.0
 49
4.0
 49
-5.0
 49
6.0
 49
-7.0
  0
LTYPE
  2
RAND5
 70
    64
  3
ランダム線5
 72
    65
 73
     4
 40
26.0
 49
5.0
 49
-6.0
 49
7.0
 49
-8.0
  0
LTYPE
  2
LONG1
 70
    64
  3
----------  --  ----------  --  
 72
    65
 73
     4
 40
40.0
 49
32.5
 49
-2.5
 49
2.5
 49
-2.5
  0
LTYPE
  2
LONG2
 70
    64
  3
--------  -  -  --------  -  -  
 72
    65
 73
     6
 40
40.0
 49
30.0
 49
-2.5
 49
1.25
 49
-2.5
 49
1.25
 49
-2.5
  0
LTYPE
  2
LONG3
 70
    64
  3
+++++++++++++++..+++++++++++++++
 72
    65
 73
     2
 40
40.0
 49
37.5
 49
-2.5
  0
LTYPE
  2
LONG4
 70
    64
  3
+++++++++++++++..+++++++++++++++
 72
    65
 73
     2
 40
80.0
 49
75.0
 49
-5.0
  0
LTYPE
  2
LONG5
 70
    64
  3
----------  --  ----------  --  
 72
    65
 73
     4
 40
60.0
 49
37.5
 49
-7.5
 49
7.5
 49
-7.5
  0
LTYPE
  2
dashed
 70
   64
  3
-------   -------------   ------
 72
   65
 73
    2
 40
7.5
 49
6
 49
-1.5
  0
LTYPE
  2
dashed_spaced
 70
   64
  3
----        --------        ----
 72
   65
 73
    2
 40
12
 49
6
 49
-6
  0
LTYPE
  2
long_dashed_dotted
 70
   64
  3
------------- --- --------------
 72
   65
 73
    4
 40
15.25
 49
12
 49
-1.5
 49
0.25
 49
-1.5
  0
LTYPE
  2
long_dashed_double-dotted
 70
   64
  3
----------- --- --- ------------
 72
   65
 73
    6
 40
17
 49
12
 49
-1.5
 49
0.25
 49
-1.5
 49
0.25
 49
-1.5
  0
LTYPE
  2
long_dashed_triplicate-dotted
 70
   64
  3
--------- --- --- --- ----------
 72
   65
 73
    8
 40
18.75
 49
12
 49
-1.5
 49
0.25
 49
-1.5
 49
0.25
 49
-1.5
 49
0.25
 49
-1.5
  0
LTYPE
  2
dotted
 70
   64
  3
   -       -       -       -    
 72
   65
 73
    2
 40
1.75
 49
0.25
 49
-1.5
  0
LTYPE
  2
chain
 70
   64
  3
-------------- -- --------------
 72
   65
 73
    4
 40
18.5
 49
12
 49
-1.5
 49
3.5
 49
-1.5
  0
LTYPE
  2
chain_double_dash
 70
   64
  3
------------ -- -- -------------
 72
   65
 73
    6
 40
23.5
 49
12
 49
-1.5
 49
3.5
 49
-1.5
 49
3.5
 49
-1.5
  0
LTYPE
  2
dashed_dotted
 70
   64
  3
-----------     -     ----------
 72
   65
 73
    4
 40
9.25
 49
6
 49
-1.5
 49
0.25
 49
-1.5
  0
LTYPE
  2
double-dashed_dotted
 70
   64
  3
------   -----------   -   -----
 72
   65
 73
    6
 40
16.75
 49
6
 49
-1.5
 49
6
 49
-1.5
 49
0.25
 49
-1.5
  0
LTYPE
  2
dashed_double-dotted
 70
   64
  3
---------    -    -    ---------
 72
   65
 73
    6
 40
11
 49
6
 49
-1.5
 49
0.25
 49
-1.5
 49
0.25
 49
-1.5
  0
LTYPE
  2
double-dashed_double-dotted
 70
   64
  3
-----   ---------   -   -   ----
 72
   65
 73
    8
 40
18.5
 49
6
 49
-1.5
 49
6
 49
-1.5
 49
0.25
 49
-1.5
 49
0.25
 49
-1.5
  0
LTYPE
  2
dashed_triplicate-dotted
 70
   64
  3
-------    -    -    -    ------
 72
   65
 73
    8
 40
12.75
 49
6
 49
-1.5
 49
0.25
 49
-1.5
 49
0.25
 49
-1.5
 49
0.25
 49
-1.5
  0
LTYPE
  2
double-dashed_triplicate-dotted
 70
   64
  3
-----  ---------  -  -  -  -----
 72
   65
 73
   10
 40
20.25
 49
6
 49
-1.5
 49
6
 49
-1.5
 49
0.25
 49
-1.5
 49
0.25
 49
-1.5
 49
0.25
 49
-1.5
  0
LTYPE
  2
undefined
 70
   64
  3
--------------------------------
 72
   65
 73
    0
 40
0
  0
ENDTAB
  0
TABLE
  2
STYLE
  5
3
100
AcDbSymbolTable
 70
     1
  0
STYLE
  5
10
100
AcDbSymbolTableRecord
100
AcDbTextStyleTableRecord
  2
STANDARD
 70
     0
 40
0.0
 41
1.0
 50
0.0
 71
     0
 42
0.2
  3
txt
  4
bigfont.shx
  0
STYLE
  5
26
100
AcDbSymbolTableRecord
100
AcDbTextStyleTableRecord
  2
TATEGAKI
 70
    68
 40
0.0
 41
1.0
 50
0.0
 71
     0
 42
1.0
  3
txt
  4
bigfont.shx
  0
ENDTAB
  0
TABLE
  2
LAYER
 70
   10
  0
LAYER
  2
_0-0_図面枠
 70
   64
 62
    7
  6
CONTINUOUS
  0
LAYER
  2
_0-f_
 70
   64
 62
    7
  6
CONTINUOUS
  0
LAYER
  2
_1-0_躯体
 70
   64
 62
    7
  6
CONTINUOUS
  0
LAYER
  2
_1-4_フレ__ム
 70
   64
 62
    7
  6
CONTINUOUS
  0
LAYER
  2
_1-5_ア__ム
 70
   64
 62
    7
  6
CONTINUOUS
  0
LAYER
  2
_1-6_ばね
 70
   64
 62
    7
  6
CONTINUOUS
  0
LAYER
  2
_1-7_カバ__
 70
   64
 62
    7
  6
CONTINUOUS
  0
LAYER
  2
_1-8_小物
 70
   64
 62
    7
  6
CONTINUOUS
  0
LAYER
  2
_1-f_寸法
 70
   64
 62
    7
  6
CONTINUOUS
  0
LAYER
  2
ADD_LINE
 70
   64
 62
    7
  6
CONTINUOUS
  0
ENDTAB
  0
ENDSEC
  0
SECTION
  2
BLOCKS
  0
BLOCK
  2
-000-
 70
   64
 10
0
 20
0
 30
0
  0
LINE
  8
_1-8_小物
  6
CONTINUOUS
 62
    4
 10
-61.787483860264587
 20
-19
 11
-59.787483860264587
 21
-19
  0
LINE
  8
_1-8_小物
  6
CONTINUOUS
 62
    4
 10
-62.120817193597929
 20
-19.707106781186582
 11
-62.120817193597929
 21
-18.292893218813447
  0
LINE
  8
_1-8_小物
  6
CONTINUOUS
 62
    4
 10
-62.120817193597929
 20
-18.292893218813447
 11
-59.454150526931244
 21
-18.292893218813447
  0
LINE
  8
_1-8_小物
  6
CONTINUOUS
 62
    4
 10
-59.454150526931244
 20
-19.707106781186582
 11
-59.454150526931244
 21
-18.292893218813447
  0
LINE
  8
_1-8_小物
  6
CONTINUOUS
 62
    4
 10
-62.120817193597929
 20
-19.707106781186582
 11
-59.454150526931244
 21
-19.707106781186582
  0
ENDBLK
  0
BLOCK
  2
-001-_1_
 70
   64
 10
0
 20
0
 30
0
  0
LINE
  8
_1-8_小物
  6
CONTINUOUS
 62
    4
 10
-118.45415052693124
 20
-19
 11
-120.45415052693124
 21
-19
  0
LINE
  8
_1-8_小物
  6
CONTINUOUS
 62
    4
 10
-118.12081719359792
 20
-19.707106781186582
 11
-118.12081719359792
 21
-18.292893218813447
  0
LINE
  8
_1-8_小物
  6
CONTINUOUS
 62
    4
 10
-118.12081719359792
 20
-18.292893218813447
 11
-120.78748386026459
 21
-18.292893218813447
  0
LINE
  8
_1-8_小物
  6
CONTINUOUS
 62
    4
 10
-120.78748386026459
 20
-19.707106781186582
 11
-120.78748386026459
 21
-18.292893218813447
  0
LINE
  8
_1-8_小物
  6
CONTINUOUS
 62
    4
 10
-118.12081719359792
 20
-19.707106781186582
 11
-120.78748386026459
 21
-19.707106781186582
  0
ENDBLK
  0
BLOCK
  2
-002-_2_
 70
   64
 10
0
 20
0
 30
0
  0
LINE
  8
_1-8_小物
  6
CONTINUOUS
 62
    4
 10
138.21251613973538
 20
-19
 11
140.21251613973538
 21
-19
  0
LINE
  8
_1-8_小物
  6
CONTINUOUS
 62
    4
 10
137.87918280640207
 20
-19.707106781186582
 11
137.87918280640207
 21
-18.292893218813447
  0
LINE
  8
_1-8_小物
  6
CONTINUOUS
 62
    4
 10
137.87918280640207
 20
-18.292893218813447
 11
140.54584947306876
 21
-18.292893218813447
  0
LINE
  8
_1-8_小物
  6
CONTINUOUS
 62
    4
 10
140.54584947306876
 20
-19.707106781186582
 11
140.54584947306876
 21
-18.292893218813447
  0
LINE
  8
_1-8_小物
  6
CONTINUOUS
 62
    4
 10
137.87918280640207
 20
-19.707106781186582
 11
140.54584947306876
 21
-19.707106781186582
  0
ENDBLK
  0
BLOCK
  2
-003-_3_
 70
   64
 10
0
 20
0
 30
0
  0
LINE
  8
_1-8_小物
  6
CONTINUOUS
 62
    4
 10
81.545849473068756
 20
-19
 11
79.545849473068756
 21
-19
  0
LINE
  8
_1-8_小物
  6
CONTINUOUS
 62
    4
 10
81.879182806402071
 20
-19.707106781186582
 11
81.879182806402071
 21
-18.292893218813447
  0
LINE
  8
_1-8_小物
  6
CONTINUOUS
 62
    4
 10
81.879182806402071
 20
-18.292893218813447
 11
79.212516139735385
 21
-18.292893218813447
  0
LINE
  8
_1-8_小物
  6
CONTINUOUS
 62
    4
 10
79.212516139735385
 20
-19.707106781186582
 11
79.212516139735385
 21
-18.292893218813447
  0
LINE
  8
_1-8_小物
  6
CONTINUOUS
 62
    4
 10
81.879182806402071
 20
-19.707106781186582
 11
79.212516139735385
 21
-19.707106781186582
  0
ENDBLK
  0
BLOCK
  2
-004-
 70
   64
 10
0
 20
0
 30
0
  0
LINE
  8
_1-8_小物
  6
CONTINUOUS
 62
    4
 10
-61.787483860264587
 20
-19
 11
-59.787483860264587
 21
-19
  0
LINE
  8
_1-8_小物
  6
CONTINUOUS
 62
    4
 10
-62.120817193597929
 20
-19.707106781186582
 11
-62.120817193597929
 21
-18.292893218813447
  0
LINE
  8
_1-8_小物
  6
CONTINUOUS
 62
    4
 10
-62.120817193597929
 20
-18.292893218813447
 11
-59.454150526931244
 21
-18.292893218813447
  0
LINE
  8
_1-8_小物
  6
CONTINUOUS
 62
    4
 10
-59.454150526931244
 20
-19.707106781186582
 11
-59.454150526931244
 21
-18.292893218813447
  0
LINE
  8
_1-8_小物
  6
CONTINUOUS
 62
    4
 10
-62.120817193597929
 20
-19.707106781186582
 11
-59.454150526931244
 21
-19.707106781186582
  0
ENDBLK
  0
BLOCK
  2
-005-_4_
 70
   64
 10
0
 20
0
 30
0
  0
LINE
  8
_1-8_小物
  6
CONTINUOUS
 62
    4
 10
-118.45415052693124
 20
-19
 11
-120.45415052693124
 21
-19
  0
LINE
  8
_1-8_小物
  6
CONTINUOUS
 62
    4
 10
-118.12081719359792
 20
-19.707106781186582
 11
-118.12081719359792
 21
-18.292893218813447
  0
LINE
  8
_1-8_小物
  6
CONTINUOUS
 62
    4
 10
-118.12081719359792
 20
-18.292893218813447
 11
-120.78748386026459
 21
-18.292893218813447
  0
LINE
  8
_1-8_小物
  6
CONTINUOUS
 62
    4
 10
-120.78748386026459
 20
-19.707106781186582
 11
-120.78748386026459
 21
-18.292893218813447
  0
LINE
  8
_1-8_小物
  6
CONTINUOUS
 62
    4
 10
-118.12081719359792
 20
-19.707106781186582
 11
-120.78748386026459
 21
-19.707106781186582
  0
ENDBLK
  0
BLOCK
  2
-006-_5_
 70
   64
 10
0
 20
0
 30
0
  0
LINE
  8
_1-8_小物
  6
CONTINUOUS
 62
    4
 10
138.21251613973538
 20
-19
 11
140.21251613973538
 21
-19
  0
LINE
  8
_1-8_小物
  6
CONTINUOUS
 62
    4
 10
137.87918280640207
 20
-19.707106781186582
 11
137.87918280640207
 21
-18.292893218813447
  0
LINE
  8
_1-8_小物
  6
CONTINUOUS
 62
    4
 10
137.87918280640207
 20
-18.292893218813447
 11
140.54584947306876
 21
-18.292893218813447
  0
LINE
  8
_1-8_小物
  6
CONTINUOUS
 62
    4
 10
140.54584947306876
 20
-19.707106781186582
 11
140.54584947306876
 21
-18.292893218813447
  0
LINE
  8
_1-8_小物
  6
CONTINUOUS
 62
    4
 10
137.87918280640207
 20
-19.707106781186582
 11
140.54584947306876
 21
-19.707106781186582
  0
ENDBLK
  0
BLOCK
  2
-007-_6_
 70
   64
 10
0
 20
0
 30
0
  0
LINE
  8
_1-8_小物
  6
CONTINUOUS
 62
    4
 10
81.545849473068756
 20
-19
 11
79.545849473068756
 21
-19
  0
LINE
  8
_1-8_小物
  6
CONTINUOUS
 62
    4
 10
81.879182806402071
 20
-19.707106781186582
 11
81.879182806402071
 21
-18.292893218813447
  0
LINE
  8
_1-8_小物
  6
CONTINUOUS
 62
    4
 10
81.879182806402071
 20
-18.292893218813447
 11
79.212516139735385
 21
-18.292893218813447
  0
LINE
  8
_1-8_小物
  6
CONTINUOUS
 62
    4
 10
79.212516139735385
 20
-19.707106781186582
 11
79.212516139735385
 21
-18.292893218813447
  0
LINE
  8
_1-8_小物
  6
CONTINUOUS
 62
    4
 10
81.879182806402071
 20
-19.707106781186582
 11
79.212516139735385
 21
-19.707106781186582
  0
ENDBLK
  0
BLOCK
  2
-008-_7_
 70
   64
 10
0
 20
0
 30
0
  0
LINE
  8
_1-8_小物
  6
CONTINUOUS
 62
    4
 10
-134.86390833333343
 20
45.07339166666668
 11
-134.82901833333378
 21
44.407638333333296
  0
LINE
  8
_1-8_小物
  6
CONTINUOUS
 62
    4
 10
-134.91624500000032
 20
46.072021666666558
 11
-135.564551666667
 21
45.704254999999989
  0
LINE
  8
_1-8_小物
  6
CONTINUOUS
 62
    4
 10
-135.564551666667
 20
45.704254999999989
 11
-135.52966166666675
 21
45.038501666666605
  0
LINE
  8
_1-8_小物
  6
CONTINUOUS
 62
    4
 10
-135.52966166666675
 20
45.038501666666605
 11
-134.86390833333343
 21
45.07339166666668
  0
LINE
  8
_1-8_小物
  6
CONTINUOUS
 62
    4
 10
-134.95113500000022
 20
46.737774999999999
 11
-134.91624500000032
 21
46.072021666666558
  0
LINE
  8
_1-8_小物
  6
CONTINUOUS
 62
    4
 10
-135.00347166666685
 20
47.736403333333357
 11
-135.65177833333379
 21
47.368636666666475
  0
LINE
  8
_1-8_小物
  6
CONTINUOUS
 62
    4
 10
-135.65177833333379
 20
47.368636666666475
 11
-135.61688833333363
 21
46.702883333333318
  0
LINE
  8
_1-8_小物
  6
CONTINUOUS
 62
    4
 10
-135.61688833333363
 20
46.702883333333318
 11
-134.95113500000022
 21
46.737774999999999
  0
LINE
  8
_1-8_小物
  6
CONTINUOUS
 62
    4
 10
-135.03836166666707
 20
48.402156666666713
 11
-135.00347166666685
 21
47.736403333333357
  0
LINE
  8
_1-8_小物
  6
CONTINUOUS
 62
    4
 10
-135.09069833333339
 20
49.400786666666477
 11
-135.73900500000008
 21
49.033020000000022
  0
LINE
  8
_1-8_小物
  6
CONTINUOUS
 62
    4
 10
-135.73900500000008
 20
49.033020000000022
 11
-135.70411500000046
 21
48.367266666666666
  0
LINE
  8
_1-8_小物
  6
CONTINUOUS
 62
    4
 10
-135.70411500000046
 20
48.367266666666666
 11
-135.03836166666707
 21
48.402156666666713
  0
LINE
  8
_1-8_小物
  6
CONTINUOUS
 62
    4
 10
-135.12558833333361
 20
50.066539999999975
 11
-135.09069833333339
 21
49.400786666666477
  0
LINE
  8
_1-8_小物
  6
CONTINUOUS
 62
    4
 10
-135.17792500000024
 20
51.065170000000023
 11
-135.8262316666669
 21
50.697401666666678
  0
LINE
  8
_1-8_小物
  6
CONTINUOUS
 62
    4
 10
-135.8262316666669
 20
50.697401666666678
 11
-135.79134166666697
 21
50.031648333333294
  0
LINE
  8
_1-8_小物
  6
CONTINUOUS
 62
    4
 10
-135.79134166666697
 20
50.031648333333294
 11
-135.12558833333361
 21
50.066539999999975
  0
LINE
  8
_1-8_小物
  6
CONTINUOUS
 62
    4
 10
-135.21281500000018
 20
51.730921666666632
 11
-135.17792500000024
 21
51.065170000000023
  0
LINE
  8
_1-8_小物
  6
CONTINUOUS
 62
    4
 10
-135.91345833333372
 20
52.361784999999941
 11
-135.8785683333335
 21
51.696031666666556
  0
LINE
  8
_1-8_小物
  6
CONTINUOUS
 62
    4
 10
-135.8785683333335
 20
51.696031666666556
 11
-135.21281500000018
 21
51.730921666666632
  0
LINE
  8
_1-8_小物
  6
CONTINUOUS
 62
    4
 10
-135.33333333333366
 20
52.666666666666686
 11
-135.91345833333372
 21
52.361784999999941
  0
LINE
  8
_1-8_小物
  6
CONTINUOUS
 62
    4
 10
-138.46942500000023
 20
45.07339166666668
 11
-138.5043150000001
 21
44.407638333333296
  0
LINE
  8
_1-8_小物
  6
CONTINUOUS
 62
    4
 10
-138.41708833333357
 20
46.072021666666558
 11
-137.76878166666694
 21
45.704254999999989
  0
LINE
  8
_1-8_小物
  6
CONTINUOUS
 62
    4
 10
-137.76878166666694
 20
45.704254999999989
 11
-137.80367166666719
 21
45.038501666666605
  0
LINE
  8
_1-8_小物
  6
CONTINUOUS
 62
    4
 10
-137.80367166666719
 20
45.038501666666605
 11
-138.46942500000023
 21
45.07339166666668
  0
LINE
  8
_1-8_小物
  6
CONTINUOUS
 62
    4
 10
-138.38219833333341
 20
46.737774999999999
 11
-138.41708833333357
 21
46.072021666666558
  0
LINE
  8
_1-8_小物
  6
CONTINUOUS
 62
    4
 10
-138.32986166666703
 20
47.736403333333357
 11
-137.6815550000004
 21
47.368636666666475
  0
LINE
  8
_1-8_小物
  6
CONTINUOUS
 62
    4
 10
-137.6815550000004
 20
47.368636666666475
 11
-137.71644499999999
 21
46.702883333333318
  0
LINE
  8
_1-8_小物
  6
CONTINUOUS
 62
    4
 10
-137.71644499999999
 20
46.702883333333318
 11
-138.38219833333341
 21
46.737774999999999
  0
LINE
  8
_1-8_小物
  6
CONTINUOUS
 62
    4
 10
-138.29497166666712
 20
48.402156666666713
 11
-138.32986166666703
 21
47.736403333333357
  0
LINE
  8
_1-8_小物
  6
CONTINUOUS
 62
    4
 10
-138.24263500000049
 20
49.400786666666477
 11
-137.59432833333355
 21
49.033020000000022
  0
LINE
  8
_1-8_小物
  6
CONTINUOUS
 62
    4
 10
-137.59432833333355
 20
49.033020000000022
 11
-137.62921833333348
 21
48.367266666666666
  0
LINE
  8
_1-8_小物
  6
CONTINUOUS
 62
    4
 10
-137.62921833333348
 20
48.367266666666666
 11
-138.29497166666712
 21
48.402156666666713
  0
LINE
  8
_1-8_小物
  6
CONTINUOUS
 62
    4
 10
-138.20774500000033
 20
50.066539999999975
 11
-138.24263500000049
 21
49.400786666666477
  0
LINE
  8
_1-8_小物
  6
CONTINUOUS
 62
    4
 10
-138.15540833333336
 20
51.065170000000023
 11
-137.50710166666676
 21
50.697401666666678
  0
LINE
  8
_1-8_小物
  6
CONTINUOUS
 62
    4
 10
-137.50710166666676
 20
50.697401666666678
 11
-137.54199166666692
 21
50.031648333333294
  0
LINE
  8
_1-8_小物
  6
CONTINUOUS
 62
    4
 10
-137.54199166666692
 20
50.031648333333294
 11
-138.20774500000033
 21
50.066539999999975
  0
LINE
  8
_1-8_小物
  6
CONTINUOUS
 62
    4
 10
-138.12051833333379
 20
51.730921666666632
 11
-138.15540833333336
 21
51.065170000000023
  0
LINE
  8
_1-8_小物
  6
CONTINUOUS
 62
    4
 10
-137.41987500000022
 20
52.361784999999941
 11
-137.45476500000038
 21
51.696031666666556
  0
LINE
  8
_1-8_小物
  6
CONTINUOUS
 62
    4
 10
-137.45476500000038
 20
51.696031666666556
 11
-138.12051833333379
 21
51.730921666666632
  0
LINE
  8
_1-8_小物
  6
CONTINUOUS
 62
    4
 10
-136.68643500000024
 20
44.68643499999996
 11
-136.0418683333337
 21
45.258324999999957
  0
LINE
  8
_1-8_小物
  6
CONTINUOUS
 62
    4
 10
-137.28981500000037
 20
45.289813333333342
 11
-136.66666666666669
 21
44.666666666666544
  0
LINE
  8
_1-8_小物
  6
CONTINUOUS
 62
    4
 10
-137.99999999999997
 20
52.666666666666686
 11
-137.41987500000022
 21
52.361784999999941
  0
LINE
  8
_1-8_小物
  6
CONTINUOUS
 62
    4
 10
-135.12558833333361
 20
50.066539999999975
 11
-134.56046666666711
 21
51.619199999999807
  0
LINE
  8
_1-8_小物
  6
CONTINUOUS
 62
    4
 10
-135.4803150000001
 20
50.066539999999975
 11
-134.87369666666683
 21
51.733206666666661
  0
LINE
  8
_1-8_小物
  6
CONTINUOUS
 62
    4
 10
-138.20774500000033
 20
50.066539999999975
 11
-138.77286666666686
 21
51.619199999999807
  0
LINE
  8
_1-8_小物
  6
CONTINUOUS
 62
    4
 10
-137.85301833333386
 20
50.066539999999975
 11
-138.45963666666711
 21
51.733206666666661
  0
LINE
  8
_1-8_小物
  6
CONTINUOUS
 62
    4
 10
-135.99408500000024
 20
44.346579999999847
 11
-134.82901833333378
 21
44.407638333333296
  0
LINE
  8
_1-8_小物
  6
CONTINUOUS
 62
    4
 10
-134.82901833333378
 20
44.407638333333296
 11
-135.45988000000034
 21
43.706995000000035
  0
LINE
  8
_1-8_小物
  6
CONTINUOUS
 62
    4
 10
-135.45988000000034
 20
43.706995000000035
 11
-135.95919500000008
 21
43.680826666666576
  0
LINE
  8
_1-8_小物
  6
CONTINUOUS
 62
    4
 10
-135.95919500000008
 20
43.680826666666576
 11
-136.49999999999997
 21
53.999999999999886
  0
LINE
  8
_1-8_小物
  6
CONTINUOUS
 62
    4
 10
-135.33333333333366
 20
52.666666666666686
 11
-135.33333333333366
 21
53.999999999999886
  0
LINE
  8
_1-8_小物
  6
CONTINUOUS
 62
    4
 10
-137.33924833333364
 20
44.346579999999847
 11
-138.5043150000001
 21
44.407638333333296
  0
LINE
  8
_1-8_小物
  6
CONTINUOUS
 62
    4
 10
-138.5043150000001
 20
44.407638333333296
 11
-137.8734533333336
 21
43.706995000000035
  0
LINE
  8
_1-8_小物
  6
CONTINUOUS
 62
    4
 10
-137.8734533333336
 20
43.706995000000035
 11
-137.37413833333355
 21
43.680826666666576
  0
LINE
  8
_1-8_小物
  6
CONTINUOUS
 62
    4
 10
-137.37413833333355
 20
43.680826666666576
 11
-136.83333333333366
 21
53.999999999999886
  0
LINE
  8
_1-8_小物
  6
CONTINUOUS
 62
    4
 10
-137.99999999999997
 20
52.666666666666686
 11
-137.99999999999997
 21
53.999999999999886
  0
LINE
  8
_1-8_小物
  6
CONTINUOUS
 62
    4
 10
-138.77286666666686
 20
51.619199999999807
 11
-139.10365166666696
 21
53.88707333333349
  0
ARC
  8
_1-8_小物
  6
CONTINUOUS
 62
    4
 10
-138.9717150000003
 20
53.906318333333303
 40
0.1333333333333333
 50
98.130101999953808
 51
188.29846600000073
  0
LINE
  8
_1-8_小物
  6
CONTINUOUS
 62
    4
 10
-138.99057166666714
 20
54.03831166666663
 11
-138.92496333333355
 21
54.047683333333396
  0
ARC
  8
_1-8_小物
  6
CONTINUOUS
 62
    4
 10
-138.90610666666663
 20
53.915689999999984
 40
0.1333333333333333
 50
8.1301020000280779
 51
98.130102000212887
  0
LINE
  8
_1-8_小物
  6
CONTINUOUS
 62
    4
 10
-138.77411333333356
 20
53.934546666666563
 11
-138.45963666666711
 21
51.733206666666661
  0
LINE
  8
_1-8_小物
  6
CONTINUOUS
 62
    4
 10
-134.56046666666711
 20
51.619199999999807
 11
-134.22968166666698
 21
53.88707333333349
  0
ARC
  8
_1-8_小物
  6
CONTINUOUS
 62
    4
 10
-134.36161833333364
 20
53.906318333333303
 40
0.1333333333333333
 50
351.70153399996479
 51
81.869898000034084
  0
LINE
  8
_1-8_小物
  6
CONTINUOUS
 62
    4
 10
-134.34276333333372
 20
54.03831166666663
 11
-134.40837000000039
 21
54.047683333333396
  0
ARC
  8
_1-8_小物
  6
CONTINUOUS
 62
    4
 10
-134.42722666666666
 20
53.915689999999984
 40
0.1333333333333333
 50
81.869898000047925
 51
171.86989799997193
  0
LINE
  8
_1-8_小物
  6
CONTINUOUS
 62
    4
 10
-134.55922000000038
 20
53.934546666666563
 11
-134.87369666666683
 21
51.733206666666661
  0
LINE
  8
_1-8_小物
  6
CONTINUOUS
 62
    4
 10
-134.56046666666711
 20
51.619199999999807
 11
-134.22968166666698
 21
53.88707333333349
  0
ARC
  8
_1-8_小物
  6
CONTINUOUS
 62
    4
 10
-134.36161833333364
 20
53.906318333333303
 40
0.1333333333333333
 50
351.70153399996479
 51
81.869898000034084
  0
LINE
  8
_1-8_小物
  6
CONTINUOUS
 62
    4
 10
-134.34276333333372
 20
54.03831166666663
 11
-134.40837000000039
 21
54.047683333333396
  0
ARC
  8
_1-8_小物
  6
CONTINUOUS
 62
    4
 10
-134.42722666666666
 20
53.915689999999984
 40
0.1333333333333333
 50
81.869898000047925
 51
171.86989799997193
  0
LINE
  8
_1-8_小物
  6
CONTINUOUS
 62
    4
 10
-134.55922000000038
 20
53.934546666666563
 11
-134.87369666666683
 21
51.733206666666661
  0
LINE
  8
_1-8_小物
  6
CONTINUOUS
 62
    4
 10
-134.99999999999997
 20
56.666666666666686
 11
-135.33333333333366
 21
55.000000000000028
  0
LINE
  8
_1-8_小物
  6
CONTINUOUS
 62
    4
 10
-135.33333333333366
 20
56.666666666666686
 11
-135.33333333333366
 21
53.999999999999886
  0
LINE
  8
_1-8_小物
  6
CONTINUOUS
 62
    4
 10
-136.49999999999997
 20
53.999999999999886
 11
-136.66666666666669
 21
53.999999999999886
  0
LINE
  8
_1-8_小物
  6
CONTINUOUS
 62
    4
 10
-136.66666666666669
 20
55.000000000000028
 11
-136.66666666666669
 21
56.666666666666686
  0
LINE
  8
_1-8_小物
  6
CONTINUOUS
 62
    4
 10
-136.33333333333366
 20
56.666666666666686
 11
-136.66666666666669
 21
55.000000000000028
  0
LINE
  8
_1-8_小物
  6
CONTINUOUS
 62
    4
 10
-137.00000000000028
 20
56.666666666666686
 11
-136.66666666666669
 21
55.000000000000028
  0
LINE
  8
_1-8_小物
  6
CONTINUOUS
 62
    4
 10
-138.33333333333331
 20
56.666666666666686
 11
-137.99999999999997
 21
55.000000000000028
  0
LINE
  8
_1-8_小物
  6
CONTINUOUS
 62
    4
 10
-137.99999999999997
 20
56.666666666666686
 11
-137.99999999999997
 21
53.999999999999886
  0
LINE
  8
_1-8_小物
  6
CONTINUOUS
 62
    4
 10
-136.83333333333366
 20
53.999999999999886
 11
-136.66666666666669
 21
53.999999999999886
  0
LINE
  8
_1-8_小物
  6
CONTINUOUS
 62
    4
 10
-134.99999999999997
 20
56.666666666666686
 11
-138.33333333333331
 21
56.666666666666686
  0
ENDBLK
  0
BLOCK
  2
-009-_8_
 70
   64
 10
0
 20
0
 30
0
  0
LINE
  8
_1-8_小物
  6
CONTINUOUS
 62
    4
 10
-61.530575000000113
 20
45.07339166666668
 11
-61.495685000000492
 21
44.407638333333296
  0
LINE
  8
_1-8_小物
  6
CONTINUOUS
 62
    4
 10
-61.58291166666703
 20
46.072021666666558
 11
-62.231218333333686
 21
45.704254999999989
  0
LINE
  8
_1-8_小物
  6
CONTINUOUS
 62
    4
 10
-62.231218333333686
 20
45.704254999999989
 11
-62.19632833333344
 21
45.038501666666605
  0
LINE
  8
_1-8_小物
  6
CONTINUOUS
 62
    4
 10
-62.19632833333344
 20
45.038501666666605
 11
-61.530575000000113
 21
45.07339166666668
  0
LINE
  8
_1-8_小物
  6
CONTINUOUS
 62
    4
 10
-61.617801666666935
 20
46.737774999999999
 11
-61.58291166666703
 21
46.072021666666558
  0
LINE
  8
_1-8_小物
  6
CONTINUOUS
 62
    4
 10
-61.670138333333568
 20
47.736403333333357
 11
-62.318445000000509
 21
47.368636666666475
  0
LINE
  8
_1-8_小物
  6
CONTINUOUS
 62
    4
 10
-62.318445000000509
 20
47.368636666666475
 11
-62.28355500000032
 21
46.702883333333318
  0
LINE
  8
_1-8_小物
  6
CONTINUOUS
 62
    4
 10
-62.28355500000032
 20
46.702883333333318
 11
-61.617801666666935
 21
46.737774999999999
  0
LINE
  8
_1-8_小物
  6
CONTINUOUS
 62
    4
 10
-61.705028333333757
 20
48.402156666666713
 11
-61.670138333333568
 21
47.736403333333357
  0
LINE
  8
_1-8_小物
  6
CONTINUOUS
 62
    4
 10
-61.757365000000107
 20
49.400786666666477
 11
-62.405671666666763
 21
49.033020000000022
  0
LINE
  8
_1-8_小物
  6
CONTINUOUS
 62
    4
 10
-62.405671666666763
 20
49.033020000000022
 11
-62.370781666667142
 21
48.367266666666666
  0
LINE
  8
_1-8_小物
  6
CONTINUOUS
 62
    4
 10
-62.370781666667142
 20
48.367266666666666
 11
-61.705028333333757
 21
48.402156666666713
  0
LINE
  8
_1-8_小物
  6
CONTINUOUS
 62
    4
 10
-61.792255000000296
 20
50.066539999999975
 11
-61.757365000000107
 21
49.400786666666477
  0
LINE
  8
_1-8_小物
  6
CONTINUOUS
 62
    4
 10
-61.844591666666929
 20
51.065170000000023
 11
-62.492898333333585
 21
50.697401666666678
  0
LINE
  8
_1-8_小物
  6
CONTINUOUS
 62
    4
 10
-62.492898333333585
 20
50.697401666666678
 11
-62.45800833333368
 21
50.031648333333294
  0
LINE
  8
_1-8_小物
  6
CONTINUOUS
 62
    4
 10
-62.45800833333368
 20
50.031648333333294
 11
-61.792255000000296
 21
50.066539999999975
  0
LINE
  8
_1-8_小物
  6
CONTINUOUS
 62
    4
 10
-61.879481666666891
 20
51.730921666666632
 11
-61.844591666666929
 21
51.065170000000023
  0
LINE
  8
_1-8_小物
  6
CONTINUOUS
 62
    4
 10
-62.580125000000407
 20
52.361784999999941
 11
-62.545235000000218
 21
51.696031666666556
  0
LINE
  8
_1-8_小物
  6
CONTINUOUS
 62
    4
 10
-62.545235000000218
 20
51.696031666666556
 11
-61.879481666666891
 21
51.730921666666632
  0
LINE
  8
_1-8_小物
  6
CONTINUOUS
 62
    4
 10
-62.000000000000341
 20
52.666666666666686
 11
-62.580125000000407
 21
52.361784999999941
  0
LINE
  8
_1-8_小物
  6
CONTINUOUS
 62
    4
 10
-65.136091666666914
 20
45.07339166666668
 11
-65.170981666666819
 21
44.407638333333296
  0
LINE
  8
_1-8_小物
  6
CONTINUOUS
 62
    4
 10
-65.083755000000281
 20
46.072021666666558
 11
-64.435448333333625
 21
45.704254999999989
  0
LINE
  8
_1-8_小物
  6
CONTINUOUS
 62
    4
 10
-64.435448333333625
 20
45.704254999999989
 11
-64.470338333333871
 21
45.038501666666605
  0
LINE
  8
_1-8_小物
  6
CONTINUOUS
 62
    4
 10
-64.470338333333871
 20
45.038501666666605
 11
-65.136091666666914
 21
45.07339166666668
  0
LINE
  8
_1-8_小物
  6
CONTINUOUS
 62
    4
 10
-65.048865000000092
 20
46.737774999999999
 11
-65.083755000000281
 21
46.072021666666558
  0
LINE
  8
_1-8_小物
  6
CONTINUOUS
 62
    4
 10
-64.996528333333742
 20
47.736403333333357
 11
-64.348221666667087
 21
47.368636666666475
  0
LINE
  8
_1-8_小物
  6
CONTINUOUS
 62
    4
 10
-64.348221666667087
 20
47.368636666666475
 11
-64.383111666666707
 21
46.702883333333318
  0
LINE
  8
_1-8_小物
  6
CONTINUOUS
 62
    4
 10
-64.383111666666707
 20
46.702883333333318
 11
-65.048865000000092
 21
46.737774999999999
  0
LINE
  8
_1-8_小物
  6
CONTINUOUS
 62
    4
 10
-64.961638333333838
 20
48.402156666666713
 11
-64.996528333333742
 21
47.736403333333357
  0
LINE
  8
_1-8_小物
  6
CONTINUOUS
 62
    4
 10
-64.909301666667204
 20
49.400786666666477
 11
-64.260995000000264
 21
49.033020000000022
  0
LINE
  8
_1-8_小物
  6
CONTINUOUS
 62
    4
 10
-64.260995000000264
 20
49.033020000000022
 11
-64.295885000000169
 21
48.367266666666666
  0
LINE
  8
_1-8_小物
  6
CONTINUOUS
 62
    4
 10
-64.295885000000169
 20
48.367266666666666
 11
-64.961638333333838
 21
48.402156666666713
  0
LINE
  8
_1-8_小物
  6
CONTINUOUS
 62
    4
 10
-64.874411666667015
 20
50.066539999999975
 11
-64.909301666667204
 21
49.400786666666477
  0
LINE
  8
_1-8_小物
  6
CONTINUOUS
 62
    4
 10
-64.822075000000041
 20
51.065170000000023
 11
-64.173768333333442
 21
50.697401666666678
  0
LINE
  8
_1-8_小物
  6
CONTINUOUS
 62
    4
 10
-64.173768333333442
 20
50.697401666666678
 11
-64.208658333333631
 21
50.031648333333294
  0
LINE
  8
_1-8_小物
  6
CONTINUOUS
 62
    4
 10
-64.208658333333631
 20
50.031648333333294
 11
-64.874411666667015
 21
50.066539999999975
  0
LINE
  8
_1-8_小物
  6
CONTINUOUS
 62
    4
 10
-64.787185000000477
 20
51.730921666666632
 11
-64.822075000000041
 21
51.065170000000023
  0
LINE
  8
_1-8_小物
  6
CONTINUOUS
 62
    4
 10
-64.086541666666903
 20
52.361784999999941
 11
-64.121431666667092
 21
51.696031666666556
  0
LINE
  8
_1-8_小物
  6
CONTINUOUS
 62
    4
 10
-64.121431666667092
 20
51.696031666666556
 11
-64.787185000000477
 21
51.730921666666632
  0
LINE
  8
_1-8_小物
  6
CONTINUOUS
 62
    4
 10
-63.35310166666693
 20
44.68643499999996
 11
-62.708535000000381
 21
45.258324999999957
  0
LINE
  8
_1-8_小物
  6
CONTINUOUS
 62
    4
 10
-63.956481666667059
 20
45.289813333333342
 11
-63.333333333333371
 21
44.666666666666544
  0
LINE
  8
_1-8_小物
  6
CONTINUOUS
 62
    4
 10
-64.666666666666686
 20
52.666666666666686
 11
-64.086541666666903
 21
52.361784999999941
  0
LINE
  8
_1-8_小物
  6
CONTINUOUS
 62
    4
 10
-61.792255000000296
 20
50.066539999999975
 11
-61.227133333333825
 21
51.619199999999807
  0
LINE
  8
_1-8_小物
  6
CONTINUOUS
 62
    4
 10
-62.146981666666818
 20
50.066539999999975
 11
-61.540363333333516
 21
51.733206666666661
  0
LINE
  8
_1-8_小物
  6
CONTINUOUS
 62
    4
 10
-64.874411666667015
 20
50.066539999999975
 11
-65.439533333333543
 21
51.619199999999807
  0
LINE
  8
_1-8_小物
  6
CONTINUOUS
 62
    4
 10
-64.51968500000055
 20
50.066539999999975
 11
-65.126303333333794
 21
51.733206666666661
  0
LINE
  8
_1-8_小物
  6
CONTINUOUS
 62
    4
 10
-62.660751666666954
 20
44.346579999999847
 11
-61.495685000000492
 21
44.407638333333296
  0
LINE
  8
_1-8_小物
  6
CONTINUOUS
 62
    4
 10
-61.495685000000492
 20
44.407638333333296
 11
-62.126546666667025
 21
43.706995000000035
  0
LINE
  8
_1-8_小物
  6
CONTINUOUS
 62
    4
 10
-62.126546666667025
 20
43.706995000000035
 11
-62.625861666666765
 21
43.680826666666576
  0
LINE
  8
_1-8_小物
  6
CONTINUOUS
 62
    4
 10
-62.625861666666765
 20
43.680826666666576
 11
-63.166666666666686
 21
53.999999999999886
  0
LINE
  8
_1-8_小物
  6
CONTINUOUS
 62
    4
 10
-62.000000000000341
 20
52.666666666666686
 11
-62.000000000000341
 21
53.999999999999886
  0
LINE
  8
_1-8_小物
  6
CONTINUOUS
 62
    4
 10
-64.005915000000357
 20
44.346579999999847
 11
-65.170981666666819
 21
44.407638333333296
  0
LINE
  8
_1-8_小物
  6
CONTINUOUS
 62
    4
 10
-65.170981666666819
 20
44.407638333333296
 11
-64.540120000000286
 21
43.706995000000035
  0
LINE
  8
_1-8_小物
  6
CONTINUOUS
 62
    4
 10
-64.540120000000286
 20
43.706995000000035
 11
-64.040805000000262
 21
43.680826666666576
  0
LINE
  8
_1-8_小物
  6
CONTINUOUS
 62
    4
 10
-64.040805000000262
 20
43.680826666666576
 11
-63.500000000000341
 21
53.999999999999886
  0
LINE
  8
_1-8_小物
  6
CONTINUOUS
 62
    4
 10
-64.666666666666686
 20
52.666666666666686
 11
-64.666666666666686
 21
53.999999999999886
  0
LINE
  8
_1-8_小物
  6
CONTINUOUS
 62
    4
 10
-65.439533333333543
 20
51.619199999999807
 11
-65.770318333333648
 21
53.88707333333349
  0
ARC
  8
_1-8_小物
  6
CONTINUOUS
 62
    4
 10
-65.638381666666987
 20
53.906318333333303
 40
0.1333333333333333
 50
98.130101999965902
 51
188.29846599999897
  0
LINE
  8
_1-8_小物
  6
CONTINUOUS
 62
    4
 10
-65.657238333333851
 20
54.03831166666663
 11
-65.591630000000237
 21
54.047683333333396
  0
ARC
  8
_1-8_小物
  6
CONTINUOUS
 62
    4
 10
-65.572773333333316
 20
53.915689999999984
 40
0.1333333333333333
 50
8.1301020000280779
 51
98.13010200022498
  0
LINE
  8
_1-8_小物
  6
CONTINUOUS
 62
    4
 10
-65.440780000000245
 20
53.934546666666563
 11
-65.126303333333794
 21
51.733206666666661
  0
LINE
  8
_1-8_小物
  6
CONTINUOUS
 62
    4
 10
-61.227133333333825
 20
51.619199999999807
 11
-60.896348333333663
 21
53.88707333333349
  0
ARC
  8
_1-8_小物
  6
CONTINUOUS
 62
    4
 10
-61.028285000000324
 20
53.906318333333303
 40
0.1333333333333333
 50
351.70153399996303
 51
81.869898000046192
  0
LINE
  8
_1-8_小物
  6
CONTINUOUS
 62
    4
 10
-61.009430000000407
 20
54.03831166666663
 11
-61.075036666667074
 21
54.047683333333396
  0
ARC
  8
_1-8_小物
  6
CONTINUOUS
 62
    4
 10
-61.093893333333369
 20
53.915689999999984
 40
0.1333333333333333
 50
81.869898000047925
 51
171.86989799997193
  0
LINE
  8
_1-8_小物
  6
CONTINUOUS
 62
    4
 10
-61.225886666667066
 20
53.934546666666563
 11
-61.540363333333516
 21
51.733206666666661
  0
LINE
  8
_1-8_小物
  6
CONTINUOUS
 62
    4
 10
-61.227133333333825
 20
51.619199999999807
 11
-60.896348333333663
 21
53.88707333333349
  0
ARC
  8
_1-8_小物
  6
CONTINUOUS
 62
    4
 10
-61.028285000000324
 20
53.906318333333303
 40
0.1333333333333333
 50
351.70153399996303
 51
81.869898000046192
  0
LINE
  8
_1-8_小物
  6
CONTINUOUS
 62
    4
 10
-61.009430000000407
 20
54.03831166666663
 11
-61.075036666667074
 21
54.047683333333396
  0
ARC
  8
_1-8_小物
  6
CONTINUOUS
 62
    4
 10
-61.093893333333369
 20
53.915689999999984
 40
0.1333333333333333
 50
81.869898000047925
 51
171.86989799997193
  0
LINE
  8
_1-8_小物
  6
CONTINUOUS
 62
    4
 10
-61.225886666667066
 20
53.934546666666563
 11
-61.540363333333516
 21
51.733206666666661
  0
LINE
  8
_1-8_小物
  6
CONTINUOUS
 62
    4
 10
-61.666666666666686
 20
56.666666666666686
 11
-62.000000000000341
 21
55.000000000000028
  0
LINE
  8
_1-8_小物
  6
CONTINUOUS
 62
    4
 10
-62.000000000000341
 20
56.666666666666686
 11
-62.000000000000341
 21
53.999999999999886
  0
LINE
  8
_1-8_小物
  6
CONTINUOUS
 62
    4
 10
-63.166666666666686
 20
53.999999999999886
 11
-63.333333333333371
 21
53.999999999999886
  0
LINE
  8
_1-8_小物
  6
CONTINUOUS
 62
    4
 10
-63.333333333333371
 20
55.000000000000028
 11
-63.333333333333371
 21
56.666666666666686
  0
LINE
  8
_1-8_小物
  6
CONTINUOUS
 62
    4
 10
-63.000000000000341
 20
56.666666666666686
 11
-63.333333333333371
 21
55.000000000000028
  0
LINE
  8
_1-8_小物
  6
CONTINUOUS
 62
    4
 10
-63.66666666666697
 20
56.666666666666686
 11
-63.333333333333371
 21
55.000000000000028
  0
LINE
  8
_1-8_小物
  6
CONTINUOUS
 62
    4
 10
-65
 20
56.666666666666686
 11
-64.666666666666686
 21
55.000000000000028
  0
LINE
  8
_1-8_小物
  6
CONTINUOUS
 62
    4
 10
-64.666666666666686
 20
56.666666666666686
 11
-64.666666666666686
 21
53.999999999999886
  0
LINE
  8
_1-8_小物
  6
CONTINUOUS
 62
    4
 10
-63.500000000000341
 20
53.999999999999886
 11
-63.333333333333371
 21
53.999999999999886
  0
LINE
  8
_1-8_小物
  6
CONTINUOUS
 62
    4
 10
-61.666666666666686
 20
56.666666666666686
 11
-65
 21
56.666666666666686
  0
ENDBLK
  0
BLOCK
  2
-010-_9_
 70
   64
 10
0
 20
0
 30
0
  0
LINE
  8
_1-8_小物
  6
CONTINUOUS
 62
    4
 10
138.46942499999989
 20
45.073391666666623
 11
138.50431499999951
 21
44.407638333333267
  0
LINE
  8
_1-8_小物
  6
CONTINUOUS
 62
    4
 10
138.41708833333297
 20
46.072021666666529
 11
137.76878166666631
 21
45.704254999999932
  0
LINE
  8
_1-8_小物
  6
CONTINUOUS
 62
    4
 10
137.76878166666631
 20
45.704254999999932
 11
137.80367166666656
 21
45.038501666666576
  0
LINE
  8
_1-8_小物
  6
CONTINUOUS
 62
    4
 10
137.80367166666656
 20
45.038501666666576
 11
138.46942499999989
 21
45.073391666666623
  0
LINE
  8
_1-8_小物
  6
CONTINUOUS
 62
    4
 10
138.38219833333306
 20
46.737774999999971
 11
138.41708833333297
 21
46.072021666666529
  0
LINE
  8
_1-8_小物
  6
CONTINUOUS
 62
    4
 10
138.32986166666643
 20
47.736403333333328
 11
137.68155499999949
 21
47.368636666666418
  0
LINE
  8
_1-8_小物
  6
CONTINUOUS
 62
    4
 10
137.68155499999949
 20
47.368636666666418
 11
137.71644499999968
 21
46.70288333333329
  0
LINE
  8
_1-8_小物
  6
CONTINUOUS
 62
    4
 10
137.71644499999968
 20
46.70288333333329
 11
138.38219833333306
 21
46.737774999999971
  0
LINE
  8
_1-8_小物
  6
CONTINUOUS
 62
    4
 10
138.29497166666624
 20
48.402156666666684
 11
138.32986166666643
 21
47.736403333333328
  0
LINE
  8
_1-8_小物
  6
CONTINUOUS
 62
    4
 10
138.24263499999989
 20
49.40078666666642
 11
137.59432833333324
 21
49.033019999999993
  0
LINE
  8
_1-8_小物
  6
CONTINUOUS
 62
    4
 10
137.59432833333324
 20
49.033019999999993
 11
137.62921833333286
 21
48.367266666666637
  0
LINE
  8
_1-8_小物
  6
CONTINUOUS
 62
    4
 10
137.62921833333286
 20
48.367266666666637
 11
138.29497166666624
 21
48.402156666666684
  0
LINE
  8
_1-8_小物
  6
CONTINUOUS
 62
    4
 10
138.2077449999997
 20
50.066539999999947
 11
138.24263499999989
 21
49.40078666666642
  0
LINE
  8
_1-8_小物
  6
CONTINUOUS
 62
    4
 10
138.15540833333307
 20
51.065169999999995
 11
137.50710166666641
 21
50.697401666666622
  0
LINE
  8
_1-8_小物
  6
CONTINUOUS
 62
    4
 10
137.50710166666641
 20
50.697401666666622
 11
137.54199166666632
 21
50.031648333333266
  0
LINE
  8
_1-8_小物
  6
CONTINUOUS
 62
    4
 10
137.54199166666632
 20
50.031648333333266
 11
138.2077449999997
 21
50.066539999999947
  0
LINE
  8
_1-8_小物
  6
CONTINUOUS
 62
    4
 10
138.12051833333317
 20
51.730921666666575
 11
138.15540833333307
 21
51.065169999999995
  0
LINE
  8
_1-8_小物
  6
CONTINUOUS
 62
    4
 10
137.41987499999959
 20
52.361784999999884
 11
137.45476499999978
 21
51.696031666666528
  0
LINE
  8
_1-8_小物
  6
CONTINUOUS
 62
    4
 10
137.45476499999978
 20
51.696031666666528
 11
138.12051833333317
 21
51.730921666666575
  0
LINE
  8
_1-8_小物
  6
CONTINUOUS
 62
    4
 10
137.99999999999966
 20
52.666666666666657
 11
137.41987499999959
 21
52.361784999999884
  0
LINE
  8
_1-8_小物
  6
CONTINUOUS
 62
    4
 10
134.86390833333309
 20
45.073391666666623
 11
134.82901833333318
 21
44.407638333333267
  0
LINE
  8
_1-8_小物
  6
CONTINUOUS
 62
    4
 10
134.91624499999972
 20
46.072021666666529
 11
135.56455166666638
 21
45.704254999999932
  0
LINE
  8
_1-8_小物
  6
CONTINUOUS
 62
    4
 10
135.56455166666638
 20
45.704254999999932
 11
135.52966166666613
 21
45.038501666666576
  0
LINE
  8
_1-8_小物
  6
CONTINUOUS
 62
    4
 10
135.52966166666613
 20
45.038501666666576
 11
134.86390833333309
 21
45.073391666666623
  0
LINE
  8
_1-8_小物
  6
CONTINUOUS
 62
    4
 10
134.95113499999991
 20
46.737774999999971
 11
134.91624499999972
 21
46.072021666666529
  0
LINE
  8
_1-8_小物
  6
CONTINUOUS
 62
    4
 10
135.00347166666626
 20
47.736403333333328
 11
135.65177833333291
 21
47.368636666666418
  0
LINE
  8
_1-8_小物
  6
CONTINUOUS
 62
    4
 10
135.65177833333291
 20
47.368636666666418
 11
135.61688833333329
 21
46.70288333333329
  0
LINE
  8
_1-8_小物
  6
CONTINUOUS
 62
    4
 10
135.61688833333329
 20
46.70288333333329
 11
134.95113499999991
 21
46.737774999999971
  0
LINE
  8
_1-8_小物
  6
CONTINUOUS
 62
    4
 10
135.03836166666616
 20
48.402156666666684
 11
135.00347166666626
 21
47.736403333333328
  0
LINE
  8
_1-8_小物
  6
CONTINUOUS
 62
    4
 10
135.0906983333328
 20
49.40078666666642
 11
135.73900499999974
 21
49.033019999999993
  0
LINE
  8
_1-8_小物
  6
CONTINUOUS
 62
    4
 10
135.73900499999974
 20
49.033019999999993
 11
135.70411499999983
 21
48.367266666666637
  0
LINE
  8
_1-8_小物
  6
CONTINUOUS
 62
    4
 10
135.70411499999983
 20
48.367266666666637
 11
135.03836166666616
 21
48.402156666666684
  0
LINE
  8
_1-8_小物
  6
CONTINUOUS
 62
    4
 10
135.12558833333298
 20
50.066539999999947
 11
135.0906983333328
 21
49.40078666666642
  0
LINE
  8
_1-8_小物
  6
CONTINUOUS
 62
    4
 10
135.17792499999996
 20
51.065169999999995
 11
135.82623166666656
 21
50.697401666666622
  0
LINE
  8
_1-8_小物
  6
CONTINUOUS
 62
    4
 10
135.82623166666656
 20
50.697401666666622
 11
135.79134166666637
 21
50.031648333333266
  0
LINE
  8
_1-8_小物
  6
CONTINUOUS
 62
    4
 10
135.79134166666637
 20
50.031648333333266
 11
135.12558833333298
 21
50.066539999999947
  0
LINE
  8
_1-8_小物
  6
CONTINUOUS
 62
    4
 10
135.21281499999952
 20
51.730921666666575
 11
135.17792499999996
 21
51.065169999999995
  0
LINE
  8
_1-8_小物
  6
CONTINUOUS
 62
    4
 10
135.9134583333331
 20
52.361784999999884
 11
135.87856833333291
 21
51.696031666666528
  0
LINE
  8
_1-8_小物
  6
CONTINUOUS
 62
    4
 10
135.87856833333291
 20
51.696031666666528
 11
135.21281499999952
 21
51.730921666666575
  0
LINE
  8
_1-8_小物
  6
CONTINUOUS
 62
    4
 10
136.64689833333307
 20
44.686434999999904
 11
137.29146499999962
 21
45.258324999999928
  0
LINE
  8
_1-8_小物
  6
CONTINUOUS
 62
    4
 10
136.04351833333294
 20
45.289813333333313
 11
136.66666666666663
 21
44.666666666666515
  0
LINE
  8
_1-8_小物
  6
CONTINUOUS
 62
    4
 10
135.33333333333331
 20
52.666666666666657
 11
135.9134583333331
 21
52.361784999999884
  0
LINE
  8
_1-8_小物
  6
CONTINUOUS
 62
    4
 10
138.2077449999997
 20
50.066539999999947
 11
138.77286666666623
 21
51.619199999999779
  0
LINE
  8
_1-8_小物
  6
CONTINUOUS
 62
    4
 10
137.85301833333324
 20
50.066539999999947
 11
138.45963666666648
 21
51.733206666666604
  0
LINE
  8
_1-8_小物
  6
CONTINUOUS
 62
    4
 10
135.12558833333298
 20
50.066539999999947
 11
134.56046666666646
 21
51.619199999999779
  0
LINE
  8
_1-8_小物
  6
CONTINUOUS
 62
    4
 10
135.48031499999945
 20
50.066539999999947
 11
134.87369666666621
 21
51.733206666666604
  0
LINE
  8
_1-8_小物
  6
CONTINUOUS
 62
    4
 10
137.33924833333305
 20
44.346579999999818
 11
138.50431499999951
 21
44.407638333333267
  0
LINE
  8
_1-8_小物
  6
CONTINUOUS
 62
    4
 10
138.50431499999951
 20
44.407638333333267
 11
137.87345333333298
 21
43.706995000000006
  0
LINE
  8
_1-8_小物
  6
CONTINUOUS
 62
    4
 10
137.87345333333298
 20
43.706995000000006
 11
137.37413833333324
 21
43.680826666666519
  0
LINE
  8
_1-8_小物
  6
CONTINUOUS
 62
    4
 10
137.37413833333324
 20
43.680826666666519
 11
136.83333333333331
 21
53.999999999999829
  0
LINE
  8
_1-8_小物
  6
CONTINUOUS
 62
    4
 10
137.99999999999966
 20
52.666666666666657
 11
137.99999999999966
 21
53.999999999999829
  0
LINE
  8
_1-8_小物
  6
CONTINUOUS
 62
    4
 10
135.99408499999964
 20
44.346579999999818
 11
134.82901833333318
 21
44.407638333333267
  0
LINE
  8
_1-8_小物
  6
CONTINUOUS
 62
    4
 10
134.82901833333318
 20
44.407638333333267
 11
135.45987999999971
 21
43.706995000000006
  0
LINE
  8
_1-8_小物
  6
CONTINUOUS
 62
    4
 10
135.45987999999971
 20
43.706995000000006
 11
135.95919499999974
 21
43.680826666666519
  0
LINE
  8
_1-8_小物
  6
CONTINUOUS
 62
    4
 10
135.95919499999974
 20
43.680826666666519
 11
136.49999999999966
 21
53.999999999999829
  0
LINE
  8
_1-8_小物
  6
CONTINUOUS
 62
    4
 10
135.33333333333331
 20
52.666666666666657
 11
135.33333333333331
 21
53.999999999999829
  0
LINE
  8
_1-8_小物
  6
CONTINUOUS
 62
    4
 10
134.56046666666646
 20
51.619199999999779
 11
134.22968166666635
 21
53.887073333333461
  0
ARC
  8
_1-8_小物
  6
CONTINUOUS
 62
    4
 10
134.36161833333301
 20
53.906318333333274
 40
0.1333333333333333
 50
98.130101999941715
 51
188.29846600000926
  0
LINE
  8
_1-8_小物
  6
CONTINUOUS
 62
    4
 10
134.34276166666615
 20
54.038311666666601
 11
134.40836999999976
 21
54.047683333333367
  0
ARC
  8
_1-8_小物
  6
CONTINUOUS
 62
    4
 10
134.42722666666668
 20
53.915689999999955
 40
0.1333333333333333
 50
8.1301020000280779
 51
98.130102000238807
  0
LINE
  8
_1-8_小物
  6
CONTINUOUS
 62
    4
 10
134.55921999999975
 20
53.934546666666535
 11
134.87369666666621
 21
51.733206666666604
  0
LINE
  8
_1-8_小物
  6
CONTINUOUS
 62
    4
 10
138.77286666666623
 20
51.619199999999779
 11
139.10365166666634
 21
53.887073333333461
  0
ARC
  8
_1-8_小物
  6
CONTINUOUS
 62
    4
 10
138.97171499999968
 20
53.906318333333274
 40
0.1333333333333333
 50
351.70153399995951
 51
81.869898000058299
  0
LINE
  8
_1-8_小物
  6
CONTINUOUS
 62
    4
 10
138.99056999999959
 20
54.038311666666601
 11
138.92496333333293
 21
54.047683333333367
  0
ARC
  8
_1-8_小物
  6
CONTINUOUS
 62
    4
 10
138.90610666666663
 20
53.915689999999955
 40
0.1333333333333333
 50
81.869898000034112
 51
171.86989799997193
  0
LINE
  8
_1-8_小物
  6
CONTINUOUS
 62
    4
 10
138.77411333333293
 20
53.934546666666535
 11
138.45963666666648
 21
51.733206666666604
  0
LINE
  8
_1-8_小物
  6
CONTINUOUS
 62
    4
 10
138.77286666666623
 20
51.619199999999779
 11
139.10365166666634
 21
53.887073333333461
  0
ARC
  8
_1-8_小物
  6
CONTINUOUS
 62
    4
 10
138.97171499999968
 20
53.906318333333274
 40
0.1333333333333333
 50
351.70153399995951
 51
81.869898000058299
  0
LINE
  8
_1-8_小物
  6
CONTINUOUS
 62
    4
 10
138.99056999999959
 20
54.038311666666601
 11
138.92496333333293
 21
54.047683333333367
  0
ARC
  8
_1-8_小物
  6
CONTINUOUS
 62
    4
 10
138.90610666666663
 20
53.915689999999955
 40
0.1333333333333333
 50
81.869898000034112
 51
171.86989799997193
  0
LINE
  8
_1-8_小物
  6
CONTINUOUS
 62
    4
 10
138.77411333333293
 20
53.934546666666535
 11
138.45963666666648
 21
51.733206666666604
  0
LINE
  8
_1-8_小物
  6
CONTINUOUS
 62
    4
 10
138.33333333333331
 20
56.666666666666657
 11
137.99999999999966
 21
55
  0
LINE
  8
_1-8_小物
  6
CONTINUOUS
 62
    4
 10
137.99999999999966
 20
56.666666666666657
 11
137.99999999999966
 21
53.999999999999829
  0
LINE
  8
_1-8_小物
  6
CONTINUOUS
 62
    4
 10
136.83333333333331
 20
53.999999999999829
 11
136.66666666666663
 21
53.999999999999829
  0
LINE
  8
_1-8_小物
  6
CONTINUOUS
 62
    4
 10
136.66666666666663
 20
55
 11
136.66666666666663
 21
56.666666666666657
  0
LINE
  8
_1-8_小物
  6
CONTINUOUS
 62
    4
 10
136.99999999999966
 20
56.666666666666657
 11
136.66666666666663
 21
55
  0
LINE
  8
_1-8_小物
  6
CONTINUOUS
 62
    4
 10
136.33333333333303
 20
56.666666666666657
 11
136.66666666666663
 21
55
  0
LINE
  8
_1-8_小物
  6
CONTINUOUS
 62
    4
 10
135
 20
56.666666666666657
 11
135.33333333333331
 21
55
  0
LINE
  8
_1-8_小物
  6
CONTINUOUS
 62
    4
 10
135.33333333333331
 20
56.666666666666657
 11
135.33333333333331
 21
53.999999999999829
  0
LINE
  8
_1-8_小物
  6
CONTINUOUS
 62
    4
 10
136.49999999999966
 20
53.999999999999829
 11
136.66666666666663
 21
53.999999999999829
  0
LINE
  8
_1-8_小物
  6
CONTINUOUS
 62
    4
 10
138.33333333333331
 20
56.666666666666657
 11
135
 21
56.666666666666657
  0
ENDBLK
  0
BLOCK
  2
-011-_10_
 70
   64
 10
0
 20
0
 30
0
  0
LINE
  8
ADD_LINE
  6
DOT
 62
    4
 10
-134.16666658720018
 20
57.666666666666799
 11
-134.16666658720018
 21
56.666666666666686
  0
LINE
  8
ADD_LINE
  6
DOT
 62
    4
 10
-139.16666658720018
 20
57.666666666666799
 11
-139.16666658720018
 21
56.666666666666686
  0
LINE
  8
_1-4_フレ__ム
  6
CENTER2
 62
    4
 10
-136.66666658720018
 20
55.000000000000028
 11
-136.66666658720018
 21
58.833333333333513
  0
LINE
  8
_1-4_フレ__ム
  6
CONTINUOUS
 62
    4
 10
-136.66666658720018
 20
57.566666666666777
 11
-136.76666658719995
 21
57.666666666666799
  0
LINE
  8
_1-4_フレ__ム
  6
CONTINUOUS
 62
    4
 10
-136.56666658719982
 20
57.666666666666799
 11
-136.66666658720018
 21
57.566666666666777
  0
LINE
  8
_1-4_フレ__ム
  6
CONTINUOUS
 62
    4
 10
-132.00000007946625
 20
57.666666666666799
 11
-136.56666658719982
 21
57.666666666666799
  0
LINE
  8
_1-4_フレ__ム
  6
CONTINUOUS
 62
    4
 10
-132.00000007946625
 20
58.500000000000057
 11
-132.00000007946625
 21
57.666666666666799
  0
LINE
  8
_1-4_フレ__ム
  6
CONTINUOUS
 62
    4
 10
-132.00000007946625
 20
58.500000000000057
 11
-131.00000007946619
 21
58.500000000000057
  0
LINE
  8
_1-4_フレ__ム
  6
CONTINUOUS
 62
    4
 10
-136.76666658719995
 20
57.666666666666799
 11
-142.6666664887336
 21
57.666666666666799
  0
ARC
  8
_1-4_フレ__ム
  6
CONTINUOUS
 62
    4
 10
-122.76666648873319
 20
56.933333333333678
 40
0.2666666666666667
 50
270
 51
0
  0
ARC
  8
_1-4_フレ__ム
  6
CONTINUOUS
 62
    4
 10
-122.86666648873324
 20
56.833333333333513
 40
0.1666666666666666
 50
180
 51
270
  0
LINE
  8
_1-4_フレ__ム
  6
CONTINUOUS
 62
    4
 10
-122.86666648873324
 20
56.666666666666686
 11
-122.76666648873319
 21
56.666666666666686
  0
ARC
  8
_1-4_フレ__ム
  6
CONTINUOUS
 62
    4
 10
-124.99999982206677
 20
57.666666666666799
 40
0.1666666666666666
 50
270
 51
0
  0
LINE
  8
_1-4_フレ__ム
  6
CONTINUOUS
 62
    4
 10
-122.49999982206677
 20
56.933333333333678
 11
-122.49999982206677
 21
57.933333333333422
  0
ARC
  8
_1-4_フレ__ム
  6
CONTINUOUS
 62
    4
 10
-123.13333315540009
 20
57.933333333333422
 40
0.6333333333333333
 50
0
 51
90
  0
LINE
  8
_1-4_フレ__ム
  6
CONTINUOUS
 62
    4
 10
-131.00000007946619
 20
58.500000000000057
 11
-131.00000007946619
 21
57.500000000000171
  0
LINE
  8
_1-4_フレ__ム
  6
CONTINUOUS
 62
    4
 10
-124.99999982206677
 20
57.500000000000171
 11
-131.00000007946619
 21
57.500000000000171
  0
LINE
  8
_1-4_フレ__ム
  6
CONTINUOUS
 62
    4
 10
-141.66666648873328
 20
56.666666666666686
 11
-142.6666664887336
 21
57.666666666666799
  0
LINE
  8
_1-4_フレ__ム
  6
CONTINUOUS
 62
    4
 10
-141.66666648873328
 20
56.666666666666686
 11
-124
 21
56.666666666666686
  0
LINE
  8
ADD_LINE
  6
DOT
 62
    4
 10
-125.49999982206677
 20
57.500000000000171
 11
-125.49999982206677
 21
56.666666666666686
  0
LINE
  8
_1-4_フレ__ム
  6
CENTER2
 62
    4
 10
-123.51666648873319
 20
57.483333333333519
 11
-123.51666648873319
 21
58.316666666666549
  0
LINE
  8
_1-4_フレ__ム
  6
CENTER2
 62
    4
 10
-123.51666648873319
 20
57.483333333333519
 11
-124.34999982206682
 21
57.483333333333519
  0
LINE
  8
_1-4_フレ__ム
  6
CENTER2
 62
    4
 10
-123.51666648873319
 20
57.483333333333519
 11
-123.51666648873319
 21
56.64999999999992
  0
LINE
  8
_1-4_フレ__ム
  6
CENTER2
 62
    4
 10
-123.51666648873319
 20
57.483333333333519
 11
-122.68333315539985
 21
57.483333333333519
  0
ARC
  8
_1-4_フレ__ム
  6
CONTINUOUS
 62
    4
 10
-123.51666648873319
 20
57.483333333333519
 40
0.4833333333332726
 50
0
 51
180
  0
LINE
  8
_1-4_フレ__ム
  6
CONTINUOUS
 62
    4
 10
-123.99999982206677
 20
56.666666666666686
 11
-123.99999982206677
 21
57.483333333333519
  0
LINE
  8
_1-4_フレ__ム
  6
CONTINUOUS
 62
    4
 10
-123.03333315540021
 20
57.483333333333519
 11
-123.03333315540021
 21
56.833333333333513
  0
LINE
  8
_1-4_フレ__ム
  6
CONTINUOUS
 62
    4
 10
-124.8333331554001
 20
58.466666666666754
 11
-124.8333331554001
 21
57.666666666666799
  0
LINE
  8
_1-4_フレ__ム
  6
CONTINUOUS
 62
    4
 10
-123.13333315540009
 20
58.566666666666777
 11
-124.73333315540012
 21
58.566666666666777
  0
ARC
  8
_1-4_フレ__ム
  6
CONTINUOUS
 62
    4
 10
-124.73333315540012
 20
58.466666666666754
 40
0.0999999999999999
 50
90
 51
180
  0
ENDBLK
  0
BLOCK
  2
-012-_11_
 70
   64
 10
0
 20
0
 30
0
  0
LINE
  8
_1-8_小物
  6
CONTINUOUS
 62
    4
 10
-125.62777778104973
 20
57.730313555190975
 11
-125.71481481809444
 21
57.629306961543449
  0
ARC
  8
_1-8_小物
  6
CONTINUOUS
 62
    4
 10
-122.63333333333307
 20
58.433333333333422
 40
0.1333333333333333
 50
0
 51
89.999998490725531
  0
ARC
  8
_1-8_小物
  6
CONTINUOUS
 62
    4
 10
-122.63333333333307
 20
58.433333333333422
 40
0.2666666666666666
 50
0
 51
89.999998490725531
  0
ARC
  8
_1-8_小物
  6
CONTINUOUS
 62
    4
 10
-122.63333333333307
 20
56.800000000000068
 40
0.2666666666666666
 50
270
 51
0
  0
ARC
  8
_1-8_小物
  6
CONTINUOUS
 62
    4
 10
-123.36666666666642
 20
56.293988670433379
 40
0.5
 50
53.031405798549194
 51
131.81031489580602
  0
ARC
  8
_1-8_小物
  6
CONTINUOUS
 62
    4
 10
-122.98579444999973
 20
56.800000000000068
 40
0.1333333333333333
 50
233.03140197499982
 51
269.99999849072555
  0
LINE
  8
_1-8_小物
  6
CONTINUOUS
 62
    4
 10
-122.98942517016644
 20
56.533333333333417
 11
-122.63333333333307
 21
56.533333333333417
  0
ARC
  8
_1-8_小物
  6
CONTINUOUS
 62
    4
 10
-122.63333333333307
 20
56.800000000000068
 40
0.1333333333333333
 50
270
 51
0
  0
ARC
  8
_1-8_小物
  6
CONTINUOUS
 62
    4
 10
-123.36666666666642
 20
56.250333466766762
 40
0.3999999999999999
 50
55.537811429940156
 51
127.63786311679968
  0
LINE
  8
_1-8_小物
  6
CONTINUOUS
 62
    4
 10
-122.98579445349978
 20
56.666666666666742
 11
-122.63333333333307
 21
56.666666666666742
  0
ARC
  8
_1-8_小物
  6
CONTINUOUS
 62
    4
 10
-122.98942517016644
 20
56.800000000000068
 40
0.2666666666666666
 50
235.53781142990741
 51
270
  0
LINE
  8
_1-8_小物
  6
CONTINUOUS
 62
    4
 10
-123.69999999999975
 20
56.666666666666742
 11
-123.61093410836642
 21
56.567087972566725
  0
LINE
  8
_1-8_小物
  6
CONTINUOUS
 62
    4
 10
-122.36666666666642
 20
56.800000000000068
 11
-122.36666666666642
 21
58.433333333333422
  0
LINE
  8
_1-8_小物
  6
CONTINUOUS
 62
    4
 10
-122.49999999999977
 20
56.800000000000068
 11
-122.49999999999977
 21
58.433333333333422
  0
ARC
  8
_1-8_小物
  6
CONTINUOUS
 62
    4
 10
-125.36666666666642
 20
58.033333333333417
 40
0.5333333333333333
 50
180
 51
0.0000086701116401
  0
ARC
  8
_1-8_小物
  6
CONTINUOUS
 62
    4
 10
-125.36666666666642
 20
58.033333333333417
 40
0.3999999999999999
 50
180.00000000009771
 51
0.0000018823917002
  0
LINE
  8
_1-8_小物
  6
CONTINUOUS
 62
    4
 10
-125.76666666666642
 20
58.033333333333417
 11
-125.89999999999972
 21
58.033333333333417
  0
LINE
  8
_1-8_小物
  6
CONTINUOUS
 62
    4
 10
-126.83333333333312
 20
57.500000000000028
 11
-126.83333333333312
 21
57.633333333333354
  0
LINE
  8
_1-8_小物
  6
DASHED1
 62
    4
 10
-124.24999999292679
 20
58.700000000000074
 11
-124.24999999292679
 21
58.566666666666748
  0
LINE
  8
_1-8_小物
  6
CONTINUOUS
 62
    4
 10
-126.33333333333312
 20
57.633333333333354
 11
-126.33333333333312
 21
57.500000000000028
  0
LINE
  8
_1-8_小物
  6
CONTINUOUS
 62
    4
 10
-126.83333333333312
 20
57.633333333333354
 11
-125.71943350814165
 21
57.633333333333354
  0
LINE
  8
_1-8_小物
  6
CONTINUOUS
 62
    4
 10
-126.83333333333312
 20
57.500000000000028
 11
-125
 21
57.500000000000028
  0
LINE
  8
_1-8_小物
  6
CONTINUOUS
 62
    4
 10
-125.01389982519117
 20
57.633333333333354
 11
-124.8367006838145
 21
57.633333333333354
  0
ARC
  8
_1-8_小物
  6
CONTINUOUS
 62
    4
 10
-123.93643819168332
 20
57.200000000000074
 40
0.1333333333333333
 50
241.52902134411696
 51
270
  0
LINE
  8
_1-8_小物
  6
CONTINUOUS
 62
    4
 10
-124
 20
56.933333333333422
 11
-123.03333333333346
 21
56.933333333333422
  0
LINE
  8
_1-8_小物
  6
CONTINUOUS
 62
    4
 10
-123.93643819168332
 20
57.06666666666672
 11
-123.03333333333346
 21
57.06666666666672
  0
LINE
  8
_1-8_小物
  6
CONTINUOUS
 62
    4
 10
-122.63333332983311
 20
58.566666666666748
 11
-124.73333333333309
 21
58.566666666666748
  0
LINE
  8
_1-8_小物
  6
CONTINUOUS
 62
    4
 10
-124.83333333333312
 20
58.033333333333417
 11
-124.83333333333312
 21
58.466666666666754
  0
ARC
  8
_1-8_小物
  6
CONTINUOUS
 62
    4
 10
-124.73333333333309
 20
58.466666666666754
 40
0.0999999999999999
 50
90
 51
180
  0
LINE
  8
_1-8_小物
  6
CONTINUOUS
 62
    4
 10
-122.63333332633306
 20
58.700000000000074
 11
-124.73333333333305
 21
58.700000000000074
  0
LINE
  8
_1-8_小物
  6
CONTINUOUS
 62
    4
 10
-124.9666666666664
 20
58.033333333333417
 11
-124.9666666666664
 21
58.466666666666725
  0
ARC
  8
_1-8_小物
  6
CONTINUOUS
 62
    4
 10
-124.73333333333305
 20
58.466666666666725
 40
0.2333333333333333
 50
90
 51
180
  0
ENDBLK
  0
BLOCK
  2
-013-_12_
 70
   64
 10
0
 20
0
 30
0
  0
LINE
  8
_1-5_ア__ム
  6
CONTINUOUS
 62
    4
 10
-139.99999999999994
 20
63.9999999813665
 11
-139.99999999999994
 21
60.333333426466709
  0
ARC
  8
_1-5_ア__ム
  6
CONTINUOUS
 62
    4
 10
-138.33333333333331
 20
60.333333426466709
 40
1.6666666666666665
 50
180
 51
270
  0
LINE
  8
_1-5_ア__ム
  6
DASHED1
 62
    4
 10
-135.99999999999994
 20
63.066666681299978
 11
-135.99999999999994
 21
62.333333347966629
  0
LINE
  8
_1-5_ア__ム
  6
DASHED1
 62
    4
 10
-130.66666666666634
 20
63.066666681299978
 11
-130.66666666666634
 21
62.333333347966629
  0
LINE
  8
_1-5_ア__ム
  6
DASHED1
 62
    4
 10
-121.66666666666674
 20
63.066666681299978
 11
-121.66666666666674
 21
62.333333347966629
  0
LINE
  8
_1-5_ア__ム
  6
DASHED1
 62
    4
 10
-119.66666666666644
 20
63.066666681299978
 11
-119.66666666666644
 21
62.333333347966629
  0
LINE
  8
_1-5_ア__ム
  6
DASHED1
 62
    4
 10
-133.6666666666666
 20
63.066666681299978
 11
-133.6666666666666
 21
62.333333347966629
  0
LINE
  8
_1-5_ア__ム
  6
DASHED1
 62
    4
 10
-125.3333333333333
 20
63.066666681299978
 11
-125.3333333333333
 21
62.333333347966629
  0
LINE
  8
_1-5_ア__ム
  6
DASHED1
 62
    4
 10
-120.99999999999993
 20
63.066666681299978
 11
-120.99999999999993
 21
62.333333347966629
  0
LINE
  8
_1-5_ア__ム
  6
CONTINUOUS
 62
    4
 10
-59.999999999999972
 20
63.999999999999915
 11
-59.999999999999972
 21
60.333333426466709
  0
ARC
  8
_1-5_ア__ム
  6
CONTINUOUS
 62
    4
 10
-61.666666666666629
 20
60.333333426466709
 40
1.6666666666666665
 50
270
 51
0
  0
LINE
  8
_1-5_ア__ム
  6
CONTINUOUS
 62
    4
 10
-139.99999999999994
 20
63.999999999999915
 11
-59.999999999999972
 21
63.999999999999915
  0
LINE
  8
_1-5_ア__ム
  6
DASHED1
 62
    4
 10
-139.99999999999994
 20
63.066666681299978
 11
-59.999999999999972
 21
63.066666681299978
  0
LINE
  8
_1-5_ア__ム
  6
DASHED1
 62
    4
 10
-139.99999999999994
 20
62.333333347966629
 11
-59.999999999999972
 21
62.333333347966629
  0
LINE
  8
_1-5_ア__ム
  6
CONTINUOUS
 62
    4
 10
-138.33333333333331
 20
58.666666759800052
 11
-61.666666666666629
 21
58.666666759800052
  0
ENDBLK
  0
BLOCK
  2
-014-_13_
 70
   64
 10
0
 20
0
 30
0
  0
LINE
  8
_1-7_カバ__
  6
CONTINUOUS
 62
    4
 10
-144.33333333333326
 20
63.999999999999915
 11
-55.666666666666856
 21
63.999999999999915
  0
LINE
  8
_1-7_カバ__
  6
CONTINUOUS
 62
    4
 10
-128.33333333333323
 20
64.595955988548013
 11
-128.26262265521456
 21
64.666666666666657
  0
LINE
  8
_1-7_カバ__
  6
CONTINUOUS
 62
    4
 10
-128.33333333333323
 20
64.595955988548013
 11
-128.40404401145187
 21
64.666666666666657
  0
LINE
  8
_1-7_カバ__
  6
CONTINUOUS
 62
    4
 10
-71.666666666666742
 20
64.595955988548013
 11
-71.595955988548099
 21
64.666666666666657
  0
LINE
  8
_1-7_カバ__
  6
CONTINUOUS
 62
    4
 10
-71.666666666666742
 20
64.595955988548013
 11
-71.737377344785386
 21
64.666666666666657
  0
LINE
  8
_1-7_カバ__
  6
CONTINUOUS
 62
    4
 10
-144.99999999999989
 20
64.666666666666657
 11
-128.40404401145187
 21
64.666666666666657
  0
LINE
  8
_1-7_カバ__
  6
CONTINUOUS
 62
    4
 10
-128.26262265521456
 20
64.666666666666657
 11
-71.737377344785386
 21
64.666666666666657
  0
LINE
  8
_1-7_カバ__
  6
CONTINUOUS
 62
    4
 10
-71.595955988548099
 20
64.666666666666657
 11
-55.000000000000057
 21
64.666666666666657
  0
LINE
  8
_1-7_カバ__
  6
CENTER2
 62
    4
 10
-99.999999999999972
 20
66.333333333333314
 11
-99.999999999999972
 21
62.333333333333258
  0
LINE
  8
_1-7_カバ__
  6
CENTER2
 62
    4
 10
-128.33333333333323
 20
66.333333333333314
 11
-128.33333333333323
 21
62.333333333333258
  0
LINE
  8
_1-7_カバ__
  6
CENTER2
 62
    4
 10
-71.666666666666742
 20
66.333333333333314
 11
-71.666666666666742
 21
62.333333333333258
  0
LINE
  8
_1-7_カバ__
  6
DASHED1
 62
    4
 10
-127.58333333333319
 20
64.3333333333334
 11
-127.24999999999993
 21
64.666666666666657
  0
LINE
  8
_1-7_カバ__
  6
DASHED1
 62
    4
 10
-129.0833333333332
 20
64.3333333333334
 11
-129.41666666666646
 21
64.666666666666657
  0
LINE
  8
_1-7_カバ__
  6
DASHED1
 62
    4
 10
-129.0833333333332
 20
64.3333333333334
 11
-127.58333333333319
 21
64.3333333333334
  0
LINE
  8
_1-7_カバ__
  6
DASHED1
 62
    4
 10
-70.916666666666686
 20
64.3333333333334
 11
-70.583333333333428
 21
64.666666666666657
  0
LINE
  8
_1-7_カバ__
  6
DASHED1
 62
    4
 10
-72.416666666666686
 20
64.3333333333334
 11
-72.749999999999943
 21
64.666666666666657
  0
LINE
  8
_1-7_カバ__
  6
DASHED1
 62
    4
 10
-72.416666666666686
 20
64.3333333333334
 11
-70.916666666666686
 21
64.3333333333334
  0
LINE
  8
_1-7_カバ__
  6
DASHED1
 62
    4
 10
-70.916666666666686
 20
64.3333333333334
 11
-70.916666666666686
 21
63.999999999999915
  0
LINE
  8
_1-7_カバ__
  6
DASHED1
 62
    4
 10
-72.416666666666686
 20
64.3333333333334
 11
-72.416666666666686
 21
63.999999999999915
  0
LINE
  8
_1-7_カバ__
  6
DASHED1
 62
    4
 10
-127.58333333333319
 20
64.3333333333334
 11
-127.58333333333319
 21
63.999999999999915
  0
LINE
  8
_1-7_カバ__
  6
DASHED1
 62
    4
 10
-129.0833333333332
 20
64.3333333333334
 11
-129.0833333333332
 21
63.999999999999915
  0
LINE
  8
_1-7_カバ__
  6
CONTINUOUS
 62
    4
 10
-144.99999999999989
 20
60.000000000000028
 11
-144.99999999999989
 21
64.666666666666657
  0
LINE
  8
_1-7_カバ__
  6
CONTINUOUS
 62
    4
 10
-144.33333333333309
 20
60.666666666666657
 11
-144.33333333333309
 21
63.999999999999915
  0
LINE
  8
_1-7_カバ__
  6
CONTINUOUS
 62
    4
 10
-55.000000000000057
 20
60.000000000000028
 11
-55.000000000000057
 21
64.666666666666657
  0
LINE
  8
_1-7_カバ__
  6
CONTINUOUS
 62
    4
 10
-55.666666666666913
 20
60.666666666666657
 11
-55.666666666666913
 21
63.999999999999915
  0
LINE
  8
_1-7_カバ__
  6
CONTINUOUS
 62
    4
 10
-144.33333333333309
 20
60.666666666666657
 11
-141.66666666666686
 21
60.666666666666657
  0
LINE
  8
_1-7_カバ__
  6
CONTINUOUS
 62
    4
 10
-141.66666666666686
 20
60.000000000000028
 11
-141.66666666666686
 21
60.666666666666657
  0
LINE
  8
_1-7_カバ__
  6
CONTINUOUS
 62
    4
 10
-144.99999999999989
 20
60.000000000000028
 11
-141.66666666666686
 21
60.000000000000028
  0
LINE
  8
_1-7_カバ__
  6
CONTINUOUS
 62
    4
 10
-55.666666666666913
 20
60.666666666666657
 11
-58.333333333333087
 21
60.666666666666657
  0
LINE
  8
_1-7_カバ__
  6
CONTINUOUS
 62
    4
 10
-58.333333333333087
 20
60.000000000000028
 11
-58.333333333333087
 21
60.666666666666657
  0
LINE
  8
_1-7_カバ__
  6
CONTINUOUS
 62
    4
 10
-55.000000000000057
 20
60.000000000000028
 11
-58.333333333333087
 21
60.000000000000028
  0
ENDBLK
  0
BLOCK
  2
-015-_14_
 70
   64
 10
0
 20
0
 30
0
  0
ARC
  8
_1-7_カバ__
  6
CONTINUOUS
 62
    4
 10
-58.333333333333087
 20
60.100000000000051
 40
0.0999999999999999
 50
180
 51
270
  0
ARC
  8
_1-7_カバ__
  6
CONTINUOUS
 62
    4
 10
-55.66666666666643
 20
59.333333333333371
 40
0.1666666666666666
 50
0
 51
90
  0
ARC
  8
_1-7_カバ__
  6
CONTINUOUS
 62
    4
 10
-55.66666666666643
 20
59.333333333333371
 40
0.6666666666666666
 50
0
 51
90
  0
ARC
  8
_1-7_カバ__
  6
CONTINUOUS
 62
    4
 10
-58.266666666666424
 20
60.000000000000028
 40
0.5
 50
180
 51
270
  0
ARC
  8
_1-7_カバ__
  6
CONTINUOUS
 62
    4
 10
-56.308077147585124
 20
60.733331781236672
 40
0.3333333333333333
 50
262.77709821968284
 51
352.77709821967801
  0
LINE
  8
_1-7_カバ__
  6
CONTINUOUS
 62
    4
 10
-58.43333333333311
 20
60.55320407003606
 11
-58.43333333333311
 21
60.100000000000051
  0
LINE
  8
_1-7_カバ__
  6
CONTINUOUS
 62
    4
 10
-55.66666666666643
 20
60.000000000000028
 11
-58.333333333333087
 21
60.000000000000028
  0
LINE
  8
_1-7_カバ__
  6
CONTINUOUS
 62
    4
 10
-56.349987075307894
 20
60.402643606260028
 11
-58.320760355016262
 21
60.652410522529067
  0
ARC
  8
_1-7_カバ__
  6
CONTINUOUS
 62
    4
 10
-58.333333333333087
 20
60.55320407003606
 40
0.0999999999999999
 50
82.777098219687119
 51
180
  0
LINE
  8
_1-7_カバ__
  6
CONTINUOUS
 62
    4
 10
-58.766666666666424
 20
60.733877444075063
 11
-58.766666666666424
 21
60.000000000000028
  0
ARC
  8
_1-7_カバ__
  6
CONTINUOUS
 62
    4
 10
-58.43333333333311
 20
60.733877444075063
 40
0.3333333333333333
 50
82.77709821968287
 51
180
  0
LINE
  8
_1-7_カバ__
  6
CONTINUOUS
 62
    4
 10
-56.5311768845242
 20
60.828806365637945
 11
-58.39142340561034
 21
61.064565619051706
  0
ARC
  8
_1-7_カバ__
  6
CONTINUOUS
 62
    4
 10
-56.510221920662815
 20
60.994150453126281
 40
0.1666666666666666
 50
262.77709821968347
 51
352.77709821968227
  0
ARC
  8
_1-7_カバ__
  6
CONTINUOUS
 62
    4
 10
-56.138082942725646
 20
61.014187167814299
 40
0.1999999998953772
 50
352.77709820255006
 51
172.77709820255916
  0
LINE
  8
_1-7_カバ__
  6
CONTINUOUS
 62
    4
 10
-56.344877833174507
 20
60.973195489264896
 11
-56.336495847600304
 21
61.039333124494107
  0
LINE
  8
_1-7_カバ__
  6
CONTINUOUS
 62
    4
 10
-55.97738897260848
 20
60.69142185351393
 11
-55.939670037643367
 21
60.989041211108145
  0
LINE
  8
_1-7_カバ__
  6
CONTINUOUS
 62
    4
 10
-57.766666666666424
 20
59.333333333333371
 11
-57.93333333333311
 21
59.500000000000028
  0
LINE
  8
_1-7_カバ__
  6
CONTINUOUS
 62
    4
 10
-57.766666666666424
 20
59.333333333333371
 11
-57.599999999999767
 21
59.500000000000028
  0
LINE
  8
_1-7_カバ__
  6
CONTINUOUS
 62
    4
 10
-57.099999999999767
 20
59.333333333333371
 11
-57.266666666666424
 21
59.500000000000028
  0
LINE
  8
_1-7_カバ__
  6
CONTINUOUS
 62
    4
 10
-57.099999999999767
 20
59.333333333333371
 11
-56.93333333333311
 21
59.500000000000028
  0
LINE
  8
_1-7_カバ__
  6
CONTINUOUS
 62
    4
 10
-55.66666666666643
 20
59.500000000000028
 11
-56.93333333333311
 21
59.500000000000028
  0
LINE
  8
_1-7_カバ__
  6
CONTINUOUS
 62
    4
 10
-57.266666666666424
 20
59.500000000000028
 11
-57.599999999999767
 21
59.500000000000028
  0
LINE
  8
_1-7_カバ__
  6
CONTINUOUS
 62
    4
 10
-57.93333333333311
 20
59.500000000000028
 11
-58.266666666666424
 21
59.500000000000028
  0
ARC
  8
_1-7_カバ__
  6
CONTINUOUS
 62
    4
 10
-55.912022475811114
 20
55.87466292678954
 40
0.4999999999999946
 50
190.63980919808779
 51
350.63980919808483
  0
LINE
  8
_1-7_カバ__
  6
CONTINUOUS
 62
    4
 10
-55.499999999999773
 20
58.374265946711745
 11
-55.881276481385555
 21
56.061188626304613
  0
ARC
  8
_1-7_カバ__
  6
CONTINUOUS
 62
    4
 10
-55.914165994805558
 20
56.06660997467057
 40
0.0333333333333333
 50
190.63980919811479
 51
350.63980919804908
  0
ARC
  8
_1-7_カバ__
  6
CONTINUOUS
 62
    4
 10
-56.388517115351704
 20
57.057013491761296
 40
0.25
 50
10.639809198087802
 51
190.6398091980802
  0
LINE
  8
_1-7_カバ__
  6
CONTINUOUS
 62
    4
 10
-56.634218940905527
 20
57.010854928963965
 11
-56.40342612691876
 21
55.782345801194822
  0
LINE
  8
_1-7_カバ__
  6
CONTINUOUS
 62
    4
 10
-54.999999999999773
 20
58.333333333333371
 11
-55.418679774510679
 21
55.793342701300446
  0
LINE
  8
_1-7_カバ__
  6
CONTINUOUS
 62
    4
 10
-56.14281528979788
 20
57.103172054558684
 11
-55.94692623821274
 21
56.060455499630905
  0
LINE
  8
_1-7_カバ__
  6
CONTINUOUS
 62
    4
 10
-55.499999999999773
 20
59.333333333333371
 11
-55.499999999999773
 21
58.374265946711745
  0
LINE
  8
_1-7_カバ__
  6
CONTINUOUS
 62
    4
 10
-54.999999999999773
 20
59.333333333333371
 11
-54.999999999999773
 21
58.333333333333371
  0
ENDBLK
  0
BLOCK
  2
-016-_15_
 70
   64
 10
0
 20
0
 30
0
  0
ARC
  8
_1-7_カバ__
  6
CONTINUOUS
 62
    4
 10
-141.66666666666691
 20
60.100000000000051
 40
0.0999999999999999
 50
270
 51
0
  0
ARC
  8
_1-7_カバ__
  6
CONTINUOUS
 62
    4
 10
-144.33333333333357
 20
59.333333333333371
 40
0.1666666666666666
 50
90
 51
180
  0
ARC
  8
_1-7_カバ__
  6
CONTINUOUS
 62
    4
 10
-144.33333333333357
 20
59.333333333333371
 40
0.6666666666666666
 50
90
 51
180
  0
ARC
  8
_1-7_カバ__
  6
CONTINUOUS
 62
    4
 10
-141.73333333333358
 20
60.000000000000028
 40
0.5
 50
270
 51
0
  0
ARC
  8
_1-7_カバ__
  6
CONTINUOUS
 62
    4
 10
-143.69192285241488
 20
60.733331781236672
 40
0.3333333333333333
 50
187.22290178032196
 51
277.22290178031233
  0
LINE
  8
_1-7_カバ__
  6
CONTINUOUS
 62
    4
 10
-141.56666666666692
 20
60.55320407003606
 11
-141.56666666666692
 21
60.100000000000051
  0
LINE
  8
_1-7_カバ__
  6
CONTINUOUS
 62
    4
 10
-144.33333333333357
 20
60.000000000000028
 11
-141.66666666666691
 21
60.000000000000028
  0
LINE
  8
_1-7_カバ__
  6
CONTINUOUS
 62
    4
 10
-143.65001292469213
 20
60.402643606260028
 11
-141.67923964498377
 21
60.652410522529067
  0
ARC
  8
_1-7_カバ__
  6
CONTINUOUS
 62
    4
 10
-141.66666666666691
 20
60.55320407003606
 40
0.0999999999999999
 50
0
 51
97.222901780329039
  0
LINE
  8
_1-7_カバ__
  6
CONTINUOUS
 62
    4
 10
-141.23333333333358
 20
60.733877444075063
 11
-141.23333333333358
 21
60.000000000000028
  0
ARC
  8
_1-7_カバ__
  6
CONTINUOUS
 62
    4
 10
-141.56666666666692
 20
60.733877444075063
 40
0.3333333333333333
 50
0
 51
97.222901780312299
  0
LINE
  8
_1-7_カバ__
  6
CONTINUOUS
 62
    4
 10
-143.46882311547583
 20
60.828806365637945
 11
-141.60857659438966
 21
61.064565619051706
  0
ARC
  8
_1-7_カバ__
  6
CONTINUOUS
 62
    4
 10
-143.48977807933721
 20
60.994150453126281
 40
0.1666666666666666
 50
187.22290178031776
 51
277.22290178031653
  0
ARC
  8
_1-7_カバ__
  6
CONTINUOUS
 62
    4
 10
-143.86191705727435
 20
61.014187167814299
 40
0.1999999998953772
 50
7.2229017974418541
 51
187.22290179744891
  0
LINE
  8
_1-7_カバ__
  6
CONTINUOUS
 62
    4
 10
-143.65512216682549
 20
60.973195489264896
 11
-143.6635041523997
 21
61.039333124494107
  0
LINE
  8
_1-7_カバ__
  6
CONTINUOUS
 62
    4
 10
-144.02261102739152
 20
60.69142185351393
 11
-144.06032996235666
 21
60.989041211108145
  0
LINE
  8
_1-7_カバ__
  6
CONTINUOUS
 62
    4
 10
-142.23333333333358
 20
59.333333333333371
 11
-142.06666666666692
 21
59.500000000000028
  0
LINE
  8
_1-7_カバ__
  6
CONTINUOUS
 62
    4
 10
-142.23333333333358
 20
59.333333333333371
 11
-142.40000000000026
 21
59.500000000000028
  0
LINE
  8
_1-7_カバ__
  6
CONTINUOUS
 62
    4
 10
-142.90000000000026
 20
59.333333333333371
 11
-142.73333333333358
 21
59.500000000000028
  0
LINE
  8
_1-7_カバ__
  6
CONTINUOUS
 62
    4
 10
-142.90000000000026
 20
59.333333333333371
 11
-143.06666666666692
 21
59.500000000000028
  0
LINE
  8
_1-7_カバ__
  6
CONTINUOUS
 62
    4
 10
-144.33333333333357
 20
59.500000000000028
 11
-143.06666666666692
 21
59.500000000000028
  0
LINE
  8
_1-7_カバ__
  6
CONTINUOUS
 62
    4
 10
-142.73333333333358
 20
59.500000000000028
 11
-142.40000000000026
 21
59.500000000000028
  0
LINE
  8
_1-7_カバ__
  6
CONTINUOUS
 62
    4
 10
-142.06666666666692
 20
59.500000000000028
 11
-141.73333333333358
 21
59.500000000000028
  0
ARC
  8
_1-7_カバ__
  6
CONTINUOUS
 62
    4
 10
-144.08797752418889
 20
55.87466292678954
 40
0.4999999999999946
 50
189.3601908019146
 51
349.36019080191221
  0
LINE
  8
_1-7_カバ__
  6
CONTINUOUS
 62
    4
 10
-144.50000000000023
 20
58.374265946711745
 11
-144.11872351861447
 21
56.061188626304613
  0
ARC
  8
_1-7_カバ__
  6
CONTINUOUS
 62
    4
 10
-144.08583400519444
 20
56.06660997467057
 40
0.0333333333333333
 50
189.36019080194299
 51
349.36019080187617
  0
ARC
  8
_1-7_カバ__
  6
CONTINUOUS
 62
    4
 10
-143.61148288464832
 20
57.057013491761296
 40
0.25
 50
349.36019080191858
 51
169.36019080191227
  0
LINE
  8
_1-7_カバ__
  6
CONTINUOUS
 62
    4
 10
-143.36578105909447
 20
57.010854928963965
 11
-143.59657387308124
 21
55.782345801194822
  0
LINE
  8
_1-7_カバ__
  6
CONTINUOUS
 62
    4
 10
-145.00000000000023
 20
58.333333333333371
 11
-144.58132022548932
 21
55.793342701300446
  0
LINE
  8
_1-7_カバ__
  6
CONTINUOUS
 62
    4
 10
-143.85718471020215
 20
57.103172054558684
 11
-144.05307376178729
 21
56.060455499630905
  0
LINE
  8
_1-7_カバ__
  6
CONTINUOUS
 62
    4
 10
-144.50000000000023
 20
59.333333333333371
 11
-144.50000000000023
 21
58.374265946711745
  0
LINE
  8
_1-7_カバ__
  6
CONTINUOUS
 62
    4
 10
-145.00000000000023
 20
59.333333333333371
 11
-145.00000000000023
 21
58.333333333333371
  0
ENDBLK
  0
BLOCK
  2
-017-_16_
 70
   64
 10
0
 20
0
 30
0
  0
LINE
  8
_1-8_小物
  6
CONTINUOUS
 62
    4
 10
-129.33333333333326
 20
64.666666666666686
 11
-127.33333333333326
 21
64.666666666666686
  0
LINE
  8
_1-8_小物
  6
CONTINUOUS
 62
    4
 10
-127.33333333333337
 20
64.666666666666686
 11
-127.33333333333337
 21
64.600000000000023
  0
LINE
  8
_1-8_小物
  6
CONTINUOUS
 62
    4
 10
-129.33333333333314
 20
64.600000000000023
 11
-128.83333333333314
 21
64.100000000000023
  0
LINE
  8
_1-8_小物
  6
CONTINUOUS
 62
    4
 10
-128.83333333333314
 20
64.100000000000023
 11
-127.83333333333337
 21
64.100000000000023
  0
LINE
  8
_1-8_小物
  6
CONTINUOUS
 62
    4
 10
-127.33333333333337
 20
64.600000000000023
 11
-127.83333333333337
 21
64.100000000000023
  0
LINE
  8
_1-8_小物
  6
CONTINUOUS
 62
    4
 10
-129.33333333333314
 20
64.600000000000023
 11
-129.33333333333314
 21
64.666666666666686
  0
LINE
  8
_1-8_小物
  6
CONTINUOUS
 62
    4
 10
-127.33333333333337
 20
64.600000000000023
 11
-129.33333333333314
 21
64.600000000000023
  0
LINE
  8
_1-8_小物
  6
CONTINUOUS
 62
    4
 10
-127.83333333333337
 20
61.035753321824359
 11
-127.64583333333326
 21
60.927500000000066
  0
LINE
  8
_1-8_小物
  6
CONTINUOUS
 62
    4
 10
-127.64583333333326
 20
60.927500000000066
 11
-127.83333333333334
 21
60.819246678175801
  0
LINE
  8
_1-8_小物
  6
CONTINUOUS
 62
    4
 10
-127.83333333333337
 20
61.035753321824359
 11
-128.8333333333332
 21
60.800753321824374
  0
LINE
  8
_1-8_小物
  6
CONTINUOUS
 62
    4
 10
-129.02083333333326
 20
60.692500000000109
 11
-128.8333333333332
 21
60.800753321824374
  0
LINE
  8
_1-8_小物
  6
CONTINUOUS
 62
    4
 10
-128.8333333333332
 20
60.584246678175816
 11
-129.02083333333326
 21
60.692500000000109
  0
LINE
  8
_1-8_小物
  6
CONTINUOUS
 62
    4
 10
-127.83333333333334
 20
60.819246678175801
 11
-128.8333333333332
 21
60.584246678175816
  0
LINE
  8
_1-8_小物
  6
CONTINUOUS
 62
    4
 10
-127.64583333333326
 20
60.927500000000066
 11
-129.02083333333326
 21
60.692500000000109
  0
LINE
  8
_1-8_小物
  6
CONTINUOUS
 62
    4
 10
-127.83333333333337
 20
61.505753321824329
 11
-127.64583333333326
 21
61.397500000000065
  0
LINE
  8
_1-8_小物
  6
CONTINUOUS
 62
    4
 10
-127.64583333333326
 20
61.397500000000065
 11
-127.83333333333334
 21
61.2892466781758
  0
LINE
  8
_1-8_小物
  6
CONTINUOUS
 62
    4
 10
-127.83333333333337
 20
61.505753321824329
 11
-128.8333333333332
 21
61.270753321824373
  0
LINE
  8
_1-8_小物
  6
CONTINUOUS
 62
    4
 10
-129.02083333333326
 20
61.16250000000008
 11
-128.8333333333332
 21
61.270753321824373
  0
LINE
  8
_1-8_小物
  6
CONTINUOUS
 62
    4
 10
-128.8333333333332
 20
61.054246678175815
 11
-129.02083333333326
 21
61.16250000000008
  0
LINE
  8
_1-8_小物
  6
CONTINUOUS
 62
    4
 10
-127.83333333333334
 20
61.2892466781758
 11
-128.8333333333332
 21
61.054246678175815
  0
LINE
  8
_1-8_小物
  6
CONTINUOUS
 62
    4
 10
-127.64583333333326
 20
61.397500000000065
 11
-129.02083333333326
 21
61.16250000000008
  0
LINE
  8
_1-8_小物
  6
CONTINUOUS
 62
    4
 10
-127.83333333333337
 20
61.975753321824328
 11
-127.64583333333326
 21
61.867500000000064
  0
LINE
  8
_1-8_小物
  6
CONTINUOUS
 62
    4
 10
-127.64583333333326
 20
61.867500000000064
 11
-127.83333333333334
 21
61.759246678175771
  0
LINE
  8
_1-8_小物
  6
CONTINUOUS
 62
    4
 10
-127.83333333333337
 20
61.975753321824328
 11
-128.8333333333332
 21
61.740753321824343
  0
LINE
  8
_1-8_小物
  6
CONTINUOUS
 62
    4
 10
-129.02083333333326
 20
61.632500000000078
 11
-128.8333333333332
 21
61.740753321824343
  0
LINE
  8
_1-8_小物
  6
CONTINUOUS
 62
    4
 10
-128.8333333333332
 20
61.524246678175814
 11
-129.02083333333326
 21
61.632500000000078
  0
LINE
  8
_1-8_小物
  6
CONTINUOUS
 62
    4
 10
-127.83333333333334
 20
61.759246678175771
 11
-128.8333333333332
 21
61.524246678175814
  0
LINE
  8
_1-8_小物
  6
CONTINUOUS
 62
    4
 10
-127.64583333333326
 20
61.867500000000064
 11
-129.02083333333326
 21
61.632500000000078
  0
LINE
  8
_1-8_小物
  6
CONTINUOUS
 62
    4
 10
-127.83333333333337
 20
62.445753321824327
 11
-127.64583333333326
 21
62.337500000000034
  0
LINE
  8
_1-8_小物
  6
CONTINUOUS
 62
    4
 10
-127.64583333333326
 20
62.337500000000034
 11
-127.83333333333334
 21
62.22924667817577
  0
LINE
  8
_1-8_小物
  6
CONTINUOUS
 62
    4
 10
-127.83333333333337
 20
62.445753321824327
 11
-128.8333333333332
 21
62.210753321824342
  0
LINE
  8
_1-8_小物
  6
CONTINUOUS
 62
    4
 10
-129.02083333333326
 20
62.102500000000077
 11
-128.8333333333332
 21
62.210753321824342
  0
LINE
  8
_1-8_小物
  6
CONTINUOUS
 62
    4
 10
-128.8333333333332
 20
61.994246678175784
 11
-129.02083333333326
 21
62.102500000000077
  0
LINE
  8
_1-8_小物
  6
CONTINUOUS
 62
    4
 10
-127.83333333333334
 20
62.22924667817577
 11
-128.8333333333332
 21
61.994246678175784
  0
LINE
  8
_1-8_小物
  6
CONTINUOUS
 62
    4
 10
-127.64583333333326
 20
62.337500000000034
 11
-129.02083333333326
 21
62.102500000000077
  0
LINE
  8
_1-8_小物
  6
CONTINUOUS
 62
    4
 10
-127.83333333333337
 20
62.915753321824297
 11
-127.64583333333326
 21
62.807500000000033
  0
LINE
  8
_1-8_小物
  6
CONTINUOUS
 62
    4
 10
-127.64583333333326
 20
62.807500000000033
 11
-127.83333333333334
 21
62.699246678175768
  0
LINE
  8
_1-8_小物
  6
CONTINUOUS
 62
    4
 10
-127.83333333333337
 20
62.915753321824297
 11
-128.8333333333332
 21
62.680753321824341
  0
LINE
  8
_1-8_小物
  6
CONTINUOUS
 62
    4
 10
-129.02083333333326
 20
62.572500000000048
 11
-128.8333333333332
 21
62.680753321824341
  0
LINE
  8
_1-8_小物
  6
CONTINUOUS
 62
    4
 10
-128.8333333333332
 20
62.464246678175783
 11
-129.02083333333326
 21
62.572500000000048
  0
LINE
  8
_1-8_小物
  6
CONTINUOUS
 62
    4
 10
-127.83333333333334
 20
62.699246678175768
 11
-128.8333333333332
 21
62.464246678175783
  0
LINE
  8
_1-8_小物
  6
CONTINUOUS
 62
    4
 10
-127.64583333333326
 20
62.807500000000033
 11
-129.02083333333326
 21
62.572500000000048
  0
LINE
  8
_1-8_小物
  6
CONTINUOUS
 62
    4
 10
-127.83333333333337
 20
63.385753321824296
 11
-127.64583333333326
 21
63.277500000000032
  0
LINE
  8
_1-8_小物
  6
CONTINUOUS
 62
    4
 10
-127.64583333333326
 20
63.277500000000032
 11
-127.83333333333334
 21
63.169246678175739
  0
LINE
  8
_1-8_小物
  6
CONTINUOUS
 62
    4
 10
-127.83333333333337
 20
63.385753321824296
 11
-128.8333333333332
 21
63.150753321824311
  0
LINE
  8
_1-8_小物
  6
CONTINUOUS
 62
    4
 10
-129.02083333333326
 20
63.042500000000047
 11
-128.8333333333332
 21
63.150753321824311
  0
LINE
  8
_1-8_小物
  6
CONTINUOUS
 62
    4
 10
-128.8333333333332
 20
62.934246678175782
 11
-129.02083333333326
 21
63.042500000000047
  0
LINE
  8
_1-8_小物
  6
CONTINUOUS
 62
    4
 10
-127.83333333333334
 20
63.169246678175739
 11
-128.8333333333332
 21
62.934246678175782
  0
LINE
  8
_1-8_小物
  6
CONTINUOUS
 62
    4
 10
-127.64583333333326
 20
63.277500000000032
 11
-129.02083333333326
 21
63.042500000000047
  0
LINE
  8
_1-8_小物
  6
CONTINUOUS
 62
    4
 10
-127.83333333333337
 20
63.855753321824295
 11
-127.64583333333326
 21
63.747500000000002
  0
LINE
  8
_1-8_小物
  6
CONTINUOUS
 62
    4
 10
-127.64583333333326
 20
63.747500000000002
 11
-127.83333333333334
 21
63.639246678175738
  0
LINE
  8
_1-8_小物
  6
CONTINUOUS
 62
    4
 10
-127.83333333333337
 20
63.855753321824295
 11
-128.8333333333332
 21
63.62075332182431
  0
LINE
  8
_1-8_小物
  6
CONTINUOUS
 62
    4
 10
-129.02083333333326
 20
63.512500000000045
 11
-128.8333333333332
 21
63.62075332182431
  0
LINE
  8
_1-8_小物
  6
CONTINUOUS
 62
    4
 10
-128.8333333333332
 20
63.404246678175753
 11
-129.02083333333326
 21
63.512500000000045
  0
LINE
  8
_1-8_小物
  6
CONTINUOUS
 62
    4
 10
-127.83333333333334
 20
63.639246678175738
 11
-128.8333333333332
 21
63.404246678175753
  0
LINE
  8
_1-8_小物
  6
CONTINUOUS
 62
    4
 10
-127.64583333333326
 20
63.747500000000002
 11
-129.02083333333326
 21
63.512500000000045
  0
LINE
  8
_1-8_小物
  6
CONTINUOUS
 62
    4
 10
-128.83333333333314
 20
60.584246678175816
 11
-128.83333333333314
 21
60.330753321824375
  0
LINE
  8
_1-8_小物
  6
CONTINUOUS
 62
    4
 10
-128.83333333333314
 20
61.054246678175815
 11
-128.83333333333314
 21
60.800753321824374
  0
LINE
  8
_1-8_小物
  6
CONTINUOUS
 62
    4
 10
-128.83333333333314
 20
61.524246678175814
 11
-128.83333333333314
 21
61.270753321824401
  0
LINE
  8
_1-8_小物
  6
CONTINUOUS
 62
    4
 10
-128.83333333333314
 20
61.994246678175784
 11
-128.83333333333314
 21
61.740753321824343
  0
LINE
  8
_1-8_小物
  6
CONTINUOUS
 62
    4
 10
-128.83333333333314
 20
62.464246678175783
 11
-128.83333333333314
 21
62.210753321824342
  0
LINE
  8
_1-8_小物
  6
CONTINUOUS
 62
    4
 10
-128.83333333333314
 20
62.934246678175782
 11
-128.83333333333314
 21
62.680753321824341
  0
LINE
  8
_1-8_小物
  6
CONTINUOUS
 62
    4
 10
-128.83333333333314
 20
64.100000000000023
 11
-128.83333333333314
 21
63.62075332182431
  0
LINE
  8
_1-8_小物
  6
CONTINUOUS
 62
    4
 10
-128.83333333333314
 20
63.404246678175753
 11
-128.83333333333314
 21
63.150753321824368
  0
LINE
  8
_1-8_小物
  6
CONTINUOUS
 62
    4
 10
-127.83333333333337
 20
64.100000000000023
 11
-127.83333333333337
 21
63.855753321824295
  0
LINE
  8
_1-8_小物
  6
CONTINUOUS
 62
    4
 10
-127.83333333333337
 20
63.639246678175709
 11
-127.83333333333337
 21
63.385753321824296
  0
LINE
  8
_1-8_小物
  6
CONTINUOUS
 62
    4
 10
-127.83333333333337
 20
63.169246678175739
 11
-127.83333333333337
 21
62.915753321824297
  0
LINE
  8
_1-8_小物
  6
CONTINUOUS
 62
    4
 10
-127.83333333333337
 20
62.699246678175712
 11
-127.83333333333337
 21
62.445753321824327
  0
LINE
  8
_1-8_小物
  6
CONTINUOUS
 62
    4
 10
-127.83333333333337
 20
62.22924667817577
 11
-127.83333333333337
 21
61.975753321824328
  0
LINE
  8
_1-8_小物
  6
CONTINUOUS
 62
    4
 10
-127.83333333333337
 20
61.759246678175771
 11
-127.83333333333337
 21
61.505753321824329
  0
LINE
  8
_1-8_小物
  6
CONTINUOUS
 62
    4
 10
-127.83333333333337
 20
61.289246678175743
 11
-127.83333333333337
 21
61.035753321824359
  0
LINE
  8
_1-8_小物
  6
CONTINUOUS
 62
    4
 10
-127.76666666666674
 20
60.326666666666711
 11
-127.76666666666674
 21
59.330000000000041
  0
LINE
  8
_1-8_小物
  6
CONTINUOUS
 62
    4
 10
-128.89999999999981
 20
60.326666666666711
 11
-127.76666666666674
 21
60.326666666666711
  0
LINE
  8
_1-8_小物
  6
CONTINUOUS
 62
    4
 10
-128.89999999999981
 20
60.326666666666711
 11
-128.89999999999981
 21
59.330000000000041
  0
LINE
  8
_1-8_小物
  6
CONTINUOUS
 62
    4
 10
-128.89999999999981
 20
59.330000000000041
 11
-128.33333333333326
 21
59.002834847459326
  0
LINE
  8
_1-8_小物
  6
CONTINUOUS
 62
    4
 10
-127.76666666666674
 20
59.330000000000041
 11
-128.33333333333326
 21
59.002834847459326
  0
LINE
  8
_1-8_小物
  6
CONTINUOUS
 62
    4
 10
-128.33333333333326
 20
59.118304901297222
 11
-127.86666666666665
 21
59.387735026919017
  0
LINE
  8
_1-8_小物
  6
CONTINUOUS
 62
    4
 10
-127.86666666666665
 20
60.326666666666711
 11
-127.86666666666665
 21
59.387735026919017
  0
LINE
  8
_1-8_小物
  6
CONTINUOUS
 62
    4
 10
-128.33333333333326
 20
59.118304901297222
 11
-128.12026655164217
 21
60.326666666666711
  0
LINE
  8
_1-8_小物
  6
CONTINUOUS
 62
    4
 10
-127.83333333333337
 20
60.819246678175773
 11
-127.83333333333337
 21
60.326666666666711
  0
LINE
  8
_1-8_小物
  6
CONTINUOUS
 62
    4
 10
-128.33333333333326
 20
59.002834847459326
 11
-128.33333333333326
 21
59.118304901297222
  0
LINE
  8
_1-8_小物
  6
CENTER2
 62
    4
 10
-128.33333333333326
 20
65.000000000000028
 11
-128.33333333333326
 21
58.669501514125983
  0
ENDBLK
  0
BLOCK
  2
-018-_17_
 70
   64
 10
0
 20
0
 30
0
  0
LINE
  8
_1-8_小物
  6
CONTINUOUS
 62
    4
 10
-72.666666666666742
 20
64.666666666666686
 11
-70.666666666666742
 21
64.666666666666686
  0
LINE
  8
_1-8_小物
  6
CONTINUOUS
 62
    4
 10
-70.666666666666856
 20
64.666666666666686
 11
-70.666666666666856
 21
64.600000000000023
  0
LINE
  8
_1-8_小物
  6
CONTINUOUS
 62
    4
 10
-72.666666666666629
 20
64.600000000000023
 11
-72.166666666666629
 21
64.100000000000023
  0
LINE
  8
_1-8_小物
  6
CONTINUOUS
 62
    4
 10
-72.166666666666629
 20
64.100000000000023
 11
-71.166666666666856
 21
64.100000000000023
  0
LINE
  8
_1-8_小物
  6
CONTINUOUS
 62
    4
 10
-70.666666666666856
 20
64.600000000000023
 11
-71.166666666666856
 21
64.100000000000023
  0
LINE
  8
_1-8_小物
  6
CONTINUOUS
 62
    4
 10
-72.666666666666629
 20
64.600000000000023
 11
-72.666666666666629
 21
64.666666666666686
  0
LINE
  8
_1-8_小物
  6
CONTINUOUS
 62
    4
 10
-70.666666666666856
 20
64.600000000000023
 11
-72.666666666666629
 21
64.600000000000023
  0
LINE
  8
_1-8_小物
  6
CONTINUOUS
 62
    4
 10
-71.166666666666856
 20
61.035753321824359
 11
-70.979166666666742
 21
60.927500000000066
  0
LINE
  8
_1-8_小物
  6
CONTINUOUS
 62
    4
 10
-70.979166666666742
 20
60.927500000000066
 11
-71.166666666666799
 21
60.819246678175801
  0
LINE
  8
_1-8_小物
  6
CONTINUOUS
 62
    4
 10
-71.166666666666856
 20
61.035753321824359
 11
-72.166666666666686
 21
60.800753321824374
  0
LINE
  8
_1-8_小物
  6
CONTINUOUS
 62
    4
 10
-72.354166666666742
 20
60.692500000000109
 11
-72.166666666666686
 21
60.800753321824374
  0
LINE
  8
_1-8_小物
  6
CONTINUOUS
 62
    4
 10
-72.166666666666686
 20
60.584246678175816
 11
-72.354166666666742
 21
60.692500000000109
  0
LINE
  8
_1-8_小物
  6
CONTINUOUS
 62
    4
 10
-71.166666666666799
 20
60.819246678175801
 11
-72.166666666666686
 21
60.584246678175816
  0
LINE
  8
_1-8_小物
  6
CONTINUOUS
 62
    4
 10
-70.979166666666742
 20
60.927500000000066
 11
-72.354166666666742
 21
60.692500000000109
  0
LINE
  8
_1-8_小物
  6
CONTINUOUS
 62
    4
 10
-71.166666666666856
 20
61.505753321824329
 11
-70.979166666666742
 21
61.397500000000065
  0
LINE
  8
_1-8_小物
  6
CONTINUOUS
 62
    4
 10
-70.979166666666742
 20
61.397500000000065
 11
-71.166666666666799
 21
61.2892466781758
  0
LINE
  8
_1-8_小物
  6
CONTINUOUS
 62
    4
 10
-71.166666666666856
 20
61.505753321824329
 11
-72.166666666666686
 21
61.270753321824373
  0
LINE
  8
_1-8_小物
  6
CONTINUOUS
 62
    4
 10
-72.354166666666742
 20
61.16250000000008
 11
-72.166666666666686
 21
61.270753321824373
  0
LINE
  8
_1-8_小物
  6
CONTINUOUS
 62
    4
 10
-72.166666666666686
 20
61.054246678175815
 11
-72.354166666666742
 21
61.16250000000008
  0
LINE
  8
_1-8_小物
  6
CONTINUOUS
 62
    4
 10
-71.166666666666799
 20
61.2892466781758
 11
-72.166666666666686
 21
61.054246678175815
  0
LINE
  8
_1-8_小物
  6
CONTINUOUS
 62
    4
 10
-70.979166666666742
 20
61.397500000000065
 11
-72.354166666666742
 21
61.16250000000008
  0
LINE
  8
_1-8_小物
  6
CONTINUOUS
 62
    4
 10
-71.166666666666856
 20
61.975753321824328
 11
-70.979166666666742
 21
61.867500000000064
  0
LINE
  8
_1-8_小物
  6
CONTINUOUS
 62
    4
 10
-70.979166666666742
 20
61.867500000000064
 11
-71.166666666666799
 21
61.759246678175771
  0
LINE
  8
_1-8_小物
  6
CONTINUOUS
 62
    4
 10
-71.166666666666856
 20
61.975753321824328
 11
-72.166666666666686
 21
61.740753321824343
  0
LINE
  8
_1-8_小物
  6
CONTINUOUS
 62
    4
 10
-72.354166666666742
 20
61.632500000000078
 11
-72.166666666666686
 21
61.740753321824343
  0
LINE
  8
_1-8_小物
  6
CONTINUOUS
 62
    4
 10
-72.166666666666686
 20
61.524246678175814
 11
-72.354166666666742
 21
61.632500000000078
  0
LINE
  8
_1-8_小物
  6
CONTINUOUS
 62
    4
 10
-71.166666666666799
 20
61.759246678175771
 11
-72.166666666666686
 21
61.524246678175814
  0
LINE
  8
_1-8_小物
  6
CONTINUOUS
 62
    4
 10
-70.979166666666742
 20
61.867500000000064
 11
-72.354166666666742
 21
61.632500000000078
  0
LINE
  8
_1-8_小物
  6
CONTINUOUS
 62
    4
 10
-71.166666666666856
 20
62.445753321824327
 11
-70.979166666666742
 21
62.337500000000034
  0
LINE
  8
_1-8_小物
  6
CONTINUOUS
 62
    4
 10
-70.979166666666742
 20
62.337500000000034
 11
-71.166666666666799
 21
62.22924667817577
  0
LINE
  8
_1-8_小物
  6
CONTINUOUS
 62
    4
 10
-71.166666666666856
 20
62.445753321824327
 11
-72.166666666666686
 21
62.210753321824342
  0
LINE
  8
_1-8_小物
  6
CONTINUOUS
 62
    4
 10
-72.354166666666742
 20
62.102500000000077
 11
-72.166666666666686
 21
62.210753321824342
  0
LINE
  8
_1-8_小物
  6
CONTINUOUS
 62
    4
 10
-72.166666666666686
 20
61.994246678175784
 11
-72.354166666666742
 21
62.102500000000077
  0
LINE
  8
_1-8_小物
  6
CONTINUOUS
 62
    4
 10
-71.166666666666799
 20
62.22924667817577
 11
-72.166666666666686
 21
61.994246678175784
  0
LINE
  8
_1-8_小物
  6
CONTINUOUS
 62
    4
 10
-70.979166666666742
 20
62.337500000000034
 11
-72.354166666666742
 21
62.102500000000077
  0
LINE
  8
_1-8_小物
  6
CONTINUOUS
 62
    4
 10
-71.166666666666856
 20
62.915753321824297
 11
-70.979166666666742
 21
62.807500000000033
  0
LINE
  8
_1-8_小物
  6
CONTINUOUS
 62
    4
 10
-70.979166666666742
 20
62.807500000000033
 11
-71.166666666666799
 21
62.699246678175768
  0
LINE
  8
_1-8_小物
  6
CONTINUOUS
 62
    4
 10
-71.166666666666856
 20
62.915753321824297
 11
-72.166666666666686
 21
62.680753321824341
  0
LINE
  8
_1-8_小物
  6
CONTINUOUS
 62
    4
 10
-72.354166666666742
 20
62.572500000000048
 11
-72.166666666666686
 21
62.680753321824341
  0
LINE
  8
_1-8_小物
  6
CONTINUOUS
 62
    4
 10
-72.166666666666686
 20
62.464246678175783
 11
-72.354166666666742
 21
62.572500000000048
  0
LINE
  8
_1-8_小物
  6
CONTINUOUS
 62
    4
 10
-71.166666666666799
 20
62.699246678175768
 11
-72.166666666666686
 21
62.464246678175783
  0
LINE
  8
_1-8_小物
  6
CONTINUOUS
 62
    4
 10
-70.979166666666742
 20
62.807500000000033
 11
-72.354166666666742
 21
62.572500000000048
  0
LINE
  8
_1-8_小物
  6
CONTINUOUS
 62
    4
 10
-71.166666666666856
 20
63.385753321824296
 11
-70.979166666666742
 21
63.277500000000032
  0
LINE
  8
_1-8_小物
  6
CONTINUOUS
 62
    4
 10
-70.979166666666742
 20
63.277500000000032
 11
-71.166666666666799
 21
63.169246678175739
  0
LINE
  8
_1-8_小物
  6
CONTINUOUS
 62
    4
 10
-71.166666666666856
 20
63.385753321824296
 11
-72.166666666666686
 21
63.150753321824311
  0
LINE
  8
_1-8_小物
  6
CONTINUOUS
 62
    4
 10
-72.354166666666742
 20
63.042500000000047
 11
-72.166666666666686
 21
63.150753321824311
  0
LINE
  8
_1-8_小物
  6
CONTINUOUS
 62
    4
 10
-72.166666666666686
 20
62.934246678175782
 11
-72.354166666666742
 21
63.042500000000047
  0
LINE
  8
_1-8_小物
  6
CONTINUOUS
 62
    4
 10
-71.166666666666799
 20
63.169246678175739
 11
-72.166666666666686
 21
62.934246678175782
  0
LINE
  8
_1-8_小物
  6
CONTINUOUS
 62
    4
 10
-70.979166666666742
 20
63.277500000000032
 11
-72.354166666666742
 21
63.042500000000047
  0
LINE
  8
_1-8_小物
  6
CONTINUOUS
 62
    4
 10
-71.166666666666856
 20
63.855753321824295
 11
-70.979166666666742
 21
63.747500000000002
  0
LINE
  8
_1-8_小物
  6
CONTINUOUS
 62
    4
 10
-70.979166666666742
 20
63.747500000000002
 11
-71.166666666666799
 21
63.639246678175738
  0
LINE
  8
_1-8_小物
  6
CONTINUOUS
 62
    4
 10
-71.166666666666856
 20
63.855753321824295
 11
-72.166666666666686
 21
63.62075332182431
  0
LINE
  8
_1-8_小物
  6
CONTINUOUS
 62
    4
 10
-72.354166666666742
 20
63.512500000000045
 11
-72.166666666666686
 21
63.62075332182431
  0
LINE
  8
_1-8_小物
  6
CONTINUOUS
 62
    4
 10
-72.166666666666686
 20
63.404246678175753
 11
-72.354166666666742
 21
63.512500000000045
  0
LINE
  8
_1-8_小物
  6
CONTINUOUS
 62
    4
 10
-71.166666666666799
 20
63.639246678175738
 11
-72.166666666666686
 21
63.404246678175753
  0
LINE
  8
_1-8_小物
  6
CONTINUOUS
 62
    4
 10
-70.979166666666742
 20
63.747500000000002
 11
-72.354166666666742
 21
63.512500000000045
  0
LINE
  8
_1-8_小物
  6
CONTINUOUS
 62
    4
 10
-72.166666666666629
 20
60.584246678175816
 11
-72.166666666666629
 21
60.330753321824375
  0
LINE
  8
_1-8_小物
  6
CONTINUOUS
 62
    4
 10
-72.166666666666629
 20
61.054246678175815
 11
-72.166666666666629
 21
60.800753321824374
  0
LINE
  8
_1-8_小物
  6
CONTINUOUS
 62
    4
 10
-72.166666666666629
 20
61.524246678175814
 11
-72.166666666666629
 21
61.270753321824401
  0
LINE
  8
_1-8_小物
  6
CONTINUOUS
 62
    4
 10
-72.166666666666629
 20
61.994246678175784
 11
-72.166666666666629
 21
61.740753321824343
  0
LINE
  8
_1-8_小物
  6
CONTINUOUS
 62
    4
 10
-72.166666666666629
 20
62.464246678175783
 11
-72.166666666666629
 21
62.210753321824342
  0
LINE
  8
_1-8_小物
  6
CONTINUOUS
 62
    4
 10
-72.166666666666629
 20
62.934246678175782
 11
-72.166666666666629
 21
62.680753321824341
  0
LINE
  8
_1-8_小物
  6
CONTINUOUS
 62
    4
 10
-72.166666666666629
 20
64.100000000000023
 11
-72.166666666666629
 21
63.62075332182431
  0
LINE
  8
_1-8_小物
  6
CONTINUOUS
 62
    4
 10
-72.166666666666629
 20
63.404246678175753
 11
-72.166666666666629
 21
63.150753321824368
  0
LINE
  8
_1-8_小物
  6
CONTINUOUS
 62
    4
 10
-71.166666666666856
 20
64.100000000000023
 11
-71.166666666666856
 21
63.855753321824295
  0
LINE
  8
_1-8_小物
  6
CONTINUOUS
 62
    4
 10
-71.166666666666856
 20
63.639246678175709
 11
-71.166666666666856
 21
63.385753321824296
  0
LINE
  8
_1-8_小物
  6
CONTINUOUS
 62
    4
 10
-71.166666666666856
 20
63.169246678175739
 11
-71.166666666666856
 21
62.915753321824297
  0
LINE
  8
_1-8_小物
  6
CONTINUOUS
 62
    4
 10
-71.166666666666856
 20
62.699246678175712
 11
-71.166666666666856
 21
62.445753321824327
  0
LINE
  8
_1-8_小物
  6
CONTINUOUS
 62
    4
 10
-71.166666666666856
 20
62.22924667817577
 11
-71.166666666666856
 21
61.975753321824328
  0
LINE
  8
_1-8_小物
  6
CONTINUOUS
 62
    4
 10
-71.166666666666856
 20
61.759246678175771
 11
-71.166666666666856
 21
61.505753321824329
  0
LINE
  8
_1-8_小物
  6
CONTINUOUS
 62
    4
 10
-71.166666666666856
 20
61.289246678175743
 11
-71.166666666666856
 21
61.035753321824359
  0
LINE
  8
_1-8_小物
  6
CONTINUOUS
 62
    4
 10
-71.100000000000193
 20
60.326666666666711
 11
-71.100000000000193
 21
59.330000000000041
  0
LINE
  8
_1-8_小物
  6
CONTINUOUS
 62
    4
 10
-72.233333333333292
 20
60.326666666666711
 11
-71.100000000000193
 21
60.326666666666711
  0
LINE
  8
_1-8_小物
  6
CONTINUOUS
 62
    4
 10
-72.233333333333292
 20
60.326666666666711
 11
-72.233333333333292
 21
59.330000000000041
  0
LINE
  8
_1-8_小物
  6
CONTINUOUS
 62
    4
 10
-72.233333333333292
 20
59.330000000000041
 11
-71.666666666666742
 21
59.002834847459326
  0
LINE
  8
_1-8_小物
  6
CONTINUOUS
 62
    4
 10
-71.100000000000193
 20
59.330000000000041
 11
-71.666666666666742
 21
59.002834847459326
  0
LINE
  8
_1-8_小物
  6
CONTINUOUS
 62
    4
 10
-71.666666666666742
 20
59.118304901297222
 11
-71.200000000000102
 21
59.387735026919017
  0
LINE
  8
_1-8_小物
  6
CONTINUOUS
 62
    4
 10
-71.200000000000102
 20
60.326666666666711
 11
-71.200000000000102
 21
59.387735026919017
  0
LINE
  8
_1-8_小物
  6
CONTINUOUS
 62
    4
 10
-71.666666666666742
 20
59.118304901297222
 11
-71.453599884975631
 21
60.326666666666711
  0
LINE
  8
_1-8_小物
  6
CONTINUOUS
 62
    4
 10
-71.166666666666856
 20
60.819246678175773
 11
-71.166666666666856
 21
60.326666666666711
  0
LINE
  8
_1-8_小物
  6
CONTINUOUS
 62
    4
 10
-71.666666666666742
 20
59.002834847459326
 11
-71.666666666666742
 21
59.118304901297222
  0
LINE
  8
_1-8_小物
  6
CENTER2
 62
    4
 10
-71.666666666666742
 20
65.000000000000028
 11
-71.666666666666742
 21
58.669501514125983
  0
ENDBLK
  0
BLOCK
  2
-019-_18_
 70
   64
 10
0
 20
0
 30
0
  0
ARC
  8
_1-4_フレ__ム
  6
CONTINUOUS
 62
    4
 10
-84.83333325386684
 20
56.666666666666686
 40
0.5
 50
90
 51
180
  0
LINE
  8
_1-4_フレ__ム
  6
CONTINUOUS
 62
    4
 10
-63.33333325386684
 20
57.066666666666777
 11
-63.433333253866607
 21
57.166666666666686
  0
LINE
  8
_1-4_フレ__ム
  6
CONTINUOUS
 62
    4
 10
-63.233333253866931
 20
57.166666666666686
 11
-63.33333325386684
 21
57.066666666666777
  0
LINE
  8
_1-4_フレ__ム
  6
CONTINUOUS
 62
    4
 10
-85.333333253867153
 20
56.666666666666686
 11
-58.33333325386684
 21
56.666666666666686
  0
LINE
  8
_1-4_フレ__ム
  6
CONTINUOUS
 62
    4
 10
-58.333333333333655
 20
56.666666685666712
 11
-57.333333352333597
 21
57.666666666666657
  0
LINE
  8
_1-4_フレ__ム
  6
CONTINUOUS
 62
    4
 10
-57.333333352333597
 20
57.666666666666657
 11
-58.040440133520178
 21
57.666666666666657
  0
LINE
  8
_1-4_フレ__ム
  6
CONTINUOUS
 62
    4
 10
-58.540440133520178
 20
57.166666666666686
 11
-58.040440133520178
 21
57.666666666666657
  0
LINE
  8
_1-4_フレ__ム
  6
CONTINUOUS
 62
    4
 10
-58.540440133520178
 20
57.166666666666686
 11
-63.233333253866931
 21
57.166666666666686
  0
LINE
  8
_1-4_フレ__ム
  6
CONTINUOUS
 62
    4
 10
-74.112653052606845
 20
57.166666666666686
 11
-84.83333325386684
 21
57.166666666666686
  0
ARC
  8
_1-4_フレ__ム
  6
CONTINUOUS
 62
    4
 10
-74.112653052606845
 20
57.500000000000028
 40
0.3333333333333333
 50
270
 51
326.30993247401886
  0
ARC
  8
_1-4_フレ__ム
  6
CONTINUOUS
 62
    4
 10
-72.755863880281453
 20
58.333333333333371
 40
0.3333333333333333
 50
90
 51
146.30993247402972
  0
ARC
  8
_1-4_フレ__ム
  6
CONTINUOUS
 62
    4
 10
-72.577469294118828
 20
58.000000000000028
 40
0.1666666666666666
 50
90
 51
146.30993247403649
  0
LINE
  8
_1-4_フレ__ム
  6
CONTINUOUS
 62
    4
 10
-63.433333253866607
 20
57.166666666666686
 11
-73.021913738563342
 21
57.166666666666686
  0
ARC
  8
_1-4_フレ__ム
  6
CONTINUOUS
 62
    4
 10
-73.021913738563342
 20
57.333333333333371
 40
0.1666666666666666
 50
146.30993247403649
 51
270
  0
LINE
  8
_1-4_フレ__ム
  6
CONTINUOUS
 62
    4
 10
-73.835302954494182
 20
57.315099934591586
 11
-73.033213978394173
 21
58.518233398741728
  0
LINE
  8
_1-4_フレ__ム
  6
CONTINUOUS
 62
    4
 10
-73.160588787619645
 20
57.425783366037564
 11
-72.716144343175245
 21
58.092450032704193
  0
LINE
  8
_1-4_フレ__ム
  6
CONTINUOUS
 62
    4
 10
-71.666666587200325
 20
58.166666666666686
 11
-72.577469294118828
 21
58.166666666666686
  0
ARC
  8
_1-4_フレ__ム
  6
CONTINUOUS
 62
    4
 10
-71.666666587200325
 20
58.500000000000028
 40
0.3333333333333333
 50
270
 51
0
  0
LINE
  8
_1-4_フレ__ム
  6
CONTINUOUS
 62
    4
 10
-71.333333253866925
 20
58.500000000000028
 11
-71.333333253866925
 21
58.666666666666686
  0
LINE
  8
_1-4_フレ__ム
  6
CONTINUOUS
 62
    4
 10
-71.333333253866925
 20
58.666666666666686
 11
-72.755863880281453
 21
58.666666666666686
  0
LINE
  8
ADD_LINE
  6
DOT
 62
    4
 10
-63.33333325386684
 20
58.833333333333371
 11
-63.33333325386684
 21
55.000000000000028
  0
LINE
  8
_1-4_フレ__ム
  6
DASHED1
 62
    4
 10
-60.83333325386684
 20
57.166666666666686
 11
-60.83333325386684
 21
56.666666666666544
  0
LINE
  8
_1-4_フレ__ム
  6
DASHED1
 62
    4
 10
-65.83333325386684
 20
57.166666666666686
 11
-65.83333325386684
 21
56.666666666666544
  0
ENDBLK
  0
BLOCK
  2
-020-_19_
 70
   64
 10
0
 20
0
 30
0
  0
ARC
  8
_1-4_フレ__ム
  6
CONTINUOUS
 62
    4
 10
115.16666674613316
 20
56.666666666666657
 40
0.5
 50
90
 51
180
  0
LINE
  8
_1-4_フレ__ム
  6
CONTINUOUS
 62
    4
 10
136.66666674613316
 20
57.066666666666748
 11
136.56666674613336
 21
57.166666666666657
  0
LINE
  8
_1-4_フレ__ム
  6
CONTINUOUS
 62
    4
 10
136.76666674613307
 20
57.166666666666657
 11
136.66666674613316
 21
57.066666666666748
  0
LINE
  8
_1-4_フレ__ム
  6
CONTINUOUS
 62
    4
 10
114.66666674613282
 20
56.666666666666657
 11
141.66666674613316
 21
56.666666666666657
  0
LINE
  8
_1-4_フレ__ム
  6
CONTINUOUS
 62
    4
 10
141.66666666666634
 20
56.666666685666684
 11
142.66666664766637
 21
57.666666666666629
  0
LINE
  8
_1-4_フレ__ム
  6
CONTINUOUS
 62
    4
 10
142.66666664766637
 20
57.666666666666629
 11
141.95955986647982
 21
57.666666666666629
  0
LINE
  8
_1-4_フレ__ム
  6
CONTINUOUS
 62
    4
 10
141.45955986647982
 20
57.166666666666657
 11
141.95955986647982
 21
57.666666666666629
  0
LINE
  8
_1-4_フレ__ム
  6
CONTINUOUS
 62
    4
 10
141.45955986647982
 20
57.166666666666657
 11
136.76666674613307
 21
57.166666666666657
  0
LINE
  8
_1-4_フレ__ム
  6
CONTINUOUS
 62
    4
 10
125.88734694739316
 20
57.166666666666657
 11
115.16666674613316
 21
57.166666666666657
  0
ARC
  8
_1-4_フレ__ム
  6
CONTINUOUS
 62
    4
 10
125.88734694739316
 20
57.5
 40
0.3333333333333333
 50
270
 51
326.30993247401886
  0
ARC
  8
_1-4_フレ__ム
  6
CONTINUOUS
 62
    4
 10
127.24413611971852
 20
58.333333333333314
 40
0.3333333333333333
 50
90
 51
146.30993247402836
  0
ARC
  8
_1-4_フレ__ム
  6
CONTINUOUS
 62
    4
 10
127.42253070588117
 20
58
 40
0.1666666666666666
 50
90
 51
146.30993247404189
  0
LINE
  8
_1-4_フレ__ム
  6
CONTINUOUS
 62
    4
 10
136.56666674613336
 20
57.166666666666657
 11
126.97808626143666
 21
57.166666666666657
  0
ARC
  8
_1-4_フレ__ム
  6
CONTINUOUS
 62
    4
 10
126.97808626143666
 20
57.333333333333314
 40
0.1666666666666666
 50
146.30993247403106
 51
270
  0
LINE
  8
_1-4_フレ__ム
  6
CONTINUOUS
 62
    4
 10
126.16469704550582
 20
57.315099934591558
 11
126.9667860216058
 21
58.5182333987417
  0
LINE
  8
_1-4_フレ__ム
  6
CONTINUOUS
 62
    4
 10
126.83941121238036
 20
57.425783366037535
 11
127.28385565682476
 21
58.092450032704164
  0
LINE
  8
_1-4_フレ__ム
  6
CONTINUOUS
 62
    4
 10
128.33333341279967
 20
58.166666666666657
 11
127.42253070588117
 21
58.166666666666657
  0
ARC
  8
_1-4_フレ__ム
  6
CONTINUOUS
 62
    4
 10
128.33333341279967
 20
58.5
 40
0.3333333333333333
 50
270
 51
0
  0
LINE
  8
_1-4_フレ__ム
  6
CONTINUOUS
 62
    4
 10
128.66666674613305
 20
58.5
 11
128.66666674613305
 21
58.666666666666657
  0
LINE
  8
_1-4_フレ__ム
  6
CONTINUOUS
 62
    4
 10
128.66666674613305
 20
58.666666666666657
 11
127.24413611971852
 21
58.666666666666657
  0
LINE
  8
ADD_LINE
  6
DOT
 62
    4
 10
136.66666674613316
 20
58.833333333333314
 11
136.66666674613316
 21
55
  0
LINE
  8
_1-4_フレ__ム
  6
DASHED1
 62
    4
 10
139.16666674613316
 20
57.166666666666657
 11
139.16666674613316
 21
56.666666666666515
  0
LINE
  8
_1-4_フレ__ム
  6
DASHED1
 62
    4
 10
134.16666674613316
 20
57.166666666666657
 11
134.16666674613316
 21
56.666666666666515
  0
ENDBLK
  0
BLOCK
  2
-021-_20_
 70
   64
 10
0
 20
0
 30
0
  0
LINE
  8
_1-8_小物
  6
CONTINUOUS
 62
    4
 10
-133.66666658719973
 20
58.166666666666799
 11
-139.66666658720004
 21
58.166666666666799
  0
LINE
  8
_1-8_小物
  6
CONTINUOUS
 62
    4
 10
-133.66666658719973
 20
57.666666666666799
 11
-139.66666658720004
 21
57.666666666666799
  0
LINE
  8
_1-8_小物
  6
CONTINUOUS
 62
    4
 10
-133.66666658719973
 20
58.166666666666799
 11
-133.66666658719973
 21
57.666666666666799
  0
LINE
  8
_1-8_小物
  6
CONTINUOUS
 62
    4
 10
-139.66666658720004
 20
58.166666666666799
 11
-139.66666658720004
 21
57.666666666666799
  0
LINE
  8
_1-8_小物
  6
CONTINUOUS
 62
    4
 10
-135.16666658719973
 20
58.166666666666799
 11
-135.20297084846658
 21
58.581626271666835
  0
LINE
  8
_1-8_小物
  6
CONTINUOUS
 62
    4
 10
-138.13036232596659
 20
58.581626271666835
 11
-138.16666658719973
 21
58.166666666666799
  0
ARC
  8
_1-8_小物
  6
CONTINUOUS
 62
    4
 10
-137.80161807556686
 20
58.55286487656673
 40
0.3299999999999999
 50
127.36755803205052
 51
175.00000000119829
  0
ARC
  8
_1-8_小物
  6
CONTINUOUS
 62
    4
 10
-135.53171509883322
 20
58.55286487656673
 40
0.3299999999999999
 50
4.9999999988008561
 51
52.63244196794556
  0
ARC
  8
_1-8_小物
  6
CONTINUOUS
 62
    4
 10
-136.66666658720004
 20
57.066666666666777
 40
2.1999999999999997
 50
52.632441967704345
 51
68.266383543397751
  0
ARC
  8
_1-8_小物
  6
CONTINUOUS
 62
    4
 10
-136.66666658720004
 20
57.066666666666777
 40
2.1999999999999997
 50
111.74840859090261
 51
127.36755803230515
  0
LINE
  8
_1-8_小物
  6
CONTINUOUS
 62
    4
 10
-136.56166658719991
 20
59.253042376533529
 11
-136.56166658719991
 21
59.10777074653339
  0
LINE
  8
_1-8_小物
  6
CONTINUOUS
 62
    4
 10
-136.44590369323291
 20
59.253042376533529
 11
-136.56166658719991
 21
59.253042376533529
  0
LINE
  8
_1-8_小物
  6
CONTINUOUS
 62
    4
 10
-135.8524988310333
 20
59.10777074653339
 11
-136.44590369323291
 21
59.253042376533529
  0
LINE
  8
_1-8_小物
  6
CONTINUOUS
 62
    4
 10
-136.88742948119994
 20
59.253042376533529
 11
-137.3207329037667
 21
59.164563769400218
  0
LINE
  8
_1-8_小物
  6
CONTINUOUS
 62
    4
 10
-137.3207329037667
 20
59.164563769400218
 11
-137.48083434339955
 21
59.10777074653339
  0
LINE
  8
_1-8_小物
  6
CONTINUOUS
 62
    4
 10
-136.77166658719995
 20
59.253042376533529
 11
-136.88742948119994
 21
59.253042376533529
  0
LINE
  8
_1-8_小物
  6
CONTINUOUS
 62
    4
 10
-136.77166658719995
 20
59.10777074653339
 11
-136.77166658719995
 21
59.253042376533529
  0
LINE
  8
_1-8_小物
  6
CONTINUOUS
 62
    4
 10
-136.56166658719991
 20
59.10777074653339
 11
-136.66666658720004
 21
59.109472471333504
  0
LINE
  8
_1-8_小物
  6
CONTINUOUS
 62
    4
 10
-136.66666658720004
 20
59.109472471333504
 11
-136.77166658719995
 21
59.10777074653339
  0
LINE
  8
_1-8_小物
  6
CONTINUOUS
 62
    4
 10
-135.20297084846658
 20
58.581626271666835
 11
-138.13036232596659
 21
58.581626271666835
  0
LINE
  8
_1-8_小物
  6
CONTINUOUS
 62
    4
 10
-136.66666658720004
 20
58.815135148900197
 11
-138.00190363236669
 21
58.815135148900197
  0
LINE
  8
_1-8_小物
  6
CONTINUOUS
 62
    4
 10
-135.33142954206647
 20
58.815135148900197
 11
-136.66666658720004
 21
58.815135148900197
  0
ENDBLK
  0
BLOCK
  2
-022-_21_
 70
   64
 10
0
 20
0
 30
0
  0
LINE
  8
_1-8_小物
  6
CONTINUOUS
 62
    4
 10
-60.333333253866385
 20
57.666666666666856
 11
-66.333333253866698
 21
57.666666666666856
  0
LINE
  8
_1-8_小物
  6
CONTINUOUS
 62
    4
 10
-60.333333253866385
 20
57.166666666666856
 11
-66.333333253866698
 21
57.166666666666856
  0
LINE
  8
_1-8_小物
  6
CONTINUOUS
 62
    4
 10
-60.333333253866385
 20
57.666666666666856
 11
-60.333333253866385
 21
57.166666666666856
  0
LINE
  8
_1-8_小物
  6
CONTINUOUS
 62
    4
 10
-66.333333253866698
 20
57.666666666666856
 11
-66.333333253866698
 21
57.166666666666856
  0
LINE
  8
_1-8_小物
  6
CONTINUOUS
 62
    4
 10
-61.833333253866385
 20
57.666666666666856
 11
-61.869637515133235
 21
58.081626271666892
  0
LINE
  8
_1-8_小物
  6
CONTINUOUS
 62
    4
 10
-64.797028992633244
 20
58.081626271666892
 11
-64.833333253866385
 21
57.666666666666856
  0
ARC
  8
_1-8_小物
  6
CONTINUOUS
 62
    4
 10
-64.468284742233521
 20
58.052864876566787
 40
0.3299999999999999
 50
127.36755803205445
 51
175.00000000120363
  0
ARC
  8
_1-8_小物
  6
CONTINUOUS
 62
    4
 10
-62.198381765499875
 20
58.052864876566787
 40
0.3299999999999999
 50
4.9999999987963699
 51
52.632441967949475
  0
ARC
  8
_1-8_小物
  6
CONTINUOUS
 62
    4
 10
-63.333333253866698
 20
56.566666666666833
 40
2.1999999999999997
 50
52.632441967704935
 51
68.266383543398163
  0
ARC
  8
_1-8_小物
  6
CONTINUOUS
 62
    4
 10
-63.333333253866698
 20
56.566666666666833
 40
2.1999999999999997
 50
111.74840859090358
 51
127.36755803230515
  0
LINE
  8
_1-8_小物
  6
CONTINUOUS
 62
    4
 10
-63.228333253866566
 20
58.753042376533585
 11
-63.228333253866566
 21
58.607770746533447
  0
LINE
  8
_1-8_小物
  6
CONTINUOUS
 62
    4
 10
-63.112570359899564
 20
58.753042376533585
 11
-63.228333253866566
 21
58.753042376533585
  0
LINE
  8
_1-8_小物
  6
CONTINUOUS
 62
    4
 10
-62.519165497699959
 20
58.607770746533447
 11
-63.112570359899564
 21
58.753042376533585
  0
LINE
  8
_1-8_小物
  6
CONTINUOUS
 62
    4
 10
-63.554096147866602
 20
58.753042376533585
 11
-63.987399570433354
 21
58.664563769400274
  0
LINE
  8
_1-8_小物
  6
CONTINUOUS
 62
    4
 10
-63.987399570433354
 20
58.664563769400274
 11
-64.147501010066208
 21
58.607770746533447
  0
LINE
  8
_1-8_小物
  6
CONTINUOUS
 62
    4
 10
-63.438333253866602
 20
58.753042376533585
 11
-63.554096147866602
 21
58.753042376533585
  0
LINE
  8
_1-8_小物
  6
CONTINUOUS
 62
    4
 10
-63.438333253866602
 20
58.607770746533447
 11
-63.438333253866602
 21
58.753042376533585
  0
LINE
  8
_1-8_小物
  6
CONTINUOUS
 62
    4
 10
-63.228333253866566
 20
58.607770746533447
 11
-63.333333253866698
 21
58.609472471333561
  0
LINE
  8
_1-8_小物
  6
CONTINUOUS
 62
    4
 10
-63.333333253866698
 20
58.609472471333561
 11
-63.438333253866602
 21
58.607770746533447
  0
LINE
  8
_1-8_小物
  6
CONTINUOUS
 62
    4
 10
-61.869637515133235
 20
58.081626271666892
 11
-64.797028992633244
 21
58.081626271666892
  0
LINE
  8
_1-8_小物
  6
CONTINUOUS
 62
    4
 10
-63.333333253866698
 20
58.315135148900254
 11
-64.668570299033348
 21
58.315135148900254
  0
LINE
  8
_1-8_小物
  6
CONTINUOUS
 62
    4
 10
-61.998096208733131
 20
58.315135148900254
 11
-63.333333253866698
 21
58.315135148900254
  0
ENDBLK
  0
BLOCK
  2
-023-_22_
 70
   64
 10
0
 20
0
 30
0
  0
LINE
  8
_1-8_小物
  6
CONTINUOUS
 62
    4
 10
139.6666667461335
 20
57.666666666666885
 11
133.66666674613322
 21
57.666666666666885
  0
LINE
  8
_1-8_小物
  6
CONTINUOUS
 62
    4
 10
139.6666667461335
 20
57.166666666666885
 11
133.66666674613322
 21
57.166666666666885
  0
LINE
  8
_1-8_小物
  6
CONTINUOUS
 62
    4
 10
139.6666667461335
 20
57.666666666666885
 11
139.6666667461335
 21
57.166666666666885
  0
LINE
  8
_1-8_小物
  6
CONTINUOUS
 62
    4
 10
133.66666674613322
 20
57.666666666666885
 11
133.66666674613322
 21
57.166666666666885
  0
LINE
  8
_1-8_小物
  6
CONTINUOUS
 62
    4
 10
138.1666667461335
 20
57.666666666666885
 11
138.13036248486662
 21
58.08162627166692
  0
LINE
  8
_1-8_小物
  6
CONTINUOUS
 62
    4
 10
135.20297100736667
 20
58.08162627166692
 11
135.1666667461335
 21
57.666666666666885
  0
ARC
  8
_1-8_小物
  6
CONTINUOUS
 62
    4
 10
135.53171525776639
 20
58.052864876566815
 40
0.3299999999999999
 50
127.36755803205445
 51
175.00000000119829
  0
ARC
  8
_1-8_小物
  6
CONTINUOUS
 62
    4
 10
137.80161823450004
 20
58.052864876566815
 40
0.3299999999999999
 50
4.9999999988017167
 51
52.63244196794556
  0
ARC
  8
_1-8_小物
  6
CONTINUOUS
 62
    4
 10
136.66666674613322
 20
56.566666666666862
 40
2.1999999999999997
 50
52.632441967704345
 51
68.266383543397481
  0
ARC
  8
_1-8_小物
  6
CONTINUOUS
 62
    4
 10
136.66666674613322
 20
56.566666666666862
 40
2.1999999999999997
 50
111.74840859090261
 51
127.36755803230515
  0
LINE
  8
_1-8_小物
  6
CONTINUOUS
 62
    4
 10
136.77166674613329
 20
58.753042376533614
 11
136.77166674613329
 21
58.607770746533475
  0
LINE
  8
_1-8_小物
  6
CONTINUOUS
 62
    4
 10
136.88742964010032
 20
58.753042376533614
 11
136.77166674613329
 21
58.753042376533614
  0
LINE
  8
_1-8_小物
  6
CONTINUOUS
 62
    4
 10
137.4808345022999
 20
58.607770746533475
 11
136.88742964010032
 21
58.753042376533614
  0
LINE
  8
_1-8_小物
  6
CONTINUOUS
 62
    4
 10
136.44590385213326
 20
58.753042376533614
 11
136.01260042956653
 21
58.664563769400303
  0
LINE
  8
_1-8_小物
  6
CONTINUOUS
 62
    4
 10
136.01260042956653
 20
58.664563769400303
 11
135.85249898993368
 21
58.607770746533475
  0
LINE
  8
_1-8_小物
  6
CONTINUOUS
 62
    4
 10
136.56166674613326
 20
58.753042376533614
 11
136.44590385213326
 21
58.753042376533614
  0
LINE
  8
_1-8_小物
  6
CONTINUOUS
 62
    4
 10
136.56166674613326
 20
58.607770746533475
 11
136.56166674613326
 21
58.753042376533614
  0
LINE
  8
_1-8_小物
  6
CONTINUOUS
 62
    4
 10
136.77166674613329
 20
58.607770746533475
 11
136.66666674613322
 21
58.609472471333589
  0
LINE
  8
_1-8_小物
  6
CONTINUOUS
 62
    4
 10
136.66666674613322
 20
58.609472471333589
 11
136.56166674613326
 21
58.607770746533475
  0
LINE
  8
_1-8_小物
  6
CONTINUOUS
 62
    4
 10
138.13036248486662
 20
58.08162627166692
 11
135.20297100736667
 21
58.08162627166692
  0
LINE
  8
_1-8_小物
  6
CONTINUOUS
 62
    4
 10
136.66666674613322
 20
58.315135148900282
 11
135.33142970096657
 21
58.315135148900282
  0
LINE
  8
_1-8_小物
  6
CONTINUOUS
 62
    4
 10
138.00190379126673
 20
58.315135148900282
 11
136.66666674613322
 21
58.315135148900282
  0
ENDBLK
  0
BLOCK
  2
-024-_23_
 70
   64
 10
0
 20
0
 30
0
  0
LINE
  8
_1-8_小物
  6
CONTINUOUS
 62
    4
 10
63.406724999999938
 20
66.197241746133301
 11
62.74097166666661
 21
66.162351746133709
  0
LINE
  8
_1-8_小物
  6
CONTINUOUS
 62
    4
 10
64.405354999999872
 20
66.249578412800247
 11
64.037588333333247
 21
66.897885079466874
  0
LINE
  8
_1-8_小物
  6
CONTINUOUS
 62
    4
 10
64.037588333333247
 20
66.897885079466874
 11
63.371834999999919
 21
66.862995079466657
  0
LINE
  8
_1-8_小物
  6
CONTINUOUS
 62
    4
 10
63.371834999999919
 20
66.862995079466657
 11
63.406724999999938
 21
66.197241746133301
  0
LINE
  8
_1-8_小物
  6
CONTINUOUS
 62
    4
 10
65.071108333333314
 20
66.284468412800152
 11
64.405354999999872
 21
66.249578412800247
  0
LINE
  8
_1-8_小物
  6
CONTINUOUS
 62
    4
 10
66.069736666666643
 20
66.336805079466785
 11
65.701969999999733
 21
66.985111746133725
  0
LINE
  8
_1-8_小物
  6
CONTINUOUS
 62
    4
 10
65.701969999999733
 20
66.985111746133725
 11
65.036216666666633
 21
66.950221746133508
  0
LINE
  8
_1-8_小物
  6
CONTINUOUS
 62
    4
 10
65.036216666666633
 20
66.950221746133508
 11
65.071108333333314
 21
66.284468412800152
  0
LINE
  8
_1-8_小物
  6
CONTINUOUS
 62
    4
 10
66.735490000000027
 20
66.371695079466974
 11
66.069736666666643
 21
66.336805079466785
  0
LINE
  8
_1-8_小物
  6
CONTINUOUS
 62
    4
 10
67.734119999999734
 20
66.424031746133323
 11
67.366353333333336
 21
67.072338412799951
  0
LINE
  8
_1-8_小物
  6
CONTINUOUS
 62
    4
 10
67.366353333333336
 20
67.072338412799951
 11
66.700599999999952
 21
67.037448412800359
  0
LINE
  8
_1-8_小物
  6
CONTINUOUS
 62
    4
 10
66.700599999999952
 20
67.037448412800359
 11
66.735490000000027
 21
66.371695079466974
  0
LINE
  8
_1-8_小物
  6
CONTINUOUS
 62
    4
 10
68.399873333333289
 20
66.458921746133512
 11
67.734119999999734
 21
66.424031746133323
  0
LINE
  8
_1-8_小物
  6
CONTINUOUS
 62
    4
 10
69.398503333333338
 20
66.511258412800146
 11
69.030734999999936
 21
67.159565079466802
  0
LINE
  8
_1-8_小物
  6
CONTINUOUS
 62
    4
 10
69.030734999999936
 20
67.159565079466802
 11
68.364981666666608
 21
67.124675079466897
  0
LINE
  8
_1-8_小物
  6
CONTINUOUS
 62
    4
 10
68.364981666666608
 20
67.124675079466897
 11
68.399873333333289
 21
66.458921746133512
  0
LINE
  8
_1-8_小物
  6
CONTINUOUS
 62
    4
 10
70.064254999999889
 20
66.546148412800051
 11
69.398503333333338
 21
66.511258412800146
  0
LINE
  8
_1-8_小物
  6
CONTINUOUS
 62
    4
 10
70.695118333333198
 20
67.246791746133624
 11
70.029364999999871
 21
67.211901746133435
  0
LINE
  8
_1-8_小物
  6
CONTINUOUS
 62
    4
 10
70.029364999999871
 20
67.211901746133435
 11
70.064254999999889
 21
66.546148412800051
  0
LINE
  8
_1-8_小物
  6
CONTINUOUS
 62
    4
 10
71
 20
66.666666746133529
 11
70.695118333333198
 21
67.246791746133624
  0
LINE
  8
_1-8_小物
  6
CONTINUOUS
 62
    4
 10
63.406724999999938
 20
69.802758412800131
 11
62.74097166666661
 21
69.837648412800036
  0
LINE
  8
_1-8_小物
  6
CONTINUOUS
 62
    4
 10
64.405354999999872
 20
69.750421746133497
 11
64.037588333333247
 21
69.102115079466842
  0
LINE
  8
_1-8_小物
  6
CONTINUOUS
 62
    4
 10
64.037588333333247
 20
69.102115079466842
 11
63.371834999999919
 21
69.137005079467059
  0
LINE
  8
_1-8_小物
  6
CONTINUOUS
 62
    4
 10
63.371834999999919
 20
69.137005079467059
 11
63.406724999999938
 21
69.802758412800131
  0
LINE
  8
_1-8_小物
  6
CONTINUOUS
 62
    4
 10
65.071108333333314
 20
69.71553174613328
 11
64.405354999999872
 21
69.750421746133497
  0
LINE
  8
_1-8_小物
  6
CONTINUOUS
 62
    4
 10
66.069736666666643
 20
69.663195079466959
 11
65.701969999999733
 21
69.014888412800303
  0
LINE
  8
_1-8_小物
  6
CONTINUOUS
 62
    4
 10
65.701969999999733
 20
69.014888412800303
 11
65.036216666666633
 21
69.049778412799924
  0
LINE
  8
_1-8_小物
  6
CONTINUOUS
 62
    4
 10
65.036216666666633
 20
69.049778412799924
 11
65.071108333333314
 21
69.71553174613328
  0
LINE
  8
_1-8_小物
  6
CONTINUOUS
 62
    4
 10
66.735490000000027
 20
69.628305079467054
 11
66.069736666666643
 21
69.663195079466959
  0
LINE
  8
_1-8_小物
  6
CONTINUOUS
 62
    4
 10
67.734119999999734
 20
69.575968412800421
 11
67.366353333333336
 21
68.927661746133481
  0
LINE
  8
_1-8_小物
  6
CONTINUOUS
 62
    4
 10
67.366353333333336
 20
68.927661746133481
 11
66.700599999999952
 21
68.962551746133386
  0
LINE
  8
_1-8_小物
  6
CONTINUOUS
 62
    4
 10
66.700599999999952
 20
68.962551746133386
 11
66.735490000000027
 21
69.628305079467054
  0
LINE
  8
_1-8_小物
  6
CONTINUOUS
 62
    4
 10
68.399873333333289
 20
69.541078412800204
 11
67.734119999999734
 21
69.575968412800421
  0
LINE
  8
_1-8_小物
  6
CONTINUOUS
 62
    4
 10
69.398503333333338
 20
69.488741746133257
 11
69.030734999999936
 21
68.84043507946663
  0
LINE
  8
_1-8_小物
  6
CONTINUOUS
 62
    4
 10
69.030734999999936
 20
68.84043507946663
 11
68.364981666666608
 21
68.875325079466847
  0
LINE
  8
_1-8_小物
  6
CONTINUOUS
 62
    4
 10
68.364981666666608
 20
68.875325079466847
 11
68.399873333333289
 21
69.541078412800204
  0
LINE
  8
_1-8_小物
  6
CONTINUOUS
 62
    4
 10
70.064254999999889
 20
69.453851746133665
 11
69.398503333333338
 21
69.488741746133257
  0
LINE
  8
_1-8_小物
  6
CONTINUOUS
 62
    4
 10
70.695118333333198
 20
68.753208412800092
 11
70.029364999999871
 21
68.788098412800309
  0
LINE
  8
_1-8_小物
  6
CONTINUOUS
 62
    4
 10
70.029364999999871
 20
68.788098412800309
 11
70.064254999999889
 21
69.453851746133665
  0
LINE
  8
_1-8_小物
  6
CONTINUOUS
 62
    4
 10
63.019768333333218
 20
68.019768412800119
 11
63.591658333333271
 21
67.375201746133598
  0
LINE
  8
_1-8_小物
  6
CONTINUOUS
 62
    4
 10
63.623146666666628
 20
68.623148412800276
 11
62.999999999999829
 21
68.00000007946656
  0
LINE
  8
_1-8_小物
  6
CONTINUOUS
 62
    4
 10
71
 20
69.333333412799902
 11
70.695118333333198
 21
68.753208412800092
  0
LINE
  8
_1-8_小物
  6
CONTINUOUS
 62
    4
 10
68.399873333333289
 20
66.458921746133512
 11
69.952533333333122
 21
65.893800079466985
  0
LINE
  8
_1-8_小物
  6
CONTINUOUS
 62
    4
 10
68.399873333333289
 20
66.813648412799978
 11
70.066539999999918
 21
66.207030079466733
  0
LINE
  8
_1-8_小物
  6
CONTINUOUS
 62
    4
 10
68.399873333333289
 20
69.541078412800204
 11
69.952533333333122
 21
70.106200079466731
  0
LINE
  8
_1-8_小物
  6
CONTINUOUS
 62
    4
 10
68.399873333333289
 20
69.186351746133738
 11
70.066539999999918
 21
69.792970079466983
  0
LINE
  8
_1-8_小物
  6
CONTINUOUS
 62
    4
 10
62.679913333333161
 20
67.327418412800171
 11
62.74097166666661
 21
66.162351746133709
  0
LINE
  8
_1-8_小物
  6
CONTINUOUS
 62
    4
 10
62.74097166666661
 20
66.162351746133709
 11
62.040328333333321
 21
66.793213412800242
  0
LINE
  8
_1-8_小物
  6
CONTINUOUS
 62
    4
 10
62.040328333333321
 20
66.793213412800242
 11
62.014159999999833
 21
67.292528412799953
  0
LINE
  8
_1-8_小物
  6
CONTINUOUS
 62
    4
 10
62.014159999999833
 20
67.292528412799953
 11
72.333333333333144
 21
67.833333412799902
  0
LINE
  8
_1-8_小物
  6
CONTINUOUS
 62
    4
 10
71
 20
66.666666746133529
 11
72.333333333333144
 21
66.666666746133529
  0
LINE
  8
_1-8_小物
  6
CONTINUOUS
 62
    4
 10
62.679913333333161
 20
68.672581746133574
 11
62.74097166666661
 21
69.837648412800036
  0
LINE
  8
_1-8_小物
  6
CONTINUOUS
 62
    4
 10
62.74097166666661
 20
69.837648412800036
 11
62.040328333333321
 21
69.206786746133503
  0
LINE
  8
_1-8_小物
  6
CONTINUOUS
 62
    4
 10
62.040328333333321
 20
69.206786746133503
 11
62.014159999999833
 21
68.707471746133479
  0
LINE
  8
_1-8_小物
  6
CONTINUOUS
 62
    4
 10
62.014159999999833
 20
68.707471746133479
 11
72.333333333333144
 21
68.166666746133529
  0
LINE
  8
_1-8_小物
  6
CONTINUOUS
 62
    4
 10
71
 20
69.333333412799902
 11
72.333333333333144
 21
69.333333412799902
  0
LINE
  8
_1-8_小物
  6
CONTINUOUS
 62
    4
 10
69.952533333333122
 20
70.106200079466731
 11
72.220406666666804
 21
70.436985079466837
  0
ARC
  8
_1-8_小物
  6
CONTINUOUS
 62
    4
 10
72.239651666666589
 20
70.305048412800176
 40
0.1333333333333333
 50
8.13010199995208
 51
98.298466000011047
  0
LINE
  8
_1-8_小物
  6
CONTINUOUS
 62
    4
 10
72.371644999999944
 20
70.323905079467067
 11
72.38101666666671
 21
70.258296746133425
  0
ARC
  8
_1-8_小物
  6
CONTINUOUS
 62
    4
 10
72.249023333333298
 20
70.239440079466533
 40
0.1333333333333333
 50
278.130102000016
 51
8.130102000228419
  0
LINE
  8
_1-8_小物
  6
CONTINUOUS
 62
    4
 10
72.267879999999877
 20
70.107446746133434
 11
70.066539999999918
 21
69.792970079466983
  0
LINE
  8
_1-8_小物
  6
CONTINUOUS
 62
    4
 10
69.952533333333122
 20
65.893800079466985
 11
72.220406666666804
 21
65.563015079466879
  0
ARC
  8
_1-8_小物
  6
CONTINUOUS
 62
    4
 10
72.239651666666589
 20
65.69495174613354
 40
0.1333333333333333
 50
261.70153399996303
 51
351.86989800004795
  0
LINE
  8
_1-8_小物
  6
CONTINUOUS
 62
    4
 10
72.371644999999944
 20
65.676096746133595
 11
72.38101666666671
 21
65.741703412800291
  0
ARC
  8
_1-8_小物
  6
CONTINUOUS
 62
    4
 10
72.249023333333298
 20
65.760560079466586
 40
0.1333333333333333
 50
351.86989800003238
 51
81.869897999984005
  0
LINE
  8
_1-8_小物
  6
CONTINUOUS
 62
    4
 10
72.267879999999877
 20
65.892553412800282
 11
70.066539999999918
 21
66.207030079466733
  0
LINE
  8
_1-8_小物
  6
CONTINUOUS
 62
    4
 10
69.952533333333122
 20
65.893800079466985
 11
72.220406666666804
 21
65.563015079466879
  0
ARC
  8
_1-8_小物
  6
CONTINUOUS
 62
    4
 10
72.239651666666589
 20
65.69495174613354
 40
0.1333333333333333
 50
261.70153399996303
 51
351.86989800004795
  0
LINE
  8
_1-8_小物
  6
CONTINUOUS
 62
    4
 10
72.371644999999944
 20
65.676096746133595
 11
72.38101666666671
 21
65.741703412800291
  0
ARC
  8
_1-8_小物
  6
CONTINUOUS
 62
    4
 10
72.249023333333298
 20
65.760560079466586
 40
0.1333333333333333
 50
351.86989800003238
 51
81.869897999984005
  0
LINE
  8
_1-8_小物
  6
CONTINUOUS
 62
    4
 10
72.267879999999877
 20
65.892553412800282
 11
70.066539999999918
 21
66.207030079466733
  0
LINE
  8
_1-8_小物
  6
CONTINUOUS
 62
    4
 10
75
 20
66.333333412799902
 11
73.333333333333314
 21
66.666666746133529
  0
LINE
  8
_1-8_小物
  6
CONTINUOUS
 62
    4
 10
75
 20
66.666666746133529
 11
72.333333333333144
 21
66.666666746133529
  0
LINE
  8
_1-8_小物
  6
CONTINUOUS
 62
    4
 10
72.333333333333144
 20
67.833333412799902
 11
72.333333333333144
 21
68.00000007946656
  0
LINE
  8
_1-8_小物
  6
CONTINUOUS
 62
    4
 10
73.333333333333314
 20
68.00000007946656
 11
75
 21
68.00000007946656
  0
LINE
  8
_1-8_小物
  6
CONTINUOUS
 62
    4
 10
75
 20
67.666666746133529
 11
73.333333333333314
 21
68.00000007946656
  0
LINE
  8
_1-8_小物
  6
CONTINUOUS
 62
    4
 10
75
 20
68.333333412800187
 11
73.333333333333314
 21
68.00000007946656
  0
LINE
  8
_1-8_小物
  6
CONTINUOUS
 62
    4
 10
75
 20
69.666666746133217
 11
73.333333333333314
 21
69.333333412799902
  0
LINE
  8
_1-8_小物
  6
CONTINUOUS
 62
    4
 10
75
 20
69.333333412799902
 11
72.333333333333144
 21
69.333333412799902
  0
LINE
  8
_1-8_小物
  6
CONTINUOUS
 62
    4
 10
72.333333333333144
 20
68.166666746133529
 11
72.333333333333144
 21
68.00000007946656
  0
LINE
  8
_1-8_小物
  6
CONTINUOUS
 62
    4
 10
75
 20
66.333333412799902
 11
75
 21
69.666666746133217
  0
ENDBLK
  0
BLOCK
  2
-025-_24_
 70
   64
 10
0
 20
0
 30
0
  0
LINE
  8
_1-8_小物
  6
CONTINUOUS
 62
    4
 10
90.666666666666629
 20
64.666666666666657
 11
92.666666666666629
 21
64.666666666666657
  0
LINE
  8
_1-8_小物
  6
CONTINUOUS
 62
    4
 10
92.666666666666515
 20
64.666666666666657
 11
92.666666666666515
 21
64.599999999999966
  0
LINE
  8
_1-8_小物
  6
CONTINUOUS
 62
    4
 10
90.666666666666742
 20
64.599999999999966
 11
91.166666666666742
 21
64.099999999999966
  0
LINE
  8
_1-8_小物
  6
CONTINUOUS
 62
    4
 10
91.166666666666742
 20
64.099999999999966
 11
92.166666666666515
 21
64.099999999999966
  0
LINE
  8
_1-8_小物
  6
CONTINUOUS
 62
    4
 10
92.666666666666515
 20
64.599999999999966
 11
92.166666666666515
 21
64.099999999999966
  0
LINE
  8
_1-8_小物
  6
CONTINUOUS
 62
    4
 10
90.666666666666742
 20
64.599999999999966
 11
90.666666666666742
 21
64.666666666666657
  0
LINE
  8
_1-8_小物
  6
CONTINUOUS
 62
    4
 10
92.666666666666515
 20
64.599999999999966
 11
90.666666666666742
 21
64.599999999999966
  0
LINE
  8
_1-8_小物
  6
CONTINUOUS
 62
    4
 10
92.166666666666515
 20
61.035753321824302
 11
92.354166666666629
 21
60.927500000000038
  0
LINE
  8
_1-8_小物
  6
CONTINUOUS
 62
    4
 10
92.354166666666629
 20
60.927500000000038
 11
92.166666666666572
 21
60.819246678175773
  0
LINE
  8
_1-8_小物
  6
CONTINUOUS
 62
    4
 10
92.166666666666515
 20
61.035753321824302
 11
91.166666666666629
 21
60.800753321824345
  0
LINE
  8
_1-8_小物
  6
CONTINUOUS
 62
    4
 10
90.979166666666629
 20
60.692500000000052
 11
91.166666666666629
 21
60.800753321824345
  0
LINE
  8
_1-8_小物
  6
CONTINUOUS
 62
    4
 10
91.166666666666629
 20
60.584246678175788
 11
90.979166666666629
 21
60.692500000000052
  0
LINE
  8
_1-8_小物
  6
CONTINUOUS
 62
    4
 10
92.166666666666572
 20
60.819246678175773
 11
91.166666666666629
 21
60.584246678175788
  0
LINE
  8
_1-8_小物
  6
CONTINUOUS
 62
    4
 10
92.354166666666629
 20
60.927500000000038
 11
90.979166666666629
 21
60.692500000000052
  0
LINE
  8
_1-8_小物
  6
CONTINUOUS
 62
    4
 10
92.166666666666515
 20
61.505753321824301
 11
92.354166666666629
 21
61.397500000000036
  0
LINE
  8
_1-8_小物
  6
CONTINUOUS
 62
    4
 10
92.354166666666629
 20
61.397500000000036
 11
92.166666666666572
 21
61.289246678175743
  0
LINE
  8
_1-8_小物
  6
CONTINUOUS
 62
    4
 10
92.166666666666515
 20
61.505753321824301
 11
91.166666666666629
 21
61.270753321824316
  0
LINE
  8
_1-8_小物
  6
CONTINUOUS
 62
    4
 10
90.979166666666629
 20
61.162500000000051
 11
91.166666666666629
 21
61.270753321824316
  0
LINE
  8
_1-8_小物
  6
CONTINUOUS
 62
    4
 10
91.166666666666629
 20
61.054246678175787
 11
90.979166666666629
 21
61.162500000000051
  0
LINE
  8
_1-8_小物
  6
CONTINUOUS
 62
    4
 10
92.166666666666572
 20
61.289246678175743
 11
91.166666666666629
 21
61.054246678175787
  0
LINE
  8
_1-8_小物
  6
CONTINUOUS
 62
    4
 10
92.354166666666629
 20
61.397500000000036
 11
90.979166666666629
 21
61.162500000000051
  0
LINE
  8
_1-8_小物
  6
CONTINUOUS
 62
    4
 10
92.166666666666515
 20
61.9757533218243
 11
92.354166666666629
 21
61.867500000000007
  0
LINE
  8
_1-8_小物
  6
CONTINUOUS
 62
    4
 10
92.354166666666629
 20
61.867500000000007
 11
92.166666666666572
 21
61.759246678175742
  0
LINE
  8
_1-8_小物
  6
CONTINUOUS
 62
    4
 10
92.166666666666515
 20
61.9757533218243
 11
91.166666666666629
 21
61.740753321824315
  0
LINE
  8
_1-8_小物
  6
CONTINUOUS
 62
    4
 10
90.979166666666629
 20
61.63250000000005
 11
91.166666666666629
 21
61.740753321824315
  0
LINE
  8
_1-8_小物
  6
CONTINUOUS
 62
    4
 10
91.166666666666629
 20
61.524246678175757
 11
90.979166666666629
 21
61.63250000000005
  0
LINE
  8
_1-8_小物
  6
CONTINUOUS
 62
    4
 10
92.166666666666572
 20
61.759246678175742
 11
91.166666666666629
 21
61.524246678175757
  0
LINE
  8
_1-8_小物
  6
CONTINUOUS
 62
    4
 10
92.354166666666629
 20
61.867500000000007
 11
90.979166666666629
 21
61.63250000000005
  0
LINE
  8
_1-8_小物
  6
CONTINUOUS
 62
    4
 10
92.166666666666515
 20
62.44575332182427
 11
92.354166666666629
 21
62.337500000000006
  0
LINE
  8
_1-8_小物
  6
CONTINUOUS
 62
    4
 10
92.354166666666629
 20
62.337500000000006
 11
92.166666666666572
 21
62.229246678175741
  0
LINE
  8
_1-8_小物
  6
CONTINUOUS
 62
    4
 10
92.166666666666515
 20
62.44575332182427
 11
91.166666666666629
 21
62.210753321824313
  0
LINE
  8
_1-8_小物
  6
CONTINUOUS
 62
    4
 10
90.979166666666629
 20
62.10250000000002
 11
91.166666666666629
 21
62.210753321824313
  0
LINE
  8
_1-8_小物
  6
CONTINUOUS
 62
    4
 10
91.166666666666629
 20
61.994246678175756
 11
90.979166666666629
 21
62.10250000000002
  0
LINE
  8
_1-8_小物
  6
CONTINUOUS
 62
    4
 10
92.166666666666572
 20
62.229246678175741
 11
91.166666666666629
 21
61.994246678175756
  0
LINE
  8
_1-8_小物
  6
CONTINUOUS
 62
    4
 10
92.354166666666629
 20
62.337500000000006
 11
90.979166666666629
 21
62.10250000000002
  0
LINE
  8
_1-8_小物
  6
CONTINUOUS
 62
    4
 10
92.166666666666515
 20
62.915753321824269
 11
92.354166666666629
 21
62.807500000000005
  0
LINE
  8
_1-8_小物
  6
CONTINUOUS
 62
    4
 10
92.354166666666629
 20
62.807500000000005
 11
92.166666666666572
 21
62.699246678175712
  0
LINE
  8
_1-8_小物
  6
CONTINUOUS
 62
    4
 10
92.166666666666515
 20
62.915753321824269
 11
91.166666666666629
 21
62.680753321824284
  0
LINE
  8
_1-8_小物
  6
CONTINUOUS
 62
    4
 10
90.979166666666629
 20
62.572500000000019
 11
91.166666666666629
 21
62.680753321824284
  0
LINE
  8
_1-8_小物
  6
CONTINUOUS
 62
    4
 10
91.166666666666629
 20
62.464246678175755
 11
90.979166666666629
 21
62.572500000000019
  0
LINE
  8
_1-8_小物
  6
CONTINUOUS
 62
    4
 10
92.166666666666572
 20
62.699246678175712
 11
91.166666666666629
 21
62.464246678175755
  0
LINE
  8
_1-8_小物
  6
CONTINUOUS
 62
    4
 10
92.354166666666629
 20
62.807500000000005
 11
90.979166666666629
 21
62.572500000000019
  0
LINE
  8
_1-8_小物
  6
CONTINUOUS
 62
    4
 10
92.166666666666515
 20
63.385753321824268
 11
92.354166666666629
 21
63.277499999999975
  0
LINE
  8
_1-8_小物
  6
CONTINUOUS
 62
    4
 10
92.354166666666629
 20
63.277499999999975
 11
92.166666666666572
 21
63.16924667817571
  0
LINE
  8
_1-8_小物
  6
CONTINUOUS
 62
    4
 10
92.166666666666515
 20
63.385753321824268
 11
91.166666666666629
 21
63.150753321824283
  0
LINE
  8
_1-8_小物
  6
CONTINUOUS
 62
    4
 10
90.979166666666629
 20
63.042500000000018
 11
91.166666666666629
 21
63.150753321824283
  0
LINE
  8
_1-8_小物
  6
CONTINUOUS
 62
    4
 10
91.166666666666629
 20
62.934246678175725
 11
90.979166666666629
 21
63.042500000000018
  0
LINE
  8
_1-8_小物
  6
CONTINUOUS
 62
    4
 10
92.166666666666572
 20
63.16924667817571
 11
91.166666666666629
 21
62.934246678175725
  0
LINE
  8
_1-8_小物
  6
CONTINUOUS
 62
    4
 10
92.354166666666629
 20
63.277499999999975
 11
90.979166666666629
 21
63.042500000000018
  0
LINE
  8
_1-8_小物
  6
CONTINUOUS
 62
    4
 10
92.166666666666515
 20
63.855753321824238
 11
92.354166666666629
 21
63.747499999999974
  0
LINE
  8
_1-8_小物
  6
CONTINUOUS
 62
    4
 10
92.354166666666629
 20
63.747499999999974
 11
92.166666666666572
 21
63.639246678175709
  0
LINE
  8
_1-8_小物
  6
CONTINUOUS
 62
    4
 10
92.166666666666515
 20
63.855753321824238
 11
91.166666666666629
 21
63.620753321824282
  0
LINE
  8
_1-8_小物
  6
CONTINUOUS
 62
    4
 10
90.979166666666629
 20
63.512499999999989
 11
91.166666666666629
 21
63.620753321824282
  0
LINE
  8
_1-8_小物
  6
CONTINUOUS
 62
    4
 10
91.166666666666629
 20
63.404246678175724
 11
90.979166666666629
 21
63.512499999999989
  0
LINE
  8
_1-8_小物
  6
CONTINUOUS
 62
    4
 10
92.166666666666572
 20
63.639246678175709
 11
91.166666666666629
 21
63.404246678175724
  0
LINE
  8
_1-8_小物
  6
CONTINUOUS
 62
    4
 10
92.354166666666629
 20
63.747499999999974
 11
90.979166666666629
 21
63.512499999999989
  0
LINE
  8
_1-8_小物
  6
CONTINUOUS
 62
    4
 10
91.166666666666742
 20
60.584246678175788
 11
91.166666666666742
 21
60.330753321824346
  0
LINE
  8
_1-8_小物
  6
CONTINUOUS
 62
    4
 10
91.166666666666742
 20
61.054246678175787
 11
91.166666666666742
 21
60.800753321824345
  0
LINE
  8
_1-8_小物
  6
CONTINUOUS
 62
    4
 10
91.166666666666742
 20
61.524246678175757
 11
91.166666666666742
 21
61.270753321824373
  0
LINE
  8
_1-8_小物
  6
CONTINUOUS
 62
    4
 10
91.166666666666742
 20
61.994246678175756
 11
91.166666666666742
 21
61.740753321824315
  0
LINE
  8
_1-8_小物
  6
CONTINUOUS
 62
    4
 10
91.166666666666742
 20
62.464246678175755
 11
91.166666666666742
 21
62.210753321824313
  0
LINE
  8
_1-8_小物
  6
CONTINUOUS
 62
    4
 10
91.166666666666742
 20
62.934246678175725
 11
91.166666666666742
 21
62.680753321824284
  0
LINE
  8
_1-8_小物
  6
CONTINUOUS
 62
    4
 10
91.166666666666742
 20
64.099999999999966
 11
91.166666666666742
 21
63.620753321824282
  0
LINE
  8
_1-8_小物
  6
CONTINUOUS
 62
    4
 10
91.166666666666742
 20
63.404246678175724
 11
91.166666666666742
 21
63.150753321824311
  0
LINE
  8
_1-8_小物
  6
CONTINUOUS
 62
    4
 10
92.166666666666515
 20
64.099999999999966
 11
92.166666666666515
 21
63.855753321824238
  0
LINE
  8
_1-8_小物
  6
CONTINUOUS
 62
    4
 10
92.166666666666515
 20
63.639246678175653
 11
92.166666666666515
 21
63.385753321824268
  0
LINE
  8
_1-8_小物
  6
CONTINUOUS
 62
    4
 10
92.166666666666515
 20
63.16924667817571
 11
92.166666666666515
 21
62.915753321824269
  0
LINE
  8
_1-8_小物
  6
CONTINUOUS
 62
    4
 10
92.166666666666515
 20
62.699246678175683
 11
92.166666666666515
 21
62.44575332182427
  0
LINE
  8
_1-8_小物
  6
CONTINUOUS
 62
    4
 10
92.166666666666515
 20
62.229246678175741
 11
92.166666666666515
 21
61.9757533218243
  0
LINE
  8
_1-8_小物
  6
CONTINUOUS
 62
    4
 10
92.166666666666515
 20
61.759246678175742
 11
92.166666666666515
 21
61.505753321824301
  0
LINE
  8
_1-8_小物
  6
CONTINUOUS
 62
    4
 10
92.166666666666515
 20
61.289246678175715
 11
92.166666666666515
 21
61.035753321824302
  0
LINE
  8
_1-8_小物
  6
CONTINUOUS
 62
    4
 10
92.233333333333178
 20
60.326666666666654
 11
92.233333333333178
 21
59.329999999999984
  0
LINE
  8
_1-8_小物
  6
CONTINUOUS
 62
    4
 10
91.100000000000023
 20
60.326666666666654
 11
92.233333333333178
 21
60.326666666666654
  0
LINE
  8
_1-8_小物
  6
CONTINUOUS
 62
    4
 10
91.100000000000023
 20
60.326666666666654
 11
91.100000000000023
 21
59.329999999999984
  0
LINE
  8
_1-8_小物
  6
CONTINUOUS
 62
    4
 10
91.100000000000023
 20
59.329999999999984
 11
91.666666666666629
 21
59.002834847459269
  0
LINE
  8
_1-8_小物
  6
CONTINUOUS
 62
    4
 10
92.233333333333178
 20
59.329999999999984
 11
91.666666666666629
 21
59.002834847459269
  0
LINE
  8
_1-8_小物
  6
CONTINUOUS
 62
    4
 10
91.666666666666629
 20
59.118304901297194
 11
92.133333333333269
 21
59.387735026918961
  0
LINE
  8
_1-8_小物
  6
CONTINUOUS
 62
    4
 10
92.133333333333269
 20
60.326666666666654
 11
92.133333333333269
 21
59.387735026918961
  0
LINE
  8
_1-8_小物
  6
CONTINUOUS
 62
    4
 10
91.666666666666629
 20
59.118304901297194
 11
91.87973344835774
 21
60.326666666666654
  0
LINE
  8
_1-8_小物
  6
CONTINUOUS
 62
    4
 10
92.166666666666515
 20
60.819246678175716
 11
92.166666666666515
 21
60.326666666666654
  0
LINE
  8
_1-8_小物
  6
CONTINUOUS
 62
    4
 10
91.666666666666629
 20
59.002834847459269
 11
91.666666666666629
 21
59.118304901297194
  0
LINE
  8
_1-8_小物
  6
CENTER2
 62
    4
 10
91.666666666666629
 20
65
 11
91.666666666666629
 21
58.669501514125955
  0
ENDBLK
  0
BLOCK
  2
-026-_25_
 70
   64
 10
0
 20
0
 30
0
  0
LINE
  8
_1-8_小物
  6
CONTINUOUS
 62
    4
 10
127.33333333333314
 20
64.666666666666657
 11
129.33333333333314
 21
64.666666666666657
  0
LINE
  8
_1-8_小物
  6
CONTINUOUS
 62
    4
 10
129.33333333333303
 20
64.666666666666657
 11
129.33333333333303
 21
64.599999999999966
  0
LINE
  8
_1-8_小物
  6
CONTINUOUS
 62
    4
 10
127.33333333333326
 20
64.599999999999966
 11
127.83333333333326
 21
64.099999999999966
  0
LINE
  8
_1-8_小物
  6
CONTINUOUS
 62
    4
 10
127.83333333333326
 20
64.099999999999966
 11
128.83333333333303
 21
64.099999999999966
  0
LINE
  8
_1-8_小物
  6
CONTINUOUS
 62
    4
 10
129.33333333333303
 20
64.599999999999966
 11
128.83333333333303
 21
64.099999999999966
  0
LINE
  8
_1-8_小物
  6
CONTINUOUS
 62
    4
 10
127.33333333333326
 20
64.599999999999966
 11
127.33333333333326
 21
64.666666666666657
  0
LINE
  8
_1-8_小物
  6
CONTINUOUS
 62
    4
 10
129.33333333333303
 20
64.599999999999966
 11
127.33333333333326
 21
64.599999999999966
  0
LINE
  8
_1-8_小物
  6
CONTINUOUS
 62
    4
 10
128.83333333333303
 20
61.035753321824302
 11
129.02083333333314
 21
60.927500000000038
  0
LINE
  8
_1-8_小物
  6
CONTINUOUS
 62
    4
 10
129.02083333333314
 20
60.927500000000038
 11
128.83333333333309
 21
60.819246678175773
  0
LINE
  8
_1-8_小物
  6
CONTINUOUS
 62
    4
 10
128.83333333333303
 20
61.035753321824302
 11
127.83333333333314
 21
60.800753321824345
  0
LINE
  8
_1-8_小物
  6
CONTINUOUS
 62
    4
 10
127.64583333333314
 20
60.692500000000052
 11
127.83333333333314
 21
60.800753321824345
  0
LINE
  8
_1-8_小物
  6
CONTINUOUS
 62
    4
 10
127.83333333333314
 20
60.584246678175788
 11
127.64583333333314
 21
60.692500000000052
  0
LINE
  8
_1-8_小物
  6
CONTINUOUS
 62
    4
 10
128.83333333333309
 20
60.819246678175773
 11
127.83333333333314
 21
60.584246678175788
  0
LINE
  8
_1-8_小物
  6
CONTINUOUS
 62
    4
 10
129.02083333333314
 20
60.927500000000038
 11
127.64583333333314
 21
60.692500000000052
  0
LINE
  8
_1-8_小物
  6
CONTINUOUS
 62
    4
 10
128.83333333333303
 20
61.505753321824301
 11
129.02083333333314
 21
61.397500000000036
  0
LINE
  8
_1-8_小物
  6
CONTINUOUS
 62
    4
 10
129.02083333333314
 20
61.397500000000036
 11
128.83333333333309
 21
61.289246678175743
  0
LINE
  8
_1-8_小物
  6
CONTINUOUS
 62
    4
 10
128.83333333333303
 20
61.505753321824301
 11
127.83333333333314
 21
61.270753321824316
  0
LINE
  8
_1-8_小物
  6
CONTINUOUS
 62
    4
 10
127.64583333333314
 20
61.162500000000051
 11
127.83333333333314
 21
61.270753321824316
  0
LINE
  8
_1-8_小物
  6
CONTINUOUS
 62
    4
 10
127.83333333333314
 20
61.054246678175787
 11
127.64583333333314
 21
61.162500000000051
  0
LINE
  8
_1-8_小物
  6
CONTINUOUS
 62
    4
 10
128.83333333333309
 20
61.289246678175743
 11
127.83333333333314
 21
61.054246678175787
  0
LINE
  8
_1-8_小物
  6
CONTINUOUS
 62
    4
 10
129.02083333333314
 20
61.397500000000036
 11
127.64583333333314
 21
61.162500000000051
  0
LINE
  8
_1-8_小物
  6
CONTINUOUS
 62
    4
 10
128.83333333333303
 20
61.9757533218243
 11
129.02083333333314
 21
61.867500000000007
  0
LINE
  8
_1-8_小物
  6
CONTINUOUS
 62
    4
 10
129.02083333333314
 20
61.867500000000007
 11
128.83333333333309
 21
61.759246678175742
  0
LINE
  8
_1-8_小物
  6
CONTINUOUS
 62
    4
 10
128.83333333333303
 20
61.9757533218243
 11
127.83333333333314
 21
61.740753321824315
  0
LINE
  8
_1-8_小物
  6
CONTINUOUS
 62
    4
 10
127.64583333333314
 20
61.63250000000005
 11
127.83333333333314
 21
61.740753321824315
  0
LINE
  8
_1-8_小物
  6
CONTINUOUS
 62
    4
 10
127.83333333333314
 20
61.524246678175757
 11
127.64583333333314
 21
61.63250000000005
  0
LINE
  8
_1-8_小物
  6
CONTINUOUS
 62
    4
 10
128.83333333333309
 20
61.759246678175742
 11
127.83333333333314
 21
61.524246678175757
  0
LINE
  8
_1-8_小物
  6
CONTINUOUS
 62
    4
 10
129.02083333333314
 20
61.867500000000007
 11
127.64583333333314
 21
61.63250000000005
  0
LINE
  8
_1-8_小物
  6
CONTINUOUS
 62
    4
 10
128.83333333333303
 20
62.44575332182427
 11
129.02083333333314
 21
62.337500000000006
  0
LINE
  8
_1-8_小物
  6
CONTINUOUS
 62
    4
 10
129.02083333333314
 20
62.337500000000006
 11
128.83333333333309
 21
62.229246678175741
  0
LINE
  8
_1-8_小物
  6
CONTINUOUS
 62
    4
 10
128.83333333333303
 20
62.44575332182427
 11
127.83333333333314
 21
62.210753321824313
  0
LINE
  8
_1-8_小物
  6
CONTINUOUS
 62
    4
 10
127.64583333333314
 20
62.10250000000002
 11
127.83333333333314
 21
62.210753321824313
  0
LINE
  8
_1-8_小物
  6
CONTINUOUS
 62
    4
 10
127.83333333333314
 20
61.994246678175756
 11
127.64583333333314
 21
62.10250000000002
  0
LINE
  8
_1-8_小物
  6
CONTINUOUS
 62
    4
 10
128.83333333333309
 20
62.229246678175741
 11
127.83333333333314
 21
61.994246678175756
  0
LINE
  8
_1-8_小物
  6
CONTINUOUS
 62
    4
 10
129.02083333333314
 20
62.337500000000006
 11
127.64583333333314
 21
62.10250000000002
  0
LINE
  8
_1-8_小物
  6
CONTINUOUS
 62
    4
 10
128.83333333333303
 20
62.915753321824269
 11
129.02083333333314
 21
62.807500000000005
  0
LINE
  8
_1-8_小物
  6
CONTINUOUS
 62
    4
 10
129.02083333333314
 20
62.807500000000005
 11
128.83333333333309
 21
62.699246678175712
  0
LINE
  8
_1-8_小物
  6
CONTINUOUS
 62
    4
 10
128.83333333333303
 20
62.915753321824269
 11
127.83333333333314
 21
62.680753321824284
  0
LINE
  8
_1-8_小物
  6
CONTINUOUS
 62
    4
 10
127.64583333333314
 20
62.572500000000019
 11
127.83333333333314
 21
62.680753321824284
  0
LINE
  8
_1-8_小物
  6
CONTINUOUS
 62
    4
 10
127.83333333333314
 20
62.464246678175755
 11
127.64583333333314
 21
62.572500000000019
  0
LINE
  8
_1-8_小物
  6
CONTINUOUS
 62
    4
 10
128.83333333333309
 20
62.699246678175712
 11
127.83333333333314
 21
62.464246678175755
  0
LINE
  8
_1-8_小物
  6
CONTINUOUS
 62
    4
 10
129.02083333333314
 20
62.807500000000005
 11
127.64583333333314
 21
62.572500000000019
  0
LINE
  8
_1-8_小物
  6
CONTINUOUS
 62
    4
 10
128.83333333333303
 20
63.385753321824268
 11
129.02083333333314
 21
63.277499999999975
  0
LINE
  8
_1-8_小物
  6
CONTINUOUS
 62
    4
 10
129.02083333333314
 20
63.277499999999975
 11
128.83333333333309
 21
63.16924667817571
  0
LINE
  8
_1-8_小物
  6
CONTINUOUS
 62
    4
 10
128.83333333333303
 20
63.385753321824268
 11
127.83333333333314
 21
63.150753321824283
  0
LINE
  8
_1-8_小物
  6
CONTINUOUS
 62
    4
 10
127.64583333333314
 20
63.042500000000018
 11
127.83333333333314
 21
63.150753321824283
  0
LINE
  8
_1-8_小物
  6
CONTINUOUS
 62
    4
 10
127.83333333333314
 20
62.934246678175725
 11
127.64583333333314
 21
63.042500000000018
  0
LINE
  8
_1-8_小物
  6
CONTINUOUS
 62
    4
 10
128.83333333333309
 20
63.16924667817571
 11
127.83333333333314
 21
62.934246678175725
  0
LINE
  8
_1-8_小物
  6
CONTINUOUS
 62
    4
 10
129.02083333333314
 20
63.277499999999975
 11
127.64583333333314
 21
63.042500000000018
  0
LINE
  8
_1-8_小物
  6
CONTINUOUS
 62
    4
 10
128.83333333333303
 20
63.855753321824238
 11
129.02083333333314
 21
63.747499999999974
  0
LINE
  8
_1-8_小物
  6
CONTINUOUS
 62
    4
 10
129.02083333333314
 20
63.747499999999974
 11
128.83333333333309
 21
63.639246678175709
  0
LINE
  8
_1-8_小物
  6
CONTINUOUS
 62
    4
 10
128.83333333333303
 20
63.855753321824238
 11
127.83333333333314
 21
63.620753321824282
  0
LINE
  8
_1-8_小物
  6
CONTINUOUS
 62
    4
 10
127.64583333333314
 20
63.512499999999989
 11
127.83333333333314
 21
63.620753321824282
  0
LINE
  8
_1-8_小物
  6
CONTINUOUS
 62
    4
 10
127.83333333333314
 20
63.404246678175724
 11
127.64583333333314
 21
63.512499999999989
  0
LINE
  8
_1-8_小物
  6
CONTINUOUS
 62
    4
 10
128.83333333333309
 20
63.639246678175709
 11
127.83333333333314
 21
63.404246678175724
  0
LINE
  8
_1-8_小物
  6
CONTINUOUS
 62
    4
 10
129.02083333333314
 20
63.747499999999974
 11
127.64583333333314
 21
63.512499999999989
  0
LINE
  8
_1-8_小物
  6
CONTINUOUS
 62
    4
 10
127.83333333333326
 20
60.584246678175788
 11
127.83333333333326
 21
60.330753321824346
  0
LINE
  8
_1-8_小物
  6
CONTINUOUS
 62
    4
 10
127.83333333333326
 20
61.054246678175787
 11
127.83333333333326
 21
60.800753321824345
  0
LINE
  8
_1-8_小物
  6
CONTINUOUS
 62
    4
 10
127.83333333333326
 20
61.524246678175757
 11
127.83333333333326
 21
61.270753321824373
  0
LINE
  8
_1-8_小物
  6
CONTINUOUS
 62
    4
 10
127.83333333333326
 20
61.994246678175756
 11
127.83333333333326
 21
61.740753321824315
  0
LINE
  8
_1-8_小物
  6
CONTINUOUS
 62
    4
 10
127.83333333333326
 20
62.464246678175755
 11
127.83333333333326
 21
62.210753321824313
  0
LINE
  8
_1-8_小物
  6
CONTINUOUS
 62
    4
 10
127.83333333333326
 20
62.934246678175725
 11
127.83333333333326
 21
62.680753321824284
  0
LINE
  8
_1-8_小物
  6
CONTINUOUS
 62
    4
 10
127.83333333333326
 20
64.099999999999966
 11
127.83333333333326
 21
63.620753321824282
  0
LINE
  8
_1-8_小物
  6
CONTINUOUS
 62
    4
 10
127.83333333333326
 20
63.404246678175724
 11
127.83333333333326
 21
63.150753321824311
  0
LINE
  8
_1-8_小物
  6
CONTINUOUS
 62
    4
 10
128.83333333333303
 20
64.099999999999966
 11
128.83333333333303
 21
63.855753321824238
  0
LINE
  8
_1-8_小物
  6
CONTINUOUS
 62
    4
 10
128.83333333333303
 20
63.639246678175653
 11
128.83333333333303
 21
63.385753321824268
  0
LINE
  8
_1-8_小物
  6
CONTINUOUS
 62
    4
 10
128.83333333333303
 20
63.16924667817571
 11
128.83333333333303
 21
62.915753321824269
  0
LINE
  8
_1-8_小物
  6
CONTINUOUS
 62
    4
 10
128.83333333333303
 20
62.699246678175683
 11
128.83333333333303
 21
62.44575332182427
  0
LINE
  8
_1-8_小物
  6
CONTINUOUS
 62
    4
 10
128.83333333333303
 20
62.229246678175741
 11
128.83333333333303
 21
61.9757533218243
  0
LINE
  8
_1-8_小物
  6
CONTINUOUS
 62
    4
 10
128.83333333333303
 20
61.759246678175742
 11
128.83333333333303
 21
61.505753321824301
  0
LINE
  8
_1-8_小物
  6
CONTINUOUS
 62
    4
 10
128.83333333333303
 20
61.289246678175715
 11
128.83333333333303
 21
61.035753321824302
  0
LINE
  8
_1-8_小物
  6
CONTINUOUS
 62
    4
 10
128.89999999999969
 20
60.326666666666654
 11
128.89999999999969
 21
59.329999999999984
  0
LINE
  8
_1-8_小物
  6
CONTINUOUS
 62
    4
 10
127.76666666666654
 20
60.326666666666654
 11
128.89999999999969
 21
60.326666666666654
  0
LINE
  8
_1-8_小物
  6
CONTINUOUS
 62
    4
 10
127.76666666666654
 20
60.326666666666654
 11
127.76666666666654
 21
59.329999999999984
  0
LINE
  8
_1-8_小物
  6
CONTINUOUS
 62
    4
 10
127.76666666666654
 20
59.329999999999984
 11
128.33333333333314
 21
59.002834847459269
  0
LINE
  8
_1-8_小物
  6
CONTINUOUS
 62
    4
 10
128.89999999999969
 20
59.329999999999984
 11
128.33333333333314
 21
59.002834847459269
  0
LINE
  8
_1-8_小物
  6
CONTINUOUS
 62
    4
 10
128.33333333333314
 20
59.118304901297194
 11
128.79999999999978
 21
59.387735026918961
  0
LINE
  8
_1-8_小物
  6
CONTINUOUS
 62
    4
 10
128.79999999999978
 20
60.326666666666654
 11
128.79999999999978
 21
59.387735026918961
  0
LINE
  8
_1-8_小物
  6
CONTINUOUS
 62
    4
 10
128.33333333333314
 20
59.118304901297194
 11
128.54640011502426
 21
60.326666666666654
  0
LINE
  8
_1-8_小物
  6
CONTINUOUS
 62
    4
 10
128.83333333333303
 20
60.819246678175716
 11
128.83333333333303
 21
60.326666666666654
  0
LINE
  8
_1-8_小物
  6
CONTINUOUS
 62
    4
 10
128.33333333333314
 20
59.002834847459269
 11
128.33333333333314
 21
59.118304901297194
  0
LINE
  8
_1-8_小物
  6
CENTER2
 62
    4
 10
128.33333333333314
 20
65
 11
128.33333333333314
 21
58.669501514125955
  0
ENDBLK
  0
BLOCK
  2
-027-_26_
 70
   64
 10
0
 20
0
 30
0
  0
LINE
  8
_1-4_フレ__ム
  6
CONTINUOUS
 62
    4
 10
76
 20
68.100000079466469
 11
75.900000000000546
 21
68.00000007946656
  0
LINE
  8
_1-4_フレ__ム
  6
CONTINUOUS
 62
    4
 10
75.900000000000546
 20
68.00000007946656
 11
76.000000000000398
 21
67.900000079466281
  0
LINE
  8
_1-4_フレ__ム
  6
CONTINUOUS
 62
    4
 10
76.000000000000398
 20
63.33333341280013
 11
76.000000000000398
 21
67.900000079466281
  0
LINE
  8
_1-4_フレ__ム
  6
CONTINUOUS
 62
    4
 10
76
 20
73.333333412799817
 11
76
 21
68.100000079466469
  0
ARC
  8
_1-4_フレ__ム
  6
CONTINUOUS
 62
    4
 10
77.76666666230102
 20
75.000000079466332
 40
0.1666666666666666
 50
270
 51
90
  0
LINE
  8
_1-4_フレ__ム
  6
CONTINUOUS
 62
    4
 10
77.666666662301054
 20
74.833333412799675
 11
77.666666662301054
 21
71.66666674613316
  0
LINE
  8
_1-4_フレ__ム
  6
CONTINUOUS
 62
    4
 10
77.166666662301054
 20
75.166666746132989
 11
77.76666666230102
 21
75.166666746132989
  0
LINE
  8
_1-4_フレ__ム
  6
CONTINUOUS
 62
    4
 10
77.166666662301054
 20
71.66666674613316
 11
77.666666662301054
 21
71.66666674613316
  0
LINE
  8
_1-4_フレ__ム
  6
CONTINUOUS
 62
    4
 10
77.166666662301054
 20
73.333333412799817
 11
76
 21
73.333333412799817
  0
LINE
  8
_1-4_フレ__ム
  6
CONTINUOUS
 62
    4
 10
77.166666662301054
 20
73.333333412799817
 11
77.166666662301054
 21
71.66666674613316
  0
LINE
  8
_1-4_フレ__ム
  6
CONTINUOUS
 62
    4
 10
77.166666662301054
 20
75.166666746132989
 11
77.166666662301054
 21
74.333333412799817
  0
ARC
  8
_1-4_フレ__ム
  6
CONTINUOUS
 62
    4
 10
76.333333333333883
 20
61.000000079466474
 40
0.1666666666666666
 50
180
 51
270
  0
ARC
  8
_1-4_フレ__ム
  6
CONTINUOUS
 62
    4
 10
76.150000000000887
 20
59.516666746133126
 40
0.4833333333332726
 50
270
 51
90
  0
ARC
  8
_1-4_フレ__ム
  6
CONTINUOUS
 62
    4
 10
76.633333333334008
 20
59.100000079466611
 40
0.5999999999999999
 50
270
 51
0
  0
LINE
  8
_1-4_フレ__ム
  6
CONTINUOUS
 62
    4
 10
75.333333333333428
 20
58.86666674613312
 11
75.333333333333428
 21
58.766666746133211
  0
LINE
  8
_1-4_フレ__ム
  6
CONTINUOUS
 62
    4
 10
76.150000000000887
 20
59.033333412799863
 11
75.500000000000341
 21
59.033333412799777
  0
ARC
  8
_1-4_フレ__ム
  6
CONTINUOUS
 62
    4
 10
75.500000000000341
 20
58.86666674613312
 40
0.1666666666666666
 50
90
 51
180
  0
ARC
  8
_1-4_フレ__ム
  6
CONTINUOUS
 62
    4
 10
75.600000000000534
 20
58.766666746133211
 40
0.2666666666666667
 50
180
 51
270
  0
LINE
  8
_1-4_フレ__ム
  6
CONTINUOUS
 62
    4
 10
75.600000000000534
 20
58.500000079466531
 11
76.633333333334008
 21
58.50000007946656
  0
LINE
  8
_1-4_フレ__ム
  6
CONTINUOUS
 62
    4
 10
75
 20
60.00000007946656
 11
76.150000000000887
 21
60.00000007946656
  0
LINE
  8
_1-4_フレ__ム
  6
CONTINUOUS
 62
    4
 10
77.166666662301054
 20
74.333333412799817
 11
75
 21
74.333333412799817
  0
LINE
  8
_1-4_フレ__ム
  6
CONTINUOUS
 62
    4
 10
75
 20
60.00000007946656
 11
75
 21
74.333333412799817
  0
LINE
  8
_1-4_フレ__ム
  6
CONTINUOUS
 62
    4
 10
76.000000000000398
 20
63.33333341280013
 11
76.166666666667197
 21
63.33333341280013
  0
LINE
  8
_1-4_フレ__ム
  6
CONTINUOUS
 62
    4
 10
76.166666666667197
 20
61.000000079466474
 11
76.166666666667197
 21
63.33333341280013
  0
LINE
  8
_1-4_フレ__ム
  6
CONTINUOUS
 62
    4
 10
77.666666662301054
 20
74.833333412799675
 11
77.76666666230102
 21
74.833333412799675
  0
LINE
  8
_1-4_フレ__ム
  6
CENTER2
 62
    4
 10
77.166666666666742
 20
68.00000007946656
 11
73.333333333333371
 21
68.00000007946656
  0
LINE
  8
_1-4_フレ__ム
  6
CENTER2
 62
    4
 10
76.150000000000887
 20
59.516666746133126
 11
76.983333333334031
 21
59.516666746133126
  0
LINE
  8
_1-4_フレ__ム
  6
CENTER2
 62
    4
 10
76.150000000000887
 20
59.516666746133126
 11
76.150000000000887
 21
60.350000079466611
  0
LINE
  8
_1-4_フレ__ム
  6
CENTER2
 62
    4
 10
76.150000000000887
 20
59.516666746133126
 11
75.316666666667402
 21
59.516666746133126
  0
LINE
  8
_1-4_フレ__ム
  6
CENTER2
 62
    4
 10
76.150000000000887
 20
59.516666746133126
 11
76.150000000000887
 21
58.683333412799726
  0
LINE
  8
_1-4_フレ__ム
  6
DASHED1
 62
    4
 10
76.000000000000398
 20
70.500000079466872
 11
75
 21
70.500000079466872
  0
LINE
  8
_1-4_フレ__ム
  6
DASHED1
 62
    4
 10
76.000000000000398
 20
65.500000079466872
 11
75
 21
65.500000079466872
  0
LINE
  8
_1-4_フレ__ム
  6
DASHED1
 62
    4
 10
76.16666666666697
 20
61.833333412799902
 11
75
 21
61.833333412799902
  0
LINE
  8
_1-4_フレ__ム
  6
CONTINUOUS
 62
    4
 10
77.133333333333894
 20
60.833333412799959
 11
76.333333333333883
 21
60.833333412799959
  0
LINE
  8
_1-4_フレ__ム
  6
CONTINUOUS
 62
    4
 10
77.233333333333917
 20
59.100000079466611
 11
77.233333333333917
 21
60.733333412799936
  0
ARC
  8
_1-4_フレ__ム
  6
CONTINUOUS
 62
    4
 10
77.133333333333894
 20
60.733333412799936
 40
0.0999999999999999
 50
0
 51
90
  0
ENDBLK
  0
BLOCK
  2
-028-_27_
 70
   64
 10
0
 20
0
 30
0
  0
LINE
  8
_1-8_小物
  6
CONTINUOUS
 62
    4
 10
76.3969802218582
 20
61.627777860516545
 11
76.295973628210675
 21
61.714814897561268
  0
ARC
  8
_1-8_小物
  6
CONTINUOUS
 62
    4
 10
77.100000000000648
 20
58.633333412799885
 40
0.1333333333333333
 50
270
 51
359.99999849072555
  0
ARC
  8
_1-8_小物
  6
CONTINUOUS
 62
    4
 10
77.100000000000648
 20
58.633333412799885
 40
0.2666666666666666
 50
270
 51
359.99999849072555
  0
ARC
  8
_1-8_小物
  6
CONTINUOUS
 62
    4
 10
75.466666666667265
 20
58.633333412799885
 40
0.2666666666666666
 50
180
 51
270
  0
ARC
  8
_1-8_小物
  6
CONTINUOUS
 62
    4
 10
74.960655337100604
 20
59.366666746133234
 40
0.5
 50
323.03140579855119
 51
41.810314895802605
  0
ARC
  8
_1-8_小物
  6
CONTINUOUS
 62
    4
 10
75.466666666667265
 20
58.985794529466546
 40
0.1333333333333333
 50
143.03140197500721
 51
179.99999849072555
  0
LINE
  8
_1-8_小物
  6
CONTINUOUS
 62
    4
 10
75.200000000000614
 20
58.989425249633257
 11
75.200000000000614
 21
58.633333412799885
  0
ARC
  8
_1-8_小物
  6
CONTINUOUS
 62
    4
 10
75.466666666667265
 20
58.633333412799885
 40
0.1333333333333333
 50
180
 51
270
  0
ARC
  8
_1-8_小物
  6
CONTINUOUS
 62
    4
 10
74.917000133433987
 20
59.366666746133234
 40
0.3999999999999999
 50
325.53781142994416
 51
37.637863116802919
  0
LINE
  8
_1-8_小物
  6
CONTINUOUS
 62
    4
 10
75.33333333333394
 20
58.985794532966594
 11
75.33333333333394
 21
58.633333412799885
  0
ARC
  8
_1-8_小物
  6
CONTINUOUS
 62
    4
 10
75.466666666667265
 20
58.989425249633257
 40
0.2666666666666666
 50
145.53781142990746
 51
180
  0
LINE
  8
_1-8_小物
  6
CONTINUOUS
 62
    4
 10
75.33333333333394
 20
59.700000079466577
 11
75.23375463923395
 21
59.610934187833237
  0
LINE
  8
_1-8_小物
  6
CONTINUOUS
 62
    4
 10
75.466666666667265
 20
58.366666746133234
 11
77.100000000000648
 21
58.366666746133234
  0
LINE
  8
_1-8_小物
  6
CONTINUOUS
 62
    4
 10
75.466666666667265
 20
58.500000079466588
 11
77.100000000000648
 21
58.500000079466588
  0
ARC
  8
_1-8_小物
  6
CONTINUOUS
 62
    4
 10
76.700000000000614
 20
61.366666746133234
 40
0.5333333333333333
 50
90
 51
270.00000867010863
  0
ARC
  8
_1-8_小物
  6
CONTINUOUS
 62
    4
 10
76.700000000000614
 20
61.366666746133234
 40
0.3999999999999999
 50
90.0000000000977
 51
270.0000018823917
  0
LINE
  8
_1-8_小物
  6
CONTINUOUS
 62
    4
 10
76.700000000000614
 20
61.766666746133239
 11
76.700000000000614
 21
61.900000079466565
  0
LINE
  8
_1-8_小物
  6
CONTINUOUS
 62
    4
 10
76.166666666667254
 20
62.833333412799931
 11
76.30000000000058
 21
62.833333412799931
  0
LINE
  8
_1-8_小物
  6
DASHED1
 62
    4
 10
77.3666666666673
 20
60.250000072393618
 11
77.233333333333974
 21
60.250000072393618
  0
LINE
  8
_1-8_小物
  6
CONTINUOUS
 62
    4
 10
76.30000000000058
 20
62.333333412799931
 11
76.166666666667254
 21
62.333333412799931
  0
LINE
  8
_1-8_小物
  6
CONTINUOUS
 62
    4
 10
76.30000000000058
 20
62.833333412799931
 11
76.30000000000058
 21
61.719433587608478
  0
LINE
  8
_1-8_小物
  6
CONTINUOUS
 62
    4
 10
76.30000000000058
 20
61.01389990465799
 11
76.30000000000058
 21
60.83670076328093
  0
LINE
  8
_1-8_小物
  6
CONTINUOUS
 62
    4
 10
76.166666666667254
 20
62.833333412799931
 11
76.166666666667254
 21
61.000000079466474
  0
ARC
  8
_1-8_小物
  6
CONTINUOUS
 62
    4
 10
75.8666666666673
 20
59.936438271150138
 40
0.1333333333333333
 50
151.52902134424266
 51
180
  0
LINE
  8
_1-8_小物
  6
CONTINUOUS
 62
    4
 10
75.733333333333917
 20
59.936438271150138
 11
75.733333333333917
 21
59.033333412799863
  0
LINE
  8
_1-8_小物
  6
CONTINUOUS
 62
    4
 10
75.600000000000648
 20
60.00000007946656
 11
75.600000000000648
 21
59.033333412799863
  0
LINE
  8
_1-8_小物
  6
CONTINUOUS
 62
    4
 10
76.700000000000614
 20
60.966666746133228
 11
77.133333333333951
 21
60.966666746133228
  0
LINE
  8
_1-8_小物
  6
CONTINUOUS
 62
    4
 10
77.3666666666673
 20
58.633333405799874
 11
77.3666666666673
 21
60.73333341279988
  0
ARC
  8
_1-8_小物
  6
CONTINUOUS
 62
    4
 10
77.133333333333951
 20
60.73333341279988
 40
0.2333333333333333
 50
0
 51
90
  0
LINE
  8
_1-8_小物
  6
CONTINUOUS
 62
    4
 10
76.700000000000614
 20
60.833333412799931
 11
77.133333333334008
 21
60.833333412799931
  0
LINE
  8
_1-8_小物
  6
CONTINUOUS
 62
    4
 10
77.233333333333974
 20
58.633333409299922
 11
77.233333333333974
 21
60.733333412799936
  0
ARC
  8
_1-8_小物
  6
CONTINUOUS
 62
    4
 10
77.133333333334008
 20
60.733333412799936
 40
0.0999999999999999
 50
0
 51
90
  0
ENDBLK
  0
BLOCK
  2
-029-_28_
 70
   64
 10
0
 20
0
 30
0
  0
LINE
  8
_1-8_小物
  6
CONTINUOUS
 62
    4
 10
76.500000000000171
 20
65.00000007946619
 11
76.500000000000171
 21
71.000000079466531
  0
LINE
  8
_1-8_小物
  6
CONTINUOUS
 62
    4
 10
76.000000000000171
 20
65.00000007946619
 11
76.000000000000171
 21
71.000000079466531
  0
LINE
  8
_1-8_小物
  6
CONTINUOUS
 62
    4
 10
76.500000000000171
 20
65.00000007946619
 11
76.000000000000171
 21
65.00000007946619
  0
LINE
  8
_1-8_小物
  6
CONTINUOUS
 62
    4
 10
76.500000000000171
 20
71.000000079466531
 11
76.000000000000171
 21
71.000000079466531
  0
LINE
  8
_1-8_小物
  6
CONTINUOUS
 62
    4
 10
76.500000000000171
 20
66.50000007946619
 11
76.914959605000206
 21
66.536304340733068
  0
LINE
  8
_1-8_小物
  6
CONTINUOUS
 62
    4
 10
76.914959605000206
 20
69.463695818233077
 11
76.500000000000171
 21
69.50000007946619
  0
ARC
  8
_1-8_小物
  6
CONTINUOUS
 62
    4
 10
76.886198209900101
 20
69.134951567833355
 40
0.3299999999999999
 50
37.367558032050525
 51
85.000000001203631
  0
ARC
  8
_1-8_小物
  6
CONTINUOUS
 62
    4
 10
76.886198209900101
 20
66.865048591099708
 40
0.3299999999999999
 50
274.99999999879594
 51
322.63244196794557
  0
ARC
  8
_1-8_小物
  6
CONTINUOUS
 62
    4
 10
75.400000000000148
 20
68.000000079466531
 40
2.1999999999999997
 50
322.63244196770438
 51
338.26638354339775
  0
ARC
  8
_1-8_小物
  6
CONTINUOUS
 62
    4
 10
75.400000000000148
 20
68.000000079466531
 40
2.1999999999999997
 50
21.74840859090288
 51
37.367558032305141
  0
LINE
  8
_1-8_小物
  6
CONTINUOUS
 62
    4
 10
77.5863757098669
 20
67.895000079466399
 11
77.441104079866761
 21
67.895000079466399
  0
LINE
  8
_1-8_小物
  6
CONTINUOUS
 62
    4
 10
77.5863757098669
 20
67.779237185499369
 11
77.5863757098669
 21
67.895000079466399
  0
LINE
  8
_1-8_小物
  6
CONTINUOUS
 62
    4
 10
77.441104079866761
 20
67.185832323299792
 11
77.5863757098669
 21
67.779237185499369
  0
LINE
  8
_1-8_小物
  6
CONTINUOUS
 62
    4
 10
77.5863757098669
 20
68.220762973466435
 11
77.497897102733589
 21
68.654066396033159
  0
LINE
  8
_1-8_小物
  6
CONTINUOUS
 62
    4
 10
77.497897102733589
 20
68.654066396033159
 11
77.441104079866761
 21
68.814167835666012
  0
LINE
  8
_1-8_小物
  6
CONTINUOUS
 62
    4
 10
77.5863757098669
 20
68.105000079466436
 11
77.5863757098669
 21
68.220762973466435
  0
LINE
  8
_1-8_小物
  6
CONTINUOUS
 62
    4
 10
77.441104079866761
 20
68.105000079466436
 11
77.5863757098669
 21
68.105000079466436
  0
LINE
  8
_1-8_小物
  6
CONTINUOUS
 62
    4
 10
77.441104079866761
 20
67.895000079466399
 11
77.442805804666875
 21
68.000000079466531
  0
LINE
  8
_1-8_小物
  6
CONTINUOUS
 62
    4
 10
77.442805804666875
 20
68.000000079466531
 11
77.441104079866761
 21
68.105000079466436
  0
LINE
  8
_1-8_小物
  6
CONTINUOUS
 62
    4
 10
76.914959605000206
 20
66.536304340733068
 11
76.914959605000206
 21
69.463695818233077
  0
LINE
  8
_1-8_小物
  6
CONTINUOUS
 62
    4
 10
77.148468482233568
 20
68.000000079466531
 11
77.148468482233568
 21
69.335237124633181
  0
LINE
  8
_1-8_小物
  6
CONTINUOUS
 62
    4
 10
77.148468482233568
 20
66.664763034332964
 11
77.148468482233568
 21
68.000000079466531
  0
ENDBLK
  0
BLOCK
  2
-030-_29_
 70
   64
 10
0
 20
0
 30
0
  0
LINE
  8
_1-5_ア__ム
  6
CONTINUOUS
 62
    4
 10
82.333333333332405
 20
64.000000060833088
 11
82.333333333332405
 21
60.333333505933325
  0
ARC
  8
_1-5_ア__ム
  6
CONTINUOUS
 62
    4
 10
83.999999999999091
 20
60.333333505933325
 40
1.6666666666666665
 50
180
 51
270
  0
LINE
  8
_1-5_ア__ム
  6
DASHED1
 62
    4
 10
86.333333333332348
 20
63.066666760766594
 11
86.333333333332348
 21
62.333328473001757
  0
LINE
  8
_1-5_ア__ム
  6
DASHED1
 62
    4
 10
91.66666666666606
 20
63.066666760766594
 11
91.66666666666606
 21
62.333328473001757
  0
LINE
  8
_1-5_ア__ム
  6
DASHED1
 62
    4
 10
95.566666666665299
 20
63.066666760766594
 11
95.566666666665299
 21
62.333328473001757
  0
LINE
  8
_1-5_ア__ム
  6
DASHED1
 62
    4
 10
98.366666666665253
 20
63.066666760766594
 11
98.366666666665253
 21
62.333328473001757
  0
LINE
  8
_1-5_ア__ム
  6
DASHED1
 62
    4
 10
97.033333333331939
 20
63.066666760766594
 11
97.033333333331939
 21
62.333328473001757
  0
LINE
  8
_1-5_ア__ム
  6
DASHED1
 62
    4
 10
104.23333333333204
 20
62.333328473001757
 11
104.23333333333204
 21
63.066666760766594
  0
LINE
  8
_1-5_ア__ム
  6
CONTINUOUS
 62
    4
 10
139.66666666666572
 20
64.000000079466531
 11
139.66666666666572
 21
60.333333505933325
  0
ARC
  8
_1-5_ア__ム
  6
CONTINUOUS
 62
    4
 10
137.99999999999898
 20
60.333333505933325
 40
1.6666666666666665
 50
270
 51
0
  0
LINE
  8
_1-5_ア__ム
  6
CONTINUOUS
 62
    4
 10
82.333333333332405
 20
64.000000079466531
 11
139.66666666666572
 21
64.000000079466531
  0
LINE
  8
_1-5_ア__ム
  6
DASHED1
 62
    4
 10
82.333333333332405
 20
63.066666760766594
 11
139.66666666666572
 21
63.066666760766594
  0
LINE
  8
_1-5_ア__ム
  6
DASHED1
 62
    4
 10
82.333333333332405
 20
62.333328473001757
 11
139.66666666666572
 21
62.333328473001757
  0
LINE
  8
_1-5_ア__ム
  6
CONTINUOUS
 62
    4
 10
83.999999999999091
 20
58.666666839266668
 11
137.99999999999898
 21
58.666666839266668
  0
ENDBLK
  0
BLOCK
  2
-031-_30_
 70
   64
 10
0
 20
0
 30
0
  0
LINE
  8
_1-7_カバ__
  6
CONTINUOUS
 62
    4
 10
82.333333336283431
 20
64.000000079466531
 11
144.00000000295051
 21
64.000000079466531
  0
LINE
  8
_1-7_カバ__
  6
CONTINUOUS
 62
    4
 10
82.333333336283431
 20
78.999987373614772
 11
82.333333336283431
 21
64.000000079466531
  0
LINE
  8
_1-7_カバ__
  6
CONTINUOUS
 62
    4
 10
83.000000002950856
 20
79.666654040281344
 11
83.000000002950856
 21
64.666666746133188
  0
LINE
  8
_1-7_カバ__
  6
CONTINUOUS
 62
    4
 10
128.00000000295069
 20
64.595956068014544
 11
128.07071068106939
 21
64.666666746133188
  0
LINE
  8
_1-7_カバ__
  6
CONTINUOUS
 62
    4
 10
128.00000000295069
 20
64.595956068014544
 11
127.92928932483198
 21
64.666666746133188
  0
LINE
  8
_1-7_カバ__
  6
CONTINUOUS
 62
    4
 10
91.33333333628417
 20
64.595956068014544
 11
91.404044014402871
 21
64.666666746133188
  0
LINE
  8
_1-7_カバ__
  6
CONTINUOUS
 62
    4
 10
91.33333333628417
 20
64.595956068014544
 11
91.262622658165469
 21
64.666666746133188
  0
LINE
  8
_1-7_カバ__
  6
CONTINUOUS
 62
    4
 10
83.000000002950856
 20
64.666666746133188
 11
91.262622658165469
 21
64.666666746133188
  0
LINE
  8
_1-7_カバ__
  6
CONTINUOUS
 62
    4
 10
128.07071068106939
 20
64.666666746133188
 11
144.66666666961737
 21
64.666666746133188
  0
LINE
  8
_1-7_カバ__
  6
CONTINUOUS
 62
    4
 10
91.404044014402871
 20
64.666666746133188
 11
127.92928932483198
 21
64.666666746133188
  0
LINE
  8
_1-7_カバ__
  6
CENTER2
 62
    4
 10
91.33333333628417
 20
67.333333412799846
 11
91.33333333628417
 21
62.333333412799846
  0
LINE
  8
_1-7_カバ__
  6
CENTER2
 62
    4
 10
128.00000000295069
 20
67.333333412799846
 11
128.00000000295069
 21
62.333333412799846
  0
LINE
  8
_1-7_カバ__
  6
DASHED1
 62
    4
 10
92.08333333628417
 20
64.333333412799931
 11
92.416666669617427
 21
64.666666746133188
  0
LINE
  8
_1-7_カバ__
  6
DASHED1
 62
    4
 10
90.58333333628417
 20
64.333333412799931
 11
90.250000002950912
 21
64.666666746133188
  0
LINE
  8
_1-7_カバ__
  6
DASHED1
 62
    4
 10
90.58333333628417
 20
64.333333412799931
 11
92.08333333628417
 21
64.333333412799931
  0
LINE
  8
_1-7_カバ__
  6
DASHED1
 62
    4
 10
128.75000000295069
 20
64.333333412799931
 11
129.083333336284
 21
64.666666746133188
  0
LINE
  8
_1-7_カバ__
  6
DASHED1
 62
    4
 10
127.25000000295069
 20
64.333333412799931
 11
126.91666666961743
 21
64.666666746133188
  0
LINE
  8
_1-7_カバ__
  6
DASHED1
 62
    4
 10
127.25000000295069
 20
64.333333412799931
 11
128.75000000295069
 21
64.333333412799931
  0
LINE
  8
_1-7_カバ__
  6
DASHED1
 62
    4
 10
92.08333333628417
 20
64.333333412799931
 11
92.08333333628417
 21
64.000000079466531
  0
LINE
  8
_1-7_カバ__
  6
DASHED1
 62
    4
 10
90.58333333628417
 20
64.333333412799931
 11
90.58333333628417
 21
64.000000079466531
  0
LINE
  8
_1-7_カバ__
  6
DASHED1
 62
    4
 10
128.75000000295069
 20
64.333333412799931
 11
128.75000000295069
 21
64.000000079466531
  0
LINE
  8
_1-7_カバ__
  6
DASHED1
 62
    4
 10
127.25000000295069
 20
64.333333412799931
 11
127.25000000295069
 21
64.000000079466531
  0
LINE
  8
_1-7_カバ__
  6
CONTINUOUS
 62
    4
 10
144.66666666961737
 20
60.000000079466446
 11
144.66666666961737
 21
64.666666746133188
  0
LINE
  8
_1-7_カバ__
  6
CONTINUOUS
 62
    4
 10
144.66666666961737
 20
60.000000079466446
 11
141.333333336284
 21
60.000000079466446
  0
LINE
  8
_1-7_カバ__
  6
CONTINUOUS
 62
    4
 10
141.333333336284
 20
60.000000079466446
 11
141.333333336284
 21
60.500000079466531
  0
LINE
  8
_1-7_カバ__
  6
CONTINUOUS
 62
    4
 10
144.0000000029504
 20
60.500000079466531
 11
141.333333336284
 21
60.500000079466531
  0
LINE
  8
_1-7_カバ__
  6
CONTINUOUS
 62
    4
 10
144.0000000029504
 20
60.500000079466531
 11
144.0000000029504
 21
64.000000079466531
  0
LINE
  8
_1-7_カバ__
  6
CONTINUOUS
 62
    4
 10
78.333333336283999
 20
79.666654040281344
 11
83.000000002950856
 21
79.666654040281344
  0
LINE
  8
_1-7_カバ__
  6
CONTINUOUS
 62
    4
 10
78.333333336283999
 20
79.666654040281344
 11
78.333333336283999
 21
76.333320706948086
  0
LINE
  8
_1-7_カバ__
  6
CONTINUOUS
 62
    4
 10
78.83333333628417
 20
78.999987373614715
 11
82.333333336283431
 21
78.999987373614715
  0
LINE
  8
_1-7_カバ__
  6
CONTINUOUS
 62
    4
 10
78.83333333628417
 20
78.999987373614715
 11
78.83333333628417
 21
76.333320706948086
  0
LINE
  8
_1-7_カバ__
  6
CONTINUOUS
 62
    4
 10
78.333333336283999
 20
76.333320706948086
 11
78.83333333628417
 21
76.333320706948086
  0
ENDBLK
  0
BLOCK
  2
-032-_31_
 70
   64
 10
0
 20
0
 30
0
  0
ARC
  8
_1-8_小物
  6
CONTINUOUS
 62
    4
 10
141.333333336284
 20
60.10000007946644
 40
0.0999999999999999
 50
179.99999999998371
 51
270
  0
ARC
  8
_1-8_小物
  6
CONTINUOUS
 62
    4
 10
144.00000000295069
 20
59.333333412799789
 40
0.1666666666666666
 50
0
 51
90
  0
ARC
  8
_1-8_小物
  6
CONTINUOUS
 62
    4
 10
144.00000000295069
 20
59.333333412799789
 40
0.6666666666666666
 50
0
 51
90
  0
ARC
  8
_1-8_小物
  6
CONTINUOUS
 62
    4
 10
141.40000000295072
 20
60.000000079466446
 40
0.5
 50
180
 51
270
  0
ARC
  8
_1-8_小物
  6
CONTINUOUS
 62
    4
 10
143.35309431056749
 20
60.666654307836211
 40
0.3333333333333333
 50
265.47574222621506
 51
355.47574222621506
  0
LINE
  8
_1-8_小物
  6
CONTINUOUS
 62
    4
 10
141.23333333628398
 20
60.391785582596441
 11
141.23333333628398
 21
60.10000007946644
  0
ARC
  8
_1-8_小物
  6
CONTINUOUS
 62
    4
 10
141.333333336284
 20
60.391785582596441
 40
0.0999999999999999
 50
85.475742226194839
 51
180
  0
LINE
  8
_1-8_小物
  6
CONTINUOUS
 62
    4
 10
144.00000000295069
 20
60.000000079466446
 11
141.333333336284
 21
60.000000079466446
  0
LINE
  8
_1-8_小物
  6
CONTINUOUS
 62
    4
 10
143.32680059004343
 20
60.334359632326539
 11
141.34122145244123
 21
60.491473985249343
  0
ARC
  8
_1-8_小物
  6
CONTINUOUS
 62
    4
 10
143.13889364207745
 20
60.917666185059886
 40
0.1666666666666666
 50
265.47574222623456
 51
355.47574222621506
  0
LINE
  8
_1-8_小物
  6
CONTINUOUS
 62
    4
 10
143.12574678181551
 20
60.751518847304993
 11
141.25962705680797
 21
60.899180649103101
  0
LINE
  8
_1-8_小物
  6
CONTINUOUS
 62
    4
 10
140.90000000295072
 20
60.566885973593372
 11
140.90000000295072
 21
60.000000079466446
  0
ARC
  8
_1-8_小物
  6
CONTINUOUS
 62
    4
 10
141.23333333628398
 20
60.566885973593372
 40
0.3333333333333333
 50
85.47574222621509
 51
180
  0
LINE
  8
_1-8_小物
  6
CONTINUOUS
 62
    4
 10
143.68538898607721
 20
60.640360587312244
 11
143.70905333454886
 21
60.939425795271006
  0
LINE
  8
_1-8_小物
  6
CONTINUOUS
 62
    4
 10
143.30504097983231
 20
60.904519324797889
 11
143.31029972393713
 21
60.970978259899795
  0
ARC
  8
_1-8_小物
  6
CONTINUOUS
 62
    4
 10
143.50967652924305
 20
60.955202027585415
 40
0.1999999999999963
 50
355.47574222621108
 51
175.47574222621233
  0
LINE
  8
_1-8_小物
  6
CONTINUOUS
 62
    4
 10
141.90000000295072
 20
59.333333412799789
 11
141.73333333628398
 21
59.500000079466446
  0
LINE
  8
_1-8_小物
  6
CONTINUOUS
 62
    4
 10
141.90000000295072
 20
59.333333412799789
 11
142.06666666961729
 21
59.500000079466446
  0
LINE
  8
_1-8_小物
  6
CONTINUOUS
 62
    4
 10
144.00000000295069
 20
59.500000079466446
 11
142.06666666961729
 21
59.500000079466446
  0
LINE
  8
_1-8_小物
  6
CONTINUOUS
 62
    4
 10
141.73333333628398
 20
59.500000079466446
 11
141.40000000295072
 21
59.500000079466446
  0
ARC
  8
_1-8_小物
  6
CONTINUOUS
 62
    4
 10
143.75464419380597
 20
55.874663006255957
 40
0.4999999999999946
 50
190.63980919808779
 51
350.6398091980854
  0
LINE
  8
_1-8_小物
  6
CONTINUOUS
 62
    4
 10
144.16666666961737
 20
58.374266026178162
 11
143.78539018823159
 21
56.061188705771031
  0
ARC
  8
_1-8_小物
  6
CONTINUOUS
 62
    4
 10
143.75250067481153
 20
56.066610054136987
 40
0.0333333333333333
 50
190.63980919810578
 51
350.63980919806494
  0
ARC
  8
_1-8_小物
  6
CONTINUOUS
 62
    4
 10
143.27814955426538
 20
57.057013571227714
 40
0.25
 50
10.639809198086599
 51
190.63980919808657
  0
LINE
  8
_1-8_小物
  6
CONTINUOUS
 62
    4
 10
143.03244772871159
 20
57.010855008430354
 11
143.26324054269833
 21
55.782345880661239
  0
LINE
  8
_1-8_小物
  6
CONTINUOUS
 62
    4
 10
144.66666666961737
 20
58.333333412799789
 11
144.24798689510641
 21
55.793342780766864
  0
LINE
  8
_1-8_小物
  6
CONTINUOUS
 62
    4
 10
143.52385137981923
 20
57.103172134025073
 11
143.71974043140432
 21
56.060455579097322
  0
LINE
  8
_1-8_小物
  6
CONTINUOUS
 62
    4
 10
144.16666666961737
 20
59.333333412799789
 11
144.16666666961737
 21
58.374266026178162
  0
LINE
  8
_1-8_小物
  6
CONTINUOUS
 62
    4
 10
144.66666666961737
 20
59.333333412799789
 11
144.66666666961737
 21
58.333333412799789
  0
ENDBLK
  0
BLOCK
  2
-033-_32_
 70
   64
 10
0
 20
0
 30
0
  0
ARC
  8
_1-8_小物
  6
CONTINUOUS
 62
    4
 10
78.433333336283965
 20
76.333320706948086
 40
0.0999999999999999
 50
180
 51
270
  0
ARC
  8
_1-8_小物
  6
CONTINUOUS
 62
    4
 10
77.666666669617541
 20
78.9999873736148
 40
0.1666666666666666
 50
0
 51
90
  0
ARC
  8
_1-8_小物
  6
CONTINUOUS
 62
    4
 10
77.666666669617541
 20
78.9999873736148
 40
0.6666666666666666
 50
0
 51
89.999999999995111
  0
ARC
  8
_1-8_小物
  6
CONTINUOUS
 62
    4
 10
78.333333336283999
 20
76.399987373614778
 40
0.5
 50
179.99999999999673
 51
269.99999999998698
  0
ARC
  8
_1-8_小物
  6
CONTINUOUS
 62
    4
 10
78.999987564653907
 20
78.353081681231458
 40
0.3333333333333333
 50
94.524257773784925
 51
184.5242577737703
  0
LINE
  8
_1-8_小物
  6
CONTINUOUS
 62
    4
 10
78.725118839413994
 20
76.233320706948007
 11
78.433333336283965
 21
76.233320706948035
  0
ARC
  8
_1-8_小物
  6
CONTINUOUS
 62
    4
 10
78.725118839413994
 20
76.333320706948058
 40
0.0999999999999999
 50
270
 51
4.5242577737902252
  0
LINE
  8
_1-8_小物
  6
CONTINUOUS
 62
    4
 10
78.333333336284227
 20
78.999987373614772
 11
78.333333336283999
 21
76.333320706948086
  0
LINE
  8
_1-8_小物
  6
CONTINUOUS
 62
    4
 10
78.667692889144234
 20
78.326787960707463
 11
78.824807242066925
 21
76.341208823105262
  0
ARC
  8
_1-8_小物
  6
CONTINUOUS
 62
    4
 10
79.250999441877582
 20
78.13888101274145
 40
0.1666666666666666
 50
94.524257773784925
 51
184.52425777376544
  0
LINE
  8
_1-8_小物
  6
CONTINUOUS
 62
    4
 10
79.084852104122717
 20
78.125734152479509
 11
79.232513905920655
 21
76.259614427472002
  0
LINE
  8
_1-8_小物
  6
CONTINUOUS
 62
    4
 10
78.900219230410926
 20
75.899987373614692
 11
78.333333336283999
 21
75.899987373614778
  0
ARC
  8
_1-8_小物
  6
CONTINUOUS
 62
    4
 10
78.900219230410926
 20
76.23332070694795
 40
0.3333333333333333
 50
270
 51
4.5242577737849388
  0
LINE
  8
_1-8_小物
  6
CONTINUOUS
 62
    4
 10
78.973693844130025
 20
78.685376356741187
 11
79.272759052088759
 21
78.709040705212857
  0
LINE
  8
_1-8_小物
  6
CONTINUOUS
 62
    4
 10
79.237852581615584
 20
78.305028350496315
 11
79.304311516717462
 21
78.310287094601136
  0
ARC
  8
_1-8_小物
  6
CONTINUOUS
 62
    4
 10
79.288535284403167
 20
78.509663899907025
 40
0.1999999999999963
 50
274.52425777378892
 51
94.524257773788293
  0
LINE
  8
_1-8_小物
  6
CONTINUOUS
 62
    4
 10
77.666666669617371
 20
76.899987373614806
 11
77.833333336284056
 21
76.733320706948064
  0
LINE
  8
_1-8_小物
  6
CONTINUOUS
 62
    4
 10
77.666666669617371
 20
76.899987373614806
 11
77.833333336284056
 21
77.066654040281406
  0
LINE
  8
_1-8_小物
  6
CONTINUOUS
 62
    4
 10
77.833333336284227
 20
78.9999873736148
 11
77.833333336284056
 21
77.066654040281406
  0
LINE
  8
_1-8_小物
  6
CONTINUOUS
 62
    4
 10
77.833333336284056
 20
76.733320706948064
 11
77.833333336283999
 21
76.399987373614806
  0
ARC
  8
_1-8_小物
  6
CONTINUOUS
 62
    4
 10
74.20799626307371
 20
78.754631564470401
 40
0.4999999999999946
 50
99.360190801914598
 51
259.36019080189942
  0
LINE
  8
_1-8_小物
  6
CONTINUOUS
 62
    4
 10
76.707599282995943
 20
79.166654040281543
 11
74.394521962588783
 21
78.785377558896016
  0
ARC
  8
_1-8_小物
  6
CONTINUOUS
 62
    4
 10
74.399943310954711
 20
78.752488045475957
 40
0.0333333333333333
 50
99.360190801902732
 51
259.36019080183718
  0
ARC
  8
_1-8_小物
  6
CONTINUOUS
 62
    4
 10
75.390346828045438
 20
78.278136924929669
 40
0.25
 50
259.36019080189942
 51
79.360190801899421
  0
LINE
  8
_1-8_小物
  6
CONTINUOUS
 62
    4
 10
75.344188265248022
 20
78.032435099375903
 11
74.115679137478935
 21
78.263227913362755
  0
LINE
  8
_1-8_小物
  6
CONTINUOUS
 62
    4
 10
76.666666669617598
 20
79.666654040281543
 11
74.126676037584673
 21
79.247974265770836
  0
LINE
  8
_1-8_小物
  6
CONTINUOUS
 62
    4
 10
75.436505390842854
 20
78.52383875048352
 11
74.393788835915075
 21
78.719727802068746
  0
LINE
  8
_1-8_小物
  6
CONTINUOUS
 62
    4
 10
77.666666669617541
 20
79.166654040281458
 11
76.707599282995943
 21
79.166654040281543
  0
LINE
  8
_1-8_小物
  6
CONTINUOUS
 62
    4
 10
77.666666669617598
 20
79.666654040281458
 11
76.666666669617598
 21
79.666654040281543
  0
ENDBLK
  0
BLOCK
  2
-034-_33_
 70
   64
 10
0
 20
0
 30
0
  0
LINE
  8
_0-0_図面枠
  6
CONTINUOUS
 62
    7
 10
-17.103643301208535
 20
124.78846734235105
 11
-17.633973387058518
 21
124.48231430040107
  0
LINE
  8
_0-0_図面枠
  6
CONTINUOUS
 62
    7
 10
-16.197776643308543
 20
122.83680745630102
 11
-17.103643301208535
 21
124.78846734235105
  0
LINE
  8
_0-0_図面枠
  6
CONTINUOUS
 62
    7
 10
-19.578517035358516
 20
123.35975314665103
 11
-16.197776643308543
 21
122.83680745630102
  0
LINE
  8
_0-0_図面枠
  6
CONTINUOUS
 62
    7
 10
-19.048186949458511
 20
123.66590618860107
 11
-19.578517035358516
 21
123.35975314665103
  0
LINE
  8
_0-0_図面枠
  6
CONTINUOUS
 62
    7
 10
-23.644381027158488
 20
126.31923255200104
 11
-19.048186949458511
 21
123.66590618860107
  0
LINE
  8
_0-0_図面枠
  6
CONTINUOUS
 62
    7
 10
-28.240575104858522
 20
123.66590618860107
 11
-23.644381027158488
 21
126.31923255200104
  0
LINE
  8
_0-0_図面枠
  6
CONTINUOUS
 62
    7
 10
-27.710245019008539
 20
123.35975314665103
 11
-28.240575104858522
 21
123.66590618860107
  0
LINE
  8
_0-0_図面枠
  6
CONTINUOUS
 62
    7
 10
-31.090985411008546
 20
122.83680745630102
 11
-27.710245019008539
 21
123.35975314665103
  0
LINE
  8
_0-0_図面枠
  6
CONTINUOUS
 62
    7
 10
-30.18511875315852
 20
124.78846734235105
 11
-31.090985411008546
 21
122.83680745630102
  0
LINE
  8
_0-0_図面枠
  6
CONTINUOUS
 62
    7
 10
-29.654788667258515
 20
124.48231430040107
 11
-30.18511875315852
 21
124.78846734235105
  0
LINE
  8
_0-0_図面枠
  6
CONTINUOUS
 62
    7
 10
-25.058594589558538
 20
127.13564066385106
 11
-29.654788667258515
 21
124.48231430040107
  0
LINE
  8
_0-0_図面枠
  6
CONTINUOUS
 62
    7
 10
-29.654788667258515
 20
129.78896702725103
 11
-25.058594589558538
 21
127.13564066385106
  0
LINE
  8
_0-0_図面枠
  6
CONTINUOUS
 62
    7
 10
-30.18511875315852
 20
129.48281398535107
 11
-29.654788667258515
 21
129.78896702725103
  0
LINE
  8
_0-0_図面枠
  6
CONTINUOUS
 62
    7
 10
-31.090985411008546
 20
131.43447387140105
 11
-30.18511875315852
 21
129.48281398535107
  0
LINE
  8
_0-0_図面枠
  6
CONTINUOUS
 62
    7
 10
-27.710245019008539
 20
130.91152818105104
 11
-31.090985411008546
 21
131.43447387140105
  0
LINE
  8
_0-0_図面枠
  6
CONTINUOUS
 62
    7
 10
-28.240575104858522
 20
130.60537513910106
 11
-27.710245019008539
 21
130.91152818105104
  0
LINE
  8
_0-0_図面枠
  6
CONTINUOUS
 62
    7
 10
-23.644381027158488
 20
127.95204877565106
 11
-28.240575104858522
 21
130.60537513910106
  0
LINE
  8
_0-0_図面枠
  6
CONTINUOUS
 62
    7
 10
-19.048186949458511
 20
130.60537513910106
 11
-23.644381027158488
 21
127.95204877565106
  0
LINE
  8
_0-0_図面枠
  6
CONTINUOUS
 62
    7
 10
-19.578517035358516
 20
130.91152818105104
 11
-19.048186949458511
 21
130.60537513910106
  0
LINE
  8
_0-0_図面枠
  6
CONTINUOUS
 62
    7
 10
-16.197776643308543
 20
131.43447387140105
 11
-19.578517035358516
 21
130.91152818105104
  0
LINE
  8
_0-0_図面枠
  6
CONTINUOUS
 62
    7
 10
-17.103643301208535
 20
129.48281398535107
 11
-16.197776643308543
 21
131.43447387140105
  0
LINE
  8
_0-0_図面枠
  6
CONTINUOUS
 62
    7
 10
-17.633973387058518
 20
129.78896702725103
 11
-17.103643301208535
 21
129.48281398535107
  0
LINE
  8
_0-0_図面枠
  6
CONTINUOUS
 62
    7
 10
-22.230167464808517
 20
127.13564066385106
 11
-17.633973387058518
 21
129.78896702725103
  0
LINE
  8
_0-0_図面枠
  6
CONTINUOUS
 62
    7
 10
-17.633973387058518
 20
124.48231430040107
 11
-22.230167464808517
 21
127.13564066385106
  0
LINE
  8
_0-0_図面枠
  6
CONTINUOUS
 62
    7
 10
-31.090985411008546
 20
122.83680745630102
 11
-31.090985411008546
 21
122.22440184740105
  0
LINE
  8
_0-0_図面枠
  6
CONTINUOUS
 62
    7
 10
-27.710245019008539
 20
123.35975314665103
 11
-27.710245019008539
 21
122.74734753775107
  0
LINE
  8
_0-0_図面枠
  6
CONTINUOUS
 62
    7
 10
-31.090985411008546
 20
122.22440184740105
 11
-27.710245019008539
 21
122.74734753775107
  0
LINE
  8
_0-0_図面枠
  6
CONTINUOUS
 62
    7
 10
-19.578517035358516
 20
123.35975314665103
 11
-19.578517035358516
 21
122.74734753775107
  0
LINE
  8
_0-0_図面枠
  6
CONTINUOUS
 62
    7
 10
-16.197776643308543
 20
122.83680745630102
 11
-16.197776643308543
 21
122.22440184740105
  0
LINE
  8
_0-0_図面枠
  6
CONTINUOUS
 62
    7
 10
-19.578517035358516
 20
122.74734753775107
 11
-16.197776643308543
 21
122.22440184740105
  0
LINE
  8
_0-0_図面枠
  6
CONTINUOUS
 62
    7
 10
-23.644381027158488
 20
126.31923255200104
 11
-23.644381027158488
 21
125.70682694310108
  0
LINE
  8
_0-0_図面枠
  6
CONTINUOUS
 62
    7
 10
-27.710245019008539
 20
123.35965362160107
 11
-23.644381027158488
 21
125.70682694310108
  0
LINE
  8
_0-0_図面枠
  6
CONTINUOUS
 62
    7
 10
-23.644381027158488
 20
125.70682694310108
 11
-19.578517035358516
 21
123.35965362160107
  0
LINE
  8
_0-0_図面枠
  6
CONTINUOUS
 62
    7
 10
-29.654788667258515
 20
129.78896702725103
 11
-29.654788667258515
 21
129.17656141835107
  0
LINE
  8
_0-0_図面枠
  6
CONTINUOUS
 62
    7
 10
-29.654788667258515
 20
129.17656141835107
 11
-25.589010876008501
 21
126.82943785940108
  0
LINE
  8
_0-0_図面枠
  6
CONTINUOUS
 62
    7
 10
-17.633973387058518
 20
129.78896702725103
 11
-17.633973387058518
 21
129.17656141835107
  0
LINE
  8
_0-0_図面枠
  6
CONTINUOUS
 62
    7
 10
-21.699751178358497
 20
126.82943785940108
 11
-17.633973387058518
 21
129.17656141835107
  0
LINE
  8
_0-0_図面枠
  6
CONTINUOUS
 62
    7
 10
-17.103643301208535
 20
129.48281398535107
 11
-17.103643301208535
 21
128.87040837640103
  0
LINE
  8
_0-0_図面枠
  6
CONTINUOUS
 62
    7
 10
-17.633973387058518
 20
129.17656141835107
 11
-17.103643301208535
 21
128.87040837640103
  0
LINE
  8
_0-0_図面枠
  6
CONTINUOUS
 62
    7
 10
-16.197776643308543
 20
131.43447387140105
 11
-16.197776643308543
 21
130.82206826250103
  0
LINE
  8
_0-0_図面枠
  6
CONTINUOUS
 62
    7
 10
-17.103643301208535
 20
128.87040837640103
 11
-16.197776643308543
 21
130.82206826250103
  0
LINE
  8
_0-0_図面枠
  6
CONTINUOUS
 62
    7
 10
-30.18511875315852
 20
129.48281398535107
 11
-30.18511875315852
 21
128.87040837640103
  0
LINE
  8
_0-0_図面枠
  6
CONTINUOUS
 62
    7
 10
-30.18511875315852
 20
128.87040837640103
 11
-29.654788667258515
 21
129.17656141835107
  0
LINE
  8
_0-0_図面枠
  6
CONTINUOUS
 62
    7
 10
-31.090985411008546
 20
131.43447387140105
 11
-31.090985411008546
 21
130.82206826250103
  0
LINE
  8
_0-0_図面枠
  6
CONTINUOUS
 62
    7
 10
-31.090985411008546
 20
130.82206826250103
 11
-30.18511875315852
 21
128.87040837640103
  0
LINE
  8
_0-0_図面枠
  6
CONTINUOUS
 62
    7
 10
-19.578517035358516
 20
130.91152818105104
 11
-19.578517035358516
 21
130.29922209715107
  0
LINE
  8
_0-0_図面枠
  6
CONTINUOUS
 62
    7
 10
-27.710245019008539
 20
130.91152818105104
 11
-27.710245019008539
 21
130.29922209715107
  0
LINE
  8
ADD_LINE
  6
DOT
 62
    4
 10
-31.090985411008546
 20
131.43447387140105
 11
-16.198180070863032
 21
122.83610869927935
  0
LINE
  8
ADD_LINE
  6
DOT
 62
    4
 10
-16.197776643308543
 20
131.43447387140105
 11
-31.090581983453944
 21
122.83610869927935
  0
ENDBLK
  0
BLOCK
  2
-035-_34_
 70
   64
 10
0
 20
0
 30
0
  0
LINE
  8
_0-0_図面枠
  6
CONTINUOUS
 62
    7
 10
181.88186991188218
 20
125.54988384232564
 11
181.35153982603214
 21
125.24373080037566
  0
LINE
  8
_0-0_図面枠
  6
CONTINUOUS
 62
    7
 10
182.78773656978217
 20
123.5982239562756
 11
181.88186991188218
 21
125.54988384232564
  0
LINE
  8
_0-0_図面枠
  6
CONTINUOUS
 62
    7
 10
179.4069961777322
 20
124.12116964662562
 11
182.78773656978217
 21
123.5982239562756
  0
LINE
  8
_0-0_図面枠
  6
CONTINUOUS
 62
    7
 10
179.9373262636322
 20
124.42732268857566
 11
179.4069961777322
 21
124.12116964662562
  0
LINE
  8
_0-0_図面枠
  6
CONTINUOUS
 62
    7
 10
175.34113218593217
 20
127.08064905197563
 11
179.9373262636322
 21
124.42732268857566
  0
LINE
  8
_0-0_図面枠
  6
CONTINUOUS
 62
    7
 10
170.74493810823213
 20
124.42732268857566
 11
175.34113218593217
 21
127.08064905197563
  0
LINE
  8
_0-0_図面枠
  6
CONTINUOUS
 62
    7
 10
171.27526819408217
 20
124.12116964662562
 11
170.74493810823213
 21
124.42732268857566
  0
LINE
  8
_0-0_図面枠
  6
CONTINUOUS
 62
    7
 10
167.89452780208217
 20
123.5982239562756
 11
171.27526819408217
 21
124.12116964662562
  0
LINE
  8
_0-0_図面枠
  6
CONTINUOUS
 62
    7
 10
168.80039445993219
 20
125.54988384232564
 11
167.89452780208217
 21
123.5982239562756
  0
LINE
  8
_0-0_図面枠
  6
CONTINUOUS
 62
    7
 10
169.3307245458322
 20
125.24373080037566
 11
168.80039445993219
 21
125.54988384232564
  0
LINE
  8
_0-0_図面枠
  6
CONTINUOUS
 62
    7
 10
173.92691862353217
 20
127.89705716382565
 11
169.3307245458322
 21
125.24373080037566
  0
LINE
  8
_0-0_図面枠
  6
CONTINUOUS
 62
    7
 10
169.3307245458322
 20
130.55038352722562
 11
173.92691862353217
 21
127.89705716382565
  0
LINE
  8
_0-0_図面枠
  6
CONTINUOUS
 62
    7
 10
168.80039445993219
 20
130.24423048532566
 11
169.3307245458322
 21
130.55038352722562
  0
LINE
  8
_0-0_図面枠
  6
CONTINUOUS
 62
    7
 10
167.89452780208217
 20
132.19589037137564
 11
168.80039445993219
 21
130.24423048532566
  0
LINE
  8
_0-0_図面枠
  6
CONTINUOUS
 62
    7
 10
171.27526819408217
 20
131.67294468102563
 11
167.89452780208217
 21
132.19589037137564
  0
LINE
  8
_0-0_図面枠
  6
CONTINUOUS
 62
    7
 10
170.74493810823213
 20
131.36679163907564
 11
171.27526819408217
 21
131.67294468102563
  0
LINE
  8
_0-0_図面枠
  6
CONTINUOUS
 62
    7
 10
175.34113218593217
 20
128.71346527562565
 11
170.74493810823213
 21
131.36679163907564
  0
LINE
  8
_0-0_図面枠
  6
CONTINUOUS
 62
    7
 10
179.9373262636322
 20
131.36679163907564
 11
175.34113218593217
 21
128.71346527562565
  0
LINE
  8
_0-0_図面枠
  6
CONTINUOUS
 62
    7
 10
179.4069961777322
 20
131.67294468102563
 11
179.9373262636322
 21
131.36679163907564
  0
LINE
  8
_0-0_図面枠
  6
CONTINUOUS
 62
    7
 10
182.78773656978217
 20
132.19589037137564
 11
179.4069961777322
 21
131.67294468102563
  0
LINE
  8
_0-0_図面枠
  6
CONTINUOUS
 62
    7
 10
181.88186991188218
 20
130.24423048532566
 11
182.78773656978217
 21
132.19589037137564
  0
LINE
  8
_0-0_図面枠
  6
CONTINUOUS
 62
    7
 10
181.35153982603214
 20
130.55038352722562
 11
181.88186991188218
 21
130.24423048532566
  0
LINE
  8
_0-0_図面枠
  6
CONTINUOUS
 62
    7
 10
176.7553457482822
 20
127.89705716382565
 11
181.35153982603214
 21
130.55038352722562
  0
LINE
  8
_0-0_図面枠
  6
CONTINUOUS
 62
    7
 10
181.35153982603214
 20
125.24373080037566
 11
176.7553457482822
 21
127.89705716382565
  0
LINE
  8
_0-0_図面枠
  6
CONTINUOUS
 62
    7
 10
167.89452780208217
 20
123.5982239562756
 11
167.89452780208217
 21
122.98581834737564
  0
LINE
  8
_0-0_図面枠
  6
CONTINUOUS
 62
    7
 10
171.27526819408217
 20
124.12116964662562
 11
171.27526819408217
 21
123.50876403772565
  0
LINE
  8
_0-0_図面枠
  6
CONTINUOUS
 62
    7
 10
167.89452780208217
 20
122.98581834737564
 11
171.27526819408217
 21
123.50876403772565
  0
LINE
  8
_0-0_図面枠
  6
CONTINUOUS
 62
    7
 10
179.4069961777322
 20
124.12116964662562
 11
179.4069961777322
 21
123.50876403772565
  0
LINE
  8
_0-0_図面枠
  6
CONTINUOUS
 62
    7
 10
182.78773656978217
 20
123.5982239562756
 11
182.78773656978217
 21
122.98581834737564
  0
LINE
  8
_0-0_図面枠
  6
CONTINUOUS
 62
    7
 10
179.4069961777322
 20
123.50876403772565
 11
182.78773656978217
 21
122.98581834737564
  0
LINE
  8
_0-0_図面枠
  6
CONTINUOUS
 62
    7
 10
175.34113218593217
 20
127.08064905197563
 11
175.34113218593217
 21
126.46824344307566
  0
LINE
  8
_0-0_図面枠
  6
CONTINUOUS
 62
    7
 10
171.27526819408217
 20
124.12107012157566
 11
175.34113218593217
 21
126.46824344307566
  0
LINE
  8
_0-0_図面枠
  6
CONTINUOUS
 62
    7
 10
175.34113218593217
 20
126.46824344307566
 11
179.4069961777322
 21
124.12107012157566
  0
LINE
  8
_0-0_図面枠
  6
CONTINUOUS
 62
    7
 10
169.3307245458322
 20
130.55038352722562
 11
169.3307245458322
 21
129.93797791832566
  0
LINE
  8
_0-0_図面枠
  6
CONTINUOUS
 62
    7
 10
169.3307245458322
 20
129.93797791832566
 11
173.39650233708215
 21
127.59085435937567
  0
LINE
  8
_0-0_図面枠
  6
CONTINUOUS
 62
    7
 10
181.35153982603214
 20
130.55038352722562
 11
181.35153982603214
 21
129.93797791832566
  0
LINE
  8
_0-0_図面枠
  6
CONTINUOUS
 62
    7
 10
177.28576203473216
 20
127.59085435937567
 11
181.35153982603214
 21
129.93797791832566
  0
LINE
  8
_0-0_図面枠
  6
CONTINUOUS
 62
    7
 10
181.88186991188218
 20
130.24423048532566
 11
181.88186991188218
 21
129.63182487637562
  0
LINE
  8
_0-0_図面枠
  6
CONTINUOUS
 62
    7
 10
181.35153982603214
 20
129.93797791832566
 11
181.88186991188218
 21
129.63182487637562
  0
LINE
  8
_0-0_図面枠
  6
CONTINUOUS
 62
    7
 10
182.78773656978217
 20
132.19589037137564
 11
182.78773656978217
 21
131.58348476247562
  0
LINE
  8
_0-0_図面枠
  6
CONTINUOUS
 62
    7
 10
181.88186991188218
 20
129.63182487637562
 11
182.78773656978217
 21
131.58348476247562
  0
LINE
  8
_0-0_図面枠
  6
CONTINUOUS
 62
    7
 10
168.80039445993219
 20
130.24423048532566
 11
168.80039445993219
 21
129.63182487637562
  0
LINE
  8
_0-0_図面枠
  6
CONTINUOUS
 62
    7
 10
168.80039445993219
 20
129.63182487637562
 11
169.3307245458322
 21
129.93797791832566
  0
LINE
  8
_0-0_図面枠
  6
CONTINUOUS
 62
    7
 10
167.89452780208217
 20
132.19589037137564
 11
167.89452780208217
 21
131.58348476247562
  0
LINE
  8
_0-0_図面枠
  6
CONTINUOUS
 62
    7
 10
167.89452780208217
 20
131.58348476247562
 11
168.80039445993219
 21
129.63182487637562
  0
LINE
  8
_0-0_図面枠
  6
CONTINUOUS
 62
    7
 10
179.4069961777322
 20
131.67294468102563
 11
179.4069961777322
 21
131.06063859712566
  0
LINE
  8
_0-0_図面枠
  6
CONTINUOUS
 62
    7
 10
171.27526819408217
 20
131.67294468102563
 11
171.27526819408217
 21
131.06063859712566
  0
LINE
  8
ADD_LINE
  6
DOT
 62
    4
 10
167.89452780208217
 20
132.19589037137564
 11
182.78733314222762
 21
123.59752519925394
  0
LINE
  8
ADD_LINE
  6
DOT
 62
    4
 10
182.78773656978217
 20
132.19589037137564
 11
167.89493122963671
 21
123.59752519925394
  0
ENDBLK
  0
ENDSEC
  0
SECTION
  2
ENTITIES
  0
LINE
  8
_0-0_図面枠
  6
CONTINUOUS
 62
    6
 10
410.00000000000006
 20
287
 11
10
 21
287.00000000000006
  0
LINE
  8
_0-0_図面枠
  6
CONTINUOUS
 62
    6
 10
410
 20
9.9999999999998863
 11
410.00000000000006
 21
287
  0
LINE
  8
_0-0_図面枠
  6
CONTINUOUS
 62
    6
 10
9.9999999999999147
 20
10
 11
410
 21
9.9999999999998863
  0
LINE
  8
_0-0_図面枠
  6
CONTINUOUS
 62
    6
 10
10
 20
287.00000000000006
 11
9.9999999999999147
 21
10
  0
LINE
  8
ADD_LINE
  6
DOT
 62
    4
 10
0
 20
148.5
 11
420
 21
148.5
  0
LINE
  8
_0-0_図面枠
  6
CONTINUOUS
 62
    6
 10
210
 20
287
 11
210.00000000000003
 21
9.9999999999999432
  0
TEXT
  8
_0-f_
 62
    4
 10
20
 20
280
 40
3.2000000000000002
 41
1
 50
0
  1
（アルミ１５０タイプ）
  0
TEXT
  8
_0-f_
 62
    4
 10
220
 20
280
 40
3.2000000000000002
 41
1
 50
0
  1
（アルミ１５０タイプ）
  0
TEXT
  8
_0-f_
 62
    4
 10
30
 20
270
 40
3.2000000000000002
 41
1
 50
0
  1
◇内壁＋内壁（１５０ＫＫＧ－Ａ）　Ｓ＝１／３
  0
TEXT
  8
_0-f_
 62
    4
 10
230
 20
270
 40
3.2000000000000002
 41
1
 50
0
  1
◇内壁＋内壁コーナー（１５０ＫＣＧ－Ａ）　Ｓ＝１／３
  0
TEXT
  8
_0-0_図面枠
 62
    4
 10
41.666666666666686
 20
128
 40
3
 41
1
 50
0
  1
（落下防止ワイヤー）
  0
INSERT
  2
-000-
  8
_1-8_小物
 10
210
 20
148.5
 41
1
 42
1
 50
0
  0
LINE
  8
_1-8_小物
  6
CONTINUOUS
 62
    4
 10
157.03985321657842
 20
131.84018902839435
 11
151.17656837665947
 21
130.18752043233465
  0
LINE
  8
_1-8_小物
  6
CONTINUOUS
 62
    4
 10
157.16066740562403
 20
131.35707331101597
 11
151.24647145802518
 21
129.68796469593613
  0
LINE
  8
_1-8_小物
  6
CONTINUOUS
 62
    4
 10
157.03985321657842
 20
127.15981097160562
 11
151.17656837665947
 21
128.81247956766532
  0
LINE
  8
_1-8_小物
  6
CONTINUOUS
 62
    4
 10
157.16066740562403
 20
127.64292668898401
 11
151.24647145802518
 21
129.31203530406384
  0
LINE
  8
_1-8_小物
  6
CONTINUOUS
 62
    4
 10
157.1606675134222
 20
127.64292665856117
 11
157.1606675134222
 21
127.64292665856117
  0
LINE
  8
_1-8_小物
  6
CONTINUOUS
 62
    4
 10
157.1606675134222
 20
127.64292665856117
 11
157.6334904430544
 21
127.54220923628057
  0
LINE
  8
_1-8_小物
  6
CONTINUOUS
 62
    4
 10
157.6334904430544
 20
127.54220923628057
 11
158.1239067754791
 21
127.50097829566566
  0
LINE
  8
_1-8_小物
  6
CONTINUOUS
 62
    4
 10
158.1239067754791
 20
127.50097829566566
 11
158.61701545859825
 21
127.52048661798315
  0
LINE
  8
_1-8_小物
  6
CONTINUOUS
 62
    4
 10
158.61701545859825
 20
127.52048661798315
 11
159.09783363460025
 21
127.60014145273114
  0
LINE
  8
_1-8_小物
  6
CONTINUOUS
 62
    4
 10
159.09783363460025
 20
127.60014145273114
 11
159.55175188651307
 21
127.73752252806307
  0
LINE
  8
_1-8_小物
  6
CONTINUOUS
 62
    4
 10
159.55175188651307
 20
127.73752252806307
 11
159.96497813794605
 21
127.92845558952315
  0
LINE
  8
_1-8_小物
  6
CONTINUOUS
 62
    4
 10
159.96497813794605
 20
127.92845558952315
 11
160.32495671835193
 21
128.16713923265576
  0
LINE
  8
_1-8_小物
  6
CONTINUOUS
 62
    4
 10
160.32495671835193
 20
128.16713923265576
 11
160.62074986072309
 21
128.446321175744
  0
LINE
  8
_1-8_小物
  6
CONTINUOUS
 62
    4
 10
160.62074986072309
 20
128.446321175744
 11
160.84337004010709
 21
128.75751861672009
  0
LINE
  8
_1-8_小物
  6
CONTINUOUS
 62
    4
 10
160.84337004010709
 20
128.75751861672009
 11
160.98605305500459
 21
129.0912759788134
  0
LINE
  8
_1-8_小物
  6
CONTINUOUS
 62
    4
 10
160.98605305500459
 20
129.0912759788134
 11
161.04446355420905
 21
129.43745221346614
  0
LINE
  8
_1-8_小物
  6
CONTINUOUS
 62
    4
 10
161.04446355420905
 20
129.43745221346614
 11
161.01682676425926
 21
129.78552893096199
  0
LINE
  8
_1-8_小物
  6
CONTINUOUS
 62
    4
 10
161.01682676425926
 20
129.78552893096199
 11
160.90398241503294
 21
130.12492999637519
  0
LINE
  8
_1-8_小物
  6
CONTINUOUS
 62
    4
 10
160.90398241503294
 20
130.12492999637519
 11
160.70935922497938
 21
130.44534288007836
  0
LINE
  8
_1-8_小物
  6
CONTINUOUS
 62
    4
 10
160.70935922497938
 20
130.44534288007836
 11
160.43887072124426
 21
130.73703199873694
  0
LINE
  8
_1-8_小物
  6
CONTINUOUS
 62
    4
 10
160.43887072124426
 20
130.73703199873694
 11
160.10073556013975
 21
130.99113452608228
  0
LINE
  8
_1-8_小物
  6
CONTINUOUS
 62
    4
 10
160.10073556013975
 20
130.99113452608228
 11
159.70522780743138
 21
131.19992968540308
  0
LINE
  8
_1-8_小物
  6
CONTINUOUS
 62
    4
 10
159.70522780743138
 20
131.19992968540308
 11
159.26436476604863
 21
131.35707334143885
  0
LINE
  8
_1-8_小物
  6
CONTINUOUS
 62
    4
 10
159.26436476604863
 20
131.35707334143885
 11
158.79154183641643
 21
131.45779076371943
  0
LINE
  8
_1-8_小物
  6
CONTINUOUS
 62
    4
 10
158.79154183641643
 20
131.45779076371943
 11
158.30112550399173
 21
131.49902170433435
  0
LINE
  8
_1-8_小物
  6
CONTINUOUS
 62
    4
 10
158.30112550399173
 20
131.49902170433435
 11
157.80801682087258
 21
131.47951338201685
  0
LINE
  8
_1-8_小物
  6
CONTINUOUS
 62
    4
 10
157.80801682087258
 20
131.47951338201685
 11
157.32719864487058
 21
131.39985854726888
  0
LINE
  8
_1-8_小物
  6
CONTINUOUS
 62
    4
 10
157.32719864487058
 20
131.39985854726888
 11
157.160667405624
 21
131.35707331101594
  0
LINE
  8
_1-8_小物
  6
CONTINUOUS
 62
    4
 10
157.039853303781
 20
127.15981094702609
 11
157.039853303781
 21
127.15981094702609
  0
LINE
  8
_1-8_小物
  6
CONTINUOUS
 62
    4
 10
157.039853303781
 20
127.15981094702609
 11
157.5994947731449
 21
127.04264060375607
  0
LINE
  8
_1-8_小物
  6
CONTINUOUS
 62
    4
 10
157.5994947731449
 20
127.04264060375607
 11
158.1777625865289
 21
127.00013588225708
  0
LINE
  8
_1-8_小物
  6
CONTINUOUS
 62
    4
 10
158.1777625865289
 20
127.00013588225708
 11
158.75708636904091
 21
127.03358826698343
  0
LINE
  8
_1-8_小物
  6
CONTINUOUS
 62
    4
 10
158.75708636904091
 20
127.03358826698343
 11
159.31986366070132
 21
127.14198132415292
  0
LINE
  8
_1-8_小物
  6
CONTINUOUS
 62
    4
 10
159.31986366070132
 20
127.14198132415292
 11
159.84899475828206
 21
127.32202158557301
  0
LINE
  8
_1-8_小物
  6
CONTINUOUS
 62
    4
 10
159.84899475828206
 20
127.32202158557301
 11
160.32840228113639
 21
127.56823861900521
  0
LINE
  8
_1-8_小物
  6
CONTINUOUS
 62
    4
 10
160.32840228113639
 20
127.56823861900521
 11
160.74351967427432
 21
127.87315124448051
  0
LINE
  8
_1-8_小物
  6
CONTINUOUS
 62
    4
 10
160.74351967427432
 20
127.87315124448051
 11
161.08173380576486
 21
128.22749484616708
  0
LINE
  8
_1-8_小物
  6
CONTINUOUS
 62
    4
 10
161.08173380576486
 20
128.22749484616708
 11
161.33276821036728
 21
128.62050287303418
  0
LINE
  8
_1-8_小物
  6
CONTINUOUS
 62
    4
 10
161.33276821036728
 20
128.62050287303418
 11
161.48899533472729
 21
129.04023397505711
  0
LINE
  8
_1-8_小物
  6
CONTINUOUS
 62
    4
 10
161.48899533472729
 20
129.04023397505711
 11
161.54566829672595
 21
129.47393483509512
  0
LINE
  8
_1-8_小物
  6
CONTINUOUS
 62
    4
 10
161.54566829672595
 20
129.47393483509512
 11
161.5010651170908
 21
129.90842767197913
  0
LINE
  8
_1-8_小物
  6
CONTINUOUS
 62
    4
 10
161.5010651170908
 20
129.90842767197913
 11
161.35654104086481
 21
130.33051064072444
  0
LINE
  8
_1-8_小物
  6
CONTINUOUS
 62
    4
 10
161.35654104086481
 20
130.33051064072444
 11
161.11648735897137
 21
130.72735896391001
  0
LINE
  8
_1-8_小物
  6
CONTINUOUS
 62
    4
 10
161.11648735897137
 20
130.72735896391001
 11
160.78819798106178
 21
131.08691460605075
  0
LINE
  8
_1-8_小物
  6
CONTINUOUS
 62
    4
 10
160.78819798106178
 20
131.08691460605075
 11
160.38164781376139
 21
131.3982526509042
  0
LINE
  8
_1-8_小物
  6
CONTINUOUS
 62
    4
 10
160.38164781376139
 20
131.3982526509042
 11
159.9091896781793
 21
131.6519132495221
  0
LINE
  8
_1-8_小物
  6
CONTINUOUS
 62
    4
 10
159.9091896781793
 20
131.6519132495221
 11
159.38517897568983
 21
131.84018905297393
  0
LINE
  8
_1-8_小物
  6
CONTINUOUS
 62
    4
 10
159.38517897568983
 20
131.84018905297393
 11
158.82553750632593
 21
131.95735939624393
  0
LINE
  8
_1-8_小物
  6
CONTINUOUS
 62
    4
 10
158.82553750632593
 20
131.95735939624393
 11
158.24726969294193
 21
131.99986411774293
  0
LINE
  8
_1-8_小物
  6
CONTINUOUS
 62
    4
 10
158.24726969294193
 20
131.99986411774293
 11
157.66794591042992
 21
131.96641173301657
  0
LINE
  8
_1-8_小物
  6
CONTINUOUS
 62
    4
 10
157.66794591042992
 20
131.96641173301657
 11
157.10516861876951
 21
131.85801867584706
  0
LINE
  8
_1-8_小物
  6
CONTINUOUS
 62
    4
 10
157.10516861876951
 20
131.85801867584706
 11
157.03985321657842
 21
131.84018902839435
  0
ARC
  8
_1-8_小物
  6
CONTINUOUS
 62
    4
 10
149.88841540894515
 20
124.49999999999997
 40
5
 50
74.23983426036601
 51
82.444482010074083
  0
ARC
  8
_1-8_小物
  6
CONTINUOUS
 62
    4
 10
149.82008748449641
 20
123.99999999999997
 40
5
 50
74.258588419679057
 51
81.653895699843488
  0
ARC
  8
_1-8_小物
  6
CONTINUOUS
 62
    4
 10
149.82008748449641
 20
135
 40
5
 50
278.34610430015653
 51
285.74141158032086
  0
ARC
  8
_1-8_小物
  6
CONTINUOUS
 62
    4
 10
149.88841540894515
 20
134.5
 40
5
 50
277.55551798992593
 51
285.76016573963392
  0
INSERT
  2
-001-_1_
  8
_1-8_小物
 10
210
 20
148.5
 41
1
 42
1
 50
0
  0
LINE
  8
_1-8_小物
  6
CONTINUOUS
 62
    4
 10
82.718512396225748
 20
131.84018902839435
 11
88.581797236144695
 21
130.18752043233465
  0
LINE
  8
_1-8_小物
  6
CONTINUOUS
 62
    4
 10
82.597698207180116
 20
131.35707331101597
 11
88.511894154779
 21
129.68796469593613
  0
LINE
  8
_1-8_小物
  6
CONTINUOUS
 62
    4
 10
82.718512396225748
 20
127.15981097160562
 11
88.581797236144695
 21
128.81247956766532
  0
LINE
  8
_1-8_小物
  6
CONTINUOUS
 62
    4
 10
82.597698207180116
 20
127.64292668898401
 11
88.511894154779
 21
129.31203530406384
  0
LINE
  8
_1-8_小物
  6
CONTINUOUS
 62
    4
 10
82.597698207180201
 20
131.35707331101594
 11
82.597698207180201
 21
131.35707331101594
  0
LINE
  8
_1-8_小物
  6
CONTINUOUS
 62
    4
 10
82.597698207180201
 20
131.35707331101594
 11
82.124875283394388
 21
131.45779074697211
  0
LINE
  8
_1-8_小物
  6
CONTINUOUS
 62
    4
 10
82.124875283394388
 20
131.45779074697211
 11
81.634458953363037
 21
131.49902170177148
  0
LINE
  8
_1-8_小物
  6
CONTINUOUS
 62
    4
 10
81.634458953363037
 20
131.49902170177148
 11
81.141350269111499
 21
131.47951339371627
  0
LINE
  8
_1-8_小物
  6
CONTINUOUS
 62
    4
 10
81.141350269111499
 20
131.47951339371627
 11
80.660532088485724
 21
131.39985857287513
  0
LINE
  8
_1-8_小物
  6
CONTINUOUS
 62
    4
 10
80.660532088485724
 20
131.39985857287513
 11
80.206613828598293
 21
131.262477510672
  0
LINE
  8
_1-8_小物
  6
CONTINUOUS
 62
    4
 10
80.206613828598293
 20
131.262477510672
 11
79.79338756608216
 21
131.07154446116377
  0
LINE
  8
_1-8_小物
  6
CONTINUOUS
 62
    4
 10
79.79338756608216
 20
131.07154446116377
 11
79.433408971821308
 21
130.8328608284429
  0
LINE
  8
_1-8_小物
  6
CONTINUOUS
 62
    4
 10
79.433408971821308
 20
130.8328608284429
 11
79.137615813244381
 21
130.55367889390996
  0
LINE
  8
_1-8_小物
  6
CONTINUOUS
 62
    4
 10
79.137615813244381
 20
130.55367889390996
 11
78.914995615796187
 21
130.24248145937278
  0
LINE
  8
_1-8_小物
  6
CONTINUOUS
 62
    4
 10
78.914995615796187
 20
130.24248145937278
 11
78.772312581524943
 21
129.90872410140634
  0
LINE
  8
_1-8_小物
  6
CONTINUOUS
 62
    4
 10
78.772312581524943
 20
129.90872410140634
 11
78.71390206222587
 21
129.56254786844303
  0
LINE
  8
_1-8_小物
  6
CONTINUOUS
 62
    4
 10
78.71390206222587
 20
129.56254786844303
 11
78.741538831970715
 21
129.2144711501478
  0
LINE
  8
_1-8_小物
  6
CONTINUOUS
 62
    4
 10
78.741538831970715
 20
129.2144711501478
 11
78.854383161495676
 21
128.8750700814708
  0
LINE
  8
_1-8_小物
  6
CONTINUOUS
 62
    4
 10
78.854383161495676
 20
128.8750700814708
 11
79.0490063329501
 21
128.55465719213848
  0
LINE
  8
_1-8_小物
  6
CONTINUOUS
 62
    4
 10
79.0490063329501
 20
128.55465719213848
 11
79.319494819753459
 21
128.26296806565651
  0
LINE
  8
_1-8_小物
  6
CONTINUOUS
 62
    4
 10
79.319494819753459
 20
128.26296806565651
 11
79.657629966107976
 21
128.0088655285312
  0
LINE
  8
_1-8_小物
  6
CONTINUOUS
 62
    4
 10
79.657629966107976
 20
128.0088655285312
 11
80.053137706696333
 21
127.80007035777102
  0
LINE
  8
_1-8_小物
  6
CONTINUOUS
 62
    4
 10
80.053137706696333
 20
127.80007035777102
 11
80.494000738957297
 21
127.64292668898406
  0
LINE
  8
_1-8_小物
  6
CONTINUOUS
 62
    4
 10
80.494000738957297
 20
127.64292668898406
 11
80.96682366274311
 21
127.54220925302788
  0
LINE
  8
_1-8_小物
  6
CONTINUOUS
 62
    4
 10
80.96682366274311
 20
127.54220925302788
 11
81.457239992774475
 21
127.50097829822853
  0
LINE
  8
_1-8_小物
  6
CONTINUOUS
 62
    4
 10
81.457239992774475
 20
127.50097829822853
 11
81.950348677026014
 21
127.52048660628371
  0
LINE
  8
_1-8_小物
  6
CONTINUOUS
 62
    4
 10
81.950348677026014
 20
127.52048660628371
 11
82.431166857651789
 21
127.60014142712487
  0
LINE
  8
_1-8_小物
  6
CONTINUOUS
 62
    4
 10
82.431166857651789
 20
127.60014142712487
 11
82.597698099381958
 21
127.64292665856115
  0
LINE
  8
_1-8_小物
  6
CONTINUOUS
 62
    4
 10
82.718512396225748
 20
131.84018902839435
 11
82.718512396225748
 21
131.84018902839435
  0
LINE
  8
_1-8_小物
  6
CONTINUOUS
 62
    4
 10
82.718512396225748
 20
131.84018902839435
 11
82.158870931227966
 21
131.9573593833947
  0
LINE
  8
_1-8_小物
  6
CONTINUOUS
 62
    4
 10
82.158870931227966
 20
131.9573593833947
 11
81.580603119427835
 21
131.99986411701445
  0
LINE
  8
_1-8_小物
  6
CONTINUOUS
 62
    4
 10
81.580603119427835
 20
131.99986411701445
 11
81.001279335669281
 21
131.96641174443101
  0
LINE
  8
_1-8_小物
  6
CONTINUOUS
 62
    4
 10
81.001279335669281
 20
131.96641174443101
 11
80.438502039969819
 21
131.8580186990576
  0
LINE
  8
_1-8_小物
  6
CONTINUOUS
 62
    4
 10
80.438502039969819
 20
131.8580186990576
 11
79.909370935680229
 21
131.67797844872834
  0
LINE
  8
_1-8_小物
  6
CONTINUOUS
 62
    4
 10
79.909370935680229
 20
131.67797844872834
 11
79.429963403651087
 21
131.43176142534475
  0
LINE
  8
_1-8_小物
  6
CONTINUOUS
 62
    4
 10
79.429963403651087
 20
131.43176142534475
 11
79.014845999151206
 21
131.12684880857049
  0
LINE
  8
_1-8_小物
  6
CONTINUOUS
 62
    4
 10
79.014845999151206
 20
131.12684880857049
 11
78.676631854456744
 21
130.77250521397306
  0
LINE
  8
_1-8_小物
  6
CONTINUOUS
 62
    4
 10
78.676631854456744
 20
130.77250521397306
 11
78.425597435209639
 21
130.37949719236775
  0
LINE
  8
_1-8_小物
  6
CONTINUOUS
 62
    4
 10
78.425597435209639
 20
130.37949719236775
 11
78.269370295209171
 21
129.95976609361941
  0
LINE
  8
_1-8_小物
  6
CONTINUOUS
 62
    4
 10
78.269370295209171
 20
129.95976609361941
 11
78.212697317049489
 21
129.52606523476931
  0
LINE
  8
_1-8_小物
  6
CONTINUOUS
 62
    4
 10
78.212697317049489
 20
129.52606523476931
 11
78.257300480494095
 21
129.0915723969504
  0
LINE
  8
_1-8_小物
  6
CONTINUOUS
 62
    4
 10
78.257300480494095
 20
129.0915723969504
 11
78.401824540991996
 21
128.66948942517578
  0
LINE
  8
_1-8_小物
  6
CONTINUOUS
 62
    4
 10
78.401824540991996
 20
128.66948942517578
 11
78.641878208097665
 21
128.27264109695858
  0
LINE
  8
_1-8_小物
  6
CONTINUOUS
 62
    4
 10
78.641878208097665
 20
128.27264109695858
 11
78.970167572609114
 21
127.91308544793674
  0
LINE
  8
_1-8_小物
  6
CONTINUOUS
 62
    4
 10
78.970167572609114
 20
127.91308544793674
 11
79.376717728308108
 21
127.60174739456183
  0
LINE
  8
_1-8_小物
  6
CONTINUOUS
 62
    4
 10
79.376717728308108
 20
127.60174739456183
 11
79.849175854438016
 21
127.34808678604097
  0
LINE
  8
_1-8_小物
  6
CONTINUOUS
 62
    4
 10
79.849175854438016
 20
127.34808678604097
 11
80.37318654991175
 21
127.15981097160564
  0
LINE
  8
_1-8_小物
  6
CONTINUOUS
 62
    4
 10
80.37318654991175
 20
127.15981097160564
 11
80.932828014909546
 21
127.04264061660528
  0
LINE
  8
_1-8_小物
  6
CONTINUOUS
 62
    4
 10
80.932828014909546
 20
127.04264061660528
 11
81.511095826709678
 21
127.00013588298553
  0
LINE
  8
_1-8_小物
  6
CONTINUOUS
 62
    4
 10
81.511095826709678
 20
127.00013588298553
 11
82.090419610468231
 21
127.03358825556899
  0
LINE
  8
_1-8_小物
  6
CONTINUOUS
 62
    4
 10
82.090419610468231
 20
127.03358825556899
 11
82.653196906167693
 21
127.1419813009424
  0
LINE
  8
_1-8_小物
  6
CONTINUOUS
 62
    4
 10
82.653196906167693
 20
127.1419813009424
 11
82.718512309023168
 21
127.15981094702607
  0
ARC
  8
_1-8_小物
  6
CONTINUOUS
 62
    4
 10
89.869950203859005
 20
124.49999999999997
 40
5
 50
97.555517989925761
 51
105.76016573963415
  0
ARC
  8
_1-8_小物
  6
CONTINUOUS
 62
    4
 10
89.938278128307758
 20
123.99999999999997
 40
5
 50
98.346104300156512
 51
105.74141158032096
  0
ARC
  8
_1-8_小物
  6
CONTINUOUS
 62
    4
 10
89.938278128307758
 20
135
 40
5
 50
254.25858841967909
 51
261.65389569984347
  0
ARC
  8
_1-8_小物
  6
CONTINUOUS
 62
    4
 10
89.869950203859005
 20
134.5
 40
5
 50
254.23983426036591
 51
262.44448201007424
  0
LINE
  8
_1-8_小物
  6
CONTINUOUS
 62
    4
 10
91.879182806402085
 20
129.24999999999997
 11
118.21251613973541
 21
129.24999999999997
  0
LINE
  8
_1-8_小物
  6
CONTINUOUS
 62
    4
 10
91.879182806402085
 20
129.75
 11
118.21251613973541
 21
129.75
  0
LINE
  8
_1-8_小物
  6
CONTINUOUS
 62
    4
 10
147.87918280640207
 20
129.24999999999997
 11
121.54584947306876
 21
129.24999999999997
  0
LINE
  8
_1-8_小物
  6
CONTINUOUS
 62
    4
 10
147.87918280640207
 20
129.75
 11
121.54584947306876
 21
129.75
  0
TEXT
  8
_0-0_図面枠
 62
    4
 10
241.66666666666663
 20
128
 40
3
 41
1
 50
0
  1
（落下防止ワイヤー）
  0
INSERT
  2
-002-_2_
  8
_1-8_小物
 10
210
 20
148.5
 41
1
 42
1
 50
0
  0
LINE
  8
_1-8_小物
  6
CONTINUOUS
 62
    4
 10
357.03985321657842
 20
131.84018902839435
 11
351.17656837665947
 21
130.18752043233465
  0
LINE
  8
_1-8_小物
  6
CONTINUOUS
 62
    4
 10
357.16066740562405
 20
131.35707331101597
 11
351.24647145802516
 21
129.68796469593613
  0
LINE
  8
_1-8_小物
  6
CONTINUOUS
 62
    4
 10
357.03985321657842
 20
127.15981097160562
 11
351.17656837665947
 21
128.81247956766532
  0
LINE
  8
_1-8_小物
  6
CONTINUOUS
 62
    4
 10
357.16066740562405
 20
127.64292668898401
 11
351.24647145802516
 21
129.31203530406384
  0
LINE
  8
_1-8_小物
  6
CONTINUOUS
 62
    4
 10
357.1606675134222
 20
127.64292665856115
 11
357.1606675134222
 21
127.64292665856115
  0
LINE
  8
_1-8_小物
  6
CONTINUOUS
 62
    4
 10
357.1606675134222
 20
127.64292665856115
 11
357.63349044305437
 21
127.54220923628056
  0
LINE
  8
_1-8_小物
  6
CONTINUOUS
 62
    4
 10
357.63349044305437
 20
127.54220923628056
 11
358.1239067754791
 21
127.50097829566566
  0
LINE
  8
_1-8_小物
  6
CONTINUOUS
 62
    4
 10
358.1239067754791
 20
127.50097829566566
 11
358.61701545859825
 21
127.52048661798315
  0
LINE
  8
_1-8_小物
  6
CONTINUOUS
 62
    4
 10
358.61701545859825
 20
127.52048661798315
 11
359.09783363460025
 21
127.60014145273114
  0
LINE
  8
_1-8_小物
  6
CONTINUOUS
 62
    4
 10
359.09783363460025
 20
127.60014145273114
 11
359.55175188651305
 21
127.73752252806307
  0
LINE
  8
_1-8_小物
  6
CONTINUOUS
 62
    4
 10
359.55175188651305
 20
127.73752252806307
 11
359.96497813794605
 21
127.92845558952317
  0
LINE
  8
_1-8_小物
  6
CONTINUOUS
 62
    4
 10
359.96497813794605
 20
127.92845558952317
 11
360.32495671835193
 21
128.16713923265576
  0
LINE
  8
_1-8_小物
  6
CONTINUOUS
 62
    4
 10
360.32495671835193
 20
128.16713923265576
 11
360.62074986072309
 21
128.44632117574403
  0
LINE
  8
_1-8_小物
  6
CONTINUOUS
 62
    4
 10
360.62074986072309
 20
128.44632117574403
 11
360.84337004010706
 21
128.75751861672009
  0
LINE
  8
_1-8_小物
  6
CONTINUOUS
 62
    4
 10
360.84337004010706
 20
128.75751861672009
 11
360.98605305500456
 21
129.09127597881343
  0
LINE
  8
_1-8_小物
  6
CONTINUOUS
 62
    4
 10
360.98605305500456
 20
129.09127597881343
 11
361.04446355420902
 21
129.43745221346614
  0
LINE
  8
_1-8_小物
  6
CONTINUOUS
 62
    4
 10
361.04446355420902
 20
129.43745221346614
 11
361.01682676425924
 21
129.78552893096202
  0
LINE
  8
_1-8_小物
  6
CONTINUOUS
 62
    4
 10
361.01682676425924
 20
129.78552893096202
 11
360.90398241503294
 21
130.12492999637522
  0
LINE
  8
_1-8_小物
  6
CONTINUOUS
 62
    4
 10
360.90398241503294
 20
130.12492999637522
 11
360.70935922497932
 21
130.44534288007839
  0
LINE
  8
_1-8_小物
  6
CONTINUOUS
 62
    4
 10
360.70935922497932
 20
130.44534288007839
 11
360.4388707212442
 21
130.73703199873694
  0
LINE
  8
_1-8_小物
  6
CONTINUOUS
 62
    4
 10
360.4388707212442
 20
130.73703199873694
 11
360.1007355601397
 21
130.99113452608228
  0
LINE
  8
_1-8_小物
  6
CONTINUOUS
 62
    4
 10
360.1007355601397
 20
130.99113452608228
 11
359.70522780743136
 21
131.19992968540308
  0
LINE
  8
_1-8_小物
  6
CONTINUOUS
 62
    4
 10
359.70522780743136
 20
131.19992968540308
 11
359.26436476604857
 21
131.35707334143885
  0
LINE
  8
_1-8_小物
  6
CONTINUOUS
 62
    4
 10
359.26436476604857
 20
131.35707334143885
 11
358.7915418364164
 21
131.45779076371943
  0
LINE
  8
_1-8_小物
  6
CONTINUOUS
 62
    4
 10
358.7915418364164
 20
131.45779076371943
 11
358.30112550399167
 21
131.49902170433435
  0
LINE
  8
_1-8_小物
  6
CONTINUOUS
 62
    4
 10
358.30112550399167
 20
131.49902170433435
 11
357.80801682087252
 21
131.47951338201685
  0
LINE
  8
_1-8_小物
  6
CONTINUOUS
 62
    4
 10
357.80801682087252
 20
131.47951338201685
 11
357.32719864487052
 21
131.39985854726888
  0
LINE
  8
_1-8_小物
  6
CONTINUOUS
 62
    4
 10
357.32719864487052
 20
131.39985854726888
 11
357.16066740562394
 21
131.35707331101594
  0
LINE
  8
_1-8_小物
  6
CONTINUOUS
 62
    4
 10
357.039853303781
 20
127.15981094702607
 11
357.039853303781
 21
127.15981094702607
  0
LINE
  8
_1-8_小物
  6
CONTINUOUS
 62
    4
 10
357.039853303781
 20
127.15981094702607
 11
357.5994947731449
 21
127.04264060375607
  0
LINE
  8
_1-8_小物
  6
CONTINUOUS
 62
    4
 10
357.5994947731449
 20
127.04264060375607
 11
358.1777625865289
 21
127.00013588225708
  0
LINE
  8
_1-8_小物
  6
CONTINUOUS
 62
    4
 10
358.1777625865289
 20
127.00013588225708
 11
358.75708636904091
 21
127.03358826698343
  0
LINE
  8
_1-8_小物
  6
CONTINUOUS
 62
    4
 10
358.75708636904091
 20
127.03358826698343
 11
359.31986366070134
 21
127.14198132415294
  0
LINE
  8
_1-8_小物
  6
CONTINUOUS
 62
    4
 10
359.31986366070134
 20
127.14198132415294
 11
359.84899475828206
 21
127.32202158557303
  0
LINE
  8
_1-8_小物
  6
CONTINUOUS
 62
    4
 10
359.84899475828206
 20
127.32202158557303
 11
360.32840228113639
 21
127.56823861900523
  0
LINE
  8
_1-8_小物
  6
CONTINUOUS
 62
    4
 10
360.32840228113639
 20
127.56823861900523
 11
360.7435196742743
 21
127.87315124448052
  0
LINE
  8
_1-8_小物
  6
CONTINUOUS
 62
    4
 10
360.7435196742743
 20
127.87315124448052
 11
361.08173380576483
 21
128.2274948461671
  0
LINE
  8
_1-8_小物
  6
CONTINUOUS
 62
    4
 10
361.08173380576483
 20
128.2274948461671
 11
361.33276821036725
 21
128.62050287303421
  0
LINE
  8
_1-8_小物
  6
CONTINUOUS
 62
    4
 10
361.33276821036725
 20
128.62050287303421
 11
361.48899533472729
 21
129.04023397505713
  0
LINE
  8
_1-8_小物
  6
CONTINUOUS
 62
    4
 10
361.48899533472729
 20
129.04023397505713
 11
361.54566829672592
 21
129.47393483509512
  0
LINE
  8
_1-8_小物
  6
CONTINUOUS
 62
    4
 10
361.54566829672592
 20
129.47393483509512
 11
361.50106511709077
 21
129.90842767197915
  0
LINE
  8
_1-8_小物
  6
CONTINUOUS
 62
    4
 10
361.50106511709077
 20
129.90842767197915
 11
361.35654104086478
 21
130.33051064072447
  0
LINE
  8
_1-8_小物
  6
CONTINUOUS
 62
    4
 10
361.35654104086478
 20
130.33051064072447
 11
361.11648735897131
 21
130.72735896391001
  0
LINE
  8
_1-8_小物
  6
CONTINUOUS
 62
    4
 10
361.11648735897131
 20
130.72735896391001
 11
360.78819798106173
 21
131.08691460605075
  0
LINE
  8
_1-8_小物
  6
CONTINUOUS
 62
    4
 10
360.78819798106173
 20
131.08691460605075
 11
360.38164781376133
 21
131.3982526509042
  0
LINE
  8
_1-8_小物
  6
CONTINUOUS
 62
    4
 10
360.38164781376133
 20
131.3982526509042
 11
359.90918967817925
 21
131.6519132495221
  0
LINE
  8
_1-8_小物
  6
CONTINUOUS
 62
    4
 10
359.90918967817925
 20
131.6519132495221
 11
359.38517897568977
 21
131.84018905297393
  0
LINE
  8
_1-8_小物
  6
CONTINUOUS
 62
    4
 10
359.38517897568977
 20
131.84018905297393
 11
358.82553750632587
 21
131.95735939624393
  0
LINE
  8
_1-8_小物
  6
CONTINUOUS
 62
    4
 10
358.82553750632587
 20
131.95735939624393
 11
358.24726969294187
 21
131.99986411774293
  0
LINE
  8
_1-8_小物
  6
CONTINUOUS
 62
    4
 10
358.24726969294187
 20
131.99986411774293
 11
357.66794591042986
 21
131.96641173301657
  0
LINE
  8
_1-8_小物
  6
CONTINUOUS
 62
    4
 10
357.66794591042986
 20
131.96641173301657
 11
357.10516861876948
 21
131.85801867584706
  0
LINE
  8
_1-8_小物
  6
CONTINUOUS
 62
    4
 10
357.10516861876948
 20
131.85801867584706
 11
357.03985321657842
 21
131.84018902839438
  0
ARC
  8
_1-8_小物
  6
CONTINUOUS
 62
    4
 10
349.88841540894515
 20
124.49999999999997
 40
5
 50
74.239834260366322
 51
82.444482010074083
  0
ARC
  8
_1-8_小物
  6
CONTINUOUS
 62
    4
 10
349.82008748449636
 20
123.99999999999997
 40
5
 50
74.258588419678418
 51
81.653895699842849
  0
ARC
  8
_1-8_小物
  6
CONTINUOUS
 62
    4
 10
349.82008748449636
 20
135
 40
5
 50
278.34610430015715
 51
285.7414115803216
  0
ARC
  8
_1-8_小物
  6
CONTINUOUS
 62
    4
 10
349.88841540894515
 20
134.5
 40
5
 50
277.55551798992593
 51
285.76016573963363
  0
INSERT
  2
-003-_3_
  8
_1-8_小物
 10
210
 20
148.5
 41
1
 42
1
 50
0
  0
LINE
  8
_1-8_小物
  6
CONTINUOUS
 62
    4
 10
282.71851239622572
 20
131.84018902839435
 11
288.58179723614467
 21
130.18752043233465
  0
LINE
  8
_1-8_小物
  6
CONTINUOUS
 62
    4
 10
282.59769820718009
 20
131.35707331101597
 11
288.51189415477899
 21
129.68796469593613
  0
LINE
  8
_1-8_小物
  6
CONTINUOUS
 62
    4
 10
282.71851239622572
 20
127.15981097160562
 11
288.58179723614467
 21
128.81247956766532
  0
LINE
  8
_1-8_小物
  6
CONTINUOUS
 62
    4
 10
282.59769820718009
 20
127.64292668898401
 11
288.51189415477899
 21
129.31203530406384
  0
LINE
  8
_1-8_小物
  6
CONTINUOUS
 62
    4
 10
282.5976982071802
 20
131.35707331101594
 11
282.5976982071802
 21
131.35707331101594
  0
LINE
  8
_1-8_小物
  6
CONTINUOUS
 62
    4
 10
282.5976982071802
 20
131.35707331101594
 11
282.12487528339437
 21
131.45779074697211
  0
LINE
  8
_1-8_小物
  6
CONTINUOUS
 62
    4
 10
282.12487528339437
 20
131.45779074697211
 11
281.63445895336304
 21
131.49902170177148
  0
LINE
  8
_1-8_小物
  6
CONTINUOUS
 62
    4
 10
281.63445895336304
 20
131.49902170177148
 11
281.14135026911151
 21
131.47951339371627
  0
LINE
  8
_1-8_小物
  6
CONTINUOUS
 62
    4
 10
281.14135026911151
 20
131.47951339371627
 11
280.6605320884857
 21
131.39985857287513
  0
LINE
  8
_1-8_小物
  6
CONTINUOUS
 62
    4
 10
280.6605320884857
 20
131.39985857287513
 11
280.20661382859828
 21
131.262477510672
  0
LINE
  8
_1-8_小物
  6
CONTINUOUS
 62
    4
 10
280.20661382859828
 20
131.262477510672
 11
279.79338756608217
 21
131.07154446116377
  0
LINE
  8
_1-8_小物
  6
CONTINUOUS
 62
    4
 10
279.79338756608217
 20
131.07154446116377
 11
279.43340897182128
 21
130.8328608284429
  0
LINE
  8
_1-8_小物
  6
CONTINUOUS
 62
    4
 10
279.43340897182128
 20
130.8328608284429
 11
279.13761581324439
 21
130.55367889390996
  0
LINE
  8
_1-8_小物
  6
CONTINUOUS
 62
    4
 10
279.13761581324439
 20
130.55367889390996
 11
278.91499561579622
 21
130.24248145937278
  0
LINE
  8
_1-8_小物
  6
CONTINUOUS
 62
    4
 10
278.91499561579622
 20
130.24248145937278
 11
278.77231258152494
 21
129.90872410140634
  0
LINE
  8
_1-8_小物
  6
CONTINUOUS
 62
    4
 10
278.77231258152494
 20
129.90872410140634
 11
278.71390206222588
 21
129.56254786844303
  0
LINE
  8
_1-8_小物
  6
CONTINUOUS
 62
    4
 10
278.71390206222588
 20
129.56254786844303
 11
278.74153883197073
 21
129.2144711501478
  0
LINE
  8
_1-8_小物
  6
CONTINUOUS
 62
    4
 10
278.74153883197073
 20
129.2144711501478
 11
278.85438316149566
 21
128.8750700814708
  0
LINE
  8
_1-8_小物
  6
CONTINUOUS
 62
    4
 10
278.85438316149566
 20
128.8750700814708
 11
279.04900633295011
 21
128.55465719213848
  0
LINE
  8
_1-8_小物
  6
CONTINUOUS
 62
    4
 10
279.04900633295011
 20
128.55465719213848
 11
279.31949481975346
 21
128.26296806565651
  0
LINE
  8
_1-8_小物
  6
CONTINUOUS
 62
    4
 10
279.31949481975346
 20
128.26296806565651
 11
279.657629966108
 21
128.0088655285312
  0
LINE
  8
_1-8_小物
  6
CONTINUOUS
 62
    4
 10
279.657629966108
 20
128.0088655285312
 11
280.0531377066963
 21
127.80007035777102
  0
LINE
  8
_1-8_小物
  6
CONTINUOUS
 62
    4
 10
280.0531377066963
 20
127.80007035777102
 11
280.49400073895731
 21
127.64292668898406
  0
LINE
  8
_1-8_小物
  6
CONTINUOUS
 62
    4
 10
280.49400073895731
 20
127.64292668898406
 11
280.96682366274314
 21
127.54220925302788
  0
LINE
  8
_1-8_小物
  6
CONTINUOUS
 62
    4
 10
280.96682366274314
 20
127.54220925302788
 11
281.45723999277448
 21
127.50097829822853
  0
LINE
  8
_1-8_小物
  6
CONTINUOUS
 62
    4
 10
281.45723999277448
 20
127.50097829822853
 11
281.950348677026
 21
127.52048660628371
  0
LINE
  8
_1-8_小物
  6
CONTINUOUS
 62
    4
 10
281.950348677026
 20
127.52048660628371
 11
282.43116685765176
 21
127.60014142712487
  0
LINE
  8
_1-8_小物
  6
CONTINUOUS
 62
    4
 10
282.43116685765176
 20
127.60014142712487
 11
282.59769809938194
 21
127.64292665856115
  0
LINE
  8
_1-8_小物
  6
CONTINUOUS
 62
    4
 10
282.71851239622572
 20
131.84018902839438
 11
282.71851239622572
 21
131.84018902839438
  0
LINE
  8
_1-8_小物
  6
CONTINUOUS
 62
    4
 10
282.71851239622572
 20
131.84018902839438
 11
282.15887093122791
 21
131.9573593833947
  0
LINE
  8
_1-8_小物
  6
CONTINUOUS
 62
    4
 10
282.15887093122791
 20
131.9573593833947
 11
281.58060311942779
 21
131.99986411701445
  0
LINE
  8
_1-8_小物
  6
CONTINUOUS
 62
    4
 10
281.58060311942779
 20
131.99986411701445
 11
281.00127933566927
 21
131.96641174443101
  0
LINE
  8
_1-8_小物
  6
CONTINUOUS
 62
    4
 10
281.00127933566927
 20
131.96641174443101
 11
280.43850203996976
 21
131.8580186990576
  0
LINE
  8
_1-8_小物
  6
CONTINUOUS
 62
    4
 10
280.43850203996976
 20
131.8580186990576
 11
279.90937093568022
 21
131.67797844872834
  0
LINE
  8
_1-8_小物
  6
CONTINUOUS
 62
    4
 10
279.90937093568022
 20
131.67797844872834
 11
279.42996340365107
 21
131.43176142534472
  0
LINE
  8
_1-8_小物
  6
CONTINUOUS
 62
    4
 10
279.42996340365107
 20
131.43176142534472
 11
279.01484599915119
 21
131.12684880857049
  0
LINE
  8
_1-8_小物
  6
CONTINUOUS
 62
    4
 10
279.01484599915119
 20
131.12684880857049
 11
278.67663185445673
 21
130.77250521397303
  0
LINE
  8
_1-8_小物
  6
CONTINUOUS
 62
    4
 10
278.67663185445673
 20
130.77250521397303
 11
278.42559743520962
 21
130.37949719236772
  0
LINE
  8
_1-8_小物
  6
CONTINUOUS
 62
    4
 10
278.42559743520962
 20
130.37949719236772
 11
278.26937029520917
 21
129.95976609361938
  0
LINE
  8
_1-8_小物
  6
CONTINUOUS
 62
    4
 10
278.26937029520917
 20
129.95976609361938
 11
278.2126973170495
 21
129.52606523476928
  0
LINE
  8
_1-8_小物
  6
CONTINUOUS
 62
    4
 10
278.2126973170495
 20
129.52606523476928
 11
278.25730048049411
 21
129.09157239695037
  0
LINE
  8
_1-8_小物
  6
CONTINUOUS
 62
    4
 10
278.25730048049411
 20
129.09157239695037
 11
278.40182454099198
 21
128.66948942517575
  0
LINE
  8
_1-8_小物
  6
CONTINUOUS
 62
    4
 10
278.40182454099198
 20
128.66948942517575
 11
278.64187820809769
 21
128.27264109695858
  0
LINE
  8
_1-8_小物
  6
CONTINUOUS
 62
    4
 10
278.64187820809769
 20
128.27264109695858
 11
278.97016757260911
 21
127.91308544793672
  0
LINE
  8
_1-8_小物
  6
CONTINUOUS
 62
    4
 10
278.97016757260911
 20
127.91308544793672
 11
279.37671772830811
 21
127.60174739456181
  0
LINE
  8
_1-8_小物
  6
CONTINUOUS
 62
    4
 10
279.37671772830811
 20
127.60174739456181
 11
279.84917585443804
 21
127.34808678604097
  0
LINE
  8
_1-8_小物
  6
CONTINUOUS
 62
    4
 10
279.84917585443804
 20
127.34808678604097
 11
280.37318654991179
 21
127.15981097160564
  0
LINE
  8
_1-8_小物
  6
CONTINUOUS
 62
    4
 10
280.37318654991179
 20
127.15981097160564
 11
280.93282801490955
 21
127.04264061660528
  0
LINE
  8
_1-8_小物
  6
CONTINUOUS
 62
    4
 10
280.93282801490955
 20
127.04264061660528
 11
281.51109582670972
 21
127.00013588298553
  0
LINE
  8
_1-8_小物
  6
CONTINUOUS
 62
    4
 10
281.51109582670972
 20
127.00013588298553
 11
282.09041961046825
 21
127.03358825556899
  0
LINE
  8
_1-8_小物
  6
CONTINUOUS
 62
    4
 10
282.09041961046825
 20
127.03358825556899
 11
282.65319690616769
 21
127.14198130094242
  0
LINE
  8
_1-8_小物
  6
CONTINUOUS
 62
    4
 10
282.65319690616769
 20
127.14198130094242
 11
282.71851230902314
 21
127.15981094702607
  0
ARC
  8
_1-8_小物
  6
CONTINUOUS
 62
    4
 10
289.86995020385899
 20
124.49999999999997
 40
5
 50
97.555517989925917
 51
105.76016573963432
  0
ARC
  8
_1-8_小物
  6
CONTINUOUS
 62
    4
 10
289.93827812830773
 20
123.99999999999997
 40
5
 50
98.346104300156512
 51
105.74141158032096
  0
ARC
  8
_1-8_小物
  6
CONTINUOUS
 62
    4
 10
289.93827812830773
 20
135
 40
5
 50
254.25858841967909
 51
261.65389569984347
  0
ARC
  8
_1-8_小物
  6
CONTINUOUS
 62
    4
 10
289.86995020385899
 20
134.5
 40
5
 50
254.23983426036577
 51
262.44448201007407
  0
LINE
  8
_1-8_小物
  6
CONTINUOUS
 62
    4
 10
291.87918280640207
 20
129.24999999999997
 11
318.21251613973538
 21
129.24999999999997
  0
LINE
  8
_1-8_小物
  6
CONTINUOUS
 62
    4
 10
291.87918280640207
 20
129.75
 11
318.21251613973538
 21
129.75
  0
LINE
  8
_1-8_小物
  6
CONTINUOUS
 62
    4
 10
347.87918280640207
 20
129.24999999999997
 11
321.54584947306876
 21
129.24999999999997
  0
LINE
  8
_1-8_小物
  6
CONTINUOUS
 62
    4
 10
347.87918280640207
 20
129.75
 11
321.54584947306876
 21
129.75
  0
TEXT
  8
_0-0_図面枠
 62
    4
 10
41.666666666666686
 20
128
 40
3
 41
1
 50
0
  1
（落下防止ワイヤー）
  0
INSERT
  2
-004-
  8
_1-8_小物
 10
210
 20
148.5
 41
1
 42
1
 50
0
  0
LINE
  8
_1-8_小物
  6
CONTINUOUS
 62
    4
 10
157.03985321657842
 20
131.84018902839435
 11
151.17656837665947
 21
130.18752043233465
  0
LINE
  8
_1-8_小物
  6
CONTINUOUS
 62
    4
 10
157.16066740562403
 20
131.35707331101597
 11
151.24647145802518
 21
129.68796469593613
  0
LINE
  8
_1-8_小物
  6
CONTINUOUS
 62
    4
 10
157.03985321657842
 20
127.15981097160562
 11
151.17656837665947
 21
128.81247956766532
  0
LINE
  8
_1-8_小物
  6
CONTINUOUS
 62
    4
 10
157.16066740562403
 20
127.64292668898401
 11
151.24647145802518
 21
129.31203530406384
  0
LINE
  8
_1-8_小物
  6
CONTINUOUS
 62
    4
 10
157.1606675134222
 20
127.64292665856117
 11
157.1606675134222
 21
127.64292665856117
  0
LINE
  8
_1-8_小物
  6
CONTINUOUS
 62
    4
 10
157.1606675134222
 20
127.64292665856117
 11
157.6334904430544
 21
127.54220923628057
  0
LINE
  8
_1-8_小物
  6
CONTINUOUS
 62
    4
 10
157.6334904430544
 20
127.54220923628057
 11
158.1239067754791
 21
127.50097829566566
  0
LINE
  8
_1-8_小物
  6
CONTINUOUS
 62
    4
 10
158.1239067754791
 20
127.50097829566566
 11
158.61701545859825
 21
127.52048661798315
  0
LINE
  8
_1-8_小物
  6
CONTINUOUS
 62
    4
 10
158.61701545859825
 20
127.52048661798315
 11
159.09783363460025
 21
127.60014145273114
  0
LINE
  8
_1-8_小物
  6
CONTINUOUS
 62
    4
 10
159.09783363460025
 20
127.60014145273114
 11
159.55175188651307
 21
127.73752252806307
  0
LINE
  8
_1-8_小物
  6
CONTINUOUS
 62
    4
 10
159.55175188651307
 20
127.73752252806307
 11
159.96497813794605
 21
127.92845558952315
  0
LINE
  8
_1-8_小物
  6
CONTINUOUS
 62
    4
 10
159.96497813794605
 20
127.92845558952315
 11
160.32495671835193
 21
128.16713923265576
  0
LINE
  8
_1-8_小物
  6
CONTINUOUS
 62
    4
 10
160.32495671835193
 20
128.16713923265576
 11
160.62074986072309
 21
128.446321175744
  0
LINE
  8
_1-8_小物
  6
CONTINUOUS
 62
    4
 10
160.62074986072309
 20
128.446321175744
 11
160.84337004010709
 21
128.75751861672009
  0
LINE
  8
_1-8_小物
  6
CONTINUOUS
 62
    4
 10
160.84337004010709
 20
128.75751861672009
 11
160.98605305500459
 21
129.0912759788134
  0
LINE
  8
_1-8_小物
  6
CONTINUOUS
 62
    4
 10
160.98605305500459
 20
129.0912759788134
 11
161.04446355420905
 21
129.43745221346614
  0
LINE
  8
_1-8_小物
  6
CONTINUOUS
 62
    4
 10
161.04446355420905
 20
129.43745221346614
 11
161.01682676425926
 21
129.78552893096199
  0
LINE
  8
_1-8_小物
  6
CONTINUOUS
 62
    4
 10
161.01682676425926
 20
129.78552893096199
 11
160.90398241503294
 21
130.12492999637519
  0
LINE
  8
_1-8_小物
  6
CONTINUOUS
 62
    4
 10
160.90398241503294
 20
130.12492999637519
 11
160.70935922497938
 21
130.44534288007836
  0
LINE
  8
_1-8_小物
  6
CONTINUOUS
 62
    4
 10
160.70935922497938
 20
130.44534288007836
 11
160.43887072124426
 21
130.73703199873694
  0
LINE
  8
_1-8_小物
  6
CONTINUOUS
 62
    4
 10
160.43887072124426
 20
130.73703199873694
 11
160.10073556013975
 21
130.99113452608228
  0
LINE
  8
_1-8_小物
  6
CONTINUOUS
 62
    4
 10
160.10073556013975
 20
130.99113452608228
 11
159.70522780743138
 21
131.19992968540308
  0
LINE
  8
_1-8_小物
  6
CONTINUOUS
 62
    4
 10
159.70522780743138
 20
131.19992968540308
 11
159.26436476604863
 21
131.35707334143885
  0
LINE
  8
_1-8_小物
  6
CONTINUOUS
 62
    4
 10
159.26436476604863
 20
131.35707334143885
 11
158.79154183641643
 21
131.45779076371943
  0
LINE
  8
_1-8_小物
  6
CONTINUOUS
 62
    4
 10
158.79154183641643
 20
131.45779076371943
 11
158.30112550399173
 21
131.49902170433435
  0
LINE
  8
_1-8_小物
  6
CONTINUOUS
 62
    4
 10
158.30112550399173
 20
131.49902170433435
 11
157.80801682087258
 21
131.47951338201685
  0
LINE
  8
_1-8_小物
  6
CONTINUOUS
 62
    4
 10
157.80801682087258
 20
131.47951338201685
 11
157.32719864487058
 21
131.39985854726888
  0
LINE
  8
_1-8_小物
  6
CONTINUOUS
 62
    4
 10
157.32719864487058
 20
131.39985854726888
 11
157.160667405624
 21
131.35707331101594
  0
LINE
  8
_1-8_小物
  6
CONTINUOUS
 62
    4
 10
157.039853303781
 20
127.15981094702609
 11
157.039853303781
 21
127.15981094702609
  0
LINE
  8
_1-8_小物
  6
CONTINUOUS
 62
    4
 10
157.039853303781
 20
127.15981094702609
 11
157.5994947731449
 21
127.04264060375607
  0
LINE
  8
_1-8_小物
  6
CONTINUOUS
 62
    4
 10
157.5994947731449
 20
127.04264060375607
 11
158.1777625865289
 21
127.00013588225708
  0
LINE
  8
_1-8_小物
  6
CONTINUOUS
 62
    4
 10
158.1777625865289
 20
127.00013588225708
 11
158.75708636904091
 21
127.03358826698343
  0
LINE
  8
_1-8_小物
  6
CONTINUOUS
 62
    4
 10
158.75708636904091
 20
127.03358826698343
 11
159.31986366070132
 21
127.14198132415292
  0
LINE
  8
_1-8_小物
  6
CONTINUOUS
 62
    4
 10
159.31986366070132
 20
127.14198132415292
 11
159.84899475828206
 21
127.32202158557301
  0
LINE
  8
_1-8_小物
  6
CONTINUOUS
 62
    4
 10
159.84899475828206
 20
127.32202158557301
 11
160.32840228113639
 21
127.56823861900521
  0
LINE
  8
_1-8_小物
  6
CONTINUOUS
 62
    4
 10
160.32840228113639
 20
127.56823861900521
 11
160.74351967427432
 21
127.87315124448051
  0
LINE
  8
_1-8_小物
  6
CONTINUOUS
 62
    4
 10
160.74351967427432
 20
127.87315124448051
 11
161.08173380576486
 21
128.22749484616708
  0
LINE
  8
_1-8_小物
  6
CONTINUOUS
 62
    4
 10
161.08173380576486
 20
128.22749484616708
 11
161.33276821036728
 21
128.62050287303418
  0
LINE
  8
_1-8_小物
  6
CONTINUOUS
 62
    4
 10
161.33276821036728
 20
128.62050287303418
 11
161.48899533472729
 21
129.04023397505711
  0
LINE
  8
_1-8_小物
  6
CONTINUOUS
 62
    4
 10
161.48899533472729
 20
129.04023397505711
 11
161.54566829672595
 21
129.47393483509512
  0
LINE
  8
_1-8_小物
  6
CONTINUOUS
 62
    4
 10
161.54566829672595
 20
129.47393483509512
 11
161.5010651170908
 21
129.90842767197913
  0
LINE
  8
_1-8_小物
  6
CONTINUOUS
 62
    4
 10
161.5010651170908
 20
129.90842767197913
 11
161.35654104086481
 21
130.33051064072444
  0
LINE
  8
_1-8_小物
  6
CONTINUOUS
 62
    4
 10
161.35654104086481
 20
130.33051064072444
 11
161.11648735897137
 21
130.72735896391001
  0
LINE
  8
_1-8_小物
  6
CONTINUOUS
 62
    4
 10
161.11648735897137
 20
130.72735896391001
 11
160.78819798106178
 21
131.08691460605075
  0
LINE
  8
_1-8_小物
  6
CONTINUOUS
 62
    4
 10
160.78819798106178
 20
131.08691460605075
 11
160.38164781376139
 21
131.3982526509042
  0
LINE
  8
_1-8_小物
  6
CONTINUOUS
 62
    4
 10
160.38164781376139
 20
131.3982526509042
 11
159.9091896781793
 21
131.6519132495221
  0
LINE
  8
_1-8_小物
  6
CONTINUOUS
 62
    4
 10
159.9091896781793
 20
131.6519132495221
 11
159.38517897568983
 21
131.84018905297393
  0
LINE
  8
_1-8_小物
  6
CONTINUOUS
 62
    4
 10
159.38517897568983
 20
131.84018905297393
 11
158.82553750632593
 21
131.95735939624393
  0
LINE
  8
_1-8_小物
  6
CONTINUOUS
 62
    4
 10
158.82553750632593
 20
131.95735939624393
 11
158.24726969294193
 21
131.99986411774293
  0
LINE
  8
_1-8_小物
  6
CONTINUOUS
 62
    4
 10
158.24726969294193
 20
131.99986411774293
 11
157.66794591042992
 21
131.96641173301657
  0
LINE
  8
_1-8_小物
  6
CONTINUOUS
 62
    4
 10
157.66794591042992
 20
131.96641173301657
 11
157.10516861876951
 21
131.85801867584706
  0
LINE
  8
_1-8_小物
  6
CONTINUOUS
 62
    4
 10
157.10516861876951
 20
131.85801867584706
 11
157.03985321657842
 21
131.84018902839435
  0
ARC
  8
_1-8_小物
  6
CONTINUOUS
 62
    4
 10
149.88841540894515
 20
124.49999999999997
 40
5
 50
74.23983426036601
 51
82.444482010074083
  0
ARC
  8
_1-8_小物
  6
CONTINUOUS
 62
    4
 10
149.82008748449641
 20
123.99999999999997
 40
5
 50
74.258588419679057
 51
81.653895699843488
  0
ARC
  8
_1-8_小物
  6
CONTINUOUS
 62
    4
 10
149.82008748449641
 20
135
 40
5
 50
278.34610430015653
 51
285.74141158032086
  0
ARC
  8
_1-8_小物
  6
CONTINUOUS
 62
    4
 10
149.88841540894515
 20
134.5
 40
5
 50
277.55551798992593
 51
285.76016573963392
  0
INSERT
  2
-005-_4_
  8
_1-8_小物
 10
210
 20
148.5
 41
1
 42
1
 50
0
  0
LINE
  8
_1-8_小物
  6
CONTINUOUS
 62
    4
 10
82.718512396225748
 20
131.84018902839435
 11
88.581797236144695
 21
130.18752043233465
  0
LINE
  8
_1-8_小物
  6
CONTINUOUS
 62
    4
 10
82.597698207180116
 20
131.35707331101597
 11
88.511894154779
 21
129.68796469593613
  0
LINE
  8
_1-8_小物
  6
CONTINUOUS
 62
    4
 10
82.718512396225748
 20
127.15981097160562
 11
88.581797236144695
 21
128.81247956766532
  0
LINE
  8
_1-8_小物
  6
CONTINUOUS
 62
    4
 10
82.597698207180116
 20
127.64292668898401
 11
88.511894154779
 21
129.31203530406384
  0
LINE
  8
_1-8_小物
  6
CONTINUOUS
 62
    4
 10
82.597698207180201
 20
131.35707331101594
 11
82.597698207180201
 21
131.35707331101594
  0
LINE
  8
_1-8_小物
  6
CONTINUOUS
 62
    4
 10
82.597698207180201
 20
131.35707331101594
 11
82.124875283394388
 21
131.45779074697211
  0
LINE
  8
_1-8_小物
  6
CONTINUOUS
 62
    4
 10
82.124875283394388
 20
131.45779074697211
 11
81.634458953363037
 21
131.49902170177148
  0
LINE
  8
_1-8_小物
  6
CONTINUOUS
 62
    4
 10
81.634458953363037
 20
131.49902170177148
 11
81.141350269111499
 21
131.47951339371627
  0
LINE
  8
_1-8_小物
  6
CONTINUOUS
 62
    4
 10
81.141350269111499
 20
131.47951339371627
 11
80.660532088485724
 21
131.39985857287513
  0
LINE
  8
_1-8_小物
  6
CONTINUOUS
 62
    4
 10
80.660532088485724
 20
131.39985857287513
 11
80.206613828598293
 21
131.262477510672
  0
LINE
  8
_1-8_小物
  6
CONTINUOUS
 62
    4
 10
80.206613828598293
 20
131.262477510672
 11
79.79338756608216
 21
131.07154446116377
  0
LINE
  8
_1-8_小物
  6
CONTINUOUS
 62
    4
 10
79.79338756608216
 20
131.07154446116377
 11
79.433408971821308
 21
130.8328608284429
  0
LINE
  8
_1-8_小物
  6
CONTINUOUS
 62
    4
 10
79.433408971821308
 20
130.8328608284429
 11
79.137615813244381
 21
130.55367889390996
  0
LINE
  8
_1-8_小物
  6
CONTINUOUS
 62
    4
 10
79.137615813244381
 20
130.55367889390996
 11
78.914995615796187
 21
130.24248145937278
  0
LINE
  8
_1-8_小物
  6
CONTINUOUS
 62
    4
 10
78.914995615796187
 20
130.24248145937278
 11
78.772312581524943
 21
129.90872410140634
  0
LINE
  8
_1-8_小物
  6
CONTINUOUS
 62
    4
 10
78.772312581524943
 20
129.90872410140634
 11
78.71390206222587
 21
129.56254786844303
  0
LINE
  8
_1-8_小物
  6
CONTINUOUS
 62
    4
 10
78.71390206222587
 20
129.56254786844303
 11
78.741538831970715
 21
129.2144711501478
  0
LINE
  8
_1-8_小物
  6
CONTINUOUS
 62
    4
 10
78.741538831970715
 20
129.2144711501478
 11
78.854383161495676
 21
128.8750700814708
  0
LINE
  8
_1-8_小物
  6
CONTINUOUS
 62
    4
 10
78.854383161495676
 20
128.8750700814708
 11
79.0490063329501
 21
128.55465719213848
  0
LINE
  8
_1-8_小物
  6
CONTINUOUS
 62
    4
 10
79.0490063329501
 20
128.55465719213848
 11
79.319494819753459
 21
128.26296806565651
  0
LINE
  8
_1-8_小物
  6
CONTINUOUS
 62
    4
 10
79.319494819753459
 20
128.26296806565651
 11
79.657629966107976
 21
128.0088655285312
  0
LINE
  8
_1-8_小物
  6
CONTINUOUS
 62
    4
 10
79.657629966107976
 20
128.0088655285312
 11
80.053137706696333
 21
127.80007035777102
  0
LINE
  8
_1-8_小物
  6
CONTINUOUS
 62
    4
 10
80.053137706696333
 20
127.80007035777102
 11
80.494000738957297
 21
127.64292668898406
  0
LINE
  8
_1-8_小物
  6
CONTINUOUS
 62
    4
 10
80.494000738957297
 20
127.64292668898406
 11
80.96682366274311
 21
127.54220925302788
  0
LINE
  8
_1-8_小物
  6
CONTINUOUS
 62
    4
 10
80.96682366274311
 20
127.54220925302788
 11
81.457239992774475
 21
127.50097829822853
  0
LINE
  8
_1-8_小物
  6
CONTINUOUS
 62
    4
 10
81.457239992774475
 20
127.50097829822853
 11
81.950348677026014
 21
127.52048660628371
  0
LINE
  8
_1-8_小物
  6
CONTINUOUS
 62
    4
 10
81.950348677026014
 20
127.52048660628371
 11
82.431166857651789
 21
127.60014142712487
  0
LINE
  8
_1-8_小物
  6
CONTINUOUS
 62
    4
 10
82.431166857651789
 20
127.60014142712487
 11
82.597698099381958
 21
127.64292665856115
  0
LINE
  8
_1-8_小物
  6
CONTINUOUS
 62
    4
 10
82.718512396225748
 20
131.84018902839435
 11
82.718512396225748
 21
131.84018902839435
  0
LINE
  8
_1-8_小物
  6
CONTINUOUS
 62
    4
 10
82.718512396225748
 20
131.84018902839435
 11
82.158870931227966
 21
131.9573593833947
  0
LINE
  8
_1-8_小物
  6
CONTINUOUS
 62
    4
 10
82.158870931227966
 20
131.9573593833947
 11
81.580603119427835
 21
131.99986411701445
  0
LINE
  8
_1-8_小物
  6
CONTINUOUS
 62
    4
 10
81.580603119427835
 20
131.99986411701445
 11
81.001279335669281
 21
131.96641174443101
  0
LINE
  8
_1-8_小物
  6
CONTINUOUS
 62
    4
 10
81.001279335669281
 20
131.96641174443101
 11
80.438502039969819
 21
131.8580186990576
  0
LINE
  8
_1-8_小物
  6
CONTINUOUS
 62
    4
 10
80.438502039969819
 20
131.8580186990576
 11
79.909370935680229
 21
131.67797844872834
  0
LINE
  8
_1-8_小物
  6
CONTINUOUS
 62
    4
 10
79.909370935680229
 20
131.67797844872834
 11
79.429963403651087
 21
131.43176142534475
  0
LINE
  8
_1-8_小物
  6
CONTINUOUS
 62
    4
 10
79.429963403651087
 20
131.43176142534475
 11
79.014845999151206
 21
131.12684880857049
  0
LINE
  8
_1-8_小物
  6
CONTINUOUS
 62
    4
 10
79.014845999151206
 20
131.12684880857049
 11
78.676631854456744
 21
130.77250521397306
  0
LINE
  8
_1-8_小物
  6
CONTINUOUS
 62
    4
 10
78.676631854456744
 20
130.77250521397306
 11
78.425597435209639
 21
130.37949719236775
  0
LINE
  8
_1-8_小物
  6
CONTINUOUS
 62
    4
 10
78.425597435209639
 20
130.37949719236775
 11
78.269370295209171
 21
129.95976609361941
  0
LINE
  8
_1-8_小物
  6
CONTINUOUS
 62
    4
 10
78.269370295209171
 20
129.95976609361941
 11
78.212697317049489
 21
129.52606523476931
  0
LINE
  8
_1-8_小物
  6
CONTINUOUS
 62
    4
 10
78.212697317049489
 20
129.52606523476931
 11
78.257300480494095
 21
129.0915723969504
  0
LINE
  8
_1-8_小物
  6
CONTINUOUS
 62
    4
 10
78.257300480494095
 20
129.0915723969504
 11
78.401824540991996
 21
128.66948942517578
  0
LINE
  8
_1-8_小物
  6
CONTINUOUS
 62
    4
 10
78.401824540991996
 20
128.66948942517578
 11
78.641878208097665
 21
128.27264109695858
  0
LINE
  8
_1-8_小物
  6
CONTINUOUS
 62
    4
 10
78.641878208097665
 20
128.27264109695858
 11
78.970167572609114
 21
127.91308544793674
  0
LINE
  8
_1-8_小物
  6
CONTINUOUS
 62
    4
 10
78.970167572609114
 20
127.91308544793674
 11
79.376717728308108
 21
127.60174739456183
  0
LINE
  8
_1-8_小物
  6
CONTINUOUS
 62
    4
 10
79.376717728308108
 20
127.60174739456183
 11
79.849175854438016
 21
127.34808678604097
  0
LINE
  8
_1-8_小物
  6
CONTINUOUS
 62
    4
 10
79.849175854438016
 20
127.34808678604097
 11
80.37318654991175
 21
127.15981097160564
  0
LINE
  8
_1-8_小物
  6
CONTINUOUS
 62
    4
 10
80.37318654991175
 20
127.15981097160564
 11
80.932828014909546
 21
127.04264061660528
  0
LINE
  8
_1-8_小物
  6
CONTINUOUS
 62
    4
 10
80.932828014909546
 20
127.04264061660528
 11
81.511095826709678
 21
127.00013588298553
  0
LINE
  8
_1-8_小物
  6
CONTINUOUS
 62
    4
 10
81.511095826709678
 20
127.00013588298553
 11
82.090419610468231
 21
127.03358825556899
  0
LINE
  8
_1-8_小物
  6
CONTINUOUS
 62
    4
 10
82.090419610468231
 20
127.03358825556899
 11
82.653196906167693
 21
127.1419813009424
  0
LINE
  8
_1-8_小物
  6
CONTINUOUS
 62
    4
 10
82.653196906167693
 20
127.1419813009424
 11
82.718512309023168
 21
127.15981094702607
  0
ARC
  8
_1-8_小物
  6
CONTINUOUS
 62
    4
 10
89.869950203859005
 20
124.49999999999997
 40
5
 50
97.555517989925761
 51
105.76016573963415
  0
ARC
  8
_1-8_小物
  6
CONTINUOUS
 62
    4
 10
89.938278128307758
 20
123.99999999999997
 40
5
 50
98.346104300156512
 51
105.74141158032096
  0
ARC
  8
_1-8_小物
  6
CONTINUOUS
 62
    4
 10
89.938278128307758
 20
135
 40
5
 50
254.25858841967909
 51
261.65389569984347
  0
ARC
  8
_1-8_小物
  6
CONTINUOUS
 62
    4
 10
89.869950203859005
 20
134.5
 40
5
 50
254.23983426036591
 51
262.44448201007424
  0
LINE
  8
_1-8_小物
  6
CONTINUOUS
 62
    4
 10
91.879182806402085
 20
129.24999999999997
 11
118.21251613973541
 21
129.24999999999997
  0
LINE
  8
_1-8_小物
  6
CONTINUOUS
 62
    4
 10
91.879182806402085
 20
129.75
 11
118.21251613973541
 21
129.75
  0
LINE
  8
_1-8_小物
  6
CONTINUOUS
 62
    4
 10
147.87918280640207
 20
129.24999999999997
 11
121.54584947306876
 21
129.24999999999997
  0
LINE
  8
_1-8_小物
  6
CONTINUOUS
 62
    4
 10
147.87918280640207
 20
129.75
 11
121.54584947306876
 21
129.75
  0
TEXT
  8
_0-0_図面枠
 62
    4
 10
241.66666666666663
 20
128
 40
3
 41
1
 50
0
  1
（落下防止ワイヤー）
  0
INSERT
  2
-006-_5_
  8
_1-8_小物
 10
210
 20
148.5
 41
1
 42
1
 50
0
  0
LINE
  8
_1-8_小物
  6
CONTINUOUS
 62
    4
 10
357.03985321657842
 20
131.84018902839435
 11
351.17656837665947
 21
130.18752043233465
  0
LINE
  8
_1-8_小物
  6
CONTINUOUS
 62
    4
 10
357.16066740562405
 20
131.35707331101597
 11
351.24647145802516
 21
129.68796469593613
  0
LINE
  8
_1-8_小物
  6
CONTINUOUS
 62
    4
 10
357.03985321657842
 20
127.15981097160562
 11
351.17656837665947
 21
128.81247956766532
  0
LINE
  8
_1-8_小物
  6
CONTINUOUS
 62
    4
 10
357.16066740562405
 20
127.64292668898401
 11
351.24647145802516
 21
129.31203530406384
  0
LINE
  8
_1-8_小物
  6
CONTINUOUS
 62
    4
 10
357.1606675134222
 20
127.64292665856115
 11
357.1606675134222
 21
127.64292665856115
  0
LINE
  8
_1-8_小物
  6
CONTINUOUS
 62
    4
 10
357.1606675134222
 20
127.64292665856115
 11
357.63349044305437
 21
127.54220923628056
  0
LINE
  8
_1-8_小物
  6
CONTINUOUS
 62
    4
 10
357.63349044305437
 20
127.54220923628056
 11
358.1239067754791
 21
127.50097829566566
  0
LINE
  8
_1-8_小物
  6
CONTINUOUS
 62
    4
 10
358.1239067754791
 20
127.50097829566566
 11
358.61701545859825
 21
127.52048661798315
  0
LINE
  8
_1-8_小物
  6
CONTINUOUS
 62
    4
 10
358.61701545859825
 20
127.52048661798315
 11
359.09783363460025
 21
127.60014145273114
  0
LINE
  8
_1-8_小物
  6
CONTINUOUS
 62
    4
 10
359.09783363460025
 20
127.60014145273114
 11
359.55175188651305
 21
127.73752252806307
  0
LINE
  8
_1-8_小物
  6
CONTINUOUS
 62
    4
 10
359.55175188651305
 20
127.73752252806307
 11
359.96497813794605
 21
127.92845558952317
  0
LINE
  8
_1-8_小物
  6
CONTINUOUS
 62
    4
 10
359.96497813794605
 20
127.92845558952317
 11
360.32495671835193
 21
128.16713923265576
  0
LINE
  8
_1-8_小物
  6
CONTINUOUS
 62
    4
 10
360.32495671835193
 20
128.16713923265576
 11
360.62074986072309
 21
128.44632117574403
  0
LINE
  8
_1-8_小物
  6
CONTINUOUS
 62
    4
 10
360.62074986072309
 20
128.44632117574403
 11
360.84337004010706
 21
128.75751861672009
  0
LINE
  8
_1-8_小物
  6
CONTINUOUS
 62
    4
 10
360.84337004010706
 20
128.75751861672009
 11
360.98605305500456
 21
129.09127597881343
  0
LINE
  8
_1-8_小物
  6
CONTINUOUS
 62
    4
 10
360.98605305500456
 20
129.09127597881343
 11
361.04446355420902
 21
129.43745221346614
  0
LINE
  8
_1-8_小物
  6
CONTINUOUS
 62
    4
 10
361.04446355420902
 20
129.43745221346614
 11
361.01682676425924
 21
129.78552893096202
  0
LINE
  8
_1-8_小物
  6
CONTINUOUS
 62
    4
 10
361.01682676425924
 20
129.78552893096202
 11
360.90398241503294
 21
130.12492999637522
  0
LINE
  8
_1-8_小物
  6
CONTINUOUS
 62
    4
 10
360.90398241503294
 20
130.12492999637522
 11
360.70935922497932
 21
130.44534288007839
  0
LINE
  8
_1-8_小物
  6
CONTINUOUS
 62
    4
 10
360.70935922497932
 20
130.44534288007839
 11
360.4388707212442
 21
130.73703199873694
  0
LINE
  8
_1-8_小物
  6
CONTINUOUS
 62
    4
 10
360.4388707212442
 20
130.73703199873694
 11
360.1007355601397
 21
130.99113452608228
  0
LINE
  8
_1-8_小物
  6
CONTINUOUS
 62
    4
 10
360.1007355601397
 20
130.99113452608228
 11
359.70522780743136
 21
131.19992968540308
  0
LINE
  8
_1-8_小物
  6
CONTINUOUS
 62
    4
 10
359.70522780743136
 20
131.19992968540308
 11
359.26436476604857
 21
131.35707334143885
  0
LINE
  8
_1-8_小物
  6
CONTINUOUS
 62
    4
 10
359.26436476604857
 20
131.35707334143885
 11
358.7915418364164
 21
131.45779076371943
  0
LINE
  8
_1-8_小物
  6
CONTINUOUS
 62
    4
 10
358.7915418364164
 20
131.45779076371943
 11
358.30112550399167
 21
131.49902170433435
  0
LINE
  8
_1-8_小物
  6
CONTINUOUS
 62
    4
 10
358.30112550399167
 20
131.49902170433435
 11
357.80801682087252
 21
131.47951338201685
  0
LINE
  8
_1-8_小物
  6
CONTINUOUS
 62
    4
 10
357.80801682087252
 20
131.47951338201685
 11
357.32719864487052
 21
131.39985854726888
  0
LINE
  8
_1-8_小物
  6
CONTINUOUS
 62
    4
 10
357.32719864487052
 20
131.39985854726888
 11
357.16066740562394
 21
131.35707331101594
  0
LINE
  8
_1-8_小物
  6
CONTINUOUS
 62
    4
 10
357.039853303781
 20
127.15981094702607
 11
357.039853303781
 21
127.15981094702607
  0
LINE
  8
_1-8_小物
  6
CONTINUOUS
 62
    4
 10
357.039853303781
 20
127.15981094702607
 11
357.5994947731449
 21
127.04264060375607
  0
LINE
  8
_1-8_小物
  6
CONTINUOUS
 62
    4
 10
357.5994947731449
 20
127.04264060375607
 11
358.1777625865289
 21
127.00013588225708
  0
LINE
  8
_1-8_小物
  6
CONTINUOUS
 62
    4
 10
358.1777625865289
 20
127.00013588225708
 11
358.75708636904091
 21
127.03358826698343
  0
LINE
  8
_1-8_小物
  6
CONTINUOUS
 62
    4
 10
358.75708636904091
 20
127.03358826698343
 11
359.31986366070134
 21
127.14198132415294
  0
LINE
  8
_1-8_小物
  6
CONTINUOUS
 62
    4
 10
359.31986366070134
 20
127.14198132415294
 11
359.84899475828206
 21
127.32202158557303
  0
LINE
  8
_1-8_小物
  6
CONTINUOUS
 62
    4
 10
359.84899475828206
 20
127.32202158557303
 11
360.32840228113639
 21
127.56823861900523
  0
LINE
  8
_1-8_小物
  6
CONTINUOUS
 62
    4
 10
360.32840228113639
 20
127.56823861900523
 11
360.7435196742743
 21
127.87315124448052
  0
LINE
  8
_1-8_小物
  6
CONTINUOUS
 62
    4
 10
360.7435196742743
 20
127.87315124448052
 11
361.08173380576483
 21
128.2274948461671
  0
LINE
  8
_1-8_小物
  6
CONTINUOUS
 62
    4
 10
361.08173380576483
 20
128.2274948461671
 11
361.33276821036725
 21
128.62050287303421
  0
LINE
  8
_1-8_小物
  6
CONTINUOUS
 62
    4
 10
361.33276821036725
 20
128.62050287303421
 11
361.48899533472729
 21
129.04023397505713
  0
LINE
  8
_1-8_小物
  6
CONTINUOUS
 62
    4
 10
361.48899533472729
 20
129.04023397505713
 11
361.54566829672592
 21
129.47393483509512
  0
LINE
  8
_1-8_小物
  6
CONTINUOUS
 62
    4
 10
361.54566829672592
 20
129.47393483509512
 11
361.50106511709077
 21
129.90842767197915
  0
LINE
  8
_1-8_小物
  6
CONTINUOUS
 62
    4
 10
361.50106511709077
 20
129.90842767197915
 11
361.35654104086478
 21
130.33051064072447
  0
LINE
  8
_1-8_小物
  6
CONTINUOUS
 62
    4
 10
361.35654104086478
 20
130.33051064072447
 11
361.11648735897131
 21
130.72735896391001
  0
LINE
  8
_1-8_小物
  6
CONTINUOUS
 62
    4
 10
361.11648735897131
 20
130.72735896391001
 11
360.78819798106173
 21
131.08691460605075
  0
LINE
  8
_1-8_小物
  6
CONTINUOUS
 62
    4
 10
360.78819798106173
 20
131.08691460605075
 11
360.38164781376133
 21
131.3982526509042
  0
LINE
  8
_1-8_小物
  6
CONTINUOUS
 62
    4
 10
360.38164781376133
 20
131.3982526509042
 11
359.90918967817925
 21
131.6519132495221
  0
LINE
  8
_1-8_小物
  6
CONTINUOUS
 62
    4
 10
359.90918967817925
 20
131.6519132495221
 11
359.38517897568977
 21
131.84018905297393
  0
LINE
  8
_1-8_小物
  6
CONTINUOUS
 62
    4
 10
359.38517897568977
 20
131.84018905297393
 11
358.82553750632587
 21
131.95735939624393
  0
LINE
  8
_1-8_小物
  6
CONTINUOUS
 62
    4
 10
358.82553750632587
 20
131.95735939624393
 11
358.24726969294187
 21
131.99986411774293
  0
LINE
  8
_1-8_小物
  6
CONTINUOUS
 62
    4
 10
358.24726969294187
 20
131.99986411774293
 11
357.66794591042986
 21
131.96641173301657
  0
LINE
  8
_1-8_小物
  6
CONTINUOUS
 62
    4
 10
357.66794591042986
 20
131.96641173301657
 11
357.10516861876948
 21
131.85801867584706
  0
LINE
  8
_1-8_小物
  6
CONTINUOUS
 62
    4
 10
357.10516861876948
 20
131.85801867584706
 11
357.03985321657842
 21
131.84018902839438
  0
ARC
  8
_1-8_小物
  6
CONTINUOUS
 62
    4
 10
349.88841540894515
 20
124.49999999999997
 40
5
 50
74.239834260366322
 51
82.444482010074083
  0
ARC
  8
_1-8_小物
  6
CONTINUOUS
 62
    4
 10
349.82008748449636
 20
123.99999999999997
 40
5
 50
74.258588419678418
 51
81.653895699842849
  0
ARC
  8
_1-8_小物
  6
CONTINUOUS
 62
    4
 10
349.82008748449636
 20
135
 40
5
 50
278.34610430015715
 51
285.7414115803216
  0
ARC
  8
_1-8_小物
  6
CONTINUOUS
 62
    4
 10
349.88841540894515
 20
134.5
 40
5
 50
277.55551798992593
 51
285.76016573963363
  0
INSERT
  2
-007-_6_
  8
_1-8_小物
 10
210
 20
148.5
 41
1
 42
1
 50
0
  0
LINE
  8
_1-8_小物
  6
CONTINUOUS
 62
    4
 10
282.71851239622572
 20
131.84018902839435
 11
288.58179723614467
 21
130.18752043233465
  0
LINE
  8
_1-8_小物
  6
CONTINUOUS
 62
    4
 10
282.59769820718009
 20
131.35707331101597
 11
288.51189415477899
 21
129.68796469593613
  0
LINE
  8
_1-8_小物
  6
CONTINUOUS
 62
    4
 10
282.71851239622572
 20
127.15981097160562
 11
288.58179723614467
 21
128.81247956766532
  0
LINE
  8
_1-8_小物
  6
CONTINUOUS
 62
    4
 10
282.59769820718009
 20
127.64292668898401
 11
288.51189415477899
 21
129.31203530406384
  0
LINE
  8
_1-8_小物
  6
CONTINUOUS
 62
    4
 10
282.5976982071802
 20
131.35707331101594
 11
282.5976982071802
 21
131.35707331101594
  0
LINE
  8
_1-8_小物
  6
CONTINUOUS
 62
    4
 10
282.5976982071802
 20
131.35707331101594
 11
282.12487528339437
 21
131.45779074697211
  0
LINE
  8
_1-8_小物
  6
CONTINUOUS
 62
    4
 10
282.12487528339437
 20
131.45779074697211
 11
281.63445895336304
 21
131.49902170177148
  0
LINE
  8
_1-8_小物
  6
CONTINUOUS
 62
    4
 10
281.63445895336304
 20
131.49902170177148
 11
281.14135026911151
 21
131.47951339371627
  0
LINE
  8
_1-8_小物
  6
CONTINUOUS
 62
    4
 10
281.14135026911151
 20
131.47951339371627
 11
280.6605320884857
 21
131.39985857287513
  0
LINE
  8
_1-8_小物
  6
CONTINUOUS
 62
    4
 10
280.6605320884857
 20
131.39985857287513
 11
280.20661382859828
 21
131.262477510672
  0
LINE
  8
_1-8_小物
  6
CONTINUOUS
 62
    4
 10
280.20661382859828
 20
131.262477510672
 11
279.79338756608217
 21
131.07154446116377
  0
LINE
  8
_1-8_小物
  6
CONTINUOUS
 62
    4
 10
279.79338756608217
 20
131.07154446116377
 11
279.43340897182128
 21
130.8328608284429
  0
LINE
  8
_1-8_小物
  6
CONTINUOUS
 62
    4
 10
279.43340897182128
 20
130.8328608284429
 11
279.13761581324439
 21
130.55367889390996
  0
LINE
  8
_1-8_小物
  6
CONTINUOUS
 62
    4
 10
279.13761581324439
 20
130.55367889390996
 11
278.91499561579622
 21
130.24248145937278
  0
LINE
  8
_1-8_小物
  6
CONTINUOUS
 62
    4
 10
278.91499561579622
 20
130.24248145937278
 11
278.77231258152494
 21
129.90872410140634
  0
LINE
  8
_1-8_小物
  6
CONTINUOUS
 62
    4
 10
278.77231258152494
 20
129.90872410140634
 11
278.71390206222588
 21
129.56254786844303
  0
LINE
  8
_1-8_小物
  6
CONTINUOUS
 62
    4
 10
278.71390206222588
 20
129.56254786844303
 11
278.74153883197073
 21
129.2144711501478
  0
LINE
  8
_1-8_小物
  6
CONTINUOUS
 62
    4
 10
278.74153883197073
 20
129.2144711501478
 11
278.85438316149566
 21
128.8750700814708
  0
LINE
  8
_1-8_小物
  6
CONTINUOUS
 62
    4
 10
278.85438316149566
 20
128.8750700814708
 11
279.04900633295011
 21
128.55465719213848
  0
LINE
  8
_1-8_小物
  6
CONTINUOUS
 62
    4
 10
279.04900633295011
 20
128.55465719213848
 11
279.31949481975346
 21
128.26296806565651
  0
LINE
  8
_1-8_小物
  6
CONTINUOUS
 62
    4
 10
279.31949481975346
 20
128.26296806565651
 11
279.657629966108
 21
128.0088655285312
  0
LINE
  8
_1-8_小物
  6
CONTINUOUS
 62
    4
 10
279.657629966108
 20
128.0088655285312
 11
280.0531377066963
 21
127.80007035777102
  0
LINE
  8
_1-8_小物
  6
CONTINUOUS
 62
    4
 10
280.0531377066963
 20
127.80007035777102
 11
280.49400073895731
 21
127.64292668898406
  0
LINE
  8
_1-8_小物
  6
CONTINUOUS
 62
    4
 10
280.49400073895731
 20
127.64292668898406
 11
280.96682366274314
 21
127.54220925302788
  0
LINE
  8
_1-8_小物
  6
CONTINUOUS
 62
    4
 10
280.96682366274314
 20
127.54220925302788
 11
281.45723999277448
 21
127.50097829822853
  0
LINE
  8
_1-8_小物
  6
CONTINUOUS
 62
    4
 10
281.45723999277448
 20
127.50097829822853
 11
281.950348677026
 21
127.52048660628371
  0
LINE
  8
_1-8_小物
  6
CONTINUOUS
 62
    4
 10
281.950348677026
 20
127.52048660628371
 11
282.43116685765176
 21
127.60014142712487
  0
LINE
  8
_1-8_小物
  6
CONTINUOUS
 62
    4
 10
282.43116685765176
 20
127.60014142712487
 11
282.59769809938194
 21
127.64292665856115
  0
LINE
  8
_1-8_小物
  6
CONTINUOUS
 62
    4
 10
282.71851239622572
 20
131.84018902839438
 11
282.71851239622572
 21
131.84018902839438
  0
LINE
  8
_1-8_小物
  6
CONTINUOUS
 62
    4
 10
282.71851239622572
 20
131.84018902839438
 11
282.15887093122791
 21
131.9573593833947
  0
LINE
  8
_1-8_小物
  6
CONTINUOUS
 62
    4
 10
282.15887093122791
 20
131.9573593833947
 11
281.58060311942779
 21
131.99986411701445
  0
LINE
  8
_1-8_小物
  6
CONTINUOUS
 62
    4
 10
281.58060311942779
 20
131.99986411701445
 11
281.00127933566927
 21
131.96641174443101
  0
LINE
  8
_1-8_小物
  6
CONTINUOUS
 62
    4
 10
281.00127933566927
 20
131.96641174443101
 11
280.43850203996976
 21
131.8580186990576
  0
LINE
  8
_1-8_小物
  6
CONTINUOUS
 62
    4
 10
280.43850203996976
 20
131.8580186990576
 11
279.90937093568022
 21
131.67797844872834
  0
LINE
  8
_1-8_小物
  6
CONTINUOUS
 62
    4
 10
279.90937093568022
 20
131.67797844872834
 11
279.42996340365107
 21
131.43176142534472
  0
LINE
  8
_1-8_小物
  6
CONTINUOUS
 62
    4
 10
279.42996340365107
 20
131.43176142534472
 11
279.01484599915119
 21
131.12684880857049
  0
LINE
  8
_1-8_小物
  6
CONTINUOUS
 62
    4
 10
279.01484599915119
 20
131.12684880857049
 11
278.67663185445673
 21
130.77250521397303
  0
LINE
  8
_1-8_小物
  6
CONTINUOUS
 62
    4
 10
278.67663185445673
 20
130.77250521397303
 11
278.42559743520962
 21
130.37949719236772
  0
LINE
  8
_1-8_小物
  6
CONTINUOUS
 62
    4
 10
278.42559743520962
 20
130.37949719236772
 11
278.26937029520917
 21
129.95976609361938
  0
LINE
  8
_1-8_小物
  6
CONTINUOUS
 62
    4
 10
278.26937029520917
 20
129.95976609361938
 11
278.2126973170495
 21
129.52606523476928
  0
LINE
  8
_1-8_小物
  6
CONTINUOUS
 62
    4
 10
278.2126973170495
 20
129.52606523476928
 11
278.25730048049411
 21
129.09157239695037
  0
LINE
  8
_1-8_小物
  6
CONTINUOUS
 62
    4
 10
278.25730048049411
 20
129.09157239695037
 11
278.40182454099198
 21
128.66948942517575
  0
LINE
  8
_1-8_小物
  6
CONTINUOUS
 62
    4
 10
278.40182454099198
 20
128.66948942517575
 11
278.64187820809769
 21
128.27264109695858
  0
LINE
  8
_1-8_小物
  6
CONTINUOUS
 62
    4
 10
278.64187820809769
 20
128.27264109695858
 11
278.97016757260911
 21
127.91308544793672
  0
LINE
  8
_1-8_小物
  6
CONTINUOUS
 62
    4
 10
278.97016757260911
 20
127.91308544793672
 11
279.37671772830811
 21
127.60174739456181
  0
LINE
  8
_1-8_小物
  6
CONTINUOUS
 62
    4
 10
279.37671772830811
 20
127.60174739456181
 11
279.84917585443804
 21
127.34808678604097
  0
LINE
  8
_1-8_小物
  6
CONTINUOUS
 62
    4
 10
279.84917585443804
 20
127.34808678604097
 11
280.37318654991179
 21
127.15981097160564
  0
LINE
  8
_1-8_小物
  6
CONTINUOUS
 62
    4
 10
280.37318654991179
 20
127.15981097160564
 11
280.93282801490955
 21
127.04264061660528
  0
LINE
  8
_1-8_小物
  6
CONTINUOUS
 62
    4
 10
280.93282801490955
 20
127.04264061660528
 11
281.51109582670972
 21
127.00013588298553
  0
LINE
  8
_1-8_小物
  6
CONTINUOUS
 62
    4
 10
281.51109582670972
 20
127.00013588298553
 11
282.09041961046825
 21
127.03358825556899
  0
LINE
  8
_1-8_小物
  6
CONTINUOUS
 62
    4
 10
282.09041961046825
 20
127.03358825556899
 11
282.65319690616769
 21
127.14198130094242
  0
LINE
  8
_1-8_小物
  6
CONTINUOUS
 62
    4
 10
282.65319690616769
 20
127.14198130094242
 11
282.71851230902314
 21
127.15981094702607
  0
ARC
  8
_1-8_小物
  6
CONTINUOUS
 62
    4
 10
289.86995020385899
 20
124.49999999999997
 40
5
 50
97.555517989925917
 51
105.76016573963432
  0
ARC
  8
_1-8_小物
  6
CONTINUOUS
 62
    4
 10
289.93827812830773
 20
123.99999999999997
 40
5
 50
98.346104300156512
 51
105.74141158032096
  0
ARC
  8
_1-8_小物
  6
CONTINUOUS
 62
    4
 10
289.93827812830773
 20
135
 40
5
 50
254.25858841967909
 51
261.65389569984347
  0
ARC
  8
_1-8_小物
  6
CONTINUOUS
 62
    4
 10
289.86995020385899
 20
134.5
 40
5
 50
254.23983426036577
 51
262.44448201007407
  0
LINE
  8
_1-8_小物
  6
CONTINUOUS
 62
    4
 10
291.87918280640207
 20
129.24999999999997
 11
318.21251613973538
 21
129.24999999999997
  0
LINE
  8
_1-8_小物
  6
CONTINUOUS
 62
    4
 10
291.87918280640207
 20
129.75
 11
318.21251613973538
 21
129.75
  0
LINE
  8
_1-8_小物
  6
CONTINUOUS
 62
    4
 10
347.87918280640207
 20
129.24999999999997
 11
321.54584947306876
 21
129.24999999999997
  0
LINE
  8
_1-8_小物
  6
CONTINUOUS
 62
    4
 10
347.87918280640207
 20
129.75
 11
321.54584947306876
 21
129.75
  0
LINE
  8
_0-0_図面枠
  6
CONTINUOUS
 62
    4
 10
182.14999999999998
 20
56.199999999999989
 11
40
 21
56.199999999999989
  0
LINE
  8
_0-0_図面枠
  6
CONTINUOUS
 62
    4
 10
182.14999999999998
 20
68.199999999999989
 11
40
 21
68.199999999999989
  0
LINE
  8
_0-0_図面枠
  6
CONTINUOUS
 62
    4
 10
182.14999999999998
 20
62.199999999999989
 11
40
 21
62.199999999999989
  0
LINE
  8
_0-0_図面枠
  6
CONTINUOUS
 62
    4
 10
182.14999999999998
 20
74.199999999999989
 11
40
 21
74.199999999999989
  0
LINE
  8
_0-0_図面枠
  6
CONTINUOUS
 62
    4
 10
182.14999999999998
 20
110.20000000000005
 11
40
 21
110.20000000000005
  0
LINE
  8
_0-0_図面枠
  6
CONTINUOUS
 62
    4
 10
182.14999999999998
 20
104.20000000000005
 11
40
 21
104.20000000000005
  0
LINE
  8
_0-0_図面枠
  6
CONTINUOUS
 62
    4
 10
182.14999999999998
 20
98.200000000000045
 11
40
 21
98.200000000000045
  0
LINE
  8
_0-0_図面枠
  6
CONTINUOUS
 62
    4
 10
182.14999999999998
 20
92.200000000000045
 11
40
 21
92.200000000000045
  0
LINE
  8
_0-0_図面枠
  6
CONTINUOUS
 62
    4
 10
182.14999999999998
 20
86.200000000000045
 11
40
 21
86.200000000000045
  0
LINE
  8
_0-0_図面枠
  6
CONTINUOUS
 62
    4
 10
182.14999999999998
 20
80.199999999999989
 11
40
 21
80.199999999999989
  0
LINE
  8
_0-0_図面枠
  6
CONTINUOUS
 62
    4
 10
182.14999999999998
 20
121
 11
40
 21
121
  0
LINE
  8
_0-0_図面枠
  6
CONTINUOUS
 62
    4
 10
182.14999999999998
 20
50.199999999999989
 11
40
 21
50.199999999999989
  0
TEXT
  8
_0-0_図面枠
 62
    4
 10
165.55126400000003
 20
116.20001049999996
 40
3.2000000000000002
 41
1
 50
0
  1
使用
  0
TEXT
  8
_0-0_図面枠
 62
    4
 10
150.50638249999997
 20
116.20001049999996
 40
3.2000000000000002
 41
1
 50
0
  1
定　尺
  0
TEXT
  8
_0-0_図面枠
 62
    4
 10
148.3435475
 20
111.40000399999997
 40
3.2000000000000002
 41
1
 50
0
  1
（ｍｍ）
  0
TEXT
  8
_0-0_図面枠
 62
    4
 10
165.55126400000003
 20
111.40000399999997
 40
3.2000000000000002
 41
1
 50
0
  1
数量
  0
TEXT
  8
_0-0_図面枠
 62
    4
 10
40.497068000000013
 20
105.42754949999994
 40
3.2000000000000002
 41
1
 50
0
  1
　１
  0
TEXT
  8
_0-0_図面枠
 62
    4
 10
149.27047700000003
 20
105.40000399999997
 40
3.2000000000000002
 41
1
 50
0
  1
３０００
  0
TEXT
  8
_0-0_図面枠
 62
    4
 10
177.00512500000002
 20
105.40000399999997
 40
3.2000000000000002
 41
1
 50
0
  1
本
  0
TEXT
  8
_0-0_図面枠
 62
    4
 10
43.586831999999958
 20
99.427549499999941
 40
3.2000000000000002
 41
1
 50
0
  1
２
  0
TEXT
  8
_0-0_図面枠
 62
    4
 10
43.586831999999958
 20
93.427549499999941
 40
3.2000000000000002
 41
1
 50
0
  1
３
  0
TEXT
  8
_0-0_図面枠
 62
    4
 10
43.586831999999958
 20
87.427549499999941
 40
3.2000000000000002
 41
1
 50
0
  1
４
  0
TEXT
  8
_0-0_図面枠
 62
    4
 10
169.36022149999994
 20
87.450002999999924
 40
3.2000000000000002
 41
1
 50
0
  1
１
  0
TEXT
  8
_0-0_図面枠
 62
    4
 10
43.586831999999958
 20
81.427560999999969
 40
3.2000000000000002
 41
1
 50
0
  1
５
  0
TEXT
  8
_0-0_図面枠
 62
    4
 10
177.00512500000002
 20
81.399992499999996
 40
3.2000000000000002
 41
1
 50
0
  1
本
  0
TEXT
  8
_0-0_図面枠
 62
    4
 10
43.586831999999958
 20
75.427560999999969
 40
3.2000000000000002
 41
1
 50
0
  1
６
  0
TEXT
  8
_0-0_図面枠
 62
    4
 10
43.586831999999958
 20
69.427555499999983
 40
3.2000000000000002
 41
1
 50
0
  1
７
  0
TEXT
  8
_0-0_図面枠
 62
    4
 10
43.586831999999958
 20
63.427555499999983
 40
3.2000000000000002
 41
1
 50
0
  1
８
  0
TEXT
  8
_0-0_図面枠
 62
    4
 10
43.586831999999958
 20
57.427555499999983
 40
3.2000000000000002
 41
1
 50
0
  1
９
  0
LINE
  8
_0-0_図面枠
  6
CONTINUOUS
 62
    4
 10
382.15000000000009
 20
110.19999999999999
 11
240
 21
110.19999999999999
  0
LINE
  8
_0-0_図面枠
  6
CONTINUOUS
 62
    4
 10
382.15000000000009
 20
104.19999999999999
 11
240
 21
104.19999999999999
  0
LINE
  8
_0-0_図面枠
  6
CONTINUOUS
 62
    4
 10
382.15000000000009
 20
98.199999999999989
 11
240
 21
98.199999999999989
  0
LINE
  8
_0-0_図面枠
  6
CONTINUOUS
 62
    4
 10
382.15000000000009
 20
92.199999999999989
 11
240
 21
92.199999999999989
  0
LINE
  8
_0-0_図面枠
  6
CONTINUOUS
 62
    4
 10
382.15000000000009
 20
86.199999999999989
 11
240
 21
86.199999999999989
  0
LINE
  8
_0-0_図面枠
  6
CONTINUOUS
 62
    4
 10
382.15000000000009
 20
80.199999999999989
 11
240
 21
80.199999999999989
  0
LINE
  8
_0-0_図面枠
  6
CONTINUOUS
 62
    4
 10
382.15000000000009
 20
74.199999999999989
 11
240
 21
74.199999999999989
  0
LINE
  8
_0-0_図面枠
  6
CONTINUOUS
 62
    4
 10
382.15000000000009
 20
68.199999999999989
 11
240
 21
68.199999999999989
  0
LINE
  8
_0-0_図面枠
  6
CONTINUOUS
 62
    4
 10
382.15000000000009
 20
62.199999999999989
 11
240
 21
62.199999999999989
  0
LINE
  8
_0-0_図面枠
  6
CONTINUOUS
 62
    4
 10
382.15000000000009
 20
56.199999999999989
 11
240
 21
56.199999999999989
  0
LINE
  8
_0-0_図面枠
  6
CONTINUOUS
 62
    4
 10
382.15000000000009
 20
121
 11
240
 21
121
  0
LINE
  8
_0-0_図面枠
  6
CONTINUOUS
 62
    4
 10
382.15000000000009
 20
50.199999999999989
 11
240
 21
50.199999999999989
  0
TEXT
  8
_0-0_図面枠
 62
    4
 10
365.55123000000003
 20
116.20001050000002
 40
3.2000000000000002
 41
1
 50
0
  1
使用
  0
TEXT
  8
_0-0_図面枠
 62
    4
 10
350.50632500000006
 20
116.20002199999999
 40
3.2000000000000002
 41
1
 50
0
  1
定　尺
  0
TEXT
  8
_0-0_図面枠
 62
    4
 10
348.34349000000003
 20
111.400015
 40
3.2000000000000002
 41
1
 50
0
  1
（ｍｍ）
  0
TEXT
  8
_0-0_図面枠
 62
    4
 10
365.55123000000003
 20
111.40000400000002
 40
3.2000000000000002
 41
1
 50
0
  1
数量
  0
TEXT
  8
_0-0_図面枠
 62
    4
 10
240.4970505
 20
105.4275495
 40
3.2000000000000002
 41
1
 50
0
  1
　１
  0
TEXT
  8
_0-0_図面枠
 62
    4
 10
243.5868145
 20
99.427549499999998
 40
3.2000000000000002
 41
1
 50
0
  1
２
  0
TEXT
  8
_0-0_図面枠
 62
    4
 10
243.5868145
 20
93.427549499999998
 40
3.2000000000000002
 41
1
 50
0
  1
３
  0
TEXT
  8
_0-0_図面枠
 62
    4
 10
243.5868145
 20
87.427549499999998
 40
3.2000000000000002
 41
1
 50
0
  1
４
  0
TEXT
  8
_0-0_図面枠
 62
    4
 10
243.5868145
 20
81.427560999999997
 40
3.2000000000000002
 41
1
 50
0
  1
５
  0
TEXT
  8
_0-0_図面枠
 62
    4
 10
243.5868145
 20
75.427560999999997
 40
3.2000000000000002
 41
1
 50
0
  1
６
  0
TEXT
  8
_0-0_図面枠
 62
    4
 10
243.5868145
 20
69.427560999999997
 40
3.2000000000000002
 41
1
 50
0
  1
７
  0
TEXT
  8
_0-0_図面枠
 62
    4
 10
243.5868145
 20
63.427555499999983
 40
3.2000000000000002
 41
1
 50
0
  1
８
  0
TEXT
  8
_0-0_図面枠
 62
    4
 10
243.5868145
 20
57.427555499999983
 40
3.2000000000000002
 41
1
 50
0
  1
９
  0
TEXT
  8
_0-0_図面枠
 62
    4
 10
240.4970505
 20
51.427555499999983
 40
3.2000000000000002
 41
1
 50
0
  1
１０
  0
TEXT
  8
_0-0_図面枠
 62
    4
 10
169.36022149999994
 20
105.44999150000001
 40
3.2000000000000002
 41
1
 50
0
  1
１
  0
TEXT
  8
_0-0_図面枠
 62
    4
 10
48.400007500000015
 20
87.400003999999967
 40
3.2000000000000002
 41
1
 50
0
  1
ＳＳＧばねフレーム
  0
TEXT
  8
_0-0_図面枠
 62
    4
 10
149.27047700000003
 20
87.400003999999967
 40
3.2000000000000002
 41
1
 50
0
  1
３０００
  0
TEXT
  8
_0-0_図面枠
 62
    4
 10
169.36022149999994
 20
93.44999150000001
 40
3.2000000000000002
 41
1
 50
0
  1
６
  0
TEXT
  8
_0-0_図面枠
 62
    4
 10
149.27047700000003
 20
81.400003999999967
 40
3.2000000000000002
 41
1
 50
0
  1
３０００
  0
TEXT
  8
_0-0_図面枠
 62
    4
 10
169.36022149999994
 20
81.450002999999924
 40
3.2000000000000002
 41
1
 50
0
  1
１
  0
TEXT
  8
_0-0_図面枠
 62
    4
 10
177.00512500000002
 20
93.400004000000024
 40
3.2000000000000002
 41
1
 50
0
  1
個
  0
TEXT
  8
_0-0_図面枠
 62
    4
 10
178.54999999999998
 20
118.80000000000001
 40
3.2000000000000002
 41
1
 50
0
  1
単位
  7
TATEGAKI
  0
TEXT
  8
_0-0_図面枠
 62
    4
 10
378.55000000000007
 20
118.80000000000001
 40
3.2000000000000002
 41
1
 50
0
  1
単位
  7
TATEGAKI
  0
TEXT
  8
_0-0_図面枠
 62
    4
 10
177.00512500000002
 20
69.399992499999996
 40
3.2000000000000002
 41
1
 50
0
  1
本
  0
TEXT
  8
_0-0_図面枠
 62
    4
 10
40.4970505
 20
51.427555499999983
 40
3.2000000000000002
 41
1
 50
0
  1
１０
  0
TEXT
  8
_0-0_図面枠
 62
    4
 10
349.27047700000014
 20
105.40000399999997
 40
3.2000000000000002
 41
1
 50
0
  1
３０００
  0
TEXT
  8
_0-0_図面枠
 62
    4
 10
377.00512500000013
 20
105.40000399999997
 40
3.2000000000000002
 41
1
 50
0
  1
本
  0
TEXT
  8
_0-0_図面枠
 62
    4
 10
369.36022150000008
 20
87.450002999999924
 40
3.2000000000000002
 41
1
 50
0
  1
１
  0
TEXT
  8
_0-0_図面枠
 62
    4
 10
377.00512500000013
 20
81.399992499999996
 40
3.2000000000000002
 41
1
 50
0
  1
本
  0
TEXT
  8
_0-0_図面枠
 62
    4
 10
369.36022150000008
 20
105.44999150000001
 40
3.2000000000000002
 41
1
 50
0
  1
１
  0
TEXT
  8
_0-0_図面枠
 62
    4
 10
349.27047700000014
 20
87.400003999999967
 40
3.2000000000000002
 41
1
 50
0
  1
３０００
  0
TEXT
  8
_0-0_図面枠
 62
    4
 10
369.36022150000008
 20
93.44999150000001
 40
3.2000000000000002
 41
1
 50
0
  1
６
  0
TEXT
  8
_0-0_図面枠
 62
    4
 10
349.27047700000014
 20
81.400003999999967
 40
3.2000000000000002
 41
1
 50
0
  1
３０００
  0
TEXT
  8
_0-0_図面枠
 62
    4
 10
369.36022150000008
 20
81.450002999999924
 40
3.2000000000000002
 41
1
 50
0
  1
１
  0
TEXT
  8
_0-0_図面枠
 62
    4
 10
377.00512500000013
 20
93.400004000000024
 40
3.2000000000000002
 41
1
 50
0
  1
個
  0
TEXT
  8
_0-0_図面枠
 62
    4
 10
377.00512500000013
 20
69.399992499999996
 40
3.2000000000000002
 41
1
 50
0
  1
本
  0
TEXT
  8
_0-0_図面枠
 62
    4
 10
248.4000075000001
 20
87.400003999999967
 40
3.2000000000000002
 41
1
 50
0
  1
ＳＣＧばねフレーム
  0
TEXT
  8
_0-0_図面枠
 62
    4
 10
177.00512500000002
 20
87.400003999999967
 40
3.2000000000000002
 41
1
 50
0
  1
本
  0
TEXT
  8
_0-0_図面枠
 62
    4
 10
67.633333333333383
 20
114.00000000000003
 40
3.2000000000000002
 41
1
 50
0
  1
部材名称
  0
TEXT
  8
_0-0_図面枠
 62
    4
 10
119.10833333333338
 20
114.00000000000001
 40
3.2000000000000002
 41
1
 50
0
  1
規　格
  0
TEXT
  8
_0-0_図面枠
 62
    4
 10
319.10833333333335
 20
114
 40
3.2000000000000002
 41
1
 50
0
  1
規　格
  0
TEXT
  8
_0-0_図面枠
 62
    4
 10
267.63333333333333
 20
114
 40
3.2000000000000002
 41
1
 50
0
  1
部材名称
  0
TEXT
  8
_0-0_図面枠
 62
    4
 10
48.400007500000015
 20
99.400003999999967
 40
3.2000000000000002
 41
1
 50
0
  1
ＳＳＧアーム(Ｃ)
  0
TEXT
  8
_0-0_図面枠
 62
    4
 10
48.400007500000015
 20
93.400003999999967
 40
3.2000000000000002
 41
1
 50
0
  1
ＳＳＧばね(Ｃ)
  0
TEXT
  8
_0-0_図面枠
 62
    4
 10
48.400007500000015
 20
81.400003999999967
 40
3.2000000000000002
 41
1
 50
0
  1
ＳＳＧフレーム(Ｃ)
  0
TEXT
  8
_0-0_図面枠
 62
    4
 10
248.4000075000001
 20
99.400003999999967
 40
3.2000000000000002
 41
1
 50
0
  1
ＳＣＧアーム(Ｃ)
  0
TEXT
  8
_0-0_図面枠
 62
    4
 10
248.4000075000001
 20
93.400003999999967
 40
3.2000000000000002
 41
1
 50
0
  1
ＳＣＧばね(Ｃ)
  0
TEXT
  8
_0-0_図面枠
 62
    4
 10
248.4000075000001
 20
81.400003999999967
 40
3.2000000000000002
 41
1
 50
0
  1
ＳＳＧフレーム(Ｃ)
  0
TEXT
  8
_0-0_図面枠
 62
    4
 10
166.27045749999999
 20
69.450008499999967
 40
3.2000000000000002
 41
1
 50
0
  1
１２
  0
TEXT
  8
_0-0_図面枠
 62
    4
 10
48.400007500000015
 20
69.40000950000001
 40
3.2000000000000002
 41
1
 50
0
  1
ステンタッピンねじ
  0
TEXT
  8
_0-0_図面枠
 62
    4
 10
48.400007500000015
 20
63.40000950000001
 40
3.2000000000000002
 41
1
 50
0
  1
ステンワッシャー
  0
TEXT
  8
_0-0_図面枠
 62
    4
 10
149.27047700000003
 20
51.40000950000001
 40
3.2000000000000002
 41
1
 50
0
  1
３１００
  0
TEXT
  8
_0-0_図面枠
 62
    4
 10
169.36022149999994
 20
51.449997499999995
 40
3.2000000000000002
 41
1
 50
0
  1
２
  0
TEXT
  8
_0-0_図面枠
 62
    4
 10
177.00512500000002
 20
51.40000950000001
 40
3.2000000000000002
 41
1
 50
0
  1
本
  0
TEXT
  8
_0-0_図面枠
 62
    4
 10
166.27045749999999
 20
63.450008499999967
 40
3.2000000000000002
 41
1
 50
0
  1
１２
  0
TEXT
  8
_0-0_図面枠
 62
    4
 10
166.27045749999999
 20
57.450008499999967
 40
3.2000000000000002
 41
1
 50
0
  1
１２
  0
TEXT
  8
_0-0_図面枠
 62
    4
 10
177.00512500000002
 20
57.399992499999996
 40
3.2000000000000002
 41
1
 50
0
  1
本
  0
TEXT
  8
_0-0_図面枠
 62
    4
 10
177.00512500000002
 20
63.40000950000001
 40
3.2000000000000002
 41
1
 50
0
  1
枚
  0
TEXT
  8
_0-0_図面枠
 62
    4
 10
177.00512500000002
 20
69.399992499999996
 40
3.2000000000000002
 41
1
 50
0
  1
本
  0
TEXT
  8
_0-0_図面枠
 62
    4
 10
102.06669116666677
 20
69.40000950000001
 40
3.2000000000000002
 41
1
 50
0
  1
なべ５×５０
  0
TEXT
  8
_0-0_図面枠
 62
    4
 10
102.06663366666675
 20
63.400003999999996
 40
3.2000000000000002
 41
1
 50
0
  1
１．５×１８×５．５穴
  0
TEXT
  8
_0-0_図面枠
 62
    4
 10
366.27045750000013
 20
69.450008499999967
 40
3.2000000000000002
 41
1
 50
0
  1
１２
  0
TEXT
  8
_0-0_図面枠
 62
    4
 10
248.4000075000001
 20
69.40000950000001
 40
3.2000000000000002
 41
1
 50
0
  1
ステンタッピンねじ
  0
TEXT
  8
_0-0_図面枠
 62
    4
 10
248.4000075000001
 20
63.40000950000001
 40
3.2000000000000002
 41
1
 50
0
  1
ステンワッシャー
  0
TEXT
  8
_0-0_図面枠
 62
    4
 10
349.27047700000014
 20
51.40000950000001
 40
3.2000000000000002
 41
1
 50
0
  1
３１００
  0
TEXT
  8
_0-0_図面枠
 62
    4
 10
369.36022150000008
 20
51.449997499999995
 40
3.2000000000000002
 41
1
 50
0
  1
２
  0
TEXT
  8
_0-0_図面枠
 62
    4
 10
377.00512500000013
 20
51.40000950000001
 40
3.2000000000000002
 41
1
 50
0
  1
本
  0
TEXT
  8
_0-0_図面枠
 62
    4
 10
366.27045750000013
 20
63.450008499999967
 40
3.2000000000000002
 41
1
 50
0
  1
１２
  0
TEXT
  8
_0-0_図面枠
 62
    4
 10
366.27045750000013
 20
57.450008499999967
 40
3.2000000000000002
 41
1
 50
0
  1
１２
  0
TEXT
  8
_0-0_図面枠
 62
    4
 10
377.00512500000013
 20
57.399992499999996
 40
3.2000000000000002
 41
1
 50
0
  1
本
  0
TEXT
  8
_0-0_図面枠
 62
    4
 10
377.00512500000013
 20
63.40000950000001
 40
3.2000000000000002
 41
1
 50
0
  1
枚
  0
TEXT
  8
_0-0_図面枠
 62
    4
 10
377.00512500000013
 20
69.399992499999996
 40
3.2000000000000002
 41
1
 50
0
  1
本
  0
TEXT
  8
_0-0_図面枠
 62
    4
 10
302.06669116666689
 20
69.40000950000001
 40
3.2000000000000002
 41
1
 50
0
  1
なべ５×５０
  0
TEXT
  8
_0-0_図面枠
 62
    4
 10
302.06663366666686
 20
63.400003999999996
 40
3.2000000000000002
 41
1
 50
0
  1
１．５×１８×５．５穴
  0
TEXT
  8
_0-0_図面枠
 62
    4
 10
48.400007500000015
 20
76.000009500000004
 40
3.2000000000000002
 41
1
 50
0
  1
ステンドリリングねじ
  0
TEXT
  8
_0-0_図面枠
 62
    4
 10
248.40000750000002
 20
76.000009500000004
 40
3.2000000000000002
 41
1
 50
0
  1
ステンドリリングねじ
  0
TEXT
  8
_0-0_図面枠
 62
    4
 10
169.36022149999994
 20
99.44999150000001
 40
3.2000000000000002
 41
1
 50
0
  1
６
  0
TEXT
  8
_0-0_図面枠
 62
    4
 10
177.00512500000002
 20
99.400004000000024
 40
3.2000000000000002
 41
1
 50
0
  1
個
  0
TEXT
  8
_0-0_図面枠
 62
    4
 10
369.36022150000008
 20
99.449991499999953
 40
3.2000000000000002
 41
1
 50
0
  1
６
  0
TEXT
  8
_0-0_図面枠
 62
    4
 10
377.00512500000013
 20
99.400003999999967
 40
3.2000000000000002
 41
1
 50
0
  1
個
  0
LINE
  8
_0-0_図面枠
  6
CONTINUOUS
 62
    4
 10
182.14999999999998
 20
38.199999999999989
 11
40
 21
38.199999999999989
  0
LINE
  8
_0-0_図面枠
  6
CONTINUOUS
 62
    4
 10
182.14999999999998
 20
32.199999999999989
 11
40
 21
32.199999999999989
  0
LINE
  8
_0-0_図面枠
  6
CONTINUOUS
 62
    4
 10
182.14999999999998
 20
26.199999999999989
 11
40
 21
26.199999999999989
  0
TEXT
  8
_0-0_図面枠
 62
    4
 10
43.586831999999958
 20
33.427555499999983
 40
3.2000000000000002
 41
1
 50
0
  1
※
  0
TEXT
  8
_0-0_図面枠
 62
    4
 10
43.586831999999958
 20
27.427560999999969
 40
3.2000000000000002
 41
1
 50
0
  1
※
  0
LINE
  8
_0-0_図面枠
  6
CONTINUOUS
 62
    4
 10
382.15000000000009
 20
38.199999999999989
 11
240
 21
38.199999999999989
  0
LINE
  8
_0-0_図面枠
  6
CONTINUOUS
 62
    4
 10
382.15000000000009
 20
26.199999999999989
 11
240
 21
26.199999999999989
  0
LINE
  8
_0-0_図面枠
  6
CONTINUOUS
 62
    4
 10
382.15000000000009
 20
32.199999999999989
 11
240
 21
32.199999999999989
  0
TEXT
  8
_0-0_図面枠
 62
    4
 10
243.5868145
 20
33.427555499999983
 40
3.2000000000000002
 41
1
 50
0
  1
※
  0
TEXT
  8
_0-0_図面枠
 62
    4
 10
243.5868145
 20
27.427555499999983
 40
3.2000000000000002
 41
1
 50
0
  1
※
  0
TEXT
  8
_0-0_図面枠
 62
    4
 10
169.36022149999994
 20
39.450002999999981
 40
3.2000000000000002
 41
1
 50
0
  1
１
  0
TEXT
  8
_0-0_図面枠
 62
    4
 10
177.00512500000002
 20
39.400003999999967
 40
3.2000000000000002
 41
1
 50
0
  1
個
  0
TEXT
  8
_0-0_図面枠
 62
    4
 10
149.27047700000003
 20
33.400014999999996
 40
3.2000000000000002
 41
1
 50
0
  1
６０００
  0
TEXT
  8
_0-0_図面枠
 62
    4
 10
169.36022149999994
 20
33.450002999999981
 40
3.2000000000000002
 41
1
 50
0
  1
１
  0
TEXT
  8
_0-0_図面枠
 62
    4
 10
177.00512500000002
 20
33.40000950000001
 40
3.2000000000000002
 41
1
 50
0
  1
巻
  0
TEXT
  8
_0-0_図面枠
 62
    4
 10
48.400007500000015
 20
33.40000950000001
 40
3.2000000000000002
 41
1
 50
0
  1
ブチルテープ
  0
TEXT
  8
_0-0_図面枠
 62
    4
 10
169.36022149999994
 20
27.450002999999981
 40
3.2000000000000002
 41
1
 50
0
  1
２
  0
TEXT
  8
_0-0_図面枠
 62
    4
 10
177.00512500000002
 20
27.40000950000001
 40
3.2000000000000002
 41
1
 50
0
  1
本
  0
TEXT
  8
_0-0_図面枠
 62
    4
 10
102.06669116666677
 20
33.40000950000001
 40
3.2000000000000002
 41
1
 50
0
  1
ｔ１．０×ｗ３０
  0
TEXT
  8
_0-0_図面枠
 62
    4
 10
102.06669116666677
 20
27.40000950000001
 40
3.2000000000000002
 41
1
 50
0
  1
１.５×(１×１９)Ｌ＝６００
  0
TEXT
  8
_0-0_図面枠
 62
    4
 10
43.586831999999958
 20
39.427555499999983
 40
3.2000000000000002
 41
1
 50
0
  1
※
  0
TEXT
  8
_0-0_図面枠
 62
    4
 10
369.8602370000001
 20
39.450002999999981
 40
3.2000000000000002
 41
1
 50
0
  1
１
  0
TEXT
  8
_0-0_図面枠
 62
    4
 10
377.00510200000008
 20
39.400003999999996
 40
3.2000000000000002
 41
1
 50
0
  1
個
  0
TEXT
  8
_0-0_図面枠
 62
    4
 10
349.27041950000012
 20
33.40000950000001
 40
3.2000000000000002
 41
1
 50
0
  1
６０００
  0
TEXT
  8
_0-0_図面枠
 62
    4
 10
369.8602370000001
 20
33.450002999999981
 40
3.2000000000000002
 41
1
 50
0
  1
１
  0
TEXT
  8
_0-0_図面枠
 62
    4
 10
377.00510200000008
 20
33.40000950000001
 40
3.2000000000000002
 41
1
 50
0
  1
巻
  0
TEXT
  8
_0-0_図面枠
 62
    4
 10
248.400013
 20
33.40000950000001
 40
3.2000000000000002
 41
1
 50
0
  1
ブチルテープ
  0
TEXT
  8
_0-0_図面枠
 62
    4
 10
369.8602370000001
 20
27.450002999999981
 40
3.2000000000000002
 41
1
 50
0
  1
２
  0
TEXT
  8
_0-0_図面枠
 62
    4
 10
377.00510200000008
 20
27.400006499999989
 40
3.2000000000000002
 41
1
 50
0
  1
本
  0
TEXT
  8
_0-0_図面枠
 62
    4
 10
302.06663366666669
 20
33.40000950000001
 40
3.2000000000000002
 41
1
 50
0
  1
ｔ１．０×ｗ３０
  0
TEXT
  8
_0-0_図面枠
 62
    4
 10
302.06669116666671
 20
27.400009499999982
 40
3.2000000000000002
 41
1
 50
0
  1
１.５×(１×１９)Ｌ＝６００
  0
TEXT
  8
_0-0_図面枠
 62
    4
 10
243.5868145
 20
39.427558500000004
 40
3.2000000000000002
 41
1
 50
0
  1
※
  0
TEXT
  8
_0-0_図面枠
 62
    4
 10
248.40000750000002
 20
27.40000950000001
 40
3.2000000000000002
 41
1
 50
0
  1
落下防止ワイヤー
  0
TEXT
  8
_0-0_図面枠
 62
    4
 10
48.400007500000015
 20
27.40000950000001
 40
3.2000000000000002
 41
1
 50
0
  1
落下防止ワイヤー
  0
LINE
  8
_0-0_図面枠
  6
CONTINUOUS
 62
    4
 10
240
 20
26.199999999999989
 11
240
 21
121.00000000000003
  0
LINE
  8
_0-0_図面枠
  6
CONTINUOUS
 62
    4
 10
247.20000000000005
 20
26.199999999999989
 11
247.20000000000005
 21
121.00000000000003
  0
LINE
  8
_0-0_図面枠
  6
CONTINUOUS
 62
    4
 10
346.95000000000005
 20
26.199999999999989
 11
346.95000000000005
 21
121
  0
LINE
  8
_0-0_図面枠
  6
CONTINUOUS
 62
    4
 10
382.15000000000009
 20
26.199999999999989
 11
382.15000000000009
 21
121
  0
LINE
  8
_0-0_図面枠
  6
CONTINUOUS
 62
    4
 10
374.95000000000005
 20
26.199999999999989
 11
374.95000000000005
 21
121
  0
LINE
  8
_0-0_図面枠
  6
CONTINUOUS
 62
    4
 10
362.95000000000005
 20
26.199999999999989
 11
362.95000000000005
 21
121
  0
LINE
  8
_0-0_図面枠
  6
CONTINUOUS
 62
    4
 10
347.95000000000005
 20
26.199999999999989
 11
347.95000000000005
 21
121
  0
LINE
  8
_0-0_図面枠
  6
CONTINUOUS
 62
    4
 10
300.86666666666667
 20
26.199999999999989
 11
300.86666666666667
 21
121
  0
LINE
  8
_0-0_図面枠
  6
CONTINUOUS
 62
    4
 10
40
 20
26.199999999999989
 11
40
 21
121.00000000000003
  0
LINE
  8
_0-0_図面枠
  6
CONTINUOUS
 62
    4
 10
47.200000000000045
 20
26.199999999999989
 11
47.200000000000045
 21
121.00000000000003
  0
LINE
  8
_0-0_図面枠
  6
CONTINUOUS
 62
    4
 10
162.95000000000002
 20
26.199999999999989
 11
162.95000000000002
 21
121.00000000000001
  0
LINE
  8
_0-0_図面枠
  6
CONTINUOUS
 62
    4
 10
147.95000000000005
 20
26.199999999999989
 11
147.95000000000005
 21
121.00000000000001
  0
LINE
  8
_0-0_図面枠
  6
CONTINUOUS
 62
    4
 10
174.95000000000005
 20
26.199999999999989
 11
174.95000000000005
 21
121.00000000000001
  0
LINE
  8
_0-0_図面枠
  6
CONTINUOUS
 62
    4
 10
146.95000000000005
 20
26.199999999999989
 11
146.95000000000005
 21
121.00000000000001
  0
LINE
  8
_0-0_図面枠
  6
CONTINUOUS
 62
    4
 10
182.14999999999998
 20
26.199999999999989
 11
182.14999999999998
 21
121.00000000000001
  0
LINE
  8
_0-0_図面枠
  6
CONTINUOUS
 62
    4
 10
100.86666666666673
 20
26.199999999999989
 11
100.86666666666673
 21
121.00000000000003
  0
TEXT
  8
_0-0_図面枠
 62
    4
 10
122.30833333333341
 20
105.60000000000007
 40
3.2000000000000002
 41
1
 50
0
  1
―
  0
TEXT
  8
_0-0_図面枠
 62
    4
 10
122.30833333333341
 20
93.600000000000065
 40
3.2000000000000002
 41
1
 50
0
  1
―
  0
TEXT
  8
_0-0_図面枠
 62
    4
 10
122.30833333333341
 20
87.600000000000065
 40
3.2000000000000002
 41
1
 50
0
  1
―
  0
TEXT
  8
_0-0_図面枠
 62
    4
 10
122.30833333333341
 20
81.600000000000065
 40
3.2000000000000002
 41
1
 50
0
  1
―
  0
TEXT
  8
_0-0_図面枠
 62
    4
 10
153.85000000000005
 20
93.600000000000051
 40
3.2000000000000002
 41
1
 50
0
  1
―
  0
TEXT
  8
_0-0_図面枠
 62
    4
 10
153.85000000000005
 20
99.600000000000051
 40
3.2000000000000002
 41
1
 50
0
  1
―
  0
TEXT
  8
_0-0_図面枠
 62
    4
 10
102.06669116666676
 20
99.400004000000024
 40
3.2000000000000002
 41
1
 50
0
  1
Ｌ＝２４０
  0
LINE
  8
_0-0_図面枠
  6
CONTINUOUS
 62
    4
 10
182.14999999999998
 20
44.199999999999989
 11
40
 21
44.199999999999989
  0
LINE
  8
_0-0_図面枠
  6
CONTINUOUS
 62
    4
 10
382.15000000000009
 20
44.199999999999989
 11
240
 21
44.199999999999989
  0
TEXT
  8
_0-0_図面枠
 62
    4
 10
40.4970505
 20
45.427555499999983
 40
3.2000000000000002
 41
1
 50
0
  1
１１
  0
TEXT
  8
_0-0_図面枠
 62
    4
 10
240.4970505
 20
45.427555499999983
 40
3.2000000000000002
 41
1
 50
0
  1
１１
  0
TEXT
  8
_0-0_図面枠
 62
    4
 10
122.30833333333339
 20
51.59999999999998
 40
3.2000000000000002
 41
1
 50
0
  1
―
  0
TEXT
  8
_0-0_図面枠
 62
    4
 10
102.06669116666671
 20
57.400009499999982
 40
3.2000000000000002
 41
1
 50
0
  1
φ８×４０
  0
TEXT
  8
_0-0_図面枠
 62
    4
 10
48.400007500000015
 20
51.400003999999967
 40
3.2000000000000002
 41
1
 50
0
  1
ガスケットＧＡ２０
  0
TEXT
  8
_0-0_図面枠
 62
    4
 10
122.30833333333337
 20
45.599999999999994
 40
3.2000000000000002
 41
1
 50
0
  1
―
  0
TEXT
  8
_0-0_図面枠
 62
    4
 10
48.400007499999987
 20
45.400003999999967
 40
3.2000000000000002
 41
1
 50
0
  1
ＳＳＧクリップ
  0
TEXT
  8
_0-0_図面枠
 62
    4
 10
322.30833333333339
 20
51.59999999999998
 40
3.2000000000000002
 41
1
 50
0
  1
―
  0
TEXT
  8
_0-0_図面枠
 62
    4
 10
302.06669116666671
 20
57.400009499999982
 40
3.2000000000000002
 41
1
 50
0
  1
φ８×４０
  0
TEXT
  8
_0-0_図面枠
 62
    4
 10
322.30833333333334
 20
45.599999999999994
 40
3.2000000000000002
 41
1
 50
0
  1
―
  0
TEXT
  8
_0-0_図面枠
 62
    4
 10
248.40000749999999
 20
45.400003999999967
 40
3.2000000000000002
 41
1
 50
0
  1
ＳＳＧクリップ
  0
TEXT
  8
_0-0_図面枠
 62
    4
 10
102.06667966666672
 20
39.400003999999967
 40
3.2000000000000002
 41
1
 50
0
  1
ＡＬ　ｔ＝１．５
  0
TEXT
  8
_0-0_図面枠
 62
    4
 10
302.06667966666669
 20
39.400003999999967
 40
3.2000000000000002
 41
1
 50
0
  1
ＡＬ　ｔ＝１．５
  0
TEXT
  8
_0-0_図面枠
 62
    4
 10
322.30833333333328
 20
105.60000000000001
 40
3.2000000000000002
 41
1
 50
0
  1
―
  0
TEXT
  8
_0-0_図面枠
 62
    4
 10
322.30833333333328
 20
93.600000000000009
 40
3.2000000000000002
 41
1
 50
0
  1
―
  0
TEXT
  8
_0-0_図面枠
 62
    4
 10
322.30833333333328
 20
87.600000000000009
 40
3.2000000000000002
 41
1
 50
0
  1
―
  0
TEXT
  8
_0-0_図面枠
 62
    4
 10
322.30833333333328
 20
81.600000000000009
 40
3.2000000000000002
 41
1
 50
0
  1
―
  0
TEXT
  8
_0-0_図面枠
 62
    4
 10
353.85000000000002
 20
93.599999999999994
 40
3.2000000000000002
 41
1
 50
0
  1
―
  0
TEXT
  8
_0-0_図面枠
 62
    4
 10
353.85000000000002
 20
99.599999999999994
 40
3.2000000000000002
 41
1
 50
0
  1
―
  0
TEXT
  8
_0-0_図面枠
 62
    4
 10
302.06669116666671
 20
99.400003999999967
 40
3.2000000000000002
 41
1
 50
0
  1
Ｌ＝１７２
  0
TEXT
  8
_0-0_図面枠
 62
    4
 10
377.00512500000013
 20
87.399992499999996
 40
3.2000000000000002
 41
1
 50
0
  1
本
  0
TEXT
  8
_0-0_図面枠
 62
    4
 10
377.00512500000013
 20
75.399992499999996
 40
3.2000000000000002
 41
1
 50
0
  1
本
  0
TEXT
  8
_0-0_図面枠
 62
    4
 10
377.00510200000008
 20
45.400003999999996
 40
3.2000000000000002
 41
1
 50
0
  1
個
  0
TEXT
  8
_0-0_図面枠
 62
    4
 10
177.00512500000002
 20
45.400003999999967
 40
3.2000000000000002
 41
1
 50
0
  1
個
  0
TEXT
  8
_0-0_図面枠
 62
    4
 10
153.85000000000005
 20
27.599999999999994
 40
3.2000000000000002
 41
1
 50
0
  1
―
  0
TEXT
  8
_0-0_図面枠
 62
    4
 10
153.85000000000005
 20
39.599999999999994
 40
3.2000000000000002
 41
1
 50
0
  1
―
  0
TEXT
  8
_0-0_図面枠
 62
    4
 10
153.85000000000005
 20
45.599999999999994
 40
3.2000000000000002
 41
1
 50
0
  1
―
  0
TEXT
  8
_0-0_図面枠
 62
    4
 10
153.85000000000005
 20
57.599999999999994
 40
3.2000000000000002
 41
1
 50
0
  1
―
  0
TEXT
  8
_0-0_図面枠
 62
    4
 10
153.85000000000005
 20
63.599999999999994
 40
3.2000000000000002
 41
1
 50
0
  1
―
  0
TEXT
  8
_0-0_図面枠
 62
    4
 10
153.85000000000005
 20
69.599999999999994
 40
3.2000000000000002
 41
1
 50
0
  1
―
  0
TEXT
  8
_0-0_図面枠
 62
    4
 10
153.85000000000005
 20
75.599999999999994
 40
3.2000000000000002
 41
1
 50
0
  1
―
  0
TEXT
  8
_0-0_図面枠
 62
    4
 10
177.00512500000002
 20
75.399992499999996
 40
3.2000000000000002
 41
1
 50
0
  1
本
  0
TEXT
  8
_0-0_図面枠
 62
    4
 10
166.27045749999999
 20
75.450008499999967
 40
3.2000000000000002
 41
1
 50
0
  1
１２
  0
TEXT
  8
_0-0_図面枠
 62
    4
 10
177.00512500000002
 20
75.399992499999996
 40
3.2000000000000002
 41
1
 50
0
  1
本
  0
TEXT
  8
_0-0_図面枠
 62
    4
 10
169.36022149999994
 20
45.449991499999953
 40
3.2000000000000002
 41
1
 50
0
  1
６
  0
TEXT
  8
_0-0_図面枠
 62
    4
 10
369.36022149999997
 20
45.449991499999953
 40
3.2000000000000002
 41
1
 50
0
  1
６
  0
TEXT
  8
_0-0_図面枠
 62
    4
 10
366.27045750000013
 20
75.450008499999967
 40
3.2000000000000002
 41
1
 50
0
  1
１２
  0
TEXT
  8
_0-0_図面枠
 62
    4
 10
353.85000000000002
 20
75.599999999999994
 40
3.2000000000000002
 41
1
 50
0
  1
―
  0
TEXT
  8
_0-0_図面枠
 62
    4
 10
353.85000000000002
 20
69.599999999999994
 40
3.2000000000000002
 41
1
 50
0
  1
―
  0
TEXT
  8
_0-0_図面枠
 62
    4
 10
353.85000000000002
 20
63.599999999999994
 40
3.2000000000000002
 41
1
 50
0
  1
―
  0
TEXT
  8
_0-0_図面枠
 62
    4
 10
353.85000000000002
 20
57.599999999999994
 40
3.2000000000000002
 41
1
 50
0
  1
―
  0
TEXT
  8
_0-0_図面枠
 62
    4
 10
353.85000000000002
 20
45.599999999999994
 40
3.2000000000000002
 41
1
 50
0
  1
―
  0
TEXT
  8
_0-0_図面枠
 62
    4
 10
353.85000000000002
 20
39.599999999999994
 40
3.2000000000000002
 41
1
 50
0
  1
―
  0
TEXT
  8
_0-0_図面枠
 62
    4
 10
353.85000000000002
 20
27.599999999999994
 40
3.2000000000000002
 41
1
 50
0
  1
―
  0
TEXT
  8
_0-0_図面枠
 62
    4
 10
248.40000750000002
 20
51.400003999999967
 40
3.2000000000000002
 41
1
 50
0
  1
ガスケットＧＡ１５
  0
TEXT
  8
_0-0_図面枠
 62
    4
 10
102.06667966666673
 20
76.000009500000004
 40
3.2000000000000002
 41
1
 50
0
  1
皿(Ｄ６)４×１６
  0
TEXT
  8
_0-0_図面枠
 62
    4
 10
48.400007500000015
 20
39.400003999999967
 40
3.2000000000000002
 41
1
 50
0
  1
ジョイントプレート
  0
TEXT
  8
_0-0_図面枠
 62
    4
 10
248.400013
 20
39.400003999999996
 40
3.2000000000000002
 41
1
 50
0
  1
ジョイントプレート
  0
TEXT
  8
_0-0_図面枠
 62
    4
 10
302.06667966666674
 20
76.000009500000004
 40
3.2000000000000002
 41
1
 50
0
  1
皿(Ｄ６)４×１６
  0
TEXT
  8
_0-0_図面枠
 62
    4
 10
48.400007500000015
 20
105.40000399999997
 40
3.2000000000000002
 41
1
 50
0
  1
ＵＵＧキャップ(Ｃ)Ａ
  0
TEXT
  8
_0-0_図面枠
 62
    4
 10
248.4000075000001
 20
105.40000399999997
 40
3.2000000000000002
 41
1
 50
0
  1
ＵＣＧキャップ(Ｃ)Ａ
  0
TEXT
  8
_0-0_図面枠
 62
    4
 10
48.400007499999987
 20
57.400003999999939
 40
3.2000000000000002
 41
1
 50
0
  1
アンカープラグ
  0
TEXT
  8
_0-0_図面枠
 62
    4
 10
248.40000749999999
 20
57.400003999999939
 40
3.2000000000000002
 41
1
 50
0
  1
アンカープラグ
  0
INSERT
  2
-008-_7_
  8
_1-8_小物
 10
210
 20
148.5
 41
1
 42
1
 50
0
  0
INSERT
  2
-009-_8_
  8
_1-8_小物
 10
210
 20
148.5
 41
1
 42
1
 50
0
  0
INSERT
  2
-010-_9_
  8
_1-8_小物
 10
210
 20
148.5
 41
1
 42
1
 50
0
  0
LINE
  8
_1-f_寸法
  6
CONTINUOUS
 62
    4
 10
85.000000000001961
 20
190.16666666666666
 11
85.000000000001961
 21
183.56666666666666
  0
LINE
  8
_1-f_寸法
  6
CONTINUOUS
 62
    4
 10
73.333333333335247
 20
190.16666666666666
 11
73.333333333335247
 21
183.56666666666666
  0
POINT
  8
_1-f_寸法
 62
    4
 10
73.333333333335247
 20
185.16666666666666
  0
POINT
  8
_1-f_寸法
 62
    4
 10
85.000000000001961
 20
185.16666666666666
  0
LINE
  8
_1-f_寸法
  6
CONTINUOUS
 62
    4
 10
73.333333333335247
 20
185.16666666666666
 11
85.000000000001961
 21
185.16666666666666
  0
TEXT
  8
_1-f_寸法
 62
    4
 10
77.566666666668596
 20
185.16666666666666
 40
3.2000000000000002
 41
1
 50
0
  1
35
  0
LINE
  8
_1-f_寸法
  6
CONTINUOUS
 62
    4
 10
134.99999999999804
 20
190.16666666666666
 11
134.99999999999804
 21
183.56666666666666
  0
LINE
  8
_1-f_寸法
  6
CONTINUOUS
 62
    4
 10
146.66666666666472
 20
190.16666666666666
 11
146.66666666666472
 21
183.56666666666666
  0
POINT
  8
_1-f_寸法
 62
    4
 10
146.66666666666472
 20
185.16666666666666
  0
POINT
  8
_1-f_寸法
 62
    4
 10
134.99999999999804
 20
185.16666666666666
  0
LINE
  8
_1-f_寸法
  6
CONTINUOUS
 62
    4
 10
146.66666666666472
 20
185.16666666666666
 11
134.99999999999804
 21
185.16666666666666
  0
TEXT
  8
_1-f_寸法
 62
    4
 10
139.23333333333136
 20
185.16666666666666
 40
3.2000000000000002
 41
1
 50
0
  1
35
  0
LINE
  8
_1-f_寸法
  6
CONTINUOUS
 62
    4
 10
334.99999999999801
 20
190.16666666666663
 11
334.99999999999801
 21
183.56666666666663
  0
LINE
  8
_1-f_寸法
  6
CONTINUOUS
 62
    4
 10
346.6666666666647
 20
190.16666666666663
 11
346.6666666666647
 21
183.56666666666663
  0
POINT
  8
_1-f_寸法
 62
    4
 10
346.6666666666647
 20
185.16666666666663
  0
POINT
  8
_1-f_寸法
 62
    4
 10
334.99999999999801
 20
185.16666666666663
  0
LINE
  8
_1-f_寸法
  6
CONTINUOUS
 62
    4
 10
346.6666666666647
 20
185.16666666666663
 11
334.99999999999801
 21
185.16666666666663
  0
TEXT
  8
_1-f_寸法
 62
    4
 10
339.2333333333313
 20
185.16666666666663
 40
3.2000000000000002
 41
1
 50
0
  1
35
  0
LINE
  8
_1-f_寸法
  6
CONTINUOUS
 62
    4
 10
268.33333333333371
 20
205.16666666666677
 11
333.33333333333331
 21
205.16666666666677
  0
CIRCLE
  8
_1-f_寸法
  6
CONTINUOUS
 62
    4
 10
158.33333341279985
 20
210.16666666666669
 40
1.6666666666666665
  0
CIRCLE
  8
_1-f_寸法
  6
CONTINUOUS
 62
    4
 10
158.33333341279985
 20
210.16666666666669
 40
1.6666666666666665
  0
LINE
  8
_1-f_寸法
  6
CONTINUOUS
 62
    4
 10
157.15482211082229
 20
208.98815536468913
 11
154.83333341279985
 21
206.66666666666669
  0
CIRCLE
  8
_1-f_寸法
  6
CONTINUOUS
 62
    4
 10
140.0000000794665
 20
200.16666666666669
 40
1.6666666666666665
  0
CIRCLE
  8
_1-f_寸法
  6
CONTINUOUS
 62
    4
 10
153.33333341279985
 20
193.50000000000003
 40
1.6666666666666665
  0
CIRCLE
  8
_1-f_寸法
  6
CONTINUOUS
 62
    4
 10
153.33333341279985
 20
200.16666666666669
 40
1.6666666666666665
  0
LINE
  8
_1-f_寸法
  6
CONTINUOUS
 62
    4
 10
141.02010664778254
 20
201.48468046289807
 11
144.70833341279985
 21
206.25000000000003
  0
LINE
  8
_1-f_寸法
  6
CONTINUOUS
 62
    4
 10
152.17222436090782
 20
201.36232696432333
 11
146.66666674613316
 21
207.03171404361677
  0
LINE
  8
_1-f_寸法
  6
CONTINUOUS
 62
    4
 10
152.36846354766575
 20
194.85897164103375
 11
147.41666674613299
 21
201.83333333333329
  0
LINE
  8
_1-f_寸法
  6
CONTINUOUS
 62
    4
 10
281.51260461062407
 20
222.80013524649104
 11
285.58333333333303
 21
220.9166666666668
  0
CIRCLE
  8
_1-f_寸法
  6
CONTINUOUS
 62
    4
 10
279.99999999999955
 20
223.49999599670869
 40
1.6666666666666665
  0
TEXT
  8
_1-f_寸法
 62
    4
 10
279.37499999999955
 20
222.24999599670869
 40
2.5
 41
1
 50
0
  1
4
  0
CIRCLE
  8
_1-f_寸法
  6
CONTINUOUS
 62
    4
 10
358.33333333333331
 20
210.16666666666666
 40
1.6666666666666665
  0
CIRCLE
  8
_1-f_寸法
  6
CONTINUOUS
 62
    4
 10
358.33333333333331
 20
210.16666666666666
 40
1.6666666666666665
  0
LINE
  8
_1-f_寸法
  6
CONTINUOUS
 62
    4
 10
357.15482203135576
 20
208.98815536468911
 11
354.83333333333331
 21
206.66666666666666
  0
CIRCLE
  8
_1-f_寸法
  6
CONTINUOUS
 62
    4
 10
340
 20
200.16666666666666
 40
1.6666666666666665
  0
CIRCLE
  8
_1-f_寸法
  6
CONTINUOUS
 62
    4
 10
353.33333333333331
 20
193.5
 40
1.6666666666666665
  0
CIRCLE
  8
_1-f_寸法
  6
CONTINUOUS
 62
    4
 10
353.33333333333331
 20
200.16666666666666
 40
1.6666666666666665
  0
LINE
  8
_1-f_寸法
  6
CONTINUOUS
 62
    4
 10
341.02010656831601
 20
201.48468046289804
 11
344.70833333333331
 21
206.25
  0
LINE
  8
_1-f_寸法
  6
CONTINUOUS
 62
    4
 10
352.17222428144123
 20
201.3623269643233
 11
346.66666666666663
 21
207.03171404361674
  0
LINE
  8
_1-f_寸法
  6
CONTINUOUS
 62
    4
 10
352.36846346819925
 20
194.85897164103372
 11
347.41666666666652
 21
201.83333333333326
  0
CIRCLE
  8
_1-f_寸法
  6
CONTINUOUS
 62
    4
 10
296.6666666666668
 20
223.4999999813665
 40
1.6666666666666665
  0
TEXT
  8
_1-f_寸法
 62
    4
 10
296.0416666666668
 20
222.2499999813665
 40
2.5
 41
1
 50
0
  1
3
  0
LINE
  8
_1-f_寸法
  6
CONTINUOUS
 62
    4
 10
295.83333333333348
 20
222.05662430839243
 11
291.7916666666664
 21
215.05625229446755
  0
CIRCLE
  8
_1-f_寸法
  6
CONTINUOUS
 62
    4
 10
321.66666666666669
 20
216.83332698040741
 40
1.6666666666666665
  0
TEXT
  8
_1-f_寸法
 62
    4
 10
321.04166666666669
 20
215.58332698040741
 40
2.5
 41
1
 50
0
  1
1
  0
LINE
  8
_1-f_寸法
  6
CONTINUOUS
 62
    4
 10
323.73550513126293
 20
213.24999364707415
 11
322.5
 21
215.38995130743334
  0
CIRCLE
  8
_1-f_寸法
  6
CONTINUOUS
 62
    4
 10
334.16669949781641
 20
216.83333333386037
 40
1.6666666666666665
  0
CIRCLE
  8
_1-f_寸法
  6
CONTINUOUS
 62
    4
 10
297.50003283114989
 20
216.83333333386037
 40
1.6666666666666665
  0
CIRCLE
  8
_1-f_寸法
  6
CONTINUOUS
 62
    4
 10
351.66666665793366
 20
216.83333331469993
 40
1.6666666666666665
  0
TEXT
  8
_1-f_寸法
 62
    4
 10
351.04166665793366
 20
215.58333331469993
 40
2.5
 41
1
 50
0
  1
2
  0
LINE
  8
_1-f_寸法
  6
CONTINUOUS
 62
    4
 10
348.70293386507899
 20
211.69999753741766
 11
350.83333332460035
 21
215.38995764172586
  0
CIRCLE
  8
_1-f_寸法
  6
CONTINUOUS
 62
    4
 10
345.00000000000006
 20
216.83333333333337
 40
1.6666666666666665
  0
TEXT
  8
_1-f_寸法
 62
    4
 10
344.37500000000006
 20
215.58333333333337
 40
2.5
 41
1
 50
0
  1
5
  0
LINE
  8
_1-f_寸法
  6
CONTINUOUS
 62
    4
 10
343.99867172131763
 20
215.50099724356895
 11
337.79756608275289
 21
207.25000004656673
  0
CIRCLE
  8
_1-f_寸法
  6
CONTINUOUS
 62
    4
 10
290
 20
231.83333333333331
 40
1.6666666666666665
  0
CIRCLE
  8
_1-f_寸法
  6
CONTINUOUS
 62
    4
 10
290
 20
231.83333333333331
 40
1.6666666666666665
  0
LINE
  8
_1-f_寸法
  6
CONTINUOUS
 62
    4
 10
288.82148869802245
 20
230.65482203135576
 11
286.5
 21
228.33333333333331
  0
CIRCLE
  8
_1-f_寸法
  6
CONTINUOUS
 62
    4
 10
61.666666587200154
 20
210.16666666666669
 40
1.6666666666666665
  0
CIRCLE
  8
_1-f_寸法
  6
CONTINUOUS
 62
    4
 10
61.666666587200154
 20
210.16666666666669
 40
1.6666666666666665
  0
LINE
  8
_1-f_寸法
  6
CONTINUOUS
 62
    4
 10
62.845177889177705
 20
208.98815536468913
 11
65.166666587200154
 21
206.66666666666669
  0
CIRCLE
  8
_1-f_寸法
  6
CONTINUOUS
 62
    4
 10
141.66666666666657
 20
216.8333333333332
 40
1.6666666666666665
  0
CIRCLE
  8
_1-f_寸法
  6
CONTINUOUS
 62
    4
 10
133.33333333333331
 20
216.83333333333329
 40
1.6666666666666665
  0
TEXT
  8
_1-f_寸法
 62
    4
 10
132.70833333333331
 20
215.58333333333329
 40
2.5
 41
1
 50
0
  1
2
  0
CIRCLE
  8
_1-f_寸法
  6
CONTINUOUS
 62
    4
 10
126.66666666666666
 20
216.83333333333329
 40
1.6666666666666665
  0
TEXT
  8
_1-f_寸法
 62
    4
 10
126.04166666666666
 20
215.58333333333329
 40
2.5
 41
1
 50
0
  1
1
  0
LINE
  8
_1-f_寸法
  6
CONTINUOUS
 62
    4
 10
125.83333333333333
 20
215.38995766035922
 11
124.61714919644706
 21
213.28346494391297
  0
LINE
  8
_1-f_寸法
  6
CONTINUOUS
 62
    4
 10
132.5
 20
215.38995766035922
 11
130.36960052972069
 21
211.69999753741766
  0
CIRCLE
  8
_1-f_寸法
  6
CONTINUOUS
 62
    4
 10
146.66666666666666
 20
216.83333333333337
 40
1.6666666666666665
  0
TEXT
  8
_1-f_寸法
 62
    4
 10
146.04166666666666
 20
215.58333333333337
 40
2.5
 41
1
 50
0
  1
5
  0
CIRCLE
  8
_1-f_寸法
  6
CONTINUOUS
 62
    4
 10
76.666666666666657
 20
216.83333333333329
 40
1.6666666666666665
  0
TEXT
  8
_1-f_寸法
 62
    4
 10
76.041666666666657
 20
215.58333333333329
 40
2.5
 41
1
 50
0
  1
3
  0
LINE
  8
_1-f_寸法
  6
CONTINUOUS
 62
    4
 10
77.5
 20
215.38995766035922
 11
79.178140329192871
 21
212.48333334796683
  0
CIRCLE
  8
_1-f_寸法
  6
CONTINUOUS
 62
    4
 10
90.000000079466489
 20
216.83333333333329
 40
1.6666666666666665
  0
TEXT
  8
_1-f_寸法
 62
    4
 10
89.375000079466489
 20
215.58333333333329
 40
2.5
 41
1
 50
0
  1
4
  0
LINE
  8
_1-f_寸法
  6
CONTINUOUS
 62
    4
 10
89.16666674613316
 20
215.38995766035922
 11
83.601613100375815
 21
205.75100199906117
  0
CIRCLE
  8
_1-f_寸法
  6
CONTINUOUS
 62
    4
 10
85.000000000000071
 20
216.8333333333332
 40
1.6666666666666665
  0
LINE
  8
_1-f_寸法
  6
CONTINUOUS
 62
    4
 10
145.53401258736039
 20
215.61068354111617
 11
137.7887347662591
 21
207.25000000000003
  0
CIRCLE
  8
_1-f_寸法
  6
CONTINUOUS
 62
    4
 10
79.999999920533497
 20
200.16666666666669
 40
1.6666666666666665
  0
CIRCLE
  8
_1-f_寸法
  6
CONTINUOUS
 62
    4
 10
66.666666587200154
 20
193.50000000000003
 40
1.6666666666666665
  0
CIRCLE
  8
_1-f_寸法
  6
CONTINUOUS
 62
    4
 10
66.666666587200154
 20
200.16666666666669
 40
1.6666666666666665
  0
LINE
  8
_1-f_寸法
  6
CONTINUOUS
 62
    4
 10
78.979893352217459
 20
201.48468046289807
 11
75.291666587200154
 21
206.25000000000003
  0
LINE
  8
_1-f_寸法
  6
CONTINUOUS
 62
    4
 10
67.827775639092181
 20
201.36232696432333
 11
73.33333325386684
 21
207.03171404361677
  0
LINE
  8
_1-f_寸法
  6
CONTINUOUS
 62
    4
 10
67.631536452334245
 20
194.85897164103375
 11
72.583333253866982
 21
201.83333333333329
  0
CIRCLE
  8
_1-f_寸法
  6
CONTINUOUS
 62
    4
 10
275
 20
221.83333333333337
 40
1.6666666666666665
  0
CIRCLE
  8
_1-f_寸法
  6
CONTINUOUS
 62
    4
 10
280
 20
211.83333333333337
 40
1.6666666666666665
  0
CIRCLE
  8
_1-f_寸法
  6
CONTINUOUS
 62
    4
 10
273.33333333333331
 20
211.83333333333337
 40
1.6666666666666665
  0
LINE
  8
_1-f_寸法
  6
CONTINUOUS
 62
    4
 10
274.8180590883743
 20
212.59054348256259
 11
281.66666666666657
 21
216.08333341280004
  0
LINE
  8
_1-f_寸法
  6
CONTINUOUS
 62
    4
 10
286.86504737694997
 20
216.8333333333334
 11
281.34721747535639
 21
212.81454832092382
  0
LINE
  8
_1-f_寸法
  6
CONTINUOUS
 62
    4
 10
286.08333333333331
 20
218.79166674613322
 11
276.60724048938471
 21
221.39224854889818
  0
LINE
  8
_1-f_寸法
  6
CONTINUOUS
 62
    4
 10
65
 20
215.16666666666669
 11
65
 21
221.76666666666668
  0
LINE
  8
_1-f_寸法
  6
CONTINUOUS
 62
    4
 10
154.99999999999989
 20
215.16666666666669
 11
154.99999999999989
 21
221.76666666666668
  0
POINT
  8
_1-f_寸法
 62
    4
 10
154.99999999999989
 20
220.16666666666669
  0
POINT
  8
_1-f_寸法
 62
    4
 10
65
 20
220.16666666666669
  0
LINE
  8
_1-f_寸法
  6
CONTINUOUS
 62
    4
 10
154.99999999999989
 20
220.16666666666669
 11
65
 21
220.16666666666669
  0
TEXT
  8
_1-f_寸法
 62
    4
 10
107.59999999999992
 20
220.16666666666669
 40
3.2000000000000002
 41
1
 50
0
  1
270
  0
TEXT
  8
_1-f_寸法
 62
    4
 10
84.375000000000071
 20
215.5833333333332
 40
2.5
 41
1
 50
0
  1
6
  0
TEXT
  8
_1-f_寸法
 62
    4
 10
141.04166666666657
 20
215.5833333333332
 40
2.5
 41
1
 50
0
  1
6
  0
TEXT
  8
_1-f_寸法
 62
    4
 10
157.08333341279985
 20
208.91666666666669
 40
2.5
 41
1
 50
0
  1
10
  0
TEXT
  8
_1-f_寸法
 62
    4
 10
60.416666587200154
 20
208.91666666666669
 40
2.5
 41
1
 50
0
  1
10
  0
TEXT
  8
_1-f_寸法
 62
    4
 10
66.041666587200154
 20
198.91666666666669
 40
2.5
 41
1
 50
0
  1
7
  0
TEXT
  8
_1-f_寸法
 62
    4
 10
79.374999920533497
 20
198.91666666666669
 40
2.5
 41
1
 50
0
  1
8
  0
TEXT
  8
_1-f_寸法
 62
    4
 10
66.041666587200154
 20
192.25000000000003
 40
2.5
 41
1
 50
0
  1
9
  0
TEXT
  8
_1-f_寸法
 62
    4
 10
152.70833341279985
 20
198.91666666666669
 40
2.5
 41
1
 50
0
  1
7
  0
TEXT
  8
_1-f_寸法
 62
    4
 10
139.3750000794665
 20
198.91666666666669
 40
2.5
 41
1
 50
0
  1
8
  0
TEXT
  8
_1-f_寸法
 62
    4
 10
152.70833341279985
 20
192.25000000000003
 40
2.5
 41
1
 50
0
  1
9
  0
TEXT
  8
_1-f_寸法
 62
    4
 10
288.75
 20
230.58333333333331
 40
2.5
 41
1
 50
0
  1
10
  0
TEXT
  8
_1-f_寸法
 62
    4
 10
357.08333333333331
 20
208.91666666666666
 40
2.5
 41
1
 50
0
  1
10
  0
TEXT
  8
_1-f_寸法
 62
    4
 10
274.375
 20
220.58333333333337
 40
2.5
 41
1
 50
0
  1
8
  0
TEXT
  8
_1-f_寸法
 62
    4
 10
279.375
 20
210.58333333333337
 40
2.5
 41
1
 50
0
  1
7
  0
TEXT
  8
_1-f_寸法
 62
    4
 10
272.70833333333331
 20
210.58333333333337
 40
2.5
 41
1
 50
0
  1
9
  0
TEXT
  8
_1-f_寸法
 62
    4
 10
352.70833333333331
 20
192.25
 40
2.5
 41
1
 50
0
  1
9
  0
TEXT
  8
_1-f_寸法
 62
    4
 10
339.375
 20
198.91666666666666
 40
2.5
 41
1
 50
0
  1
8
  0
TEXT
  8
_1-f_寸法
 62
    4
 10
352.70833333333331
 20
198.91666666666666
 40
2.5
 41
1
 50
0
  1
7
  0
TEXT
  8
_1-f_寸法
 62
    4
 10
333.54169949781641
 20
215.58333333386037
 40
2.5
 41
1
 50
0
  1
6
  0
TEXT
  8
_1-f_寸法
 62
    4
 10
296.87503283114989
 20
215.58333333386037
 40
2.5
 41
1
 50
0
  1
6
  0
LINE
  8
_1-f_寸法
  6
CONTINUOUS
 62
    4
 10
298.7537015429233
 20
215.73511088877092
 11
301.66666666666663
 21
213.18333333333331
  0
LINE
  8
_1-f_寸法
  6
CONTINUOUS
 62
    4
 10
335.42036820958981
 20
215.73511088877092
 11
338.33333333333314
 21
213.18333333333331
  0
LINE
  8
_1-f_寸法
  6
CONTINUOUS
 62
    4
 10
140.54275115216751
 20
215.60264584495681
 11
138.33333333333326
 21
213.18333333333334
  0
LINE
  8
_1-f_寸法
  6
CONTINUOUS
 62
    4
 10
83.876084485501025
 20
215.60264584495681
 11
81.666666666666742
 21
213.18333333333334
  0
INSERT
  2
-011-_10_
  8
_1-4_フレ__ム
 10
210
 20
148.5
 41
1
 42
1
 50
0
  0
INSERT
  2
-012-_11_
  8
_1-8_小物
 10
210
 20
148.5
 41
1
 42
1
 50
0
  0
LINE
  8
_1-6_ばね
  6
CENTER2
 62
    4
 10
72.316666746133478
 20
205.16666667398334
 11
72.316666746133478
 21
211.83333334065003
  0
LINE
  8
_1-6_ばね
  6
CENTER2
 62
    4
 10
75.650000079466849
 20
208.50000000731669
 11
68.983333412800135
 21
208.50000000731669
  0
CIRCLE
  8
_1-6_ばね
  6
CONTINUOUS
 62
    4
 10
72.316666746133478
 20
208.5000000073166
 40
1.466666673983362
  0
LINE
  8
_1-6_ばね
  6
CONTINUOUS
 62
    4
 10
73.966582574075829
 20
206.85008417937433
 11
78.429324286363141
 21
211.31282589166165
  0
ARC
  8
_1-6_ばね
  6
CONTINUOUS
 62
    4
 10
79.042150163391454
 20
210.7000000146333
 40
0.8666666666666667
 50
90
 51
135
  0
LINE
  8
_1-6_ばね
  6
CENTER2
 62
    4
 10
73.660169635561658
 20
207.15649711788848
 11
78.122911347848969
 21
211.61923883017585
  0
LINE
  8
_1-6_ばね
  6
CONTINUOUS
 62
    4
 10
73.353756697047515
 20
207.46291005640265
 11
77.81649840933477
 21
211.92565176868996
  0
ARC
  8
_1-6_ばね
  6
CONTINUOUS
 62
    4
 10
79.042150163391454
 20
210.70000001463328
 40
1.7333333333333334
 50
90
 51
134.99999999999935
  0
ARC
  8
_1-6_ばね
  6
CENTER2
 62
    4
 10
79.04215016339154
 20
210.7000000146333
 40
1.2999999999999998
 50
90
 51
134.99999999999912
  0
LINE
  8
_1-6_ばね
  6
CONTINUOUS
 62
    4
 10
88.966666746133484
 20
208.43333334796662
 11
89.800000079466827
 21
208.43333334796662
  0
LINE
  8
_1-6_ばね
  6
CONTINUOUS
 62
    4
 10
88.950000079466832
 20
208.43333334796662
 11
88.950000079466832
 21
210.7000000146333
  0
LINE
  8
_1-6_ばね
  6
CENTER2
 62
    4
 10
89.383333412800155
 20
208.43333334796662
 11
89.383333412800155
 21
210.7000000146333
  0
LINE
  8
_1-6_ばね
  6
CONTINUOUS
 62
    4
 10
89.816666746133507
 20
208.43333334796662
 11
89.816666746133507
 21
210.70000001463328
  0
ARC
  8
_1-6_ばね
  6
CONTINUOUS
 62
    4
 10
88.083333412800158
 20
210.70000001463328
 40
1.7333333333333334
 50
0
 51
90
  0
ARC
  8
_1-6_ばね
  6
CONTINUOUS
 62
    4
 10
88.083333412800158
 20
210.7000000146333
 40
0.8666666666666667
 50
0
 51
90
  0
ARC
  8
_1-6_ばね
  6
CENTER2
 62
    4
 10
88.083333412800158
 20
210.7000000146333
 40
1.2999999999999998
 50
0
 51
90
  0
LINE
  8
_1-6_ばね
  6
CONTINUOUS
 62
    4
 10
79.042150163391454
 20
212.43333334796662
 11
88.083333412800158
 21
212.43333334796662
  0
LINE
  8
_1-6_ばね
  6
CENTER2
 62
    4
 10
79.04215016339154
 20
212.00000001463332
 11
88.083333412800158
 21
212.00000001463332
  0
LINE
  8
_1-6_ばね
  6
CONTINUOUS
 62
    4
 10
79.042150163391454
 20
211.56666668129998
 11
88.083333412800158
 21
211.56666668129998
  0
ARC
  8
_1-6_ばね
  6
CENTER2
 62
    4
 10
72.316666746133478
 20
208.5000000073166
 40
1.9000000073166954
 50
354.47249681728158
 51
315
  0
ARC
  8
_1-6_ばね
  6
CONTINUOUS
 62
    4
 10
72.316666746133478
 20
208.5000000073166
 40
2.3333333406500287
 50
6.0551963201025503
 51
315.00000000000097
  0
ARC
  8
_1-6_ばね
  6
CONTINUOUS
 62
    4
 10
84.081185033979253
 20
207.70878570614974
 40
1.7333333333333334
 50
28.235762146983564
 51
83.235762146982623
  0
ARC
  8
_1-6_ばね
  6
CONTINUOUS
 62
    4
 10
84.081185033979139
 20
207.70878570614985
 40
0.8666666666666667
 50
28.23576214698776
 51
83.235762146982154
  0
ARC
  8
_1-6_ばね
  6
CENTER2
 62
    4
 10
84.08118503397921
 20
207.7087857061498
 40
1.2999999999999998
 50
28.235762146982459
 51
83.235762146982395
  0
LINE
  8
_1-6_ばね
  6
CONTINUOUS
 62
    4
 10
86.865103787478532
 20
206.18834365985151
 11
85.608266138826096
 21
208.52882701222168
  0
LINE
  8
_1-6_ばね
  6
CENTER2
 62
    4
 10
86.483333511266807
 20
205.98333333333352
 11
85.226495862614371
 21
208.32381668570378
  0
LINE
  8
_1-6_ばね
  6
CONTINUOUS
 62
    4
 10
86.101563235055124
 20
205.77832300681558
 11
84.844725586402575
 21
208.11880635918584
  0
INSERT
  2
-013-_12_
  8
_1-5_ア__ム
 10
210
 20
148.5
 41
1
 42
1
 50
0
  0
ARC
  8
_1-6_ばね
  6
CONTINUOUS
 62
    4
 10
86.483333511266807
 20
205.98333333333352
 40
0.4333333333333333
 50
208.23576214698025
 51
28.23576214698268
  0
LINE
  8
_1-6_ばね
  6
CONTINUOUS
 62
    4
 10
84.285344259846084
 20
209.43005368497757
 11
77.36712105096754
 21
210.25062265626605
  0
LINE
  8
_1-6_ばね
  6
CONTINUOUS
 62
    4
 10
76.271429085928304
 20
210.38058244528349
 11
72.591492607133773
 21
210.81705892192218
  0
LINE
  8
_1-6_ばね
  6
CONTINUOUS
 62
    4
 10
75.491227051512567
 20
209.60038041086776
 11
74.291561583102578
 21
209.7426724748243
  0
LINE
  8
_1-6_ばね
  6
CONTINUOUS
 62
    4
 10
84.18326464691259
 20
208.56941969556379
 11
76.586919016551803
 21
209.47042062185031
  0
LINE
  8
_1-6_ばね
  6
CENTER2
 62
    4
 10
84.23430445337938
 20
208.99973669027065
 11
76.977020033759715
 21
209.86052163905825
  0
LINE
  8
_1-6_ばね
  6
CENTER2
 62
    4
 10
75.881328068720507
 20
209.99048142807567
 11
73.885487382712796
 21
210.22720766386283
  0
ARC
  8
_1-6_ばね
  6
CONTINUOUS
 62
    4
 10
286.15000000000089
 20
208.35000007946647
 40
0.4333333333333333
 50
157.58501805951943
 51
337.58501805951943
  0
INSERT
  2
-014-_13_
  8
_1-7_カバ__
 10
210
 20
148.5
 41
1
 42
1
 50
0
  0
INSERT
  2
-015-_14_
  8
_1-7_カバ__
 10
210
 20
148.5
 41
1
 42
1
 50
0
  0
INSERT
  2
-016-_15_
  8
_1-7_カバ__
 10
210
 20
148.5
 41
1
 42
1
 50
0
  0
INSERT
  2
-017-_16_
  8
_1-8_小物
 10
210
 20
148.5
 41
1
 42
1
 50
0
  0
INSERT
  2
-018-_17_
  8
_1-8_小物
 10
210
 20
148.5
 41
1
 42
1
 50
0
  0
INSERT
  2
-019-_18_
  8
_1-4_フレ__ム
 10
210
 20
148.5
 41
1
 42
1
 50
0
  0
INSERT
  2
-020-_19_
  8
_1-4_フレ__ム
 10
210
 20
148.5
 41
1
 42
1
 50
0
  0
INSERT
  2
-021-_20_
  8
_1-8_小物
 10
210
 20
148.5
 41
1
 42
1
 50
0
  0
INSERT
  2
-022-_21_
  8
_1-8_小物
 10
210
 20
148.5
 41
1
 42
1
 50
0
  0
INSERT
  2
-023-_22_
  8
_1-8_小物
 10
210
 20
148.5
 41
1
 42
1
 50
0
  0
INSERT
  2
-024-_23_
  8
_1-8_小物
 10
210
 20
148.5
 41
1
 42
1
 50
0
  0
INSERT
  2
-025-_24_
  8
_1-8_小物
 10
210
 20
148.5
 41
1
 42
1
 50
0
  0
INSERT
  2
-026-_25_
  8
_1-8_小物
 10
210
 20
148.5
 41
1
 42
1
 50
0
  0
INSERT
  2
-027-_26_
  8
_1-4_フレ__ム
 10
210
 20
148.5
 41
1
 42
1
 50
0
  0
INSERT
  2
-028-_27_
  8
_1-8_小物
 10
210
 20
148.5
 41
1
 42
1
 50
0
  0
INSERT
  2
-029-_28_
  8
_1-8_小物
 10
210
 20
148.5
 41
1
 42
1
 50
0
  0
LINE
  8
_1-6_ばね
  6
CENTER2
 62
    4
 10
289.99999999563346
 20
225.66666674613322
 11
289.99999999563346
 21
219.00000007946653
  0
LINE
  8
_1-6_ばね
  6
CENTER2
 62
    4
 10
293.33333332896672
 20
222.33333341279985
 11
286.66666666230003
 21
222.33333341279985
  0
CIRCLE
  8
_1-6_ばね
  6
CONTINUOUS
 62
    4
 10
289.9999999956334
 20
222.33333341279979
 40
1.466666673983362
  0
ARC
  8
_1-6_ばね
  6
CONTINUOUS
 62
    4
 10
292.48333333333198
 20
211.53333346868334
 40
0.8666666666666667
 50
180
 51
270
  0
ARC
  8
_1-6_ばね
  6
CONTINUOUS
 62
    4
 10
292.48333333333164
 20
211.53333346868334
 40
1.7333333333333334
 50
180
 51
270
  0
ARC
  8
_1-6_ばね
  6
CENTER2
 62
    4
 10
292.48333333333198
 20
211.53333346868328
 40
1.2999999999999998
 50
180
 51
270
  0
ARC
  8
_1-6_ばね
  6
CENTER2
 62
    4
 10
289.9999999956334
 20
222.33333341279979
 40
1.9000000073166954
 50
254.47249681728235
 51
214.99999999999986
  0
ARC
  8
_1-6_ばね
  6
CONTINUOUS
 62
    4
 10
289.9999999956334
 20
222.33333341279979
 40
2.3333333406500287
 50
266.05519632010254
 51
214.99999999999432
  0
ARC
  8
_1-6_ばね
  6
CONTINUOUS
 62
    4
 10
301.20433973208219
 20
210.70000011273339
 40
0.8666666666666667
 50
90
 51
120.49335808176116
  0
ARC
  8
_1-6_ばね
  6
CONTINUOUS
 62
    4
 10
297.4956602722815
 20
211.53333346868334
 40
0.8666666666666667
 50
270
 51
300.49335808175789
  0
LINE
  8
_1-6_ばね
  6
CONTINUOUS
 62
    4
 10
300.76455971901248
 20
211.4467963709026
 11
298.37522029842091
 21
210.03974095234491
  0
ARC
  8
_1-6_ばね
  6
CONTINUOUS
 62
    4
 10
297.4956602722815
 20
211.53333346868334
 40
1.7333333333333334
 50
270
 51
300.49335808175374
  0
ARC
  8
_1-6_ばね
  6
CONTINUOUS
 62
    4
 10
301.20433973208208
 20
210.70000011273331
 40
1.7333333333333334
 50
90
 51
120.49335808175486
  0
ARC
  8
_1-6_ばね
  6
CENTER2
 62
    4
 10
297.49566027228173
 20
211.53333346868328
 40
1.2999999999999998
 50
270
 51
300.49335808175101
  0
ARC
  8
_1-6_ばね
  6
CENTER2
 62
    4
 10
301.20433973208208
 20
210.70000011273331
 40
1.2999999999999998
 50
90
 51
120.49335808175448
  0
LINE
  8
_1-6_ばね
  6
CENTER2
 62
    4
 10
300.54466971247757
 20
211.82019449998711
 11
298.15533029188612
 21
210.41313908142945
  0
LINE
  8
_1-6_ばね
  6
CONTINUOUS
 62
    4
 10
300.32477970594266
 20
212.19359262907176
 11
297.93544028535132
 21
210.7865372105141
  0
LINE
  8
_1-6_ばね
  6
CONTINUOUS
 62
    4
 10
306.41666666884862
 20
209.90000011273344
 11
306.41666666884862
 21
210.70000011273339
  0
LINE
  8
_1-6_ばね
  6
CONTINUOUS
 62
    4
 10
307.28333333551541
 20
209.90000011273344
 11
307.28333333551541
 21
210.70000011273331
  0
LINE
  8
_1-6_ばね
  6
CENTER2
 62
    4
 10
306.85000000218201
 20
209.90000011273344
 11
306.85000000218201
 21
210.70000011273331
  0
LINE
  8
_1-6_ばね
  6
CONTINUOUS
 62
    4
 10
310.02131268499284
 20
208.62325937420172
 11
312.06409786664346
 21
210.33735966669917
  0
LINE
  8
_1-6_ばね
  6
CONTINUOUS
 62
    4
 10
312.06409786664346
 20
210.33735966669917
 11
312.62118046170519
 21
209.67345448266272
  0
LINE
  8
_1-6_ばね
  6
CONTINUOUS
 62
    4
 10
310.57839528005445
 20
207.9593541901653
 11
312.62118046170519
 21
209.67345448266272
  0
LINE
  8
_1-6_ばね
  6
CENTER2
 62
    4
 10
310.2998539825237
 20
208.29130678218351
 11
312.34263916417433
 21
210.00540707468093
  0
ARC
  8
_1-6_ばね
  6
CONTINUOUS
 62
    4
 10
308.95000000218204
 20
209.90000011273335
 40
1.6666666666666665
 50
179.99999999999707
 51
309.99999999999829
  0
ARC
  8
_1-6_ばね
  6
CENTER2
 62
    4
 10
308.95000000218204
 20
209.90000011273335
 40
2.0999999999999996
 50
179.9999999999977
 51
309.99999999999733
  0
ARC
  8
_1-6_ばね
  6
CONTINUOUS
 62
    4
 10
308.95000000218204
 20
209.90000011273335
 40
2.5333333333333328
 50
179.99999999999807
 51
309.99999999999744
  0
ARC
  8
_1-6_ばね
  6
CONTINUOUS
 62
    4
 10
305.55000000218195
 20
210.70000011273339
 40
0.8666666666666667
 50
0
 51
90
  0
ARC
  8
_1-6_ばね
  6
CONTINUOUS
 62
    4
 10
305.55000000218206
 20
210.70000011273331
 40
1.7333333333333334
 50
0
 51
90
  0
ARC
  8
_1-6_ばね
  6
CENTER2
 62
    4
 10
305.55000000218195
 20
210.70000011273331
 40
1.2999999999999998
 50
0
 51
90
  0
LINE
  8
_1-6_ばね
  6
CONTINUOUS
 62
    4
 10
305.55000000218195
 20
211.56666677940001
 11
301.20433973208219
 21
211.56666677940001
  0
LINE
  8
_1-6_ばね
  6
CENTER2
 62
    4
 10
305.55000000218195
 20
212.00000011273326
 11
301.20433973208208
 21
212.00000011273326
  0
LINE
  8
_1-6_ばね
  6
CONTINUOUS
 62
    4
 10
305.55000000218206
 20
212.43333344606665
 11
301.20433973208208
 21
212.43333344606665
  0
LINE
  8
_1-6_ばね
  6
CONTINUOUS
 62
    4
 10
297.4956602722815
 20
210.66666680201664
 11
292.48333333333198
 21
210.66666680201664
  0
LINE
  8
_1-6_ばね
  6
CENTER2
 62
    4
 10
297.49566027228173
 20
210.23333346868324
 11
292.48333333333198
 21
210.23333346868324
  0
LINE
  8
_1-6_ばね
  6
CONTINUOUS
 62
    4
 10
297.4956602722815
 20
209.80000013534999
 11
292.48333333333164
 21
209.80000013534999
  0
LINE
  8
_1-6_ばね
  6
CONTINUOUS
 62
    4
 10
288.0886452196321
 20
220.9949883904508
 11
290.59326510504889
 21
217.41802049344631
  0
LINE
  8
_1-6_ばね
  6
CONTINUOUS
 62
    4
 10
290.74999999999841
 20
216.92092091527536
 11
290.74999999999841
 21
211.53333346868328
  0
LINE
  8
_1-6_ばね
  6
CONTINUOUS
 62
    4
 10
288.79857699134936
 20
221.4920879686216
 11
291.30319687676626
 21
217.91512007161685
  0
LINE
  8
_1-6_ばね
  6
CONTINUOUS
 62
    4
 10
291.61666666666537
 20
216.92092091527505
 11
291.61666666666537
 21
211.53333346868328
  0
LINE
  8
_1-6_ばね
  6
CENTER2
 62
    4
 10
288.44361110549073
 20
221.24353817953627
 11
290.94823099090763
 21
217.66657028253155
  0
LINE
  8
_1-6_ばね
  6
CENTER2
 62
    4
 10
291.18333333333197
 20
216.92092091527513
 11
291.18333333333197
 21
211.53333346868328
  0
ARC
  8
_1-6_ばね
  6
CONTINUOUS
 62
    4
 10
289.88333333333179
 20
216.92092091527536
 40
0.8666666666666667
 50
0
 51
35.00000000000334
  0
ARC
  8
_1-6_ばね
  6
CONTINUOUS
 62
    4
 10
289.88333333333202
 20
216.92092091527505
 40
1.7333333333333334
 50
0
 51
34.999999999999957
  0
ARC
  8
_1-6_ばね
  6
CENTER2
 62
    4
 10
289.88333333333196
 20
216.92092091527513
 40
1.2999999999999998
 50
0
 51
35.000000000002622
  0
INSERT
  2
-030-_29_
  8
_1-5_ア__ム
 10
210
 20
148.5
 41
1
 42
1
 50
0
  0
LINE
  8
_1-6_ばね
  6
CONTINUOUS
 62
    4
 10
292.15704150469458
 20
221.44360513586574
 11
290.92463029484497
 21
218.45576918100699
  0
LINE
  8
_1-6_ばね
  6
CONTINUOUS
 62
    4
 10
290.53242385061748
 20
217.50491080969019
 11
286.55059342185609
 21
207.85143149522071
  0
LINE
  8
_1-6_ばね
  6
CONTINUOUS
 62
    4
 10
285.74940657814568
 20
208.1819019970456
 11
289.94245997515884
 21
218.34746654247624
  0
LINE
  8
_1-6_ばね
  6
CONTINUOUS
 62
    4
 10
290.33466641938634
 20
219.29832491379298
 11
290.66386683756821
 21
220.09643258916725
  0
LINE
  8
_1-6_ばね
  6
CENTER2
 62
    4
 10
291.23999260361393
 20
220.35675485105673
 11
290.62964835711568
 21
218.87704704739991
  0
LINE
  8
_1-6_ばね
  6
CENTER2
 62
    4
 10
290.23744191288819
 20
217.92618867608317
 11
286.15000000000089
 21
208.01666674613313
  0
INSERT
  2
-031-_30_
  8
_1-7_カバ__
 10
210
 20
148.5
 41
1
 42
1
 50
0
  0
INSERT
  2
-032-_31_
  8
_1-8_小物
 10
210
 20
148.5
 41
1
 42
1
 50
0
  0
INSERT
  2
-033-_32_
  8
_1-8_小物
 10
210
 20
148.5
 41
1
 42
1
 50
0
  0
LINE
  8
_1-0_躯体
  6
CENTER2
 62
    4
 10
288.07179396077356
 20
216.50000000000006
 11
268.33333333333331
 21
216.50000000000006
  0
LINE
  8
_1-f_寸法
  6
CONTINUOUS
 62
    4
 10
268.33333333333371
 20
205.16666666666677
 11
261.73333333333369
 21
205.16666666666677
  0
LINE
  8
_1-f_寸法
  6
CONTINUOUS
 62
    4
 10
268.33333333333371
 20
216.50000000000006
 11
261.73333333333369
 21
216.50000000000006
  0
POINT
  8
_1-f_寸法
 62
    4
 10
263.33333333333371
 20
216.50000000000006
  0
POINT
  8
_1-f_寸法
 62
    4
 10
263.33333333333371
 20
205.16666666666677
  0
LINE
  8
_1-f_寸法
  6
CONTINUOUS
 62
    4
 10
263.33333333333371
 20
216.50000000000006
 11
263.33333333333371
 21
205.16666666666677
  0
TEXT
  8
_1-f_寸法
 62
    4
 10
263.33333333333371
 20
209.23333333333346
 40
3.2000000000000002
 41
1
 50
90
  1
34
  0
LINE
  8
_1-f_寸法
  6
CONTINUOUS
 62
    4
 10
359.99999999999989
 20
213.16666674613319
 11
366.59999999999991
 21
213.16666674613319
  0
LINE
  8
_1-f_寸法
  6
CONTINUOUS
 62
    4
 10
359.99999999999989
 20
205.16666666666666
 11
366.59999999999991
 21
205.16666666666666
  0
POINT
  8
_1-f_寸法
 62
    4
 10
364.99999999999989
 20
205.16666666666666
  0
POINT
  8
_1-f_寸法
 62
    4
 10
364.99999999999989
 20
213.16666674613319
  0
LINE
  8
_1-f_寸法
  6
CONTINUOUS
 62
    4
 10
364.99999999999989
 20
205.16666666666666
 11
364.99999999999989
 21
213.16666674613319
  0
TEXT
  8
_1-f_寸法
 62
    4
 10
364.99999999999989
 20
207.56666670639996
 40
3.2000000000000002
 41
1
 50
90
  1
24
  0
LINE
  8
_1-f_寸法
  6
CONTINUOUS
 62
    4
 10
359.99999999999989
 20
228.16665404028134
 11
366.59999999999991
 21
228.16665404028134
  0
POINT
  8
_1-f_寸法
 62
    4
 10
364.99999999999989
 20
228.16665404028134
  0
LINE
  8
_1-f_寸法
  6
CONTINUOUS
 62
    4
 10
364.99999999999989
 20
213.16666674613319
 11
364.99999999999989
 21
228.16665404028134
  0
TEXT
  8
_1-f_寸法
 62
    4
 10
364.99999999999989
 20
219.06666039320729
 40
3.2000000000000002
 41
1
 50
90
  1
45
  0
LINE
  8
_1-f_寸法
  6
CONTINUOUS
 62
    4
 10
364.99999999999989
 20
228.16665404028134
 11
373.26666666666654
 21
228.16665404028134
  0
LINE
  8
_1-f_寸法
  6
CONTINUOUS
 62
    4
 10
364.99999999999989
 20
205.16666666666666
 11
373.26666666666654
 21
205.16666666666666
  0
POINT
  8
_1-f_寸法
 62
    4
 10
371.66666666666657
 20
205.16666666666666
  0
POINT
  8
_1-f_寸法
 62
    4
 10
371.66666666666657
 20
228.16665404028134
  0
LINE
  8
_1-f_寸法
  6
CONTINUOUS
 62
    4
 10
371.66666666666657
 20
205.16666666666666
 11
371.66666666666657
 21
228.16665404028134
  0
TEXT
  8
_1-f_寸法
 62
    4
 10
371.66666666666657
 20
215.06666035347405
 40
3.2000000000000002
 41
1
 50
90
  1
69
  0
LINE
  8
_1-f_寸法
  6
CONTINUOUS
 62
    4
 10
359.99999999999989
 20
228.16666031374081
 11
295
 21
228.16666031374081
  0
LINE
  8
_1-f_寸法
  6
CONTINUOUS
 62
    4
 10
293.00000000295086
 20
231.83333333333337
 11
293.00000000295086
 21
238.43333333333334
  0
LINE
  8
_1-f_寸法
  6
CONTINUOUS
 62
    4
 10
285
 20
231.83333333333337
 11
285
 21
238.43333333333334
  0
POINT
  8
_1-f_寸法
 62
    4
 10
285
 20
236.83333333333337
  0
POINT
  8
_1-f_寸法
 62
    4
 10
293.00000000295086
 20
236.83333333333337
  0
LINE
  8
_1-f_寸法
  6
CONTINUOUS
 62
    4
 10
285
 20
236.83333333333337
 11
293.00000000295086
 21
236.83333333333337
  0
TEXT
  8
_1-f_寸法
 62
    4
 10
287.40000000147541
 20
236.83333333333337
 40
3.2000000000000002
 41
1
 50
0
  1
24
  0
LINE
  8
_1-f_寸法
  6
CONTINUOUS
 62
    4
 10
354.66666666961737
 20
231.83333333333337
 11
354.66666666961737
 21
215.16666666666669
  0
LINE
  8
_1-f_寸法
  6
CONTINUOUS
 62
    4
 10
293.00000000295086
 20
231.83333333333337
 11
293.00000000295086
 21
238.43333333333334
  0
LINE
  8
_1-f_寸法
  6
CONTINUOUS
 62
    4
 10
285
 20
231.83333333333337
 11
285
 21
238.43333333333334
  0
POINT
  8
_1-f_寸法
 62
    4
 10
285
 20
236.83333333333337
  0
POINT
  8
_1-f_寸法
 62
    4
 10
293.00000000295086
 20
236.83333333333337
  0
LINE
  8
_1-f_寸法
  6
CONTINUOUS
 62
    4
 10
285
 20
236.83333333333337
 11
293.00000000295086
 21
236.83333333333337
  0
TEXT
  8
_1-f_寸法
 62
    4
 10
287.40000000147541
 20
236.83333333333337
 40
3.2000000000000002
 41
1
 50
0
  1
24
  0
LINE
  8
_1-f_寸法
  6
CONTINUOUS
 62
    4
 10
354.66666666961737
 20
231.83333333333337
 11
354.66666666961737
 21
238.43333333333334
  0
POINT
  8
_1-f_寸法
 62
    4
 10
354.66666666961737
 20
236.83333333333337
  0
LINE
  8
_1-f_寸法
  6
CONTINUOUS
 62
    4
 10
293.00000000295086
 20
236.83333333333337
 11
354.66666666961737
 21
236.83333333333337
  0
TEXT
  8
_1-f_寸法
 62
    4
 10
321.43333333628408
 20
236.83333333333337
 40
3.2000000000000002
 41
1
 50
0
  1
185
  0
LINE
  8
_1-f_寸法
  6
CONTINUOUS
 62
    4
 10
354.66666666961737
 20
231.83333333333337
 11
354.66666666961737
 21
243.43333333333331
  0
LINE
  8
_1-f_寸法
  6
CONTINUOUS
 62
    4
 10
285
 20
231.83333333333337
 11
285
 21
243.43333333333331
  0
POINT
  8
_1-f_寸法
 62
    4
 10
285
 20
241.83333333333331
  0
POINT
  8
_1-f_寸法
 62
    4
 10
354.66666666961737
 20
241.83333333333331
  0
LINE
  8
_1-f_寸法
  6
CONTINUOUS
 62
    4
 10
285
 20
241.83333333333331
 11
354.66666666961737
 21
241.83333333333331
  0
TEXT
  8
_1-f_寸法
 62
    4
 10
317.43333333480865
 20
241.83333333333331
 40
3.2000000000000002
 41
1
 50
0
  1
209
  0
LINE
  8
_1-f_寸法
  6
CONTINUOUS
 62
    4
 10
159.99999999999991
 20
205.16666666666669
 11
166.59999999999988
 21
205.16666666666669
  0
LINE
  8
_1-f_寸法
  6
CONTINUOUS
 62
    4
 10
159.99999999999991
 20
213.16666666666666
 11
166.59999999999988
 21
213.16666666666666
  0
POINT
  8
_1-f_寸法
 62
    4
 10
164.99999999999989
 20
213.16666666666666
  0
POINT
  8
_1-f_寸法
 62
    4
 10
164.99999999999989
 20
205.16666666666669
  0
LINE
  8
_1-f_寸法
  6
CONTINUOUS
 62
    4
 10
164.99999999999989
 20
213.16666666666666
 11
164.99999999999989
 21
205.16666666666669
  0
TEXT
  8
_1-f_寸法
 62
    4
 10
164.99999999999989
 20
207.56666666666666
 40
3.2000000000000002
 41
1
 50
90
  1
24
  0
LINE
  8
_1-0_躯体
  6
CENTER2
 62
    4
 10
73.333333412799817
 20
211.57179397977325
 11
73.333333412799817
 21
188.5
  0
LINE
  8
_1-0_躯体
  6
CONTINUOUS
 62
    6
 10
61.666666666666657
 20
205.16666666666669
 11
85
 21
205.16666666666669
  0
LINE
  8
_1-0_躯体
  6
CENTER2
 62
    4
 10
146.66666674613316
 20
211.57179397977325
 11
146.66666674613316
 21
188.5
  0
LINE
  8
_1-0_躯体
  6
CONTINUOUS
 62
    6
 10
158.33333333333326
 20
205.16666666666669
 11
135
 21
205.16666666666669
  0
LINE
  8
_1-0_躯体
  6
CENTER2
 62
    4
 10
110
 20
181.83333333333337
 11
110
 21
218.50000000000003
  0
LINE
  8
_1-0_躯体
  6
CONTINUOUS
 62
    6
 10
135
 20
205.16666666666669
 11
135
 21
181.83333333333337
  0
LINE
  8
_1-0_躯体
  6
CONTINUOUS
 62
    6
 10
85
 20
205.16666666666669
 11
85
 21
181.83333333333337
  0
LINE
  8
_1-f_寸法
  6
CONTINUOUS
 62
    4
 10
135
 20
178.50000000000003
 11
135
 21
171.90000000000003
  0
LINE
  8
_1-f_寸法
  6
CONTINUOUS
 62
    4
 10
85
 20
178.50000000000003
 11
85
 21
171.90000000000003
  0
POINT
  8
_1-f_寸法
 62
    4
 10
85
 20
173.50000000000003
  0
POINT
  8
_1-f_寸法
 62
    4
 10
135
 20
173.50000000000003
  0
LINE
  8
_1-f_寸法
  6
CONTINUOUS
 62
    4
 10
85
 20
173.50000000000003
 11
135
 21
173.50000000000003
  0
TEXT
  8
_1-f_寸法
 62
    4
 10
107.59999999999999
 20
173.50000000000003
 40
3.2000000000000002
 41
1
 50
0
  1
150
  0
LINE
  8
_1-0_躯体
  6
CENTER2
 62
    4
 10
346.66666674613316
 20
211.57179397977325
 11
346.66666674613316
 21
188.5
  0
LINE
  8
_1-0_躯体
  6
CONTINUOUS
 62
    6
 10
358.33333333333326
 20
205.16666666666666
 11
335
 21
205.16666666666666
  0
LINE
  8
_1-0_躯体
  6
CENTER2
 62
    4
 10
310
 20
181.83333333333331
 11
310
 21
234.90711865714911
  0
LINE
  8
_1-0_躯体
  6
CONTINUOUS
 62
    6
 10
285
 20
229.80886749755268
 11
285
 21
181.83333333333331
  0
LINE
  8
_1-0_躯体
  6
CONTINUOUS
 62
    6
 10
335
 20
205.16666666666666
 11
335
 21
181.83333333333331
  0
LINE
  8
_1-f_寸法
  6
CONTINUOUS
 62
    4
 10
335
 20
178.5
 11
335
 21
171.90000000000001
  0
LINE
  8
_1-f_寸法
  6
CONTINUOUS
 62
    4
 10
285
 20
178.5
 11
285
 21
171.90000000000001
  0
POINT
  8
_1-f_寸法
 62
    4
 10
285
 20
173.5
  0
POINT
  8
_1-f_寸法
 62
    4
 10
335
 20
173.5
  0
LINE
  8
_1-f_寸法
  6
CONTINUOUS
 62
    4
 10
285
 20
173.5
 11
335
 21
173.5
  0
TEXT
  8
_1-f_寸法
 62
    4
 10
307.59999999999997
 20
173.5
 40
3.2000000000000002
 41
1
 50
0
  1
150
  0
LINE
  8
_0-0_図面枠
  6
CONTINUOUS
 62
    2
 10
165
 20
246.99999999999994
 11
210
 21
246.99999999999994
  0
LINE
  8
_0-0_図面枠
  6
CONTINUOUS
 62
    2
 10
165
 20
246.99999999999994
 11
165
 21
287
  0
INSERT
  2
-034-_33_
  8
_0-0_図面枠
 10
210
 20
148.5
 41
1
 42
1
 50
0
  0
LINE
  8
_0-0_図面枠
  6
CONTINUOUS
 62
    2
 10
178.99460475445102
 20
263.11505807960714
 11
181.15966826391207
 21
261.86505807960714
  0
LINE
  8
_0-0_図面枠
  6
CONTINUOUS
 62
    2
 10
181.15966826391207
 20
261.86505807960714
 11
195.88210012824754
 21
270.36505807960714
  0
LINE
  8
_0-0_図面枠
  6
CONTINUOUS
 62
    2
 10
195.88210012824754
 20
270.36505807960714
 11
193.71703661878644
 21
271.61505807960714
  0
LINE
  8
_0-0_図面枠
  6
CONTINUOUS
 62
    2
 10
181.15966826391207
 20
261.86505807960714
 11
181.15966826391207
 21
251.86505807960714
  0
LINE
  8
_0-0_図面枠
  6
CONTINUOUS
 62
    2
 10
178.99460475445102
 20
263.11505807960714
 11
178.99460475445102
 21
253.11505807960714
  0
LINE
  8
_0-0_図面枠
  6
CONTINUOUS
 62
    2
 10
195.88210012824754
 20
270.36505807960714
 11
195.88210012824754
 21
270.18409224854935
  0
LINE
  8
_0-0_図面枠
  6
CONTINUOUS
 62
    2
 10
195.88210012824754
 20
268.01364867294285
 11
195.88210012824754
 21
260.36505807960714
  0
LINE
  8
_0-0_図面枠
  6
CONTINUOUS
 62
    2
 10
193.71703661878644
 20
271.61505807960714
 11
193.71703661878644
 21
271.52033947808678
  0
LINE
  8
_0-0_図面枠
  6
CONTINUOUS
 62
    2
 10
193.71703661878644
 20
270.73757885370628
 11
193.71703661878644
 21
269.11505807960714
  0
LINE
  8
_0-0_図面枠
  6
CONTINUOUS
 62
    3
 10
184.19075717715765
 20
266.11505807960714
 11
184.19075717715765
 21
263.61505807960714
  0
LINE
  8
_0-0_図面枠
  6
CONTINUOUS
 62
    3
 10
188.52088419607986
 20
268.61505807960714
 11
188.52088419607986
 21
266.11505807960714
  0
LINE
  8
_0-0_図面枠
  6
CONTINUOUS
 62
    3
 10
184.19075717715765
 20
266.11505807960714
 11
178.99460475445102
 21
263.11505807960714
  0
LINE
  8
_0-0_図面枠
  6
CONTINUOUS
 62
    3
 10
188.52088419607986
 20
268.61505807960714
 11
184.19075717715771
 21
271.11505807960714
  0
LINE
  8
_0-0_図面枠
  6
CONTINUOUS
 62
    3
 10
184.19075717715765
 20
266.11505807960714
 11
179.86063015823549
 21
268.61505807960714
  0
LINE
  8
_0-0_図面枠
  6
CONTINUOUS
 62
    3
 10
178.99460475445102
 20
263.11505807960714
 11
175.53050313931328
 21
261.11505807960714
  0
LINE
  8
_0-0_図面枠
  6
CONTINUOUS
 62
    3
 10
193.71703661878644
 20
271.61505807960714
 11
197.18113823392423
 21
273.61505807960714
  0
LINE
  8
_0-0_図面枠
  6
CONTINUOUS
 62
    3
 10
193.71703661878644
 20
271.61505807960714
 11
193.68236424150382
 21
271.59503997324953
  0
LINE
  8
_0-0_図面枠
  6
CONTINUOUS
 62
    3
 10
192.51835025799221
 20
270.92299618652862
 11
188.52088419607986
 21
268.61505807960714
  0
TEXT
  8
_0-0_図面枠
 62
    4
 10
173.22269212770595
 20
280.88494192039275
 40
2.5
 41
1
 50
0
  1
-75
  0
TEXT
  8
_0-0_図面枠
 62
    4
 10
195.73854581797707
 20
280.88494192039269
 40
2.5
 41
1
 50
0
  1
+75
  0
TEXT
  8
_0-0_図面枠
 62
    4
 10
195.73854581797701
 20
267.88540773128045
 40
2.5
 41
1
 50
0
  1
+75
  0
TEXT
  8
_0-0_図面枠
 62
    4
 10
173.22228872183661
 20
267.88610650082211
 40
2.5
 41
1
 50
0
  1
-75
  0
LINE
  8
_0-0_図面枠
  6
CONTINUOUS
 62
    2
 10
365.00000000000006
 20
247
 11
410.00000000000006
 21
247
  0
LINE
  8
_0-0_図面枠
  6
CONTINUOUS
 62
    2
 10
365.00000000000006
 20
247.00000000000006
 11
365.00000000000006
 21
287.00000000000006
  0
INSERT
  2
-035-_34_
  8
_0-0_図面枠
 10
210
 20
148.5
 41
1
 42
1
 50
0
  0
LINE
  8
_0-0_図面枠
  6
CONTINUOUS
 62
    4
 10
392.70254983187715
 20
272.37647457958172
 11
392.66787745459447
 21
272.35645647322411
  0
LINE
  8
_0-0_図面枠
  6
CONTINUOUS
 62
    2
 10
377.98011796754173
 20
263.87647457958172
 11
380.14518147700278
 21
262.62647457958172
  0
LINE
  8
_0-0_図面枠
  6
CONTINUOUS
 62
    2
 10
380.14518147700278
 20
262.62647457958172
 11
380.14518147700278
 21
252.62647457958172
  0
LINE
  8
_0-0_図面枠
  6
CONTINUOUS
 62
    2
 10
377.98011796754173
 20
263.87647457958172
 11
377.98011796754173
 21
253.87647457958172
  0
LINE
  8
_0-0_図面枠
  6
CONTINUOUS
 62
    2
 10
387.50639740917057
 20
266.87647457958167
 11
390.97049902430831
 21
264.87647457958167
  0
LINE
  8
_0-0_図面枠
  6
CONTINUOUS
 62
    2
 10
390.97049902430831
 20
264.87647457958167
 11
393.13556253376942
 21
266.12647457958167
  0
LINE
  8
_0-0_図面枠
  6
CONTINUOUS
 62
    2
 10
380.14518147700278
 20
262.62647457958172
 11
387.50639740917046
 21
266.87647457958172
  0
LINE
  8
_0-0_図面枠
  6
CONTINUOUS
 62
    2
 10
390.97049902430831
 20
264.87647457958167
 11
390.97049902430831
 21
254.87647457958167
  0
LINE
  8
_0-0_図面枠
  6
CONTINUOUS
 62
    2
 10
393.13556253376942
 20
266.12647457958167
 11
393.13556253376942
 21
256.12647457958167
  0
LINE
  8
_0-0_図面枠
  6
CONTINUOUS
 62
    3
 10
377.98011796754173
 20
263.87647457958172
 11
374.51601635240394
 21
261.87647457958172
  0
LINE
  8
_0-0_図面枠
  6
CONTINUOUS
 62
    3
 10
383.17627039024836
 20
266.87647457958172
 11
383.17627039024836
 21
264.37647457958172
  0
LINE
  8
_0-0_図面枠
  6
CONTINUOUS
 62
    3
 10
383.17627039024836
 20
266.87647457958172
 11
377.98011796754173
 21
263.87647457958172
  0
LINE
  8
_0-0_図面枠
  6
CONTINUOUS
 62
    3
 10
396.16665144701494
 20
264.37647457958172
 11
383.17627039024836
 21
271.87647457958172
  0
LINE
  8
_0-0_図面枠
  6
CONTINUOUS
 62
    3
 10
396.16665144701494
 20
264.37647457958172
 11
400.4967784659371
 21
266.87647457958172
  0
LINE
  8
_0-0_図面枠
  6
CONTINUOUS
 62
    3
 10
396.16665144701494
 20
264.37647457958167
 11
396.16665144701494
 21
254.37647457958167
  0
LINE
  8
_0-0_図面枠
  6
CONTINUOUS
 62
    3
 10
383.17627039024836
 20
266.87647457958172
 11
378.84614337132615
 21
269.37647457958172
  0
TEXT
  8
_0-0_図面枠
 62
    4
 10
372.20860876835116
 20
281.64635842036733
 40
2.5
 41
1
 50
0
  1
-75
  0
TEXT
  8
_0-0_図面枠
 62
    4
 10
394.72446245862227
 20
281.64635842036728
 40
2.5
 41
1
 50
0
  1
+75
  0
TEXT
  8
_0-0_図面枠
 62
    4
 10
394.72446245862227
 20
268.64682423125504
 40
2.5
 41
1
 50
0
  1
+75
  0
TEXT
  8
_0-0_図面枠
 62
    4
 10
372.20820536248186
 20
268.6475230007967
 40
2.5
 41
1
 50
0
  1
-75
  0
ENDSEC
  0
EOF
