  0
SECTION
  2
HEADER
  9
$ACADVER
  1
AC1009
  9
$INSBASE
 10
0
 20
0
 30
0
  9
$EXTMIN
 10
0
 20
0
  9
$EXTMAX
 10
420
 20
297
  9
$LIMMIN
 10
0
 20
0
  9
$LIMMAX
 10
420
 20
297
  9
$LTSCALE
 40
1
  0
ENDSEC
  0
SECTION
  2
TABLES
  0
TABLE
  2
LTYPE
 70
     9
  0
LTYPE
  2
CONTINUOUS
 70
    64
  3
実線
 72
    65
 73
     0
 40
0.0
  0
LTYPE
  2
DASHED1
 70
    64
  3
--  --  --  --  --  --  --  --  
 72
    65
 73
     2
 40
2.5
 49
1.25
 49
-1.25
  0
LTYPE
  2
DASHED2
 70
    64
  3
----    ----    ----    ----    
 72
    65
 73
     2
 40
5.0
 49
2.5
 49
-2.5
  0
LTYPE
  2
DASHED3
 70
    64
  3
------  ------  ------  ------  
 72
    65
 73
     2
 40
5.0
 49
3.75
 49
-1.25
  0
LTYPE
  2
CENTER1
 70
    64
  3
----- - ----- - ----- - ----- - 
 72
    65
 73
     4
 40
10.0
 49
6.25
 49
-1.25
 49
1.25
 49
-1.25
  0
LTYPE
  2
CENTER2
 70
    64
  3
----------  --  ----------  --  
 72
    65
 73
     4
 40
20.0
 49
12.5
 49
-2.5
 49
2.5
 49
-2.5
  0
LTYPE
  2
PHANTOM1
 70
    64
  3
--- - - --- - - --- - - --- - - 
 72
    65
 73
     6
 40
10.0
 49
3.25
 49
-1.25
 49
1.25
 49
-1.25
 49
1.25
 49
-1.25
  0
LTYPE
  2
PHANTOM2
 70
    64
  3
--------  -  -  --------  -  -  
 72
    65
 73
     6
 40
20.0
 49
10.0
 49
-2.5
 49
1.25
 49
-2.5
 49
1.25
 49
-2.5
  0
LTYPE
  2
DOT
 70
    64
  3
-   -   -   -   -   -   -   -   
 72
    65
 73
     2
 40
2.5
 49
0.625
 49
-1.875
  0
LTYPE
  2
DUMMY
 70
    64
  3
ダミー
 72
    65
 73
     0
 40
0.0
  0
LTYPE
  2
RAND1
 70
    64
  3
ランダム線1
 72
    65
 73
     4
 40
10.0
 49
1.0
 49
-2.0
 49
3.0
 49
-4.0
  0
LTYPE
  2
RAND2
 70
    64
  3
ランダム線2
 72
    65
 73
     4
 40
14.0
 49
2.0
 49
-3.0
 49
4.0
 49
-5.0
  0
LTYPE
  2
RAND3
 70
    64
  3
ランダム線3
 72
    65
 73
     4
 40
18.0
 49
3.0
 49
-4.0
 49
5.0
 49
-6.0
  0
LTYPE
  2
RAND4
 70
    64
  3
ランダム線4
 72
    65
 73
     4
 40
22.0
 49
4.0
 49
-5.0
 49
6.0
 49
-7.0
  0
LTYPE
  2
RAND5
 70
    64
  3
ランダム線5
 72
    65
 73
     4
 40
26.0
 49
5.0
 49
-6.0
 49
7.0
 49
-8.0
  0
LTYPE
  2
LONG1
 70
    64
  3
----------  --  ----------  --  
 72
    65
 73
     4
 40
40.0
 49
32.5
 49
-2.5
 49
2.5
 49
-2.5
  0
LTYPE
  2
LONG2
 70
    64
  3
--------  -  -  --------  -  -  
 72
    65
 73
     6
 40
40.0
 49
30.0
 49
-2.5
 49
1.25
 49
-2.5
 49
1.25
 49
-2.5
  0
LTYPE
  2
LONG3
 70
    64
  3
+++++++++++++++..+++++++++++++++
 72
    65
 73
     2
 40
40.0
 49
37.5
 49
-2.5
  0
LTYPE
  2
LONG4
 70
    64
  3
+++++++++++++++..+++++++++++++++
 72
    65
 73
     2
 40
80.0
 49
75.0
 49
-5.0
  0
LTYPE
  2
LONG5
 70
    64
  3
----------  --  ----------  --  
 72
    65
 73
     4
 40
60.0
 49
37.5
 49
-7.5
 49
7.5
 49
-7.5
  0
LTYPE
  2
dashed
 70
   64
  3
-------   -------------   ------
 72
   65
 73
    2
 40
7.5
 49
6
 49
-1.5
  0
LTYPE
  2
dashed_spaced
 70
   64
  3
----        --------        ----
 72
   65
 73
    2
 40
12
 49
6
 49
-6
  0
LTYPE
  2
long_dashed_dotted
 70
   64
  3
------------- --- --------------
 72
   65
 73
    4
 40
15.25
 49
12
 49
-1.5
 49
0.25
 49
-1.5
  0
LTYPE
  2
long_dashed_double-dotted
 70
   64
  3
----------- --- --- ------------
 72
   65
 73
    6
 40
17
 49
12
 49
-1.5
 49
0.25
 49
-1.5
 49
0.25
 49
-1.5
  0
LTYPE
  2
long_dashed_triplicate-dotted
 70
   64
  3
--------- --- --- --- ----------
 72
   65
 73
    8
 40
18.75
 49
12
 49
-1.5
 49
0.25
 49
-1.5
 49
0.25
 49
-1.5
 49
0.25
 49
-1.5
  0
LTYPE
  2
dotted
 70
   64
  3
   -       -       -       -    
 72
   65
 73
    2
 40
1.75
 49
0.25
 49
-1.5
  0
LTYPE
  2
chain
 70
   64
  3
-------------- -- --------------
 72
   65
 73
    4
 40
18.5
 49
12
 49
-1.5
 49
3.5
 49
-1.5
  0
LTYPE
  2
chain_double_dash
 70
   64
  3
------------ -- -- -------------
 72
   65
 73
    6
 40
23.5
 49
12
 49
-1.5
 49
3.5
 49
-1.5
 49
3.5
 49
-1.5
  0
LTYPE
  2
dashed_dotted
 70
   64
  3
-----------     -     ----------
 72
   65
 73
    4
 40
9.25
 49
6
 49
-1.5
 49
0.25
 49
-1.5
  0
LTYPE
  2
double-dashed_dotted
 70
   64
  3
------   -----------   -   -----
 72
   65
 73
    6
 40
16.75
 49
6
 49
-1.5
 49
6
 49
-1.5
 49
0.25
 49
-1.5
  0
LTYPE
  2
dashed_double-dotted
 70
   64
  3
---------    -    -    ---------
 72
   65
 73
    6
 40
11
 49
6
 49
-1.5
 49
0.25
 49
-1.5
 49
0.25
 49
-1.5
  0
LTYPE
  2
double-dashed_double-dotted
 70
   64
  3
-----   ---------   -   -   ----
 72
   65
 73
    8
 40
18.5
 49
6
 49
-1.5
 49
6
 49
-1.5
 49
0.25
 49
-1.5
 49
0.25
 49
-1.5
  0
LTYPE
  2
dashed_triplicate-dotted
 70
   64
  3
-------    -    -    -    ------
 72
   65
 73
    8
 40
12.75
 49
6
 49
-1.5
 49
0.25
 49
-1.5
 49
0.25
 49
-1.5
 49
0.25
 49
-1.5
  0
LTYPE
  2
double-dashed_triplicate-dotted
 70
   64
  3
-----  ---------  -  -  -  -----
 72
   65
 73
   10
 40
20.25
 49
6
 49
-1.5
 49
6
 49
-1.5
 49
0.25
 49
-1.5
 49
0.25
 49
-1.5
 49
0.25
 49
-1.5
  0
LTYPE
  2
undefined
 70
   64
  3
--------------------------------
 72
   65
 73
    0
 40
0
  0
ENDTAB
  0
TABLE
  2
STYLE
  5
3
100
AcDbSymbolTable
 70
     1
  0
STYLE
  5
10
100
AcDbSymbolTableRecord
100
AcDbTextStyleTableRecord
  2
STANDARD
 70
     0
 40
0.0
 41
1.0
 50
0.0
 71
     0
 42
0.2
  3
txt
  4
bigfont.shx
  0
STYLE
  5
26
100
AcDbSymbolTableRecord
100
AcDbTextStyleTableRecord
  2
TATEGAKI
 70
    68
 40
0.0
 41
1.0
 50
0.0
 71
     0
 42
1.0
  3
txt
  4
bigfont.shx
  0
ENDTAB
  0
TABLE
  2
LAYER
 70
    9
  0
LAYER
  2
_0-0_図面枠
 70
   64
 62
    7
  6
CONTINUOUS
  0
LAYER
  2
_1-0_躯体
 70
   64
 62
    7
  6
CONTINUOUS
  0
LAYER
  2
_1-4_フレ__ム
 70
   64
 62
    7
  6
CONTINUOUS
  0
LAYER
  2
_1-5_ア__ム
 70
   64
 62
    7
  6
CONTINUOUS
  0
LAYER
  2
_1-6_ばね
 70
   64
 62
    7
  6
CONTINUOUS
  0
LAYER
  2
_1-7_カバ__
 70
   64
 62
    7
  6
CONTINUOUS
  0
LAYER
  2
_1-8_小物
 70
   64
 62
    7
  6
CONTINUOUS
  0
LAYER
  2
_1-f_寸法
 70
   64
 62
    7
  6
CONTINUOUS
  0
LAYER
  2
ADD_LINE
 70
   64
 62
    7
  6
CONTINUOUS
  0
ENDTAB
  0
ENDSEC
  0
SECTION
  2
BLOCKS
  0
BLOCK
  2
-000-
 70
   64
 10
0
 20
0
 30
0
  0
LINE
  8
_1-8_小物
  6
CONTINUOUS
 62
    4
 10
-125.33333333333302
 20
69.5
 11
-131.33333333333331
 21
69.5
  0
LINE
  8
_1-8_小物
  6
CONTINUOUS
 62
    4
 10
-125.33333333333302
 20
69
 11
-131.33333333333331
 21
69
  0
LINE
  8
_1-8_小物
  6
CONTINUOUS
 62
    4
 10
-125.33333333333302
 20
69.5
 11
-125.33333333333302
 21
69
  0
LINE
  8
_1-8_小物
  6
CONTINUOUS
 62
    4
 10
-131.33333333333331
 20
69.5
 11
-131.33333333333331
 21
69
  0
LINE
  8
_1-8_小物
  6
CONTINUOUS
 62
    4
 10
-127.41666666666637
 20
69.5
 11
-127.41666666666637
 21
69
  0
LINE
  8
_1-8_小物
  6
CONTINUOUS
 62
    4
 10
-129.25
 20
69.5
 11
-129.25
 21
69
  0
LINE
  8
_1-8_小物
  6
CONTINUOUS
 62
    4
 10
-126.83333333333306
 20
69.5
 11
-126.86963759459984
 21
69.914959605000035
  0
LINE
  8
_1-8_小物
  6
CONTINUOUS
 62
    4
 10
-129.79702907209989
 20
69.914959605000035
 11
-129.83333333333303
 21
69.5
  0
ARC
  8
_1-8_小物
  6
CONTINUOUS
 62
    4
 10
-129.46828482170017
 20
69.886198209899931
 40
0.3299999999999999
 50
127.36755803205445
 51
175.00000000120363
  0
ARC
  8
_1-8_小物
  6
CONTINUOUS
 62
    4
 10
-127.19838184496653
 20
69.886198209899931
 40
0.3299999999999999
 50
4.9999999987963699
 51
52.63244196794556
  0
ARC
  8
_1-8_小物
  6
CONTINUOUS
 62
    4
 10
-128.33333333333334
 20
68.399999999999977
 40
2.1999999999999997
 50
52.632441967704935
 51
68.266383543398163
  0
ARC
  8
_1-8_小物
  6
CONTINUOUS
 62
    4
 10
-128.33333333333334
 20
68.399999999999977
 40
2.1999999999999997
 50
111.74840859090358
 51
127.36755803230515
  0
LINE
  8
_1-8_小物
  6
CONTINUOUS
 62
    4
 10
-128.22833333333318
 20
70.586375709866729
 11
-128.22833333333318
 21
70.441104079866591
  0
LINE
  8
_1-8_小物
  6
CONTINUOUS
 62
    4
 10
-128.11257043936621
 20
70.586375709866729
 11
-128.22833333333318
 21
70.586375709866729
  0
LINE
  8
_1-8_小物
  6
CONTINUOUS
 62
    4
 10
-127.51916557716656
 20
70.441104079866591
 11
-128.11257043936621
 21
70.586375709866729
  0
LINE
  8
_1-8_小物
  6
CONTINUOUS
 62
    4
 10
-128.55409622733322
 20
70.586375709866729
 11
-128.9873996499
 21
70.497897102733418
  0
LINE
  8
_1-8_小物
  6
CONTINUOUS
 62
    4
 10
-128.9873996499
 20
70.497897102733418
 11
-129.14750108953285
 21
70.441104079866591
  0
LINE
  8
_1-8_小物
  6
CONTINUOUS
 62
    4
 10
-128.43833333333322
 20
70.586375709866729
 11
-128.55409622733322
 21
70.586375709866729
  0
LINE
  8
_1-8_小物
  6
CONTINUOUS
 62
    4
 10
-128.43833333333322
 20
70.441104079866591
 11
-128.43833333333322
 21
70.586375709866729
  0
LINE
  8
_1-8_小物
  6
CONTINUOUS
 62
    4
 10
-128.22833333333318
 20
70.441104079866591
 11
-128.33333333333334
 21
70.442805804666705
  0
LINE
  8
_1-8_小物
  6
CONTINUOUS
 62
    4
 10
-128.33333333333334
 20
70.442805804666705
 11
-128.43833333333322
 21
70.441104079866591
  0
LINE
  8
_1-8_小物
  6
CONTINUOUS
 62
    4
 10
-126.86963759459984
 20
69.914959605000035
 11
-129.79702907209989
 21
69.914959605000035
  0
LINE
  8
_1-8_小物
  6
CONTINUOUS
 62
    4
 10
-128.33333333333334
 20
70.148468482233397
 11
-129.66857037849999
 21
70.148468482233397
  0
LINE
  8
_1-8_小物
  6
CONTINUOUS
 62
    4
 10
-126.99809628819973
 20
70.148468482233397
 11
-128.33333333333334
 21
70.148468482233397
  0
ENDBLK
  0
BLOCK
  2
-001-_1_
 70
   64
 10
0
 20
0
 30
0
  0
LINE
  8
_1-8_小物
  6
CONTINUOUS
 62
    4
 10
-126.53057500000008
 20
56.573391666666595
 11
-126.49568500000046
 21
55.907638333333267
  0
LINE
  8
_1-8_小物
  6
CONTINUOUS
 62
    4
 10
-126.582911666667
 20
57.572021666666529
 11
-127.23121833333366
 21
57.204254999999904
  0
LINE
  8
_1-8_小物
  6
CONTINUOUS
 62
    4
 10
-127.23121833333366
 20
57.204254999999904
 11
-127.19632833333343
 21
56.538501666666576
  0
LINE
  8
_1-8_小物
  6
CONTINUOUS
 62
    4
 10
-127.19632833333343
 20
56.538501666666576
 11
-126.53057500000008
 21
56.573391666666595
  0
LINE
  8
_1-8_小物
  6
CONTINUOUS
 62
    4
 10
-126.61780166666691
 20
58.237774999999971
 11
-126.582911666667
 21
57.572021666666529
  0
LINE
  8
_1-8_小物
  6
CONTINUOUS
 62
    4
 10
-126.67013833333354
 20
59.236403333333357
 11
-127.31844500000048
 21
58.86863666666639
  0
LINE
  8
_1-8_小物
  6
CONTINUOUS
 62
    4
 10
-127.31844500000048
 20
58.86863666666639
 11
-127.28355500000029
 21
58.20288333333329
  0
LINE
  8
_1-8_小物
  6
CONTINUOUS
 62
    4
 10
-127.28355500000029
 20
58.20288333333329
 11
-126.61780166666691
 21
58.237774999999971
  0
LINE
  8
_1-8_小物
  6
CONTINUOUS
 62
    4
 10
-126.70502833333374
 20
59.902156666666684
 11
-126.67013833333354
 21
59.236403333333357
  0
LINE
  8
_1-8_小物
  6
CONTINUOUS
 62
    4
 10
-126.75736500000008
 20
60.900786666666392
 11
-127.40567166666673
 21
60.533019999999993
  0
LINE
  8
_1-8_小物
  6
CONTINUOUS
 62
    4
 10
-127.40567166666673
 20
60.533019999999993
 11
-127.37078166666713
 21
59.867266666666666
  0
LINE
  8
_1-8_小物
  6
CONTINUOUS
 62
    4
 10
-127.37078166666713
 20
59.867266666666666
 11
-126.70502833333374
 21
59.902156666666684
  0
LINE
  8
_1-8_小物
  6
CONTINUOUS
 62
    4
 10
-126.79225500000028
 20
61.566539999999947
 11
-126.75736500000008
 21
60.900786666666392
  0
LINE
  8
_1-8_小物
  6
CONTINUOUS
 62
    4
 10
-126.84459166666691
 20
62.565169999999995
 11
-127.49289833333357
 21
62.197401666666593
  0
LINE
  8
_1-8_小物
  6
CONTINUOUS
 62
    4
 10
-127.49289833333357
 20
62.197401666666593
 11
-127.45800833333365
 21
61.531648333333266
  0
LINE
  8
_1-8_小物
  6
CONTINUOUS
 62
    4
 10
-127.45800833333365
 20
61.531648333333266
 11
-126.79225500000028
 21
61.566539999999947
  0
LINE
  8
_1-8_小物
  6
CONTINUOUS
 62
    4
 10
-126.87948166666686
 20
63.230921666666546
 11
-126.84459166666691
 21
62.565169999999995
  0
LINE
  8
_1-8_小物
  6
CONTINUOUS
 62
    4
 10
-127.58012500000039
 20
63.861784999999855
 11
-127.54523500000019
 21
63.196031666666528
  0
LINE
  8
_1-8_小物
  6
CONTINUOUS
 62
    4
 10
-127.54523500000019
 20
63.196031666666528
 11
-126.87948166666686
 21
63.230921666666546
  0
LINE
  8
_1-8_小物
  6
CONTINUOUS
 62
    4
 10
-127.00000000000031
 20
64.166666666666657
 11
-127.58012500000039
 21
63.861784999999855
  0
LINE
  8
_1-8_小物
  6
CONTINUOUS
 62
    4
 10
-130.13609166666691
 20
56.573391666666595
 11
-130.17098166666679
 21
55.907638333333267
  0
LINE
  8
_1-8_小物
  6
CONTINUOUS
 62
    4
 10
-130.08375500000025
 20
57.572021666666529
 11
-129.43544833333362
 21
57.204254999999904
  0
LINE
  8
_1-8_小物
  6
CONTINUOUS
 62
    4
 10
-129.43544833333362
 20
57.204254999999904
 11
-129.47033833333384
 21
56.538501666666576
  0
LINE
  8
_1-8_小物
  6
CONTINUOUS
 62
    4
 10
-129.47033833333384
 20
56.538501666666576
 11
-130.13609166666691
 21
56.573391666666595
  0
LINE
  8
_1-8_小物
  6
CONTINUOUS
 62
    4
 10
-130.04886500000006
 20
58.237774999999971
 11
-130.08375500000025
 21
57.572021666666529
  0
LINE
  8
_1-8_小物
  6
CONTINUOUS
 62
    4
 10
-129.99652833333371
 20
59.236403333333357
 11
-129.34822166666709
 21
58.86863666666639
  0
LINE
  8
_1-8_小物
  6
CONTINUOUS
 62
    4
 10
-129.34822166666709
 20
58.86863666666639
 11
-129.38311166666668
 21
58.20288333333329
  0
LINE
  8
_1-8_小物
  6
CONTINUOUS
 62
    4
 10
-129.38311166666668
 20
58.20288333333329
 11
-130.04886500000006
 21
58.237774999999971
  0
LINE
  8
_1-8_小物
  6
CONTINUOUS
 62
    4
 10
-129.96163833333381
 20
59.902156666666684
 11
-129.99652833333371
 21
59.236403333333357
  0
LINE
  8
_1-8_小物
  6
CONTINUOUS
 62
    4
 10
-129.90930166666718
 20
60.900786666666392
 11
-129.26099500000024
 21
60.533019999999993
  0
LINE
  8
_1-8_小物
  6
CONTINUOUS
 62
    4
 10
-129.26099500000024
 20
60.533019999999993
 11
-129.29588500000017
 21
59.867266666666666
  0
LINE
  8
_1-8_小物
  6
CONTINUOUS
 62
    4
 10
-129.29588500000017
 20
59.867266666666666
 11
-129.96163833333381
 21
59.902156666666684
  0
LINE
  8
_1-8_小物
  6
CONTINUOUS
 62
    4
 10
-129.87441166666699
 20
61.566539999999947
 11
-129.90930166666718
 21
60.900786666666392
  0
LINE
  8
_1-8_小物
  6
CONTINUOUS
 62
    4
 10
-129.82207500000004
 20
62.565169999999995
 11
-129.17376833333341
 21
62.197401666666593
  0
LINE
  8
_1-8_小物
  6
CONTINUOUS
 62
    4
 10
-129.17376833333341
 20
62.197401666666593
 11
-129.2086583333336
 21
61.531648333333266
  0
LINE
  8
_1-8_小物
  6
CONTINUOUS
 62
    4
 10
-129.2086583333336
 20
61.531648333333266
 11
-129.87441166666699
 21
61.566539999999947
  0
LINE
  8
_1-8_小物
  6
CONTINUOUS
 62
    4
 10
-129.78718500000045
 20
63.230921666666546
 11
-129.82207500000004
 21
62.565169999999995
  0
LINE
  8
_1-8_小物
  6
CONTINUOUS
 62
    4
 10
-129.08654166666688
 20
63.861784999999855
 11
-129.12143166666706
 21
63.196031666666528
  0
LINE
  8
_1-8_小物
  6
CONTINUOUS
 62
    4
 10
-129.12143166666706
 20
63.196031666666528
 11
-129.78718500000045
 21
63.230921666666546
  0
LINE
  8
_1-8_小物
  6
CONTINUOUS
 62
    4
 10
-128.3531016666669
 20
56.186434999999875
 11
-127.70853500000037
 21
56.758324999999928
  0
LINE
  8
_1-8_小物
  6
CONTINUOUS
 62
    4
 10
-128.95648166666706
 20
56.789813333333342
 11
-128.33333333333334
 21
56.166666666666544
  0
LINE
  8
_1-8_小物
  6
CONTINUOUS
 62
    4
 10
-129.66666666666666
 20
64.166666666666657
 11
-129.08654166666688
 21
63.861784999999855
  0
LINE
  8
_1-8_小物
  6
CONTINUOUS
 62
    4
 10
-126.79225500000028
 20
61.566539999999947
 11
-126.2271333333338
 21
63.119199999999779
  0
LINE
  8
_1-8_小物
  6
CONTINUOUS
 62
    4
 10
-127.14698166666679
 20
61.566539999999947
 11
-126.5403633333335
 21
63.233206666666575
  0
LINE
  8
_1-8_小物
  6
CONTINUOUS
 62
    4
 10
-129.87441166666699
 20
61.566539999999947
 11
-130.43953333333351
 21
63.119199999999779
  0
LINE
  8
_1-8_小物
  6
CONTINUOUS
 62
    4
 10
-129.51968500000052
 20
61.566539999999947
 11
-130.12630333333377
 21
63.233206666666575
  0
LINE
  8
_1-8_小物
  6
CONTINUOUS
 62
    4
 10
-127.66075166666693
 20
55.846579999999818
 11
-126.49568500000046
 21
55.907638333333267
  0
LINE
  8
_1-8_小物
  6
CONTINUOUS
 62
    4
 10
-126.49568500000046
 20
55.907638333333267
 11
-127.12654666666701
 21
55.206995000000035
  0
LINE
  8
_1-8_小物
  6
CONTINUOUS
 62
    4
 10
-127.12654666666701
 20
55.206995000000035
 11
-127.62586166666674
 21
55.180826666666491
  0
LINE
  8
_1-8_小物
  6
CONTINUOUS
 62
    4
 10
-127.62586166666674
 20
55.180826666666491
 11
-128.16666666666666
 21
65.499999999999801
  0
LINE
  8
_1-8_小物
  6
CONTINUOUS
 62
    4
 10
-127.00000000000031
 20
64.166666666666657
 11
-127.00000000000031
 21
65.499999999999801
  0
LINE
  8
_1-8_小物
  6
CONTINUOUS
 62
    4
 10
-129.00591500000033
 20
55.846579999999818
 11
-130.17098166666679
 21
55.907638333333267
  0
LINE
  8
_1-8_小物
  6
CONTINUOUS
 62
    4
 10
-130.17098166666679
 20
55.907638333333267
 11
-129.54012000000029
 21
55.206995000000035
  0
LINE
  8
_1-8_小物
  6
CONTINUOUS
 62
    4
 10
-129.54012000000029
 20
55.206995000000035
 11
-129.04080500000023
 21
55.180826666666491
  0
LINE
  8
_1-8_小物
  6
CONTINUOUS
 62
    4
 10
-129.04080500000023
 20
55.180826666666491
 11
-128.50000000000031
 21
65.499999999999801
  0
LINE
  8
_1-8_小物
  6
CONTINUOUS
 62
    4
 10
-129.66666666666666
 20
64.166666666666657
 11
-129.66666666666666
 21
65.499999999999801
  0
LINE
  8
_1-8_小物
  6
CONTINUOUS
 62
    4
 10
-130.43953333333351
 20
63.119199999999779
 11
-130.77031833333362
 21
65.387073333333461
  0
ARC
  8
_1-8_小物
  6
CONTINUOUS
 62
    4
 10
-130.63838166666696
 20
65.406318333333303
 40
0.1333333333333333
 50
98.130101999953808
 51
188.29846600002313
  0
LINE
  8
_1-8_小物
  6
CONTINUOUS
 62
    4
 10
-130.65723833333382
 20
65.538311666666601
 11
-130.59163000000021
 21
65.547683333333367
  0
ARC
  8
_1-8_小物
  6
CONTINUOUS
 62
    4
 10
-130.57277333333332
 20
65.415689999999955
 40
0.1333333333333333
 50
8.130102000040166
 51
98.13010200021462
  0
LINE
  8
_1-8_小物
  6
CONTINUOUS
 62
    4
 10
-130.44078000000022
 20
65.434546666666535
 11
-130.12630333333377
 21
63.233206666666575
  0
LINE
  8
_1-8_小物
  6
CONTINUOUS
 62
    4
 10
-126.2271333333338
 20
63.119199999999779
 11
-125.89634833333365
 21
65.387073333333461
  0
ARC
  8
_1-8_小物
  6
CONTINUOUS
 62
    4
 10
-126.02828500000031
 20
65.406318333333303
 40
0.1333333333333333
 50
351.70153399996389
 51
81.869898000040166
  0
LINE
  8
_1-8_小物
  6
CONTINUOUS
 62
    4
 10
-126.00943000000038
 20
65.538311666666601
 11
-126.07503666666706
 21
65.547683333333367
  0
ARC
  8
_1-8_小物
  6
CONTINUOUS
 62
    4
 10
-126.09389333333334
 20
65.415689999999955
 40
0.1333333333333333
 50
81.869898000046192
 51
171.86989799999611
  0
LINE
  8
_1-8_小物
  6
CONTINUOUS
 62
    4
 10
-126.22588666666705
 20
65.434546666666535
 11
-126.5403633333335
 21
63.233206666666575
  0
LINE
  8
_1-8_小物
  6
CONTINUOUS
 62
    4
 10
-126.2271333333338
 20
63.119199999999779
 11
-125.89634833333365
 21
65.387073333333461
  0
ARC
  8
_1-8_小物
  6
CONTINUOUS
 62
    4
 10
-126.02828500000031
 20
65.406318333333303
 40
0.1333333333333333
 50
351.70153399996389
 51
81.869898000040166
  0
LINE
  8
_1-8_小物
  6
CONTINUOUS
 62
    4
 10
-126.00943000000038
 20
65.538311666666601
 11
-126.07503666666706
 21
65.547683333333367
  0
ARC
  8
_1-8_小物
  6
CONTINUOUS
 62
    4
 10
-126.09389333333334
 20
65.415689999999955
 40
0.1333333333333333
 50
81.869898000046192
 51
171.86989799999611
  0
LINE
  8
_1-8_小物
  6
CONTINUOUS
 62
    4
 10
-126.22588666666705
 20
65.434546666666535
 11
-126.5403633333335
 21
63.233206666666575
  0
LINE
  8
_1-8_小物
  6
CONTINUOUS
 62
    4
 10
-126.66666666666666
 20
68.166666666666657
 11
-127.00000000000031
 21
66.500000000000028
  0
LINE
  8
_1-8_小物
  6
CONTINUOUS
 62
    4
 10
-127.00000000000031
 20
68.166666666666657
 11
-127.00000000000031
 21
65.499999999999801
  0
LINE
  8
_1-8_小物
  6
CONTINUOUS
 62
    4
 10
-128.16666666666666
 20
65.499999999999801
 11
-128.33333333333334
 21
65.499999999999801
  0
LINE
  8
_1-8_小物
  6
CONTINUOUS
 62
    4
 10
-128.33333333333334
 20
66.500000000000028
 11
-128.33333333333334
 21
68.166666666666657
  0
LINE
  8
_1-8_小物
  6
CONTINUOUS
 62
    4
 10
-128.00000000000031
 20
68.166666666666657
 11
-128.33333333333334
 21
66.500000000000028
  0
LINE
  8
_1-8_小物
  6
CONTINUOUS
 62
    4
 10
-128.66666666666697
 20
68.166666666666657
 11
-128.33333333333334
 21
66.500000000000028
  0
LINE
  8
_1-8_小物
  6
CONTINUOUS
 62
    4
 10
-130
 20
68.166666666666657
 11
-129.66666666666666
 21
66.500000000000028
  0
LINE
  8
_1-8_小物
  6
CONTINUOUS
 62
    4
 10
-129.66666666666666
 20
68.166666666666657
 11
-129.66666666666666
 21
65.499999999999801
  0
LINE
  8
_1-8_小物
  6
CONTINUOUS
 62
    4
 10
-128.50000000000031
 20
65.499999999999801
 11
-128.33333333333334
 21
65.499999999999801
  0
LINE
  8
_1-8_小物
  6
CONTINUOUS
 62
    4
 10
-126.66666666666666
 20
68.166666666666657
 11
-130
 21
68.166666666666657
  0
ENDBLK
  0
BLOCK
  2
-002-_2_
 70
   64
 10
0
 20
0
 30
0
  0
LINE
  8
_1-8_小物
  6
CONTINUOUS
 62
    4
 10
-69.863908333333427
 20
56.573391666666595
 11
-69.829018333333806
 21
55.907638333333267
  0
LINE
  8
_1-8_小物
  6
CONTINUOUS
 62
    4
 10
-69.916245000000345
 20
57.572021666666529
 11
-70.564551666667001
 21
57.204254999999904
  0
LINE
  8
_1-8_小物
  6
CONTINUOUS
 62
    4
 10
-70.564551666667001
 20
57.204254999999904
 11
-70.529661666666755
 21
56.538501666666576
  0
LINE
  8
_1-8_小物
  6
CONTINUOUS
 62
    4
 10
-70.529661666666755
 20
56.538501666666576
 11
-69.863908333333427
 21
56.573391666666595
  0
LINE
  8
_1-8_小物
  6
CONTINUOUS
 62
    4
 10
-69.951135000000249
 20
58.237774999999971
 11
-69.916245000000345
 21
57.572021666666529
  0
LINE
  8
_1-8_小物
  6
CONTINUOUS
 62
    4
 10
-70.003471666666883
 20
59.236403333333357
 11
-70.651778333333823
 21
58.86863666666639
  0
LINE
  8
_1-8_小物
  6
CONTINUOUS
 62
    4
 10
-70.651778333333823
 20
58.86863666666639
 11
-70.616888333333634
 21
58.20288333333329
  0
LINE
  8
_1-8_小物
  6
CONTINUOUS
 62
    4
 10
-70.616888333333634
 20
58.20288333333329
 11
-69.951135000000249
 21
58.237774999999971
  0
LINE
  8
_1-8_小物
  6
CONTINUOUS
 62
    4
 10
-70.038361666667072
 20
59.902156666666684
 11
-70.003471666666883
 21
59.236403333333357
  0
LINE
  8
_1-8_小物
  6
CONTINUOUS
 62
    4
 10
-70.090698333333421
 20
60.900786666666392
 11
-70.739005000000077
 21
60.533019999999993
  0
LINE
  8
_1-8_小物
  6
CONTINUOUS
 62
    4
 10
-70.739005000000077
 20
60.533019999999993
 11
-70.704115000000456
 21
59.867266666666666
  0
LINE
  8
_1-8_小物
  6
CONTINUOUS
 62
    4
 10
-70.704115000000456
 20
59.867266666666666
 11
-70.038361666667072
 21
59.902156666666684
  0
LINE
  8
_1-8_小物
  6
CONTINUOUS
 62
    4
 10
-70.12558833333361
 20
61.566539999999947
 11
-70.090698333333421
 21
60.900786666666392
  0
LINE
  8
_1-8_小物
  6
CONTINUOUS
 62
    4
 10
-70.177925000000243
 20
62.565169999999995
 11
-70.826231666666899
 21
62.197401666666593
  0
LINE
  8
_1-8_小物
  6
CONTINUOUS
 62
    4
 10
-70.826231666666899
 20
62.197401666666593
 11
-70.791341666666995
 21
61.531648333333266
  0
LINE
  8
_1-8_小物
  6
CONTINUOUS
 62
    4
 10
-70.791341666666995
 20
61.531648333333266
 11
-70.12558833333361
 21
61.566539999999947
  0
LINE
  8
_1-8_小物
  6
CONTINUOUS
 62
    4
 10
-70.212815000000205
 20
63.230921666666546
 11
-70.177925000000243
 21
62.565169999999995
  0
LINE
  8
_1-8_小物
  6
CONTINUOUS
 62
    4
 10
-70.913458333333722
 20
63.861784999999855
 11
-70.878568333333533
 21
63.196031666666528
  0
LINE
  8
_1-8_小物
  6
CONTINUOUS
 62
    4
 10
-70.878568333333533
 20
63.196031666666528
 11
-70.212815000000205
 21
63.230921666666546
  0
LINE
  8
_1-8_小物
  6
CONTINUOUS
 62
    4
 10
-70.333333333333655
 20
64.166666666666657
 11
-70.913458333333722
 21
63.861784999999855
  0
LINE
  8
_1-8_小物
  6
CONTINUOUS
 62
    4
 10
-73.469425000000228
 20
56.573391666666595
 11
-73.504315000000133
 21
55.907638333333267
  0
LINE
  8
_1-8_小物
  6
CONTINUOUS
 62
    4
 10
-73.417088333333595
 20
57.572021666666529
 11
-72.768781666666939
 21
57.204254999999904
  0
LINE
  8
_1-8_小物
  6
CONTINUOUS
 62
    4
 10
-72.768781666666939
 20
57.204254999999904
 11
-72.803671666667185
 21
56.538501666666576
  0
LINE
  8
_1-8_小物
  6
CONTINUOUS
 62
    4
 10
-72.803671666667185
 20
56.538501666666576
 11
-73.469425000000228
 21
56.573391666666595
  0
LINE
  8
_1-8_小物
  6
CONTINUOUS
 62
    4
 10
-73.382198333333406
 20
58.237774999999971
 11
-73.417088333333595
 21
57.572021666666529
  0
LINE
  8
_1-8_小物
  6
CONTINUOUS
 62
    4
 10
-73.329861666667057
 20
59.236403333333357
 11
-72.681555000000401
 21
58.86863666666639
  0
LINE
  8
_1-8_小物
  6
CONTINUOUS
 62
    4
 10
-72.681555000000401
 20
58.86863666666639
 11
-72.716445000000022
 21
58.20288333333329
  0
LINE
  8
_1-8_小物
  6
CONTINUOUS
 62
    4
 10
-72.716445000000022
 20
58.20288333333329
 11
-73.382198333333406
 21
58.237774999999971
  0
LINE
  8
_1-8_小物
  6
CONTINUOUS
 62
    4
 10
-73.294971666667152
 20
59.902156666666684
 11
-73.329861666667057
 21
59.236403333333357
  0
LINE
  8
_1-8_小物
  6
CONTINUOUS
 62
    4
 10
-73.242635000000519
 20
60.900786666666392
 11
-72.594328333333578
 21
60.533019999999993
  0
LINE
  8
_1-8_小物
  6
CONTINUOUS
 62
    4
 10
-72.594328333333578
 20
60.533019999999993
 11
-72.629218333333483
 21
59.867266666666666
  0
LINE
  8
_1-8_小物
  6
CONTINUOUS
 62
    4
 10
-72.629218333333483
 20
59.867266666666666
 11
-73.294971666667152
 21
59.902156666666684
  0
LINE
  8
_1-8_小物
  6
CONTINUOUS
 62
    4
 10
-73.20774500000033
 20
61.566539999999947
 11
-73.242635000000519
 21
60.900786666666392
  0
LINE
  8
_1-8_小物
  6
CONTINUOUS
 62
    4
 10
-73.155408333333355
 20
62.565169999999995
 11
-72.507101666666756
 21
62.197401666666593
  0
LINE
  8
_1-8_小物
  6
CONTINUOUS
 62
    4
 10
-72.507101666666756
 20
62.197401666666593
 11
-72.541991666666945
 21
61.531648333333266
  0
LINE
  8
_1-8_小物
  6
CONTINUOUS
 62
    4
 10
-72.541991666666945
 20
61.531648333333266
 11
-73.20774500000033
 21
61.566539999999947
  0
LINE
  8
_1-8_小物
  6
CONTINUOUS
 62
    4
 10
-73.120518333333791
 20
63.230921666666546
 11
-73.155408333333355
 21
62.565169999999995
  0
LINE
  8
_1-8_小物
  6
CONTINUOUS
 62
    4
 10
-72.419875000000218
 20
63.861784999999855
 11
-72.454765000000407
 21
63.196031666666528
  0
LINE
  8
_1-8_小物
  6
CONTINUOUS
 62
    4
 10
-72.454765000000407
 20
63.196031666666528
 11
-73.120518333333791
 21
63.230921666666546
  0
LINE
  8
_1-8_小物
  6
CONTINUOUS
 62
    4
 10
-71.686435000000245
 20
56.186434999999875
 11
-71.041868333333696
 21
56.758324999999928
  0
LINE
  8
_1-8_小物
  6
CONTINUOUS
 62
    4
 10
-72.289815000000374
 20
56.789813333333342
 11
-71.666666666666686
 21
56.166666666666544
  0
LINE
  8
_1-8_小物
  6
CONTINUOUS
 62
    4
 10
-73
 20
64.166666666666657
 11
-72.419875000000218
 21
63.861784999999855
  0
LINE
  8
_1-8_小物
  6
CONTINUOUS
 62
    4
 10
-70.12558833333361
 20
61.566539999999947
 11
-69.560466666667139
 21
63.119199999999779
  0
LINE
  8
_1-8_小物
  6
CONTINUOUS
 62
    4
 10
-70.480315000000132
 20
61.566539999999947
 11
-69.873696666666831
 21
63.233206666666575
  0
LINE
  8
_1-8_小物
  6
CONTINUOUS
 62
    4
 10
-73.20774500000033
 20
61.566539999999947
 11
-73.772866666666857
 21
63.119199999999779
  0
LINE
  8
_1-8_小物
  6
CONTINUOUS
 62
    4
 10
-72.853018333333864
 20
61.566539999999947
 11
-73.459636666667109
 21
63.233206666666575
  0
LINE
  8
_1-8_小物
  6
CONTINUOUS
 62
    4
 10
-70.994085000000268
 20
55.846579999999818
 11
-69.829018333333806
 21
55.907638333333267
  0
LINE
  8
_1-8_小物
  6
CONTINUOUS
 62
    4
 10
-69.829018333333806
 20
55.907638333333267
 11
-70.459880000000339
 21
55.206995000000035
  0
LINE
  8
_1-8_小物
  6
CONTINUOUS
 62
    4
 10
-70.459880000000339
 20
55.206995000000035
 11
-70.959195000000079
 21
55.180826666666491
  0
LINE
  8
_1-8_小物
  6
CONTINUOUS
 62
    4
 10
-70.959195000000079
 20
55.180826666666491
 11
-71.5
 21
65.499999999999801
  0
LINE
  8
_1-8_小物
  6
CONTINUOUS
 62
    4
 10
-70.333333333333655
 20
64.166666666666657
 11
-70.333333333333655
 21
65.499999999999801
  0
LINE
  8
_1-8_小物
  6
CONTINUOUS
 62
    4
 10
-72.339248333333671
 20
55.846579999999818
 11
-73.504315000000133
 21
55.907638333333267
  0
LINE
  8
_1-8_小物
  6
CONTINUOUS
 62
    4
 10
-73.504315000000133
 20
55.907638333333267
 11
-72.8734533333336
 21
55.206995000000035
  0
LINE
  8
_1-8_小物
  6
CONTINUOUS
 62
    4
 10
-72.8734533333336
 20
55.206995000000035
 11
-72.374138333333576
 21
55.180826666666491
  0
LINE
  8
_1-8_小物
  6
CONTINUOUS
 62
    4
 10
-72.374138333333576
 20
55.180826666666491
 11
-71.833333333333655
 21
65.499999999999801
  0
LINE
  8
_1-8_小物
  6
CONTINUOUS
 62
    4
 10
-73
 20
64.166666666666657
 11
-73
 21
65.499999999999801
  0
LINE
  8
_1-8_小物
  6
CONTINUOUS
 62
    4
 10
-73.772866666666857
 20
63.119199999999779
 11
-74.103651666666963
 21
65.387073333333461
  0
ARC
  8
_1-8_小物
  6
CONTINUOUS
 62
    4
 10
-73.971715000000302
 20
65.406318333333303
 40
0.1333333333333333
 50
98.130101999965902
 51
188.29846600002313
  0
LINE
  8
_1-8_小物
  6
CONTINUOUS
 62
    4
 10
-73.990571666667165
 20
65.538311666666601
 11
-73.924963333333551
 21
65.547683333333367
  0
ARC
  8
_1-8_小物
  6
CONTINUOUS
 62
    4
 10
-73.906106666666631
 20
65.415689999999955
 40
0.1333333333333333
 50
8.130102000040166
 51
98.130102000226714
  0
LINE
  8
_1-8_小物
  6
CONTINUOUS
 62
    4
 10
-73.77411333333356
 20
65.434546666666535
 11
-73.459636666667109
 21
63.233206666666575
  0
LINE
  8
_1-8_小物
  6
CONTINUOUS
 62
    4
 10
-69.560466666667139
 20
63.119199999999779
 11
-69.229681666666977
 21
65.387073333333461
  0
ARC
  8
_1-8_小物
  6
CONTINUOUS
 62
    4
 10
-69.361618333333638
 20
65.406318333333303
 40
0.1333333333333333
 50
351.70153399996303
 51
81.869898000046192
  0
LINE
  8
_1-8_小物
  6
CONTINUOUS
 62
    4
 10
-69.342763333333721
 20
65.538311666666601
 11
-69.408370000000389
 21
65.547683333333367
  0
ARC
  8
_1-8_小物
  6
CONTINUOUS
 62
    4
 10
-69.427226666666684
 20
65.415689999999955
 40
0.1333333333333333
 50
81.869898000046192
 51
171.86989799999611
  0
LINE
  8
_1-8_小物
  6
CONTINUOUS
 62
    4
 10
-69.55922000000038
 20
65.434546666666535
 11
-69.873696666666831
 21
63.233206666666575
  0
LINE
  8
_1-8_小物
  6
CONTINUOUS
 62
    4
 10
-69.560466666667139
 20
63.119199999999779
 11
-69.229681666666977
 21
65.387073333333461
  0
ARC
  8
_1-8_小物
  6
CONTINUOUS
 62
    4
 10
-69.361618333333638
 20
65.406318333333303
 40
0.1333333333333333
 50
351.70153399996303
 51
81.869898000046192
  0
LINE
  8
_1-8_小物
  6
CONTINUOUS
 62
    4
 10
-69.342763333333721
 20
65.538311666666601
 11
-69.408370000000389
 21
65.547683333333367
  0
ARC
  8
_1-8_小物
  6
CONTINUOUS
 62
    4
 10
-69.427226666666684
 20
65.415689999999955
 40
0.1333333333333333
 50
81.869898000046192
 51
171.86989799999611
  0
LINE
  8
_1-8_小物
  6
CONTINUOUS
 62
    4
 10
-69.55922000000038
 20
65.434546666666535
 11
-69.873696666666831
 21
63.233206666666575
  0
LINE
  8
_1-8_小物
  6
CONTINUOUS
 62
    4
 10
-70
 20
68.166666666666657
 11
-70.333333333333655
 21
66.500000000000028
  0
LINE
  8
_1-8_小物
  6
CONTINUOUS
 62
    4
 10
-70.333333333333655
 20
68.166666666666657
 11
-70.333333333333655
 21
65.499999999999801
  0
LINE
  8
_1-8_小物
  6
CONTINUOUS
 62
    4
 10
-71.5
 20
65.499999999999801
 11
-71.666666666666686
 21
65.499999999999801
  0
LINE
  8
_1-8_小物
  6
CONTINUOUS
 62
    4
 10
-71.666666666666686
 20
66.500000000000028
 11
-71.666666666666686
 21
68.166666666666657
  0
LINE
  8
_1-8_小物
  6
CONTINUOUS
 62
    4
 10
-71.333333333333655
 20
68.166666666666657
 11
-71.666666666666686
 21
66.500000000000028
  0
LINE
  8
_1-8_小物
  6
CONTINUOUS
 62
    4
 10
-72.000000000000284
 20
68.166666666666657
 11
-71.666666666666686
 21
66.500000000000028
  0
LINE
  8
_1-8_小物
  6
CONTINUOUS
 62
    4
 10
-73.333333333333314
 20
68.166666666666657
 11
-73
 21
66.500000000000028
  0
LINE
  8
_1-8_小物
  6
CONTINUOUS
 62
    4
 10
-73
 20
68.166666666666657
 11
-73
 21
65.499999999999801
  0
LINE
  8
_1-8_小物
  6
CONTINUOUS
 62
    4
 10
-71.833333333333655
 20
65.499999999999801
 11
-71.666666666666686
 21
65.499999999999801
  0
LINE
  8
_1-8_小物
  6
CONTINUOUS
 62
    4
 10
-70
 20
68.166666666666657
 11
-73.333333333333314
 21
68.166666666666657
  0
ENDBLK
  0
BLOCK
  2
-003-_3_
 70
   64
 10
0
 20
0
 30
0
  0
LINE
  8
_1-8_小物
  6
CONTINUOUS
 62
    4
 10
130.13609166666657
 20
56.573391666666595
 11
130.17098166666614
 21
55.907638333333267
  0
LINE
  8
_1-8_小物
  6
CONTINUOUS
 62
    4
 10
130.0837549999996
 20
57.572021666666529
 11
129.435448333333
 21
57.204254999999904
  0
LINE
  8
_1-8_小物
  6
CONTINUOUS
 62
    4
 10
129.435448333333
 20
57.204254999999904
 11
129.47033833333319
 21
56.538501666666576
  0
LINE
  8
_1-8_小物
  6
CONTINUOUS
 62
    4
 10
129.47033833333319
 20
56.538501666666576
 11
130.13609166666657
 21
56.573391666666595
  0
LINE
  8
_1-8_小物
  6
CONTINUOUS
 62
    4
 10
130.04886499999969
 20
58.237774999999971
 11
130.0837549999996
 21
57.572021666666529
  0
LINE
  8
_1-8_小物
  6
CONTINUOUS
 62
    4
 10
129.99652833333306
 20
59.236403333333357
 11
129.34822166666612
 21
58.86863666666639
  0
LINE
  8
_1-8_小物
  6
CONTINUOUS
 62
    4
 10
129.34822166666612
 20
58.86863666666639
 11
129.38311166666637
 21
58.20288333333329
  0
LINE
  8
_1-8_小物
  6
CONTINUOUS
 62
    4
 10
129.38311166666637
 20
58.20288333333329
 11
130.04886499999969
 21
58.237774999999971
  0
LINE
  8
_1-8_小物
  6
CONTINUOUS
 62
    4
 10
129.96163833333287
 20
59.902156666666684
 11
129.99652833333306
 21
59.236403333333357
  0
LINE
  8
_1-8_小物
  6
CONTINUOUS
 62
    4
 10
129.90930166666652
 20
60.900786666666392
 11
129.26099499999992
 21
60.533019999999993
  0
LINE
  8
_1-8_小物
  6
CONTINUOUS
 62
    4
 10
129.26099499999992
 20
60.533019999999993
 11
129.29588499999949
 21
59.867266666666666
  0
LINE
  8
_1-8_小物
  6
CONTINUOUS
 62
    4
 10
129.29588499999949
 20
59.867266666666666
 11
129.96163833333287
 21
59.902156666666684
  0
LINE
  8
_1-8_小物
  6
CONTINUOUS
 62
    4
 10
129.87441166666633
 20
61.566539999999947
 11
129.90930166666652
 21
60.900786666666392
  0
LINE
  8
_1-8_小物
  6
CONTINUOUS
 62
    4
 10
129.8220749999997
 20
62.565169999999995
 11
129.17376833333304
 21
62.197401666666593
  0
LINE
  8
_1-8_小物
  6
CONTINUOUS
 62
    4
 10
129.17376833333304
 20
62.197401666666593
 11
129.20865833333295
 21
61.531648333333266
  0
LINE
  8
_1-8_小物
  6
CONTINUOUS
 62
    4
 10
129.20865833333295
 20
61.531648333333266
 11
129.87441166666633
 21
61.566539999999947
  0
LINE
  8
_1-8_小物
  6
CONTINUOUS
 62
    4
 10
129.78718499999979
 20
63.230921666666546
 11
129.8220749999997
 21
62.565169999999995
  0
LINE
  8
_1-8_小物
  6
CONTINUOUS
 62
    4
 10
129.08654166666622
 20
63.861784999999855
 11
129.12143166666641
 21
63.196031666666528
  0
LINE
  8
_1-8_小物
  6
CONTINUOUS
 62
    4
 10
129.12143166666641
 20
63.196031666666528
 11
129.78718499999979
 21
63.230921666666546
  0
LINE
  8
_1-8_小物
  6
CONTINUOUS
 62
    4
 10
129.66666666666634
 20
64.166666666666657
 11
129.08654166666622
 21
63.861784999999855
  0
LINE
  8
_1-8_小物
  6
CONTINUOUS
 62
    4
 10
126.53057499999971
 20
56.573391666666595
 11
126.49568499999981
 21
55.907638333333267
  0
LINE
  8
_1-8_小物
  6
CONTINUOUS
 62
    4
 10
126.58291166666635
 20
57.572021666666529
 11
127.231218333333
 21
57.204254999999904
  0
LINE
  8
_1-8_小物
  6
CONTINUOUS
 62
    4
 10
127.231218333333
 20
57.204254999999904
 11
127.19632833333281
 21
56.538501666666576
  0
LINE
  8
_1-8_小物
  6
CONTINUOUS
 62
    4
 10
127.19632833333281
 20
56.538501666666576
 11
126.53057499999971
 21
56.573391666666595
  0
LINE
  8
_1-8_小物
  6
CONTINUOUS
 62
    4
 10
126.61780166666659
 20
58.237774999999971
 11
126.58291166666635
 21
57.572021666666529
  0
LINE
  8
_1-8_小物
  6
CONTINUOUS
 62
    4
 10
126.67013833333289
 20
59.236403333333357
 11
127.31844499999954
 21
58.86863666666639
  0
LINE
  8
_1-8_小物
  6
CONTINUOUS
 62
    4
 10
127.31844499999954
 20
58.86863666666639
 11
127.28355499999992
 21
58.20288333333329
  0
LINE
  8
_1-8_小物
  6
CONTINUOUS
 62
    4
 10
127.28355499999992
 20
58.20288333333329
 11
126.61780166666659
 21
58.237774999999971
  0
LINE
  8
_1-8_小物
  6
CONTINUOUS
 62
    4
 10
126.70502833333279
 20
59.902156666666684
 11
126.67013833333289
 21
59.236403333333357
  0
LINE
  8
_1-8_小物
  6
CONTINUOUS
 62
    4
 10
126.75736499999942
 20
60.900786666666392
 11
127.40567166666636
 21
60.533019999999993
  0
LINE
  8
_1-8_小物
  6
CONTINUOUS
 62
    4
 10
127.40567166666636
 20
60.533019999999993
 11
127.37078166666646
 21
59.867266666666666
  0
LINE
  8
_1-8_小物
  6
CONTINUOUS
 62
    4
 10
127.37078166666646
 20
59.867266666666666
 11
126.70502833333279
 21
59.902156666666684
  0
LINE
  8
_1-8_小物
  6
CONTINUOUS
 62
    4
 10
126.79225499999967
 20
61.566539999999947
 11
126.75736499999942
 21
60.900786666666392
  0
LINE
  8
_1-8_小物
  6
CONTINUOUS
 62
    4
 10
126.84459166666659
 20
62.565169999999995
 11
127.49289833333324
 21
62.197401666666593
  0
LINE
  8
_1-8_小物
  6
CONTINUOUS
 62
    4
 10
127.49289833333324
 20
62.197401666666593
 11
127.458008333333
 21
61.531648333333266
  0
LINE
  8
_1-8_小物
  6
CONTINUOUS
 62
    4
 10
127.458008333333
 20
61.531648333333266
 11
126.79225499999967
 21
61.566539999999947
  0
LINE
  8
_1-8_小物
  6
CONTINUOUS
 62
    4
 10
126.87948166666621
 20
63.230921666666546
 11
126.84459166666659
 21
62.565169999999995
  0
LINE
  8
_1-8_小物
  6
CONTINUOUS
 62
    4
 10
127.58012499999978
 20
63.861784999999855
 11
127.54523499999954
 21
63.196031666666528
  0
LINE
  8
_1-8_小物
  6
CONTINUOUS
 62
    4
 10
127.54523499999954
 20
63.196031666666528
 11
126.87948166666621
 21
63.230921666666546
  0
LINE
  8
_1-8_小物
  6
CONTINUOUS
 62
    4
 10
128.31356499999976
 20
56.186434999999875
 11
128.95813166666625
 21
56.758324999999928
  0
LINE
  8
_1-8_小物
  6
CONTINUOUS
 62
    4
 10
127.71018499999957
 20
56.789813333333342
 11
128.33333333333331
 21
56.166666666666544
  0
LINE
  8
_1-8_小物
  6
CONTINUOUS
 62
    4
 10
126.99999999999994
 20
64.166666666666657
 11
127.58012499999978
 21
63.861784999999855
  0
LINE
  8
_1-8_小物
  6
CONTINUOUS
 62
    4
 10
129.87441166666633
 20
61.566539999999947
 11
130.43953333333286
 21
63.119199999999779
  0
LINE
  8
_1-8_小物
  6
CONTINUOUS
 62
    4
 10
129.51968499999987
 20
61.566539999999947
 11
130.12630333333311
 21
63.233206666666575
  0
LINE
  8
_1-8_小物
  6
CONTINUOUS
 62
    4
 10
126.79225499999967
 20
61.566539999999947
 11
126.22713333333314
 21
63.119199999999779
  0
LINE
  8
_1-8_小物
  6
CONTINUOUS
 62
    4
 10
127.14698166666614
 20
61.566539999999947
 11
126.54036333333289
 21
63.233206666666575
  0
LINE
  8
_1-8_小物
  6
CONTINUOUS
 62
    4
 10
129.00591499999967
 20
55.846579999999818
 11
130.17098166666614
 21
55.907638333333267
  0
LINE
  8
_1-8_小物
  6
CONTINUOUS
 62
    4
 10
130.17098166666614
 20
55.907638333333267
 11
129.5401199999996
 21
55.206995000000035
  0
LINE
  8
_1-8_小物
  6
CONTINUOUS
 62
    4
 10
129.5401199999996
 20
55.206995000000035
 11
129.04080499999992
 21
55.180826666666491
  0
LINE
  8
_1-8_小物
  6
CONTINUOUS
 62
    4
 10
129.04080499999992
 20
55.180826666666491
 11
128.49999999999994
 21
65.499999999999801
  0
LINE
  8
_1-8_小物
  6
CONTINUOUS
 62
    4
 10
129.66666666666634
 20
64.166666666666657
 11
129.66666666666634
 21
65.499999999999801
  0
LINE
  8
_1-8_小物
  6
CONTINUOUS
 62
    4
 10
127.66075166666627
 20
55.846579999999818
 11
126.49568499999981
 21
55.907638333333267
  0
LINE
  8
_1-8_小物
  6
CONTINUOUS
 62
    4
 10
126.49568499999981
 20
55.907638333333267
 11
127.12654666666634
 21
55.206995000000035
  0
LINE
  8
_1-8_小物
  6
CONTINUOUS
 62
    4
 10
127.12654666666634
 20
55.206995000000035
 11
127.62586166666637
 21
55.180826666666491
  0
LINE
  8
_1-8_小物
  6
CONTINUOUS
 62
    4
 10
127.62586166666637
 20
55.180826666666491
 11
128.16666666666634
 21
65.499999999999801
  0
LINE
  8
_1-8_小物
  6
CONTINUOUS
 62
    4
 10
126.99999999999994
 20
64.166666666666657
 11
126.99999999999994
 21
65.499999999999801
  0
LINE
  8
_1-8_小物
  6
CONTINUOUS
 62
    4
 10
126.22713333333314
 20
63.119199999999779
 11
125.89634833333304
 21
65.387073333333461
  0
ARC
  8
_1-8_小物
  6
CONTINUOUS
 62
    4
 10
126.0282849999997
 20
65.406318333333303
 40
0.1333333333333333
 50
98.130101999965902
 51
188.29846600002489
  0
LINE
  8
_1-8_小物
  6
CONTINUOUS
 62
    4
 10
126.00942833333278
 20
65.538311666666601
 11
126.07503666666645
 21
65.547683333333367
  0
ARC
  8
_1-8_小物
  6
CONTINUOUS
 62
    4
 10
126.09389333333331
 20
65.415689999999955
 40
0.1333333333333333
 50
8.130102000040166
 51
98.130102000238807
  0
LINE
  8
_1-8_小物
  6
CONTINUOUS
 62
    4
 10
126.22588666666644
 20
65.434546666666535
 11
126.54036333333289
 21
63.233206666666575
  0
LINE
  8
_1-8_小物
  6
CONTINUOUS
 62
    4
 10
130.43953333333286
 20
63.119199999999779
 11
130.77031833333297
 21
65.387073333333461
  0
ARC
  8
_1-8_小物
  6
CONTINUOUS
 62
    4
 10
130.63838166666631
 20
65.406318333333303
 40
0.1333333333333333
 50
351.70153399996303
 51
81.869898000058242
  0
LINE
  8
_1-8_小物
  6
CONTINUOUS
 62
    4
 10
130.65723666666628
 20
65.538311666666601
 11
130.59162999999955
 21
65.547683333333367
  0
ARC
  8
_1-8_小物
  6
CONTINUOUS
 62
    4
 10
130.57277333333326
 20
65.415689999999955
 40
0.1333333333333333
 50
81.869898000034112
 51
171.86989799999611
  0
LINE
  8
_1-8_小物
  6
CONTINUOUS
 62
    4
 10
130.44077999999956
 20
65.434546666666535
 11
130.12630333333311
 21
63.233206666666575
  0
LINE
  8
_1-8_小物
  6
CONTINUOUS
 62
    4
 10
130.43953333333286
 20
63.119199999999779
 11
130.77031833333297
 21
65.387073333333461
  0
ARC
  8
_1-8_小物
  6
CONTINUOUS
 62
    4
 10
130.63838166666631
 20
65.406318333333303
 40
0.1333333333333333
 50
351.70153399996303
 51
81.869898000058242
  0
LINE
  8
_1-8_小物
  6
CONTINUOUS
 62
    4
 10
130.65723666666628
 20
65.538311666666601
 11
130.59162999999955
 21
65.547683333333367
  0
ARC
  8
_1-8_小物
  6
CONTINUOUS
 62
    4
 10
130.57277333333326
 20
65.415689999999955
 40
0.1333333333333333
 50
81.869898000034112
 51
171.86989799999611
  0
LINE
  8
_1-8_小物
  6
CONTINUOUS
 62
    4
 10
130.44077999999956
 20
65.434546666666535
 11
130.12630333333311
 21
63.233206666666575
  0
LINE
  8
_1-8_小物
  6
CONTINUOUS
 62
    4
 10
129.99999999999994
 20
68.166666666666657
 11
129.66666666666634
 21
66.500000000000028
  0
LINE
  8
_1-8_小物
  6
CONTINUOUS
 62
    4
 10
129.66666666666634
 20
68.166666666666657
 11
129.66666666666634
 21
65.499999999999801
  0
LINE
  8
_1-8_小物
  6
CONTINUOUS
 62
    4
 10
128.49999999999994
 20
65.499999999999801
 11
128.33333333333331
 21
65.499999999999801
  0
LINE
  8
_1-8_小物
  6
CONTINUOUS
 62
    4
 10
128.33333333333331
 20
66.500000000000028
 11
128.33333333333331
 21
68.166666666666657
  0
LINE
  8
_1-8_小物
  6
CONTINUOUS
 62
    4
 10
128.66666666666634
 20
68.166666666666657
 11
128.33333333333331
 21
66.500000000000028
  0
LINE
  8
_1-8_小物
  6
CONTINUOUS
 62
    4
 10
127.99999999999966
 20
68.166666666666657
 11
128.33333333333331
 21
66.500000000000028
  0
LINE
  8
_1-8_小物
  6
CONTINUOUS
 62
    4
 10
126.66666666666663
 20
68.166666666666657
 11
126.99999999999994
 21
66.500000000000028
  0
LINE
  8
_1-8_小物
  6
CONTINUOUS
 62
    4
 10
126.99999999999994
 20
68.166666666666657
 11
126.99999999999994
 21
65.499999999999801
  0
LINE
  8
_1-8_小物
  6
CONTINUOUS
 62
    4
 10
128.16666666666634
 20
65.499999999999801
 11
128.33333333333331
 21
65.499999999999801
  0
LINE
  8
_1-8_小物
  6
CONTINUOUS
 62
    4
 10
129.99999999999994
 20
68.166666666666657
 11
126.66666666666663
 21
68.166666666666657
  0
ENDBLK
  0
BLOCK
  2
-004-_4_
 70
   64
 10
0
 20
0
 30
0
  0
LINE
  8
_1-8_小物
  6
CONTINUOUS
 62
    4
 10
-61.7874838602647
 20
-19
 11
-59.7874838602647
 21
-19
  0
LINE
  8
_1-8_小物
  6
CONTINUOUS
 62
    4
 10
-62.120817193598043
 20
-19.707106781186582
 11
-62.120817193598043
 21
-18.292893218813447
  0
LINE
  8
_1-8_小物
  6
CONTINUOUS
 62
    4
 10
-62.120817193598043
 20
-18.292893218813447
 11
-59.454150526931357
 21
-18.292893218813447
  0
LINE
  8
_1-8_小物
  6
CONTINUOUS
 62
    4
 10
-59.454150526931357
 20
-19.707106781186582
 11
-59.454150526931357
 21
-18.292893218813447
  0
LINE
  8
_1-8_小物
  6
CONTINUOUS
 62
    4
 10
-62.120817193598043
 20
-19.707106781186582
 11
-59.454150526931357
 21
-19.707106781186582
  0
ENDBLK
  0
BLOCK
  2
-005-_5_
 70
   64
 10
0
 20
0
 30
0
  0
LINE
  8
_1-8_小物
  6
CONTINUOUS
 62
    4
 10
-118.45415052693136
 20
-19
 11
-120.45415052693136
 21
-19
  0
LINE
  8
_1-8_小物
  6
CONTINUOUS
 62
    4
 10
-118.12081719359803
 20
-19.707106781186582
 11
-118.12081719359803
 21
-18.292893218813447
  0
LINE
  8
_1-8_小物
  6
CONTINUOUS
 62
    4
 10
-118.12081719359803
 20
-18.292893218813447
 11
-120.7874838602647
 21
-18.292893218813447
  0
LINE
  8
_1-8_小物
  6
CONTINUOUS
 62
    4
 10
-120.7874838602647
 20
-19.707106781186582
 11
-120.7874838602647
 21
-18.292893218813447
  0
LINE
  8
_1-8_小物
  6
CONTINUOUS
 62
    4
 10
-118.12081719359803
 20
-19.707106781186582
 11
-120.7874838602647
 21
-19.707106781186582
  0
ENDBLK
  0
BLOCK
  2
-006-_6_
 70
   64
 10
0
 20
0
 30
0
  0
LINE
  8
_1-8_小物
  6
CONTINUOUS
 62
    4
 10
138.21251613973527
 20
-19
 11
140.21251613973527
 21
-19
  0
LINE
  8
_1-8_小物
  6
CONTINUOUS
 62
    4
 10
137.8791828064019
 20
-19.707106781186582
 11
137.8791828064019
 21
-18.292893218813447
  0
LINE
  8
_1-8_小物
  6
CONTINUOUS
 62
    4
 10
137.8791828064019
 20
-18.292893218813447
 11
140.54584947306859
 21
-18.292893218813447
  0
LINE
  8
_1-8_小物
  6
CONTINUOUS
 62
    4
 10
140.54584947306859
 20
-19.707106781186582
 11
140.54584947306859
 21
-18.292893218813447
  0
LINE
  8
_1-8_小物
  6
CONTINUOUS
 62
    4
 10
137.8791828064019
 20
-19.707106781186582
 11
140.54584947306859
 21
-19.707106781186582
  0
ENDBLK
  0
BLOCK
  2
-007-_7_
 70
   64
 10
0
 20
0
 30
0
  0
LINE
  8
_1-8_小物
  6
CONTINUOUS
 62
    4
 10
81.545849473068643
 20
-19
 11
79.545849473068643
 21
-19
  0
LINE
  8
_1-8_小物
  6
CONTINUOUS
 62
    4
 10
81.879182806401957
 20
-19.707106781186582
 11
81.879182806401957
 21
-18.292893218813447
  0
LINE
  8
_1-8_小物
  6
CONTINUOUS
 62
    4
 10
81.879182806401957
 20
-18.292893218813447
 11
79.212516139735271
 21
-18.292893218813447
  0
LINE
  8
_1-8_小物
  6
CONTINUOUS
 62
    4
 10
79.212516139735271
 20
-19.707106781186582
 11
79.212516139735271
 21
-18.292893218813447
  0
LINE
  8
_1-8_小物
  6
CONTINUOUS
 62
    4
 10
81.879182806401957
 20
-19.707106781186582
 11
79.212516139735271
 21
-19.707106781186582
  0
ENDBLK
  0
BLOCK
  2
-008-_8_
 70
   64
 10
0
 20
0
 30
0
  0
LINE
  8
_1-8_小物
  6
CONTINUOUS
 62
    4
 10
-68.666666666666345
 20
69.166666666666657
 11
-74.666666666666657
 21
69.166666666666657
  0
LINE
  8
_1-8_小物
  6
CONTINUOUS
 62
    4
 10
-68.666666666666345
 20
68.666666666666657
 11
-74.666666666666657
 21
68.666666666666657
  0
LINE
  8
_1-8_小物
  6
CONTINUOUS
 62
    4
 10
-68.666666666666345
 20
69.166666666666657
 11
-68.666666666666345
 21
68.666666666666657
  0
LINE
  8
_1-8_小物
  6
CONTINUOUS
 62
    4
 10
-74.666666666666657
 20
69.166666666666657
 11
-74.666666666666657
 21
68.666666666666657
  0
LINE
  8
_1-8_小物
  6
CONTINUOUS
 62
    4
 10
-70.749999999999716
 20
69.166666666666657
 11
-70.749999999999716
 21
68.666666666666657
  0
LINE
  8
_1-8_小物
  6
CONTINUOUS
 62
    4
 10
-72.583333333333314
 20
69.166666666666657
 11
-72.583333333333314
 21
68.666666666666657
  0
LINE
  8
_1-8_小物
  6
CONTINUOUS
 62
    4
 10
-70.166666666666401
 20
69.166666666666657
 11
-70.202970927933166
 21
69.581626271666693
  0
LINE
  8
_1-8_小物
  6
CONTINUOUS
 62
    4
 10
-73.130362405433232
 20
69.581626271666693
 11
-73.166666666666345
 21
69.166666666666657
  0
ARC
  8
_1-8_小物
  6
CONTINUOUS
 62
    4
 10
-72.801618155033509
 20
69.552864876566588
 40
0.3299999999999999
 50
127.36755803205445
 51
175.00000000119914
  0
ARC
  8
_1-8_小物
  6
CONTINUOUS
 62
    4
 10
-70.531715178299862
 20
69.552864876566588
 40
0.3299999999999999
 50
4.999999998801286
 51
52.63244196794556
  0
ARC
  8
_1-8_小物
  6
CONTINUOUS
 62
    4
 10
-71.666666666666686
 20
68.066666666666634
 40
2.1999999999999997
 50
52.632441967704935
 51
68.266383543398163
  0
ARC
  8
_1-8_小物
  6
CONTINUOUS
 62
    4
 10
-71.666666666666686
 20
68.066666666666634
 40
2.1999999999999997
 50
111.74840859090331
 51
127.36755803230515
  0
LINE
  8
_1-8_小物
  6
CONTINUOUS
 62
    4
 10
-71.561666666666497
 20
70.253042376533386
 11
-71.561666666666497
 21
70.107770746533248
  0
LINE
  8
_1-8_小物
  6
CONTINUOUS
 62
    4
 10
-71.445903772699523
 20
70.253042376533386
 11
-71.561666666666497
 21
70.253042376533386
  0
LINE
  8
_1-8_小物
  6
CONTINUOUS
 62
    4
 10
-70.852498910499889
 20
70.107770746533248
 11
-71.445903772699523
 21
70.253042376533386
  0
LINE
  8
_1-8_小物
  6
CONTINUOUS
 62
    4
 10
-71.887429560666533
 20
70.253042376533386
 11
-72.320732983233313
 21
70.164563769400075
  0
LINE
  8
_1-8_小物
  6
CONTINUOUS
 62
    4
 10
-72.320732983233313
 20
70.164563769400075
 11
-72.480834422866167
 21
70.107770746533248
  0
LINE
  8
_1-8_小物
  6
CONTINUOUS
 62
    4
 10
-71.771666666666533
 20
70.253042376533386
 11
-71.887429560666533
 21
70.253042376533386
  0
LINE
  8
_1-8_小物
  6
CONTINUOUS
 62
    4
 10
-71.771666666666533
 20
70.107770746533248
 11
-71.771666666666533
 21
70.253042376533386
  0
LINE
  8
_1-8_小物
  6
CONTINUOUS
 62
    4
 10
-71.561666666666497
 20
70.107770746533248
 11
-71.666666666666686
 21
70.109472471333362
  0
LINE
  8
_1-8_小物
  6
CONTINUOUS
 62
    4
 10
-71.666666666666686
 20
70.109472471333362
 11
-71.771666666666533
 21
70.107770746533248
  0
LINE
  8
_1-8_小物
  6
CONTINUOUS
 62
    4
 10
-70.202970927933166
 20
69.581626271666693
 11
-73.130362405433232
 21
69.581626271666693
  0
LINE
  8
_1-8_小物
  6
CONTINUOUS
 62
    4
 10
-71.666666666666686
 20
69.815135148900055
 11
-73.001903711833336
 21
69.815135148900055
  0
LINE
  8
_1-8_小物
  6
CONTINUOUS
 62
    4
 10
-70.331429621533061
 20
69.815135148900055
 11
-71.666666666666686
 21
69.815135148900055
  0
ENDBLK
  0
BLOCK
  2
-009-_9_
 70
   64
 10
0
 20
0
 30
0
  0
LINE
  8
_1-4_フレ__ム
  6
CONTINUOUS
 62
    4
 10
-66.666666746133643
 20
68.166666685666655
 11
-65.66666676513367
 21
69.166666666666572
  0
LINE
  8
_1-4_フレ__ム
  6
CONTINUOUS
 62
    4
 10
-65.66666676513367
 20
69.166666666666572
 11
-66.373773546320194
 21
69.166666666666572
  0
LINE
  8
_1-4_フレ__ム
  6
CONTINUOUS
 62
    4
 10
-71.666666666666856
 20
68.56666666666672
 11
-71.766666666666566
 21
68.666666666666629
  0
LINE
  8
_1-4_フレ__ム
  6
CONTINUOUS
 62
    4
 10
-71.566666666666748
 20
68.666666666666629
 11
-71.666666666666856
 21
68.56666666666672
  0
LINE
  8
_1-4_フレ__ム
  6
CONTINUOUS
 62
    4
 10
-71.766666666666566
 20
68.666666666666629
 11
-86.166666666666799
 21
68.666666666666629
  0
LINE
  8
_1-4_フレ__ム
  6
CONTINUOUS
 62
    4
 10
-86.666666666666856
 20
68.166666666666629
 11
-66.666666666666856
 21
68.166666666666629
  0
ARC
  8
_1-4_フレ__ム
  6
CONTINUOUS
 62
    4
 10
-86.399999999999807
 20
70.06666666666672
 40
0.2666666666666667
 50
90
 51
180
  0
LINE
  8
_1-4_フレ__ム
  6
CONTINUOUS
 62
    4
 10
-84.599999999999937
 20
70.333333333333286
 11
-86.399999999999807
 21
70.333333333333286
  0
ARC
  8
_1-4_フレ__ム
  6
CONTINUOUS
 62
    4
 10
-84.599999999999937
 20
70.06666666666672
 40
0.2666666666666667
 50
0
 51
90
  0
LINE
  8
_1-4_フレ__ム
  6
CONTINUOUS
 62
    4
 10
-84.333333333333513
 20
69.833333333333286
 11
-84.333333333333513
 21
70.06666666666672
  0
LINE
  8
_1-4_フレ__ム
  6
CONTINUOUS
 62
    4
 10
-85.900000000000119
 20
69.833333333333286
 11
-84.333333333333513
 21
69.833333333333286
  0
ARC
  8
_1-4_フレ__ム
  6
CONTINUOUS
 62
    4
 10
-85.900000000000119
 20
69.566666666666748
 40
0.2666666666666667
 50
90
 51
180
  0
LINE
  8
_1-4_フレ__ム
  6
CONTINUOUS
 62
    4
 10
-86.166666666666771
 20
68.666666666666629
 11
-86.166666666666771
 21
69.566666666666748
  0
LINE
  8
_1-4_フレ__ム
  6
CONTINUOUS
 62
    4
 10
-86.666666666666856
 20
70.06666666666672
 11
-86.666666666666856
 21
68.166666666666629
  0
LINE
  8
_1-4_フレ__ム
  6
CONTINUOUS
 62
    4
 10
-66.873773546320194
 20
68.666666666666629
 11
-66.373773546320194
 21
69.166666666666572
  0
LINE
  8
_1-4_フレ__ム
  6
CONTINUOUS
 62
    4
 10
-66.873773546320194
 20
68.666666666666629
 11
-71.566666666666748
 21
68.666666666666629
  0
LINE
  8
_1-4_フレ__ム
  6
CENTER2
 62
    4
 10
-71.666666666666686
 20
70.333333333333286
 11
-71.666666666666686
 21
66.499999999999943
  0
LINE
  8
_1-4_フレ__ム
  6
DASHED1
 62
    4
 10
-69.166666666666856
 20
68.666666666666629
 11
-69.166666666666856
 21
68.166666666666515
  0
LINE
  8
_1-4_フレ__ム
  6
DASHED1
 62
    4
 10
-74.166666666666856
 20
68.666666666666629
 11
-74.166666666666856
 21
68.166666666666515
  0
ENDBLK
  0
BLOCK
  2
-010-_10_
 70
   64
 10
0
 20
0
 30
0
  0
LINE
  8
_1-4_フレ__ム
  6
CONTINUOUS
 62
    4
 10
133.33333325386639
 20
68.166666685666655
 11
134.33333323486636
 21
69.166666666666572
  0
LINE
  8
_1-4_フレ__ム
  6
CONTINUOUS
 62
    4
 10
134.33333323486636
 20
69.166666666666572
 11
133.62622645367981
 21
69.166666666666572
  0
LINE
  8
_1-4_フレ__ム
  6
CONTINUOUS
 62
    4
 10
128.33333333333314
 20
68.56666666666672
 11
128.23333333333346
 21
68.666666666666629
  0
LINE
  8
_1-4_フレ__ム
  6
CONTINUOUS
 62
    4
 10
128.43333333333328
 20
68.666666666666629
 11
128.33333333333314
 21
68.56666666666672
  0
LINE
  8
_1-4_フレ__ム
  6
CONTINUOUS
 62
    4
 10
128.23333333333346
 20
68.666666666666629
 11
113.8333333333332
 21
68.666666666666629
  0
LINE
  8
_1-4_フレ__ム
  6
CONTINUOUS
 62
    4
 10
113.33333333333314
 20
68.166666666666629
 11
133.33333333333314
 21
68.166666666666629
  0
ARC
  8
_1-4_フレ__ム
  6
CONTINUOUS
 62
    4
 10
113.60000000000019
 20
70.06666666666672
 40
0.2666666666666667
 50
90
 51
180
  0
LINE
  8
_1-4_フレ__ム
  6
CONTINUOUS
 62
    4
 10
115.40000000000009
 20
70.333333333333286
 11
113.60000000000019
 21
70.333333333333286
  0
ARC
  8
_1-4_フレ__ム
  6
CONTINUOUS
 62
    4
 10
115.40000000000009
 20
70.06666666666672
 40
0.2666666666666667
 50
0
 51
90
  0
LINE
  8
_1-4_フレ__ム
  6
CONTINUOUS
 62
    4
 10
115.66666666666652
 20
69.833333333333286
 11
115.66666666666652
 21
70.06666666666672
  0
LINE
  8
_1-4_フレ__ム
  6
CONTINUOUS
 62
    4
 10
114.09999999999991
 20
69.833333333333286
 11
115.66666666666652
 21
69.833333333333286
  0
ARC
  8
_1-4_フレ__ム
  6
CONTINUOUS
 62
    4
 10
114.09999999999991
 20
69.566666666666748
 40
0.2666666666666667
 50
90
 51
180
  0
LINE
  8
_1-4_フレ__ム
  6
CONTINUOUS
 62
    4
 10
113.83333333333326
 20
68.666666666666629
 11
113.83333333333326
 21
69.566666666666748
  0
LINE
  8
_1-4_フレ__ム
  6
CONTINUOUS
 62
    4
 10
113.33333333333314
 20
70.06666666666672
 11
113.33333333333314
 21
68.166666666666629
  0
LINE
  8
_1-4_フレ__ム
  6
CONTINUOUS
 62
    4
 10
133.12622645367981
 20
68.666666666666629
 11
133.62622645367981
 21
69.166666666666572
  0
LINE
  8
_1-4_フレ__ム
  6
CONTINUOUS
 62
    4
 10
133.12622645367981
 20
68.666666666666629
 11
128.43333333333328
 21
68.666666666666629
  0
LINE
  8
_1-4_フレ__ム
  6
CENTER2
 62
    4
 10
128.33333333333331
 20
70.333333333333286
 11
128.33333333333331
 21
66.499999999999943
  0
LINE
  8
_1-4_フレ__ム
  6
DASHED1
 62
    4
 10
130.83333333333314
 20
68.666666666666629
 11
130.83333333333314
 21
68.166666666666515
  0
LINE
  8
_1-4_フレ__ム
  6
DASHED1
 62
    4
 10
125.83333333333314
 20
68.666666666666629
 11
125.83333333333314
 21
68.166666666666515
  0
ENDBLK
  0
BLOCK
  2
-011-_11_
 70
   64
 10
0
 20
0
 30
0
  0
LINE
  8
_1-8_小物
  6
CONTINUOUS
 62
    4
 10
131.3333333333336
 20
69.166666666666657
 11
125.33333333333331
 21
69.166666666666657
  0
LINE
  8
_1-8_小物
  6
CONTINUOUS
 62
    4
 10
131.3333333333336
 20
68.666666666666657
 11
125.33333333333331
 21
68.666666666666657
  0
LINE
  8
_1-8_小物
  6
CONTINUOUS
 62
    4
 10
131.3333333333336
 20
69.166666666666657
 11
131.3333333333336
 21
68.666666666666657
  0
LINE
  8
_1-8_小物
  6
CONTINUOUS
 62
    4
 10
125.33333333333331
 20
69.166666666666657
 11
125.33333333333331
 21
68.666666666666657
  0
LINE
  8
_1-8_小物
  6
CONTINUOUS
 62
    4
 10
129.25000000000028
 20
69.166666666666657
 11
129.25000000000028
 21
68.666666666666657
  0
LINE
  8
_1-8_小物
  6
CONTINUOUS
 62
    4
 10
127.41666666666663
 20
69.166666666666657
 11
127.41666666666663
 21
68.666666666666657
  0
LINE
  8
_1-8_小物
  6
CONTINUOUS
 62
    4
 10
129.8333333333336
 20
69.166666666666657
 11
129.79702907206678
 21
69.581626271666693
  0
LINE
  8
_1-8_小物
  6
CONTINUOUS
 62
    4
 10
126.86963759456677
 20
69.581626271666693
 11
126.8333333333336
 21
69.166666666666657
  0
ARC
  8
_1-8_小物
  6
CONTINUOUS
 62
    4
 10
127.19838184496649
 20
69.552864876566588
 40
0.3299999999999999
 50
127.36755803205445
 51
175.00000000119914
  0
ARC
  8
_1-8_小物
  6
CONTINUOUS
 62
    4
 10
129.46828482170014
 20
69.552864876566588
 40
0.3299999999999999
 50
4.9999999988008561
 51
52.63244196794556
  0
ARC
  8
_1-8_小物
  6
CONTINUOUS
 62
    4
 10
128.33333333333331
 20
68.066666666666634
 40
2.1999999999999997
 50
52.632441967704345
 51
68.266383543397481
  0
ARC
  8
_1-8_小物
  6
CONTINUOUS
 62
    4
 10
128.33333333333331
 20
68.066666666666634
 40
2.1999999999999997
 50
111.74840859090261
 51
127.36755803230515
  0
LINE
  8
_1-8_小物
  6
CONTINUOUS
 62
    4
 10
128.43833333333345
 20
70.253042376533386
 11
128.43833333333345
 21
70.107770746533248
  0
LINE
  8
_1-8_小物
  6
CONTINUOUS
 62
    4
 10
128.55409622730042
 20
70.253042376533386
 11
128.43833333333345
 21
70.253042376533386
  0
LINE
  8
_1-8_小物
  6
CONTINUOUS
 62
    4
 10
129.14750108950005
 20
70.107770746533248
 11
128.55409622730042
 21
70.253042376533386
  0
LINE
  8
_1-8_小物
  6
CONTINUOUS
 62
    4
 10
128.11257043933341
 20
70.253042376533386
 11
127.67926701676663
 21
70.164563769400075
  0
LINE
  8
_1-8_小物
  6
CONTINUOUS
 62
    4
 10
127.67926701676663
 20
70.164563769400075
 11
127.51916557713378
 21
70.107770746533248
  0
LINE
  8
_1-8_小物
  6
CONTINUOUS
 62
    4
 10
128.22833333333341
 20
70.253042376533386
 11
128.11257043933341
 21
70.253042376533386
  0
LINE
  8
_1-8_小物
  6
CONTINUOUS
 62
    4
 10
128.22833333333341
 20
70.107770746533248
 11
128.22833333333341
 21
70.253042376533386
  0
LINE
  8
_1-8_小物
  6
CONTINUOUS
 62
    4
 10
128.43833333333345
 20
70.107770746533248
 11
128.33333333333331
 21
70.109472471333362
  0
LINE
  8
_1-8_小物
  6
CONTINUOUS
 62
    4
 10
128.33333333333331
 20
70.109472471333362
 11
128.22833333333341
 21
70.107770746533248
  0
LINE
  8
_1-8_小物
  6
CONTINUOUS
 62
    4
 10
129.79702907206678
 20
69.581626271666693
 11
126.86963759456677
 21
69.581626271666693
  0
LINE
  8
_1-8_小物
  6
CONTINUOUS
 62
    4
 10
128.33333333333331
 20
69.815135148900055
 11
126.99809628816666
 21
69.815135148900055
  0
LINE
  8
_1-8_小物
  6
CONTINUOUS
 62
    4
 10
129.66857037846688
 20
69.815135148900055
 11
128.33333333333331
 21
69.815135148900055
  0
ENDBLK
  0
BLOCK
  2
-012-_12_
 70
   64
 10
0
 20
0
 30
0
  0
LINE
  8
ADD_LINE
  6
DOT
 62
    4
 10
-125.83333333333331
 20
69.166666666666771
 11
-125.83333333333331
 21
68.166666666666657
  0
LINE
  8
ADD_LINE
  6
DOT
 62
    4
 10
-130.83333333333331
 20
69.166666666666771
 11
-130.83333333333331
 21
68.166666666666657
  0
LINE
  8
_1-4_フレ__ム
  6
CENTER2
 62
    4
 10
-128.33333333333331
 20
66.5
 11
-128.33333333333331
 21
70.333333333333485
  0
LINE
  8
_1-4_フレ__ム
  6
CONTINUOUS
 62
    4
 10
-128.33333333333331
 20
69.066666666666748
 11
-128.43333333333308
 21
69.166666666666771
  0
LINE
  8
_1-4_フレ__ム
  6
CONTINUOUS
 62
    4
 10
-128.23333333333295
 20
69.166666666666771
 11
-128.33333333333331
 21
69.066666666666748
  0
LINE
  8
_1-4_フレ__ム
  6
CONTINUOUS
 62
    4
 10
-123.66666682559935
 20
69.166666666666771
 11
-128.23333333333295
 21
69.166666666666771
  0
LINE
  8
_1-4_フレ__ム
  6
CONTINUOUS
 62
    4
 10
-123.66666682559935
 20
70.000000000000028
 11
-123.66666682559935
 21
69.166666666666771
  0
LINE
  8
_1-4_フレ__ム
  6
CONTINUOUS
 62
    4
 10
-123.66666682559935
 20
70.000000000000028
 11
-122.66666682559934
 21
70.000000000000028
  0
LINE
  8
_1-4_フレ__ム
  6
CONTINUOUS
 62
    4
 10
-128.43333333333308
 20
69.166666666666771
 11
-134.33333323486673
 21
69.166666666666771
  0
ARC
  8
_1-4_フレ__ム
  6
CONTINUOUS
 62
    4
 10
-114.43333323486632
 20
68.43333333333365
 40
0.2666666666666667
 50
270
 51
0
  0
ARC
  8
_1-4_フレ__ム
  6
CONTINUOUS
 62
    4
 10
-114.53333323486639
 20
68.333333333333485
 40
0.1666666666666666
 50
180
 51
270
  0
LINE
  8
_1-4_フレ__ム
  6
CONTINUOUS
 62
    4
 10
-114.53333323486639
 20
68.166666666666657
 11
-114.43333323486632
 21
68.166666666666657
  0
ARC
  8
_1-4_フレ__ム
  6
CONTINUOUS
 62
    4
 10
-116.6666665681999
 20
69.166666666666771
 40
0.1666666666666666
 50
270
 51
0
  0
LINE
  8
_1-4_フレ__ム
  6
CONTINUOUS
 62
    4
 10
-114.1666665681999
 20
68.43333333333365
 11
-114.1666665681999
 21
69.433333333333394
  0
ARC
  8
_1-4_フレ__ム
  6
CONTINUOUS
 62
    4
 10
-114.79999990153323
 20
69.433333333333394
 40
0.6333333333333333
 50
0
 51
90
  0
LINE
  8
_1-4_フレ__ム
  6
CONTINUOUS
 62
    4
 10
-122.66666682559934
 20
70.000000000000028
 11
-122.66666682559934
 21
69.000000000000142
  0
LINE
  8
_1-4_フレ__ム
  6
CONTINUOUS
 62
    4
 10
-116.6666665681999
 20
69.000000000000142
 11
-122.66666682559934
 21
69.000000000000142
  0
LINE
  8
_1-4_フレ__ム
  6
CONTINUOUS
 62
    4
 10
-133.33333323486642
 20
68.166666666666657
 11
-134.33333323486673
 21
69.166666666666771
  0
LINE
  8
_1-4_フレ__ム
  6
CONTINUOUS
 62
    4
 10
-133.33333323486642
 20
68.166666666666657
 11
-115.66666674613315
 21
68.166666666666657
  0
LINE
  8
ADD_LINE
  6
DOT
 62
    4
 10
-117.1666665681999
 20
69.000000000000142
 11
-117.1666665681999
 21
68.166666666666657
  0
LINE
  8
_1-4_フレ__ム
  6
CENTER2
 62
    4
 10
-115.18333323486632
 20
68.983333333333491
 11
-115.18333323486632
 21
69.816666666666521
  0
LINE
  8
_1-4_フレ__ム
  6
CENTER2
 62
    4
 10
-115.18333323486632
 20
68.983333333333491
 11
-116.01666656819997
 21
68.983333333333491
  0
LINE
  8
_1-4_フレ__ム
  6
CENTER2
 62
    4
 10
-115.18333323486632
 20
68.983333333333491
 11
-115.18333323486632
 21
68.149999999999892
  0
LINE
  8
_1-4_フレ__ム
  6
CENTER2
 62
    4
 10
-115.18333323486632
 20
68.983333333333491
 11
-114.349999901533
 21
68.983333333333491
  0
ARC
  8
_1-4_フレ__ム
  6
CONTINUOUS
 62
    4
 10
-115.18333323486632
 20
68.983333333333491
 40
0.4833333333332726
 50
0
 51
180
  0
LINE
  8
_1-4_フレ__ム
  6
CONTINUOUS
 62
    4
 10
-115.6666665681999
 20
68.166666666666657
 11
-115.6666665681999
 21
68.983333333333491
  0
LINE
  8
_1-4_フレ__ム
  6
CONTINUOUS
 62
    4
 10
-114.69999990153336
 20
68.983333333333491
 11
-114.69999990153336
 21
68.333333333333485
  0
LINE
  8
_1-4_フレ__ム
  6
CONTINUOUS
 62
    4
 10
-116.49999990153324
 20
69.966666666666725
 11
-116.49999990153324
 21
69.166666666666771
  0
LINE
  8
_1-4_フレ__ム
  6
CONTINUOUS
 62
    4
 10
-114.79999990153323
 20
70.066666666666748
 11
-116.39999990153322
 21
70.066666666666748
  0
ARC
  8
_1-4_フレ__ム
  6
CONTINUOUS
 62
    4
 10
-116.39999990153322
 20
69.966666666666725
 40
0.0999999999999999
 50
90
 51
180
  0
ENDBLK
  0
BLOCK
  2
-013-_13_
 70
   64
 10
0
 20
0
 30
0
  0
LINE
  8
_1-8_小物
  6
CONTINUOUS
 62
    4
 10
-117.2944443492496
 20
69.230313555190946
 11
-117.38148138629433
 21
69.129306961543421
  0
ARC
  8
_1-8_小物
  6
CONTINUOUS
 62
    4
 10
-114.29999990153294
 20
69.933333333333394
 40
0.1333333333333333
 50
0
 51
89.999998490725531
  0
ARC
  8
_1-8_小物
  6
CONTINUOUS
 62
    4
 10
-114.29999990153294
 20
69.933333333333394
 40
0.2666666666666666
 50
0
 51
89.999998490725531
  0
ARC
  8
_1-8_小物
  6
CONTINUOUS
 62
    4
 10
-114.29999990153294
 20
68.300000000000011
 40
0.2666666666666666
 50
270
 51
0
  0
ARC
  8
_1-8_小物
  6
CONTINUOUS
 62
    4
 10
-115.03333323486629
 20
67.79398867043335
 40
0.5
 50
53.031405798550502
 51
131.81031489580724
  0
ARC
  8
_1-8_小物
  6
CONTINUOUS
 62
    4
 10
-114.65246101819962
 20
68.300000000000011
 40
0.1333333333333333
 50
233.03140197499249
 51
269.99999849072555
  0
LINE
  8
_1-8_小物
  6
CONTINUOUS
 62
    4
 10
-114.65609173836633
 20
68.03333333333336
 11
-114.29999990153294
 21
68.03333333333336
  0
ARC
  8
_1-8_小物
  6
CONTINUOUS
 62
    4
 10
-114.29999990153294
 20
68.300000000000011
 40
0.1333333333333333
 50
270
 51
0
  0
ARC
  8
_1-8_小物
  6
CONTINUOUS
 62
    4
 10
-115.03333323486629
 20
67.750333466766733
 40
0.3999999999999999
 50
55.537811429941833
 51
127.63786311680289
  0
LINE
  8
_1-8_小物
  6
CONTINUOUS
 62
    4
 10
-114.65246102169965
 20
68.166666666666686
 11
-114.29999990153294
 21
68.166666666666686
  0
ARC
  8
_1-8_小物
  6
CONTINUOUS
 62
    4
 10
-114.65609173836633
 20
68.300000000000011
 40
0.2666666666666666
 50
235.5378114299065
 51
270
  0
LINE
  8
_1-8_小物
  6
CONTINUOUS
 62
    4
 10
-115.36666656819963
 20
68.166666666666686
 11
-115.27760067656629
 21
68.067087972566696
  0
LINE
  8
_1-8_小物
  6
CONTINUOUS
 62
    4
 10
-114.03333323486629
 20
68.300000000000011
 11
-114.03333323486629
 21
69.933333333333394
  0
LINE
  8
_1-8_小物
  6
CONTINUOUS
 62
    4
 10
-114.16666656819966
 20
68.300000000000011
 11
-114.16666656819966
 21
69.933333333333394
  0
ARC
  8
_1-8_小物
  6
CONTINUOUS
 62
    4
 10
-117.03333323486629
 20
69.53333333333336
 40
0.5333333333333333
 50
180
 51
0.0000086701147097
  0
ARC
  8
_1-8_小物
  6
CONTINUOUS
 62
    4
 10
-117.03333323486629
 20
69.53333333333336
 40
0.3999999999999999
 50
180.00000000009771
 51
0.000001882395793
  0
LINE
  8
_1-8_小物
  6
CONTINUOUS
 62
    4
 10
-117.43333323486631
 20
69.53333333333336
 11
-117.56666656819964
 21
69.53333333333336
  0
LINE
  8
_1-8_小物
  6
CONTINUOUS
 62
    4
 10
-118.49999990153299
 20
69
 11
-118.49999990153299
 21
69.133333333333326
  0
LINE
  8
_1-8_小物
  6
DASHED1
 62
    4
 10
-115.91666656112668
 20
70.200000000000045
 11
-115.91666656112668
 21
70.06666666666672
  0
LINE
  8
_1-8_小物
  6
CONTINUOUS
 62
    4
 10
-117.99999990153299
 20
69.133333333333326
 11
-117.99999990153299
 21
69
  0
LINE
  8
_1-8_小物
  6
CONTINUOUS
 62
    4
 10
-118.49999990153299
 20
69.133333333333326
 11
-117.38610007634153
 21
69.133333333333326
  0
LINE
  8
_1-8_小物
  6
CONTINUOUS
 62
    4
 10
-118.49999990153299
 20
69
 11
-116.6666665681999
 21
69
  0
LINE
  8
_1-8_小物
  6
CONTINUOUS
 62
    4
 10
-116.68056639339106
 20
69.133333333333326
 11
-116.5033672520144
 21
69.133333333333326
  0
ARC
  8
_1-8_小物
  6
CONTINUOUS
 62
    4
 10
-115.60310475988319
 20
68.700000000000045
 40
0.1333333333333333
 50
241.52902134411201
 51
270
  0
LINE
  8
_1-8_小物
  6
CONTINUOUS
 62
    4
 10
-115.6666665681999
 20
68.433333333333394
 11
-114.69999990153336
 21
68.433333333333394
  0
LINE
  8
_1-8_小物
  6
CONTINUOUS
 62
    4
 10
-115.60310475988319
 20
68.566666666666663
 11
-114.69999990153336
 21
68.566666666666663
  0
LINE
  8
_1-8_小物
  6
CONTINUOUS
 62
    4
 10
-114.29999989803298
 20
70.06666666666672
 11
-116.39999990153299
 21
70.06666666666672
  0
LINE
  8
_1-8_小物
  6
CONTINUOUS
 62
    4
 10
-116.49999990153299
 20
69.53333333333336
 11
-116.49999990153299
 21
69.966666666666725
  0
ARC
  8
_1-8_小物
  6
CONTINUOUS
 62
    4
 10
-116.39999990153299
 20
69.966666666666725
 40
0.0999999999999999
 50
90
 51
180
  0
LINE
  8
_1-8_小物
  6
CONTINUOUS
 62
    4
 10
-114.29999989453295
 20
70.200000000000045
 11
-116.39999990153295
 21
70.200000000000045
  0
LINE
  8
_1-8_小物
  6
CONTINUOUS
 62
    4
 10
-116.63333323486629
 20
69.53333333333336
 11
-116.63333323486629
 21
69.966666666666697
  0
ARC
  8
_1-8_小物
  6
CONTINUOUS
 62
    4
 10
-116.39999990153295
 20
69.966666666666697
 40
0.2333333333333333
 50
90
 51
180
  0
ENDBLK
  0
BLOCK
  2
-014-_14_
 70
   64
 10
0
 20
0
 30
0
  0
LINE
  8
_1-5_ア__ム
  6
CONTINUOUS
 62
    4
 10
-131.66666666666669
 20
75.666666648033271
 11
-131.66666666666669
 21
72.000000093133508
  0
ARC
  8
_1-5_ア__ム
  6
CONTINUOUS
 62
    4
 10
-130
 20
72.000000093133508
 40
1.6666666666666665
 50
180
 51
270
  0
LINE
  8
_1-5_ア__ム
  6
DASHED1
 62
    4
 10
-127.66666666666667
 20
74.733333347966777
 11
-127.66666666666667
 21
74.000000014633429
  0
LINE
  8
_1-5_ア__ム
  6
DASHED1
 62
    4
 10
-122.33333333333303
 20
74.733333347966777
 11
-122.33333333333303
 21
74.000000014633429
  0
LINE
  8
_1-5_ア__ム
  6
DASHED1
 62
    4
 10
-113.33333333333348
 20
74.733333347966777
 11
-113.33333333333348
 21
74.000000014633429
  0
LINE
  8
_1-5_ア__ム
  6
DASHED1
 62
    4
 10
-111.33333333333319
 20
74.733333347966777
 11
-111.33333333333319
 21
74.000000014633429
  0
LINE
  8
_1-5_ア__ム
  6
DASHED1
 62
    4
 10
-125.33333333333334
 20
74.733333347966777
 11
-125.33333333333334
 21
74.000000014633429
  0
LINE
  8
_1-5_ア__ム
  6
DASHED1
 62
    4
 10
-117
 20
74.733333347966777
 11
-117
 21
74.000000014633429
  0
LINE
  8
_1-5_ア__ム
  6
DASHED1
 62
    4
 10
-112.66666666666667
 20
74.733333347966777
 11
-112.66666666666667
 21
74.000000014633429
  0
LINE
  8
_1-5_ア__ム
  6
CONTINUOUS
 62
    4
 10
-68.333333333333371
 20
75.666666666666686
 11
-68.333333333333371
 21
72.000000093133508
  0
ARC
  8
_1-5_ア__ム
  6
CONTINUOUS
 62
    4
 10
-70
 20
72.000000093133508
 40
1.6666666666666665
 50
270
 51
0
  0
LINE
  8
_1-5_ア__ム
  6
CONTINUOUS
 62
    4
 10
-130
 20
70.333333426466822
 11
-70
 21
70.333333426466822
  0
LINE
  8
_1-5_ア__ム
  6
CONTINUOUS
 62
    4
 10
-131.66666666666669
 20
75.666666666666686
 11
-68.333333333333371
 21
75.666666666666686
  0
LINE
  8
_1-5_ア__ム
  6
DASHED1
 62
    4
 10
-131.66666666666669
 20
74.733333347966777
 11
-68.333333333333371
 21
74.733333347966777
  0
LINE
  8
_1-5_ア__ム
  6
DASHED1
 62
    4
 10
-131.66666666666669
 20
74.000000014633429
 11
-68.333333333333371
 21
74.000000014633429
  0
ENDBLK
  0
BLOCK
  2
-015-_15_
 70
   64
 10
0
 20
0
 30
0
  0
LINE
  8
_1-7_カバ__
  6
CONTINUOUS
 62
    4
 10
-100.00000000000003
 20
76.095955988547985
 11
-99.929289321881384
 21
76.166666666666629
  0
LINE
  8
_1-7_カバ__
  6
CONTINUOUS
 62
    4
 10
-100.00000000000003
 20
76.095955988547985
 11
-100.07071067811867
 21
76.166666666666629
  0
LINE
  8
_1-7_カバ__
  6
CONTINUOUS
 62
    4
 10
-63.833333333333371
 20
75.666666666666686
 11
-63.833333333333371
 21
71.999999999999943
  0
LINE
  8
_1-7_カバ__
  6
CONTINUOUS
 62
    4
 10
-99.929289321881384
 20
76.166666666666629
 11
-63.333333333333371
 21
76.166666666666629
  0
LINE
  8
_1-7_カバ__
  6
CONTINUOUS
 62
    4
 10
-63.333333333333371
 20
76.166666666666629
 11
-63.333333333333371
 21
71.5
  0
LINE
  8
_1-7_カバ__
  6
CONTINUOUS
 62
    4
 10
-136.16666666666669
 20
75.666666666666686
 11
-63.833333333333371
 21
75.666666666666686
  0
LINE
  8
_1-7_カバ__
  6
CONTINUOUS
 62
    4
 10
-136.16666666666669
 20
75.666666666666686
 11
-136.16666666666669
 21
71.999999999999943
  0
LINE
  8
_1-7_カバ__
  6
CONTINUOUS
 62
    4
 10
-136.66666666666669
 20
76.166666666666629
 11
-100.07071067811867
 21
76.166666666666629
  0
LINE
  8
_1-7_カバ__
  6
CONTINUOUS
 62
    4
 10
-136.66666666666669
 20
76.166666666666629
 11
-136.66666666666669
 21
71.5
  0
LINE
  8
_1-7_カバ__
  6
CONTINUOUS
 62
    4
 10
-100.00000000000003
 20
74.000000000000028
 11
-100.00000000000003
 21
77.833333333333286
  0
LINE
  8
_1-7_カバ__
  6
DASHED1
 62
    4
 10
-99.249999999999986
 20
75.833333333333371
 11
-98.916666666666728
 21
76.166666666666629
  0
LINE
  8
_1-7_カバ__
  6
DASHED1
 62
    4
 10
-100.74999999999999
 20
75.833333333333371
 11
-101.08333333333326
 21
76.166666666666629
  0
LINE
  8
_1-7_カバ__
  6
DASHED1
 62
    4
 10
-99.249999999999986
 20
75.833333333333371
 11
-99.249999999999986
 21
75.666666666666686
  0
LINE
  8
_1-7_カバ__
  6
DASHED1
 62
    4
 10
-100.74999999999999
 20
75.833333333333371
 11
-100.74999999999999
 21
75.666666666666686
  0
LINE
  8
_1-7_カバ__
  6
DASHED1
 62
    4
 10
-100.74999999999999
 20
75.833333333333371
 11
-99.249999999999986
 21
75.833333333333371
  0
LINE
  8
_1-7_カバ__
  6
CONTINUOUS
 62
    4
 10
-136.16666666666669
 20
72
 11
-133.33333333333337
 21
72
  0
LINE
  8
_1-7_カバ__
  6
CONTINUOUS
 62
    4
 10
-133.33333333333337
 20
72
 11
-133.33333333333337
 21
71.5
  0
LINE
  8
_1-7_カバ__
  6
CONTINUOUS
 62
    4
 10
-136.66666666666669
 20
71.5
 11
-133.33333333333337
 21
71.5
  0
LINE
  8
_1-7_カバ__
  6
CONTINUOUS
 62
    4
 10
-63.833333333333371
 20
72
 11
-66.666666666666686
 21
72
  0
LINE
  8
_1-7_カバ__
  6
CONTINUOUS
 62
    4
 10
-66.666666666666686
 20
72
 11
-66.666666666666686
 21
71.5
  0
LINE
  8
_1-7_カバ__
  6
CONTINUOUS
 62
    4
 10
-63.333333333333371
 20
71.5
 11
-66.666666666666686
 21
71.5
  0
ENDBLK
  0
BLOCK
  2
-016-_16_
 70
   64
 10
0
 20
0
 30
0
  0
LINE
  8
_1-8_小物
  6
CONTINUOUS
 62
    4
 10
-101.00000000000003
 20
76.166666666666657
 11
-99.000000000000028
 21
76.166666666666657
  0
LINE
  8
_1-8_小物
  6
CONTINUOUS
 62
    4
 10
-99.000000000000142
 20
76.166666666666657
 11
-99.000000000000142
 21
76.099999999999966
  0
LINE
  8
_1-8_小物
  6
CONTINUOUS
 62
    4
 10
-100.99999999999991
 20
76.099999999999966
 11
-100.49999999999991
 21
75.599999999999966
  0
LINE
  8
_1-8_小物
  6
CONTINUOUS
 62
    4
 10
-100.49999999999991
 20
75.599999999999966
 11
-99.500000000000142
 21
75.599999999999966
  0
LINE
  8
_1-8_小物
  6
CONTINUOUS
 62
    4
 10
-99.000000000000142
 20
76.099999999999966
 11
-99.500000000000142
 21
75.599999999999966
  0
LINE
  8
_1-8_小物
  6
CONTINUOUS
 62
    4
 10
-100.99999999999991
 20
76.099999999999966
 11
-100.99999999999991
 21
76.166666666666657
  0
LINE
  8
_1-8_小物
  6
CONTINUOUS
 62
    4
 10
-99.000000000000142
 20
76.099999999999966
 11
-100.99999999999991
 21
76.099999999999966
  0
LINE
  8
_1-8_小物
  6
CONTINUOUS
 62
    4
 10
-99.500000000000142
 20
72.535753321824302
 11
-99.312500000000028
 21
72.427500000000038
  0
LINE
  8
_1-8_小物
  6
CONTINUOUS
 62
    4
 10
-99.312500000000028
 20
72.427500000000038
 11
-99.500000000000085
 21
72.319246678175773
  0
LINE
  8
_1-8_小物
  6
CONTINUOUS
 62
    4
 10
-99.500000000000142
 20
72.535753321824302
 11
-100.49999999999997
 21
72.300753321824345
  0
LINE
  8
_1-8_小物
  6
CONTINUOUS
 62
    4
 10
-100.68750000000003
 20
72.192500000000052
 11
-100.49999999999997
 21
72.300753321824345
  0
LINE
  8
_1-8_小物
  6
CONTINUOUS
 62
    4
 10
-100.49999999999994
 20
72.084246678175788
 11
-100.68750000000003
 21
72.192500000000052
  0
LINE
  8
_1-8_小物
  6
CONTINUOUS
 62
    4
 10
-99.500000000000085
 20
72.319246678175773
 11
-100.49999999999994
 21
72.084246678175788
  0
LINE
  8
_1-8_小物
  6
CONTINUOUS
 62
    4
 10
-99.312500000000028
 20
72.427500000000038
 11
-100.68750000000003
 21
72.192500000000052
  0
LINE
  8
_1-8_小物
  6
CONTINUOUS
 62
    4
 10
-99.500000000000142
 20
73.005753321824301
 11
-99.312500000000028
 21
72.897500000000036
  0
LINE
  8
_1-8_小物
  6
CONTINUOUS
 62
    4
 10
-99.312500000000028
 20
72.897500000000036
 11
-99.500000000000085
 21
72.789246678175743
  0
LINE
  8
_1-8_小物
  6
CONTINUOUS
 62
    4
 10
-99.500000000000142
 20
73.005753321824301
 11
-100.49999999999997
 21
72.770753321824316
  0
LINE
  8
_1-8_小物
  6
CONTINUOUS
 62
    4
 10
-100.68750000000003
 20
72.662500000000051
 11
-100.49999999999997
 21
72.770753321824316
  0
LINE
  8
_1-8_小物
  6
CONTINUOUS
 62
    4
 10
-100.49999999999994
 20
72.554246678175787
 11
-100.68750000000003
 21
72.662500000000051
  0
LINE
  8
_1-8_小物
  6
CONTINUOUS
 62
    4
 10
-99.500000000000085
 20
72.789246678175743
 11
-100.49999999999994
 21
72.554246678175787
  0
LINE
  8
_1-8_小物
  6
CONTINUOUS
 62
    4
 10
-99.312500000000028
 20
72.897500000000036
 11
-100.68750000000003
 21
72.662500000000051
  0
LINE
  8
_1-8_小物
  6
CONTINUOUS
 62
    4
 10
-99.500000000000142
 20
73.4757533218243
 11
-99.312500000000028
 21
73.367500000000007
  0
LINE
  8
_1-8_小物
  6
CONTINUOUS
 62
    4
 10
-99.312500000000028
 20
73.367500000000007
 11
-99.500000000000085
 21
73.259246678175742
  0
LINE
  8
_1-8_小物
  6
CONTINUOUS
 62
    4
 10
-99.500000000000142
 20
73.4757533218243
 11
-100.49999999999997
 21
73.240753321824315
  0
LINE
  8
_1-8_小物
  6
CONTINUOUS
 62
    4
 10
-100.68750000000003
 20
73.13250000000005
 11
-100.49999999999997
 21
73.240753321824315
  0
LINE
  8
_1-8_小物
  6
CONTINUOUS
 62
    4
 10
-100.49999999999994
 20
73.024246678175757
 11
-100.68750000000003
 21
73.13250000000005
  0
LINE
  8
_1-8_小物
  6
CONTINUOUS
 62
    4
 10
-99.500000000000085
 20
73.259246678175742
 11
-100.49999999999994
 21
73.024246678175757
  0
LINE
  8
_1-8_小物
  6
CONTINUOUS
 62
    4
 10
-99.312500000000028
 20
73.367500000000007
 11
-100.68750000000003
 21
73.13250000000005
  0
LINE
  8
_1-8_小物
  6
CONTINUOUS
 62
    4
 10
-99.500000000000142
 20
73.94575332182427
 11
-99.312500000000028
 21
73.837500000000006
  0
LINE
  8
_1-8_小物
  6
CONTINUOUS
 62
    4
 10
-99.312500000000028
 20
73.837500000000006
 11
-99.500000000000085
 21
73.729246678175741
  0
LINE
  8
_1-8_小物
  6
CONTINUOUS
 62
    4
 10
-99.500000000000142
 20
73.94575332182427
 11
-100.49999999999997
 21
73.710753321824313
  0
LINE
  8
_1-8_小物
  6
CONTINUOUS
 62
    4
 10
-100.68750000000003
 20
73.60250000000002
 11
-100.49999999999997
 21
73.710753321824313
  0
LINE
  8
_1-8_小物
  6
CONTINUOUS
 62
    4
 10
-100.49999999999994
 20
73.494246678175756
 11
-100.68750000000003
 21
73.60250000000002
  0
LINE
  8
_1-8_小物
  6
CONTINUOUS
 62
    4
 10
-99.500000000000085
 20
73.729246678175741
 11
-100.49999999999994
 21
73.494246678175756
  0
LINE
  8
_1-8_小物
  6
CONTINUOUS
 62
    4
 10
-99.312500000000028
 20
73.837500000000006
 11
-100.68750000000003
 21
73.60250000000002
  0
LINE
  8
_1-8_小物
  6
CONTINUOUS
 62
    4
 10
-99.500000000000142
 20
74.415753321824269
 11
-99.312500000000028
 21
74.307500000000005
  0
LINE
  8
_1-8_小物
  6
CONTINUOUS
 62
    4
 10
-99.312500000000028
 20
74.307500000000005
 11
-99.500000000000085
 21
74.199246678175712
  0
LINE
  8
_1-8_小物
  6
CONTINUOUS
 62
    4
 10
-99.500000000000142
 20
74.415753321824269
 11
-100.49999999999997
 21
74.180753321824284
  0
LINE
  8
_1-8_小物
  6
CONTINUOUS
 62
    4
 10
-100.68750000000003
 20
74.072500000000019
 11
-100.49999999999997
 21
74.180753321824284
  0
LINE
  8
_1-8_小物
  6
CONTINUOUS
 62
    4
 10
-100.49999999999994
 20
73.964246678175755
 11
-100.68750000000003
 21
74.072500000000019
  0
LINE
  8
_1-8_小物
  6
CONTINUOUS
 62
    4
 10
-99.500000000000085
 20
74.199246678175712
 11
-100.49999999999994
 21
73.964246678175755
  0
LINE
  8
_1-8_小物
  6
CONTINUOUS
 62
    4
 10
-99.312500000000028
 20
74.307500000000005
 11
-100.68750000000003
 21
74.072500000000019
  0
LINE
  8
_1-8_小物
  6
CONTINUOUS
 62
    4
 10
-99.500000000000142
 20
74.885753321824268
 11
-99.312500000000028
 21
74.777499999999975
  0
LINE
  8
_1-8_小物
  6
CONTINUOUS
 62
    4
 10
-99.312500000000028
 20
74.777499999999975
 11
-99.500000000000085
 21
74.66924667817571
  0
LINE
  8
_1-8_小物
  6
CONTINUOUS
 62
    4
 10
-99.500000000000142
 20
74.885753321824268
 11
-100.49999999999997
 21
74.650753321824283
  0
LINE
  8
_1-8_小物
  6
CONTINUOUS
 62
    4
 10
-100.68750000000003
 20
74.542500000000018
 11
-100.49999999999997
 21
74.650753321824283
  0
LINE
  8
_1-8_小物
  6
CONTINUOUS
 62
    4
 10
-100.49999999999994
 20
74.434246678175725
 11
-100.68750000000003
 21
74.542500000000018
  0
LINE
  8
_1-8_小物
  6
CONTINUOUS
 62
    4
 10
-99.500000000000085
 20
74.66924667817571
 11
-100.49999999999994
 21
74.434246678175725
  0
LINE
  8
_1-8_小物
  6
CONTINUOUS
 62
    4
 10
-99.312500000000028
 20
74.777499999999975
 11
-100.68750000000003
 21
74.542500000000018
  0
LINE
  8
_1-8_小物
  6
CONTINUOUS
 62
    4
 10
-99.500000000000142
 20
75.355753321824238
 11
-99.312500000000028
 21
75.247499999999974
  0
LINE
  8
_1-8_小物
  6
CONTINUOUS
 62
    4
 10
-99.312500000000028
 20
75.247499999999974
 11
-99.500000000000085
 21
75.139246678175709
  0
LINE
  8
_1-8_小物
  6
CONTINUOUS
 62
    4
 10
-99.500000000000142
 20
75.355753321824238
 11
-100.49999999999997
 21
75.120753321824282
  0
LINE
  8
_1-8_小物
  6
CONTINUOUS
 62
    4
 10
-100.68750000000003
 20
75.012499999999989
 11
-100.49999999999997
 21
75.120753321824282
  0
LINE
  8
_1-8_小物
  6
CONTINUOUS
 62
    4
 10
-100.49999999999994
 20
74.904246678175724
 11
-100.68750000000003
 21
75.012499999999989
  0
LINE
  8
_1-8_小物
  6
CONTINUOUS
 62
    4
 10
-99.500000000000085
 20
75.139246678175709
 11
-100.49999999999994
 21
74.904246678175724
  0
LINE
  8
_1-8_小物
  6
CONTINUOUS
 62
    4
 10
-99.312500000000028
 20
75.247499999999974
 11
-100.68750000000003
 21
75.012499999999989
  0
LINE
  8
_1-8_小物
  6
CONTINUOUS
 62
    4
 10
-100.49999999999991
 20
72.084246678175788
 11
-100.49999999999991
 21
71.830753321824346
  0
LINE
  8
_1-8_小物
  6
CONTINUOUS
 62
    4
 10
-100.49999999999991
 20
72.554246678175787
 11
-100.49999999999991
 21
72.300753321824345
  0
LINE
  8
_1-8_小物
  6
CONTINUOUS
 62
    4
 10
-100.49999999999991
 20
73.024246678175757
 11
-100.49999999999991
 21
72.770753321824373
  0
LINE
  8
_1-8_小物
  6
CONTINUOUS
 62
    4
 10
-100.49999999999991
 20
73.494246678175756
 11
-100.49999999999991
 21
73.240753321824315
  0
LINE
  8
_1-8_小物
  6
CONTINUOUS
 62
    4
 10
-100.49999999999991
 20
73.964246678175755
 11
-100.49999999999991
 21
73.710753321824313
  0
LINE
  8
_1-8_小物
  6
CONTINUOUS
 62
    4
 10
-100.49999999999991
 20
74.434246678175725
 11
-100.49999999999991
 21
74.180753321824284
  0
LINE
  8
_1-8_小物
  6
CONTINUOUS
 62
    4
 10
-100.49999999999991
 20
75.599999999999966
 11
-100.49999999999991
 21
75.120753321824282
  0
LINE
  8
_1-8_小物
  6
CONTINUOUS
 62
    4
 10
-100.49999999999991
 20
74.904246678175724
 11
-100.49999999999991
 21
74.650753321824311
  0
LINE
  8
_1-8_小物
  6
CONTINUOUS
 62
    4
 10
-99.500000000000142
 20
75.599999999999966
 11
-99.500000000000142
 21
75.355753321824238
  0
LINE
  8
_1-8_小物
  6
CONTINUOUS
 62
    4
 10
-99.500000000000142
 20
75.139246678175653
 11
-99.500000000000142
 21
74.885753321824268
  0
LINE
  8
_1-8_小物
  6
CONTINUOUS
 62
    4
 10
-99.500000000000142
 20
74.66924667817571
 11
-99.500000000000142
 21
74.415753321824269
  0
LINE
  8
_1-8_小物
  6
CONTINUOUS
 62
    4
 10
-99.500000000000142
 20
74.199246678175683
 11
-99.500000000000142
 21
73.94575332182427
  0
LINE
  8
_1-8_小物
  6
CONTINUOUS
 62
    4
 10
-99.500000000000142
 20
73.729246678175741
 11
-99.500000000000142
 21
73.4757533218243
  0
LINE
  8
_1-8_小物
  6
CONTINUOUS
 62
    4
 10
-99.500000000000142
 20
73.259246678175742
 11
-99.500000000000142
 21
73.005753321824301
  0
LINE
  8
_1-8_小物
  6
CONTINUOUS
 62
    4
 10
-99.500000000000142
 20
72.789246678175715
 11
-99.500000000000142
 21
72.535753321824302
  0
LINE
  8
_1-8_小物
  6
CONTINUOUS
 62
    4
 10
-99.433333333333479
 20
71.826666666666654
 11
-99.433333333333479
 21
70.829999999999984
  0
LINE
  8
_1-8_小物
  6
CONTINUOUS
 62
    4
 10
-100.56666666666658
 20
71.826666666666654
 11
-99.433333333333479
 21
71.826666666666654
  0
LINE
  8
_1-8_小物
  6
CONTINUOUS
 62
    4
 10
-100.56666666666658
 20
71.826666666666654
 11
-100.56666666666658
 21
70.829999999999984
  0
LINE
  8
_1-8_小物
  6
CONTINUOUS
 62
    4
 10
-100.56666666666658
 20
70.829999999999984
 11
-100.00000000000003
 21
70.502834847459269
  0
LINE
  8
_1-8_小物
  6
CONTINUOUS
 62
    4
 10
-99.433333333333479
 20
70.829999999999984
 11
-100.00000000000003
 21
70.502834847459269
  0
LINE
  8
_1-8_小物
  6
CONTINUOUS
 62
    4
 10
-100.00000000000003
 20
70.618304901297194
 11
-99.533333333333388
 21
70.887735026918961
  0
LINE
  8
_1-8_小物
  6
CONTINUOUS
 62
    4
 10
-99.533333333333388
 20
71.826666666666654
 11
-99.533333333333388
 21
70.887735026918961
  0
LINE
  8
_1-8_小物
  6
CONTINUOUS
 62
    4
 10
-100.00000000000003
 20
70.618304901297194
 11
-99.786933218308889
 21
71.826666666666654
  0
LINE
  8
_1-8_小物
  6
CONTINUOUS
 62
    4
 10
-99.500000000000142
 20
72.319246678175716
 11
-99.500000000000142
 21
71.826666666666654
  0
LINE
  8
_1-8_小物
  6
CONTINUOUS
 62
    4
 10
-100.00000000000003
 20
70.502834847459269
 11
-100.00000000000003
 21
70.618304901297194
  0
LINE
  8
_1-8_小物
  6
CENTER2
 62
    4
 10
-100.00000000000003
 20
76.5
 11
-100.00000000000003
 21
70.169501514125955
  0
ENDBLK
  0
BLOCK
  2
-017-_17_
 70
   64
 10
0
 20
0
 30
0
  0
ARC
  8
_1-8_小物
  6
CONTINUOUS
 62
    4
 10
-66.666666666666686
 20
71.599999999999966
 40
0.0999999999999999
 50
179.99999999996743
 51
270
  0
ARC
  8
_1-8_小物
  6
CONTINUOUS
 62
    4
 10
-64.000000000000057
 20
70.833333333333314
 40
0.1666666666666666
 50
0
 51
90
  0
ARC
  8
_1-8_小物
  6
CONTINUOUS
 62
    4
 10
-64.000000000000057
 20
70.833333333333314
 40
0.6666666666666666
 50
0
 51
90
  0
ARC
  8
_1-8_小物
  6
CONTINUOUS
 62
    4
 10
-66.600000000000023
 20
71.5
 40
0.5
 50
180
 51
270
  0
ARC
  8
_1-8_小物
  6
CONTINUOUS
 62
    4
 10
-64.6469056923832
 20
72.166654228369737
 40
0.3333333333333333
 50
265.47574222621017
 51
355.47574222621506
  0
LINE
  8
_1-8_小物
  6
CONTINUOUS
 62
    4
 10
-66.766666666666708
 20
71.891785503129995
 11
-66.766666666666708
 21
71.599999999999966
  0
ARC
  8
_1-8_小物
  6
CONTINUOUS
 62
    4
 10
-66.666666666666686
 20
71.891785503129995
 40
0.0999999999999999
 50
85.475742226227297
 51
180
  0
LINE
  8
_1-8_小物
  6
CONTINUOUS
 62
    4
 10
-64.000000000000057
 20
71.5
 11
-66.666666666666686
 21
71.5
  0
LINE
  8
_1-8_小物
  6
CONTINUOUS
 62
    4
 10
-64.673199412907252
 20
71.834359552860093
 11
-66.65877855050951
 21
71.991473905782897
  0
ARC
  8
_1-8_小物
  6
CONTINUOUS
 62
    4
 10
-64.861106360873237
 20
72.41766610559344
 40
0.1666666666666666
 50
265.47574222621506
 51
355.47574222620534
  0
LINE
  8
_1-8_小物
  6
CONTINUOUS
 62
    4
 10
-64.874253221135234
 20
72.251518767838547
 11
-66.740372946142713
 21
72.399180569636655
  0
LINE
  8
_1-8_小物
  6
CONTINUOUS
 62
    4
 10
-67.100000000000023
 20
72.066885894126926
 11
-67.100000000000023
 21
71.5
  0
ARC
  8
_1-8_小物
  6
CONTINUOUS
 62
    4
 10
-66.766666666666708
 20
72.066885894126926
 40
0.3333333333333333
 50
85.47574222621509
 51
180
  0
LINE
  8
_1-8_小物
  6
CONTINUOUS
 62
    4
 10
-64.314611016873471
 20
72.140360507845799
 11
-64.290946668401887
 21
72.43942571580456
  0
LINE
  8
_1-8_小物
  6
CONTINUOUS
 62
    4
 10
-64.694959023118372
 20
72.404519245331414
 11
-64.68970027901355
 21
72.470978180433349
  0
ARC
  8
_1-8_小物
  6
CONTINUOUS
 62
    4
 10
-64.49032347370769
 20
72.45520194811894
 40
0.1999999999999963
 50
355.47574222621984
 51
175.47574222620426
  0
LINE
  8
_1-8_小物
  6
CONTINUOUS
 62
    4
 10
-66.100000000000023
 20
70.833333333333314
 11
-66.266666666666708
 21
71
  0
LINE
  8
_1-8_小物
  6
CONTINUOUS
 62
    4
 10
-66.100000000000023
 20
70.833333333333314
 11
-65.933333333333394
 21
71
  0
LINE
  8
_1-8_小物
  6
CONTINUOUS
 62
    4
 10
-64.000000000000057
 20
71
 11
-65.933333333333394
 21
71
  0
LINE
  8
_1-8_小物
  6
CONTINUOUS
 62
    4
 10
-66.266666666666708
 20
71
 11
-66.600000000000023
 21
71
  0
ARC
  8
_1-8_小物
  6
CONTINUOUS
 62
    4
 10
-64.245355809144712
 20
67.374662926789512
 40
0.4999999999999946
 50
190.63980919808779
 51
350.63980919808483
  0
LINE
  8
_1-8_小物
  6
CONTINUOUS
 62
    4
 10
-63.833333333333371
 20
69.874265946711716
 11
-64.214609814719154
 21
67.561188626304585
  0
ARC
  8
_1-8_小物
  6
CONTINUOUS
 62
    4
 10
-64.247499328139156
 20
67.566609974670541
 40
0.0333333333333333
 50
190.63980919811479
 51
350.63980919804908
  0
ARC
  8
_1-8_小物
  6
CONTINUOUS
 62
    4
 10
-64.721850448685302
 20
68.557013491761268
 40
0.25
 50
10.639809198087802
 51
190.63980919808657
  0
LINE
  8
_1-8_小物
  6
CONTINUOUS
 62
    4
 10
-64.967552274239154
 20
68.510854928963909
 11
-64.736759460252358
 21
67.282345801194793
  0
LINE
  8
_1-8_小物
  6
CONTINUOUS
 62
    4
 10
-63.333333333333371
 20
69.833333333333314
 11
-63.752013107844277
 21
67.293342701300418
  0
LINE
  8
_1-8_小物
  6
CONTINUOUS
 62
    4
 10
-64.476148623131508
 20
68.603172054558627
 11
-64.280259571546367
 21
67.560455499630876
  0
LINE
  8
_1-8_小物
  6
CONTINUOUS
 62
    4
 10
-63.833333333333371
 20
70.833333333333314
 11
-63.833333333333371
 21
69.874265946711716
  0
LINE
  8
_1-8_小物
  6
CONTINUOUS
 62
    4
 10
-63.333333333333371
 20
70.833333333333314
 11
-63.333333333333371
 21
69.833333333333314
  0
ENDBLK
  0
BLOCK
  2
-018-_18_
 70
   64
 10
0
 20
0
 30
0
  0
ARC
  8
_1-8_小物
  6
CONTINUOUS
 62
    4
 10
-133.33333333333331
 20
71.599999999999966
 40
0.0999999999999999
 50
270
 51
0
  0
ARC
  8
_1-8_小物
  6
CONTINUOUS
 62
    4
 10
-135.99999999999994
 20
70.833333333333314
 40
0.1666666666666666
 50
90
 51
180
  0
ARC
  8
_1-8_小物
  6
CONTINUOUS
 62
    4
 10
-135.99999999999994
 20
70.833333333333314
 40
0.6666666666666666
 50
90
 51
180
  0
ARC
  8
_1-8_小物
  6
CONTINUOUS
 62
    4
 10
-133.39999999999998
 20
71.5
 40
0.5
 50
270
 51
0
  0
ARC
  8
_1-8_小物
  6
CONTINUOUS
 62
    4
 10
-135.3530943076168
 20
72.166654228369737
 40
0.3333333333333333
 50
184.52425777378491
 51
274.52425777378494
  0
LINE
  8
_1-8_小物
  6
CONTINUOUS
 62
    4
 10
-133.23333333333329
 20
71.891785503129995
 11
-133.23333333333329
 21
71.599999999999966
  0
ARC
  8
_1-8_小物
  6
CONTINUOUS
 62
    4
 10
-133.33333333333331
 20
71.891785503129995
 40
0.0999999999999999
 50
0
 51
94.524257773788946
  0
LINE
  8
_1-8_小物
  6
CONTINUOUS
 62
    4
 10
-135.99999999999994
 20
71.5
 11
-133.33333333333331
 21
71.5
  0
LINE
  8
_1-8_小物
  6
CONTINUOUS
 62
    4
 10
-135.32680058709275
 20
71.834359552860093
 11
-133.34122144949049
 21
71.991473905782897
  0
ARC
  8
_1-8_小物
  6
CONTINUOUS
 62
    4
 10
-135.13889363912676
 20
72.41766610559344
 40
0.1666666666666666
 50
184.52425777379463
 51
274.52425777378494
  0
LINE
  8
_1-8_小物
  6
CONTINUOUS
 62
    4
 10
-135.12574677886477
 20
72.251518767838547
 11
-133.25962705385729
 21
72.399180569636655
  0
LINE
  8
_1-8_小物
  6
CONTINUOUS
 62
    4
 10
-132.89999999999998
 20
72.066885894126926
 11
-132.89999999999998
 21
71.5
  0
ARC
  8
_1-8_小物
  6
CONTINUOUS
 62
    4
 10
-133.23333333333329
 20
72.066885894126926
 40
0.3333333333333333
 50
0
 51
94.524257773789799
  0
LINE
  8
_1-8_小物
  6
CONTINUOUS
 62
    4
 10
-135.68538898312653
 20
72.140360507845799
 11
-135.70905333159811
 21
72.43942571580456
  0
LINE
  8
_1-8_小物
  6
CONTINUOUS
 62
    4
 10
-135.30504097688163
 20
72.404519245331414
 11
-135.31029972098645
 21
72.470978180433349
  0
ARC
  8
_1-8_小物
  6
CONTINUOUS
 62
    4
 10
-135.50967652629231
 20
72.45520194811894
 40
0.1999999999999963
 50
4.5242577737964096
 51
184.52425777378016
  0
LINE
  8
_1-8_小物
  6
CONTINUOUS
 62
    4
 10
-133.89999999999998
 20
70.833333333333314
 11
-133.73333333333329
 21
71
  0
LINE
  8
_1-8_小物
  6
CONTINUOUS
 62
    4
 10
-133.89999999999998
 20
70.833333333333314
 11
-134.06666666666661
 21
71
  0
LINE
  8
_1-8_小物
  6
CONTINUOUS
 62
    4
 10
-135.99999999999994
 20
71
 11
-134.06666666666661
 21
71
  0
LINE
  8
_1-8_小物
  6
CONTINUOUS
 62
    4
 10
-133.73333333333329
 20
71
 11
-133.39999999999998
 21
71
  0
ARC
  8
_1-8_小物
  6
CONTINUOUS
 62
    4
 10
-135.75464419085529
 20
67.374662926789512
 40
0.4999999999999946
 50
189.3601908019146
 51
349.36019080191221
  0
LINE
  8
_1-8_小物
  6
CONTINUOUS
 62
    4
 10
-136.16666666666663
 20
69.874265946711716
 11
-135.78539018528085
 21
67.561188626304585
  0
ARC
  8
_1-8_小物
  6
CONTINUOUS
 62
    4
 10
-135.75250067186084
 20
67.566609974670541
 40
0.0333333333333333
 50
189.36019080194299
 51
349.36019080187617
  0
ARC
  8
_1-8_小物
  6
CONTINUOUS
 62
    4
 10
-135.2781495513147
 20
68.557013491761268
 40
0.25
 50
349.36019080191221
 51
169.36019080191227
  0
LINE
  8
_1-8_小物
  6
CONTINUOUS
 62
    4
 10
-135.03244772576085
 20
68.510854928963909
 11
-135.26324053974764
 21
67.282345801194793
  0
LINE
  8
_1-8_小物
  6
CONTINUOUS
 62
    4
 10
-136.66666666666663
 20
69.833333333333314
 11
-136.24798689215572
 21
67.293342701300418
  0
LINE
  8
_1-8_小物
  6
CONTINUOUS
 62
    4
 10
-135.52385137686849
 20
68.603172054558627
 11
-135.71974042845363
 21
67.560455499630876
  0
LINE
  8
_1-8_小物
  6
CONTINUOUS
 62
    4
 10
-136.16666666666663
 20
70.833333333333314
 11
-136.16666666666663
 21
69.874265946711716
  0
LINE
  8
_1-8_小物
  6
CONTINUOUS
 62
    4
 10
-136.66666666666663
 20
70.833333333333314
 11
-136.66666666666663
 21
69.833333333333314
  0
ENDBLK
  0
BLOCK
  2
-019-_19_
 70
   64
 10
0
 20
0
 30
0
  0
LINE
  8
_1-8_小物
  6
CONTINUOUS
 62
    4
 10
71.74005833333274
 20
77.697245669958249
 11
71.074304999999413
 21
77.662355669958686
  0
LINE
  8
_1-8_小物
  6
CONTINUOUS
 62
    4
 10
72.738688333332675
 20
77.749582336625224
 11
72.37092166666605
 21
78.397889003291823
  0
LINE
  8
_1-8_小物
  6
CONTINUOUS
 62
    4
 10
72.37092166666605
 20
78.397889003291823
 11
71.705168333332722
 21
78.362999003291634
  0
LINE
  8
_1-8_小物
  6
CONTINUOUS
 62
    4
 10
71.705168333332722
 20
78.362999003291634
 11
71.74005833333274
 21
77.697245669958249
  0
LINE
  8
_1-8_小物
  6
CONTINUOUS
 62
    4
 10
73.404441666666116
 20
77.784472336625129
 11
72.738688333332675
 21
77.749582336625224
  0
LINE
  8
_1-8_小物
  6
CONTINUOUS
 62
    4
 10
74.403069999999502
 20
77.836809003291762
 11
74.035303333332536
 21
78.485115669958702
  0
LINE
  8
_1-8_小物
  6
CONTINUOUS
 62
    4
 10
74.035303333332536
 20
78.485115669958702
 11
73.369549999999435
 21
78.450225669958456
  0
LINE
  8
_1-8_小物
  6
CONTINUOUS
 62
    4
 10
73.369549999999435
 20
78.450225669958456
 11
73.404441666666116
 21
77.784472336625129
  0
LINE
  8
_1-8_小物
  6
CONTINUOUS
 62
    4
 10
75.06882333333283
 20
77.871699003291951
 11
74.403069999999502
 21
77.836809003291762
  0
LINE
  8
_1-8_小物
  6
CONTINUOUS
 62
    4
 10
76.067453333332537
 20
77.9240356699583
 11
75.699686666666139
 21
78.572342336624899
  0
LINE
  8
_1-8_小物
  6
CONTINUOUS
 62
    4
 10
75.699686666666139
 20
78.572342336624899
 11
75.033933333332811
 21
78.537452336625336
  0
LINE
  8
_1-8_小物
  6
CONTINUOUS
 62
    4
 10
75.033933333332811
 20
78.537452336625336
 11
75.06882333333283
 21
77.871699003291951
  0
LINE
  8
_1-8_小物
  6
CONTINUOUS
 62
    4
 10
76.733206666666092
 20
77.958925669958489
 11
76.067453333332537
 21
77.9240356699583
  0
LINE
  8
_1-8_小物
  6
CONTINUOUS
 62
    4
 10
77.73183666666614
 20
78.011262336625123
 11
77.364068333332739
 21
78.659569003291779
  0
LINE
  8
_1-8_小物
  6
CONTINUOUS
 62
    4
 10
77.364068333332739
 20
78.659569003291779
 11
76.698314999999411
 21
78.624679003291874
  0
LINE
  8
_1-8_小物
  6
CONTINUOUS
 62
    4
 10
76.698314999999411
 20
78.624679003291874
 11
76.733206666666092
 21
77.958925669958489
  0
LINE
  8
_1-8_小物
  6
CONTINUOUS
 62
    4
 10
78.397588333332692
 20
78.046152336625028
 11
77.73183666666614
 21
78.011262336625123
  0
LINE
  8
_1-8_小物
  6
CONTINUOUS
 62
    4
 10
79.028451666666001
 20
78.746795669958601
 11
78.362698333332673
 21
78.711905669958412
  0
LINE
  8
_1-8_小物
  6
CONTINUOUS
 62
    4
 10
78.362698333332673
 20
78.711905669958412
 11
78.397588333332692
 21
78.046152336625028
  0
LINE
  8
_1-8_小物
  6
CONTINUOUS
 62
    4
 10
79.333333333332803
 20
78.166670669958478
 11
79.028451666666001
 21
78.746795669958601
  0
LINE
  8
_1-8_小物
  6
CONTINUOUS
 62
    4
 10
71.74005833333274
 20
81.302762336625108
 11
71.074304999999413
 21
81.337652336625013
  0
LINE
  8
_1-8_小物
  6
CONTINUOUS
 62
    4
 10
72.738688333332675
 20
81.250425669958474
 11
72.37092166666605
 21
80.602119003291818
  0
LINE
  8
_1-8_小物
  6
CONTINUOUS
 62
    4
 10
72.37092166666605
 20
80.602119003291818
 11
71.705168333332722
 21
80.637009003292007
  0
LINE
  8
_1-8_小物
  6
CONTINUOUS
 62
    4
 10
71.705168333332722
 20
80.637009003292007
 11
71.74005833333274
 21
81.302762336625108
  0
LINE
  8
_1-8_小物
  6
CONTINUOUS
 62
    4
 10
73.404441666666116
 20
81.215535669958228
 11
72.738688333332675
 21
81.250425669958474
  0
LINE
  8
_1-8_小物
  6
CONTINUOUS
 62
    4
 10
74.403069999999502
 20
81.163199003291936
 11
74.035303333332536
 21
80.51489233662528
  0
LINE
  8
_1-8_小物
  6
CONTINUOUS
 62
    4
 10
74.035303333332536
 20
80.51489233662528
 11
73.369549999999435
 21
80.549782336624901
  0
LINE
  8
_1-8_小物
  6
CONTINUOUS
 62
    4
 10
73.369549999999435
 20
80.549782336624901
 11
73.404441666666116
 21
81.215535669958228
  0
LINE
  8
_1-8_小物
  6
CONTINUOUS
 62
    4
 10
75.06882333333283
 20
81.128309003292031
 11
74.403069999999502
 21
81.163199003291936
  0
LINE
  8
_1-8_小物
  6
CONTINUOUS
 62
    4
 10
76.067453333332537
 20
81.075972336625398
 11
75.699686666666139
 21
80.427665669958458
  0
LINE
  8
_1-8_小物
  6
CONTINUOUS
 62
    4
 10
75.699686666666139
 20
80.427665669958458
 11
75.033933333332811
 21
80.462555669958363
  0
LINE
  8
_1-8_小物
  6
CONTINUOUS
 62
    4
 10
75.033933333332811
 20
80.462555669958363
 11
75.06882333333283
 21
81.128309003292031
  0
LINE
  8
_1-8_小物
  6
CONTINUOUS
 62
    4
 10
76.733206666666092
 20
81.041082336625152
 11
76.067453333332537
 21
81.075972336625398
  0
LINE
  8
_1-8_小物
  6
CONTINUOUS
 62
    4
 10
77.73183666666614
 20
80.988745669958234
 11
77.364068333332739
 21
80.340439003291579
  0
LINE
  8
_1-8_小物
  6
CONTINUOUS
 62
    4
 10
77.364068333332739
 20
80.340439003291579
 11
76.698314999999411
 21
80.375329003291824
  0
LINE
  8
_1-8_小物
  6
CONTINUOUS
 62
    4
 10
76.698314999999411
 20
80.375329003291824
 11
76.733206666666092
 21
81.041082336625152
  0
LINE
  8
_1-8_小物
  6
CONTINUOUS
 62
    4
 10
78.397588333332692
 20
80.953855669958614
 11
77.73183666666614
 21
80.988745669958234
  0
LINE
  8
_1-8_小物
  6
CONTINUOUS
 62
    4
 10
79.028451666666001
 20
80.25321233662504
 11
78.362698333332673
 21
80.288102336625286
  0
LINE
  8
_1-8_小物
  6
CONTINUOUS
 62
    4
 10
78.362698333332673
 20
80.288102336625286
 11
78.397588333332692
 21
80.953855669958614
  0
LINE
  8
_1-8_小物
  6
CONTINUOUS
 62
    4
 10
71.353101666666021
 20
79.519772336625067
 11
71.924991666666074
 21
78.875205669958575
  0
LINE
  8
_1-8_小物
  6
CONTINUOUS
 62
    4
 10
71.956479999999488
 20
80.123152336625253
 11
71.333333333332689
 21
79.500004003291508
  0
LINE
  8
_1-8_小物
  6
CONTINUOUS
 62
    4
 10
79.333333333332803
 20
80.833337336624879
 11
79.028451666666001
 21
80.25321233662504
  0
LINE
  8
_1-8_小物
  6
CONTINUOUS
 62
    4
 10
76.733206666666092
 20
77.958925669958489
 11
78.285866666665925
 21
77.393804003291962
  0
LINE
  8
_1-8_小物
  6
CONTINUOUS
 62
    4
 10
76.733206666666092
 20
78.313652336624955
 11
78.399873333332721
 21
77.70703400329171
  0
LINE
  8
_1-8_小物
  6
CONTINUOUS
 62
    4
 10
76.733206666666092
 20
81.041082336625152
 11
78.285866666665925
 21
81.60620400329168
  0
LINE
  8
_1-8_小物
  6
CONTINUOUS
 62
    4
 10
76.733206666666092
 20
80.686355669958687
 11
78.399873333332721
 21
81.292974003291931
  0
LINE
  8
_1-8_小物
  6
CONTINUOUS
 62
    4
 10
71.013246666665964
 20
78.827422336625148
 11
71.074304999999413
 21
77.662355669958686
  0
LINE
  8
_1-8_小物
  6
CONTINUOUS
 62
    4
 10
71.074304999999413
 20
77.662355669958686
 11
70.37366166666618
 21
78.293217336625219
  0
LINE
  8
_1-8_小物
  6
CONTINUOUS
 62
    4
 10
70.37366166666618
 20
78.293217336625219
 11
70.347493333332636
 21
78.792532336624902
  0
LINE
  8
_1-8_小物
  6
CONTINUOUS
 62
    4
 10
70.347493333332636
 20
78.792532336624902
 11
80.666666666665947
 21
79.333337336624879
  0
LINE
  8
_1-8_小物
  6
CONTINUOUS
 62
    4
 10
79.333333333332803
 20
78.166670669958478
 11
80.666666666665947
 21
78.166670669958478
  0
LINE
  8
_1-8_小物
  6
CONTINUOUS
 62
    4
 10
71.013246666665964
 20
80.172585669958551
 11
71.074304999999413
 21
81.337652336625013
  0
LINE
  8
_1-8_小物
  6
CONTINUOUS
 62
    4
 10
71.074304999999413
 20
81.337652336625013
 11
70.37366166666618
 21
80.70679066995848
  0
LINE
  8
_1-8_小物
  6
CONTINUOUS
 62
    4
 10
70.37366166666618
 20
80.70679066995848
 11
70.347493333332636
 21
80.207475669958455
  0
LINE
  8
_1-8_小物
  6
CONTINUOUS
 62
    4
 10
70.347493333332636
 20
80.207475669958455
 11
80.666666666665947
 21
79.666670669958478
  0
LINE
  8
_1-8_小物
  6
CONTINUOUS
 62
    4
 10
79.333333333332803
 20
80.833337336624879
 11
80.666666666665947
 21
80.833337336624879
  0
LINE
  8
_1-8_小物
  6
CONTINUOUS
 62
    4
 10
78.285866666665925
 20
81.60620400329168
 11
80.553739999999607
 21
81.936989003291785
  0
ARC
  8
_1-8_小物
  6
CONTINUOUS
 62
    4
 10
80.572984999999449
 20
81.805052336625124
 40
0.1333333333333333
 50
8.1301019999676249
 51
98.298466000035219
  0
LINE
  8
_1-8_小物
  6
CONTINUOUS
 62
    4
 10
80.704978333332747
 20
81.823909003292044
 11
80.714349999999513
 21
81.758300669958373
  0
ARC
  8
_1-8_小物
  6
CONTINUOUS
 62
    4
 10
80.582356666666101
 20
81.73944400329151
 40
0.1333333333333333
 50
278.13010200004015
 51
8.1301020002163114
  0
LINE
  8
_1-8_小物
  6
CONTINUOUS
 62
    4
 10
80.60121333333268
 20
81.607450669958382
 11
78.399873333332721
 21
81.292974003291931
  0
LINE
  8
_1-8_小物
  6
CONTINUOUS
 62
    4
 10
78.285866666665925
 20
77.393804003291962
 11
80.553739999999607
 21
77.063019003291856
  0
ARC
  8
_1-8_小物
  6
CONTINUOUS
 62
    4
 10
80.572984999999449
 20
77.194955669958517
 40
0.1333333333333333
 50
261.70153399996479
 51
351.86989800003238
  0
LINE
  8
_1-8_小物
  6
CONTINUOUS
 62
    4
 10
80.704978333332747
 20
77.176100669958544
 11
80.714349999999513
 21
77.241707336625268
  0
ARC
  8
_1-8_小物
  6
CONTINUOUS
 62
    4
 10
80.582356666666101
 20
77.260564003291563
 40
0.1333333333333333
 50
351.86989800004449
 51
81.86989800000822
  0
LINE
  8
_1-8_小物
  6
CONTINUOUS
 62
    4
 10
80.60121333333268
 20
77.392557336625259
 11
78.399873333332721
 21
77.70703400329171
  0
LINE
  8
_1-8_小物
  6
CONTINUOUS
 62
    4
 10
78.285866666665925
 20
77.393804003291962
 11
80.553739999999607
 21
77.063019003291856
  0
ARC
  8
_1-8_小物
  6
CONTINUOUS
 62
    4
 10
80.572984999999449
 20
77.194955669958517
 40
0.1333333333333333
 50
261.70153399996479
 51
351.86989800003238
  0
LINE
  8
_1-8_小物
  6
CONTINUOUS
 62
    4
 10
80.704978333332747
 20
77.176100669958544
 11
80.714349999999513
 21
77.241707336625268
  0
ARC
  8
_1-8_小物
  6
CONTINUOUS
 62
    4
 10
80.582356666666101
 20
77.260564003291563
 40
0.1333333333333333
 50
351.86989800004449
 51
81.86989800000822
  0
LINE
  8
_1-8_小物
  6
CONTINUOUS
 62
    4
 10
80.60121333333268
 20
77.392557336625259
 11
78.399873333332721
 21
77.70703400329171
  0
LINE
  8
_1-8_小物
  6
CONTINUOUS
 62
    4
 10
83.333333333332803
 20
77.833337336624879
 11
81.666666666666174
 21
78.166670669958478
  0
LINE
  8
_1-8_小物
  6
CONTINUOUS
 62
    4
 10
83.333333333332803
 20
78.166670669958478
 11
80.666666666665947
 21
78.166670669958478
  0
LINE
  8
_1-8_小物
  6
CONTINUOUS
 62
    4
 10
80.666666666665947
 20
79.333337336624879
 11
80.666666666665947
 21
79.500004003291508
  0
LINE
  8
_1-8_小物
  6
CONTINUOUS
 62
    4
 10
81.666666666666174
 20
79.500004003291508
 11
83.333333333332803
 21
79.500004003291508
  0
LINE
  8
_1-8_小物
  6
CONTINUOUS
 62
    4
 10
83.333333333332803
 20
79.166670669958478
 11
81.666666666666174
 21
79.500004003291508
  0
LINE
  8
_1-8_小物
  6
CONTINUOUS
 62
    4
 10
83.333333333332803
 20
79.833337336625164
 11
81.666666666666174
 21
79.500004003291508
  0
LINE
  8
_1-8_小物
  6
CONTINUOUS
 62
    4
 10
83.333333333332803
 20
81.166670669958194
 11
81.666666666666174
 21
80.833337336624879
  0
LINE
  8
_1-8_小物
  6
CONTINUOUS
 62
    4
 10
83.333333333332803
 20
80.833337336624879
 11
80.666666666665947
 21
80.833337336624879
  0
LINE
  8
_1-8_小物
  6
CONTINUOUS
 62
    4
 10
80.666666666665947
 20
79.666670669958478
 11
80.666666666665947
 21
79.500004003291508
  0
LINE
  8
_1-8_小物
  6
CONTINUOUS
 62
    4
 10
83.333333333332803
 20
77.833337336624879
 11
83.333333333332803
 21
81.166670669958194
  0
ENDBLK
  0
BLOCK
  2
-020-_20_
 70
   64
 10
0
 20
0
 30
0
  0
LINE
  8
_1-4_フレ__ム
  6
CONTINUOUS
 62
    4
 10
84.333333333332803
 20
79.600004003291502
 11
84.233333333333348
 21
79.500004003291593
  0
LINE
  8
_1-4_フレ__ム
  6
CONTINUOUS
 62
    4
 10
84.233333333333348
 20
79.500004003291593
 11
84.333333333333201
 21
79.400004003291315
  0
LINE
  8
_1-4_フレ__ム
  6
CONTINUOUS
 62
    4
 10
84.333333333333201
 20
74.833337336625164
 11
84.333333333333201
 21
79.400004003291315
  0
LINE
  8
_1-4_フレ__ム
  6
CONTINUOUS
 62
    4
 10
84.333333333332803
 20
84.833337336624851
 11
84.333333333332803
 21
79.600004003291502
  0
ARC
  8
_1-4_フレ__ム
  6
CONTINUOUS
 62
    4
 10
86.099999995633823
 20
86.500004003291366
 40
0.1666666666666666
 50
270
 51
90
  0
LINE
  8
_1-4_フレ__ム
  6
CONTINUOUS
 62
    4
 10
85.999999995633857
 20
86.333337336624709
 11
85.999999995633857
 21
83.166670669958194
  0
LINE
  8
_1-4_フレ__ム
  6
CONTINUOUS
 62
    4
 10
85.499999995633857
 20
86.666670669958023
 11
86.099999995633823
 21
86.666670669958023
  0
LINE
  8
_1-4_フレ__ム
  6
CONTINUOUS
 62
    4
 10
85.499999995633857
 20
83.166670669958194
 11
85.999999995633857
 21
83.166670669958194
  0
LINE
  8
_1-4_フレ__ム
  6
CONTINUOUS
 62
    4
 10
85.499999995633857
 20
84.833337336624851
 11
84.333333333332803
 21
84.833337336624851
  0
LINE
  8
_1-4_フレ__ム
  6
CONTINUOUS
 62
    4
 10
85.499999995633857
 20
84.833337336624851
 11
85.499999995633857
 21
83.166670669958194
  0
LINE
  8
_1-4_フレ__ム
  6
CONTINUOUS
 62
    4
 10
85.499999995633857
 20
86.666670669958023
 11
85.499999995633857
 21
85.833337336624851
  0
ARC
  8
_1-4_フレ__ム
  6
CONTINUOUS
 62
    4
 10
84.666666666666686
 20
72.500004003291508
 40
0.1666666666666666
 50
180
 51
270
  0
ARC
  8
_1-4_フレ__ム
  6
CONTINUOUS
 62
    4
 10
84.48333333333369
 20
71.01667066995816
 40
0.4833333333332726
 50
270
 51
90
  0
ARC
  8
_1-4_フレ__ム
  6
CONTINUOUS
 62
    4
 10
84.966666666666811
 20
70.600004003291644
 40
0.5999999999999999
 50
270
 51
0
  0
LINE
  8
_1-4_フレ__ム
  6
CONTINUOUS
 62
    4
 10
83.666666666666231
 20
70.366670669958154
 11
83.666666666666231
 21
70.266670669958245
  0
LINE
  8
_1-4_フレ__ム
  6
CONTINUOUS
 62
    4
 10
84.48333333333369
 20
70.533337336624896
 11
83.833333333333144
 21
70.533337336624811
  0
ARC
  8
_1-4_フレ__ム
  6
CONTINUOUS
 62
    4
 10
83.833333333333144
 20
70.366670669958154
 40
0.1666666666666666
 50
90
 51
180
  0
ARC
  8
_1-4_フレ__ム
  6
CONTINUOUS
 62
    4
 10
83.933333333333337
 20
70.266670669958245
 40
0.2666666666666667
 50
180
 51
270
  0
LINE
  8
_1-4_フレ__ム
  6
CONTINUOUS
 62
    4
 10
83.933333333333337
 20
70.000004003291565
 11
84.966666666666811
 21
70.000004003291593
  0
LINE
  8
_1-4_フレ__ム
  6
CONTINUOUS
 62
    4
 10
83.333333333332803
 20
71.500004003291593
 11
84.48333333333369
 21
71.500004003291593
  0
LINE
  8
_1-4_フレ__ム
  6
CONTINUOUS
 62
    4
 10
85.499999995633857
 20
85.833337336624851
 11
83.333333333332803
 21
85.833337336624851
  0
LINE
  8
_1-4_フレ__ム
  6
CONTINUOUS
 62
    4
 10
83.333333333332803
 20
71.500004003291593
 11
83.333333333332803
 21
85.833337336624851
  0
LINE
  8
_1-4_フレ__ム
  6
CONTINUOUS
 62
    4
 10
84.333333333333201
 20
74.833337336625164
 11
84.5
 21
74.833337336625164
  0
LINE
  8
_1-4_フレ__ム
  6
CONTINUOUS
 62
    4
 10
84.5
 20
72.500004003291508
 11
84.5
 21
74.833337336625164
  0
LINE
  8
_1-4_フレ__ム
  6
CONTINUOUS
 62
    4
 10
85.999999995633857
 20
86.333337336624709
 11
86.099999995633823
 21
86.333337336624709
  0
LINE
  8
_1-4_フレ__ム
  6
CENTER2
 62
    4
 10
85.499999999999545
 20
79.500004003291593
 11
81.666666666666174
 21
79.500004003291593
  0
LINE
  8
_1-4_フレ__ム
  6
CENTER2
 62
    4
 10
84.48333333333369
 20
71.01667066995816
 11
85.316666666666833
 21
71.01667066995816
  0
LINE
  8
_1-4_フレ__ム
  6
CENTER2
 62
    4
 10
84.48333333333369
 20
71.01667066995816
 11
84.48333333333369
 21
71.850004003291644
  0
LINE
  8
_1-4_フレ__ム
  6
CENTER2
 62
    4
 10
84.48333333333369
 20
71.01667066995816
 11
83.650000000000205
 21
71.01667066995816
  0
LINE
  8
_1-4_フレ__ム
  6
CENTER2
 62
    4
 10
84.48333333333369
 20
71.01667066995816
 11
84.48333333333369
 21
70.18333733662476
  0
LINE
  8
_1-4_フレ__ム
  6
DASHED1
 62
    4
 10
84.333333333333201
 20
82.000004003291906
 11
83.333333333332803
 21
82.000004003291906
  0
LINE
  8
_1-4_フレ__ム
  6
DASHED1
 62
    4
 10
84.333333333333201
 20
77.000004003291906
 11
83.333333333332803
 21
77.000004003291906
  0
LINE
  8
_1-4_フレ__ム
  6
DASHED1
 62
    4
 10
84.499999999999773
 20
73.333337336624936
 11
83.333333333332803
 21
73.333337336624936
  0
LINE
  8
_1-4_フレ__ム
  6
CONTINUOUS
 62
    4
 10
85.466666666666697
 20
72.333337336624993
 11
84.666666666666686
 21
72.333337336624993
  0
LINE
  8
_1-4_フレ__ム
  6
CONTINUOUS
 62
    4
 10
85.56666666666672
 20
70.600004003291644
 11
85.56666666666672
 21
72.23333733662497
  0
ARC
  8
_1-4_フレ__ム
  6
CONTINUOUS
 62
    4
 10
85.466666666666697
 20
72.23333733662497
 40
0.0999999999999999
 50
0
 51
90
  0
ENDBLK
  0
BLOCK
  2
-021-_21_
 70
   64
 10
0
 20
0
 30
0
  0
LINE
  8
_1-8_小物
  6
CONTINUOUS
 62
    4
 10
84.730313555191003
 20
73.127781784341579
 11
84.629306961543477
 21
73.214818821386302
  0
ARC
  8
_1-8_小物
  6
CONTINUOUS
 62
    4
 10
85.433333333333451
 20
70.133337336624919
 40
0.1333333333333333
 50
270
 51
359.99999849072555
  0
ARC
  8
_1-8_小物
  6
CONTINUOUS
 62
    4
 10
85.433333333333451
 20
70.133337336624919
 40
0.2666666666666666
 50
270
 51
359.99999849072555
  0
ARC
  8
_1-8_小物
  6
CONTINUOUS
 62
    4
 10
83.800000000000068
 20
70.133337336624919
 40
0.2666666666666666
 50
180
 51
270
  0
ARC
  8
_1-8_小物
  6
CONTINUOUS
 62
    4
 10
83.293988670433407
 20
70.866670669958268
 40
0.5
 50
323.03140579855119
 51
41.810314895802605
  0
ARC
  8
_1-8_小物
  6
CONTINUOUS
 62
    4
 10
83.800000000000068
 20
70.485798453291579
 40
0.1333333333333333
 50
143.03140197500721
 51
179.99999849072555
  0
LINE
  8
_1-8_小物
  6
CONTINUOUS
 62
    4
 10
83.533333333333417
 20
70.489429173458291
 11
83.533333333333417
 21
70.133337336624919
  0
ARC
  8
_1-8_小物
  6
CONTINUOUS
 62
    4
 10
83.800000000000068
 20
70.133337336624919
 40
0.1333333333333333
 50
180
 51
270
  0
ARC
  8
_1-8_小物
  6
CONTINUOUS
 62
    4
 10
83.25033346676679
 20
70.866670669958268
 40
0.3999999999999999
 50
325.53781142994416
 51
37.637863116802919
  0
LINE
  8
_1-8_小物
  6
CONTINUOUS
 62
    4
 10
83.666666666666742
 20
70.485798456791628
 11
83.666666666666742
 21
70.133337336624919
  0
ARC
  8
_1-8_小物
  6
CONTINUOUS
 62
    4
 10
83.800000000000068
 20
70.489429173458291
 40
0.2666666666666666
 50
145.53781142990746
 51
180
  0
LINE
  8
_1-8_小物
  6
CONTINUOUS
 62
    4
 10
83.666666666666742
 20
71.20000400329161
 11
83.567087972566753
 21
71.110938111658271
  0
LINE
  8
_1-8_小物
  6
CONTINUOUS
 62
    4
 10
83.800000000000068
 20
69.866670669958268
 11
85.433333333333451
 21
69.866670669958268
  0
LINE
  8
_1-8_小物
  6
CONTINUOUS
 62
    4
 10
83.800000000000068
 20
70.000004003291622
 11
85.433333333333451
 21
70.000004003291622
  0
ARC
  8
_1-8_小物
  6
CONTINUOUS
 62
    4
 10
85.033333333333417
 20
72.866670669958268
 40
0.5333333333333333
 50
90
 51
270.00000867010863
  0
ARC
  8
_1-8_小物
  6
CONTINUOUS
 62
    4
 10
85.033333333333417
 20
72.866670669958268
 40
0.3999999999999999
 50
90.0000000000977
 51
270.0000018823917
  0
LINE
  8
_1-8_小物
  6
CONTINUOUS
 62
    4
 10
85.033333333333417
 20
73.266670669958273
 11
85.033333333333417
 21
73.400004003291599
  0
LINE
  8
_1-8_小物
  6
CONTINUOUS
 62
    4
 10
84.500000000000057
 20
74.333337336624965
 11
84.633333333333383
 21
74.333337336624965
  0
LINE
  8
_1-8_小物
  6
DASHED1
 62
    4
 10
85.700000000000102
 20
71.750003996218652
 11
85.566666666666777
 21
71.750003996218652
  0
LINE
  8
_1-8_小物
  6
CONTINUOUS
 62
    4
 10
84.633333333333383
 20
73.833337336624965
 11
84.500000000000057
 21
73.833337336624965
  0
LINE
  8
_1-8_小物
  6
CONTINUOUS
 62
    4
 10
84.633333333333383
 20
74.333337336624965
 11
84.633333333333383
 21
73.219437511433512
  0
LINE
  8
_1-8_小物
  6
CONTINUOUS
 62
    4
 10
84.633333333333383
 20
72.513903828483024
 11
84.633333333333383
 21
72.336704687105964
  0
LINE
  8
_1-8_小物
  6
CONTINUOUS
 62
    4
 10
84.500000000000057
 20
74.333337336624965
 11
84.500000000000057
 21
72.500004003291508
  0
ARC
  8
_1-8_小物
  6
CONTINUOUS
 62
    4
 10
84.200000000000102
 20
71.436442194975172
 40
0.1333333333333333
 50
151.52902134424266
 51
180
  0
LINE
  8
_1-8_小物
  6
CONTINUOUS
 62
    4
 10
84.06666666666672
 20
71.436442194975172
 11
84.06666666666672
 21
70.533337336624896
  0
LINE
  8
_1-8_小物
  6
CONTINUOUS
 62
    4
 10
83.933333333333451
 20
71.500004003291593
 11
83.933333333333451
 21
70.533337336624896
  0
LINE
  8
_1-8_小物
  6
CONTINUOUS
 62
    4
 10
85.033333333333417
 20
72.466670669958262
 11
85.466666666666754
 21
72.466670669958262
  0
LINE
  8
_1-8_小物
  6
CONTINUOUS
 62
    4
 10
85.700000000000102
 20
70.133337329624908
 11
85.700000000000102
 21
72.233337336624913
  0
ARC
  8
_1-8_小物
  6
CONTINUOUS
 62
    4
 10
85.466666666666754
 20
72.233337336624913
 40
0.2333333333333333
 50
0
 51
90
  0
LINE
  8
_1-8_小物
  6
CONTINUOUS
 62
    4
 10
85.033333333333417
 20
72.333337336624965
 11
85.466666666666811
 21
72.333337336624965
  0
LINE
  8
_1-8_小物
  6
CONTINUOUS
 62
    4
 10
85.566666666666777
 20
70.133337333124956
 11
85.566666666666777
 21
72.23333733662497
  0
ARC
  8
_1-8_小物
  6
CONTINUOUS
 62
    4
 10
85.466666666666811
 20
72.23333733662497
 40
0.0999999999999999
 50
0
 51
90
  0
ENDBLK
  0
BLOCK
  2
-022-_22_
 70
   64
 10
0
 20
0
 30
0
  0
LINE
  8
_1-8_小物
  6
CONTINUOUS
 62
    4
 10
84.833333333332973
 20
76.500004003291224
 11
84.833333333332973
 21
82.500004003291565
  0
LINE
  8
_1-8_小物
  6
CONTINUOUS
 62
    4
 10
84.333333333332973
 20
76.500004003291224
 11
84.333333333332973
 21
82.500004003291565
  0
LINE
  8
_1-8_小物
  6
CONTINUOUS
 62
    4
 10
84.833333333332973
 20
76.500004003291224
 11
84.333333333332973
 21
76.500004003291224
  0
LINE
  8
_1-8_小物
  6
CONTINUOUS
 62
    4
 10
84.833333333332973
 20
82.500004003291565
 11
84.333333333332973
 21
82.500004003291565
  0
LINE
  8
_1-8_小物
  6
CONTINUOUS
 62
    4
 10
84.833333333332973
 20
78.000004003291224
 11
85.248292938333009
 21
78.036308264558102
  0
LINE
  8
_1-8_小物
  6
CONTINUOUS
 62
    4
 10
85.248292938333009
 20
80.963699742058111
 11
84.833333333332973
 21
81.000004003291224
  0
ARC
  8
_1-8_小物
  6
CONTINUOUS
 62
    4
 10
85.219531543232904
 20
80.634955491658388
 40
0.3299999999999999
 50
37.367558032050525
 51
85.000000001203631
  0
ARC
  8
_1-8_小物
  6
CONTINUOUS
 62
    4
 10
85.219531543232904
 20
78.365052514924741
 40
0.3299999999999999
 50
274.99999999879594
 51
322.63244196794557
  0
ARC
  8
_1-8_小物
  6
CONTINUOUS
 62
    4
 10
83.733333333332951
 20
79.500004003291565
 40
2.1999999999999997
 50
322.63244196770438
 51
338.26638354339775
  0
ARC
  8
_1-8_小物
  6
CONTINUOUS
 62
    4
 10
83.733333333332951
 20
79.500004003291565
 40
2.1999999999999997
 50
21.74840859090288
 51
37.367558032305141
  0
LINE
  8
_1-8_小物
  6
CONTINUOUS
 62
    4
 10
85.919709043199703
 20
79.395004003291433
 11
85.774437413199564
 21
79.395004003291433
  0
LINE
  8
_1-8_小物
  6
CONTINUOUS
 62
    4
 10
85.919709043199703
 20
79.279241109324403
 11
85.919709043199703
 21
79.395004003291433
  0
LINE
  8
_1-8_小物
  6
CONTINUOUS
 62
    4
 10
85.774437413199564
 20
78.685836247124826
 11
85.919709043199703
 21
79.279241109324403
  0
LINE
  8
_1-8_小物
  6
CONTINUOUS
 62
    4
 10
85.919709043199703
 20
79.720766897291469
 11
85.831230436066392
 21
80.154070319858192
  0
LINE
  8
_1-8_小物
  6
CONTINUOUS
 62
    4
 10
85.831230436066392
 20
80.154070319858192
 11
85.774437413199564
 21
80.314171759491046
  0
LINE
  8
_1-8_小物
  6
CONTINUOUS
 62
    4
 10
85.919709043199703
 20
79.605004003291469
 11
85.919709043199703
 21
79.720766897291469
  0
LINE
  8
_1-8_小物
  6
CONTINUOUS
 62
    4
 10
85.774437413199564
 20
79.605004003291469
 11
85.919709043199703
 21
79.605004003291469
  0
LINE
  8
_1-8_小物
  6
CONTINUOUS
 62
    4
 10
85.774437413199564
 20
79.395004003291433
 11
85.776139137999678
 21
79.500004003291565
  0
LINE
  8
_1-8_小物
  6
CONTINUOUS
 62
    4
 10
85.776139137999678
 20
79.500004003291565
 11
85.774437413199564
 21
79.605004003291469
  0
LINE
  8
_1-8_小物
  6
CONTINUOUS
 62
    4
 10
85.248292938333009
 20
78.036308264558102
 11
85.248292938333009
 21
80.963699742058111
  0
LINE
  8
_1-8_小物
  6
CONTINUOUS
 62
    4
 10
85.481801815566371
 20
79.500004003291565
 11
85.481801815566371
 21
80.835241048458215
  0
LINE
  8
_1-8_小物
  6
CONTINUOUS
 62
    4
 10
85.481801815566371
 20
78.164766958157998
 11
85.481801815566371
 21
79.500004003291565
  0
ENDBLK
  0
BLOCK
  2
-023-_23_
 70
   64
 10
0
 20
0
 30
0
  0
LINE
  8
_1-5_ア__ム
  6
CONTINUOUS
 62
    4
 10
90.83333333333303
 20
75.666666648033299
 11
90.83333333333303
 21
72.000000093133536
  0
ARC
  8
_1-5_ア__ム
  6
CONTINUOUS
 62
    4
 10
92.499999999999659
 20
72.000000093133536
 40
1.6666666666666665
 50
180
 51
270
  0
LINE
  8
_1-5_ア__ム
  6
DASHED1
 62
    4
 10
94.833333333332916
 20
74.733333347966806
 11
94.833333333332916
 21
73.999995060201968
  0
LINE
  8
_1-5_ア__ム
  6
DASHED1
 62
    4
 10
100.16666666666663
 20
74.733333347966806
 11
100.16666666666663
 21
73.999995060201968
  0
LINE
  8
_1-5_ア__ム
  6
DASHED1
 62
    4
 10
104.06666666666592
 20
74.733333347966806
 11
104.06666666666592
 21
73.999995060201968
  0
LINE
  8
_1-5_ア__ム
  6
DASHED1
 62
    4
 10
106.86666666666588
 20
74.733333347966806
 11
106.86666666666588
 21
73.999995060201968
  0
LINE
  8
_1-5_ア__ム
  6
DASHED1
 62
    4
 10
105.53333333333251
 20
74.733333347966806
 11
105.53333333333251
 21
73.999995060201968
  0
LINE
  8
_1-5_ア__ム
  6
DASHED1
 62
    4
 10
112.73333333333267
 20
73.999995060201968
 11
112.73333333333267
 21
74.733333347966806
  0
LINE
  8
_1-5_ア__ム
  6
CONTINUOUS
 62
    4
 10
131.49999999999966
 20
75.666666666666742
 11
131.49999999999966
 21
72.000000093133536
  0
ARC
  8
_1-5_ア__ム
  6
CONTINUOUS
 62
    4
 10
129.83333333333292
 20
72.000000093133536
 40
1.6666666666666665
 50
270
 51
0
  0
LINE
  8
_1-5_ア__ム
  6
CONTINUOUS
 62
    4
 10
90.83333333333303
 20
75.666666666666742
 11
131.49999999999966
 21
75.666666666666742
  0
LINE
  8
_1-5_ア__ム
  6
DASHED1
 62
    4
 10
90.83333333333303
 20
74.733333347966806
 11
131.49999999999966
 21
74.733333347966806
  0
LINE
  8
_1-5_ア__ム
  6
DASHED1
 62
    4
 10
90.83333333333303
 20
73.999995060201968
 11
131.49999999999966
 21
73.999995060201968
  0
LINE
  8
_1-5_ア__ム
  6
CONTINUOUS
 62
    4
 10
92.499999999999659
 20
70.333333426466879
 11
129.83333333333292
 21
70.333333426466879
  0
ENDBLK
  0
BLOCK
  2
-024-_24_
 70
   64
 10
0
 20
0
 30
0
  0
LINE
  8
_1-7_カバ__
  6
CONTINUOUS
 62
    4
 10
90.83333333333303
 20
90.666660313740863
 11
90.83333333333303
 21
75.666666666666742
  0
LINE
  8
_1-7_カバ__
  6
CONTINUOUS
 62
    4
 10
90.83333333333303
 20
75.666666666666742
 11
135.8333333376998
 21
75.666666666666742
  0
LINE
  8
_1-7_カバ__
  6
CONTINUOUS
 62
    4
 10
91.333333333333371
 20
76.166666666666629
 11
91.333333333333371
 21
91.166660313740806
  0
LINE
  8
_1-7_カバ__
  6
CENTER2
 62
    4
 10
113.8333333376998
 20
77.833333333333314
 11
113.8333333376998
 21
74.000000000000057
  0
LINE
  8
_1-7_カバ__
  6
CONTINUOUS
 62
    4
 10
113.8333333376998
 20
76.095955988547985
 11
113.90404401581839
 21
76.166666666666629
  0
LINE
  8
_1-7_カバ__
  6
CONTINUOUS
 62
    4
 10
113.8333333376998
 20
76.095955988547985
 11
113.76262265958104
 21
76.166666666666629
  0
LINE
  8
_1-7_カバ__
  6
CONTINUOUS
 62
    4
 10
91.333333333333371
 20
76.166666666666629
 11
113.76262265958104
 21
76.166666666666629
  0
LINE
  8
_1-7_カバ__
  6
CONTINUOUS
 62
    4
 10
113.90404401581839
 20
76.166666666666629
 11
136.3333333376998
 21
76.166666666666629
  0
LINE
  8
_1-7_カバ__
  6
DASHED1
 62
    4
 10
114.5833333376998
 20
75.833333333333371
 11
114.91666667103306
 21
76.166666666666629
  0
LINE
  8
_1-7_カバ__
  6
DASHED1
 62
    4
 10
113.08333333769974
 20
75.833333333333371
 11
112.75000000436648
 21
76.166666666666629
  0
LINE
  8
_1-7_カバ__
  6
DASHED1
 62
    4
 10
114.5833333376998
 20
75.833333333333371
 11
114.5833333376998
 21
75.666666666666742
  0
LINE
  8
_1-7_カバ__
  6
DASHED1
 62
    4
 10
113.08333333769974
 20
75.833333333333371
 11
113.08333333769974
 21
75.666666666666742
  0
LINE
  8
_1-7_カバ__
  6
DASHED1
 62
    4
 10
113.08333333769974
 20
75.833333333333371
 11
114.5833333376998
 21
75.833333333333371
  0
LINE
  8
_1-7_カバ__
  6
CONTINUOUS
 62
    4
 10
136.3333333376998
 20
76.166666666666629
 11
136.3333333376998
 21
71.5
  0
LINE
  8
_1-7_カバ__
  6
CONTINUOUS
 62
    4
 10
91.333333333333258
 20
91.166660313740806
 11
86.666666666666288
 21
91.166660313740806
  0
LINE
  8
_1-7_カバ__
  6
CONTINUOUS
 62
    4
 10
90.83333333333303
 20
90.666660313740863
 11
87.166666666666629
 21
90.666660313740863
  0
LINE
  8
_1-7_カバ__
  6
CONTINUOUS
 62
    4
 10
135.8333333376998
 20
75.666666666666742
 11
135.8333333376998
 21
72
  0
LINE
  8
_1-7_カバ__
  6
CONTINUOUS
 62
    4
 10
135.8333333376998
 20
72
 11
133.00000000436648
 21
72
  0
LINE
  8
_1-7_カバ__
  6
CONTINUOUS
 62
    4
 10
133.00000000436648
 20
72
 11
133.00000000436648
 21
71.5
  0
LINE
  8
_1-7_カバ__
  6
CONTINUOUS
 62
    4
 10
136.3333333376998
 20
71.5
 11
133.00000000436648
 21
71.5
  0
LINE
  8
_1-7_カバ__
  6
CONTINUOUS
 62
    4
 10
86.666666666666288
 20
91.166660313740806
 11
86.666666666666288
 21
87.833326980407605
  0
LINE
  8
_1-7_カバ__
  6
CONTINUOUS
 62
    4
 10
87.166666666666629
 20
87.833326980407605
 11
86.666666666666288
 21
87.833326980407605
  0
LINE
  8
_1-7_カバ__
  6
CONTINUOUS
 62
    4
 10
87.166666666666629
 20
90.666660313740863
 11
87.166666666666629
 21
87.833326980407605
  0
ENDBLK
  0
BLOCK
  2
-025-_25_
 70
   64
 10
0
 20
0
 30
0
  0
ARC
  8
_1-8_小物
  6
CONTINUOUS
 62
    4
 10
133.00000000436648
 20
71.599999999999966
 40
0.0999999999999999
 50
179.99999999996743
 51
270
  0
ARC
  8
_1-8_小物
  6
CONTINUOUS
 62
    4
 10
135.66666667103311
 20
70.833333333333314
 40
0.1666666666666666
 50
0
 51
90
  0
ARC
  8
_1-8_小物
  6
CONTINUOUS
 62
    4
 10
135.66666667103311
 20
70.833333333333314
 40
0.6666666666666666
 50
0
 51
90
  0
ARC
  8
_1-8_小物
  6
CONTINUOUS
 62
    4
 10
133.06666667103315
 20
71.5
 40
0.5
 50
180
 51
270
  0
ARC
  8
_1-8_小物
  6
CONTINUOUS
 62
    4
 10
135.01976097864997
 20
72.166654228369737
 40
0.3333333333333333
 50
265.47574222621506
 51
355.47574222621506
  0
LINE
  8
_1-8_小物
  6
CONTINUOUS
 62
    4
 10
132.90000000436646
 20
71.891785503129995
 11
132.90000000436646
 21
71.599999999999966
  0
ARC
  8
_1-8_小物
  6
CONTINUOUS
 62
    4
 10
133.00000000436648
 20
71.891785503129995
 40
0.0999999999999999
 50
85.475742226227297
 51
180
  0
LINE
  8
_1-8_小物
  6
CONTINUOUS
 62
    4
 10
135.66666667103311
 20
71.5
 11
133.00000000436648
 21
71.5
  0
LINE
  8
_1-8_小物
  6
CONTINUOUS
 62
    4
 10
134.99346725812586
 20
71.834359552860093
 11
133.00788812052366
 21
71.991473905782897
  0
ARC
  8
_1-8_小物
  6
CONTINUOUS
 62
    4
 10
134.80556031015988
 20
72.41766610559344
 40
0.1666666666666666
 50
265.47574222623456
 51
355.47574222620534
  0
LINE
  8
_1-8_小物
  6
CONTINUOUS
 62
    4
 10
134.79241344989794
 20
72.251518767838547
 11
132.92629372489046
 21
72.399180569636655
  0
LINE
  8
_1-8_小物
  6
CONTINUOUS
 62
    4
 10
132.56666667103315
 20
72.066885894126926
 11
132.56666667103315
 21
71.5
  0
ARC
  8
_1-8_小物
  6
CONTINUOUS
 62
    4
 10
132.90000000436646
 20
72.066885894126926
 40
0.3333333333333333
 50
85.47574222621509
 51
180
  0
LINE
  8
_1-8_小物
  6
CONTINUOUS
 62
    4
 10
135.3520556541597
 20
72.140360507845799
 11
135.37572000263128
 21
72.43942571580456
  0
LINE
  8
_1-8_小物
  6
CONTINUOUS
 62
    4
 10
134.97170764791474
 20
72.404519245331414
 11
134.97696639201968
 21
72.470978180433349
  0
ARC
  8
_1-8_小物
  6
CONTINUOUS
 62
    4
 10
135.17634319732548
 20
72.45520194811894
 40
0.1999999999999963
 50
355.47574222621921
 51
175.47574222620301
  0
LINE
  8
_1-8_小物
  6
CONTINUOUS
 62
    4
 10
133.56666667103315
 20
70.833333333333314
 11
133.40000000436646
 21
71
  0
LINE
  8
_1-8_小物
  6
CONTINUOUS
 62
    4
 10
133.56666667103315
 20
70.833333333333314
 11
133.73333333769972
 21
71
  0
LINE
  8
_1-8_小物
  6
CONTINUOUS
 62
    4
 10
135.66666667103311
 20
71
 11
133.73333333769972
 21
71
  0
LINE
  8
_1-8_小物
  6
CONTINUOUS
 62
    4
 10
133.40000000436646
 20
71
 11
133.06666667103315
 21
71
  0
ARC
  8
_1-8_小物
  6
CONTINUOUS
 62
    4
 10
135.4213108618884
 20
67.374662926789512
 40
0.4999999999999946
 50
190.63980919808901
 51
350.6398091980854
  0
LINE
  8
_1-8_小物
  6
CONTINUOUS
 62
    4
 10
135.8333333376998
 20
69.874265946711716
 11
135.45205685631402
 21
67.561188626304585
  0
ARC
  8
_1-8_小物
  6
CONTINUOUS
 62
    4
 10
135.41916734289407
 20
67.566609974670541
 40
0.0333333333333333
 50
190.63980919810578
 51
350.63980919806494
  0
ARC
  8
_1-8_小物
  6
CONTINUOUS
 62
    4
 10
134.94481622234787
 20
68.557013491761268
 40
0.25
 50
10.639809198086599
 51
190.63980919808657
  0
LINE
  8
_1-8_小物
  6
CONTINUOUS
 62
    4
 10
134.69911439679402
 20
68.510854928963909
 11
134.92990721078081
 21
67.282345801194793
  0
LINE
  8
_1-8_小物
  6
CONTINUOUS
 62
    4
 10
136.3333333376998
 20
69.833333333333314
 11
135.91465356318895
 21
67.293342701300418
  0
LINE
  8
_1-8_小物
  6
CONTINUOUS
 62
    4
 10
135.19051804790166
 20
68.603172054558627
 11
135.38640709948686
 21
67.560455499630876
  0
LINE
  8
_1-8_小物
  6
CONTINUOUS
 62
    4
 10
135.8333333376998
 20
70.833333333333314
 11
135.8333333376998
 21
69.874265946711716
  0
LINE
  8
_1-8_小物
  6
CONTINUOUS
 62
    4
 10
136.3333333376998
 20
70.833333333333314
 11
136.3333333376998
 21
69.833333333333314
  0
ENDBLK
  0
BLOCK
  2
-026-_26_
 70
   64
 10
0
 20
0
 30
0
  0
ARC
  8
_1-8_小物
  6
CONTINUOUS
 62
    4
 10
86.766666666666254
 20
87.833326980407605
 40
0.0999999999999999
 50
180
 51
270
  0
ARC
  8
_1-8_小物
  6
CONTINUOUS
 62
    4
 10
85.999999999999773
 20
90.499993647074291
 40
0.1666666666666666
 50
0
 51
90
  0
ARC
  8
_1-8_小物
  6
CONTINUOUS
 62
    4
 10
85.999999999999773
 20
90.499993647074291
 40
0.6666666666666666
 50
0
 51
89.999999999995111
  0
ARC
  8
_1-8_小物
  6
CONTINUOUS
 62
    4
 10
86.666666666666288
 20
87.899993647074268
 40
0.5
 50
179.99999999999349
 51
270
  0
ARC
  8
_1-8_小物
  6
CONTINUOUS
 62
    4
 10
87.333320895036195
 20
89.853087954691091
 40
0.3333333333333333
 50
94.524257773784925
 51
184.52425777378491
  0
LINE
  8
_1-8_小物
  6
CONTINUOUS
 62
    4
 10
87.058452169796283
 20
87.733326980407611
 11
86.766666666666254
 21
87.733326980407611
  0
ARC
  8
_1-8_小物
  6
CONTINUOUS
 62
    4
 10
87.058452169796283
 20
87.833326980407605
 40
0.0999999999999999
 50
270
 51
4.524257773773968
  0
LINE
  8
_1-8_小物
  6
CONTINUOUS
 62
    4
 10
86.666666666666401
 20
90.499993647074263
 11
86.666666666666288
 21
87.833326980407605
  0
LINE
  8
_1-8_小物
  6
CONTINUOUS
 62
    4
 10
87.001026219526523
 20
89.826794234167011
 11
87.158140572449213
 21
87.841215096564781
  0
ARC
  8
_1-8_小物
  6
CONTINUOUS
 62
    4
 10
87.58433277225987
 20
89.638887286200998
 40
0.1666666666666666
 50
94.524257773784925
 51
184.52425777376544
  0
LINE
  8
_1-8_小物
  6
CONTINUOUS
 62
    4
 10
87.418185434504949
 20
89.625740425939057
 11
87.565847236302943
 21
87.759620700931521
  0
LINE
  8
_1-8_小物
  6
CONTINUOUS
 62
    4
 10
87.233552560793214
 20
87.399993647074268
 11
86.666666666666288
 21
87.399993647074268
  0
ARC
  8
_1-8_小物
  6
CONTINUOUS
 62
    4
 10
87.233552560793214
 20
87.733326980407611
 40
0.3333333333333333
 50
270
 51
4.5242577737800502
  0
LINE
  8
_1-8_小物
  6
CONTINUOUS
 62
    4
 10
87.3070271745122
 20
90.185382630200849
 11
87.60609238247099
 21
90.209046978672404
  0
LINE
  8
_1-8_小物
  6
CONTINUOUS
 62
    4
 10
87.571185911997873
 20
89.805034623955862
 11
87.63764484709975
 21
89.810293368060741
  0
ARC
  8
_1-8_小物
  6
CONTINUOUS
 62
    4
 10
87.621868614785399
 20
90.009670173366572
 40
0.1999999999999963
 50
274.52425777377204
 51
94.524257773788293
  0
LINE
  8
_1-8_小物
  6
CONTINUOUS
 62
    4
 10
85.999999999999659
 20
88.399993647074325
 11
86.166666666666345
 21
88.233326980407639
  0
LINE
  8
_1-8_小物
  6
CONTINUOUS
 62
    4
 10
85.999999999999659
 20
88.399993647074325
 11
86.166666666666345
 21
88.566660313740897
  0
LINE
  8
_1-8_小物
  6
CONTINUOUS
 62
    4
 10
86.166666666666401
 20
90.499993647074291
 11
86.166666666666345
 21
88.566660313740897
  0
LINE
  8
_1-8_小物
  6
CONTINUOUS
 62
    4
 10
86.166666666666345
 20
88.233326980407639
 11
86.166666666666288
 21
87.899993647074325
  0
ARC
  8
_1-8_小物
  6
CONTINUOUS
 62
    4
 10
82.541329593455941
 20
90.254637837929806
 40
0.4999999999999946
 50
99.360190801908175
 51
259.36019080191159
  0
LINE
  8
_1-8_小物
  6
CONTINUOUS
 62
    4
 10
85.040932613378175
 20
90.666660313741033
 11
82.727855292971071
 21
90.285383832355393
  0
ARC
  8
_1-8_小物
  6
CONTINUOUS
 62
    4
 10
82.733276641337
 20
90.252494318935419
 40
0.0333333333333333
 50
99.360190801902732
 51
259.36019080193319
  0
ARC
  8
_1-8_小物
  6
CONTINUOUS
 62
    4
 10
83.723680158427669
 20
89.778143198389216
 40
0.25
 50
259.36019080189942
 51
79.360190801911017
  0
LINE
  8
_1-8_小物
  6
CONTINUOUS
 62
    4
 10
83.67752159563031
 20
89.532441372835365
 11
82.449012467861223
 21
89.763234186822189
  0
LINE
  8
_1-8_小物
  6
CONTINUOUS
 62
    4
 10
84.999999999999829
 20
91.166660313741033
 11
82.460009367966904
 21
90.747980539230326
  0
LINE
  8
_1-8_小物
  6
CONTINUOUS
 62
    4
 10
83.769838721225028
 20
90.023845023942982
 11
82.727122166297306
 21
90.219734075528208
  0
LINE
  8
_1-8_小物
  6
CONTINUOUS
 62
    4
 10
85.999999999999773
 20
90.666660313740977
 11
85.040932613378175
 21
90.666660313741033
  0
LINE
  8
_1-8_小物
  6
CONTINUOUS
 62
    4
 10
85.999999999999829
 20
91.166660313740977
 11
84.999999999999829
 21
91.166660313741033
  0
ENDBLK
  0
BLOCK
  2
-027-_27_
 70
   64
 10
0
 20
0
 30
0
  0
LINE
  8
_1-8_小物
  6
CONTINUOUS
 62
    4
 10
112.83333333551627
 20
76.166666685300072
 11
114.83333333551627
 21
76.166666685300072
  0
LINE
  8
_1-8_小物
  6
CONTINUOUS
 62
    4
 10
114.83333333551627
 20
76.166666685300072
 11
114.83333333551627
 21
76.100000018633409
  0
LINE
  8
_1-8_小物
  6
CONTINUOUS
 62
    4
 10
112.8333333355165
 20
76.100000018633409
 11
113.3333333355165
 21
75.600000018633409
  0
LINE
  8
_1-8_小物
  6
CONTINUOUS
 62
    4
 10
113.3333333355165
 20
75.600000018633409
 11
114.33333333551627
 21
75.600000018633409
  0
LINE
  8
_1-8_小物
  6
CONTINUOUS
 62
    4
 10
114.83333333551627
 20
76.100000018633409
 11
114.33333333551627
 21
75.600000018633409
  0
LINE
  8
_1-8_小物
  6
CONTINUOUS
 62
    4
 10
112.8333333355165
 20
76.100000018633409
 11
112.8333333355165
 21
76.166666685300072
  0
LINE
  8
_1-8_小物
  6
CONTINUOUS
 62
    4
 10
114.83333333551627
 20
76.100000018633409
 11
112.8333333355165
 21
76.100000018633409
  0
LINE
  8
_1-8_小物
  6
CONTINUOUS
 62
    4
 10
114.33333333551627
 20
72.535753340457745
 11
114.52083333551627
 21
72.427500018633452
  0
LINE
  8
_1-8_小物
  6
CONTINUOUS
 62
    4
 10
114.52083333551627
 20
72.427500018633452
 11
114.33333333551627
 21
72.319246696809188
  0
LINE
  8
_1-8_小物
  6
CONTINUOUS
 62
    4
 10
114.33333333551627
 20
72.535753340457745
 11
113.33333333551639
 21
72.30075334045776
  0
LINE
  8
_1-8_小物
  6
CONTINUOUS
 62
    4
 10
113.14583333551627
 20
72.192500018633496
 11
113.33333333551639
 21
72.30075334045776
  0
LINE
  8
_1-8_小物
  6
CONTINUOUS
 62
    4
 10
113.33333333551639
 20
72.084246696809203
 11
113.14583333551627
 21
72.192500018633496
  0
LINE
  8
_1-8_小物
  6
CONTINUOUS
 62
    4
 10
114.33333333551627
 20
72.319246696809188
 11
113.33333333551639
 21
72.084246696809203
  0
LINE
  8
_1-8_小物
  6
CONTINUOUS
 62
    4
 10
114.52083333551627
 20
72.427500018633452
 11
113.14583333551627
 21
72.192500018633496
  0
LINE
  8
_1-8_小物
  6
CONTINUOUS
 62
    4
 10
114.33333333551627
 20
73.005753340457716
 11
114.52083333551627
 21
72.897500018633451
  0
LINE
  8
_1-8_小物
  6
CONTINUOUS
 62
    4
 10
114.52083333551627
 20
72.897500018633451
 11
114.33333333551627
 21
72.789246696809187
  0
LINE
  8
_1-8_小物
  6
CONTINUOUS
 62
    4
 10
114.33333333551627
 20
73.005753340457716
 11
113.33333333551639
 21
72.770753340457759
  0
LINE
  8
_1-8_小物
  6
CONTINUOUS
 62
    4
 10
113.14583333551627
 20
72.662500018633466
 11
113.33333333551639
 21
72.770753340457759
  0
LINE
  8
_1-8_小物
  6
CONTINUOUS
 62
    4
 10
113.33333333551639
 20
72.554246696809201
 11
113.14583333551627
 21
72.662500018633466
  0
LINE
  8
_1-8_小物
  6
CONTINUOUS
 62
    4
 10
114.33333333551627
 20
72.789246696809187
 11
113.33333333551639
 21
72.554246696809201
  0
LINE
  8
_1-8_小物
  6
CONTINUOUS
 62
    4
 10
114.52083333551627
 20
72.897500018633451
 11
113.14583333551627
 21
72.662500018633466
  0
LINE
  8
_1-8_小物
  6
CONTINUOUS
 62
    4
 10
114.33333333551627
 20
73.475753340457715
 11
114.52083333551627
 21
73.36750001863345
  0
LINE
  8
_1-8_小物
  6
CONTINUOUS
 62
    4
 10
114.52083333551627
 20
73.36750001863345
 11
114.33333333551627
 21
73.259246696809157
  0
LINE
  8
_1-8_小物
  6
CONTINUOUS
 62
    4
 10
114.33333333551627
 20
73.475753340457715
 11
113.33333333551639
 21
73.240753340457729
  0
LINE
  8
_1-8_小物
  6
CONTINUOUS
 62
    4
 10
113.14583333551627
 20
73.132500018633465
 11
113.33333333551639
 21
73.240753340457729
  0
LINE
  8
_1-8_小物
  6
CONTINUOUS
 62
    4
 10
113.33333333551639
 20
73.0242466968092
 11
113.14583333551627
 21
73.132500018633465
  0
LINE
  8
_1-8_小物
  6
CONTINUOUS
 62
    4
 10
114.33333333551627
 20
73.259246696809157
 11
113.33333333551639
 21
73.0242466968092
  0
LINE
  8
_1-8_小物
  6
CONTINUOUS
 62
    4
 10
114.52083333551627
 20
73.36750001863345
 11
113.14583333551627
 21
73.132500018633465
  0
LINE
  8
_1-8_小物
  6
CONTINUOUS
 62
    4
 10
114.33333333551627
 20
73.945753340457713
 11
114.52083333551627
 21
73.83750001863342
  0
LINE
  8
_1-8_小物
  6
CONTINUOUS
 62
    4
 10
114.52083333551627
 20
73.83750001863342
 11
114.33333333551627
 21
73.729246696809156
  0
LINE
  8
_1-8_小物
  6
CONTINUOUS
 62
    4
 10
114.33333333551627
 20
73.945753340457713
 11
113.33333333551639
 21
73.710753340457728
  0
LINE
  8
_1-8_小物
  6
CONTINUOUS
 62
    4
 10
113.14583333551627
 20
73.602500018633464
 11
113.33333333551639
 21
73.710753340457728
  0
LINE
  8
_1-8_小物
  6
CONTINUOUS
 62
    4
 10
113.33333333551639
 20
73.494246696809171
 11
113.14583333551627
 21
73.602500018633464
  0
LINE
  8
_1-8_小物
  6
CONTINUOUS
 62
    4
 10
114.33333333551627
 20
73.729246696809156
 11
113.33333333551639
 21
73.494246696809171
  0
LINE
  8
_1-8_小物
  6
CONTINUOUS
 62
    4
 10
114.52083333551627
 20
73.83750001863342
 11
113.14583333551627
 21
73.602500018633464
  0
LINE
  8
_1-8_小物
  6
CONTINUOUS
 62
    4
 10
114.33333333551627
 20
74.415753340457684
 11
114.52083333551627
 21
74.307500018633419
  0
LINE
  8
_1-8_小物
  6
CONTINUOUS
 62
    4
 10
114.52083333551627
 20
74.307500018633419
 11
114.33333333551627
 21
74.199246696809155
  0
LINE
  8
_1-8_小物
  6
CONTINUOUS
 62
    4
 10
114.33333333551627
 20
74.415753340457684
 11
113.33333333551639
 21
74.180753340457727
  0
LINE
  8
_1-8_小物
  6
CONTINUOUS
 62
    4
 10
113.14583333551627
 20
74.072500018633434
 11
113.33333333551639
 21
74.180753340457727
  0
LINE
  8
_1-8_小物
  6
CONTINUOUS
 62
    4
 10
113.33333333551639
 20
73.96424669680917
 11
113.14583333551627
 21
74.072500018633434
  0
LINE
  8
_1-8_小物
  6
CONTINUOUS
 62
    4
 10
114.33333333551627
 20
74.199246696809155
 11
113.33333333551639
 21
73.96424669680917
  0
LINE
  8
_1-8_小物
  6
CONTINUOUS
 62
    4
 10
114.52083333551627
 20
74.307500018633419
 11
113.14583333551627
 21
74.072500018633434
  0
LINE
  8
_1-8_小物
  6
CONTINUOUS
 62
    4
 10
114.33333333551627
 20
74.885753340457683
 11
114.52083333551627
 21
74.777500018633418
  0
LINE
  8
_1-8_小物
  6
CONTINUOUS
 62
    4
 10
114.52083333551627
 20
74.777500018633418
 11
114.33333333551627
 21
74.669246696809125
  0
LINE
  8
_1-8_小物
  6
CONTINUOUS
 62
    4
 10
114.33333333551627
 20
74.885753340457683
 11
113.33333333551639
 21
74.650753340457698
  0
LINE
  8
_1-8_小物
  6
CONTINUOUS
 62
    4
 10
113.14583333551627
 20
74.542500018633433
 11
113.33333333551639
 21
74.650753340457698
  0
LINE
  8
_1-8_小物
  6
CONTINUOUS
 62
    4
 10
113.33333333551639
 20
74.434246696809168
 11
113.14583333551627
 21
74.542500018633433
  0
LINE
  8
_1-8_小物
  6
CONTINUOUS
 62
    4
 10
114.33333333551627
 20
74.669246696809125
 11
113.33333333551639
 21
74.434246696809168
  0
LINE
  8
_1-8_小物
  6
CONTINUOUS
 62
    4
 10
114.52083333551627
 20
74.777500018633418
 11
113.14583333551627
 21
74.542500018633433
  0
LINE
  8
_1-8_小物
  6
CONTINUOUS
 62
    4
 10
114.33333333551627
 20
75.355753340457682
 11
114.52083333551627
 21
75.247500018633389
  0
LINE
  8
_1-8_小物
  6
CONTINUOUS
 62
    4
 10
114.52083333551627
 20
75.247500018633389
 11
114.33333333551627
 21
75.139246696809124
  0
LINE
  8
_1-8_小物
  6
CONTINUOUS
 62
    4
 10
114.33333333551627
 20
75.355753340457682
 11
113.33333333551639
 21
75.120753340457696
  0
LINE
  8
_1-8_小物
  6
CONTINUOUS
 62
    4
 10
113.14583333551627
 20
75.012500018633432
 11
113.33333333551639
 21
75.120753340457696
  0
LINE
  8
_1-8_小物
  6
CONTINUOUS
 62
    4
 10
113.33333333551639
 20
74.904246696809139
 11
113.14583333551627
 21
75.012500018633432
  0
LINE
  8
_1-8_小物
  6
CONTINUOUS
 62
    4
 10
114.33333333551627
 20
75.139246696809124
 11
113.33333333551639
 21
74.904246696809139
  0
LINE
  8
_1-8_小物
  6
CONTINUOUS
 62
    4
 10
114.52083333551627
 20
75.247500018633389
 11
113.14583333551627
 21
75.012500018633432
  0
LINE
  8
_1-8_小物
  6
CONTINUOUS
 62
    4
 10
113.3333333355165
 20
72.084246696809203
 11
113.3333333355165
 21
71.830753340457761
  0
LINE
  8
_1-8_小物
  6
CONTINUOUS
 62
    4
 10
113.3333333355165
 20
72.554246696809201
 11
113.3333333355165
 21
72.30075334045776
  0
LINE
  8
_1-8_小物
  6
CONTINUOUS
 62
    4
 10
113.3333333355165
 20
73.0242466968092
 11
113.3333333355165
 21
72.770753340457787
  0
LINE
  8
_1-8_小物
  6
CONTINUOUS
 62
    4
 10
113.3333333355165
 20
73.494246696809171
 11
113.3333333355165
 21
73.240753340457729
  0
LINE
  8
_1-8_小物
  6
CONTINUOUS
 62
    4
 10
113.3333333355165
 20
73.96424669680917
 11
113.3333333355165
 21
73.710753340457728
  0
LINE
  8
_1-8_小物
  6
CONTINUOUS
 62
    4
 10
113.3333333355165
 20
74.434246696809168
 11
113.3333333355165
 21
74.180753340457727
  0
LINE
  8
_1-8_小物
  6
CONTINUOUS
 62
    4
 10
113.3333333355165
 20
75.600000018633409
 11
113.3333333355165
 21
75.120753340457696
  0
LINE
  8
_1-8_小物
  6
CONTINUOUS
 62
    4
 10
113.3333333355165
 20
74.904246696809139
 11
113.3333333355165
 21
74.650753340457754
  0
LINE
  8
_1-8_小物
  6
CONTINUOUS
 62
    4
 10
114.33333333551627
 20
75.600000018633409
 11
114.33333333551627
 21
75.355753340457682
  0
LINE
  8
_1-8_小物
  6
CONTINUOUS
 62
    4
 10
114.33333333551627
 20
75.139246696809096
 11
114.33333333551627
 21
74.885753340457683
  0
LINE
  8
_1-8_小物
  6
CONTINUOUS
 62
    4
 10
114.33333333551627
 20
74.669246696809125
 11
114.33333333551627
 21
74.415753340457684
  0
LINE
  8
_1-8_小物
  6
CONTINUOUS
 62
    4
 10
114.33333333551627
 20
74.199246696809098
 11
114.33333333551627
 21
73.945753340457713
  0
LINE
  8
_1-8_小物
  6
CONTINUOUS
 62
    4
 10
114.33333333551627
 20
73.729246696809156
 11
114.33333333551627
 21
73.475753340457715
  0
LINE
  8
_1-8_小物
  6
CONTINUOUS
 62
    4
 10
114.33333333551627
 20
73.259246696809157
 11
114.33333333551627
 21
73.005753340457716
  0
LINE
  8
_1-8_小物
  6
CONTINUOUS
 62
    4
 10
114.33333333551627
 20
72.78924669680913
 11
114.33333333551627
 21
72.535753340457745
  0
LINE
  8
_1-8_小物
  6
CONTINUOUS
 62
    4
 10
114.40000000218288
 20
71.826666685300097
 11
114.40000000218288
 21
70.830000018633427
  0
LINE
  8
_1-8_小物
  6
CONTINUOUS
 62
    4
 10
113.26666666884978
 20
71.826666685300097
 11
114.40000000218288
 21
71.826666685300097
  0
LINE
  8
_1-8_小物
  6
CONTINUOUS
 62
    4
 10
113.26666666884978
 20
71.826666685300097
 11
113.26666666884978
 21
70.830000018633427
  0
LINE
  8
_1-8_小物
  6
CONTINUOUS
 62
    4
 10
113.26666666884978
 20
70.830000018633427
 11
113.83333333551627
 21
70.502834866092712
  0
LINE
  8
_1-8_小物
  6
CONTINUOUS
 62
    4
 10
114.40000000218288
 20
70.830000018633427
 11
113.83333333551627
 21
70.502834866092712
  0
LINE
  8
_1-8_小物
  6
CONTINUOUS
 62
    4
 10
113.83333333551627
 20
70.618304919930608
 11
114.30000000218297
 21
70.887735045552404
  0
LINE
  8
_1-8_小物
  6
CONTINUOUS
 62
    4
 10
114.30000000218297
 20
71.826666685300097
 11
114.30000000218297
 21
70.887735045552404
  0
LINE
  8
_1-8_小物
  6
CONTINUOUS
 62
    4
 10
113.83333333551627
 20
70.618304919930608
 11
114.04640011720744
 21
71.826666685300097
  0
LINE
  8
_1-8_小物
  6
CONTINUOUS
 62
    4
 10
114.33333333551627
 20
72.319246696809159
 11
114.33333333551627
 21
71.826666685300097
  0
LINE
  8
_1-8_小物
  6
CONTINUOUS
 62
    4
 10
113.83333333551627
 20
70.502834866092712
 11
113.83333333551627
 21
70.618304919930608
  0
LINE
  8
_1-8_小物
  6
CENTER2
 62
    4
 10
113.83333333551627
 20
76.500000018633415
 11
113.83333333551627
 21
70.169501532759369
  0
ENDBLK
  0
BLOCK
  2
-028-_28_
 70
   64
 10
0
 20
0
 30
0
  0
LINE
  8
_0-0_図面枠
  6
CONTINUOUS
 62
    7
 10
-17.103643301208507
 20
124.78846734235105
 11
-17.633973387058489
 21
124.48231430040107
  0
LINE
  8
_0-0_図面枠
  6
CONTINUOUS
 62
    7
 10
-16.197776643308515
 20
122.83680745630102
 11
-17.103643301208507
 21
124.78846734235105
  0
LINE
  8
_0-0_図面枠
  6
CONTINUOUS
 62
    7
 10
-19.578517035358487
 20
123.35975314665103
 11
-16.197776643308515
 21
122.83680745630102
  0
LINE
  8
_0-0_図面枠
  6
CONTINUOUS
 62
    7
 10
-19.048186949458483
 20
123.66590618860107
 11
-19.578517035358487
 21
123.35975314665103
  0
LINE
  8
_0-0_図面枠
  6
CONTINUOUS
 62
    7
 10
-23.64438102715846
 20
126.31923255200104
 11
-19.048186949458483
 21
123.66590618860107
  0
LINE
  8
_0-0_図面枠
  6
CONTINUOUS
 62
    7
 10
-28.240575104858493
 20
123.66590618860107
 11
-23.64438102715846
 21
126.31923255200104
  0
LINE
  8
_0-0_図面枠
  6
CONTINUOUS
 62
    7
 10
-27.710245019008511
 20
123.35975314665103
 11
-28.240575104858493
 21
123.66590618860107
  0
LINE
  8
_0-0_図面枠
  6
CONTINUOUS
 62
    7
 10
-31.090985411008518
 20
122.83680745630102
 11
-27.710245019008511
 21
123.35975314665103
  0
LINE
  8
_0-0_図面枠
  6
CONTINUOUS
 62
    7
 10
-30.185118753158491
 20
124.78846734235105
 11
-31.090985411008518
 21
122.83680745630102
  0
LINE
  8
_0-0_図面枠
  6
CONTINUOUS
 62
    7
 10
-29.654788667258487
 20
124.48231430040107
 11
-30.185118753158491
 21
124.78846734235105
  0
LINE
  8
_0-0_図面枠
  6
CONTINUOUS
 62
    7
 10
-25.05859458955851
 20
127.13564066385106
 11
-29.654788667258487
 21
124.48231430040107
  0
LINE
  8
_0-0_図面枠
  6
CONTINUOUS
 62
    7
 10
-29.654788667258487
 20
129.78896702725103
 11
-25.05859458955851
 21
127.13564066385106
  0
LINE
  8
_0-0_図面枠
  6
CONTINUOUS
 62
    7
 10
-30.185118753158491
 20
129.48281398535107
 11
-29.654788667258487
 21
129.78896702725103
  0
LINE
  8
_0-0_図面枠
  6
CONTINUOUS
 62
    7
 10
-31.090985411008518
 20
131.43447387140105
 11
-30.185118753158491
 21
129.48281398535107
  0
LINE
  8
_0-0_図面枠
  6
CONTINUOUS
 62
    7
 10
-27.710245019008511
 20
130.91152818105104
 11
-31.090985411008518
 21
131.43447387140105
  0
LINE
  8
_0-0_図面枠
  6
CONTINUOUS
 62
    7
 10
-28.240575104858493
 20
130.60537513910106
 11
-27.710245019008511
 21
130.91152818105104
  0
LINE
  8
_0-0_図面枠
  6
CONTINUOUS
 62
    7
 10
-23.64438102715846
 20
127.95204877565106
 11
-28.240575104858493
 21
130.60537513910106
  0
LINE
  8
_0-0_図面枠
  6
CONTINUOUS
 62
    7
 10
-19.048186949458483
 20
130.60537513910106
 11
-23.64438102715846
 21
127.95204877565106
  0
LINE
  8
_0-0_図面枠
  6
CONTINUOUS
 62
    7
 10
-19.578517035358487
 20
130.91152818105104
 11
-19.048186949458483
 21
130.60537513910106
  0
LINE
  8
_0-0_図面枠
  6
CONTINUOUS
 62
    7
 10
-16.197776643308515
 20
131.43447387140105
 11
-19.578517035358487
 21
130.91152818105104
  0
LINE
  8
_0-0_図面枠
  6
CONTINUOUS
 62
    7
 10
-17.103643301208507
 20
129.48281398535107
 11
-16.197776643308515
 21
131.43447387140105
  0
LINE
  8
_0-0_図面枠
  6
CONTINUOUS
 62
    7
 10
-17.633973387058489
 20
129.78896702725103
 11
-17.103643301208507
 21
129.48281398535107
  0
LINE
  8
_0-0_図面枠
  6
CONTINUOUS
 62
    7
 10
-22.230167464808488
 20
127.13564066385106
 11
-17.633973387058489
 21
129.78896702725103
  0
LINE
  8
_0-0_図面枠
  6
CONTINUOUS
 62
    7
 10
-17.633973387058489
 20
124.48231430040107
 11
-22.230167464808488
 21
127.13564066385106
  0
LINE
  8
_0-0_図面枠
  6
CONTINUOUS
 62
    7
 10
-31.090985411008518
 20
122.83680745630102
 11
-31.090985411008518
 21
122.22440184740105
  0
LINE
  8
_0-0_図面枠
  6
CONTINUOUS
 62
    7
 10
-27.710245019008511
 20
123.35975314665103
 11
-27.710245019008511
 21
122.74734753775107
  0
LINE
  8
_0-0_図面枠
  6
CONTINUOUS
 62
    7
 10
-31.090985411008518
 20
122.22440184740105
 11
-27.710245019008511
 21
122.74734753775107
  0
LINE
  8
_0-0_図面枠
  6
CONTINUOUS
 62
    7
 10
-19.578517035358487
 20
123.35975314665103
 11
-19.578517035358487
 21
122.74734753775107
  0
LINE
  8
_0-0_図面枠
  6
CONTINUOUS
 62
    7
 10
-16.197776643308515
 20
122.83680745630102
 11
-16.197776643308515
 21
122.22440184740105
  0
LINE
  8
_0-0_図面枠
  6
CONTINUOUS
 62
    7
 10
-19.578517035358487
 20
122.74734753775107
 11
-16.197776643308515
 21
122.22440184740105
  0
LINE
  8
_0-0_図面枠
  6
CONTINUOUS
 62
    7
 10
-23.64438102715846
 20
126.31923255200104
 11
-23.64438102715846
 21
125.70682694310108
  0
LINE
  8
_0-0_図面枠
  6
CONTINUOUS
 62
    7
 10
-27.710245019008511
 20
123.35965362160107
 11
-23.64438102715846
 21
125.70682694310108
  0
LINE
  8
_0-0_図面枠
  6
CONTINUOUS
 62
    7
 10
-23.64438102715846
 20
125.70682694310108
 11
-19.578517035358487
 21
123.35965362160107
  0
LINE
  8
_0-0_図面枠
  6
CONTINUOUS
 62
    7
 10
-29.654788667258487
 20
129.78896702725103
 11
-29.654788667258487
 21
129.17656141835107
  0
LINE
  8
_0-0_図面枠
  6
CONTINUOUS
 62
    7
 10
-29.654788667258487
 20
129.17656141835107
 11
-25.589010876008473
 21
126.82943785940108
  0
LINE
  8
_0-0_図面枠
  6
CONTINUOUS
 62
    7
 10
-17.633973387058489
 20
129.78896702725103
 11
-17.633973387058489
 21
129.17656141835107
  0
LINE
  8
_0-0_図面枠
  6
CONTINUOUS
 62
    7
 10
-21.699751178358468
 20
126.82943785940108
 11
-17.633973387058489
 21
129.17656141835107
  0
LINE
  8
_0-0_図面枠
  6
CONTINUOUS
 62
    7
 10
-17.103643301208507
 20
129.48281398535107
 11
-17.103643301208507
 21
128.87040837640103
  0
LINE
  8
_0-0_図面枠
  6
CONTINUOUS
 62
    7
 10
-17.633973387058489
 20
129.17656141835107
 11
-17.103643301208507
 21
128.87040837640103
  0
LINE
  8
_0-0_図面枠
  6
CONTINUOUS
 62
    7
 10
-16.197776643308515
 20
131.43447387140105
 11
-16.197776643308515
 21
130.82206826250103
  0
LINE
  8
_0-0_図面枠
  6
CONTINUOUS
 62
    7
 10
-17.103643301208507
 20
128.87040837640103
 11
-16.197776643308515
 21
130.82206826250103
  0
LINE
  8
_0-0_図面枠
  6
CONTINUOUS
 62
    7
 10
-30.185118753158491
 20
129.48281398535107
 11
-30.185118753158491
 21
128.87040837640103
  0
LINE
  8
_0-0_図面枠
  6
CONTINUOUS
 62
    7
 10
-30.185118753158491
 20
128.87040837640103
 11
-29.654788667258487
 21
129.17656141835107
  0
LINE
  8
_0-0_図面枠
  6
CONTINUOUS
 62
    7
 10
-31.090985411008518
 20
131.43447387140105
 11
-31.090985411008518
 21
130.82206826250103
  0
LINE
  8
_0-0_図面枠
  6
CONTINUOUS
 62
    7
 10
-31.090985411008518
 20
130.82206826250103
 11
-30.185118753158491
 21
128.87040837640103
  0
LINE
  8
_0-0_図面枠
  6
CONTINUOUS
 62
    7
 10
-19.578517035358487
 20
130.91152818105104
 11
-19.578517035358487
 21
130.29922209715107
  0
LINE
  8
_0-0_図面枠
  6
CONTINUOUS
 62
    7
 10
-27.710245019008511
 20
130.91152818105104
 11
-27.710245019008511
 21
130.29922209715107
  0
LINE
  8
ADD_LINE
  6
DOT
 62
    4
 10
-31.090985411008518
 20
131.43447387140105
 11
-16.198180070863003
 21
122.83610869927935
  0
LINE
  8
ADD_LINE
  6
DOT
 62
    4
 10
-16.197776643308515
 20
131.43447387140105
 11
-31.090581983453916
 21
122.83610869927935
  0
ENDBLK
  0
BLOCK
  2
-029-_29_
 70
   64
 10
0
 20
0
 30
0
  0
LINE
  8
_0-0_図面枠
  6
CONTINUOUS
 62
    7
 10
181.88186991188218
 20
125.54988384232564
 11
181.35153982603214
 21
125.24373080037566
  0
LINE
  8
_0-0_図面枠
  6
CONTINUOUS
 62
    7
 10
182.78773656978217
 20
123.5982239562756
 11
181.88186991188218
 21
125.54988384232564
  0
LINE
  8
_0-0_図面枠
  6
CONTINUOUS
 62
    7
 10
179.4069961777322
 20
124.12116964662562
 11
182.78773656978217
 21
123.5982239562756
  0
LINE
  8
_0-0_図面枠
  6
CONTINUOUS
 62
    7
 10
179.9373262636322
 20
124.42732268857566
 11
179.4069961777322
 21
124.12116964662562
  0
LINE
  8
_0-0_図面枠
  6
CONTINUOUS
 62
    7
 10
175.34113218593217
 20
127.08064905197563
 11
179.9373262636322
 21
124.42732268857566
  0
LINE
  8
_0-0_図面枠
  6
CONTINUOUS
 62
    7
 10
170.74493810823213
 20
124.42732268857566
 11
175.34113218593217
 21
127.08064905197563
  0
LINE
  8
_0-0_図面枠
  6
CONTINUOUS
 62
    7
 10
171.27526819408217
 20
124.12116964662562
 11
170.74493810823213
 21
124.42732268857566
  0
LINE
  8
_0-0_図面枠
  6
CONTINUOUS
 62
    7
 10
167.89452780208217
 20
123.5982239562756
 11
171.27526819408217
 21
124.12116964662562
  0
LINE
  8
_0-0_図面枠
  6
CONTINUOUS
 62
    7
 10
168.80039445993219
 20
125.54988384232564
 11
167.89452780208217
 21
123.5982239562756
  0
LINE
  8
_0-0_図面枠
  6
CONTINUOUS
 62
    7
 10
169.3307245458322
 20
125.24373080037566
 11
168.80039445993219
 21
125.54988384232564
  0
LINE
  8
_0-0_図面枠
  6
CONTINUOUS
 62
    7
 10
173.92691862353217
 20
127.89705716382565
 11
169.3307245458322
 21
125.24373080037566
  0
LINE
  8
_0-0_図面枠
  6
CONTINUOUS
 62
    7
 10
169.3307245458322
 20
130.55038352722562
 11
173.92691862353217
 21
127.89705716382565
  0
LINE
  8
_0-0_図面枠
  6
CONTINUOUS
 62
    7
 10
168.80039445993219
 20
130.24423048532566
 11
169.3307245458322
 21
130.55038352722562
  0
LINE
  8
_0-0_図面枠
  6
CONTINUOUS
 62
    7
 10
167.89452780208217
 20
132.19589037137564
 11
168.80039445993219
 21
130.24423048532566
  0
LINE
  8
_0-0_図面枠
  6
CONTINUOUS
 62
    7
 10
171.27526819408217
 20
131.67294468102563
 11
167.89452780208217
 21
132.19589037137564
  0
LINE
  8
_0-0_図面枠
  6
CONTINUOUS
 62
    7
 10
170.74493810823213
 20
131.36679163907564
 11
171.27526819408217
 21
131.67294468102563
  0
LINE
  8
_0-0_図面枠
  6
CONTINUOUS
 62
    7
 10
175.34113218593217
 20
128.71346527562565
 11
170.74493810823213
 21
131.36679163907564
  0
LINE
  8
_0-0_図面枠
  6
CONTINUOUS
 62
    7
 10
179.9373262636322
 20
131.36679163907564
 11
175.34113218593217
 21
128.71346527562565
  0
LINE
  8
_0-0_図面枠
  6
CONTINUOUS
 62
    7
 10
179.4069961777322
 20
131.67294468102563
 11
179.9373262636322
 21
131.36679163907564
  0
LINE
  8
_0-0_図面枠
  6
CONTINUOUS
 62
    7
 10
182.78773656978217
 20
132.19589037137564
 11
179.4069961777322
 21
131.67294468102563
  0
LINE
  8
_0-0_図面枠
  6
CONTINUOUS
 62
    7
 10
181.88186991188218
 20
130.24423048532566
 11
182.78773656978217
 21
132.19589037137564
  0
LINE
  8
_0-0_図面枠
  6
CONTINUOUS
 62
    7
 10
181.35153982603214
 20
130.55038352722562
 11
181.88186991188218
 21
130.24423048532566
  0
LINE
  8
_0-0_図面枠
  6
CONTINUOUS
 62
    7
 10
176.7553457482822
 20
127.89705716382565
 11
181.35153982603214
 21
130.55038352722562
  0
LINE
  8
_0-0_図面枠
  6
CONTINUOUS
 62
    7
 10
181.35153982603214
 20
125.24373080037566
 11
176.7553457482822
 21
127.89705716382565
  0
LINE
  8
_0-0_図面枠
  6
CONTINUOUS
 62
    7
 10
167.89452780208217
 20
123.5982239562756
 11
167.89452780208217
 21
122.98581834737564
  0
LINE
  8
_0-0_図面枠
  6
CONTINUOUS
 62
    7
 10
171.27526819408217
 20
124.12116964662562
 11
171.27526819408217
 21
123.50876403772565
  0
LINE
  8
_0-0_図面枠
  6
CONTINUOUS
 62
    7
 10
167.89452780208217
 20
122.98581834737564
 11
171.27526819408217
 21
123.50876403772565
  0
LINE
  8
_0-0_図面枠
  6
CONTINUOUS
 62
    7
 10
179.4069961777322
 20
124.12116964662562
 11
179.4069961777322
 21
123.50876403772565
  0
LINE
  8
_0-0_図面枠
  6
CONTINUOUS
 62
    7
 10
182.78773656978217
 20
123.5982239562756
 11
182.78773656978217
 21
122.98581834737564
  0
LINE
  8
_0-0_図面枠
  6
CONTINUOUS
 62
    7
 10
179.4069961777322
 20
123.50876403772565
 11
182.78773656978217
 21
122.98581834737564
  0
LINE
  8
_0-0_図面枠
  6
CONTINUOUS
 62
    7
 10
175.34113218593217
 20
127.08064905197563
 11
175.34113218593217
 21
126.46824344307566
  0
LINE
  8
_0-0_図面枠
  6
CONTINUOUS
 62
    7
 10
171.27526819408217
 20
124.12107012157566
 11
175.34113218593217
 21
126.46824344307566
  0
LINE
  8
_0-0_図面枠
  6
CONTINUOUS
 62
    7
 10
175.34113218593217
 20
126.46824344307566
 11
179.4069961777322
 21
124.12107012157566
  0
LINE
  8
_0-0_図面枠
  6
CONTINUOUS
 62
    7
 10
169.3307245458322
 20
130.55038352722562
 11
169.3307245458322
 21
129.93797791832566
  0
LINE
  8
_0-0_図面枠
  6
CONTINUOUS
 62
    7
 10
169.3307245458322
 20
129.93797791832566
 11
173.39650233708215
 21
127.59085435937567
  0
LINE
  8
_0-0_図面枠
  6
CONTINUOUS
 62
    7
 10
181.35153982603214
 20
130.55038352722562
 11
181.35153982603214
 21
129.93797791832566
  0
LINE
  8
_0-0_図面枠
  6
CONTINUOUS
 62
    7
 10
177.28576203473216
 20
127.59085435937567
 11
181.35153982603214
 21
129.93797791832566
  0
LINE
  8
_0-0_図面枠
  6
CONTINUOUS
 62
    7
 10
181.88186991188218
 20
130.24423048532566
 11
181.88186991188218
 21
129.63182487637562
  0
LINE
  8
_0-0_図面枠
  6
CONTINUOUS
 62
    7
 10
181.35153982603214
 20
129.93797791832566
 11
181.88186991188218
 21
129.63182487637562
  0
LINE
  8
_0-0_図面枠
  6
CONTINUOUS
 62
    7
 10
182.78773656978217
 20
132.19589037137564
 11
182.78773656978217
 21
131.58348476247562
  0
LINE
  8
_0-0_図面枠
  6
CONTINUOUS
 62
    7
 10
181.88186991188218
 20
129.63182487637562
 11
182.78773656978217
 21
131.58348476247562
  0
LINE
  8
_0-0_図面枠
  6
CONTINUOUS
 62
    7
 10
168.80039445993219
 20
130.24423048532566
 11
168.80039445993219
 21
129.63182487637562
  0
LINE
  8
_0-0_図面枠
  6
CONTINUOUS
 62
    7
 10
168.80039445993219
 20
129.63182487637562
 11
169.3307245458322
 21
129.93797791832566
  0
LINE
  8
_0-0_図面枠
  6
CONTINUOUS
 62
    7
 10
167.89452780208217
 20
132.19589037137564
 11
167.89452780208217
 21
131.58348476247562
  0
LINE
  8
_0-0_図面枠
  6
CONTINUOUS
 62
    7
 10
167.89452780208217
 20
131.58348476247562
 11
168.80039445993219
 21
129.63182487637562
  0
LINE
  8
_0-0_図面枠
  6
CONTINUOUS
 62
    7
 10
179.4069961777322
 20
131.67294468102563
 11
179.4069961777322
 21
131.06063859712566
  0
LINE
  8
_0-0_図面枠
  6
CONTINUOUS
 62
    7
 10
171.27526819408217
 20
131.67294468102563
 11
171.27526819408217
 21
131.06063859712566
  0
LINE
  8
ADD_LINE
  6
DOT
 62
    4
 10
167.89452780208217
 20
132.19589037137564
 11
182.78733314222762
 21
123.59752519925394
  0
LINE
  8
ADD_LINE
  6
DOT
 62
    4
 10
182.78773656978217
 20
132.19589037137564
 11
167.89493122963671
 21
123.59752519925394
  0
ENDBLK
  0
ENDSEC
  0
SECTION
  2
ENTITIES
  0
LINE
  8
_0-0_図面枠
  6
CONTINUOUS
 62
    6
 10
410.00000000000006
 20
287
 11
10
 21
287.00000000000006
  0
LINE
  8
_0-0_図面枠
  6
CONTINUOUS
 62
    6
 10
410
 20
9.9999999999998863
 11
410.00000000000006
 21
287
  0
LINE
  8
_0-0_図面枠
  6
CONTINUOUS
 62
    6
 10
9.9999999999999147
 20
10
 11
410
 21
9.9999999999998863
  0
LINE
  8
_0-0_図面枠
  6
CONTINUOUS
 62
    6
 10
10
 20
287.00000000000006
 11
9.9999999999999147
 21
10
  0
LINE
  8
_0-0_図面枠
  6
CONTINUOUS
 62
    6
 10
210
 20
287
 11
210.00000000000003
 21
9.9999999999999432
  0
TEXT
  8
_0-0_図面枠
 62
    4
 10
20
 20
280
 40
3.2000000000000002
 41
1
 50
0
  1
（アルミ１００タイプ）
  0
TEXT
  8
_0-0_図面枠
 62
    4
 10
220
 20
280
 40
3.2000000000000002
 41
1
 50
0
  1
（アルミ１００タイプ）
  0
LINE
  8
_1-0_躯体
  6
CONTINUOUS
 62
    6
 10
69.999999999999972
 20
216.66666666666666
 11
93.333333333333329
 21
216.66666666666666
  0
INSERT
  2
-000-
  8
_1-8_小物
 10
210
 20
148.5
 41
1
 42
1
 50
0
  0
INSERT
  2
-001-_1_
  8
_1-8_小物
 10
210
 20
148.5
 41
1
 42
1
 50
0
  0
LINE
  8
_1-0_躯体
  6
CENTER2
 62
    4
 10
81.666666666666657
 20
219.79724203365018
 11
81.666666666666657
 21
200
  0
LINE
  8
_1-0_躯体
  6
CONTINUOUS
 62
    6
 10
126.66666666666666
 20
216.66666666666666
 11
149.99999999999994
 21
216.66666666666666
  0
INSERT
  2
-002-_2_
  8
_1-8_小物
 10
210
 20
148.5
 41
1
 42
1
 50
0
  0
LINE
  8
_1-0_躯体
  6
CENTER2
 62
    4
 10
138.33333333333331
 20
219.79724203365026
 11
138.33333333333331
 21
200
  0
LINE
  8
_1-0_躯体
  6
CONTINUOUS
 62
    6
 10
326.66666666666657
 20
216.66666666666666
 11
350
 21
216.66666666666666
  0
LINE
  8
_1-0_躯体
  6
CENTER2
 62
    4
 10
338.33333333333331
 20
219.79724203365018
 11
338.33333333333331
 21
200
  0
INSERT
  2
-003-_3_
  8
_1-8_小物
 10
210
 20
148.5
 41
1
 42
1
 50
0
  0
LINE
  8
_1-f_寸法
  6
CONTINUOUS
 62
    4
 10
126.66666666666666
 20
201.66666666666666
 11
126.66666666666666
 21
195.06666666666666
  0
LINE
  8
_1-f_寸法
  6
CONTINUOUS
 62
    4
 10
138.33333333333334
 20
201.66666666666666
 11
138.33333333333334
 21
195.06666666666666
  0
POINT
  8
_1-f_寸法
 62
    4
 10
138.33333333333334
 20
196.66666666666666
  0
POINT
  8
_1-f_寸法
 62
    4
 10
126.66666666666666
 20
196.66666666666666
  0
LINE
  8
_1-f_寸法
  6
CONTINUOUS
 62
    4
 10
138.33333333333334
 20
196.66666666666666
 11
126.66666666666666
 21
196.66666666666666
  0
TEXT
  8
_1-f_寸法
 62
    4
 10
130.89999999999998
 20
196.66666666666666
 40
3.2000000000000002
 41
1
 50
0
  1
35
  0
LINE
  8
_1-f_寸法
  6
CONTINUOUS
 62
    4
 10
93.333333333333783
 20
201.66666666666663
 11
93.333333333333783
 21
195.06666666666663
  0
LINE
  8
_1-f_寸法
  6
CONTINUOUS
 62
    4
 10
81.666666666667112
 20
201.66666666666663
 11
81.666666666667112
 21
195.06666666666663
  0
POINT
  8
_1-f_寸法
 62
    4
 10
81.666666666667112
 20
196.66666666666663
  0
POINT
  8
_1-f_寸法
 62
    4
 10
93.333333333333783
 20
196.66666666666663
  0
LINE
  8
_1-f_寸法
  6
CONTINUOUS
 62
    4
 10
81.666666666667112
 20
196.66666666666663
 11
93.333333333333783
 21
196.66666666666663
  0
TEXT
  8
_1-f_寸法
 62
    4
 10
85.900000000000432
 20
196.66666666666663
 40
3.2000000000000002
 41
1
 50
0
  1
35
  0
CIRCLE
  8
_1-f_寸法
  6
CONTINUOUS
 62
    4
 10
150
 20
221.66666666666666
 40
1.6666666666666665
  0
CIRCLE
  8
_1-f_寸法
  6
CONTINUOUS
 62
    4
 10
150
 20
221.66666666666666
 40
1.6666666666666665
  0
LINE
  8
_1-f_寸法
  6
CONTINUOUS
 62
    4
 10
148.82148869802242
 20
220.48815536468908
 11
146.5
 21
218.16666666666666
  0
CIRCLE
  8
_1-f_寸法
  6
CONTINUOUS
 62
    4
 10
131.66666666666666
 20
211.66666666666666
 40
1.6666666666666665
  0
CIRCLE
  8
_1-f_寸法
  6
CONTINUOUS
 62
    4
 10
145
 20
205
 40
1.6666666666666665
  0
CIRCLE
  8
_1-f_寸法
  6
CONTINUOUS
 62
    4
 10
145
 20
211.66666666666666
 40
1.6666666666666665
  0
LINE
  8
_1-f_寸法
  6
CONTINUOUS
 62
    4
 10
144.03513013486594
 20
206.35897164103375
 11
139.08333333333314
 21
213.33333333333326
  0
LINE
  8
_1-f_寸法
  6
CONTINUOUS
 62
    4
 10
73.333333333333314
 20
226.66666666666666
 11
73.333333333333314
 21
233.26666666666665
  0
LINE
  8
_1-f_寸法
  6
CONTINUOUS
 62
    4
 10
146.66666666666666
 20
226.66666666666666
 11
146.66666666666666
 21
233.26666666666665
  0
POINT
  8
_1-f_寸法
 62
    4
 10
146.66666666666666
 20
231.66666666666666
  0
POINT
  8
_1-f_寸法
 62
    4
 10
73.333333333333314
 20
231.66666666666666
  0
LINE
  8
_1-f_寸法
  6
CONTINUOUS
 62
    4
 10
146.66666666666666
 20
231.66666666666666
 11
73.333333333333314
 21
231.66666666666666
  0
TEXT
  8
_1-f_寸法
 62
    4
 10
107.59999999999999
 20
231.66666666666666
 40
3.2000000000000002
 41
1
 50
0
  1
220
  0
CIRCLE
  8
_1-f_寸法
  6
CONTINUOUS
 62
    4
 10
130
 20
228.33333333333329
 40
1.6666666666666665
  0
TEXT
  8
_1-f_寸法
 62
    4
 10
129.375
 20
227.08333333333329
 40
2.5
 41
1
 50
0
  1
5
  0
CIRCLE
  8
_1-f_寸法
  6
CONTINUOUS
 62
    4
 10
125
 20
228.33333333333329
 40
1.6666666666666665
  0
TEXT
  8
_1-f_寸法
 62
    4
 10
124.375
 20
227.08333333333329
 40
2.5
 41
1
 50
0
  1
2
  0
CIRCLE
  8
_1-f_寸法
  6
CONTINUOUS
 62
    4
 10
118.33333333333333
 20
228.33333333333329
 40
1.6666666666666665
  0
TEXT
  8
_1-f_寸法
 62
    4
 10
117.70833333333333
 20
227.08333333333329
 40
2.5
 41
1
 50
0
  1
1
  0
CIRCLE
  8
_1-f_寸法
  6
CONTINUOUS
 62
    4
 10
113.33333333333333
 20
228.33333333333329
 40
1.6666666666666665
  0
LINE
  8
_1-f_寸法
  6
CONTINUOUS
 62
    4
 10
117.5
 20
226.88995766035922
 11
116.28381586311373
 21
224.78346494391295
  0
LINE
  8
_1-f_寸法
  6
CONTINUOUS
 62
    4
 10
124.16666666666666
 20
226.88995766035922
 11
122.03626719638737
 21
223.19999753741766
  0
CIRCLE
  8
_1-f_寸法
  6
CONTINUOUS
 62
    4
 10
95
 20
228.33333333333329
 40
1.6666666666666665
  0
TEXT
  8
_1-f_寸法
 62
    4
 10
94.375
 20
227.08333333333329
 40
2.5
 41
1
 50
0
  1
4
  0
CIRCLE
  8
_1-f_寸法
  6
CONTINUOUS
 62
    4
 10
85
 20
228.33333333333329
 40
1.6666666666666665
  0
TEXT
  8
_1-f_寸法
 62
    4
 10
84.375
 20
227.08333333333329
 40
2.5
 41
1
 50
0
  1
3
  0
LINE
  8
_1-f_寸法
  6
CONTINUOUS
 62
    4
 10
85.833333333333329
 20
226.88995766035922
 11
87.511473662526214
 21
223.98333334796681
  0
LINE
  8
_1-f_寸法
  6
CONTINUOUS
 62
    4
 10
94.166666666666657
 20
226.88995766035922
 11
88.601613020909326
 21
217.25100199906115
  0
CIRCLE
  8
_1-f_寸法
  6
CONTINUOUS
 62
    4
 10
349.99999999999989
 20
221.66666666666666
 40
1.6666666666666665
  0
CIRCLE
  8
_1-f_寸法
  6
CONTINUOUS
 62
    4
 10
349.99999999999989
 20
221.66666666666666
 40
1.6666666666666665
  0
LINE
  8
_1-f_寸法
  6
CONTINUOUS
 62
    4
 10
348.82148869802234
 20
220.48815536468908
 11
346.49999999999989
 21
218.16666666666666
  0
CIRCLE
  8
_1-f_寸法
  6
CONTINUOUS
 62
    4
 10
344.99999999999989
 20
205
 40
1.6666666666666665
  0
LINE
  8
_1-f_寸法
  6
CONTINUOUS
 62
    4
 10
344.03513013486582
 20
206.35897164103375
 11
339.08333333333309
 21
213.33333333333326
  0
LINE
  8
_1-f_寸法
  6
CONTINUOUS
 62
    4
 10
326.66666666666663
 20
201.66666666666666
 11
326.66666666666663
 21
195.06666666666666
  0
LINE
  8
_1-f_寸法
  6
CONTINUOUS
 62
    4
 10
338.33333333333331
 20
201.66666666666666
 11
338.33333333333331
 21
195.06666666666666
  0
POINT
  8
_1-f_寸法
 62
    4
 10
338.33333333333331
 20
196.66666666666666
  0
POINT
  8
_1-f_寸法
 62
    4
 10
326.66666666666663
 20
196.66666666666666
  0
LINE
  8
_1-f_寸法
  6
CONTINUOUS
 62
    4
 10
338.33333333333331
 20
196.66666666666666
 11
326.66666666666663
 21
196.66666666666666
  0
TEXT
  8
_1-f_寸法
 62
    4
 10
330.89999999999998
 20
196.66666666666666
 40
3.2000000000000002
 41
1
 50
0
  1
35
  0
LINE
  8
_1-f_寸法
  6
CONTINUOUS
 62
    4
 10
276.66666666666708
 20
216.66666666666674
 11
325
 21
216.66666666666674
  0
CIRCLE
  8
_1-f_寸法
  6
CONTINUOUS
 62
    4
 10
304.99999999999994
 20
235.00000635292582
 40
1.6666666666666665
  0
TEXT
  8
_1-f_寸法
 62
    4
 10
304.37499999999994
 20
233.75000635292582
 40
2.5
 41
1
 50
0
  1
3
  0
LINE
  8
_1-f_寸法
  6
CONTINUOUS
 62
    4
 10
304.16666666666663
 20
233.55663067995175
 11
300.12499999999955
 21
226.55625866602693
  0
CIRCLE
  8
_1-f_寸法
  6
CONTINUOUS
 62
    4
 10
306.66666666666646
 20
228.33333335196676
 40
1.6666666666666665
  0
TEXT
  8
_1-f_寸法
 62
    4
 10
306.04166666666646
 20
227.08333335196676
 40
2.5
 41
1
 50
0
  1
1
  0
LINE
  8
_1-f_寸法
  6
CONTINUOUS
 62
    4
 10
308.7355051312627
 20
224.75000001863344
 11
307.49999999999977
 21
226.88995767899269
  0
CIRCLE
  8
_1-f_寸法
  6
CONTINUOUS
 62
    4
 10
320.00003283333302
 20
228.33333333386042
 40
1.6666666666666665
  0
CIRCLE
  8
_1-f_寸法
  6
CONTINUOUS
 62
    4
 10
343.33333332896683
 20
228.33333333333331
 40
1.6666666666666665
  0
TEXT
  8
_1-f_寸法
 62
    4
 10
342.70833332896683
 20
227.08333333333331
 40
2.5
 41
1
 50
0
  1
2
  0
LINE
  8
_1-f_寸法
  6
CONTINUOUS
 62
    4
 10
340.36960053611216
 20
223.19999755605107
 11
342.49999999563352
 21
226.88995766035924
  0
CIRCLE
  8
_1-f_寸法
  6
CONTINUOUS
 62
    4
 10
331.6666666623002
 20
228.33333333333331
 40
1.6666666666666665
  0
TEXT
  8
_1-f_寸法
 62
    4
 10
331.0416666623002
 20
227.08333333333331
 40
2.5
 41
1
 50
0
  1
5
  0
CIRCLE
  8
_1-f_寸法
  6
CONTINUOUS
 62
    4
 10
288.33333333333258
 20
235.00000000000003
 40
1.6666666666666665
  0
TEXT
  8
_1-f_寸法
 62
    4
 10
287.70833333333258
 20
233.75000000000003
 40
2.5
 41
1
 50
0
  1
4
  0
LINE
  8
_1-f_寸法
  6
CONTINUOUS
 62
    4
 10
289.8459379439571
 20
234.30013924978246
 11
293.91666666666606
 21
232.41667066995819
  0
LINE
  8
ADD_LINE
  6
DOT
 62
    4
 10
0
 20
148.5
 11
420
 21
148.5
  0
CIRCLE
  8
_1-f_寸法
  6
CONTINUOUS
 62
    4
 10
298.33333333333331
 20
243.33333333333331
 40
1.6666666666666665
  0
CIRCLE
  8
_1-f_寸法
  6
CONTINUOUS
 62
    4
 10
298.33333333333331
 20
243.33333333333331
 40
1.6666666666666665
  0
LINE
  8
_1-f_寸法
  6
CONTINUOUS
 62
    4
 10
297.15482203135576
 20
242.15482203135574
 11
294.83333333333331
 21
239.83333333333331
  0
CIRCLE
  8
_1-f_寸法
  6
CONTINUOUS
 62
    4
 10
70
 20
221.66666666666666
 40
1.6666666666666665
  0
CIRCLE
  8
_1-f_寸法
  6
CONTINUOUS
 62
    4
 10
70
 20
221.66666666666666
 40
1.6666666666666665
  0
LINE
  8
_1-f_寸法
  6
CONTINUOUS
 62
    4
 10
71.178511301977551
 20
220.48815536468908
 11
73.5
 21
218.16666666666666
  0
CIRCLE
  8
_1-f_寸法
  6
CONTINUOUS
 62
    4
 10
283.33333333333303
 20
233.33333333333329
 40
1.6666666666666665
  0
CIRCLE
  8
_1-f_寸法
  6
CONTINUOUS
 62
    4
 10
288.33333333333303
 20
223.33333333333329
 40
1.6666666666666665
  0
CIRCLE
  8
_1-f_寸法
  6
CONTINUOUS
 62
    4
 10
281.66666666666634
 20
223.33333333333329
 40
1.6666666666666665
  0
LINE
  8
_1-f_寸法
  6
CONTINUOUS
 62
    4
 10
283.15139242170733
 20
224.09054348256251
 11
289.9999999999996
 21
227.58333341279996
  0
LINE
  8
_1-f_寸法
  6
CONTINUOUS
 62
    4
 10
295.198380710283
 20
228.33333333333331
 11
289.68055080868942
 21
224.31454832092373
  0
LINE
  8
_1-f_寸法
  6
CONTINUOUS
 62
    4
 10
294.41666666666634
 20
230.29166674613316
 11
284.94057382271774
 21
232.89224854889812
  0
CIRCLE
  8
_1-f_寸法
  6
CONTINUOUS
 62
    4
 10
88.333333333333329
 20
211.66666666666666
 40
1.6666666666666665
  0
CIRCLE
  8
_1-f_寸法
  6
CONTINUOUS
 62
    4
 10
75
 20
205
 40
1.6666666666666665
  0
CIRCLE
  8
_1-f_寸法
  6
CONTINUOUS
 62
    4
 10
75
 20
211.66666666666666
 40
1.6666666666666665
  0
LINE
  8
_1-f_寸法
  6
CONTINUOUS
 62
    4
 10
87.313226765017262
 20
212.98468046289804
 11
83.625
 21
217.75
  0
LINE
  8
_1-f_寸法
  6
CONTINUOUS
 62
    4
 10
76.161109051892026
 20
212.86232696432324
 11
81.666666666666686
 21
218.53171404361672
  0
LINE
  8
_1-f_寸法
  6
CONTINUOUS
 62
    4
 10
75.964869865134062
 20
206.35897164103375
 11
80.916666666666856
 21
213.33333333333326
  0
TEXT
  8
_0-0_図面枠
 62
    4
 10
30
 20
270
 40
3.2000000000000002
 41
1
 50
0
  1
◇内壁＋内壁（１００ＫＫＧ－Ａ）　Ｓ＝１／３
  0
TEXT
  8
_0-0_図面枠
 62
    4
 10
230
 20
270
 40
3.2000000000000002
 41
1
 50
0
  1
◇内壁＋内壁コーナー（１００ＫＣＧ－Ａ）　Ｓ＝１／３
  0
TEXT
  8
_1-f_寸法
 62
    4
 10
112.70833333333333
 20
227.08333333333329
 40
2.5
 41
1
 50
0
  1
6
  0
TEXT
  8
_1-f_寸法
 62
    4
 10
144.375
 20
210.41666666666666
 40
2.5
 41
1
 50
0
  1
7
  0
TEXT
  8
_1-f_寸法
 62
    4
 10
131.04166666666666
 20
210.41666666666666
 40
2.5
 41
1
 50
0
  1
8
  0
TEXT
  8
_1-f_寸法
 62
    4
 10
144.375
 20
203.75
 40
2.5
 41
1
 50
0
  1
9
  0
TEXT
  8
_1-f_寸法
 62
    4
 10
148.75
 20
220.41666666666666
 40
2.5
 41
1
 50
0
  1
10
  0
TEXT
  8
_1-f_寸法
 62
    4
 10
68.75
 20
220.41666666666666
 40
2.5
 41
1
 50
0
  1
10
  0
TEXT
  8
_1-f_寸法
 62
    4
 10
74.375
 20
210.41666666666666
 40
2.5
 41
1
 50
0
  1
7
  0
TEXT
  8
_1-f_寸法
 62
    4
 10
87.708333333333329
 20
210.41666666666666
 40
2.5
 41
1
 50
0
  1
8
  0
TEXT
  8
_1-f_寸法
 62
    4
 10
74.375
 20
203.75
 40
2.5
 41
1
 50
0
  1
9
  0
TEXT
  8
_1-f_寸法
 62
    4
 10
297.08333333333331
 20
242.08333333333331
 40
2.5
 41
1
 50
0
  1
10
  0
TEXT
  8
_1-f_寸法
 62
    4
 10
348.74999999999989
 20
220.41666666666666
 40
2.5
 41
1
 50
0
  1
10
  0
TEXT
  8
_1-f_寸法
 62
    4
 10
319.37503283333302
 20
227.08333333386042
 40
2.5
 41
1
 50
0
  1
6
  0
TEXT
  8
_1-f_寸法
 62
    4
 10
344.37499999999989
 20
203.75
 40
2.5
 41
1
 50
0
  1
9
  0
TEXT
  8
_1-f_寸法
 62
    4
 10
282.70833333333303
 20
232.08333333333329
 40
2.5
 41
1
 50
0
  1
8
  0
TEXT
  8
_1-f_寸法
 62
    4
 10
287.70833333333303
 20
222.08333333333329
 40
2.5
 41
1
 50
0
  1
7
  0
TEXT
  8
_1-f_寸法
 62
    4
 10
281.04166666666634
 20
222.08333333333329
 40
2.5
 41
1
 50
0
  1
9
  0
LINE
  8
_1-8_小物
  6
CONTINUOUS
 62
    4
 10
112.20941781883432
 20
227.1026458449569
 11
110
 21
224.68333333333331
  0
TEXT
  8
_0-0_図面枠
 62
    4
 10
41.666666666666572
 20
128
 40
3
 41
1
 50
0
  1
（落下防止ワイヤー）
  0
INSERT
  2
-004-_4_
  8
_1-8_小物
 10
210
 20
148.5
 41
1
 42
1
 50
0
  0
LINE
  8
_1-8_小物
  6
CONTINUOUS
 62
    4
 10
157.03985321657831
 20
131.84018902839435
 11
151.17656837665936
 21
130.18752043233465
  0
LINE
  8
_1-8_小物
  6
CONTINUOUS
 62
    4
 10
157.16066740562391
 20
131.35707331101597
 11
151.24647145802507
 21
129.68796469593613
  0
LINE
  8
_1-8_小物
  6
CONTINUOUS
 62
    4
 10
157.03985321657831
 20
127.15981097160562
 11
151.17656837665936
 21
128.81247956766532
  0
LINE
  8
_1-8_小物
  6
CONTINUOUS
 62
    4
 10
157.16066740562391
 20
127.64292668898401
 11
151.24647145802507
 21
129.31203530406384
  0
LINE
  8
_1-8_小物
  6
CONTINUOUS
 62
    4
 10
157.16066751342208
 20
127.64292665856117
 11
157.16066751342208
 21
127.64292665856117
  0
LINE
  8
_1-8_小物
  6
CONTINUOUS
 62
    4
 10
157.16066751342208
 20
127.64292665856117
 11
157.63349044305428
 21
127.54220923628057
  0
LINE
  8
_1-8_小物
  6
CONTINUOUS
 62
    4
 10
157.63349044305428
 20
127.54220923628057
 11
158.12390677547899
 21
127.50097829566566
  0
LINE
  8
_1-8_小物
  6
CONTINUOUS
 62
    4
 10
158.12390677547899
 20
127.50097829566566
 11
158.61701545859813
 21
127.52048661798315
  0
LINE
  8
_1-8_小物
  6
CONTINUOUS
 62
    4
 10
158.61701545859813
 20
127.52048661798315
 11
159.09783363460014
 21
127.60014145273114
  0
LINE
  8
_1-8_小物
  6
CONTINUOUS
 62
    4
 10
159.09783363460014
 20
127.60014145273114
 11
159.55175188651296
 21
127.73752252806307
  0
LINE
  8
_1-8_小物
  6
CONTINUOUS
 62
    4
 10
159.55175188651296
 20
127.73752252806307
 11
159.96497813794593
 21
127.92845558952315
  0
LINE
  8
_1-8_小物
  6
CONTINUOUS
 62
    4
 10
159.96497813794593
 20
127.92845558952315
 11
160.32495671835181
 21
128.16713923265576
  0
LINE
  8
_1-8_小物
  6
CONTINUOUS
 62
    4
 10
160.32495671835181
 20
128.16713923265576
 11
160.62074986072298
 21
128.446321175744
  0
LINE
  8
_1-8_小物
  6
CONTINUOUS
 62
    4
 10
160.62074986072298
 20
128.446321175744
 11
160.84337004010698
 21
128.75751861672009
  0
LINE
  8
_1-8_小物
  6
CONTINUOUS
 62
    4
 10
160.84337004010698
 20
128.75751861672009
 11
160.98605305500448
 21
129.0912759788134
  0
LINE
  8
_1-8_小物
  6
CONTINUOUS
 62
    4
 10
160.98605305500448
 20
129.0912759788134
 11
161.04446355420893
 21
129.43745221346614
  0
LINE
  8
_1-8_小物
  6
CONTINUOUS
 62
    4
 10
161.04446355420893
 20
129.43745221346614
 11
161.01682676425915
 21
129.78552893096199
  0
LINE
  8
_1-8_小物
  6
CONTINUOUS
 62
    4
 10
161.01682676425915
 20
129.78552893096199
 11
160.90398241503283
 21
130.12492999637519
  0
LINE
  8
_1-8_小物
  6
CONTINUOUS
 62
    4
 10
160.90398241503283
 20
130.12492999637519
 11
160.70935922497927
 21
130.44534288007836
  0
LINE
  8
_1-8_小物
  6
CONTINUOUS
 62
    4
 10
160.70935922497927
 20
130.44534288007836
 11
160.43887072124414
 21
130.73703199873694
  0
LINE
  8
_1-8_小物
  6
CONTINUOUS
 62
    4
 10
160.43887072124414
 20
130.73703199873694
 11
160.10073556013964
 21
130.99113452608228
  0
LINE
  8
_1-8_小物
  6
CONTINUOUS
 62
    4
 10
160.10073556013964
 20
130.99113452608228
 11
159.70522780743127
 21
131.19992968540308
  0
LINE
  8
_1-8_小物
  6
CONTINUOUS
 62
    4
 10
159.70522780743127
 20
131.19992968540308
 11
159.26436476604852
 21
131.35707334143885
  0
LINE
  8
_1-8_小物
  6
CONTINUOUS
 62
    4
 10
159.26436476604852
 20
131.35707334143885
 11
158.79154183641631
 21
131.45779076371943
  0
LINE
  8
_1-8_小物
  6
CONTINUOUS
 62
    4
 10
158.79154183641631
 20
131.45779076371943
 11
158.30112550399161
 21
131.49902170433435
  0
LINE
  8
_1-8_小物
  6
CONTINUOUS
 62
    4
 10
158.30112550399161
 20
131.49902170433435
 11
157.80801682087247
 21
131.47951338201685
  0
LINE
  8
_1-8_小物
  6
CONTINUOUS
 62
    4
 10
157.80801682087247
 20
131.47951338201685
 11
157.32719864487046
 21
131.39985854726888
  0
LINE
  8
_1-8_小物
  6
CONTINUOUS
 62
    4
 10
157.32719864487046
 20
131.39985854726888
 11
157.16066740562388
 21
131.35707331101594
  0
LINE
  8
_1-8_小物
  6
CONTINUOUS
 62
    4
 10
157.03985330378089
 20
127.15981094702609
 11
157.03985330378089
 21
127.15981094702609
  0
LINE
  8
_1-8_小物
  6
CONTINUOUS
 62
    4
 10
157.03985330378089
 20
127.15981094702609
 11
157.59949477314478
 21
127.04264060375607
  0
LINE
  8
_1-8_小物
  6
CONTINUOUS
 62
    4
 10
157.59949477314478
 20
127.04264060375607
 11
158.17776258652879
 21
127.00013588225708
  0
LINE
  8
_1-8_小物
  6
CONTINUOUS
 62
    4
 10
158.17776258652879
 20
127.00013588225708
 11
158.75708636904079
 21
127.03358826698343
  0
LINE
  8
_1-8_小物
  6
CONTINUOUS
 62
    4
 10
158.75708636904079
 20
127.03358826698343
 11
159.3198636607012
 21
127.14198132415292
  0
LINE
  8
_1-8_小物
  6
CONTINUOUS
 62
    4
 10
159.3198636607012
 20
127.14198132415292
 11
159.84899475828195
 21
127.32202158557301
  0
LINE
  8
_1-8_小物
  6
CONTINUOUS
 62
    4
 10
159.84899475828195
 20
127.32202158557301
 11
160.32840228113628
 21
127.56823861900521
  0
LINE
  8
_1-8_小物
  6
CONTINUOUS
 62
    4
 10
160.32840228113628
 20
127.56823861900521
 11
160.74351967427421
 21
127.87315124448051
  0
LINE
  8
_1-8_小物
  6
CONTINUOUS
 62
    4
 10
160.74351967427421
 20
127.87315124448051
 11
161.08173380576474
 21
128.22749484616708
  0
LINE
  8
_1-8_小物
  6
CONTINUOUS
 62
    4
 10
161.08173380576474
 20
128.22749484616708
 11
161.33276821036716
 21
128.62050287303418
  0
LINE
  8
_1-8_小物
  6
CONTINUOUS
 62
    4
 10
161.33276821036716
 20
128.62050287303418
 11
161.48899533472718
 21
129.04023397505711
  0
LINE
  8
_1-8_小物
  6
CONTINUOUS
 62
    4
 10
161.48899533472718
 20
129.04023397505711
 11
161.54566829672584
 21
129.47393483509512
  0
LINE
  8
_1-8_小物
  6
CONTINUOUS
 62
    4
 10
161.54566829672584
 20
129.47393483509512
 11
161.50106511709069
 21
129.90842767197913
  0
LINE
  8
_1-8_小物
  6
CONTINUOUS
 62
    4
 10
161.50106511709069
 20
129.90842767197913
 11
161.3565410408647
 21
130.33051064072444
  0
LINE
  8
_1-8_小物
  6
CONTINUOUS
 62
    4
 10
161.3565410408647
 20
130.33051064072444
 11
161.11648735897126
 21
130.72735896391001
  0
LINE
  8
_1-8_小物
  6
CONTINUOUS
 62
    4
 10
161.11648735897126
 20
130.72735896391001
 11
160.78819798106167
 21
131.08691460605075
  0
LINE
  8
_1-8_小物
  6
CONTINUOUS
 62
    4
 10
160.78819798106167
 20
131.08691460605075
 11
160.38164781376128
 21
131.3982526509042
  0
LINE
  8
_1-8_小物
  6
CONTINUOUS
 62
    4
 10
160.38164781376128
 20
131.3982526509042
 11
159.90918967817919
 21
131.6519132495221
  0
LINE
  8
_1-8_小物
  6
CONTINUOUS
 62
    4
 10
159.90918967817919
 20
131.6519132495221
 11
159.38517897568971
 21
131.84018905297393
  0
LINE
  8
_1-8_小物
  6
CONTINUOUS
 62
    4
 10
159.38517897568971
 20
131.84018905297393
 11
158.82553750632582
 21
131.95735939624393
  0
LINE
  8
_1-8_小物
  6
CONTINUOUS
 62
    4
 10
158.82553750632582
 20
131.95735939624393
 11
158.24726969294181
 21
131.99986411774293
  0
LINE
  8
_1-8_小物
  6
CONTINUOUS
 62
    4
 10
158.24726969294181
 20
131.99986411774293
 11
157.66794591042981
 21
131.96641173301657
  0
LINE
  8
_1-8_小物
  6
CONTINUOUS
 62
    4
 10
157.66794591042981
 20
131.96641173301657
 11
157.1051686187694
 21
131.85801867584706
  0
LINE
  8
_1-8_小物
  6
CONTINUOUS
 62
    4
 10
157.1051686187694
 20
131.85801867584706
 11
157.03985321657831
 21
131.84018902839435
  0
ARC
  8
_1-8_小物
  6
CONTINUOUS
 62
    4
 10
149.88841540894504
 20
124.49999999999997
 40
5
 50
74.23983426036601
 51
82.444482010074083
  0
ARC
  8
_1-8_小物
  6
CONTINUOUS
 62
    4
 10
149.8200874844963
 20
123.99999999999997
 40
5
 50
74.258588419679057
 51
81.653895699843488
  0
ARC
  8
_1-8_小物
  6
CONTINUOUS
 62
    4
 10
149.8200874844963
 20
135
 40
5
 50
278.34610430015653
 51
285.74141158032086
  0
ARC
  8
_1-8_小物
  6
CONTINUOUS
 62
    4
 10
149.88841540894504
 20
134.5
 40
5
 50
277.55551798992593
 51
285.76016573963392
  0
INSERT
  2
-005-_5_
  8
_1-8_小物
 10
210
 20
148.5
 41
1
 42
1
 50
0
  0
LINE
  8
_1-8_小物
  6
CONTINUOUS
 62
    4
 10
82.718512396225634
 20
131.84018902839435
 11
88.581797236144581
 21
130.18752043233465
  0
LINE
  8
_1-8_小物
  6
CONTINUOUS
 62
    4
 10
82.597698207180002
 20
131.35707331101597
 11
88.511894154778886
 21
129.68796469593613
  0
LINE
  8
_1-8_小物
  6
CONTINUOUS
 62
    4
 10
82.718512396225634
 20
127.15981097160562
 11
88.581797236144581
 21
128.81247956766532
  0
LINE
  8
_1-8_小物
  6
CONTINUOUS
 62
    4
 10
82.597698207180002
 20
127.64292668898401
 11
88.511894154778886
 21
129.31203530406384
  0
LINE
  8
_1-8_小物
  6
CONTINUOUS
 62
    4
 10
82.597698207180088
 20
131.35707331101594
 11
82.597698207180088
 21
131.35707331101594
  0
LINE
  8
_1-8_小物
  6
CONTINUOUS
 62
    4
 10
82.597698207180088
 20
131.35707331101594
 11
82.124875283394275
 21
131.45779074697211
  0
LINE
  8
_1-8_小物
  6
CONTINUOUS
 62
    4
 10
82.124875283394275
 20
131.45779074697211
 11
81.634458953362923
 21
131.49902170177148
  0
LINE
  8
_1-8_小物
  6
CONTINUOUS
 62
    4
 10
81.634458953362923
 20
131.49902170177148
 11
81.141350269111385
 21
131.47951339371627
  0
LINE
  8
_1-8_小物
  6
CONTINUOUS
 62
    4
 10
81.141350269111385
 20
131.47951339371627
 11
80.66053208848561
 21
131.39985857287513
  0
LINE
  8
_1-8_小物
  6
CONTINUOUS
 62
    4
 10
80.66053208848561
 20
131.39985857287513
 11
80.206613828598179
 21
131.262477510672
  0
LINE
  8
_1-8_小物
  6
CONTINUOUS
 62
    4
 10
80.206613828598179
 20
131.262477510672
 11
79.793387566082046
 21
131.07154446116377
  0
LINE
  8
_1-8_小物
  6
CONTINUOUS
 62
    4
 10
79.793387566082046
 20
131.07154446116377
 11
79.433408971821194
 21
130.8328608284429
  0
LINE
  8
_1-8_小物
  6
CONTINUOUS
 62
    4
 10
79.433408971821194
 20
130.8328608284429
 11
79.137615813244267
 21
130.55367889390996
  0
LINE
  8
_1-8_小物
  6
CONTINUOUS
 62
    4
 10
79.137615813244267
 20
130.55367889390996
 11
78.914995615796073
 21
130.24248145937278
  0
LINE
  8
_1-8_小物
  6
CONTINUOUS
 62
    4
 10
78.914995615796073
 20
130.24248145937278
 11
78.77231258152483
 21
129.90872410140634
  0
LINE
  8
_1-8_小物
  6
CONTINUOUS
 62
    4
 10
78.77231258152483
 20
129.90872410140634
 11
78.713902062225756
 21
129.56254786844303
  0
LINE
  8
_1-8_小物
  6
CONTINUOUS
 62
    4
 10
78.713902062225756
 20
129.56254786844303
 11
78.741538831970601
 21
129.2144711501478
  0
LINE
  8
_1-8_小物
  6
CONTINUOUS
 62
    4
 10
78.741538831970601
 20
129.2144711501478
 11
78.854383161495562
 21
128.8750700814708
  0
LINE
  8
_1-8_小物
  6
CONTINUOUS
 62
    4
 10
78.854383161495562
 20
128.8750700814708
 11
79.049006332949986
 21
128.55465719213848
  0
LINE
  8
_1-8_小物
  6
CONTINUOUS
 62
    4
 10
79.049006332949986
 20
128.55465719213848
 11
79.319494819753345
 21
128.26296806565651
  0
LINE
  8
_1-8_小物
  6
CONTINUOUS
 62
    4
 10
79.319494819753345
 20
128.26296806565651
 11
79.657629966107862
 21
128.0088655285312
  0
LINE
  8
_1-8_小物
  6
CONTINUOUS
 62
    4
 10
79.657629966107862
 20
128.0088655285312
 11
80.053137706696219
 21
127.80007035777102
  0
LINE
  8
_1-8_小物
  6
CONTINUOUS
 62
    4
 10
80.053137706696219
 20
127.80007035777102
 11
80.494000738957183
 21
127.64292668898406
  0
LINE
  8
_1-8_小物
  6
CONTINUOUS
 62
    4
 10
80.494000738957183
 20
127.64292668898406
 11
80.966823662742996
 21
127.54220925302788
  0
LINE
  8
_1-8_小物
  6
CONTINUOUS
 62
    4
 10
80.966823662742996
 20
127.54220925302788
 11
81.457239992774362
 21
127.50097829822853
  0
LINE
  8
_1-8_小物
  6
CONTINUOUS
 62
    4
 10
81.457239992774362
 20
127.50097829822853
 11
81.9503486770259
 21
127.52048660628371
  0
LINE
  8
_1-8_小物
  6
CONTINUOUS
 62
    4
 10
81.9503486770259
 20
127.52048660628371
 11
82.431166857651675
 21
127.60014142712487
  0
LINE
  8
_1-8_小物
  6
CONTINUOUS
 62
    4
 10
82.431166857651675
 20
127.60014142712487
 11
82.597698099381844
 21
127.64292665856115
  0
LINE
  8
_1-8_小物
  6
CONTINUOUS
 62
    4
 10
82.718512396225634
 20
131.84018902839435
 11
82.718512396225634
 21
131.84018902839435
  0
LINE
  8
_1-8_小物
  6
CONTINUOUS
 62
    4
 10
82.718512396225634
 20
131.84018902839435
 11
82.158870931227852
 21
131.9573593833947
  0
LINE
  8
_1-8_小物
  6
CONTINUOUS
 62
    4
 10
82.158870931227852
 20
131.9573593833947
 11
81.580603119427721
 21
131.99986411701445
  0
LINE
  8
_1-8_小物
  6
CONTINUOUS
 62
    4
 10
81.580603119427721
 20
131.99986411701445
 11
81.001279335669167
 21
131.96641174443101
  0
LINE
  8
_1-8_小物
  6
CONTINUOUS
 62
    4
 10
81.001279335669167
 20
131.96641174443101
 11
80.438502039969705
 21
131.8580186990576
  0
LINE
  8
_1-8_小物
  6
CONTINUOUS
 62
    4
 10
80.438502039969705
 20
131.8580186990576
 11
79.909370935680116
 21
131.67797844872834
  0
LINE
  8
_1-8_小物
  6
CONTINUOUS
 62
    4
 10
79.909370935680116
 20
131.67797844872834
 11
79.429963403650973
 21
131.43176142534475
  0
LINE
  8
_1-8_小物
  6
CONTINUOUS
 62
    4
 10
79.429963403650973
 20
131.43176142534475
 11
79.014845999151092
 21
131.12684880857049
  0
LINE
  8
_1-8_小物
  6
CONTINUOUS
 62
    4
 10
79.014845999151092
 20
131.12684880857049
 11
78.67663185445663
 21
130.77250521397306
  0
LINE
  8
_1-8_小物
  6
CONTINUOUS
 62
    4
 10
78.67663185445663
 20
130.77250521397306
 11
78.425597435209525
 21
130.37949719236775
  0
LINE
  8
_1-8_小物
  6
CONTINUOUS
 62
    4
 10
78.425597435209525
 20
130.37949719236775
 11
78.269370295209058
 21
129.95976609361941
  0
LINE
  8
_1-8_小物
  6
CONTINUOUS
 62
    4
 10
78.269370295209058
 20
129.95976609361941
 11
78.212697317049376
 21
129.52606523476931
  0
LINE
  8
_1-8_小物
  6
CONTINUOUS
 62
    4
 10
78.212697317049376
 20
129.52606523476931
 11
78.257300480493981
 21
129.0915723969504
  0
LINE
  8
_1-8_小物
  6
CONTINUOUS
 62
    4
 10
78.257300480493981
 20
129.0915723969504
 11
78.401824540991882
 21
128.66948942517578
  0
LINE
  8
_1-8_小物
  6
CONTINUOUS
 62
    4
 10
78.401824540991882
 20
128.66948942517578
 11
78.641878208097552
 21
128.27264109695858
  0
LINE
  8
_1-8_小物
  6
CONTINUOUS
 62
    4
 10
78.641878208097552
 20
128.27264109695858
 11
78.970167572609
 21
127.91308544793674
  0
LINE
  8
_1-8_小物
  6
CONTINUOUS
 62
    4
 10
78.970167572609
 20
127.91308544793674
 11
79.376717728307995
 21
127.60174739456183
  0
LINE
  8
_1-8_小物
  6
CONTINUOUS
 62
    4
 10
79.376717728307995
 20
127.60174739456183
 11
79.849175854437902
 21
127.34808678604097
  0
LINE
  8
_1-8_小物
  6
CONTINUOUS
 62
    4
 10
79.849175854437902
 20
127.34808678604097
 11
80.373186549911637
 21
127.15981097160564
  0
LINE
  8
_1-8_小物
  6
CONTINUOUS
 62
    4
 10
80.373186549911637
 20
127.15981097160564
 11
80.932828014909433
 21
127.04264061660528
  0
LINE
  8
_1-8_小物
  6
CONTINUOUS
 62
    4
 10
80.932828014909433
 20
127.04264061660528
 11
81.511095826709564
 21
127.00013588298553
  0
LINE
  8
_1-8_小物
  6
CONTINUOUS
 62
    4
 10
81.511095826709564
 20
127.00013588298553
 11
82.090419610468118
 21
127.03358825556899
  0
LINE
  8
_1-8_小物
  6
CONTINUOUS
 62
    4
 10
82.090419610468118
 20
127.03358825556899
 11
82.65319690616758
 21
127.1419813009424
  0
LINE
  8
_1-8_小物
  6
CONTINUOUS
 62
    4
 10
82.65319690616758
 20
127.1419813009424
 11
82.718512309023055
 21
127.15981094702607
  0
ARC
  8
_1-8_小物
  6
CONTINUOUS
 62
    4
 10
89.869950203858892
 20
124.49999999999997
 40
5
 50
97.555517989925761
 51
105.76016573963415
  0
ARC
  8
_1-8_小物
  6
CONTINUOUS
 62
    4
 10
89.938278128307644
 20
123.99999999999997
 40
5
 50
98.346104300156512
 51
105.74141158032096
  0
ARC
  8
_1-8_小物
  6
CONTINUOUS
 62
    4
 10
89.938278128307644
 20
135
 40
5
 50
254.25858841967909
 51
261.65389569984347
  0
ARC
  8
_1-8_小物
  6
CONTINUOUS
 62
    4
 10
89.869950203858892
 20
134.5
 40
5
 50
254.23983426036591
 51
262.44448201007424
  0
LINE
  8
_1-8_小物
  6
CONTINUOUS
 62
    4
 10
91.879182806401971
 20
129.24999999999997
 11
118.2125161397353
 21
129.24999999999997
  0
LINE
  8
_1-8_小物
  6
CONTINUOUS
 62
    4
 10
91.879182806401971
 20
129.75
 11
118.2125161397353
 21
129.75
  0
LINE
  8
_1-8_小物
  6
CONTINUOUS
 62
    4
 10
147.87918280640196
 20
129.24999999999997
 11
121.54584947306864
 21
129.24999999999997
  0
LINE
  8
_1-8_小物
  6
CONTINUOUS
 62
    4
 10
147.87918280640196
 20
129.75
 11
121.54584947306864
 21
129.75
  0
TEXT
  8
_0-0_図面枠
 62
    4
 10
241.66666666666652
 20
128
 40
3
 41
1
 50
0
  1
（落下防止ワイヤー）
  0
INSERT
  2
-006-_6_
  8
_1-8_小物
 10
210
 20
148.5
 41
1
 42
1
 50
0
  0
LINE
  8
_1-8_小物
  6
CONTINUOUS
 62
    4
 10
357.03985321657831
 20
131.84018902839435
 11
351.17656837665936
 21
130.18752043233465
  0
LINE
  8
_1-8_小物
  6
CONTINUOUS
 62
    4
 10
357.16066740562394
 20
131.35707331101597
 11
351.2464714580251
 21
129.68796469593613
  0
LINE
  8
_1-8_小物
  6
CONTINUOUS
 62
    4
 10
357.03985321657831
 20
127.15981097160562
 11
351.17656837665936
 21
128.81247956766532
  0
LINE
  8
_1-8_小物
  6
CONTINUOUS
 62
    4
 10
357.16066740562394
 20
127.64292668898401
 11
351.2464714580251
 21
129.31203530406384
  0
LINE
  8
_1-8_小物
  6
CONTINUOUS
 62
    4
 10
357.16066751342214
 20
127.64292665856114
 11
357.16066751342214
 21
127.64292665856114
  0
LINE
  8
_1-8_小物
  6
CONTINUOUS
 62
    4
 10
357.16066751342214
 20
127.64292665856114
 11
357.63349044305431
 21
127.54220923628056
  0
LINE
  8
_1-8_小物
  6
CONTINUOUS
 62
    4
 10
357.63349044305431
 20
127.54220923628056
 11
358.12390677547904
 21
127.50097829566565
  0
LINE
  8
_1-8_小物
  6
CONTINUOUS
 62
    4
 10
358.12390677547904
 20
127.50097829566565
 11
358.61701545859819
 21
127.52048661798317
  0
LINE
  8
_1-8_小物
  6
CONTINUOUS
 62
    4
 10
358.61701545859819
 20
127.52048661798317
 11
359.09783363460019
 21
127.60014145273115
  0
LINE
  8
_1-8_小物
  6
CONTINUOUS
 62
    4
 10
359.09783363460019
 20
127.60014145273115
 11
359.55175188651299
 21
127.7375225280631
  0
LINE
  8
_1-8_小物
  6
CONTINUOUS
 62
    4
 10
359.55175188651299
 20
127.7375225280631
 11
359.96497813794599
 21
127.9284555895232
  0
LINE
  8
_1-8_小物
  6
CONTINUOUS
 62
    4
 10
359.96497813794599
 20
127.9284555895232
 11
360.32495671835187
 21
128.16713923265581
  0
LINE
  8
_1-8_小物
  6
CONTINUOUS
 62
    4
 10
360.32495671835187
 20
128.16713923265581
 11
360.62074986072298
 21
128.44632117574406
  0
LINE
  8
_1-8_小物
  6
CONTINUOUS
 62
    4
 10
360.62074986072298
 20
128.44632117574406
 11
360.84337004010695
 21
128.75751861672015
  0
LINE
  8
_1-8_小物
  6
CONTINUOUS
 62
    4
 10
360.84337004010695
 20
128.75751861672015
 11
360.98605305500445
 21
129.09127597881346
  0
LINE
  8
_1-8_小物
  6
CONTINUOUS
 62
    4
 10
360.98605305500445
 20
129.09127597881346
 11
361.0444635542089
 21
129.4374522134662
  0
LINE
  8
_1-8_小物
  6
CONTINUOUS
 62
    4
 10
361.0444635542089
 20
129.4374522134662
 11
361.01682676425912
 21
129.78552893096204
  0
LINE
  8
_1-8_小物
  6
CONTINUOUS
 62
    4
 10
361.01682676425912
 20
129.78552893096204
 11
360.90398241503277
 21
130.12492999637524
  0
LINE
  8
_1-8_小物
  6
CONTINUOUS
 62
    4
 10
360.90398241503277
 20
130.12492999637524
 11
360.70935922497921
 21
130.44534288007841
  0
LINE
  8
_1-8_小物
  6
CONTINUOUS
 62
    4
 10
360.70935922497921
 20
130.44534288007841
 11
360.43887072124403
 21
130.73703199873697
  0
LINE
  8
_1-8_小物
  6
CONTINUOUS
 62
    4
 10
360.43887072124403
 20
130.73703199873697
 11
360.10073556013953
 21
130.99113452608231
  0
LINE
  8
_1-8_小物
  6
CONTINUOUS
 62
    4
 10
360.10073556013953
 20
130.99113452608231
 11
359.70522780743119
 21
131.19992968540311
  0
LINE
  8
_1-8_小物
  6
CONTINUOUS
 62
    4
 10
359.70522780743119
 20
131.19992968540311
 11
359.2643647660484
 21
131.35707334143885
  0
LINE
  8
_1-8_小物
  6
CONTINUOUS
 62
    4
 10
359.2643647660484
 20
131.35707334143885
 11
358.79154183641623
 21
131.45779076371946
  0
LINE
  8
_1-8_小物
  6
CONTINUOUS
 62
    4
 10
358.79154183641623
 20
131.45779076371946
 11
358.3011255039915
 21
131.49902170433435
  0
LINE
  8
_1-8_小物
  6
CONTINUOUS
 62
    4
 10
358.3011255039915
 20
131.49902170433435
 11
357.80801682087235
 21
131.47951338201685
  0
LINE
  8
_1-8_小物
  6
CONTINUOUS
 62
    4
 10
357.80801682087235
 20
131.47951338201685
 11
357.32719864487035
 21
131.39985854726885
  0
LINE
  8
_1-8_小物
  6
CONTINUOUS
 62
    4
 10
357.32719864487035
 20
131.39985854726885
 11
357.16066740562383
 21
131.35707331101594
  0
LINE
  8
_1-8_小物
  6
CONTINUOUS
 62
    4
 10
357.03985330378083
 20
127.15981094702609
 11
357.03985330378083
 21
127.15981094702609
  0
LINE
  8
_1-8_小物
  6
CONTINUOUS
 62
    4
 10
357.03985330378083
 20
127.15981094702609
 11
357.59949477314473
 21
127.04264060375608
  0
LINE
  8
_1-8_小物
  6
CONTINUOUS
 62
    4
 10
357.59949477314473
 20
127.04264060375608
 11
358.17776258652873
 21
127.00013588225708
  0
LINE
  8
_1-8_小物
  6
CONTINUOUS
 62
    4
 10
358.17776258652873
 20
127.00013588225708
 11
358.75708636904074
 21
127.03358826698343
  0
LINE
  8
_1-8_小物
  6
CONTINUOUS
 62
    4
 10
358.75708636904074
 20
127.03358826698343
 11
359.31986366070117
 21
127.14198132415292
  0
LINE
  8
_1-8_小物
  6
CONTINUOUS
 62
    4
 10
359.31986366070117
 20
127.14198132415292
 11
359.84899475828189
 21
127.32202158557301
  0
LINE
  8
_1-8_小物
  6
CONTINUOUS
 62
    4
 10
359.84899475828189
 20
127.32202158557301
 11
360.32840228113622
 21
127.5682386190052
  0
LINE
  8
_1-8_小物
  6
CONTINUOUS
 62
    4
 10
360.32840228113622
 20
127.5682386190052
 11
360.74351967427418
 21
127.8731512444805
  0
LINE
  8
_1-8_小物
  6
CONTINUOUS
 62
    4
 10
360.74351967427418
 20
127.8731512444805
 11
361.08173380576471
 21
128.22749484616705
  0
LINE
  8
_1-8_小物
  6
CONTINUOUS
 62
    4
 10
361.08173380576471
 20
128.22749484616705
 11
361.33276821036713
 21
128.62050287303416
  0
LINE
  8
_1-8_小物
  6
CONTINUOUS
 62
    4
 10
361.33276821036713
 20
128.62050287303416
 11
361.48899533472712
 21
129.04023397505711
  0
LINE
  8
_1-8_小物
  6
CONTINUOUS
 62
    4
 10
361.48899533472712
 20
129.04023397505711
 11
361.54566829672581
 21
129.47393483509509
  0
LINE
  8
_1-8_小物
  6
CONTINUOUS
 62
    4
 10
361.54566829672581
 20
129.47393483509509
 11
361.50106511709066
 21
129.9084276719791
  0
LINE
  8
_1-8_小物
  6
CONTINUOUS
 62
    4
 10
361.50106511709066
 20
129.9084276719791
 11
361.35654104086467
 21
130.33051064072441
  0
LINE
  8
_1-8_小物
  6
CONTINUOUS
 62
    4
 10
361.35654104086467
 20
130.33051064072441
 11
361.11648735897126
 21
130.72735896390998
  0
LINE
  8
_1-8_小物
  6
CONTINUOUS
 62
    4
 10
361.11648735897126
 20
130.72735896390998
 11
360.78819798106167
 21
131.08691460605073
  0
LINE
  8
_1-8_小物
  6
CONTINUOUS
 62
    4
 10
360.78819798106167
 20
131.08691460605073
 11
360.38164781376128
 21
131.39825265090417
  0
LINE
  8
_1-8_小物
  6
CONTINUOUS
 62
    4
 10
360.38164781376128
 20
131.39825265090417
 11
359.90918967817919
 21
131.6519132495221
  0
LINE
  8
_1-8_小物
  6
CONTINUOUS
 62
    4
 10
359.90918967817919
 20
131.6519132495221
 11
359.38517897568971
 21
131.8401890529739
  0
LINE
  8
_1-8_小物
  6
CONTINUOUS
 62
    4
 10
359.38517897568971
 20
131.8401890529739
 11
358.82553750632582
 21
131.95735939624393
  0
LINE
  8
_1-8_小物
  6
CONTINUOUS
 62
    4
 10
358.82553750632582
 20
131.95735939624393
 11
358.24726969294181
 21
131.99986411774293
  0
LINE
  8
_1-8_小物
  6
CONTINUOUS
 62
    4
 10
358.24726969294181
 20
131.99986411774293
 11
357.66794591042981
 21
131.96641173301657
  0
LINE
  8
_1-8_小物
  6
CONTINUOUS
 62
    4
 10
357.66794591042981
 20
131.96641173301657
 11
357.10516861876937
 21
131.85801867584709
  0
LINE
  8
_1-8_小物
  6
CONTINUOUS
 62
    4
 10
357.10516861876937
 20
131.85801867584709
 11
357.03985321657831
 21
131.84018902839438
  0
ARC
  8
_1-8_小物
  6
CONTINUOUS
 62
    4
 10
349.88841540894509
 20
124.49999999999997
 40
5
 50
74.239834260366322
 51
82.444482010075376
  0
ARC
  8
_1-8_小物
  6
CONTINUOUS
 62
    4
 10
349.82008748449618
 20
123.99999999999997
 40
5
 50
74.258588419677793
 51
81.653895699842849
  0
ARC
  8
_1-8_小物
  6
CONTINUOUS
 62
    4
 10
349.82008748449618
 20
135
 40
5
 50
278.34610430015715
 51
285.74141158032222
  0
ARC
  8
_1-8_小物
  6
CONTINUOUS
 62
    4
 10
349.88841540894509
 20
134.5
 40
5
 50
277.55551798992462
 51
285.76016573963363
  0
INSERT
  2
-007-_7_
  8
_1-8_小物
 10
210
 20
148.5
 41
1
 42
1
 50
0
  0
LINE
  8
_1-8_小物
  6
CONTINUOUS
 62
    4
 10
282.71851239622561
 20
131.84018902839435
 11
288.58179723614455
 21
130.18752043233465
  0
LINE
  8
_1-8_小物
  6
CONTINUOUS
 62
    4
 10
282.59769820717997
 20
131.35707331101597
 11
288.51189415477887
 21
129.68796469593613
  0
LINE
  8
_1-8_小物
  6
CONTINUOUS
 62
    4
 10
282.71851239622561
 20
127.15981097160562
 11
288.58179723614455
 21
128.81247956766532
  0
LINE
  8
_1-8_小物
  6
CONTINUOUS
 62
    4
 10
282.59769820717997
 20
127.64292668898401
 11
288.51189415477887
 21
129.31203530406384
  0
LINE
  8
_1-8_小物
  6
CONTINUOUS
 62
    4
 10
282.59769820718009
 20
131.35707331101594
 11
282.59769820718009
 21
131.35707331101594
  0
LINE
  8
_1-8_小物
  6
CONTINUOUS
 62
    4
 10
282.59769820718009
 20
131.35707331101594
 11
282.12487528339426
 21
131.45779074697211
  0
LINE
  8
_1-8_小物
  6
CONTINUOUS
 62
    4
 10
282.12487528339426
 20
131.45779074697211
 11
281.63445895336292
 21
131.49902170177148
  0
LINE
  8
_1-8_小物
  6
CONTINUOUS
 62
    4
 10
281.63445895336292
 20
131.49902170177148
 11
281.1413502691114
 21
131.47951339371627
  0
LINE
  8
_1-8_小物
  6
CONTINUOUS
 62
    4
 10
281.1413502691114
 20
131.47951339371627
 11
280.66053208848558
 21
131.39985857287513
  0
LINE
  8
_1-8_小物
  6
CONTINUOUS
 62
    4
 10
280.66053208848558
 20
131.39985857287513
 11
280.20661382859817
 21
131.262477510672
  0
LINE
  8
_1-8_小物
  6
CONTINUOUS
 62
    4
 10
280.20661382859817
 20
131.262477510672
 11
279.79338756608206
 21
131.07154446116377
  0
LINE
  8
_1-8_小物
  6
CONTINUOUS
 62
    4
 10
279.79338756608206
 20
131.07154446116377
 11
279.43340897182117
 21
130.8328608284429
  0
LINE
  8
_1-8_小物
  6
CONTINUOUS
 62
    4
 10
279.43340897182117
 20
130.8328608284429
 11
279.13761581324428
 21
130.55367889390996
  0
LINE
  8
_1-8_小物
  6
CONTINUOUS
 62
    4
 10
279.13761581324428
 20
130.55367889390996
 11
278.9149956157961
 21
130.24248145937278
  0
LINE
  8
_1-8_小物
  6
CONTINUOUS
 62
    4
 10
278.9149956157961
 20
130.24248145937278
 11
278.77231258152483
 21
129.90872410140634
  0
LINE
  8
_1-8_小物
  6
CONTINUOUS
 62
    4
 10
278.77231258152483
 20
129.90872410140634
 11
278.71390206222577
 21
129.56254786844303
  0
LINE
  8
_1-8_小物
  6
CONTINUOUS
 62
    4
 10
278.71390206222577
 20
129.56254786844303
 11
278.74153883197062
 21
129.2144711501478
  0
LINE
  8
_1-8_小物
  6
CONTINUOUS
 62
    4
 10
278.74153883197062
 20
129.2144711501478
 11
278.85438316149555
 21
128.8750700814708
  0
LINE
  8
_1-8_小物
  6
CONTINUOUS
 62
    4
 10
278.85438316149555
 20
128.8750700814708
 11
279.04900633295
 21
128.55465719213848
  0
LINE
  8
_1-8_小物
  6
CONTINUOUS
 62
    4
 10
279.04900633295
 20
128.55465719213848
 11
279.31949481975334
 21
128.26296806565651
  0
LINE
  8
_1-8_小物
  6
CONTINUOUS
 62
    4
 10
279.31949481975334
 20
128.26296806565651
 11
279.65762996610789
 21
128.0088655285312
  0
LINE
  8
_1-8_小物
  6
CONTINUOUS
 62
    4
 10
279.65762996610789
 20
128.0088655285312
 11
280.05313770669619
 21
127.80007035777102
  0
LINE
  8
_1-8_小物
  6
CONTINUOUS
 62
    4
 10
280.05313770669619
 20
127.80007035777102
 11
280.4940007389572
 21
127.64292668898406
  0
LINE
  8
_1-8_小物
  6
CONTINUOUS
 62
    4
 10
280.4940007389572
 20
127.64292668898406
 11
280.96682366274302
 21
127.54220925302788
  0
LINE
  8
_1-8_小物
  6
CONTINUOUS
 62
    4
 10
280.96682366274302
 20
127.54220925302788
 11
281.45723999277436
 21
127.50097829822853
  0
LINE
  8
_1-8_小物
  6
CONTINUOUS
 62
    4
 10
281.45723999277436
 20
127.50097829822853
 11
281.95034867702589
 21
127.52048660628371
  0
LINE
  8
_1-8_小物
  6
CONTINUOUS
 62
    4
 10
281.95034867702589
 20
127.52048660628371
 11
282.43116685765165
 21
127.60014142712487
  0
LINE
  8
_1-8_小物
  6
CONTINUOUS
 62
    4
 10
282.43116685765165
 20
127.60014142712487
 11
282.59769809938183
 21
127.64292665856115
  0
LINE
  8
_1-8_小物
  6
CONTINUOUS
 62
    4
 10
282.71851239622561
 20
131.84018902839438
 11
282.71851239622561
 21
131.84018902839438
  0
LINE
  8
_1-8_小物
  6
CONTINUOUS
 62
    4
 10
282.71851239622561
 20
131.84018902839438
 11
282.1588709312278
 21
131.9573593833947
  0
LINE
  8
_1-8_小物
  6
CONTINUOUS
 62
    4
 10
282.1588709312278
 20
131.9573593833947
 11
281.58060311942768
 21
131.99986411701445
  0
LINE
  8
_1-8_小物
  6
CONTINUOUS
 62
    4
 10
281.58060311942768
 20
131.99986411701445
 11
281.00127933566915
 21
131.96641174443101
  0
LINE
  8
_1-8_小物
  6
CONTINUOUS
 62
    4
 10
281.00127933566915
 20
131.96641174443101
 11
280.43850203996965
 21
131.8580186990576
  0
LINE
  8
_1-8_小物
  6
CONTINUOUS
 62
    4
 10
280.43850203996965
 20
131.8580186990576
 11
279.9093709356801
 21
131.67797844872834
  0
LINE
  8
_1-8_小物
  6
CONTINUOUS
 62
    4
 10
279.9093709356801
 20
131.67797844872834
 11
279.42996340365096
 21
131.43176142534472
  0
LINE
  8
_1-8_小物
  6
CONTINUOUS
 62
    4
 10
279.42996340365096
 20
131.43176142534472
 11
279.01484599915108
 21
131.12684880857049
  0
LINE
  8
_1-8_小物
  6
CONTINUOUS
 62
    4
 10
279.01484599915108
 20
131.12684880857049
 11
278.67663185445662
 21
130.77250521397303
  0
LINE
  8
_1-8_小物
  6
CONTINUOUS
 62
    4
 10
278.67663185445662
 20
130.77250521397303
 11
278.42559743520951
 21
130.37949719236772
  0
LINE
  8
_1-8_小物
  6
CONTINUOUS
 62
    4
 10
278.42559743520951
 20
130.37949719236772
 11
278.26937029520906
 21
129.95976609361938
  0
LINE
  8
_1-8_小物
  6
CONTINUOUS
 62
    4
 10
278.26937029520906
 20
129.95976609361938
 11
278.21269731704939
 21
129.52606523476928
  0
LINE
  8
_1-8_小物
  6
CONTINUOUS
 62
    4
 10
278.21269731704939
 20
129.52606523476928
 11
278.257300480494
 21
129.09157239695037
  0
LINE
  8
_1-8_小物
  6
CONTINUOUS
 62
    4
 10
278.257300480494
 20
129.09157239695037
 11
278.40182454099187
 21
128.66948942517575
  0
LINE
  8
_1-8_小物
  6
CONTINUOUS
 62
    4
 10
278.40182454099187
 20
128.66948942517575
 11
278.64187820809758
 21
128.27264109695858
  0
LINE
  8
_1-8_小物
  6
CONTINUOUS
 62
    4
 10
278.64187820809758
 20
128.27264109695858
 11
278.970167572609
 21
127.91308544793672
  0
LINE
  8
_1-8_小物
  6
CONTINUOUS
 62
    4
 10
278.970167572609
 20
127.91308544793672
 11
279.37671772830799
 21
127.60174739456181
  0
LINE
  8
_1-8_小物
  6
CONTINUOUS
 62
    4
 10
279.37671772830799
 20
127.60174739456181
 11
279.84917585443793
 21
127.34808678604097
  0
LINE
  8
_1-8_小物
  6
CONTINUOUS
 62
    4
 10
279.84917585443793
 20
127.34808678604097
 11
280.37318654991168
 21
127.15981097160564
  0
LINE
  8
_1-8_小物
  6
CONTINUOUS
 62
    4
 10
280.37318654991168
 20
127.15981097160564
 11
280.93282801490943
 21
127.04264061660528
  0
LINE
  8
_1-8_小物
  6
CONTINUOUS
 62
    4
 10
280.93282801490943
 20
127.04264061660528
 11
281.51109582670961
 21
127.00013588298553
  0
LINE
  8
_1-8_小物
  6
CONTINUOUS
 62
    4
 10
281.51109582670961
 20
127.00013588298553
 11
282.09041961046813
 21
127.03358825556899
  0
LINE
  8
_1-8_小物
  6
CONTINUOUS
 62
    4
 10
282.09041961046813
 20
127.03358825556899
 11
282.65319690616758
 21
127.14198130094242
  0
LINE
  8
_1-8_小物
  6
CONTINUOUS
 62
    4
 10
282.65319690616758
 20
127.14198130094242
 11
282.71851230902303
 21
127.15981094702607
  0
ARC
  8
_1-8_小物
  6
CONTINUOUS
 62
    4
 10
289.86995020385888
 20
124.49999999999997
 40
5
 50
97.555517989925917
 51
105.76016573963432
  0
ARC
  8
_1-8_小物
  6
CONTINUOUS
 62
    4
 10
289.93827812830762
 20
123.99999999999997
 40
5
 50
98.346104300156512
 51
105.74141158032096
  0
ARC
  8
_1-8_小物
  6
CONTINUOUS
 62
    4
 10
289.93827812830762
 20
135
 40
5
 50
254.25858841967909
 51
261.65389569984347
  0
ARC
  8
_1-8_小物
  6
CONTINUOUS
 62
    4
 10
289.86995020385888
 20
134.5
 40
5
 50
254.23983426036577
 51
262.44448201007407
  0
LINE
  8
_1-8_小物
  6
CONTINUOUS
 62
    4
 10
291.87918280640196
 20
129.24999999999997
 11
318.21251613973527
 21
129.24999999999997
  0
LINE
  8
_1-8_小物
  6
CONTINUOUS
 62
    4
 10
291.87918280640196
 20
129.75
 11
318.21251613973527
 21
129.75
  0
LINE
  8
_1-8_小物
  6
CONTINUOUS
 62
    4
 10
347.8791828064019
 20
129.24999999999997
 11
321.54584947306864
 21
129.24999999999997
  0
LINE
  8
_1-8_小物
  6
CONTINUOUS
 62
    4
 10
347.8791828064019
 20
129.75
 11
321.54584947306864
 21
129.75
  0
LINE
  8
_0-0_図面枠
  6
CONTINUOUS
 62
    4
 10
184.14999999999998
 20
58.199999999999989
 11
42
 21
58.199999999999989
  0
LINE
  8
_0-0_図面枠
  6
CONTINUOUS
 62
    4
 10
184.14999999999998
 20
70.199999999999989
 11
42
 21
70.199999999999989
  0
LINE
  8
_0-0_図面枠
  6
CONTINUOUS
 62
    4
 10
184.14999999999998
 20
64.199999999999989
 11
42
 21
64.199999999999989
  0
LINE
  8
_0-0_図面枠
  6
CONTINUOUS
 62
    4
 10
184.14999999999998
 20
76.199999999999989
 11
42
 21
76.199999999999989
  0
LINE
  8
_0-0_図面枠
  6
CONTINUOUS
 62
    4
 10
184.14999999999998
 20
112.20000000000005
 11
42
 21
112.20000000000005
  0
LINE
  8
_0-0_図面枠
  6
CONTINUOUS
 62
    4
 10
184.14999999999998
 20
106.20000000000005
 11
42
 21
106.20000000000005
  0
LINE
  8
_0-0_図面枠
  6
CONTINUOUS
 62
    4
 10
184.14999999999998
 20
100.20000000000005
 11
42
 21
100.20000000000005
  0
LINE
  8
_0-0_図面枠
  6
CONTINUOUS
 62
    4
 10
184.14999999999998
 20
94.200000000000045
 11
42
 21
94.200000000000045
  0
LINE
  8
_0-0_図面枠
  6
CONTINUOUS
 62
    4
 10
184.14999999999998
 20
88.200000000000045
 11
42
 21
88.200000000000045
  0
LINE
  8
_0-0_図面枠
  6
CONTINUOUS
 62
    4
 10
184.14999999999998
 20
82.199999999999989
 11
42
 21
82.199999999999989
  0
LINE
  8
_0-0_図面枠
  6
CONTINUOUS
 62
    4
 10
184.14999999999998
 20
123
 11
42
 21
123
  0
LINE
  8
_0-0_図面枠
  6
CONTINUOUS
 62
    4
 10
184.14999999999998
 20
52.199999999999989
 11
42
 21
52.199999999999989
  0
TEXT
  8
_0-0_図面枠
 62
    4
 10
167.55126400000003
 20
118.20001049999996
 40
3.2000000000000002
 41
1
 50
0
  1
使用
  0
TEXT
  8
_0-0_図面枠
 62
    4
 10
152.50638249999997
 20
118.20001049999996
 40
3.2000000000000002
 41
1
 50
0
  1
定　尺
  0
TEXT
  8
_0-0_図面枠
 62
    4
 10
150.3435475
 20
113.40000399999997
 40
3.2000000000000002
 41
1
 50
0
  1
（ｍｍ）
  0
TEXT
  8
_0-0_図面枠
 62
    4
 10
167.55126400000003
 20
113.40000399999997
 40
3.2000000000000002
 41
1
 50
0
  1
数量
  0
TEXT
  8
_0-0_図面枠
 62
    4
 10
42.497068000000013
 20
107.42754949999994
 40
3.2000000000000002
 41
1
 50
0
  1
　１
  0
TEXT
  8
_0-0_図面枠
 62
    4
 10
151.27047700000003
 20
107.40000399999997
 40
3.2000000000000002
 41
1
 50
0
  1
３０００
  0
TEXT
  8
_0-0_図面枠
 62
    4
 10
179.00512500000002
 20
107.40000399999997
 40
3.2000000000000002
 41
1
 50
0
  1
本
  0
TEXT
  8
_0-0_図面枠
 62
    4
 10
45.586831999999958
 20
101.42754949999994
 40
3.2000000000000002
 41
1
 50
0
  1
２
  0
TEXT
  8
_0-0_図面枠
 62
    4
 10
45.586831999999958
 20
95.427549499999941
 40
3.2000000000000002
 41
1
 50
0
  1
３
  0
TEXT
  8
_0-0_図面枠
 62
    4
 10
45.586831999999958
 20
89.427549499999941
 40
3.2000000000000002
 41
1
 50
0
  1
４
  0
TEXT
  8
_0-0_図面枠
 62
    4
 10
171.36022149999994
 20
89.450002999999924
 40
3.2000000000000002
 41
1
 50
0
  1
１
  0
TEXT
  8
_0-0_図面枠
 62
    4
 10
45.586831999999958
 20
83.427560999999969
 40
3.2000000000000002
 41
1
 50
0
  1
５
  0
TEXT
  8
_0-0_図面枠
 62
    4
 10
179.00512500000002
 20
83.399992499999996
 40
3.2000000000000002
 41
1
 50
0
  1
本
  0
TEXT
  8
_0-0_図面枠
 62
    4
 10
45.586831999999958
 20
77.427560999999969
 40
3.2000000000000002
 41
1
 50
0
  1
６
  0
TEXT
  8
_0-0_図面枠
 62
    4
 10
45.586831999999958
 20
71.427555499999983
 40
3.2000000000000002
 41
1
 50
0
  1
７
  0
TEXT
  8
_0-0_図面枠
 62
    4
 10
45.586831999999958
 20
65.427555499999983
 40
3.2000000000000002
 41
1
 50
0
  1
８
  0
TEXT
  8
_0-0_図面枠
 62
    4
 10
45.586831999999958
 20
59.427555499999983
 40
3.2000000000000002
 41
1
 50
0
  1
９
  0
LINE
  8
_0-0_図面枠
  6
CONTINUOUS
 62
    4
 10
384.15000000000009
 20
112.19999999999999
 11
242
 21
112.19999999999999
  0
LINE
  8
_0-0_図面枠
  6
CONTINUOUS
 62
    4
 10
384.15000000000009
 20
106.19999999999999
 11
242
 21
106.19999999999999
  0
LINE
  8
_0-0_図面枠
  6
CONTINUOUS
 62
    4
 10
384.15000000000009
 20
100.19999999999999
 11
242
 21
100.19999999999999
  0
LINE
  8
_0-0_図面枠
  6
CONTINUOUS
 62
    4
 10
384.15000000000009
 20
94.199999999999989
 11
242
 21
94.199999999999989
  0
LINE
  8
_0-0_図面枠
  6
CONTINUOUS
 62
    4
 10
384.15000000000009
 20
88.199999999999989
 11
242
 21
88.199999999999989
  0
LINE
  8
_0-0_図面枠
  6
CONTINUOUS
 62
    4
 10
384.15000000000009
 20
82.199999999999989
 11
242
 21
82.199999999999989
  0
LINE
  8
_0-0_図面枠
  6
CONTINUOUS
 62
    4
 10
384.15000000000009
 20
76.199999999999989
 11
242
 21
76.199999999999989
  0
LINE
  8
_0-0_図面枠
  6
CONTINUOUS
 62
    4
 10
384.15000000000009
 20
70.199999999999989
 11
242
 21
70.199999999999989
  0
LINE
  8
_0-0_図面枠
  6
CONTINUOUS
 62
    4
 10
384.15000000000009
 20
64.199999999999989
 11
242
 21
64.199999999999989
  0
LINE
  8
_0-0_図面枠
  6
CONTINUOUS
 62
    4
 10
384.15000000000009
 20
58.199999999999989
 11
242
 21
58.199999999999989
  0
LINE
  8
_0-0_図面枠
  6
CONTINUOUS
 62
    4
 10
384.15000000000009
 20
123
 11
242
 21
123
  0
LINE
  8
_0-0_図面枠
  6
CONTINUOUS
 62
    4
 10
384.15000000000009
 20
52.199999999999989
 11
242
 21
52.199999999999989
  0
TEXT
  8
_0-0_図面枠
 62
    4
 10
367.55123000000003
 20
118.20001050000002
 40
3.2000000000000002
 41
1
 50
0
  1
使用
  0
TEXT
  8
_0-0_図面枠
 62
    4
 10
352.50632500000006
 20
118.20002199999999
 40
3.2000000000000002
 41
1
 50
0
  1
定　尺
  0
TEXT
  8
_0-0_図面枠
 62
    4
 10
350.34349000000003
 20
113.400015
 40
3.2000000000000002
 41
1
 50
0
  1
（ｍｍ）
  0
TEXT
  8
_0-0_図面枠
 62
    4
 10
367.55123000000003
 20
113.40000400000002
 40
3.2000000000000002
 41
1
 50
0
  1
数量
  0
TEXT
  8
_0-0_図面枠
 62
    4
 10
242.4970505
 20
107.4275495
 40
3.2000000000000002
 41
1
 50
0
  1
　１
  0
TEXT
  8
_0-0_図面枠
 62
    4
 10
245.5868145
 20
101.4275495
 40
3.2000000000000002
 41
1
 50
0
  1
２
  0
TEXT
  8
_0-0_図面枠
 62
    4
 10
245.5868145
 20
95.427549499999998
 40
3.2000000000000002
 41
1
 50
0
  1
３
  0
TEXT
  8
_0-0_図面枠
 62
    4
 10
245.5868145
 20
89.427549499999998
 40
3.2000000000000002
 41
1
 50
0
  1
４
  0
TEXT
  8
_0-0_図面枠
 62
    4
 10
245.5868145
 20
83.427560999999997
 40
3.2000000000000002
 41
1
 50
0
  1
５
  0
TEXT
  8
_0-0_図面枠
 62
    4
 10
245.5868145
 20
77.427560999999997
 40
3.2000000000000002
 41
1
 50
0
  1
６
  0
TEXT
  8
_0-0_図面枠
 62
    4
 10
245.5868145
 20
71.427560999999997
 40
3.2000000000000002
 41
1
 50
0
  1
７
  0
TEXT
  8
_0-0_図面枠
 62
    4
 10
245.5868145
 20
65.427555499999983
 40
3.2000000000000002
 41
1
 50
0
  1
８
  0
TEXT
  8
_0-0_図面枠
 62
    4
 10
245.5868145
 20
59.427555499999983
 40
3.2000000000000002
 41
1
 50
0
  1
９
  0
TEXT
  8
_0-0_図面枠
 62
    4
 10
242.4970505
 20
53.427555499999983
 40
3.2000000000000002
 41
1
 50
0
  1
１０
  0
TEXT
  8
_0-0_図面枠
 62
    4
 10
171.36022149999994
 20
107.44999150000001
 40
3.2000000000000002
 41
1
 50
0
  1
１
  0
TEXT
  8
_0-0_図面枠
 62
    4
 10
50.400007500000015
 20
95.400003999999967
 40
3.2000000000000002
 41
1
 50
0
  1
ＳＳＧばね(Ａ)
  0
TEXT
  8
_0-0_図面枠
 62
    4
 10
50.400007500000015
 20
89.400003999999967
 40
3.2000000000000002
 41
1
 50
0
  1
ＳＳＧばねフレーム
  0
TEXT
  8
_0-0_図面枠
 62
    4
 10
151.27047700000003
 20
89.400003999999967
 40
3.2000000000000002
 41
1
 50
0
  1
３０００
  0
TEXT
  8
_0-0_図面枠
 62
    4
 10
171.36022149999994
 20
95.44999150000001
 40
3.2000000000000002
 41
1
 50
0
  1
６
  0
TEXT
  8
_0-0_図面枠
 62
    4
 10
151.27047700000003
 20
83.400003999999967
 40
3.2000000000000002
 41
1
 50
0
  1
３０００
  0
TEXT
  8
_0-0_図面枠
 62
    4
 10
171.36022149999994
 20
83.450002999999924
 40
3.2000000000000002
 41
1
 50
0
  1
１
  0
TEXT
  8
_0-0_図面枠
 62
    4
 10
179.00512500000002
 20
95.400004000000024
 40
3.2000000000000002
 41
1
 50
0
  1
個
  0
TEXT
  8
_0-0_図面枠
 62
    4
 10
180.54999999999998
 20
120.80000000000001
 40
3.2000000000000002
 41
1
 50
0
  1
単位
  7
TATEGAKI
  0
TEXT
  8
_0-0_図面枠
 62
    4
 10
380.55000000000007
 20
120.80000000000001
 40
3.2000000000000002
 41
1
 50
0
  1
単位
  7
TATEGAKI
  0
TEXT
  8
_0-0_図面枠
 62
    4
 10
42.4970505
 20
53.427555499999983
 40
3.2000000000000002
 41
1
 50
0
  1
１０
  0
TEXT
  8
_0-0_図面枠
 62
    4
 10
351.27047700000014
 20
107.40000399999997
 40
3.2000000000000002
 41
1
 50
0
  1
３０００
  0
TEXT
  8
_0-0_図面枠
 62
    4
 10
379.00512500000013
 20
107.40000399999997
 40
3.2000000000000002
 41
1
 50
0
  1
本
  0
TEXT
  8
_0-0_図面枠
 62
    4
 10
371.36022150000008
 20
89.450002999999924
 40
3.2000000000000002
 41
1
 50
0
  1
１
  0
TEXT
  8
_0-0_図面枠
 62
    4
 10
379.00512500000013
 20
83.399992499999996
 40
3.2000000000000002
 41
1
 50
0
  1
本
  0
TEXT
  8
_0-0_図面枠
 62
    4
 10
371.36022150000008
 20
107.44999150000001
 40
3.2000000000000002
 41
1
 50
0
  1
１
  0
TEXT
  8
_0-0_図面枠
 62
    4
 10
351.27047700000014
 20
89.400003999999967
 40
3.2000000000000002
 41
1
 50
0
  1
３０００
  0
TEXT
  8
_0-0_図面枠
 62
    4
 10
371.36022150000008
 20
95.44999150000001
 40
3.2000000000000002
 41
1
 50
0
  1
６
  0
TEXT
  8
_0-0_図面枠
 62
    4
 10
351.27047700000014
 20
83.400003999999967
 40
3.2000000000000002
 41
1
 50
0
  1
３０００
  0
TEXT
  8
_0-0_図面枠
 62
    4
 10
371.36022150000008
 20
83.450002999999924
 40
3.2000000000000002
 41
1
 50
0
  1
１
  0
TEXT
  8
_0-0_図面枠
 62
    4
 10
379.00512500000013
 20
95.400004000000024
 40
3.2000000000000002
 41
1
 50
0
  1
個
  0
TEXT
  8
_0-0_図面枠
 62
    4
 10
250.4000075000001
 20
95.400003999999967
 40
3.2000000000000002
 41
1
 50
0
  1
ＳＣＧばね(Ａ)
  0
TEXT
  8
_0-0_図面枠
 62
    4
 10
250.4000075000001
 20
89.400003999999967
 40
3.2000000000000002
 41
1
 50
0
  1
ＳＣＧばねフレーム
  0
TEXT
  8
_0-0_図面枠
 62
    4
 10
179.00512500000002
 20
89.400003999999967
 40
3.2000000000000002
 41
1
 50
0
  1
本
  0
TEXT
  8
_0-0_図面枠
 62
    4
 10
50.400007500000015
 20
101.40000399999997
 40
3.2000000000000002
 41
1
 50
0
  1
ＳＳＧアーム(Ｂ)
  0
TEXT
  8
_0-0_図面枠
 62
    4
 10
50.400007500000015
 20
83.400003999999967
 40
3.2000000000000002
 41
1
 50
0
  1
ＳＳＧフレーム(Ｂ)
  0
TEXT
  8
_0-0_図面枠
 62
    4
 10
250.4000075000001
 20
101.40000399999997
 40
3.2000000000000002
 41
1
 50
0
  1
ＳＣＧアーム(Ｂ)
  0
TEXT
  8
_0-0_図面枠
 62
    4
 10
250.4000075000001
 20
83.400003999999967
 40
3.2000000000000002
 41
1
 50
0
  1
ＳＳＧフレーム(Ｂ)
  0
TEXT
  8
_0-0_図面枠
 62
    4
 10
69.633333333333383
 20
116.00000000000003
 40
3.2000000000000002
 41
1
 50
0
  1
部材名称
  0
TEXT
  8
_0-0_図面枠
 62
    4
 10
121.10833333333338
 20
116.00000000000001
 40
3.2000000000000002
 41
1
 50
0
  1
規　格
  0
TEXT
  8
_0-0_図面枠
 62
    4
 10
271.30000000000001
 20
116
 40
3.2000000000000002
 41
1
 50
0
  1
部材名称
  0
TEXT
  8
_0-0_図面枠
 62
    4
 10
321.10833333333335
 20
116
 40
3.2000000000000002
 41
1
 50
0
  1
規　格
  0
TEXT
  8
_0-0_図面枠
 62
    4
 10
368.27045750000013
 20
71.450008499999967
 40
3.2000000000000002
 41
1
 50
0
  1
１２
  0
TEXT
  8
_0-0_図面枠
 62
    4
 10
371.36022150000008
 20
77.450002999999924
 40
3.2000000000000002
 41
1
 50
0
  1
６
  0
TEXT
  8
_0-0_図面枠
 62
    4
 10
250.4000075000001
 20
71.40000950000001
 40
3.2000000000000002
 41
1
 50
0
  1
ステンタッピンねじ
  0
TEXT
  8
_0-0_図面枠
 62
    4
 10
250.4000075000001
 20
65.40000950000001
 40
3.2000000000000002
 41
1
 50
0
  1
ステンワッシャー
  0
TEXT
  8
_0-0_図面枠
 62
    4
 10
351.27047700000014
 20
53.40000950000001
 40
3.2000000000000002
 41
1
 50
0
  1
３１００
  0
TEXT
  8
_0-0_図面枠
 62
    4
 10
371.36022150000008
 20
53.449997499999995
 40
3.2000000000000002
 41
1
 50
0
  1
２
  0
TEXT
  8
_0-0_図面枠
 62
    4
 10
379.00512500000013
 20
53.40000950000001
 40
3.2000000000000002
 41
1
 50
0
  1
本
  0
TEXT
  8
_0-0_図面枠
 62
    4
 10
368.27045750000013
 20
65.450008499999967
 40
3.2000000000000002
 41
1
 50
0
  1
１２
  0
TEXT
  8
_0-0_図面枠
 62
    4
 10
368.27045750000013
 20
59.450008499999967
 40
3.2000000000000002
 41
1
 50
0
  1
１２
  0
TEXT
  8
_0-0_図面枠
 62
    4
 10
379.00512500000013
 20
77.399992499999996
 40
3.2000000000000002
 41
1
 50
0
  1
本
  0
TEXT
  8
_0-0_図面枠
 62
    4
 10
379.00512500000013
 20
59.399992499999996
 40
3.2000000000000002
 41
1
 50
0
  1
本
  0
TEXT
  8
_0-0_図面枠
 62
    4
 10
379.00512500000013
 20
65.40000950000001
 40
3.2000000000000002
 41
1
 50
0
  1
枚
  0
TEXT
  8
_0-0_図面枠
 62
    4
 10
379.00512500000013
 20
71.399992499999996
 40
3.2000000000000002
 41
1
 50
0
  1
本
  0
TEXT
  8
_0-0_図面枠
 62
    4
 10
304.06669116666689
 20
71.40000950000001
 40
3.2000000000000002
 41
1
 50
0
  1
なべ５×５０
  0
TEXT
  8
_0-0_図面枠
 62
    4
 10
304.06663366666686
 20
65.400003999999996
 40
3.2000000000000002
 41
1
 50
0
  1
１．５×１８×５．５穴
  0
TEXT
  8
_0-0_図面枠
 62
    4
 10
168.27045749999999
 20
71.450008499999967
 40
3.2000000000000002
 41
1
 50
0
  1
１２
  0
TEXT
  8
_0-0_図面枠
 62
    4
 10
171.36022149999994
 20
77.450002999999924
 40
3.2000000000000002
 41
1
 50
0
  1
６
  0
TEXT
  8
_0-0_図面枠
 62
    4
 10
50.400007500000015
 20
71.40000950000001
 40
3.2000000000000002
 41
1
 50
0
  1
ステンタッピンねじ
  0
TEXT
  8
_0-0_図面枠
 62
    4
 10
50.400007500000015
 20
65.40000950000001
 40
3.2000000000000002
 41
1
 50
0
  1
ステンワッシャー
  0
TEXT
  8
_0-0_図面枠
 62
    4
 10
151.27047700000003
 20
53.40000950000001
 40
3.2000000000000002
 41
1
 50
0
  1
３１００
  0
TEXT
  8
_0-0_図面枠
 62
    4
 10
171.36022149999994
 20
53.449997499999995
 40
3.2000000000000002
 41
1
 50
0
  1
２
  0
TEXT
  8
_0-0_図面枠
 62
    4
 10
168.27045749999999
 20
65.450008499999967
 40
3.2000000000000002
 41
1
 50
0
  1
１２
  0
TEXT
  8
_0-0_図面枠
 62
    4
 10
168.27045749999999
 20
59.450008499999967
 40
3.2000000000000002
 41
1
 50
0
  1
１２
  0
TEXT
  8
_0-0_図面枠
 62
    4
 10
179.00512500000002
 20
77.399992499999996
 40
3.2000000000000002
 41
1
 50
0
  1
本
  0
TEXT
  8
_0-0_図面枠
 62
    4
 10
179.00512500000002
 20
59.399992499999996
 40
3.2000000000000002
 41
1
 50
0
  1
本
  0
TEXT
  8
_0-0_図面枠
 62
    4
 10
179.00512500000002
 20
65.40000950000001
 40
3.2000000000000002
 41
1
 50
0
  1
枚
  0
TEXT
  8
_0-0_図面枠
 62
    4
 10
179.00512500000002
 20
71.399992499999996
 40
3.2000000000000002
 41
1
 50
0
  1
本
  0
TEXT
  8
_0-0_図面枠
 62
    4
 10
104.06669116666677
 20
71.40000950000001
 40
3.2000000000000002
 41
1
 50
0
  1
なべ５×５０
  0
TEXT
  8
_0-0_図面枠
 62
    4
 10
104.06663366666675
 20
65.400003999999996
 40
3.2000000000000002
 41
1
 50
0
  1
１．５×１８×５．５穴
  0
TEXT
  8
_0-0_図面枠
 62
    4
 10
250.40000750000002
 20
78.000009500000004
 40
3.2000000000000002
 41
1
 50
0
  1
ステンドリリングねじ
  0
TEXT
  8
_0-0_図面枠
 62
    4
 10
50.400007500000015
 20
78.000009500000004
 40
3.2000000000000002
 41
1
 50
0
  1
ステンドリリングねじ
  0
TEXT
  8
_0-0_図面枠
 62
    4
 10
171.36022149999994
 20
101.44999150000001
 40
3.2000000000000002
 41
1
 50
0
  1
６
  0
TEXT
  8
_0-0_図面枠
 62
    4
 10
179.00512500000002
 20
101.40000400000002
 40
3.2000000000000002
 41
1
 50
0
  1
個
  0
TEXT
  8
_0-0_図面枠
 62
    4
 10
371.36022150000008
 20
101.44999149999995
 40
3.2000000000000002
 41
1
 50
0
  1
６
  0
TEXT
  8
_0-0_図面枠
 62
    4
 10
379.00512500000013
 20
101.40000399999997
 40
3.2000000000000002
 41
1
 50
0
  1
個
  0
TEXT
  8
_0-0_図面枠
 62
    4
 10
124.30833333333341
 20
107.60000000000007
 40
3.2000000000000002
 41
1
 50
0
  1
―
  0
TEXT
  8
_0-0_図面枠
 62
    4
 10
124.30833333333341
 20
95.600000000000065
 40
3.2000000000000002
 41
1
 50
0
  1
―
  0
TEXT
  8
_0-0_図面枠
 62
    4
 10
124.30833333333341
 20
89.600000000000065
 40
3.2000000000000002
 41
1
 50
0
  1
―
  0
TEXT
  8
_0-0_図面枠
 62
    4
 10
124.30833333333341
 20
83.600000000000065
 40
3.2000000000000002
 41
1
 50
0
  1
―
  0
TEXT
  8
_0-0_図面枠
 62
    4
 10
155.85000000000005
 20
95.600000000000051
 40
3.2000000000000002
 41
1
 50
0
  1
―
  0
TEXT
  8
_0-0_図面枠
 62
    4
 10
104.06669116666676
 20
101.40000400000002
 40
3.2000000000000002
 41
1
 50
0
  1
Ｌ＝１９０
  0
TEXT
  8
_0-0_図面枠
 62
    4
 10
155.85000000000005
 20
101.60000000000005
 40
3.2000000000000002
 41
1
 50
0
  1
―
  0
TEXT
  8
_0-0_図面枠
 62
    4
 10
379.00512500000013
 20
89.399992499999996
 40
3.2000000000000002
 41
1
 50
0
  1
本
  0
LINE
  8
_0-0_図面枠
  6
CONTINUOUS
 62
    4
 10
184.14999999999998
 20
40.199999999999989
 11
42
 21
40.199999999999989
  0
LINE
  8
_0-0_図面枠
  6
CONTINUOUS
 62
    4
 10
184.14999999999998
 20
34.199999999999989
 11
42
 21
34.199999999999989
  0
LINE
  8
_0-0_図面枠
  6
CONTINUOUS
 62
    4
 10
184.14999999999998
 20
28.199999999999989
 11
42
 21
28.199999999999989
  0
TEXT
  8
_0-0_図面枠
 62
    4
 10
45.586831999999958
 20
35.427555499999983
 40
3.2000000000000002
 41
1
 50
0
  1
※
  0
TEXT
  8
_0-0_図面枠
 62
    4
 10
45.586831999999958
 20
29.427560999999969
 40
3.2000000000000002
 41
1
 50
0
  1
※
  0
LINE
  8
_0-0_図面枠
  6
CONTINUOUS
 62
    4
 10
384.15000000000009
 20
40.199999999999989
 11
242
 21
40.199999999999989
  0
LINE
  8
_0-0_図面枠
  6
CONTINUOUS
 62
    4
 10
384.15000000000009
 20
28.199999999999989
 11
242
 21
28.199999999999989
  0
LINE
  8
_0-0_図面枠
  6
CONTINUOUS
 62
    4
 10
384.15000000000009
 20
34.199999999999989
 11
242
 21
34.199999999999989
  0
TEXT
  8
_0-0_図面枠
 62
    4
 10
245.5868145
 20
35.427555499999983
 40
3.2000000000000002
 41
1
 50
0
  1
※
  0
TEXT
  8
_0-0_図面枠
 62
    4
 10
245.5868145
 20
29.427555499999983
 40
3.2000000000000002
 41
1
 50
0
  1
※
  0
TEXT
  8
_0-0_図面枠
 62
    4
 10
371.8602370000001
 20
41.450002999999981
 40
3.2000000000000002
 41
1
 50
0
  1
１
  0
TEXT
  8
_0-0_図面枠
 62
    4
 10
379.00510200000008
 20
41.400003999999996
 40
3.2000000000000002
 41
1
 50
0
  1
個
  0
TEXT
  8
_0-0_図面枠
 62
    4
 10
351.27041950000012
 20
35.40000950000001
 40
3.2000000000000002
 41
1
 50
0
  1
６０００
  0
TEXT
  8
_0-0_図面枠
 62
    4
 10
371.8602370000001
 20
35.450002999999981
 40
3.2000000000000002
 41
1
 50
0
  1
１
  0
TEXT
  8
_0-0_図面枠
 62
    4
 10
379.00510200000008
 20
35.40000950000001
 40
3.2000000000000002
 41
1
 50
0
  1
巻
  0
TEXT
  8
_0-0_図面枠
 62
    4
 10
250.400013
 20
35.40000950000001
 40
3.2000000000000002
 41
1
 50
0
  1
ブチルテープ
  0
TEXT
  8
_0-0_図面枠
 62
    4
 10
371.8602370000001
 20
29.450002999999981
 40
3.2000000000000002
 41
1
 50
0
  1
２
  0
TEXT
  8
_0-0_図面枠
 62
    4
 10
379.00510200000008
 20
29.400006499999989
 40
3.2000000000000002
 41
1
 50
0
  1
本
  0
TEXT
  8
_0-0_図面枠
 62
    4
 10
304.06663366666669
 20
35.40000950000001
 40
3.2000000000000002
 41
1
 50
0
  1
ｔ１．０×ｗ３０
  0
TEXT
  8
_0-0_図面枠
 62
    4
 10
304.06669116666671
 20
29.400009499999982
 40
3.2000000000000002
 41
1
 50
0
  1
１.５×(１×１９)Ｌ＝６００
  0
TEXT
  8
_0-0_図面枠
 62
    4
 10
171.36022149999994
 20
41.450002999999981
 40
3.2000000000000002
 41
1
 50
0
  1
１
  0
LINE
  8
_0-0_図面枠
  6
CONTINUOUS
 62
    4
 10
184.14999999999998
 20
28.199999999999989
 11
42
 21
28.199999999999989
  0
TEXT
  8
_0-0_図面枠
 62
    4
 10
179.00512500000002
 20
41.400003999999967
 40
3.2000000000000002
 41
1
 50
0
  1
個
  0
TEXT
  8
_0-0_図面枠
 62
    4
 10
151.27047700000003
 20
35.400014999999996
 40
3.2000000000000002
 41
1
 50
0
  1
６０００
  0
TEXT
  8
_0-0_図面枠
 62
    4
 10
171.36022149999994
 20
35.450002999999981
 40
3.2000000000000002
 41
1
 50
0
  1
１
  0
TEXT
  8
_0-0_図面枠
 62
    4
 10
179.00512500000002
 20
35.40000950000001
 40
3.2000000000000002
 41
1
 50
0
  1
巻
  0
TEXT
  8
_0-0_図面枠
 62
    4
 10
50.400007500000015
 20
35.40000950000001
 40
3.2000000000000002
 41
1
 50
0
  1
ブチルテープ
  0
TEXT
  8
_0-0_図面枠
 62
    4
 10
171.36022149999994
 20
29.450002999999981
 40
3.2000000000000002
 41
1
 50
0
  1
２
  0
TEXT
  8
_0-0_図面枠
 62
    4
 10
179.00512500000002
 20
29.40000950000001
 40
3.2000000000000002
 41
1
 50
0
  1
本
  0
TEXT
  8
_0-0_図面枠
 62
    4
 10
104.06669116666677
 20
35.40000950000001
 40
3.2000000000000002
 41
1
 50
0
  1
ｔ１．０×ｗ３０
  0
TEXT
  8
_0-0_図面枠
 62
    4
 10
104.06669116666677
 20
29.400009499999982
 40
3.2000000000000002
 41
1
 50
0
  1
１.５×(１×１９)Ｌ＝６００
  0
TEXT
  8
_0-0_図面枠
 62
    4
 10
245.5868145
 20
41.427555499999983
 40
3.2000000000000002
 41
1
 50
0
  1
※
  0
TEXT
  8
_0-0_図面枠
 62
    4
 10
45.586814500000003
 20
41.427555499999983
 40
3.2000000000000002
 41
1
 50
0
  1
※
  0
TEXT
  8
_0-0_図面枠
 62
    4
 10
50.400007500000015
 20
29.400009500000024
 40
3.2000000000000002
 41
1
 50
0
  1
落下防止ワイヤー
  0
TEXT
  8
_0-0_図面枠
 62
    4
 10
250.40000750000002
 20
29.40000950000001
 40
3.2000000000000002
 41
1
 50
0
  1
落下防止ワイヤー
  0
LINE
  8
_0-0_図面枠
  6
CONTINUOUS
 62
    4
 10
242
 20
28.199999999999989
 11
242
 21
123.00000000000003
  0
LINE
  8
_0-0_図面枠
  6
CONTINUOUS
 62
    4
 10
249.20000000000005
 20
28.199999999999989
 11
249.20000000000005
 21
123.00000000000003
  0
LINE
  8
_0-0_図面枠
  6
CONTINUOUS
 62
    4
 10
348.95000000000005
 20
28.199999999999989
 11
348.95000000000005
 21
123
  0
LINE
  8
_0-0_図面枠
  6
CONTINUOUS
 62
    4
 10
384.15000000000009
 20
28.199999999999989
 11
384.15000000000009
 21
123
  0
LINE
  8
_0-0_図面枠
  6
CONTINUOUS
 62
    4
 10
376.95000000000005
 20
28.199999999999989
 11
376.95000000000005
 21
123
  0
LINE
  8
_0-0_図面枠
  6
CONTINUOUS
 62
    4
 10
364.95000000000005
 20
28.199999999999989
 11
364.95000000000005
 21
123
  0
LINE
  8
_0-0_図面枠
  6
CONTINUOUS
 62
    4
 10
349.95000000000005
 20
28.199999999999989
 11
349.95000000000005
 21
123
  0
LINE
  8
_0-0_図面枠
  6
CONTINUOUS
 62
    4
 10
302.86666666666667
 20
28.199999999999989
 11
302.86666666666667
 21
123
  0
LINE
  8
_0-0_図面枠
  6
CONTINUOUS
 62
    4
 10
42
 20
28.199999999999989
 11
42
 21
123.00000000000003
  0
LINE
  8
_0-0_図面枠
  6
CONTINUOUS
 62
    4
 10
49.200000000000045
 20
28.199999999999989
 11
49.200000000000045
 21
123.00000000000003
  0
LINE
  8
_0-0_図面枠
  6
CONTINUOUS
 62
    4
 10
164.95000000000002
 20
28.199999999999989
 11
164.95000000000002
 21
123.00000000000001
  0
LINE
  8
_0-0_図面枠
  6
CONTINUOUS
 62
    4
 10
149.95000000000005
 20
28.199999999999989
 11
149.95000000000005
 21
123.00000000000001
  0
LINE
  8
_0-0_図面枠
  6
CONTINUOUS
 62
    4
 10
176.95000000000005
 20
28.199999999999989
 11
176.95000000000005
 21
123.00000000000001
  0
LINE
  8
_0-0_図面枠
  6
CONTINUOUS
 62
    4
 10
148.95000000000005
 20
28.199999999999989
 11
148.95000000000005
 21
123.00000000000001
  0
LINE
  8
_0-0_図面枠
  6
CONTINUOUS
 62
    4
 10
184.14999999999998
 20
28.199999999999989
 11
184.14999999999998
 21
123.00000000000001
  0
LINE
  8
_0-0_図面枠
  6
CONTINUOUS
 62
    4
 10
102.86666666666673
 20
28.199999999999989
 11
102.86666666666673
 21
123.00000000000003
  0
LINE
  8
_0-0_図面枠
  6
CONTINUOUS
 62
    4
 10
184.14999999999998
 20
46.199999999999989
 11
42
 21
46.199999999999989
  0
LINE
  8
_0-0_図面枠
  6
CONTINUOUS
 62
    4
 10
384.15000000000009
 20
46.199999999999989
 11
242
 21
46.199999999999989
  0
TEXT
  8
_0-0_図面枠
 62
    4
 10
42.4970505
 20
47.427555499999983
 40
3.2000000000000002
 41
1
 50
0
  1
１１
  0
TEXT
  8
_0-0_図面枠
 62
    4
 10
242.4970505
 20
47.427555499999983
 40
3.2000000000000002
 41
1
 50
0
  1
１１
  0
TEXT
  8
_0-0_図面枠
 62
    4
 10
124.30833333333339
 20
53.599999999999994
 40
3.2000000000000002
 41
1
 50
0
  1
―
  0
TEXT
  8
_0-0_図面枠
 62
    4
 10
155.85000000000002
 20
59.599999999999994
 40
3.2000000000000002
 41
1
 50
0
  1
―
  0
TEXT
  8
_0-0_図面枠
 62
    4
 10
104.06669116666674
 20
59.40000950000001
 40
3.2000000000000002
 41
1
 50
0
  1
φ８×４０
  0
TEXT
  8
_0-0_図面枠
 62
    4
 10
50.400007500000015
 20
53.400003999999967
 40
3.2000000000000002
 41
1
 50
0
  1
ガスケットＧＡ１５
  0
TEXT
  8
_0-0_図面枠
 62
    4
 10
155.85000000000002
 20
47.599999999999994
 40
3.2000000000000002
 41
1
 50
0
  1
―
  0
TEXT
  8
_0-0_図面枠
 62
    4
 10
124.30833333333337
 20
47.599999999999994
 40
3.2000000000000002
 41
1
 50
0
  1
―
  0
TEXT
  8
_0-0_図面枠
 62
    4
 10
50.400007499999987
 20
47.400003999999967
 40
3.2000000000000002
 41
1
 50
0
  1
ＳＳＧクリップ
  0
TEXT
  8
_0-0_図面枠
 62
    4
 10
324.30833333333339
 20
53.599999999999994
 40
3.2000000000000002
 41
1
 50
0
  1
―
  0
TEXT
  8
_0-0_図面枠
 62
    4
 10
355.85000000000002
 20
59.599999999999994
 40
3.2000000000000002
 41
1
 50
0
  1
―
  0
TEXT
  8
_0-0_図面枠
 62
    4
 10
304.06669116666671
 20
59.40000950000001
 40
3.2000000000000002
 41
1
 50
0
  1
φ８×４０
  0
TEXT
  8
_0-0_図面枠
 62
    4
 10
250.40000750000002
 20
53.400003999999967
 40
3.2000000000000002
 41
1
 50
0
  1
ガスケットＧＡ１５
  0
TEXT
  8
_0-0_図面枠
 62
    4
 10
355.85000000000002
 20
47.599999999999994
 40
3.2000000000000002
 41
1
 50
0
  1
―
  0
TEXT
  8
_0-0_図面枠
 62
    4
 10
371.36022149999991
 20
47.450002999999924
 40
3.2000000000000002
 41
1
 50
0
  1
６
  0
TEXT
  8
_0-0_図面枠
 62
    4
 10
324.30833333333334
 20
47.599999999999994
 40
3.2000000000000002
 41
1
 50
0
  1
―
  0
TEXT
  8
_0-0_図面枠
 62
    4
 10
250.40000749999999
 20
47.400003999999967
 40
3.2000000000000002
 41
1
 50
0
  1
ＳＳＧクリップ
  0
TEXT
  8
_0-0_図面枠
 62
    4
 10
155.85000000000005
 20
29.599999999999994
 40
3.2000000000000002
 41
1
 50
0
  1
―
  0
TEXT
  8
_0-0_図面枠
 62
    4
 10
155.85000000000002
 20
41.599999999999994
 40
3.2000000000000002
 41
1
 50
0
  1
―
  0
TEXT
  8
_0-0_図面枠
 62
    4
 10
104.06667966666672
 20
41.400003999999967
 40
3.2000000000000002
 41
1
 50
0
  1
ＡＬ　ｔ＝１．５
  0
TEXT
  8
_0-0_図面枠
 62
    4
 10
355.85000000000002
 20
29.599999999999994
 40
3.2000000000000002
 41
1
 50
0
  1
―
  0
TEXT
  8
_0-0_図面枠
 62
    4
 10
355.85000000000002
 20
41.599999999999994
 40
3.2000000000000002
 41
1
 50
0
  1
―
  0
TEXT
  8
_0-0_図面枠
 62
    4
 10
304.06667966666674
 20
41.400003999999967
 40
3.2000000000000002
 41
1
 50
0
  1
ＡＬ　ｔ＝１．５
  0
TEXT
  8
_0-0_図面枠
 62
    4
 10
155.85000000000002
 20
65.600000000000009
 40
3.2000000000000002
 41
1
 50
0
  1
―
  0
TEXT
  8
_0-0_図面枠
 62
    4
 10
155.85000000000002
 20
71.600000000000009
 40
3.2000000000000002
 41
1
 50
0
  1
―
  0
TEXT
  8
_0-0_図面枠
 62
    4
 10
155.85000000000002
 20
77.600000000000009
 40
3.2000000000000002
 41
1
 50
0
  1
―
  0
TEXT
  8
_0-0_図面枠
 62
    4
 10
355.85000000000002
 20
65.600000000000009
 40
3.2000000000000002
 41
1
 50
0
  1
―
  0
TEXT
  8
_0-0_図面枠
 62
    4
 10
355.85000000000002
 20
71.600000000000009
 40
3.2000000000000002
 41
1
 50
0
  1
―
  0
TEXT
  8
_0-0_図面枠
 62
    4
 10
355.85000000000002
 20
77.600000000000009
 40
3.2000000000000002
 41
1
 50
0
  1
―
  0
TEXT
  8
_0-0_図面枠
 62
    4
 10
324.30833333333328
 20
107.60000000000001
 40
3.2000000000000002
 41
1
 50
0
  1
―
  0
TEXT
  8
_0-0_図面枠
 62
    4
 10
324.30833333333328
 20
95.600000000000009
 40
3.2000000000000002
 41
1
 50
0
  1
―
  0
TEXT
  8
_0-0_図面枠
 62
    4
 10
324.30833333333328
 20
89.600000000000009
 40
3.2000000000000002
 41
1
 50
0
  1
―
  0
TEXT
  8
_0-0_図面枠
 62
    4
 10
324.30833333333328
 20
83.600000000000009
 40
3.2000000000000002
 41
1
 50
0
  1
―
  0
TEXT
  8
_0-0_図面枠
 62
    4
 10
355.85000000000002
 20
95.599999999999994
 40
3.2000000000000002
 41
1
 50
0
  1
―
  0
TEXT
  8
_0-0_図面枠
 62
    4
 10
355.85000000000002
 20
101.59999999999999
 40
3.2000000000000002
 41
1
 50
0
  1
―
  0
TEXT
  8
_0-0_図面枠
 62
    4
 10
304.06669116666671
 20
101.40000399999997
 40
3.2000000000000002
 41
1
 50
0
  1
Ｌ＝１２２
  0
INSERT
  2
-008-_8_
  8
_1-8_小物
 10
210
 20
148.5
 41
1
 42
1
 50
0
  0
INSERT
  2
-009-_9_
  8
_1-4_フレ__ム
 10
210
 20
148.5
 41
1
 42
1
 50
0
  0
INSERT
  2
-010-_10_
  8
_1-4_フレ__ム
 10
210
 20
148.5
 41
1
 42
1
 50
0
  0
INSERT
  2
-011-_11_
  8
_1-8_小物
 10
210
 20
148.5
 41
1
 42
1
 50
0
  0
CIRCLE
  8
_1-f_寸法
  6
CONTINUOUS
 62
    4
 10
331.66666666666657
 20
211.33333333333331
 40
1.6666666666666665
  0
CIRCLE
  8
_1-f_寸法
  6
CONTINUOUS
 62
    4
 10
344.99999999999989
 20
211.33333333333331
 40
1.6666666666666665
  0
LINE
  8
_1-f_寸法
  6
CONTINUOUS
 62
    4
 10
332.68677323498264
 20
212.6513471295647
 11
336.37499999999989
 21
217.41666666666666
  0
LINE
  8
_1-f_寸法
  6
CONTINUOUS
 62
    4
 10
343.83889094810786
 20
212.52899363098993
 11
338.33333333333326
 21
218.19838071028337
  0
TEXT
  8
_1-f_寸法
 62
    4
 10
344.37499999999989
 20
210.08333333333331
 40
2.5
 41
1
 50
0
  1
7
  0
TEXT
  8
_1-f_寸法
 62
    4
 10
331.04166666666657
 20
210.08333333333331
 40
2.5
 41
1
 50
0
  1
8
  0
LINE
  8
_1-f_寸法
  6
CONTINUOUS
 62
    4
 10
138.33333333333331
 20
218.19838071028337
 11
143.80950072449269
 21
212.83306679217861
  0
LINE
  8
_1-f_寸法
  6
CONTINUOUS
 62
    4
 10
136.375
 20
217.41666666666666
 11
132.72257174927165
 21
212.95617906843205
  0
LINE
  8
_1-f_寸法
  6
CONTINUOUS
 62
    4
 10
129.16666666666666
 20
226.88995766035922
 11
124.35312615655087
 21
218.55266093254767
  0
LINE
  8
_1-f_寸法
  6
CONTINUOUS
 62
    4
 10
330.68776028432319
 20
226.98443745857733
 11
324.63333333333333
 21
218.64166666666665
  0
INSERT
  2
-012-_12_
  8
_1-4_フレ__ム
 10
210
 20
148.5
 41
1
 42
1
 50
0
  0
INSERT
  2
-013-_13_
  8
_1-8_小物
 10
210
 20
148.5
 41
1
 42
1
 50
0
  0
INSERT
  2
-014-_14_
  8
_1-5_ア__ム
 10
210
 20
148.5
 41
1
 42
1
 50
0
  0
LINE
  8
_1-6_ばね
  6
CENTER2
 62
    4
 10
80.650166778653897
 20
216.74999885706296
 11
80.650166778653897
 21
223.41666552372965
  0
LINE
  8
_1-6_ばね
  6
CENTER2
 62
    4
 10
83.983500111987226
 20
220.08333219039631
 11
77.316833445320555
 21
220.08333219039631
  0
CIRCLE
  8
_1-6_ばね
  6
CONTINUOUS
 62
    4
 10
80.650166778653897
 20
220.08333219039631
 40
1.5500000073166575
  0
LINE
  8
_1-6_ばね
  6
CONTINUOUS
 62
    4
 10
82.359008171695024
 20
218.37449079735512
 11
86.964008782414481
 21
222.97949140807464
  0
ARC
  8
_1-6_ばね
  6
CONTINUOUS
 62
    4
 10
87.576834659442852
 20
222.36666553104629
 40
0.8666666666666667
 50
90
 51
135.00000000000134
  0
LINE
  8
_1-6_ばね
  6
CONTINUOUS
 62
    4
 10
81.74618229466671
 20
218.98731667438349
 11
86.351182905386125
 21
223.59231728510295
  0
ARC
  8
_1-6_ばね
  6
CONTINUOUS
 62
    4
 10
87.57683465944281
 20
222.36666553104627
 40
1.7333333333333334
 50
90
 51
135
  0
LINE
  8
_1-6_ばね
  6
CENTER2
 62
    4
 10
82.052595233180867
 20
218.68090373586929
 11
86.657595843900367
 21
223.28590434658884
  0
ARC
  8
_1-6_ばね
  6
CENTER2
 62
    4
 10
87.576834659442881
 20
222.36666553104629
 40
1.2999999999999998
 50
90
 51
134.99999999999866
  0
ARC
  8
_1-6_ばね
  6
CONTINUOUS
 62
    4
 10
96.416833445320563
 20
222.36666553104627
 40
1.7333333333333334
 50
0
 51
90
  0
ARC
  8
_1-6_ばね
  6
CONTINUOUS
 62
    4
 10
96.41683344532052
 20
222.36666553104629
 40
0.8666666666666667
 50
0
 51
90
  0
ARC
  8
_1-6_ばね
  6
CENTER2
 62
    4
 10
96.416833445320563
 20
222.36666553104629
 40
1.2999999999999998
 50
0
 51
90
  0
LINE
  8
_1-6_ばね
  6
CONTINUOUS
 62
    4
 10
97.300166778653889
 20
220.09999886437961
 11
98.133500111987217
 21
220.09999886437961
  0
LINE
  8
_1-6_ばね
  6
CONTINUOUS
 62
    4
 10
97.283500111987237
 20
220.09999886437961
 11
97.283500111987237
 21
222.36666553104629
  0
LINE
  8
_1-6_ばね
  6
CENTER2
 62
    4
 10
97.71683344532056
 20
220.09999886437961
 11
97.71683344532056
 21
222.36666553104629
  0
LINE
  8
_1-6_ばね
  6
CONTINUOUS
 62
    4
 10
98.150166778653869
 20
220.09999886437961
 11
98.150166778653869
 21
222.36666553104627
  0
LINE
  8
_1-6_ばね
  6
CONTINUOUS
 62
    4
 10
87.57683465944281
 20
224.09999886437961
 11
96.416833445320563
 21
224.09999886437961
  0
LINE
  8
_1-6_ばね
  6
CENTER2
 62
    4
 10
87.576834659442881
 20
223.66666553104631
 11
96.416833445320563
 21
223.66666553104631
  0
LINE
  8
_1-6_ばね
  6
CONTINUOUS
 62
    4
 10
87.576834659442852
 20
223.23333219771297
 11
96.416833445320563
 21
223.23333219771297
  0
ARC
  8
_1-6_ばね
  6
CONTINUOUS
 62
    4
 10
80.650166778653897
 20
220.08333219039631
 40
2.416666673983324
 50
5.1052516629133402
 51
315.00000000000023
  0
ARC
  8
_1-6_ばね
  6
CENTER2
 62
    4
 10
80.650166778653897
 20
220.08333219039631
 40
1.9833333406499909
 50
353.60072244347793
 51
314.99999999999943
  0
LINE
  8
_1-6_ばね
  6
CONTINUOUS
 62
    4
 10
95.200779766711733
 20
217.6839199226072
 11
93.971062310543189
 21
220.0387656024314
  0
LINE
  8
_1-6_ばね
  6
CENTER2
 62
    4
 10
94.816666765133675
 20
217.48333333333349
 11
93.586949308965103
 21
219.83817901315766
  0
ARC
  8
_1-6_ばね
  6
CONTINUOUS
 62
    4
 10
92.434610304230858
 20
219.23641924533661
 40
1.7333333333333334
 50
27.573889345971168
 51
82.573889345971807
  0
ARC
  8
_1-6_ばね
  6
CONTINUOUS
 62
    4
 10
92.434610304230901
 20
219.23641924533661
 40
0.8666666666666667
 50
27.573889345973267
 51
82.573889345969945
  0
ARC
  8
_1-6_ばね
  6
CENTER2
 62
    4
 10
92.434610304230887
 20
219.23641924533652
 40
1.2999999999999998
 50
27.573889345974663
 51
82.573889345971963
  0
LINE
  8
_1-6_ばね
  6
CONTINUOUS
 62
    4
 10
94.432553763555603
 20
217.28274674405981
 11
93.202836307387059
 21
219.63759242388403
  0
ARC
  8
_1-6_ばね
  6
CONTINUOUS
 62
    4
 10
94.816666761167156
 20
217.48333218307965
 40
0.4333333333333333
 50
207.57375477576656
 51
27.574023915840943
  0
LINE
  8
_1-6_ばね
  6
CONTINUOUS
 62
    4
 10
84.74548600888933
 20
221.98662038860613
 11
80.962510679753393
 21
222.4796962497104
  0
LINE
  8
_1-6_ばね
  6
CONTINUOUS
 62
    4
 10
92.658639311993852
 20
220.9552140114809
 11
85.829806598477049
 21
221.84528922413722
  0
LINE
  8
_1-6_ばね
  6
CENTER2
 62
    4
 10
92.602632060053111
 20
220.52551531994482
 11
85.44319865122074
 21
221.45868127688087
  0
LINE
  8
_1-6_ばね
  6
CENTER2
 62
    4
 10
84.358878061633007
 20
221.60001244134983
 11
82.275789294891212
 21
221.87152380424641
  0
LINE
  8
_1-6_ばね
  6
CONTINUOUS
 62
    4
 10
83.97227011437667
 20
221.21340449409348
 11
82.689096157031628
 21
221.38065435667954
  0
LINE
  8
_1-6_ばね
  6
CONTINUOUS
 62
    4
 10
92.546624808112384
 20
220.09581662840881
 11
85.056590703964417
 21
221.07207332962452
  0
ARC
  8
_1-6_ばね
  6
CONTINUOUS
 62
    4
 10
294.48333333333369
 20
219.8500040032915
 40
0.4333333333333333
 50
156.96099060802763
 51
336.96099060802464
  0
INSERT
  2
-015-_15_
  8
_1-7_カバ__
 10
210
 20
148.5
 41
1
 42
1
 50
0
  0
INSERT
  2
-016-_16_
  8
_1-8_小物
 10
210
 20
148.5
 41
1
 42
1
 50
0
  0
INSERT
  2
-017-_17_
  8
_1-8_小物
 10
210
 20
148.5
 41
1
 42
1
 50
0
  0
INSERT
  2
-018-_18_
  8
_1-8_小物
 10
210
 20
148.5
 41
1
 42
1
 50
0
  0
TEXT
  8
_0-0_図面枠
 62
    4
 10
104.06667966666673
 20
78.000009500000004
 40
3.2000000000000002
 41
1
 50
0
  1
皿(Ｄ６)４×１６
  0
TEXT
  8
_0-0_図面枠
 62
    4
 10
50.400007500000015
 20
41.400003999999967
 40
3.2000000000000002
 41
1
 50
0
  1
ジョイントプレート
  0
TEXT
  8
_0-0_図面枠
 62
    4
 10
250.400013
 20
41.400003999999996
 40
3.2000000000000002
 41
1
 50
0
  1
ジョイントプレート
  0
TEXT
  8
_0-0_図面枠
 62
    4
 10
304.06667966666674
 20
78.000009500000004
 40
3.2000000000000002
 41
1
 50
0
  1
皿(Ｄ６)４×１６
  0
LINE
  8
_1-f_寸法
  6
CONTINUOUS
 62
    4
 10
151.6666666666666
 20
224.66666666666663
 11
158.26666666666657
 21
224.66666666666663
  0
LINE
  8
_1-f_寸法
  6
CONTINUOUS
 62
    4
 10
151.6666666666666
 20
216.66666666666666
 11
158.26666666666657
 21
216.66666666666666
  0
POINT
  8
_1-f_寸法
 62
    4
 10
156.66666666666657
 20
216.66666666666666
  0
POINT
  8
_1-f_寸法
 62
    4
 10
156.66666666666657
 20
224.66666666666663
  0
LINE
  8
_1-f_寸法
  6
CONTINUOUS
 62
    4
 10
156.66666666666657
 20
216.66666666666666
 11
156.66666666666657
 21
224.66666666666663
  0
TEXT
  8
_1-f_寸法
 62
    4
 10
156.66666666666657
 20
219.06666666666666
 40
3.2000000000000002
 41
1
 50
90
  1
24
  0
LINE
  8
_1-f_寸法
  6
CONTINUOUS
 62
    4
 10
301.33333333333337
 20
243.33333333333331
 11
301.33333333333337
 21
249.93333333333331
  0
LINE
  8
_1-f_寸法
  6
CONTINUOUS
 62
    4
 10
293.33333333333326
 20
243.33333333333331
 11
293.33333333333326
 21
249.93333333333331
  0
POINT
  8
_1-f_寸法
 62
    4
 10
293.33333333333326
 20
248.33333333333331
  0
POINT
  8
_1-f_寸法
 62
    4
 10
301.33333333333337
 20
248.33333333333331
  0
LINE
  8
_1-f_寸法
  6
CONTINUOUS
 62
    4
 10
293.33333333333326
 20
248.33333333333331
 11
301.33333333333337
 21
248.33333333333331
  0
TEXT
  8
_1-f_寸法
 62
    4
 10
295.73333333333335
 20
248.33333333333331
 40
3.2000000000000002
 41
1
 50
0
  1
24
  0
LINE
  8
_1-f_寸法
  6
CONTINUOUS
 62
    4
 10
346.3333333376998
 20
243.33333333333331
 11
346.3333333376998
 21
249.93333333333331
  0
POINT
  8
_1-f_寸法
 62
    4
 10
346.3333333376998
 20
248.33333333333331
  0
LINE
  8
_1-f_寸法
  6
CONTINUOUS
 62
    4
 10
301.33333333333337
 20
248.33333333333331
 11
346.3333333376998
 21
248.33333333333331
  0
TEXT
  8
_1-f_寸法
 62
    4
 10
321.43333333551652
 20
248.33333333333331
 40
3.2000000000000002
 41
1
 50
0
  1
135
  0
LINE
  8
_1-f_寸法
  6
CONTINUOUS
 62
    4
 10
346.3333333376998
 20
243.33333333333331
 11
346.3333333376998
 21
254.93333333333331
  0
LINE
  8
_1-f_寸法
  6
CONTINUOUS
 62
    4
 10
293.33333333333331
 20
243.33333333333331
 11
293.33333333333331
 21
254.93333333333331
  0
POINT
  8
_1-f_寸法
 62
    4
 10
293.33333333333331
 20
253.33333333333331
  0
POINT
  8
_1-f_寸法
 62
    4
 10
346.3333333376998
 20
253.33333333333331
  0
LINE
  8
_1-f_寸法
  6
CONTINUOUS
 62
    4
 10
293.33333333333331
 20
253.33333333333331
 11
346.3333333376998
 21
253.33333333333331
  0
TEXT
  8
_1-f_寸法
 62
    4
 10
317.43333333551652
 20
253.33333333333331
 40
3.2000000000000002
 41
1
 50
0
  1
159
  0
LINE
  8
_1-f_寸法
  6
CONTINUOUS
 62
    4
 10
346.33333333333331
 20
243.33333333333331
 11
346.33333333333331
 21
226.66666666666666
  0
LINE
  8
_1-0_躯体
  6
CENTER2
 62
    4
 10
296.40512729410659
 20
228.00000400329159
 11
276.66666666666663
 21
228.00000400329159
  0
INSERT
  2
-019-_19_
  8
_1-8_小物
 10
210
 20
148.5
 41
1
 42
1
 50
0
  0
INSERT
  2
-020-_20_
  8
_1-4_フレ__ム
 10
210
 20
148.5
 41
1
 42
1
 50
0
  0
INSERT
  2
-021-_21_
  8
_1-8_小物
 10
210
 20
148.5
 41
1
 42
1
 50
0
  0
INSERT
  2
-022-_22_
  8
_1-8_小物
 10
210
 20
148.5
 41
1
 42
1
 50
0
  0
INSERT
  2
-023-_23_
  8
_1-5_ア__ム
 10
210
 20
148.5
 41
1
 42
1
 50
0
  0
LINE
  8
_1-6_ばね
  6
CENTER2
 62
    4
 10
298.41666666448344
 20
237.16667066995825
 11
298.41666666448344
 21
230.50000400329159
  0
LINE
  8
_1-6_ばね
  6
CENTER2
 62
    4
 10
301.7499999978167
 20
233.83333733662494
 11
295.08333333115007
 21
233.83333733662494
  0
CIRCLE
  8
_1-6_ばね
  6
CONTINUOUS
 62
    4
 10
298.41666666448344
 20
233.83333733662494
 40
1.5500000021829385
  0
ARC
  8
_1-6_ばね
  6
CONTINUOUS
 62
    4
 10
309.70433972989935
 20
222.36666669993363
 40
0.8666666666666667
 50
90
 51
120.49335808176116
  0
ARC
  8
_1-6_ばね
  6
CONTINUOUS
 62
    4
 10
305.99566027009877
 20
223.20000005588361
 40
0.8666666666666667
 50
270
 51
300.49335808176113
  0
LINE
  8
_1-6_ばね
  6
CONTINUOUS
 62
    4
 10
305.99566027009877
 20
221.46666672255026
 11
300.98333333333215
 21
221.46666672255026
  0
LINE
  8
_1-6_ばね
  6
CONTINUOUS
 62
    4
 10
309.26455971682964
 20
223.1134629581029
 11
306.87522029623807
 21
221.70640753954515
  0
ARC
  8
_1-6_ばね
  6
CONTINUOUS
 62
    4
 10
305.99566027009877
 20
223.20000005588361
 40
1.7333333333333334
 50
270
 51
300.49335808175488
  0
ARC
  8
_1-6_ばね
  6
CONTINUOUS
 62
    4
 10
309.70433972989923
 20
222.3666666999336
 40
1.7333333333333334
 50
90
 51
120.49335808175535
  0
ARC
  8
_1-6_ばね
  6
CENTER2
 62
    4
 10
305.99566027009888
 20
223.20000005588352
 40
1.2999999999999998
 50
270
 51
300.49335808175238
  0
ARC
  8
_1-6_ばね
  6
CENTER2
 62
    4
 10
309.70433972989923
 20
222.36666669993355
 40
1.2999999999999998
 50
90
 51
120.49335808175448
  0
ARC
  8
_1-6_ばね
  6
CONTINUOUS
 62
    4
 10
300.9833333333325
 20
223.20000005588361
 40
0.8666666666666667
 50
180
 51
270
  0
ARC
  8
_1-6_ばね
  6
CONTINUOUS
 62
    4
 10
300.98333333333215
 20
223.20000005588361
 40
1.7333333333333334
 50
180
 51
270
  0
ARC
  8
_1-6_ばね
  6
CENTER2
 62
    4
 10
300.9833333333325
 20
223.20000005588352
 40
1.2999999999999998
 50
180
 51
270
  0
ARC
  8
_1-6_ばね
  6
CONTINUOUS
 62
    4
 10
314.0499999999991
 20
222.36666669993363
 40
0.8666666666666667
 50
0
 51
90
  0
LINE
  8
_1-6_ばね
  6
CONTINUOUS
 62
    4
 10
314.91666666666572
 20
221.56666669993371
 11
314.91666666666572
 21
222.36666669993366
  0
LINE
  8
_1-6_ばね
  6
CONTINUOUS
 62
    4
 10
315.78333333333251
 20
221.56666669993371
 11
315.78333333333251
 21
222.3666666999336
  0
ARC
  8
_1-6_ばね
  6
CONTINUOUS
 62
    4
 10
314.04999999999922
 20
222.3666666999336
 40
1.7333333333333334
 50
0
 51
90
  0
ARC
  8
_1-6_ばね
  6
CENTER2
 62
    4
 10
314.0499999999991
 20
222.36666669993355
 40
1.2999999999999998
 50
0
 51
90
  0
LINE
  8
_1-6_ばね
  6
CENTER2
 62
    4
 10
315.34999999999911
 20
221.56666669993371
 11
315.34999999999911
 21
222.36666669993355
  0
LINE
  8
_1-6_ばね
  6
CONTINUOUS
 62
    4
 10
318.52131268280993
 20
220.28992596140202
 11
320.56409786446056
 21
222.00402625389944
  0
LINE
  8
_1-6_ばね
  6
CONTINUOUS
 62
    4
 10
320.56409786446056
 20
222.00402625389944
 11
321.12118045952229
 21
221.34012106986296
  0
LINE
  8
_1-6_ばね
  6
CONTINUOUS
 62
    4
 10
319.07839527787161
 20
219.62602077736557
 11
321.12118045952229
 21
221.34012106986296
  0
LINE
  8
_1-6_ばね
  6
CENTER2
 62
    4
 10
318.7998539803408
 20
219.95797336938381
 11
320.84263916199143
 21
221.6720736618812
  0
ARC
  8
_1-6_ばね
  6
CONTINUOUS
 62
    4
 10
317.44999999999919
 20
221.56666669993365
 40
1.6666666666666665
 50
179.99999999999804
 51
309.99999999999829
  0
ARC
  8
_1-6_ばね
  6
CENTER2
 62
    4
 10
317.44999999999919
 20
221.56666669993365
 40
2.0999999999999996
 50
179.99999999999844
 51
309.99999999999733
  0
ARC
  8
_1-6_ばね
  6
CONTINUOUS
 62
    4
 10
317.44999999999919
 20
221.56666669993365
 40
2.5333333333333328
 50
179.99999999999872
 51
309.99999999999665
  0
LINE
  8
_1-6_ばね
  6
CONTINUOUS
 62
    4
 10
314.0499999999991
 20
223.23333336660031
 11
309.70433972989935
 21
223.23333336660031
  0
LINE
  8
_1-6_ばね
  6
CONTINUOUS
 62
    4
 10
314.04999999999922
 20
224.10000003326695
 11
309.70433972989923
 21
224.10000003326695
  0
LINE
  8
_1-6_ばね
  6
CENTER2
 62
    4
 10
305.99566027009888
 20
221.90000005588354
 11
300.9833333333325
 21
221.90000005588354
  0
LINE
  8
_1-6_ばね
  6
CONTINUOUS
 62
    4
 10
308.82477970375993
 20
223.860259216272
 11
306.43544028316848
 21
222.45320379771431
  0
LINE
  8
_1-6_ばね
  6
CONTINUOUS
 62
    4
 10
305.99566027009877
 20
222.33333338921693
 11
300.9833333333325
 21
222.33333338921693
  0
LINE
  8
_1-6_ばね
  6
CENTER2
 62
    4
 10
314.0499999999991
 20
223.66666669993356
 11
309.70433972989923
 21
223.66666669993356
  0
LINE
  8
_1-6_ばね
  6
CENTER2
 62
    4
 10
309.09919926624781
 20
223.51897293639308
 11
306.65533028970339
 21
222.07980566862972
  0
LINE
  8
_1-6_ばね
  6
CONTINUOUS
 62
    4
 10
296.43704922233013
 20
232.44719428085776
 11
299.0932651050494
 21
228.65372486247554
  0
LINE
  8
_1-6_ばね
  6
CONTINUOUS
 62
    4
 10
299.24999999999892
 20
228.1566252843046
 11
299.24999999999892
 21
223.20000005588361
  0
LINE
  8
_1-6_ばね
  6
CONTINUOUS
 62
    4
 10
297.14698099404717
 20
232.9442938590287
 11
299.80319687676678
 21
229.15082444064606
  0
LINE
  8
_1-6_ばね
  6
CONTINUOUS
 62
    4
 10
300.11666666666582
 20
228.15662528430425
 11
300.11666666666582
 21
223.20000005588361
  0
LINE
  8
_1-6_ばね
  6
CENTER2
 62
    4
 10
296.79201510818865
 20
232.69574406994323
 11
299.44823099090814
 21
228.90227465156073
  0
LINE
  8
_1-6_ばね
  6
CENTER2
 62
    4
 10
299.68333333333243
 20
228.15662528430437
 11
299.68333333333243
 21
223.20000005588352
  0
ARC
  8
_1-6_ばね
  6
CONTINUOUS
 62
    4
 10
298.38333333333225
 20
228.1566252843046
 40
0.8666666666666667
 50
0
 51
34.999999999998103
  0
ARC
  8
_1-6_ばね
  6
CONTINUOUS
 62
    4
 10
298.38333333333253
 20
228.15662528430425
 40
1.7333333333333334
 50
0
 51
35.00000000000103
  0
ARC
  8
_1-6_ばね
  6
CENTER2
 62
    4
 10
298.38333333333247
 20
228.15662528430437
 40
1.2999999999999998
 50
0
 51
35.000000000000568
  0
LINE
  8
_1-6_ばね
  6
CONTINUOUS
 62
    4
 10
294.08456326733926
 20
219.68625903112914
 11
298.34979114935828
 21
229.71551571036051
  0
LINE
  8
_1-6_ばね
  6
CENTER2
 62
    4
 10
294.48333333333369
 20
219.51667066995816
 11
298.64275112455698
 21
229.29712550572521
  0
LINE
  8
_1-6_ばね
  6
CONTINUOUS
 62
    4
 10
298.93571109975574
 20
228.87873530108993
 11
294.88210339932795
 21
219.34708230878726
  0
LINE
  8
_1-6_ばね
  6
CONTINUOUS
 62
    4
 10
300.6405766499222
 20
232.88755609077876
 11
299.33549097698227
 21
229.81877768916479
  0
LINE
  8
_1-6_ばね
  6
CENTER2
 62
    4
 10
299.04253100178357
 20
230.23716789380012
 11
299.70141157028144
 21
231.78645963745606
  0
LINE
  8
_1-6_ばね
  6
CONTINUOUS
 62
    4
 10
298.74957102658482
 20
230.65555809843536
 11
299.11741050058129
 21
231.52049582357233
  0
ARC
  8
_1-6_ばね
  6
CENTER2
 62
    4
 10
298.41666666448344
 20
233.83333733662494
 40
1.9833333355162719
 50
253.60072249540849
 51
215.00000000000173
  0
ARC
  8
_1-6_ばね
  6
CONTINUOUS
 62
    4
 10
298.41666666448344
 20
233.83333733662494
 40
2.4166666688496052
 50
265.10525171980134
 51
215.00000000000108
  0
INSERT
  2
-024-_24_
  8
_1-7_カバ__
 10
210
 20
148.5
 41
1
 42
1
 50
0
  0
INSERT
  2
-025-_25_
  8
_1-8_小物
 10
210
 20
148.5
 41
1
 42
1
 50
0
  0
INSERT
  2
-026-_26_
  8
_1-8_小物
 10
210
 20
148.5
 41
1
 42
1
 50
0
  0
INSERT
  2
-027-_27_
  8
_1-8_小物
 10
210
 20
148.5
 41
1
 42
1
 50
0
  0
LINE
  8
_1-f_寸法
  6
CONTINUOUS
 62
    4
 10
321.25370154788521
 20
227.23511089194312
 11
324.1666666688497
 21
224.68333335196672
  0
LINE
  8
_1-f_寸法
  6
CONTINUOUS
 62
    4
 10
276.66666666666663
 20
216.66666666666674
 11
270.06666666666706
 21
216.66666666666674
  0
LINE
  8
_1-f_寸法
  6
CONTINUOUS
 62
    4
 10
276.66666666666663
 20
228.00000400329159
 11
270.06666666666706
 21
228.00000400329159
  0
POINT
  8
_1-f_寸法
 62
    4
 10
271.66666666666708
 20
228.00000400329159
  0
POINT
  8
_1-f_寸法
 62
    4
 10
271.66666666666708
 20
216.66666666666674
  0
LINE
  8
_1-f_寸法
  6
CONTINUOUS
 62
    4
 10
271.66666666666708
 20
228.00000400329159
 11
271.66666666666708
 21
216.66666666666674
  0
TEXT
  8
_1-f_寸法
 62
    4
 10
271.66666666666708
 20
220.73333533497919
 40
3.2000000000000002
 41
1
 50
90
  1
34
  0
LINE
  8
_1-f_寸法
  6
CONTINUOUS
 62
    4
 10
351.66666666666663
 20
224.66666666666663
 11
358.26666666666665
 21
224.66666666666663
  0
LINE
  8
_1-f_寸法
  6
CONTINUOUS
 62
    4
 10
351.66666666666663
 20
216.66666666666666
 11
358.26666666666665
 21
216.66666666666666
  0
POINT
  8
_1-f_寸法
 62
    4
 10
356.66666666666663
 20
216.66666666666666
  0
POINT
  8
_1-f_寸法
 62
    4
 10
356.66666666666663
 20
224.66666666666663
  0
LINE
  8
_1-f_寸法
  6
CONTINUOUS
 62
    4
 10
356.66666666666663
 20
216.66666666666666
 11
356.66666666666663
 21
224.66666666666663
  0
TEXT
  8
_1-f_寸法
 62
    4
 10
356.66666666666663
 20
219.06666666666666
 40
3.2000000000000002
 41
1
 50
90
  1
24
  0
LINE
  8
_1-f_寸法
  6
CONTINUOUS
 62
    4
 10
351.66666666666663
 20
239.66666031374081
 11
358.26666666666665
 21
239.66666031374081
  0
POINT
  8
_1-f_寸法
 62
    4
 10
356.66666666666663
 20
239.66666031374081
  0
LINE
  8
_1-f_寸法
  6
CONTINUOUS
 62
    4
 10
356.66666666666663
 20
224.66666666666663
 11
356.66666666666663
 21
239.66666031374081
  0
TEXT
  8
_1-f_寸法
 62
    4
 10
356.66666666666663
 20
230.56666349020375
 40
3.2000000000000002
 41
1
 50
90
  1
45
  0
LINE
  8
_1-f_寸法
  6
CONTINUOUS
 62
    4
 10
356.66666666666663
 20
239.66666031374081
 11
364.93333333333328
 21
239.66666031374081
  0
LINE
  8
_1-f_寸法
  6
CONTINUOUS
 62
    4
 10
356.66666666666663
 20
216.66666666666666
 11
364.93333333333328
 21
216.66666666666666
  0
POINT
  8
_1-f_寸法
 62
    4
 10
363.33333333333331
 20
216.66666666666666
  0
POINT
  8
_1-f_寸法
 62
    4
 10
363.33333333333331
 20
239.66666031374081
  0
LINE
  8
_1-f_寸法
  6
CONTINUOUS
 62
    4
 10
363.33333333333331
 20
216.66666666666666
 11
363.33333333333331
 21
239.66666031374081
  0
TEXT
  8
_1-f_寸法
 62
    4
 10
363.33333333333331
 20
226.56666349020375
 40
3.2000000000000002
 41
1
 50
90
  1
69
  0
LINE
  8
_1-f_寸法
  6
CONTINUOUS
 62
    4
 10
351.66666666666663
 20
239.66666666666666
 11
303.33333333333331
 21
239.66666666666666
  0
TEXT
  8
_0-0_図面枠
 62
    4
 10
50.400007500000015
 20
107.40000399999997
 40
3.2000000000000002
 41
1
 50
0
  1
ＵＵＧキャップ(Ｂ)Ａ
  0
TEXT
  8
_0-0_図面枠
 62
    4
 10
250.4000075000001
 20
107.40000399999997
 40
3.2000000000000002
 41
1
 50
0
  1
ＵＣＧキャップ(Ｂ)Ａ
  0
TEXT
  8
_0-0_図面枠
 62
    4
 10
179.00512500000002
 20
53.40000950000001
 40
3.2000000000000002
 41
1
 50
0
  1
本
  0
TEXT
  8
_0-0_図面枠
 62
    4
 10
171.36022149999991
 20
47.450002999999924
 40
3.2000000000000002
 41
1
 50
0
  1
６
  0
TEXT
  8
_0-0_図面枠
 62
    4
 10
179.00512500000002
 20
47.399992499999996
 40
3.2000000000000002
 41
1
 50
0
  1
個
  0
TEXT
  8
_0-0_図面枠
 62
    4
 10
379.00512500000002
 20
47.399992499999996
 40
3.2000000000000002
 41
1
 50
0
  1
個
  0
TEXT
  8
_0-0_図面枠
 62
    4
 10
50.400007499999987
 20
59.400003999999967
 40
3.2000000000000002
 41
1
 50
0
  1
アンカープラグ
  0
TEXT
  8
_0-0_図面枠
 62
    4
 10
250.40000749999999
 20
59.400003999999967
 40
3.2000000000000002
 41
1
 50
0
  1
アンカープラグ
  0
LINE
  8
_1-0_躯体
  6
CENTER2
 62
    4
 10
110
 20
226.83333333333337
 11
110
 21
193.33333333333329
  0
LINE
  8
_1-0_躯体
  6
CONTINUOUS
 62
    6
 10
293.33333333333326
 20
241.66666666666666
 11
293.33333333333326
 21
193.33333333333331
  0
LINE
  8
_1-0_躯体
  6
CONTINUOUS
 62
    6
 10
326.66666666666657
 20
216.66666666666666
 11
326.66666666666657
 21
193.33333333333331
  0
LINE
  8
_1-0_躯体
  6
CENTER2
 62
    4
 10
310
 20
241.66666666666666
 11
310
 21
193.33333333333331
  0
LINE
  8
_1-0_躯体
  6
CONTINUOUS
 62
    6
 10
93.333333333333329
 20
216.66666666666666
 11
93.333333333333329
 21
193.33333333333331
  0
LINE
  8
_1-0_躯体
  6
CONTINUOUS
 62
    6
 10
126.66666666666666
 20
216.66666666666666
 11
126.66666666666666
 21
193.33333333333331
  0
LINE
  8
_1-f_寸法
  6
CONTINUOUS
 62
    4
 10
326.66666666666657
 20
190
 11
326.66666666666657
 21
183.40000000000001
  0
LINE
  8
_1-f_寸法
  6
CONTINUOUS
 62
    4
 10
293.33333333333331
 20
190
 11
293.33333333333331
 21
183.40000000000001
  0
POINT
  8
_1-f_寸法
 62
    4
 10
293.33333333333331
 20
185
  0
POINT
  8
_1-f_寸法
 62
    4
 10
326.66666666666657
 20
185
  0
LINE
  8
_1-f_寸法
  6
CONTINUOUS
 62
    4
 10
293.33333333333331
 20
185
 11
326.66666666666657
 21
185
  0
TEXT
  8
_1-f_寸法
 62
    4
 10
307.59999999999991
 20
185
 40
3.2000000000000002
 41
1
 50
0
  1
100
  0
LINE
  8
_1-f_寸法
  6
CONTINUOUS
 62
    4
 10
126.66666666666663
 20
190
 11
126.66666666666663
 21
183.40000000000001
  0
LINE
  8
_1-f_寸法
  6
CONTINUOUS
 62
    4
 10
93.333333333333371
 20
190
 11
93.333333333333371
 21
183.40000000000001
  0
POINT
  8
_1-f_寸法
 62
    4
 10
93.333333333333371
 20
185
  0
POINT
  8
_1-f_寸法
 62
    4
 10
126.66666666666663
 20
185
  0
LINE
  8
_1-f_寸法
  6
CONTINUOUS
 62
    4
 10
93.333333333333371
 20
185
 11
126.66666666666663
 21
185
  0
TEXT
  8
_1-f_寸法
 62
    4
 10
107.59999999999999
 20
185
 40
3.2000000000000002
 41
1
 50
0
  1
100
  0
LINE
  8
_0-0_図面枠
  6
CONTINUOUS
 62
    2
 10
165.00000000000003
 20
246.99999999999994
 11
210.00000000000003
 21
246.99999999999994
  0
LINE
  8
_0-0_図面枠
  6
CONTINUOUS
 62
    2
 10
165.00000000000003
 20
246.99999999999994
 11
165.00000000000003
 21
287
  0
INSERT
  2
-028-_28_
  8
_0-0_図面枠
 10
210
 20
148.5
 41
1
 42
1
 50
0
  0
LINE
  8
_0-0_図面枠
  6
CONTINUOUS
 62
    2
 10
178.99460475445105
 20
263.11505807960714
 11
181.1596682639121
 21
261.86505807960714
  0
LINE
  8
_0-0_図面枠
  6
CONTINUOUS
 62
    2
 10
181.1596682639121
 20
261.86505807960714
 11
195.88210012824757
 21
270.36505807960714
  0
LINE
  8
_0-0_図面枠
  6
CONTINUOUS
 62
    2
 10
195.88210012824757
 20
270.36505807960714
 11
193.71703661878647
 21
271.61505807960714
  0
LINE
  8
_0-0_図面枠
  6
CONTINUOUS
 62
    2
 10
181.1596682639121
 20
261.86505807960714
 11
181.1596682639121
 21
251.86505807960714
  0
LINE
  8
_0-0_図面枠
  6
CONTINUOUS
 62
    2
 10
178.99460475445105
 20
263.11505807960714
 11
178.99460475445105
 21
253.11505807960714
  0
LINE
  8
_0-0_図面枠
  6
CONTINUOUS
 62
    2
 10
195.88210012824757
 20
270.36505807960714
 11
195.88210012824757
 21
270.18409224854935
  0
LINE
  8
_0-0_図面枠
  6
CONTINUOUS
 62
    2
 10
195.88210012824757
 20
268.01364867294285
 11
195.88210012824757
 21
260.36505807960714
  0
LINE
  8
_0-0_図面枠
  6
CONTINUOUS
 62
    2
 10
193.71703661878647
 20
271.61505807960714
 11
193.71703661878647
 21
271.52033947808678
  0
LINE
  8
_0-0_図面枠
  6
CONTINUOUS
 62
    2
 10
193.71703661878647
 20
270.73757885370628
 11
193.71703661878647
 21
269.11505807960714
  0
LINE
  8
_0-0_図面枠
  6
CONTINUOUS
 62
    3
 10
184.19075717715768
 20
266.11505807960714
 11
184.19075717715768
 21
263.61505807960714
  0
LINE
  8
_0-0_図面枠
  6
CONTINUOUS
 62
    3
 10
188.52088419607989
 20
268.61505807960714
 11
188.52088419607989
 21
266.11505807960714
  0
LINE
  8
_0-0_図面枠
  6
CONTINUOUS
 62
    3
 10
184.19075717715768
 20
266.11505807960714
 11
178.99460475445105
 21
263.11505807960714
  0
LINE
  8
_0-0_図面枠
  6
CONTINUOUS
 62
    3
 10
188.52088419607989
 20
268.61505807960714
 11
184.19075717715774
 21
271.11505807960714
  0
LINE
  8
_0-0_図面枠
  6
CONTINUOUS
 62
    3
 10
184.19075717715768
 20
266.11505807960714
 11
179.86063015823552
 21
268.61505807960714
  0
LINE
  8
_0-0_図面枠
  6
CONTINUOUS
 62
    3
 10
178.99460475445105
 20
263.11505807960714
 11
175.53050313931331
 21
261.11505807960714
  0
LINE
  8
_0-0_図面枠
  6
CONTINUOUS
 62
    3
 10
193.71703661878647
 20
271.61505807960714
 11
197.18113823392426
 21
273.61505807960714
  0
LINE
  8
_0-0_図面枠
  6
CONTINUOUS
 62
    3
 10
193.71703661878647
 20
271.61505807960714
 11
193.68236424150385
 21
271.59503997324953
  0
LINE
  8
_0-0_図面枠
  6
CONTINUOUS
 62
    3
 10
192.51835025799224
 20
270.92299618652862
 11
188.52088419607989
 21
268.61505807960714
  0
TEXT
  8
_0-0_図面枠
 62
    4
 10
173.22269212770598
 20
280.88494192039275
 40
2.5
 41
1
 50
0
  1
-50
  0
TEXT
  8
_0-0_図面枠
 62
    4
 10
195.7385458179771
 20
280.88494192039269
 40
2.5
 41
1
 50
0
  1
+50
  0
TEXT
  8
_0-0_図面枠
 62
    4
 10
195.73854581797704
 20
267.88540773128045
 40
2.5
 41
1
 50
0
  1
+50
  0
TEXT
  8
_0-0_図面枠
 62
    4
 10
173.22228872183663
 20
267.88610650082211
 40
2.5
 41
1
 50
0
  1
-50
  0
LINE
  8
_0-0_図面枠
  6
CONTINUOUS
 62
    2
 10
365.00000000000006
 20
247
 11
410.00000000000006
 21
247
  0
LINE
  8
_0-0_図面枠
  6
CONTINUOUS
 62
    2
 10
365.00000000000006
 20
247.00000000000006
 11
365.00000000000006
 21
287.00000000000006
  0
INSERT
  2
-029-_29_
  8
_0-0_図面枠
 10
210
 20
148.5
 41
1
 42
1
 50
0
  0
LINE
  8
_0-0_図面枠
  6
CONTINUOUS
 62
    4
 10
392.70254983187715
 20
272.37647457958172
 11
392.66787745459447
 21
272.35645647322411
  0
LINE
  8
_0-0_図面枠
  6
CONTINUOUS
 62
    2
 10
377.98011796754173
 20
263.87647457958172
 11
380.14518147700278
 21
262.62647457958172
  0
LINE
  8
_0-0_図面枠
  6
CONTINUOUS
 62
    2
 10
380.14518147700278
 20
262.62647457958172
 11
380.14518147700278
 21
252.62647457958172
  0
LINE
  8
_0-0_図面枠
  6
CONTINUOUS
 62
    2
 10
377.98011796754173
 20
263.87647457958172
 11
377.98011796754173
 21
253.87647457958172
  0
LINE
  8
_0-0_図面枠
  6
CONTINUOUS
 62
    2
 10
387.50639740917057
 20
266.87647457958167
 11
390.97049902430831
 21
264.87647457958167
  0
LINE
  8
_0-0_図面枠
  6
CONTINUOUS
 62
    2
 10
390.97049902430831
 20
264.87647457958167
 11
393.13556253376942
 21
266.12647457958167
  0
LINE
  8
_0-0_図面枠
  6
CONTINUOUS
 62
    2
 10
380.14518147700278
 20
262.62647457958172
 11
387.50639740917046
 21
266.87647457958172
  0
LINE
  8
_0-0_図面枠
  6
CONTINUOUS
 62
    2
 10
390.97049902430831
 20
264.87647457958167
 11
390.97049902430831
 21
254.87647457958167
  0
LINE
  8
_0-0_図面枠
  6
CONTINUOUS
 62
    2
 10
393.13556253376942
 20
266.12647457958167
 11
393.13556253376942
 21
256.12647457958167
  0
LINE
  8
_0-0_図面枠
  6
CONTINUOUS
 62
    3
 10
377.98011796754173
 20
263.87647457958172
 11
374.51601635240394
 21
261.87647457958172
  0
LINE
  8
_0-0_図面枠
  6
CONTINUOUS
 62
    3
 10
383.17627039024836
 20
266.87647457958172
 11
383.17627039024836
 21
264.37647457958172
  0
LINE
  8
_0-0_図面枠
  6
CONTINUOUS
 62
    3
 10
383.17627039024836
 20
266.87647457958172
 11
377.98011796754173
 21
263.87647457958172
  0
LINE
  8
_0-0_図面枠
  6
CONTINUOUS
 62
    3
 10
396.16665144701494
 20
264.37647457958172
 11
383.17627039024836
 21
271.87647457958172
  0
LINE
  8
_0-0_図面枠
  6
CONTINUOUS
 62
    3
 10
396.16665144701494
 20
264.37647457958172
 11
400.4967784659371
 21
266.87647457958172
  0
LINE
  8
_0-0_図面枠
  6
CONTINUOUS
 62
    3
 10
396.16665144701494
 20
264.37647457958167
 11
396.16665144701494
 21
254.37647457958167
  0
LINE
  8
_0-0_図面枠
  6
CONTINUOUS
 62
    3
 10
383.17627039024836
 20
266.87647457958172
 11
378.84614337132615
 21
269.37647457958172
  0
TEXT
  8
_0-0_図面枠
 62
    4
 10
372.20780191324206
 20
281.64635842036733
 40
2.5
 41
1
 50
0
  1
-50
  0
TEXT
  8
_0-0_図面枠
 62
    4
 10
394.72365560351318
 20
281.64635842036728
 40
2.5
 41
1
 50
0
  1
+50
  0
TEXT
  8
_0-0_図面枠
 62
    4
 10
394.72365560351318
 20
268.64682423125504
 40
2.5
 41
1
 50
0
  1
+50
  0
TEXT
  8
_0-0_図面枠
 62
    4
 10
372.20739850737277
 20
268.6475230007967
 40
2.5
 41
1
 50
0
  1
-50
  0
ENDSEC
  0
EOF
